  0
SECTION
  2
HEADER
  9
$ACADVER
  1
AC1015
  9
$ACADMAINTVER
 70
     6
  9
$DWGCODEPAGE
  3
ANSI_932
  9
$INSBASE
 10
0.0
 20
0.0
 30
0.0
  9
$EXTMIN
 10
1.000000E+20
 20
1.000000E+20
 30
1.000000E+20
  9
$EXTMAX
 10
-1.000000E+20
 20
-1.000000E+20
 30
-1.000000E+20
  9
$LIMMIN
 10
0.0
 20
0.0
  9
$LIMMAX
 10
0.0
 20
0.0
  9
$ORTHOMODE
 70
     0
  9
$REGENMODE
 70
     1
  9
$FILLMODE
 70
     1
  9
$QTEXTMODE
 70
     0
  9
$MIRRTEXT
 70
     1
  9
$LTSCALE
 40
1.0
  9
$ATTMODE
 70
     1
  9
$TEXTSIZE
 40
7.0
  9
$TRACEWID
 40
0.05
  9
$TEXTSTYLE
  7
Standard
  9
$CLAYER
  8
0
  9
$CELTYPE
  6
Continuous
  9
$CECOLOR
 62
   256
  9
$CELTSCALE
 40
1.0
  9
$DISPSILH
 70
     0
  9
$DIMSCALE
 40
1.0
  9
$DIMASZ
 40
1.931852
  9
$DIMEXO
 40
1.0
  9
$DIMDLI
 40
0.38
  9
$DIMRND
 40
0.0
  9
$DIMDLE
 40
0.0
  9
$DIMEXE
 40
2.0
  9
$DIMTP
 40
0.0
  9
$DIMTM
 40
0.0
  9
$DIMTXT
 40
2.8
  9
$DIMCEN
 40
0.09
  9
$DIMTSZ
 40
0.0
  9
$DIMTOL
 70
     0
  9
$DIMLIM
 70
     0
  9
$DIMTIH
 70
     1
  9
$DIMTOH
 70
     1
  9
$DIMSE1
 70
     0
  9
$DIMSE2
 70
     0
  9
$DIMTAD
 70
     1
  9
$DIMZIN
 70
     0
  9
$DIMBLK
  1

  9
$DIMASO
 70
     1
  9
$DIMSHO
 70
     1
  9
$DIMPOST
  1

  9
$DIMAPOST
  1

  9
$DIMALT
 70
     0
  9
$DIMALTD
 70
     2
  9
$DIMALTF
 40
25.4
  9
$DIMLFAC
 40
1.0
  9
$DIMTOFL
 70
     0
  9
$DIMTVP
 40
0.0
  9
$DIMTIX
 70
     0
  9
$DIMSOXD
 70
     0
  9
$DIMSAH
 70
     0
  9
$DIMBLK1
  1

  9
$DIMBLK2
  1

  9
$DIMSTYLE
  2
Standard
  9
$DIMCLRD
 70
     0
  9
$DIMCLRE
 70
     0
  9
$DIMCLRT
 70
     0
  9
$DIMTFAC
 40
0.714286
  9
$DIMGAP
 40
0.09
  9
$DIMJUST
 70
     0
  9
$DIMSD1
 70
     0
  9
$DIMSD2
 70
     0
  9
$DIMTOLJ
 70
     1
  9
$DIMTZIN
 70
     0
  9
$DIMALTZ
 70
     0
  9
$DIMALTTZ
 70
     0
  9
$DIMUPT
 70
     0
  9
$DIMDEC
 70
     4
  9
$DIMTDEC
 70
     4
  9
$DIMALTU
 70
     2
  9
$DIMALTTD
 70
     2
  9
$DIMTXSTY
  7
Standard
  9
$DIMAUNIT
 70
     0
  9
$DIMADEC
 70
     0
  9
$DIMALTRND
 40
0.0
  9
$DIMAZIN
 70
     0
  9
$DIMDSEP
 70
     0
  9
$DIMATFIT
 70
     3
  9
$DIMFRAC
 70
     0
  9
$DIMLDRBLK
  1

  9
$DIMLUNIT
 70
     2
  9
$DIMLWD
 70
     0
  9
$DIMLWE
 70
     0
  9
$DIMTMOVE
 70
     0
  9
$LUNITS
 70
     2
  9
$LUPREC
 70
     3
  9
$SKETCHINC
 40
0.1
  9
$FILLETRAD
 40
0.0
  9
$AUNITS
 70
     0
  9
$AUPREC
 70
     0
  9
$MENU
  1
acad
  9
$ELEVATION
 40
0.0
  9
$PELEVATION
 40
0.0
  9
$THICKNESS
 40
0.0
  9
$LIMCHECK
 70
     0
  9
$CHAMFERA
 40
0.0
  9
$CHAMFERB
 40
0.0
  9
$CHAMFERC
 40
0.0
  9
$CHAMFERD
 40
0.0
  9
$SKPOLY
 70
     0
  9
$TDCREATE
 40
0.000000000
  9
$TDUCREATE
 40
0.000000000
  9
$TDUPDATE
 40
0.000000000
  9
$TDUUPDATE
 40
0.000000000
  9
$TDINDWG
 40
0.0000000000
  9
$TDUSRTIMER
 40
0.0000000000
  9
$USRTIMER
 70
     1
  9
$ANGBASE
 50
0.0
  9
$ANGDIR
 70
     0
  9
$PDMODE
 70
     0
  9
$PDSIZE
 40
0.0
  9
$PLINEWID
 40
0.0
  9
$SPLFRAME
 70
     0
  9
$SPLINETYPE
 70
     6
  9
$SPLINESEGS
 70
     8
  9
$HANDSEED
  5
48A
  9
$SURFTAB1
 70
     6
  9
$SURFTAB2
 70
     6
  9
$SURFTYPE
 70
     6
  9
$SURFU
 70
     6
  9
$SURFV
 70
     6
  9
$UCSBASE
  2

  9
$UCSNAME
  2

  9
$UCSORG
 10
0.0
 20
0.0
 30
0.0
  9
$UCSXDIR
 10
1.0
 20
0.0
 30
0.0
  9
$UCSYDIR
 10
0.0
 20
1.0
 30
0.0
  9
$UCSORTHOREF
  2

  9
$UCSORTHOVIEW
 70
     0
  9
$UCSORGTOP
 10
0.0
 20
0.0
 30
0.0
  9
$UCSORGBOTTOM
 10
0.0
 20
0.0
 30
0.0
  9
$UCSORGLEFT
 10
0.0
 20
0.0
 30
0.0
  9
$UCSORGRIGHT
 10
0.0
 20
0.0
 30
0.0
  9
$UCSORGFRONT
 10
0.0
 20
0.0
 30
0.0
  9
$UCSORGBACK
 10
0.0
 20
0.0
 30
0.0
  9
$PUCSBASE
  2

  9
$PUCSNAME
  2

  9
$PUCSORG
 10
0.0
 20
0.0
 30
0.0
  9
$PUCSXDIR
 10
1.0
 20
0.0
 30
0.0
  9
$PUCSYDIR
 10
0.0
 20
1.0
 30
0.0
  9
$PUCSORTHOREF
  2

  9
$PUCSORTHOVIEW
 70
     0
  9
$PUCSORGTOP
 10
0.0
 20
0.0
 30
0.0
  9
$PUCSORGBOTTOM
 10
0.0
 20
0.0
 30
0.0
  9
$PUCSORGLEFT
 10
0.0
 20
0.0
 30
0.0
  9
$PUCSORGRIGHT
 10
0.0
 20
0.0
 30
0.0
  9
$PUCSORGFRONT
 10
0.0
 20
0.0
 30
0.0
  9
$PUCSORGBACK
 10
0.0
 20
0.0
 30
0.0
  9
$USERI1
 70
     0
  9
$USERI2
 70
     0
  9
$USERI3
 70
     0
  9
$USERI4
 70
     0
  9
$USERI5
 70
     0
  9
$USERR1
 40
0.0
  9
$USERR2
 40
0.0
  9
$USERR3
 40
0.0
  9
$USERR4
 40
0.0
  9
$USERR5
 40
0.0
  9
$WORLDVIEW
 70
     1
  9
$SHADEDGE
 70
     3
  9
$SHADEDIF
 70
    70
  9
$TILEMODE
 70
     1
  9
$MAXACTVP
 70
    16
  9
$PINSBASE
 10
0.0
 20
0.0
 30
0.0
  9
$PLIMCHECK
 70
     0
  9
$PEXTMIN
 10
1.000000E+20
 20
1.000000E+20
 30
1.000000E+20
  9
$PEXTMAX
 10
-1.000000E+20
 20
-1.000000E+20
 30
-1.000000E+20
  9
$PLIMMIN
 10
0.0
 20
0.0
  9
$PLIMMAX
 10
12.0
 20
9.0
  9
$UNITMODE
 70
     0
  9
$VISRETAIN
 70
     0
  9
$PLINEGEN
 70
     1
  9
$PSLTSCALE
 70
     0
  9
$TREEDEPTH
 70
  3020
  9
$CMLSTYLE
  2
Standard
  9
$CMLJUST
 70
     0
  9
$CMLSCALE
 40
1.0
  9
$PROXYGRAPHICS
 70
     0
  9
$MEASUREMENT
 70
     0
  9
$CELWEIGHT
370
     0
  9
$ENDCAPS
280
     0
  9
$JOINSTYLE
280
     0
  9
$LWDISPLAY
290
     0
  9
$INSUNITS
 70
     0
  9
$HYPERLINKBASE
  1

  9
$STYLESHEET
  1

  9
$XEDIT
290
     1
  9
$CEPSNTYPE
380
     0
  9
$PSTYLEMODE
290
     1
  9
$FINGERPRINTGUID
  2

  9
$VERSIONGUID
  2

  9
$EXTNAMES
290
     1
  9
$PSVPSCALE
 40
0.0
  0
ENDSEC
  0
SECTION
  2
CLASSES
  0
CLASS
  1
LWPOLYLINE
  2
AcDbPolyline
  3
AutoCAD 2000
 90
    32768
280
     0
281
     1
  0
CLASS
  1
IMAGE
  2
AcDbRasterImage
  3
ISM
 90
    32895
280
     0
281
     1
  0
CLASS
  1
OLE2FRAME
  2
AcDbOle2Frame
  3
AutoCAD 2000
 90
    32768
280
     0
281
     1
  0
CLASS
  1
HATCH
  2
AcDbHatch
  3
AutoCAD 2000
 90
    32768
280
     0
281
     1
  0
CLASS
  1
DICTIONARYVAR
  2
AcDbDictionaryVar
  3
AutoCAD 2000
 90
    32768
280
     0
281
     0
  0
CLASS
  1
RASTERVARIABLES
  2
AcDbRasterVariables
  3
ISM
 90
    32768
280
     0
281
     0
  0
CLASS
  1
IMAGEDEF
  2
AcDbRasterImageDef
  3
ISM
 90
    32768
280
     0
281
     0
  0
CLASS
  1
IMAGEDEF_REACTOR
  2
AcDbRasterImageDefReactor
  3
ISM
 90
    32769
280
     0
281
     0
  0
CLASS
  1
IDBUFFER
  2
AcDbIdBuffer
  3
AutoCAD 2000
 90
    32768
280
     0
281
     0
  0
CLASS
  1
SPATIAL_FILTER
  2
AcDbSpatialFilter
  3
AutoCAD 2000
 90
    32768
280
     0
281
     0
  0
CLASS
  1
XRECORD
  2
AcDbXrecord
  3
AutoCAD 2000
 90
        0
280
     0
281
     0
  0
CLASS
  1
SORTENTSTABLE
  2
AcDbSortentsTable
  3
AutoCAD 2000
 90
    32768
280
     0
281
     0
  0
CLASS
  1
LAYER_INDEX
  2
AcDbLayerIndex
  3
AutoCAD 2000
 90
    32768
280
     0
281
     0
  0
CLASS
  1
SPATIAL_INDEX
  2
AcDbSpatialIndex
  3
AutoCAD 2000
 90
    32768
280
     0
281
     0
  0
CLASS
  1
OBJECT_PTR
  2
CAseDLPNTableRecord
  3
"ASE-LPNTableRecord"
 90
    32769
280
     0
281
     0
  0
CLASS
  1
LAYOUT
  2
AcDbLayout
  3
AutoCAD 2000
 90
        0
280
     0
281
     0
  0
CLASS
  1
PLOTSETTINGS
  2
AcDbPlotSettings
  3
AutoCAD 2000
 90
    32768
280
     0
281
     0
  0
CLASS
  1
ACDBDICTIONARYWDFLT
  2
AcDbDictionaryWithDefault
  3
AutoCAD 2000
 90
        0
280
     0
281
     0
  0
CLASS
  1
ACDBPLACEHOLDER
  2
AcDbPlaceHolder
  3
AutoCAD 2000
 90
        0
280
     0
281
     0
  0
CLASS
  1
VBA_PROJECT
  2
AcDbVbaProject
  3
acadvba
 90
    32768
280
     0
281
     0
  0
CLASS
  1
WIPEOUT
  2
AcDbWipeout
  3
WipeOut|AutoCAD Express Tool|expresstools@autodesk.com
 90
    32895
280
     0
281
     1
  0
CLASS
  1
WIPEOUTVARIABLES
  2
AcDbWipeoutVariables
  3
WipeOut|AutoCAD Express Tool|expresstools@autodesk.com
 90
        0
280
     0
281
     0
  0
CLASS
  1
RTEXT
  2
RText
  3
RText|AutoCAD Express Tool|expresstools@autodesk.com
 90
    32768
280
     0
281
     1
  0
CLASS
  1
ARCALIGNEDTEXT
  2
AcDbArcAlignedText
  3
ATEXT|AutoCAD Express Tool|expresstools@autodesk.com
 90
    32768
280
     0
281
     1
  0
ENDSEC
  0
SECTION
  2
TABLES
  0
TABLE
  2
VPORT
  5
7
100
AcDbSymbolTable
 70
     1
  0
VPORT
  5
15
100
AcDbSymbolTableRecord
100
AcDbViewportTableRecord
  2
*ACTIVE
 70
     0
 10
0.0
 20
0.0
 11
1.0
 21
1.0
 12
0.0
 22
0.0
 13
0.0
 23
0.0
 14
1.0
 24
1.0
 15
0.0
 25
0.0
 16
0.0
 26
0.0
 36
1.0
 17
0.0
 27
0.0
 37
0.0
 40
100.0
 41
1.0
 42
50.0
 43
0.0
 44
0.0
 50
0.0
 51
0.0
 71
     0
 72
   100
 73
     1
 74
     1
 75
     0
 76
     0
 77
     0
 78
     0
281
     0
 65
     0
110
0.0
120
0.0
130
0.0
111
1.0
121
0.0
131
0.0
112
0.0
122
1.0
132
0.0
345
0
346
0
 79
     0
146
0.0
  0
ENDTAB
  0
TABLE
  2
LTYPE
  5
4
100
AcDbSymbolTable
 70
     7
  0
LTYPE
  5
11
100
AcDbSymbolTableRecord
100
AcDbLinetypeTableRecord
  2
ByBlock
 70
    64
  3

 72
    65
 73
     0
 40
0.0
  0
LTYPE
  5
12
100
AcDbSymbolTableRecord
100
AcDbLinetypeTableRecord
  2
ByLayer
 70
    64
  3

 72
    65
 73
     0
 40
0.0
  0
LTYPE
  5
13
100
AcDbSymbolTableRecord
100
AcDbLinetypeTableRecord
  2
Continuous
 70
    64
  3
Solid line
 72
    65
 73
     0
 40
0.0
  0
LTYPE
  5
24
100
AcDbSymbolTableRecord
100
AcDbLinetypeTableRecord
  2
DASHED
 70
    64
  3
Dashed __ __ __ __ __ __ __ __ __ __ __ __ __ _
 72
    65
 73
     2
 40
0.75
 49
0.5
 74
     0
 49
-0.25
 74
     0
  0
LTYPE
  5
25
100
AcDbSymbolTableRecord
100
AcDbLinetypeTableRecord
  2
CENTER
 70
    64
  3
Center ____ _ ____ _ ____ _ ____ _ ____ _ ____
 72
    65
 73
     4
 40
1.0
 49
0.5
 74
     0
 49
-0.25
 74
     0
 49
0.0
 74
     0
 49
-0.25
 74
     0
  0
LTYPE
  5
26
100
AcDbSymbolTableRecord
100
AcDbLinetypeTableRecord
  2
DIVIDE
 70
    64
  3
Divide ____ . . ____ . . ____ . . ____ . . ____
 72
    65
 73
     6
 40
1.25
 49
0.5
 74
     0
 49
-0.25
 74
     0
 49
0.0
 74
     0
 49
-0.25
 74
     0
 49
0.0
 74
     0
 49
-0.25
 74
     0
  0
LTYPE
  5
27
100
AcDbSymbolTableRecord
100
AcDbLinetypeTableRecord
  2
PHANTOM
 70
    64
  3
Phantom ______  __  __  ______  __  __  ______
 72
    65
 73
     6
 40
9.0
 49
4.3
 74
     0
 49
-0.7
 74
     0
 49
1.3
 74
     0
 49
-0.7
 74
     0
 49
1.3
 74
     0
 49
-0.7
 74
     0
  0
ENDTAB
  0
TABLE
  2
LAYER
  5
2
100
AcDbSymbolTable
 70
     3
  0
LAYER
  5
14
100
AcDbSymbolTableRecord
100
AcDbLayerTableRecord
  2
0
 70
    64
 62
    53
  6
Continuous
290
     1
370
    -3
390
1D
  0
LAYER
  5
28
100
AcDbSymbolTableRecord
100
AcDbLayerTableRecord
  2
3
 70
    64
 62
     4
  6
Continuous
290
     1
370
    -3
390
1D
  0
LAYER
  5
29
100
AcDbSymbolTableRecord
100
AcDbLayerTableRecord
  2
5
 70
    64
 62
   191
  6
Continuous
290
     1
370
    -3
390
1D
  0
ENDTAB
  0
TABLE
  2
STYLE
  5
3
100
AcDbSymbolTable
 70
     2
  0
STYLE
  5
17
100
AcDbSymbolTableRecord
100
AcDbTextStyleTableRecord
  2
Standard
 70
     0
 40
0.0
 41
1.0
 50
0.0
 71
     0
 42
0.0
  3
txt
  4

  0
STYLE
  5
136
100
AcDbSymbolTableRecord
100
AcDbTextStyleTableRecord
  2
ZU_SHPTB00001
 70
     0
 40
0.0
 41
1.0
 50
0.0
 71
     0
 42
0.0
  3
monotxt
  4
bigfont
  0
ENDTAB
  0
TABLE
  2
VIEW
  5
5
100
AcDbSymbolTable
 70
     0
  0
ENDTAB
  0
TABLE
  2
UCS
  5
6
100
AcDbSymbolTable
 70
     0
  0
ENDTAB
  0
TABLE
  2
APPID
  5
8
100
AcDbSymbolTable
 70
     1
  0
APPID
  5
16
100
AcDbSymbolTableRecord
100
AcDbRegAppTableRecord
  2
ACAD
 70
     0
  0
ENDTAB
  0
TABLE
  2
DIMSTYLE
  5
9
100
AcDbSymbolTable
 70
     1
100
AcDbDimStyleTable
 71
     0
  0
DIMSTYLE
105
18
100
AcDbSymbolTableRecord
100
AcDbDimStyleTableRecord
  2
Standard
 70
     0
  3

  4

 40
1.0
 41
0.18
 42
0.0625
 43
0.38
 44
0.18
 45
0.0
 46
0.0
 47
0.0
 48
0.0
 71
     0
 72
     0
 73
     1
 74
     1
 75
     0
 76
     0
 77
     0
 78
     0
 79
     0
140
0.18
141
0.09
142
0.0
143
25.4
144
1.0
145
0.0
146
1.0
147
0.09
148
0.0
170
     0
171
     2
172
     0
173
     0
174
     0
175
     0
176
     0
177
     0
178
     0
179
     0
271
     4
272
     4
273
     2
274
     2
275
     0
276
     0
277
     2
278
    46
279
     0
280
     0
281
     0
282
     0
283
     1
284
     0
285
     0
286
     0
288
     0
340
17
341
0
342
0
343
0
344
0
371
    -2
372
    -2
  0
ENDTAB
  0
TABLE
  2
BLOCK_RECORD
  5
1
100
AcDbSymbolTable
 70
     9
  0
BLOCK_RECORD
  5
A
100
AcDbSymbolTableRecord
100
AcDbBlockTableRecord
  2
*MODEL_SPACE
340
20
  0
BLOCK_RECORD
  5
B
100
AcDbSymbolTableRecord
100
AcDbBlockTableRecord
  2
*PAPER_SPACE
340
21
  0
BLOCK_RECORD
  5
48
100
AcDbSymbolTableRecord
100
AcDbBlockTableRecord
  2
ZU_SYM_K__CAD_SYM_POO_SYM_N20_-1
340
0
102
{BLKREFS
331
53
102
}
  0
BLOCK_RECORD
  5
54
100
AcDbSymbolTableRecord
100
AcDbBlockTableRecord
  2
ZU_SYM_K__CAD_SYM_POO_SYM_N20_00001-1
340
0
102
{BLKREFS
331
5F
102
}
  0
BLOCK_RECORD
  5
A3
100
AcDbSymbolTableRecord
100
AcDbBlockTableRecord
  2
ZU_SYM__USERS_HOME_SYMBOL_STD_SYM_B01_-1
340
0
102
{BLKREFS
331
B2
102
}
  0
BLOCK_RECORD
  5
B3
100
AcDbSymbolTableRecord
100
AcDbBlockTableRecord
  2
ZU_SYM__USERS_HOME_SYMBOL_STD_SYM_B01_00002-1
340
0
102
{BLKREFS
331
C2
102
}
  0
BLOCK_RECORD
  5
116
100
AcDbSymbolTableRecord
100
AcDbBlockTableRecord
  2
ZU_SYM__USERS_HOME_SYMBOL_STD_SYM_B01_00003-1
340
0
102
{BLKREFS
331
125
102
}
  0
BLOCK_RECORD
  5
126
100
AcDbSymbolTableRecord
100
AcDbBlockTableRecord
  2
ZU_SYM__USERS_HOME_SYMBOL_STD_SYM_B01_00004-1
340
0
102
{BLKREFS
331
135
102
}
  0
BLOCK_RECORD
  5
198
100
AcDbSymbolTableRecord
100
AcDbBlockTableRecord
  2
ZU_SYM_C__ZUOU_AC_BLOCK_ZU_SYM_C__ZUOU_AC_BLOCK_ZU_SYM__USR_MELCAD_MD_SYM_SYM_SYM1_00009-1_-1_-1
340
0
102
{BLKREFS
331
1A3
102
}
  0
BLOCK_RECORD
  5
1A6
100
AcDbSymbolTableRecord
100
AcDbBlockTableRecord
  2
ZU_SYM_C__ZUOU_AC_BLOCK_ZU_SYM_C__ZUOU_AC_BLOCK_ZU_SYM__USR_MELCAD_MD_SYM_SYM_SYM1_-1_-1_-1
340
0
102
{BLKREFS
331
1B1
102
}
  0
BLOCK_RECORD
  5
2D6
100
AcDbSymbolTableRecord
100
AcDbBlockTableRecord
  2
ZU_SYM__USERS_HOME_SYMBOL_POO_SYM_B20_-1
340
0
102
{BLKREFS
331
2E1
102
}
  0
ENDTAB
  0
ENDSEC
  0
SECTION
  2
BLOCKS
  0
BLOCK
  5
D
100
AcDbEntity
  8
0
100
AcDbBlockBegin
  2
*MODEL_SPACE
 70
     0
 10
0.0
 20
0.0
 30
0.0
  3
*MODEL_SPACE
  1

  0
ENDBLK
  5
E
100
AcDbEntity
  8
0
100
AcDbBlockEnd
  0
BLOCK
  5
F
100
AcDbEntity
 67
     1
  8
0
100
AcDbBlockBegin
  2
*PAPER_SPACE
 70
     0
 10
0.0
 20
0.0
 30
0.0
  3
*PAPER_SPACE
  1

  0
ENDBLK
  5
10
100
AcDbEntity
 67
     1
  8
0
100
AcDbBlockEnd
  0
BLOCK
  5
49
100
AcDbEntity
  8
0
100
AcDbBlockBegin
  2
ZU_SYM_K__CAD_SYM_POO_SYM_N20_-1
 70
    64
 10
0.0
 20
0.0
 30
0.0
  3
ZU_SYM_K__CAD_SYM_POO_SYM_N20_-1
  1

  0
POINT
  5
4A
100
AcDbEntity
  8
0
370
    -3
  6
Continuous
100
AcDbPoint
 10
0.0
 20
0.0
 30
0.0
  0
LINE
  5
4B
100
AcDbEntity
  8
0
370
    -3
  6
Continuous
100
AcDbLine
 10
-2.300001
 20
-4.0
 30
0.0
 11
-4.6
 21
-0.000001
 31
0.0
  0
LINE
  5
4C
100
AcDbEntity
  8
0
370
    -3
  6
Continuous
100
AcDbLine
 10
-4.6
 20
0.000001
 30
0.0
 11
-2.300001
 21
4.0
 31
0.0
  0
LINE
  5
4D
100
AcDbEntity
  8
0
370
    -3
  6
Continuous
100
AcDbLine
 10
-2.299999
 20
4.0
 30
0.0
 11
2.299999
 21
4.0
 31
0.0
  0
LINE
  5
4E
100
AcDbEntity
  8
0
370
    -3
  6
Continuous
100
AcDbLine
 10
2.300001
 20
4.0
 30
0.0
 11
4.6
 21
0.000001
 31
0.0
  0
LINE
  5
4F
100
AcDbEntity
  8
0
370
    -3
  6
Continuous
100
AcDbLine
 10
4.6
 20
-0.000001
 30
0.0
 11
2.300001
 21
-4.0
 31
0.0
  0
LINE
  5
50
100
AcDbEntity
  8
0
370
    -3
  6
Continuous
100
AcDbLine
 10
2.299999
 20
-4.0
 30
0.0
 11
-2.299999
 21
-4.0
 31
0.0
  0
CIRCLE
  5
51
100
AcDbEntity
  8
0
370
    -3
  6
Continuous
100
AcDbCircle
 10
0.0
 20
0.0
 30
0.0
 40
4.0
  0
ENDBLK
  5
52
100
AcDbEntity
  8
0
100
AcDbBlockEnd
  0
BLOCK
  5
55
100
AcDbEntity
  8
0
100
AcDbBlockBegin
  2
ZU_SYM_K__CAD_SYM_POO_SYM_N20_00001-1
 70
    64
 10
0.0
 20
0.0
 30
0.0
  3
ZU_SYM_K__CAD_SYM_POO_SYM_N20_00001-1
  1

  0
POINT
  5
56
100
AcDbEntity
  8
0
370
    -3
  6
Continuous
100
AcDbPoint
 10
0.0
 20
0.0
 30
0.0
  0
LINE
  5
57
100
AcDbEntity
  8
0
370
    -3
  6
Continuous
100
AcDbLine
 10
-2.300001
 20
-4.0
 30
0.0
 11
-4.6
 21
-0.000001
 31
0.0
  0
LINE
  5
58
100
AcDbEntity
  8
0
370
    -3
  6
Continuous
100
AcDbLine
 10
-4.6
 20
0.000001
 30
0.0
 11
-2.300001
 21
4.0
 31
0.0
  0
LINE
  5
59
100
AcDbEntity
  8
0
370
    -3
  6
Continuous
100
AcDbLine
 10
-2.299999
 20
4.0
 30
0.0
 11
2.299999
 21
4.0
 31
0.0
  0
LINE
  5
5A
100
AcDbEntity
  8
0
370
    -3
  6
Continuous
100
AcDbLine
 10
2.300001
 20
4.0
 30
0.0
 11
4.6
 21
0.000001
 31
0.0
  0
LINE
  5
5B
100
AcDbEntity
  8
0
370
    -3
  6
Continuous
100
AcDbLine
 10
4.6
 20
-0.000001
 30
0.0
 11
2.300001
 21
-4.0
 31
0.0
  0
LINE
  5
5C
100
AcDbEntity
  8
0
370
    -3
  6
Continuous
100
AcDbLine
 10
2.299999
 20
-4.0
 30
0.0
 11
-2.299999
 21
-4.0
 31
0.0
  0
CIRCLE
  5
5D
100
AcDbEntity
  8
0
370
    -3
  6
Continuous
100
AcDbCircle
 10
0.0
 20
0.0
 30
0.0
 40
4.0
  0
ENDBLK
  5
5E
100
AcDbEntity
  8
0
100
AcDbBlockEnd
  0
BLOCK
  5
A4
100
AcDbEntity
  8
0
100
AcDbBlockBegin
  2
ZU_SYM__USERS_HOME_SYMBOL_STD_SYM_B01_-1
 70
    64
 10
0.0
 20
0.0
 30
0.0
  3
ZU_SYM__USERS_HOME_SYMBOL_STD_SYM_B01_-1
  1

  0
ARC
  5
A5
100
AcDbEntity
  8
0
370
    -3
  6
Continuous
100
AcDbCircle
 10
2.040001
 20
-0.000008
 30
0.0
 40
5.539999
100
AcDbArc
 50
155.470187
 51
204.52925
  0
ARC
  5
A6
100
AcDbEntity
  8
0
370
    -3
  6
Continuous
100
AcDbCircle
 10
-1.929986
 20
3.450007
 30
0.0
 40
1.57
100
AcDbArc
 50
179.999745
 51
227.099746
  0
ARC
  5
A7
100
AcDbEntity
  8
0
370
    -3
  6
Continuous
100
AcDbCircle
 10
-1.930014
 20
-3.449991
 30
0.0
 40
1.57
100
AcDbArc
 50
132.899744
 51
179.999745
  0
LINE
  5
A8
100
AcDbEntity
  8
0
370
    -3
  6
Continuous
100
AcDbLine
 10
-2.999989
 20
2.300011
 30
0.0
 11
0.000009
 21
2.3
 31
0.0
  0
LINE
  5
A9
100
AcDbEntity
  8
0
370
    -3
  6
Continuous
100
AcDbLine
 10
-3.000008
 20
-2.299986
 30
0.0
 11
-0.000008
 21
-2.299998
 31
0.0
  0
LINE
  5
AA
100
AcDbEntity
  8
0
370
    -3
  6
Continuous
100
AcDbLine
 10
0.000019
 20
4.6
 30
0.0
 11
-0.000019
 21
-4.6
 31
0.0
  0
LINE
  5
AB
100
AcDbEntity
  8
0
370
    -3
  6
Continuous
100
AcDbLine
 10
-2.999979
 20
4.600012
 30
0.0
 11
0.000019
 21
4.600001
 31
0.0
  0
LINE
  5
AC
100
AcDbEntity
  8
0
370
    -3
  6
Continuous
100
AcDbLine
 10
-3.499965
 20
3.9
 30
0.0
 11
-2.999964
 21
4.599998
 31
0.0
  0
LINE
  5
AD
100
AcDbEntity
  8
0
370
    -3
  6
Continuous
100
AcDbLine
 10
-3.500012
 20
-3.89998
 30
0.0
 11
-3.49998
 21
3.90001
 31
0.0
  0
LINE
  5
AE
100
AcDbEntity
  8
0
370
    -3
  6
Continuous
100
AcDbLine
 10
-2.999996
 20
-4.59997
 30
0.0
 11
-3.499991
 21
-3.899967
 31
0.0
  0
LINE
  5
AF
100
AcDbEntity
  8
0
370
    -3
  6
Continuous
100
AcDbLine
 10
-0.000018
 20
-4.599998
 30
0.0
 11
-3.000017
 21
-4.599986
 31
0.0
  0
POINT
  5
B0
100
AcDbEntity
  8
0
370
    -3
  6
Continuous
100
AcDbPoint
 10
0.0
 20
0.0
 30
0.0
  0
ENDBLK
  5
B1
100
AcDbEntity
  8
0
100
AcDbBlockEnd
  0
BLOCK
  5
B4
100
AcDbEntity
  8
0
100
AcDbBlockBegin
  2
ZU_SYM__USERS_HOME_SYMBOL_STD_SYM_B01_00002-1
 70
    64
 10
0.0
 20
0.0
 30
0.0
  3
ZU_SYM__USERS_HOME_SYMBOL_STD_SYM_B01_00002-1
  1

  0
ARC
  5
B5
100
AcDbEntity
  8
0
370
    -3
  6
Continuous
100
AcDbCircle
 10
2.040001
 20
-0.000008
 30
0.0
 40
5.539999
100
AcDbArc
 50
155.470187
 51
204.52925
  0
ARC
  5
B6
100
AcDbEntity
  8
0
370
    -3
  6
Continuous
100
AcDbCircle
 10
-1.929986
 20
3.450007
 30
0.0
 40
1.57
100
AcDbArc
 50
179.999745
 51
227.099746
  0
ARC
  5
B7
100
AcDbEntity
  8
0
370
    -3
  6
Continuous
100
AcDbCircle
 10
-1.930014
 20
-3.449991
 30
0.0
 40
1.57
100
AcDbArc
 50
132.899744
 51
179.999745
  0
LINE
  5
B8
100
AcDbEntity
  8
0
370
    -3
  6
Continuous
100
AcDbLine
 10
-2.999989
 20
2.300011
 30
0.0
 11
0.000009
 21
2.3
 31
0.0
  0
LINE
  5
B9
100
AcDbEntity
  8
0
370
    -3
  6
Continuous
100
AcDbLine
 10
-3.000008
 20
-2.299986
 30
0.0
 11
-0.000008
 21
-2.299998
 31
0.0
  0
LINE
  5
BA
100
AcDbEntity
  8
0
370
    -3
  6
Continuous
100
AcDbLine
 10
0.000019
 20
4.6
 30
0.0
 11
-0.000019
 21
-4.6
 31
0.0
  0
LINE
  5
BB
100
AcDbEntity
  8
0
370
    -3
  6
Continuous
100
AcDbLine
 10
-2.999979
 20
4.600012
 30
0.0
 11
0.000019
 21
4.600001
 31
0.0
  0
LINE
  5
BC
100
AcDbEntity
  8
0
370
    -3
  6
Continuous
100
AcDbLine
 10
-3.499965
 20
3.9
 30
0.0
 11
-2.999964
 21
4.599998
 31
0.0
  0
LINE
  5
BD
100
AcDbEntity
  8
0
370
    -3
  6
Continuous
100
AcDbLine
 10
-3.500012
 20
-3.89998
 30
0.0
 11
-3.49998
 21
3.90001
 31
0.0
  0
LINE
  5
BE
100
AcDbEntity
  8
0
370
    -3
  6
Continuous
100
AcDbLine
 10
-2.999996
 20
-4.59997
 30
0.0
 11
-3.499991
 21
-3.899967
 31
0.0
  0
LINE
  5
BF
100
AcDbEntity
  8
0
370
    -3
  6
Continuous
100
AcDbLine
 10
-0.000018
 20
-4.599998
 30
0.0
 11
-3.000017
 21
-4.599986
 31
0.0
  0
POINT
  5
C0
100
AcDbEntity
  8
0
370
    -3
  6
Continuous
100
AcDbPoint
 10
0.0
 20
0.0
 30
0.0
  0
ENDBLK
  5
C1
100
AcDbEntity
  8
0
100
AcDbBlockEnd
  0
BLOCK
  5
117
100
AcDbEntity
  8
0
100
AcDbBlockBegin
  2
ZU_SYM__USERS_HOME_SYMBOL_STD_SYM_B01_00003-1
 70
    64
 10
0.0
 20
0.0
 30
0.0
  3
ZU_SYM__USERS_HOME_SYMBOL_STD_SYM_B01_00003-1
  1

  0
POINT
  5
118
100
AcDbEntity
  8
0
370
    -3
  6
Continuous
100
AcDbPoint
 10
0.0
 20
0.0
 30
0.0
  0
LINE
  5
119
100
AcDbEntity
  8
0
370
    -3
  6
Continuous
100
AcDbLine
 10
-0.000018
 20
-4.599998
 30
0.0
 11
-3.000017
 21
-4.599986
 31
0.0
  0
LINE
  5
11A
100
AcDbEntity
  8
0
370
    -3
  6
Continuous
100
AcDbLine
 10
-2.999996
 20
-4.59997
 30
0.0
 11
-3.499991
 21
-3.899967
 31
0.0
  0
LINE
  5
11B
100
AcDbEntity
  8
0
370
    -3
  6
Continuous
100
AcDbLine
 10
-3.500012
 20
-3.89998
 30
0.0
 11
-3.49998
 21
3.90001
 31
0.0
  0
LINE
  5
11C
100
AcDbEntity
  8
0
370
    -3
  6
Continuous
100
AcDbLine
 10
-3.499965
 20
3.9
 30
0.0
 11
-2.999964
 21
4.599998
 31
0.0
  0
LINE
  5
11D
100
AcDbEntity
  8
0
370
    -3
  6
Continuous
100
AcDbLine
 10
-2.999979
 20
4.600012
 30
0.0
 11
0.000019
 21
4.600001
 31
0.0
  0
LINE
  5
11E
100
AcDbEntity
  8
0
370
    -3
  6
Continuous
100
AcDbLine
 10
0.000019
 20
4.6
 30
0.0
 11
-0.000019
 21
-4.6
 31
0.0
  0
LINE
  5
11F
100
AcDbEntity
  8
0
370
    -3
  6
Continuous
100
AcDbLine
 10
-3.000008
 20
-2.299986
 30
0.0
 11
-0.000008
 21
-2.299998
 31
0.0
  0
LINE
  5
120
100
AcDbEntity
  8
0
370
    -3
  6
Continuous
100
AcDbLine
 10
-2.999989
 20
2.300011
 30
0.0
 11
0.000009
 21
2.3
 31
0.0
  0
ARC
  5
121
100
AcDbEntity
  8
0
370
    -3
  6
Continuous
100
AcDbCircle
 10
-1.930014
 20
-3.449991
 30
0.0
 40
1.57
100
AcDbArc
 50
132.899744
 51
179.999745
  0
ARC
  5
122
100
AcDbEntity
  8
0
370
    -3
  6
Continuous
100
AcDbCircle
 10
-1.929986
 20
3.450007
 30
0.0
 40
1.57
100
AcDbArc
 50
179.999745
 51
227.099746
  0
ARC
  5
123
100
AcDbEntity
  8
0
370
    -3
  6
Continuous
100
AcDbCircle
 10
2.040001
 20
-0.000008
 30
0.0
 40
5.539999
100
AcDbArc
 50
155.470187
 51
204.52925
  0
ENDBLK
  5
124
100
AcDbEntity
  8
0
100
AcDbBlockEnd
  0
BLOCK
  5
127
100
AcDbEntity
  8
0
100
AcDbBlockBegin
  2
ZU_SYM__USERS_HOME_SYMBOL_STD_SYM_B01_00004-1
 70
    64
 10
0.0
 20
0.0
 30
0.0
  3
ZU_SYM__USERS_HOME_SYMBOL_STD_SYM_B01_00004-1
  1

  0
POINT
  5
128
100
AcDbEntity
  8
0
370
    -3
  6
Continuous
100
AcDbPoint
 10
0.0
 20
0.0
 30
0.0
  0
LINE
  5
129
100
AcDbEntity
  8
0
370
    -3
  6
Continuous
100
AcDbLine
 10
-0.000018
 20
-4.599998
 30
0.0
 11
-3.000017
 21
-4.599986
 31
0.0
  0
LINE
  5
12A
100
AcDbEntity
  8
0
370
    -3
  6
Continuous
100
AcDbLine
 10
-2.999996
 20
-4.59997
 30
0.0
 11
-3.499991
 21
-3.899967
 31
0.0
  0
LINE
  5
12B
100
AcDbEntity
  8
0
370
    -3
  6
Continuous
100
AcDbLine
 10
-3.500012
 20
-3.89998
 30
0.0
 11
-3.49998
 21
3.90001
 31
0.0
  0
LINE
  5
12C
100
AcDbEntity
  8
0
370
    -3
  6
Continuous
100
AcDbLine
 10
-3.499965
 20
3.9
 30
0.0
 11
-2.999964
 21
4.599998
 31
0.0
  0
LINE
  5
12D
100
AcDbEntity
  8
0
370
    -3
  6
Continuous
100
AcDbLine
 10
-2.999979
 20
4.600012
 30
0.0
 11
0.000019
 21
4.600001
 31
0.0
  0
LINE
  5
12E
100
AcDbEntity
  8
0
370
    -3
  6
Continuous
100
AcDbLine
 10
0.000019
 20
4.6
 30
0.0
 11
-0.000019
 21
-4.6
 31
0.0
  0
LINE
  5
12F
100
AcDbEntity
  8
0
370
    -3
  6
Continuous
100
AcDbLine
 10
-3.000008
 20
-2.299986
 30
0.0
 11
-0.000008
 21
-2.299998
 31
0.0
  0
LINE
  5
130
100
AcDbEntity
  8
0
370
    -3
  6
Continuous
100
AcDbLine
 10
-2.999989
 20
2.300011
 30
0.0
 11
0.000009
 21
2.3
 31
0.0
  0
ARC
  5
131
100
AcDbEntity
  8
0
370
    -3
  6
Continuous
100
AcDbCircle
 10
-1.930014
 20
-3.449991
 30
0.0
 40
1.57
100
AcDbArc
 50
132.899744
 51
179.999745
  0
ARC
  5
132
100
AcDbEntity
  8
0
370
    -3
  6
Continuous
100
AcDbCircle
 10
-1.929986
 20
3.450007
 30
0.0
 40
1.57
100
AcDbArc
 50
179.999745
 51
227.099746
  0
ARC
  5
133
100
AcDbEntity
  8
0
370
    -3
  6
Continuous
100
AcDbCircle
 10
2.040001
 20
-0.000008
 30
0.0
 40
5.539999
100
AcDbArc
 50
155.470187
 51
204.52925
  0
ENDBLK
  5
134
100
AcDbEntity
  8
0
100
AcDbBlockEnd
  0
BLOCK
  5
199
100
AcDbEntity
  8
0
100
AcDbBlockBegin
  2
ZU_SYM_C__ZUOU_AC_BLOCK_ZU_SYM_C__ZUOU_AC_BLOCK_ZU_SYM__USR_MELCAD_MD_SYM_SYM_SYM1_00009-1_-1_-1
 70
    64
 10
0.0
 20
0.0
 30
0.0
  3
ZU_SYM_C__ZUOU_AC_BLOCK_ZU_SYM_C__ZUOU_AC_BLOCK_ZU_SYM__USR_MELCAD_MD_SYM_SYM_SYM1_00009-1_-1_-1
  1

  0
POINT
  5
19A
100
AcDbEntity
  8
0
370
    -3
  6
Continuous
100
AcDbPoint
 10
0.0
 20
0.0
 30
0.0
  0
LINE
  5
19B
100
AcDbEntity
  8
0
370
    -3
  6
Continuous
100
AcDbLine
 10
0.0
 20
-6.5
 30
0.0
 11
0.0
 21
6.5
 31
0.0
  0
LINE
  5
19C
100
AcDbEntity
  8
0
370
    -3
  6
Continuous
100
AcDbLine
 10
-7.999999
 20
5.633876
 30
0.0
 11
-7.999999
 21
-5.63407
 31
0.0
  0
LINE
  5
19D
100
AcDbEntity
  8
0
370
    -3
  6
Continuous
100
AcDbLine
 10
0.0
 20
6.5
 30
0.0
 11
-7.499999
 21
6.5
 31
0.0
  0
LINE
  5
19E
100
AcDbEntity
  8
0
370
    -3
  6
Continuous
100
AcDbLine
 10
0.0
 20
-6.5
 30
0.0
 11
-7.499998
 21
-6.5
 31
0.0
  0
LINE
  5
19F
100
AcDbEntity
  8
0
370
    -3
  6
Continuous
100
AcDbLine
 10
-7.499999
 20
6.5
 30
0.0
 11
-7.999999
 21
5.633876
 31
0.0
  0
LINE
  5
1A0
100
AcDbEntity
  8
0
370
    -3
  6
Continuous
100
AcDbLine
 10
-7.499998
 20
-6.499999
 30
0.0
 11
-7.999999
 21
-5.63407
 31
0.0
  0
LINE
  5
1A1
100
AcDbEntity
  8
0
370
    -3
  6
Continuous
100
AcDbLine
 10
-7.499999
 20
6.5
 30
0.0
 11
-7.499999
 21
-6.5
 31
0.0
  0
ENDBLK
  5
1A2
100
AcDbEntity
  8
0
100
AcDbBlockEnd
  0
BLOCK
  5
1A7
100
AcDbEntity
  8
0
100
AcDbBlockBegin
  2
ZU_SYM_C__ZUOU_AC_BLOCK_ZU_SYM_C__ZUOU_AC_BLOCK_ZU_SYM__USR_MELCAD_MD_SYM_SYM_SYM1_-1_-1_-1
 70
    64
 10
0.0
 20
0.0
 30
0.0
  3
ZU_SYM_C__ZUOU_AC_BLOCK_ZU_SYM_C__ZUOU_AC_BLOCK_ZU_SYM__USR_MELCAD_MD_SYM_SYM_SYM1_-1_-1_-1
  1

  0
POINT
  5
1A8
100
AcDbEntity
  8
0
370
    -3
  6
Continuous
100
AcDbPoint
 10
0.0
 20
0.0
 30
0.0
  0
LINE
  5
1A9
100
AcDbEntity
  8
0
370
    -3
  6
Continuous
100
AcDbLine
 10
0.0
 20
-6.5
 30
0.0
 11
0.0
 21
6.5
 31
0.0
  0
LINE
  5
1AA
100
AcDbEntity
  8
0
370
    -3
  6
Continuous
100
AcDbLine
 10
-7.999999
 20
5.633876
 30
0.0
 11
-7.999999
 21
-5.63407
 31
0.0
  0
LINE
  5
1AB
100
AcDbEntity
  8
0
370
    -3
  6
Continuous
100
AcDbLine
 10
0.0
 20
6.5
 30
0.0
 11
-7.499999
 21
6.5
 31
0.0
  0
LINE
  5
1AC
100
AcDbEntity
  8
0
370
    -3
  6
Continuous
100
AcDbLine
 10
0.0
 20
-6.5
 30
0.0
 11
-7.499998
 21
-6.5
 31
0.0
  0
LINE
  5
1AD
100
AcDbEntity
  8
0
370
    -3
  6
Continuous
100
AcDbLine
 10
-7.499999
 20
6.5
 30
0.0
 11
-7.999999
 21
5.633876
 31
0.0
  0
LINE
  5
1AE
100
AcDbEntity
  8
0
370
    -3
  6
Continuous
100
AcDbLine
 10
-7.499998
 20
-6.499999
 30
0.0
 11
-7.999999
 21
-5.63407
 31
0.0
  0
LINE
  5
1AF
100
AcDbEntity
  8
0
370
    -3
  6
Continuous
100
AcDbLine
 10
-7.499999
 20
6.5
 30
0.0
 11
-7.499999
 21
-6.5
 31
0.0
  0
ENDBLK
  5
1B0
100
AcDbEntity
  8
0
100
AcDbBlockEnd
  0
BLOCK
  5
2D7
100
AcDbEntity
  8
0
100
AcDbBlockBegin
  2
ZU_SYM__USERS_HOME_SYMBOL_POO_SYM_B20_-1
 70
    64
 10
0.0
 20
0.0
 30
0.0
  3
ZU_SYM__USERS_HOME_SYMBOL_POO_SYM_B20_-1
  1

  0
POINT
  5
2D8
100
AcDbEntity
  8
0
370
    -3
  6
Continuous
100
AcDbPoint
 10
0.0
 20
0.0
 30
0.0
  0
LINE
  5
2D9
100
AcDbEntity
  8
0
370
    -3
  6
Continuous
100
AcDbLine
 10
0.0
 20
-6.5
 30
0.0
 11
0.0
 21
6.5
 31
0.0
  0
LINE
  5
2DA
100
AcDbEntity
  8
0
370
    -3
  6
Continuous
100
AcDbLine
 10
-7.999999
 20
5.633876
 30
0.0
 11
-7.999999
 21
-5.63407
 31
0.0
  0
LINE
  5
2DB
100
AcDbEntity
  8
0
370
    -3
  6
Continuous
100
AcDbLine
 10
0.0
 20
6.5
 30
0.0
 11
-7.499999
 21
6.5
 31
0.0
  0
LINE
  5
2DC
100
AcDbEntity
  8
0
370
    -3
  6
Continuous
100
AcDbLine
 10
0.0
 20
-6.5
 30
0.0
 11
-7.499998
 21
-6.5
 31
0.0
  0
LINE
  5
2DD
100
AcDbEntity
  8
0
370
    -3
  6
Continuous
100
AcDbLine
 10
-7.499999
 20
6.5
 30
0.0
 11
-7.999999
 21
5.633876
 31
0.0
  0
LINE
  5
2DE
100
AcDbEntity
  8
0
370
    -3
  6
Continuous
100
AcDbLine
 10
-7.499998
 20
-6.499999
 30
0.0
 11
-7.999999
 21
-5.63407
 31
0.0
  0
LINE
  5
2DF
100
AcDbEntity
  8
0
370
    -3
  6
Continuous
100
AcDbLine
 10
-7.499999
 20
6.5
 30
0.0
 11
-7.499999
 21
-6.5
 31
0.0
  0
ENDBLK
  5
2E0
100
AcDbEntity
  8
0
100
AcDbBlockEnd
  0
ENDSEC
  0
SECTION
  2
ENTITIES
  0
LINE
  5
2A
100
AcDbEntity
  8
0
370
    -3
  6
DASHED
100
AcDbLine
 10
770.400561
 20
-5.442241
 30
0.0
 11
770.400561
 21
-0.762118
 31
0.0
  0
LINE
  5
2B
100
AcDbEntity
  8
0
370
    -3
  6
DASHED
100
AcDbLine
 10
770.400561
 20
-0.762118
 30
0.0
 11
757.523241
 21
-0.762118
 31
0.0
  0
LINE
  5
2C
100
AcDbEntity
  8
0
370
    -3
  6
DASHED
100
AcDbLine
 10
698.400561
 20
-5.44224
 30
0.0
 11
698.400561
 21
-0.762118
 31
0.0
  0
LINE
  5
2D
100
AcDbEntity
  8
0
370
    -3
  6
DASHED
100
AcDbLine
 10
711.277881
 20
-0.762118
 30
0.0
 11
698.400561
 21
-0.762118
 31
0.0
  0
LINE
  5
2E
100
AcDbEntity
  8
0
370
    -3
  6
DASHED
100
AcDbLine
 10
770.400561
 20
-0.762118
 30
0.0
 11
770.400561
 21
26.604547
 31
0.0
  0
ARC
  5
2F
100
AcDbEntity
  8
0
370
    -3
  6
DASHED
100
AcDbCircle
 10
765.400561
 20
26.604547
 30
0.0
 40
5.0
100
AcDbArc
 50
0.0
 51
83.967951
  0
LINE
  5
30
100
AcDbEntity
  8
0
370
    -3
  6
DASHED
100
AcDbLine
 10
736.900561
 20
33.737882
 30
0.0
 11
736.900561
 21
33.227465
 31
0.0
  0
LINE
  5
31
100
AcDbEntity
  8
0
370
    -3
  6
DASHED
100
AcDbLine
 10
698.400561
 20
-0.762118
 30
0.0
 11
698.400561
 21
26.604547
 31
0.0
  0
ARC
  5
32
100
AcDbEntity
  8
0
370
    -3
  6
DASHED
100
AcDbCircle
 10
703.400561
 20
26.604547
 30
0.0
 40
5.0
100
AcDbArc
 50
96.032049
 51
180.0
  0
ARC
  5
33
100
AcDbEntity
  8
0
370
    -3
  6
DASHED
100
AcDbCircle
 10
734.400561
 20
-266.762118
 30
0.0
 40
300.0
100
AcDbArc
 50
83.967951
 51
96.032049
  0
LINE
  5
34
100
AcDbEntity
  8
0
370
    -3
  6
DASHED
100
AcDbLine
 10
736.900561
 20
33.737882
 30
0.0
 11
731.900561
 21
33.737882
 31
0.0
  0
LINE
  5
35
100
AcDbEntity
  8
0
370
    -3
  6
DASHED
100
AcDbLine
 10
731.900561
 20
33.737882
 30
0.0
 11
731.900561
 21
33.227465
 31
0.0
  0
LINE
  5
36
100
AcDbEntity
  8
0
370
    -3
  6
Continuous
100
AcDbLine
 10
-268.59781
 20
36.53899
 30
0.0
 11
-312.650167
 21
35.770053
 31
0.0
  0
LINE
  5
37
100
AcDbEntity
  8
0
370
    -3
  6
Continuous
100
AcDbLine
 10
-190.09781
 20
37.909212
 30
0.0
 11
-227.59781
 21
37.254647
 31
0.0
  0
LINE
  5
38
100
AcDbEntity
  8
0
370
    -3
  6
Continuous
100
AcDbLine
 10
-268.59781
 20
32.536645
 30
0.0
 11
-268.59781
 21
59.737514
 31
0.0
  0
LINE
  5
39
100
AcDbEntity
  8
0
370
    -3
  6
Continuous
100
AcDbLine
 10
-227.59781
 20
32.536645
 30
0.0
 11
-227.59781
 21
59.737514
 31
0.0
  0
LINE
  5
3A
100
AcDbEntity
  8
0
370
    -3
  6
CENTER
100
AcDbLine
 10
-233.158756
 20
49.737514
 30
0.0
 11
-262.144234
 21
49.737514
 31
0.0
  0
CIRCLE
  5
3B
100
AcDbEntity
  8
0
370
    -3
  6
Continuous
100
AcDbCircle
 10
-248.09781
 20
49.737514
 30
0.0
 40
10.0
  0
LINE
  5
3C
100
AcDbEntity
  8
0
370
    -3
  6
Continuous
100
AcDbLine
 10
-245.59781
 20
33.737882
 30
0.0
 11
-245.59781
 21
33.227465
 31
0.0
  0
LINE
  5
3D
100
AcDbEntity
  8
0
370
    -3
  6
Continuous
100
AcDbLine
 10
-250.59781
 20
33.737882
 30
0.0
 11
-250.59781
 21
33.227465
 31
0.0
  0
LINE
  5
3E
100
AcDbEntity
  8
0
370
    -3
  6
Continuous
100
AcDbLine
 10
-245.59781
 20
33.737882
 30
0.0
 11
-250.59781
 21
33.737882
 31
0.0
  0
ARC
  5
3F
100
AcDbEntity
  8
0
370
    -3
  6
Continuous
100
AcDbCircle
 10
-279.09781
 20
26.604547
 30
0.0
 40
5.0
100
AcDbArc
 50
96.032049
 51
180.0
  0
ARC
  5
40
100
AcDbEntity
  8
0
370
    -3
  6
Continuous
100
AcDbCircle
 10
-248.09781
 20
-266.762118
 30
0.0
 40
300.0
100
AcDbArc
 50
83.967951
 51
96.032049
  0
ARC
  5
41
100
AcDbEntity
  8
0
370
    -3
  6
Continuous
100
AcDbCircle
 10
-217.09781
 20
26.604547
 30
0.0
 40
5.0
100
AcDbArc
 50
0.0
 51
83.967951
  0
LINE
  5
42
100
AcDbEntity
  8
0
370
    -3
  6
Continuous
100
AcDbLine
 10
-212.09781
 20
-0.762118
 30
0.0
 11
-222.61498
 21
-0.762118
 31
0.0
  0
LINE
  5
43
100
AcDbEntity
  8
0
370
    -3
  6
Continuous
100
AcDbLine
 10
-212.09781
 20
-4.94224
 30
0.0
 11
-212.09781
 21
-0.762118
 31
0.0
  0
LINE
  5
44
100
AcDbEntity
  8
0
370
    -3
  6
Continuous
100
AcDbLine
 10
-212.09781
 20
-0.762118
 30
0.0
 11
-212.09781
 21
26.604547
 31
0.0
  0
LINE
  5
45
100
AcDbEntity
  8
0
370
    -3
  6
Continuous
100
AcDbLine
 10
-273.58064
 20
-0.762118
 30
0.0
 11
-284.09781
 21
-0.762118
 31
0.0
  0
LINE
  5
46
100
AcDbEntity
  8
0
370
    -3
  6
Continuous
100
AcDbLine
 10
-284.09781
 20
-4.94224
 30
0.0
 11
-284.09781
 21
-0.762118
 31
0.0
  0
LINE
  5
47
100
AcDbEntity
  8
0
370
    -3
  6
Continuous
100
AcDbLine
 10
-284.09781
 20
-0.762118
 30
0.0
 11
-284.09781
 21
26.604547
 31
0.0
  0
INSERT
  5
53
100
AcDbEntity
  8
0
100
AcDbBlockReference
  2
ZU_SYM_K__CAD_SYM_POO_SYM_N20_-1
 10
-199.660996
 20
-137.698936
 30
0.0
  0
INSERT
  5
5F
100
AcDbEntity
  8
0
100
AcDbBlockReference
  2
ZU_SYM_K__CAD_SYM_POO_SYM_N20_00001-1
 10
-296.534625
 20
-137.698936
 30
0.0
  0
LINE
  5
60
100
AcDbEntity
  8
0
370
    -3
  6
Continuous
100
AcDbLine
 10
143.102166
 20
-5.762121
 30
0.0
 11
143.102166
 21
32.237879
 31
0.0
  0
LINE
  5
61
100
AcDbEntity
  8
0
370
    -3
  6
Continuous
100
AcDbLine
 10
144.902166
 20
-4.762121
 30
0.0
 11
143.102166
 21
-4.762121
 31
0.0
  0
ARC
  5
62
100
AcDbEntity
  8
0
370
    -3
  6
Continuous
100
AcDbCircle
 10
-16.602679
 20
-19.862121
 30
0.0
 40
20.6
100
AcDbArc
 50
90.0
 51
125.0
  0
ARC
  5
63
100
AcDbEntity
  8
0
370
    -3
  6
Continuous
100
AcDbCircle
 10
-34.497834
 20
-10.418501
 30
0.0
 40
2.6
100
AcDbArc
 50
125.0
 51
180.0
  0
LINE
  5
64
100
AcDbEntity
  8
0
370
    -3
  6
Continuous
100
AcDbLine
 10
-28.418354
 20
-2.987589
 30
0.0
 11
-35.989133
 21
-8.288705
 31
0.0
  0
LINE
  5
65
100
AcDbEntity
  8
0
370
    -3
  6
Continuous
100
AcDbLine
 10
-37.097834
 20
-10.418501
 30
0.0
 11
-37.097834
 21
-58.262121
 31
0.0
  0
LINE
  5
66
100
AcDbEntity
  8
0
370
    -3
  6
Continuous
100
AcDbLine
 10
60.902166
 20
-17.220207
 30
0.0
 11
144.902166
 21
-17.220207
 31
0.0
  0
LINE
  5
67
100
AcDbEntity
  8
0
370
    -3
  6
Continuous
100
AcDbLine
 10
60.902166
 20
-12.129038
 30
0.0
 11
144.902166
 21
-12.129038
 31
0.0
  0
LINE
  5
68
100
AcDbEntity
  8
0
370
    -3
  6
Continuous
100
AcDbLine
 10
60.902166
 20
-7.762121
 30
0.0
 11
144.902166
 21
-7.762121
 31
0.0
  0
LINE
  5
69
100
AcDbEntity
  8
0
370
    -3
  6
Continuous
100
AcDbLine
 10
60.902166
 20
-7.262121
 30
0.0
 11
144.902166
 21
-7.262121
 31
0.0
  0
LINE
  5
6A
100
AcDbEntity
  8
0
370
    -3
  6
Continuous
100
AcDbLine
 10
54.102166
 20
33.237879
 30
0.0
 11
142.102166
 21
33.237879
 31
0.0
  0
ARC
  5
6B
100
AcDbEntity
  8
0
370
    -3
  6
Continuous
100
AcDbCircle
 10
54.102166
 20
32.237879
 30
0.0
 40
1.0
100
AcDbArc
 50
90.0
 51
180.0
  0
LINE
  5
6C
100
AcDbEntity
  8
0
370
    -3
  6
Continuous
100
AcDbLine
 10
60.102166
 20
33.737879
 30
0.0
 11
68.102166
 21
33.737879
 31
0.0
  0
LINE
  5
6D
100
AcDbEntity
  8
0
370
    -3
  6
Continuous
100
AcDbLine
 10
128.102166
 20
33.737879
 30
0.0
 11
136.102166
 21
33.737879
 31
0.0
  0
LINE
  5
6E
100
AcDbEntity
  8
0
370
    -3
  6
Continuous
100
AcDbLine
 10
128.102166
 20
33.237879
 30
0.0
 11
128.102166
 21
33.737879
 31
0.0
  0
LINE
  5
6F
100
AcDbEntity
  8
0
370
    -3
  6
Continuous
100
AcDbLine
 10
136.102166
 20
33.237879
 30
0.0
 11
136.102166
 21
33.737879
 31
0.0
  0
LINE
  5
70
100
AcDbEntity
  8
0
370
    -3
  6
Continuous
100
AcDbLine
 10
68.102166
 20
33.237879
 30
0.0
 11
68.102166
 21
33.737879
 31
0.0
  0
LINE
  5
71
100
AcDbEntity
  8
0
370
    -3
  6
Continuous
100
AcDbLine
 10
60.102166
 20
33.237879
 30
0.0
 11
60.102166
 21
33.737879
 31
0.0
  0
LINE
  5
72
100
AcDbEntity
  8
0
370
    -3
  6
Continuous
100
AcDbLine
 10
143.102166
 20
-5.762121
 30
0.0
 11
60.668697
 21
-5.762121
 31
0.0
  0
ELLIPSE
  5
73
100
AcDbEntity
  8
0
370
    -3
  6
Continuous
100
AcDbEllipse
 10
49.902166
 20
-10.93479
 30
0.0
 11
4.6999999999999886
 21
0.0
 31
0.0
210
0.0
220
0.0
230
1.0
 40
0.766646
 41
0.0
 42
6.2831853071795862
  0
LINE
  5
74
100
AcDbEntity
  8
0
370
    -3
  6
Continuous
100
AcDbLine
 10
47.902166
 20
-7.942414
 30
0.0
 11
49.902166
 21
-9.1182
 31
0.0
  0
LINE
  5
75
100
AcDbEntity
  8
0
370
    -3
  6
Continuous
100
AcDbLine
 10
49.902166
 20
-9.1182
 30
0.0
 11
51.902166
 21
-10.770841
 31
0.0
  0
LINE
  5
76
100
AcDbEntity
  8
0
370
    -3
  6
Continuous
100
AcDbLine
 10
51.902166
 20
-7.942414
 30
0.0
 11
49.902166
 21
-9.1182
 31
0.0
  0
LINE
  5
77
100
AcDbEntity
  8
0
370
    -3
  6
Continuous
100
AcDbLine
 10
49.902166
 20
-9.1182
 30
0.0
 11
47.902166
 21
-10.770841
 31
0.0
  0
LINE
  5
78
100
AcDbEntity
  8
0
370
    -3
  6
Continuous
100
AcDbLine
 10
60.902166
 20
-6.922424
 30
0.0
 11
60.902166
 21
-58.262121
 31
0.0
  0
ARC
  5
79
100
AcDbEntity
  8
0
370
    -3
  6
Continuous
100
AcDbCircle
 10
57.902166
 20
-6.922424
 30
0.0
 40
3.0
100
AcDbArc
 50
0.0
 51
90.0
  0
LINE
  5
7A
100
AcDbEntity
  8
0
370
    -3
  6
Continuous
100
AcDbLine
 10
53.902166
 20
-3.922424
 30
0.0
 11
57.902166
 21
-3.922424
 31
0.0
  0
ARC
  5
7B
100
AcDbEntity
  8
0
370
    -3
  6
Continuous
100
AcDbCircle
 10
53.902166
 20
-0.922424
 30
0.0
 40
3.0
100
AcDbArc
 50
180.0
 51
270.0
  0
LINE
  5
7C
100
AcDbEntity
  8
0
370
    -3
  6
Continuous
100
AcDbLine
 10
50.902166
 20
0.737879
 30
0.0
 11
-16.602679
 21
0.737879
 31
0.0
  0
LINE
  5
7D
100
AcDbEntity
  8
0
370
    -3
  6
Continuous
100
AcDbLine
 10
50.902166
 20
0.737879
 30
0.0
 11
50.902166
 21
-0.922424
 31
0.0
  0
LINE
  5
7E
100
AcDbEntity
  8
0
370
    -3
  6
Continuous
100
AcDbLine
 10
53.102166
 20
-3.813791
 30
0.0
 11
53.102166
 21
32.237879
 31
0.0
  0
LINE
  5
7F
100
AcDbEntity
  8
0
370
    -3
  6
Continuous
100
AcDbLine
 10
53.102166
 20
-0.762121
 30
0.0
 11
143.102166
 21
-0.762121
 31
0.0
  0
ELLIPSE
  5
80
100
AcDbEntity
  8
0
370
    -3
  6
Continuous
100
AcDbEllipse
 10
49.902166
 20
-105.589452
 30
0.0
 11
4.6999999999999886
 21
0.0
 31
0.0
210
0.0
220
0.0
230
1.0
 40
0.766646
 41
0.0
 42
6.2831853071795862
  0
LINE
  5
81
100
AcDbEntity
  8
0
370
    -3
  6
Continuous
100
AcDbLine
 10
47.902166
 20
-108.581827
 30
0.0
 11
49.902166
 21
-107.406042
 31
0.0
  0
LINE
  5
82
100
AcDbEntity
  8
0
370
    -3
  6
Continuous
100
AcDbLine
 10
49.902166
 20
-107.406042
 30
0.0
 11
51.902166
 21
-105.7534
 31
0.0
  0
LINE
  5
83
100
AcDbEntity
  8
0
370
    -3
  6
Continuous
100
AcDbLine
 10
51.902166
 20
-108.581827
 30
0.0
 11
49.902166
 21
-107.406042
 31
0.0
  0
LINE
  5
84
100
AcDbEntity
  8
0
370
    -3
  6
Continuous
100
AcDbLine
 10
49.902166
 20
-107.406042
 30
0.0
 11
47.902166
 21
-105.7534
 31
0.0
  0
LINE
  5
85
100
AcDbEntity
  8
0
370
    -3
  6
Continuous
100
AcDbLine
 10
60.902166
 20
-117.262121
 30
0.0
 11
60.902166
 21
-58.262121
 31
0.0
  0
ARC
  5
86
100
AcDbEntity
  8
0
370
    -3
  6
Continuous
100
AcDbCircle
 10
-16.602679
 20
-96.662121
 30
0.0
 40
20.6
100
AcDbArc
 50
235.0
 51
270.0
  0
ARC
  5
87
100
AcDbEntity
  8
0
370
    -3
  6
Continuous
100
AcDbCircle
 10
-34.497834
 20
-106.105741
 30
0.0
 40
2.6
100
AcDbArc
 50
180.0
 51
235.0
  0
LINE
  5
88
100
AcDbEntity
  8
0
370
    -3
  6
Continuous
100
AcDbLine
 10
-37.097834
 20
-106.105741
 30
0.0
 11
-37.097834
 21
-58.262121
 31
0.0
  0
LINE
  5
89
100
AcDbEntity
  8
0
370
    -3
  6
Continuous
100
AcDbLine
 10
-28.418354
 20
-113.536653
 30
0.0
 11
-35.989133
 21
-108.235536
 31
0.0
  0
LINE
  5
8A
100
AcDbEntity
  8
0
370
    -3
  6
Continuous
100
AcDbLine
 10
60.902166
 20
-117.262121
 30
0.0
 11
-16.602679
 21
-117.262121
 31
0.0
  0
LINE
  5
8B
100
AcDbEntity
  8
0
370
    -3
  6
Continuous
100
AcDbLine
 10
60.902166
 20
-44.262121
 30
0.0
 11
144.902166
 21
-44.262121
 31
0.0
  0
LINE
  5
8C
100
AcDbEntity
  8
0
370
    -3
  6
Continuous
100
AcDbLine
 10
60.902166
 20
-39.876006
 30
0.0
 11
144.902166
 21
-39.876006
 31
0.0
  0
LINE
  5
8D
100
AcDbEntity
  8
0
370
    -3
  6
Continuous
100
AcDbLine
 10
60.902166
 20
-38.634086
 30
0.0
 11
144.902166
 21
-38.634086
 31
0.0
  0
LINE
  5
8E
100
AcDbEntity
  8
0
370
    -3
  6
Continuous
100
AcDbLine
 10
60.902166
 20
-35.423881
 30
0.0
 11
144.902166
 21
-35.423881
 31
0.0
  0
LINE
  5
8F
100
AcDbEntity
  8
0
370
    -3
  6
Continuous
100
AcDbLine
 10
60.902166
 20
-34.077479
 30
0.0
 11
144.902166
 21
-34.077479
 31
0.0
  0
LINE
  5
90
100
AcDbEntity
  8
0
370
    -3
  6
Continuous
100
AcDbLine
 10
60.902166
 20
-30.984748
 30
0.0
 11
144.902166
 21
-30.984748
 31
0.0
  0
LINE
  5
91
100
AcDbEntity
  8
0
370
    -3
  6
Continuous
100
AcDbLine
 10
60.902166
 20
-29.505725
 30
0.0
 11
144.902166
 21
-29.505725
 31
0.0
  0
LINE
  5
92
100
AcDbEntity
  8
0
370
    -3
  6
Continuous
100
AcDbLine
 10
60.902166
 20
-26.54773
 30
0.0
 11
144.902166
 21
-26.54773
 31
0.0
  0
LINE
  5
93
100
AcDbEntity
  8
0
370
    -3
  6
Continuous
100
AcDbLine
 10
60.902166
 20
-24.95852
 30
0.0
 11
144.902166
 21
-24.95852
 31
0.0
  0
LINE
  5
94
100
AcDbEntity
  8
0
370
    -3
  6
Continuous
100
AcDbLine
 10
60.902166
 20
-109.262121
 30
0.0
 11
144.902166
 21
-109.262121
 31
0.0
  0
LINE
  5
95
100
AcDbEntity
  8
0
370
    -3
  6
Continuous
100
AcDbLine
 10
60.902166
 20
-108.762121
 30
0.0
 11
144.902166
 21
-108.762121
 31
0.0
  0
LINE
  5
96
100
AcDbEntity
  8
0
370
    -3
  6
Continuous
100
AcDbLine
 10
60.902166
 20
-104.395203
 30
0.0
 11
144.902166
 21
-104.395203
 31
0.0
  0
LINE
  5
97
100
AcDbEntity
  8
0
370
    -3
  6
Continuous
100
AcDbLine
 10
60.902166
 20
-99.304035
 30
0.0
 11
144.902166
 21
-99.304035
 31
0.0
  0
LINE
  5
98
100
AcDbEntity
  8
0
370
    -3
  6
Continuous
100
AcDbLine
 10
60.902166
 20
-91.565722
 30
0.0
 11
144.902166
 21
-91.565722
 31
0.0
  0
LINE
  5
99
100
AcDbEntity
  8
0
370
    -3
  6
Continuous
100
AcDbLine
 10
60.902166
 20
-89.976512
 30
0.0
 11
144.902166
 21
-89.976512
 31
0.0
  0
LINE
  5
9A
100
AcDbEntity
  8
0
370
    -3
  6
Continuous
100
AcDbLine
 10
60.902166
 20
-87.018516
 30
0.0
 11
144.902166
 21
-87.018516
 31
0.0
  0
LINE
  5
9B
100
AcDbEntity
  8
0
370
    -3
  6
Continuous
100
AcDbLine
 10
60.902166
 20
-85.539493
 30
0.0
 11
144.902166
 21
-85.539493
 31
0.0
  0
LINE
  5
9C
100
AcDbEntity
  8
0
370
    -3
  6
Continuous
100
AcDbLine
 10
60.902166
 20
-82.446762
 30
0.0
 11
144.902166
 21
-82.446762
 31
0.0
  0
LINE
  5
9D
100
AcDbEntity
  8
0
370
    -3
  6
Continuous
100
AcDbLine
 10
60.902166
 20
-81.10036
 30
0.0
 11
144.902166
 21
-81.10036
 31
0.0
  0
LINE
  5
9E
100
AcDbEntity
  8
0
370
    -3
  6
Continuous
100
AcDbLine
 10
60.902166
 20
-76.648236
 30
0.0
 11
144.902166
 21
-76.648236
 31
0.0
  0
LINE
  5
9F
100
AcDbEntity
  8
0
370
    -3
  6
Continuous
100
AcDbLine
 10
60.902166
 20
-77.890155
 30
0.0
 11
144.902166
 21
-77.890155
 31
0.0
  0
LINE
  5
A0
100
AcDbEntity
  8
0
370
    -3
  6
Continuous
100
AcDbLine
 10
60.902166
 20
-72.262121
 30
0.0
 11
144.902166
 21
-72.262121
 31
0.0
  0
LINE
  5
A1
100
AcDbEntity
  8
0
370
    -3
  6
Continuous
100
AcDbLine
 10
144.902166
 20
-111.762121
 30
0.0
 11
60.902166
 21
-111.762121
 31
0.0
  0
ARC
  5
A2
100
AcDbEntity
  8
0
370
    -3
  6
Continuous
100
AcDbCircle
 10
142.102166
 20
32.237879
 30
0.0
 40
1.0
100
AcDbArc
 50
0.0
 51
90.0
  0
INSERT
  5
B2
100
AcDbEntity
  8
0
100
AcDbBlockReference
  2
ZU_SYM__USERS_HOME_SYMBOL_STD_SYM_B01_-1
 10
201.402181
 20
-137.699301
 30
0.0
  0
INSERT
  5
C2
100
AcDbEntity
  8
0
100
AcDbBlockReference
  2
ZU_SYM__USERS_HOME_SYMBOL_STD_SYM_B01_00002-1
 10
201.402181
 20
-40.825672
 30
0.0
  0
LINE
  5
C3
100
AcDbEntity
  8
0
370
    -3
  6
Continuous
100
AcDbLine
 10
144.902166
 20
365.297749
 30
0.0
 11
144.902166
 21
311.797749
 31
0.0
  0
LINE
  5
C4
100
AcDbEntity
  8
0
370
    -3
  6
Continuous
100
AcDbLine
 10
60.902166
 20
257.797749
 30
0.0
 11
-16.602679
 21
257.797749
 31
0.0
  0
LINE
  5
C5
100
AcDbEntity
  8
0
370
    -3
  6
Continuous
100
AcDbLine
 10
60.902166
 20
257.797749
 30
0.0
 11
60.902166
 21
270.797749
 31
0.0
  0
LINE
  5
C6
100
AcDbEntity
  8
0
370
    -3
  6
Continuous
100
AcDbLine
 10
60.902166
 20
365.797749
 30
0.0
 11
60.902166
 21
352.797749
 31
0.0
  0
LINE
  5
C7
100
AcDbEntity
  8
0
370
    -3
  6
Continuous
100
AcDbLine
 10
60.902166
 20
365.797749
 30
0.0
 11
-16.602679
 21
365.797749
 31
0.0
  0
LINE
  5
C8
100
AcDbEntity
  8
0
370
    -3
  6
Continuous
100
AcDbLine
 10
49.902166
 20
262.653828
 30
0.0
 11
47.902166
 21
264.30647
 31
0.0
  0
LINE
  5
C9
100
AcDbEntity
  8
0
370
    -3
  6
Continuous
100
AcDbLine
 10
51.902166
 20
261.478043
 30
0.0
 11
49.902166
 21
262.653828
 31
0.0
  0
LINE
  5
CA
100
AcDbEntity
  8
0
370
    -3
  6
Continuous
100
AcDbLine
 10
49.902166
 20
262.653828
 30
0.0
 11
51.902166
 21
264.30647
 31
0.0
  0
LINE
  5
CB
100
AcDbEntity
  8
0
370
    -3
  6
Continuous
100
AcDbLine
 10
47.902166
 20
261.478043
 30
0.0
 11
49.902166
 21
262.653828
 31
0.0
  0
ELLIPSE
  5
CC
100
AcDbEntity
  8
0
370
    -3
  6
Continuous
100
AcDbEllipse
 10
49.902166
 20
264.470418
 30
0.0
 11
4.6999999999999886
 21
0.0
 31
0.0
210
0.0
220
0.0
230
1.0
 40
0.766646
 41
0.0
 42
6.2831853071795862
  0
LINE
  5
CD
100
AcDbEntity
  8
0
370
    -3
  6
Continuous
100
AcDbLine
 10
49.902166
 20
360.94167
 30
0.0
 11
47.902166
 21
359.289029
 31
0.0
  0
LINE
  5
CE
100
AcDbEntity
  8
0
370
    -3
  6
Continuous
100
AcDbLine
 10
51.902166
 20
362.117456
 30
0.0
 11
49.902166
 21
360.94167
 31
0.0
  0
LINE
  5
CF
100
AcDbEntity
  8
0
370
    -3
  6
Continuous
100
AcDbLine
 10
49.902166
 20
360.94167
 30
0.0
 11
51.902166
 21
359.289029
 31
0.0
  0
LINE
  5
D0
100
AcDbEntity
  8
0
370
    -3
  6
Continuous
100
AcDbLine
 10
47.902166
 20
362.117456
 30
0.0
 11
49.902166
 21
360.94167
 31
0.0
  0
ELLIPSE
  5
D1
100
AcDbEntity
  8
0
370
    -3
  6
Continuous
100
AcDbEllipse
 10
49.902166
 20
359.12508
 30
0.0
 11
4.6999999999999886
 21
0.0
 31
0.0
210
0.0
220
0.0
230
1.0
 40
0.766646
 41
0.0
 42
6.2831853071795862
  0
LINE
  5
D2
100
AcDbEntity
  8
0
370
    -3
  6
Continuous
100
AcDbLine
 10
50.902166
 20
311.797749
 30
0.0
 11
50.902166
 21
346.797749
 31
0.0
  0
LINE
  5
D3
100
AcDbEntity
  8
0
370
    -3
  6
Continuous
100
AcDbLine
 10
144.902166
 20
364.297749
 30
0.0
 11
60.902166
 21
364.297749
 31
0.0
  0
LINE
  5
D4
100
AcDbEntity
  8
0
370
    -3
  6
Continuous
100
AcDbLine
 10
60.902166
 20
362.297749
 30
0.0
 11
144.902166
 21
362.297749
 31
0.0
  0
LINE
  5
D5
100
AcDbEntity
  8
0
370
    -3
  6
Continuous
100
AcDbLine
 10
60.902166
 20
362.797749
 30
0.0
 11
144.902166
 21
362.797749
 31
0.0
  0
LINE
  5
D6
100
AcDbEntity
  8
0
370
    -3
  6
Continuous
100
AcDbLine
 10
60.902166
 20
357.930832
 30
0.0
 11
144.902166
 21
357.930832
 31
0.0
  0
LINE
  5
D7
100
AcDbEntity
  8
0
370
    -3
  6
Continuous
100
AcDbLine
 10
60.902166
 20
356.302405
 30
0.0
 11
144.902166
 21
356.302405
 31
0.0
  0
LINE
  5
D8
100
AcDbEntity
  8
0
370
    -3
  6
Continuous
100
AcDbLine
 10
60.902166
 20
352.839663
 30
0.0
 11
144.902166
 21
352.839663
 31
0.0
  0
LINE
  5
D9
100
AcDbEntity
  8
0
370
    -3
  6
Continuous
100
AcDbLine
 10
60.744566
 20
351.838185
 30
0.0
 11
144.902166
 21
351.838185
 31
0.0
  0
LINE
  5
DA
100
AcDbEntity
  8
0
370
    -3
  6
Continuous
100
AcDbLine
 10
50.902166
 20
345.10135
 30
0.0
 11
53.102166
 21
345.10135
 31
0.0
  0
LINE
  5
DB
100
AcDbEntity
  8
0
370
    -3
  6
Continuous
100
AcDbLine
 10
50.902166
 20
343.51214
 30
0.0
 11
53.102166
 21
343.51214
 31
0.0
  0
LINE
  5
DC
100
AcDbEntity
  8
0
370
    -3
  6
Continuous
100
AcDbLine
 10
50.902166
 20
340.554145
 30
0.0
 11
53.102166
 21
340.554145
 31
0.0
  0
LINE
  5
DD
100
AcDbEntity
  8
0
370
    -3
  6
Continuous
100
AcDbLine
 10
50.902166
 20
339.075122
 30
0.0
 11
53.102166
 21
339.075122
 31
0.0
  0
LINE
  5
DE
100
AcDbEntity
  8
0
370
    -3
  6
Continuous
100
AcDbLine
 10
50.902166
 20
335.982391
 30
0.0
 11
53.102166
 21
335.982391
 31
0.0
  0
LINE
  5
DF
100
AcDbEntity
  8
0
370
    -3
  6
Continuous
100
AcDbLine
 10
50.902166
 20
334.635989
 30
0.0
 11
53.102166
 21
334.635989
 31
0.0
  0
LINE
  5
E0
100
AcDbEntity
  8
0
370
    -3
  6
Continuous
100
AcDbLine
 10
50.902166
 20
331.797749
 30
0.0
 11
53.102166
 21
331.797749
 31
0.0
  0
LINE
  5
E1
100
AcDbEntity
  8
0
370
    -3
  6
Continuous
100
AcDbLine
 10
143.102166
 20
340.554145
 30
0.0
 11
144.902166
 21
340.554145
 31
0.0
  0
LINE
  5
E2
100
AcDbEntity
  8
0
370
    -3
  6
Continuous
100
AcDbLine
 10
143.102166
 20
339.075122
 30
0.0
 11
144.902166
 21
339.075122
 31
0.0
  0
LINE
  5
E3
100
AcDbEntity
  8
0
370
    -3
  6
Continuous
100
AcDbLine
 10
143.102166
 20
335.982391
 30
0.0
 11
144.902166
 21
335.982391
 31
0.0
  0
LINE
  5
E4
100
AcDbEntity
  8
0
370
    -3
  6
Continuous
100
AcDbLine
 10
143.102166
 20
334.635989
 30
0.0
 11
144.902166
 21
334.635989
 31
0.0
  0
LINE
  5
E5
100
AcDbEntity
  8
0
370
    -3
  6
Continuous
100
AcDbLine
 10
143.102166
 20
331.797749
 30
0.0
 11
144.902166
 21
331.797749
 31
0.0
  0
LINE
  5
E6
100
AcDbEntity
  8
0
370
    -3
  6
Continuous
100
AcDbLine
 10
143.102166
 20
343.51214
 30
0.0
 11
144.902166
 21
343.51214
 31
0.0
  0
LINE
  5
E7
100
AcDbEntity
  8
0
370
    -3
  6
Continuous
100
AcDbLine
 10
143.102166
 20
345.10135
 30
0.0
 11
144.902166
 21
345.10135
 31
0.0
  0
ARC
  5
E8
100
AcDbEntity
  8
0
370
    -3
  6
Continuous
100
AcDbCircle
 10
142.102166
 20
346.797749
 30
0.0
 40
1.0
100
AcDbArc
 50
0.0
 51
90.0
  0
LINE
  5
E9
100
AcDbEntity
  8
0
370
    -3
  6
Continuous
100
AcDbLine
 10
142.102166
 20
347.797749
 30
0.0
 11
54.102166
 21
347.797749
 31
0.0
  0
LINE
  5
EA
100
AcDbEntity
  8
0
370
    -3
  6
Continuous
100
AcDbLine
 10
143.102166
 20
346.797749
 30
0.0
 11
143.102166
 21
311.797749
 31
0.0
  0
ARC
  5
EB
100
AcDbEntity
  8
0
370
    -3
  6
Continuous
100
AcDbCircle
 10
54.102166
 20
346.797749
 30
0.0
 40
1.0
100
AcDbArc
 50
90.0
 51
180.0
  0
LINE
  5
EC
100
AcDbEntity
  8
0
370
    -3
  6
Continuous
100
AcDbLine
 10
53.102166
 20
346.797749
 30
0.0
 11
53.102166
 21
311.797749
 31
0.0
  0
ARC
  5
ED
100
AcDbEntity
  8
0
370
    -3
  6
Continuous
100
AcDbCircle
 10
57.902166
 20
352.797749
 30
0.0
 40
3.0
100
AcDbArc
 50
270.0
 51
0.0
  0
LINE
  5
EE
100
AcDbEntity
  8
0
370
    -3
  6
Continuous
100
AcDbLine
 10
57.902166
 20
349.797749
 30
0.0
 11
53.902166
 21
349.797749
 31
0.0
  0
ARC
  5
EF
100
AcDbEntity
  8
0
370
    -3
  6
Continuous
100
AcDbCircle
 10
53.902166
 20
346.797749
 30
0.0
 40
3.0
100
AcDbArc
 50
90.0
 51
180.0
  0
LINE
  5
F0
100
AcDbEntity
  8
0
370
    -3
  6
Continuous
100
AcDbLine
 10
-28.418354
 20
362.072281
 30
0.0
 11
-35.989133
 21
356.771165
 31
0.0
  0
LINE
  5
F1
100
AcDbEntity
  8
0
370
    -3
  6
Continuous
100
AcDbLine
 10
-37.097834
 20
354.641369
 30
0.0
 11
-37.097834
 21
311.797749
 31
0.0
  0
ARC
  5
F2
100
AcDbEntity
  8
0
370
    -3
  6
Continuous
100
AcDbCircle
 10
-34.497834
 20
354.641369
 30
0.0
 40
2.6
100
AcDbArc
 50
125.0
 51
180.0
  0
ARC
  5
F3
100
AcDbEntity
  8
0
370
    -3
  6
Continuous
100
AcDbCircle
 10
-16.602679
 20
345.197749
 30
0.0
 40
20.6
100
AcDbArc
 50
90.0
 51
125.0
  0
LINE
  5
F4
100
AcDbEntity
  8
0
370
    -3
  6
Continuous
100
AcDbLine
 10
50.902166
 20
311.797749
 30
0.0
 11
50.902166
 21
276.797749
 31
0.0
  0
LINE
  5
F5
100
AcDbEntity
  8
0
370
    -3
  6
Continuous
100
AcDbLine
 10
144.902166
 20
259.297749
 30
0.0
 11
60.902166
 21
259.297749
 31
0.0
  0
LINE
  5
F6
100
AcDbEntity
  8
0
370
    -3
  6
Continuous
100
AcDbLine
 10
60.902166
 20
261.297749
 30
0.0
 11
144.902166
 21
261.297749
 31
0.0
  0
LINE
  5
F7
100
AcDbEntity
  8
0
370
    -3
  6
Continuous
100
AcDbLine
 10
60.902166
 20
260.797749
 30
0.0
 11
144.902166
 21
260.797749
 31
0.0
  0
LINE
  5
F8
100
AcDbEntity
  8
0
370
    -3
  6
Continuous
100
AcDbLine
 10
60.902166
 20
265.664667
 30
0.0
 11
144.902166
 21
265.664667
 31
0.0
  0
LINE
  5
F9
100
AcDbEntity
  8
0
370
    -3
  6
Continuous
100
AcDbLine
 10
60.902166
 20
267.293094
 30
0.0
 11
144.902166
 21
267.293094
 31
0.0
  0
LINE
  5
FA
100
AcDbEntity
  8
0
370
    -3
  6
Continuous
100
AcDbLine
 10
60.902166
 20
270.755835
 30
0.0
 11
144.902166
 21
270.755835
 31
0.0
  0
LINE
  5
FB
100
AcDbEntity
  8
0
370
    -3
  6
Continuous
100
AcDbLine
 10
60.744566
 20
271.757314
 30
0.0
 11
144.902166
 21
271.757314
 31
0.0
  0
LINE
  5
FC
100
AcDbEntity
  8
0
370
    -3
  6
Continuous
100
AcDbLine
 10
50.902166
 20
278.494148
 30
0.0
 11
53.102166
 21
278.494148
 31
0.0
  0
LINE
  5
FD
100
AcDbEntity
  8
0
370
    -3
  6
Continuous
100
AcDbLine
 10
50.902166
 20
280.083358
 30
0.0
 11
53.102166
 21
280.083358
 31
0.0
  0
LINE
  5
FE
100
AcDbEntity
  8
0
370
    -3
  6
Continuous
100
AcDbLine
 10
50.902166
 20
283.041354
 30
0.0
 11
53.102166
 21
283.041354
 31
0.0
  0
LINE
  5
FF
100
AcDbEntity
  8
0
370
    -3
  6
Continuous
100
AcDbLine
 10
50.902166
 20
284.520377
 30
0.0
 11
53.102166
 21
284.520377
 31
0.0
  0
LINE
  5
100
100
AcDbEntity
  8
0
370
    -3
  6
Continuous
100
AcDbLine
 10
50.902166
 20
287.613108
 30
0.0
 11
53.102166
 21
287.613108
 31
0.0
  0
LINE
  5
101
100
AcDbEntity
  8
0
370
    -3
  6
Continuous
100
AcDbLine
 10
50.902166
 20
288.95951
 30
0.0
 11
53.102166
 21
288.95951
 31
0.0
  0
LINE
  5
102
100
AcDbEntity
  8
0
370
    -3
  6
Continuous
100
AcDbLine
 10
50.902166
 20
291.797749
 30
0.0
 11
53.102166
 21
291.797749
 31
0.0
  0
LINE
  5
103
100
AcDbEntity
  8
0
370
    -3
  6
Continuous
100
AcDbLine
 10
143.102166
 20
283.041354
 30
0.0
 11
144.902166
 21
283.041354
 31
0.0
  0
LINE
  5
104
100
AcDbEntity
  8
0
370
    -3
  6
Continuous
100
AcDbLine
 10
143.102166
 20
284.520377
 30
0.0
 11
144.902166
 21
284.520377
 31
0.0
  0
LINE
  5
105
100
AcDbEntity
  8
0
370
    -3
  6
Continuous
100
AcDbLine
 10
143.102166
 20
287.613108
 30
0.0
 11
144.902166
 21
287.613108
 31
0.0
  0
LINE
  5
106
100
AcDbEntity
  8
0
370
    -3
  6
Continuous
100
AcDbLine
 10
143.102166
 20
288.95951
 30
0.0
 11
144.902166
 21
288.95951
 31
0.0
  0
LINE
  5
107
100
AcDbEntity
  8
0
370
    -3
  6
Continuous
100
AcDbLine
 10
143.102166
 20
291.797749
 30
0.0
 11
144.902166
 21
291.797749
 31
0.0
  0
LINE
  5
108
100
AcDbEntity
  8
0
370
    -3
  6
Continuous
100
AcDbLine
 10
143.102166
 20
280.083358
 30
0.0
 11
144.902166
 21
280.083358
 31
0.0
  0
LINE
  5
109
100
AcDbEntity
  8
0
370
    -3
  6
Continuous
100
AcDbLine
 10
143.102166
 20
278.494148
 30
0.0
 11
144.902166
 21
278.494148
 31
0.0
  0
ARC
  5
10A
100
AcDbEntity
  8
0
370
    -3
  6
Continuous
100
AcDbCircle
 10
142.102166
 20
276.797749
 30
0.0
 40
1.0
100
AcDbArc
 50
270.0
 51
0.0
  0
LINE
  5
10B
100
AcDbEntity
  8
0
370
    -3
  6
Continuous
100
AcDbLine
 10
142.102166
 20
275.797749
 30
0.0
 11
54.102166
 21
275.797749
 31
0.0
  0
LINE
  5
10C
100
AcDbEntity
  8
0
370
    -3
  6
Continuous
100
AcDbLine
 10
143.102166
 20
276.797749
 30
0.0
 11
143.102166
 21
311.797749
 31
0.0
  0
ARC
  5
10D
100
AcDbEntity
  8
0
370
    -3
  6
Continuous
100
AcDbCircle
 10
54.102166
 20
276.797749
 30
0.0
 40
1.0
100
AcDbArc
 50
180.0
 51
270.0
  0
LINE
  5
10E
100
AcDbEntity
  8
0
370
    -3
  6
Continuous
100
AcDbLine
 10
53.102166
 20
276.797749
 30
0.0
 11
53.102166
 21
311.797749
 31
0.0
  0
ARC
  5
10F
100
AcDbEntity
  8
0
370
    -3
  6
Continuous
100
AcDbCircle
 10
57.902166
 20
270.797749
 30
0.0
 40
3.0
100
AcDbArc
 50
0.0
 51
90.0
  0
LINE
  5
110
100
AcDbEntity
  8
0
370
    -3
  6
Continuous
100
AcDbLine
 10
57.902166
 20
273.797749
 30
0.0
 11
53.902166
 21
273.797749
 31
0.0
  0
ARC
  5
111
100
AcDbEntity
  8
0
370
    -3
  6
Continuous
100
AcDbCircle
 10
53.902166
 20
276.797749
 30
0.0
 40
3.0
100
AcDbArc
 50
180.0
 51
270.0
  0
LINE
  5
112
100
AcDbEntity
  8
0
370
    -3
  6
Continuous
100
AcDbLine
 10
-28.418354
 20
261.523217
 30
0.0
 11
-35.989133
 21
266.824334
 31
0.0
  0
LINE
  5
113
100
AcDbEntity
  8
0
370
    -3
  6
Continuous
100
AcDbLine
 10
-37.097834
 20
268.954129
 30
0.0
 11
-37.097834
 21
311.797749
 31
0.0
  0
ARC
  5
114
100
AcDbEntity
  8
0
370
    -3
  6
Continuous
100
AcDbCircle
 10
-34.497834
 20
268.954129
 30
0.0
 40
2.6
100
AcDbArc
 50
180.0
 51
235.0
  0
ARC
  5
115
100
AcDbEntity
  8
0
370
    -3
  6
Continuous
100
AcDbCircle
 10
-16.602679
 20
278.397749
 30
0.0
 40
20.6
100
AcDbArc
 50
235.0
 51
270.0
  0
INSERT
  5
125
100
AcDbEntity
  8
0
100
AcDbBlockReference
  2
ZU_SYM__USERS_HOME_SYMBOL_STD_SYM_B01_00003-1
 10
201.402181
 20
263.360935
 30
0.0
 50
360.0
  0
INSERT
  5
135
100
AcDbEntity
  8
0
100
AcDbBlockReference
  2
ZU_SYM__USERS_HOME_SYMBOL_STD_SYM_B01_00004-1
 10
201.402181
 20
360.234564
 30
0.0
 50
360.0
  0
MTEXT
  5
137
100
AcDbEntity
  8
0
370
    -3
  6
Continuous
100
AcDbMText
 10
887.805664
 20
-181.277847
 30
0.0
 40
6.6
 41
0.0
 71
     7
 72
     1
  1
\W0.82;GM-SHYB-RR
  7
ZU_SHPTB00001
 11
1.0
 21
0.0
 31
0.0
 73
     1
 44
1.0
  0
MTEXT
  5
138
100
AcDbEntity
  8
0
370
    -3
  6
Continuous
100
AcDbMText
 10
887.805664
 20
-192.277847
 30
0.0
 40
6.6
 41
0.0
 71
     7
 72
     1
  1
\W0.82;0.2kW
  7
ZU_SHPTB00001
 11
1.0
 21
0.0
 31
0.0
 73
     1
 44
1.0
  0
MTEXT
  5
139
100
AcDbEntity
  8
0
370
    -3
  6
Continuous
100
AcDbMText
 10
887.805664
 20
-203.277847
 30
0.0
 40
6.6
 41
0.0
 71
     7
 72
     1
  1
\W0.82;1/1200-1/1440
  7
ZU_SHPTB00001
 11
1.0
 21
0.0
 31
0.0
 73
     1
 44
1.0
  0
MTEXT
  5
13A
100
AcDbEntity
  8
0
370
    -3
  6
Continuous
100
AcDbMText
 10
887.805664
 20
-214.277847
 30
0.0
 40
6.6
 41
0.0
 71
     7
 72
     1
  1
\W0.82;SCALE\W1.36; \W0.82;1/1
  7
ZU_SHPTB00001
 11
1.0
 21
0.0
 31
0.0
 73
     1
 44
1.0
  0
LINE
  5
13B
100
AcDbEntity
  8
0
370
    -3
  6
CENTER
100
AcDbLine
 10
-75.210386
 20
-50.08206
 30
0.0
 11
-356.501794
 21
-50.08206
 31
0.0
  0
LINE
  5
13C
100
AcDbEntity
  8
0
370
    -3
  6
CENTER
100
AcDbLine
 10
-216.283904
 20
-58.262121
 30
0.0
 11
-277.647434
 21
-58.262121
 31
0.0
  0
LINE
  5
13D
100
AcDbEntity
  8
0
370
    -3
  6
Continuous
100
AcDbLine
 10
-148.09781
 20
-71.08206
 30
0.0
 11
-145.09781
 21
-71.08206
 31
0.0
  0
LINE
  5
13E
100
AcDbEntity
  8
0
370
    -3
  6
Continuous
100
AcDbLine
 10
-148.09781
 20
-29.08206
 30
0.0
 11
-145.09781
 21
-29.08206
 31
0.0
  0
LINE
  5
13F
100
AcDbEntity
  8
0
370
    -3
  6
Continuous
100
AcDbLine
 10
-145.09781
 20
-29.08206
 30
0.0
 11
-145.09781
 21
-71.08206
 31
0.0
  0
LINE
  5
140
100
AcDbEntity
  8
0
370
    -3
  6
Continuous
100
AcDbLine
 10
-135.09781
 20
-30.08206
 30
0.0
 11
-135.09781
 21
-27.08206
 31
0.0
  0
LINE
  5
141
100
AcDbEntity
  8
0
370
    -3
  6
Continuous
100
AcDbLine
 10
-145.09781
 20
-70.08206
 30
0.0
 11
-80.09781
 21
-70.08206
 31
0.0
  0
LINE
  5
142
100
AcDbEntity
  8
0
370
    -3
  6
Continuous
100
AcDbLine
 10
-80.09781
 20
-70.08206
 30
0.0
 11
-80.09781
 21
-27.08206
 31
0.0
  0
LINE
  5
143
100
AcDbEntity
  8
0
370
    -3
  6
Continuous
100
AcDbLine
 10
-145.09781
 20
-30.08206
 30
0.0
 11
-80.09781
 21
-30.08206
 31
0.0
  0
LINE
  5
144
100
AcDbEntity
  8
0
370
    -3
  6
Continuous
100
AcDbLine
 10
-135.09781
 20
-27.08206
 30
0.0
 11
-80.09781
 21
-27.08206
 31
0.0
  0
ARC
  5
145
100
AcDbEntity
  8
0
370
    -3
  6
Continuous
100
AcDbCircle
 10
-312.59781
 20
32.77051
 30
0.0
 40
3.0
100
AcDbArc
 50
91.0
 51
180.0
  0
LINE
  5
146
100
AcDbEntity
  8
0
370
    -3
  6
CENTER
100
AcDbLine
 10
-163.09781
 20
-193.001826
 30
0.0
 11
-163.09781
 21
-229.373459
 31
0.0
  0
LINE
  5
147
100
AcDbEntity
  8
0
370
    -3
  6
Continuous
100
AcDbLine
 10
-180.59781
 20
-50.08206
 30
0.0
 11
-180.59781
 21
-58.934741
 31
0.0
  0
ARC
  5
148
100
AcDbEntity
  8
0
370
    -3
  6
Continuous
100
AcDbCircle
 10
-175.59781
 20
7.372394
 30
0.0
 40
3.0
100
AcDbArc
 50
180.0
 51
260.0
  0
ARC
  5
149
100
AcDbEntity
  8
0
370
    -3
  6
Continuous
100
AcDbCircle
 10
-182.59781
 20
35.786722
 30
0.0
 40
2.0
100
AcDbArc
 50
0.0
 51
89.0
  0
ARC
  5
14A
100
AcDbEntity
  8
0
370
    -3
  6
Continuous
100
AcDbCircle
 10
-179.59781
 20
22.91794
 30
0.0
 40
1.0
100
AcDbArc
 50
180.0
 51
270.0
  0
ARC
  5
14B
100
AcDbEntity
  8
0
370
    -3
  6
Continuous
100
AcDbCircle
 10
-179.59781
 20
20.91794
 30
0.0
 40
1.0
100
AcDbArc
 50
0.0
 51
90.0
  0
LINE
  5
14C
100
AcDbEntity
  8
0
370
    -3
  6
Continuous
100
AcDbLine
 10
-178.59781
 20
20.91794
 30
0.0
 11
-178.59781
 21
-50.08206
 31
0.0
  0
LINE
  5
14D
100
AcDbEntity
  8
0
370
    -3
  6
Continuous
100
AcDbLine
 10
-190.09781
 20
37.91794
 30
0.0
 11
-182.562905
 21
37.786418
 31
0.0
  0
LINE
  5
14E
100
AcDbEntity
  8
0
370
    -3
  6
Continuous
100
AcDbLine
 10
-180.59781
 20
35.786722
 30
0.0
 11
-180.59781
 21
-50.08206
 31
0.0
  0
ARC
  5
14F
100
AcDbEntity
  8
0
370
    -3
  6
Continuous
100
AcDbCircle
 10
-182.59781
 20
-197.08206
 30
0.0
 40
2.0
100
AcDbArc
 50
270.0
 51
0.0
  0
LINE
  5
150
100
AcDbEntity
  8
0
370
    -3
  6
Continuous
100
AcDbLine
 10
-182.59781
 20
-199.08206
 30
0.0
 11
-189.333878
 21
-199.08206
 31
0.0
  0
ARC
  5
151
100
AcDbEntity
  8
0
370
    -3
  6
Continuous
100
AcDbCircle
 10
-175.59781
 20
-107.536514
 30
0.0
 40
3.0
100
AcDbArc
 50
100.0
 51
109.471221
  0
LINE
  5
152
100
AcDbEntity
  8
0
370
    -3
  6
Continuous
100
AcDbLine
 10
-178.59781
 20
-50.08206
 30
0.0
 11
-178.59781
 21
-63.85051
 31
0.0
  0
LINE
  5
153
100
AcDbEntity
  8
0
370
    -3
  6
Continuous
100
AcDbLine
 10
-176.59781
 20
-104.708087
 30
0.0
 11
-176.59781
 21
-105.502868
 31
0.0
  0
ARC
  5
154
100
AcDbEntity
  8
0
370
    -3
  6
Continuous
100
AcDbCircle
 10
-196.59781
 20
-105.502868
 30
0.0
 40
20.0
100
AcDbArc
 50
342.497476
 51
0.0
  0
ARC
  5
155
100
AcDbEntity
  8
0
370
    -3
  6
Continuous
100
AcDbCircle
 10
-248.09781
 20
-89.262486
 30
0.0
 40
74.0
100
AcDbArc
 50
339.915834
 51
342.497476
  0
ARC
  5
156
100
AcDbEntity
  8
0
370
    -3
  6
Continuous
100
AcDbCircle
 10
-187.09781
 20
-197.08206
 30
0.0
 40
3.0
100
AcDbArc
 50
180.0
 51
270.0
  0
LINE
  5
157
100
AcDbEntity
  8
0
370
    -3
  6
Continuous
100
AcDbLine
 10
-190.09781
 20
-135.218987
 30
0.0
 11
-190.09781
 21
-197.08206
 31
0.0
  0
LINE
  5
158
100
AcDbEntity
  8
0
370
    -3
  6
Continuous
100
AcDbLine
 10
-149.09781
 20
-200.08206
 30
0.0
 11
-187.09781
 21
-200.08206
 31
0.0
  0
LINE
  5
159
100
AcDbEntity
  8
0
370
    -3
  6
Continuous
100
AcDbLine
 10
-148.09781
 20
-201.08206
 30
0.0
 11
-148.09781
 21
-220.08206
 31
0.0
  0
ARC
  5
15A
100
AcDbEntity
  8
0
370
    -3
  6
Continuous
100
AcDbCircle
 10
-149.09781
 20
-201.08206
 30
0.0
 40
1.0
100
AcDbArc
 50
0.0
 51
90.0
  0
LINE
  5
15B
100
AcDbEntity
  8
0
370
    -3
  6
Continuous
100
AcDbLine
 10
-318.59781
 20
-200.08206
 30
0.0
 11
-347.09781
 21
-200.08206
 31
0.0
  0
LINE
  5
15C
100
AcDbEntity
  8
0
370
    -3
  6
Continuous
100
AcDbLine
 10
-348.09781
 20
-201.08206
 30
0.0
 11
-348.09781
 21
-220.08206
 31
0.0
  0
LINE
  5
15D
100
AcDbEntity
  8
0
370
    -3
  6
Continuous
100
AcDbLine
 10
-148.09781
 20
-220.08206
 30
0.0
 11
-348.09781
 21
-220.08206
 31
0.0
  0
LINE
  5
15E
100
AcDbEntity
  8
0
370
    -3
  6
CENTER
100
AcDbLine
 10
-333.09781
 20
-193.001826
 30
0.0
 11
-333.09781
 21
-229.373459
 31
0.0
  0
ARC
  5
15F
100
AcDbEntity
  8
0
370
    -3
  6
Continuous
100
AcDbCircle
 10
-318.59781
 20
-197.08206
 30
0.0
 40
3.0
100
AcDbArc
 50
270.0
 51
0.0
  0
ARC
  5
160
100
AcDbEntity
  8
0
370
    -3
  6
Continuous
100
AcDbCircle
 10
-347.09781
 20
-201.08206
 30
0.0
 40
1.0
100
AcDbArc
 50
90.0
 51
180.0
  0
ARC
  5
161
100
AcDbEntity
  8
0
370
    -3
  6
Continuous
100
AcDbCircle
 10
-320.59781
 20
-107.624678
 30
0.0
 40
3.0
100
AcDbArc
 50
70.528779
 51
80.0
  0
LINE
  5
162
100
AcDbEntity
  8
0
370
    -3
  6
Continuous
100
AcDbLine
 10
-319.59781
 20
-104.796251
 30
0.0
 11
-319.59781
 21
-105.502868
 31
0.0
  0
ARC
  5
163
100
AcDbEntity
  8
0
370
    -3
  6
Continuous
100
AcDbCircle
 10
-299.59781
 20
-105.502868
 30
0.0
 40
20.0
100
AcDbArc
 50
180.0
 51
197.502524
  0
ARC
  5
164
100
AcDbEntity
  8
0
370
    -3
  6
Continuous
100
AcDbCircle
 10
-248.09781
 20
-89.262486
 30
0.0
 40
74.0
100
AcDbArc
 50
197.502524
 51
200.084166
  0
LINE
  5
165
100
AcDbEntity
  8
0
370
    -3
  6
Continuous
100
AcDbLine
 10
-317.59781
 20
-114.674098
 30
0.0
 11
-317.59781
 21
-179.08206
 31
0.0
  0
ARC
  5
166
100
AcDbEntity
  8
0
370
    -3
  6
Continuous
100
AcDbCircle
 10
-316.59781
 20
-179.08206
 30
0.0
 40
1.0
100
AcDbArc
 50
180.0
 51
270.0
  0
ARC
  5
167
100
AcDbEntity
  8
0
370
    -3
  6
Continuous
100
AcDbCircle
 10
-316.59781
 20
-181.08206
 30
0.0
 40
1.0
100
AcDbArc
 50
0.0
 51
90.0
  0
LINE
  5
168
100
AcDbEntity
  8
0
370
    -3
  6
Continuous
100
AcDbLine
 10
-315.59781
 20
-119.589867
 30
0.0
 11
-315.59781
 21
-197.08206
 31
0.0
  0
ARC
  5
169
100
AcDbEntity
  8
0
370
    -3
  6
Continuous
100
AcDbCircle
 10
-343.09781
 20
-97.564761
 30
0.0
 40
3.0
100
AcDbArc
 50
180.0
 51
260.0
  0
LINE
  5
16A
100
AcDbEntity
  8
0
370
    -3
  6
Continuous
100
AcDbLine
 10
-343.618755
 20
-100.519184
 30
0.0
 11
-320.076865
 21
-104.670255
 31
0.0
  0
LINE
  5
16B
100
AcDbEntity
  8
0
370
    -3
  6
Continuous
100
AcDbLine
 10
-348.09781
 20
-81.38206
 30
0.0
 11
-347.89781
 21
-81.58206
 31
0.0
  0
LINE
  5
16C
100
AcDbEntity
  8
0
370
    -3
  6
Continuous
100
AcDbLine
 10
-348.09781
 20
-81.38206
 30
0.0
 11
-348.09781
 21
-50.08206
 31
0.0
  0
LINE
  5
16D
100
AcDbEntity
  8
0
370
    -3
  6
Continuous
100
AcDbLine
 10
-346.09781
 20
-97.564761
 30
0.0
 11
-346.09781
 21
-50.08206
 31
0.0
  0
LINE
  5
16E
100
AcDbEntity
  8
0
370
    -3
  6
Continuous
100
AcDbLine
 10
-347.89781
 20
-81.58206
 30
0.0
 11
-346.09781
 21
-81.58206
 31
0.0
  0
ARC
  5
16F
100
AcDbEntity
  8
0
370
    -3
  6
Continuous
100
AcDbCircle
 10
-343.09781
 20
-2.599359
 30
0.0
 40
3.0
100
AcDbArc
 50
100.0
 51
180.0
  0
LINE
  5
170
100
AcDbEntity
  8
0
370
    -3
  6
Continuous
100
AcDbLine
 10
-348.09781
 20
-18.78206
 30
0.0
 11
-347.89781
 21
-18.58206
 31
0.0
  0
LINE
  5
171
100
AcDbEntity
  8
0
370
    -3
  6
Continuous
100
AcDbLine
 10
-347.89781
 20
-18.58206
 30
0.0
 11
-346.09781
 21
-18.58206
 31
0.0
  0
LINE
  5
172
100
AcDbEntity
  8
0
370
    -3
  6
Continuous
100
AcDbLine
 10
-346.09781
 20
-2.599359
 30
0.0
 11
-346.09781
 21
-50.08206
 31
0.0
  0
LINE
  5
173
100
AcDbEntity
  8
0
370
    -3
  6
Continuous
100
AcDbLine
 10
-348.09781
 20
-18.78206
 30
0.0
 11
-348.09781
 21
-50.08206
 31
0.0
  0
ARC
  5
174
100
AcDbEntity
  8
0
370
    -3
  6
Continuous
100
AcDbCircle
 10
-320.59781
 20
7.460558
 30
0.0
 40
3.0
100
AcDbArc
 50
280.0
 51
360.0
  0
LINE
  5
175
100
AcDbEntity
  8
0
370
    -3
  6
Continuous
100
AcDbLine
 10
-343.618755
 20
0.355064
 30
0.0
 11
-320.076865
 21
4.506135
 31
0.0
  0
LINE
  5
176
100
AcDbEntity
  8
0
370
    -3
  6
Continuous
100
AcDbLine
 10
-190.09781
 20
37.91794
 30
0.0
 11
-190.09781
 21
-43.305985
 31
0.0
  0
ARC
  5
177
100
AcDbEntity
  8
0
370
    -3
  6
Continuous
100
AcDbCircle
 10
-316.59781
 20
20.91794
 30
0.0
 40
1.0
100
AcDbArc
 50
90.0
 51
180.0
  0
ARC
  5
178
100
AcDbEntity
  8
0
370
    -3
  6
Continuous
100
AcDbCircle
 10
-316.59781
 20
22.91794
 30
0.0
 40
1.0
100
AcDbArc
 50
270.0
 51
0.0
  0
LINE
  5
179
100
AcDbEntity
  8
0
370
    -3
  6
Continuous
100
AcDbLine
 10
-317.59781
 20
20.91794
 30
0.0
 11
-317.59781
 21
-63.850875
 31
0.0
  0
LINE
  5
17A
100
AcDbEntity
  8
0
370
    -3
  6
Continuous
100
AcDbLine
 10
-315.59781
 20
32.77051
 30
0.0
 11
-315.59781
 21
-58.935106
 31
0.0
  0
ARC
  5
17B
100
AcDbEntity
  8
0
370
    -3
  6
Continuous
100
AcDbCircle
 10
-179.59781
 20
-179.08206
 30
0.0
 40
1.0
100
AcDbArc
 50
270.0
 51
0.0
  0
ARC
  5
17C
100
AcDbEntity
  8
0
370
    -3
  6
Continuous
100
AcDbCircle
 10
-179.59781
 20
-181.08206
 30
0.0
 40
1.0
100
AcDbArc
 50
90.0
 51
180.0
  0
LINE
  5
17D
100
AcDbEntity
  8
0
370
    -3
  6
Continuous
100
AcDbLine
 10
-152.576865
 20
-100.519184
 30
0.0
 11
-176.118755
 21
-104.582091
 31
0.0
  0
LINE
  5
17E
100
AcDbEntity
  8
0
370
    -3
  6
Continuous
100
AcDbLine
 10
-152.576865
 20
0.355064
 30
0.0
 11
-176.118755
 21
4.417971
 31
0.0
  0
LINE
  5
17F
100
AcDbEntity
  8
0
370
    -3
  6
Continuous
100
AcDbLine
 10
-148.09781
 20
-81.18206
 30
0.0
 11
-148.09781
 21
-50.08206
 31
0.0
  0
LINE
  5
180
100
AcDbEntity
  8
0
370
    -3
  6
Continuous
100
AcDbLine
 10
-148.49781
 20
-81.58206
 30
0.0
 11
-148.09781
 21
-81.18206
 31
0.0
  0
LINE
  5
181
100
AcDbEntity
  8
0
370
    -3
  6
Continuous
100
AcDbLine
 10
-148.49781
 20
-18.58206
 30
0.0
 11
-148.09781
 21
-18.98206
 31
0.0
  0
LINE
  5
182
100
AcDbEntity
  8
0
370
    -3
  6
Continuous
100
AcDbLine
 10
-148.09781
 20
-18.98206
 30
0.0
 11
-148.09781
 21
-50.08206
 31
0.0
  0
LINE
  5
183
100
AcDbEntity
  8
0
370
    -3
  6
Continuous
100
AcDbLine
 10
-148.49781
 20
-81.58206
 30
0.0
 11
-150.09781
 21
-81.58206
 31
0.0
  0
ARC
  5
184
100
AcDbEntity
  8
0
370
    -3
  6
Continuous
100
AcDbCircle
 10
-153.09781
 20
-97.564761
 30
0.0
 40
3.0
100
AcDbArc
 50
280.0
 51
0.0
  0
LINE
  5
185
100
AcDbEntity
  8
0
370
    -3
  6
Continuous
100
AcDbLine
 10
-150.09781
 20
-97.564761
 30
0.0
 11
-150.09781
 21
-50.08206
 31
0.0
  0
LINE
  5
186
100
AcDbEntity
  8
0
370
    -3
  6
Continuous
100
AcDbLine
 10
-148.49781
 20
-18.58206
 30
0.0
 11
-150.09781
 21
-18.58206
 31
0.0
  0
ARC
  5
187
100
AcDbEntity
  8
0
370
    -3
  6
Continuous
100
AcDbCircle
 10
-153.09781
 20
-2.599359
 30
0.0
 40
3.0
100
AcDbArc
 50
360.0
 51
80.0
  0
LINE
  5
188
100
AcDbEntity
  8
0
370
    -3
  6
Continuous
100
AcDbLine
 10
-150.09781
 20
-2.599359
 30
0.0
 11
-150.09781
 21
-50.08206
 31
0.0
  0
LINE
  5
189
100
AcDbEntity
  8
0
370
    -3
  6
CENTER
100
AcDbLine
 10
-248.09781
 20
76.393662
 30
0.0
 11
-248.09781
 21
-232.590393
 31
0.0
  0
ARC
  5
18A
100
AcDbEntity
  8
0
370
    -3
  6
Continuous
100
AcDbCircle
 10
-237.59781
 20
59.737514
 30
0.0
 40
10.0
100
AcDbArc
 50
360.0
 51
90.0
  0
LINE
  5
18B
100
AcDbEntity
  8
0
370
    -3
  6
Continuous
100
AcDbLine
 10
-227.59781
 20
55.209027
 30
0.0
 11
-227.59781
 21
59.737514
 31
0.0
  0
LINE
  5
18C
100
AcDbEntity
  8
0
370
    -3
  6
Continuous
100
AcDbLine
 10
-268.59781
 20
55.209027
 30
0.0
 11
-268.59781
 21
59.737514
 31
0.0
  0
ARC
  5
18D
100
AcDbEntity
  8
0
370
    -3
  6
Continuous
100
AcDbCircle
 10
-258.59781
 20
59.737514
 30
0.0
 40
10.0
100
AcDbArc
 50
90.0
 51
180.0
  0
LINE
  5
18E
100
AcDbEntity
  8
0
370
    -3
  6
Continuous
100
AcDbLine
 10
-237.59781
 20
69.737514
 30
0.0
 11
-258.59781
 21
69.737514
 31
0.0
  0
LINE
  5
18F
100
AcDbEntity
  8
0
370
    -3
  6
Continuous
100
AcDbLine
 10
211.402197
 20
374.547749
 30
0.0
 11
211.402197
 21
383.297749
 31
0.0
  0
LINE
  5
190
100
AcDbEntity
  8
0
370
    -3
  6
Continuous
100
AcDbLine
 10
211.402197
 20
374.547749
 30
0.0
 11
211.402197
 21
240.297749
 31
0.0
  0
ARC
  5
191
100
AcDbEntity
  8
0
370
    -3
  6
Continuous
100
AcDbCircle
 10
323.402197
 20
198.797749
 30
0.0
 40
6.0
100
AcDbArc
 50
0.0
 51
180.0
  0
LINE
  5
192
100
AcDbEntity
  8
0
370
    -3
  6
CENTER
100
AcDbLine
 10
323.402197
 20
138.042826
 30
0.0
 11
323.402197
 21
434.330118
 31
0.0
  0
LINE
  5
193
100
AcDbEntity
  8
0
370
    -3
  6
Continuous
100
AcDbLine
 10
329.402197
 20
143.797749
 30
0.0
 11
329.402197
 21
198.797749
 31
0.0
  0
LINE
  5
194
100
AcDbEntity
  8
0
370
    -3
  6
Continuous
100
AcDbLine
 10
317.402197
 20
143.797749
 30
0.0
 11
317.402197
 21
198.797749
 31
0.0
  0
LINE
  5
195
100
AcDbEntity
  8
0
370
    -3
  6
Continuous
100
AcDbLine
 10
233.402197
 20
291.297749
 30
0.0
 11
233.402197
 21
250.797749
 31
0.0
  0
ARC
  5
196
100
AcDbEntity
  8
0
370
    -3
  6
Continuous
100
AcDbCircle
 10
238.872597
 20
330.297749
 30
0.0
 40
3.0
100
AcDbArc
 50
90.0
 51
180.0
  0
LINE
  5
197
100
AcDbEntity
  8
0
370
    -3
  6
Continuous
100
AcDbLine
 10
238.872597
 20
333.297749
 30
0.0
 11
255.695086
 21
333.297749
 31
0.0
  0
INSERT
  5
1A3
100
AcDbEntity
  8
0
100
AcDbBlockReference
  2
ZU_SYM_C__ZUOU_AC_BLOCK_ZU_SYM_C__ZUOU_AC_BLOCK_ZU_SYM__USR_MELCAD_MD_SYM_SYM_SYM1_00009-1_-1_-1
 10
231.372597
 20
322.297749
 30
0.0
 50
360.0
  0
LINE
  5
1A4
100
AcDbEntity
  8
0
370
    -3
  6
CENTER
100
AcDbLine
 10
222.458556
 20
322.297749
 30
0.0
 11
256.937482
 21
322.297749
 31
0.0
  0
LINE
  5
1A5
100
AcDbEntity
  8
0
370
    -3
  6
Continuous
100
AcDbLine
 10
231.372597
 20
332.297749
 30
0.0
 11
235.872597
 21
332.297749
 31
0.0
  0
INSERT
  5
1B1
100
AcDbEntity
  8
0
100
AcDbBlockReference
  2
ZU_SYM_C__ZUOU_AC_BLOCK_ZU_SYM_C__ZUOU_AC_BLOCK_ZU_SYM__USR_MELCAD_MD_SYM_SYM_SYM1_-1_-1_-1
 10
231.372597
 20
301.297749
 30
0.0
 41
-1.0
 50
180.0
  0
LINE
  5
1B2
100
AcDbEntity
  8
0
370
    -3
  6
Continuous
100
AcDbLine
 10
231.372597
 20
291.297749
 30
0.0
 11
235.872597
 21
291.297749
 31
0.0
  0
LINE
  5
1B3
100
AcDbEntity
  8
0
370
    -3
  6
Continuous
100
AcDbLine
 10
231.372597
 20
291.297749
 30
0.0
 11
231.372597
 21
332.297749
 31
0.0
  0
LINE
  5
1B4
100
AcDbEntity
  8
0
370
    -3
  6
CENTER
100
AcDbLine
 10
222.458556
 20
301.297749
 30
0.0
 11
256.937482
 21
301.297749
 31
0.0
  0
LINE
  5
1B5
100
AcDbEntity
  8
0
370
    -3
  6
DASHED
100
AcDbLine
 10
217.901706
 20
269.797749
 30
0.0
 11
217.901757
 21
311.797749
 31
0.0
  0
LINE
  5
1B6
100
AcDbEntity
  8
0
370
    -3
  6
Continuous
100
AcDbLine
 10
217.902197
 20
311.797749
 30
0.0
 11
217.902197
 21
268.06808
 31
0.0
  0
ARC
  5
1B7
100
AcDbEntity
  8
0
370
    -3
  6
Continuous
100
AcDbCircle
 10
220.902197
 20
273.765512
 30
0.0
 40
3.0
100
AcDbArc
 50
180.0
 51
270.0
  0
LINE
  5
1B8
100
AcDbEntity
  8
0
370
    -3
  6
DASHED
100
AcDbLine
 10
217.901706
 20
269.797749
 30
0.0
 11
217.901757
 21
311.797749
 31
0.0
  0
ARC
  5
1B9
100
AcDbEntity
  8
0
370
    -3
  6
Continuous
100
AcDbCircle
 10
220.902197
 20
268.06808
 30
0.0
 40
3.0
100
AcDbArc
 50
180.0
 51
270.0
  0
ARC
  5
1BA
100
AcDbEntity
  8
0
370
    -3
  6
Continuous
100
AcDbCircle
 10
220.902197
 20
253.797749
 30
0.0
 40
3.0
100
AcDbArc
 50
90.0
 51
180.0
  0
LINE
  5
1BB
100
AcDbEntity
  8
0
370
    -3
  6
Continuous
100
AcDbLine
 10
217.902197
 20
253.797749
 30
0.0
 11
217.902197
 21
242.297749
 31
0.0
  0
LINE
  5
1BC
100
AcDbEntity
  8
0
370
    -3
  6
Continuous
100
AcDbLine
 10
220.902197
 20
352.829986
 30
0.0
 11
230.522576
 21
352.829986
 31
0.0
  0
ARC
  5
1BD
100
AcDbEntity
  8
0
370
    -3
  6
Continuous
100
AcDbCircle
 10
229.402197
 20
353.527418
 30
0.0
 40
5.0
100
AcDbArc
 50
36.869898
 51
90.0
  0
LINE
  5
1BE
100
AcDbEntity
  8
0
370
    -3
  6
Continuous
100
AcDbLine
 10
220.902197
 20
358.527418
 30
0.0
 11
229.402197
 21
358.527418
 31
0.0
  0
ARC
  5
1BF
100
AcDbEntity
  8
0
370
    -3
  6
Continuous
100
AcDbCircle
 10
229.402197
 20
361.797749
 30
0.0
 40
5.0
100
AcDbArc
 50
36.869898
 51
90.0
  0
LINE
  5
1C0
100
AcDbEntity
  8
0
370
    -3
  6
Continuous
100
AcDbLine
 10
220.902197
 20
366.797749
 30
0.0
 11
229.402197
 21
366.797749
 31
0.0
  0
ARC
  5
1C1
100
AcDbEntity
  8
0
370
    -3
  6
Continuous
100
AcDbCircle
 10
229.402197
 20
261.797749
 30
0.0
 40
5.0
100
AcDbArc
 50
270.0
 51
323.130102
  0
ARC
  5
1C2
100
AcDbEntity
  8
0
370
    -3
  6
Continuous
100
AcDbCircle
 10
229.402197
 20
270.068079
 30
0.0
 40
5.0
100
AcDbArc
 50
270.0
 51
323.130102
  0
LINE
  5
1C3
100
AcDbEntity
  8
0
370
    -3
  6
Continuous
100
AcDbLine
 10
217.902197
 20
369.797749
 30
0.0
 11
217.902197
 21
381.297749
 31
0.0
  0
LINE
  5
1C4
100
AcDbEntity
  8
0
370
    -3
  6
Continuous
100
AcDbLine
 10
220.902197
 20
256.797749
 30
0.0
 11
229.402197
 21
256.797749
 31
0.0
  0
ARC
  5
1C5
100
AcDbEntity
  8
0
370
    -3
  6
Continuous
100
AcDbCircle
 10
220.902197
 20
369.797749
 30
0.0
 40
3.0
100
AcDbArc
 50
180.0
 51
270.0
  0
LINE
  5
1C6
100
AcDbEntity
  8
0
370
    -3
  6
Continuous
100
AcDbLine
 10
220.902197
 20
265.068079
 30
0.0
 11
229.402197
 21
265.068079
 31
0.0
  0
LINE
  5
1C7
100
AcDbEntity
  8
0
370
    -3
  6
Continuous
100
AcDbLine
 10
217.902197
 20
311.797749
 30
0.0
 11
217.902197
 21
355.527419
 31
0.0
  0
ARC
  5
1C8
100
AcDbEntity
  8
0
370
    -3
  6
Continuous
100
AcDbCircle
 10
220.902197
 20
355.527419
 30
0.0
 40
3.0
100
AcDbArc
 50
90.0
 51
180.0
  0
LINE
  5
1C9
100
AcDbEntity
  8
0
370
    -3
  6
Continuous
100
AcDbLine
 10
220.902197
 20
270.765511
 30
0.0
 11
230.522576
 21
270.765511
 31
0.0
  0
ARC
  5
1CA
100
AcDbEntity
  8
0
370
    -3
  6
Continuous
100
AcDbCircle
 10
220.902197
 20
349.829987
 30
0.0
 40
3.0
100
AcDbArc
 50
90.0
 51
180.0
  0
LINE
  5
1CB
100
AcDbEntity
  8
0
370
    -3
  6
DASHED
100
AcDbLine
 10
217.901706
 20
353.79775
 30
0.0
 11
217.901757
 21
311.797749
 31
0.0
  0
LINE
  5
1CC
100
AcDbEntity
  8
0
370
    -3
  6
Continuous
100
AcDbLine
 10
426.286821
 20
246.262844
 30
0.0
 11
425.736682
 21
214.745391
 31
0.0
  0
LINE
  5
1CD
100
AcDbEntity
  8
0
370
    -3
  6
Continuous
100
AcDbLine
 10
236.514955
 20
246.262844
 30
0.0
 11
237.065095
 21
214.745391
 31
0.0
  0
ARC
  5
1CE
100
AcDbEntity
  8
0
370
    -3
  6
Continuous
100
AcDbCircle
 10
252.400888
 20
243.297749
 30
0.0
 40
1.0
100
AcDbArc
 50
180.0
 51
270.0
  0
ARC
  5
1CF
100
AcDbEntity
  8
0
370
    -3
  6
Continuous
100
AcDbCircle
 10
250.400888
 20
243.297749
 30
0.0
 40
1.0
100
AcDbArc
 50
0.0
 51
90.0
  0
LINE
  5
1D0
100
AcDbEntity
  8
0
370
    -3
  6
Continuous
100
AcDbLine
 10
396.400888
 20
244.297749
 30
0.0
 11
238.514651
 21
244.297749
 31
0.0
  0
ARC
  5
1D1
100
AcDbEntity
  8
0
370
    -3
  6
Continuous
100
AcDbCircle
 10
265.85827
 20
239.297749
 30
0.0
 40
3.0
100
AcDbArc
 50
10.0
 51
90.0
  0
LINE
  5
1D2
100
AcDbEntity
  8
0
370
    -3
  6
Continuous
100
AcDbLine
 10
265.85827
 20
242.297749
 30
0.0
 11
252.400888
 21
242.297749
 31
0.0
  0
LINE
  5
1D3
100
AcDbEntity
  8
0
370
    -3
  6
Continuous
100
AcDbLine
 10
272.963764
 20
216.276804
 30
0.0
 11
268.812694
 21
239.818693
 31
0.0
  0
ARC
  5
1D4
100
AcDbEntity
  8
0
370
    -3
  6
Continuous
100
AcDbCircle
 10
275.918187
 20
216.797749
 30
0.0
 40
3.0
100
AcDbArc
 50
190.0
 51
270.0
  0
LINE
  5
1D5
100
AcDbEntity
  8
0
370
    -3
  6
Continuous
100
AcDbLine
 10
275.918187
 20
213.797749
 30
0.0
 11
291.900888
 21
213.797749
 31
0.0
  0
LINE
  5
1D6
100
AcDbEntity
  8
0
370
    -3
  6
Continuous
100
AcDbLine
 10
291.900888
 20
211.997749
 30
0.0
 11
291.900888
 21
213.797749
 31
0.0
  0
ARC
  5
1D7
100
AcDbEntity
  8
0
370
    -3
  6
Continuous
100
AcDbCircle
 10
380.943506
 20
239.297749
 30
0.0
 40
3.0
100
AcDbArc
 50
90.0
 51
170.0
  0
LINE
  5
1D8
100
AcDbEntity
  8
0
370
    -3
  6
Continuous
100
AcDbLine
 10
373.838013
 20
216.276804
 30
0.0
 11
377.989083
 21
239.818693
 31
0.0
  0
ARC
  5
1D9
100
AcDbEntity
  8
0
370
    -3
  6
Continuous
100
AcDbCircle
 10
370.883589
 20
216.797749
 30
0.0
 40
3.0
100
AcDbArc
 50
270.0
 51
350.0
  0
LINE
  5
1DA
100
AcDbEntity
  8
0
370
    -3
  6
Continuous
100
AcDbLine
 10
370.883589
 20
213.797749
 30
0.0
 11
291.900888
 21
213.797749
 31
0.0
  0
LINE
  5
1DB
100
AcDbEntity
  8
0
370
    -3
  6
Continuous
100
AcDbLine
 10
354.900888
 20
211.797749
 30
0.0
 11
354.900888
 21
213.797749
 31
0.0
  0
ARC
  5
1DC
100
AcDbEntity
  8
0
370
    -3
  6
Continuous
100
AcDbCircle
 10
394.400888
 20
243.297749
 30
0.0
 40
1.0
100
AcDbArc
 50
270.0
 51
0.0
  0
ARC
  5
1DD
100
AcDbEntity
  8
0
370
    -3
  6
Continuous
100
AcDbCircle
 10
396.400888
 20
243.297749
 30
0.0
 40
1.0
100
AcDbArc
 50
90.0
 51
180.0
  0
LINE
  5
1DE
100
AcDbEntity
  8
0
370
    -3
  6
Continuous
100
AcDbLine
 10
265.85827
 20
242.297749
 30
0.0
 11
394.400888
 21
242.297749
 31
0.0
  0
LINE
  5
1DF
100
AcDbEntity
  8
0
370
    -3
  6
Continuous
100
AcDbLine
 10
424.287126
 20
244.297749
 30
0.0
 11
396.400888
 21
244.297749
 31
0.0
  0
LINE
  5
1E0
100
AcDbEntity
  8
0
370
    -3
  6
Continuous
100
AcDbLine
 10
426.409616
 20
253.797749
 30
0.0
 11
235.872597
 21
253.797749
 31
0.0
  0
LINE
  5
1E1
100
AcDbEntity
  8
0
370
    -3
  6
Continuous
100
AcDbLine
 10
215.902197
 20
240.297749
 30
0.0
 11
211.402197
 21
240.297749
 31
0.0
  0
LINE
  5
1E2
100
AcDbEntity
  8
0
370
    -3
  6
Continuous
100
AcDbLine
 10
215.902197
 20
383.297749
 30
0.0
 11
211.402197
 21
383.297749
 31
0.0
  0
ARC
  5
1E3
100
AcDbEntity
  8
0
370
    -3
  6
Continuous
100
AcDbCircle
 10
421.262186
 20
376.297749
 30
0.0
 40
3.0
100
AcDbArc
 50
1.0
 51
90.0
  0
LINE
  5
1E4
100
AcDbEntity
  8
0
370
    -3
  6
Continuous
100
AcDbLine
 10
423.694439
 20
408.850106
 30
0.0
 11
426.409616
 21
253.297749
 31
0.0
  0
LINE
  5
1E5
100
AcDbEntity
  8
0
370
    -3
  6
Continuous
100
AcDbLine
 10
291.900888
 20
411.597749
 30
0.0
 11
292.100888
 21
411.797749
 31
0.0
  0
LINE
  5
1E6
100
AcDbEntity
  8
0
370
    -3
  6
Continuous
100
AcDbLine
 10
354.900888
 20
411.397749
 30
0.0
 11
354.900888
 21
409.797749
 31
0.0
  0
LINE
  5
1E7
100
AcDbEntity
  8
0
370
    -3
  6
Continuous
100
AcDbLine
 10
291.900888
 20
411.597749
 30
0.0
 11
291.900888
 21
409.797749
 31
0.0
  0
LINE
  5
1E8
100
AcDbEntity
  8
0
370
    -3
  6
Continuous
100
AcDbLine
 10
370.883589
 20
409.797749
 30
0.0
 11
291.900888
 21
409.797749
 31
0.0
  0
ARC
  5
1E9
100
AcDbEntity
  8
0
370
    -3
  6
Continuous
100
AcDbCircle
 10
370.883589
 20
406.797749
 30
0.0
 40
3.0
100
AcDbArc
 50
10.0
 51
90.0
  0
LINE
  5
1EA
100
AcDbEntity
  8
0
370
    -3
  6
Continuous
100
AcDbLine
 10
354.700888
 20
411.797749
 30
0.0
 11
323.400888
 21
411.797749
 31
0.0
  0
ARC
  5
1EB
100
AcDbEntity
  8
0
370
    -3
  6
Continuous
100
AcDbCircle
 10
275.918187
 20
406.797749
 30
0.0
 40
3.0
100
AcDbArc
 50
90.0
 51
170.0
  0
LINE
  5
1EC
100
AcDbEntity
  8
0
370
    -3
  6
Continuous
100
AcDbLine
 10
272.963764
 20
407.318693
 30
0.0
 11
268.812694
 21
383.776804
 31
0.0
  0
LINE
  5
1ED
100
AcDbEntity
  8
0
370
    -3
  6
Continuous
100
AcDbLine
 10
275.918187
 20
409.797749
 30
0.0
 11
291.900888
 21
409.797749
 31
0.0
  0
LINE
  5
1EE
100
AcDbEntity
  8
0
370
    -3
  6
Continuous
100
AcDbLine
 10
292.100888
 20
411.797749
 30
0.0
 11
323.400888
 21
411.797749
 31
0.0
  0
LINE
  5
1EF
100
AcDbEntity
  8
0
370
    -3
  6
Continuous
100
AcDbLine
 10
421.262186
 20
379.297749
 30
0.0
 11
250.400888
 21
379.297749
 31
0.0
  0
LINE
  5
1F0
100
AcDbEntity
  8
0
370
    -3
  6
Continuous
100
AcDbLine
 10
250.400888
 20
379.297749
 30
0.0
 11
241.039591
 21
379.297749
 31
0.0
  0
ARC
  5
1F1
100
AcDbEntity
  8
0
370
    -3
  6
Continuous
100
AcDbCircle
 10
241.039591
 20
376.297749
 30
0.0
 40
3.0
100
AcDbArc
 50
90.0
 51
131.409622
  0
LINE
  5
1F2
100
AcDbEntity
  8
0
370
    -3
  6
Continuous
100
AcDbLine
 10
217.902197
 20
242.797749
 30
0.0
 11
217.902197
 21
242.297749
 31
0.0
  0
LINE
  5
1F3
100
AcDbEntity
  8
0
370
    -3
  6
Continuous
100
AcDbLine
 10
237.070964
 20
377.797749
 30
0.0
 11
220.902197
 21
377.797749
 31
0.0
  0
ARC
  5
1F4
100
AcDbEntity
  8
0
370
    -3
  6
Continuous
100
AcDbCircle
 10
220.902197
 20
242.797749
 30
0.0
 40
3.0
100
AcDbArc
 50
90.0
 51
180.0
  0
ARC
  5
1F5
100
AcDbEntity
  8
0
370
    -3
  6
Continuous
100
AcDbCircle
 10
215.902197
 20
242.297749
 30
0.0
 40
2.0
100
AcDbArc
 50
270.0
 51
0.0
  0
LINE
  5
1F6
100
AcDbEntity
  8
0
370
    -3
  6
Continuous
100
AcDbLine
 10
217.902197
 20
380.797749
 30
0.0
 11
217.902197
 21
381.297749
 31
0.0
  0
LINE
  5
1F7
100
AcDbEntity
  8
0
370
    -3
  6
Continuous
100
AcDbLine
 10
228.402197
 20
245.797749
 30
0.0
 11
220.902197
 21
245.797749
 31
0.0
  0
ARC
  5
1F8
100
AcDbEntity
  8
0
370
    -3
  6
Continuous
100
AcDbCircle
 10
220.902197
 20
380.797749
 30
0.0
 40
3.0
100
AcDbArc
 50
180.0
 51
270.0
  0
ARC
  5
1F9
100
AcDbEntity
  8
0
370
    -3
  6
Continuous
100
AcDbCircle
 10
215.902197
 20
381.297749
 30
0.0
 40
2.0
100
AcDbArc
 50
0.0
 51
90.0
  0
LINE
  5
1FA
100
AcDbEntity
  8
0
370
    -3
  6
Continuous
100
AcDbLine
 10
233.402197
 20
377.797749
 30
0.0
 11
233.402197
 21
332.297749
 31
0.0
  0
LINE
  5
1FB
100
AcDbEntity
  8
0
370
    -3
  6
Continuous
100
AcDbLine
 10
234.900736
 20
254.797749
 30
0.0
 11
234.402197
 21
254.797749
 31
0.0
  0
ARC
  5
1FC
100
AcDbEntity
  8
0
370
    -3
  6
Continuous
100
AcDbCircle
 10
234.402197
 20
253.797749
 30
0.0
 40
1.0
100
AcDbArc
 50
90.0
 51
180.0
  0
ARC
  5
1FD
100
AcDbEntity
  8
0
370
    -3
  6
Continuous
100
AcDbCircle
 10
228.402197
 20
250.797749
 30
0.0
 40
5.0
100
AcDbArc
 50
270.0
 51
0.0
  0
ARC
  5
1FE
100
AcDbEntity
  8
0
370
    -3
  6
Continuous
100
AcDbCircle
 10
234.900736
 20
253.797749
 30
0.0
 40
1.0
100
AcDbArc
 50
359.0
 51
90.0
  0
ARC
  5
1FF
100
AcDbEntity
  8
0
370
    -3
  6
Continuous
100
AcDbCircle
 10
237.070964
 20
380.797749
 30
0.0
 40
3.0
100
AcDbArc
 50
270.0
 51
311.409622
  0
LINE
  5
200
100
AcDbEntity
  8
0
370
    -3
  6
Continuous
100
AcDbLine
 10
240.064638
 20
211.797749
 30
0.0
 11
422.737139
 21
211.797749
 31
0.0
  0
LINE
  5
201
100
AcDbEntity
  8
0
370
    -3
  6
Continuous
100
AcDbLine
 10
242.10688
 20
411.797749
 30
0.0
 11
420.694896
 21
411.797749
 31
0.0
  0
ARC
  5
202
100
AcDbEntity
  8
0
370
    -3
  6
Continuous
100
AcDbCircle
 10
420.694896
 20
408.797749
 30
0.0
 40
3.0
100
AcDbArc
 50
1.0
 51
90.0
  0
LINE
  5
203
100
AcDbEntity
  8
0
370
    -3
  6
Continuous
100
AcDbLine
 10
426.409616
 20
253.297749
 30
0.0
 11
426.286821
 21
246.262844
 31
0.0
  0
ARC
  5
204
100
AcDbEntity
  8
0
370
    -3
  6
Continuous
100
AcDbCircle
 10
422.737139
 20
214.797749
 30
0.0
 40
3.0
100
AcDbArc
 50
270.0
 51
359.0
  0
CIRCLE
  5
205
100
AcDbEntity
  8
0
370
    -3
  6
Continuous
100
AcDbCircle
 10
409.400888
 20
396.797749
 30
0.0
 40
7.0
  0
CIRCLE
  5
206
100
AcDbEntity
  8
0
370
    -3
  6
Continuous
100
AcDbCircle
 10
253.400888
 20
396.797749
 30
0.0
 40
7.0
  0
CIRCLE
  5
207
100
AcDbEntity
  8
0
370
    -3
  6
CENTER
100
AcDbCircle
 10
253.400888
 20
396.797749
 30
0.0
 40
11.5
  0
CIRCLE
  5
208
100
AcDbEntity
  8
0
370
    -3
  6
CENTER
100
AcDbCircle
 10
409.400888
 20
396.797749
 30
0.0
 40
11.5
  0
ARC
  5
209
100
AcDbEntity
  8
0
370
    -3
  6
Continuous
100
AcDbCircle
 10
242.10688
 20
408.797749
 30
0.0
 40
3.0
100
AcDbArc
 50
90.0
 51
179.0
  0
LINE
  5
20A
100
AcDbEntity
  8
0
370
    -3
  6
Continuous
100
AcDbLine
 10
239.107337
 20
408.850106
 30
0.0
 11
238.572346
 21
378.200471
 31
0.0
  0
LINE
  5
20B
100
AcDbEntity
  8
0
370
    -3
  6
Continuous
100
AcDbLine
 10
236.383433
 20
253.797749
 30
0.0
 11
236.514955
 21
246.262844
 31
0.0
  0
ARC
  5
20C
100
AcDbEntity
  8
0
370
    -3
  6
Continuous
100
AcDbCircle
 10
240.064638
 20
214.797749
 30
0.0
 40
3.0
100
AcDbArc
 50
181.0
 51
270.0
  0
LINE
  5
20D
100
AcDbEntity
  8
0
370
    -3
  6
CENTER
100
AcDbLine
 10
409.400888
 20
414.547749
 30
0.0
 11
409.400888
 21
379.047749
 31
0.0
  0
LINE
  5
20E
100
AcDbEntity
  8
0
370
    -3
  6
CENTER
100
AcDbLine
 10
427.150888
 20
396.797749
 30
0.0
 11
391.650888
 21
396.797749
 31
0.0
  0
LINE
  5
20F
100
AcDbEntity
  8
0
370
    -3
  6
CENTER
100
AcDbLine
 10
253.400888
 20
414.547749
 30
0.0
 11
253.400888
 21
379.047749
 31
0.0
  0
LINE
  5
210
100
AcDbEntity
  8
0
370
    -3
  6
CENTER
100
AcDbLine
 10
271.150888
 20
396.797749
 30
0.0
 11
235.650888
 21
396.797749
 31
0.0
  0
LINE
  5
211
100
AcDbEntity
  8
0
370
    -3
  6
CENTER
100
AcDbLine
 10
271.150888
 20
226.797749
 30
0.0
 11
235.650888
 21
226.797749
 31
0.0
  0
LINE
  5
212
100
AcDbEntity
  8
0
370
    -3
  6
CENTER
100
AcDbLine
 10
253.400888
 20
209.047749
 30
0.0
 11
253.400888
 21
244.547749
 31
0.0
  0
CIRCLE
  5
213
100
AcDbEntity
  8
0
370
    -3
  6
CENTER
100
AcDbCircle
 10
253.400888
 20
226.797749
 30
0.0
 40
11.5
  0
CIRCLE
  5
214
100
AcDbEntity
  8
0
370
    -3
  6
Continuous
100
AcDbCircle
 10
253.400888
 20
226.797749
 30
0.0
 40
7.0
  0
LINE
  5
215
100
AcDbEntity
  8
0
370
    -3
  6
CENTER
100
AcDbLine
 10
427.150888
 20
226.797749
 30
0.0
 11
391.650888
 21
226.797749
 31
0.0
  0
LINE
  5
216
100
AcDbEntity
  8
0
370
    -3
  6
CENTER
100
AcDbLine
 10
409.400888
 20
209.047749
 30
0.0
 11
409.400888
 21
244.547749
 31
0.0
  0
CIRCLE
  5
217
100
AcDbEntity
  8
0
370
    -3
  6
CENTER
100
AcDbCircle
 10
409.400888
 20
226.797749
 30
0.0
 40
11.5
  0
CIRCLE
  5
218
100
AcDbEntity
  8
0
370
    -3
  6
Continuous
100
AcDbCircle
 10
409.400888
 20
226.797749
 30
0.0
 40
7.0
  0
LINE
  5
219
100
AcDbEntity
  8
0
370
    -3
  6
Continuous
100
AcDbLine
 10
373.838013
 20
407.318693
 30
0.0
 11
377.989083
 21
383.776804
 31
0.0
  0
LINE
  5
21A
100
AcDbEntity
  8
0
370
    -3
  6
Continuous
100
AcDbLine
 10
354.900888
 20
411.397749
 30
0.0
 11
354.500888
 21
411.797749
 31
0.0
  0
LINE
  5
21B
100
AcDbEntity
  8
0
370
    -3
  6
Continuous
100
AcDbLine
 10
380.943506
 20
381.297749
 30
0.0
 11
252.400888
 21
381.297749
 31
0.0
  0
ARC
  5
21C
100
AcDbEntity
  8
0
370
    -3
  6
Continuous
100
AcDbCircle
 10
265.85827
 20
384.297749
 30
0.0
 40
3.0
100
AcDbArc
 50
270.0
 51
350.0
  0
ARC
  5
21D
100
AcDbEntity
  8
0
370
    -3
  6
Continuous
100
AcDbCircle
 10
252.400888
 20
380.297749
 30
0.0
 40
1.0
100
AcDbArc
 50
90.0
 51
180.0
  0
ARC
  5
21E
100
AcDbEntity
  8
0
370
    -3
  6
Continuous
100
AcDbCircle
 10
250.400888
 20
380.297749
 30
0.0
 40
1.0
100
AcDbArc
 50
270.0
 51
0.0
  0
LINE
  5
21F
100
AcDbEntity
  8
0
370
    -3
  6
Continuous
100
AcDbLine
 10
380.943506
 20
381.297749
 30
0.0
 11
394.400888
 21
381.297749
 31
0.0
  0
ARC
  5
220
100
AcDbEntity
  8
0
370
    -3
  6
Continuous
100
AcDbCircle
 10
380.943506
 20
384.297749
 30
0.0
 40
3.0
100
AcDbArc
 50
190.0
 51
270.0
  0
ARC
  5
221
100
AcDbEntity
  8
0
370
    -3
  6
Continuous
100
AcDbCircle
 10
396.400888
 20
380.297749
 30
0.0
 40
1.0
100
AcDbArc
 50
180.0
 51
270.0
  0
ARC
  5
222
100
AcDbEntity
  8
0
370
    -3
  6
Continuous
100
AcDbCircle
 10
394.400888
 20
380.297749
 30
0.0
 40
1.0
100
AcDbArc
 50
0.0
 51
90.0
  0
LINE
  5
223
100
AcDbEntity
  8
0
370
    -3
  6
Continuous
100
AcDbLine
 10
237.778631
 20
333.091176
 30
0.0
 11
238.572346
 21
378.200471
 31
0.0
  0
LINE
  5
224
100
AcDbEntity
  8
0
370
    -3
  6
Continuous
100
AcDbLine
 10
235.872597
 20
253.797749
 30
0.0
 11
235.872597
 21
332.297749
 31
0.0
  0
ARC
  5
225
100
AcDbEntity
  8
0
370
    -3
  6
Continuous
100
AcDbCircle
 10
424.287126
 20
246.297749
 30
0.0
 40
2.0
100
AcDbArc
 50
270.0
 51
359.0
  0
ARC
  5
226
100
AcDbEntity
  8
0
370
    -3
  6
Continuous
100
AcDbCircle
 10
238.514651
 20
246.297749
 30
0.0
 40
2.0
100
AcDbArc
 50
181.0
 51
270.0
  0
LINE
  5
227
100
AcDbEntity
  8
0
370
    -3
  6
Continuous
100
AcDbLine
 10
317.402197
 20
198.797749
 30
0.0
 11
329.402197
 21
198.797749
 31
0.0
  0
LINE
  5
228
100
AcDbEntity
  8
0
370
    -3
  6
Continuous
100
AcDbLine
 10
329.402197
 20
143.797749
 30
0.0
 11
317.402197
 21
143.797749
 31
0.0
  0
LINE
  5
229
100
AcDbEntity
  8
0
370
    -3
  6
Continuous
100
AcDbLine
 10
421.262186
 20
253.797749
 30
0.0
 11
396.400888
 21
253.797749
 31
0.0
  0
LINE
  5
22A
100
AcDbEntity
  8
0
370
    -3
  6
Continuous
100
AcDbLine
 10
303.402197
 20
143.797749
 30
0.0
 11
323.402197
 21
143.797749
 31
0.0
  0
LINE
  5
22B
100
AcDbEntity
  8
0
370
    -3
  6
Continuous
100
AcDbLine
 10
343.402197
 20
143.797749
 30
0.0
 11
323.402197
 21
143.797749
 31
0.0
  0
LINE
  5
22C
100
AcDbEntity
  8
0
370
    -3
  6
Continuous
100
AcDbLine
 10
302.402197
 20
211.797749
 30
0.0
 11
302.402197
 21
208.797749
 31
0.0
  0
LINE
  5
22D
100
AcDbEntity
  8
0
370
    -3
  6
Continuous
100
AcDbLine
 10
302.402197
 20
208.797749
 30
0.0
 11
323.402197
 21
208.797749
 31
0.0
  0
LINE
  5
22E
100
AcDbEntity
  8
0
370
    -3
  6
Continuous
100
AcDbLine
 10
303.402197
 20
208.797749
 30
0.0
 11
303.402197
 21
143.797749
 31
0.0
  0
LINE
  5
22F
100
AcDbEntity
  8
0
370
    -3
  6
Continuous
100
AcDbLine
 10
344.402197
 20
211.797749
 30
0.0
 11
344.402197
 21
208.797749
 31
0.0
  0
LINE
  5
230
100
AcDbEntity
  8
0
370
    -3
  6
Continuous
100
AcDbLine
 10
344.402197
 20
208.797749
 30
0.0
 11
323.402197
 21
208.797749
 31
0.0
  0
LINE
  5
231
100
AcDbEntity
  8
0
370
    -3
  6
Continuous
100
AcDbLine
 10
343.402197
 20
208.797749
 30
0.0
 11
343.402197
 21
143.797749
 31
0.0
  0
LINE
  5
232
100
AcDbEntity
  8
0
370
    -3
  6
CENTER
100
AcDbLine
 10
-40.066607
 20
311.797749
 30
0.0
 11
434.238479
 21
311.797749
 31
0.0
  0
LINE
  5
233
100
AcDbEntity
  8
0
370
    -3
  6
Continuous
100
AcDbLine
 10
144.902181
 20
258.297749
 30
0.0
 11
144.902181
 21
311.797749
 31
0.0
  0
ARC
  5
234
100
AcDbEntity
  8
0
370
    -3
  6
Continuous
100
AcDbCircle
 10
-248.09781
 20
-89.262121
 30
0.0
 40
74.0
100
AcDbArc
 50
136.293595
 51
162.497476
  0
ARC
  5
235
100
AcDbEntity
  8
0
370
    -3
  6
Continuous
100
AcDbCircle
 10
-248.09781
 20
-89.262121
 30
0.0
 40
35.0
100
AcDbArc
 50
230.945106
 51
309.054894
  0
ARC
  5
236
100
AcDbEntity
  8
0
370
    -3
  6
Continuous
100
AcDbCircle
 10
-222.59781
 20
-117.43569
 30
0.0
 40
3.0
100
AcDbArc
 50
158.470141
 51
180.0
  0
LINE
  5
237
100
AcDbEntity
  8
0
370
    -3
  6
Continuous
100
AcDbLine
 10
-225.59781
 20
-117.43569
 30
0.0
 11
-225.59781
 21
-146.262121
 31
0.0
  0
ARC
  5
238
100
AcDbEntity
  8
0
370
    -3
  6
Continuous
100
AcDbCircle
 10
-222.59781
 20
-146.262121
 30
0.0
 40
3.0
100
AcDbArc
 50
180.0
 51
270.0
  0
ARC
  5
239
100
AcDbEntity
  8
0
370
    -3
  6
Continuous
100
AcDbCircle
 10
-233.59781
 20
-124.386899
 30
0.0
 40
3.0
100
AcDbArc
 50
0.0
 51
112.431521
  0
LINE
  5
23A
100
AcDbEntity
  8
0
370
    -3
  6
Continuous
100
AcDbLine
 10
-230.59781
 20
-124.386899
 30
0.0
 11
-230.59781
 21
-146.262121
 31
0.0
  0
ARC
  5
23B
100
AcDbEntity
  8
0
370
    -3
  6
Continuous
100
AcDbCircle
 10
-273.59781
 20
-117.43569
 30
0.0
 40
3.0
100
AcDbArc
 50
0.0
 51
21.529859
  0
ARC
  5
23C
100
AcDbEntity
  8
0
370
    -3
  6
Continuous
100
AcDbCircle
 10
-262.59781
 20
-124.386899
 30
0.0
 40
3.0
100
AcDbArc
 50
67.568479
 51
180.0
  0
LINE
  5
23D
100
AcDbEntity
  8
0
370
    -3
  6
Continuous
100
AcDbLine
 10
-265.59781
 20
-124.386899
 30
0.0
 11
-265.59781
 21
-146.262121
 31
0.0
  0
ARC
  5
23E
100
AcDbEntity
  8
0
370
    -3
  6
Continuous
100
AcDbCircle
 10
-233.59781
 20
-146.262121
 30
0.0
 40
3.0
100
AcDbArc
 50
270.0
 51
0.0
  0
ARC
  5
23F
100
AcDbEntity
  8
0
370
    -3
  6
Continuous
100
AcDbCircle
 10
-231.857428
 20
-140.762121
 30
0.0
 40
20.0
100
AcDbArc
 50
270.0
 51
287.502524
  0
ARC
  5
240
100
AcDbEntity
  8
0
370
    -3
  6
Continuous
100
AcDbCircle
 10
-262.59781
 20
-146.262121
 30
0.0
 40
3.0
100
AcDbArc
 50
180.0
 51
270.0
  0
ARC
  5
241
100
AcDbEntity
  8
0
370
    -3
  6
Continuous
100
AcDbCircle
 10
-273.59781
 20
-146.262121
 30
0.0
 40
3.0
100
AcDbArc
 50
270.0
 51
0.0
  0
ARC
  5
242
100
AcDbEntity
  8
0
370
    -3
  6
Continuous
100
AcDbCircle
 10
-264.338192
 20
-140.762121
 30
0.0
 40
20.0
100
AcDbArc
 50
252.497476
 51
270.0
  0
LINE
  5
243
100
AcDbEntity
  8
0
370
    -3
  6
Continuous
100
AcDbLine
 10
-264.338192
 20
-160.762121
 30
0.0
 11
-231.857428
 21
-160.762121
 31
0.0
  0
LINE
  5
244
100
AcDbEntity
  8
0
370
    -3
  6
Continuous
100
AcDbLine
 10
-270.59781
 20
-117.43569
 30
0.0
 11
-270.59781
 21
-146.262121
 31
0.0
  0
ARC
  5
245
100
AcDbEntity
  8
0
370
    -3
  6
Continuous
100
AcDbCircle
 10
-248.09781
 20
-89.262121
 30
0.0
 40
74.0
100
AcDbArc
 50
197.502524
 51
252.497476
  0
ARC
  5
246
100
AcDbEntity
  8
0
370
    -3
  6
Continuous
100
AcDbCircle
 10
-299.59781
 20
-105.502503
 30
0.0
 40
20.0
100
AcDbArc
 50
180.0
 51
197.502524
  0
LINE
  5
247
100
AcDbEntity
  8
0
370
    -3
  6
Continuous
100
AcDbLine
 10
-319.59781
 20
-73.021739
 30
0.0
 11
-319.59781
 21
-105.502503
 31
0.0
  0
ARC
  5
248
100
AcDbEntity
  8
0
370
    -3
  6
Continuous
100
AcDbCircle
 10
-299.59781
 20
-73.021739
 30
0.0
 40
20.0
100
AcDbArc
 50
162.497476
 51
180.0
  0
ARC
  5
249
100
AcDbEntity
  8
0
370
    -3
  6
Continuous
100
AcDbCircle
 10
-248.09781
 20
-89.262121
 30
0.0
 40
74.0
100
AcDbArc
 50
287.502524
 51
342.497476
  0
ARC
  5
24A
100
AcDbEntity
  8
0
370
    -3
  6
Continuous
100
AcDbCircle
 10
-196.59781
 20
-105.502503
 30
0.0
 40
20.0
100
AcDbArc
 50
342.497476
 51
0.0
  0
LINE
  5
24B
100
AcDbEntity
  8
0
370
    -3
  6
Continuous
100
AcDbLine
 10
-176.59781
 20
-73.021739
 30
0.0
 11
-176.59781
 21
-105.502503
 31
0.0
  0
ARC
  5
24C
100
AcDbEntity
  8
0
370
    -3
  6
Continuous
100
AcDbCircle
 10
-196.59781
 20
-73.021739
 30
0.0
 40
20.0
100
AcDbArc
 50
0.0
 51
17.502524
  0
ARC
  5
24D
100
AcDbEntity
  8
0
370
    -3
  6
Continuous
100
AcDbCircle
 10
-248.09781
 20
-89.262121
 30
0.0
 40
74.0
100
AcDbArc
 50
17.502524
 51
43.706405
  0
LINE
  5
24E
100
AcDbEntity
  8
0
370
    -3
  6
Continuous
100
AcDbLine
 10
-180.59781
 20
-119.589501
 30
0.0
 11
-180.59781
 21
-197.08206
 31
0.0
  0
LINE
  5
24F
100
AcDbEntity
  8
0
370
    -3
  6
Continuous
100
AcDbLine
 10
-178.59781
 20
-114.673733
 30
0.0
 11
-178.59781
 21
-179.08206
 31
0.0
  0
LINE
  5
250
100
AcDbEntity
  8
0
370
    -3
  6
Continuous
100
AcDbLine
 10
426.40123
 20
-200.08206
 30
0.0
 11
235.90123
 21
-200.08206
 31
0.0
  0
LINE
  5
251
100
AcDbEntity
  8
0
370
    -3
  6
Continuous
100
AcDbLine
 10
144.902181
 20
-4.762121
 30
0.0
 11
144.902181
 21
-58.262121
 31
0.0
  0
LINE
  5
252
100
AcDbEntity
  8
0
370
    -3
  6
Continuous
100
AcDbLine
 10
144.902181
 20
-111.762121
 30
0.0
 11
144.902181
 21
-58.262121
 31
0.0
  0
LINE
  5
253
100
AcDbEntity
  8
0
370
    -3
  6
Continuous
100
AcDbLine
 10
144.902166
 20
-4.762489
 30
0.0
 11
144.902166
 21
-111.762489
 31
0.0
  0
LINE
  5
254
100
AcDbEntity
  8
0
370
    -3
  6
Continuous
100
AcDbLine
 10
211.402181
 20
-89.262486
 30
0.0
 11
211.402181
 21
-19.262486
 31
0.0
  0
LINE
  5
255
100
AcDbEntity
  8
0
370
    -3
  6
Continuous
100
AcDbLine
 10
215.902181
 20
-17.762486
 30
0.0
 11
211.402181
 21
-17.762486
 31
0.0
  0
LINE
  5
256
100
AcDbEntity
  8
0
370
    -3
  6
Continuous
100
AcDbLine
 10
211.402181
 20
-89.262486
 30
0.0
 11
211.402181
 21
-17.762486
 31
0.0
  0
ARC
  5
257
100
AcDbEntity
  8
0
370
    -3
  6
Continuous
100
AcDbCircle
 10
215.902181
 20
-19.762486
 30
0.0
 40
2.0
100
AcDbArc
 50
0.0
 51
90.0
  0
ARC
  5
258
100
AcDbEntity
  8
0
370
    -3
  6
Continuous
100
AcDbCircle
 10
220.902181
 20
-20.262486
 30
0.0
 40
3.0
100
AcDbArc
 50
180.0
 51
270.0
  0
LINE
  5
259
100
AcDbEntity
  8
0
370
    -3
  6
Continuous
100
AcDbLine
 10
217.902181
 20
-31.262486
 30
0.0
 11
217.902181
 21
-19.762486
 31
0.0
  0
ARC
  5
25A
100
AcDbEntity
  8
0
370
    -3
  6
Continuous
100
AcDbCircle
 10
220.902181
 20
-31.262486
 30
0.0
 40
3.0
100
AcDbArc
 50
180.0
 51
270.0
  0
LINE
  5
25B
100
AcDbEntity
  8
0
370
    -3
  6
Continuous
100
AcDbLine
 10
217.902181
 20
-89.262486
 30
0.0
 11
217.902181
 21
-45.532817
 31
0.0
  0
ARC
  5
25C
100
AcDbEntity
  8
0
370
    -3
  6
Continuous
100
AcDbCircle
 10
220.902181
 20
-45.532817
 30
0.0
 40
3.0
100
AcDbArc
 50
90.0
 51
180.0
  0
ARC
  5
25D
100
AcDbEntity
  8
0
370
    -3
  6
Continuous
100
AcDbCircle
 10
220.902181
 20
-51.230249
 30
0.0
 40
3.0
100
AcDbArc
 50
90.0
 51
180.0
  0
LINE
  5
25E
100
AcDbEntity
  8
0
370
    -3
  6
DASHED
100
AcDbLine
 10
217.90169
 20
-131.262487
 30
0.0
 11
217.901741
 21
-89.262486
 31
0.0
  0
LINE
  5
25F
100
AcDbEntity
  8
0
370
    -3
  6
DASHED
100
AcDbLine
 10
217.90169
 20
-47.262485
 30
0.0
 11
217.901741
 21
-89.262486
 31
0.0
  0
LINE
  5
260
100
AcDbEntity
  8
0
370
    -3
  6
Continuous
100
AcDbLine
 10
217.902181
 20
-89.262486
 30
0.0
 11
217.902181
 21
-132.992155
 31
0.0
  0
ARC
  5
261
100
AcDbEntity
  8
0
370
    -3
  6
Continuous
100
AcDbCircle
 10
220.902181
 20
-127.294723
 30
0.0
 40
3.0
100
AcDbArc
 50
180.0
 51
270.0
  0
LINE
  5
262
100
AcDbEntity
  8
0
370
    -3
  6
DASHED
100
AcDbLine
 10
217.90169
 20
-131.262487
 30
0.0
 11
217.901741
 21
-89.262486
 31
0.0
  0
ARC
  5
263
100
AcDbEntity
  8
0
370
    -3
  6
Continuous
100
AcDbCircle
 10
220.902181
 20
-132.992155
 30
0.0
 40
3.0
100
AcDbArc
 50
180.0
 51
270.0
  0
LINE
  5
264
100
AcDbEntity
  8
0
370
    -3
  6
Continuous
100
AcDbLine
 10
211.402181
 20
-89.262486
 30
0.0
 11
211.402181
 21
-17.762486
 31
0.0
  0
LINE
  5
265
100
AcDbEntity
  8
0
370
    -3
  6
Continuous
100
AcDbLine
 10
211.402181
 20
-89.262486
 30
0.0
 11
211.402181
 21
-17.762486
 31
0.0
  0
LINE
  5
266
100
AcDbEntity
  8
0
370
    -3
  6
Continuous
100
AcDbLine
 10
211.402181
 20
-89.262486
 30
0.0
 11
211.402181
 21
-17.762486
 31
0.0
  0
LINE
  5
267
100
AcDbEntity
  8
0
370
    -3
  6
Continuous
100
AcDbLine
 10
211.402181
 20
-89.262486
 30
0.0
 11
211.402181
 21
-17.762486
 31
0.0
  0
LINE
  5
268
100
AcDbEntity
  8
0
370
    -3
  6
Continuous
100
AcDbLine
 10
211.402181
 20
-89.262486
 30
0.0
 11
211.402181
 21
-17.762486
 31
0.0
  0
LINE
  5
269
100
AcDbEntity
  8
0
370
    -3
  6
Continuous
100
AcDbLine
 10
211.402181
 20
-89.262486
 30
0.0
 11
211.402181
 21
-17.762486
 31
0.0
  0
LINE
  5
26A
100
AcDbEntity
  8
0
370
    -3
  6
CENTER
100
AcDbLine
 10
211.402181
 20
-89.262486
 30
0.0
 11
173.366752
 21
-89.262486
 31
0.0
  0
LINE
  5
26B
100
AcDbEntity
  8
0
370
    -3
  6
Continuous
100
AcDbLine
 10
144.902166
 20
-78.262486
 30
0.0
 11
199.402181
 21
-78.262486
 31
0.0
  0
LINE
  5
26C
100
AcDbEntity
  8
0
370
    -3
  6
Continuous
100
AcDbLine
 10
144.902166
 20
-38.262486
 30
0.0
 11
159.402166
 21
-38.262486
 31
0.0
  0
LINE
  5
26D
100
AcDbEntity
  8
0
370
    -3
  6
Continuous
100
AcDbLine
 10
163.402166
 20
-66.062486
 30
0.0
 11
199.402181
 21
-66.062486
 31
0.0
  0
ARC
  5
26E
100
AcDbEntity
  8
0
370
    -3
  6
Continuous
100
AcDbCircle
 10
199.402181
 20
-64.062486
 30
0.0
 40
2.0
100
AcDbArc
 50
270.0
 51
0.0
  0
ARC
  5
26F
100
AcDbEntity
  8
0
370
    -3
  6
Continuous
100
AcDbCircle
 10
163.402166
 20
-64.062486
 30
0.0
 40
2.0
100
AcDbArc
 50
180.0
 51
270.0
  0
ARC
  5
270
100
AcDbEntity
  8
0
370
    -3
  6
Continuous
100
AcDbCircle
 10
199.402181
 20
-80.262486
 30
0.0
 40
2.0
100
AcDbArc
 50
0.0
 51
90.0
  0
ARC
  5
271
100
AcDbEntity
  8
0
370
    -3
  6
Continuous
100
AcDbCircle
 10
159.402166
 20
-40.262486
 30
0.0
 40
2.0
100
AcDbArc
 50
0.0
 51
90.0
  0
LINE
  5
272
100
AcDbEntity
  8
0
370
    -3
  6
Continuous
100
AcDbLine
 10
161.402166
 20
-10.762486
 30
0.0
 11
161.402166
 21
-12.762486
 31
0.0
  0
ARC
  5
273
100
AcDbEntity
  8
0
370
    -3
  6
Continuous
100
AcDbCircle
 10
199.402181
 20
-26.512486
 30
0.0
 40
2.0
100
AcDbArc
 50
270.0
 51
0.0
  0
ARC
  5
274
100
AcDbEntity
  8
0
370
    -3
  6
Continuous
100
AcDbCircle
 10
183.93196
 20
-130.226896
 30
0.0
 40
5.0
100
AcDbArc
 50
30.0
 51
88.0
  0
ARC
  5
275
100
AcDbEntity
  8
0
370
    -3
  6
Continuous
100
AcDbCircle
 10
163.402166
 20
-26.512486
 30
0.0
 40
2.0
100
AcDbArc
 50
180.0
 51
270.0
  0
LINE
  5
276
100
AcDbEntity
  8
0
370
    -3
  6
Continuous
100
AcDbLine
 10
161.402166
 20
-10.762486
 30
0.0
 11
161.402166
 21
-64.062486
 31
0.0
  0
LINE
  5
277
100
AcDbEntity
  8
0
370
    -3
  6
Continuous
100
AcDbLine
 10
199.402181
 20
-28.512486
 30
0.0
 11
163.402166
 21
-28.512486
 31
0.0
  0
LINE
  5
278
100
AcDbEntity
  8
0
370
    -3
  6
Continuous
100
AcDbLine
 10
156.402166
 20
-5.762486
 30
0.0
 11
144.902166
 21
-5.762486
 31
0.0
  0
ARC
  5
279
100
AcDbEntity
  8
0
370
    -3
  6
Continuous
100
AcDbCircle
 10
156.402166
 20
-10.762486
 30
0.0
 40
5.0
100
AcDbArc
 50
0.0
 51
90.0
  0
LINE
  5
27A
100
AcDbEntity
  8
0
370
    -3
  6
Continuous
100
AcDbLine
 10
211.402181
 20
-17.762486
 30
0.0
 11
204.402181
 21
-17.762486
 31
0.0
  0
ARC
  5
27B
100
AcDbEntity
  8
0
370
    -3
  6
Continuous
100
AcDbCircle
 10
204.402181
 20
-20.762486
 30
0.0
 40
3.0
100
AcDbArc
 50
90.0
 51
180.0
  0
LINE
  5
27C
100
AcDbEntity
  8
0
370
    -3
  6
Continuous
100
AcDbLine
 10
201.402181
 20
-20.762486
 30
0.0
 11
201.402181
 21
-80.262486
 31
0.0
  0
ARC
  5
27D
100
AcDbEntity
  8
0
370
    -3
  6
Continuous
100
AcDbCircle
 10
161.402166
 20
-119.434042
 30
0.0
 40
5.0
100
AcDbArc
 50
180.0
 51
268.0
  0
LINE
  5
27E
100
AcDbEntity
  8
0
370
    -3
  6
Continuous
100
AcDbLine
 10
184.106457
 20
-125.229941
 30
0.0
 11
161.227668
 21
-124.430996
 31
0.0
  0
LINE
  5
27F
100
AcDbEntity
  8
0
370
    -3
  6
Continuous
100
AcDbLine
 10
156.402166
 20
-115.885433
 30
0.0
 11
156.402166
 21
-119.434042
 31
0.0
  0
LINE
  5
280
100
AcDbEntity
  8
0
370
    -3
  6
Continuous
100
AcDbLine
 10
151.489428
 20
-110.886195
 30
0.0
 11
144.902181
 21
-110.771214
 31
0.0
  0
ARC
  5
281
100
AcDbEntity
  8
0
370
    -3
  6
Continuous
100
AcDbCircle
 10
151.402166
 20
-115.885433
 30
0.0
 40
5.0
100
AcDbArc
 50
0.0
 51
89.0
  0
LINE
  5
282
100
AcDbEntity
  8
0
370
    -3
  6
Continuous
100
AcDbLine
 10
144.902166
 20
-111.762121
 30
0.0
 11
144.902166
 21
-58.262121
 31
0.0
  0
LINE
  5
283
100
AcDbEntity
  8
0
370
    -3
  6
Continuous
100
AcDbLine
 10
144.902166
 20
-4.762121
 30
0.0
 11
144.902166
 21
-58.262121
 31
0.0
  0
POINT
  5
284
100
AcDbEntity
  8
0
370
    -3
  6
DASHED
100
AcDbPoint
 10
323.40123
 20
-29.968363
 30
0.0
  0
LINE
  5
285
100
AcDbEntity
  8
0
370
    -3
  6
Continuous
100
AcDbLine
 10
329.40123
 20
-27.08206
 30
0.0
 11
317.40123
 21
-27.08206
 31
0.0
  0
LINE
  5
286
100
AcDbEntity
  8
0
370
    -3
  6
Continuous
100
AcDbLine
 10
317.40123
 20
-27.08206
 30
0.0
 11
317.40123
 21
-35.08206
 31
0.0
  0
LINE
  5
287
100
AcDbEntity
  8
0
370
    -3
  6
Continuous
100
AcDbLine
 10
329.40123
 20
-27.08206
 30
0.0
 11
329.40123
 21
-35.08206
 31
0.0
  0
LINE
  5
288
100
AcDbEntity
  8
0
370
    -3
  6
Continuous
100
AcDbLine
 10
329.40123
 20
-35.08206
 30
0.0
 11
317.40123
 21
-35.08206
 31
0.0
  0
ARC
  5
289
100
AcDbEntity
  8
0
370
    -3
  6
Continuous
100
AcDbCircle
 10
323.40123
 20
-50.08206
 30
0.0
 40
20.0
100
AcDbArc
 50
107.457603
 51
72.542397
  0
CIRCLE
  5
28A
100
AcDbEntity
  8
0
370
    -3
  6
Continuous
100
AcDbCircle
 10
323.40123
 20
-50.08206
 30
0.0
 40
3.5
  0
CIRCLE
  5
28B
100
AcDbEntity
  8
0
370
    -3
  6
Continuous
100
AcDbCircle
 10
323.40123
 20
-50.08206
 30
0.0
 40
4.0
  0
LINE
  5
28C
100
AcDbEntity
  8
0
370
    -3
  6
CENTER
100
AcDbLine
 10
269.644897
 20
-181.082051
 30
0.0
 11
245.674212
 21
-181.082051
 31
0.0
  0
LINE
  5
28D
100
AcDbEntity
  8
0
370
    -3
  6
Continuous
100
AcDbLine
 10
235.90123
 20
-187.08206
 30
0.0
 11
235.90123
 21
2.91794
 31
0.0
  0
ARC
  5
28E
100
AcDbEntity
  8
0
370
    -3
  6
Continuous
100
AcDbCircle
 10
247.90123
 20
-187.08206
 30
0.0
 40
12.0
100
AcDbArc
 50
180.0
 51
270.0
  0
LINE
  5
28F
100
AcDbEntity
  8
0
370
    -3
  6
Continuous
100
AcDbLine
 10
247.90123
 20
-199.08206
 30
0.0
 11
414.40123
 21
-199.08206
 31
0.0
  0
LINE
  5
290
100
AcDbEntity
  8
0
370
    -3
  6
Continuous
100
AcDbLine
 10
291.40123
 20
-180.08206
 30
0.0
 11
355.40123
 21
-180.08206
 31
0.0
  0
ARC
  5
291
100
AcDbEntity
  8
0
370
    -3
  6
Continuous
100
AcDbCircle
 10
355.40123
 20
-140.08206
 30
0.0
 40
40.0
100
AcDbArc
 50
270.0
 51
0.0
  0
ARC
  5
292
100
AcDbEntity
  8
0
370
    -3
  6
Continuous
100
AcDbCircle
 10
291.40123
 20
-140.08206
 30
0.0
 40
40.0
100
AcDbArc
 50
180.0
 51
270.0
  0
LINE
  5
293
100
AcDbEntity
  8
0
370
    -3
  6
Continuous
100
AcDbLine
 10
251.40123
 20
-50.08206
 30
0.0
 11
251.40123
 21
-140.08206
 31
0.0
  0
ARC
  5
294
100
AcDbEntity
  8
0
370
    -3
  6
Continuous
100
AcDbCircle
 10
323.40123
 20
-50.08206
 30
0.0
 40
72.0
100
AcDbArc
 50
0.0
 51
180.0
  0
CIRCLE
  5
295
100
AcDbEntity
  8
0
370
    -3
  6
Continuous
100
AcDbCircle
 10
323.40123
 20
-50.08206
 30
0.0
 40
55.377973
  0
CIRCLE
  5
296
100
AcDbEntity
  8
0
370
    -3
  6
Continuous
100
AcDbCircle
 10
323.40123
 20
-50.08206
 30
0.0
 40
50.0
  0
CIRCLE
  5
297
100
AcDbEntity
  8
0
370
    -3
  6
Continuous
100
AcDbCircle
 10
323.40123
 20
-50.08206
 30
0.0
 40
27.2
  0
CIRCLE
  5
298
100
AcDbEntity
  8
0
370
    -3
  6
Continuous
100
AcDbCircle
 10
323.40123
 20
-50.08206
 30
0.0
 40
31.5
  0
LINE
  5
299
100
AcDbEntity
  8
0
370
    -3
  6
Continuous
100
AcDbLine
 10
232.90123
 20
-23.262486
 30
0.0
 11
220.902181
 21
-23.262486
 31
0.0
  0
CIRCLE
  5
29A
100
AcDbEntity
  8
0
370
    -3
  6
Continuous
100
AcDbCircle
 10
323.40123
 20
-50.08206
 30
0.0
 40
34.5
  0
CIRCLE
  5
29B
100
AcDbEntity
  8
0
370
    -3
  6
Continuous
100
AcDbCircle
 10
262.401044
 20
14.917912
 30
0.0
 40
7.0
  0
LINE
  5
29C
100
AcDbEntity
  8
0
370
    -3
  6
Continuous
100
AcDbLine
 10
395.40123
 20
-50.08206
 30
0.0
 11
395.40123
 21
-140.08206
 31
0.0
  0
LINE
  5
29D
100
AcDbEntity
  8
0
370
    -3
  6
CENTER
100
AcDbLine
 10
416.145699
 20
-181.082051
 30
0.0
 11
388.969707
 21
-181.082051
 31
0.0
  0
LINE
  5
29E
100
AcDbEntity
  8
0
370
    -3
  6
CENTER
100
AcDbLine
 10
257.900829
 20
-170.100543
 30
0.0
 11
257.900829
 21
-195.082051
 31
0.0
  0
ARC
  5
29F
100
AcDbEntity
  8
0
370
    -3
  6
Continuous
100
AcDbCircle
 10
391.40123
 20
2.91794
 30
0.0
 40
35.0
100
AcDbArc
 50
0.0
 51
90.0
  0
LINE
  5
2A0
100
AcDbEntity
  8
0
370
    -3
  6
Continuous
100
AcDbLine
 10
391.40123
 20
37.91794
 30
0.0
 11
270.90123
 21
37.91794
 31
0.0
  0
LINE
  5
2A1
100
AcDbEntity
  8
0
370
    -3
  6
CENTER
100
AcDbLine
 10
404.401631
 20
-168.316588
 30
0.0
 11
404.401631
 21
-195.082051
 31
0.0
  0
CIRCLE
  5
2A2
100
AcDbEntity
  8
0
370
    -3
  6
Continuous
100
AcDbCircle
 10
262.401044
 20
14.917912
 30
0.0
 40
4.4
  0
ARC
  5
2A3
100
AcDbEntity
  8
0
370
    -3
  6
Continuous
100
AcDbCircle
 10
270.90123
 20
2.91794
 30
0.0
 40
35.0
100
AcDbArc
 50
90.0
 51
180.0
  0
LINE
  5
2A4
100
AcDbEntity
  8
0
370
    -3
  6
CENTER
100
AcDbLine
 10
396.401416
 20
28.917912
 30
0.0
 11
396.401416
 21
0.917912
 31
0.0
  0
LINE
  5
2A5
100
AcDbEntity
  8
0
370
    -3
  6
CENTER
100
AcDbLine
 10
262.401044
 20
26.531818
 30
0.0
 11
262.401044
 21
0.917912
 31
0.0
  0
LINE
  5
2A6
100
AcDbEntity
  8
0
370
    -3
  6
CENTER
100
AcDbLine
 10
410.401416
 20
14.917912
 30
0.0
 11
380.388797
 21
14.917912
 31
0.0
  0
CIRCLE
  5
2A7
100
AcDbEntity
  8
0
370
    -3
  6
Continuous
100
AcDbCircle
 10
396.401416
 20
14.917912
 30
0.0
 40
7.0
  0
ARC
  5
2A8
100
AcDbEntity
  8
0
370
    -3
  6
Continuous
100
AcDbCircle
 10
232.90123
 20
-20.262486
 30
0.0
 40
3.0
100
AcDbArc
 50
270.0
 51
0.0
  0
CIRCLE
  5
2A9
100
AcDbEntity
  8
0
370
    -3
  6
Continuous
100
AcDbCircle
 10
396.401416
 20
14.917912
 30
0.0
 40
4.4
  0
LINE
  5
2AA
100
AcDbEntity
  8
0
370
    -3
  6
Continuous
100
AcDbLine
 10
235.90123
 20
2.91794
 30
0.0
 11
235.90123
 21
34.917912
 31
0.0
  0
ARC
  5
2AB
100
AcDbEntity
  8
0
370
    -3
  6
Continuous
100
AcDbCircle
 10
229.402181
 20
-39.262486
 30
0.0
 40
5.0
100
AcDbArc
 50
0.0
 51
90.0
  0
ARC
  5
2AC
100
AcDbEntity
  8
0
370
    -3
  6
Continuous
100
AcDbCircle
 10
229.402181
 20
-47.532817
 30
0.0
 40
5.0
100
AcDbArc
 50
0.0
 51
90.0
  0
LINE
  5
2AD
100
AcDbEntity
  8
0
370
    -3
  6
Continuous
100
AcDbLine
 10
220.902181
 20
-34.262486
 30
0.0
 11
229.402181
 21
-34.262486
 31
0.0
  0
LINE
  5
2AE
100
AcDbEntity
  8
0
370
    -3
  6
Continuous
100
AcDbLine
 10
220.902181
 20
-42.532817
 30
0.0
 11
229.402181
 21
-42.532817
 31
0.0
  0
LINE
  5
2AF
100
AcDbEntity
  8
0
370
    -3
  6
Continuous
100
AcDbLine
 10
220.902181
 20
-48.230249
 30
0.0
 11
230.522561
 21
-48.230249
 31
0.0
  0
LINE
  5
2B0
100
AcDbEntity
  8
0
370
    -3
  6
Continuous
100
AcDbLine
 10
220.902181
 20
-130.294723
 30
0.0
 11
230.522561
 21
-130.294723
 31
0.0
  0
ARC
  5
2B1
100
AcDbEntity
  8
0
370
    -3
  6
Continuous
100
AcDbCircle
 10
229.402181
 20
-130.992155
 30
0.0
 40
5.0
100
AcDbArc
 50
270.0
 51
0.0
  0
LINE
  5
2B2
100
AcDbEntity
  8
0
370
    -3
  6
Continuous
100
AcDbLine
 10
426.40123
 20
-220.08206
 30
0.0
 11
426.40123
 21
-187.08206
 31
0.0
  0
LINE
  5
2B3
100
AcDbEntity
  8
0
370
    -3
  6
Continuous
100
AcDbLine
 10
235.90123
 20
-220.08206
 30
0.0
 11
235.90123
 21
-187.08206
 31
0.0
  0
LINE
  5
2B4
100
AcDbEntity
  8
0
370
    -3
  6
DASHED
100
AcDbLine
 10
246.151229
 20
-219.782124
 30
0.0
 11
245.847463
 21
-220.08206
 31
0.0
  0
LINE
  5
2B5
100
AcDbEntity
  8
0
370
    -3
  6
Continuous
100
AcDbLine
 10
220.902181
 20
-135.992155
 30
0.0
 11
229.402181
 21
-135.992155
 31
0.0
  0
LINE
  5
2B6
100
AcDbEntity
  8
0
370
    -3
  6
Continuous
100
AcDbLine
 10
426.40123
 20
-220.08206
 30
0.0
 11
235.90123
 21
-220.08206
 31
0.0
  0
LINE
  5
2B7
100
AcDbEntity
  8
0
370
    -3
  6
CENTER
100
AcDbLine
 10
409.40123
 20
-228.248389
 30
0.0
 11
409.40123
 21
-191.272055
 31
0.0
  0
LINE
  5
2B8
100
AcDbEntity
  8
0
370
    -3
  6
CENTER
100
AcDbLine
 10
253.40123
 20
-224.886904
 30
0.0
 11
253.40123
 21
-192.112426
 31
0.0
  0
ARC
  5
2B9
100
AcDbEntity
  8
0
370
    -3
  6
Continuous
100
AcDbCircle
 10
232.90123
 20
-158.262486
 30
0.0
 40
3.0
100
AcDbArc
 50
0.0
 51
90.0
  0
LINE
  5
2BA
100
AcDbEntity
  8
0
370
    -3
  6
Continuous
100
AcDbLine
 10
256.723719
 20
34.917912
 30
0.0
 11
235.90123
 21
34.917912
 31
0.0
  0
LINE
  5
2BB
100
AcDbEntity
  8
0
370
    -3
  6
CENTER
100
AcDbLine
 10
274.145112
 20
14.917912
 30
0.0
 11
250.359514
 21
14.917912
 31
0.0
  0
CIRCLE
  5
2BC
100
AcDbEntity
  8
0
370
    -3
  6
Continuous
100
AcDbCircle
 10
404.401631
 20
-181.082051
 30
0.0
 40
7.0
  0
CIRCLE
  5
2BD
100
AcDbEntity
  8
0
370
    -3
  6
Continuous
100
AcDbCircle
 10
404.401631
 20
-181.082051
 30
0.0
 40
4.4
  0
CIRCLE
  5
2BE
100
AcDbEntity
  8
0
370
    -3
  6
Continuous
100
AcDbCircle
 10
257.900829
 20
-181.082051
 30
0.0
 40
4.4
  0
CIRCLE
  5
2BF
100
AcDbEntity
  8
0
370
    -3
  6
Continuous
100
AcDbCircle
 10
257.900829
 20
-181.082051
 30
0.0
 40
7.0
  0
ARC
  5
2C0
100
AcDbEntity
  8
0
370
    -3
  6
Continuous
100
AcDbCircle
 10
414.40123
 20
-187.08206
 30
0.0
 40
12.0
100
AcDbArc
 50
270.0
 51
0.0
  0
LINE
  5
2C1
100
AcDbEntity
  8
0
370
    -3
  6
Continuous
100
AcDbLine
 10
426.40123
 20
-187.08206
 30
0.0
 11
426.40123
 21
2.91794
 31
0.0
  0
POINT
  5
2C2
100
AcDbEntity
  8
0
370
    -3
  6
DASHED
100
AcDbPoint
 10
496.760661
 20
-29.968363
 30
0.0
  0
ARC
  5
2C3
100
AcDbEntity
  8
0
370
    -3
  6
Continuous
100
AcDbCircle
 10
496.760661
 20
-50.08206
 30
0.0
 40
20.0
100
AcDbArc
 50
107.457603
 51
72.542397
  0
CIRCLE
  5
2C4
100
AcDbEntity
  8
0
370
    -3
  6
Continuous
100
AcDbCircle
 10
496.760661
 20
-50.08206
 30
0.0
 40
4.0
  0
CIRCLE
  5
2C5
100
AcDbEntity
  8
0
370
    -3
  6
Continuous
100
AcDbCircle
 10
496.760661
 20
-50.08206
 30
0.0
 40
3.5
  0
LINE
  5
2C6
100
AcDbEntity
  8
0
370
    -3
  6
CENTER
100
AcDbLine
 10
323.40123
 20
43.07029
 30
0.0
 11
323.40123
 21
-226.92971
 31
0.0
  0
LINE
  5
2C7
100
AcDbEntity
  8
0
370
    -3
  6
CENTER
100
AcDbLine
 10
404.191097
 20
-50.08206
 30
0.0
 11
241.01123
 21
-50.08206
 31
0.0
  0
LINE
  5
2C8
100
AcDbEntity
  8
0
370
    -3
  6
Continuous
100
AcDbLine
 10
502.760661
 20
-35.08206
 30
0.0
 11
490.760661
 21
-35.08206
 31
0.0
  0
LINE
  5
2C9
100
AcDbEntity
  8
0
370
    -3
  6
Continuous
100
AcDbLine
 10
490.760661
 20
-27.08206
 30
0.0
 11
490.760661
 21
-35.08206
 31
0.0
  0
LINE
  5
2CA
100
AcDbEntity
  8
0
370
    -3
  6
Continuous
100
AcDbLine
 10
502.760661
 20
-27.08206
 30
0.0
 11
490.760661
 21
-27.08206
 31
0.0
  0
LINE
  5
2CB
100
AcDbEntity
  8
0
370
    -3
  6
Continuous
100
AcDbLine
 10
502.760661
 20
-27.08206
 30
0.0
 11
502.760661
 21
-35.08206
 31
0.0
  0
LINE
  5
2CC
100
AcDbEntity
  8
0
370
    -3
  6
CENTER
100
AcDbLine
 10
520.160017
 20
-50.08206
 30
0.0
 11
472.410017
 21
-50.08206
 31
0.0
  0
LINE
  5
2CD
100
AcDbEntity
  8
0
370
    -3
  6
CENTER
100
AcDbLine
 10
496.760661
 20
-23.55471
 30
0.0
 11
496.760661
 21
-73.55471
 31
0.0
  0
LINE
  5
2CE
100
AcDbEntity
  8
0
370
    -3
  6
Continuous
100
AcDbLine
 10
231.40123
 20
69.737514
 30
0.0
 11
235.90123
 21
69.737514
 31
0.0
  0
LINE
  5
2CF
100
AcDbEntity
  8
0
370
    -3
  6
CENTER
100
AcDbLine
 10
227.620207
 20
49.737514
 30
0.0
 11
240.421861
 21
49.737514
 31
0.0
  0
LINE
  5
2D0
100
AcDbEntity
  8
0
370
    -3
  6
DASHED
100
AcDbLine
 10
231.40123
 20
59.737514
 30
0.0
 11
235.90123
 21
59.737514
 31
0.0
  0
LINE
  5
2D1
100
AcDbEntity
  8
0
370
    -3
  6
DASHED
100
AcDbLine
 10
231.40123
 20
39.737514
 30
0.0
 11
235.90123
 21
39.737514
 31
0.0
  0
LINE
  5
2D2
100
AcDbEntity
  8
0
370
    -3
  6
Continuous
100
AcDbLine
 10
231.40123
 20
69.737514
 30
0.0
 11
231.40123
 21
14.737514
 31
0.0
  0
LINE
  5
2D3
100
AcDbEntity
  8
0
370
    -3
  6
Continuous
100
AcDbLine
 10
235.90123
 20
69.737514
 30
0.0
 11
235.90123
 21
14.737514
 31
0.0
  0
LINE
  5
2D4
100
AcDbEntity
  8
0
370
    -3
  6
CENTER
100
AcDbLine
 10
221.692554
 20
24.737514
 30
0.0
 11
241.992276
 21
24.737514
 31
0.0
  0
LINE
  5
2D5
100
AcDbEntity
  8
0
370
    -3
  6
Continuous
100
AcDbLine
 10
231.40123
 20
14.737514
 30
0.0
 11
235.90123
 21
14.737514
 31
0.0
  0
INSERT
  5
2E1
100
AcDbEntity
  8
0
100
AcDbBlockReference
  2
ZU_SYM__USERS_HOME_SYMBOL_POO_SYM_B20_-1
 10
231.40123
 20
24.737514
 30
0.0
  0
LINE
  5
2E2
100
AcDbEntity
  8
0
370
    -3
  6
Continuous
100
AcDbLine
 10
144.902181
 20
-58.262121
 30
0.0
 11
144.902181
 21
-110.762121
 31
0.0
  0
LINE
  5
2E3
100
AcDbEntity
  8
0
370
    -3
  6
Continuous
100
AcDbLine
 10
144.902181
 20
-58.262121
 30
0.0
 11
144.902181
 21
-4.762121
 31
0.0
  0
LINE
  5
2E4
100
AcDbEntity
  8
0
370
    -3
  6
Continuous
100
AcDbLine
 10
144.902181
 20
-111.762121
 30
0.0
 11
144.902181
 21
-58.262121
 31
0.0
  0
LINE
  5
2E5
100
AcDbEntity
  8
0
370
    -3
  6
Continuous
100
AcDbLine
 10
144.902181
 20
-110.762121
 30
0.0
 11
144.902181
 21
-5.762121
 31
0.0
  0
LINE
  5
2E6
100
AcDbEntity
  8
0
370
    -3
  6
Continuous
100
AcDbLine
 10
144.902166
 20
-5.762118
 30
0.0
 11
144.902166
 21
-110.762118
 31
0.0
  0
LINE
  5
2E7
100
AcDbEntity
  8
0
370
    -3
  6
Continuous
100
AcDbLine
 10
144.902166
 20
-4.762118
 30
0.0
 11
144.902166
 21
-58.262118
 31
0.0
  0
LINE
  5
2E8
100
AcDbEntity
  8
0
370
    -3
  6
Continuous
100
AcDbLine
 10
144.902166
 20
-58.262118
 30
0.0
 11
144.902166
 21
-111.762118
 31
0.0
  0
LINE
  5
2E9
100
AcDbEntity
  8
0
370
    -3
  6
Continuous
100
AcDbLine
 10
144.902166
 20
-58.262118
 30
0.0
 11
144.902166
 21
-5.762118
 31
0.0
  0
ARC
  5
2EA
100
AcDbEntity
  8
0
370
    -3
  6
Continuous
100
AcDbCircle
 10
196.41836
 20
-158.271006
 30
0.0
 40
5.0
100
AcDbArc
 50
3.644461
 51
53.063279
  0
ARC
  5
2EB
100
AcDbEntity
  8
0
370
    -3
  6
Continuous
100
AcDbCircle
 10
196.402181
 20
-151.825953
 30
0.0
 40
5.0
100
AcDbArc
 50
0.0
 51
30.0
  0
ARC
  5
2EC
100
AcDbEntity
  8
0
370
    -3
  6
Continuous
100
AcDbCircle
 10
204.402181
 20
-157.762486
 30
0.0
 40
3.0
100
AcDbArc
 50
180.0
 51
270.0
  0
LINE
  5
2ED
100
AcDbEntity
  8
0
370
    -3
  6
Continuous
100
AcDbLine
 10
211.402181
 20
-160.762486
 30
0.0
 11
204.402181
 21
-160.762486
 31
0.0
  0
LINE
  5
2EE
100
AcDbEntity
  8
0
370
    -3
  6
Continuous
100
AcDbLine
 10
211.402181
 20
-89.262486
 30
0.0
 11
211.402181
 21
-160.762486
 31
0.0
  0
LINE
  5
2EF
100
AcDbEntity
  8
0
370
    -3
  6
Continuous
100
AcDbLine
 10
211.402181
 20
-89.262486
 30
0.0
 11
211.402181
 21
-160.762486
 31
0.0
  0
LINE
  5
2F0
100
AcDbEntity
  8
0
370
    -3
  6
Continuous
100
AcDbLine
 10
211.402181
 20
-89.262486
 30
0.0
 11
211.402181
 21
-160.762486
 31
0.0
  0
LINE
  5
2F1
100
AcDbEntity
  8
0
370
    -3
  6
Continuous
100
AcDbLine
 10
211.402181
 20
-89.262486
 30
0.0
 11
211.402181
 21
-159.262486
 31
0.0
  0
LINE
  5
2F2
100
AcDbEntity
  8
0
370
    -3
  6
Continuous
100
AcDbLine
 10
211.402181
 20
-89.262486
 30
0.0
 11
211.402181
 21
-160.762486
 31
0.0
  0
LINE
  5
2F3
100
AcDbEntity
  8
0
370
    -3
  6
Continuous
100
AcDbLine
 10
211.402181
 20
-89.262486
 30
0.0
 11
211.402181
 21
-159.262486
 31
0.0
  0
LINE
  5
2F4
100
AcDbEntity
  8
0
370
    -3
  6
Continuous
100
AcDbLine
 10
211.402181
 20
-89.262486
 30
0.0
 11
211.402181
 21
-160.762486
 31
0.0
  0
LINE
  5
2F5
100
AcDbEntity
  8
0
370
    -3
  6
Continuous
100
AcDbLine
 10
211.402181
 20
-89.262486
 30
0.0
 11
211.402181
 21
-159.262486
 31
0.0
  0
LINE
  5
2F6
100
AcDbEntity
  8
0
370
    -3
  6
Continuous
100
AcDbLine
 10
199.423023
 20
-154.274508
 30
0.0
 11
158.397503
 21
-123.430541
 31
0.0
  0
LINE
  5
2F7
100
AcDbEntity
  8
0
370
    -3
  6
Continuous
100
AcDbLine
 10
200.732308
 20
-149.325953
 30
0.0
 11
188.262087
 21
-127.726896
 31
0.0
  0
LINE
  5
2F8
100
AcDbEntity
  8
0
370
    -3
  6
Continuous
100
AcDbLine
 10
201.402181
 20
-80.262486
 30
0.0
 11
201.402181
 21
-157.762486
 31
0.0
  0
LINE
  5
2F9
100
AcDbEntity
  8
0
370
    -3
  6
Continuous
100
AcDbLine
 10
211.402181
 20
-17.762486
 30
0.0
 11
211.402181
 21
-160.762486
 31
0.0
  0
LINE
  5
2FA
100
AcDbEntity
  8
0
370
    -3
  6
Continuous
100
AcDbLine
 10
211.402181
 20
-17.762486
 30
0.0
 11
211.402181
 21
-160.762486
 31
0.0
  0
LINE
  5
2FB
100
AcDbEntity
  8
0
370
    -3
  6
Continuous
100
AcDbLine
 10
211.402181
 20
-17.762486
 30
0.0
 11
211.402181
 21
-160.762486
 31
0.0
  0
LINE
  5
2FC
100
AcDbEntity
  8
0
370
    -3
  6
Continuous
100
AcDbLine
 10
215.902181
 20
-160.762486
 30
0.0
 11
211.402181
 21
-160.762486
 31
0.0
  0
LINE
  5
2FD
100
AcDbEntity
  8
0
370
    -3
  6
Continuous
100
AcDbLine
 10
217.902181
 20
-156.263172
 30
0.0
 11
217.902181
 21
-158.762486
 31
0.0
  0
ARC
  5
2FE
100
AcDbEntity
  8
0
370
    -3
  6
Continuous
100
AcDbCircle
 10
215.902181
 20
-158.762486
 30
0.0
 40
2.0
100
AcDbArc
 50
270.0
 51
0.0
  0
ARC
  5
2FF
100
AcDbEntity
  8
0
370
    -3
  6
Continuous
100
AcDbCircle
 10
229.402181
 20
-139.262486
 30
0.0
 40
5.0
100
AcDbArc
 50
270.0
 51
0.0
  0
LINE
  5
300
100
AcDbEntity
  8
0
370
    -3
  6
Continuous
100
AcDbLine
 10
220.902181
 20
-144.262486
 30
0.0
 11
229.402181
 21
-144.262486
 31
0.0
  0
ARC
  5
301
100
AcDbEntity
  8
0
370
    -3
  6
Continuous
100
AcDbCircle
 10
220.902181
 20
-147.262486
 30
0.0
 40
3.0
100
AcDbArc
 50
90.0
 51
180.0
  0
LINE
  5
302
100
AcDbEntity
  8
0
370
    -3
  6
Continuous
100
AcDbLine
 10
217.902181
 20
-147.262486
 30
0.0
 11
217.902181
 21
-158.762486
 31
0.0
  0
ARC
  5
303
100
AcDbEntity
  8
0
370
    -3
  6
Continuous
100
AcDbCircle
 10
220.902181
 20
-158.262486
 30
0.0
 40
3.0
100
AcDbArc
 50
90.0
 51
180.0
  0
LINE
  5
304
100
AcDbEntity
  8
0
370
    -3
  6
Continuous
100
AcDbLine
 10
232.90123
 20
-155.262486
 30
0.0
 11
220.902181
 21
-155.262486
 31
0.0
  0
ARC
  5
305
100
AcDbEntity
  8
0
370
    -3
  6
DASHED
100
AcDbCircle
 10
734.400561
 20
-400.18206
 30
0.0
 40
400.6
100
AcDbArc
 50
87.470639
 51
90.0
  0
ARC
  5
306
100
AcDbEntity
  8
0
370
    -3
  6
DASHED
100
AcDbCircle
 10
734.400561
 20
-400.18206
 30
0.0
 40
400.6
100
AcDbArc
 50
90.0
 51
92.529361
  0
LINE
  5
307
100
AcDbEntity
  8
0
370
    -3
  6
CENTER
100
AcDbLine
 10
561.513138
 20
-50.08206
 30
0.0
 11
842.804545
 21
-50.08206
 31
0.0
  0
LINE
  5
308
100
AcDbEntity
  8
0
370
    -3
  6
CENTER
100
AcDbLine
 10
734.400561
 20
77.232052
 30
0.0
 11
734.400561
 21
-232.590393
 31
0.0
  0
LINE
  5
309
100
AcDbEntity
  8
0
370
    -3
  6
Continuous
100
AcDbLine
 10
638.879617
 20
-100.519184
 30
0.0
 11
662.421506
 21
-104.582091
 31
0.0
  0
LINE
  5
30A
100
AcDbEntity
  8
0
370
    -3
  6
Continuous
100
AcDbLine
 10
801.900561
 20
32.77051
 30
0.0
 11
801.900561
 21
-58.935106
 31
0.0
  0
LINE
  5
30B
100
AcDbEntity
  8
0
370
    -3
  6
Continuous
100
AcDbLine
 10
803.900561
 20
20.91794
 30
0.0
 11
803.900561
 21
-63.850875
 31
0.0
  0
LINE
  5
30C
100
AcDbEntity
  8
0
370
    -3
  6
Continuous
100
AcDbLine
 10
676.400561
 20
37.91794
 30
0.0
 11
676.400561
 21
-43.305985
 31
0.0
  0
LINE
  5
30D
100
AcDbEntity
  8
0
370
    -3
  6
Continuous
100
AcDbLine
 10
829.921506
 20
-100.519184
 30
0.0
 11
806.379617
 21
-104.670255
 31
0.0
  0
LINE
  5
30E
100
AcDbEntity
  8
0
370
    -3
  6
Continuous
100
AcDbLine
 10
801.900561
 20
-119.589867
 30
0.0
 11
801.900561
 21
-197.08206
 31
0.0
  0
LINE
  5
30F
100
AcDbEntity
  8
0
370
    -3
  6
Continuous
100
AcDbLine
 10
803.900561
 20
-114.674098
 30
0.0
 11
803.900561
 21
-179.08206
 31
0.0
  0
ARC
  5
310
100
AcDbEntity
  8
0
370
    -3
  6
Continuous
100
AcDbCircle
 10
734.400561
 20
-89.262486
 30
0.0
 40
74.0
100
AcDbArc
 50
339.915834
 51
342.497476
  0
ARC
  5
311
100
AcDbEntity
  8
0
370
    -3
  6
Continuous
100
AcDbCircle
 10
785.900561
 20
-105.502868
 30
0.0
 40
20.0
100
AcDbArc
 50
342.497476
 51
0.0
  0
LINE
  5
312
100
AcDbEntity
  8
0
370
    -3
  6
Continuous
100
AcDbLine
 10
805.900561
 20
-104.796251
 30
0.0
 11
805.900561
 21
-105.502868
 31
0.0
  0
LINE
  5
313
100
AcDbEntity
  8
0
370
    -3
  6
Continuous
100
AcDbLine
 10
801.900561
 20
-58.935106
 30
0.0
 11
801.900561
 21
-119.589867
 31
0.0
  0
ARC
  5
314
100
AcDbEntity
  8
0
370
    -3
  6
Continuous
100
AcDbCircle
 10
806.900561
 20
-107.624678
 30
0.0
 40
3.0
100
AcDbArc
 50
109.471221
 51
180.0
  0
LINE
  5
315
100
AcDbEntity
  8
0
370
    -3
  6
Continuous
100
AcDbLine
 10
803.900561
 20
-63.850875
 30
0.0
 11
803.900561
 21
-114.674098
 31
0.0
  0
ARC
  5
316
100
AcDbEntity
  8
0
370
    -3
  6
Continuous
100
AcDbCircle
 10
806.900561
 20
-107.624678
 30
0.0
 40
3.0
100
AcDbArc
 50
100.0
 51
109.471221
  0
LINE
  5
317
100
AcDbEntity
  8
0
370
    -3
  6
Continuous
100
AcDbLine
 10
676.400561
 20
-135.218987
 30
0.0
 11
676.400561
 21
-197.08206
 31
0.0
  0
LINE
  5
318
100
AcDbEntity
  8
0
370
    -3
  6
Continuous
100
AcDbLine
 10
676.400561
 20
-43.944168
 30
0.0
 11
676.400561
 21
-134.580805
 31
0.0
  0
ARC
  5
319
100
AcDbEntity
  8
0
370
    -3
  6
Continuous
100
AcDbCircle
 10
734.400561
 20
-89.262486
 30
0.0
 40
74.0
100
AcDbArc
 50
197.502524
 51
200.084166
  0
ARC
  5
31A
100
AcDbEntity
  8
0
370
    -3
  6
Continuous
100
AcDbCircle
 10
682.900561
 20
-105.502868
 30
0.0
 40
20.0
100
AcDbArc
 50
180.0
 51
197.502524
  0
LINE
  5
31B
100
AcDbEntity
  8
0
370
    -3
  6
Continuous
100
AcDbLine
 10
662.900561
 20
-104.708087
 30
0.0
 11
662.900561
 21
-105.502868
 31
0.0
  0
LINE
  5
31C
100
AcDbEntity
  8
0
370
    -3
  6
Continuous
100
AcDbLine
 10
664.900561
 20
-50.08206
 30
0.0
 11
664.900561
 21
-179.08206
 31
0.0
  0
ARC
  5
31D
100
AcDbEntity
  8
0
370
    -3
  6
Continuous
100
AcDbCircle
 10
661.900561
 20
-107.536514
 30
0.0
 40
3.0
100
AcDbArc
 50
0.0
 51
80.0
  0
LINE
  5
31E
100
AcDbEntity
  8
0
370
    -3
  6
Continuous
100
AcDbLine
 10
676.400561
 20
37.91794
 30
0.0
 11
676.400561
 21
-197.08206
 31
0.0
  0
LINE
  5
31F
100
AcDbEntity
  8
0
370
    -3
  6
Continuous
100
AcDbLine
 10
666.900561
 20
35.786722
 30
0.0
 11
666.900561
 21
-50.08206
 31
0.0
  0
LINE
  5
320
100
AcDbEntity
  8
0
370
    -3
  6
Continuous
100
AcDbLine
 10
664.900561
 20
20.91794
 30
0.0
 11
664.900561
 21
-50.08206
 31
0.0
  0
LINE
  5
321
100
AcDbEntity
  8
0
370
    -3
  6
Continuous
100
AcDbLine
 10
666.900561
 20
-50.08206
 30
0.0
 11
666.900561
 21
-197.08206
 31
0.0
  0
LINE
  5
322
100
AcDbEntity
  8
0
370
    -3
  6
CENTER
100
AcDbLine
 10
702.586656
 20
-58.262121
 30
0.0
 11
763.950185
 21
-58.262121
 31
0.0
  0
ARC
  5
323
100
AcDbEntity
  8
0
370
    -3
  6
DASHED
100
AcDbCircle
 10
734.400561
 20
283.01794
 30
0.0
 40
400.6
100
AcDbArc
 50
267.470639
 51
270.0
  0
ARC
  5
324
100
AcDbEntity
  8
0
370
    -3
  6
DASHED
100
AcDbCircle
 10
734.400561
 20
283.01794
 30
0.0
 40
400.6
100
AcDbArc
 50
270.0
 51
272.529361
  0
ARC
  5
325
100
AcDbEntity
  8
0
370
    -3
  6
DASHED
100
AcDbCircle
 10
1081.000561
 20
-58.58206
 30
0.0
 40
400.6
100
AcDbArc
 50
180.0
 51
184.529193
  0
ARC
  5
326
100
AcDbEntity
  8
0
370
    -3
  6
DASHED
100
AcDbCircle
 10
702.187608
 20
-88.594504
 30
0.0
 40
20.6
100
AcDbArc
 50
184.529945
 51
225.0
  0
LINE
  5
327
100
AcDbEntity
  8
0
370
    -3
  6
DASHED
100
AcDbLine
 10
689.799954
 20
-105.339649
 30
0.0
 11
687.621208
 21
-103.160904
 31
0.0
  0
ARC
  5
328
100
AcDbEntity
  8
0
370
    -3
  6
DASHED
100
AcDbCircle
 10
718.508489
 20
-76.631114
 30
0.0
 40
40.6
100
AcDbArc
 50
225.0
 51
267.469876
  0
ARC
  5
329
100
AcDbEntity
  8
0
370
    -3
  6
DASHED
100
AcDbCircle
 10
750.292632
 20
-76.631114
 30
0.0
 40
40.6
100
AcDbArc
 50
272.530124
 51
315.0
  0
ARC
  5
32A
100
AcDbEntity
  8
0
370
    -3
  6
DASHED
100
AcDbCircle
 10
750.292632
 20
-40.533006
 30
0.0
 40
40.6
100
AcDbArc
 50
45.0
 51
87.469876
  0
ARC
  5
32B
100
AcDbEntity
  8
0
370
    -3
  6
DASHED
100
AcDbCircle
 10
1081.000561
 20
-58.58206
 30
0.0
 40
400.6
100
AcDbArc
 50
175.470807
 51
180.0
  0
ARC
  5
32C
100
AcDbEntity
  8
0
370
    -3
  6
DASHED
100
AcDbCircle
 10
702.187608
 20
-28.569616
 30
0.0
 40
20.6
100
AcDbArc
 50
135.0
 51
175.470055
  0
LINE
  5
32D
100
AcDbEntity
  8
0
370
    -3
  6
DASHED
100
AcDbLine
 10
689.799954
 20
-11.824471
 30
0.0
 11
687.621208
 21
-14.003216
 31
0.0
  0
ARC
  5
32E
100
AcDbEntity
  8
0
370
    -3
  6
DASHED
100
AcDbCircle
 10
718.508489
 20
-40.533006
 30
0.0
 40
40.6
100
AcDbArc
 50
92.530124
 51
135.0
  0
LINE
  5
32F
100
AcDbEntity
  8
0
370
    -3
  6
DASHED
100
AcDbLine
 10
779.001168
 20
-11.824471
 30
0.0
 11
781.179913
 21
-14.003216
 31
0.0
  0
ARC
  5
330
100
AcDbEntity
  8
0
370
    -3
  6
DASHED
100
AcDbCircle
 10
766.613514
 20
-28.569616
 30
0.0
 40
20.6
100
AcDbArc
 50
4.529945
 51
45.0
  0
ARC
  5
331
100
AcDbEntity
  8
0
370
    -3
  6
DASHED
100
AcDbCircle
 10
387.800561
 20
-58.58206
 30
0.0
 40
400.6
100
AcDbArc
 50
0.0
 51
4.529193
  0
LINE
  5
332
100
AcDbEntity
  8
0
370
    -3
  6
DASHED
100
AcDbLine
 10
779.001168
 20
-105.339649
 30
0.0
 11
781.179913
 21
-103.160904
 31
0.0
  0
ARC
  5
333
100
AcDbEntity
  8
0
370
    -3
  6
DASHED
100
AcDbCircle
 10
766.613514
 20
-88.594504
 30
0.0
 40
20.6
100
AcDbArc
 50
315.0
 51
355.470055
  0
ARC
  5
334
100
AcDbEntity
  8
0
370
    -3
  6
DASHED
100
AcDbCircle
 10
387.800561
 20
-58.58206
 30
0.0
 40
400.6
100
AcDbArc
 50
355.470807
 51
360.0
  0
LINE
  5
335
100
AcDbEntity
  8
0
370
    -3
  6
Continuous
100
AcDbLine
 10
634.400561
 20
-71.08206
 30
0.0
 11
631.400561
 21
-71.08206
 31
0.0
  0
LINE
  5
336
100
AcDbEntity
  8
0
370
    -3
  6
Continuous
100
AcDbLine
 10
634.400561
 20
-29.08206
 30
0.0
 11
631.400561
 21
-29.08206
 31
0.0
  0
LINE
  5
337
100
AcDbEntity
  8
0
370
    -3
  6
Continuous
100
AcDbLine
 10
631.400561
 20
-29.08206
 30
0.0
 11
631.400561
 21
-71.08206
 31
0.0
  0
LINE
  5
338
100
AcDbEntity
  8
0
370
    -3
  6
Continuous
100
AcDbLine
 10
621.400561
 20
-30.08206
 30
0.0
 11
621.400561
 21
-27.08206
 31
0.0
  0
LINE
  5
339
100
AcDbEntity
  8
0
370
    -3
  6
Continuous
100
AcDbLine
 10
631.400561
 20
-70.08206
 30
0.0
 11
566.400561
 21
-70.08206
 31
0.0
  0
LINE
  5
33A
100
AcDbEntity
  8
0
370
    -3
  6
Continuous
100
AcDbLine
 10
631.400561
 20
-30.08206
 30
0.0
 11
566.400561
 21
-30.08206
 31
0.0
  0
LINE
  5
33B
100
AcDbEntity
  8
0
370
    -3
  6
Continuous
100
AcDbLine
 10
621.400561
 20
-27.08206
 30
0.0
 11
566.400561
 21
-27.08206
 31
0.0
  0
ARC
  5
33C
100
AcDbEntity
  8
0
370
    -3
  6
Continuous
100
AcDbCircle
 10
798.900561
 20
32.77051
 30
0.0
 40
3.0
100
AcDbArc
 50
0.0
 51
89.0
  0
LINE
  5
33D
100
AcDbEntity
  8
0
370
    -3
  6
Continuous
100
AcDbLine
 10
676.400561
 20
37.909212
 30
0.0
 11
798.952919
 21
35.770053
 31
0.0
  0
LINE
  5
33E
100
AcDbEntity
  8
0
370
    -3
  6
CENTER
100
AcDbLine
 10
649.400561
 20
-193.001826
 30
0.0
 11
649.400561
 21
-229.373459
 31
0.0
  0
ARC
  5
33F
100
AcDbEntity
  8
0
370
    -3
  6
Continuous
100
AcDbCircle
 10
661.900561
 20
7.372394
 30
0.0
 40
3.0
100
AcDbArc
 50
280.0
 51
0.0
  0
ARC
  5
340
100
AcDbEntity
  8
0
370
    -3
  6
Continuous
100
AcDbCircle
 10
668.900561
 20
35.786722
 30
0.0
 40
2.0
100
AcDbArc
 50
91.0
 51
180.0
  0
ARC
  5
341
100
AcDbEntity
  8
0
370
    -3
  6
Continuous
100
AcDbCircle
 10
665.900561
 20
22.91794
 30
0.0
 40
1.0
100
AcDbArc
 50
270.0
 51
0.0
  0
ARC
  5
342
100
AcDbEntity
  8
0
370
    -3
  6
Continuous
100
AcDbCircle
 10
665.900561
 20
20.91794
 30
0.0
 40
1.0
100
AcDbArc
 50
90.0
 51
180.0
  0
LINE
  5
343
100
AcDbEntity
  8
0
370
    -3
  6
Continuous
100
AcDbLine
 10
676.400561
 20
37.91794
 30
0.0
 11
668.865657
 21
37.786418
 31
0.0
  0
ARC
  5
344
100
AcDbEntity
  8
0
370
    -3
  6
Continuous
100
AcDbCircle
 10
668.900561
 20
-197.08206
 30
0.0
 40
2.0
100
AcDbArc
 50
180.0
 51
270.0
  0
LINE
  5
345
100
AcDbEntity
  8
0
370
    -3
  6
Continuous
100
AcDbLine
 10
668.900561
 20
-199.08206
 30
0.0
 11
675.636629
 21
-199.08206
 31
0.0
  0
ARC
  5
346
100
AcDbEntity
  8
0
370
    -3
  6
Continuous
100
AcDbCircle
 10
673.400561
 20
-197.08206
 30
0.0
 40
3.0
100
AcDbArc
 50
270.0
 51
0.0
  0
LINE
  5
347
100
AcDbEntity
  8
0
370
    -3
  6
Continuous
100
AcDbLine
 10
635.400561
 20
-200.08206
 30
0.0
 11
673.400561
 21
-200.08206
 31
0.0
  0
LINE
  5
348
100
AcDbEntity
  8
0
370
    -3
  6
Continuous
100
AcDbLine
 10
634.400561
 20
-201.08206
 30
0.0
 11
634.400561
 21
-220.08206
 31
0.0
  0
ARC
  5
349
100
AcDbEntity
  8
0
370
    -3
  6
Continuous
100
AcDbCircle
 10
635.400561
 20
-201.08206
 30
0.0
 40
1.0
100
AcDbArc
 50
90.0
 51
180.0
  0
LINE
  5
34A
100
AcDbEntity
  8
0
370
    -3
  6
Continuous
100
AcDbLine
 10
804.900561
 20
-200.08206
 30
0.0
 11
833.400561
 21
-200.08206
 31
0.0
  0
LINE
  5
34B
100
AcDbEntity
  8
0
370
    -3
  6
Continuous
100
AcDbLine
 10
834.400561
 20
-201.08206
 30
0.0
 11
834.400561
 21
-220.08206
 31
0.0
  0
LINE
  5
34C
100
AcDbEntity
  8
0
370
    -3
  6
Continuous
100
AcDbLine
 10
634.400561
 20
-220.08206
 30
0.0
 11
834.400561
 21
-220.08206
 31
0.0
  0
LINE
  5
34D
100
AcDbEntity
  8
0
370
    -3
  6
CENTER
100
AcDbLine
 10
819.400561
 20
-193.001826
 30
0.0
 11
819.400561
 21
-229.373459
 31
0.0
  0
ARC
  5
34E
100
AcDbEntity
  8
0
370
    -3
  6
Continuous
100
AcDbCircle
 10
804.900561
 20
-197.08206
 30
0.0
 40
3.0
100
AcDbArc
 50
180.0
 51
270.0
  0
ARC
  5
34F
100
AcDbEntity
  8
0
370
    -3
  6
Continuous
100
AcDbCircle
 10
833.400561
 20
-201.08206
 30
0.0
 40
1.0
100
AcDbArc
 50
0.0
 51
90.0
  0
ARC
  5
350
100
AcDbEntity
  8
0
370
    -3
  6
Continuous
100
AcDbCircle
 10
802.900561
 20
-179.08206
 30
0.0
 40
1.0
100
AcDbArc
 50
270.0
 51
0.0
  0
ARC
  5
351
100
AcDbEntity
  8
0
370
    -3
  6
Continuous
100
AcDbCircle
 10
802.900561
 20
-181.08206
 30
0.0
 40
1.0
100
AcDbArc
 50
90.0
 51
180.0
  0
ARC
  5
352
100
AcDbEntity
  8
0
370
    -3
  6
Continuous
100
AcDbCircle
 10
829.400561
 20
-97.564761
 30
0.0
 40
3.0
100
AcDbArc
 50
280.0
 51
0.0
  0
LINE
  5
353
100
AcDbEntity
  8
0
370
    -3
  6
Continuous
100
AcDbLine
 10
834.400561
 20
-81.38206
 30
0.0
 11
834.200561
 21
-81.58206
 31
0.0
  0
LINE
  5
354
100
AcDbEntity
  8
0
370
    -3
  6
Continuous
100
AcDbLine
 10
834.400561
 20
-81.38206
 30
0.0
 11
834.400561
 21
-50.08206
 31
0.0
  0
LINE
  5
355
100
AcDbEntity
  8
0
370
    -3
  6
Continuous
100
AcDbLine
 10
832.400561
 20
-97.564761
 30
0.0
 11
832.400561
 21
-50.08206
 31
0.0
  0
LINE
  5
356
100
AcDbEntity
  8
0
370
    -3
  6
Continuous
100
AcDbLine
 10
834.200561
 20
-81.58206
 30
0.0
 11
832.400561
 21
-81.58206
 31
0.0
  0
ARC
  5
357
100
AcDbEntity
  8
0
370
    -3
  6
Continuous
100
AcDbCircle
 10
829.400561
 20
-2.599359
 30
0.0
 40
3.0
100
AcDbArc
 50
0.0
 51
80.0
  0
LINE
  5
358
100
AcDbEntity
  8
0
370
    -3
  6
Continuous
100
AcDbLine
 10
834.400561
 20
-18.78206
 30
0.0
 11
834.200561
 21
-18.58206
 31
0.0
  0
LINE
  5
359
100
AcDbEntity
  8
0
370
    -3
  6
Continuous
100
AcDbLine
 10
834.200561
 20
-18.58206
 30
0.0
 11
832.400561
 21
-18.58206
 31
0.0
  0
LINE
  5
35A
100
AcDbEntity
  8
0
370
    -3
  6
Continuous
100
AcDbLine
 10
832.400561
 20
-2.599359
 30
0.0
 11
832.400561
 21
-50.08206
 31
0.0
  0
LINE
  5
35B
100
AcDbEntity
  8
0
370
    -3
  6
Continuous
100
AcDbLine
 10
834.400561
 20
-18.78206
 30
0.0
 11
834.400561
 21
-50.08206
 31
0.0
  0
ARC
  5
35C
100
AcDbEntity
  8
0
370
    -3
  6
Continuous
100
AcDbCircle
 10
806.900561
 20
7.460558
 30
0.0
 40
3.0
100
AcDbArc
 50
180.0
 51
260.0
  0
LINE
  5
35D
100
AcDbEntity
  8
0
370
    -3
  6
Continuous
100
AcDbLine
 10
829.921506
 20
0.355064
 30
0.0
 11
806.379617
 21
4.506135
 31
0.0
  0
ARC
  5
35E
100
AcDbEntity
  8
0
370
    -3
  6
Continuous
100
AcDbCircle
 10
802.900561
 20
20.91794
 30
0.0
 40
1.0
100
AcDbArc
 50
0.0
 51
90.0
  0
ARC
  5
35F
100
AcDbEntity
  8
0
370
    -3
  6
Continuous
100
AcDbCircle
 10
802.900561
 20
22.91794
 30
0.0
 40
1.0
100
AcDbArc
 50
180.0
 51
270.0
  0
ARC
  5
360
100
AcDbEntity
  8
0
370
    -3
  6
Continuous
100
AcDbCircle
 10
665.900561
 20
-179.08206
 30
0.0
 40
1.0
100
AcDbArc
 50
180.0
 51
270.0
  0
ARC
  5
361
100
AcDbEntity
  8
0
370
    -3
  6
Continuous
100
AcDbCircle
 10
665.900561
 20
-181.08206
 30
0.0
 40
1.0
100
AcDbArc
 50
0.0
 51
90.0
  0
LINE
  5
362
100
AcDbEntity
  8
0
370
    -3
  6
Continuous
100
AcDbLine
 10
638.879617
 20
0.355064
 30
0.0
 11
662.421506
 21
4.417971
 31
0.0
  0
LINE
  5
363
100
AcDbEntity
  8
0
370
    -3
  6
Continuous
100
AcDbLine
 10
634.400561
 20
-81.18206
 30
0.0
 11
634.400561
 21
-50.08206
 31
0.0
  0
LINE
  5
364
100
AcDbEntity
  8
0
370
    -3
  6
Continuous
100
AcDbLine
 10
634.800561
 20
-81.58206
 30
0.0
 11
634.400561
 21
-81.18206
 31
0.0
  0
LINE
  5
365
100
AcDbEntity
  8
0
370
    -3
  6
Continuous
100
AcDbLine
 10
634.800561
 20
-18.58206
 30
0.0
 11
634.400561
 21
-18.98206
 31
0.0
  0
LINE
  5
366
100
AcDbEntity
  8
0
370
    -3
  6
Continuous
100
AcDbLine
 10
634.400561
 20
-18.98206
 30
0.0
 11
634.400561
 21
-50.08206
 31
0.0
  0
LINE
  5
367
100
AcDbEntity
  8
0
370
    -3
  6
Continuous
100
AcDbLine
 10
634.800561
 20
-81.58206
 30
0.0
 11
636.400561
 21
-81.58206
 31
0.0
  0
ARC
  5
368
100
AcDbEntity
  8
0
370
    -3
  6
Continuous
100
AcDbCircle
 10
639.400561
 20
-97.564761
 30
0.0
 40
3.0
100
AcDbArc
 50
180.0
 51
260.0
  0
LINE
  5
369
100
AcDbEntity
  8
0
370
    -3
  6
Continuous
100
AcDbLine
 10
636.400561
 20
-97.564761
 30
0.0
 11
636.400561
 21
-50.08206
 31
0.0
  0
LINE
  5
36A
100
AcDbEntity
  8
0
370
    -3
  6
Continuous
100
AcDbLine
 10
634.800561
 20
-18.58206
 30
0.0
 11
636.400561
 21
-18.58206
 31
0.0
  0
ARC
  5
36B
100
AcDbEntity
  8
0
370
    -3
  6
Continuous
100
AcDbCircle
 10
639.400561
 20
-2.599359
 30
0.0
 40
3.0
100
AcDbArc
 50
100.0
 51
180.0
  0
LINE
  5
36C
100
AcDbEntity
  8
0
370
    -3
  6
Continuous
100
AcDbLine
 10
636.400561
 20
-2.599359
 30
0.0
 11
636.400561
 21
-50.08206
 31
0.0
  0
LINE
  5
36D
100
AcDbEntity
  8
0
370
    -3
  6
Continuous
100
AcDbLine
 10
566.400561
 20
-70.08206
 30
0.0
 11
566.400561
 21
-27.08206
 31
0.0
  0
LINE
  5
36E
100
AcDbEntity
  8
0
370
    -3
  6
Continuous
100
AcDbLine
 10
713.900561
 20
37.254647
 30
0.0
 11
713.900561
 21
59.737514
 31
0.0
  0
ARC
  5
36F
100
AcDbEntity
  8
0
370
    -3
  6
Continuous
100
AcDbCircle
 10
723.900561
 20
59.737514
 30
0.0
 40
10.0
100
AcDbArc
 50
90.0
 51
180.0
  0
LINE
  5
370
100
AcDbEntity
  8
0
370
    -3
  6
Continuous
100
AcDbLine
 10
723.900561
 20
69.737514
 30
0.0
 11
744.900561
 21
69.737514
 31
0.0
  0
ARC
  5
371
100
AcDbEntity
  8
0
370
    -3
  6
Continuous
100
AcDbCircle
 10
744.900561
 20
59.737514
 30
0.0
 40
10.0
100
AcDbArc
 50
0.0
 51
90.0
  0
LINE
  5
372
100
AcDbEntity
  8
0
370
    -3
  6
Continuous
100
AcDbLine
 10
754.900561
 20
36.53899
 30
0.0
 11
754.900561
 21
59.737514
 31
0.0
  0
LINE
  5
373
100
AcDbEntity
  8
0
370
    -3
  6
CENTER
100
AcDbLine
 10
719.461508
 20
49.737514
 30
0.0
 11
748.446985
 21
49.737514
 31
0.0
  0
CIRCLE
  5
374
100
AcDbEntity
  8
0
370
    -3
  6
Continuous
100
AcDbCircle
 10
734.400561
 20
49.737514
 30
0.0
 40
10.0
  0
LINE
  5
375
100
AcDbEntity
  8
0
370
    -3
  6
CENTER
100
AcDbLine
 10
-46.954813
 20
-58.262121
 30
0.0
 11
180.425356
 21
-58.262121
 31
0.0
  0
ARC
  5
376
100
AcDbEntity
  8
0
370
    -3
  6
Continuous
100
AcDbCircle
 10
-248.09781
 20
-399.862121
 30
0.0
 40
390.797
100
AcDbArc
 50
87.470639
 51
90.0
  0
ARC
  5
377
100
AcDbEntity
  8
0
370
    -3
  6
Continuous
100
AcDbCircle
 10
-248.09781
 20
-399.862121
 30
0.0
 40
400.6
100
AcDbArc
 50
87.470639
 51
90.0
  0
ARC
  5
378
100
AcDbEntity
  8
0
370
    -3
  6
Continuous
100
AcDbCircle
 10
-248.09781
 20
-399.862121
 30
0.0
 40
390.797
100
AcDbArc
 50
90.0
 51
92.529361
  0
ARC
  5
379
100
AcDbEntity
  8
0
370
    -3
  6
Continuous
100
AcDbCircle
 10
-248.09781
 20
-399.862121
 30
0.0
 40
400.6
100
AcDbArc
 50
90.0
 51
92.529361
  0
LINE
  5
37A
100
AcDbEntity
  8
0
370
    -3
  6
Continuous
100
AcDbLine
 10
-290.453506
 20
-9.259621
 30
0.0
 11
-290.94031
 21
-8.772818
 31
0.0
  0
LINE
  5
37B
100
AcDbEntity
  8
0
370
    -3
  6
Continuous
100
AcDbLine
 10
-297.10031
 20
-15.906425
 30
0.0
 11
-297.587113
 21
-15.419621
 31
0.0
  0
LINE
  5
37C
100
AcDbEntity
  8
0
370
    -3
  6
Continuous
100
AcDbLine
 10
-290.706053
 20
-8.946483
 30
0.0
 11
-297.383153
 21
-15.623582
 31
0.0
  0
LINE
  5
37D
100
AcDbEntity
  8
0
370
    -3
  6
Continuous
100
AcDbLine
 10
-290.453506
 20
-9.259621
 30
0.0
 11
-297.10031
 21
-15.906425
 31
0.0
  0
ARC
  5
37E
100
AcDbEntity
  8
0
370
    -3
  6
Continuous
100
AcDbCircle
 10
-291.514167
 20
-14.845765
 30
0.0
 40
6.099999
100
AcDbArc
 50
84.601911
 51
185.398072
  0
LINE
  5
37F
100
AcDbEntity
  8
0
370
    -3
  6
Continuous
100
AcDbLine
 10
-292.698417
 20
-11.504532
 30
0.0
 11
-294.877163
 21
-13.683277
 31
0.0
  0
ARC
  5
380
100
AcDbEntity
  8
0
370
    -3
  6
Continuous
100
AcDbCircle
 10
-263.989881
 20
-40.213067
 30
0.0
 40
40.6
100
AcDbArc
 50
92.530124
 51
135.0
  0
LINE
  5
381
100
AcDbEntity
  8
0
370
    -3
  6
Continuous
100
AcDbLine
 10
-205.742114
 20
-9.259621
 30
0.0
 11
-205.25531
 21
-8.772818
 31
0.0
  0
LINE
  5
382
100
AcDbEntity
  8
0
370
    -3
  6
Continuous
100
AcDbLine
 10
-199.09531
 20
-15.906425
 30
0.0
 11
-198.608507
 21
-15.419621
 31
0.0
  0
LINE
  5
383
100
AcDbEntity
  8
0
370
    -3
  6
Continuous
100
AcDbLine
 10
-205.489567
 20
-8.946483
 30
0.0
 11
-198.812467
 21
-15.623582
 31
0.0
  0
LINE
  5
384
100
AcDbEntity
  8
0
370
    -3
  6
Continuous
100
AcDbLine
 10
-205.742114
 20
-9.259621
 30
0.0
 11
-199.09531
 21
-15.906425
 31
0.0
  0
ARC
  5
385
100
AcDbEntity
  8
0
370
    -3
  6
Continuous
100
AcDbCircle
 10
-204.681454
 20
-14.845765
 30
0.0
 40
6.099999
100
AcDbArc
 50
354.601928
 51
95.398089
  0
LINE
  5
386
100
AcDbEntity
  8
0
370
    -3
  6
Continuous
100
AcDbLine
 10
-203.497203
 20
-11.504532
 30
0.0
 11
-201.318458
 21
-13.683277
 31
0.0
  0
ARC
  5
387
100
AcDbEntity
  8
0
370
    -3
  6
Continuous
100
AcDbCircle
 10
-232.205739
 20
-40.213067
 30
0.0
 40
40.6
100
AcDbArc
 50
45.0
 51
87.469876
  0
ARC
  5
388
100
AcDbEntity
  8
0
370
    -3
  6
Continuous
100
AcDbCircle
 10
-248.09781
 20
283.337879
 30
0.0
 40
400.6
100
AcDbArc
 50
267.470639
 51
270.0
  0
ARC
  5
389
100
AcDbEntity
  8
0
370
    -3
  6
Continuous
100
AcDbCircle
 10
-248.09781
 20
283.337879
 30
0.0
 40
400.6
100
AcDbArc
 50
270.0
 51
272.529361
  0
LINE
  5
38A
100
AcDbEntity
  8
0
370
    -3
  6
Continuous
100
AcDbLine
 10
-297.10031
 20
-100.617817
 30
0.0
 11
-297.587113
 21
-101.104621
 31
0.0
  0
LINE
  5
38B
100
AcDbEntity
  8
0
370
    -3
  6
Continuous
100
AcDbLine
 10
-290.453506
 20
-107.264621
 30
0.0
 11
-297.10031
 21
-100.617817
 31
0.0
  0
LINE
  5
38C
100
AcDbEntity
  8
0
370
    -3
  6
Continuous
100
AcDbLine
 10
-290.453506
 20
-107.264621
 30
0.0
 11
-290.94031
 21
-107.751424
 31
0.0
  0
LINE
  5
38D
100
AcDbEntity
  8
0
370
    -3
  6
Continuous
100
AcDbLine
 10
-290.706053
 20
-107.577759
 30
0.0
 11
-297.383153
 21
-100.90066
 31
0.0
  0
ARC
  5
38E
100
AcDbEntity
  8
0
370
    -3
  6
Continuous
100
AcDbCircle
 10
-291.514167
 20
-101.678478
 30
0.0
 40
6.099999
100
AcDbArc
 50
174.601928
 51
275.398089
  0
LINE
  5
38F
100
AcDbEntity
  8
0
370
    -3
  6
Continuous
100
AcDbLine
 10
-205.742114
 20
-107.264621
 30
0.0
 11
-199.09531
 21
-100.617817
 31
0.0
  0
LINE
  5
390
100
AcDbEntity
  8
0
370
    -3
  6
Continuous
100
AcDbLine
 10
-203.497203
 20
-105.01971
 30
0.0
 11
-201.318458
 21
-102.840965
 31
0.0
  0
LINE
  5
391
100
AcDbEntity
  8
0
370
    -3
  6
Continuous
100
AcDbLine
 10
-199.09531
 20
-100.617817
 30
0.0
 11
-198.608507
 21
-101.104621
 31
0.0
  0
LINE
  5
392
100
AcDbEntity
  8
0
370
    -3
  6
Continuous
100
AcDbLine
 10
-205.742114
 20
-107.264621
 30
0.0
 11
-205.25531
 21
-107.751424
 31
0.0
  0
LINE
  5
393
100
AcDbEntity
  8
0
370
    -3
  6
Continuous
100
AcDbLine
 10
-205.489567
 20
-107.577759
 30
0.0
 11
-198.812467
 21
-100.90066
 31
0.0
  0
POINT
  5
394
100
AcDbEntity
  8
0
370
    -3
  6
Continuous
100
AcDbPoint
 10
-202.418712
 20
-103.941219
 30
0.0
  0
ARC
  5
395
100
AcDbEntity
  8
0
370
    -3
  6
Continuous
100
AcDbCircle
 10
-204.681454
 20
-101.678478
 30
0.0
 40
6.099999
100
AcDbArc
 50
264.601911
 51
5.398072
  0
ARC
  5
396
100
AcDbEntity
  8
0
370
    -3
  6
Continuous
100
AcDbCircle
 10
-594.69781
 20
-58.262121
 30
0.0
 40
390.797
100
AcDbArc
 50
0.0
 51
4.529193
  0
ARC
  5
397
100
AcDbEntity
  8
0
370
    -3
  6
Continuous
100
AcDbCircle
 10
-215.884857
 20
-28.249677
 30
0.0
 40
10.797
100
AcDbArc
 50
4.529945
 51
45.0
  0
LINE
  5
398
100
AcDbEntity
  8
0
370
    -3
  6
Continuous
100
AcDbLine
 10
-210.428971
 20
-18.436299
 30
0.0
 11
-208.250225
 21
-20.615045
 31
0.0
  0
ARC
  5
399
100
AcDbEntity
  8
0
370
    -3
  6
Continuous
100
AcDbCircle
 10
-232.205739
 20
-40.213067
 30
0.0
 40
30.797
100
AcDbArc
 50
45.0
 51
87.469876
  0
ARC
  5
39A
100
AcDbEntity
  8
0
370
    -3
  6
Continuous
100
AcDbCircle
 10
-263.989881
 20
-40.213067
 30
0.0
 40
30.797
100
AcDbArc
 50
92.530124
 51
135.0
  0
LINE
  5
39B
100
AcDbEntity
  8
0
370
    -3
  6
Continuous
100
AcDbLine
 10
-285.766649
 20
-18.436299
 30
0.0
 11
-287.945395
 21
-20.615045
 31
0.0
  0
ARC
  5
39C
100
AcDbEntity
  8
0
370
    -3
  6
Continuous
100
AcDbCircle
 10
-280.310763
 20
-28.249677
 30
0.0
 40
10.797
100
AcDbArc
 50
135.0
 51
175.470055
  0
ARC
  5
39D
100
AcDbEntity
  8
0
370
    -3
  6
Continuous
100
AcDbCircle
 10
98.50219
 20
-58.262121
 30
0.0
 40
390.797
100
AcDbArc
 50
175.470807
 51
180.0
  0
ARC
  5
39E
100
AcDbEntity
  8
0
370
    -3
  6
Continuous
100
AcDbCircle
 10
-230.441366
 20
-54.762121
 30
0.0
 40
1.0
100
AcDbArc
 50
191.212271
 51
270.0
  0
LINE
  5
39F
100
AcDbEntity
  8
0
370
    -3
  6
Continuous
100
AcDbLine
 10
-227.391531
 20
-55.762121
 30
0.0
 11
-230.441366
 21
-55.762121
 31
0.0
  0
ARC
  5
3A0
100
AcDbEntity
  8
0
370
    -3
  6
Continuous
100
AcDbCircle
 10
-227.391531
 20
-54.762121
 30
0.0
 40
1.0
100
AcDbArc
 50
270.0
 51
9.594068
  0
ARC
  5
3A1
100
AcDbEntity
  8
0
370
    -3
  6
Continuous
100
AcDbCircle
 10
-221.829959
 20
-54.762121
 30
0.0
 40
1.0
100
AcDbArc
 50
187.589542
 51
270.0
  0
LINE
  5
3A2
100
AcDbEntity
  8
0
370
    -3
  6
Continuous
100
AcDbLine
 10
-218.806173
 20
-55.762121
 30
0.0
 11
-221.829959
 21
-55.762121
 31
0.0
  0
ARC
  5
3A3
100
AcDbEntity
  8
0
370
    -3
  6
Continuous
100
AcDbCircle
 10
-218.806173
 20
-54.762121
 30
0.0
 40
1.0
100
AcDbArc
 50
270.0
 51
6.813854
  0
ARC
  5
3A4
100
AcDbEntity
  8
0
370
    -3
  6
Continuous
100
AcDbCircle
 10
-213.27325
 20
-54.762121
 30
0.0
 40
1.0
100
AcDbArc
 50
185.73917
 51
270.0
  0
LINE
  5
3A5
100
AcDbEntity
  8
0
370
    -3
  6
Continuous
100
AcDbLine
 10
-210.259338
 20
-55.762121
 30
0.0
 11
-213.27325
 21
-55.762121
 31
0.0
  0
ARC
  5
3A6
100
AcDbEntity
  8
0
370
    -3
  6
Continuous
100
AcDbCircle
 10
-210.259338
 20
-54.762121
 30
0.0
 40
1.0
100
AcDbArc
 50
270.0
 51
5.284733
  0
ARC
  5
3A7
100
AcDbEntity
  8
0
370
    -3
  6
Continuous
100
AcDbCircle
 10
-230.420903
 20
-34.644819
 30
0.0
 40
1.0
100
AcDbArc
 50
53.186146
 51
150.0
  0
LINE
  5
3A8
100
AcDbEntity
  8
0
370
    -3
  6
Continuous
100
AcDbLine
 10
-231.286928
 20
-34.144819
 30
0.0
 11
-232.798821
 21
-36.763495
 31
0.0
  0
ARC
  5
3A9
100
AcDbEntity
  8
0
370
    -3
  6
Continuous
100
AcDbCircle
 10
-231.932796
 20
-37.263495
 30
0.0
 40
1.0
100
AcDbArc
 50
150.0
 51
232.410458
  0
ARC
  5
3AA
100
AcDbEntity
  8
0
370
    -3
  6
Continuous
100
AcDbCircle
 10
-226.147485
 20
-27.243043
 30
0.0
 40
1.0
100
AcDbArc
 50
54.715267
 51
150.0
  0
LINE
  5
3AB
100
AcDbEntity
  8
0
370
    -3
  6
Continuous
100
AcDbLine
 10
-227.01351
 20
-26.743043
 30
0.0
 11
-228.520466
 21
-29.353167
 31
0.0
  0
ARC
  5
3AC
100
AcDbEntity
  8
0
370
    -3
  6
Continuous
100
AcDbCircle
 10
-227.654441
 20
-29.853167
 30
0.0
 40
1.0
100
AcDbArc
 50
150.0
 51
234.26083
  0
ARC
  5
3AD
100
AcDbEntity
  8
0
370
    -3
  6
Continuous
100
AcDbCircle
 10
-240.650841
 20
-52.363592
 30
0.0
 40
1.0
100
AcDbArc
 50
150.0
 51
218.381728
  0
LINE
  5
3AE
100
AcDbEntity
  8
0
370
    -3
  6
Continuous
100
AcDbLine
 10
-239.932747
 20
-49.119816
 30
0.0
 11
-241.516866
 21
-51.863592
 31
0.0
  0
ARC
  5
3AF
100
AcDbEntity
  8
0
370
    -3
  6
Continuous
100
AcDbCircle
 10
-236.238499
 20
-44.721192
 30
0.0
 40
1.0
100
AcDbArc
 50
150.0
 51
228.787729
  0
LINE
  5
3B0
100
AcDbEntity
  8
0
370
    -3
  6
Continuous
100
AcDbLine
 10
-235.579607
 20
-41.579957
 30
0.0
 11
-237.104525
 21
-44.221192
 31
0.0
  0
ARC
  5
3B1
100
AcDbEntity
  8
0
370
    -3
  6
Continuous
100
AcDbCircle
 10
-234.713581
 20
-42.079957
 30
0.0
 40
1.0
100
AcDbArc
 50
50.405932
 51
150.0
  0
ARC
  5
3B2
100
AcDbEntity
  8
0
370
    -3
  6
Continuous
100
AcDbCircle
 10
-239.266049
 20
-54.762121
 30
0.0
 40
1.0
100
AcDbArc
 50
201.618272
 51
270.0
  0
ARC
  5
3B3
100
AcDbEntity
  8
0
370
    -3
  6
Continuous
100
AcDbCircle
 10
-248.09781
 20
-58.262121
 30
0.0
 40
8.5
100
AcDbArc
 50
21.618272
 51
38.381728
  0
ARC
  5
3B4
100
AcDbEntity
  8
0
370
    -3
  6
Continuous
100
AcDbCircle
 10
-239.066721
 20
-49.619816
 30
0.0
 40
1.0
100
AcDbArc
 50
43.739795
 51
150.0
  0
LINE
  5
3B5
100
AcDbEntity
  8
0
370
    -3
  6
Continuous
100
AcDbLine
 10
-236.09781
 20
-55.762121
 30
0.0
 11
-239.266049
 21
-55.762121
 31
0.0
  0
ARC
  5
3B6
100
AcDbEntity
  8
0
370
    -3
  6
Continuous
100
AcDbCircle
 10
-236.09781
 20
-54.762121
 30
0.0
 40
1.0
100
AcDbArc
 50
270.0
 51
16.260205
  0
ARC
  5
3B7
100
AcDbEntity
  8
0
370
    -3
  6
Continuous
100
AcDbCircle
 10
-248.09781
 20
-58.262121
 30
0.0
 40
13.5
100
AcDbArc
 50
16.260205
 51
43.739795
  0
ARC
  5
3B8
100
AcDbEntity
  8
0
370
    -3
  6
Continuous
100
AcDbCircle
 10
-248.09781
 20
-58.262121
 30
0.0
 40
17.0
100
AcDbArc
 50
11.212271
 51
48.787729
  0
ARC
  5
3B9
100
AcDbEntity
  8
0
370
    -3
  6
Continuous
100
AcDbCircle
 10
-248.09781
 20
-58.262121
 30
0.0
 40
22.0
100
AcDbArc
 50
9.594068
 51
50.405932
  0
ARC
  5
3BA
100
AcDbEntity
  8
0
370
    -3
  6
Continuous
100
AcDbCircle
 10
-248.09781
 20
-58.262121
 30
0.0
 40
30.5
100
AcDbArc
 50
6.813854
 51
53.186146
  0
ARC
  5
3BB
100
AcDbEntity
  8
0
370
    -3
  6
Continuous
100
AcDbCircle
 10
-248.09781
 20
-58.262121
 30
0.0
 40
25.5
100
AcDbArc
 50
7.589542
 51
52.410458
  0
ARC
  5
3BC
100
AcDbEntity
  8
0
370
    -3
  6
Continuous
100
AcDbCircle
 10
-248.09781
 20
-58.262121
 30
0.0
 40
34.0
100
AcDbArc
 50
5.73917
 51
54.26083
  0
ARC
  5
3BD
100
AcDbEntity
  8
0
370
    -3
  6
Continuous
100
AcDbCircle
 10
-248.09781
 20
-58.262121
 30
0.0
 40
39.0
100
AcDbArc
 50
5.284733
 51
54.715267
  0
ARC
  5
3BE
100
AcDbEntity
  8
0
370
    -3
  6
Continuous
100
AcDbCircle
 10
-236.48308
 20
-31.144819
 30
0.0
 40
1.0
100
AcDbArc
 50
330.0
 51
66.813854
  0
LINE
  5
3BF
100
AcDbEntity
  8
0
370
    -3
  6
Continuous
100
AcDbLine
 10
-235.617055
 20
-31.644819
 30
0.0
 11
-237.128948
 21
-34.263495
 31
0.0
  0
ARC
  5
3C0
100
AcDbEntity
  8
0
370
    -3
  6
Continuous
100
AcDbCircle
 10
-237.994973
 20
-33.763495
 30
0.0
 40
1.0
100
AcDbArc
 50
247.589542
 51
330.0
  0
ARC
  5
3C1
100
AcDbEntity
  8
0
370
    -3
  6
Continuous
100
AcDbCircle
 10
-232.209663
 20
-23.743043
 30
0.0
 40
1.0
100
AcDbArc
 50
330.0
 51
65.284733
  0
LINE
  5
3C2
100
AcDbEntity
  8
0
370
    -3
  6
Continuous
100
AcDbLine
 10
-231.343637
 20
-24.243043
 30
0.0
 11
-232.850593
 21
-26.853167
 31
0.0
  0
ARC
  5
3C3
100
AcDbEntity
  8
0
370
    -3
  6
Continuous
100
AcDbCircle
 10
-233.716619
 20
-26.353167
 30
0.0
 40
1.0
100
AcDbArc
 50
245.73917
 51
330.0
  0
ARC
  5
3C4
100
AcDbEntity
  8
0
370
    -3
  6
Continuous
100
AcDbCircle
 10
-246.713019
 20
-48.863592
 30
0.0
 40
1.0
100
AcDbArc
 50
261.618272
 51
330.0
  0
LINE
  5
3C5
100
AcDbEntity
  8
0
370
    -3
  6
Continuous
100
AcDbLine
 10
-244.262874
 20
-46.619816
 30
0.0
 11
-245.846993
 21
-49.363592
 31
0.0
  0
ARC
  5
3C6
100
AcDbEntity
  8
0
370
    -3
  6
Continuous
100
AcDbCircle
 10
-242.300677
 20
-41.221192
 30
0.0
 40
1.0
100
AcDbArc
 50
251.212271
 51
330.0
  0
LINE
  5
3C7
100
AcDbEntity
  8
0
370
    -3
  6
Continuous
100
AcDbLine
 10
-239.909734
 20
-39.079957
 30
0.0
 11
-241.434652
 21
-41.721192
 31
0.0
  0
ARC
  5
3C8
100
AcDbEntity
  8
0
370
    -3
  6
Continuous
100
AcDbCircle
 10
-240.775759
 20
-38.579957
 30
0.0
 40
1.0
100
AcDbArc
 50
330.0
 51
69.594068
  0
ARC
  5
3C9
100
AcDbEntity
  8
0
370
    -3
  6
Continuous
100
AcDbCircle
 10
-249.482602
 20
-48.863592
 30
0.0
 40
1.0
100
AcDbArc
 50
210.0
 51
278.381728
  0
ARC
  5
3CA
100
AcDbEntity
  8
0
370
    -3
  6
Continuous
100
AcDbCircle
 10
-248.09781
 20
-58.262121
 30
0.0
 40
8.5
100
AcDbArc
 50
81.618272
 51
98.381728
  0
ARC
  5
3CB
100
AcDbEntity
  8
0
370
    -3
  6
Continuous
100
AcDbCircle
 10
-245.128899
 20
-46.119816
 30
0.0
 40
1.0
100
AcDbArc
 50
330.0
 51
76.260205
  0
LINE
  5
3CC
100
AcDbEntity
  8
0
370
    -3
  6
Continuous
100
AcDbLine
 10
-251.932747
 20
-46.619816
 30
0.0
 11
-250.348627
 21
-49.363592
 31
0.0
  0
ARC
  5
3CD
100
AcDbEntity
  8
0
370
    -3
  6
Continuous
100
AcDbCircle
 10
-251.066721
 20
-46.119816
 30
0.0
 40
1.0
100
AcDbArc
 50
103.739795
 51
210.0
  0
ARC
  5
3CE
100
AcDbEntity
  8
0
370
    -3
  6
Continuous
100
AcDbCircle
 10
-248.09781
 20
-58.262121
 30
0.0
 40
13.5
100
AcDbArc
 50
76.260205
 51
103.739795
  0
ARC
  5
3CF
100
AcDbEntity
  8
0
370
    -3
  6
Continuous
100
AcDbCircle
 10
-253.894943
 20
-41.221192
 30
0.0
 40
1.0
100
AcDbArc
 50
210.0
 51
288.787729
  0
LINE
  5
3D0
100
AcDbEntity
  8
0
370
    -3
  6
Continuous
100
AcDbLine
 10
-256.285886
 20
-39.079957
 30
0.0
 11
-254.760968
 21
-41.721192
 31
0.0
  0
ARC
  5
3D1
100
AcDbEntity
  8
0
370
    -3
  6
Continuous
100
AcDbCircle
 10
-248.09781
 20
-58.262121
 30
0.0
 40
17.0
100
AcDbArc
 50
71.212271
 51
108.787729
  0
ARC
  5
3D2
100
AcDbEntity
  8
0
370
    -3
  6
Continuous
100
AcDbCircle
 10
-255.419861
 20
-38.579957
 30
0.0
 40
1.0
100
AcDbArc
 50
110.405932
 51
210.0
  0
ARC
  5
3D3
100
AcDbEntity
  8
0
370
    -3
  6
Continuous
100
AcDbCircle
 10
-258.200647
 20
-33.763495
 30
0.0
 40
1.0
100
AcDbArc
 50
210.0
 51
292.410458
  0
ARC
  5
3D4
100
AcDbEntity
  8
0
370
    -3
  6
Continuous
100
AcDbCircle
 10
-262.479001
 20
-26.353167
 30
0.0
 40
1.0
100
AcDbArc
 50
210.0
 51
294.26083
  0
ARC
  5
3D5
100
AcDbEntity
  8
0
370
    -3
  6
Continuous
100
AcDbCircle
 10
-248.09781
 20
-58.262121
 30
0.0
 40
22.0
100
AcDbArc
 50
69.594068
 51
110.405932
  0
LINE
  5
3D6
100
AcDbEntity
  8
0
370
    -3
  6
Continuous
100
AcDbLine
 10
-260.578565
 20
-31.644819
 30
0.0
 11
-259.066672
 21
-34.263495
 31
0.0
  0
ARC
  5
3D7
100
AcDbEntity
  8
0
370
    -3
  6
Continuous
100
AcDbCircle
 10
-259.71254
 20
-31.144819
 30
0.0
 40
1.0
100
AcDbArc
 50
113.186146
 51
210.0
  0
ARC
  5
3D8
100
AcDbEntity
  8
0
370
    -3
  6
Continuous
100
AcDbCircle
 10
-248.09781
 20
-58.262121
 30
0.0
 40
30.5
100
AcDbArc
 50
66.813854
 51
113.186146
  0
ARC
  5
3D9
100
AcDbEntity
  8
0
370
    -3
  6
Continuous
100
AcDbCircle
 10
-248.09781
 20
-58.262121
 30
0.0
 40
25.5
100
AcDbArc
 50
67.589542
 51
112.410458
  0
ARC
  5
3DA
100
AcDbEntity
  8
0
370
    -3
  6
Continuous
100
AcDbCircle
 10
-248.09781
 20
-58.262121
 30
0.0
 40
34.0
100
AcDbArc
 50
65.73917
 51
114.26083
  0
ARC
  5
3DB
100
AcDbEntity
  8
0
370
    -3
  6
Continuous
100
AcDbCircle
 10
-248.09781
 20
-58.262121
 30
0.0
 40
39.0
100
AcDbArc
 50
65.284733
 51
114.715267
  0
LINE
  5
3DC
100
AcDbEntity
  8
0
370
    -3
  6
Continuous
100
AcDbLine
 10
-264.851983
 20
-24.243043
 30
0.0
 11
-263.345027
 21
-26.853167
 31
0.0
  0
ARC
  5
3DD
100
AcDbEntity
  8
0
370
    -3
  6
Continuous
100
AcDbCircle
 10
-263.985957
 20
-23.743043
 30
0.0
 40
1.0
100
AcDbArc
 50
114.715267
 51
210.0
  0
CIRCLE
  5
3DE
100
AcDbEntity
  8
0
370
    -3
  6
Continuous
100
AcDbCircle
 10
-248.09781
 20
-58.262121
 30
0.0
 40
5.0
  0
ARC
  5
3DF
100
AcDbEntity
  8
0
370
    -3
  6
Continuous
100
AcDbCircle
 10
-270.048135
 20
-27.243043
 30
0.0
 40
1.0
100
AcDbArc
 50
30.0
 51
125.284733
  0
ARC
  5
3E0
100
AcDbEntity
  8
0
370
    -3
  6
Continuous
100
AcDbCircle
 10
-268.541179
 20
-29.853167
 30
0.0
 40
1.0
100
AcDbArc
 50
305.73917
 51
30.0
  0
ARC
  5
3E1
100
AcDbEntity
  8
0
370
    -3
  6
Continuous
100
AcDbCircle
 10
-282.92237
 20
-54.762121
 30
0.0
 40
1.0
100
AcDbArc
 50
270.0
 51
354.26083
  0
ARC
  5
3E2
100
AcDbEntity
  8
0
370
    -3
  6
Continuous
100
AcDbCircle
 10
-285.936283
 20
-54.762121
 30
0.0
 40
1.0
100
AcDbArc
 50
174.715267
 51
270.0
  0
ARC
  5
3E3
100
AcDbEntity
  8
0
370
    -3
  6
Continuous
100
AcDbCircle
 10
-274.365661
 20
-54.762121
 30
0.0
 40
1.0
100
AcDbArc
 50
270.0
 51
352.410458
  0
ARC
  5
3E4
100
AcDbEntity
  8
0
370
    -3
  6
Continuous
100
AcDbCircle
 10
-265.774717
 20
-34.644819
 30
0.0
 40
1.0
100
AcDbArc
 50
30.0
 51
126.813854
  0
ARC
  5
3E5
100
AcDbEntity
  8
0
370
    -3
  6
Continuous
100
AcDbCircle
 10
-264.262824
 20
-37.263495
 30
0.0
 40
1.0
100
AcDbArc
 50
307.589542
 51
30.0
  0
ARC
  5
3E6
100
AcDbEntity
  8
0
370
    -3
  6
Continuous
100
AcDbCircle
 10
-277.389447
 20
-54.762121
 30
0.0
 40
1.0
100
AcDbArc
 50
173.186146
 51
270.0
  0
ARC
  5
3E7
100
AcDbEntity
  8
0
370
    -3
  6
Continuous
100
AcDbCircle
 10
-268.804089
 20
-54.762121
 30
0.0
 40
1.0
100
AcDbArc
 50
170.405932
 51
270.0
  0
ARC
  5
3E8
100
AcDbEntity
  8
0
370
    -3
  6
Continuous
100
AcDbCircle
 10
-265.754254
 20
-54.762121
 30
0.0
 40
1.0
100
AcDbArc
 50
270.0
 51
348.787729
  0
ARC
  5
3E9
100
AcDbEntity
  8
0
370
    -3
  6
Continuous
100
AcDbCircle
 10
-261.482039
 20
-42.079957
 30
0.0
 40
1.0
100
AcDbArc
 50
30.0
 51
129.594068
  0
ARC
  5
3EA
100
AcDbEntity
  8
0
370
    -3
  6
Continuous
100
AcDbCircle
 10
-259.957121
 20
-44.721192
 30
0.0
 40
1.0
100
AcDbArc
 50
311.212271
 51
30.0
  0
ARC
  5
3EB
100
AcDbEntity
  8
0
370
    -3
  6
Continuous
100
AcDbCircle
 10
-257.128899
 20
-49.619816
 30
0.0
 40
1.0
100
AcDbArc
 50
30.0
 51
136.260205
  0
ARC
  5
3EC
100
AcDbEntity
  8
0
370
    -3
  6
Continuous
100
AcDbCircle
 10
-260.09781
 20
-54.762121
 30
0.0
 40
1.0
100
AcDbArc
 50
163.739795
 51
270.0
  0
ARC
  5
3ED
100
AcDbEntity
  8
0
370
    -3
  6
Continuous
100
AcDbCircle
 10
-256.929571
 20
-54.762121
 30
0.0
 40
1.0
100
AcDbArc
 50
270.0
 51
338.381728
  0
ARC
  5
3EE
100
AcDbEntity
  8
0
370
    -3
  6
Continuous
100
AcDbCircle
 10
-255.544779
 20
-52.363592
 30
0.0
 40
1.0
100
AcDbArc
 50
321.618272
 51
30.0
  0
ARC
  5
3EF
100
AcDbEntity
  8
0
370
    -3
  6
Continuous
100
AcDbCircle
 10
-248.09781
 20
-58.262121
 30
0.0
 40
39.0
100
AcDbArc
 50
125.284733
 51
174.715267
  0
ARC
  5
3F0
100
AcDbEntity
  8
0
370
    -3
  6
Continuous
100
AcDbCircle
 10
-248.09781
 20
-58.262121
 30
0.0
 40
30.5
100
AcDbArc
 50
126.813854
 51
173.186146
  0
ARC
  5
3F1
100
AcDbEntity
  8
0
370
    -3
  6
Continuous
100
AcDbCircle
 10
-248.09781
 20
-58.262121
 30
0.0
 40
34.0
100
AcDbArc
 50
125.73917
 51
174.26083
  0
ARC
  5
3F2
100
AcDbEntity
  8
0
370
    -3
  6
Continuous
100
AcDbCircle
 10
-248.09781
 20
-58.262121
 30
0.0
 40
25.5
100
AcDbArc
 50
127.589542
 51
172.410458
  0
ARC
  5
3F3
100
AcDbEntity
  8
0
370
    -3
  6
Continuous
100
AcDbCircle
 10
-248.09781
 20
-58.262121
 30
0.0
 40
22.0
100
AcDbArc
 50
129.594068
 51
170.405932
  0
ARC
  5
3F4
100
AcDbEntity
  8
0
370
    -3
  6
Continuous
100
AcDbCircle
 10
-248.09781
 20
-58.262121
 30
0.0
 40
17.0
100
AcDbArc
 50
131.212271
 51
168.787729
  0
ARC
  5
3F5
100
AcDbEntity
  8
0
370
    -3
  6
Continuous
100
AcDbCircle
 10
-248.09781
 20
-58.262121
 30
0.0
 40
13.5
100
AcDbArc
 50
136.260205
 51
163.739795
  0
ARC
  5
3F6
100
AcDbEntity
  8
0
370
    -3
  6
Continuous
100
AcDbCircle
 10
-248.09781
 20
-58.262121
 30
0.0
 40
8.5
100
AcDbArc
 50
141.618272
 51
158.381728
  0
LINE
  5
3F7
100
AcDbEntity
  8
0
370
    -3
  6
Continuous
100
AcDbLine
 10
-264.908692
 20
-34.144819
 30
0.0
 11
-263.396799
 21
-36.763495
 31
0.0
  0
LINE
  5
3F8
100
AcDbEntity
  8
0
370
    -3
  6
Continuous
100
AcDbLine
 10
-285.936283
 20
-55.762121
 30
0.0
 11
-282.92237
 21
-55.762121
 31
0.0
  0
ARC
  5
3F9
100
AcDbEntity
  8
0
370
    -3
  6
Continuous
100
AcDbCircle
 10
-594.69781
 20
-58.262121
 30
0.0
 40
400.6
100
AcDbArc
 50
0.0
 51
4.529193
  0
ARC
  5
3FA
100
AcDbEntity
  8
0
370
    -3
  6
Continuous
100
AcDbCircle
 10
-215.884857
 20
-28.249677
 30
0.0
 40
20.6
100
AcDbArc
 50
4.529945
 51
45.0
  0
ARC
  5
3FB
100
AcDbEntity
  8
0
370
    -3
  6
Continuous
100
AcDbCircle
 10
98.50219
 20
-58.262121
 30
0.0
 40
400.6
100
AcDbArc
 50
175.470807
 51
180.0
  0
ARC
  5
3FC
100
AcDbEntity
  8
0
370
    -3
  6
Continuous
100
AcDbCircle
 10
-280.310763
 20
-28.249677
 30
0.0
 40
20.6
100
AcDbArc
 50
135.0
 51
175.470055
  0
ARC
  5
3FD
100
AcDbEntity
  8
0
370
    -3
  6
Continuous
100
AcDbCircle
 10
98.50219
 20
-58.262121
 30
0.0
 40
400.6
100
AcDbArc
 50
180.0
 51
184.529193
  0
ARC
  5
3FE
100
AcDbEntity
  8
0
370
    -3
  6
Continuous
100
AcDbCircle
 10
-280.310763
 20
-88.274565
 30
0.0
 40
20.6
100
AcDbArc
 50
184.529945
 51
225.0
  0
LINE
  5
3FF
100
AcDbEntity
  8
0
370
    -3
  6
Continuous
100
AcDbLine
 10
-292.698417
 20
-105.01971
 30
0.0
 11
-294.877163
 21
-102.840965
 31
0.0
  0
ARC
  5
400
100
AcDbEntity
  8
0
370
    -3
  6
Continuous
100
AcDbCircle
 10
-263.989881
 20
-76.311175
 30
0.0
 40
40.6
100
AcDbArc
 50
225.0
 51
267.469876
  0
ARC
  5
401
100
AcDbEntity
  8
0
370
    -3
  6
Continuous
100
AcDbCircle
 10
-594.69781
 20
-58.262121
 30
0.0
 40
400.6
100
AcDbArc
 50
355.470807
 51
0.0
  0
ARC
  5
402
100
AcDbEntity
  8
0
370
    -3
  6
Continuous
100
AcDbCircle
 10
-215.884857
 20
-88.274565
 30
0.0
 40
20.6
100
AcDbArc
 50
315.0
 51
355.470055
  0
LINE
  5
403
100
AcDbEntity
  8
0
370
    -3
  6
Continuous
100
AcDbLine
 10
-203.497203
 20
-105.01971
 30
0.0
 11
-201.318458
 21
-102.840965
 31
0.0
  0
ARC
  5
404
100
AcDbEntity
  8
0
370
    -3
  6
Continuous
100
AcDbCircle
 10
-232.205739
 20
-76.311175
 30
0.0
 40
40.6
100
AcDbArc
 50
272.530124
 51
315.0
  0
LINE
  5
405
100
AcDbEntity
  8
0
370
    -3
  6
Continuous
100
AcDbLine
 10
-269.18211
 20
-26.743043
 30
0.0
 11
-267.675154
 21
-29.353167
 31
0.0
  0
LINE
  5
406
100
AcDbEntity
  8
0
370
    -3
  6
Continuous
100
AcDbLine
 10
-260.616013
 20
-41.579957
 30
0.0
 11
-259.091095
 21
-44.221192
 31
0.0
  0
LINE
  5
407
100
AcDbEntity
  8
0
370
    -3
  6
Continuous
100
AcDbLine
 10
-256.262874
 20
-49.119816
 30
0.0
 11
-254.678754
 21
-51.863592
 31
0.0
  0
LINE
  5
408
100
AcDbEntity
  8
0
370
    -3
  6
Continuous
100
AcDbLine
 10
-260.09781
 20
-55.762121
 30
0.0
 11
-256.929571
 21
-55.762121
 31
0.0
  0
LINE
  5
409
100
AcDbEntity
  8
0
370
    -3
  6
Continuous
100
AcDbLine
 10
-268.804089
 20
-55.762121
 30
0.0
 11
-265.754254
 21
-55.762121
 31
0.0
  0
LINE
  5
40A
100
AcDbEntity
  8
0
370
    -3
  6
Continuous
100
AcDbLine
 10
-277.389447
 20
-55.762121
 30
0.0
 11
-274.365661
 21
-55.762121
 31
0.0
  0
ARC
  5
40B
100
AcDbEntity
  8
0
370
    -3
  6
Continuous
100
AcDbCircle
 10
-248.09781
 20
-58.262121
 30
0.0
 40
39.0
100
AcDbArc
 50
245.284733
 51
294.715267
  0
ARC
  5
40C
100
AcDbEntity
  8
0
370
    -3
  6
Continuous
100
AcDbCircle
 10
-248.09781
 20
-58.262121
 30
0.0
 40
34.0
100
AcDbArc
 50
245.73917
 51
294.26083
  0
ARC
  5
40D
100
AcDbEntity
  8
0
370
    -3
  6
Continuous
100
AcDbCircle
 10
-248.09781
 20
-58.262121
 30
0.0
 40
25.5
100
AcDbArc
 50
247.589542
 51
292.410458
  0
ARC
  5
40E
100
AcDbEntity
  8
0
370
    -3
  6
Continuous
100
AcDbCircle
 10
-248.09781
 20
-58.262121
 30
0.0
 40
30.5
100
AcDbArc
 50
246.813854
 51
293.186146
  0
ARC
  5
40F
100
AcDbEntity
  8
0
370
    -3
  6
Continuous
100
AcDbCircle
 10
-248.09781
 20
-58.262121
 30
0.0
 40
22.0
100
AcDbArc
 50
249.594068
 51
290.405932
  0
ARC
  5
410
100
AcDbEntity
  8
0
370
    -3
  6
Continuous
100
AcDbCircle
 10
-248.09781
 20
-58.262121
 30
0.0
 40
17.0
100
AcDbArc
 50
251.212271
 51
288.787729
  0
ARC
  5
411
100
AcDbEntity
  8
0
370
    -3
  6
Continuous
100
AcDbCircle
 10
-248.09781
 20
-58.262121
 30
0.0
 40
13.5
100
AcDbArc
 50
256.260205
 51
283.739795
  0
ARC
  5
412
100
AcDbEntity
  8
0
370
    -3
  6
Continuous
100
AcDbCircle
 10
-245.128899
 20
-70.404426
 30
0.0
 40
1.0
100
AcDbArc
 50
283.739795
 51
30.0
  0
ARC
  5
413
100
AcDbEntity
  8
0
370
    -3
  6
Continuous
100
AcDbCircle
 10
-240.775759
 20
-77.944285
 30
0.0
 40
1.0
100
AcDbArc
 50
290.405932
 51
30.0
  0
LINE
  5
414
100
AcDbEntity
  8
0
370
    -3
  6
Continuous
100
AcDbLine
 10
-239.909734
 20
-77.444285
 30
0.0
 11
-241.434652
 21
-74.80305
 31
0.0
  0
ARC
  5
415
100
AcDbEntity
  8
0
370
    -3
  6
Continuous
100
AcDbCircle
 10
-242.300677
 20
-75.30305
 30
0.0
 40
1.0
100
AcDbArc
 50
30.0
 51
108.787729
  0
LINE
  5
416
100
AcDbEntity
  8
0
370
    -3
  6
Continuous
100
AcDbLine
 10
-244.262874
 20
-69.904426
 30
0.0
 11
-245.846993
 21
-67.16065
 31
0.0
  0
ARC
  5
417
100
AcDbEntity
  8
0
370
    -3
  6
Continuous
100
AcDbCircle
 10
-246.713019
 20
-67.66065
 30
0.0
 40
1.0
100
AcDbArc
 50
30.0
 51
98.381728
  0
ARC
  5
418
100
AcDbEntity
  8
0
370
    -3
  6
Continuous
100
AcDbCircle
 10
-233.716619
 20
-90.171075
 30
0.0
 40
1.0
100
AcDbArc
 50
30.0
 51
114.26083
  0
LINE
  5
419
100
AcDbEntity
  8
0
370
    -3
  6
Continuous
100
AcDbLine
 10
-231.343637
 20
-92.281199
 30
0.0
 11
-232.850593
 21
-89.671075
 31
0.0
  0
ARC
  5
41A
100
AcDbEntity
  8
0
370
    -3
  6
Continuous
100
AcDbCircle
 10
-232.209663
 20
-92.781199
 30
0.0
 40
1.0
100
AcDbArc
 50
294.715267
 51
30.0
  0
ARC
  5
41B
100
AcDbEntity
  8
0
370
    -3
  6
Continuous
100
AcDbCircle
 10
-237.994973
 20
-82.760747
 30
0.0
 40
1.0
100
AcDbArc
 50
30.0
 51
112.410458
  0
LINE
  5
41C
100
AcDbEntity
  8
0
370
    -3
  6
Continuous
100
AcDbLine
 10
-235.617055
 20
-84.879423
 30
0.0
 11
-237.128948
 21
-82.260747
 31
0.0
  0
ARC
  5
41D
100
AcDbEntity
  8
0
370
    -3
  6
Continuous
100
AcDbCircle
 10
-236.48308
 20
-85.379423
 30
0.0
 40
1.0
100
AcDbArc
 50
293.186146
 51
30.0
  0
ARC
  5
41E
100
AcDbEntity
  8
0
370
    -3
  6
Continuous
100
AcDbCircle
 10
-248.09781
 20
-58.262121
 30
0.0
 40
39.0
100
AcDbArc
 50
305.284733
 51
354.715267
  0
ARC
  5
41F
100
AcDbEntity
  8
0
370
    -3
  6
Continuous
100
AcDbCircle
 10
-248.09781
 20
-58.262121
 30
0.0
 40
34.0
100
AcDbArc
 50
305.73917
 51
354.26083
  0
ARC
  5
420
100
AcDbEntity
  8
0
370
    -3
  6
Continuous
100
AcDbCircle
 10
-248.09781
 20
-58.262121
 30
0.0
 40
25.5
100
AcDbArc
 50
307.589542
 51
352.410458
  0
ARC
  5
421
100
AcDbEntity
  8
0
370
    -3
  6
Continuous
100
AcDbCircle
 10
-248.09781
 20
-58.262121
 30
0.0
 40
30.5
100
AcDbArc
 50
306.813854
 51
353.186146
  0
ARC
  5
422
100
AcDbEntity
  8
0
370
    -3
  6
Continuous
100
AcDbCircle
 10
-248.09781
 20
-58.262121
 30
0.0
 40
22.0
100
AcDbArc
 50
309.594068
 51
350.405932
  0
ARC
  5
423
100
AcDbEntity
  8
0
370
    -3
  6
Continuous
100
AcDbCircle
 10
-248.09781
 20
-58.262121
 30
0.0
 40
17.0
100
AcDbArc
 50
311.212271
 51
348.787729
  0
ARC
  5
424
100
AcDbEntity
  8
0
370
    -3
  6
Continuous
100
AcDbCircle
 10
-248.09781
 20
-58.262121
 30
0.0
 40
13.5
100
AcDbArc
 50
316.260205
 51
343.739795
  0
ARC
  5
425
100
AcDbEntity
  8
0
370
    -3
  6
Continuous
100
AcDbCircle
 10
-236.09781
 20
-61.762121
 30
0.0
 40
1.0
100
AcDbArc
 50
343.739795
 51
90.0
  0
LINE
  5
426
100
AcDbEntity
  8
0
370
    -3
  6
Continuous
100
AcDbLine
 10
-236.09781
 20
-60.762121
 30
0.0
 11
-239.266049
 21
-60.762121
 31
0.0
  0
ARC
  5
427
100
AcDbEntity
  8
0
370
    -3
  6
Continuous
100
AcDbCircle
 10
-239.066721
 20
-66.904426
 30
0.0
 40
1.0
100
AcDbArc
 50
210.0
 51
316.260205
  0
ARC
  5
428
100
AcDbEntity
  8
0
370
    -3
  6
Continuous
100
AcDbCircle
 10
-248.09781
 20
-58.262121
 30
0.0
 40
8.5
100
AcDbArc
 50
321.618272
 51
338.381728
  0
ARC
  5
429
100
AcDbEntity
  8
0
370
    -3
  6
Continuous
100
AcDbCircle
 10
-239.266049
 20
-61.762121
 30
0.0
 40
1.0
100
AcDbArc
 50
90.0
 51
158.381728
  0
ARC
  5
42A
100
AcDbEntity
  8
0
370
    -3
  6
Continuous
100
AcDbCircle
 10
-234.713581
 20
-74.444285
 30
0.0
 40
1.0
100
AcDbArc
 50
210.0
 51
309.594068
  0
LINE
  5
42B
100
AcDbEntity
  8
0
370
    -3
  6
Continuous
100
AcDbLine
 10
-235.579607
 20
-74.944285
 30
0.0
 11
-237.104525
 21
-72.30305
 31
0.0
  0
ARC
  5
42C
100
AcDbEntity
  8
0
370
    -3
  6
Continuous
100
AcDbCircle
 10
-236.238499
 20
-71.80305
 30
0.0
 40
1.0
100
AcDbArc
 50
131.212271
 51
210.0
  0
LINE
  5
42D
100
AcDbEntity
  8
0
370
    -3
  6
Continuous
100
AcDbLine
 10
-239.932747
 20
-67.404426
 30
0.0
 11
-241.516866
 21
-64.66065
 31
0.0
  0
ARC
  5
42E
100
AcDbEntity
  8
0
370
    -3
  6
Continuous
100
AcDbCircle
 10
-240.650841
 20
-64.16065
 30
0.0
 40
1.0
100
AcDbArc
 50
141.618272
 51
210.0
  0
ARC
  5
42F
100
AcDbEntity
  8
0
370
    -3
  6
Continuous
100
AcDbCircle
 10
-227.654441
 20
-86.671075
 30
0.0
 40
1.0
100
AcDbArc
 50
125.73917
 51
210.0
  0
LINE
  5
430
100
AcDbEntity
  8
0
370
    -3
  6
Continuous
100
AcDbLine
 10
-227.01351
 20
-89.781199
 30
0.0
 11
-228.520466
 21
-87.171075
 31
0.0
  0
ARC
  5
431
100
AcDbEntity
  8
0
370
    -3
  6
Continuous
100
AcDbCircle
 10
-226.147485
 20
-89.281199
 30
0.0
 40
1.0
100
AcDbArc
 50
210.0
 51
305.284733
  0
ARC
  5
432
100
AcDbEntity
  8
0
370
    -3
  6
Continuous
100
AcDbCircle
 10
-231.932796
 20
-79.260747
 30
0.0
 40
1.0
100
AcDbArc
 50
127.589542
 51
210.0
  0
LINE
  5
433
100
AcDbEntity
  8
0
370
    -3
  6
Continuous
100
AcDbLine
 10
-231.286928
 20
-82.379423
 30
0.0
 11
-232.798821
 21
-79.760747
 31
0.0
  0
ARC
  5
434
100
AcDbEntity
  8
0
370
    -3
  6
Continuous
100
AcDbCircle
 10
-230.420903
 20
-81.879423
 30
0.0
 40
1.0
100
AcDbArc
 50
210.0
 51
306.813854
  0
ARC
  5
435
100
AcDbEntity
  8
0
370
    -3
  6
Continuous
100
AcDbCircle
 10
-210.259338
 20
-61.762121
 30
0.0
 40
1.0
100
AcDbArc
 50
354.715267
 51
90.0
  0
LINE
  5
436
100
AcDbEntity
  8
0
370
    -3
  6
Continuous
100
AcDbLine
 10
-210.259338
 20
-60.762121
 30
0.0
 11
-213.27325
 21
-60.762121
 31
0.0
  0
ARC
  5
437
100
AcDbEntity
  8
0
370
    -3
  6
Continuous
100
AcDbCircle
 10
-213.27325
 20
-61.762121
 30
0.0
 40
1.0
100
AcDbArc
 50
90.0
 51
174.26083
  0
ARC
  5
438
100
AcDbEntity
  8
0
370
    -3
  6
Continuous
100
AcDbCircle
 10
-218.806173
 20
-61.762121
 30
0.0
 40
1.0
100
AcDbArc
 50
353.186146
 51
90.0
  0
LINE
  5
439
100
AcDbEntity
  8
0
370
    -3
  6
Continuous
100
AcDbLine
 10
-218.806173
 20
-60.762121
 30
0.0
 11
-221.829959
 21
-60.762121
 31
0.0
  0
ARC
  5
43A
100
AcDbEntity
  8
0
370
    -3
  6
Continuous
100
AcDbCircle
 10
-221.829959
 20
-61.762121
 30
0.0
 40
1.0
100
AcDbArc
 50
90.0
 51
172.410458
  0
ARC
  5
43B
100
AcDbEntity
  8
0
370
    -3
  6
Continuous
100
AcDbCircle
 10
-227.391531
 20
-61.762121
 30
0.0
 40
1.0
100
AcDbArc
 50
350.405932
 51
90.0
  0
LINE
  5
43C
100
AcDbEntity
  8
0
370
    -3
  6
Continuous
100
AcDbLine
 10
-227.391531
 20
-60.762121
 30
0.0
 11
-230.441366
 21
-60.762121
 31
0.0
  0
ARC
  5
43D
100
AcDbEntity
  8
0
370
    -3
  6
Continuous
100
AcDbCircle
 10
-230.441366
 20
-61.762121
 30
0.0
 40
1.0
100
AcDbArc
 50
90.0
 51
168.787729
  0
LINE
  5
43E
100
AcDbEntity
  8
0
370
    -3
  6
Continuous
100
AcDbLine
 10
-210.428971
 20
-98.087943
 30
0.0
 11
-208.250225
 21
-95.909197
 31
0.0
  0
ARC
  5
43F
100
AcDbEntity
  8
0
370
    -3
  6
Continuous
100
AcDbCircle
 10
-215.884857
 20
-88.274565
 30
0.0
 40
10.797
100
AcDbArc
 50
315.0
 51
355.470055
  0
ARC
  5
440
100
AcDbEntity
  8
0
370
    -3
  6
Continuous
100
AcDbCircle
 10
-594.69781
 20
-58.262121
 30
0.0
 40
390.797
100
AcDbArc
 50
355.470807
 51
0.0
  0
ARC
  5
441
100
AcDbEntity
  8
0
370
    -3
  6
Continuous
100
AcDbCircle
 10
-251.066721
 20
-70.404426
 30
0.0
 40
1.0
100
AcDbArc
 50
150.0
 51
256.260205
  0
LINE
  5
442
100
AcDbEntity
  8
0
370
    -3
  6
Continuous
100
AcDbLine
 10
-251.932747
 20
-69.904426
 30
0.0
 11
-250.348627
 21
-67.16065
 31
0.0
  0
ARC
  5
443
100
AcDbEntity
  8
0
370
    -3
  6
Continuous
100
AcDbCircle
 10
-248.09781
 20
-58.262121
 30
0.0
 40
8.5
100
AcDbArc
 50
261.618272
 51
278.381728
  0
ARC
  5
444
100
AcDbEntity
  8
0
370
    -3
  6
Continuous
100
AcDbCircle
 10
-249.482602
 20
-67.66065
 30
0.0
 40
1.0
100
AcDbArc
 50
81.618272
 51
150.0
  0
ARC
  5
445
100
AcDbEntity
  8
0
370
    -3
  6
Continuous
100
AcDbCircle
 10
-248.09781
 20
283.337879
 30
0.0
 40
390.797
100
AcDbArc
 50
267.470639
 51
270.0
  0
ARC
  5
446
100
AcDbEntity
  8
0
370
    -3
  6
Continuous
100
AcDbCircle
 10
-248.09781
 20
283.337879
 30
0.0
 40
390.797
100
AcDbArc
 50
270.0
 51
272.529361
  0
ARC
  5
447
100
AcDbEntity
  8
0
370
    -3
  6
Continuous
100
AcDbCircle
 10
-232.205739
 20
-76.311175
 30
0.0
 40
30.797
100
AcDbArc
 50
272.530124
 51
315.0
  0
LINE
  5
448
100
AcDbEntity
  8
0
370
    -3
  6
Continuous
100
AcDbLine
 10
-277.389447
 20
-60.762121
 30
0.0
 11
-274.365661
 21
-60.762121
 31
0.0
  0
LINE
  5
449
100
AcDbEntity
  8
0
370
    -3
  6
Continuous
100
AcDbLine
 10
-268.804089
 20
-60.762121
 30
0.0
 11
-265.754254
 21
-60.762121
 31
0.0
  0
LINE
  5
44A
100
AcDbEntity
  8
0
370
    -3
  6
Continuous
100
AcDbLine
 10
-260.09781
 20
-60.762121
 30
0.0
 11
-256.929571
 21
-60.762121
 31
0.0
  0
LINE
  5
44B
100
AcDbEntity
  8
0
370
    -3
  6
Continuous
100
AcDbLine
 10
-256.262874
 20
-67.404426
 30
0.0
 11
-254.678754
 21
-64.66065
 31
0.0
  0
LINE
  5
44C
100
AcDbEntity
  8
0
370
    -3
  6
Continuous
100
AcDbLine
 10
-260.616013
 20
-74.944285
 30
0.0
 11
-259.091095
 21
-72.30305
 31
0.0
  0
LINE
  5
44D
100
AcDbEntity
  8
0
370
    -3
  6
Continuous
100
AcDbLine
 10
-269.18211
 20
-89.781199
 30
0.0
 11
-267.675154
 21
-87.171075
 31
0.0
  0
LINE
  5
44E
100
AcDbEntity
  8
0
370
    -3
  6
Continuous
100
AcDbLine
 10
-264.908692
 20
-82.379423
 30
0.0
 11
-263.396799
 21
-79.760747
 31
0.0
  0
ARC
  5
44F
100
AcDbEntity
  8
0
370
    -3
  6
Continuous
100
AcDbCircle
 10
-248.09781
 20
-58.262121
 30
0.0
 40
8.5
100
AcDbArc
 50
201.618272
 51
218.381728
  0
ARC
  5
450
100
AcDbEntity
  8
0
370
    -3
  6
Continuous
100
AcDbCircle
 10
-248.09781
 20
-58.262121
 30
0.0
 40
13.5
100
AcDbArc
 50
196.260205
 51
223.739795
  0
ARC
  5
451
100
AcDbEntity
  8
0
370
    -3
  6
Continuous
100
AcDbCircle
 10
-248.09781
 20
-58.262121
 30
0.0
 40
17.0
100
AcDbArc
 50
191.212271
 51
228.787729
  0
ARC
  5
452
100
AcDbEntity
  8
0
370
    -3
  6
Continuous
100
AcDbCircle
 10
-248.09781
 20
-58.262121
 30
0.0
 40
22.0
100
AcDbArc
 50
189.594068
 51
230.405932
  0
ARC
  5
453
100
AcDbEntity
  8
0
370
    -3
  6
Continuous
100
AcDbCircle
 10
-248.09781
 20
-58.262121
 30
0.0
 40
25.5
100
AcDbArc
 50
187.589542
 51
232.410458
  0
ARC
  5
454
100
AcDbEntity
  8
0
370
    -3
  6
Continuous
100
AcDbCircle
 10
-248.09781
 20
-58.262121
 30
0.0
 40
34.0
100
AcDbArc
 50
185.73917
 51
234.26083
  0
ARC
  5
455
100
AcDbEntity
  8
0
370
    -3
  6
Continuous
100
AcDbCircle
 10
-248.09781
 20
-58.262121
 30
0.0
 40
30.5
100
AcDbArc
 50
186.813854
 51
233.186146
  0
ARC
  5
456
100
AcDbEntity
  8
0
370
    -3
  6
Continuous
100
AcDbCircle
 10
-248.09781
 20
-58.262121
 30
0.0
 40
39.0
100
AcDbArc
 50
185.284733
 51
234.715267
  0
ARC
  5
457
100
AcDbEntity
  8
0
370
    -3
  6
Continuous
100
AcDbCircle
 10
-255.544779
 20
-64.16065
 30
0.0
 40
1.0
100
AcDbArc
 50
330.0
 51
38.381728
  0
ARC
  5
458
100
AcDbEntity
  8
0
370
    -3
  6
Continuous
100
AcDbCircle
 10
-256.929571
 20
-61.762121
 30
0.0
 40
1.0
100
AcDbArc
 50
21.618272
 51
90.0
  0
ARC
  5
459
100
AcDbEntity
  8
0
370
    -3
  6
Continuous
100
AcDbCircle
 10
-260.09781
 20
-61.762121
 30
0.0
 40
1.0
100
AcDbArc
 50
90.0
 51
196.260205
  0
ARC
  5
45A
100
AcDbEntity
  8
0
370
    -3
  6
Continuous
100
AcDbCircle
 10
-257.128899
 20
-66.904426
 30
0.0
 40
1.0
100
AcDbArc
 50
223.739795
 51
330.0
  0
ARC
  5
45B
100
AcDbEntity
  8
0
370
    -3
  6
Continuous
100
AcDbCircle
 10
-259.957121
 20
-71.80305
 30
0.0
 40
1.0
100
AcDbArc
 50
330.0
 51
48.787729
  0
ARC
  5
45C
100
AcDbEntity
  8
0
370
    -3
  6
Continuous
100
AcDbCircle
 10
-261.482039
 20
-74.444285
 30
0.0
 40
1.0
100
AcDbArc
 50
230.405932
 51
330.0
  0
ARC
  5
45D
100
AcDbEntity
  8
0
370
    -3
  6
Continuous
100
AcDbCircle
 10
-265.754254
 20
-61.762121
 30
0.0
 40
1.0
100
AcDbArc
 50
11.212271
 51
90.0
  0
ARC
  5
45E
100
AcDbEntity
  8
0
370
    -3
  6
Continuous
100
AcDbCircle
 10
-268.804089
 20
-61.762121
 30
0.0
 40
1.0
100
AcDbArc
 50
90.0
 51
189.594068
  0
ARC
  5
45F
100
AcDbEntity
  8
0
370
    -3
  6
Continuous
100
AcDbCircle
 10
-264.262824
 20
-79.260747
 30
0.0
 40
1.0
100
AcDbArc
 50
330.0
 51
52.410458
  0
ARC
  5
460
100
AcDbEntity
  8
0
370
    -3
  6
Continuous
100
AcDbCircle
 10
-265.774717
 20
-81.879423
 30
0.0
 40
1.0
100
AcDbArc
 50
233.186146
 51
330.0
  0
ARC
  5
461
100
AcDbEntity
  8
0
370
    -3
  6
Continuous
100
AcDbCircle
 10
-274.365661
 20
-61.762121
 30
0.0
 40
1.0
100
AcDbArc
 50
7.589542
 51
90.0
  0
ARC
  5
462
100
AcDbEntity
  8
0
370
    -3
  6
Continuous
100
AcDbCircle
 10
-268.541179
 20
-86.671075
 30
0.0
 40
1.0
100
AcDbArc
 50
330.0
 51
54.26083
  0
ARC
  5
463
100
AcDbEntity
  8
0
370
    -3
  6
Continuous
100
AcDbCircle
 10
-270.048135
 20
-89.281199
 30
0.0
 40
1.0
100
AcDbArc
 50
234.715267
 51
330.0
  0
ARC
  5
464
100
AcDbEntity
  8
0
370
    -3
  6
Continuous
100
AcDbCircle
 10
-263.985957
 20
-92.781199
 30
0.0
 40
1.0
100
AcDbArc
 50
150.0
 51
245.284733
  0
LINE
  5
465
100
AcDbEntity
  8
0
370
    -3
  6
Continuous
100
AcDbLine
 10
-264.851983
 20
-92.281199
 30
0.0
 11
-263.345027
 21
-89.671075
 31
0.0
  0
ARC
  5
466
100
AcDbEntity
  8
0
370
    -3
  6
Continuous
100
AcDbCircle
 10
-259.71254
 20
-85.379423
 30
0.0
 40
1.0
100
AcDbArc
 50
150.0
 51
246.813854
  0
LINE
  5
467
100
AcDbEntity
  8
0
370
    -3
  6
Continuous
100
AcDbLine
 10
-260.578565
 20
-84.879423
 30
0.0
 11
-259.066672
 21
-82.260747
 31
0.0
  0
ARC
  5
468
100
AcDbEntity
  8
0
370
    -3
  6
Continuous
100
AcDbCircle
 10
-262.479001
 20
-90.171075
 30
0.0
 40
1.0
100
AcDbArc
 50
65.73917
 51
150.0
  0
ARC
  5
469
100
AcDbEntity
  8
0
370
    -3
  6
Continuous
100
AcDbCircle
 10
-258.200647
 20
-82.760747
 30
0.0
 40
1.0
100
AcDbArc
 50
67.589542
 51
150.0
  0
ARC
  5
46A
100
AcDbEntity
  8
0
370
    -3
  6
Continuous
100
AcDbCircle
 10
-255.419861
 20
-77.944285
 30
0.0
 40
1.0
100
AcDbArc
 50
150.0
 51
249.594068
  0
LINE
  5
46B
100
AcDbEntity
  8
0
370
    -3
  6
Continuous
100
AcDbLine
 10
-256.285886
 20
-77.444285
 30
0.0
 11
-254.760968
 21
-74.80305
 31
0.0
  0
ARC
  5
46C
100
AcDbEntity
  8
0
370
    -3
  6
Continuous
100
AcDbCircle
 10
-253.894943
 20
-75.30305
 30
0.0
 40
1.0
100
AcDbArc
 50
71.212271
 51
150.0
  0
ARC
  5
46D
100
AcDbEntity
  8
0
370
    -3
  6
Continuous
100
AcDbCircle
 10
-263.989881
 20
-76.311175
 30
0.0
 40
30.797
100
AcDbArc
 50
225.0
 51
267.469876
  0
LINE
  5
46E
100
AcDbEntity
  8
0
370
    -3
  6
Continuous
100
AcDbLine
 10
-285.936283
 20
-60.762121
 30
0.0
 11
-282.92237
 21
-60.762121
 31
0.0
  0
ARC
  5
46F
100
AcDbEntity
  8
0
370
    -3
  6
Continuous
100
AcDbCircle
 10
-277.389447
 20
-61.762121
 30
0.0
 40
1.0
100
AcDbArc
 50
90.0
 51
186.813854
  0
ARC
  5
470
100
AcDbEntity
  8
0
370
    -3
  6
Continuous
100
AcDbCircle
 10
-285.936283
 20
-61.762121
 30
0.0
 40
1.0
100
AcDbArc
 50
90.0
 51
185.284733
  0
ARC
  5
471
100
AcDbEntity
  8
0
370
    -3
  6
Continuous
100
AcDbCircle
 10
-282.92237
 20
-61.762121
 30
0.0
 40
1.0
100
AcDbArc
 50
5.73917
 51
90.0
  0
ARC
  5
472
100
AcDbEntity
  8
0
370
    -3
  6
Continuous
100
AcDbCircle
 10
98.50219
 20
-58.262121
 30
0.0
 40
390.797
100
AcDbArc
 50
180.0
 51
184.529193
  0
ARC
  5
473
100
AcDbEntity
  8
0
370
    -3
  6
Continuous
100
AcDbCircle
 10
-280.310763
 20
-88.274565
 30
0.0
 40
10.797
100
AcDbArc
 50
184.529945
 51
225.0
  0
LINE
  5
474
100
AcDbEntity
  8
0
370
    -3
  6
Continuous
100
AcDbLine
 10
-285.766649
 20
-98.087943
 30
0.0
 11
-287.945395
 21
-95.909197
 31
0.0
  0
LINE
  5
475
100
AcDbEntity
  8
0
370
    -3
  6
Continuous
100
AcDbLine
 10
201.402181
 20
244.084786
 30
0.0
 11
201.402181
 21
380.297749
 31
0.0
  0
LINE
  5
476
100
AcDbEntity
  8
0
370
    -3
  6
Continuous
100
AcDbLine
 10
211.402181
 20
383.297749
 30
0.0
 11
211.402181
 21
240.297749
 31
0.0
  0
ARC
  5
477
100
AcDbEntity
  8
0
370
    -3
  6
Continuous
100
AcDbCircle
 10
156.402181
 20
360.297749
 30
0.0
 40
5.0
100
AcDbArc
 50
0.0
 51
90.0
  0
LINE
  5
478
100
AcDbEntity
  8
0
370
    -3
  6
Continuous
100
AcDbLine
 10
199.402181
 20
365.297749
 30
0.0
 11
144.902181
 21
365.297749
 31
0.0
  0
ARC
  5
479
100
AcDbEntity
  8
0
370
    -3
  6
Continuous
100
AcDbCircle
 10
156.402181
 20
263.297749
 30
0.0
 40
5.0
100
AcDbArc
 50
270.0
 51
0.0
  0
ARC
  5
47A
100
AcDbEntity
  8
0
370
    -3
  6
Continuous
100
AcDbCircle
 10
157.576177
 20
309.821702
 30
0.0
 40
15.324423
100
AcDbArc
 50
265.606296
 51
284.457814
  0
ARC
  5
47B
100
AcDbEntity
  8
0
370
    -3
  6
Continuous
100
AcDbCircle
 10
157.576177
 20
313.773796
 30
0.0
 40
15.324423
100
AcDbArc
 50
75.542186
 51
94.393704
  0
LINE
  5
47C
100
AcDbEntity
  8
0
370
    -3
  6
Continuous
100
AcDbLine
 10
161.402181
 20
360.297749
 30
0.0
 11
161.402181
 21
263.297749
 31
0.0
  0
LINE
  5
47D
100
AcDbEntity
  8
0
370
    -3
  6
Continuous
100
AcDbLine
 10
156.402181
 20
329.053183
 30
0.0
 11
144.902181
 21
329.053183
 31
0.0
  0
LINE
  5
47E
100
AcDbEntity
  8
0
370
    -3
  6
Continuous
100
AcDbLine
 10
156.402181
 20
294.542315
 30
0.0
 11
144.902181
 21
294.542315
 31
0.0
  0
LINE
  5
47F
100
AcDbEntity
  8
0
370
    -3
  6
Continuous
100
AcDbLine
 10
199.402181
 20
258.297749
 30
0.0
 11
144.902181
 21
258.297749
 31
0.0
  0
ARC
  5
480
100
AcDbEntity
  8
0
370
    -3
  6
Continuous
100
AcDbCircle
 10
199.402181
 20
367.297749
 30
0.0
 40
2.0
100
AcDbArc
 50
269.973361
 51
0.0
  0
ARC
  5
481
100
AcDbEntity
  8
0
370
    -3
  6
Continuous
100
AcDbCircle
 10
204.402181
 20
380.297749
 30
0.0
 40
3.0
100
AcDbArc
 50
90.0
 51
180.0
  0
LINE
  5
482
100
AcDbEntity
  8
0
370
    -3
  6
Continuous
100
AcDbLine
 10
204.402181
 20
383.297749
 30
0.0
 11
211.402181
 21
383.297749
 31
0.0
  0
LINE
  5
483
100
AcDbEntity
  8
0
370
    -3
  6
Continuous
100
AcDbLine
 10
201.402181
 20
379.510712
 30
0.0
 11
201.402181
 21
380.297749
 31
0.0
  0
ARC
  5
484
100
AcDbEntity
  8
0
370
    -3
  6
Continuous
100
AcDbCircle
 10
199.402181
 20
256.297749
 30
0.0
 40
2.0
100
AcDbArc
 50
0.0
 51
89.975467
  0
ARC
  5
485
100
AcDbEntity
  8
0
370
    -3
  6
Continuous
100
AcDbCircle
 10
204.402181
 20
243.297749
 30
0.0
 40
3.0
100
AcDbArc
 50
180.0
 51
270.0
  0
LINE
  5
486
100
AcDbEntity
  8
0
370
    -3
  6
Continuous
100
AcDbLine
 10
204.402181
 20
240.297749
 30
0.0
 11
211.402181
 21
240.297749
 31
0.0
  0
LINE
  5
487
100
AcDbEntity
  8
0
370
    -3
  6
Continuous
100
AcDbLine
 10
201.402181
 20
243.297749
 30
0.0
 11
201.402181
 21
244.084786
 31
0.0
  0
LINE
  5
488
100
AcDbEntity
  8
0
370
    -3
  6
Continuous
100
AcDbLine
 10
144.902181
 20
-110.771214
 30
0.0
 11
144.902181
 21
-108.512486
 31
0.0
  0
ENDSEC
  0
SECTION
  2
OBJECTS
  0
DICTIONARY
  5
19
100
AcDbDictionary
280
     0
281
     1
  3
ACAD_GROUP
350
1A
  3
ACAD_MLINESTYLE
350
1B
  3
ACAD_LAYOUT
350
1E
  3
ACAD_PLOTSETTINGS
350
22
  3
ACAD_PLOTSTYLENAME
350
1F
  3
ACAD_WIPEOUT_VARS
350
23
  3
DWGPROPS
350
489
  0
DICTIONARY
  5
1A
102
{ACAD_REACTORS
330
19
102
}
100
AcDbDictionary
280
     0
281
     1
  0
DICTIONARY
  5
1B
102
{ACAD_REACTORS
330
19
102
}
100
AcDbDictionary
280
     0
281
     1
  3
Standard
350
1C
  0
MLINESTYLE
  5
1C
102
{ACAD_REACTORS
330
1B
102
}
100
AcDbMlineStyle
  2
Standard
 70
     0
  3

 62
     0
 51
90.0
 52
90.0
 71
     2
 49
0.5
 62
   256
  6
ByLayer
 49
-0.5
 62
   256
  6
ByLayer
  0
ACDBDICTIONARYWDFLT
  5
1F
102
{ACAD_REACTORS
330
19
102
}
100
AcDbDictionary
281
     1
  3
Normal
350
1D
100
AcDbDictionaryWithDefault
340
1D
  0
ACDBPLACEHOLDER
  5
1D
102
{ACAD_REACTORS
330
1F
102
}
  0
LAYOUT
  5
20
102
{ACAD_REACTORS
330
1E
102
}
100
AcDbPlotSettings
  1

  2

  4

  6

 40
0.0
 41
0.0
 42
0.0
 43
0.0
 44
0.0
 45
0.0
 46
0.0
 47
0.0
 48
0.0
 49
0.0
140
0.0
141
0.0
142
1.0
143
1.0
 70
  1024
 72
     0
 73
     0
 74
     0
  7

 75
     0
147
1.0
148
0.0
149
0.0
100
AcDbLayout
  1
Model
 70
     0
 71
     0
 10
0.0
 20
0.0
 11
0.0
 21
0.0
 12
0.0
 22
0.0
 32
0.0
 14
0.0
 24
0.0
 34
0.0
 15
0.0
 25
0.0
 35
0.0
146
0.0
 13
0.0
 23
0.0
 33
0.0
 16
0.0
 26
0.0
 36
0.0
 17
0.0
 27
0.0
 37
0.0
 76
     0
330
A
331
0
345
0
346
0
  0
LAYOUT
  5
21
102
{ACAD_REACTORS
330
1E
102
}
100
AcDbPlotSettings
  1

  2

  4

  6

 40
0.0
 41
0.0
 42
0.0
 43
0.0
 44
0.0
 45
0.0
 46
0.0
 47
0.0
 48
0.0
 49
0.0
140
0.0
141
0.0
142
1.0
143
1.0
 70
     0
 72
     0
 73
     0
 74
     0
  7

 75
     0
147
1.0
148
0.0
149
0.0
100
AcDbLayout
  1
Layout1
 70
     0
 71
     0
 10
0.0
 20
0.0
 11
0.0
 21
0.0
 12
0.0
 22
0.0
 32
0.0
 14
0.0
 24
0.0
 34
0.0
 15
0.0
 25
0.0
 35
0.0
146
0.0
 13
0.0
 23
0.0
 33
0.0
 16
0.0
 26
0.0
 36
0.0
 17
0.0
 27
0.0
 37
0.0
 76
     0
330
B
331
0
345
0
346
0
  0
DICTIONARY
  5
1E
102
{ACAD_REACTORS
330
19
102
}
100
AcDbDictionary
280
     0
281
     1
  3
Layout1
350
21
  3
Model
350
20
  0
DICTIONARY
  5
22
102
{ACAD_REACTORS
330
19
102
}
100
AcDbDictionary
280
     0
281
     1
  0
WIPEOUTVARIABLES
  5
23
100
AcDbWipeoutVariables
 70
     1
  0
XRECORD
  5
489
100
AcDbXrecord
280
     1
  1
DWGPROPS COOKIE
  2

  3

  4

  6

  7

  8
TB24944
  9

300
=
301
=
302
=
303
=
304
=
305
=
306
=
307
=
308
=
309
=
 40
0.0
 41
2455965.591979
 42
2455965.591979
  1

 90
        0
  0
ENDSEC
  0
EOF
