  0
SECTION
  2
HEADER
  9
$FILLMODE
 70
1
  9
$TEXTSTYLE
  7
STANDARD1
  9
$ACADVER
  1
AC1009
  9
$DIMASZ
 40
1.931851648807023
  9
$DIMEXE
 40
2.000000000000000
  9
$DIMEXO
 40
1.000000000000000
  9
$DIMLFAC
 40
1.000000000000000
  9
$DIMSCALE
 40
1.000000000000000
  9
$DIMTAD
 70
1
  9
$DIMTFAC
 40
0.714285731315613
  9
$DIMTXT
 40
2.799999952316284
  9
$LUPREC
 70
3
  9
$TEXTSIZE
 40
4.000000000000000
  9
$REGENMODE
 70
1
  0
ENDSEC
  0
SECTION
  2
TABLES
  0
TABLE
  2
LTYPE
 70
4
  0
LTYPE
  2
CONTINUOUS
 70
64
  3
Solid line
 72
65
 73
0
 40
0.0
  0
LTYPE
  2
DASHED
 70
64
  3
-- -- -- -- -- -- -- -- -- -- -- -- -- -- --
 72
65
 73
2
 40
0.75
 49
0.5
 49
-0.25
  0
LTYPE
  2
DASHDOT
 70
64
  3
__ . __ . __ . __ . __ . __ . __ . __ . __ . __
 72
65
 73
4
 40
1.0
 49
0.5
 49
-0.25
 49
0.0
 49
-0.25
  0
LTYPE
  2
DIVIDE
 70
64
  3
__ . . __ . . __ . . __ . . __ . . __ . . __
 72
65
 73
6
 40
1.25
 49
0.5
 49
-0.25
 49
0.0
 49
-0.25
 49
0.0
 49
-0.25
  0
ENDTAB
  0
TABLE
  2
LAYER
 70
1
  0
LAYER
  2
0
 70
64
 62
2
  6
CONTINUOUS
  0
ENDTAB
  0
TABLE
  2
STYLE
 70
4
  0
STYLE
  2
STANDARD1
 70
64
 40
0.0
 41
1.0
 50
0.0
 71
0
 42
4.000000000000000
  3
MONOTXT
  4
BIGFONT
  0
STYLE
  2
STANDARD2
 70
68
 40
0.0
 41
1.0
 50
0.0
 71
0
 42
4.000000000000000
  3
MONOTXT
  4
BIGFONT
  0
STYLE
  2
STANDARD3
 70
64
 40
0.0
 41
1.0
 50
0.0
 71
0
 42
4.000000000000000
  3
MONOTXT
  4

  0
STYLE
  2
STANDARD4
 70
68
 40
0.0
 41
1.0
 50
0.0
 71
0
 42
4.000000000000000
  3
MONOTXT
  4

  0
ENDTAB
  0
TABLE
  2
VIEW
 70
0
  0
ENDTAB
  0
ENDSEC
  0
SECTION
  2
BLOCKS
  0
BLOCK
  8
0
  2
SYM1
 70
64
 10
0.000000000000000
 20
0.000000000000000
  0
POINT
  8
0
  6
CONTINUOUS
 62
3
 10
0.000000000000000
 20
0.000000000000000
  0
LINE
  8
0
  6
CONTINUOUS
 62
3
 10
0.000000000000000
 20
5.000000000000000
 11
0.000000000000000
 21
-5.000000000000000
  0
LINE
  8
0
  6
CONTINUOUS
 62
3
 10
-6.000000000000000
 20
-5.000000000000000
 11
-6.000000000000000
 21
5.000000000000000
  0
LINE
  8
0
  6
CONTINUOUS
 62
3
 10
0.000000000000000
 20
5.000000000000000
 11
-6.000000000000000
 21
5.000000000000000
  0
LINE
  8
0
  6
CONTINUOUS
 62
3
 10
-0.000000000000000
 20
-5.000000000000000
 11
-6.000000000000000
 21
-5.000000000000000
  0
ENDBLK
  8
0
  0
ENDSEC
  0
SECTION
  2
ENTITIES
  0
LINE
  8
0
  6
CONTINUOUS
 62
3
 10
-368.808568836836860
 20
-122.826914981307080
 11
-366.308564487330390
 21
-124.270288558002960
  0
LINE
  8
0
  6
CONTINUOUS
 62
3
 10
-366.308574267329500
 20
-118.496792746417720
 11
-363.808569539282640
 21
-119.940163781510870
  0
LINE
  8
0
  6
CONTINUOUS
 62
3
 10
-366.308563972767330
 20
-124.270287944353180
 11
-363.808571667723750
 21
-122.826912597609060
  0
LINE
  8
0
  6
CONTINUOUS
 62
3
 10
-366.308574206100050
 20
-118.496792266275000
 11
-368.808567990891330
 21
-119.940168910822470
  0
LINE
  8
0
  6
CONTINUOUS
 62
3
 10
-368.808567100707650
 20
-119.940169361632050
 11
-368.808568054381960
 21
-122.826914814512910
  0
LINE
  8
0
  6
CONTINUOUS
 62
3
 10
-363.808571869077300
 20
-122.826912651629010
 11
-363.808570915403040
 21
-119.940163384050890
  0
POINT
  8
0
  6
CONTINUOUS
 62
3
 10
-366.308569484892810
 20
-121.383541006631100
  0
CIRCLE
  8
0
  6
CONTINUOUS
 62
3
 10
-366.308569484892810
 20
-121.383541006631100
 40
5.000000000000000
  0
LINE
  8
0
  6
CONTINUOUS
 62
3
 10
-338.808568836837080
 20
-201.826914981307110
 11
-336.308564487330610
 21
-203.270288558002990
  0
LINE
  8
0
  6
CONTINUOUS
 62
3
 10
-336.308574267329730
 20
-197.496792746417750
 11
-333.808569539282870
 21
-198.940163781510900
  0
LINE
  8
0
  6
CONTINUOUS
 62
3
 10
-336.308563972767560
 20
-203.270287944353210
 11
-333.808571667723980
 21
-201.826912597609090
  0
LINE
  8
0
  6
CONTINUOUS
 62
3
 10
-336.308574206100270
 20
-197.496792266275040
 11
-338.808567990891560
 21
-198.940168910822510
  0
LINE
  8
0
  6
CONTINUOUS
 62
3
 10
-338.808567100707880
 20
-198.940169361632090
 11
-338.808568054382190
 21
-201.826914814512950
  0
LINE
  8
0
  6
CONTINUOUS
 62
3
 10
-333.808571869077530
 20
-201.826912651629040
 11
-333.808570915403270
 21
-198.940163384050920
  0
POINT
  8
0
  6
CONTINUOUS
 62
3
 10
-336.308569484893040
 20
-200.383541006631130
  0
CIRCLE
  8
0
  6
CONTINUOUS
 62
3
 10
-336.308569484893040
 20
-200.383541006631130
 40
5.000000000000000
  0
ARC
  8
0
  6
CONTINUOUS
 62
3
 10
-343.735333624702150
 20
-176.310305146440870
 40
6.099999427795398
 50
174.601910595264880
 51
275.398072101891500
  0
POINT
  8
0
  6
CONTINUOUS
 62
3
 10
-345.998075189629160
 20
-178.573046711367910
  0
LINE
  8
0
  6
CONTINUOUS
 62
3
 10
-349.321476926336000
 20
-175.249644974661040
 11
-342.674673452922320
 21
-181.896448448074780
  0
LINE
  8
0
  6
CONTINUOUS
 62
3
 10
-349.634615535304820
 20
-175.502191925511430
 11
-342.957516232831890
 21
-182.179291227984350
  0
LINE
  8
0
  6
CONTINUOUS
 62
3
 10
-342.674673452922320
 20
-181.896448448074780
 11
-343.161476844627940
 21
-182.383251839780370
  0
LINE
  8
0
  6
CONTINUOUS
 62
3
 10
-349.321476926336000
 20
-175.249644974661040
 11
-349.808280318041620
 21
-175.736448366366660
  0
ARC
  8
0
  6
CONTINUOUS
 62
3
 10
-244.881805345083050
 20
-176.310305146440870
 40
6.099999427795399
 50
264.601927898109010
 51
5.398089404735109
  0
POINT
  8
0
  6
CONTINUOUS
 62
3
 10
-242.619063780156010
 20
-178.573046711367910
  0
LINE
  8
0
  6
CONTINUOUS
 62
3
 10
-239.295662043449140
 20
-175.249644974661040
 11
-245.942465516862880
 21
-181.896448448074780
  0
LINE
  8
0
  6
CONTINUOUS
 62
3
 10
-238.982523434480380
 20
-175.502191925511430
 11
-245.659622736953280
 21
-182.179291227984350
  0
LINE
  8
0
  6
CONTINUOUS
 62
3
 10
-245.942465516862880
 20
-181.896448448074780
 11
-245.455662125157260
 21
-182.383251839780370
  0
LINE
  8
0
  6
CONTINUOUS
 62
3
 10
-239.295662043449140
 20
-175.249644974661040
 11
-238.808858651743550
 21
-175.736448366366660
  0
LINE
  8
0
  6
CONTINUOUS
 62
3
 10
-249.808570132948550
 20
-201.826914981307110
 11
-252.308574482455010
 21
-203.270288558002990
  0
LINE
  8
0
  6
CONTINUOUS
 62
3
 10
-252.308564702455900
 20
-197.496792746417750
 11
-254.808569430502760
 21
-198.940163781510900
  0
LINE
  8
0
  6
CONTINUOUS
 62
3
 10
-252.308574997018070
 20
-203.270287944353210
 11
-254.808567302061650
 21
-201.826912597609090
  0
LINE
  8
0
  6
CONTINUOUS
 62
3
 10
-252.308564763685350
 20
-197.496792266275040
 11
-249.808570978894070
 21
-198.940168910822510
  0
LINE
  8
0
  6
CONTINUOUS
 62
3
 10
-249.808571869077750
 20
-198.940169361632090
 11
-249.808570915403440
 21
-201.826914814512950
  0
LINE
  8
0
  6
CONTINUOUS
 62
3
 10
-254.808567100708070
 20
-201.826912651629040
 11
-254.808568054382360
 21
-198.940163384050920
  0
POINT
  8
0
  6
CONTINUOUS
 62
3
 10
-252.308569484892590
 20
-200.383541006631130
  0
CIRCLE
  8
0
  6
CONTINUOUS
 62
3
 10
-252.308569484892590
 20
-200.383541006631130
 40
5.000000000000000
  0
ARC
  8
0
  6
CONTINUOUS
 62
3
 10
-244.881805345083050
 20
-77.456776866821571
 40
6.099999427795398
 50
354.601910595264880
 51
95.398072101890989
  0
POINT
  8
0
  6
CONTINUOUS
 62
3
 10
-242.619063780156010
 20
-75.194035301894530
  0
LINE
  8
0
  6
CONTINUOUS
 62
3
 10
-239.295662043449140
 20
-78.517437038601386
 11
-245.942465516862880
 21
-71.870633565187674
  0
LINE
  8
0
  6
CONTINUOUS
 62
3
 10
-238.982523434480380
 20
-78.264890087751013
 11
-245.659622736953280
 21
-71.587790785278102
  0
LINE
  8
0
  6
CONTINUOUS
 62
3
 10
-245.942465516862880
 20
-71.870633565187674
 11
-245.455662125157260
 21
-71.383830173482053
  0
LINE
  8
0
  6
CONTINUOUS
 62
3
 10
-239.295662043449140
 20
-78.517437038601386
 11
-238.808858651743550
 21
-78.030633646895765
  0
ARC
  8
0
  6
CONTINUOUS
 62
3
 10
-343.735333624702150
 20
-77.456776866821571
 40
6.099999427795419
 50
84.601927898108485
 51
185.398089404735120
  0
POINT
  8
0
  6
CONTINUOUS
 62
3
 10
-345.998075189629160
 20
-75.194035301894530
  0
LINE
  8
0
  6
CONTINUOUS
 62
3
 10
-349.321476926336000
 20
-78.517437038601386
 11
-342.674673452922320
 21
-71.870633565187674
  0
LINE
  8
0
  6
CONTINUOUS
 62
3
 10
-349.634615535304820
 20
-78.264890087751013
 11
-342.957516232831890
 21
-71.587790785278102
  0
LINE
  8
0
  6
CONTINUOUS
 62
3
 10
-342.674673452922320
 20
-71.870633565187674
 11
-343.161476844627940
 21
-71.383830173482053
  0
LINE
  8
0
  6
CONTINUOUS
 62
3
 10
-349.321476926336000
 20
-78.517437038601386
 11
-349.808280318041620
 21
-78.030633646895765
  0
LINE
  8
0
  6
CONTINUOUS
 62
3
 10
-343.808568836837080
 20
-64.326914981306970
 11
-341.308564487330610
 21
-65.770288558002846
  0
LINE
  8
0
  6
CONTINUOUS
 62
3
 10
-341.308574267329730
 20
-59.996792746417611
 11
-338.808569539282870
 21
-61.440163781510762
  0
LINE
  8
0
  6
CONTINUOUS
 62
3
 10
-341.308563972767560
 20
-65.770287944353072
 11
-338.808571667723980
 21
-64.326912597608953
  0
LINE
  8
0
  6
CONTINUOUS
 62
3
 10
-341.308574206100270
 20
-59.996792266274895
 11
-343.808567990891560
 21
-61.440168910822365
  0
LINE
  8
0
  6
CONTINUOUS
 62
3
 10
-343.808567100707880
 20
-61.440169361631952
 11
-343.808568054382190
 21
-64.326914814512804
  0
LINE
  8
0
  6
CONTINUOUS
 62
3
 10
-338.808571869077530
 20
-64.326912651628902
 11
-338.808570915403270
 21
-61.440163384050770
  0
POINT
  8
0
  6
CONTINUOUS
 62
3
 10
-341.308569484893040
 20
-62.883541006630992
  0
CIRCLE
  8
0
  6
CONTINUOUS
 62
3
 10
-341.308569484893040
 20
-62.883541006630992
 40
5.000000000000000
  0
LINE
  8
0
  6
CONTINUOUS
 62
3
 10
-244.808570132948550
 20
-64.326914981306970
 11
-247.308574482455010
 21
-65.770288558002846
  0
LINE
  8
0
  6
CONTINUOUS
 62
3
 10
-247.308564702455900
 20
-59.996792746417611
 11
-249.808569430502760
 21
-61.440163781510762
  0
LINE
  8
0
  6
CONTINUOUS
 62
3
 10
-247.308574997018070
 20
-65.770287944353072
 11
-249.808567302061650
 21
-64.326912597608953
  0
LINE
  8
0
  6
CONTINUOUS
 62
3
 10
-247.308564763685350
 20
-59.996792266274895
 11
-244.808570978894070
 21
-61.440168910822365
  0
LINE
  8
0
  6
CONTINUOUS
 62
3
 10
-244.808571869077750
 20
-61.440169361631952
 11
-244.808570915403440
 21
-64.326914814512804
  0
LINE
  8
0
  6
CONTINUOUS
 62
3
 10
-249.808567100708070
 20
-64.326912651628902
 11
-249.808568054382360
 21
-61.440163384050770
  0
POINT
  8
0
  6
CONTINUOUS
 62
3
 10
-247.308569484892590
 20
-62.883541006630992
  0
CIRCLE
  8
0
  6
CONTINUOUS
 62
3
 10
-247.308569484892590
 20
-62.883541006630992
 40
5.000000000000000
  0
TEXT
  8
0
  6
CONTINUOUS
 62
3
 10
-318.726593017578120
 20
131.086349487304690
 40
8.000000000000000
  1
Ｄ００１
 50
0.000002504478167
 41
0.833333333333333
  7
STANDARD1
  0
TEXT
  8
0
  6
CONTINUOUS
 62
3
 10
-318.726593017578120
 20
120.486351013183590
 40
8.000000000000000
  1
三菱ギヤードモートル
 50
0.000002504478167
 41
0.833333333333333
  7
STANDARD1
  0
TEXT
  8
0
  6
CONTINUOUS
 62
3
 10
-318.726593017578120
 20
109.886352539062500
 40
8.000000000000000
  1
ＧＭ－Ｄ
 50
0.000002504478167
 41
0.833333333333333
  7
STANDARD1
  0
TEXT
  8
0
  6
CONTINUOUS
 62
3
 10
-318.726593017578120
 20
99.286346435546875
 40
8.000000000000000
  1
０．４（kＷ）
 50
0.000002504478167
 41
0.804878051688032
  7
STANDARD1
  0
TEXT
  8
0
  6
CONTINUOUS
 62
3
 10
-318.726593017578120
 20
88.686347961425781
 40
8.000000000000000
  1
１／３～１／５０
 50
0.000002504478167
 41
0.833333333333333
  7
STANDARD1
  0
TEXT
  8
0
  6
CONTINUOUS
 62
3
 10
-318.726593017578120
 20
78.086349487304688
 40
8.000000000000000
  1
ＳＣＡＬＥ　１／１
 50
0.000002504478167
 41
0.833333333333333
  7
STANDARD1
  0
ARC
  8
0
  6
CONTINUOUS
 62
4
 10
-58.708569484892450
 20
-126.883541006631100
 40
289.397000000000160
 50
180.000000000000000
 51
186.051985358668500
  0
ARC
  8
0
  6
CONTINUOUS
 62
4
 10
-331.181470410102970
 20
-155.771570731769370
 40
15.397000000000052
 50
186.051985358668840
 51
225.000000000000000
  0
LINE
  8
0
  6
CONTINUOUS
 62
4
 10
-337.492728127393780
 20
-171.234959234337400
 11
-342.068793520032390
 21
-166.658893841698780
  0
ARC
  8
0
  6
CONTINUOUS
 62
4
 10
-333.250087440274680
 20
-166.992318547217850
 40
6.000000000000049
 50
225.000000000003070
 51
262.102011327574360
  0
ARC
  8
0
  6
CONTINUOUS
 62
4
 10
-294.308569484892360
 20
113.716458993368800
 40
289.396999999999820
 50
262.102011327572200
 51
270.000000000000000
  0
ARC
  8
0
  6
CONTINUOUS
 62
4
 10
-529.908569484892500
 20
-126.883541006631100
 40
289.397000000000160
 50
353.948014641331500
 51
0.000000000000000
  0
ARC
  8
0
  6
CONTINUOUS
 62
4
 10
-257.435668559681970
 20
-155.771570731769370
 40
15.396999999999876
 50
315.000000000000000
 51
353.948014641331160
  0
LINE
  8
0
  6
CONTINUOUS
 62
4
 10
-251.124410842391170
 20
-171.234959234337400
 11
-246.548345449752560
 21
-166.658893841698780
  0
ARC
  8
0
  6
CONTINUOUS
 62
4
 10
-255.367051529510260
 20
-166.992318547217850
 40
5.999999999999923
 50
277.897988672425640
 51
314.999999999996870
  0
ARC
  8
0
  6
CONTINUOUS
 62
4
 10
-294.308569484892590
 20
113.716458993368800
 40
289.396999999999930
 50
270.000000000000000
 51
277.897988672427800
  0
ARC
  8
0
  6
CONTINUOUS
 62
4
 10
-529.908569484892500
 20
-126.883541006631100
 40
289.397000000000160
 50
0.000000000000000
 51
6.051985358668508
  0
ARC
  8
0
  6
CONTINUOUS
 62
4
 10
-257.435668559681970
 20
-97.995511281492838
 40
15.397000000000052
 50
6.051985358668849
 51
45.000000000000000
  0
LINE
  8
0
  6
CONTINUOUS
 62
4
 10
-251.124410842391170
 20
-82.532122778924816
 11
-246.548345449752560
 21
-87.108188171563427
  0
ARC
  8
0
  6
CONTINUOUS
 62
4
 10
-255.367051529510260
 20
-86.774763466044362
 40
6.000000000000049
 50
45.000000000003077
 51
82.102011327574374
  0
ARC
  8
0
  6
CONTINUOUS
 62
4
 10
-294.308569484892590
 20
-367.483541006631010
 40
289.396999999999820
 50
82.102011327572214
 51
90.000000000000000
  0
ARC
  8
0
  6
CONTINUOUS
 62
4
 10
-58.708569484892678
 20
-126.883541006631100
 40
289.396999999999930
 50
173.948014641331470
 51
180.000000000000000
  0
LINE
  8
0
  6
CONTINUOUS
 62
4
 10
-337.492728127393780
 20
-82.532122778924816
 11
-342.068793520032390
 21
-87.108188171563427
  0
ARC
  8
0
  6
CONTINUOUS
 62
4
 10
-331.181470410102970
 20
-97.995511281492838
 40
15.396999999999876
 50
135.000000000000000
 51
173.948014641331160
  0
ARC
  8
0
  6
CONTINUOUS
 62
3
 10
-257.435668559681970
 20
-155.771570731769370
 40
26.599999999999955
 50
315.000000000001020
 51
353.948014641331380
  0
LINE
  8
0
  6
CONTINUOUS
 62
3
 10
-245.693077298778920
 20
-181.647060229990810
 11
-238.626628180119500
 21
-174.580611111331170
  0
ARC
  8
0
  6
CONTINUOUS
 62
3
 10
-529.908569484892500
 20
-126.883541006631100
 40
300.600000000000080
 50
353.948014641331500
 51
6.051985358668499
  0
ARC
  8
0
  6
CONTINUOUS
 62
3
 10
-331.181470410102970
 20
-155.771570731769370
 40
26.599999999999969
 50
186.051985358668590
 51
224.999999999998980
  0
ARC
  8
0
  6
CONTINUOUS
 62
3
 10
-58.708569484892564
 20
-126.883541006631100
 40
300.599999999999970
 50
173.948014641331500
 51
186.051985358668500
  0
LINE
  8
0
  6
CONTINUOUS
 62
3
 10
-342.924061671006260
 20
-181.647060229990810
 11
-349.990510789665450
 21
-174.580611111331170
  0
ARC
  8
0
  6
CONTINUOUS
 62
3
 10
-331.181470410102970
 20
-97.995511281492838
 40
26.600000000000119
 50
135.000000000000000
 51
173.948014641331410
  0
LINE
  8
0
  6
CONTINUOUS
 62
3
 10
-342.924061671006260
 20
-72.120021783271625
 11
-349.990510789665220
 21
-79.186470901930591
  0
ARC
  8
0
  6
CONTINUOUS
 62
3
 10
-257.435668559682200
 20
-97.995511281492838
 40
26.600000000000193
 50
6.051985358668552
 51
45.000000000000000
  0
LINE
  8
0
  6
CONTINUOUS
 62
3
 10
-245.693077298778920
 20
-72.120021783271625
 11
-238.626628180119950
 21
-79.186470901930591
  0
LINE
  8
0
  6
CONTINUOUS
 62
3
 10
-12.659294935326102
 20
182.616458993368950
 11
17.340705064673784
 21
182.616458993368950
  0
LINE
  8
0
  6
CONTINUOUS
 62
4
 10
-79.659294935326102
 20
180.116458993368950
 11
39.840705064673806
 21
180.116458993368920
  0
LINE
  8
0
  6
CONTINUOUS
 62
4
 10
-79.659294935326102
 20
179.116458993368950
 11
39.840705064673806
 21
179.116458993368920
  0
LINE
  8
0
  6
CONTINUOUS
 62
4
 10
-79.659294935326102
 20
178.116458993368950
 11
39.840705064673806
 21
178.116458993368920
  0
LINE
  8
0
  6
CONTINUOUS
 62
4
 10
-79.659294935326102
 20
173.431993180144670
 11
37.090705064673813
 21
173.431993180144670
  0
LINE
  8
0
  6
CONTINUOUS
 62
4
 10
-79.659294935326102
 20
168.482245711838910
 11
37.090705064673813
 21
168.482245711838910
  0
LINE
  8
0
  6
CONTINUOUS
 62
4
 10
-79.659294935326102
 20
138.116458993368950
 11
39.840705064673813
 21
138.116458993368950
  0
LINE
  8
0
  6
CONTINUOUS
 62
4
 10
-79.659294935326102
 20
142.489720802870120
 11
39.840705064673813
 21
142.489720802870120
  0
LINE
  8
0
  6
CONTINUOUS
 62
4
 10
-79.659294935326102
 20
143.755958718957340
 11
39.840705064673813
 21
143.755958718957340
  0
LINE
  8
0
  6
CONTINUOUS
 62
4
 10
-79.659294935326102
 20
147.946512450499540
 11
39.840705064673813
 21
147.946512450499540
  0
LINE
  8
0
  6
CONTINUOUS
 62
4
 10
-79.659294935326102
 20
149.308392785848810
 11
39.840705064673813
 21
149.308392785848810
  0
LINE
  8
0
  6
CONTINUOUS
 62
4
 10
-79.659294935326102
 20
153.398893319938680
 11
39.840705064673813
 21
153.398893319938680
  0
LINE
  8
0
  6
CONTINUOUS
 62
4
 10
-79.659294935326102
 20
154.867250709743300
 11
39.840705064673813
 21
154.867250709743300
  0
LINE
  8
0
  6
CONTINUOUS
 62
4
 10
-79.659294935326102
 20
158.830996133542840
 11
39.840705064673813
 21
158.830996133542840
  0
LINE
  8
0
  6
CONTINUOUS
 62
4
 10
-79.659294935326102
 20
160.435644049104890
 11
39.840705064673813
 21
160.435644049104890
  0
LINE
  8
0
  6
CONTINUOUS
 62
4
 10
-79.659294935326102
 20
108.116458993368950
 11
39.840705064673813
 21
108.116458993368950
  0
LINE
  8
0
  6
CONTINUOUS
 62
4
 10
-79.659294935326102
 20
103.743197183867770
 11
39.840705064673813
 21
103.743197183867770
  0
LINE
  8
0
  6
CONTINUOUS
 62
4
 10
-79.659294935326102
 20
102.476959267780550
 11
39.840705064673813
 21
102.476959267780550
  0
LINE
  8
0
  6
CONTINUOUS
 62
4
 10
-79.659294935326102
 20
98.286405536238362
 11
39.840705064673813
 21
98.286405536238377
  0
LINE
  8
0
  6
CONTINUOUS
 62
4
 10
-79.659294935326102
 20
96.924525200889093
 11
39.840705064673813
 21
96.924525200889093
  0
LINE
  8
0
  6
CONTINUOUS
 62
4
 10
-79.659294935326102
 20
92.834024666799223
 11
39.840705064673813
 21
92.834024666799223
  0
LINE
  8
0
  6
CONTINUOUS
 62
4
 10
-79.659294935326102
 20
91.365667276994600
 11
39.840705064673813
 21
91.365667276994600
  0
LINE
  8
0
  6
CONTINUOUS
 62
4
 10
-79.659294935326102
 20
87.401921853195063
 11
39.840705064673813
 21
87.401921853195063
  0
LINE
  8
0
  6
CONTINUOUS
 62
4
 10
-79.659294935326102
 20
85.797273937633008
 11
39.840705064673813
 21
85.797273937633008
  0
LINE
  8
0
  6
CONTINUOUS
 62
4
 10
-79.659294935326102
 20
77.750672274898989
 11
37.090705064673813
 21
77.750672274898989
  0
LINE
  8
0
  6
CONTINUOUS
 62
4
 10
-79.659294935326102
 20
72.800924806593230
 11
37.090705064673813
 21
72.800924806593230
  0
LINE
  8
0
  6
CONTINUOUS
 62
4
 10
-79.659294935326102
 20
68.116458993368951
 11
39.840705064673806
 21
68.116458993368951
  0
LINE
  8
0
  6
CONTINUOUS
 62
4
 10
-79.659294935326102
 20
67.116458993368951
 11
39.840705064673806
 21
67.116458993368951
  0
LINE
  8
0
  6
CONTINUOUS
 62
4
 10
-79.659294935326102
 20
66.116458993368951
 11
39.840705064673806
 21
66.116458993368951
  0
LINE
  8
0
  6
CONTINUOUS
 62
3
 10
-79.791503414534304
 20
63.616458993368951
 11
17.340705064673784
 21
63.616458993368951
  0
LINE
  8
0
  6
CONTINUOUS
 62
3
 10
-79.659294935326102
 20
182.616458993368720
 11
17.340705064673784
 21
182.616458993368720
  0
ARC
  8
0
  6
CONTINUOUS
 62
3
 10
-86.659294935325988
 20
58.497238076496160
 40
3.000000000000000
 50
90.000000000000000
 51
180.000000000000000
  0
ARC
  8
0
  6
CONTINUOUS
 62
3
 10
-82.659294935326102
 20
64.497238076496160
 40
3.000000000000000
 50
270.000000000000000
 51
0.000000000000000
  0
LINE
  8
0
  6
CONTINUOUS
 62
3
 10
-89.659294935325988
 20
58.116458993368951
 11
-89.659294935325988
 21
58.497238076496160
  0
LINE
  8
0
  6
CONTINUOUS
 62
3
 10
-86.659294935325988
 20
61.497238076496160
 11
-82.659294935326102
 21
61.497238076496160
  0
ARC
  8
0
  6
CONTINUOUS
 62
3
 10
-108.353319157746450
 20
78.116458993368951
 40
20.000000000000007
 50
234.999999999999740
 51
270.000000000000000
  0
LINE
  8
0
  6
CONTINUOUS
 62
3
 10
-89.659294935325988
 20
58.116458993368951
 11
-108.353319157746450
 21
58.116458993368951
  0
ARC
  8
0
  6
CONTINUOUS
 62
3
 10
-128.059294935275830
 20
70.673253936123501
 40
2.600000000000136
 50
180.000000000000000
 51
234.999999999998610
  0
LINE
  8
0
  6
CONTINUOUS
 62
3
 10
-119.824847884767450
 20
61.733418107589159
 11
-129.550593669788440
 21
68.543458620972388
  0
LINE
  8
0
  6
CONTINUOUS
 62
3
 10
-130.659294935275970
 20
123.116458993368950
 11
-130.659294935275970
 21
70.673253936123501
  0
LINE
  8
0
  6
CONTINUOUS
 62
3
 10
17.340705064673784
 20
63.616458993368951
 11
17.340705064673784
 21
123.116458993368950
  0
LINE
  8
0
  6
CONTINUOUS
 62
3
 10
-79.659294935326102
 20
123.116458993368950
 11
-79.659294935326102
 21
64.497238076496160
  0
ARC
  8
0
  6
CONTINUOUS
 62
3
 10
-128.059294935275830
 20
175.559664050614400
 40
2.599999999999721
 50
125.000000000001370
 51
180.000000000000000
  0
LINE
  8
0
  6
CONTINUOUS
 62
3
 10
-119.824847884767450
 20
184.499499879148740
 11
-129.550593669788440
 21
177.689459365765520
  0
ARC
  8
0
  6
CONTINUOUS
 62
3
 10
-108.353319157746450
 20
168.116458993368950
 40
20.000000000000000
 50
90.000000000000000
 51
125.000000000000240
  0
LINE
  8
0
  6
CONTINUOUS
 62
3
 10
-130.659294935275970
 20
123.116458993368950
 11
-130.659294935275970
 21
175.559664050614400
  0
LINE
  8
0
  6
CONTINUOUS
 62
3
 10
-79.659294935326102
 20
188.116458993368950
 11
-108.353319157746450
 21
188.116458993368950
  0
LINE
  8
0
  6
CONTINUOUS
 62
3
 10
17.340705064673784
 20
182.616458993368720
 11
17.340705064673784
 21
123.116458993368950
  0
LINE
  8
0
  6
CONTINUOUS
 62
3
 10
-79.659294935326102
 20
123.116458993368950
 11
-79.659294935326102
 21
188.116458993368950
  0
LINE
  8
0
  6
CONTINUOUS
 62
3
 10
-90.659294935325534
 20
176.856574093806560
 11
-92.659294935325534
 21
175.203932454683130
  0
LINE
  8
0
  6
CONTINUOUS
 62
3
 10
-88.659294935325534
 20
178.032359579429340
 11
-90.659294935325534
 21
176.856574093806560
  0
LINE
  8
0
  6
CONTINUOUS
 62
3
 10
-90.659294935325534
 20
176.856574093806560
 11
-88.659294935325534
 21
175.203932454683130
  0
LINE
  8
0
  6
CONTINUOUS
 62
3
 10
-92.659294935325534
 20
178.032359579429340
 11
-90.659294935325534
 21
176.856574093806560
  0
POLYLINE
  8
0
  6
CONTINUOUS
 62
3
 66
1
 70
1
  0
VERTEX
  8
0
  6
CONTINUOUS
 62
3
 10
-85.959294935325545
 20
175.039984025429020
  0
VERTEX
  8
0
  6
CONTINUOUS
 62
3
 10
-86.049604117430363
 20
175.742940991629380
  0
VERTEX
  8
0
  6
CONTINUOUS
 62
3
 10
-86.317061132522497
 20
176.418883715841470
  0
VERTEX
  8
0
  6
CONTINUOUS
 62
3
 10
-86.751387757503579
 20
177.041836098246880
  0
VERTEX
  8
0
  6
CONTINUOUS
 62
3
 10
-87.335893063748770
 20
177.587858428145470
  0
VERTEX
  8
0
  6
CONTINUOUS
 62
3
 10
-88.048114840133408
 20
178.035967373612100
  0
VERTEX
  8
0
  6
CONTINUOUS
 62
3
 10
-88.860682803209613
 20
178.368942359174840
  0
VERTEX
  8
0
  6
CONTINUOUS
 62
3
 10
-89.742370421849728
 20
178.573987342873100
  0
VERTEX
  8
0
  6
CONTINUOUS
 62
3
 10
-90.659294935325534
 20
178.643222560973870
  0
VERTEX
  8
0
  6
CONTINUOUS
 62
3
 10
-91.576219448801339
 20
178.573987342873100
  0
VERTEX
  8
0
  6
CONTINUOUS
 62
3
 10
-92.457907067441454
 20
178.368942359174840
  0
VERTEX
  8
0
  6
CONTINUOUS
 62
3
 10
-93.270475030517659
 20
178.035967373612100
  0
VERTEX
  8
0
  6
CONTINUOUS
 62
3
 10
-93.982696806902297
 20
177.587858428145470
  0
VERTEX
  8
0
  6
CONTINUOUS
 62
3
 10
-94.567202113147488
 20
177.041836098246880
  0
VERTEX
  8
0
  6
CONTINUOUS
 62
3
 10
-95.001528738128570
 20
176.418883715841470
  0
VERTEX
  8
0
  6
CONTINUOUS
 62
3
 10
-95.268985753220704
 20
175.742940991629380
  0
VERTEX
  8
0
  6
CONTINUOUS
 62
3
 10
-95.359294935325522
 20
175.039984025429020
  0
VERTEX
  8
0
  6
CONTINUOUS
 62
3
 10
-95.268985753220704
 20
174.337027059228660
  0
VERTEX
  8
0
  6
CONTINUOUS
 62
3
 10
-95.001528738128570
 20
173.661084335016570
  0
VERTEX
  8
0
  6
CONTINUOUS
 62
3
 10
-94.567202113147488
 20
173.038131952611170
  0
VERTEX
  8
0
  6
CONTINUOUS
 62
3
 10
-93.982696806902297
 20
172.492109622712580
  0
VERTEX
  8
0
  6
CONTINUOUS
 62
3
 10
-93.270475030517659
 20
172.044000677245950
  0
VERTEX
  8
0
  6
CONTINUOUS
 62
3
 10
-92.457907067441454
 20
171.711025691683200
  0
VERTEX
  8
0
  6
CONTINUOUS
 62
3
 10
-91.576219448801339
 20
171.505980707984950
  0
VERTEX
  8
0
  6
CONTINUOUS
 62
3
 10
-90.659294935325534
 20
171.436745489884170
  0
VERTEX
  8
0
  6
CONTINUOUS
 62
3
 10
-89.742370421849728
 20
171.505980707984950
  0
VERTEX
  8
0
  6
CONTINUOUS
 62
3
 10
-88.860682803209613
 20
171.711025691683200
  0
VERTEX
  8
0
  6
CONTINUOUS
 62
3
 10
-88.048114840133408
 20
172.044000677245950
  0
VERTEX
  8
0
  6
CONTINUOUS
 62
3
 10
-87.335893063748770
 20
172.492109622712580
  0
VERTEX
  8
0
  6
CONTINUOUS
 62
3
 10
-86.751387757503579
 20
173.038131952611170
  0
VERTEX
  8
0
  6
CONTINUOUS
 62
3
 10
-86.317061132522497
 20
173.661084335016570
  0
VERTEX
  8
0
  6
CONTINUOUS
 62
3
 10
-86.049604117430363
 20
174.337027059228660
  0
SEQEND
  8
0
  6
CONTINUOUS
 62
3
  0
LINE
  8
0
  6
CONTINUOUS
 62
3
 10
-90.659294935325534
 20
69.376343892931118
 11
-92.659294935325534
 21
71.028985532054548
  0
LINE
  8
0
  6
CONTINUOUS
 62
3
 10
-88.659294935325534
 20
68.200558407308790
 11
-90.659294935325534
 21
69.376343892931118
  0
LINE
  8
0
  6
CONTINUOUS
 62
3
 10
-90.659294935325534
 20
69.376343892931118
 11
-88.659294935325534
 21
71.028985532054548
  0
LINE
  8
0
  6
CONTINUOUS
 62
3
 10
-92.659294935325534
 20
68.200558407308790
 11
-90.659294935325534
 21
69.376343892931118
  0
POLYLINE
  8
0
  6
CONTINUOUS
 62
3
 66
1
 70
1
  0
VERTEX
  8
0
  6
CONTINUOUS
 62
3
 10
-85.959294935325545
 20
71.192933961309109
  0
VERTEX
  8
0
  6
CONTINUOUS
 62
3
 10
-86.049604117430363
 20
71.895890927509470
  0
VERTEX
  8
0
  6
CONTINUOUS
 62
3
 10
-86.317061132522497
 20
72.571833651721562
  0
VERTEX
  8
0
  6
CONTINUOUS
 62
3
 10
-86.751387757503579
 20
73.194786034126963
  0
VERTEX
  8
0
  6
CONTINUOUS
 62
3
 10
-87.335893063748770
 20
73.740808364025540
  0
VERTEX
  8
0
  6
CONTINUOUS
 62
3
 10
-88.048114840133408
 20
74.188917309492155
  0
VERTEX
  8
0
  6
CONTINUOUS
 62
3
 10
-88.860682803209613
 20
74.521892295054926
  0
VERTEX
  8
0
  6
CONTINUOUS
 62
3
 10
-89.742370421849728
 20
74.726937278753169
  0
VERTEX
  8
0
  6
CONTINUOUS
 62
3
 10
-90.659294935325534
 20
74.796172496853941
  0
VERTEX
  8
0
  6
CONTINUOUS
 62
3
 10
-91.576219448801339
 20
74.726937278753169
  0
VERTEX
  8
0
  6
CONTINUOUS
 62
3
 10
-92.457907067441454
 20
74.521892295054926
  0
VERTEX
  8
0
  6
CONTINUOUS
 62
3
 10
-93.270475030517659
 20
74.188917309492155
  0
VERTEX
  8
0
  6
CONTINUOUS
 62
3
 10
-93.982696806902297
 20
73.740808364025540
  0
VERTEX
  8
0
  6
CONTINUOUS
 62
3
 10
-94.567202113147488
 20
73.194786034126963
  0
VERTEX
  8
0
  6
CONTINUOUS
 62
3
 10
-95.001528738128570
 20
72.571833651721562
  0
VERTEX
  8
0
  6
CONTINUOUS
 62
3
 10
-95.268985753220704
 20
71.895890927509470
  0
VERTEX
  8
0
  6
CONTINUOUS
 62
3
 10
-95.359294935325522
 20
71.192933961309109
  0
VERTEX
  8
0
  6
CONTINUOUS
 62
3
 10
-95.268985753220704
 20
70.489976995108748
  0
VERTEX
  8
0
  6
CONTINUOUS
 62
3
 10
-95.001528738128570
 20
69.814034270896656
  0
VERTEX
  8
0
  6
CONTINUOUS
 62
3
 10
-94.567202113147488
 20
69.191081888491254
  0
VERTEX
  8
0
  6
CONTINUOUS
 62
3
 10
-93.982696806902297
 20
68.645059558592678
  0
VERTEX
  8
0
  6
CONTINUOUS
 62
3
 10
-93.270475030517659
 20
68.196950613126063
  0
VERTEX
  8
0
  6
CONTINUOUS
 62
3
 10
-92.457907067441454
 20
67.863975627563292
  0
VERTEX
  8
0
  6
CONTINUOUS
 62
3
 10
-91.576219448801339
 20
67.658930643865048
  0
VERTEX
  8
0
  6
CONTINUOUS
 62
3
 10
-90.659294935325534
 20
67.589695425764276
  0
VERTEX
  8
0
  6
CONTINUOUS
 62
3
 10
-89.742370421849728
 20
67.658930643865048
  0
VERTEX
  8
0
  6
CONTINUOUS
 62
3
 10
-88.860682803209613
 20
67.863975627563292
  0
VERTEX
  8
0
  6
CONTINUOUS
 62
3
 10
-88.048114840133408
 20
68.196950613126063
  0
VERTEX
  8
0
  6
CONTINUOUS
 62
3
 10
-87.335893063748770
 20
68.645059558592678
  0
VERTEX
  8
0
  6
CONTINUOUS
 62
3
 10
-86.751387757503579
 20
69.191081888491254
  0
VERTEX
  8
0
  6
CONTINUOUS
 62
3
 10
-86.317061132522497
 20
69.814034270896656
  0
VERTEX
  8
0
  6
CONTINUOUS
 62
3
 10
-86.049604117430363
 20
70.489976995108748
  0
SEQEND
  8
0
  6
CONTINUOUS
 62
3
  0
LINE
  8
0
  6
DASHDOT
 62
4
 10
168.485409142034770
 20
123.116458993368950
 11
-140.588507473672730
 21
123.116458993368950
  0
LINE
  8
0
  6
DASHDOT
 62
4
 10
-294.308569484892590
 20
-211.543153481259650
 11
-294.308569484892590
 21
-33.929801190475700
  0
LINE
  8
0
  6
DASHDOT
 62
4
 10
-383.548986276600770
 20
-126.883541006631100
 11
-167.061356605856420
 21
-126.883541006631100
  0
ARC
  8
0
  6
CONTINUOUS
 62
3
 10
-338.257156915175070
 20
-176.980155474159630
 40
6.599999999999957
 50
225.000000000000000
 51
261.402917762751090
  0
ARC
  8
0
  6
CONTINUOUS
 62
3
 10
-294.308569484892590
 20
113.716458993369030
 40
300.600000000000020
 50
261.402917762750920
 51
270.000000000000000
  0
ARC
  8
0
  6
CONTINUOUS
 62
3
 10
-250.359982054610100
 20
-176.980155474159630
 40
6.599999999999747
 50
278.597082237248910
 51
315.000000000000000
  0
ARC
  8
0
  6
CONTINUOUS
 62
3
 10
-294.308569484892590
 20
-367.483541006631010
 40
300.599999999999800
 50
81.402917762750931
 51
90.000000000000000
  0
ARC
  8
0
  6
CONTINUOUS
 62
3
 10
-250.359982054610100
 20
-76.786926539102808
 40
6.600000000000118
 50
45.000000000001400
 51
81.402917762751386
  0
ARC
  8
0
  6
CONTINUOUS
 62
3
 10
-294.308569484892590
 20
113.716458993369030
 40
300.600000000000140
 50
270.000000000000000
 51
278.597082237249080
  0
ARC
  8
0
  6
CONTINUOUS
 62
3
 10
-294.308569484892590
 20
-367.483541006631010
 40
300.599999999999910
 50
90.000000000000000
 51
98.597082237249069
  0
ARC
  8
0
  6
CONTINUOUS
 62
3
 10
-290.308569484892590
 20
-85.576761901985549
 40
1.500000000000203
 50
84.468928475159132
 51
180.000000000000000
  0
ARC
  8
0
  6
CONTINUOUS
 62
3
 10
-298.308569484892590
 20
-85.576761901985321
 40
1.500000000000000
 50
0.000000000000000
 51
95.531071524841693
  0
ARC
  8
0
  6
CONTINUOUS
 62
3
 10
-294.308569484892360
 20
-126.883541006630650
 40
17.999999999999922
 50
41.837004155893325
 51
78.162995844107314
  0
ARC
  8
0
  6
CONTINUOUS
 62
3
 10
-294.308569484892810
 20
-126.883541006630650
 40
27.499999999999815
 50
97.928141766201691
 51
142.071858233797880
  0
LINE
  8
0
  6
CONTINUOUS
 62
3
 10
-291.808569484892590
 20
-85.576761901985549
 11
-291.808569484892590
 21
-88.591897009539537
  0
LINE
  8
0
  6
CONTINUOUS
 62
3
 10
-262.397033030741800
 20
-105.572655498624320
 11
-259.785849431757700
 21
-104.065087944847220
  0
LINE
  8
0
  6
CONTINUOUS
 62
3
 10
-291.808569484892590
 20
-95.134525273856127
 11
-291.808569484892590
 21
-98.160727773940664
  0
ARC
  8
0
  6
CONTINUOUS
 62
3
 10
-290.308569484892590
 20
-95.134525273856127
 40
1.499999999999998
 50
82.819244218541712
 51
180.000000000000000
  0
ARC
  8
0
  6
CONTINUOUS
 62
3
 10
-290.308569484892590
 20
-88.591897009539537
 40
1.500000000000000
 50
180.000000000000000
 51
264.036429881682580
  0
ARC
  8
0
  6
CONTINUOUS
 62
3
 10
-260.535849431757700
 20
-102.766049839170420
 40
1.500000000000123
 50
299.999999999997270
 51
35.531071524839192
  0
ARC
  8
0
  6
CONTINUOUS
 62
3
 10
-294.308569484893040
 20
-126.883541006631100
 40
42.999999999999908
 50
35.531071524839248
 51
84.468928475160212
  0
ARC
  8
0
  6
CONTINUOUS
 62
3
 10
-256.535849431757240
 20
-109.694253069446460
 40
1.500000000000034
 50
24.468928475159590
 51
119.999999999997270
  0
LINE
  8
0
  6
CONTINUOUS
 62
3
 10
-259.897033030741570
 20
-109.902782517546760
 11
-257.285849431757240
 21
-108.395214963769660
  0
ARC
  8
0
  6
CONTINUOUS
 62
3
 10
-259.147033030741570
 20
-111.201820623223560
 40
1.500000000000123
 50
119.999999999997270
 51
204.036429881680680
  0
ARC
  8
0
  6
CONTINUOUS
 62
3
 10
-294.308569484892810
 20
-126.883541006631560
 40
36.999999999999972
 50
335.963570118321740
 51
24.036429881678870
  0
ARC
  8
0
  6
CONTINUOUS
 62
3
 10
-294.308569484892810
 20
-126.883541006631560
 40
42.999999999999936
 50
335.531071524839770
 51
24.468928475160769
  0
ARC
  8
0
  6
CONTINUOUS
 62
3
 10
-256.535849431757240
 20
-144.072828943815980
 40
1.500000000000320
 50
240.000000000007050
 51
335.531071524832500
  0
LINE
  8
0
  6
CONTINUOUS
 62
3
 10
-257.285849431757240
 20
-145.371867049493010
 11
-259.897033030741340
 21
-143.864299495715670
  0
ARC
  8
0
  6
CONTINUOUS
 62
3
 10
-259.147033030741340
 20
-142.565261390039100
 40
1.500000000000063
 50
155.963570118322880
 51
239.999999999998410
  0
ARC
  8
0
  6
CONTINUOUS
 62
3
 10
-260.535849431757240
 20
-151.001032174091790
 40
1.499999999999844
 50
324.468928475167900
 51
59.999999999998380
  0
LINE
  8
0
  6
CONTINUOUS
 62
3
 10
-259.785849431757240
 20
-149.701994068415220
 11
-262.397033030741340
 21
-148.194426514637880
  0
LINE
  8
0
  6
CONTINUOUS
 62
3
 10
-296.808569484892590
 20
-85.576761901985321
 11
-296.808569484892590
 21
-88.591897009539537
  0
ARC
  8
0
  6
CONTINUOUS
 62
3
 10
-298.308569484892590
 20
-88.591897009539537
 40
1.499999999999933
 50
275.963570118318330
 51
0.000000000000000
  0
LINE
  8
0
  6
CONTINUOUS
 62
3
 10
-296.808569484892590
 20
-95.134525273856127
 11
-296.808569484892590
 21
-98.160727773940664
  0
ARC
  8
0
  6
CONTINUOUS
 62
3
 10
-298.308569484892590
 20
-95.134525273856127
 40
1.500000000000000
 50
0.000000000000000
 51
97.180755781458288
  0
ARC
  8
0
  6
CONTINUOUS
 62
3
 10
-294.308569484893040
 20
-126.883541006630650
 40
23.999999999999901
 50
100.240348321185670
 51
139.759651678813550
  0
ARC
  8
0
  6
CONTINUOUS
 62
3
 10
-311.483748753937560
 20
-112.348644478750710
 40
1.499999999999802
 50
139.759651678811420
 51
239.999999999998410
  0
LINE
  8
0
  6
CONTINUOUS
 62
3
 10
-309.586954160958380
 20
-115.175810155173450
 11
-312.233748753937560
 21
-113.647682584427280
  0
ARC
  8
0
  6
CONTINUOUS
 62
3
 10
-308.836954160958380
 20
-113.876772049496870
 40
1.499999999999926
 50
239.999999999998410
 51
318.162995844106720
  0
ARC
  8
0
  6
CONTINUOUS
 62
3
 10
-294.308569484893040
 20
-126.883541006630650
 40
17.999999999999829
 50
101.837004155891980
 51
138.162995844106210
  0
ARC
  8
0
  6
CONTINUOUS
 62
3
 10
-298.308569484892590
 20
-107.798206322638460
 40
1.499999999999954
 50
281.837004155896690
 51
0.000000000000000
  0
LINE
  8
0
  6
CONTINUOUS
 62
3
 10
-296.808569484892590
 20
-104.741951181146130
 11
-296.808569484892590
 21
-107.798206322638460
  0
ARC
  8
0
  6
CONTINUOUS
 62
3
 10
-298.308569484892590
 20
-104.741951181146130
 40
1.500000000000000
 50
0.000000000000000
 51
100.240348321194510
  0
ARC
  8
0
  6
CONTINUOUS
 62
3
 10
-294.308569484893040
 20
-126.883541006630650
 40
14.499999999999980
 50
107.920213139390830
 51
132.079786860607560
  0
ARC
  8
0
  6
CONTINUOUS
 62
3
 10
-303.020712127707160
 20
-117.234780953066370
 40
1.499999999999792
 50
132.079786860611680
 51
239.999999999998410
  0
LINE
  8
0
  6
CONTINUOUS
 62
3
 10
-300.995823418086500
 20
-120.135901802213820
 11
-303.770712127707160
 21
-118.533819058742940
  0
ARC
  8
0
  6
CONTINUOUS
 62
3
 10
-300.245823418086500
 20
-118.836863696537250
 40
1.499999999999926
 50
239.999999999998410
 51
306.421821521797600
  0
ARC
  8
0
  6
CONTINUOUS
 62
3
 10
-294.308569484893040
 20
-126.883541006630650
 40
8.499999999999879
 50
113.578178478199500
 51
126.421821521797340
  0
ARC
  8
0
  6
CONTINUOUS
 62
3
 10
-298.308569484892590
 20
-117.718389616718750
 40
1.500000000000139
 50
293.578178478195700
 51
0.000000000000000
  0
LINE
  8
0
  6
CONTINUOUS
 62
3
 10
-296.808569484892590
 20
-114.514224129777680
 11
-296.808569484892590
 21
-117.718389616718750
  0
ARC
  8
0
  6
CONTINUOUS
 62
3
 10
-298.308569484892590
 20
-114.514224129777680
 40
1.500000000000000
 50
0.000000000000000
 51
107.920213139394770
  0
ARC
  8
0
  6
CONTINUOUS
 62
3
 10
-294.308569484892590
 20
-126.883541006631100
 40
23.999999999999716
 50
280.240348321186270
 51
319.759651678814690
  0
ARC
  8
0
  6
CONTINUOUS
 62
3
 10
-290.308569484892590
 20
-149.025130832115620
 40
1.500000000000000
 50
180.000000000000000
 51
280.240348321187530
  0
LINE
  8
0
  6
CONTINUOUS
 62
3
 10
-291.808569484892590
 20
-145.968875690623290
 11
-291.808569484892590
 21
-149.025130832115620
  0
ARC
  8
0
  6
CONTINUOUS
 62
3
 10
-290.308569484892590
 20
-145.968875690623290
 40
1.499999999999731
 50
101.837004155898450
 51
180.000000000000000
  0
ARC
  8
0
  6
CONTINUOUS
 62
3
 10
-294.308569484892590
 20
-126.883541006631100
 40
18.000000000000146
 50
281.837004155893230
 51
318.162995844107680
  0
ARC
  8
0
  6
CONTINUOUS
 62
3
 10
-279.780184808826790
 20
-139.890309963764880
 40
1.499999999999926
 50
59.999999999998380
 51
138.162995844100240
  0
LINE
  8
0
  6
CONTINUOUS
 62
3
 10
-276.383390215847840
 20
-140.119399428834470
 11
-279.030184808826790
 21
-138.591271858088310
  0
ARC
  8
0
  6
CONTINUOUS
 62
3
 10
-277.133390215847840
 20
-141.418437534511040
 40
1.499999999999828
 50
319.759651678823670
 51
59.999999999998380
  0
ARC
  8
0
  6
CONTINUOUS
 62
3
 10
-294.308569484892590
 20
-126.883541006631100
 40
14.500000000000121
 50
287.920213139392560
 51
312.079786860608860
  0
ARC
  8
0
  6
CONTINUOUS
 62
3
 10
-290.308569484892590
 20
-139.252857883483840
 40
1.500000000000000
 50
180.000000000000000
 51
287.920213139392100
  0
LINE
  8
0
  6
CONTINUOUS
 62
3
 10
-291.808569484892590
 20
-136.048692396542550
 11
-291.808569484892590
 21
-139.252857883483840
  0
ARC
  8
0
  6
CONTINUOUS
 62
3
 10
-290.308569484892590
 20
-136.048692396543000
 40
1.500000000000139
 50
113.578178478195690
 51
179.999999999982630
  0
ARC
  8
0
  6
CONTINUOUS
 62
3
 10
-294.308569484892590
 20
-126.883541006631100
 40
8.500000000000060
 50
293.578178478202350
 51
306.421821521799190
  0
ARC
  8
0
  6
CONTINUOUS
 62
3
 10
-288.371315551698670
 20
-134.930218316724510
 40
1.499999999999926
 50
59.999999999998380
 51
126.421821521801260
  0
LINE
  8
0
  6
CONTINUOUS
 62
3
 10
-284.846426842078240
 20
-135.233262954518350
 11
-287.621315551698670
 21
-133.631180211047930
  0
ARC
  8
0
  6
CONTINUOUS
 62
3
 10
-285.596426842078240
 20
-136.532301060195380
 40
1.499999999999944
 50
312.079786860618130
 51
60.000000000007070
  0
ARC
  8
0
  6
CONTINUOUS
 62
3
 10
-294.308569484892590
 20
-126.883541006631100
 40
23.999999999999844
 50
220.240348321185340
 51
259.759651678813730
  0
ARC
  8
0
  6
CONTINUOUS
 62
3
 10
-298.308569484892590
 20
-149.025130832115620
 40
1.499999999999728
 50
259.759651678812470
 51
0.000000000000000
  0
LINE
  8
0
  6
CONTINUOUS
 62
3
 10
-296.808569484892590
 20
-145.968875690623290
 11
-296.808569484892590
 21
-149.025130832115620
  0
ARC
  8
0
  6
CONTINUOUS
 62
3
 10
-298.308569484892590
 20
-145.968875690623290
 40
1.500000000000000
 50
0.000000000000000
 51
78.162995844101530
  0
ARC
  8
0
  6
CONTINUOUS
 62
3
 10
-294.308569484892590
 20
-126.883541006631100
 40
17.999999999999940
 50
221.837004155892320
 51
258.162995844106770
  0
ARC
  8
0
  6
CONTINUOUS
 62
3
 10
-308.836954160958380
 20
-139.890309963764880
 40
1.500000000000118
 50
41.837004155899741
 51
120.000000000001620
  0
LINE
  8
0
  6
CONTINUOUS
 62
3
 10
-312.233748753937330
 20
-140.119399428834470
 11
-309.586954160958380
 21
-138.591271858088310
  0
ARC
  8
0
  6
CONTINUOUS
 62
3
 10
-311.483748753937330
 20
-141.418437534511040
 40
1.499999999999926
 50
120.000000000001620
 51
220.240348321176330
  0
ARC
  8
0
  6
CONTINUOUS
 62
3
 10
-294.308569484892590
 20
-126.883541006631100
 40
14.500000000000011
 50
227.920213139391080
 51
252.079786860607410
  0
ARC
  8
0
  6
CONTINUOUS
 62
3
 10
-298.308569484892590
 20
-139.252857883483840
 40
1.500000000000355
 50
252.079786860607900
 51
0.000000000000000
  0
LINE
  8
0
  6
CONTINUOUS
 62
3
 10
-296.808569484892590
 20
-136.048692396542550
 11
-296.808569484892590
 21
-139.252857883483840
  0
ARC
  8
0
  6
CONTINUOUS
 62
3
 10
-298.308569484892590
 20
-136.048692396543000
 40
1.500000000000000
 50
0.000000000017370
 51
66.421821521804304
  0
ARC
  8
0
  6
CONTINUOUS
 62
3
 10
-294.308569484892590
 20
-126.883541006631100
 40
8.499999999999870
 50
233.578178478199590
 51
246.421821521797680
  0
ARC
  8
0
  6
CONTINUOUS
 62
3
 10
-300.245823418086500
 20
-134.930218316724510
 40
1.500000000000059
 50
53.578178478205707
 51
120.000000000001620
  0
LINE
  8
0
  6
CONTINUOUS
 62
3
 10
-303.770712127706930
 20
-135.233262954518350
 11
-300.995823418086500
 21
-133.631180211047930
  0
ARC
  8
0
  6
CONTINUOUS
 62
3
 10
-303.020712127706930
 20
-136.532301060195380
 40
1.500000000000320
 50
119.999999999992930
 51
227.920213139381870
  0
ARC
  8
0
  6
CONTINUOUS
 62
3
 10
-294.308569484893040
 20
-126.883541006630650
 40
23.999999999999925
 50
160.240348321185910
 51
199.759651678814090
  0
ARC
  8
0
  6
CONTINUOUS
 62
3
 10
-315.483748753937560
 20
-119.276847709026070
 40
1.499999999999926
 50
59.999999999998380
 51
160.240348321185250
  0
LINE
  8
0
  6
CONTINUOUS
 62
3
 10
-312.086954160958380
 20
-119.505937174095660
 11
-314.733748753937560
 21
-117.977809603349490
  0
ARC
  8
0
  6
CONTINUOUS
 62
3
 10
-312.836954160958380
 20
-120.804975279772230
 40
1.500000000000038
 50
341.837004155895390
 51
59.999999999998380
  0
ARC
  8
0
  6
CONTINUOUS
 62
3
 10
-294.308569484893040
 20
-126.883541006630650
 40
17.999999999999726
 50
161.837004155893140
 51
198.162995844106860
  0
ARC
  8
0
  6
CONTINUOUS
 62
3
 10
-312.836954160958380
 20
-132.962106733489070
 40
1.500000000000320
 50
299.999999999992950
 51
18.162995844104589
  0
LINE
  8
0
  6
CONTINUOUS
 62
3
 10
-314.733748753937330
 20
-135.789272409911800
 11
-312.086954160958380
 21
-134.261144839166090
  0
ARC
  8
0
  6
CONTINUOUS
 62
3
 10
-315.483748753937330
 20
-134.490234304235230
 40
1.500000000000246
 50
199.759651678811820
 51
300.000000000001590
  0
ARC
  8
0
  6
CONTINUOUS
 62
3
 10
-294.308569484893040
 20
-126.883541006630650
 40
14.499999999999851
 50
167.920213139392840
 51
192.079786860608920
  0
ARC
  8
0
  6
CONTINUOUS
 62
3
 10
-307.020712127707160
 20
-124.162984183341730
 40
1.499999999999926
 50
59.999999999998380
 51
167.920213139405550
  0
LINE
  8
0
  6
CONTINUOUS
 62
3
 10
-303.495823418086500
 20
-124.466028821136030
 11
-306.270712127707160
 21
-122.863946077665160
  0
ARC
  8
0
  6
CONTINUOUS
 62
3
 10
-304.245823418086500
 20
-125.765066926812600
 40
1.499999999999873
 50
353.578178478198030
 51
59.999999999998380
  0
ARC
  8
0
  6
CONTINUOUS
 62
3
 10
-294.308569484893040
 20
-126.883541006630650
 40
8.499999999999813
 50
173.578178478202550
 51
186.421821521800500
  0
ARC
  8
0
  6
CONTINUOUS
 62
3
 10
-304.245823418086500
 20
-128.002015086449150
 40
1.499999999999926
 50
300.000000000001590
 51
6.421821521801967
  0
LINE
  8
0
  6
CONTINUOUS
 62
3
 10
-306.270712127706930
 20
-130.903135935596140
 11
-303.495823418086500
 21
-129.301053192125720
  0
ARC
  8
0
  6
CONTINUOUS
 62
3
 10
-307.020712127706930
 20
-129.604097829919570
 40
1.500000000000287
 50
192.079786860609600
 51
300.000000000001590
  0
ARC
  8
0
  6
CONTINUOUS
 62
3
 10
-294.308569484892360
 20
-126.883541006630650
 40
24.000000000000139
 50
340.240348321186050
 51
19.759651678813924
  0
ARC
  8
0
  6
CONTINUOUS
 62
3
 10
-273.133390215847840
 20
-119.276847709026070
 40
1.500000000000246
 50
19.759651678811824
 51
120.000000000001620
  0
LINE
  8
0
  6
CONTINUOUS
 62
3
 10
-276.530184808826790
 20
-119.505937174095660
 11
-273.883390215847840
 21
-117.977809603349490
  0
ARC
  8
0
  6
CONTINUOUS
 62
3
 10
-275.780184808826790
 20
-120.804975279772230
 40
1.499999999999926
 50
120.000000000001620
 51
198.162995844104590
  0
ARC
  8
0
  6
CONTINUOUS
 62
3
 10
-294.308569484892360
 20
-126.883541006630650
 40
17.999999999999943
 50
341.837004155893340
 51
18.162995844106646
  0
ARC
  8
0
  6
CONTINUOUS
 62
3
 10
-275.780184808826790
 20
-132.962106733489070
 40
1.500000000000038
 50
161.837004155895410
 51
240.000000000007050
  0
LINE
  8
0
  6
CONTINUOUS
 62
3
 10
-273.883390215847840
 20
-135.789272409911800
 11
-276.530184808826790
 21
-134.261144839166090
  0
ARC
  8
0
  6
CONTINUOUS
 62
3
 10
-273.133390215847840
 20
-134.490234304235230
 40
1.499999999999926
 50
239.999999999998410
 51
340.240348321188210
  0
ARC
  8
0
  6
CONTINUOUS
 62
3
 10
-294.308569484892360
 20
-126.883541006630650
 40
14.500000000000169
 50
347.920213139391310
 51
12.079786860606980
  0
ARC
  8
0
  6
CONTINUOUS
 62
3
 10
-281.596426842078240
 20
-124.162984183341730
 40
1.500000000000192
 50
12.079786860592611
 51
120.000000000001620
  0
LINE
  8
0
  6
CONTINUOUS
 62
3
 10
-285.121315551698670
 20
-124.466028821136030
 11
-282.346426842078240
 21
-122.863946077665160
  0
ARC
  8
0
  6
CONTINUOUS
 62
3
 10
-284.371315551698670
 20
-125.765066926812600
 40
1.499999999999926
 50
120.000000000001620
 51
186.421821521801010
  0
ARC
  8
0
  6
CONTINUOUS
 62
3
 10
-294.308569484892360
 20
-126.883541006630650
 40
8.499999999999865
 50
353.578178478199500
 51
6.421821521797448
  0
ARC
  8
0
  6
CONTINUOUS
 62
3
 10
-284.371315551698670
 20
-128.002015086449150
 40
1.500000000000099
 50
173.578178478198990
 51
239.999999999998410
  0
LINE
  8
0
  6
CONTINUOUS
 62
3
 10
-282.346426842078240
 20
-130.903135935596140
 11
-285.121315551698670
 21
-129.301053192125720
  0
ARC
  8
0
  6
CONTINUOUS
 62
3
 10
-281.596426842078240
 20
-129.604097829919570
 40
1.499999999999926
 50
239.999999999998410
 51
347.920213139390400
  0
ARC
  8
0
  6
CONTINUOUS
 62
3
 10
-294.308569484892360
 20
-126.883541006630650
 40
8.500000000000101
 50
53.578178478202659
 51
66.421821521799089
  0
ARC
  8
0
  6
CONTINUOUS
 62
3
 10
-294.308569484892360
 20
-126.883541006630650
 40
23.999999999999819
 50
40.240348321186090
 51
79.759651678814322
  0
LINE
  8
0
  6
CONTINUOUS
 62
3
 10
-287.621315551698670
 20
-120.135901802213820
 11
-284.846426842078240
 21
-118.533819058742940
  0
LINE
  8
0
  6
CONTINUOUS
 62
3
 10
-291.808569484892590
 20
-104.741951181146130
 11
-291.808569484892590
 21
-107.798206322638460
  0
LINE
  8
0
  6
CONTINUOUS
 62
3
 10
-291.808569484892590
 20
-114.514224129777680
 11
-291.808569484892590
 21
-117.718389616718750
  0
ARC
  8
0
  6
CONTINUOUS
 62
3
 10
-294.308569484892360
 20
-126.883541006630650
 40
14.499999999999860
 50
47.920213139391755
 51
72.079786860608309
  0
LINE
  8
0
  6
CONTINUOUS
 62
3
 10
-279.030184808826790
 20
-115.175810155173450
 11
-276.383390215847840
 21
-113.647682584427280
  0
ARC
  8
0
  6
CONTINUOUS
 62
3
 10
-285.596426842078240
 20
-117.234780953066370
 40
1.499999999999926
 50
300.000000000001590
 51
47.920213139381872
  0
ARC
  8
0
  6
CONTINUOUS
 62
3
 10
-290.308569484892590
 20
-104.741951181146130
 40
1.499999999999952
 50
79.759651678814024
 51
180.000000000000000
  0
ARC
  8
0
  6
CONTINUOUS
 62
3
 10
-279.780184808826790
 20
-113.876772049496870
 40
1.499999999999967
 50
221.837004155893280
 51
300.000000000001590
  0
ARC
  8
0
  6
CONTINUOUS
 62
3
 10
-290.308569484892590
 20
-107.798206322638460
 40
1.500000000000000
 50
180.000000000000000
 51
258.162995844103310
  0
ARC
  8
0
  6
CONTINUOUS
 62
3
 10
-290.308569484892590
 20
-114.514224129777680
 40
1.500000000000138
 50
72.079786860605225
 51
180.000000000000000
  0
ARC
  8
0
  6
CONTINUOUS
 62
3
 10
-277.133390215847840
 20
-112.348644478750710
 40
1.499999999999926
 50
300.000000000001590
 51
40.240348321182964
  0
ARC
  8
0
  6
CONTINUOUS
 62
3
 10
-290.308569484892590
 20
-117.718389616718750
 40
1.500000000000000
 50
180.000000000000000
 51
246.421821521804280
  0
ARC
  8
0
  6
CONTINUOUS
 62
3
 10
-288.371315551698670
 20
-118.836863696537250
 40
1.499999999999693
 50
233.578178478195410
 51
300.000000000001590
  0
CIRCLE
  8
0
  6
CONTINUOUS
 62
3
 10
-294.308569484892590
 20
-126.883541006630650
 40
5.000000000000000
  0
ARC
  8
0
  6
CONTINUOUS
 62
3
 10
-271.433883557226860
 20
-109.058032775147970
 40
1.499999999999843
 50
217.928141766204990
 51
300.000000000001590
  0
LINE
  8
0
  6
CONTINUOUS
 62
3
 10
-270.683883557226860
 20
-110.357070880824550
 11
-268.063115315158030
 21
-108.843969630782390
  0
ARC
  8
0
  6
CONTINUOUS
 62
3
 10
-290.308569484892590
 20
-98.160727773940664
 40
1.500000000000000
 50
180.000000000000000
 51
262.071858233795980
  0
ARC
  8
0
  6
CONTINUOUS
 62
3
 10
-294.308569484892360
 20
-126.883541006630650
 40
27.500000000000060
 50
37.928141766201819
 51
82.071858233798309
  0
ARC
  8
0
  6
CONTINUOUS
 62
3
 10
-268.813115315158030
 20
-107.544931525105820
 40
1.499999999999926
 50
300.000000000001590
 51
37.180755781457485
  0
ARC
  8
0
  6
CONTINUOUS
 62
3
 10
-263.147033030741800
 20
-104.273617392947520
 40
1.500000000000102
 50
215.963570118316280
 51
299.999999999997270
  0
ARC
  8
0
  6
CONTINUOUS
 62
3
 10
-294.308569484893040
 20
-126.883541006631100
 40
36.999999999999943
 50
35.963570118321194
 51
84.036429881678174
  0
ARC
  8
0
  6
CONTINUOUS
 62
3
 10
-294.308569484893040
 20
-126.883541006631100
 40
33.500000000000071
 50
37.180755781458259
 51
82.819244218540931
  0
LINE
  8
0
  6
CONTINUOUS
 62
3
 10
-268.183883557226640
 20
-114.687197899747210
 11
-265.563115315157800
 21
-113.174096649705060
  0
ARC
  8
0
  6
CONTINUOUS
 62
3
 10
-264.813115315157800
 20
-114.473134755381860
 40
1.499999999999948
 50
22.819244218550043
 51
119.999999999997270
  0
ARC
  8
0
  6
CONTINUOUS
 62
3
 10
-267.433883557226640
 20
-115.986236005423790
 40
1.499999999999926
 50
120.000000000001620
 51
202.071858233797370
  0
ARC
  8
0
  6
CONTINUOUS
 62
3
 10
-294.308569484892130
 20
-126.883541006631100
 40
27.499999999999886
 50
337.928141766202200
 51
22.071858233797812
  0
ARC
  8
0
  6
CONTINUOUS
 62
3
 10
-294.308569484892810
 20
-126.883541006631560
 40
33.500000000000128
 50
337.180755781459030
 51
22.819244218541968
  0
ARC
  8
0
  6
CONTINUOUS
 62
3
 10
-267.433883557226860
 20
-137.780846007838420
 40
1.499999999999899
 50
157.928141766199360
 51
240.000000000007050
  0
LINE
  8
0
  6
CONTINUOUS
 62
3
 10
-265.563115315157570
 20
-140.592985363557370
 11
-268.183883557226860
 21
-139.079884113515450
  0
ARC
  8
0
  6
CONTINUOUS
 62
3
 10
-264.813115315157570
 20
-139.293947257880800
 40
1.499999999999926
 50
239.999999999998410
 51
337.180755781453340
  0
ARC
  8
0
  6
CONTINUOUS
 62
3
 10
-290.308569484892360
 20
-168.190320111276210
 40
1.500000000000000
 50
180.000000000000000
 51
275.531071524831360
  0
LINE
  8
0
  6
CONTINUOUS
 62
3
 10
-291.808569484892360
 20
-165.175185003721990
 11
-291.808569484892360
 21
-168.190320111276210
  0
LINE
  8
0
  6
CONTINUOUS
 62
3
 10
-291.808569484892360
 20
-155.606354239321550
 11
-291.808569484892360
 21
-158.632556739405860
  0
ARC
  8
0
  6
CONTINUOUS
 62
3
 10
-290.308569484892360
 20
-165.175185003722450
 40
1.500000000000182
 50
95.963570118326047
 51
179.999999999982630
  0
ARC
  8
0
  6
CONTINUOUS
 62
3
 10
-290.308569484892360
 20
-158.632556739405860
 40
1.500000000000000
 50
180.000000000000000
 51
277.180755781458290
  0
ARC
  8
0
  6
CONTINUOUS
 62
3
 10
-290.308569484892360
 20
-155.606354239321550
 40
1.499999999999967
 50
97.928141766195438
 51
180.000000000000000
  0
ARC
  8
0
  6
CONTINUOUS
 62
3
 10
-294.308569484892360
 20
-126.883541006631560
 40
27.499999999999879
 50
277.928141766202600
 51
322.071858233798930
  0
ARC
  8
0
  6
CONTINUOUS
 62
3
 10
-294.308569484892360
 20
-126.883541006630650
 40
37.000000000000028
 50
275.963570118320770
 51
324.036429881678030
  0
ARC
  8
0
  6
CONTINUOUS
 62
3
 10
-294.308569484892360
 20
-126.883541006630650
 40
43.000000000000199
 50
275.531071524838860
 51
324.468928475160340
  0
ARC
  8
0
  6
CONTINUOUS
 62
3
 10
-294.308569484892360
 20
-126.883541006630650
 40
33.500000000000114
 50
277.180755781458230
 51
322.819244218540860
  0
ARC
  8
0
  6
CONTINUOUS
 62
3
 10
-271.433883557226860
 20
-144.709049238114230
 40
1.500000000000320
 50
60.000000000007070
 51
142.071858233781280
  0
ARC
  8
0
  6
CONTINUOUS
 62
3
 10
-263.147033030741340
 20
-149.493464620314460
 40
1.499999999999926
 50
59.999999999998380
 51
144.036429881690740
  0
LINE
  8
0
  6
CONTINUOUS
 62
3
 10
-268.063115315157570
 20
-144.923112382479590
 11
-270.683883557226860
 21
-143.410011132437210
  0
ARC
  8
0
  6
CONTINUOUS
 62
3
 10
-268.813115315157570
 20
-146.222150488156160
 40
1.500000000000240
 50
322.819244218535570
 51
59.999999999998380
  0
ARC
  8
0
  6
CONTINUOUS
 62
3
 10
-298.308569484892810
 20
-168.190320111276210
 40
1.500000000000430
 50
264.468928475160000
 51
0.000000000000000
  0
LINE
  8
0
  6
CONTINUOUS
 62
3
 10
-296.808569484892810
 20
-165.175185003721990
 11
-296.808569484892810
 21
-168.190320111276210
  0
LINE
  8
0
  6
CONTINUOUS
 62
3
 10
-296.808569484892810
 20
-155.606354239321550
 11
-296.808569484892810
 21
-158.632556739405860
  0
ARC
  8
0
  6
CONTINUOUS
 62
3
 10
-298.308569484892810
 20
-165.175185003722450
 40
1.500000000000000
 50
0.000000000017370
 51
84.036429881682594
  0
ARC
  8
0
  6
CONTINUOUS
 62
3
 10
-298.308569484892810
 20
-158.632556739405860
 40
1.499999999999998
 50
262.819244218541710
 51
0.000000000000000
  0
ARC
  8
0
  6
CONTINUOUS
 62
3
 10
-298.308569484892810
 20
-155.606354239321550
 40
1.500000000000000
 50
0.000000000000000
 51
82.071858233804562
  0
ARC
  8
0
  6
CONTINUOUS
 62
3
 10
-294.308569484892810
 20
-126.883541006631560
 40
27.499999999999780
 50
217.928141766201070
 51
262.071858233797400
  0
ARC
  8
0
  6
CONTINUOUS
 62
3
 10
-294.308569484892810
 20
-126.883541006630650
 40
37.000000000000021
 50
215.963570118321970
 51
264.036429881678940
  0
ARC
  8
0
  6
CONTINUOUS
 62
3
 10
-294.308569484892810
 20
-126.883541006630650
 40
42.999999999999858
 50
215.531071524839690
 51
264.468928475160850
  0
ARC
  8
0
  6
CONTINUOUS
 62
3
 10
-294.308569484892810
 20
-126.883541006630650
 40
33.500000000000163
 50
217.180755781459110
 51
262.819244218541770
  0
ARC
  8
0
  6
CONTINUOUS
 62
3
 10
-317.183255412558310
 20
-144.709049238114230
 40
1.500000000000122
 50
37.928141766218701
 51
119.999999999992930
  0
ARC
  8
0
  6
CONTINUOUS
 62
3
 10
-328.081289538027930
 20
-151.001032174091790
 40
1.499999999999926
 50
120.000000000001620
 51
215.531071524832130
  0
LINE
  8
0
  6
CONTINUOUS
 62
3
 10
-328.831289538027930
 20
-149.701994068415220
 11
-326.220105939043830
 21
-148.194426514637880
  0
ARC
  8
0
  6
CONTINUOUS
 62
3
 10
-325.470105939043830
 20
-149.493464620314460
 40
1.499999999999968
 50
35.963570118309242
 51
120.000000000001620
  0
LINE
  8
0
  6
CONTINUOUS
 62
3
 10
-320.554023654627600
 20
-144.923112382479590
 11
-317.933255412558310
 21
-143.410011132437210
  0
ARC
  8
0
  6
CONTINUOUS
 62
3
 10
-319.804023654627600
 20
-146.222150488156160
 40
1.499999999999926
 50
120.000000000001620
 51
217.180755781464400
  0
ARC
  8
0
  6
CONTINUOUS
 62
3
 10
-332.081289538027930
 20
-109.694253069446460
 40
1.499999999999926
 50
59.999999999998380
 51
155.531071524840400
  0
LINE
  8
0
  6
CONTINUOUS
 62
3
 10
-328.720105939043380
 20
-109.902782517546990
 11
-331.331289538027930
 21
-108.395214963769880
  0
LINE
  8
0
  6
CONTINUOUS
 62
3
 10
-320.433255412558540
 20
-114.687197899747210
 11
-323.054023654627370
 21
-113.174096649705060
  0
ARC
  8
0
  6
CONTINUOUS
 62
3
 10
-329.470105939043610
 20
-111.201820623223560
 40
1.499999999999855
 50
335.963570118319300
 51
59.999999999990862
  0
ARC
  8
0
  6
CONTINUOUS
 62
3
 10
-323.804023654627370
 20
-114.473134755381860
 40
1.500000000000123
 50
60.000000000002721
 51
157.180755781457980
  0
ARC
  8
0
  6
CONTINUOUS
 62
3
 10
-321.183255412558540
 20
-115.986236005423790
 40
1.500000000000110
 50
337.928141766202600
 51
59.999999999998380
  0
ARC
  8
0
  6
CONTINUOUS
 62
3
 10
-294.308569484893040
 20
-126.883541006631100
 40
27.499999999999886
 50
157.928141766202200
 51
202.071858233798680
  0
ARC
  8
0
  6
CONTINUOUS
 62
3
 10
-294.308569484892360
 20
-126.883541006631560
 40
37.000000000000156
 50
155.963570118321120
 51
204.036429881678230
  0
ARC
  8
0
  6
CONTINUOUS
 62
3
 10
-294.308569484892360
 20
-126.883541006631560
 40
43.000000000000121
 50
155.531071524839230
 51
204.468928475160200
  0
ARC
  8
0
  6
CONTINUOUS
 62
3
 10
-294.308569484892360
 20
-126.883541006631560
 40
33.499999999999794
 50
157.180755781458400
 51
202.819244218540940
  0
ARC
  8
0
  6
CONTINUOUS
 62
3
 10
-321.183255412558310
 20
-137.780846007838420
 40
1.500000000000320
 50
299.999999999992950
 51
22.071858233784546
  0
ARC
  8
0
  6
CONTINUOUS
 62
3
 10
-332.081289538027930
 20
-144.072828943815980
 40
1.500000000000128
 50
204.468928475167470
 51
299.999999999992950
  0
LINE
  8
0
  6
CONTINUOUS
 62
3
 10
-331.331289538027930
 20
-145.371867049493010
 11
-328.720105939043830
 21
-143.864299495715670
  0
ARC
  8
0
  6
CONTINUOUS
 62
3
 10
-329.470105939043830
 20
-142.565261390039100
 40
1.499999999999926
 50
300.000000000001590
 51
24.036429881677126
  0
LINE
  8
0
  6
CONTINUOUS
 62
3
 10
-323.054023654627600
 20
-140.592985363557370
 11
-320.433255412558310
 21
-139.079884113515450
  0
ARC
  8
0
  6
CONTINUOUS
 62
3
 10
-323.804023654627600
 20
-139.293947257880800
 40
1.500000000000157
 50
202.819244218546660
 51
300.000000000001590
  0
ARC
  8
0
  6
CONTINUOUS
 62
3
 10
-328.081289538027480
 20
-102.766049839170420
 40
1.499999999999976
 50
144.468928475160790
 51
240.000000000002730
  0
LINE
  8
0
  6
CONTINUOUS
 62
3
 10
-326.220105939043380
 20
-105.572655498624320
 11
-328.831289538027480
 21
-104.065087944847220
  0
LINE
  8
0
  6
CONTINUOUS
 62
3
 10
-317.933255412558310
 20
-110.357070880824550
 11
-320.554023654627140
 21
-108.843969630782390
  0
ARC
  8
0
  6
CONTINUOUS
 62
3
 10
-325.470105939043380
 20
-104.273617392947520
 40
1.500000000000123
 50
240.000000000002730
 51
324.036429881683720
  0
ARC
  8
0
  6
CONTINUOUS
 62
3
 10
-319.804023654627140
 20
-107.544931525105820
 40
1.500000000000103
 50
142.819244218542510
 51
239.999999999998410
  0
ARC
  8
0
  6
CONTINUOUS
 62
3
 10
-317.183255412558310
 20
-109.058032775147970
 40
1.499999999999926
 50
239.999999999998410
 51
322.071858233800300
  0
ARC
  8
0
  6
CONTINUOUS
 62
3
 10
-294.308569484892130
 20
-126.883541006631100
 40
37.000000000000099
 50
95.963570118321798
 51
144.036429881678830
  0
ARC
  8
0
  6
CONTINUOUS
 62
3
 10
-294.308569484892130
 20
-126.883541006631100
 40
43.000000000000043
 50
95.531071524839788
 51
144.468928475160770
  0
ARC
  8
0
  6
CONTINUOUS
 62
3
 10
-294.308569484892130
 20
-126.883541006631100
 40
33.499999999999950
 50
97.180755781459069
 51
142.819244218541740
  0
ARC
  8
0
  6
CONTINUOUS
 62
3
 10
-298.308569484892590
 20
-98.160727773940664
 40
1.499999999999998
 50
277.928141766204020
 51
0.000000000000000
  0
ARC
  8
0
  6
CONTINUOUS
 62
3
 10
-338.257156915175070
 20
-76.786926539102808
 40
6.599999999999971
 50
98.597082237248614
 51
134.999999999998610
  0
ARC
  8
0
  6
CONTINUOUS
 62
4
 10
-333.250087440274680
 20
-86.774763466044362
 40
5.999999999999923
 50
97.897988672425626
 51
134.999999999996930
  0
ARC
  8
0
  6
CONTINUOUS
 62
4
 10
-294.308569484892590
 20
-367.483541006631010
 40
289.396999999999930
 50
90.000000000000000
 51
97.897988672427743
  0
LINE
  8
0
  6
CONTINUOUS
 62
3
 10
-80.322059380130327
 20
62.616458993368951
 11
-16.909294935326216
 21
62.616458993368951
  0
LINE
  8
0
  6
CONTINUOUS
 62
3
 10
-16.909294935326216
 20
62.616458993368951
 11
-16.909294935326216
 21
63.616458993368951
  0
LINE
  8
0
  6
CONTINUOUS
 62
3
 10
-86.159294935326216
 20
55.616458993368951
 11
-86.159294935326216
 21
61.455277968045948
  0
LINE
  8
0
  6
CONTINUOUS
 62
3
 10
-21.159294935326102
 20
55.616458993368951
 11
-21.159294935326216
 21
62.616458993368951
  0
LINE
  8
0
  6
CONTINUOUS
 62
3
 10
-86.159294935326216
 20
55.616458993368951
 11
-21.159294935326102
 21
55.616458993368951
  0
LINE
  8
0
  6
CONTINUOUS
 62
3
 10
-81.821970700506199
 20
61.616458993368951
 11
-21.159294935326102
 21
61.616458993368951
  0
LINE
  8
0
  6
CONTINUOUS
 62
3
 10
-86.159294935326216
 20
59.616458993368951
 11
-21.159294935326102
 21
59.616458993368951
  0
LINE
  8
0
  6
DASHDOT
 62
4
 10
-53.659294935326216
 20
61.450172329521706
 11
-53.659294935326216
 21
-0.612241187114478
  0
LINE
  8
0
  6
CONTINUOUS
 62
3
 10
-89.109294935325124
 20
4.442633613585031
 11
-56.716551141222453
 21
4.442633613585031
  0
LINE
  8
0
  6
CONTINUOUS
 62
3
 10
-89.109294935325124
 20
53.311022933633353
 11
-18.209294935327421
 21
53.311022933633240
  0
LINE
  8
0
  6
CONTINUOUS
 62
3
 10
-89.109294935325124
 20
49.839550194586536
 11
-18.209294935327421
 21
49.839550194586536
  0
LINE
  8
0
  6
CONTINUOUS
 62
3
 10
-7.209294935327421
 20
42.311022933633240
 11
-7.209294935327421
 21
15.442633613585031
  0
LINE
  8
0
  6
CONTINUOUS
 62
3
 10
-100.109294935325120
 20
42.311022933633467
 11
-100.109294935325120
 21
15.442633613585031
  0
LINE
  8
0
  6
CONTINUOUS
 62
3
 10
-13.609294935327057
 20
12.416458993368906
 11
-13.609294935327057
 21
41.992393693055647
  0
LINE
  8
0
  6
CONTINUOUS
 62
3
 10
-93.709294935325488
 20
12.416458993368906
 11
-93.709294935325488
 21
41.992393693055874
  0
LINE
  8
0
  6
CONTINUOUS
 62
3
 10
-88.709294935325488
 20
46.992393693055760
 11
-18.609294935327057
 21
46.992393693055647
  0
ARC
  8
0
  6
CONTINUOUS
 62
3
 10
-18.609294935327057
 20
41.992393693055647
 40
5.000000000000000
 50
0.000000000000000
 51
90.000000000000000
  0
ARC
  8
0
  6
CONTINUOUS
 62
3
 10
-88.709294935325488
 20
41.992393693055874
 40
4.999999999999886
 50
90.000000000000000
 51
180.000000000000000
  0
ARC
  8
0
  6
CONTINUOUS
 62
3
 10
-18.209294935327421
 20
15.442633613585031
 40
11.000000000000000
 50
270.000000000000000
 51
0.000000000000000
  0
ARC
  8
0
  6
CONTINUOUS
 62
3
 10
-89.109294935325124
 20
15.442633613585031
 40
11.000000000000000
 50
180.000000000000000
 51
270.000000000000000
  0
LINE
  8
0
  6
CONTINUOUS
 62
3
 10
-87.909294935325761
 20
6.616458993368951
 11
-19.409294935327011
 21
6.616458993368951
  0
ARC
  8
0
  6
CONTINUOUS
 62
3
 10
-19.409294935327011
 20
12.416458993368906
 40
5.799999999999955
 50
270.000000000000000
 51
0.000000000000000
  0
ARC
  8
0
  6
CONTINUOUS
 62
3
 10
-87.909294935325761
 20
12.416458993368906
 40
5.799999999999727
 50
180.000000000000000
 51
270.000000000000000
  0
ARC
  8
0
  6
CONTINUOUS
 62
3
 10
-18.209294935327421
 20
38.839550194586536
 40
11.000000000000000
 50
0.000000000000000
 51
90.000000000000000
  0
ARC
  8
0
  6
CONTINUOUS
 62
3
 10
-18.209294935327421
 20
42.311022933633240
 40
11.000000000000000
 50
0.000000000000000
 51
90.000000000000000
  0
ARC
  8
0
  6
CONTINUOUS
 62
3
 10
-89.109294935325124
 20
38.839550194586536
 40
11.000000000000000
 50
90.000000000000000
 51
180.000000000000000
  0
ARC
  8
0
  6
CONTINUOUS
 62
3
 10
-89.109294935325124
 20
42.311022933633467
 40
10.999999999999886
 50
90.000000000000000
 51
180.000000000000000
  0
LINE
  8
0
  6
CONTINUOUS
 62
3
 10
-74.709930029936459
 20
5.816458993368997
 11
-33.008659840716064
 21
5.816458993368997
  0
ARC
  8
0
  6
CONTINUOUS
 62
3
 10
-33.008659840716064
 20
6.816458993368997
 40
1.000000000000000
 50
270.000000000000000
 51
323.130102354140380
  0
ARC
  8
0
  6
CONTINUOUS
 62
3
 10
-31.408659840716155
 20
5.616458993368951
 40
1.000000000000000
 50
90.000000000000000
 51
143.130102354166380
  0
ARC
  8
0
  6
CONTINUOUS
 62
3
 10
-76.309930029936368
 20
5.616458993368951
 40
0.999999999999727
 50
36.869897645849235
 51
90.000000000000000
  0
ARC
  8
0
  6
CONTINUOUS
 62
3
 10
-74.709930029936459
 20
6.816458993368997
 40
1.000000000000227
 50
216.869897645844020
 51
270.000000000000000
  0
LINE
  8
0
  6
CONTINUOUS
 62
3
 10
-87.459294935326398
 20
54.616458993368951
 11
-19.859294935326375
 21
54.616458993368838
  0
ARC
  8
0
  6
CONTINUOUS
 62
3
 10
-19.859294935326375
 20
49.616458993368838
 40
5.000000000000008
 50
44.925956400534659
 51
90.000000000000000
  0
ARC
  8
0
  6
CONTINUOUS
 62
3
 10
-87.459294935326398
 20
49.616458993368951
 40
5.000000000000000
 50
90.000000000000000
 51
135.074043599465310
  0
LINE
  8
0
  6
CONTINUOUS
 62
3
 10
-22.659294935326329
 20
55.616458993368838
 11
-22.659294935326329
 21
54.616458993368838
  0
LINE
  8
0
  6
CONTINUOUS
 62
3
 10
-84.659294935326216
 20
55.616458993368951
 11
-84.659294935326216
 21
54.616458993368951
  0
LINE
  8
0
  6
DASHDOT
 62
4
 10
-76.482926566638071
 20
30.616458993368951
 11
-32.195208528239618
 21
30.616458993368951
  0
CIRCLE
  8
0
  6
DASHED
 62
4
 10
-53.659294935326216
 20
30.616458993368724
 40
13.500000000000000
  0
ARC
  8
0
  6
CONTINUOUS
 62
3
 10
-55.859295698265669
 20
5.419931481115100
 40
1.299999237060699
 50
162.240552086452960
 51
253.398468892505180
  0
ARC
  8
0
  6
CONTINUOUS
 62
3
 10
-53.659294935326216
 20
12.798956403962848
 40
8.999999999999858
 50
253.398468892518050
 51
286.601548410325050
  0
ARC
  8
0
  6
CONTINUOUS
 62
3
 10
-51.459294172386763
 20
5.419931481115100
 40
1.299999237060351
 50
286.601548410324710
 51
17.759447913550098
  0
LINE
  8
0
  6
CONTINUOUS
 62
3
 10
-50.602038729430205
 20
4.442633613585031
 11
-18.209294935327421
 21
4.442633613585031
  0
LINE
  8
0
  6
CONTINUOUS
 62
3
 10
-230.808569484892590
 20
-159.488284692907830
 11
-227.782392536584670
 21
-159.409041460684990
  0
ARC
  8
0
  6
CONTINUOUS
 62
3
 10
-227.808569484892590
 20
-158.409384135709440
 40
0.999999999999988
 50
271.500000000002730
 51
0.000000000000000
  0
ARC
  8
0
  6
CONTINUOUS
 62
3
 10
-227.808569484892590
 20
-95.357697877552766
 40
1.000000000000000
 50
0.000000000000000
 51
88.499999999997257
  0
LINE
  8
0
  6
CONTINUOUS
 62
3
 10
-226.808569484892590
 20
-158.409384135709440
 11
-226.808569484892590
 21
-95.357697877552766
  0
LINE
  8
0
  6
CONTINUOUS
 62
3
 10
-230.808569484892590
 20
-94.278797320354386
 11
-227.782392536584670
 21
-94.358040552577222
  0
LINE
  8
0
  6
CONTINUOUS
 62
3
 10
-230.808569484892590
 20
-96.891041944364304
 11
-230.808569484892590
 21
-94.278797320354386
  0
LINE
  8
0
  6
CONTINUOUS
 62
3
 10
-230.808569484892590
 20
-156.876040068897910
 11
-230.808569484892590
 21
-159.488284692907830
  0
LINE
  8
0
  6
CONTINUOUS
 62
3
 10
-226.808569484892590
 20
-126.883541006631100
 11
-226.808569484892590
 21
-95.883541006631106
  0
LINE
  8
0
  6
CONTINUOUS
 62
3
 10
-226.808569484892590
 20
-126.883541006631100
 11
-226.808569484892590
 21
-157.883541006631110
  0
ARC
  8
0
  6
CONTINUOUS
 62
3
 10
-221.538469500677140
 20
-85.307215466743685
 40
1.000000000000041
 50
24.000000000003585
 51
113.999999999979760
  0
LINE
  8
0
  6
CONTINUOUS
 62
4
 10
-180.880628455272470
 20
-183.510282941882510
 11
-184.717519377371450
 21
-185.218576842800810
  0
LINE
  8
0
  6
CONTINUOUS
 62
4
 10
-182.222859377422990
 20
-180.495582931661890
 11
-186.059750299521740
 21
-182.203876832580190
  0
LINE
  8
0
  6
CONTINUOUS
 62
3
 10
-185.882367214423310
 20
-181.741778097328790
 11
-186.059750299521740
 21
-182.203876832580190
  0
LINE
  8
0
  6
CONTINUOUS
 62
3
 10
-184.255420642120270
 20
-185.395959927898790
 11
-184.717519377371670
 21
-185.218576842800360
  0
LINE
  8
0
  6
CONTINUOUS
 62
3
 10
-186.059750299521740
 20
-182.203876832580190
 11
-184.717519377371670
 21
-185.218576842800360
  0
POINT
  8
0
  6
CONTINUOUS
 62
3
 10
-178.080271177305800
 20
-180.457333693083970
  0
LINE
  8
0
  6
CONTINUOUS
 62
3
 10
-179.503849428071360
 20
-177.259924591334820
 11
-176.656692926540470
 21
-183.654742794833110
  0
LINE
  8
0
  6
CONTINUOUS
 62
3
 10
-179.503849428071360
 20
-177.259924591334820
 11
-176.656692926540470
 21
-183.654742794833110
  0
LINE
  8
0
  6
CONTINUOUS
 62
3
 10
-176.656692926540470
 20
-183.654742794833110
 11
-175.762308806863980
 21
-183.256537329068640
  0
LINE
  8
0
  6
CONTINUOUS
 62
3
 10
-179.503849428071360
 20
-177.259924591334820
 11
-178.609465308394870
 21
-176.861719125570570
  0
ARC
  8
0
  6
CONTINUOUS
 62
3
 10
-178.080707982711830
 20
-178.049327523526070
 40
1.299999237060495
 50
40.601531107483851
 51
114.000000683246080
  0
LINE
  8
0
  6
CONTINUOUS
 62
3
 10
-223.749140485739870
 20
-87.226028478909996
 11
-224.173972645485950
 21
-88.226870327525432
  0
LINE
  8
0
  6
CONTINUOUS
 62
3
 10
-223.304226740529880
 20
-88.225321111867345
 11
-223.437568762723910
 21
-88.539455230316719
  0
LINE
  8
0
  6
CONTINUOUS
 62
3
 10
-224.173972645485950
 20
-88.226870327525432
 11
-223.437568762723910
 21
-88.539455230316719
  0
LINE
  8
0
  6
CONTINUOUS
 62
3
 10
-220.624924043034530
 20
-84.900478823667811
 11
-201.932860462085730
 21
-126.883541006631100
  0
ARC
  8
0
  6
CONTINUOUS
 62
3
 10
-216.102008221239200
 20
-87.683334077970187
 40
3.000000000000030
 50
203.999999999999630
 51
260.681876880317470
  0
LINE
  8
0
  6
CONTINUOUS
 62
3
 10
-216.587756111677890
 20
-90.643747729292329
 11
-190.632119018141790
 21
-94.902576882285359
  0
ARC
  8
0
  6
CONTINUOUS
 62
3
 10
-193.060858470333410
 20
-109.704645138896290
 40
15.000000000000393
 50
1.682768801133086
 51
80.681876880324481
  0
ARC
  8
0
  6
CONTINUOUS
 62
3
 10
-777.808569484892590
 20
-126.883541006631330
 40
600.000000000000910
 50
355.284875165908370
 51
1.682768801133149
  0
ARC
  8
0
  6
CONTINUOUS
 62
3
 10
-178.842520492580890
 20
-176.286700364517690
 40
0.999999999999983
 50
175.284875165916760
 51
204.000000000003580
  0
LINE
  8
0
  6
CONTINUOUS
 62
3
 10
-221.945206143752560
 20
-84.393670009101072
 11
-224.503133425151870
 21
-85.532532609713201
  0
LINE
  8
0
  6
CONTINUOUS
 62
3
 10
-222.225408223932160
 20
-90.648387172514106
 11
-224.028779414118840
 21
-91.451299756644232
  0
ARC
  8
0
  6
CONTINUOUS
 62
3
 10
-222.808569484892590
 20
-94.191936129572071
 40
2.999999999999567
 50
113.999999999979760
 51
180.000000000000000
  0
LINE
  8
0
  6
CONTINUOUS
 62
3
 10
-226.808569484892590
 20
-95.883541006631106
 11
-225.808569484892590
 21
-95.883541006631106
  0
ARC
  8
0
  6
CONTINUOUS
 62
3
 10
-220.808569484892590
 20
-168.383541006631110
 40
5.000000000000000
 50
180.000000000000000
 51
270.000000000000000
  0
LINE
  8
0
  6
CONTINUOUS
 62
3
 10
-220.808569484892590
 20
-173.383541006631110
 11
-185.389344453563810
 21
-173.383541006631110
  0
LINE
  8
0
  6
CONTINUOUS
 62
3
 10
-176.228007462032340
 20
-187.076179448129380
 11
-178.785934743432110
 21
-188.215042048741510
  0
ARC
  8
0
  6
CONTINUOUS
 62
3
 10
-176.634744105108670
 20
-186.162633990486770
 40
1.000000000000226
 50
294.000000000027340
 51
23.999999999991683
  0
LINE
  8
0
  6
CONTINUOUS
 62
3
 10
-201.932860462088910
 20
-126.883541006631100
 11
-175.721198647466050
 21
-185.755897347411120
  0
ARC
  8
0
  6
CONTINUOUS
 62
3
 10
-180.013882221194080
 20
-173.655778846509800
 40
0.999999999999856
 50
113.999999999979760
 51
204.000000000003580
  0
ARC
  8
0
  6
CONTINUOUS
 62
3
 10
-181.438555888473500
 20
-171.006175594868240
 40
2.000000000000451
 50
294.000000000027340
 51
355.768661925113970
  0
LINE
  8
0
  6
CONTINUOUS
 62
3
 10
-182.365217202499480
 20
-180.175842021486970
 11
-185.882367214423310
 21
-181.741778097328790
  0
LINE
  8
0
  6
CONTINUOUS
 62
3
 10
-180.738270630196210
 20
-183.830023852056970
 11
-184.255420642120270
 21
-185.395959927898790
  0
LINE
  8
0
  6
CONTINUOUS
 62
3
 10
-226.808569484892590
 20
-157.883541006631110
 11
-225.808569484892590
 21
-157.883541006631110
  0
LINE
  8
0
  6
CONTINUOUS
 62
3
 10
-225.808569484892590
 20
-94.191936129572071
 11
-225.808569484892590
 21
-168.383541006631110
  0
ARC
  8
0
  6
CONTINUOUS
 62
3
 10
-777.808569484892590
 20
-126.883541006631330
 40
600.799999999999950
 50
357.158610984636650
 51
0.587807867706885
  0
ARC
  8
0
  6
CONTINUOUS
 62
3
 10
-178.745970256107970
 20
-156.616388250925010
 40
1.000000000000147
 50
303.952126946381380
 51
357.158610984632960
  0
ARC
  8
0
  6
CONTINUOUS
 62
3
 10
-177.628970231495490
 20
-158.275397275920170
 40
0.999999999999769
 50
123.952126946395960
 51
177.005923909151190
  0
ARC
  8
0
  6
CONTINUOUS
 62
3
 10
-176.858761815342400
 20
-119.116388250925010
 40
0.999999999999967
 50
180.740494943192910
 51
233.794291905968890
  0
ARC
  8
0
  6
CONTINUOUS
 62
3
 10
-178.040133931618810
 20
-120.730191188983150
 40
1.000000000000077
 50
0.587807867721716
 51
53.794291905958382
  0
LINE
  8
0
  6
CONTINUOUS
 62
3
 10
-224.503133425157100
 20
-85.532532609715474
 11
-178.785934743432110
 21
-188.215042048741510
  0
LINE
  8
0
  6
DASHDOT
 62
4
 10
-201.808569484892590
 20
-159.001017226925400
 11
-201.808569484892590
 21
-181.869526402689020
  0
ARC
  8
0
  6
CONTINUOUS
 62
3
 10
-176.291066132547260
 20
-182.068928931113130
 40
1.299999237060559
 50
293.999982013920090
 51
7.398451589679256
  0
ARC
  8
0
  6
CONTINUOUS
 62
3
 10
-183.926961757728580
 20
-183.060448053611760
 40
9.000000000000234
 50
7.398451589678908
 51
40.601531107483503
  0
ARC
  8
0
  6
CONTINUOUS
 62
3
 10
25.473913593964454
 20
66.549778863007532
 40
2.999999999999768
 50
271.691038599313400
 51
282.294121480709120
  0
ARC
  8
0
  6
CONTINUOUS
 62
3
 10
25.473913593964454
 20
179.683139123730370
 40
2.999999999999290
 50
77.705878519290863
 51
88.308961400669205
  0
ARC
  8
0
  6
CONTINUOUS
 62
3
 10
117.840705064673810
 20
40.081853519600600
 40
2.000000000000043
 50
271.000000000027800
 51
0.000000000000000
  0
ARC
  8
0
  6
CONTINUOUS
 62
3
 10
12.840705064673813
 20
40.058284868859346
 40
2.000000000000000
 50
180.000000000000000
 51
268.308961400695520
  0
ARC
  8
0
  6
CONTINUOUS
 62
3
 10
12.840705064673813
 20
61.174633117878557
 40
1.999999999999230
 50
91.691038599305259
 51
180.000000000000000
  0
ARC
  8
0
  6
CONTINUOUS
 62
3
 10
12.840705064673813
 20
185.058284868859350
 40
2.000000000000000
 50
180.000000000000000
 51
268.308961400694730
  0
ARC
  8
0
  6
CONTINUOUS
 62
3
 10
12.840705064673813
 20
206.174633117878560
 40
2.000000000000139
 50
91.691038599304477
 51
180.000000000000000
  0
ARC
  8
0
  6
CONTINUOUS
 62
3
 10
117.840705064673810
 20
206.151064467137300
 40
2.000000000000000
 50
0.000000000000000
 51
88.999999999972189
  0
LINE
  8
0
  6
CONTINUOUS
 62
3
 10
49.340705064673813
 20
43.108340773080499
 11
49.340705064673813
 21
123.616458993368950
  0
LINE
  8
0
  6
CONTINUOUS
 62
3
 10
49.340705064673813
 20
203.124577213657400
 11
49.340705064673813
 21
122.616458993368950
  0
LINE
  8
0
  6
CONTINUOUS
 62
3
 10
119.840705064673810
 20
206.151064467137300
 11
119.840705064673810
 21
123.116458993368950
  0
LINE
  8
0
  6
CONTINUOUS
 62
3
 10
117.875609877549350
 20
208.150759857450110
 11
51.340705064673813
 21
209.312130940951870
  0
LINE
  8
0
  6
CONTINUOUS
 62
3
 10
117.875609877549350
 20
38.082158129287791
 11
51.340705064673813
 21
36.920787045786028
  0
LINE
  8
0
  6
CONTINUOUS
 62
3
 10
119.840705064673810
 20
40.081853519600600
 11
119.840705064673810
 21
123.116458993368950
  0
LINE
  8
0
  6
CONTINUOUS
 62
3
 10
12.781685251442497
 20
38.059155893118486
 11
51.340705064673813
 21
36.920787045786028
  0
LINE
  8
0
  6
CONTINUOUS
 62
3
 10
10.840705064673813
 20
40.058284868859346
 11
10.840705064673813
 21
61.174633117878557
  0
LINE
  8
0
  6
CONTINUOUS
 62
3
 10
12.781685251442497
 20
63.173762093618507
 11
25.562443313811883
 21
63.551085399396698
  0
LINE
  8
0
  6
CONTINUOUS
 62
3
 10
12.781685251442497
 20
183.059155893119400
 11
25.562443313812793
 21
182.681832587341200
  0
LINE
  8
0
  6
CONTINUOUS
 62
3
 10
12.781685251442497
 20
208.173762093619420
 11
51.340705064673813
 21
209.312130940951870
  0
LINE
  8
0
  6
CONTINUOUS
 62
3
 10
10.840705064673813
 20
206.174633117878560
 11
10.840705064673813
 21
185.058284868859350
  0
LINE
  8
0
  6
CONTINUOUS
 62
3
 10
117.840705064673810
 20
181.176771399870860
 11
117.840705064673810
 21
123.116458993368950
  0
ARC
  8
0
  6
CONTINUOUS
 62
3
 10
70.206541248313471
 20
137.742647801235990
 40
64.999999999999829
 50
43.585047535284680
 51
45.930861093226845
  0
ARC
  8
0
  6
CONTINUOUS
 62
3
 10
114.024672504468100
 20
183.008212784105350
 40
2.000000000000038
 50
45.930861093237034
 51
88.999999999998693
  0
LINE
  8
0
  6
CONTINUOUS
 62
3
 10
107.387011607542290
 20
185.124378242120880
 11
114.059577317342720
 21
185.007908174419070
  0
CIRCLE
  8
0
  6
CONTINUOUS
 62
3
 10
107.840705064673810
 20
198.116458993368950
 40
5.000000000000000
  0
CIRCLE
  8
0
  6
CONTINUOUS
 62
3
 10
22.840705064673813
 20
198.116458993368950
 40
5.000000000000000
  0
LINE
  8
0
  6
DASHDOT
 62
4
 10
118.112350887137860
 20
198.116458993368950
 11
98.349099362088083
 21
198.116458993368950
  0
LINE
  8
0
  6
DASHDOT
 62
4
 10
107.840705064673810
 20
208.116458993368950
 11
107.840705064673810
 21
187.525147500882890
  0
LINE
  8
0
  6
DASHDOT
 62
4
 10
33.112350887137865
 20
198.116458993368950
 11
13.349099362088083
 21
198.116458993368950
  0
LINE
  8
0
  6
DASHDOT
 62
4
 10
22.840705064673813
 20
208.116458993368950
 11
22.840705064673813
 21
187.525147500882890
  0
ARC
  8
0
  6
CONTINUOUS
 62
3
 10
115.840705064673810
 20
181.176771399870860
 40
2.000000000000000
 50
0.000000000000000
 51
43.585047535268956
  0
ARC
  8
0
  6
CONTINUOUS
 62
3
 10
70.101826809689584
 20
137.743561630297560
 40
65.000000000000128
 50
68.753041256959463
 51
88.907895481707214
  0
ARC
  8
0
  6
CONTINUOUS
 62
3
 10
107.840705064673810
 20
198.116458993368950
 40
12.999999999999165
 50
186.335260080964190
 51
270.000000000000000
  0
ARC
  8
0
  6
CONTINUOUS
 62
3
 10
92.932306520894628
 20
196.461269318491990
 40
2.000000000000057
 50
6.335260080975698
 51
68.753041256968885
  0
LINE
  8
0
  6
CONTINUOUS
 62
3
 10
117.840705064673810
 20
65.056146586867044
 11
117.840705064673810
 21
123.116458993368950
  0
ARC
  8
0
  6
CONTINUOUS
 62
3
 10
70.206541248313471
 20
108.490270185501910
 40
64.999999999999758
 50
314.069138906773160
 51
316.414952464715330
  0
ARC
  8
0
  6
CONTINUOUS
 62
3
 10
114.024672504468100
 20
63.224705202632549
 40
2.000000000000937
 50
271.000000000001310
 51
314.069138906762990
  0
LINE
  8
0
  6
CONTINUOUS
 62
3
 10
107.387011607542290
 20
61.108539744617019
 11
114.059577317342720
 21
61.225009812318831
  0
CIRCLE
  8
0
  6
CONTINUOUS
 62
3
 10
107.840705064673810
 20
48.116458993368951
 40
5.000000000000000
  0
CIRCLE
  8
0
  6
CONTINUOUS
 62
3
 10
22.840705064673813
 20
48.116458993368951
 40
5.000000000000000
  0
LINE
  8
0
  6
DASHDOT
 62
4
 10
118.112350887137860
 20
48.116458993368951
 11
98.349099362088083
 21
48.116458993368951
  0
LINE
  8
0
  6
DASHDOT
 62
4
 10
107.840705064673810
 20
38.116458993368951
 11
107.840705064673810
 21
58.707770485855008
  0
LINE
  8
0
  6
DASHDOT
 62
4
 10
33.112350887137865
 20
48.116458993368951
 11
13.349099362088083
 21
48.116458993368951
  0
LINE
  8
0
  6
DASHDOT
 62
4
 10
22.840705064673813
 20
38.116458993368951
 11
22.840705064673813
 21
58.707770485855008
  0
ARC
  8
0
  6
CONTINUOUS
 62
3
 10
115.840705064673810
 20
65.056146586867044
 40
2.000000000000612
 50
316.414952464731070
 51
0.000000000000000
  0
LINE
  8
0
  6
CONTINUOUS
 62
4
 10
49.270884804961526
 20
43.117068305544535
 11
53.136452958267029
 21
43.117068305544535
  0
ARC
  8
0
  6
CONTINUOUS
 62
3
 10
70.101826809689584
 20
108.489356356440330
 40
64.999999999999844
 50
271.092104518292790
 51
291.246958743040580
  0
ARC
  8
0
  6
CONTINUOUS
 62
3
 10
107.840705064673810
 20
48.116458993368951
 40
13.000000000000000
 50
90.000000000000000
 51
173.664739919035810
  0
ARC
  8
0
  6
CONTINUOUS
 62
3
 10
92.932306520894628
 20
49.771648668245916
 40
2.000000000000191
 50
291.246958743031090
 51
353.664739919024330
  0
ARC
  8
0
  6
CONTINUOUS
 62
3
 10
118.840705064673810
 20
144.116458993368950
 40
1.000000000000000
 50
0.000000000000000
 51
90.000000000000000
  0
ARC
  8
0
  6
CONTINUOUS
 62
3
 10
118.840705064673810
 20
146.116458993368950
 40
1.000000000000000
 50
180.000000000000000
 51
270.000000000000000
  0
ARC
  8
0
  6
CONTINUOUS
 62
3
 10
118.840705064673810
 20
102.116458993368950
 40
1.000000000000000
 50
270.000000000000000
 51
0.000000000000000
  0
ARC
  8
0
  6
CONTINUOUS
 62
3
 10
118.840705064673810
 20
100.116458993368950
 40
1.000000000000000
 50
90.000000000000000
 51
180.000000000000000
  0
LINE
  8
0
  6
CONTINUOUS
 62
3
 10
49.340705064673813
 20
203.115849681193370
 11
71.340705064673813
 21
202.731838252772150
  0
LINE
  8
0
  6
CONTINUOUS
 62
3
 10
49.340705064673813
 20
43.117068305544535
 11
71.340705064673813
 21
43.501079733965753
  0
LINE
  8
0
  6
CONTINUOUS
 62
3
 10
26.112704016214622
 20
182.614341402051880
 11
28.916824606262736
 21
182.003245610743990
  0
LINE
  8
0
  6
CONTINUOUS
 62
3
 10
26.112704016214622
 20
63.618576584686025
 11
28.916824606255233
 21
64.229672375994824
  0
LINE
  8
0
  6
CONTINUOUS
 62
3
 10
157.440705064674180
 20
112.116458993368950
 11
124.400512685809210
 21
112.116458993368950
  0
LINE
  8
0
  6
CONTINUOUS
 62
3
 10
157.440705064674180
 20
112.116458993368950
 11
124.400512685809210
 21
112.116458993368950
  0
ARC
  8
0
  6
CONTINUOUS
 62
3
 10
157.440705064674180
 20
112.516458993368580
 40
0.399999999999636
 50
270.000000000000000
 51
0.000000000000000
  0
LINE
  8
0
  6
CONTINUOUS
 62
3
 10
157.840705064673810
 20
123.116458993368950
 11
157.840705064673810
 21
109.616458993368950
  0
LINE
  8
0
  6
CONTINUOUS
 62
3
 10
119.840705064673810
 20
135.116458993368950
 11
121.440705064674170
 21
135.116458993368950
  0
LINE
  8
0
  6
CONTINUOUS
 62
3
 10
121.840705064673810
 20
134.716458993369320
 11
121.440705064674170
 21
135.116458993368950
  0
LINE
  8
0
  6
CONTINUOUS
 62
3
 10
124.400512685809210
 20
134.116458993368950
 11
123.840705064673810
 21
133.966458993369320
  0
LINE
  8
0
  6
CONTINUOUS
 62
3
 10
123.840705064673810
 20
133.966458993369320
 11
122.640705064674900
 21
133.966458993369320
  0
ARC
  8
0
  6
CONTINUOUS
 62
3
 10
122.640705064674900
 20
134.766458993368590
 40
0.800000000000237
 50
183.703196634280290
 51
270.000000000000000
  0
LINE
  8
0
  6
CONTINUOUS
 62
3
 10
121.840705064673810
 20
134.716458993369320
 11
121.440705064674170
 21
135.116458993368950
  0
LINE
  8
0
  6
CONTINUOUS
 62
3
 10
124.400512685809210
 20
134.116458993368950
 11
123.840705064673810
 21
133.966458993369320
  0
LINE
  8
0
  6
CONTINUOUS
 62
3
 10
123.840705064673810
 20
133.966458993369320
 11
122.640705064674900
 21
133.966458993369320
  0
LINE
  8
0
  6
CONTINUOUS
 62
3
 10
121.840705064673810
 20
123.116458993368950
 11
121.840705064673810
 21
134.716458993369320
  0
LINE
  8
0
  6
CONTINUOUS
 62
3
 10
119.840705064673810
 20
135.116458993368950
 11
121.440705064674170
 21
135.116458993368950
  0
LINE
  8
0
  6
CONTINUOUS
 62
3
 10
121.840705064673810
 20
123.116458993368950
 11
121.840705064673810
 21
111.516458993368580
  0
LINE
  8
0
  6
CONTINUOUS
 62
3
 10
119.840705064673810
 20
111.116458993368950
 11
121.440705064674170
 21
111.116458993368950
  0
LINE
  8
0
  6
CONTINUOUS
 62
3
 10
157.440705064674180
 20
134.116458993368950
 11
124.400512685809210
 21
134.116458993368950
  0
LINE
  8
0
  6
CONTINUOUS
 62
3
 10
121.840705064673810
 20
111.516458993368580
 11
121.440705064674170
 21
111.116458993368950
  0
LINE
  8
0
  6
CONTINUOUS
 62
3
 10
124.400512685809210
 20
112.116458993368950
 11
123.840705064673810
 21
112.266458993368580
  0
LINE
  8
0
  6
CONTINUOUS
 62
3
 10
123.840705064673810
 20
112.266458993368580
 11
122.640705064674900
 21
112.266458993368580
  0
ARC
  8
0
  6
CONTINUOUS
 62
3
 10
122.640705064674900
 20
111.466458993369310
 40
0.799999999999272
 50
90.000000000000000
 51
176.296803365719710
  0
LINE
  8
0
  6
CONTINUOUS
 62
3
 10
157.440705064674180
 20
134.116458993368950
 11
124.400512685809210
 21
134.116458993368950
  0
LINE
  8
0
  6
CONTINUOUS
 62
3
 10
121.840705064673810
 20
111.516458993368580
 11
121.440705064674170
 21
111.116458993368950
  0
LINE
  8
0
  6
CONTINUOUS
 62
3
 10
124.400512685809210
 20
112.116458993368950
 11
123.840705064673810
 21
112.266458993368580
  0
LINE
  8
0
  6
CONTINUOUS
 62
3
 10
123.840705064673810
 20
112.266458993368580
 11
122.640705064674900
 21
112.266458993368580
  0
LINE
  8
0
  6
CONTINUOUS
 62
3
 10
119.840705064673810
 20
111.116458993368950
 11
121.440705064674170
 21
111.116458993368950
  0
LINE
  8
0
  6
CONTINUOUS
 62
3
 10
157.840705064673810
 20
109.616458993368950
 11
125.840705064673810
 21
109.616458993368950
  0
LINE
  8
0
  6
CONTINUOUS
 62
3
 10
125.840705064673810
 20
112.116458993368950
 11
125.840705064673810
 21
109.616458993368950
  0
ARC
  8
0
  6
CONTINUOUS
 62
3
 10
157.440705064674180
 20
133.716458993369320
 40
0.399999999999636
 50
0.000000000000000
 51
90.000000000000000
  0
LINE
  8
0
  6
CONTINUOUS
 62
3
 10
157.840705064673810
 20
123.116458993368950
 11
157.840705064673810
 21
133.716458993369320
  0
LINE
  8
0
  6
CONTINUOUS
 62
3
 10
38.840705064673813
 20
56.116458993368951
 11
35.590705064673813
 21
56.116458993368951
  0
LINE
  8
0
  6
CONTINUOUS
 62
3
 10
38.840705064673813
 20
46.116458993368951
 11
35.590705064673813
 21
46.116458993368951
  0
LINE
  8
0
  6
CONTINUOUS
 62
3
 10
35.590705064673813
 20
46.116458993368951
 11
35.590705064673813
 21
56.116458993368951
  0
LINE
  8
0
  6
CONTINUOUS
 62
3
 10
39.840705064673813
 20
81.116458993368951
 11
39.840705064673813
 21
123.116458993368950
  0
LINE
  8
0
  6
CONTINUOUS
 62
3
 10
39.840705064673813
 20
43.616458993368951
 11
39.840705064673813
 21
71.116458993368951
  0
ARC
  8
0
  6
CONTINUOUS
 62
3
 10
40.840705064673813
 20
83.366458993368951
 40
1.000000000000000
 50
180.000000000000000
 51
270.000000000000000
  0
ARC
  8
0
  6
CONTINUOUS
 62
3
 10
42.690705064674177
 20
81.966458993369315
 40
0.399999999999636
 50
0.000000000000000
 51
90.000000000000000
  0
LINE
  8
0
  6
CONTINUOUS
 62
3
 10
43.090705064673813
 20
81.966458993369315
 11
43.090705064673813
 21
70.266458993370406
  0
LINE
  8
0
  6
CONTINUOUS
 62
3
 10
40.840705064673813
 20
82.366458993368951
 11
42.690705064674177
 21
82.366458993368951
  0
ARC
  8
0
  6
CONTINUOUS
 62
3
 10
40.840705064673813
 20
68.866458993368951
 40
1.000000000000000
 50
90.000000000000000
 51
180.000000000000000
  0
LINE
  8
0
  6
CONTINUOUS
 62
3
 10
40.840705064673813
 20
69.866458993368951
 11
42.690705064674177
 21
69.866458993368951
  0
ARC
  8
0
  6
CONTINUOUS
 62
3
 10
42.690705064674177
 20
70.266458993370406
 40
0.400000000001455
 50
270.000000000000000
 51
0.000000000000000
  0
INSERT
  8
0
  2
SYM1
 10
43.090705064673813
 20
76.116458993368951
 50
0.000000000000014
  0
ARC
  8
0
  6
CONTINUOUS
 62
3
 10
37.840705064673813
 20
62.917434059235575
 40
1.000000000000000
 50
0.000000000000000
 51
87.999999999996049
  0
LINE
  8
0
  6
CONTINUOUS
 62
3
 10
38.840705064673813
 20
44.616458993369861
 11
38.840705064673813
 21
62.917434059235575
  0
ARC
  8
0
  6
CONTINUOUS
 62
3
 10
39.340705064673813
 20
44.616458993369861
 40
0.500000000000000
 50
180.000000000000000
 51
270.000000000000000
  0
ARC
  8
0
  6
CONTINUOUS
 62
3
 10
39.340705064673813
 20
43.616458993369861
 40
0.500000000000000
 50
0.000000000000000
 51
90.000000000000000
  0
LINE
  8
0
  6
CONTINUOUS
 62
3
 10
48.840705064673813
 20
43.116458993368951
 11
48.840705064673813
 21
123.116458993368950
  0
LINE
  8
0
  6
CONTINUOUS
 62
3
 10
49.340705064673813
 20
43.116458993368951
 11
40.340705064673813
 21
43.116458993368951
  0
LINE
  8
0
  6
CONTINUOUS
 62
3
 10
17.340705064673813
 20
64.633919378115252
 11
17.340705064673813
 21
123.116458993368950
  0
LINE
  8
0
  6
CONTINUOUS
 62
3
 10
38.875604561376377
 20
63.881904116762826
 11
17.340705064673813
 21
64.633919378115252
  0
ARC
  8
0
  6
CONTINUOUS
 62
3
 10
40.340705064673813
 20
43.616458993368951
 40
0.500000000000000
 50
180.000000000000000
 51
270.000000000000000
  0
ARC
  8
0
  6
CONTINUOUS
 62
3
 10
38.840705064673813
 20
62.882513289742974
 40
1.000000000000000
 50
0.000000000000000
 51
87.999999999997854
  0
LINE
  8
0
  6
CONTINUOUS
 62
3
 10
39.840705064673813
 20
165.116458993368950
 11
39.840705064673813
 21
123.116458993368950
  0
LINE
  8
0
  6
CONTINUOUS
 62
3
 10
48.840705064673813
 20
203.116458993368950
 11
48.840705064673813
 21
123.116458993368950
  0
LINE
  8
0
  6
CONTINUOUS
 62
3
 10
17.340705064673813
 20
181.598998608622650
 11
17.340705064673813
 21
123.116458993368950
  0
LINE
  8
0
  6
CONTINUOUS
 62
3
 10
38.840705064673813
 20
190.116458993368950
 11
35.590705064673813
 21
190.116458993368950
  0
LINE
  8
0
  6
CONTINUOUS
 62
3
 10
38.840705064673813
 20
200.116458993368950
 11
35.590705064673813
 21
200.116458993368950
  0
LINE
  8
0
  6
CONTINUOUS
 62
3
 10
35.590705064673813
 20
200.116458993368950
 11
35.590705064673813
 21
190.116458993368950
  0
LINE
  8
0
  6
CONTINUOUS
 62
3
 10
39.840705064673813
 20
202.616458993368950
 11
39.840705064673813
 21
175.116458993368950
  0
ARC
  8
0
  6
CONTINUOUS
 62
3
 10
40.840705064673813
 20
162.866458993368950
 40
1.000000000000000
 50
90.000000000000000
 51
180.000000000000000
  0
ARC
  8
0
  6
CONTINUOUS
 62
3
 10
42.690705064674177
 20
164.266458993368590
 40
0.399999999999636
 50
270.000000000000000
 51
0.000000000000000
  0
LINE
  8
0
  6
CONTINUOUS
 62
3
 10
43.090705064673813
 20
164.266458993368590
 11
43.090705064673813
 21
175.966458993368410
  0
LINE
  8
0
  6
CONTINUOUS
 62
3
 10
40.840705064673813
 20
163.866458993368950
 11
42.690705064674177
 21
163.866458993368950
  0
ARC
  8
0
  6
CONTINUOUS
 62
3
 10
40.840705064673813
 20
177.366458993368950
 40
1.000000000000000
 50
180.000000000000000
 51
270.000000000000000
  0
LINE
  8
0
  6
CONTINUOUS
 62
3
 10
40.840705064673813
 20
176.366458993368950
 11
42.690705064674177
 21
176.366458993368950
  0
ARC
  8
0
  6
CONTINUOUS
 62
3
 10
42.690705064674177
 20
175.966458993368410
 40
0.399999999999636
 50
0.000000000000000
 51
90.000000000000000
  0
INSERT
  8
0
  2
SYM1
 10
43.090705064673813
 20
170.116458993368950
 41
-1.000000000000000
 50
180.000000000000000
  0
ARC
  8
0
  6
CONTINUOUS
 62
3
 10
37.840705064673813
 20
183.315483927502330
 40
0.999999999999849
 50
272.000000000003920
 51
0.000000000000000
  0
LINE
  8
0
  6
CONTINUOUS
 62
3
 10
38.840705064673813
 20
201.616458993368950
 11
38.840705064673813
 21
183.315483927502330
  0
ARC
  8
0
  6
CONTINUOUS
 62
3
 10
39.340705064673813
 20
201.616458993368950
 40
0.500000000000000
 50
90.000000000000000
 51
180.000000000000000
  0
ARC
  8
0
  6
CONTINUOUS
 62
3
 10
39.340705064673813
 20
202.616458993368950
 40
0.500000000000000
 50
270.000000000000000
 51
0.000000000000000
  0
LINE
  8
0
  6
CONTINUOUS
 62
3
 10
49.340705064673813
 20
203.116458993368950
 11
40.340705064673813
 21
203.116458993368950
  0
LINE
  8
0
  6
CONTINUOUS
 62
3
 10
38.875604561376377
 20
182.351013869975080
 11
17.340705064673813
 21
181.598998608622650
  0
ARC
  8
0
  6
CONTINUOUS
 62
3
 10
40.340705064673813
 20
202.616458993368950
 40
0.500000000000000
 50
90.000000000000000
 51
180.000000000000000
  0
ARC
  8
0
  6
CONTINUOUS
 62
3
 10
38.840705064673813
 20
183.350404696994930
 40
1.000000000000758
 50
272.000000000002100
 51
0.000000000000000
  0
ARC
  8
0
  6
CONTINUOUS
 62
3
 10
-336.308569484892590
 20
-200.383541006631130
 40
7.999999999999647
 50
316.567463442207780
 51
325.771133672185440
  0
ARC
  8
0
  6
CONTINUOUS
 62
3
 10
-336.308569484892590
 20
-200.383541006631130
 40
8.000000000000384
 50
184.632766630878140
 51
223.432536557788810
  0
ARC
  8
0
  6
CONTINUOUS
 62
3
 10
-350.262829396785260
 20
-201.514306371923420
 40
5.999999999999603
 50
4.632766630878128
 51
61.473514688830072
  0
ARC
  8
0
  6
CONTINUOUS
 62
3
 10
-294.308569484892590
 20
-496.883541006631110
 40
450.000000000000000
 50
90.000000000000000
 51
92.232868242791525
  0
ARC
  8
0
  6
CONTINUOUS
 62
3
 10
-309.308569484892810
 20
-112.175859773204190
 40
65.000000000000142
 50
92.232868242791668
 51
180.000000000000000
  0
ARC
  8
0
  6
CONTINUOUS
 62
3
 10
-325.429452119186860
 20
-155.827291006631130
 40
45.999999999999865
 50
219.301285481804510
 51
241.473514688826810
  0
ARC
  8
0
  6
CONTINUOUS
 62
3
 10
-365.308569484892590
 20
-104.383541006631100
 40
8.000000000000000
 50
90.000000000000000
 51
270.000000000000000
  0
ARC
  8
0
  6
CONTINUOUS
 62
3
 10
-341.308569484892810
 20
-62.883541006631106
 40
6.250000000000000
 50
180.000000000000000
 51
0.000000000000000
  0
ARC
  8
0
  6
CONTINUOUS
 62
3
 10
-334.058569484892810
 20
-53.155206608400988
 40
1.000000000000058
 50
112.750483887072420
 51
180.000000000000000
  0
ARC
  8
0
  6
CONTINUOUS
 62
3
 10
-348.558569484892810
 20
-61.624524479267563
 40
1.000000000000000
 50
0.000000000000000
 51
127.827138740095090
  0
ARC
  8
0
  6
CONTINUOUS
 62
3
 10
-366.308569484892590
 20
-121.383541006631100
 40
6.250000000000000
 50
270.000000000000000
 51
90.000000000000000
  0
ARC
  8
0
  6
CONTINUOUS
 62
3
 10
-373.308569484892590
 20
-128.633541006631110
 40
1.000000000000000
 50
90.000000000000000
 51
180.000000000000000
  0
ARC
  8
0
  6
CONTINUOUS
 62
3
 10
-373.308569484892590
 20
-114.133541006631100
 40
1.000000000000000
 50
180.000000000000000
 51
270.000000000000000
  0
ARC
  8
0
  6
CONTINUOUS
 62
3
 10
-329.058569484892590
 20
-203.883541006631130
 40
1.000000000000000
 50
180.000000000000000
 51
270.000000000000000
  0
ARC
  8
0
  6
CONTINUOUS
 62
3
 10
-336.308569484892590
 20
-200.383541006631130
 40
6.250000000000000
 50
0.000000000000000
 51
161.675340083705490
  0
ARC
  8
0
  6
CONTINUOUS
 62
3
 10
-343.665568909857260
 20
-197.946932818786850
 40
1.500000000000089
 50
208.401667336006680
 51
341.675340083702340
  0
LINE
  8
0
  6
CONTINUOUS
 62
3
 10
-329.694191207231600
 20
-204.883541006631130
 11
-294.308569484892590
 21
-204.883541006631130
  0
LINE
  8
0
  6
DASHDOT
 62
4
 10
-273.458175345909690
 20
-106.883541006631100
 11
-315.741311182780920
 21
-106.883541006631100
  0
LINE
  8
0
  6
CONTINUOUS
 62
3
 10
-365.308569484892590
 20
-112.383541006631100
 11
-358.958648585631520
 21
-112.383541006631100
  0
LINE
  8
0
  6
CONTINUOUS
 62
3
 10
-365.308569484892590
 20
-96.383541006631106
 11
-357.757244452697760
 21
-96.383541006631106
  0
LINE
  8
0
  6
CONTINUOUS
 62
3
 10
-347.558569484892810
 20
-61.624524479267563
 11
-347.558569484892810
 21
-62.883541006631106
  0
LINE
  8
0
  6
CONTINUOUS
 62
3
 10
-335.058569484892810
 20
-53.155206608400988
 11
-335.058569484892810
 21
-62.883541006631106
  0
LINE
  8
0
  6
CONTINUOUS
 62
3
 10
-373.308569484892590
 20
-115.133541006631100
 11
-366.308569484892590
 21
-115.133541006631100
  0
LINE
  8
0
  6
CONTINUOUS
 62
3
 10
-373.308569484892590
 20
-127.633541006631100
 11
-366.308569484892590
 21
-127.633541006631100
  0
LINE
  8
0
  6
CONTINUOUS
 62
3
 10
-330.058569484892590
 20
-200.383541006631130
 11
-330.058569484892590
 21
-203.883541006631130
  0
LINE
  8
0
  6
CONTINUOUS
 62
3
 10
-241.058569484892590
 20
-61.624524479267563
 11
-241.058569484892590
 21
-62.883541006631106
  0
LINE
  8
0
  6
CONTINUOUS
 62
3
 10
-253.558569484892590
 20
-53.155206608400988
 11
-253.558569484892590
 21
-62.883541006631106
  0
LINE
  8
0
  6
CONTINUOUS
 62
3
 10
-258.558569484892810
 20
-200.383541006631130
 11
-258.558569484892810
 21
-203.883541006631130
  0
ARC
  8
0
  6
CONTINUOUS
 62
3
 10
-244.951570059928140
 20
-197.946932818786910
 40
1.499999999999832
 50
198.324659916297660
 51
331.598332663995220
  0
ARC
  8
0
  6
CONTINUOUS
 62
3
 10
-252.308569484892810
 20
-200.383541006631130
 40
6.250000000000168
 50
18.324659916294014
 51
180.000000000000000
  0
ARC
  8
0
  6
CONTINUOUS
 62
3
 10
-238.354309572999910
 20
-201.514306371923420
 40
6.000000000000011
 50
118.526485311173740
 51
175.367233369122230
  0
ARC
  8
0
  6
CONTINUOUS
 62
3
 10
-254.558569484892590
 20
-53.155206608400988
 40
1.000000000000000
 50
0.000000000000000
 51
67.249516112927580
  0
ARC
  8
0
  6
CONTINUOUS
 62
3
 10
-247.308569484892590
 20
-62.883541006631106
 40
6.250000000000000
 50
180.000000000000000
 51
0.000000000000000
  0
ARC
  8
0
  6
CONTINUOUS
 62
3
 10
-240.058569484892810
 20
-61.624524479267563
 40
1.000000000000016
 50
52.172861259904892
 51
180.000000000000000
  0
ARC
  8
0
  6
CONTINUOUS
 62
3
 10
-259.558569484892810
 20
-203.883541006631130
 40
1.000000000000000
 50
270.000000000000000
 51
0.000000000000000
  0
ARC
  8
0
  6
CONTINUOUS
 62
3
 10
-294.308569484892590
 20
-496.883541006631110
 40
450.000000000000110
 50
87.767131757208588
 51
90.000000000000000
  0
ARC
  8
0
  6
CONTINUOUS
 62
3
 10
-252.308569484892590
 20
-200.383541006631130
 40
8.000000000000162
 50
214.228866327811770
 51
223.432536557788810
  0
ARC
  8
0
  6
CONTINUOUS
 62
3
 10
-252.308569484892590
 20
-200.383541006631130
 40
7.999999999999812
 50
316.567463442208920
 51
355.367233369121610
  0
LINE
  8
0
  6
CONTINUOUS
 62
3
 10
-209.308569484892590
 20
-206.883541006582820
 11
-209.308569484892590
 21
-194.883541006631130
  0
LINE
  8
0
  6
CONTINUOUS
 62
3
 10
-234.308569484892590
 20
-206.883541006582760
 11
-234.308569484892590
 21
-198.056672822468760
  0
LINE
  8
0
  6
CONTINUOUS
 62
3
 10
-354.308569484892590
 20
-206.883541006582760
 11
-354.308569484892590
 21
-198.056672822468640
  0
LINE
  8
0
  6
CONTINUOUS
 62
3
 10
-379.308569484892590
 20
-206.883541006582870
 11
-379.308569484892590
 21
-194.883541006631300
  0
LINE
  8
0
  6
CONTINUOUS
 62
3
 10
-209.308569484892590
 20
-206.883541006582820
 11
-234.308569484892590
 21
-206.883541006582760
  0
LINE
  8
0
  6
CONTINUOUS
 62
3
 10
-379.308569484892590
 20
-206.883541006582870
 11
-354.308569484892590
 21
-206.883541006582760
  0
LINE
  8
0
  6
CONTINUOUS
 62
3
 10
-374.308569484892590
 20
-112.175859773204300
 11
-374.308569484892590
 21
-188.967461223531670
  0
ARC
  8
0
  6
CONTINUOUS
 62
3
 10
-279.308569484892590
 20
-112.175859773204300
 40
65.000000000000000
 50
20.221019215724073
 51
87.767131757208531
  0
LINE
  8
0
  6
CONTINUOUS
 62
3
 10
-214.308569484892590
 20
-173.383541006631110
 11
-214.308569484892590
 21
-188.967461223531560
  0
ARC
  8
0
  6
CONTINUOUS
 62
3
 10
-368.308569484892590
 20
-161.870699514481710
 40
6.000000000000000
 50
180.000000000000000
 51
210.545499008666180
  0
LINE
  8
0
  6
CONTINUOUS
 62
3
 10
-373.475924577601970
 20
-164.920034088753680
 11
-365.045841163291700
 21
-179.205522742716850
  0
ARC
  8
0
  6
CONTINUOUS
 62
3
 10
-371.308569484892590
 20
-186.883541006631190
 40
3.000000000000000
 50
90.000000000000000
 51
180.000000000000000
  0
LINE
  8
0
  6
CONTINUOUS
 62
3
 10
-368.377203351789150
 20
-183.883541006631190
 11
-371.308569484892590
 21
-183.883541006631190
  0
ARC
  8
0
  6
CONTINUOUS
 62
3
 10
-217.308569484892590
 20
-186.883541006631130
 40
3.000000000000000
 50
0.000000000000000
 51
90.000000000000000
  0
POINT
  8
0
  6
CONTINUOUS
 62
3
 10
-234.308569484892590
 20
-196.643912378050150
  0
LINE
  8
0
  6
DASHDOT
 62
4
 10
-369.308569484892590
 20
-210.964044775552140
 11
-369.308569484892590
 21
-189.058242651528670
  0
LINE
  8
0
  6
CONTINUOUS
 62
3
 10
-348.308569484892590
 20
-203.883541006631190
 11
-348.308569484892590
 21
-201.489414469118430
  0
LINE
  8
0
  6
CONTINUOUS
 62
3
 10
-359.237855370133050
 20
-192.570887532953550
 11
-355.397644601312090
 21
-195.744019348791110
  0
LINE
  8
0
  6
CONTINUOUS
 62
3
 10
-229.379283599652130
 20
-192.570887532953550
 11
-233.219494368473310
 21
-195.744019348791230
  0
LINE
  8
0
  6
CONTINUOUS
 62
3
 10
-227.468358716071860
 20
-191.883541006631190
 11
-212.308569484892590
 21
-191.883541006631130
  0
LINE
  8
0
  6
CONTINUOUS
 62
3
 10
-220.239935617996250
 20
-183.883541006631190
 11
-217.308569484892590
 21
-183.883541006631130
  0
LINE
  8
0
  6
CONTINUOUS
 62
3
 10
-361.148780253713540
 20
-191.883541006631190
 11
-376.308569484892590
 21
-191.883541006631300
  0
ARC
  8
0
  6
CONTINUOUS
 62
3
 10
-368.377203351789150
 20
-186.883541006631190
 40
3.000000000000094
 50
35.871332206149205
 51
90.000000000000000
  0
ARC
  8
0
  6
CONTINUOUS
 62
3
 10
-350.308569484892590
 20
-201.489414469118430
 40
2.000000000000000
 50
0.000000000000000
 51
61.416136725164009
  0
ARC
  8
0
  6
CONTINUOUS
 62
3
 10
-325.429452119186640
 20
-155.827291006631240
 40
50.000000000000021
 50
233.757622303339590
 51
241.416136725165440
  0
ARC
  8
0
  6
CONTINUOUS
 62
3
 10
-238.308569484892590
 20
-201.489414469118430
 40
1.999999999999946
 50
118.583863274835990
 51
180.000000000000000
  0
ARC
  8
0
  6
CONTINUOUS
 62
3
 10
-263.187686850598540
 20
-155.827291006631240
 40
49.999999999999957
 50
313.177740916957080
 51
324.128667793851090
  0
ARC
  8
0
  6
CONTINUOUS
 62
3
 10
-220.239935617996250
 20
-186.883541006631190
 40
3.000000000000000
 50
90.000000000000000
 51
144.128667793850780
  0
ARC
  8
0
  6
CONTINUOUS
 62
3
 10
-325.429452119186640
 20
-155.827291006631240
 40
49.999999999999979
 50
215.871332206148760
 51
226.822259083042950
  0
ARC
  8
0
  6
CONTINUOUS
 62
3
 10
-361.148780253713540
 20
-194.883541006631190
 40
3.000000000000064
 50
50.433381962096959
 51
90.000000000000000
  0
ARC
  8
0
  6
CONTINUOUS
 62
3
 10
-357.308569484892590
 20
-198.056672822468640
 40
3.000000000000000
 50
0.000000000000000
 51
50.433381962095574
  0
ARC
  8
0
  6
CONTINUOUS
 62
3
 10
-227.468358716071860
 20
-194.883541006631300
 40
3.000000000000000
 50
90.000000000000000
 51
129.566618037898310
  0
ARC
  8
0
  6
CONTINUOUS
 62
3
 10
-231.308569484892590
 20
-198.056672822468760
 40
3.000000000000121
 50
129.566618037907770
 51
180.000000000000000
  0
ARC
  8
0
  6
CONTINUOUS
 62
3
 10
-263.187686850598540
 20
-155.827291006631240
 40
50.000000000000000
 50
298.583863274834580
 51
306.242377696660180
  0
ARC
  8
0
  6
CONTINUOUS
 62
3
 10
-212.308569484892590
 20
-194.883541006631130
 40
3.000000000000000
 50
0.000000000000000
 51
90.000000000000000
  0
ARC
  8
0
  6
CONTINUOUS
 62
3
 10
-376.308569484892590
 20
-194.883541006631300
 40
3.000000000000000
 50
90.000000000000000
 51
180.000000000000000
  0
ARC
  8
0
  6
CONTINUOUS
 62
3
 10
-263.187686850598540
 20
-155.827291006631240
 40
46.000000000000028
 50
298.241217900780500
 51
300.661052610439700
  0
LINE
  8
0
  6
CONTINUOUS
 62
3
 10
-220.135658126210250
 20
-173.383541006631110
 11
-223.571297806493700
 21
-179.205522742717020
  0
ARC
  8
0
  6
CONTINUOUS
 62
3
 10
-336.308569484892590
 20
-200.383541006631190
 40
7.999999999999921
 50
184.632766630877600
 51
223.432536557789920
  0
LINE
  8
0
  6
CONTINUOUS
 62
3
 10
-353.308569484892590
 20
-205.883541006631190
 11
-330.499094465581490
 21
-205.883541006631190
  0
ARC
  8
0
  6
CONTINUOUS
 62
3
 10
-350.262829396785260
 20
-201.514306371923370
 40
6.000000000000056
 50
4.632766630877777
 51
61.473514688826256
  0
ARC
  8
0
  6
CONTINUOUS
 62
3
 10
-350.308569484892590
 20
-203.883541006631190
 40
2.000000000000000
 50
270.000000000000000
 51
0.000000000000000
  0
ARC
  8
0
  6
CONTINUOUS
 62
3
 10
-336.308569484892590
 20
-200.383541006631190
 40
7.999999999999977
 50
316.567463442210060
 51
325.771133672187320
  0
LINE
  8
0
  6
CONTINUOUS
 62
3
 10
-258.922947762554030
 20
-204.883541006631190
 11
-294.308569484892590
 21
-204.883541006631190
  0
LINE
  8
0
  6
CONTINUOUS
 62
3
 10
-235.308569484892590
 20
-205.883541006631190
 11
-258.118044504203680
 21
-205.883541006631190
  0
ARC
  8
0
  6
CONTINUOUS
 62
3
 10
-252.308569484892590
 20
-200.383541006631190
 40
7.999999999999973
 50
214.228866327812710
 51
223.432536557789920
  0
ARC
  8
0
  6
CONTINUOUS
 62
3
 10
-235.308569484892590
 20
-206.883541006631190
 40
1.000000000000000
 50
0.000000000000000
 51
90.000000000000000
  0
ARC
  8
0
  6
CONTINUOUS
 62
3
 10
-238.308569484892590
 20
-203.883541006631190
 40
2.000000000000000
 50
180.000000000000000
 51
270.000000000000000
  0
LINE
  8
0
  6
CONTINUOUS
 62
3
 10
-240.308569484892590
 20
-203.883541006631190
 11
-240.308569484892590
 21
-201.489414469118430
  0
ARC
  8
0
  6
CONTINUOUS
 62
3
 10
-252.308569484892590
 20
-200.383541006631190
 40
7.999999999999977
 50
316.567463442210060
 51
355.367233369122400
  0
ARC
  8
0
  6
CONTINUOUS
 62
3
 10
-238.354309572999910
 20
-201.514306371923370
 40
6.000000000000011
 50
118.526485311173740
 51
175.367233369122230
  0
ARC
  8
0
  6
CONTINUOUS
 62
3
 10
-325.429452119186640
 20
-155.827291006631240
 40
46.000000000000092
 50
210.545499008666440
 51
219.301285481804230
  0
ARC
  8
0
  6
CONTINUOUS
 62
3
 10
-220.239935617996030
 20
-186.883541006631190
 40
3.000000000000000
 50
90.000000000000000
 51
144.128667793850780
  0
ARC
  8
0
  6
CONTINUOUS
 62
3
 10
-217.308569484892590
 20
-186.883541006631130
 40
3.000000000000000
 50
0.000000000000000
 51
90.000000000000000
  0
ARC
  8
0
  6
CONTINUOUS
 62
3
 10
-212.308569484892590
 20
-194.883541006631250
 40
3.000000000000000
 50
0.000000000000000
 51
90.000000000000000
  0
ARC
  8
0
  6
CONTINUOUS
 62
3
 10
-227.468358716071630
 20
-194.883541006631190
 40
3.000000000000000
 50
90.000000000000000
 51
129.566618037903050
  0
LINE
  8
0
  6
DASHDOT
 62
4
 10
-219.308569484892590
 20
-210.964044775552080
 11
-219.308569484892590
 21
-189.058242651528620
  0
ARC
  8
0
  6
CONTINUOUS
 62
3
 10
-238.308569484892590
 20
-203.883541006631190
 40
2.000000000000000
 50
180.000000000000000
 51
270.000000000000000
  0
ARC
  8
0
  6
CONTINUOUS
 62
3
 10
-231.308569484892590
 20
-198.056672822468640
 40
2.999999999999976
 50
129.566618037904420
 51
180.000000000000000
  0
ARC
  8
0
  6
CONTINUOUS
 62
3
 10
-325.429452119186640
 20
-155.827291006631240
 40
49.999999999999886
 50
233.757622303339820
 51
241.416136725165440
  0
POINT
  8
0
  6
CONTINUOUS
 62
3
 10
-354.308569484892590
 20
-196.643912378050150
  0
ARC
  8
0
  6
CONTINUOUS
 62
3
 10
-371.308569484892590
 20
-186.883541006631190
 40
3.000000000000000
 50
90.000000000000000
 51
180.000000000000000
  0
LINE
  8
0
  6
CONTINUOUS
 62
3
 10
-368.377203351788920
 20
-183.883541006631190
 11
-371.308569484892590
 21
-183.883541006631190
  0
ARC
  8
0
  6
CONTINUOUS
 62
3
 10
-263.187686850598540
 20
-155.827291006631240
 40
45.999999999999950
 50
298.526485311172960
 51
329.454500991333250
  0
POINT
  8
0
  6
CONTINUOUS
 62
3
 10
-234.308569484892590
 20
-196.643912378050260
  0
POINT
  8
0
  6
CONTINUOUS
 62
3
 10
-294.308569484892590
 20
-106.883541006631210
  0
POINT
  8
0
  6
CONTINUOUS
 62
3
 10
-294.308569484892590
 20
-126.883541006631210
  0
POINT
  8
0
  6
CONTINUOUS
 62
3
 10
-354.308569484892590
 20
-196.643912378050260
  0
ARC
  8
0
  6
CONTINUOUS
 62
3
 10
-353.308569484892590
 20
-206.883541006631190
 40
1.000000000000000
 50
90.000000000000000
 51
180.000000000000000
  0
LINE
  8
0
  6
CONTINUOUS
 62
3
 10
-209.308569484892590
 20
-206.383541006582820
 11
-234.442544081136020
 21
-206.383541006582760
  0
LINE
  8
0
  6
CONTINUOUS
 62
3
 10
-379.308569484892590
 20
-206.383541006582870
 11
-354.174594888648930
 21
-206.383541006582760
  0
ARC
  8
0
  6
CONTINUOUS
 62
3
 10
-377.308569484892590
 20
-188.967461223531670
 40
3.000000000000036
 50
279.594068226860320
 51
0.000000000000000
  0
ARC
  8
0
  6
CONTINUOUS
 62
3
 10
-211.308569484892590
 20
-188.967461223531560
 40
3.000000000000000
 50
180.000000000000000
 51
260.405931773139460
  0
POINT
  8
0
  6
CONTINUOUS
 62
3
 10
205.874914599366780
 20
-180.457333693084110
  0
LINE
  8
0
  6
DASHDOT
 62
4
 10
229.603212906953560
 20
-159.001017226925540
 11
229.603212906953560
 21
-181.869526402689160
  0
LINE
  8
0
  6
CONTINUOUS
 62
3
 10
242.103212906953560
 20
-108.429898113464530
 11
206.580578165493080
 21
-188.215042048741650
  0
LINE
  8
0
  6
CONTINUOUS
 62
3
 10
208.532914052257180
 20
-183.830023852057110
 11
212.050064064181240
 21
-185.395959927898930
  0
LINE
  8
0
  6
CONTINUOUS
 62
3
 10
210.159860624560450
 20
-180.175842021487110
 11
213.677010636484280
 21
-181.741778097328930
  0
LINE
  8
0
  6
CONTINUOUS
 62
3
 10
229.727503884149880
 20
-126.883541006631260
 11
203.515842069527030
 21
-185.755897347411260
  0
LINE
  8
0
  6
CONTINUOUS
 62
3
 10
242.103212906953560
 20
-173.383541006631250
 11
213.183987875624780
 21
-173.383541006631250
  0
LINE
  8
0
  6
CONTINUOUS
 62
3
 10
207.298492850132330
 20
-177.259924591334960
 11
206.404108730455850
 21
-176.861719125570720
  0
LINE
  8
0
  6
CONTINUOUS
 62
3
 10
204.451336348601440
 20
-183.654742794833250
 11
203.556952228924960
 21
-183.256537329068780
  0
LINE
  8
0
  6
CONTINUOUS
 62
3
 10
207.298492850132330
 20
-177.259924591334960
 11
204.451336348601440
 21
-183.654742794833250
  0
LINE
  8
0
  6
CONTINUOUS
 62
3
 10
207.298492850132330
 20
-177.259924591334960
 11
204.451336348601440
 21
-183.654742794833250
  0
LINE
  8
0
  6
CONTINUOUS
 62
3
 10
213.854393721582710
 20
-182.203876832580330
 11
212.512162799432640
 21
-185.218576842800500
  0
LINE
  8
0
  6
CONTINUOUS
 62
3
 10
212.050064064181240
 20
-185.395959927898930
 11
212.512162799432640
 21
-185.218576842800500
  0
LINE
  8
0
  6
CONTINUOUS
 62
3
 10
213.677010636484280
 20
-181.741778097328930
 11
213.854393721582710
 21
-182.203876832580330
  0
LINE
  8
0
  6
CONTINUOUS
 62
4
 10
210.017502799483960
 20
-180.495582931662030
 11
213.854393721582710
 21
-182.203876832580330
  0
LINE
  8
0
  6
CONTINUOUS
 62
4
 10
208.675271877333440
 20
-183.510282941882650
 11
212.512162799432420
 21
-185.218576842800960
  0
LINE
  8
0
  6
CONTINUOUS
 62
3
 10
204.022650884093310
 20
-187.076179448129520
 11
206.580578165493080
 21
-188.215042048741650
  0
ARC
  8
0
  6
CONTINUOUS
 62
3
 10
211.721605179789550
 20
-183.060448053611910
 40
9.000000000000075
 50
139.398468892516490
 51
172.601548410321070
  0
ARC
  8
0
  6
CONTINUOUS
 62
3
 10
204.085709554608230
 20
-182.068928931113280
 40
1.299999237060687
 50
172.601548410320760
 51
246.000017986079880
  0
ARC
  8
0
  6
CONTINUOUS
 62
3
 10
205.423613653556460
 20
-158.275397275920310
 40
1.000000000000008
 50
2.994076090848812
 51
56.047873053604029
  0
ARC
  8
0
  6
CONTINUOUS
 62
3
 10
206.540613678168940
 20
-156.616388250925160
 40
0.999999999999988
 50
182.841389015366990
 51
236.047873053618590
  0
ARC
  8
0
  6
CONTINUOUS
 62
3
 10
805.603212906953560
 20
-126.883541006631560
 40
600.799999999999950
 50
179.412192132293110
 51
182.841389015363320
  0
ARC
  8
0
  6
CONTINUOUS
 62
3
 10
209.233199310534470
 20
-171.006175594868380
 40
2.000000000000632
 50
184.231338074886000
 51
245.999999999972630
  0
ARC
  8
0
  6
CONTINUOUS
 62
3
 10
207.808525643255050
 20
-173.655778846509950
 40
1.000000000000041
 50
335.999999999996420
 51
66.000000000020236
  0
ARC
  8
0
  6
CONTINUOUS
 62
3
 10
204.429387527169640
 20
-186.162633990486910
 40
0.999999999999948
 50
156.000000000008300
 51
245.999999999972630
  0
ARC
  8
0
  6
CONTINUOUS
 62
3
 10
206.637163914641860
 20
-176.286700364517830
 40
1.000000000000041
 50
335.999999999996420
 51
4.715124834083239
  0
ARC
  8
0
  6
CONTINUOUS
 62
3
 10
805.603212906953560
 20
-126.883541006631560
 40
600.000000000001140
 50
178.317231198866840
 51
184.715124834091600
  0
ARC
  8
0
  6
CONTINUOUS
 62
3
 10
205.875351404772800
 20
-178.049327523526220
 40
1.299999237060620
 50
65.999999316753915
 51
139.398468892516150
  0
ARC
  8
0
  6
CONTINUOUS
 62
3
 10
307.103212906953560
 20
-112.175859773204360
 40
43.485521792586013
 50
92.232868242790914
 51
180.000000000000000
  0
ARC
  8
0
  6
CONTINUOUS
 62
3
 10
307.103212906953560
 20
-112.175859773204360
 40
65.000000000000142
 50
92.232868242791668
 51
180.000000000000000
  0
ARC
  8
0
  6
CONTINUOUS
 62
3
 10
240.103212906953560
 20
-194.883541006631280
 40
3.000000000000000
 50
90.000000000000000
 51
180.000000000000000
  0
ARC
  8
0
  6
CONTINUOUS
 62
3
 10
280.103212906953560
 20
-200.383541006631280
 40
7.999999999999812
 50
316.567463442208920
 51
325.771133672186410
  0
ARC
  8
0
  6
CONTINUOUS
 62
3
 10
263.103212906953560
 20
-206.883541006631280
 40
1.000000000000000
 50
90.000000000000000
 51
180.000000000000000
  0
ARC
  8
0
  6
CONTINUOUS
 62
3
 10
239.103212906953560
 20
-188.967461223531700
 40
2.999999999999980
 50
279.594068226860540
 51
0.000000000000000
  0
ARC
  8
0
  6
CONTINUOUS
 62
3
 10
244.326763556236070
 20
-188.883541006631280
 40
3.000000000000000
 50
270.000000000000000
 51
0.000000000000000
  0
ARC
  8
0
  6
CONTINUOUS
 62
3
 10
257.277763556236100
 20
-188.883541006631280
 40
3.000000000000000
 50
270.000000000000000
 51
0.000000000000000
  0
ARC
  8
0
  6
CONTINUOUS
 62
3
 10
260.617691114367520
 20
-188.883541006631280
 40
3.000000000000000
 50
270.000000000000000
 51
0.000000000000000
  0
ARC
  8
0
  6
CONTINUOUS
 62
3
 10
274.103212906953560
 20
-110.383541006631270
 40
3.500000000000000
 50
90.000000000000000
 51
180.000000000000000
  0
ARC
  8
0
  6
CONTINUOUS
 62
3
 10
277.603212906953560
 20
-177.483541006631300
 40
7.000000000000000
 50
180.000000000000000
 51
270.000000000000000
  0
ARC
  8
0
  6
CONTINUOUS
 62
3
 10
205.834777353679780
 20
-120.730191188983310
 40
1.000000000000128
 50
126.205708094041610
 51
179.412192132278280
  0
ARC
  8
0
  6
CONTINUOUS
 62
3
 10
204.653405237403380
 20
-119.116388250925160
 40
0.999999999999994
 50
306.205708094031080
 51
359.259505056807090
  0
ARC
  8
0
  6
CONTINUOUS
 62
3
 10
220.855501892394390
 20
-109.704645138896450
 40
15.000000000000041
 50
99.318123119675519
 51
178.317231198866920
  0
ARC
  8
0
  6
CONTINUOUS
 62
3
 10
243.896651643300170
 20
-87.683334077970358
 40
3.000000000000022
 50
279.318123119682530
 51
317.526034232472450
  0
LINE
  8
0
  6
CONTINUOUS
 62
3
 10
237.103212906953560
 20
-194.883541006631280
 11
237.103212906953560
 21
-206.883541006631280
  0
LINE
  8
0
  6
CONTINUOUS
 62
3
 10
262.103212906953560
 20
-206.883541006631280
 11
237.103212906953560
 21
-206.883541006631280
  0
LINE
  8
0
  6
CONTINUOUS
 62
3
 10
263.617691114367520
 20
-112.175859773204360
 11
263.617691114367520
 21
-188.883541006631280
  0
LINE
  8
0
  6
CONTINUOUS
 62
3
 10
242.103212906953560
 20
-112.175859773204360
 11
242.103212906953560
 21
-188.967461223531700
  0
LINE
  8
0
  6
CONTINUOUS
 62
3
 10
247.326763556236070
 20
-188.883541006631280
 11
247.326763556235620
 21
-106.883540530643470
  0
LINE
  8
0
  6
CONTINUOUS
 62
3
 10
260.277763556236100
 20
-188.883541006631280
 11
260.277763556235640
 21
-106.883541006631270
  0
LINE
  8
0
  6
DASHDOT
 62
4
 10
303.257863830589490
 20
-126.883541006631270
 11
341.302955525668950
 21
-126.883541006631270
  0
LINE
  8
0
  6
DASHDOT
 62
4
 10
247.103212906953560
 20
-210.964044775552220
 11
247.103212906953560
 21
-188.879003350294740
  0
LINE
  8
0
  6
CONTINUOUS
 62
3
 10
322.103212906953560
 20
-191.883541006631280
 11
240.103212906953560
 21
-191.883541006631280
  0
LINE
  8
0
  6
CONTINUOUS
 62
3
 10
322.103212906953560
 20
-204.883541006631280
 11
286.717591184614780
 21
-204.883541006631280
  0
LINE
  8
0
  6
CONTINUOUS
 62
3
 10
263.103212906953560
 20
-205.883541006631280
 11
285.912687926264430
 21
-205.883541006631280
  0
LINE
  8
0
  6
DASHDOT
 62
4
 10
412.375771849019660
 20
-106.883541006631270
 11
190.823505464348270
 21
-106.883541006631270
  0
LINE
  8
0
  6
CONTINUOUS
 62
3
 10
322.103212906953560
 20
-184.483541006631300
 11
277.603212906953560
 21
-184.483541006631300
  0
LINE
  8
0
  6
CONTINUOUS
 62
3
 10
270.603212906953560
 20
-110.383541006631270
 11
270.603212906953560
 21
-177.483541006631300
  0
LINE
  8
0
  6
CONTINUOUS
 62
3
 10
274.103212906953560
 20
-106.883541006631270
 11
290.666769087717060
 21
-106.883541006631270
  0
LINE
  8
0
  6
CONTINUOUS
 62
3
 10
308.603212906953560
 20
-109.883541006631390
 11
314.603212906953560
 21
-109.883541006631390
  0
LINE
  8
0
  6
CONTINUOUS
 62
3
 10
308.603212906953560
 20
-109.883541006631390
 11
308.603212906953560
 21
-103.883541006631390
  0
LINE
  8
0
  6
CONTINUOUS
 62
3
 10
308.603212906953560
 20
-103.883541006631390
 11
314.603212906953560
 21
-103.883541006631390
  0
LINE
  8
0
  6
CONTINUOUS
 62
3
 10
244.382399533738860
 20
-90.643747729292500
 11
218.426762440202760
 21
-94.902576882285516
  0
LINE
  8
0
  6
CONTINUOUS
 62
3
 10
245.473211563825090
 20
-91.518102526930505
 11
229.727503884146700
 21
-126.883541006631260
  0
LINE
  8
0
  6
CONTINUOUS
 62
3
 10
-90.659294935325079
 20
-73.143425906193499
 11
-92.659294935325079
 21
-74.796067545316930
  0
LINE
  8
0
  6
CONTINUOUS
 62
3
 10
-88.659294935325079
 20
-71.967640420570717
 11
-90.659294935325079
 21
-73.143425906193499
  0
LINE
  8
0
  6
CONTINUOUS
 62
3
 10
-90.659294935325079
 20
-73.143425906193499
 11
-88.659294935325079
 21
-74.796067545316930
  0
LINE
  8
0
  6
CONTINUOUS
 62
3
 10
-92.659294935325079
 20
-71.967640420570717
 11
-90.659294935325079
 21
-73.143425906193499
  0
POLYLINE
  8
0
  6
CONTINUOUS
 62
3
 66
1
 70
1
  0
VERTEX
  8
0
  6
CONTINUOUS
 62
3
 10
-85.959294935325090
 20
-74.960015974571036
  0
VERTEX
  8
0
  6
CONTINUOUS
 62
3
 10
-86.049604117429908
 20
-74.257059008370675
  0
VERTEX
  8
0
  6
CONTINUOUS
 62
3
 10
-86.317061132522042
 20
-73.581116284158583
  0
VERTEX
  8
0
  6
CONTINUOUS
 62
3
 10
-86.751387757503124
 20
-72.958163901753181
  0
VERTEX
  8
0
  6
CONTINUOUS
 62
3
 10
-87.335893063748316
 20
-72.412141571854605
  0
VERTEX
  8
0
  6
CONTINUOUS
 62
3
 10
-88.048114840132953
 20
-71.964032626387990
  0
VERTEX
  8
0
  6
CONTINUOUS
 62
3
 10
-88.860682803209158
 20
-71.631057640825219
  0
VERTEX
  8
0
  6
CONTINUOUS
 62
3
 10
-89.742370421849273
 20
-71.426012657126975
  0
VERTEX
  8
0
  6
CONTINUOUS
 62
3
 10
-90.659294935325079
 20
-71.356777439026203
  0
VERTEX
  8
0
  6
CONTINUOUS
 62
3
 10
-91.576219448800884
 20
-71.426012657126975
  0
VERTEX
  8
0
  6
CONTINUOUS
 62
3
 10
-92.457907067440999
 20
-71.631057640825219
  0
VERTEX
  8
0
  6
CONTINUOUS
 62
3
 10
-93.270475030517204
 20
-71.964032626387990
  0
VERTEX
  8
0
  6
CONTINUOUS
 62
3
 10
-93.982696806901842
 20
-72.412141571854605
  0
VERTEX
  8
0
  6
CONTINUOUS
 62
3
 10
-94.567202113147033
 20
-72.958163901753181
  0
VERTEX
  8
0
  6
CONTINUOUS
 62
3
 10
-95.001528738128115
 20
-73.581116284158583
  0
VERTEX
  8
0
  6
CONTINUOUS
 62
3
 10
-95.268985753220250
 20
-74.257059008370675
  0
VERTEX
  8
0
  6
CONTINUOUS
 62
3
 10
-95.359294935325067
 20
-74.960015974571036
  0
VERTEX
  8
0
  6
CONTINUOUS
 62
3
 10
-95.268985753220250
 20
-75.662972940771397
  0
VERTEX
  8
0
  6
CONTINUOUS
 62
3
 10
-95.001528738128115
 20
-76.338915664983489
  0
VERTEX
  8
0
  6
CONTINUOUS
 62
3
 10
-94.567202113147033
 20
-76.961868047388890
  0
VERTEX
  8
0
  6
CONTINUOUS
 62
3
 10
-93.982696806901842
 20
-77.507890377287467
  0
VERTEX
  8
0
  6
CONTINUOUS
 62
3
 10
-93.270475030517204
 20
-77.955999322754082
  0
VERTEX
  8
0
  6
CONTINUOUS
 62
3
 10
-92.457907067440999
 20
-78.288974308316853
  0
VERTEX
  8
0
  6
CONTINUOUS
 62
3
 10
-91.576219448800884
 20
-78.494019292015096
  0
VERTEX
  8
0
  6
CONTINUOUS
 62
3
 10
-90.659294935325079
 20
-78.563254510115868
  0
VERTEX
  8
0
  6
CONTINUOUS
 62
3
 10
-89.742370421849273
 20
-78.494019292015096
  0
VERTEX
  8
0
  6
CONTINUOUS
 62
3
 10
-88.860682803209158
 20
-78.288974308316853
  0
VERTEX
  8
0
  6
CONTINUOUS
 62
3
 10
-88.048114840132953
 20
-77.955999322754082
  0
VERTEX
  8
0
  6
CONTINUOUS
 62
3
 10
-87.335893063748316
 20
-77.507890377287467
  0
VERTEX
  8
0
  6
CONTINUOUS
 62
3
 10
-86.751387757503124
 20
-76.961868047388890
  0
VERTEX
  8
0
  6
CONTINUOUS
 62
3
 10
-86.317061132522042
 20
-76.338915664983489
  0
VERTEX
  8
0
  6
CONTINUOUS
 62
3
 10
-86.049604117429908
 20
-75.662972940771397
  0
SEQEND
  8
0
  6
CONTINUOUS
 62
3
  0
ARC
  8
0
  6
CONTINUOUS
 62
3
 10
-128.059294935275370
 20
-174.326746063876560
 40
2.600000000000136
 50
180.000000000000000
 51
234.999999999998610
  0
LINE
  8
0
  6
CONTINUOUS
 62
3
 10
-119.824847884766990
 20
-183.266581892410900
 11
-129.550593669787990
 21
-176.456541379027670
  0
ARC
  8
0
  6
CONTINUOUS
 62
3
 10
-108.353319157746000
 20
-166.883541006631110
 40
20.000000000000007
 50
234.999999999999740
 51
270.000000000000000
  0
LINE
  8
0
  6
CONTINUOUS
 62
3
 10
-130.659294935275510
 20
-126.883541006631100
 11
-130.659294935275510
 21
-174.326746063876560
  0
LINE
  8
0
  6
CONTINUOUS
 62
3
 10
-93.705184098455220
 20
-186.883541006631110
 11
-108.353319157746000
 21
-186.883541006631110
  0
LINE
  8
0
  6
CONTINUOUS
 62
3
 10
17.340705064674239
 20
-185.383541006631110
 11
17.340705064674239
 21
-126.883541006631100
  0
LINE
  8
0
  6
CONTINUOUS
 62
3
 10
17.340705064674239
 20
-185.383541006631110
 11
-11.219741157235603
 21
-185.383541006631110
  0
LINE
  8
0
  6
DASHDOT
 62
4
 10
60.000000000000000
 20
-126.883541006631100
 11
-140.588507473672280
 21
-126.883541006631100
  0
LINE
  8
0
  6
CONTINUOUS
 62
4
 10
-7.209294935327080
 20
-158.634332723005460
 11
39.840705064674239
 21
-158.634332723005460
  0
LINE
  8
0
  6
CONTINUOUS
 62
4
 10
-7.209294935327080
 20
-162.598078146804990
 11
39.840705064674239
 21
-162.598078146804990
  0
LINE
  8
0
  6
CONTINUOUS
 62
4
 10
-7.209294935327080
 20
-164.202726062367050
 11
39.840705064674239
 21
-164.202726062367050
  0
LINE
  8
0
  6
CONTINUOUS
 62
4
 10
-7.209294935327080
 20
-172.249327725100840
 11
39.840705064674239
 21
-172.249327725100840
  0
LINE
  8
0
  6
CONTINUOUS
 62
4
 10
-7.209294935327080
 20
-177.199075193406600
 11
39.840705064674239
 21
-177.199075193406600
  0
LINE
  8
0
  6
CONTINUOUS
 62
4
 10
-8.408219488046598
 20
-181.883541006631110
 11
39.840705064674239
 21
-181.883541006631110
  0
LINE
  8
0
  6
CONTINUOUS
 62
4
 10
-8.985775900892122
 20
-182.883541006631110
 11
39.840705064674239
 21
-182.883541006631110
  0
LINE
  8
0
  6
CONTINUOUS
 62
4
 10
-10.156864335717160
 20
-184.383541006631110
 11
39.840705064674239
 21
-184.383541006631110
  0
LINE
  8
0
  6
CONTINUOUS
 62
4
 10
-9.718975339818030
 20
-183.883541006631110
 11
39.840705064674239
 21
-183.883541006631110
  0
LINE
  8
0
  6
CONTINUOUS
 62
4
 10
-7.209294935327080
 20
-146.883541006631110
 11
39.840705064674239
 21
-146.883541006631110
  0
LINE
  8
0
  6
CONTINUOUS
 62
4
 10
-7.209294935327080
 20
-153.075474799110740
 11
39.840705064674239
 21
-153.075474799110740
  0
LINE
  8
0
  6
CONTINUOUS
 62
4
 10
-7.209294935327080
 20
-151.713594463761470
 11
39.840705064674239
 21
-151.713594463761470
  0
LINE
  8
0
  6
CONTINUOUS
 62
4
 10
-7.209294935327080
 20
-157.165975333200380
 11
39.840705064674239
 21
-157.165975333200380
  0
ARC
  8
0
  6
CONTINUOUS
 62
3
 10
-128.059294935275370
 20
-79.440335949385656
 40
2.599999999999721
 50
125.000000000001370
 51
180.000000000000000
  0
LINE
  8
0
  6
CONTINUOUS
 62
3
 10
-119.824847884766990
 20
-70.500500120851314
 11
-129.550593669787990
 21
-77.310540634234542
  0
ARC
  8
0
  6
CONTINUOUS
 62
3
 10
-108.353319157746000
 20
-86.883541006631106
 40
20.000000000000000
 50
90.000000000000000
 51
125.000000000000240
  0
LINE
  8
0
  6
CONTINUOUS
 62
3
 10
-130.659294935275510
 20
-126.883541006631100
 11
-130.659294935275510
 21
-79.440335949385656
  0
LINE
  8
0
  6
CONTINUOUS
 62
3
 10
-79.659294935325647
 20
-66.883541006631106
 11
-108.353319157746000
 21
-66.883541006631106
  0
LINE
  8
0
  6
CONTINUOUS
 62
3
 10
17.340705064674239
 20
-68.383541006631106
 11
17.340705064674239
 21
-126.883541006631100
  0
LINE
  8
0
  6
CONTINUOUS
 62
3
 10
17.340705064674239
 20
-68.383541006631106
 11
-79.659294935325647
 21
-68.383541006631106
  0
LINE
  8
0
  6
CONTINUOUS
 62
3
 10
-79.659294935325647
 20
-84.286933366025153
 11
-79.659294935325647
 21
-66.883541006631106
  0
LINE
  8
0
  6
CONTINUOUS
 62
4
 10
-7.209294935327080
 20
-95.132749290256754
 11
39.840705064674239
 21
-95.132749290256754
  0
LINE
  8
0
  6
CONTINUOUS
 62
4
 10
-8.009164708874550
 20
-91.169003866457217
 11
39.840705064674239
 21
-91.169003866457217
  0
LINE
  8
0
  6
CONTINUOUS
 62
4
 10
-8.815035638935115
 20
-89.564355950895163
 11
39.840705064674239
 21
-89.564355950895163
  0
LINE
  8
0
  6
CONTINUOUS
 62
4
 10
-79.659294935325647
 20
-81.517754288161370
 11
39.840705064674239
 21
-81.517754288161370
  0
LINE
  8
0
  6
CONTINUOUS
 62
4
 10
-79.659294935325647
 20
-76.568006819855611
 11
39.840705064674239
 21
-76.568006819855611
  0
LINE
  8
0
  6
CONTINUOUS
 62
4
 10
-79.659294935325647
 20
-71.883541006631106
 11
39.840705064674239
 21
-71.883541006631106
  0
LINE
  8
0
  6
CONTINUOUS
 62
4
 10
-79.659294935325647
 20
-70.883541006631106
 11
39.840705064674239
 21
-70.883541006631106
  0
LINE
  8
0
  6
CONTINUOUS
 62
4
 10
-79.659294935325647
 20
-69.383541006631106
 11
39.840705064674239
 21
-69.383541006631106
  0
LINE
  8
0
  6
CONTINUOUS
 62
4
 10
-79.659294935325647
 20
-69.883541006631106
 11
39.840705064674239
 21
-69.883541006631106
  0
LINE
  8
0
  6
CONTINUOUS
 62
4
 10
-7.209294935327080
 20
-106.883541006631100
 11
38.840705064673784
 21
-106.883541006631100
  0
LINE
  8
0
  6
CONTINUOUS
 62
4
 10
-7.209294935327080
 20
-100.691607214151470
 11
38.840705064673784
 21
-100.691607214151470
  0
LINE
  8
0
  6
CONTINUOUS
 62
4
 10
-7.209294935327080
 20
-102.053487549500740
 11
38.840705064673784
 21
-102.053487549500740
  0
LINE
  8
0
  6
CONTINUOUS
 62
4
 10
-7.209294935327080
 20
-96.601106680061832
 11
38.840705064673784
 21
-96.601106680061832
  0
LINE
  8
0
  6
CONTINUOUS
 62
3
 10
-100.109294935324660
 20
-95.286933366025153
 11
-100.109294935324660
 21
-176.889652734280900
  0
LINE
  8
0
  6
CONTINUOUS
 62
3
 10
-93.709294935325033
 20
-95.381751569523715
 11
-93.709294935325033
 21
-171.459495776183810
  0
ARC
  8
0
  6
CONTINUOUS
 62
4
 10
-88.709294935325033
 20
-101.883541006630870
 40
5.000000000000000
 50
90.000000000000000
 51
180.000000000000000
  0
LINE
  8
0
  6
CONTINUOUS
 62
4
 10
-53.659294935325761
 20
-96.883541006630878
 11
-88.709294935325033
 21
-96.883541006630878
  0
ARC
  8
0
  6
CONTINUOUS
 62
3
 10
-88.709294935325033
 20
-95.381751569523715
 40
5.000000000000000
 50
90.000000000000000
 51
180.000000000000000
  0
LINE
  8
0
  6
CONTINUOUS
 62
3
 10
-53.659294935325761
 20
-90.381751569523715
 11
-88.709294935325033
 21
-90.381751569523715
  0
ARC
  8
0
  6
CONTINUOUS
 62
3
 10
-89.109294935324669
 20
-95.286933366025153
 40
11.000000000000000
 50
90.000000000000000
 51
180.000000000000000
  0
LINE
  8
0
  6
CONTINUOUS
 62
3
 10
-89.109294935324669
 20
-84.286933366025153
 11
-53.659294935325761
 21
-84.286933366025153
  0
LINE
  8
0
  6
CONTINUOUS
 62
4
 10
-75.309930029935913
 20
-157.616388250925010
 11
-60.876173300195205
 21
-157.616388250925010
  0
LINE
  8
0
  6
CONTINUOUS
 62
4
 10
-53.659294935325761
 20
-145.116388250925010
 11
-60.876173300195205
 21
-157.616388250925010
  0
LINE
  8
0
  6
CONTINUOUS
 62
4
 10
-68.093051665065559
 20
-145.116388250925010
 11
-75.309930029935913
 21
-157.616388250925010
  0
LINE
  8
0
  6
CONTINUOUS
 62
4
 10
-68.093051665065559
 20
-145.116388250925010
 11
-53.659294935325761
 21
-145.116388250925010
  0
LINE
  8
0
  6
CONTINUOUS
 62
4
 10
-60.876173300196115
 20
-132.616388250925240
 11
-53.659294935325761
 21
-145.116388250925010
  0
LINE
  8
0
  6
CONTINUOUS
 62
4
 10
-53.659294935325761
 20
-120.116388250925010
 11
-60.876173300196115
 21
-132.616388250925010
  0
LINE
  8
0
  6
CONTINUOUS
 62
4
 10
-39.225538205585963
 20
-145.116388250925010
 11
-32.008659840715609
 21
-157.616388250925010
  0
LINE
  8
0
  6
CONTINUOUS
 62
4
 10
-32.008659840715609
 20
-157.616388250925010
 11
-46.442416570456317
 21
-157.616388250925010
  0
LINE
  8
0
  6
CONTINUOUS
 62
4
 10
-53.659294935325761
 20
-120.116388250925010
 11
-46.442416570455407
 21
-132.616388250925010
  0
LINE
  8
0
  6
CONTINUOUS
 62
4
 10
-46.442416570455407
 20
-132.616388250925240
 11
-53.659294935325761
 21
-145.116388250925010
  0
LINE
  8
0
  6
CONTINUOUS
 62
4
 10
-39.225538205585963
 20
-145.116388250925010
 11
-53.659294935325761
 21
-145.116388250925010
  0
LINE
  8
0
  6
CONTINUOUS
 62
4
 10
-53.659294935325761
 20
-145.116388250925010
 11
-46.442416570456317
 21
-157.616388250925010
  0
LINE
  8
0
  6
DASHDOT
 62
4
 10
-53.659294935325761
 20
-81.383941173839105
 11
-53.659294935325761
 21
-194.037660599075760
  0
ARC
  8
0
  6
CONTINUOUS
 62
3
 10
-88.709294935325033
 20
-171.459495776183810
 40
5.000000000000000
 50
180.000000000000000
 51
270.000000000000000
  0
LINE
  8
0
  6
CONTINUOUS
 62
3
 10
-62.146769152719344
 20
-176.459495776183810
 11
-88.709294935325033
 21
-176.459495776183810
  0
ARC
  8
0
  6
CONTINUOUS
 62
3
 10
-89.109294935324669
 20
-176.889652734280900
 40
11.000000000000000
 50
180.000000000000000
 51
270.000000000000000
  0
ARC
  8
0
  6
CONTINUOUS
 62
3
 10
-89.109294935324669
 20
-175.669442805053730
 40
11.000000000000000
 50
180.000000000000000
 51
270.000000000000000
  0
LINE
  8
0
  6
CONTINUOUS
 62
3
 10
-89.109294935324669
 20
-186.669442805053730
 11
-53.659294935325761
 21
-186.669442805053730
  0
LINE
  8
0
  6
CONTINUOUS
 62
3
 10
-89.109294935324669
 20
-187.889652734280900
 11
-53.659294935325761
 21
-187.889652734280900
  0
ARC
  8
0
  6
CONTINUOUS
 62
3
 10
-62.919513115939026
 20
-172.459495789034070
 40
3.999999987149749
 50
270.000000000000000
 51
318.821565628880590
  0
POLYLINE
  8
0
  6
CONTINUOUS
 62
3
 66
1
  0
VERTEX
  8
0
  6
CONTINUOUS
 62
3
 10
-53.659294935325761
 20
-172.347265993196520
  0
VERTEX
  8
0
  6
CONTINUOUS
 62
3
 10
-55.086146222740645
 20
-172.464448661847510
  0
VERTEX
  8
0
  6
CONTINUOUS
 62
3
 10
-56.467241100272311
 20
-172.812238842254690
  0
VERTEX
  8
0
  6
CONTINUOUS
 62
3
 10
-57.758290479168942
 20
-173.379483564106040
  0
VERTEX
  8
0
  6
CONTINUOUS
 62
3
 10
-58.917892858740643
 20
-174.147992366891800
  0
VERTEX
  8
0
  6
CONTINUOUS
 62
3
 10
-59.908861993827031
 20
-175.093120633412330
  0
SEQEND
  8
0
  6
CONTINUOUS
 62
3
  0
ARC
  8
0
  6
CONTINUOUS
 62
3
 10
-62.146769151046101
 20
-172.459495782407490
 40
3.999999993776328
 50
270.000000000000000
 51
313.301579148531630
  0
POLYLINE
  8
0
  6
CONTINUOUS
 62
3
 66
1
  0
VERTEX
  8
0
  6
CONTINUOUS
 62
3
 10
-53.659294935325761
 20
-173.148970031943240
  0
VERTEX
  8
0
  6
CONTINUOUS
 62
3
 10
-54.935335325245482
 20
-173.242538187862070
  0
VERTEX
  8
0
  6
CONTINUOUS
 62
3
 10
-56.178701712693872
 20
-173.520846770518150
  0
VERTEX
  8
0
  6
CONTINUOUS
 62
3
 10
-57.357556738338758
 20
-173.976769473103870
  0
VERTEX
  8
0
  6
CONTINUOUS
 62
3
 10
-58.441714906230679
 20
-174.598632041709440
  0
VERTEX
  8
0
  6
CONTINUOUS
 62
3
 10
-59.403415506805231
 20
-175.370511203636060
  0
SEQEND
  8
0
  6
CONTINUOUS
 62
3
  0
LINE
  8
0
  6
CONTINUOUS
 62
3
 10
-51.659294935325761
 20
-181.318439410858960
 11
-55.659294935325761
 21
-177.664257580288510
  0
LINE
  8
0
  6
CONTINUOUS
 62
3
 10
-55.659294935325761
 20
-181.318439410858960
 11
-51.659294935325761
 21
-177.664257580288510
  0
POLYLINE
  8
0
  6
CONTINUOUS
 62
3
 66
1
 70
1
  0
VERTEX
  8
0
  6
CONTINUOUS
 62
3
 10
-50.159294935325761
 20
-180.202035540649430
  0
VERTEX
  8
0
  6
CONTINUOUS
 62
3
 10
-50.226546453914452
 20
-179.528445770603300
  0
VERTEX
  8
0
  6
CONTINUOUS
 62
3
 10
-50.425716571536256
 20
-178.880741677666550
  0
VERTEX
  8
0
  6
CONTINUOUS
 62
3
 10
-50.749151292266852
 20
-178.283814166894080
  0
VERTEX
  8
0
  6
CONTINUOUS
 62
3
 10
-51.184421201172846
 20
-177.760602827764100
  0
VERTEX
  8
0
  6
CONTINUOUS
 62
3
 10
-51.714799119757153
 20
-177.331214378619050
  0
VERTEX
  8
0
  6
CONTINUOUS
 62
3
 10
-52.319902922047945
 20
-177.012149976755780
  0
VERTEX
  8
0
  6
CONTINUOUS
 62
3
 10
-52.976478808269313
 20
-176.815671088204510
  0
VERTEX
  8
0
  6
CONTINUOUS
 62
3
 10
-53.659294935325761
 20
-176.749328286465640
  0
VERTEX
  8
0
  6
CONTINUOUS
 62
3
 10
-54.342111062382209
 20
-176.815671088204510
  0
VERTEX
  8
0
  6
CONTINUOUS
 62
3
 10
-54.998686948603577
 20
-177.012149976755780
  0
VERTEX
  8
0
  6
CONTINUOUS
 62
3
 10
-55.603790750894369
 20
-177.331214378619050
  0
VERTEX
  8
0
  6
CONTINUOUS
 62
3
 10
-56.134168669478676
 20
-177.760602827764100
  0
VERTEX
  8
0
  6
CONTINUOUS
 62
3
 10
-56.569438578384670
 20
-178.283814166894080
  0
VERTEX
  8
0
  6
CONTINUOUS
 62
3
 10
-56.892873299115266
 20
-178.880741677666550
  0
VERTEX
  8
0
  6
CONTINUOUS
 62
3
 10
-57.092043416737063
 20
-179.528445770603300
  0
VERTEX
  8
0
  6
CONTINUOUS
 62
3
 10
-57.159294935325761
 20
-180.202035540649430
  0
VERTEX
  8
0
  6
CONTINUOUS
 62
3
 10
-57.092043416737063
 20
-180.875625310695570
  0
VERTEX
  8
0
  6
CONTINUOUS
 62
3
 10
-56.892873299115266
 20
-181.523329403632320
  0
VERTEX
  8
0
  6
CONTINUOUS
 62
3
 10
-56.569438578384670
 20
-182.120256914404790
  0
VERTEX
  8
0
  6
CONTINUOUS
 62
3
 10
-56.134168669478676
 20
-182.643468253534760
  0
VERTEX
  8
0
  6
CONTINUOUS
 62
3
 10
-55.603790750894369
 20
-183.072856702679810
  0
VERTEX
  8
0
  6
CONTINUOUS
 62
3
 10
-54.998686948603577
 20
-183.391921104543090
  0
VERTEX
  8
0
  6
CONTINUOUS
 62
3
 10
-54.342111062382209
 20
-183.588399993094360
  0
VERTEX
  8
0
  6
CONTINUOUS
 62
3
 10
-53.659294935325761
 20
-183.654742794833230
  0
VERTEX
  8
0
  6
CONTINUOUS
 62
3
 10
-52.976478808269313
 20
-183.588399993094360
  0
VERTEX
  8
0
  6
CONTINUOUS
 62
3
 10
-52.319902922047952
 20
-183.391921104543090
  0
VERTEX
  8
0
  6
CONTINUOUS
 62
3
 10
-51.714799119757153
 20
-183.072856702679810
  0
VERTEX
  8
0
  6
CONTINUOUS
 62
3
 10
-51.184421201172846
 20
-182.643468253534760
  0
VERTEX
  8
0
  6
CONTINUOUS
 62
3
 10
-50.749151292266859
 20
-182.120256914404790
  0
VERTEX
  8
0
  6
CONTINUOUS
 62
3
 10
-50.425716571536263
 20
-181.523329403632320
  0
VERTEX
  8
0
  6
CONTINUOUS
 62
3
 10
-50.226546453914459
 20
-180.875625310695570
  0
SEQEND
  8
0
  6
CONTINUOUS
 62
3
  0
LINE
  8
0
  6
CONTINUOUS
 62
3
 10
-45.171820717932405
 20
-176.459495776183810
 11
-18.609294935326602
 21
-176.459495776183810
  0
POLYLINE
  8
0
  6
CONTINUOUS
 62
3
 66
1
  0
VERTEX
  8
0
  6
CONTINUOUS
 62
3
 10
-47.915174363846290
 20
-175.370511203636060
  0
VERTEX
  8
0
  6
CONTINUOUS
 62
3
 10
-48.876874964420843
 20
-174.598632041709440
  0
VERTEX
  8
0
  6
CONTINUOUS
 62
3
 10
-49.961033132312764
 20
-173.976769473103870
  0
VERTEX
  8
0
  6
CONTINUOUS
 62
3
 10
-51.139888157957650
 20
-173.520846770518150
  0
VERTEX
  8
0
  6
CONTINUOUS
 62
3
 10
-52.383254545406039
 20
-173.242538187862070
  0
VERTEX
  8
0
  6
CONTINUOUS
 62
3
 10
-53.659294935325761
 20
-173.148970031943240
  0
SEQEND
  8
0
  6
CONTINUOUS
 62
3
  0
ARC
  8
0
  6
CONTINUOUS
 62
3
 10
-45.171820719605648
 20
-172.459495782407490
 40
3.999999999999828
 50
226.698420851470790
 51
270.000000000000000
  0
POLYLINE
  8
0
  6
CONTINUOUS
 62
3
 66
1
  0
VERTEX
  8
0
  6
CONTINUOUS
 62
3
 10
-47.409727876824718
 20
-175.093120633412040
  0
VERTEX
  8
0
  6
CONTINUOUS
 62
3
 10
-48.400697011911092
 20
-174.147992366891630
  0
VERTEX
  8
0
  6
CONTINUOUS
 62
3
 10
-49.560299391482765
 20
-173.379483564105950
  0
VERTEX
  8
0
  6
CONTINUOUS
 62
3
 10
-50.851348770379346
 20
-172.812238842254630
  0
VERTEX
  8
0
  6
CONTINUOUS
 62
3
 10
-52.232443647910948
 20
-172.464448661847510
  0
VERTEX
  8
0
  6
CONTINUOUS
 62
3
 10
-53.659294935325761
 20
-172.347265993196520
  0
SEQEND
  8
0
  6
CONTINUOUS
 62
3
  0
ARC
  8
0
  6
CONTINUOUS
 62
3
 10
-44.399076754712496
 20
-172.459495789034070
 40
4.000000000000156
 50
221.178434371117250
 51
270.000000000000000
  0
ARC
  8
0
  6
CONTINUOUS
 62
3
 10
-18.209294935326966
 20
-175.669442805053730
 40
11.000000000000000
 50
270.000000000000000
 51
0.000000000000000
  0
ARC
  8
0
  6
CONTINUOUS
 62
3
 10
-18.209294935326966
 20
-176.889652734280900
 40
11.000000000000000
 50
270.000000000000000
 51
0.000000000000000
  0
LINE
  8
0
  6
CONTINUOUS
 62
3
 10
-18.209294935326966
 20
-187.889652734280900
 11
-53.659294935325761
 21
-187.889652734280900
  0
LINE
  8
0
  6
CONTINUOUS
 62
3
 10
-18.209294935326966
 20
-186.669442805053730
 11
-53.659294935325761
 21
-186.669442805053730
  0
ARC
  8
0
  6
CONTINUOUS
 62
3
 10
-18.609294935326602
 20
-171.459495776183810
 40
5.000000000000000
 50
270.000000000000000
 51
0.000000000000000
  0
LINE
  8
0
  6
CONTINUOUS
 62
3
 10
-13.609294935326602
 20
-95.381751569523715
 11
-13.609294935326602
 21
-171.459495776183810
  0
LINE
  8
0
  6
CONTINUOUS
 62
3
 10
-7.209294935326966
 20
-95.286933366025153
 11
-7.209294935326966
 21
-176.889652734280900
  0
LINE
  8
0
  6
CONTINUOUS
 62
3
 10
-53.659294935325761
 20
-90.381751569523715
 11
-18.609294935326602
 21
-90.381751569523715
  0
ARC
  8
0
  6
CONTINUOUS
 62
3
 10
-18.609294935326602
 20
-95.381751569523715
 40
5.000000000000000
 50
0.000000000000000
 51
90.000000000000000
  0
LINE
  8
0
  6
CONTINUOUS
 62
4
 10
-53.659294935325761
 20
-96.883541006630878
 11
-18.609294935326602
 21
-96.883541006630878
  0
ARC
  8
0
  6
CONTINUOUS
 62
4
 10
-18.609294935326602
 20
-101.883541006630870
 40
5.000000000000000
 50
0.000000000000000
 51
90.000000000000000
  0
ARC
  8
0
  6
CONTINUOUS
 62
3
 10
-18.209294935326966
 20
-95.286933366025153
 40
11.000000000000000
 50
0.000000000000000
 51
90.000000000000000
  0
LINE
  8
0
  6
CONTINUOUS
 62
3
 10
-18.209294935326966
 20
-84.286933366025153
 11
-53.659294935325761
 21
-84.286933366025153
  0
ARC
  8
0
  6
CONTINUOUS
 62
3
 10
322.103212906953560
 20
-496.883541006631390
 40
450.000000000000280
 50
87.767131757208560
 51
90.000000000000000
  0
ARC
  8
0
  6
CONTINUOUS
 62
3
 10
322.103212906953560
 20
-496.883541006631390
 40
450.000000000000110
 50
90.000000000000000
 51
92.232868242791497
  0
LINE
  8
0
  6
DASHDOT
 62
4
 10
166.062112664333200
 20
-106.883541006631270
 11
101.954142702018080
 21
-106.883541006631270
  0
LINE
  8
0
  6
CONTINUOUS
 62
3
 10
157.840705064673780
 20
-109.883541006631390
 11
128.840705064674240
 21
-109.883541006631390
  0
LINE
  8
0
  6
CONTINUOUS
 62
3
 10
157.840705064673780
 20
-103.883541006631390
 11
128.840705064674240
 21
-103.883541006631390
  0
ARC
  8
0
  6
CONTINUOUS
 62
3
 10
128.840705064674240
 20
-106.883541006631390
 40
3.000000000000000
 50
90.000000000000000
 51
270.000000000000000
  0
CIRCLE
  8
0
  6
CONTINUOUS
 62
4
 10
322.103212906953560
 20
-106.883541006631270
 40
4.000000000000000
  0
CIRCLE
  8
0
  6
CONTINUOUS
 62
4
 10
322.103212906953560
 20
-106.883541006631270
 40
4.000000000000000
  0
CIRCLE
  8
0
  6
CONTINUOUS
 62
3
 10
322.103212906953560
 20
-106.883541006631270
 40
3.323500000000024
  0
LINE
  8
0
  6
CONTINUOUS
 62
3
 10
314.603212906953560
 20
-103.883541006631390
 11
314.603212906953560
 21
-109.883541006631390
  0
ARC
  8
0
  6
CONTINUOUS
 62
3
 10
322.103212906953560
 20
-106.883541006631390
 40
11.000000000000037
 50
195.826620131872290
 51
164.173379868127710
  0
LINE
  8
0
  6
CONTINUOUS
 62
3
 10
157.840705064673780
 20
-106.883541006631270
 11
157.840705064673780
 21
-96.283541006631367
  0
LINE
  8
0
  6
CONTINUOUS
 62
3
 10
119.840705064673780
 20
-118.883541006631270
 11
121.440705064673690
 21
-118.883541006631270
  0
LINE
  8
0
  6
CONTINUOUS
 62
3
 10
119.840705064673780
 20
-118.883541006631270
 11
121.440705064673690
 21
-118.883541006631270
  0
LINE
  8
0
  6
CONTINUOUS
 62
3
 10
119.840705064673780
 20
-94.883541006631276
 11
121.440705064673690
 21
-94.883541006631276
  0
LINE
  8
0
  6
CONTINUOUS
 62
3
 10
119.840705064673780
 20
-94.883541006631276
 11
121.440705064673690
 21
-94.883541006631276
  0
LINE
  8
0
  6
CONTINUOUS
 62
3
 10
157.440705064673690
 20
-95.883541006631276
 11
124.400512685809190
 21
-95.883541006631276
  0
LINE
  8
0
  6
CONTINUOUS
 62
3
 10
157.440705064673690
 20
-95.883541006631276
 11
124.400512685809190
 21
-95.883541006631276
  0
ARC
  8
0
  6
CONTINUOUS
 62
3
 10
157.440705064673690
 20
-96.283541006631367
 40
0.400000000000091
 50
0.000000000000000
 51
90.000000000000000
  0
LINE
  8
0
  6
CONTINUOUS
 62
3
 10
121.840705064673780
 20
-95.283541006631253
 11
121.440705064673690
 21
-94.883541006631276
  0
LINE
  8
0
  6
CONTINUOUS
 62
3
 10
124.400512685809190
 20
-95.883541006631276
 11
123.840705064673780
 21
-96.033541006631253
  0
LINE
  8
0
  6
CONTINUOUS
 62
3
 10
123.840705064673780
 20
-96.033541006631253
 11
122.640705064673960
 21
-96.033541006631253
  0
ARC
  8
0
  6
CONTINUOUS
 62
3
 10
122.640705064673960
 20
-95.233541006631299
 40
0.800000000000229
 50
183.703196634272190
 51
270.000000000000000
  0
LINE
  8
0
  6
CONTINUOUS
 62
3
 10
121.840705064673780
 20
-95.283541006631253
 11
121.440705064673690
 21
-94.883541006631276
  0
LINE
  8
0
  6
CONTINUOUS
 62
3
 10
124.400512685809190
 20
-95.883541006631276
 11
123.840705064673780
 21
-96.033541006631253
  0
LINE
  8
0
  6
CONTINUOUS
 62
3
 10
123.840705064673780
 20
-96.033541006631253
 11
122.640705064673960
 21
-96.033541006631253
  0
LINE
  8
0
  6
CONTINUOUS
 62
3
 10
121.840705064673780
 20
-106.883541006631270
 11
121.840705064673780
 21
-95.283541006631253
  0
LINE
  8
0
  6
CONTINUOUS
 62
3
 10
121.840705064673780
 20
-106.883541006631270
 11
121.840705064673780
 21
-118.483541006631290
  0
LINE
  8
0
  6
CONTINUOUS
 62
3
 10
157.440705064673690
 20
-117.883541006631270
 11
124.400512685809190
 21
-117.883541006631270
  0
LINE
  8
0
  6
CONTINUOUS
 62
3
 10
121.840705064673780
 20
-118.483541006631290
 11
121.440705064673690
 21
-118.883541006631270
  0
LINE
  8
0
  6
CONTINUOUS
 62
3
 10
124.400512685809190
 20
-117.883541006631270
 11
123.840705064673780
 21
-117.733541006631290
  0
LINE
  8
0
  6
CONTINUOUS
 62
3
 10
123.840705064673780
 20
-117.733541006631290
 11
122.640705064673960
 21
-117.733541006631290
  0
ARC
  8
0
  6
CONTINUOUS
 62
3
 10
122.640705064673960
 20
-118.533541006631250
 40
0.799999999999955
 50
90.000000000000000
 51
176.296803365727810
  0
LINE
  8
0
  6
CONTINUOUS
 62
3
 10
157.440705064673690
 20
-117.883541006631270
 11
124.400512685809190
 21
-117.883541006631270
  0
LINE
  8
0
  6
CONTINUOUS
 62
3
 10
121.840705064673780
 20
-118.483541006631290
 11
121.440705064673690
 21
-118.883541006631270
  0
LINE
  8
0
  6
CONTINUOUS
 62
3
 10
124.400512685809190
 20
-117.883541006631270
 11
123.840705064673780
 21
-117.733541006631290
  0
LINE
  8
0
  6
CONTINUOUS
 62
3
 10
123.840705064673780
 20
-117.733541006631290
 11
122.640705064673960
 21
-117.733541006631290
  0
LINE
  8
0
  6
DASHDOT
 62
4
 10
159.840705064673780
 20
-106.883541006631270
 11
157.840705064673780
 21
-106.883541006631270
  0
LINE
  8
0
  6
DASHDOT
 62
4
 10
159.840705064673780
 20
-106.883541006631270
 11
157.840705064673780
 21
-106.883541006631270
  0
ARC
  8
0
  6
CONTINUOUS
 62
3
 10
157.440705064673690
 20
-117.483541006631180
 40
0.400000000000091
 50
270.000000000000000
 51
0.000000000000000
  0
LINE
  8
0
  6
CONTINUOUS
 62
3
 10
157.840705064673780
 20
-106.883541006631270
 11
157.840705064673780
 21
-117.483541006631180
  0
CIRCLE
  8
0
  6
CONTINUOUS
 62
3
 10
322.103212906953560
 20
-106.883541006631270
 40
19.000000000000000
  0
LINE
  8
0
  6
CONTINUOUS
 62
3
 10
370.103212906953560
 20
-106.883541006631270
 11
353.539656726190060
 21
-106.883541006631270
  0
LINE
  8
0
  6
CONTINUOUS
 62
3
 10
322.103212906953560
 20
-184.483541006631300
 11
366.603212906953560
 21
-184.483541006631300
  0
ARC
  8
0
  6
CONTINUOUS
 62
3
 10
366.603212906953560
 20
-177.483541006631300
 40
7.000000000000000
 50
270.000000000000000
 51
0.000000000000000
  0
ARC
  8
0
  6
CONTINUOUS
 62
3
 10
370.103212906953560
 20
-110.383541006631270
 40
3.500000000000000
 50
0.000000000000000
 51
90.000000000000000
  0
LINE
  8
0
  6
CONTINUOUS
 62
3
 10
373.603212906953560
 20
-110.383541006631270
 11
373.603212906953560
 21
-177.483541006631300
  0
ARC
  8
0
  6
CONTINUOUS
 62
3
 10
353.539656726190060
 20
-108.883541006631270
 40
2.000000000000000
 50
90.000000000000000
 51
176.359724124385540
  0
ARC
  8
0
  6
CONTINUOUS
 62
3
 10
322.103212906953560
 20
-106.883541006631270
 40
29.500000000000000
 50
270.000000000000000
 51
356.359724124384740
  0
ARC
  8
0
  6
CONTINUOUS
 62
3
 10
290.666769087717060
 20
-108.883541006631270
 40
1.999999999999982
 50
3.640275875614456
 51
90.000000000000000
  0
ARC
  8
0
  6
CONTINUOUS
 62
3
 10
322.103212906953560
 20
-106.883541006631270
 40
29.500000000000220
 50
183.640275875615290
 51
270.000000000000000
  0
ARC
  8
0
  6
CONTINUOUS
 62
3
 10
383.588734699539600
 20
-188.883541006631280
 40
3.000000000000000
 50
180.000000000000000
 51
270.000000000000000
  0
ARC
  8
0
  6
CONTINUOUS
 62
3
 10
386.928662257671020
 20
-188.883541006631280
 40
3.000000000000000
 50
180.000000000000000
 51
270.000000000000000
  0
ARC
  8
0
  6
CONTINUOUS
 62
3
 10
399.879662257671040
 20
-188.883541006631280
 40
3.000000000000000
 50
180.000000000000000
 51
270.000000000000000
  0
ARC
  8
0
  6
CONTINUOUS
 62
3
 10
405.103212906953560
 20
-188.967461223531700
 40
3.000000000000000
 50
180.000000000000000
 51
260.405931773139460
  0
ARC
  8
0
  6
CONTINUOUS
 62
3
 10
37.049087122572928
 20
-188.108490019052060
 40
3.000000000000008
 50
271.691038599321980
 51
298.082020081925290
  0
ARC
  8
0
  6
CONTINUOUS
 62
3
 10
117.841564296417340
 20
-188.915698313731920
 40
3.000000000000000
 50
180.000000000000000
 51
260.397610222583640
  0
ARC
  8
0
  6
CONTINUOUS
 62
3
 10
97.841564296417346
 20
-188.499087592024810
 40
3.000000000000000
 50
180.000000000000000
 51
268.999999999998240
  0
LINE
  8
0
  6
CONTINUOUS
 62
3
 10
119.840705064673780
 20
-206.383541006631390
 11
117.840705064673780
 21
-206.383541006631390
  0
LINE
  8
0
  6
CONTINUOUS
 62
3
 10
117.840705064673780
 20
-206.383541006631390
 11
117.840705064673780
 21
-206.883541006631390
  0
LINE
  8
0
  6
CONTINUOUS
 62
3
 10
12.840705064673784
 20
-206.383541006631390
 11
10.840705064673784
 21
-206.383541006631390
  0
LINE
  8
0
  6
CONTINUOUS
 62
3
 10
12.840705064673784
 20
-206.883541006631390
 11
12.840705064673784
 21
-206.383541006631390
  0
ARC
  8
0
  6
CONTINUOUS
 62
3
 10
381.103212906953560
 20
-206.883541006631280
 40
1.000000000000000
 50
0.000000000000000
 51
90.000000000000000
  0
ARC
  8
0
  6
CONTINUOUS
 62
3
 10
118.840705064673780
 20
-191.367531180840730
 40
1.000000000000000
 50
180.000000000000000
 51
239.999999999999460
  0
LINE
  8
0
  6
CONTINUOUS
 62
3
 10
49.340705064673784
 20
-46.874813474167354
 11
49.340705064673784
 21
-108.883541006631270
  0
LINE
  8
0
  6
CONTINUOUS
 62
3
 10
49.340705064673784
 20
-184.950635135264860
 11
49.340705064673784
 21
-108.883541006631270
  0
ARC
  8
0
  6
CONTINUOUS
 62
3
 10
49.340705064673784
 20
-165.509046938177220
 40
2.000000000000000
 50
0.000000000000000
 51
88.499999999997257
  0
LINE
  8
0
  6
CONTINUOUS
 62
3
 10
51.340705064673784
 20
-182.683767278647680
 11
51.340705064673784
 21
-165.509046938177220
  0
LINE
  8
0
  6
DASHDOT
 62
4
 10
397.103212906953560
 20
-210.964044775600540
 11
397.103212906953560
 21
-189.058242651577070
  0
LINE
  8
0
  6
DASHDOT
 62
4
 10
322.103212906953560
 20
-37.631599301923188
 11
322.103212906953560
 21
-215.164332522999760
  0
LINE
  8
0
  6
CONTINUOUS
 62
3
 10
119.840705064673780
 20
-106.883541006631270
 11
119.840705064673780
 21
-127.883541006631160
  0
ARC
  8
0
  6
CONTINUOUS
 62
3
 10
118.840705064673780
 20
-127.883541006631160
 40
1.000000000000000
 50
270.000000000000000
 51
0.000000000000000
  0
ARC
  8
0
  6
CONTINUOUS
 62
3
 10
118.840705064673780
 20
-129.883541006631160
 40
1.000000000000000
 50
90.000000000000000
 51
180.000000000000000
  0
LINE
  8
0
  6
CONTINUOUS
 62
3
 10
119.840705064673780
 20
-106.883541006631270
 11
119.840705064673780
 21
-85.883541006631390
  0
ARC
  8
0
  6
CONTINUOUS
 62
3
 10
118.840705064673780
 20
-85.883541006631390
 40
1.000000000000000
 50
0.000000000000000
 51
90.000000000000000
  0
ARC
  8
0
  6
CONTINUOUS
 62
3
 10
118.840705064673780
 20
-83.883541006631390
 40
1.000000000000000
 50
180.000000000000000
 51
270.000000000000000
  0
ARC
  8
0
  6
CONTINUOUS
 62
3
 10
115.840705064673780
 20
-68.931990169731307
 40
2.000000000000000
 50
0.000000000000000
 51
43.446738789856049
  0
ARC
  8
0
  6
CONTINUOUS
 62
3
 10
70.101826809689101
 20
-112.255829057526960
 40
64.999999999999844
 50
43.446738789854415
 51
89.000000000000227
  0
LINE
  8
0
  6
DASHDOT
 62
4
 10
22.840705064673784
 20
-213.717159018106030
 11
22.840705064673784
 21
-186.102167351015960
  0
LINE
  8
0
  6
DASHDOT
 62
4
 10
107.840705064673780
 20
-190.929315214229180
 11
107.840705064673780
 21
-210.217159018106030
  0
ARC
  8
0
  6
CONTINUOUS
 62
3
 10
13.840705064673784
 20
-194.796279819867210
 40
3.000000000000122
 50
91.691038599321914
 51
180.000000000000000
  0
LINE
  8
0
  6
CONTINUOUS
 62
3
 10
50.282175142445340
 20
-184.448316539127630
 11
38.461292239230261
 21
-190.755313909772100
  0
ARC
  8
0
  6
CONTINUOUS
 62
3
 10
49.340705064673784
 20
-182.683767278647680
 40
1.999999999999982
 50
298.082020081924780
 51
0.000000000000000
  0
LINE
  8
0
  6
CONTINUOUS
 62
3
 10
13.752175344825901
 20
-191.797586356256030
 11
51.340705064673330
 21
-190.687869059048470
  0
ARC
  8
0
  6
CONTINUOUS
 62
3
 10
116.840705064673780
 20
-194.831632795978410
 40
3.000000000000000
 50
0.000000000000000
 51
88.999999999998209
  0
LINE
  8
0
  6
CONTINUOUS
 62
3
 10
116.893062283985720
 20
-191.832089710509310
 11
51.340705064673784
 21
-190.687869059048470
  0
LINE
  8
0
  6
CONTINUOUS
 62
3
 10
117.840705064673780
 20
-68.931990169731307
 11
117.840705064673780
 21
-106.883541006631270
  0
LINE
  8
0
  6
CONTINUOUS
 62
3
 10
117.840705064673780
 20
-106.883541006631270
 11
117.840705064673780
 21
-191.367531180840730
  0
ARC
  8
0
  6
CONTINUOUS
 62
3
 10
104.841564296417340
 20
-106.883541006631390
 40
10.000000000000000
 50
0.000000000000000
 51
180.000000000000000
  0
LINE
  8
0
  6
CONTINUOUS
 62
3
 10
114.841564296417340
 20
-106.883541006631390
 11
114.841564296417340
 21
-188.915698313731920
  0
LINE
  8
0
  6
CONTINUOUS
 62
3
 10
94.841564296417346
 20
-106.883541006631390
 11
94.841564296417346
 21
-188.499087592024810
  0
ARC
  8
0
  6
CONTINUOUS
 62
3
 10
364.103212906953560
 20
-200.383541006631280
 40
8.000000000000162
 50
214.228866327811770
 51
223.432536557788810
  0
LINE
  8
0
  6
CONTINUOUS
 62
3
 10
381.103212906953560
 20
-205.883541006631280
 11
358.293737887642240
 21
-205.883541006631280
  0
ARC
  8
0
  6
CONTINUOUS
 62
3
 10
404.103212906953560
 20
-194.883541006631280
 40
3.000000000000000
 50
0.000000000000000
 51
90.000000000000000
  0
LINE
  8
0
  6
CONTINUOUS
 62
3
 10
322.103212906953560
 20
-204.883541006631280
 11
357.488834629291890
 21
-204.883541006631280
  0
POLYLINE
  8
0
  6
CONTINUOUS
 62
3
 66
1
  0
VERTEX
  8
0
  6
CONTINUOUS
 62
3
 10
396.879662257671040
 20
-106.883541482619080
  0
VERTEX
  8
0
  6
CONTINUOUS
 62
3
 10
396.769404617978980
 20
-105.046046268826240
  0
VERTEX
  8
0
  6
CONTINUOUS
 62
3
 10
396.442386277423680
 20
-103.271124736388040
  0
VERTEX
  8
0
  6
CONTINUOUS
 62
3
 10
395.909743453714040
 20
-101.619219711134290
  0
VERTEX
  8
0
  6
CONTINUOUS
 62
3
 10
395.189614659924930
 20
-100.146584839158060
  0
VERTEX
  8
0
  6
CONTINUOUS
 62
3
 10
394.306523019170470
 20
-98.903368936308937
  0
VERTEX
  8
0
  6
CONTINUOUS
 62
3
 10
393.290541159033640
 20
-97.931908230364556
  0
VERTEX
  8
0
  6
CONTINUOUS
 62
3
 10
392.176267124270790
 20
-97.265284651526756
  0
VERTEX
  8
0
  6
CONTINUOUS
 62
3
 10
391.001646181857950
 20
-96.926199266931960
  0
VERTEX
  8
0
  6
CONTINUOUS
 62
3
 10
389.806678640395150
 20
-96.926199223013356
  0
VERTEX
  8
0
  6
CONTINUOUS
 62
3
 10
388.632057687530850
 20
-97.265284521266508
  0
VERTEX
  8
0
  6
CONTINUOUS
 62
3
 10
387.517783632220930
 20
-97.931908018198527
  0
VERTEX
  8
0
  6
CONTINUOUS
 62
3
 10
386.501801742141140
 20
-98.903368649462195
  0
VERTEX
  8
0
  6
CONTINUOUS
 62
3
 10
385.618710063067570
 20
-100.146584487398820
  0
VERTEX
  8
0
  6
CONTINUOUS
 62
3
 10
384.898581223888020
 20
-101.619219306441300
  0
VERTEX
  8
0
  6
CONTINUOUS
 62
3
 10
384.365938349262420
 20
-103.271124292542630
  0
VERTEX
  8
0
  6
CONTINUOUS
 62
3
 10
384.038919953999480
 20
-105.046045800943030
  0
VERTEX
  8
0
  6
CONTINUOUS
 62
3
 10
383.928662257671020
 20
-106.883541006631270
  0
SEQEND
  8
0
  6
CONTINUOUS
 62
3
  0
LINE
  8
0
  6
CONTINUOUS
 62
3
 10
383.928662257671020
 20
-188.883541006631280
 11
383.928662257671020
 21
-106.883541006631270
  0
LINE
  8
0
  6
CONTINUOUS
 62
3
 10
396.879662257671040
 20
-188.883541006631280
 11
396.879662257671040
 21
-106.883540530643470
  0
POLYLINE
  8
0
  6
CONTINUOUS
 62
3
 66
1
  0
VERTEX
  8
0
  6
CONTINUOUS
 62
3
 10
260.277763556236100
 20
-106.883541006631270
  0
VERTEX
  8
0
  6
CONTINUOUS
 62
3
 10
260.167505859907640
 20
-105.046045800943030
  0
VERTEX
  8
0
  6
CONTINUOUS
 62
3
 10
259.840487464644700
 20
-103.271124292542630
  0
VERTEX
  8
0
  6
CONTINUOUS
 62
3
 10
259.307844590019100
 20
-101.619219306441300
  0
VERTEX
  8
0
  6
CONTINUOUS
 62
3
 10
258.587715750839550
 20
-100.146584487398820
  0
VERTEX
  8
0
  6
CONTINUOUS
 62
3
 10
257.704624071765980
 20
-98.903368649462195
  0
VERTEX
  8
0
  6
CONTINUOUS
 62
3
 10
256.688642181686190
 20
-97.931908018198527
  0
VERTEX
  8
0
  6
CONTINUOUS
 62
3
 10
255.574368126376270
 20
-97.265284521266523
  0
VERTEX
  8
0
  6
CONTINUOUS
 62
3
 10
254.399747173511970
 20
-96.926199223013356
  0
VERTEX
  8
0
  6
CONTINUOUS
 62
3
 10
253.204779632049140
 20
-96.926199266931960
  0
VERTEX
  8
0
  6
CONTINUOUS
 62
3
 10
252.030158689636320
 20
-97.265284651526770
  0
VERTEX
  8
0
  6
CONTINUOUS
 62
3
 10
250.915884654873480
 20
-97.931908230364556
  0
VERTEX
  8
0
  6
CONTINUOUS
 62
3
 10
249.899902794736620
 20
-98.903368936308937
  0
VERTEX
  8
0
  6
CONTINUOUS
 62
3
 10
249.016811153982190
 20
-100.146584839158060
  0
VERTEX
  8
0
  6
CONTINUOUS
 62
3
 10
248.296682360193050
 20
-101.619219711134290
  0
VERTEX
  8
0
  6
CONTINUOUS
 62
3
 10
247.764039536483440
 20
-103.271124736388040
  0
VERTEX
  8
0
  6
CONTINUOUS
 62
3
 10
247.437021195928170
 20
-105.046046268826240
  0
VERTEX
  8
0
  6
CONTINUOUS
 62
3
 10
247.326763556236070
 20
-106.883541482619080
  0
SEQEND
  8
0
  6
CONTINUOUS
 62
3
  0
LINE
  8
0
  6
CONTINUOUS
 62
3
 10
402.103212906953560
 20
-112.175859773204360
 11
402.103212906953560
 21
-188.967461223531700
  0
ARC
  8
0
  6
CONTINUOUS
 62
3
 10
337.103212906953560
 20
-112.175859773204360
 40
65.000000000000000
 50
0.000000000000000
 51
87.767131757208730
  0
ARC
  8
0
  6
CONTINUOUS
 62
3
 10
337.103212906953560
 20
-112.175859773204360
 40
43.485521792586042
 50
0.000000000000000
 51
87.767131757209086
  0
ARC
  8
0
  6
CONTINUOUS
 62
3
 10
322.103212906953560
 20
-496.883541006631390
 40
428.485521792586160
 50
87.767131757208588
 51
90.000000000000000
  0
LINE
  8
0
  6
CONTINUOUS
 62
3
 10
380.588734699539600
 20
-112.175859773204360
 11
380.588734699539600
 21
-188.883541006631280
  0
LINE
  8
0
  6
CONTINUOUS
 62
3
 10
322.103212906953560
 20
-191.883541006631280
 11
404.103212906953560
 21
-191.883541006631280
  0
ARC
  8
0
  6
CONTINUOUS
 62
3
 10
322.103212906953560
 20
-496.883541006631390
 40
428.485521792586160
 50
90.000000000000000
 51
92.232868242791412
  0
CIRCLE
  8
0
  6
CONTINUOUS
 62
3
 10
322.103212906953560
 20
-106.883541006631270
 40
21.999999999999886
  0
LINE
  8
0
  6
CONTINUOUS
 62
3
 10
382.103212906953560
 20
-206.883541006631280
 11
407.103212906953560
 21
-206.883541006631280
  0
LINE
  8
0
  6
CONTINUOUS
 62
3
 10
407.103212906953560
 20
-194.883541006631280
 11
407.103212906953560
 21
-206.883541006631280
  0
LINE
  8
0
  6
CONTINUOUS
 62
3
 10
117.840705064673780
 20
-206.883541006631390
 11
12.840705064673784
 21
-206.883541006631390
  0
LINE
  8
0
  6
CONTINUOUS
 62
3
 10
10.840705064673784
 20
-206.383541006631390
 11
10.840705064673784
 21
-194.796279819867210
  0
LINE
  8
0
  6
CONTINUOUS
 62
3
 10
119.840705064673780
 20
-194.831632795978410
 11
119.840705064673780
 21
-206.383541006631390
  0
ARC
  8
0
  6
CONTINUOUS
 62
3
 10
42.690705064674148
 20
-52.893890134124717
 40
0.400000000000091
 50
0.000000000000000
 51
90.000000000000000
  0
LINE
  8
0
  6
CONTINUOUS
 62
3
 10
40.840705064674239
 20
-60.624524479267563
 11
42.690705064674603
 21
-60.624524479267563
  0
ARC
  8
0
  6
CONTINUOUS
 62
3
 10
42.690705064674603
 20
-60.224524479267586
 40
0.399999999999977
 50
270.000000000000000
 51
0.000000000000000
  0
ARC
  8
0
  6
CONTINUOUS
 62
3
 10
40.840705064674239
 20
-61.624524479267563
 40
1.000000000000000
 50
90.000000000000000
 51
180.000000000000000
  0
LINE
  8
0
  6
CONTINUOUS
 62
3
 10
43.090705064674239
 20
-52.893890134124717
 11
43.090705064674239
 21
-60.224524479267586
  0
LINE
  8
0
  6
CONTINUOUS
 62
3
 10
40.840705064674239
 20
-52.493890134124740
 11
42.690705064674603
 21
-52.493890134124740
  0
ARC
  8
0
  6
CONTINUOUS
 62
3
 10
40.840705064674239
 20
-53.493890134124740
 40
1.000000000000000
 50
90.000000000000000
 51
180.000000000000000
  0
LINE
  8
0
  6
CONTINUOUS
 62
3
 10
39.307882174295742
 20
-67.883541006630992
 11
37.090705064674239
 21
-67.883541006630992
  0
LINE
  8
0
  6
CONTINUOUS
 62
3
 10
43.090705064674239
 20
-57.883541006630992
 11
37.090705064674239
 21
-57.883541006630992
  0
LINE
  8
0
  6
CONTINUOUS
 62
3
 10
37.090705064674239
 20
-67.883541006630992
 11
37.090705064674239
 21
-57.883541006630992
  0
LINE
  8
0
  6
CONTINUOUS
 62
3
 10
39.840705064674239
 20
-116.383541006630990
 11
39.840705064674239
 21
-106.883541006631210
  0
LINE
  8
0
  6
CONTINUOUS
 62
3
 10
39.840705064674239
 20
-61.624524479267563
 11
39.840705064674239
 21
-106.883541006631210
  0
LINE
  8
0
  6
CONTINUOUS
 62
3
 10
17.340705064674239
 20
-126.883541006631100
 11
17.340705064674239
 21
-185.383541006631220
  0
LINE
  8
0
  6
CONTINUOUS
 62
3
 10
17.340705064674239
 20
-126.883541006631100
 11
17.340705064674239
 21
-68.383541006631219
  0
LINE
  8
0
  6
CONTINUOUS
 62
3
 10
48.840705064673784
 20
-46.883541006631106
 11
48.840705064673784
 21
-106.883541006631210
  0
LINE
  8
0
  6
CONTINUOUS
 62
3
 10
48.840705064673784
 20
-185.217408667423000
 11
48.840705064674694
 21
-106.883541006631210
  0
ARC
  8
0
  6
CONTINUOUS
 62
3
 10
38.840705064674239
 20
-66.999377250166333
 40
1.000000000000006
 50
270.999999999975730
 51
0.000000000000000
  0
ARC
  8
0
  6
CONTINUOUS
 62
3
 10
38.840705064674239
 20
-186.767704763095940
 40
1.000000000000000
 50
0.000000000000000
 51
89.000000000024286
  0
LINE
  8
0
  6
CONTINUOUS
 62
3
 10
17.340705064674239
 20
-68.374813474167070
 11
38.858157471111099
 21
-67.999224945322737
  0
LINE
  8
0
  6
CONTINUOUS
 62
3
 10
17.340705064674239
 20
-185.392268539095310
 11
38.858157471111099
 21
-185.767857067939530
  0
LINE
  8
0
  6
CONTINUOUS
 62
3
 10
39.840705064674239
 20
-47.883541006631106
 11
39.840705064674694
 21
-57.883541006630992
  0
LINE
  8
0
  6
CONTINUOUS
 62
3
 10
39.840705064674239
 20
-190.019332246275100
 11
39.840705064674239
 21
-126.383541006630990
  0
ARC
  8
0
  6
CONTINUOUS
 62
3
 10
40.840705064673784
 20
-114.133541006630990
 40
1.000000000000000
 50
180.000000000000000
 51
270.000000000000000
  0
ARC
  8
0
  6
CONTINUOUS
 62
3
 10
42.690705064674148
 20
-115.533541006631020
 40
0.399999999999636
 50
0.000000000000000
 51
90.000000000000000
  0
LINE
  8
0
  6
CONTINUOUS
 62
3
 10
43.090705064673784
 20
-115.533541006631020
 11
43.090705064673784
 21
-127.233541006631010
  0
LINE
  8
0
  6
CONTINUOUS
 62
3
 10
40.840705064673784
 20
-115.133541006630990
 11
42.690705064674148
 21
-115.133541006630990
  0
ARC
  8
0
  6
CONTINUOUS
 62
3
 10
40.840705064673784
 20
-128.633541006630990
 40
1.000000000000000
 50
90.000000000000000
 51
180.000000000000000
  0
LINE
  8
0
  6
CONTINUOUS
 62
3
 10
40.840705064673784
 20
-127.633541006630990
 11
42.690705064674148
 21
-127.633541006630990
  0
ARC
  8
0
  6
CONTINUOUS
 62
3
 10
42.690705064674148
 20
-127.233541006631010
 40
0.399999999999977
 50
270.000000000000000
 51
0.000000000000000
  0
ARC
  8
0
  6
CONTINUOUS
 62
3
 10
39.340705064673784
 20
-111.883541006631100
 40
0.500000000000000
 50
180.000000000000000
 51
270.000000000000000
  0
ARC
  8
0
  6
CONTINUOUS
 62
3
 10
39.340705064673784
 20
-112.883541006631100
 40
0.500000000000000
 50
0.000000000000000
 51
90.000000000000000
  0
LINE
  8
0
  6
CONTINUOUS
 62
3
 10
38.840705064673784
 20
-96.883541006631106
 11
38.840705064673784
 21
-111.883541006631100
  0
ARC
  8
0
  6
CONTINUOUS
 62
3
 10
39.340705064673784
 20
-96.883541006631106
 40
0.500000000000000
 50
90.000000000000000
 51
180.000000000000000
  0
ARC
  8
0
  6
CONTINUOUS
 62
3
 10
39.340705064673784
 20
-95.883541006631106
 40
0.500000000000000
 50
270.000000000000000
 51
0.000000000000000
  0
INSERT
  8
0
  2
SYM1
 10
43.090705064673784
 20
-121.383541006630990
  0
LINE
  8
0
  6
CONTINUOUS
 62
3
 10
49.340705064673784
 20
-46.883541006631390
 11
71.340947666736156
 21
-47.267556669686996
  0
ARC
  8
0
  6
CONTINUOUS
 62
3
 10
40.840705064674239
 20
-47.883541006631106
 40
1.000000000000000
 50
90.000000000000000
 51
180.000000000000000
  0
LINE
  8
0
  6
CONTINUOUS
 62
3
 10
48.840705064674239
 20
-46.883541006631106
 11
40.840705064674239
 21
-46.883541006631106
  0
LINE
  8
0
  6
CONTINUOUS
 62
3
 10
48.840705064674239
 20
-46.883541006631106
 11
40.840705064674239
 21
-46.883541006631106
  0
ARC
  8
0
  6
CONTINUOUS
 62
3
 10
40.840705064674239
 20
-47.883541006631106
 40
1.000000000000000
 50
90.000000000000000
 51
180.000000000000000
  0
LINE
  8
0
  6
CONTINUOUS
 62
3
 10
49.340705064673784
 20
-46.883541006631390
 11
71.340947666736156
 21
-47.267556669686996
  0
INSERT
  8
0
  2
SYM1
 10
43.090705064673784
 20
-121.383541006630990
  0
ARC
  8
0
  6
CONTINUOUS
 62
3
 10
39.340705064673784
 20
-95.883541006631106
 40
0.500000000000000
 50
270.000000000000000
 51
0.000000000000000
  0
ARC
  8
0
  6
CONTINUOUS
 62
3
 10
39.340705064673784
 20
-96.883541006631106
 40
0.500000000000000
 50
90.000000000000000
 51
180.000000000000000
  0
LINE
  8
0
  6
CONTINUOUS
 62
3
 10
38.840705064673784
 20
-96.883541006631106
 11
38.840705064673784
 21
-111.883541006631100
  0
ARC
  8
0
  6
CONTINUOUS
 62
3
 10
39.340705064673784
 20
-112.883541006631100
 40
0.500000000000000
 50
0.000000000000000
 51
90.000000000000000
  0
ARC
  8
0
  6
CONTINUOUS
 62
3
 10
39.340705064673784
 20
-111.883541006631100
 40
0.500000000000000
 50
180.000000000000000
 51
270.000000000000000
  0
ARC
  8
0
  6
CONTINUOUS
 62
3
 10
42.690705064674148
 20
-127.233541006631010
 40
0.399999999999977
 50
270.000000000000000
 51
0.000000000000000
  0
LINE
  8
0
  6
CONTINUOUS
 62
3
 10
40.840705064673784
 20
-127.633541006630990
 11
42.690705064674148
 21
-127.633541006630990
  0
ARC
  8
0
  6
CONTINUOUS
 62
3
 10
40.840705064673784
 20
-128.633541006630990
 40
1.000000000000000
 50
90.000000000000000
 51
180.000000000000000
  0
LINE
  8
0
  6
CONTINUOUS
 62
3
 10
40.840705064673784
 20
-115.133541006630990
 11
42.690705064674148
 21
-115.133541006630990
  0
LINE
  8
0
  6
CONTINUOUS
 62
3
 10
43.090705064673784
 20
-115.533541006631020
 11
43.090705064673784
 21
-127.233541006631010
  0
ARC
  8
0
  6
CONTINUOUS
 62
3
 10
42.690705064674148
 20
-115.533541006631020
 40
0.399999999999636
 50
0.000000000000000
 51
90.000000000000000
  0
ARC
  8
0
  6
CONTINUOUS
 62
3
 10
40.840705064673784
 20
-114.133541006630990
 40
1.000000000000000
 50
180.000000000000000
 51
270.000000000000000
  0
LINE
  8
0
  6
CONTINUOUS
 62
3
 10
39.840705064674239
 20
-190.019332246275100
 11
39.840705064674239
 21
-126.383541006630990
  0
LINE
  8
0
  6
CONTINUOUS
 62
3
 10
39.840705064674239
 20
-47.883541006631106
 11
39.840705064674694
 21
-57.883541006630992
  0
LINE
  8
0
  6
CONTINUOUS
 62
3
 10
17.340705064674239
 20
-185.392268539095310
 11
38.858157471111099
 21
-185.767857067939530
  0
LINE
  8
0
  6
CONTINUOUS
 62
3
 10
17.340705064674239
 20
-68.374813474167070
 11
38.858157471111099
 21
-67.999224945322737
  0
ARC
  8
0
  6
CONTINUOUS
 62
3
 10
38.840705064674239
 20
-186.767704763095940
 40
1.000000000000000
 50
0.000000000000000
 51
89.000000000024286
  0
ARC
  8
0
  6
CONTINUOUS
 62
3
 10
38.840705064674239
 20
-66.999377250166333
 40
1.000000000000006
 50
270.999999999975730
 51
0.000000000000000
  0
LINE
  8
0
  6
CONTINUOUS
 62
3
 10
48.840705064673784
 20
-185.217408667423000
 11
48.840705064674694
 21
-106.883541006631210
  0
LINE
  8
0
  6
CONTINUOUS
 62
3
 10
48.840705064673784
 20
-46.883541006631106
 11
48.840705064673784
 21
-106.883541006631210
  0
LINE
  8
0
  6
CONTINUOUS
 62
3
 10
17.340705064674239
 20
-126.883541006631100
 11
17.340705064674239
 21
-68.383541006631219
  0
LINE
  8
0
  6
CONTINUOUS
 62
3
 10
17.340705064674239
 20
-126.883541006631100
 11
17.340705064674239
 21
-185.383541006631220
  0
LINE
  8
0
  6
CONTINUOUS
 62
3
 10
39.840705064674239
 20
-61.624524479267563
 11
39.840705064674239
 21
-106.883541006631210
  0
LINE
  8
0
  6
CONTINUOUS
 62
3
 10
39.840705064674239
 20
-116.383541006630990
 11
39.840705064674239
 21
-106.883541006631210
  0
LINE
  8
0
  6
CONTINUOUS
 62
3
 10
37.090705064674239
 20
-67.883541006630992
 11
37.090705064674239
 21
-57.883541006630992
  0
LINE
  8
0
  6
CONTINUOUS
 62
3
 10
43.090705064674239
 20
-57.883541006630992
 11
37.090705064674239
 21
-57.883541006630992
  0
LINE
  8
0
  6
CONTINUOUS
 62
3
 10
39.307882174295742
 20
-67.883541006630992
 11
37.090705064674239
 21
-67.883541006630992
  0
ARC
  8
0
  6
CONTINUOUS
 62
3
 10
40.840705064674239
 20
-53.493890134124740
 40
1.000000000000000
 50
90.000000000000000
 51
180.000000000000000
  0
LINE
  8
0
  6
CONTINUOUS
 62
3
 10
40.840705064674239
 20
-52.493890134124740
 11
42.690705064674603
 21
-52.493890134124740
  0
LINE
  8
0
  6
CONTINUOUS
 62
3
 10
43.090705064674239
 20
-52.893890134124717
 11
43.090705064674239
 21
-60.224524479267586
  0
ARC
  8
0
  6
CONTINUOUS
 62
3
 10
40.840705064674239
 20
-61.624524479267563
 40
1.000000000000000
 50
90.000000000000000
 51
180.000000000000000
  0
ARC
  8
0
  6
CONTINUOUS
 62
3
 10
42.690705064674603
 20
-60.224524479267586
 40
0.399999999999977
 50
270.000000000000000
 51
0.000000000000000
  0
LINE
  8
0
  6
CONTINUOUS
 62
3
 10
40.840705064674239
 20
-60.624524479267563
 11
42.690705064674603
 21
-60.624524479267563
  0
ARC
  8
0
  6
CONTINUOUS
 62
3
 10
42.690705064674148
 20
-52.893890134124717
 40
0.400000000000091
 50
0.000000000000000
 51
90.000000000000000
  0
LINE
  8
0
  6
CONTINUOUS
 62
3
 10
119.840705064673780
 20
-194.831632795978410
 11
119.840705064673780
 21
-206.383541006631390
  0
LINE
  8
0
  6
CONTINUOUS
 62
3
 10
10.840705064673784
 20
-206.383541006631390
 11
10.840705064673784
 21
-194.796279819867210
  0
LINE
  8
0
  6
CONTINUOUS
 62
3
 10
117.840705064673780
 20
-206.883541006631390
 11
12.840705064673784
 21
-206.883541006631390
  0
LINE
  8
0
  6
CONTINUOUS
 62
3
 10
407.103212906953560
 20
-194.883541006631280
 11
407.103212906953560
 21
-206.883541006631280
  0
LINE
  8
0
  6
CONTINUOUS
 62
3
 10
382.103212906953560
 20
-206.883541006631280
 11
407.103212906953560
 21
-206.883541006631280
  0
CIRCLE
  8
0
  6
CONTINUOUS
 62
3
 10
322.103212906953560
 20
-106.883541006631270
 40
21.999999999999886
  0
ARC
  8
0
  6
CONTINUOUS
 62
3
 10
322.103212906953560
 20
-496.883541006631390
 40
428.485521792586160
 50
90.000000000000000
 51
92.232868242791412
  0
LINE
  8
0
  6
CONTINUOUS
 62
3
 10
322.103212906953560
 20
-191.883541006631280
 11
404.103212906953560
 21
-191.883541006631280
  0
LINE
  8
0
  6
CONTINUOUS
 62
3
 10
380.588734699539600
 20
-112.175859773204360
 11
380.588734699539600
 21
-188.883541006631280
  0
ARC
  8
0
  6
CONTINUOUS
 62
3
 10
322.103212906953560
 20
-496.883541006631390
 40
428.485521792586160
 50
87.767131757208588
 51
90.000000000000000
  0
ARC
  8
0
  6
CONTINUOUS
 62
3
 10
337.103212906953560
 20
-112.175859773204360
 40
43.485521792586042
 50
0.000000000000000
 51
87.767131757209086
  0
ARC
  8
0
  6
CONTINUOUS
 62
3
 10
337.103212906953560
 20
-112.175859773204360
 40
65.000000000000000
 50
0.000000000000000
 51
87.767131757208730
  0
LINE
  8
0
  6
CONTINUOUS
 62
3
 10
402.103212906953560
 20
-112.175859773204360
 11
402.103212906953560
 21
-188.967461223531700
  0
POLYLINE
  8
0
  6
CONTINUOUS
 62
3
 66
1
  0
VERTEX
  8
0
  6
CONTINUOUS
 62
3
 10
260.277763556236100
 20
-106.883541006631270
  0
VERTEX
  8
0
  6
CONTINUOUS
 62
3
 10
260.167505859907640
 20
-105.046045800943030
  0
VERTEX
  8
0
  6
CONTINUOUS
 62
3
 10
259.840487464644700
 20
-103.271124292542630
  0
VERTEX
  8
0
  6
CONTINUOUS
 62
3
 10
259.307844590019100
 20
-101.619219306441300
  0
VERTEX
  8
0
  6
CONTINUOUS
 62
3
 10
258.587715750839550
 20
-100.146584487398820
  0
VERTEX
  8
0
  6
CONTINUOUS
 62
3
 10
257.704624071765980
 20
-98.903368649462195
  0
VERTEX
  8
0
  6
CONTINUOUS
 62
3
 10
256.688642181686190
 20
-97.931908018198527
  0
VERTEX
  8
0
  6
CONTINUOUS
 62
3
 10
255.574368126376270
 20
-97.265284521266523
  0
VERTEX
  8
0
  6
CONTINUOUS
 62
3
 10
254.399747173511970
 20
-96.926199223013356
  0
VERTEX
  8
0
  6
CONTINUOUS
 62
3
 10
253.204779632049140
 20
-96.926199266931960
  0
VERTEX
  8
0
  6
CONTINUOUS
 62
3
 10
252.030158689636320
 20
-97.265284651526770
  0
VERTEX
  8
0
  6
CONTINUOUS
 62
3
 10
250.915884654873480
 20
-97.931908230364556
  0
VERTEX
  8
0
  6
CONTINUOUS
 62
3
 10
249.899902794736620
 20
-98.903368936308937
  0
VERTEX
  8
0
  6
CONTINUOUS
 62
3
 10
249.016811153982190
 20
-100.146584839158060
  0
VERTEX
  8
0
  6
CONTINUOUS
 62
3
 10
248.296682360193050
 20
-101.619219711134290
  0
VERTEX
  8
0
  6
CONTINUOUS
 62
3
 10
247.764039536483440
 20
-103.271124736388040
  0
VERTEX
  8
0
  6
CONTINUOUS
 62
3
 10
247.437021195928170
 20
-105.046046268826240
  0
VERTEX
  8
0
  6
CONTINUOUS
 62
3
 10
247.326763556236070
 20
-106.883541482619080
  0
SEQEND
  8
0
  6
CONTINUOUS
 62
3
  0
LINE
  8
0
  6
CONTINUOUS
 62
3
 10
396.879662257671040
 20
-188.883541006631280
 11
396.879662257671040
 21
-106.883540530643470
  0
LINE
  8
0
  6
CONTINUOUS
 62
3
 10
383.928662257671020
 20
-188.883541006631280
 11
383.928662257671020
 21
-106.883541006631270
  0
POLYLINE
  8
0
  6
CONTINUOUS
 62
3
 66
1
  0
VERTEX
  8
0
  6
CONTINUOUS
 62
3
 10
396.879662257671040
 20
-106.883541482619080
  0
VERTEX
  8
0
  6
CONTINUOUS
 62
3
 10
396.769404617978980
 20
-105.046046268826240
  0
VERTEX
  8
0
  6
CONTINUOUS
 62
3
 10
396.442386277423680
 20
-103.271124736388040
  0
VERTEX
  8
0
  6
CONTINUOUS
 62
3
 10
395.909743453714040
 20
-101.619219711134290
  0
VERTEX
  8
0
  6
CONTINUOUS
 62
3
 10
395.189614659924930
 20
-100.146584839158060
  0
VERTEX
  8
0
  6
CONTINUOUS
 62
3
 10
394.306523019170470
 20
-98.903368936308937
  0
VERTEX
  8
0
  6
CONTINUOUS
 62
3
 10
393.290541159033640
 20
-97.931908230364556
  0
VERTEX
  8
0
  6
CONTINUOUS
 62
3
 10
392.176267124270790
 20
-97.265284651526756
  0
VERTEX
  8
0
  6
CONTINUOUS
 62
3
 10
391.001646181857950
 20
-96.926199266931960
  0
VERTEX
  8
0
  6
CONTINUOUS
 62
3
 10
389.806678640395150
 20
-96.926199223013356
  0
VERTEX
  8
0
  6
CONTINUOUS
 62
3
 10
388.632057687530850
 20
-97.265284521266508
  0
VERTEX
  8
0
  6
CONTINUOUS
 62
3
 10
387.517783632220930
 20
-97.931908018198527
  0
VERTEX
  8
0
  6
CONTINUOUS
 62
3
 10
386.501801742141140
 20
-98.903368649462195
  0
VERTEX
  8
0
  6
CONTINUOUS
 62
3
 10
385.618710063067570
 20
-100.146584487398820
  0
VERTEX
  8
0
  6
CONTINUOUS
 62
3
 10
384.898581223888020
 20
-101.619219306441300
  0
VERTEX
  8
0
  6
CONTINUOUS
 62
3
 10
384.365938349262420
 20
-103.271124292542630
  0
VERTEX
  8
0
  6
CONTINUOUS
 62
3
 10
384.038919953999480
 20
-105.046045800943030
  0
VERTEX
  8
0
  6
CONTINUOUS
 62
3
 10
383.928662257671020
 20
-106.883541006631270
  0
SEQEND
  8
0
  6
CONTINUOUS
 62
3
  0
LINE
  8
0
  6
CONTINUOUS
 62
3
 10
322.103212906953560
 20
-204.883541006631280
 11
357.488834629291890
 21
-204.883541006631280
  0
ARC
  8
0
  6
CONTINUOUS
 62
3
 10
404.103212906953560
 20
-194.883541006631280
 40
3.000000000000000
 50
0.000000000000000
 51
90.000000000000000
  0
LINE
  8
0
  6
CONTINUOUS
 62
3
 10
381.103212906953560
 20
-205.883541006631280
 11
358.293737887642240
 21
-205.883541006631280
  0
ARC
  8
0
  6
CONTINUOUS
 62
3
 10
364.103212906953560
 20
-200.383541006631280
 40
8.000000000000162
 50
214.228866327811770
 51
223.432536557788810
  0
LINE
  8
0
  6
CONTINUOUS
 62
3
 10
94.841564296417346
 20
-106.883541006631390
 11
94.841564296417346
 21
-188.499087592024810
  0
LINE
  8
0
  6
CONTINUOUS
 62
3
 10
114.841564296417340
 20
-106.883541006631390
 11
114.841564296417340
 21
-188.915698313731920
  0
ARC
  8
0
  6
CONTINUOUS
 62
3
 10
104.841564296417340
 20
-106.883541006631390
 40
10.000000000000000
 50
0.000000000000000
 51
180.000000000000000
  0
LINE
  8
0
  6
CONTINUOUS
 62
3
 10
117.840705064673780
 20
-106.883541006631270
 11
117.840705064673780
 21
-191.367531180840730
  0
LINE
  8
0
  6
CONTINUOUS
 62
3
 10
117.840705064673780
 20
-68.931990169731307
 11
117.840705064673780
 21
-106.883541006631270
  0
LINE
  8
0
  6
CONTINUOUS
 62
3
 10
116.893062283985720
 20
-191.832089710509310
 11
51.340705064673784
 21
-190.687869059048470
  0
ARC
  8
0
  6
CONTINUOUS
 62
3
 10
116.840705064673780
 20
-194.831632795978410
 40
3.000000000000000
 50
0.000000000000000
 51
88.999999999998209
  0
LINE
  8
0
  6
CONTINUOUS
 62
3
 10
13.752175344825901
 20
-191.797586356256030
 11
51.340705064673330
 21
-190.687869059048470
  0
ARC
  8
0
  6
CONTINUOUS
 62
3
 10
49.340705064673784
 20
-182.683767278647680
 40
1.999999999999982
 50
298.082020081924780
 51
0.000000000000000
  0
LINE
  8
0
  6
CONTINUOUS
 62
3
 10
50.282175142445340
 20
-184.448316539127630
 11
38.461292239230261
 21
-190.755313909772100
  0
ARC
  8
0
  6
CONTINUOUS
 62
3
 10
13.840705064673784
 20
-194.796279819867210
 40
3.000000000000122
 50
91.691038599321914
 51
180.000000000000000
  0
LINE
  8
0
  6
DASHDOT
 62
4
 10
107.840705064673780
 20
-190.929315214229180
 11
107.840705064673780
 21
-210.217159018106030
  0
LINE
  8
0
  6
DASHDOT
 62
4
 10
22.840705064673784
 20
-213.717159018106030
 11
22.840705064673784
 21
-186.102167351015960
  0
ARC
  8
0
  6
CONTINUOUS
 62
3
 10
70.101826809689101
 20
-112.255829057526960
 40
64.999999999999844
 50
43.446738789854415
 51
89.000000000000227
  0
ARC
  8
0
  6
CONTINUOUS
 62
3
 10
115.840705064673780
 20
-68.931990169731307
 40
2.000000000000000
 50
0.000000000000000
 51
43.446738789856049
  0
ARC
  8
0
  6
CONTINUOUS
 62
3
 10
118.840705064673780
 20
-83.883541006631390
 40
1.000000000000000
 50
180.000000000000000
 51
270.000000000000000
  0
ARC
  8
0
  6
CONTINUOUS
 62
3
 10
118.840705064673780
 20
-85.883541006631390
 40
1.000000000000000
 50
0.000000000000000
 51
90.000000000000000
  0
LINE
  8
0
  6
CONTINUOUS
 62
3
 10
119.840705064673780
 20
-106.883541006631270
 11
119.840705064673780
 21
-85.883541006631390
  0
ARC
  8
0
  6
CONTINUOUS
 62
3
 10
118.840705064673780
 20
-129.883541006631160
 40
1.000000000000000
 50
90.000000000000000
 51
180.000000000000000
  0
ARC
  8
0
  6
CONTINUOUS
 62
3
 10
118.840705064673780
 20
-127.883541006631160
 40
1.000000000000000
 50
270.000000000000000
 51
0.000000000000000
  0
LINE
  8
0
  6
CONTINUOUS
 62
3
 10
119.840705064673780
 20
-106.883541006631270
 11
119.840705064673780
 21
-127.883541006631160
  0
LINE
  8
0
  6
DASHDOT
 62
4
 10
322.103212906953560
 20
-37.631599301923188
 11
322.103212906953560
 21
-215.164332522999760
  0
LINE
  8
0
  6
DASHDOT
 62
4
 10
397.103212906953560
 20
-210.964044775600540
 11
397.103212906953560
 21
-189.058242651577070
  0
LINE
  8
0
  6
CONTINUOUS
 62
3
 10
51.340705064673784
 20
-182.683767278647680
 11
51.340705064673784
 21
-165.509046938177220
  0
ARC
  8
0
  6
CONTINUOUS
 62
3
 10
49.340705064673784
 20
-165.509046938177220
 40
2.000000000000000
 50
0.000000000000000
 51
88.499999999997257
  0
LINE
  8
0
  6
CONTINUOUS
 62
3
 10
49.340705064673784
 20
-184.950635135264860
 11
49.340705064673784
 21
-108.883541006631270
  0
LINE
  8
0
  6
CONTINUOUS
 62
3
 10
49.340705064673784
 20
-46.874813474167354
 11
49.340705064673784
 21
-108.883541006631270
  0
ARC
  8
0
  6
CONTINUOUS
 62
3
 10
118.840705064673780
 20
-191.367531180840730
 40
1.000000000000000
 50
180.000000000000000
 51
239.999999999999460
  0
ARC
  8
0
  6
CONTINUOUS
 62
3
 10
381.103212906953560
 20
-206.883541006631280
 40
1.000000000000000
 50
0.000000000000000
 51
90.000000000000000
  0
LINE
  8
0
  6
CONTINUOUS
 62
3
 10
12.840705064673784
 20
-206.883541006631390
 11
12.840705064673784
 21
-206.383541006631390
  0
LINE
  8
0
  6
CONTINUOUS
 62
3
 10
12.840705064673784
 20
-206.383541006631390
 11
10.840705064673784
 21
-206.383541006631390
  0
LINE
  8
0
  6
CONTINUOUS
 62
3
 10
117.840705064673780
 20
-206.383541006631390
 11
117.840705064673780
 21
-206.883541006631390
  0
LINE
  8
0
  6
CONTINUOUS
 62
3
 10
119.840705064673780
 20
-206.383541006631390
 11
117.840705064673780
 21
-206.383541006631390
  0
ARC
  8
0
  6
CONTINUOUS
 62
3
 10
97.841564296417346
 20
-188.499087592024810
 40
3.000000000000000
 50
180.000000000000000
 51
268.999999999998240
  0
ARC
  8
0
  6
CONTINUOUS
 62
3
 10
117.841564296417340
 20
-188.915698313731920
 40
3.000000000000000
 50
180.000000000000000
 51
260.397610222583640
  0
ARC
  8
0
  6
CONTINUOUS
 62
3
 10
37.049087122572928
 20
-188.108490019052060
 40
3.000000000000008
 50
271.691038599321980
 51
298.082020081925290
  0
ARC
  8
0
  6
CONTINUOUS
 62
3
 10
405.103212906953560
 20
-188.967461223531700
 40
3.000000000000000
 50
180.000000000000000
 51
260.405931773139460
  0
ARC
  8
0
  6
CONTINUOUS
 62
3
 10
399.879662257671040
 20
-188.883541006631280
 40
3.000000000000000
 50
180.000000000000000
 51
270.000000000000000
  0
ARC
  8
0
  6
CONTINUOUS
 62
3
 10
386.928662257671020
 20
-188.883541006631280
 40
3.000000000000000
 50
180.000000000000000
 51
270.000000000000000
  0
ARC
  8
0
  6
CONTINUOUS
 62
3
 10
383.588734699539600
 20
-188.883541006631280
 40
3.000000000000000
 50
180.000000000000000
 51
270.000000000000000
  0
ARC
  8
0
  6
CONTINUOUS
 62
3
 10
322.103212906953560
 20
-106.883541006631270
 40
29.500000000000220
 50
183.640275875615290
 51
270.000000000000000
  0
ARC
  8
0
  6
CONTINUOUS
 62
3
 10
290.666769087717060
 20
-108.883541006631270
 40
1.999999999999982
 50
3.640275875614456
 51
90.000000000000000
  0
ARC
  8
0
  6
CONTINUOUS
 62
3
 10
322.103212906953560
 20
-106.883541006631270
 40
29.500000000000000
 50
270.000000000000000
 51
356.359724124384740
  0
ARC
  8
0
  6
CONTINUOUS
 62
3
 10
353.539656726190060
 20
-108.883541006631270
 40
2.000000000000000
 50
90.000000000000000
 51
176.359724124385540
  0
LINE
  8
0
  6
CONTINUOUS
 62
3
 10
373.603212906953560
 20
-110.383541006631270
 11
373.603212906953560
 21
-177.483541006631300
  0
ARC
  8
0
  6
CONTINUOUS
 62
3
 10
370.103212906953560
 20
-110.383541006631270
 40
3.500000000000000
 50
0.000000000000000
 51
90.000000000000000
  0
ARC
  8
0
  6
CONTINUOUS
 62
3
 10
366.603212906953560
 20
-177.483541006631300
 40
7.000000000000000
 50
270.000000000000000
 51
0.000000000000000
  0
LINE
  8
0
  6
CONTINUOUS
 62
3
 10
322.103212906953560
 20
-184.483541006631300
 11
366.603212906953560
 21
-184.483541006631300
  0
LINE
  8
0
  6
CONTINUOUS
 62
3
 10
370.103212906953560
 20
-106.883541006631270
 11
353.539656726190060
 21
-106.883541006631270
  0
CIRCLE
  8
0
  6
CONTINUOUS
 62
3
 10
322.103212906953560
 20
-106.883541006631270
 40
19.000000000000000
  0
LINE
  8
0
  6
CONTINUOUS
 62
3
 10
157.840705064673780
 20
-106.883541006631270
 11
157.840705064673780
 21
-117.483541006631180
  0
ARC
  8
0
  6
CONTINUOUS
 62
3
 10
157.440705064673690
 20
-117.483541006631180
 40
0.400000000000091
 50
270.000000000000000
 51
0.000000000000000
  0
LINE
  8
0
  6
DASHDOT
 62
4
 10
159.840705064673780
 20
-106.883541006631270
 11
157.840705064673780
 21
-106.883541006631270
  0
LINE
  8
0
  6
DASHDOT
 62
4
 10
159.840705064673780
 20
-106.883541006631270
 11
157.840705064673780
 21
-106.883541006631270
  0
LINE
  8
0
  6
CONTINUOUS
 62
3
 10
123.840705064673780
 20
-117.733541006631290
 11
122.640705064673960
 21
-117.733541006631290
  0
LINE
  8
0
  6
CONTINUOUS
 62
3
 10
124.400512685809190
 20
-117.883541006631270
 11
123.840705064673780
 21
-117.733541006631290
  0
LINE
  8
0
  6
CONTINUOUS
 62
3
 10
121.840705064673780
 20
-118.483541006631290
 11
121.440705064673690
 21
-118.883541006631270
  0
LINE
  8
0
  6
CONTINUOUS
 62
3
 10
157.440705064673690
 20
-117.883541006631270
 11
124.400512685809190
 21
-117.883541006631270
  0
ARC
  8
0
  6
CONTINUOUS
 62
3
 10
122.640705064673960
 20
-118.533541006631250
 40
0.799999999999955
 50
90.000000000000000
 51
176.296803365727810
  0
LINE
  8
0
  6
CONTINUOUS
 62
3
 10
123.840705064673780
 20
-117.733541006631290
 11
122.640705064673960
 21
-117.733541006631290
  0
LINE
  8
0
  6
CONTINUOUS
 62
3
 10
124.400512685809190
 20
-117.883541006631270
 11
123.840705064673780
 21
-117.733541006631290
  0
LINE
  8
0
  6
CONTINUOUS
 62
3
 10
121.840705064673780
 20
-118.483541006631290
 11
121.440705064673690
 21
-118.883541006631270
  0
LINE
  8
0
  6
CONTINUOUS
 62
3
 10
157.440705064673690
 20
-117.883541006631270
 11
124.400512685809190
 21
-117.883541006631270
  0
LINE
  8
0
  6
CONTINUOUS
 62
3
 10
121.840705064673780
 20
-106.883541006631270
 11
121.840705064673780
 21
-118.483541006631290
  0
LINE
  8
0
  6
CONTINUOUS
 62
3
 10
121.840705064673780
 20
-106.883541006631270
 11
121.840705064673780
 21
-95.283541006631253
  0
LINE
  8
0
  6
CONTINUOUS
 62
3
 10
123.840705064673780
 20
-96.033541006631253
 11
122.640705064673960
 21
-96.033541006631253
  0
LINE
  8
0
  6
CONTINUOUS
 62
3
 10
124.400512685809190
 20
-95.883541006631276
 11
123.840705064673780
 21
-96.033541006631253
  0
LINE
  8
0
  6
CONTINUOUS
 62
3
 10
121.840705064673780
 20
-95.283541006631253
 11
121.440705064673690
 21
-94.883541006631276
  0
ARC
  8
0
  6
CONTINUOUS
 62
3
 10
122.640705064673960
 20
-95.233541006631299
 40
0.800000000000229
 50
183.703196634272190
 51
270.000000000000000
  0
LINE
  8
0
  6
CONTINUOUS
 62
3
 10
123.840705064673780
 20
-96.033541006631253
 11
122.640705064673960
 21
-96.033541006631253
  0
LINE
  8
0
  6
CONTINUOUS
 62
3
 10
124.400512685809190
 20
-95.883541006631276
 11
123.840705064673780
 21
-96.033541006631253
  0
LINE
  8
0
  6
CONTINUOUS
 62
3
 10
121.840705064673780
 20
-95.283541006631253
 11
121.440705064673690
 21
-94.883541006631276
  0
ARC
  8
0
  6
CONTINUOUS
 62
3
 10
157.440705064673690
 20
-96.283541006631367
 40
0.400000000000091
 50
0.000000000000000
 51
90.000000000000000
  0
LINE
  8
0
  6
CONTINUOUS
 62
3
 10
157.440705064673690
 20
-95.883541006631276
 11
124.400512685809190
 21
-95.883541006631276
  0
LINE
  8
0
  6
CONTINUOUS
 62
3
 10
157.440705064673690
 20
-95.883541006631276
 11
124.400512685809190
 21
-95.883541006631276
  0
LINE
  8
0
  6
CONTINUOUS
 62
3
 10
119.840705064673780
 20
-94.883541006631276
 11
121.440705064673690
 21
-94.883541006631276
  0
LINE
  8
0
  6
CONTINUOUS
 62
3
 10
119.840705064673780
 20
-94.883541006631276
 11
121.440705064673690
 21
-94.883541006631276
  0
LINE
  8
0
  6
CONTINUOUS
 62
3
 10
119.840705064673780
 20
-118.883541006631270
 11
121.440705064673690
 21
-118.883541006631270
  0
LINE
  8
0
  6
CONTINUOUS
 62
3
 10
119.840705064673780
 20
-118.883541006631270
 11
121.440705064673690
 21
-118.883541006631270
  0
LINE
  8
0
  6
CONTINUOUS
 62
3
 10
157.840705064673780
 20
-106.883541006631270
 11
157.840705064673780
 21
-96.283541006631367
  0
ARC
  8
0
  6
CONTINUOUS
 62
3
 10
322.103212906953560
 20
-106.883541006631390
 40
11.000000000000037
 50
195.826620131872290
 51
164.173379868127710
  0
LINE
  8
0
  6
CONTINUOUS
 62
3
 10
314.603212906953560
 20
-103.883541006631390
 11
314.603212906953560
 21
-109.883541006631390
  0
CIRCLE
  8
0
  6
CONTINUOUS
 62
3
 10
322.103212906953560
 20
-106.883541006631270
 40
3.323500000000024
  0
CIRCLE
  8
0
  6
CONTINUOUS
 62
4
 10
322.103212906953560
 20
-106.883541006631270
 40
4.000000000000000
  0
CIRCLE
  8
0
  6
CONTINUOUS
 62
4
 10
322.103212906953560
 20
-106.883541006631270
 40
4.000000000000000
  0
ARC
  8
0
  6
CONTINUOUS
 62
3
 10
128.840705064674240
 20
-106.883541006631390
 40
3.000000000000000
 50
90.000000000000000
 51
270.000000000000000
  0
LINE
  8
0
  6
CONTINUOUS
 62
3
 10
157.840705064673780
 20
-103.883541006631390
 11
128.840705064674240
 21
-103.883541006631390
  0
LINE
  8
0
  6
CONTINUOUS
 62
3
 10
157.840705064673780
 20
-109.883541006631390
 11
128.840705064674240
 21
-109.883541006631390
  0
LINE
  8
0
  6
DASHDOT
 62
4
 10
166.062112664333200
 20
-106.883541006631270
 11
101.954142702018080
 21
-106.883541006631270
  0
ARC
  8
0
  6
CONTINUOUS
 62
3
 10
322.103212906953560
 20
-496.883541006631390
 40
450.000000000000110
 50
90.000000000000000
 51
92.232868242791497
  0
ARC
  8
0
  6
CONTINUOUS
 62
3
 10
322.103212906953560
 20
-496.883541006631390
 40
450.000000000000280
 50
87.767131757208560
 51
90.000000000000000
  0
LINE
  8
0
  6
CONTINUOUS
 62
3
 10
-18.209294935326966
 20
-84.286933366025153
 11
-53.659294935325761
 21
-84.286933366025153
  0
ARC
  8
0
  6
CONTINUOUS
 62
3
 10
-18.209294935326966
 20
-95.286933366025153
 40
11.000000000000000
 50
0.000000000000000
 51
90.000000000000000
  0
ARC
  8
0
  6
CONTINUOUS
 62
4
 10
-18.609294935326602
 20
-101.883541006630870
 40
5.000000000000000
 50
0.000000000000000
 51
90.000000000000000
  0
LINE
  8
0
  6
CONTINUOUS
 62
4
 10
-53.659294935325761
 20
-96.883541006630878
 11
-18.609294935326602
 21
-96.883541006630878
  0
ARC
  8
0
  6
CONTINUOUS
 62
3
 10
-18.609294935326602
 20
-95.381751569523715
 40
5.000000000000000
 50
0.000000000000000
 51
90.000000000000000
  0
LINE
  8
0
  6
CONTINUOUS
 62
3
 10
-53.659294935325761
 20
-90.381751569523715
 11
-18.609294935326602
 21
-90.381751569523715
  0
LINE
  8
0
  6
CONTINUOUS
 62
3
 10
-7.209294935326966
 20
-95.286933366025153
 11
-7.209294935326966
 21
-176.889652734280900
  0
LINE
  8
0
  6
CONTINUOUS
 62
3
 10
-13.609294935326602
 20
-95.381751569523715
 11
-13.609294935326602
 21
-171.459495776183810
  0
ARC
  8
0
  6
CONTINUOUS
 62
3
 10
-18.609294935326602
 20
-171.459495776183810
 40
5.000000000000000
 50
270.000000000000000
 51
0.000000000000000
  0
LINE
  8
0
  6
CONTINUOUS
 62
3
 10
-18.209294935326966
 20
-186.669442805053730
 11
-53.659294935325761
 21
-186.669442805053730
  0
LINE
  8
0
  6
CONTINUOUS
 62
3
 10
-18.209294935326966
 20
-187.889652734280900
 11
-53.659294935325761
 21
-187.889652734280900
  0
ARC
  8
0
  6
CONTINUOUS
 62
3
 10
-18.209294935326966
 20
-176.889652734280900
 40
11.000000000000000
 50
270.000000000000000
 51
0.000000000000000
  0
ARC
  8
0
  6
CONTINUOUS
 62
3
 10
-18.209294935326966
 20
-175.669442805053730
 40
11.000000000000000
 50
270.000000000000000
 51
0.000000000000000
  0
ARC
  8
0
  6
CONTINUOUS
 62
3
 10
-44.399076754712496
 20
-172.459495789034070
 40
4.000000000000156
 50
221.178434371117250
 51
270.000000000000000
  0
POLYLINE
  8
0
  6
CONTINUOUS
 62
3
 66
1
  0
VERTEX
  8
0
  6
CONTINUOUS
 62
3
 10
-47.409727876824718
 20
-175.093120633412040
  0
VERTEX
  8
0
  6
CONTINUOUS
 62
3
 10
-48.400697011911092
 20
-174.147992366891630
  0
VERTEX
  8
0
  6
CONTINUOUS
 62
3
 10
-49.560299391482765
 20
-173.379483564105950
  0
VERTEX
  8
0
  6
CONTINUOUS
 62
3
 10
-50.851348770379346
 20
-172.812238842254630
  0
VERTEX
  8
0
  6
CONTINUOUS
 62
3
 10
-52.232443647910948
 20
-172.464448661847510
  0
VERTEX
  8
0
  6
CONTINUOUS
 62
3
 10
-53.659294935325761
 20
-172.347265993196520
  0
SEQEND
  8
0
  6
CONTINUOUS
 62
3
  0
ARC
  8
0
  6
CONTINUOUS
 62
3
 10
-45.171820719605648
 20
-172.459495782407490
 40
3.999999999999828
 50
226.698420851470790
 51
270.000000000000000
  0
POLYLINE
  8
0
  6
CONTINUOUS
 62
3
 66
1
  0
VERTEX
  8
0
  6
CONTINUOUS
 62
3
 10
-47.915174363846290
 20
-175.370511203636060
  0
VERTEX
  8
0
  6
CONTINUOUS
 62
3
 10
-48.876874964420843
 20
-174.598632041709440
  0
VERTEX
  8
0
  6
CONTINUOUS
 62
3
 10
-49.961033132312764
 20
-173.976769473103870
  0
VERTEX
  8
0
  6
CONTINUOUS
 62
3
 10
-51.139888157957650
 20
-173.520846770518150
  0
VERTEX
  8
0
  6
CONTINUOUS
 62
3
 10
-52.383254545406039
 20
-173.242538187862070
  0
VERTEX
  8
0
  6
CONTINUOUS
 62
3
 10
-53.659294935325761
 20
-173.148970031943240
  0
SEQEND
  8
0
  6
CONTINUOUS
 62
3
  0
LINE
  8
0
  6
CONTINUOUS
 62
3
 10
-45.171820717932405
 20
-176.459495776183810
 11
-18.609294935326602
 21
-176.459495776183810
  0
POLYLINE
  8
0
  6
CONTINUOUS
 62
3
 66
1
 70
1
  0
VERTEX
  8
0
  6
CONTINUOUS
 62
3
 10
-50.159294935325761
 20
-180.202035540649430
  0
VERTEX
  8
0
  6
CONTINUOUS
 62
3
 10
-50.226546453914452
 20
-179.528445770603300
  0
VERTEX
  8
0
  6
CONTINUOUS
 62
3
 10
-50.425716571536256
 20
-178.880741677666550
  0
VERTEX
  8
0
  6
CONTINUOUS
 62
3
 10
-50.749151292266852
 20
-178.283814166894080
  0
VERTEX
  8
0
  6
CONTINUOUS
 62
3
 10
-51.184421201172846
 20
-177.760602827764100
  0
VERTEX
  8
0
  6
CONTINUOUS
 62
3
 10
-51.714799119757153
 20
-177.331214378619050
  0
VERTEX
  8
0
  6
CONTINUOUS
 62
3
 10
-52.319902922047945
 20
-177.012149976755780
  0
VERTEX
  8
0
  6
CONTINUOUS
 62
3
 10
-52.976478808269313
 20
-176.815671088204510
  0
VERTEX
  8
0
  6
CONTINUOUS
 62
3
 10
-53.659294935325761
 20
-176.749328286465640
  0
VERTEX
  8
0
  6
CONTINUOUS
 62
3
 10
-54.342111062382209
 20
-176.815671088204510
  0
VERTEX
  8
0
  6
CONTINUOUS
 62
3
 10
-54.998686948603577
 20
-177.012149976755780
  0
VERTEX
  8
0
  6
CONTINUOUS
 62
3
 10
-55.603790750894369
 20
-177.331214378619050
  0
VERTEX
  8
0
  6
CONTINUOUS
 62
3
 10
-56.134168669478676
 20
-177.760602827764100
  0
VERTEX
  8
0
  6
CONTINUOUS
 62
3
 10
-56.569438578384670
 20
-178.283814166894080
  0
VERTEX
  8
0
  6
CONTINUOUS
 62
3
 10
-56.892873299115266
 20
-178.880741677666550
  0
VERTEX
  8
0
  6
CONTINUOUS
 62
3
 10
-57.092043416737063
 20
-179.528445770603300
  0
VERTEX
  8
0
  6
CONTINUOUS
 62
3
 10
-57.159294935325761
 20
-180.202035540649430
  0
VERTEX
  8
0
  6
CONTINUOUS
 62
3
 10
-57.092043416737063
 20
-180.875625310695570
  0
VERTEX
  8
0
  6
CONTINUOUS
 62
3
 10
-56.892873299115266
 20
-181.523329403632320
  0
VERTEX
  8
0
  6
CONTINUOUS
 62
3
 10
-56.569438578384670
 20
-182.120256914404790
  0
VERTEX
  8
0
  6
CONTINUOUS
 62
3
 10
-56.134168669478676
 20
-182.643468253534760
  0
VERTEX
  8
0
  6
CONTINUOUS
 62
3
 10
-55.603790750894369
 20
-183.072856702679810
  0
VERTEX
  8
0
  6
CONTINUOUS
 62
3
 10
-54.998686948603577
 20
-183.391921104543090
  0
VERTEX
  8
0
  6
CONTINUOUS
 62
3
 10
-54.342111062382209
 20
-183.588399993094360
  0
VERTEX
  8
0
  6
CONTINUOUS
 62
3
 10
-53.659294935325761
 20
-183.654742794833230
  0
VERTEX
  8
0
  6
CONTINUOUS
 62
3
 10
-52.976478808269313
 20
-183.588399993094360
  0
VERTEX
  8
0
  6
CONTINUOUS
 62
3
 10
-52.319902922047952
 20
-183.391921104543090
  0
VERTEX
  8
0
  6
CONTINUOUS
 62
3
 10
-51.714799119757153
 20
-183.072856702679810
  0
VERTEX
  8
0
  6
CONTINUOUS
 62
3
 10
-51.184421201172846
 20
-182.643468253534760
  0
VERTEX
  8
0
  6
CONTINUOUS
 62
3
 10
-50.749151292266859
 20
-182.120256914404790
  0
VERTEX
  8
0
  6
CONTINUOUS
 62
3
 10
-50.425716571536263
 20
-181.523329403632320
  0
VERTEX
  8
0
  6
CONTINUOUS
 62
3
 10
-50.226546453914459
 20
-180.875625310695570
  0
SEQEND
  8
0
  6
CONTINUOUS
 62
3
  0
LINE
  8
0
  6
CONTINUOUS
 62
3
 10
-55.659294935325761
 20
-181.318439410858960
 11
-51.659294935325761
 21
-177.664257580288510
  0
LINE
  8
0
  6
CONTINUOUS
 62
3
 10
-51.659294935325761
 20
-181.318439410858960
 11
-55.659294935325761
 21
-177.664257580288510
  0
POLYLINE
  8
0
  6
CONTINUOUS
 62
3
 66
1
  0
VERTEX
  8
0
  6
CONTINUOUS
 62
3
 10
-53.659294935325761
 20
-173.148970031943240
  0
VERTEX
  8
0
  6
CONTINUOUS
 62
3
 10
-54.935335325245482
 20
-173.242538187862070
  0
VERTEX
  8
0
  6
CONTINUOUS
 62
3
 10
-56.178701712693872
 20
-173.520846770518150
  0
VERTEX
  8
0
  6
CONTINUOUS
 62
3
 10
-57.357556738338758
 20
-173.976769473103870
  0
VERTEX
  8
0
  6
CONTINUOUS
 62
3
 10
-58.441714906230679
 20
-174.598632041709440
  0
VERTEX
  8
0
  6
CONTINUOUS
 62
3
 10
-59.403415506805231
 20
-175.370511203636060
  0
SEQEND
  8
0
  6
CONTINUOUS
 62
3
  0
ARC
  8
0
  6
CONTINUOUS
 62
3
 10
-62.146769151046101
 20
-172.459495782407490
 40
3.999999993776328
 50
270.000000000000000
 51
313.301579148531630
  0
POLYLINE
  8
0
  6
CONTINUOUS
 62
3
 66
1
  0
VERTEX
  8
0
  6
CONTINUOUS
 62
3
 10
-53.659294935325761
 20
-172.347265993196520
  0
VERTEX
  8
0
  6
CONTINUOUS
 62
3
 10
-55.086146222740645
 20
-172.464448661847510
  0
VERTEX
  8
0
  6
CONTINUOUS
 62
3
 10
-56.467241100272311
 20
-172.812238842254690
  0
VERTEX
  8
0
  6
CONTINUOUS
 62
3
 10
-57.758290479168942
 20
-173.379483564106040
  0
VERTEX
  8
0
  6
CONTINUOUS
 62
3
 10
-58.917892858740643
 20
-174.147992366891800
  0
VERTEX
  8
0
  6
CONTINUOUS
 62
3
 10
-59.908861993827031
 20
-175.093120633412330
  0
SEQEND
  8
0
  6
CONTINUOUS
 62
3
  0
ARC
  8
0
  6
CONTINUOUS
 62
3
 10
-62.919513115939026
 20
-172.459495789034070
 40
3.999999987149749
 50
270.000000000000000
 51
318.821565628880590
  0
LINE
  8
0
  6
CONTINUOUS
 62
3
 10
-89.109294935324669
 20
-187.889652734280900
 11
-53.659294935325761
 21
-187.889652734280900
  0
LINE
  8
0
  6
CONTINUOUS
 62
3
 10
-89.109294935324669
 20
-186.669442805053730
 11
-53.659294935325761
 21
-186.669442805053730
  0
ARC
  8
0
  6
CONTINUOUS
 62
3
 10
-89.109294935324669
 20
-175.669442805053730
 40
11.000000000000000
 50
180.000000000000000
 51
270.000000000000000
  0
ARC
  8
0
  6
CONTINUOUS
 62
3
 10
-89.109294935324669
 20
-176.889652734280900
 40
11.000000000000000
 50
180.000000000000000
 51
270.000000000000000
  0
LINE
  8
0
  6
CONTINUOUS
 62
3
 10
-62.146769152719344
 20
-176.459495776183810
 11
-88.709294935325033
 21
-176.459495776183810
  0
ARC
  8
0
  6
CONTINUOUS
 62
3
 10
-88.709294935325033
 20
-171.459495776183810
 40
5.000000000000000
 50
180.000000000000000
 51
270.000000000000000
  0
LINE
  8
0
  6
DASHDOT
 62
4
 10
-53.659294935325761
 20
-81.383941173839105
 11
-53.659294935325761
 21
-194.037660599075760
  0
LINE
  8
0
  6
CONTINUOUS
 62
4
 10
-53.659294935325761
 20
-145.116388250925010
 11
-46.442416570456317
 21
-157.616388250925010
  0
LINE
  8
0
  6
CONTINUOUS
 62
4
 10
-39.225538205585963
 20
-145.116388250925010
 11
-53.659294935325761
 21
-145.116388250925010
  0
LINE
  8
0
  6
CONTINUOUS
 62
4
 10
-46.442416570455407
 20
-132.616388250925240
 11
-53.659294935325761
 21
-145.116388250925010
  0
LINE
  8
0
  6
CONTINUOUS
 62
4
 10
-53.659294935325761
 20
-120.116388250925010
 11
-46.442416570455407
 21
-132.616388250925010
  0
LINE
  8
0
  6
CONTINUOUS
 62
4
 10
-32.008659840715609
 20
-157.616388250925010
 11
-46.442416570456317
 21
-157.616388250925010
  0
LINE
  8
0
  6
CONTINUOUS
 62
4
 10
-39.225538205585963
 20
-145.116388250925010
 11
-32.008659840715609
 21
-157.616388250925010
  0
LINE
  8
0
  6
CONTINUOUS
 62
4
 10
-53.659294935325761
 20
-120.116388250925010
 11
-60.876173300196115
 21
-132.616388250925010
  0
LINE
  8
0
  6
CONTINUOUS
 62
4
 10
-60.876173300196115
 20
-132.616388250925240
 11
-53.659294935325761
 21
-145.116388250925010
  0
LINE
  8
0
  6
CONTINUOUS
 62
4
 10
-68.093051665065559
 20
-145.116388250925010
 11
-53.659294935325761
 21
-145.116388250925010
  0
LINE
  8
0
  6
CONTINUOUS
 62
4
 10
-68.093051665065559
 20
-145.116388250925010
 11
-75.309930029935913
 21
-157.616388250925010
  0
LINE
  8
0
  6
CONTINUOUS
 62
4
 10
-53.659294935325761
 20
-145.116388250925010
 11
-60.876173300195205
 21
-157.616388250925010
  0
LINE
  8
0
  6
CONTINUOUS
 62
4
 10
-75.309930029935913
 20
-157.616388250925010
 11
-60.876173300195205
 21
-157.616388250925010
  0
LINE
  8
0
  6
CONTINUOUS
 62
3
 10
-89.109294935324669
 20
-84.286933366025153
 11
-53.659294935325761
 21
-84.286933366025153
  0
ARC
  8
0
  6
CONTINUOUS
 62
3
 10
-89.109294935324669
 20
-95.286933366025153
 40
11.000000000000000
 50
90.000000000000000
 51
180.000000000000000
  0
LINE
  8
0
  6
CONTINUOUS
 62
3
 10
-53.659294935325761
 20
-90.381751569523715
 11
-88.709294935325033
 21
-90.381751569523715
  0
ARC
  8
0
  6
CONTINUOUS
 62
3
 10
-88.709294935325033
 20
-95.381751569523715
 40
5.000000000000000
 50
90.000000000000000
 51
180.000000000000000
  0
LINE
  8
0
  6
CONTINUOUS
 62
4
 10
-53.659294935325761
 20
-96.883541006630878
 11
-88.709294935325033
 21
-96.883541006630878
  0
ARC
  8
0
  6
CONTINUOUS
 62
4
 10
-88.709294935325033
 20
-101.883541006630870
 40
5.000000000000000
 50
90.000000000000000
 51
180.000000000000000
  0
LINE
  8
0
  6
CONTINUOUS
 62
3
 10
-93.709294935325033
 20
-95.381751569523715
 11
-93.709294935325033
 21
-171.459495776183810
  0
LINE
  8
0
  6
CONTINUOUS
 62
3
 10
-100.109294935324660
 20
-95.286933366025153
 11
-100.109294935324660
 21
-176.889652734280900
  0
LINE
  8
0
  6
CONTINUOUS
 62
4
 10
-7.209294935327080
 20
-96.601106680061832
 11
38.840705064673784
 21
-96.601106680061832
  0
LINE
  8
0
  6
CONTINUOUS
 62
4
 10
-7.209294935327080
 20
-102.053487549500740
 11
38.840705064673784
 21
-102.053487549500740
  0
LINE
  8
0
  6
CONTINUOUS
 62
4
 10
-7.209294935327080
 20
-100.691607214151470
 11
38.840705064673784
 21
-100.691607214151470
  0
LINE
  8
0
  6
CONTINUOUS
 62
4
 10
-7.209294935327080
 20
-106.883541006631100
 11
38.840705064673784
 21
-106.883541006631100
  0
LINE
  8
0
  6
CONTINUOUS
 62
4
 10
-79.659294935325647
 20
-69.883541006631106
 11
39.840705064674239
 21
-69.883541006631106
  0
LINE
  8
0
  6
CONTINUOUS
 62
4
 10
-79.659294935325647
 20
-69.383541006631106
 11
39.840705064674239
 21
-69.383541006631106
  0
LINE
  8
0
  6
CONTINUOUS
 62
4
 10
-79.659294935325647
 20
-70.883541006631106
 11
39.840705064674239
 21
-70.883541006631106
  0
LINE
  8
0
  6
CONTINUOUS
 62
4
 10
-79.659294935325647
 20
-71.883541006631106
 11
39.840705064674239
 21
-71.883541006631106
  0
LINE
  8
0
  6
CONTINUOUS
 62
4
 10
-79.659294935325647
 20
-76.568006819855611
 11
39.840705064674239
 21
-76.568006819855611
  0
LINE
  8
0
  6
CONTINUOUS
 62
4
 10
-79.659294935325647
 20
-81.517754288161370
 11
39.840705064674239
 21
-81.517754288161370
  0
LINE
  8
0
  6
CONTINUOUS
 62
4
 10
-8.815035638935115
 20
-89.564355950895163
 11
39.840705064674239
 21
-89.564355950895163
  0
LINE
  8
0
  6
CONTINUOUS
 62
4
 10
-8.009164708874550
 20
-91.169003866457217
 11
39.840705064674239
 21
-91.169003866457217
  0
LINE
  8
0
  6
CONTINUOUS
 62
4
 10
-7.209294935327080
 20
-95.132749290256754
 11
39.840705064674239
 21
-95.132749290256754
  0
LINE
  8
0
  6
CONTINUOUS
 62
3
 10
-79.659294935325647
 20
-84.286933366025153
 11
-79.659294935325647
 21
-66.883541006631106
  0
LINE
  8
0
  6
CONTINUOUS
 62
3
 10
17.340705064674239
 20
-68.383541006631106
 11
-79.659294935325647
 21
-68.383541006631106
  0
LINE
  8
0
  6
CONTINUOUS
 62
3
 10
17.340705064674239
 20
-68.383541006631106
 11
17.340705064674239
 21
-126.883541006631100
  0
LINE
  8
0
  6
CONTINUOUS
 62
3
 10
-79.659294935325647
 20
-66.883541006631106
 11
-108.353319157746000
 21
-66.883541006631106
  0
LINE
  8
0
  6
CONTINUOUS
 62
3
 10
-130.659294935275510
 20
-126.883541006631100
 11
-130.659294935275510
 21
-79.440335949385656
  0
ARC
  8
0
  6
CONTINUOUS
 62
3
 10
-108.353319157746000
 20
-86.883541006631106
 40
20.000000000000000
 50
90.000000000000000
 51
125.000000000000240
  0
LINE
  8
0
  6
CONTINUOUS
 62
3
 10
-119.824847884766990
 20
-70.500500120851314
 11
-129.550593669787990
 21
-77.310540634234542
  0
ARC
  8
0
  6
CONTINUOUS
 62
3
 10
-128.059294935275370
 20
-79.440335949385656
 40
2.599999999999721
 50
125.000000000001370
 51
180.000000000000000
  0
LINE
  8
0
  6
CONTINUOUS
 62
4
 10
-7.209294935327080
 20
-157.165975333200380
 11
39.840705064674239
 21
-157.165975333200380
  0
LINE
  8
0
  6
CONTINUOUS
 62
4
 10
-7.209294935327080
 20
-151.713594463761470
 11
39.840705064674239
 21
-151.713594463761470
  0
LINE
  8
0
  6
CONTINUOUS
 62
4
 10
-7.209294935327080
 20
-153.075474799110740
 11
39.840705064674239
 21
-153.075474799110740
  0
LINE
  8
0
  6
CONTINUOUS
 62
4
 10
-7.209294935327080
 20
-146.883541006631110
 11
39.840705064674239
 21
-146.883541006631110
  0
LINE
  8
0
  6
CONTINUOUS
 62
4
 10
-9.718975339818030
 20
-183.883541006631110
 11
39.840705064674239
 21
-183.883541006631110
  0
LINE
  8
0
  6
CONTINUOUS
 62
4
 10
-10.156864335717160
 20
-184.383541006631110
 11
39.840705064674239
 21
-184.383541006631110
  0
LINE
  8
0
  6
CONTINUOUS
 62
4
 10
-8.985775900892122
 20
-182.883541006631110
 11
39.840705064674239
 21
-182.883541006631110
  0
LINE
  8
0
  6
CONTINUOUS
 62
4
 10
-8.408219488046598
 20
-181.883541006631110
 11
39.840705064674239
 21
-181.883541006631110
  0
LINE
  8
0
  6
CONTINUOUS
 62
4
 10
-7.209294935327080
 20
-177.199075193406600
 11
39.840705064674239
 21
-177.199075193406600
  0
LINE
  8
0
  6
CONTINUOUS
 62
4
 10
-7.209294935327080
 20
-172.249327725100840
 11
39.840705064674239
 21
-172.249327725100840
  0
LINE
  8
0
  6
CONTINUOUS
 62
4
 10
-7.209294935327080
 20
-164.202726062367050
 11
39.840705064674239
 21
-164.202726062367050
  0
LINE
  8
0
  6
CONTINUOUS
 62
4
 10
-7.209294935327080
 20
-162.598078146804990
 11
39.840705064674239
 21
-162.598078146804990
  0
LINE
  8
0
  6
CONTINUOUS
 62
4
 10
-7.209294935327080
 20
-158.634332723005460
 11
39.840705064674239
 21
-158.634332723005460
  0
LINE
  8
0
  6
DASHDOT
 62
4
 10
60.000000000000000
 20
-126.883541006631100
 11
-140.588507473672280
 21
-126.883541006631100
  0
LINE
  8
0
  6
CONTINUOUS
 62
3
 10
17.340705064674239
 20
-185.383541006631110
 11
-11.219741157235603
 21
-185.383541006631110
  0
LINE
  8
0
  6
CONTINUOUS
 62
3
 10
17.340705064674239
 20
-185.383541006631110
 11
17.340705064674239
 21
-126.883541006631100
  0
LINE
  8
0
  6
CONTINUOUS
 62
3
 10
-93.705184098455220
 20
-186.883541006631110
 11
-108.353319157746000
 21
-186.883541006631110
  0
LINE
  8
0
  6
CONTINUOUS
 62
3
 10
-130.659294935275510
 20
-126.883541006631100
 11
-130.659294935275510
 21
-174.326746063876560
  0
ARC
  8
0
  6
CONTINUOUS
 62
3
 10
-108.353319157746000
 20
-166.883541006631110
 40
20.000000000000007
 50
234.999999999999740
 51
270.000000000000000
  0
LINE
  8
0
  6
CONTINUOUS
 62
3
 10
-119.824847884766990
 20
-183.266581892410900
 11
-129.550593669787990
 21
-176.456541379027670
  0
ARC
  8
0
  6
CONTINUOUS
 62
3
 10
-128.059294935275370
 20
-174.326746063876560
 40
2.600000000000136
 50
180.000000000000000
 51
234.999999999998610
  0
POLYLINE
  8
0
  6
CONTINUOUS
 62
3
 66
1
 70
1
  0
VERTEX
  8
0
  6
CONTINUOUS
 62
3
 10
-85.959294935325090
 20
-74.960015974571036
  0
VERTEX
  8
0
  6
CONTINUOUS
 62
3
 10
-86.049604117429908
 20
-74.257059008370675
  0
VERTEX
  8
0
  6
CONTINUOUS
 62
3
 10
-86.317061132522042
 20
-73.581116284158583
  0
VERTEX
  8
0
  6
CONTINUOUS
 62
3
 10
-86.751387757503124
 20
-72.958163901753181
  0
VERTEX
  8
0
  6
CONTINUOUS
 62
3
 10
-87.335893063748316
 20
-72.412141571854605
  0
VERTEX
  8
0
  6
CONTINUOUS
 62
3
 10
-88.048114840132953
 20
-71.964032626387990
  0
VERTEX
  8
0
  6
CONTINUOUS
 62
3
 10
-88.860682803209158
 20
-71.631057640825219
  0
VERTEX
  8
0
  6
CONTINUOUS
 62
3
 10
-89.742370421849273
 20
-71.426012657126975
  0
VERTEX
  8
0
  6
CONTINUOUS
 62
3
 10
-90.659294935325079
 20
-71.356777439026203
  0
VERTEX
  8
0
  6
CONTINUOUS
 62
3
 10
-91.576219448800884
 20
-71.426012657126975
  0
VERTEX
  8
0
  6
CONTINUOUS
 62
3
 10
-92.457907067440999
 20
-71.631057640825219
  0
VERTEX
  8
0
  6
CONTINUOUS
 62
3
 10
-93.270475030517204
 20
-71.964032626387990
  0
VERTEX
  8
0
  6
CONTINUOUS
 62
3
 10
-93.982696806901842
 20
-72.412141571854605
  0
VERTEX
  8
0
  6
CONTINUOUS
 62
3
 10
-94.567202113147033
 20
-72.958163901753181
  0
VERTEX
  8
0
  6
CONTINUOUS
 62
3
 10
-95.001528738128115
 20
-73.581116284158583
  0
VERTEX
  8
0
  6
CONTINUOUS
 62
3
 10
-95.268985753220250
 20
-74.257059008370675
  0
VERTEX
  8
0
  6
CONTINUOUS
 62
3
 10
-95.359294935325067
 20
-74.960015974571036
  0
VERTEX
  8
0
  6
CONTINUOUS
 62
3
 10
-95.268985753220250
 20
-75.662972940771397
  0
VERTEX
  8
0
  6
CONTINUOUS
 62
3
 10
-95.001528738128115
 20
-76.338915664983489
  0
VERTEX
  8
0
  6
CONTINUOUS
 62
3
 10
-94.567202113147033
 20
-76.961868047388890
  0
VERTEX
  8
0
  6
CONTINUOUS
 62
3
 10
-93.982696806901842
 20
-77.507890377287467
  0
VERTEX
  8
0
  6
CONTINUOUS
 62
3
 10
-93.270475030517204
 20
-77.955999322754082
  0
VERTEX
  8
0
  6
CONTINUOUS
 62
3
 10
-92.457907067440999
 20
-78.288974308316853
  0
VERTEX
  8
0
  6
CONTINUOUS
 62
3
 10
-91.576219448800884
 20
-78.494019292015096
  0
VERTEX
  8
0
  6
CONTINUOUS
 62
3
 10
-90.659294935325079
 20
-78.563254510115868
  0
VERTEX
  8
0
  6
CONTINUOUS
 62
3
 10
-89.742370421849273
 20
-78.494019292015096
  0
VERTEX
  8
0
  6
CONTINUOUS
 62
3
 10
-88.860682803209158
 20
-78.288974308316853
  0
VERTEX
  8
0
  6
CONTINUOUS
 62
3
 10
-88.048114840132953
 20
-77.955999322754082
  0
VERTEX
  8
0
  6
CONTINUOUS
 62
3
 10
-87.335893063748316
 20
-77.507890377287467
  0
VERTEX
  8
0
  6
CONTINUOUS
 62
3
 10
-86.751387757503124
 20
-76.961868047388890
  0
VERTEX
  8
0
  6
CONTINUOUS
 62
3
 10
-86.317061132522042
 20
-76.338915664983489
  0
VERTEX
  8
0
  6
CONTINUOUS
 62
3
 10
-86.049604117429908
 20
-75.662972940771397
  0
SEQEND
  8
0
  6
CONTINUOUS
 62
3
  0
LINE
  8
0
  6
CONTINUOUS
 62
3
 10
-92.659294935325079
 20
-71.967640420570717
 11
-90.659294935325079
 21
-73.143425906193499
  0
LINE
  8
0
  6
CONTINUOUS
 62
3
 10
-90.659294935325079
 20
-73.143425906193499
 11
-88.659294935325079
 21
-74.796067545316930
  0
LINE
  8
0
  6
CONTINUOUS
 62
3
 10
-88.659294935325079
 20
-71.967640420570717
 11
-90.659294935325079
 21
-73.143425906193499
  0
LINE
  8
0
  6
CONTINUOUS
 62
3
 10
-90.659294935325079
 20
-73.143425906193499
 11
-92.659294935325079
 21
-74.796067545316930
  0
LINE
  8
0
  6
CONTINUOUS
 62
3
 10
245.473211563825090
 20
-91.518102526930505
 11
229.727503884146700
 21
-126.883541006631260
  0
LINE
  8
0
  6
CONTINUOUS
 62
3
 10
244.382399533738860
 20
-90.643747729292500
 11
218.426762440202760
 21
-94.902576882285516
  0
LINE
  8
0
  6
CONTINUOUS
 62
3
 10
308.603212906953560
 20
-103.883541006631390
 11
314.603212906953560
 21
-103.883541006631390
  0
LINE
  8
0
  6
CONTINUOUS
 62
3
 10
308.603212906953560
 20
-109.883541006631390
 11
308.603212906953560
 21
-103.883541006631390
  0
LINE
  8
0
  6
CONTINUOUS
 62
3
 10
308.603212906953560
 20
-109.883541006631390
 11
314.603212906953560
 21
-109.883541006631390
  0
LINE
  8
0
  6
CONTINUOUS
 62
3
 10
274.103212906953560
 20
-106.883541006631270
 11
290.666769087717060
 21
-106.883541006631270
  0
LINE
  8
0
  6
CONTINUOUS
 62
3
 10
270.603212906953560
 20
-110.383541006631270
 11
270.603212906953560
 21
-177.483541006631300
  0
LINE
  8
0
  6
CONTINUOUS
 62
3
 10
322.103212906953560
 20
-184.483541006631300
 11
277.603212906953560
 21
-184.483541006631300
  0
LINE
  8
0
  6
DASHDOT
 62
4
 10
412.375771849019660
 20
-106.883541006631270
 11
190.823505464348270
 21
-106.883541006631270
  0
LINE
  8
0
  6
CONTINUOUS
 62
3
 10
263.103212906953560
 20
-205.883541006631280
 11
285.912687926264430
 21
-205.883541006631280
  0
LINE
  8
0
  6
CONTINUOUS
 62
3
 10
322.103212906953560
 20
-204.883541006631280
 11
286.717591184614780
 21
-204.883541006631280
  0
LINE
  8
0
  6
CONTINUOUS
 62
3
 10
322.103212906953560
 20
-191.883541006631280
 11
240.103212906953560
 21
-191.883541006631280
  0
LINE
  8
0
  6
DASHDOT
 62
4
 10
247.103212906953560
 20
-210.964044775552220
 11
247.103212906953560
 21
-188.879003350294740
  0
LINE
  8
0
  6
DASHDOT
 62
4
 10
303.257863830589490
 20
-126.883541006631270
 11
341.302955525668950
 21
-126.883541006631270
  0
LINE
  8
0
  6
CONTINUOUS
 62
3
 10
260.277763556236100
 20
-188.883541006631280
 11
260.277763556235640
 21
-106.883541006631270
  0
LINE
  8
0
  6
CONTINUOUS
 62
3
 10
247.326763556236070
 20
-188.883541006631280
 11
247.326763556235620
 21
-106.883540530643470
  0
LINE
  8
0
  6
CONTINUOUS
 62
3
 10
242.103212906953560
 20
-112.175859773204360
 11
242.103212906953560
 21
-188.967461223531700
  0
LINE
  8
0
  6
CONTINUOUS
 62
3
 10
263.617691114367520
 20
-112.175859773204360
 11
263.617691114367520
 21
-188.883541006631280
  0
LINE
  8
0
  6
CONTINUOUS
 62
3
 10
262.103212906953560
 20
-206.883541006631280
 11
237.103212906953560
 21
-206.883541006631280
  0
LINE
  8
0
  6
CONTINUOUS
 62
3
 10
237.103212906953560
 20
-194.883541006631280
 11
237.103212906953560
 21
-206.883541006631280
  0
ARC
  8
0
  6
CONTINUOUS
 62
3
 10
243.896651643300170
 20
-87.683334077970358
 40
3.000000000000022
 50
279.318123119682530
 51
317.526034232472450
  0
ARC
  8
0
  6
CONTINUOUS
 62
3
 10
220.855501892394390
 20
-109.704645138896450
 40
15.000000000000041
 50
99.318123119675519
 51
178.317231198866920
  0
ARC
  8
0
  6
CONTINUOUS
 62
3
 10
204.653405237403380
 20
-119.116388250925160
 40
0.999999999999994
 50
306.205708094031080
 51
359.259505056807090
  0
ARC
  8
0
  6
CONTINUOUS
 62
3
 10
205.834777353679780
 20
-120.730191188983310
 40
1.000000000000128
 50
126.205708094041610
 51
179.412192132278280
  0
ARC
  8
0
  6
CONTINUOUS
 62
3
 10
277.603212906953560
 20
-177.483541006631300
 40
7.000000000000000
 50
180.000000000000000
 51
270.000000000000000
  0
ARC
  8
0
  6
CONTINUOUS
 62
3
 10
274.103212906953560
 20
-110.383541006631270
 40
3.500000000000000
 50
90.000000000000000
 51
180.000000000000000
  0
ARC
  8
0
  6
CONTINUOUS
 62
3
 10
260.617691114367520
 20
-188.883541006631280
 40
3.000000000000000
 50
270.000000000000000
 51
0.000000000000000
  0
ARC
  8
0
  6
CONTINUOUS
 62
3
 10
257.277763556236100
 20
-188.883541006631280
 40
3.000000000000000
 50
270.000000000000000
 51
0.000000000000000
  0
ARC
  8
0
  6
CONTINUOUS
 62
3
 10
244.326763556236070
 20
-188.883541006631280
 40
3.000000000000000
 50
270.000000000000000
 51
0.000000000000000
  0
ARC
  8
0
  6
CONTINUOUS
 62
3
 10
239.103212906953560
 20
-188.967461223531700
 40
2.999999999999980
 50
279.594068226860540
 51
0.000000000000000
  0
ARC
  8
0
  6
CONTINUOUS
 62
3
 10
263.103212906953560
 20
-206.883541006631280
 40
1.000000000000000
 50
90.000000000000000
 51
180.000000000000000
  0
ARC
  8
0
  6
CONTINUOUS
 62
3
 10
280.103212906953560
 20
-200.383541006631280
 40
7.999999999999812
 50
316.567463442208920
 51
325.771133672186410
  0
ARC
  8
0
  6
CONTINUOUS
 62
3
 10
240.103212906953560
 20
-194.883541006631280
 40
3.000000000000000
 50
90.000000000000000
 51
180.000000000000000
  0
ARC
  8
0
  6
CONTINUOUS
 62
3
 10
307.103212906953560
 20
-112.175859773204360
 40
65.000000000000142
 50
92.232868242791668
 51
180.000000000000000
  0
ARC
  8
0
  6
CONTINUOUS
 62
3
 10
307.103212906953560
 20
-112.175859773204360
 40
43.485521792586013
 50
92.232868242790914
 51
180.000000000000000
  0
ARC
  8
0
  6
CONTINUOUS
 62
3
 10
205.875351404772800
 20
-178.049327523526220
 40
1.299999237060620
 50
65.999999316753915
 51
139.398468892516150
  0
ARC
  8
0
  6
CONTINUOUS
 62
3
 10
805.603212906953560
 20
-126.883541006631560
 40
600.000000000001140
 50
178.317231198866840
 51
184.715124834091600
  0
ARC
  8
0
  6
CONTINUOUS
 62
3
 10
206.637163914641860
 20
-176.286700364517830
 40
1.000000000000041
 50
335.999999999996420
 51
4.715124834083239
  0
ARC
  8
0
  6
CONTINUOUS
 62
3
 10
204.429387527169640
 20
-186.162633990486910
 40
0.999999999999948
 50
156.000000000008300
 51
245.999999999972630
  0
ARC
  8
0
  6
CONTINUOUS
 62
3
 10
207.808525643255050
 20
-173.655778846509950
 40
1.000000000000041
 50
335.999999999996420
 51
66.000000000020236
  0
ARC
  8
0
  6
CONTINUOUS
 62
3
 10
209.233199310534470
 20
-171.006175594868380
 40
2.000000000000632
 50
184.231338074886000
 51
245.999999999972630
  0
ARC
  8
0
  6
CONTINUOUS
 62
3
 10
805.603212906953560
 20
-126.883541006631560
 40
600.799999999999950
 50
179.412192132293110
 51
182.841389015363320
  0
ARC
  8
0
  6
CONTINUOUS
 62
3
 10
206.540613678168940
 20
-156.616388250925160
 40
0.999999999999988
 50
182.841389015366990
 51
236.047873053618590
  0
ARC
  8
0
  6
CONTINUOUS
 62
3
 10
205.423613653556460
 20
-158.275397275920310
 40
1.000000000000008
 50
2.994076090848812
 51
56.047873053604029
  0
ARC
  8
0
  6
CONTINUOUS
 62
3
 10
204.085709554608230
 20
-182.068928931113280
 40
1.299999237060687
 50
172.601548410320760
 51
246.000017986079880
  0
ARC
  8
0
  6
CONTINUOUS
 62
3
 10
211.721605179789550
 20
-183.060448053611910
 40
9.000000000000075
 50
139.398468892516490
 51
172.601548410321070
  0
LINE
  8
0
  6
CONTINUOUS
 62
3
 10
204.022650884093310
 20
-187.076179448129520
 11
206.580578165493080
 21
-188.215042048741650
  0
LINE
  8
0
  6
CONTINUOUS
 62
4
 10
208.675271877333440
 20
-183.510282941882650
 11
212.512162799432420
 21
-185.218576842800960
  0
LINE
  8
0
  6
CONTINUOUS
 62
4
 10
210.017502799483960
 20
-180.495582931662030
 11
213.854393721582710
 21
-182.203876832580330
  0
LINE
  8
0
  6
CONTINUOUS
 62
3
 10
213.677010636484280
 20
-181.741778097328930
 11
213.854393721582710
 21
-182.203876832580330
  0
LINE
  8
0
  6
CONTINUOUS
 62
3
 10
212.050064064181240
 20
-185.395959927898930
 11
212.512162799432640
 21
-185.218576842800500
  0
LINE
  8
0
  6
CONTINUOUS
 62
3
 10
213.854393721582710
 20
-182.203876832580330
 11
212.512162799432640
 21
-185.218576842800500
  0
LINE
  8
0
  6
CONTINUOUS
 62
3
 10
207.298492850132330
 20
-177.259924591334960
 11
204.451336348601440
 21
-183.654742794833250
  0
LINE
  8
0
  6
CONTINUOUS
 62
3
 10
207.298492850132330
 20
-177.259924591334960
 11
204.451336348601440
 21
-183.654742794833250
  0
LINE
  8
0
  6
CONTINUOUS
 62
3
 10
204.451336348601440
 20
-183.654742794833250
 11
203.556952228924960
 21
-183.256537329068780
  0
LINE
  8
0
  6
CONTINUOUS
 62
3
 10
207.298492850132330
 20
-177.259924591334960
 11
206.404108730455850
 21
-176.861719125570720
  0
LINE
  8
0
  6
CONTINUOUS
 62
3
 10
242.103212906953560
 20
-173.383541006631250
 11
213.183987875624780
 21
-173.383541006631250
  0
LINE
  8
0
  6
CONTINUOUS
 62
3
 10
229.727503884149880
 20
-126.883541006631260
 11
203.515842069527030
 21
-185.755897347411260
  0
LINE
  8
0
  6
CONTINUOUS
 62
3
 10
210.159860624560450
 20
-180.175842021487110
 11
213.677010636484280
 21
-181.741778097328930
  0
LINE
  8
0
  6
CONTINUOUS
 62
3
 10
208.532914052257180
 20
-183.830023852057110
 11
212.050064064181240
 21
-185.395959927898930
  0
LINE
  8
0
  6
CONTINUOUS
 62
3
 10
242.103212906953560
 20
-108.429898113464530
 11
206.580578165493080
 21
-188.215042048741650
  0
LINE
  8
0
  6
DASHDOT
 62
4
 10
229.603212906953560
 20
-159.001017226925540
 11
229.603212906953560
 21
-181.869526402689160
  0
POINT
  8
0
  6
CONTINUOUS
 62
3
 10
205.874914599366780
 20
-180.457333693084110
  0
ARC
  8
0
  6
CONTINUOUS
 62
3
 10
-211.308569484892590
 20
-188.967461223531560
 40
3.000000000000000
 50
180.000000000000000
 51
260.405931773139460
  0
ARC
  8
0
  6
CONTINUOUS
 62
3
 10
-377.308569484892590
 20
-188.967461223531670
 40
3.000000000000036
 50
279.594068226860320
 51
0.000000000000000
  0
LINE
  8
0
  6
CONTINUOUS
 62
3
 10
-379.308569484892590
 20
-206.383541006582870
 11
-354.174594888648930
 21
-206.383541006582760
  0
LINE
  8
0
  6
CONTINUOUS
 62
3
 10
-209.308569484892590
 20
-206.383541006582820
 11
-234.442544081136020
 21
-206.383541006582760
  0
ARC
  8
0
  6
CONTINUOUS
 62
3
 10
-353.308569484892590
 20
-206.883541006631190
 40
1.000000000000000
 50
90.000000000000000
 51
180.000000000000000
  0
POINT
  8
0
  6
CONTINUOUS
 62
3
 10
-354.308569484892590
 20
-196.643912378050260
  0
POINT
  8
0
  6
CONTINUOUS
 62
3
 10
-294.308569484892590
 20
-126.883541006631210
  0
POINT
  8
0
  6
CONTINUOUS
 62
3
 10
-294.308569484892590
 20
-106.883541006631210
  0
POINT
  8
0
  6
CONTINUOUS
 62
3
 10
-234.308569484892590
 20
-196.643912378050260
  0
ARC
  8
0
  6
CONTINUOUS
 62
3
 10
-263.187686850598540
 20
-155.827291006631240
 40
45.999999999999950
 50
298.526485311172960
 51
329.454500991333250
  0
LINE
  8
0
  6
CONTINUOUS
 62
3
 10
-368.377203351788920
 20
-183.883541006631190
 11
-371.308569484892590
 21
-183.883541006631190
  0
ARC
  8
0
  6
CONTINUOUS
 62
3
 10
-371.308569484892590
 20
-186.883541006631190
 40
3.000000000000000
 50
90.000000000000000
 51
180.000000000000000
  0
POINT
  8
0
  6
CONTINUOUS
 62
3
 10
-354.308569484892590
 20
-196.643912378050150
  0
ARC
  8
0
  6
CONTINUOUS
 62
3
 10
-325.429452119186640
 20
-155.827291006631240
 40
49.999999999999886
 50
233.757622303339820
 51
241.416136725165440
  0
ARC
  8
0
  6
CONTINUOUS
 62
3
 10
-231.308569484892590
 20
-198.056672822468640
 40
2.999999999999976
 50
129.566618037904420
 51
180.000000000000000
  0
ARC
  8
0
  6
CONTINUOUS
 62
3
 10
-238.308569484892590
 20
-203.883541006631190
 40
2.000000000000000
 50
180.000000000000000
 51
270.000000000000000
  0
LINE
  8
0
  6
DASHDOT
 62
4
 10
-219.308569484892590
 20
-210.964044775552080
 11
-219.308569484892590
 21
-189.058242651528620
  0
ARC
  8
0
  6
CONTINUOUS
 62
3
 10
-227.468358716071630
 20
-194.883541006631190
 40
3.000000000000000
 50
90.000000000000000
 51
129.566618037903050
  0
ARC
  8
0
  6
CONTINUOUS
 62
3
 10
-212.308569484892590
 20
-194.883541006631250
 40
3.000000000000000
 50
0.000000000000000
 51
90.000000000000000
  0
ARC
  8
0
  6
CONTINUOUS
 62
3
 10
-217.308569484892590
 20
-186.883541006631130
 40
3.000000000000000
 50
0.000000000000000
 51
90.000000000000000
  0
ARC
  8
0
  6
CONTINUOUS
 62
3
 10
-220.239935617996030
 20
-186.883541006631190
 40
3.000000000000000
 50
90.000000000000000
 51
144.128667793850780
  0
ARC
  8
0
  6
CONTINUOUS
 62
3
 10
-325.429452119186640
 20
-155.827291006631240
 40
46.000000000000092
 50
210.545499008666440
 51
219.301285481804230
  0
ARC
  8
0
  6
CONTINUOUS
 62
3
 10
-238.354309572999910
 20
-201.514306371923370
 40
6.000000000000011
 50
118.526485311173740
 51
175.367233369122230
  0
ARC
  8
0
  6
CONTINUOUS
 62
3
 10
-252.308569484892590
 20
-200.383541006631190
 40
7.999999999999977
 50
316.567463442210060
 51
355.367233369122400
  0
LINE
  8
0
  6
CONTINUOUS
 62
3
 10
-240.308569484892590
 20
-203.883541006631190
 11
-240.308569484892590
 21
-201.489414469118430
  0
ARC
  8
0
  6
CONTINUOUS
 62
3
 10
-238.308569484892590
 20
-203.883541006631190
 40
2.000000000000000
 50
180.000000000000000
 51
270.000000000000000
  0
ARC
  8
0
  6
CONTINUOUS
 62
3
 10
-235.308569484892590
 20
-206.883541006631190
 40
1.000000000000000
 50
0.000000000000000
 51
90.000000000000000
  0
ARC
  8
0
  6
CONTINUOUS
 62
3
 10
-252.308569484892590
 20
-200.383541006631190
 40
7.999999999999973
 50
214.228866327812710
 51
223.432536557789920
  0
LINE
  8
0
  6
CONTINUOUS
 62
3
 10
-235.308569484892590
 20
-205.883541006631190
 11
-258.118044504203680
 21
-205.883541006631190
  0
LINE
  8
0
  6
CONTINUOUS
 62
3
 10
-258.922947762554030
 20
-204.883541006631190
 11
-294.308569484892590
 21
-204.883541006631190
  0
ARC
  8
0
  6
CONTINUOUS
 62
3
 10
-336.308569484892590
 20
-200.383541006631190
 40
7.999999999999977
 50
316.567463442210060
 51
325.771133672187320
  0
ARC
  8
0
  6
CONTINUOUS
 62
3
 10
-350.308569484892590
 20
-203.883541006631190
 40
2.000000000000000
 50
270.000000000000000
 51
0.000000000000000
  0
ARC
  8
0
  6
CONTINUOUS
 62
3
 10
-350.262829396785260
 20
-201.514306371923370
 40
6.000000000000056
 50
4.632766630877777
 51
61.473514688826256
  0
LINE
  8
0
  6
CONTINUOUS
 62
3
 10
-353.308569484892590
 20
-205.883541006631190
 11
-330.499094465581490
 21
-205.883541006631190
  0
ARC
  8
0
  6
CONTINUOUS
 62
3
 10
-336.308569484892590
 20
-200.383541006631190
 40
7.999999999999921
 50
184.632766630877600
 51
223.432536557789920
  0
LINE
  8
0
  6
CONTINUOUS
 62
3
 10
-220.135658126210250
 20
-173.383541006631110
 11
-223.571297806493700
 21
-179.205522742717020
  0
ARC
  8
0
  6
CONTINUOUS
 62
3
 10
-263.187686850598540
 20
-155.827291006631240
 40
46.000000000000028
 50
298.241217900780500
 51
300.661052610439700
  0
ARC
  8
0
  6
CONTINUOUS
 62
3
 10
-376.308569484892590
 20
-194.883541006631300
 40
3.000000000000000
 50
90.000000000000000
 51
180.000000000000000
  0
ARC
  8
0
  6
CONTINUOUS
 62
3
 10
-212.308569484892590
 20
-194.883541006631130
 40
3.000000000000000
 50
0.000000000000000
 51
90.000000000000000
  0
ARC
  8
0
  6
CONTINUOUS
 62
3
 10
-263.187686850598540
 20
-155.827291006631240
 40
50.000000000000000
 50
298.583863274834580
 51
306.242377696660180
  0
ARC
  8
0
  6
CONTINUOUS
 62
3
 10
-231.308569484892590
 20
-198.056672822468760
 40
3.000000000000121
 50
129.566618037907770
 51
180.000000000000000
  0
ARC
  8
0
  6
CONTINUOUS
 62
3
 10
-227.468358716071860
 20
-194.883541006631300
 40
3.000000000000000
 50
90.000000000000000
 51
129.566618037898310
  0
ARC
  8
0
  6
CONTINUOUS
 62
3
 10
-357.308569484892590
 20
-198.056672822468640
 40
3.000000000000000
 50
0.000000000000000
 51
50.433381962095574
  0
ARC
  8
0
  6
CONTINUOUS
 62
3
 10
-361.148780253713540
 20
-194.883541006631190
 40
3.000000000000064
 50
50.433381962096959
 51
90.000000000000000
  0
ARC
  8
0
  6
CONTINUOUS
 62
3
 10
-325.429452119186640
 20
-155.827291006631240
 40
49.999999999999979
 50
215.871332206148760
 51
226.822259083042950
  0
ARC
  8
0
  6
CONTINUOUS
 62
3
 10
-220.239935617996250
 20
-186.883541006631190
 40
3.000000000000000
 50
90.000000000000000
 51
144.128667793850780
  0
ARC
  8
0
  6
CONTINUOUS
 62
3
 10
-263.187686850598540
 20
-155.827291006631240
 40
49.999999999999957
 50
313.177740916957080
 51
324.128667793851090
  0
ARC
  8
0
  6
CONTINUOUS
 62
3
 10
-238.308569484892590
 20
-201.489414469118430
 40
1.999999999999946
 50
118.583863274835990
 51
180.000000000000000
  0
ARC
  8
0
  6
CONTINUOUS
 62
3
 10
-325.429452119186640
 20
-155.827291006631240
 40
50.000000000000021
 50
233.757622303339590
 51
241.416136725165440
  0
ARC
  8
0
  6
CONTINUOUS
 62
3
 10
-350.308569484892590
 20
-201.489414469118430
 40
2.000000000000000
 50
0.000000000000000
 51
61.416136725164009
  0
ARC
  8
0
  6
CONTINUOUS
 62
3
 10
-368.377203351789150
 20
-186.883541006631190
 40
3.000000000000094
 50
35.871332206149205
 51
90.000000000000000
  0
LINE
  8
0
  6
CONTINUOUS
 62
3
 10
-361.148780253713540
 20
-191.883541006631190
 11
-376.308569484892590
 21
-191.883541006631300
  0
LINE
  8
0
  6
CONTINUOUS
 62
3
 10
-220.239935617996250
 20
-183.883541006631190
 11
-217.308569484892590
 21
-183.883541006631130
  0
LINE
  8
0
  6
CONTINUOUS
 62
3
 10
-227.468358716071860
 20
-191.883541006631190
 11
-212.308569484892590
 21
-191.883541006631130
  0
LINE
  8
0
  6
CONTINUOUS
 62
3
 10
-229.379283599652130
 20
-192.570887532953550
 11
-233.219494368473310
 21
-195.744019348791230
  0
LINE
  8
0
  6
CONTINUOUS
 62
3
 10
-359.237855370133050
 20
-192.570887532953550
 11
-355.397644601312090
 21
-195.744019348791110
  0
LINE
  8
0
  6
CONTINUOUS
 62
3
 10
-348.308569484892590
 20
-203.883541006631190
 11
-348.308569484892590
 21
-201.489414469118430
  0
LINE
  8
0
  6
DASHDOT
 62
4
 10
-369.308569484892590
 20
-210.964044775552140
 11
-369.308569484892590
 21
-189.058242651528670
  0
POINT
  8
0
  6
CONTINUOUS
 62
3
 10
-234.308569484892590
 20
-196.643912378050150
  0
ARC
  8
0
  6
CONTINUOUS
 62
3
 10
-217.308569484892590
 20
-186.883541006631130
 40
3.000000000000000
 50
0.000000000000000
 51
90.000000000000000
  0
LINE
  8
0
  6
CONTINUOUS
 62
3
 10
-368.377203351789150
 20
-183.883541006631190
 11
-371.308569484892590
 21
-183.883541006631190
  0
ARC
  8
0
  6
CONTINUOUS
 62
3
 10
-371.308569484892590
 20
-186.883541006631190
 40
3.000000000000000
 50
90.000000000000000
 51
180.000000000000000
  0
LINE
  8
0
  6
CONTINUOUS
 62
3
 10
-373.475924577601970
 20
-164.920034088753680
 11
-365.045841163291700
 21
-179.205522742716850
  0
ARC
  8
0
  6
CONTINUOUS
 62
3
 10
-368.308569484892590
 20
-161.870699514481710
 40
6.000000000000000
 50
180.000000000000000
 51
210.545499008666180
  0
LINE
  8
0
  6
CONTINUOUS
 62
3
 10
-214.308569484892590
 20
-173.383541006631110
 11
-214.308569484892590
 21
-188.967461223531560
  0
ARC
  8
0
  6
CONTINUOUS
 62
3
 10
-279.308569484892590
 20
-112.175859773204300
 40
65.000000000000000
 50
20.221019215724073
 51
87.767131757208531
  0
LINE
  8
0
  6
CONTINUOUS
 62
3
 10
-374.308569484892590
 20
-112.175859773204300
 11
-374.308569484892590
 21
-188.967461223531670
  0
LINE
  8
0
  6
CONTINUOUS
 62
3
 10
-379.308569484892590
 20
-206.883541006582870
 11
-354.308569484892590
 21
-206.883541006582760
  0
LINE
  8
0
  6
CONTINUOUS
 62
3
 10
-209.308569484892590
 20
-206.883541006582820
 11
-234.308569484892590
 21
-206.883541006582760
  0
LINE
  8
0
  6
CONTINUOUS
 62
3
 10
-379.308569484892590
 20
-206.883541006582870
 11
-379.308569484892590
 21
-194.883541006631300
  0
LINE
  8
0
  6
CONTINUOUS
 62
3
 10
-354.308569484892590
 20
-206.883541006582760
 11
-354.308569484892590
 21
-198.056672822468640
  0
LINE
  8
0
  6
CONTINUOUS
 62
3
 10
-234.308569484892590
 20
-206.883541006582760
 11
-234.308569484892590
 21
-198.056672822468760
  0
LINE
  8
0
  6
CONTINUOUS
 62
3
 10
-209.308569484892590
 20
-206.883541006582820
 11
-209.308569484892590
 21
-194.883541006631130
  0
ARC
  8
0
  6
CONTINUOUS
 62
3
 10
-252.308569484892590
 20
-200.383541006631130
 40
7.999999999999812
 50
316.567463442208920
 51
355.367233369121610
  0
ARC
  8
0
  6
CONTINUOUS
 62
3
 10
-252.308569484892590
 20
-200.383541006631130
 40
8.000000000000162
 50
214.228866327811770
 51
223.432536557788810
  0
ARC
  8
0
  6
CONTINUOUS
 62
3
 10
-294.308569484892590
 20
-496.883541006631110
 40
450.000000000000110
 50
87.767131757208588
 51
90.000000000000000
  0
ARC
  8
0
  6
CONTINUOUS
 62
3
 10
-259.558569484892810
 20
-203.883541006631130
 40
1.000000000000000
 50
270.000000000000000
 51
0.000000000000000
  0
ARC
  8
0
  6
CONTINUOUS
 62
3
 10
-240.058569484892810
 20
-61.624524479267563
 40
1.000000000000016
 50
52.172861259904892
 51
180.000000000000000
  0
ARC
  8
0
  6
CONTINUOUS
 62
3
 10
-247.308569484892590
 20
-62.883541006631106
 40
6.250000000000000
 50
180.000000000000000
 51
0.000000000000000
  0
ARC
  8
0
  6
CONTINUOUS
 62
3
 10
-254.558569484892590
 20
-53.155206608400988
 40
1.000000000000000
 50
0.000000000000000
 51
67.249516112927580
  0
ARC
  8
0
  6
CONTINUOUS
 62
3
 10
-238.354309572999910
 20
-201.514306371923420
 40
6.000000000000011
 50
118.526485311173740
 51
175.367233369122230
  0
ARC
  8
0
  6
CONTINUOUS
 62
3
 10
-252.308569484892810
 20
-200.383541006631130
 40
6.250000000000168
 50
18.324659916294014
 51
180.000000000000000
  0
ARC
  8
0
  6
CONTINUOUS
 62
3
 10
-244.951570059928140
 20
-197.946932818786910
 40
1.499999999999832
 50
198.324659916297660
 51
331.598332663995220
  0
LINE
  8
0
  6
CONTINUOUS
 62
3
 10
-258.558569484892810
 20
-200.383541006631130
 11
-258.558569484892810
 21
-203.883541006631130
  0
LINE
  8
0
  6
CONTINUOUS
 62
3
 10
-253.558569484892590
 20
-53.155206608400988
 11
-253.558569484892590
 21
-62.883541006631106
  0
LINE
  8
0
  6
CONTINUOUS
 62
3
 10
-241.058569484892590
 20
-61.624524479267563
 11
-241.058569484892590
 21
-62.883541006631106
  0
LINE
  8
0
  6
CONTINUOUS
 62
3
 10
-330.058569484892590
 20
-200.383541006631130
 11
-330.058569484892590
 21
-203.883541006631130
  0
LINE
  8
0
  6
CONTINUOUS
 62
3
 10
-373.308569484892590
 20
-127.633541006631100
 11
-366.308569484892590
 21
-127.633541006631100
  0
LINE
  8
0
  6
CONTINUOUS
 62
3
 10
-373.308569484892590
 20
-115.133541006631100
 11
-366.308569484892590
 21
-115.133541006631100
  0
LINE
  8
0
  6
CONTINUOUS
 62
3
 10
-335.058569484892810
 20
-53.155206608400988
 11
-335.058569484892810
 21
-62.883541006631106
  0
LINE
  8
0
  6
CONTINUOUS
 62
3
 10
-347.558569484892810
 20
-61.624524479267563
 11
-347.558569484892810
 21
-62.883541006631106
  0
LINE
  8
0
  6
CONTINUOUS
 62
3
 10
-365.308569484892590
 20
-96.383541006631106
 11
-357.757244452697760
 21
-96.383541006631106
  0
LINE
  8
0
  6
CONTINUOUS
 62
3
 10
-365.308569484892590
 20
-112.383541006631100
 11
-358.958648585631520
 21
-112.383541006631100
  0
LINE
  8
0
  6
DASHDOT
 62
4
 10
-273.458175345909690
 20
-106.883541006631100
 11
-315.741311182780920
 21
-106.883541006631100
  0
LINE
  8
0
  6
CONTINUOUS
 62
3
 10
-329.694191207231600
 20
-204.883541006631130
 11
-294.308569484892590
 21
-204.883541006631130
  0
ARC
  8
0
  6
CONTINUOUS
 62
3
 10
-343.665568909857260
 20
-197.946932818786850
 40
1.500000000000089
 50
208.401667336006680
 51
341.675340083702340
  0
ARC
  8
0
  6
CONTINUOUS
 62
3
 10
-336.308569484892590
 20
-200.383541006631130
 40
6.250000000000000
 50
0.000000000000000
 51
161.675340083705490
  0
ARC
  8
0
  6
CONTINUOUS
 62
3
 10
-329.058569484892590
 20
-203.883541006631130
 40
1.000000000000000
 50
180.000000000000000
 51
270.000000000000000
  0
ARC
  8
0
  6
CONTINUOUS
 62
3
 10
-373.308569484892590
 20
-114.133541006631100
 40
1.000000000000000
 50
180.000000000000000
 51
270.000000000000000
  0
ARC
  8
0
  6
CONTINUOUS
 62
3
 10
-373.308569484892590
 20
-128.633541006631110
 40
1.000000000000000
 50
90.000000000000000
 51
180.000000000000000
  0
ARC
  8
0
  6
CONTINUOUS
 62
3
 10
-366.308569484892590
 20
-121.383541006631100
 40
6.250000000000000
 50
270.000000000000000
 51
90.000000000000000
  0
ARC
  8
0
  6
CONTINUOUS
 62
3
 10
-348.558569484892810
 20
-61.624524479267563
 40
1.000000000000000
 50
0.000000000000000
 51
127.827138740095090
  0
ARC
  8
0
  6
CONTINUOUS
 62
3
 10
-334.058569484892810
 20
-53.155206608400988
 40
1.000000000000058
 50
112.750483887072420
 51
180.000000000000000
  0
ARC
  8
0
  6
CONTINUOUS
 62
3
 10
-341.308569484892810
 20
-62.883541006631106
 40
6.250000000000000
 50
180.000000000000000
 51
0.000000000000000
  0
ARC
  8
0
  6
CONTINUOUS
 62
3
 10
-365.308569484892590
 20
-104.383541006631100
 40
8.000000000000000
 50
90.000000000000000
 51
270.000000000000000
  0
ARC
  8
0
  6
CONTINUOUS
 62
3
 10
-325.429452119186860
 20
-155.827291006631130
 40
45.999999999999865
 50
219.301285481804510
 51
241.473514688826810
  0
ARC
  8
0
  6
CONTINUOUS
 62
3
 10
-309.308569484892810
 20
-112.175859773204190
 40
65.000000000000142
 50
92.232868242791668
 51
180.000000000000000
  0
ARC
  8
0
  6
CONTINUOUS
 62
3
 10
-294.308569484892590
 20
-496.883541006631110
 40
450.000000000000000
 50
90.000000000000000
 51
92.232868242791525
  0
ARC
  8
0
  6
CONTINUOUS
 62
3
 10
-350.262829396785260
 20
-201.514306371923420
 40
5.999999999999603
 50
4.632766630878128
 51
61.473514688830072
  0
ARC
  8
0
  6
CONTINUOUS
 62
3
 10
-336.308569484892590
 20
-200.383541006631130
 40
8.000000000000384
 50
184.632766630878140
 51
223.432536557788810
  0
ARC
  8
0
  6
CONTINUOUS
 62
3
 10
-336.308569484892590
 20
-200.383541006631130
 40
7.999999999999647
 50
316.567463442207780
 51
325.771133672185440
  0
ARC
  8
0
  6
CONTINUOUS
 62
3
 10
38.840705064673813
 20
183.350404696994930
 40
1.000000000000758
 50
272.000000000002100
 51
0.000000000000000
  0
ARC
  8
0
  6
CONTINUOUS
 62
3
 10
40.340705064673813
 20
202.616458993368950
 40
0.500000000000000
 50
90.000000000000000
 51
180.000000000000000
  0
LINE
  8
0
  6
CONTINUOUS
 62
3
 10
38.875604561376377
 20
182.351013869975080
 11
17.340705064673813
 21
181.598998608622650
  0
LINE
  8
0
  6
CONTINUOUS
 62
3
 10
49.340705064673813
 20
203.116458993368950
 11
40.340705064673813
 21
203.116458993368950
  0
ARC
  8
0
  6
CONTINUOUS
 62
3
 10
39.340705064673813
 20
202.616458993368950
 40
0.500000000000000
 50
270.000000000000000
 51
0.000000000000000
  0
ARC
  8
0
  6
CONTINUOUS
 62
3
 10
39.340705064673813
 20
201.616458993368950
 40
0.500000000000000
 50
90.000000000000000
 51
180.000000000000000
  0
LINE
  8
0
  6
CONTINUOUS
 62
3
 10
38.840705064673813
 20
201.616458993368950
 11
38.840705064673813
 21
183.315483927502330
  0
ARC
  8
0
  6
CONTINUOUS
 62
3
 10
37.840705064673813
 20
183.315483927502330
 40
0.999999999999849
 50
272.000000000003920
 51
0.000000000000000
  0
INSERT
  8
0
  2
SYM1
 10
43.090705064673813
 20
170.116458993368950
 41
-1.000000000000000
 50
180.000000000000000
  0
ARC
  8
0
  6
CONTINUOUS
 62
3
 10
42.690705064674177
 20
175.966458993368410
 40
0.399999999999636
 50
0.000000000000000
 51
90.000000000000000
  0
LINE
  8
0
  6
CONTINUOUS
 62
3
 10
40.840705064673813
 20
176.366458993368950
 11
42.690705064674177
 21
176.366458993368950
  0
ARC
  8
0
  6
CONTINUOUS
 62
3
 10
40.840705064673813
 20
177.366458993368950
 40
1.000000000000000
 50
180.000000000000000
 51
270.000000000000000
  0
LINE
  8
0
  6
CONTINUOUS
 62
3
 10
40.840705064673813
 20
163.866458993368950
 11
42.690705064674177
 21
163.866458993368950
  0
LINE
  8
0
  6
CONTINUOUS
 62
3
 10
43.090705064673813
 20
164.266458993368590
 11
43.090705064673813
 21
175.966458993368410
  0
ARC
  8
0
  6
CONTINUOUS
 62
3
 10
42.690705064674177
 20
164.266458993368590
 40
0.399999999999636
 50
270.000000000000000
 51
0.000000000000000
  0
ARC
  8
0
  6
CONTINUOUS
 62
3
 10
40.840705064673813
 20
162.866458993368950
 40
1.000000000000000
 50
90.000000000000000
 51
180.000000000000000
  0
LINE
  8
0
  6
CONTINUOUS
 62
3
 10
39.840705064673813
 20
202.616458993368950
 11
39.840705064673813
 21
175.116458993368950
  0
LINE
  8
0
  6
CONTINUOUS
 62
3
 10
35.590705064673813
 20
200.116458993368950
 11
35.590705064673813
 21
190.116458993368950
  0
LINE
  8
0
  6
CONTINUOUS
 62
3
 10
38.840705064673813
 20
200.116458993368950
 11
35.590705064673813
 21
200.116458993368950
  0
LINE
  8
0
  6
CONTINUOUS
 62
3
 10
38.840705064673813
 20
190.116458993368950
 11
35.590705064673813
 21
190.116458993368950
  0
LINE
  8
0
  6
CONTINUOUS
 62
3
 10
17.340705064673813
 20
181.598998608622650
 11
17.340705064673813
 21
123.116458993368950
  0
LINE
  8
0
  6
CONTINUOUS
 62
3
 10
48.840705064673813
 20
203.116458993368950
 11
48.840705064673813
 21
123.116458993368950
  0
LINE
  8
0
  6
CONTINUOUS
 62
3
 10
39.840705064673813
 20
165.116458993368950
 11
39.840705064673813
 21
123.116458993368950
  0
ARC
  8
0
  6
CONTINUOUS
 62
3
 10
38.840705064673813
 20
62.882513289742974
 40
1.000000000000000
 50
0.000000000000000
 51
87.999999999997854
  0
ARC
  8
0
  6
CONTINUOUS
 62
3
 10
40.340705064673813
 20
43.616458993368951
 40
0.500000000000000
 50
180.000000000000000
 51
270.000000000000000
  0
LINE
  8
0
  6
CONTINUOUS
 62
3
 10
38.875604561376377
 20
63.881904116762826
 11
17.340705064673813
 21
64.633919378115252
  0
LINE
  8
0
  6
CONTINUOUS
 62
3
 10
17.340705064673813
 20
64.633919378115252
 11
17.340705064673813
 21
123.116458993368950
  0
LINE
  8
0
  6
CONTINUOUS
 62
3
 10
49.340705064673813
 20
43.116458993368951
 11
40.340705064673813
 21
43.116458993368951
  0
LINE
  8
0
  6
CONTINUOUS
 62
3
 10
48.840705064673813
 20
43.116458993368951
 11
48.840705064673813
 21
123.116458993368950
  0
ARC
  8
0
  6
CONTINUOUS
 62
3
 10
39.340705064673813
 20
43.616458993369861
 40
0.500000000000000
 50
0.000000000000000
 51
90.000000000000000
  0
ARC
  8
0
  6
CONTINUOUS
 62
3
 10
39.340705064673813
 20
44.616458993369861
 40
0.500000000000000
 50
180.000000000000000
 51
270.000000000000000
  0
LINE
  8
0
  6
CONTINUOUS
 62
3
 10
38.840705064673813
 20
44.616458993369861
 11
38.840705064673813
 21
62.917434059235575
  0
ARC
  8
0
  6
CONTINUOUS
 62
3
 10
37.840705064673813
 20
62.917434059235575
 40
1.000000000000000
 50
0.000000000000000
 51
87.999999999996049
  0
INSERT
  8
0
  2
SYM1
 10
43.090705064673813
 20
76.116458993368951
 50
0.000000000000014
  0
ARC
  8
0
  6
CONTINUOUS
 62
3
 10
42.690705064674177
 20
70.266458993370406
 40
0.400000000001455
 50
270.000000000000000
 51
0.000000000000000
  0
LINE
  8
0
  6
CONTINUOUS
 62
3
 10
40.840705064673813
 20
69.866458993368951
 11
42.690705064674177
 21
69.866458993368951
  0
ARC
  8
0
  6
CONTINUOUS
 62
3
 10
40.840705064673813
 20
68.866458993368951
 40
1.000000000000000
 50
90.000000000000000
 51
180.000000000000000
  0
LINE
  8
0
  6
CONTINUOUS
 62
3
 10
40.840705064673813
 20
82.366458993368951
 11
42.690705064674177
 21
82.366458993368951
  0
LINE
  8
0
  6
CONTINUOUS
 62
3
 10
43.090705064673813
 20
81.966458993369315
 11
43.090705064673813
 21
70.266458993370406
  0
ARC
  8
0
  6
CONTINUOUS
 62
3
 10
42.690705064674177
 20
81.966458993369315
 40
0.399999999999636
 50
0.000000000000000
 51
90.000000000000000
  0
ARC
  8
0
  6
CONTINUOUS
 62
3
 10
40.840705064673813
 20
83.366458993368951
 40
1.000000000000000
 50
180.000000000000000
 51
270.000000000000000
  0
LINE
  8
0
  6
CONTINUOUS
 62
3
 10
39.840705064673813
 20
43.616458993368951
 11
39.840705064673813
 21
71.116458993368951
  0
LINE
  8
0
  6
CONTINUOUS
 62
3
 10
39.840705064673813
 20
81.116458993368951
 11
39.840705064673813
 21
123.116458993368950
  0
LINE
  8
0
  6
CONTINUOUS
 62
3
 10
35.590705064673813
 20
46.116458993368951
 11
35.590705064673813
 21
56.116458993368951
  0
LINE
  8
0
  6
CONTINUOUS
 62
3
 10
38.840705064673813
 20
46.116458993368951
 11
35.590705064673813
 21
46.116458993368951
  0
LINE
  8
0
  6
CONTINUOUS
 62
3
 10
38.840705064673813
 20
56.116458993368951
 11
35.590705064673813
 21
56.116458993368951
  0
LINE
  8
0
  6
CONTINUOUS
 62
3
 10
157.840705064673810
 20
123.116458993368950
 11
157.840705064673810
 21
133.716458993369320
  0
ARC
  8
0
  6
CONTINUOUS
 62
3
 10
157.440705064674180
 20
133.716458993369320
 40
0.399999999999636
 50
0.000000000000000
 51
90.000000000000000
  0
LINE
  8
0
  6
CONTINUOUS
 62
3
 10
125.840705064673810
 20
112.116458993368950
 11
125.840705064673810
 21
109.616458993368950
  0
LINE
  8
0
  6
CONTINUOUS
 62
3
 10
157.840705064673810
 20
109.616458993368950
 11
125.840705064673810
 21
109.616458993368950
  0
LINE
  8
0
  6
CONTINUOUS
 62
3
 10
119.840705064673810
 20
111.116458993368950
 11
121.440705064674170
 21
111.116458993368950
  0
LINE
  8
0
  6
CONTINUOUS
 62
3
 10
123.840705064673810
 20
112.266458993368580
 11
122.640705064674900
 21
112.266458993368580
  0
LINE
  8
0
  6
CONTINUOUS
 62
3
 10
124.400512685809210
 20
112.116458993368950
 11
123.840705064673810
 21
112.266458993368580
  0
LINE
  8
0
  6
CONTINUOUS
 62
3
 10
121.840705064673810
 20
111.516458993368580
 11
121.440705064674170
 21
111.116458993368950
  0
LINE
  8
0
  6
CONTINUOUS
 62
3
 10
157.440705064674180
 20
134.116458993368950
 11
124.400512685809210
 21
134.116458993368950
  0
ARC
  8
0
  6
CONTINUOUS
 62
3
 10
122.640705064674900
 20
111.466458993369310
 40
0.799999999999272
 50
90.000000000000000
 51
176.296803365719710
  0
LINE
  8
0
  6
CONTINUOUS
 62
3
 10
123.840705064673810
 20
112.266458993368580
 11
122.640705064674900
 21
112.266458993368580
  0
LINE
  8
0
  6
CONTINUOUS
 62
3
 10
124.400512685809210
 20
112.116458993368950
 11
123.840705064673810
 21
112.266458993368580
  0
LINE
  8
0
  6
CONTINUOUS
 62
3
 10
121.840705064673810
 20
111.516458993368580
 11
121.440705064674170
 21
111.116458993368950
  0
LINE
  8
0
  6
CONTINUOUS
 62
3
 10
157.440705064674180
 20
134.116458993368950
 11
124.400512685809210
 21
134.116458993368950
  0
LINE
  8
0
  6
CONTINUOUS
 62
3
 10
119.840705064673810
 20
111.116458993368950
 11
121.440705064674170
 21
111.116458993368950
  0
LINE
  8
0
  6
CONTINUOUS
 62
3
 10
121.840705064673810
 20
123.116458993368950
 11
121.840705064673810
 21
111.516458993368580
  0
LINE
  8
0
  6
CONTINUOUS
 62
3
 10
119.840705064673810
 20
135.116458993368950
 11
121.440705064674170
 21
135.116458993368950
  0
LINE
  8
0
  6
CONTINUOUS
 62
3
 10
121.840705064673810
 20
123.116458993368950
 11
121.840705064673810
 21
134.716458993369320
  0
LINE
  8
0
  6
CONTINUOUS
 62
3
 10
123.840705064673810
 20
133.966458993369320
 11
122.640705064674900
 21
133.966458993369320
  0
LINE
  8
0
  6
CONTINUOUS
 62
3
 10
124.400512685809210
 20
134.116458993368950
 11
123.840705064673810
 21
133.966458993369320
  0
LINE
  8
0
  6
CONTINUOUS
 62
3
 10
121.840705064673810
 20
134.716458993369320
 11
121.440705064674170
 21
135.116458993368950
  0
ARC
  8
0
  6
CONTINUOUS
 62
3
 10
122.640705064674900
 20
134.766458993368590
 40
0.800000000000237
 50
183.703196634280290
 51
270.000000000000000
  0
LINE
  8
0
  6
CONTINUOUS
 62
3
 10
123.840705064673810
 20
133.966458993369320
 11
122.640705064674900
 21
133.966458993369320
  0
LINE
  8
0
  6
CONTINUOUS
 62
3
 10
124.400512685809210
 20
134.116458993368950
 11
123.840705064673810
 21
133.966458993369320
  0
LINE
  8
0
  6
CONTINUOUS
 62
3
 10
121.840705064673810
 20
134.716458993369320
 11
121.440705064674170
 21
135.116458993368950
  0
LINE
  8
0
  6
CONTINUOUS
 62
3
 10
119.840705064673810
 20
135.116458993368950
 11
121.440705064674170
 21
135.116458993368950
  0
LINE
  8
0
  6
CONTINUOUS
 62
3
 10
157.840705064673810
 20
123.116458993368950
 11
157.840705064673810
 21
109.616458993368950
  0
ARC
  8
0
  6
CONTINUOUS
 62
3
 10
157.440705064674180
 20
112.516458993368580
 40
0.399999999999636
 50
270.000000000000000
 51
0.000000000000000
  0
LINE
  8
0
  6
CONTINUOUS
 62
3
 10
157.440705064674180
 20
112.116458993368950
 11
124.400512685809210
 21
112.116458993368950
  0
LINE
  8
0
  6
CONTINUOUS
 62
3
 10
157.440705064674180
 20
112.116458993368950
 11
124.400512685809210
 21
112.116458993368950
  0
LINE
  8
0
  6
CONTINUOUS
 62
3
 10
26.112704016214622
 20
63.618576584686025
 11
28.916824606255233
 21
64.229672375994824
  0
LINE
  8
0
  6
CONTINUOUS
 62
3
 10
26.112704016214622
 20
182.614341402051880
 11
28.916824606262736
 21
182.003245610743990
  0
LINE
  8
0
  6
CONTINUOUS
 62
3
 10
49.340705064673813
 20
43.117068305544535
 11
71.340705064673813
 21
43.501079733965753
  0
LINE
  8
0
  6
CONTINUOUS
 62
3
 10
49.340705064673813
 20
203.115849681193370
 11
71.340705064673813
 21
202.731838252772150
  0
ARC
  8
0
  6
CONTINUOUS
 62
3
 10
118.840705064673810
 20
100.116458993368950
 40
1.000000000000000
 50
90.000000000000000
 51
180.000000000000000
  0
ARC
  8
0
  6
CONTINUOUS
 62
3
 10
118.840705064673810
 20
102.116458993368950
 40
1.000000000000000
 50
270.000000000000000
 51
0.000000000000000
  0
ARC
  8
0
  6
CONTINUOUS
 62
3
 10
118.840705064673810
 20
146.116458993368950
 40
1.000000000000000
 50
180.000000000000000
 51
270.000000000000000
  0
ARC
  8
0
  6
CONTINUOUS
 62
3
 10
118.840705064673810
 20
144.116458993368950
 40
1.000000000000000
 50
0.000000000000000
 51
90.000000000000000
  0
ARC
  8
0
  6
CONTINUOUS
 62
3
 10
92.932306520894628
 20
49.771648668245916
 40
2.000000000000191
 50
291.246958743031090
 51
353.664739919024330
  0
ARC
  8
0
  6
CONTINUOUS
 62
3
 10
107.840705064673810
 20
48.116458993368951
 40
13.000000000000000
 50
90.000000000000000
 51
173.664739919035810
  0
ARC
  8
0
  6
CONTINUOUS
 62
3
 10
70.101826809689584
 20
108.489356356440330
 40
64.999999999999844
 50
271.092104518292790
 51
291.246958743040580
  0
LINE
  8
0
  6
CONTINUOUS
 62
4
 10
49.270884804961526
 20
43.117068305544535
 11
53.136452958267029
 21
43.117068305544535
  0
ARC
  8
0
  6
CONTINUOUS
 62
3
 10
115.840705064673810
 20
65.056146586867044
 40
2.000000000000612
 50
316.414952464731070
 51
0.000000000000000
  0
LINE
  8
0
  6
DASHDOT
 62
4
 10
22.840705064673813
 20
38.116458993368951
 11
22.840705064673813
 21
58.707770485855008
  0
LINE
  8
0
  6
DASHDOT
 62
4
 10
33.112350887137865
 20
48.116458993368951
 11
13.349099362088083
 21
48.116458993368951
  0
LINE
  8
0
  6
DASHDOT
 62
4
 10
107.840705064673810
 20
38.116458993368951
 11
107.840705064673810
 21
58.707770485855008
  0
LINE
  8
0
  6
DASHDOT
 62
4
 10
118.112350887137860
 20
48.116458993368951
 11
98.349099362088083
 21
48.116458993368951
  0
CIRCLE
  8
0
  6
CONTINUOUS
 62
3
 10
22.840705064673813
 20
48.116458993368951
 40
5.000000000000000
  0
CIRCLE
  8
0
  6
CONTINUOUS
 62
3
 10
107.840705064673810
 20
48.116458993368951
 40
5.000000000000000
  0
LINE
  8
0
  6
CONTINUOUS
 62
3
 10
107.387011607542290
 20
61.108539744617019
 11
114.059577317342720
 21
61.225009812318831
  0
ARC
  8
0
  6
CONTINUOUS
 62
3
 10
114.024672504468100
 20
63.224705202632549
 40
2.000000000000937
 50
271.000000000001310
 51
314.069138906762990
  0
ARC
  8
0
  6
CONTINUOUS
 62
3
 10
70.206541248313471
 20
108.490270185501910
 40
64.999999999999758
 50
314.069138906773160
 51
316.414952464715330
  0
LINE
  8
0
  6
CONTINUOUS
 62
3
 10
117.840705064673810
 20
65.056146586867044
 11
117.840705064673810
 21
123.116458993368950
  0
ARC
  8
0
  6
CONTINUOUS
 62
3
 10
92.932306520894628
 20
196.461269318491990
 40
2.000000000000057
 50
6.335260080975698
 51
68.753041256968885
  0
ARC
  8
0
  6
CONTINUOUS
 62
3
 10
107.840705064673810
 20
198.116458993368950
 40
12.999999999999165
 50
186.335260080964190
 51
270.000000000000000
  0
ARC
  8
0
  6
CONTINUOUS
 62
3
 10
70.101826809689584
 20
137.743561630297560
 40
65.000000000000128
 50
68.753041256959463
 51
88.907895481707214
  0
ARC
  8
0
  6
CONTINUOUS
 62
3
 10
115.840705064673810
 20
181.176771399870860
 40
2.000000000000000
 50
0.000000000000000
 51
43.585047535268956
  0
LINE
  8
0
  6
DASHDOT
 62
4
 10
22.840705064673813
 20
208.116458993368950
 11
22.840705064673813
 21
187.525147500882890
  0
LINE
  8
0
  6
DASHDOT
 62
4
 10
33.112350887137865
 20
198.116458993368950
 11
13.349099362088083
 21
198.116458993368950
  0
LINE
  8
0
  6
DASHDOT
 62
4
 10
107.840705064673810
 20
208.116458993368950
 11
107.840705064673810
 21
187.525147500882890
  0
LINE
  8
0
  6
DASHDOT
 62
4
 10
118.112350887137860
 20
198.116458993368950
 11
98.349099362088083
 21
198.116458993368950
  0
CIRCLE
  8
0
  6
CONTINUOUS
 62
3
 10
22.840705064673813
 20
198.116458993368950
 40
5.000000000000000
  0
CIRCLE
  8
0
  6
CONTINUOUS
 62
3
 10
107.840705064673810
 20
198.116458993368950
 40
5.000000000000000
  0
LINE
  8
0
  6
CONTINUOUS
 62
3
 10
107.387011607542290
 20
185.124378242120880
 11
114.059577317342720
 21
185.007908174419070
  0
ARC
  8
0
  6
CONTINUOUS
 62
3
 10
114.024672504468100
 20
183.008212784105350
 40
2.000000000000038
 50
45.930861093237034
 51
88.999999999998693
  0
ARC
  8
0
  6
CONTINUOUS
 62
3
 10
70.206541248313471
 20
137.742647801235990
 40
64.999999999999829
 50
43.585047535284680
 51
45.930861093226845
  0
LINE
  8
0
  6
CONTINUOUS
 62
3
 10
117.840705064673810
 20
181.176771399870860
 11
117.840705064673810
 21
123.116458993368950
  0
LINE
  8
0
  6
CONTINUOUS
 62
3
 10
10.840705064673813
 20
206.174633117878560
 11
10.840705064673813
 21
185.058284868859350
  0
LINE
  8
0
  6
CONTINUOUS
 62
3
 10
12.781685251442497
 20
208.173762093619420
 11
51.340705064673813
 21
209.312130940951870
  0
LINE
  8
0
  6
CONTINUOUS
 62
3
 10
12.781685251442497
 20
183.059155893119400
 11
25.562443313812793
 21
182.681832587341200
  0
LINE
  8
0
  6
CONTINUOUS
 62
3
 10
12.781685251442497
 20
63.173762093618507
 11
25.562443313811883
 21
63.551085399396698
  0
LINE
  8
0
  6
CONTINUOUS
 62
3
 10
10.840705064673813
 20
40.058284868859346
 11
10.840705064673813
 21
61.174633117878557
  0
LINE
  8
0
  6
CONTINUOUS
 62
3
 10
12.781685251442497
 20
38.059155893118486
 11
51.340705064673813
 21
36.920787045786028
  0
LINE
  8
0
  6
CONTINUOUS
 62
3
 10
119.840705064673810
 20
40.081853519600600
 11
119.840705064673810
 21
123.116458993368950
  0
LINE
  8
0
  6
CONTINUOUS
 62
3
 10
117.875609877549350
 20
38.082158129287791
 11
51.340705064673813
 21
36.920787045786028
  0
LINE
  8
0
  6
CONTINUOUS
 62
3
 10
117.875609877549350
 20
208.150759857450110
 11
51.340705064673813
 21
209.312130940951870
  0
LINE
  8
0
  6
CONTINUOUS
 62
3
 10
119.840705064673810
 20
206.151064467137300
 11
119.840705064673810
 21
123.116458993368950
  0
LINE
  8
0
  6
CONTINUOUS
 62
3
 10
49.340705064673813
 20
203.124577213657400
 11
49.340705064673813
 21
122.616458993368950
  0
LINE
  8
0
  6
CONTINUOUS
 62
3
 10
49.340705064673813
 20
43.108340773080499
 11
49.340705064673813
 21
123.616458993368950
  0
ARC
  8
0
  6
CONTINUOUS
 62
3
 10
117.840705064673810
 20
206.151064467137300
 40
2.000000000000000
 50
0.000000000000000
 51
88.999999999972189
  0
ARC
  8
0
  6
CONTINUOUS
 62
3
 10
12.840705064673813
 20
206.174633117878560
 40
2.000000000000139
 50
91.691038599304477
 51
180.000000000000000
  0
ARC
  8
0
  6
CONTINUOUS
 62
3
 10
12.840705064673813
 20
185.058284868859350
 40
2.000000000000000
 50
180.000000000000000
 51
268.308961400694730
  0
ARC
  8
0
  6
CONTINUOUS
 62
3
 10
12.840705064673813
 20
61.174633117878557
 40
1.999999999999230
 50
91.691038599305259
 51
180.000000000000000
  0
ARC
  8
0
  6
CONTINUOUS
 62
3
 10
12.840705064673813
 20
40.058284868859346
 40
2.000000000000000
 50
180.000000000000000
 51
268.308961400695520
  0
ARC
  8
0
  6
CONTINUOUS
 62
3
 10
117.840705064673810
 20
40.081853519600600
 40
2.000000000000043
 50
271.000000000027800
 51
0.000000000000000
  0
ARC
  8
0
  6
CONTINUOUS
 62
3
 10
25.473913593964454
 20
179.683139123730370
 40
2.999999999999290
 50
77.705878519290863
 51
88.308961400669205
  0
ARC
  8
0
  6
CONTINUOUS
 62
3
 10
25.473913593964454
 20
66.549778863007532
 40
2.999999999999768
 50
271.691038599313400
 51
282.294121480709120
  0
ARC
  8
0
  6
CONTINUOUS
 62
3
 10
-183.926961757728580
 20
-183.060448053611760
 40
9.000000000000234
 50
7.398451589678908
 51
40.601531107483503
  0
ARC
  8
0
  6
CONTINUOUS
 62
3
 10
-176.291066132547260
 20
-182.068928931113130
 40
1.299999237060559
 50
293.999982013920090
 51
7.398451589679256
  0
LINE
  8
0
  6
DASHDOT
 62
4
 10
-201.808569484892590
 20
-159.001017226925400
 11
-201.808569484892590
 21
-181.869526402689020
  0
LINE
  8
0
  6
CONTINUOUS
 62
3
 10
-224.503133425157100
 20
-85.532532609715474
 11
-178.785934743432110
 21
-188.215042048741510
  0
ARC
  8
0
  6
CONTINUOUS
 62
3
 10
-178.040133931618810
 20
-120.730191188983150
 40
1.000000000000077
 50
0.587807867721716
 51
53.794291905958382
  0
ARC
  8
0
  6
CONTINUOUS
 62
3
 10
-176.858761815342400
 20
-119.116388250925010
 40
0.999999999999967
 50
180.740494943192910
 51
233.794291905968890
  0
ARC
  8
0
  6
CONTINUOUS
 62
3
 10
-177.628970231495490
 20
-158.275397275920170
 40
0.999999999999769
 50
123.952126946395960
 51
177.005923909151190
  0
ARC
  8
0
  6
CONTINUOUS
 62
3
 10
-178.745970256107970
 20
-156.616388250925010
 40
1.000000000000147
 50
303.952126946381380
 51
357.158610984632960
  0
ARC
  8
0
  6
CONTINUOUS
 62
3
 10
-777.808569484892590
 20
-126.883541006631330
 40
600.799999999999950
 50
357.158610984636650
 51
0.587807867706885
  0
LINE
  8
0
  6
CONTINUOUS
 62
3
 10
-225.808569484892590
 20
-94.191936129572071
 11
-225.808569484892590
 21
-168.383541006631110
  0
LINE
  8
0
  6
CONTINUOUS
 62
3
 10
-226.808569484892590
 20
-157.883541006631110
 11
-225.808569484892590
 21
-157.883541006631110
  0
LINE
  8
0
  6
CONTINUOUS
 62
3
 10
-180.738270630196210
 20
-183.830023852056970
 11
-184.255420642120270
 21
-185.395959927898790
  0
LINE
  8
0
  6
CONTINUOUS
 62
3
 10
-182.365217202499480
 20
-180.175842021486970
 11
-185.882367214423310
 21
-181.741778097328790
  0
ARC
  8
0
  6
CONTINUOUS
 62
3
 10
-181.438555888473500
 20
-171.006175594868240
 40
2.000000000000451
 50
294.000000000027340
 51
355.768661925113970
  0
ARC
  8
0
  6
CONTINUOUS
 62
3
 10
-180.013882221194080
 20
-173.655778846509800
 40
0.999999999999856
 50
113.999999999979760
 51
204.000000000003580
  0
LINE
  8
0
  6
CONTINUOUS
 62
3
 10
-201.932860462088910
 20
-126.883541006631100
 11
-175.721198647466050
 21
-185.755897347411120
  0
ARC
  8
0
  6
CONTINUOUS
 62
3
 10
-176.634744105108670
 20
-186.162633990486770
 40
1.000000000000226
 50
294.000000000027340
 51
23.999999999991683
  0
LINE
  8
0
  6
CONTINUOUS
 62
3
 10
-176.228007462032340
 20
-187.076179448129380
 11
-178.785934743432110
 21
-188.215042048741510
  0
LINE
  8
0
  6
CONTINUOUS
 62
3
 10
-220.808569484892590
 20
-173.383541006631110
 11
-185.389344453563810
 21
-173.383541006631110
  0
ARC
  8
0
  6
CONTINUOUS
 62
3
 10
-220.808569484892590
 20
-168.383541006631110
 40
5.000000000000000
 50
180.000000000000000
 51
270.000000000000000
  0
LINE
  8
0
  6
CONTINUOUS
 62
3
 10
-226.808569484892590
 20
-95.883541006631106
 11
-225.808569484892590
 21
-95.883541006631106
  0
ARC
  8
0
  6
CONTINUOUS
 62
3
 10
-222.808569484892590
 20
-94.191936129572071
 40
2.999999999999567
 50
113.999999999979760
 51
180.000000000000000
  0
LINE
  8
0
  6
CONTINUOUS
 62
3
 10
-222.225408223932160
 20
-90.648387172514106
 11
-224.028779414118840
 21
-91.451299756644232
  0
LINE
  8
0
  6
CONTINUOUS
 62
3
 10
-221.945206143752560
 20
-84.393670009101072
 11
-224.503133425151870
 21
-85.532532609713201
  0
ARC
  8
0
  6
CONTINUOUS
 62
3
 10
-178.842520492580890
 20
-176.286700364517690
 40
0.999999999999983
 50
175.284875165916760
 51
204.000000000003580
  0
ARC
  8
0
  6
CONTINUOUS
 62
3
 10
-777.808569484892590
 20
-126.883541006631330
 40
600.000000000000910
 50
355.284875165908370
 51
1.682768801133149
  0
ARC
  8
0
  6
CONTINUOUS
 62
3
 10
-193.060858470333410
 20
-109.704645138896290
 40
15.000000000000393
 50
1.682768801133086
 51
80.681876880324481
  0
LINE
  8
0
  6
CONTINUOUS
 62
3
 10
-216.587756111677890
 20
-90.643747729292329
 11
-190.632119018141790
 21
-94.902576882285359
  0
ARC
  8
0
  6
CONTINUOUS
 62
3
 10
-216.102008221239200
 20
-87.683334077970187
 40
3.000000000000030
 50
203.999999999999630
 51
260.681876880317470
  0
LINE
  8
0
  6
CONTINUOUS
 62
3
 10
-220.624924043034530
 20
-84.900478823667811
 11
-201.932860462085730
 21
-126.883541006631100
  0
LINE
  8
0
  6
CONTINUOUS
 62
3
 10
-224.173972645485950
 20
-88.226870327525432
 11
-223.437568762723910
 21
-88.539455230316719
  0
LINE
  8
0
  6
CONTINUOUS
 62
3
 10
-223.304226740529880
 20
-88.225321111867345
 11
-223.437568762723910
 21
-88.539455230316719
  0
LINE
  8
0
  6
CONTINUOUS
 62
3
 10
-223.749140485739870
 20
-87.226028478909996
 11
-224.173972645485950
 21
-88.226870327525432
  0
ARC
  8
0
  6
CONTINUOUS
 62
3
 10
-178.080707982711830
 20
-178.049327523526070
 40
1.299999237060495
 50
40.601531107483851
 51
114.000000683246080
  0
LINE
  8
0
  6
CONTINUOUS
 62
3
 10
-179.503849428071360
 20
-177.259924591334820
 11
-178.609465308394870
 21
-176.861719125570570
  0
LINE
  8
0
  6
CONTINUOUS
 62
3
 10
-176.656692926540470
 20
-183.654742794833110
 11
-175.762308806863980
 21
-183.256537329068640
  0
LINE
  8
0
  6
CONTINUOUS
 62
3
 10
-179.503849428071360
 20
-177.259924591334820
 11
-176.656692926540470
 21
-183.654742794833110
  0
LINE
  8
0
  6
CONTINUOUS
 62
3
 10
-179.503849428071360
 20
-177.259924591334820
 11
-176.656692926540470
 21
-183.654742794833110
  0
POINT
  8
0
  6
CONTINUOUS
 62
3
 10
-178.080271177305800
 20
-180.457333693083970
  0
LINE
  8
0
  6
CONTINUOUS
 62
3
 10
-186.059750299521740
 20
-182.203876832580190
 11
-184.717519377371670
 21
-185.218576842800360
  0
LINE
  8
0
  6
CONTINUOUS
 62
3
 10
-184.255420642120270
 20
-185.395959927898790
 11
-184.717519377371670
 21
-185.218576842800360
  0
LINE
  8
0
  6
CONTINUOUS
 62
3
 10
-185.882367214423310
 20
-181.741778097328790
 11
-186.059750299521740
 21
-182.203876832580190
  0
LINE
  8
0
  6
CONTINUOUS
 62
4
 10
-182.222859377422990
 20
-180.495582931661890
 11
-186.059750299521740
 21
-182.203876832580190
  0
LINE
  8
0
  6
CONTINUOUS
 62
4
 10
-180.880628455272470
 20
-183.510282941882510
 11
-184.717519377371450
 21
-185.218576842800810
  0
ARC
  8
0
  6
CONTINUOUS
 62
3
 10
-221.538469500677140
 20
-85.307215466743685
 40
1.000000000000041
 50
24.000000000003585
 51
113.999999999979760
  0
LINE
  8
0
  6
CONTINUOUS
 62
3
 10
-226.808569484892590
 20
-126.883541006631100
 11
-226.808569484892590
 21
-157.883541006631110
  0
LINE
  8
0
  6
CONTINUOUS
 62
3
 10
-226.808569484892590
 20
-126.883541006631100
 11
-226.808569484892590
 21
-95.883541006631106
  0
LINE
  8
0
  6
CONTINUOUS
 62
3
 10
-230.808569484892590
 20
-156.876040068897910
 11
-230.808569484892590
 21
-159.488284692907830
  0
LINE
  8
0
  6
CONTINUOUS
 62
3
 10
-230.808569484892590
 20
-96.891041944364304
 11
-230.808569484892590
 21
-94.278797320354386
  0
LINE
  8
0
  6
CONTINUOUS
 62
3
 10
-230.808569484892590
 20
-94.278797320354386
 11
-227.782392536584670
 21
-94.358040552577222
  0
LINE
  8
0
  6
CONTINUOUS
 62
3
 10
-226.808569484892590
 20
-158.409384135709440
 11
-226.808569484892590
 21
-95.357697877552766
  0
ARC
  8
0
  6
CONTINUOUS
 62
3
 10
-227.808569484892590
 20
-95.357697877552766
 40
1.000000000000000
 50
0.000000000000000
 51
88.499999999997257
  0
ARC
  8
0
  6
CONTINUOUS
 62
3
 10
-227.808569484892590
 20
-158.409384135709440
 40
0.999999999999988
 50
271.500000000002730
 51
0.000000000000000
  0
LINE
  8
0
  6
CONTINUOUS
 62
3
 10
-230.808569484892590
 20
-159.488284692907830
 11
-227.782392536584670
 21
-159.409041460684990
  0
LINE
  8
0
  6
CONTINUOUS
 62
3
 10
-50.602038729430205
 20
4.442633613585031
 11
-18.209294935327421
 21
4.442633613585031
  0
ARC
  8
0
  6
CONTINUOUS
 62
3
 10
-51.459294172386763
 20
5.419931481115100
 40
1.299999237060351
 50
286.601548410324710
 51
17.759447913550098
  0
ARC
  8
0
  6
CONTINUOUS
 62
3
 10
-53.659294935326216
 20
12.798956403962848
 40
8.999999999999858
 50
253.398468892518050
 51
286.601548410325050
  0
ARC
  8
0
  6
CONTINUOUS
 62
3
 10
-55.859295698265669
 20
5.419931481115100
 40
1.299999237060699
 50
162.240552086452960
 51
253.398468892505180
  0
CIRCLE
  8
0
  6
DASHED
 62
4
 10
-53.659294935326216
 20
30.616458993368724
 40
13.500000000000000
  0
LINE
  8
0
  6
DASHDOT
 62
4
 10
-76.482926566638071
 20
30.616458993368951
 11
-32.195208528239618
 21
30.616458993368951
  0
LINE
  8
0
  6
CONTINUOUS
 62
3
 10
-84.659294935326216
 20
55.616458993368951
 11
-84.659294935326216
 21
54.616458993368951
  0
LINE
  8
0
  6
CONTINUOUS
 62
3
 10
-22.659294935326329
 20
55.616458993368838
 11
-22.659294935326329
 21
54.616458993368838
  0
ARC
  8
0
  6
CONTINUOUS
 62
3
 10
-87.459294935326398
 20
49.616458993368951
 40
5.000000000000000
 50
90.000000000000000
 51
135.074043599465310
  0
ARC
  8
0
  6
CONTINUOUS
 62
3
 10
-19.859294935326375
 20
49.616458993368838
 40
5.000000000000008
 50
44.925956400534659
 51
90.000000000000000
  0
LINE
  8
0
  6
CONTINUOUS
 62
3
 10
-87.459294935326398
 20
54.616458993368951
 11
-19.859294935326375
 21
54.616458993368838
  0
ARC
  8
0
  6
CONTINUOUS
 62
3
 10
-74.709930029936459
 20
6.816458993368997
 40
1.000000000000227
 50
216.869897645844020
 51
270.000000000000000
  0
ARC
  8
0
  6
CONTINUOUS
 62
3
 10
-76.309930029936368
 20
5.616458993368951
 40
0.999999999999727
 50
36.869897645849235
 51
90.000000000000000
  0
ARC
  8
0
  6
CONTINUOUS
 62
3
 10
-31.408659840716155
 20
5.616458993368951
 40
1.000000000000000
 50
90.000000000000000
 51
143.130102354166380
  0
ARC
  8
0
  6
CONTINUOUS
 62
3
 10
-33.008659840716064
 20
6.816458993368997
 40
1.000000000000000
 50
270.000000000000000
 51
323.130102354140380
  0
LINE
  8
0
  6
CONTINUOUS
 62
3
 10
-74.709930029936459
 20
5.816458993368997
 11
-33.008659840716064
 21
5.816458993368997
  0
ARC
  8
0
  6
CONTINUOUS
 62
3
 10
-89.109294935325124
 20
42.311022933633467
 40
10.999999999999886
 50
90.000000000000000
 51
180.000000000000000
  0
ARC
  8
0
  6
CONTINUOUS
 62
3
 10
-89.109294935325124
 20
38.839550194586536
 40
11.000000000000000
 50
90.000000000000000
 51
180.000000000000000
  0
ARC
  8
0
  6
CONTINUOUS
 62
3
 10
-18.209294935327421
 20
42.311022933633240
 40
11.000000000000000
 50
0.000000000000000
 51
90.000000000000000
  0
ARC
  8
0
  6
CONTINUOUS
 62
3
 10
-18.209294935327421
 20
38.839550194586536
 40
11.000000000000000
 50
0.000000000000000
 51
90.000000000000000
  0
ARC
  8
0
  6
CONTINUOUS
 62
3
 10
-87.909294935325761
 20
12.416458993368906
 40
5.799999999999727
 50
180.000000000000000
 51
270.000000000000000
  0
ARC
  8
0
  6
CONTINUOUS
 62
3
 10
-19.409294935327011
 20
12.416458993368906
 40
5.799999999999955
 50
270.000000000000000
 51
0.000000000000000
  0
LINE
  8
0
  6
CONTINUOUS
 62
3
 10
-87.909294935325761
 20
6.616458993368951
 11
-19.409294935327011
 21
6.616458993368951
  0
ARC
  8
0
  6
CONTINUOUS
 62
3
 10
-89.109294935325124
 20
15.442633613585031
 40
11.000000000000000
 50
180.000000000000000
 51
270.000000000000000
  0
ARC
  8
0
  6
CONTINUOUS
 62
3
 10
-18.209294935327421
 20
15.442633613585031
 40
11.000000000000000
 50
270.000000000000000
 51
0.000000000000000
  0
ARC
  8
0
  6
CONTINUOUS
 62
3
 10
-88.709294935325488
 20
41.992393693055874
 40
4.999999999999886
 50
90.000000000000000
 51
180.000000000000000
  0
ARC
  8
0
  6
CONTINUOUS
 62
3
 10
-18.609294935327057
 20
41.992393693055647
 40
5.000000000000000
 50
0.000000000000000
 51
90.000000000000000
  0
LINE
  8
0
  6
CONTINUOUS
 62
3
 10
-88.709294935325488
 20
46.992393693055760
 11
-18.609294935327057
 21
46.992393693055647
  0
LINE
  8
0
  6
CONTINUOUS
 62
3
 10
-93.709294935325488
 20
12.416458993368906
 11
-93.709294935325488
 21
41.992393693055874
  0
LINE
  8
0
  6
CONTINUOUS
 62
3
 10
-13.609294935327057
 20
12.416458993368906
 11
-13.609294935327057
 21
41.992393693055647
  0
LINE
  8
0
  6
CONTINUOUS
 62
3
 10
-100.109294935325120
 20
42.311022933633467
 11
-100.109294935325120
 21
15.442633613585031
  0
LINE
  8
0
  6
CONTINUOUS
 62
3
 10
-7.209294935327421
 20
42.311022933633240
 11
-7.209294935327421
 21
15.442633613585031
  0
LINE
  8
0
  6
CONTINUOUS
 62
3
 10
-89.109294935325124
 20
49.839550194586536
 11
-18.209294935327421
 21
49.839550194586536
  0
LINE
  8
0
  6
CONTINUOUS
 62
3
 10
-89.109294935325124
 20
53.311022933633353
 11
-18.209294935327421
 21
53.311022933633240
  0
LINE
  8
0
  6
CONTINUOUS
 62
3
 10
-89.109294935325124
 20
4.442633613585031
 11
-56.716551141222453
 21
4.442633613585031
  0
LINE
  8
0
  6
DASHDOT
 62
4
 10
-53.659294935326216
 20
61.450172329521706
 11
-53.659294935326216
 21
-0.612241187114478
  0
LINE
  8
0
  6
CONTINUOUS
 62
3
 10
-86.159294935326216
 20
59.616458993368951
 11
-21.159294935326102
 21
59.616458993368951
  0
LINE
  8
0
  6
CONTINUOUS
 62
3
 10
-81.821970700506199
 20
61.616458993368951
 11
-21.159294935326102
 21
61.616458993368951
  0
LINE
  8
0
  6
CONTINUOUS
 62
3
 10
-86.159294935326216
 20
55.616458993368951
 11
-21.159294935326102
 21
55.616458993368951
  0
LINE
  8
0
  6
CONTINUOUS
 62
3
 10
-21.159294935326102
 20
55.616458993368951
 11
-21.159294935326216
 21
62.616458993368951
  0
LINE
  8
0
  6
CONTINUOUS
 62
3
 10
-86.159294935326216
 20
55.616458993368951
 11
-86.159294935326216
 21
61.455277968045948
  0
LINE
  8
0
  6
CONTINUOUS
 62
3
 10
-16.909294935326216
 20
62.616458993368951
 11
-16.909294935326216
 21
63.616458993368951
  0
LINE
  8
0
  6
CONTINUOUS
 62
3
 10
-80.322059380130327
 20
62.616458993368951
 11
-16.909294935326216
 21
62.616458993368951
  0
ARC
  8
0
  6
CONTINUOUS
 62
4
 10
-294.308569484892590
 20
-367.483541006631010
 40
289.396999999999930
 50
90.000000000000000
 51
97.897988672427743
  0
ARC
  8
0
  6
CONTINUOUS
 62
4
 10
-333.250087440274680
 20
-86.774763466044362
 40
5.999999999999923
 50
97.897988672425626
 51
134.999999999996930
  0
ARC
  8
0
  6
CONTINUOUS
 62
3
 10
-338.257156915175070
 20
-76.786926539102808
 40
6.599999999999971
 50
98.597082237248614
 51
134.999999999998610
  0
ARC
  8
0
  6
CONTINUOUS
 62
3
 10
-298.308569484892590
 20
-98.160727773940664
 40
1.499999999999998
 50
277.928141766204020
 51
0.000000000000000
  0
ARC
  8
0
  6
CONTINUOUS
 62
3
 10
-294.308569484892130
 20
-126.883541006631100
 40
33.499999999999950
 50
97.180755781459069
 51
142.819244218541740
  0
ARC
  8
0
  6
CONTINUOUS
 62
3
 10
-294.308569484892130
 20
-126.883541006631100
 40
43.000000000000043
 50
95.531071524839788
 51
144.468928475160770
  0
ARC
  8
0
  6
CONTINUOUS
 62
3
 10
-294.308569484892130
 20
-126.883541006631100
 40
37.000000000000099
 50
95.963570118321798
 51
144.036429881678830
  0
ARC
  8
0
  6
CONTINUOUS
 62
3
 10
-317.183255412558310
 20
-109.058032775147970
 40
1.499999999999926
 50
239.999999999998410
 51
322.071858233800300
  0
ARC
  8
0
  6
CONTINUOUS
 62
3
 10
-319.804023654627140
 20
-107.544931525105820
 40
1.500000000000103
 50
142.819244218542510
 51
239.999999999998410
  0
ARC
  8
0
  6
CONTINUOUS
 62
3
 10
-325.470105939043380
 20
-104.273617392947520
 40
1.500000000000123
 50
240.000000000002730
 51
324.036429881683720
  0
LINE
  8
0
  6
CONTINUOUS
 62
3
 10
-317.933255412558310
 20
-110.357070880824550
 11
-320.554023654627140
 21
-108.843969630782390
  0
LINE
  8
0
  6
CONTINUOUS
 62
3
 10
-326.220105939043380
 20
-105.572655498624320
 11
-328.831289538027480
 21
-104.065087944847220
  0
ARC
  8
0
  6
CONTINUOUS
 62
3
 10
-328.081289538027480
 20
-102.766049839170420
 40
1.499999999999976
 50
144.468928475160790
 51
240.000000000002730
  0
ARC
  8
0
  6
CONTINUOUS
 62
3
 10
-323.804023654627600
 20
-139.293947257880800
 40
1.500000000000157
 50
202.819244218546660
 51
300.000000000001590
  0
LINE
  8
0
  6
CONTINUOUS
 62
3
 10
-323.054023654627600
 20
-140.592985363557370
 11
-320.433255412558310
 21
-139.079884113515450
  0
ARC
  8
0
  6
CONTINUOUS
 62
3
 10
-329.470105939043830
 20
-142.565261390039100
 40
1.499999999999926
 50
300.000000000001590
 51
24.036429881677126
  0
LINE
  8
0
  6
CONTINUOUS
 62
3
 10
-331.331289538027930
 20
-145.371867049493010
 11
-328.720105939043830
 21
-143.864299495715670
  0
ARC
  8
0
  6
CONTINUOUS
 62
3
 10
-332.081289538027930
 20
-144.072828943815980
 40
1.500000000000128
 50
204.468928475167470
 51
299.999999999992950
  0
ARC
  8
0
  6
CONTINUOUS
 62
3
 10
-321.183255412558310
 20
-137.780846007838420
 40
1.500000000000320
 50
299.999999999992950
 51
22.071858233784546
  0
ARC
  8
0
  6
CONTINUOUS
 62
3
 10
-294.308569484892360
 20
-126.883541006631560
 40
33.499999999999794
 50
157.180755781458400
 51
202.819244218540940
  0
ARC
  8
0
  6
CONTINUOUS
 62
3
 10
-294.308569484892360
 20
-126.883541006631560
 40
43.000000000000121
 50
155.531071524839230
 51
204.468928475160200
  0
ARC
  8
0
  6
CONTINUOUS
 62
3
 10
-294.308569484892360
 20
-126.883541006631560
 40
37.000000000000156
 50
155.963570118321120
 51
204.036429881678230
  0
ARC
  8
0
  6
CONTINUOUS
 62
3
 10
-294.308569484893040
 20
-126.883541006631100
 40
27.499999999999886
 50
157.928141766202200
 51
202.071858233798680
  0
ARC
  8
0
  6
CONTINUOUS
 62
3
 10
-321.183255412558540
 20
-115.986236005423790
 40
1.500000000000110
 50
337.928141766202600
 51
59.999999999998380
  0
ARC
  8
0
  6
CONTINUOUS
 62
3
 10
-323.804023654627370
 20
-114.473134755381860
 40
1.500000000000123
 50
60.000000000002721
 51
157.180755781457980
  0
ARC
  8
0
  6
CONTINUOUS
 62
3
 10
-329.470105939043610
 20
-111.201820623223560
 40
1.499999999999855
 50
335.963570118319300
 51
59.999999999990862
  0
LINE
  8
0
  6
CONTINUOUS
 62
3
 10
-320.433255412558540
 20
-114.687197899747210
 11
-323.054023654627370
 21
-113.174096649705060
  0
LINE
  8
0
  6
CONTINUOUS
 62
3
 10
-328.720105939043380
 20
-109.902782517546990
 11
-331.331289538027930
 21
-108.395214963769880
  0
ARC
  8
0
  6
CONTINUOUS
 62
3
 10
-332.081289538027930
 20
-109.694253069446460
 40
1.499999999999926
 50
59.999999999998380
 51
155.531071524840400
  0
ARC
  8
0
  6
CONTINUOUS
 62
3
 10
-319.804023654627600
 20
-146.222150488156160
 40
1.499999999999926
 50
120.000000000001620
 51
217.180755781464400
  0
LINE
  8
0
  6
CONTINUOUS
 62
3
 10
-320.554023654627600
 20
-144.923112382479590
 11
-317.933255412558310
 21
-143.410011132437210
  0
ARC
  8
0
  6
CONTINUOUS
 62
3
 10
-325.470105939043830
 20
-149.493464620314460
 40
1.499999999999968
 50
35.963570118309242
 51
120.000000000001620
  0
LINE
  8
0
  6
CONTINUOUS
 62
3
 10
-328.831289538027930
 20
-149.701994068415220
 11
-326.220105939043830
 21
-148.194426514637880
  0
ARC
  8
0
  6
CONTINUOUS
 62
3
 10
-328.081289538027930
 20
-151.001032174091790
 40
1.499999999999926
 50
120.000000000001620
 51
215.531071524832130
  0
ARC
  8
0
  6
CONTINUOUS
 62
3
 10
-317.183255412558310
 20
-144.709049238114230
 40
1.500000000000122
 50
37.928141766218701
 51
119.999999999992930
  0
ARC
  8
0
  6
CONTINUOUS
 62
3
 10
-294.308569484892810
 20
-126.883541006630650
 40
33.500000000000163
 50
217.180755781459110
 51
262.819244218541770
  0
ARC
  8
0
  6
CONTINUOUS
 62
3
 10
-294.308569484892810
 20
-126.883541006630650
 40
42.999999999999858
 50
215.531071524839690
 51
264.468928475160850
  0
ARC
  8
0
  6
CONTINUOUS
 62
3
 10
-294.308569484892810
 20
-126.883541006630650
 40
37.000000000000021
 50
215.963570118321970
 51
264.036429881678940
  0
ARC
  8
0
  6
CONTINUOUS
 62
3
 10
-294.308569484892810
 20
-126.883541006631560
 40
27.499999999999780
 50
217.928141766201070
 51
262.071858233797400
  0
ARC
  8
0
  6
CONTINUOUS
 62
3
 10
-298.308569484892810
 20
-155.606354239321550
 40
1.500000000000000
 50
0.000000000000000
 51
82.071858233804562
  0
ARC
  8
0
  6
CONTINUOUS
 62
3
 10
-298.308569484892810
 20
-158.632556739405860
 40
1.499999999999998
 50
262.819244218541710
 51
0.000000000000000
  0
ARC
  8
0
  6
CONTINUOUS
 62
3
 10
-298.308569484892810
 20
-165.175185003722450
 40
1.500000000000000
 50
0.000000000017370
 51
84.036429881682594
  0
LINE
  8
0
  6
CONTINUOUS
 62
3
 10
-296.808569484892810
 20
-155.606354239321550
 11
-296.808569484892810
 21
-158.632556739405860
  0
LINE
  8
0
  6
CONTINUOUS
 62
3
 10
-296.808569484892810
 20
-165.175185003721990
 11
-296.808569484892810
 21
-168.190320111276210
  0
ARC
  8
0
  6
CONTINUOUS
 62
3
 10
-298.308569484892810
 20
-168.190320111276210
 40
1.500000000000430
 50
264.468928475160000
 51
0.000000000000000
  0
ARC
  8
0
  6
CONTINUOUS
 62
3
 10
-268.813115315157570
 20
-146.222150488156160
 40
1.500000000000240
 50
322.819244218535570
 51
59.999999999998380
  0
LINE
  8
0
  6
CONTINUOUS
 62
3
 10
-268.063115315157570
 20
-144.923112382479590
 11
-270.683883557226860
 21
-143.410011132437210
  0
ARC
  8
0
  6
CONTINUOUS
 62
3
 10
-263.147033030741340
 20
-149.493464620314460
 40
1.499999999999926
 50
59.999999999998380
 51
144.036429881690740
  0
ARC
  8
0
  6
CONTINUOUS
 62
3
 10
-271.433883557226860
 20
-144.709049238114230
 40
1.500000000000320
 50
60.000000000007070
 51
142.071858233781280
  0
ARC
  8
0
  6
CONTINUOUS
 62
3
 10
-294.308569484892360
 20
-126.883541006630650
 40
33.500000000000114
 50
277.180755781458230
 51
322.819244218540860
  0
ARC
  8
0
  6
CONTINUOUS
 62
3
 10
-294.308569484892360
 20
-126.883541006630650
 40
43.000000000000199
 50
275.531071524838860
 51
324.468928475160340
  0
ARC
  8
0
  6
CONTINUOUS
 62
3
 10
-294.308569484892360
 20
-126.883541006630650
 40
37.000000000000028
 50
275.963570118320770
 51
324.036429881678030
  0
ARC
  8
0
  6
CONTINUOUS
 62
3
 10
-294.308569484892360
 20
-126.883541006631560
 40
27.499999999999879
 50
277.928141766202600
 51
322.071858233798930
  0
ARC
  8
0
  6
CONTINUOUS
 62
3
 10
-290.308569484892360
 20
-155.606354239321550
 40
1.499999999999967
 50
97.928141766195438
 51
180.000000000000000
  0
ARC
  8
0
  6
CONTINUOUS
 62
3
 10
-290.308569484892360
 20
-158.632556739405860
 40
1.500000000000000
 50
180.000000000000000
 51
277.180755781458290
  0
ARC
  8
0
  6
CONTINUOUS
 62
3
 10
-290.308569484892360
 20
-165.175185003722450
 40
1.500000000000182
 50
95.963570118326047
 51
179.999999999982630
  0
LINE
  8
0
  6
CONTINUOUS
 62
3
 10
-291.808569484892360
 20
-155.606354239321550
 11
-291.808569484892360
 21
-158.632556739405860
  0
LINE
  8
0
  6
CONTINUOUS
 62
3
 10
-291.808569484892360
 20
-165.175185003721990
 11
-291.808569484892360
 21
-168.190320111276210
  0
ARC
  8
0
  6
CONTINUOUS
 62
3
 10
-290.308569484892360
 20
-168.190320111276210
 40
1.500000000000000
 50
180.000000000000000
 51
275.531071524831360
  0
ARC
  8
0
  6
CONTINUOUS
 62
3
 10
-264.813115315157570
 20
-139.293947257880800
 40
1.499999999999926
 50
239.999999999998410
 51
337.180755781453340
  0
LINE
  8
0
  6
CONTINUOUS
 62
3
 10
-265.563115315157570
 20
-140.592985363557370
 11
-268.183883557226860
 21
-139.079884113515450
  0
ARC
  8
0
  6
CONTINUOUS
 62
3
 10
-267.433883557226860
 20
-137.780846007838420
 40
1.499999999999899
 50
157.928141766199360
 51
240.000000000007050
  0
ARC
  8
0
  6
CONTINUOUS
 62
3
 10
-294.308569484892810
 20
-126.883541006631560
 40
33.500000000000128
 50
337.180755781459030
 51
22.819244218541968
  0
ARC
  8
0
  6
CONTINUOUS
 62
3
 10
-294.308569484892130
 20
-126.883541006631100
 40
27.499999999999886
 50
337.928141766202200
 51
22.071858233797812
  0
ARC
  8
0
  6
CONTINUOUS
 62
3
 10
-267.433883557226640
 20
-115.986236005423790
 40
1.499999999999926
 50
120.000000000001620
 51
202.071858233797370
  0
ARC
  8
0
  6
CONTINUOUS
 62
3
 10
-264.813115315157800
 20
-114.473134755381860
 40
1.499999999999948
 50
22.819244218550043
 51
119.999999999997270
  0
LINE
  8
0
  6
CONTINUOUS
 62
3
 10
-268.183883557226640
 20
-114.687197899747210
 11
-265.563115315157800
 21
-113.174096649705060
  0
ARC
  8
0
  6
CONTINUOUS
 62
3
 10
-294.308569484893040
 20
-126.883541006631100
 40
33.500000000000071
 50
37.180755781458259
 51
82.819244218540931
  0
ARC
  8
0
  6
CONTINUOUS
 62
3
 10
-294.308569484893040
 20
-126.883541006631100
 40
36.999999999999943
 50
35.963570118321194
 51
84.036429881678174
  0
ARC
  8
0
  6
CONTINUOUS
 62
3
 10
-263.147033030741800
 20
-104.273617392947520
 40
1.500000000000102
 50
215.963570118316280
 51
299.999999999997270
  0
ARC
  8
0
  6
CONTINUOUS
 62
3
 10
-268.813115315158030
 20
-107.544931525105820
 40
1.499999999999926
 50
300.000000000001590
 51
37.180755781457485
  0
ARC
  8
0
  6
CONTINUOUS
 62
3
 10
-294.308569484892360
 20
-126.883541006630650
 40
27.500000000000060
 50
37.928141766201819
 51
82.071858233798309
  0
ARC
  8
0
  6
CONTINUOUS
 62
3
 10
-290.308569484892590
 20
-98.160727773940664
 40
1.500000000000000
 50
180.000000000000000
 51
262.071858233795980
  0
LINE
  8
0
  6
CONTINUOUS
 62
3
 10
-270.683883557226860
 20
-110.357070880824550
 11
-268.063115315158030
 21
-108.843969630782390
  0
ARC
  8
0
  6
CONTINUOUS
 62
3
 10
-271.433883557226860
 20
-109.058032775147970
 40
1.499999999999843
 50
217.928141766204990
 51
300.000000000001590
  0
CIRCLE
  8
0
  6
CONTINUOUS
 62
3
 10
-294.308569484892590
 20
-126.883541006630650
 40
5.000000000000000
  0
ARC
  8
0
  6
CONTINUOUS
 62
3
 10
-288.371315551698670
 20
-118.836863696537250
 40
1.499999999999693
 50
233.578178478195410
 51
300.000000000001590
  0
ARC
  8
0
  6
CONTINUOUS
 62
3
 10
-290.308569484892590
 20
-117.718389616718750
 40
1.500000000000000
 50
180.000000000000000
 51
246.421821521804280
  0
ARC
  8
0
  6
CONTINUOUS
 62
3
 10
-277.133390215847840
 20
-112.348644478750710
 40
1.499999999999926
 50
300.000000000001590
 51
40.240348321182964
  0
ARC
  8
0
  6
CONTINUOUS
 62
3
 10
-290.308569484892590
 20
-114.514224129777680
 40
1.500000000000138
 50
72.079786860605225
 51
180.000000000000000
  0
ARC
  8
0
  6
CONTINUOUS
 62
3
 10
-290.308569484892590
 20
-107.798206322638460
 40
1.500000000000000
 50
180.000000000000000
 51
258.162995844103310
  0
ARC
  8
0
  6
CONTINUOUS
 62
3
 10
-279.780184808826790
 20
-113.876772049496870
 40
1.499999999999967
 50
221.837004155893280
 51
300.000000000001590
  0
ARC
  8
0
  6
CONTINUOUS
 62
3
 10
-290.308569484892590
 20
-104.741951181146130
 40
1.499999999999952
 50
79.759651678814024
 51
180.000000000000000
  0
ARC
  8
0
  6
CONTINUOUS
 62
3
 10
-285.596426842078240
 20
-117.234780953066370
 40
1.499999999999926
 50
300.000000000001590
 51
47.920213139381872
  0
LINE
  8
0
  6
CONTINUOUS
 62
3
 10
-279.030184808826790
 20
-115.175810155173450
 11
-276.383390215847840
 21
-113.647682584427280
  0
ARC
  8
0
  6
CONTINUOUS
 62
3
 10
-294.308569484892360
 20
-126.883541006630650
 40
14.499999999999860
 50
47.920213139391755
 51
72.079786860608309
  0
LINE
  8
0
  6
CONTINUOUS
 62
3
 10
-291.808569484892590
 20
-114.514224129777680
 11
-291.808569484892590
 21
-117.718389616718750
  0
LINE
  8
0
  6
CONTINUOUS
 62
3
 10
-291.808569484892590
 20
-104.741951181146130
 11
-291.808569484892590
 21
-107.798206322638460
  0
LINE
  8
0
  6
CONTINUOUS
 62
3
 10
-287.621315551698670
 20
-120.135901802213820
 11
-284.846426842078240
 21
-118.533819058742940
  0
ARC
  8
0
  6
CONTINUOUS
 62
3
 10
-294.308569484892360
 20
-126.883541006630650
 40
23.999999999999819
 50
40.240348321186090
 51
79.759651678814322
  0
ARC
  8
0
  6
CONTINUOUS
 62
3
 10
-294.308569484892360
 20
-126.883541006630650
 40
8.500000000000101
 50
53.578178478202659
 51
66.421821521799089
  0
ARC
  8
0
  6
CONTINUOUS
 62
3
 10
-281.596426842078240
 20
-129.604097829919570
 40
1.499999999999926
 50
239.999999999998410
 51
347.920213139390400
  0
LINE
  8
0
  6
CONTINUOUS
 62
3
 10
-282.346426842078240
 20
-130.903135935596140
 11
-285.121315551698670
 21
-129.301053192125720
  0
ARC
  8
0
  6
CONTINUOUS
 62
3
 10
-284.371315551698670
 20
-128.002015086449150
 40
1.500000000000099
 50
173.578178478198990
 51
239.999999999998410
  0
ARC
  8
0
  6
CONTINUOUS
 62
3
 10
-294.308569484892360
 20
-126.883541006630650
 40
8.499999999999865
 50
353.578178478199500
 51
6.421821521797448
  0
ARC
  8
0
  6
CONTINUOUS
 62
3
 10
-284.371315551698670
 20
-125.765066926812600
 40
1.499999999999926
 50
120.000000000001620
 51
186.421821521801010
  0
LINE
  8
0
  6
CONTINUOUS
 62
3
 10
-285.121315551698670
 20
-124.466028821136030
 11
-282.346426842078240
 21
-122.863946077665160
  0
ARC
  8
0
  6
CONTINUOUS
 62
3
 10
-281.596426842078240
 20
-124.162984183341730
 40
1.500000000000192
 50
12.079786860592611
 51
120.000000000001620
  0
ARC
  8
0
  6
CONTINUOUS
 62
3
 10
-294.308569484892360
 20
-126.883541006630650
 40
14.500000000000169
 50
347.920213139391310
 51
12.079786860606980
  0
ARC
  8
0
  6
CONTINUOUS
 62
3
 10
-273.133390215847840
 20
-134.490234304235230
 40
1.499999999999926
 50
239.999999999998410
 51
340.240348321188210
  0
LINE
  8
0
  6
CONTINUOUS
 62
3
 10
-273.883390215847840
 20
-135.789272409911800
 11
-276.530184808826790
 21
-134.261144839166090
  0
ARC
  8
0
  6
CONTINUOUS
 62
3
 10
-275.780184808826790
 20
-132.962106733489070
 40
1.500000000000038
 50
161.837004155895410
 51
240.000000000007050
  0
ARC
  8
0
  6
CONTINUOUS
 62
3
 10
-294.308569484892360
 20
-126.883541006630650
 40
17.999999999999943
 50
341.837004155893340
 51
18.162995844106646
  0
ARC
  8
0
  6
CONTINUOUS
 62
3
 10
-275.780184808826790
 20
-120.804975279772230
 40
1.499999999999926
 50
120.000000000001620
 51
198.162995844104590
  0
LINE
  8
0
  6
CONTINUOUS
 62
3
 10
-276.530184808826790
 20
-119.505937174095660
 11
-273.883390215847840
 21
-117.977809603349490
  0
ARC
  8
0
  6
CONTINUOUS
 62
3
 10
-273.133390215847840
 20
-119.276847709026070
 40
1.500000000000246
 50
19.759651678811824
 51
120.000000000001620
  0
ARC
  8
0
  6
CONTINUOUS
 62
3
 10
-294.308569484892360
 20
-126.883541006630650
 40
24.000000000000139
 50
340.240348321186050
 51
19.759651678813924
  0
ARC
  8
0
  6
CONTINUOUS
 62
3
 10
-307.020712127706930
 20
-129.604097829919570
 40
1.500000000000287
 50
192.079786860609600
 51
300.000000000001590
  0
LINE
  8
0
  6
CONTINUOUS
 62
3
 10
-306.270712127706930
 20
-130.903135935596140
 11
-303.495823418086500
 21
-129.301053192125720
  0
ARC
  8
0
  6
CONTINUOUS
 62
3
 10
-304.245823418086500
 20
-128.002015086449150
 40
1.499999999999926
 50
300.000000000001590
 51
6.421821521801967
  0
ARC
  8
0
  6
CONTINUOUS
 62
3
 10
-294.308569484893040
 20
-126.883541006630650
 40
8.499999999999813
 50
173.578178478202550
 51
186.421821521800500
  0
ARC
  8
0
  6
CONTINUOUS
 62
3
 10
-304.245823418086500
 20
-125.765066926812600
 40
1.499999999999873
 50
353.578178478198030
 51
59.999999999998380
  0
LINE
  8
0
  6
CONTINUOUS
 62
3
 10
-303.495823418086500
 20
-124.466028821136030
 11
-306.270712127707160
 21
-122.863946077665160
  0
ARC
  8
0
  6
CONTINUOUS
 62
3
 10
-307.020712127707160
 20
-124.162984183341730
 40
1.499999999999926
 50
59.999999999998380
 51
167.920213139405550
  0
ARC
  8
0
  6
CONTINUOUS
 62
3
 10
-294.308569484893040
 20
-126.883541006630650
 40
14.499999999999851
 50
167.920213139392840
 51
192.079786860608920
  0
ARC
  8
0
  6
CONTINUOUS
 62
3
 10
-315.483748753937330
 20
-134.490234304235230
 40
1.500000000000246
 50
199.759651678811820
 51
300.000000000001590
  0
LINE
  8
0
  6
CONTINUOUS
 62
3
 10
-314.733748753937330
 20
-135.789272409911800
 11
-312.086954160958380
 21
-134.261144839166090
  0
ARC
  8
0
  6
CONTINUOUS
 62
3
 10
-312.836954160958380
 20
-132.962106733489070
 40
1.500000000000320
 50
299.999999999992950
 51
18.162995844104589
  0
ARC
  8
0
  6
CONTINUOUS
 62
3
 10
-294.308569484893040
 20
-126.883541006630650
 40
17.999999999999726
 50
161.837004155893140
 51
198.162995844106860
  0
ARC
  8
0
  6
CONTINUOUS
 62
3
 10
-312.836954160958380
 20
-120.804975279772230
 40
1.500000000000038
 50
341.837004155895390
 51
59.999999999998380
  0
LINE
  8
0
  6
CONTINUOUS
 62
3
 10
-312.086954160958380
 20
-119.505937174095660
 11
-314.733748753937560
 21
-117.977809603349490
  0
ARC
  8
0
  6
CONTINUOUS
 62
3
 10
-315.483748753937560
 20
-119.276847709026070
 40
1.499999999999926
 50
59.999999999998380
 51
160.240348321185250
  0
ARC
  8
0
  6
CONTINUOUS
 62
3
 10
-294.308569484893040
 20
-126.883541006630650
 40
23.999999999999925
 50
160.240348321185910
 51
199.759651678814090
  0
ARC
  8
0
  6
CONTINUOUS
 62
3
 10
-303.020712127706930
 20
-136.532301060195380
 40
1.500000000000320
 50
119.999999999992930
 51
227.920213139381870
  0
LINE
  8
0
  6
CONTINUOUS
 62
3
 10
-303.770712127706930
 20
-135.233262954518350
 11
-300.995823418086500
 21
-133.631180211047930
  0
ARC
  8
0
  6
CONTINUOUS
 62
3
 10
-300.245823418086500
 20
-134.930218316724510
 40
1.500000000000059
 50
53.578178478205707
 51
120.000000000001620
  0
ARC
  8
0
  6
CONTINUOUS
 62
3
 10
-294.308569484892590
 20
-126.883541006631100
 40
8.499999999999870
 50
233.578178478199590
 51
246.421821521797680
  0
ARC
  8
0
  6
CONTINUOUS
 62
3
 10
-298.308569484892590
 20
-136.048692396543000
 40
1.500000000000000
 50
0.000000000017370
 51
66.421821521804304
  0
LINE
  8
0
  6
CONTINUOUS
 62
3
 10
-296.808569484892590
 20
-136.048692396542550
 11
-296.808569484892590
 21
-139.252857883483840
  0
ARC
  8
0
  6
CONTINUOUS
 62
3
 10
-298.308569484892590
 20
-139.252857883483840
 40
1.500000000000355
 50
252.079786860607900
 51
0.000000000000000
  0
ARC
  8
0
  6
CONTINUOUS
 62
3
 10
-294.308569484892590
 20
-126.883541006631100
 40
14.500000000000011
 50
227.920213139391080
 51
252.079786860607410
  0
ARC
  8
0
  6
CONTINUOUS
 62
3
 10
-311.483748753937330
 20
-141.418437534511040
 40
1.499999999999926
 50
120.000000000001620
 51
220.240348321176330
  0
LINE
  8
0
  6
CONTINUOUS
 62
3
 10
-312.233748753937330
 20
-140.119399428834470
 11
-309.586954160958380
 21
-138.591271858088310
  0
ARC
  8
0
  6
CONTINUOUS
 62
3
 10
-308.836954160958380
 20
-139.890309963764880
 40
1.500000000000118
 50
41.837004155899741
 51
120.000000000001620
  0
ARC
  8
0
  6
CONTINUOUS
 62
3
 10
-294.308569484892590
 20
-126.883541006631100
 40
17.999999999999940
 50
221.837004155892320
 51
258.162995844106770
  0
ARC
  8
0
  6
CONTINUOUS
 62
3
 10
-298.308569484892590
 20
-145.968875690623290
 40
1.500000000000000
 50
0.000000000000000
 51
78.162995844101530
  0
LINE
  8
0
  6
CONTINUOUS
 62
3
 10
-296.808569484892590
 20
-145.968875690623290
 11
-296.808569484892590
 21
-149.025130832115620
  0
ARC
  8
0
  6
CONTINUOUS
 62
3
 10
-298.308569484892590
 20
-149.025130832115620
 40
1.499999999999728
 50
259.759651678812470
 51
0.000000000000000
  0
ARC
  8
0
  6
CONTINUOUS
 62
3
 10
-294.308569484892590
 20
-126.883541006631100
 40
23.999999999999844
 50
220.240348321185340
 51
259.759651678813730
  0
ARC
  8
0
  6
CONTINUOUS
 62
3
 10
-285.596426842078240
 20
-136.532301060195380
 40
1.499999999999944
 50
312.079786860618130
 51
60.000000000007070
  0
LINE
  8
0
  6
CONTINUOUS
 62
3
 10
-284.846426842078240
 20
-135.233262954518350
 11
-287.621315551698670
 21
-133.631180211047930
  0
ARC
  8
0
  6
CONTINUOUS
 62
3
 10
-288.371315551698670
 20
-134.930218316724510
 40
1.499999999999926
 50
59.999999999998380
 51
126.421821521801260
  0
ARC
  8
0
  6
CONTINUOUS
 62
3
 10
-294.308569484892590
 20
-126.883541006631100
 40
8.500000000000060
 50
293.578178478202350
 51
306.421821521799190
  0
ARC
  8
0
  6
CONTINUOUS
 62
3
 10
-290.308569484892590
 20
-136.048692396543000
 40
1.500000000000139
 50
113.578178478195690
 51
179.999999999982630
  0
LINE
  8
0
  6
CONTINUOUS
 62
3
 10
-291.808569484892590
 20
-136.048692396542550
 11
-291.808569484892590
 21
-139.252857883483840
  0
ARC
  8
0
  6
CONTINUOUS
 62
3
 10
-290.308569484892590
 20
-139.252857883483840
 40
1.500000000000000
 50
180.000000000000000
 51
287.920213139392100
  0
ARC
  8
0
  6
CONTINUOUS
 62
3
 10
-294.308569484892590
 20
-126.883541006631100
 40
14.500000000000121
 50
287.920213139392560
 51
312.079786860608860
  0
ARC
  8
0
  6
CONTINUOUS
 62
3
 10
-277.133390215847840
 20
-141.418437534511040
 40
1.499999999999828
 50
319.759651678823670
 51
59.999999999998380
  0
LINE
  8
0
  6
CONTINUOUS
 62
3
 10
-276.383390215847840
 20
-140.119399428834470
 11
-279.030184808826790
 21
-138.591271858088310
  0
ARC
  8
0
  6
CONTINUOUS
 62
3
 10
-279.780184808826790
 20
-139.890309963764880
 40
1.499999999999926
 50
59.999999999998380
 51
138.162995844100240
  0
ARC
  8
0
  6
CONTINUOUS
 62
3
 10
-294.308569484892590
 20
-126.883541006631100
 40
18.000000000000146
 50
281.837004155893230
 51
318.162995844107680
  0
ARC
  8
0
  6
CONTINUOUS
 62
3
 10
-290.308569484892590
 20
-145.968875690623290
 40
1.499999999999731
 50
101.837004155898450
 51
180.000000000000000
  0
LINE
  8
0
  6
CONTINUOUS
 62
3
 10
-291.808569484892590
 20
-145.968875690623290
 11
-291.808569484892590
 21
-149.025130832115620
  0
ARC
  8
0
  6
CONTINUOUS
 62
3
 10
-290.308569484892590
 20
-149.025130832115620
 40
1.500000000000000
 50
180.000000000000000
 51
280.240348321187530
  0
ARC
  8
0
  6
CONTINUOUS
 62
3
 10
-294.308569484892590
 20
-126.883541006631100
 40
23.999999999999716
 50
280.240348321186270
 51
319.759651678814690
  0
ARC
  8
0
  6
CONTINUOUS
 62
3
 10
-298.308569484892590
 20
-114.514224129777680
 40
1.500000000000000
 50
0.000000000000000
 51
107.920213139394770
  0
LINE
  8
0
  6
CONTINUOUS
 62
3
 10
-296.808569484892590
 20
-114.514224129777680
 11
-296.808569484892590
 21
-117.718389616718750
  0
ARC
  8
0
  6
CONTINUOUS
 62
3
 10
-298.308569484892590
 20
-117.718389616718750
 40
1.500000000000139
 50
293.578178478195700
 51
0.000000000000000
  0
ARC
  8
0
  6
CONTINUOUS
 62
3
 10
-294.308569484893040
 20
-126.883541006630650
 40
8.499999999999879
 50
113.578178478199500
 51
126.421821521797340
  0
ARC
  8
0
  6
CONTINUOUS
 62
3
 10
-300.245823418086500
 20
-118.836863696537250
 40
1.499999999999926
 50
239.999999999998410
 51
306.421821521797600
  0
LINE
  8
0
  6
CONTINUOUS
 62
3
 10
-300.995823418086500
 20
-120.135901802213820
 11
-303.770712127707160
 21
-118.533819058742940
  0
ARC
  8
0
  6
CONTINUOUS
 62
3
 10
-303.020712127707160
 20
-117.234780953066370
 40
1.499999999999792
 50
132.079786860611680
 51
239.999999999998410
  0
ARC
  8
0
  6
CONTINUOUS
 62
3
 10
-294.308569484893040
 20
-126.883541006630650
 40
14.499999999999980
 50
107.920213139390830
 51
132.079786860607560
  0
ARC
  8
0
  6
CONTINUOUS
 62
3
 10
-298.308569484892590
 20
-104.741951181146130
 40
1.500000000000000
 50
0.000000000000000
 51
100.240348321194510
  0
LINE
  8
0
  6
CONTINUOUS
 62
3
 10
-296.808569484892590
 20
-104.741951181146130
 11
-296.808569484892590
 21
-107.798206322638460
  0
ARC
  8
0
  6
CONTINUOUS
 62
3
 10
-298.308569484892590
 20
-107.798206322638460
 40
1.499999999999954
 50
281.837004155896690
 51
0.000000000000000
  0
ARC
  8
0
  6
CONTINUOUS
 62
3
 10
-294.308569484893040
 20
-126.883541006630650
 40
17.999999999999829
 50
101.837004155891980
 51
138.162995844106210
  0
ARC
  8
0
  6
CONTINUOUS
 62
3
 10
-308.836954160958380
 20
-113.876772049496870
 40
1.499999999999926
 50
239.999999999998410
 51
318.162995844106720
  0
LINE
  8
0
  6
CONTINUOUS
 62
3
 10
-309.586954160958380
 20
-115.175810155173450
 11
-312.233748753937560
 21
-113.647682584427280
  0
ARC
  8
0
  6
CONTINUOUS
 62
3
 10
-311.483748753937560
 20
-112.348644478750710
 40
1.499999999999802
 50
139.759651678811420
 51
239.999999999998410
  0
ARC
  8
0
  6
CONTINUOUS
 62
3
 10
-294.308569484893040
 20
-126.883541006630650
 40
23.999999999999901
 50
100.240348321185670
 51
139.759651678813550
  0
ARC
  8
0
  6
CONTINUOUS
 62
3
 10
-298.308569484892590
 20
-95.134525273856127
 40
1.500000000000000
 50
0.000000000000000
 51
97.180755781458288
  0
LINE
  8
0
  6
CONTINUOUS
 62
3
 10
-296.808569484892590
 20
-95.134525273856127
 11
-296.808569484892590
 21
-98.160727773940664
  0
ARC
  8
0
  6
CONTINUOUS
 62
3
 10
-298.308569484892590
 20
-88.591897009539537
 40
1.499999999999933
 50
275.963570118318330
 51
0.000000000000000
  0
LINE
  8
0
  6
CONTINUOUS
 62
3
 10
-296.808569484892590
 20
-85.576761901985321
 11
-296.808569484892590
 21
-88.591897009539537
  0
LINE
  8
0
  6
CONTINUOUS
 62
3
 10
-259.785849431757240
 20
-149.701994068415220
 11
-262.397033030741340
 21
-148.194426514637880
  0
ARC
  8
0
  6
CONTINUOUS
 62
3
 10
-260.535849431757240
 20
-151.001032174091790
 40
1.499999999999844
 50
324.468928475167900
 51
59.999999999998380
  0
ARC
  8
0
  6
CONTINUOUS
 62
3
 10
-259.147033030741340
 20
-142.565261390039100
 40
1.500000000000063
 50
155.963570118322880
 51
239.999999999998410
  0
LINE
  8
0
  6
CONTINUOUS
 62
3
 10
-257.285849431757240
 20
-145.371867049493010
 11
-259.897033030741340
 21
-143.864299495715670
  0
ARC
  8
0
  6
CONTINUOUS
 62
3
 10
-256.535849431757240
 20
-144.072828943815980
 40
1.500000000000320
 50
240.000000000007050
 51
335.531071524832500
  0
ARC
  8
0
  6
CONTINUOUS
 62
3
 10
-294.308569484892810
 20
-126.883541006631560
 40
42.999999999999936
 50
335.531071524839770
 51
24.468928475160769
  0
ARC
  8
0
  6
CONTINUOUS
 62
3
 10
-294.308569484892810
 20
-126.883541006631560
 40
36.999999999999972
 50
335.963570118321740
 51
24.036429881678870
  0
ARC
  8
0
  6
CONTINUOUS
 62
3
 10
-259.147033030741570
 20
-111.201820623223560
 40
1.500000000000123
 50
119.999999999997270
 51
204.036429881680680
  0
LINE
  8
0
  6
CONTINUOUS
 62
3
 10
-259.897033030741570
 20
-109.902782517546760
 11
-257.285849431757240
 21
-108.395214963769660
  0
ARC
  8
0
  6
CONTINUOUS
 62
3
 10
-256.535849431757240
 20
-109.694253069446460
 40
1.500000000000034
 50
24.468928475159590
 51
119.999999999997270
  0
ARC
  8
0
  6
CONTINUOUS
 62
3
 10
-294.308569484893040
 20
-126.883541006631100
 40
42.999999999999908
 50
35.531071524839248
 51
84.468928475160212
  0
ARC
  8
0
  6
CONTINUOUS
 62
3
 10
-260.535849431757700
 20
-102.766049839170420
 40
1.500000000000123
 50
299.999999999997270
 51
35.531071524839192
  0
ARC
  8
0
  6
CONTINUOUS
 62
3
 10
-290.308569484892590
 20
-88.591897009539537
 40
1.500000000000000
 50
180.000000000000000
 51
264.036429881682580
  0
ARC
  8
0
  6
CONTINUOUS
 62
3
 10
-290.308569484892590
 20
-95.134525273856127
 40
1.499999999999998
 50
82.819244218541712
 51
180.000000000000000
  0
LINE
  8
0
  6
CONTINUOUS
 62
3
 10
-291.808569484892590
 20
-95.134525273856127
 11
-291.808569484892590
 21
-98.160727773940664
  0
LINE
  8
0
  6
CONTINUOUS
 62
3
 10
-262.397033030741800
 20
-105.572655498624320
 11
-259.785849431757700
 21
-104.065087944847220
  0
LINE
  8
0
  6
CONTINUOUS
 62
3
 10
-291.808569484892590
 20
-85.576761901985549
 11
-291.808569484892590
 21
-88.591897009539537
  0
ARC
  8
0
  6
CONTINUOUS
 62
3
 10
-294.308569484892810
 20
-126.883541006630650
 40
27.499999999999815
 50
97.928141766201691
 51
142.071858233797880
  0
ARC
  8
0
  6
CONTINUOUS
 62
3
 10
-294.308569484892360
 20
-126.883541006630650
 40
17.999999999999922
 50
41.837004155893325
 51
78.162995844107314
  0
ARC
  8
0
  6
CONTINUOUS
 62
3
 10
-298.308569484892590
 20
-85.576761901985321
 40
1.500000000000000
 50
0.000000000000000
 51
95.531071524841693
  0
ARC
  8
0
  6
CONTINUOUS
 62
3
 10
-290.308569484892590
 20
-85.576761901985549
 40
1.500000000000203
 50
84.468928475159132
 51
180.000000000000000
  0
ARC
  8
0
  6
CONTINUOUS
 62
3
 10
-294.308569484892590
 20
-367.483541006631010
 40
300.599999999999910
 50
90.000000000000000
 51
98.597082237249069
  0
ARC
  8
0
  6
CONTINUOUS
 62
3
 10
-294.308569484892590
 20
113.716458993369030
 40
300.600000000000140
 50
270.000000000000000
 51
278.597082237249080
  0
ARC
  8
0
  6
CONTINUOUS
 62
3
 10
-250.359982054610100
 20
-76.786926539102808
 40
6.600000000000118
 50
45.000000000001400
 51
81.402917762751386
  0
ARC
  8
0
  6
CONTINUOUS
 62
3
 10
-294.308569484892590
 20
-367.483541006631010
 40
300.599999999999800
 50
81.402917762750931
 51
90.000000000000000
  0
ARC
  8
0
  6
CONTINUOUS
 62
3
 10
-250.359982054610100
 20
-176.980155474159630
 40
6.599999999999747
 50
278.597082237248910
 51
315.000000000000000
  0
ARC
  8
0
  6
CONTINUOUS
 62
3
 10
-294.308569484892590
 20
113.716458993369030
 40
300.600000000000020
 50
261.402917762750920
 51
270.000000000000000
  0
ARC
  8
0
  6
CONTINUOUS
 62
3
 10
-338.257156915175070
 20
-176.980155474159630
 40
6.599999999999957
 50
225.000000000000000
 51
261.402917762751090
  0
LINE
  8
0
  6
DASHDOT
 62
4
 10
-383.548986276600770
 20
-126.883541006631100
 11
-167.061356605856420
 21
-126.883541006631100
  0
LINE
  8
0
  6
DASHDOT
 62
4
 10
-294.308569484892590
 20
-211.543153481259650
 11
-294.308569484892590
 21
-33.929801190475700
  0
LINE
  8
0
  6
DASHDOT
 62
4
 10
168.485409142034770
 20
123.116458993368950
 11
-140.588507473672730
 21
123.116458993368950
  0
POLYLINE
  8
0
  6
CONTINUOUS
 62
3
 66
1
 70
1
  0
VERTEX
  8
0
  6
CONTINUOUS
 62
3
 10
-85.959294935325545
 20
71.192933961309109
  0
VERTEX
  8
0
  6
CONTINUOUS
 62
3
 10
-86.049604117430363
 20
71.895890927509470
  0
VERTEX
  8
0
  6
CONTINUOUS
 62
3
 10
-86.317061132522497
 20
72.571833651721562
  0
VERTEX
  8
0
  6
CONTINUOUS
 62
3
 10
-86.751387757503579
 20
73.194786034126963
  0
VERTEX
  8
0
  6
CONTINUOUS
 62
3
 10
-87.335893063748770
 20
73.740808364025540
  0
VERTEX
  8
0
  6
CONTINUOUS
 62
3
 10
-88.048114840133408
 20
74.188917309492155
  0
VERTEX
  8
0
  6
CONTINUOUS
 62
3
 10
-88.860682803209613
 20
74.521892295054926
  0
VERTEX
  8
0
  6
CONTINUOUS
 62
3
 10
-89.742370421849728
 20
74.726937278753169
  0
VERTEX
  8
0
  6
CONTINUOUS
 62
3
 10
-90.659294935325534
 20
74.796172496853941
  0
VERTEX
  8
0
  6
CONTINUOUS
 62
3
 10
-91.576219448801339
 20
74.726937278753169
  0
VERTEX
  8
0
  6
CONTINUOUS
 62
3
 10
-92.457907067441454
 20
74.521892295054926
  0
VERTEX
  8
0
  6
CONTINUOUS
 62
3
 10
-93.270475030517659
 20
74.188917309492155
  0
VERTEX
  8
0
  6
CONTINUOUS
 62
3
 10
-93.982696806902297
 20
73.740808364025540
  0
VERTEX
  8
0
  6
CONTINUOUS
 62
3
 10
-94.567202113147488
 20
73.194786034126963
  0
VERTEX
  8
0
  6
CONTINUOUS
 62
3
 10
-95.001528738128570
 20
72.571833651721562
  0
VERTEX
  8
0
  6
CONTINUOUS
 62
3
 10
-95.268985753220704
 20
71.895890927509470
  0
VERTEX
  8
0
  6
CONTINUOUS
 62
3
 10
-95.359294935325522
 20
71.192933961309109
  0
VERTEX
  8
0
  6
CONTINUOUS
 62
3
 10
-95.268985753220704
 20
70.489976995108748
  0
VERTEX
  8
0
  6
CONTINUOUS
 62
3
 10
-95.001528738128570
 20
69.814034270896656
  0
VERTEX
  8
0
  6
CONTINUOUS
 62
3
 10
-94.567202113147488
 20
69.191081888491254
  0
VERTEX
  8
0
  6
CONTINUOUS
 62
3
 10
-93.982696806902297
 20
68.645059558592678
  0
VERTEX
  8
0
  6
CONTINUOUS
 62
3
 10
-93.270475030517659
 20
68.196950613126063
  0
VERTEX
  8
0
  6
CONTINUOUS
 62
3
 10
-92.457907067441454
 20
67.863975627563292
  0
VERTEX
  8
0
  6
CONTINUOUS
 62
3
 10
-91.576219448801339
 20
67.658930643865048
  0
VERTEX
  8
0
  6
CONTINUOUS
 62
3
 10
-90.659294935325534
 20
67.589695425764276
  0
VERTEX
  8
0
  6
CONTINUOUS
 62
3
 10
-89.742370421849728
 20
67.658930643865048
  0
VERTEX
  8
0
  6
CONTINUOUS
 62
3
 10
-88.860682803209613
 20
67.863975627563292
  0
VERTEX
  8
0
  6
CONTINUOUS
 62
3
 10
-88.048114840133408
 20
68.196950613126063
  0
VERTEX
  8
0
  6
CONTINUOUS
 62
3
 10
-87.335893063748770
 20
68.645059558592678
  0
VERTEX
  8
0
  6
CONTINUOUS
 62
3
 10
-86.751387757503579
 20
69.191081888491254
  0
VERTEX
  8
0
  6
CONTINUOUS
 62
3
 10
-86.317061132522497
 20
69.814034270896656
  0
VERTEX
  8
0
  6
CONTINUOUS
 62
3
 10
-86.049604117430363
 20
70.489976995108748
  0
SEQEND
  8
0
  6
CONTINUOUS
 62
3
  0
LINE
  8
0
  6
CONTINUOUS
 62
3
 10
-92.659294935325534
 20
68.200558407308790
 11
-90.659294935325534
 21
69.376343892931118
  0
LINE
  8
0
  6
CONTINUOUS
 62
3
 10
-90.659294935325534
 20
69.376343892931118
 11
-88.659294935325534
 21
71.028985532054548
  0
LINE
  8
0
  6
CONTINUOUS
 62
3
 10
-88.659294935325534
 20
68.200558407308790
 11
-90.659294935325534
 21
69.376343892931118
  0
LINE
  8
0
  6
CONTINUOUS
 62
3
 10
-90.659294935325534
 20
69.376343892931118
 11
-92.659294935325534
 21
71.028985532054548
  0
POLYLINE
  8
0
  6
CONTINUOUS
 62
3
 66
1
 70
1
  0
VERTEX
  8
0
  6
CONTINUOUS
 62
3
 10
-85.959294935325545
 20
175.039984025429020
  0
VERTEX
  8
0
  6
CONTINUOUS
 62
3
 10
-86.049604117430363
 20
175.742940991629380
  0
VERTEX
  8
0
  6
CONTINUOUS
 62
3
 10
-86.317061132522497
 20
176.418883715841470
  0
VERTEX
  8
0
  6
CONTINUOUS
 62
3
 10
-86.751387757503579
 20
177.041836098246880
  0
VERTEX
  8
0
  6
CONTINUOUS
 62
3
 10
-87.335893063748770
 20
177.587858428145470
  0
VERTEX
  8
0
  6
CONTINUOUS
 62
3
 10
-88.048114840133408
 20
178.035967373612100
  0
VERTEX
  8
0
  6
CONTINUOUS
 62
3
 10
-88.860682803209613
 20
178.368942359174840
  0
VERTEX
  8
0
  6
CONTINUOUS
 62
3
 10
-89.742370421849728
 20
178.573987342873100
  0
VERTEX
  8
0
  6
CONTINUOUS
 62
3
 10
-90.659294935325534
 20
178.643222560973870
  0
VERTEX
  8
0
  6
CONTINUOUS
 62
3
 10
-91.576219448801339
 20
178.573987342873100
  0
VERTEX
  8
0
  6
CONTINUOUS
 62
3
 10
-92.457907067441454
 20
178.368942359174840
  0
VERTEX
  8
0
  6
CONTINUOUS
 62
3
 10
-93.270475030517659
 20
178.035967373612100
  0
VERTEX
  8
0
  6
CONTINUOUS
 62
3
 10
-93.982696806902297
 20
177.587858428145470
  0
VERTEX
  8
0
  6
CONTINUOUS
 62
3
 10
-94.567202113147488
 20
177.041836098246880
  0
VERTEX
  8
0
  6
CONTINUOUS
 62
3
 10
-95.001528738128570
 20
176.418883715841470
  0
VERTEX
  8
0
  6
CONTINUOUS
 62
3
 10
-95.268985753220704
 20
175.742940991629380
  0
VERTEX
  8
0
  6
CONTINUOUS
 62
3
 10
-95.359294935325522
 20
175.039984025429020
  0
VERTEX
  8
0
  6
CONTINUOUS
 62
3
 10
-95.268985753220704
 20
174.337027059228660
  0
VERTEX
  8
0
  6
CONTINUOUS
 62
3
 10
-95.001528738128570
 20
173.661084335016570
  0
VERTEX
  8
0
  6
CONTINUOUS
 62
3
 10
-94.567202113147488
 20
173.038131952611170
  0
VERTEX
  8
0
  6
CONTINUOUS
 62
3
 10
-93.982696806902297
 20
172.492109622712580
  0
VERTEX
  8
0
  6
CONTINUOUS
 62
3
 10
-93.270475030517659
 20
172.044000677245950
  0
VERTEX
  8
0
  6
CONTINUOUS
 62
3
 10
-92.457907067441454
 20
171.711025691683200
  0
VERTEX
  8
0
  6
CONTINUOUS
 62
3
 10
-91.576219448801339
 20
171.505980707984950
  0
VERTEX
  8
0
  6
CONTINUOUS
 62
3
 10
-90.659294935325534
 20
171.436745489884170
  0
VERTEX
  8
0
  6
CONTINUOUS
 62
3
 10
-89.742370421849728
 20
171.505980707984950
  0
VERTEX
  8
0
  6
CONTINUOUS
 62
3
 10
-88.860682803209613
 20
171.711025691683200
  0
VERTEX
  8
0
  6
CONTINUOUS
 62
3
 10
-88.048114840133408
 20
172.044000677245950
  0
VERTEX
  8
0
  6
CONTINUOUS
 62
3
 10
-87.335893063748770
 20
172.492109622712580
  0
VERTEX
  8
0
  6
CONTINUOUS
 62
3
 10
-86.751387757503579
 20
173.038131952611170
  0
VERTEX
  8
0
  6
CONTINUOUS
 62
3
 10
-86.317061132522497
 20
173.661084335016570
  0
VERTEX
  8
0
  6
CONTINUOUS
 62
3
 10
-86.049604117430363
 20
174.337027059228660
  0
SEQEND
  8
0
  6
CONTINUOUS
 62
3
  0
LINE
  8
0
  6
CONTINUOUS
 62
3
 10
-92.659294935325534
 20
178.032359579429340
 11
-90.659294935325534
 21
176.856574093806560
  0
LINE
  8
0
  6
CONTINUOUS
 62
3
 10
-90.659294935325534
 20
176.856574093806560
 11
-88.659294935325534
 21
175.203932454683130
  0
LINE
  8
0
  6
CONTINUOUS
 62
3
 10
-88.659294935325534
 20
178.032359579429340
 11
-90.659294935325534
 21
176.856574093806560
  0
LINE
  8
0
  6
CONTINUOUS
 62
3
 10
-90.659294935325534
 20
176.856574093806560
 11
-92.659294935325534
 21
175.203932454683130
  0
LINE
  8
0
  6
CONTINUOUS
 62
3
 10
-79.659294935326102
 20
123.116458993368950
 11
-79.659294935326102
 21
188.116458993368950
  0
LINE
  8
0
  6
CONTINUOUS
 62
3
 10
17.340705064673784
 20
182.616458993368720
 11
17.340705064673784
 21
123.116458993368950
  0
LINE
  8
0
  6
CONTINUOUS
 62
3
 10
-79.659294935326102
 20
188.116458993368950
 11
-108.353319157746450
 21
188.116458993368950
  0
LINE
  8
0
  6
CONTINUOUS
 62
3
 10
-130.659294935275970
 20
123.116458993368950
 11
-130.659294935275970
 21
175.559664050614400
  0
ARC
  8
0
  6
CONTINUOUS
 62
3
 10
-108.353319157746450
 20
168.116458993368950
 40
20.000000000000000
 50
90.000000000000000
 51
125.000000000000240
  0
LINE
  8
0
  6
CONTINUOUS
 62
3
 10
-119.824847884767450
 20
184.499499879148740
 11
-129.550593669788440
 21
177.689459365765520
  0
ARC
  8
0
  6
CONTINUOUS
 62
3
 10
-128.059294935275830
 20
175.559664050614400
 40
2.599999999999721
 50
125.000000000001370
 51
180.000000000000000
  0
LINE
  8
0
  6
CONTINUOUS
 62
3
 10
-79.659294935326102
 20
123.116458993368950
 11
-79.659294935326102
 21
64.497238076496160
  0
LINE
  8
0
  6
CONTINUOUS
 62
3
 10
17.340705064673784
 20
63.616458993368951
 11
17.340705064673784
 21
123.116458993368950
  0
LINE
  8
0
  6
CONTINUOUS
 62
3
 10
-130.659294935275970
 20
123.116458993368950
 11
-130.659294935275970
 21
70.673253936123501
  0
LINE
  8
0
  6
CONTINUOUS
 62
3
 10
-119.824847884767450
 20
61.733418107589159
 11
-129.550593669788440
 21
68.543458620972388
  0
ARC
  8
0
  6
CONTINUOUS
 62
3
 10
-128.059294935275830
 20
70.673253936123501
 40
2.600000000000136
 50
180.000000000000000
 51
234.999999999998610
  0
LINE
  8
0
  6
CONTINUOUS
 62
3
 10
-89.659294935325988
 20
58.116458993368951
 11
-108.353319157746450
 21
58.116458993368951
  0
ARC
  8
0
  6
CONTINUOUS
 62
3
 10
-108.353319157746450
 20
78.116458993368951
 40
20.000000000000007
 50
234.999999999999740
 51
270.000000000000000
  0
LINE
  8
0
  6
CONTINUOUS
 62
3
 10
-86.659294935325988
 20
61.497238076496160
 11
-82.659294935326102
 21
61.497238076496160
  0
LINE
  8
0
  6
CONTINUOUS
 62
3
 10
-89.659294935325988
 20
58.116458993368951
 11
-89.659294935325988
 21
58.497238076496160
  0
ARC
  8
0
  6
CONTINUOUS
 62
3
 10
-82.659294935326102
 20
64.497238076496160
 40
3.000000000000000
 50
270.000000000000000
 51
0.000000000000000
  0
ARC
  8
0
  6
CONTINUOUS
 62
3
 10
-86.659294935325988
 20
58.497238076496160
 40
3.000000000000000
 50
90.000000000000000
 51
180.000000000000000
  0
LINE
  8
0
  6
CONTINUOUS
 62
3
 10
-79.659294935326102
 20
182.616458993368720
 11
17.340705064673784
 21
182.616458993368720
  0
LINE
  8
0
  6
CONTINUOUS
 62
3
 10
-79.791503414534304
 20
63.616458993368951
 11
17.340705064673784
 21
63.616458993368951
  0
LINE
  8
0
  6
CONTINUOUS
 62
4
 10
-79.659294935326102
 20
66.116458993368951
 11
39.840705064673806
 21
66.116458993368951
  0
LINE
  8
0
  6
CONTINUOUS
 62
4
 10
-79.659294935326102
 20
67.116458993368951
 11
39.840705064673806
 21
67.116458993368951
  0
LINE
  8
0
  6
CONTINUOUS
 62
4
 10
-79.659294935326102
 20
68.116458993368951
 11
39.840705064673806
 21
68.116458993368951
  0
LINE
  8
0
  6
CONTINUOUS
 62
4
 10
-79.659294935326102
 20
72.800924806593230
 11
37.090705064673813
 21
72.800924806593230
  0
LINE
  8
0
  6
CONTINUOUS
 62
4
 10
-79.659294935326102
 20
77.750672274898989
 11
37.090705064673813
 21
77.750672274898989
  0
LINE
  8
0
  6
CONTINUOUS
 62
4
 10
-79.659294935326102
 20
85.797273937633008
 11
39.840705064673813
 21
85.797273937633008
  0
LINE
  8
0
  6
CONTINUOUS
 62
4
 10
-79.659294935326102
 20
87.401921853195063
 11
39.840705064673813
 21
87.401921853195063
  0
LINE
  8
0
  6
CONTINUOUS
 62
4
 10
-79.659294935326102
 20
91.365667276994600
 11
39.840705064673813
 21
91.365667276994600
  0
LINE
  8
0
  6
CONTINUOUS
 62
4
 10
-79.659294935326102
 20
92.834024666799223
 11
39.840705064673813
 21
92.834024666799223
  0
LINE
  8
0
  6
CONTINUOUS
 62
4
 10
-79.659294935326102
 20
96.924525200889093
 11
39.840705064673813
 21
96.924525200889093
  0
LINE
  8
0
  6
CONTINUOUS
 62
4
 10
-79.659294935326102
 20
98.286405536238362
 11
39.840705064673813
 21
98.286405536238377
  0
LINE
  8
0
  6
CONTINUOUS
 62
4
 10
-79.659294935326102
 20
102.476959267780550
 11
39.840705064673813
 21
102.476959267780550
  0
LINE
  8
0
  6
CONTINUOUS
 62
4
 10
-79.659294935326102
 20
103.743197183867770
 11
39.840705064673813
 21
103.743197183867770
  0
LINE
  8
0
  6
CONTINUOUS
 62
4
 10
-79.659294935326102
 20
108.116458993368950
 11
39.840705064673813
 21
108.116458993368950
  0
LINE
  8
0
  6
CONTINUOUS
 62
4
 10
-79.659294935326102
 20
160.435644049104890
 11
39.840705064673813
 21
160.435644049104890
  0
LINE
  8
0
  6
CONTINUOUS
 62
4
 10
-79.659294935326102
 20
158.830996133542840
 11
39.840705064673813
 21
158.830996133542840
  0
LINE
  8
0
  6
CONTINUOUS
 62
4
 10
-79.659294935326102
 20
154.867250709743300
 11
39.840705064673813
 21
154.867250709743300
  0
LINE
  8
0
  6
CONTINUOUS
 62
4
 10
-79.659294935326102
 20
153.398893319938680
 11
39.840705064673813
 21
153.398893319938680
  0
LINE
  8
0
  6
CONTINUOUS
 62
4
 10
-79.659294935326102
 20
149.308392785848810
 11
39.840705064673813
 21
149.308392785848810
  0
LINE
  8
0
  6
CONTINUOUS
 62
4
 10
-79.659294935326102
 20
147.946512450499540
 11
39.840705064673813
 21
147.946512450499540
  0
LINE
  8
0
  6
CONTINUOUS
 62
4
 10
-79.659294935326102
 20
143.755958718957340
 11
39.840705064673813
 21
143.755958718957340
  0
LINE
  8
0
  6
CONTINUOUS
 62
4
 10
-79.659294935326102
 20
142.489720802870120
 11
39.840705064673813
 21
142.489720802870120
  0
LINE
  8
0
  6
CONTINUOUS
 62
4
 10
-79.659294935326102
 20
138.116458993368950
 11
39.840705064673813
 21
138.116458993368950
  0
LINE
  8
0
  6
CONTINUOUS
 62
4
 10
-79.659294935326102
 20
168.482245711838910
 11
37.090705064673813
 21
168.482245711838910
  0
LINE
  8
0
  6
CONTINUOUS
 62
4
 10
-79.659294935326102
 20
173.431993180144670
 11
37.090705064673813
 21
173.431993180144670
  0
LINE
  8
0
  6
CONTINUOUS
 62
4
 10
-79.659294935326102
 20
178.116458993368950
 11
39.840705064673806
 21
178.116458993368920
  0
LINE
  8
0
  6
CONTINUOUS
 62
4
 10
-79.659294935326102
 20
179.116458993368950
 11
39.840705064673806
 21
179.116458993368920
  0
LINE
  8
0
  6
CONTINUOUS
 62
4
 10
-79.659294935326102
 20
180.116458993368950
 11
39.840705064673806
 21
180.116458993368920
  0
LINE
  8
0
  6
CONTINUOUS
 62
3
 10
-12.659294935326102
 20
182.616458993368950
 11
17.340705064673784
 21
182.616458993368950
  0
LINE
  8
0
  6
CONTINUOUS
 62
3
 10
-245.693077298778920
 20
-72.120021783271625
 11
-238.626628180119950
 21
-79.186470901930591
  0
ARC
  8
0
  6
CONTINUOUS
 62
3
 10
-257.435668559682200
 20
-97.995511281492838
 40
26.600000000000193
 50
6.051985358668552
 51
45.000000000000000
  0
LINE
  8
0
  6
CONTINUOUS
 62
3
 10
-342.924061671006260
 20
-72.120021783271625
 11
-349.990510789665220
 21
-79.186470901930591
  0
ARC
  8
0
  6
CONTINUOUS
 62
3
 10
-331.181470410102970
 20
-97.995511281492838
 40
26.600000000000119
 50
135.000000000000000
 51
173.948014641331410
  0
LINE
  8
0
  6
CONTINUOUS
 62
3
 10
-342.924061671006260
 20
-181.647060229990810
 11
-349.990510789665450
 21
-174.580611111331170
  0
ARC
  8
0
  6
CONTINUOUS
 62
3
 10
-58.708569484892564
 20
-126.883541006631100
 40
300.599999999999970
 50
173.948014641331500
 51
186.051985358668500
  0
ARC
  8
0
  6
CONTINUOUS
 62
3
 10
-331.181470410102970
 20
-155.771570731769370
 40
26.599999999999969
 50
186.051985358668590
 51
224.999999999998980
  0
ARC
  8
0
  6
CONTINUOUS
 62
3
 10
-529.908569484892500
 20
-126.883541006631100
 40
300.600000000000080
 50
353.948014641331500
 51
6.051985358668499
  0
LINE
  8
0
  6
CONTINUOUS
 62
3
 10
-245.693077298778920
 20
-181.647060229990810
 11
-238.626628180119500
 21
-174.580611111331170
  0
ARC
  8
0
  6
CONTINUOUS
 62
3
 10
-257.435668559681970
 20
-155.771570731769370
 40
26.599999999999955
 50
315.000000000001020
 51
353.948014641331380
  0
ARC
  8
0
  6
CONTINUOUS
 62
4
 10
-331.181470410102970
 20
-97.995511281492838
 40
15.396999999999876
 50
135.000000000000000
 51
173.948014641331160
  0
LINE
  8
0
  6
CONTINUOUS
 62
4
 10
-337.492728127393780
 20
-82.532122778924816
 11
-342.068793520032390
 21
-87.108188171563427
  0
ARC
  8
0
  6
CONTINUOUS
 62
4
 10
-58.708569484892678
 20
-126.883541006631100
 40
289.396999999999930
 50
173.948014641331470
 51
180.000000000000000
  0
ARC
  8
0
  6
CONTINUOUS
 62
4
 10
-294.308569484892590
 20
-367.483541006631010
 40
289.396999999999820
 50
82.102011327572214
 51
90.000000000000000
  0
ARC
  8
0
  6
CONTINUOUS
 62
4
 10
-255.367051529510260
 20
-86.774763466044362
 40
6.000000000000049
 50
45.000000000003077
 51
82.102011327574374
  0
LINE
  8
0
  6
CONTINUOUS
 62
4
 10
-251.124410842391170
 20
-82.532122778924816
 11
-246.548345449752560
 21
-87.108188171563427
  0
ARC
  8
0
  6
CONTINUOUS
 62
4
 10
-257.435668559681970
 20
-97.995511281492838
 40
15.397000000000052
 50
6.051985358668849
 51
45.000000000000000
  0
ARC
  8
0
  6
CONTINUOUS
 62
4
 10
-529.908569484892500
 20
-126.883541006631100
 40
289.397000000000160
 50
0.000000000000000
 51
6.051985358668508
  0
ARC
  8
0
  6
CONTINUOUS
 62
4
 10
-294.308569484892590
 20
113.716458993368800
 40
289.396999999999930
 50
270.000000000000000
 51
277.897988672427800
  0
ARC
  8
0
  6
CONTINUOUS
 62
4
 10
-255.367051529510260
 20
-166.992318547217850
 40
5.999999999999923
 50
277.897988672425640
 51
314.999999999996870
  0
LINE
  8
0
  6
CONTINUOUS
 62
4
 10
-251.124410842391170
 20
-171.234959234337400
 11
-246.548345449752560
 21
-166.658893841698780
  0
ARC
  8
0
  6
CONTINUOUS
 62
4
 10
-257.435668559681970
 20
-155.771570731769370
 40
15.396999999999876
 50
315.000000000000000
 51
353.948014641331160
  0
ARC
  8
0
  6
CONTINUOUS
 62
4
 10
-529.908569484892500
 20
-126.883541006631100
 40
289.397000000000160
 50
353.948014641331500
 51
0.000000000000000
  0
ARC
  8
0
  6
CONTINUOUS
 62
4
 10
-294.308569484892360
 20
113.716458993368800
 40
289.396999999999820
 50
262.102011327572200
 51
270.000000000000000
  0
ARC
  8
0
  6
CONTINUOUS
 62
4
 10
-333.250087440274680
 20
-166.992318547217850
 40
6.000000000000049
 50
225.000000000003070
 51
262.102011327574360
  0
LINE
  8
0
  6
CONTINUOUS
 62
4
 10
-337.492728127393780
 20
-171.234959234337400
 11
-342.068793520032390
 21
-166.658893841698780
  0
ARC
  8
0
  6
CONTINUOUS
 62
4
 10
-331.181470410102970
 20
-155.771570731769370
 40
15.397000000000052
 50
186.051985358668840
 51
225.000000000000000
  0
ARC
  8
0
  6
CONTINUOUS
 62
4
 10
-58.708569484892450
 20
-126.883541006631100
 40
289.397000000000160
 50
180.000000000000000
 51
186.051985358668500
  0
TEXT
  8
0
  6
CONTINUOUS
 62
3
 10
-318.726593017578120
 20
131.086349487304690
 40
8.000000000000000
  1
Ｄ００１
 50
0.000002504478167
 41
0.833333333333333
  7
STANDARD1
  0
TEXT
  8
0
  6
CONTINUOUS
 62
3
 10
-318.726593017578120
 20
120.486351013183590
 40
8.000000000000000
  1
三菱ギヤードモートル
 50
0.000002504478167
 41
0.833333333333333
  7
STANDARD1
  0
TEXT
  8
0
  6
CONTINUOUS
 62
3
 10
-318.726593017578120
 20
109.886352539062500
 40
8.000000000000000
  1
ＧＭ－Ｄ
 50
0.000002504478167
 41
0.833333333333333
  7
STANDARD1
  0
TEXT
  8
0
  6
CONTINUOUS
 62
3
 10
-318.726593017578120
 20
99.286346435546875
 40
8.000000000000000
  1
０．４（kＷ）
 50
0.000002504478167
 41
0.804878051688032
  7
STANDARD1
  0
TEXT
  8
0
  6
CONTINUOUS
 62
3
 10
-318.726593017578120
 20
88.686347961425781
 40
8.000000000000000
  1
１／３～１／５０
 50
0.000002504478167
 41
0.833333333333333
  7
STANDARD1
  0
TEXT
  8
0
  6
CONTINUOUS
 62
3
 10
-318.726593017578120
 20
78.086349487304688
 40
8.000000000000000
  1
ＳＣＡＬＥ　１／１
 50
0.000002504478167
 41
0.833333333333333
  7
STANDARD1
  0
CIRCLE
  8
0
  6
CONTINUOUS
 62
3
 10
-247.308569484892590
 20
-62.883541006630992
 40
5.000000000000000
  0
POINT
  8
0
  6
CONTINUOUS
 62
3
 10
-247.308569484892590
 20
-62.883541006630992
  0
LINE
  8
0
  6
CONTINUOUS
 62
3
 10
-249.808567100708070
 20
-64.326912651628902
 11
-249.808568054382360
 21
-61.440163384050770
  0
LINE
  8
0
  6
CONTINUOUS
 62
3
 10
-244.808571869077750
 20
-61.440169361631952
 11
-244.808570915403440
 21
-64.326914814512804
  0
LINE
  8
0
  6
CONTINUOUS
 62
3
 10
-247.308564763685350
 20
-59.996792266274895
 11
-244.808570978894070
 21
-61.440168910822365
  0
LINE
  8
0
  6
CONTINUOUS
 62
3
 10
-247.308574997018070
 20
-65.770287944353072
 11
-249.808567302061650
 21
-64.326912597608953
  0
LINE
  8
0
  6
CONTINUOUS
 62
3
 10
-247.308564702455900
 20
-59.996792746417611
 11
-249.808569430502760
 21
-61.440163781510762
  0
LINE
  8
0
  6
CONTINUOUS
 62
3
 10
-244.808570132948550
 20
-64.326914981306970
 11
-247.308574482455010
 21
-65.770288558002846
  0
CIRCLE
  8
0
  6
CONTINUOUS
 62
3
 10
-341.308569484893040
 20
-62.883541006630992
 40
5.000000000000000
  0
POINT
  8
0
  6
CONTINUOUS
 62
3
 10
-341.308569484893040
 20
-62.883541006630992
  0
LINE
  8
0
  6
CONTINUOUS
 62
3
 10
-338.808571869077530
 20
-64.326912651628902
 11
-338.808570915403270
 21
-61.440163384050770
  0
LINE
  8
0
  6
CONTINUOUS
 62
3
 10
-343.808567100707880
 20
-61.440169361631952
 11
-343.808568054382190
 21
-64.326914814512804
  0
LINE
  8
0
  6
CONTINUOUS
 62
3
 10
-341.308574206100270
 20
-59.996792266274895
 11
-343.808567990891560
 21
-61.440168910822365
  0
LINE
  8
0
  6
CONTINUOUS
 62
3
 10
-341.308563972767560
 20
-65.770287944353072
 11
-338.808571667723980
 21
-64.326912597608953
  0
LINE
  8
0
  6
CONTINUOUS
 62
3
 10
-341.308574267329730
 20
-59.996792746417611
 11
-338.808569539282870
 21
-61.440163781510762
  0
LINE
  8
0
  6
CONTINUOUS
 62
3
 10
-343.808568836837080
 20
-64.326914981306970
 11
-341.308564487330610
 21
-65.770288558002846
  0
LINE
  8
0
  6
CONTINUOUS
 62
3
 10
-349.321476926336000
 20
-78.517437038601386
 11
-349.808280318041620
 21
-78.030633646895765
  0
LINE
  8
0
  6
CONTINUOUS
 62
3
 10
-342.674673452922320
 20
-71.870633565187674
 11
-343.161476844627940
 21
-71.383830173482053
  0
LINE
  8
0
  6
CONTINUOUS
 62
3
 10
-349.634615535304820
 20
-78.264890087751013
 11
-342.957516232831890
 21
-71.587790785278102
  0
LINE
  8
0
  6
CONTINUOUS
 62
3
 10
-349.321476926336000
 20
-78.517437038601386
 11
-342.674673452922320
 21
-71.870633565187674
  0
POINT
  8
0
  6
CONTINUOUS
 62
3
 10
-345.998075189629160
 20
-75.194035301894530
  0
ARC
  8
0
  6
CONTINUOUS
 62
3
 10
-343.735333624702150
 20
-77.456776866821571
 40
6.099999427795419
 50
84.601927898108485
 51
185.398089404735120
  0
LINE
  8
0
  6
CONTINUOUS
 62
3
 10
-239.295662043449140
 20
-78.517437038601386
 11
-238.808858651743550
 21
-78.030633646895765
  0
LINE
  8
0
  6
CONTINUOUS
 62
3
 10
-245.942465516862880
 20
-71.870633565187674
 11
-245.455662125157260
 21
-71.383830173482053
  0
LINE
  8
0
  6
CONTINUOUS
 62
3
 10
-238.982523434480380
 20
-78.264890087751013
 11
-245.659622736953280
 21
-71.587790785278102
  0
LINE
  8
0
  6
CONTINUOUS
 62
3
 10
-239.295662043449140
 20
-78.517437038601386
 11
-245.942465516862880
 21
-71.870633565187674
  0
POINT
  8
0
  6
CONTINUOUS
 62
3
 10
-242.619063780156010
 20
-75.194035301894530
  0
ARC
  8
0
  6
CONTINUOUS
 62
3
 10
-244.881805345083050
 20
-77.456776866821571
 40
6.099999427795398
 50
354.601910595264880
 51
95.398072101890989
  0
CIRCLE
  8
0
  6
CONTINUOUS
 62
3
 10
-252.308569484892590
 20
-200.383541006631130
 40
5.000000000000000
  0
POINT
  8
0
  6
CONTINUOUS
 62
3
 10
-252.308569484892590
 20
-200.383541006631130
  0
LINE
  8
0
  6
CONTINUOUS
 62
3
 10
-254.808567100708070
 20
-201.826912651629040
 11
-254.808568054382360
 21
-198.940163384050920
  0
LINE
  8
0
  6
CONTINUOUS
 62
3
 10
-249.808571869077750
 20
-198.940169361632090
 11
-249.808570915403440
 21
-201.826914814512950
  0
LINE
  8
0
  6
CONTINUOUS
 62
3
 10
-252.308564763685350
 20
-197.496792266275040
 11
-249.808570978894070
 21
-198.940168910822510
  0
LINE
  8
0
  6
CONTINUOUS
 62
3
 10
-252.308574997018070
 20
-203.270287944353210
 11
-254.808567302061650
 21
-201.826912597609090
  0
LINE
  8
0
  6
CONTINUOUS
 62
3
 10
-252.308564702455900
 20
-197.496792746417750
 11
-254.808569430502760
 21
-198.940163781510900
  0
LINE
  8
0
  6
CONTINUOUS
 62
3
 10
-249.808570132948550
 20
-201.826914981307110
 11
-252.308574482455010
 21
-203.270288558002990
  0
LINE
  8
0
  6
CONTINUOUS
 62
3
 10
-239.295662043449140
 20
-175.249644974661040
 11
-238.808858651743550
 21
-175.736448366366660
  0
LINE
  8
0
  6
CONTINUOUS
 62
3
 10
-245.942465516862880
 20
-181.896448448074780
 11
-245.455662125157260
 21
-182.383251839780370
  0
LINE
  8
0
  6
CONTINUOUS
 62
3
 10
-238.982523434480380
 20
-175.502191925511430
 11
-245.659622736953280
 21
-182.179291227984350
  0
LINE
  8
0
  6
CONTINUOUS
 62
3
 10
-239.295662043449140
 20
-175.249644974661040
 11
-245.942465516862880
 21
-181.896448448074780
  0
POINT
  8
0
  6
CONTINUOUS
 62
3
 10
-242.619063780156010
 20
-178.573046711367910
  0
ARC
  8
0
  6
CONTINUOUS
 62
3
 10
-244.881805345083050
 20
-176.310305146440870
 40
6.099999427795399
 50
264.601927898109010
 51
5.398089404735109
  0
LINE
  8
0
  6
CONTINUOUS
 62
3
 10
-349.321476926336000
 20
-175.249644974661040
 11
-349.808280318041620
 21
-175.736448366366660
  0
LINE
  8
0
  6
CONTINUOUS
 62
3
 10
-342.674673452922320
 20
-181.896448448074780
 11
-343.161476844627940
 21
-182.383251839780370
  0
LINE
  8
0
  6
CONTINUOUS
 62
3
 10
-349.634615535304820
 20
-175.502191925511430
 11
-342.957516232831890
 21
-182.179291227984350
  0
LINE
  8
0
  6
CONTINUOUS
 62
3
 10
-349.321476926336000
 20
-175.249644974661040
 11
-342.674673452922320
 21
-181.896448448074780
  0
POINT
  8
0
  6
CONTINUOUS
 62
3
 10
-345.998075189629160
 20
-178.573046711367910
  0
ARC
  8
0
  6
CONTINUOUS
 62
3
 10
-343.735333624702150
 20
-176.310305146440870
 40
6.099999427795398
 50
174.601910595264880
 51
275.398072101891500
  0
CIRCLE
  8
0
  6
CONTINUOUS
 62
3
 10
-336.308569484893040
 20
-200.383541006631130
 40
5.000000000000000
  0
POINT
  8
0
  6
CONTINUOUS
 62
3
 10
-336.308569484893040
 20
-200.383541006631130
  0
LINE
  8
0
  6
CONTINUOUS
 62
3
 10
-333.808571869077530
 20
-201.826912651629040
 11
-333.808570915403270
 21
-198.940163384050920
  0
LINE
  8
0
  6
CONTINUOUS
 62
3
 10
-338.808567100707880
 20
-198.940169361632090
 11
-338.808568054382190
 21
-201.826914814512950
  0
LINE
  8
0
  6
CONTINUOUS
 62
3
 10
-336.308574206100270
 20
-197.496792266275040
 11
-338.808567990891560
 21
-198.940168910822510
  0
LINE
  8
0
  6
CONTINUOUS
 62
3
 10
-336.308563972767560
 20
-203.270287944353210
 11
-333.808571667723980
 21
-201.826912597609090
  0
LINE
  8
0
  6
CONTINUOUS
 62
3
 10
-336.308574267329730
 20
-197.496792746417750
 11
-333.808569539282870
 21
-198.940163781510900
  0
LINE
  8
0
  6
CONTINUOUS
 62
3
 10
-338.808568836837080
 20
-201.826914981307110
 11
-336.308564487330610
 21
-203.270288558002990
  0
CIRCLE
  8
0
  6
CONTINUOUS
 62
3
 10
-366.308569484892810
 20
-121.383541006631100
 40
5.000000000000000
  0
POINT
  8
0
  6
CONTINUOUS
 62
3
 10
-366.308569484892810
 20
-121.383541006631100
  0
LINE
  8
0
  6
CONTINUOUS
 62
3
 10
-363.808571869077300
 20
-122.826912651629010
 11
-363.808570915403040
 21
-119.940163384050890
  0
LINE
  8
0
  6
CONTINUOUS
 62
3
 10
-368.808567100707650
 20
-119.940169361632050
 11
-368.808568054381960
 21
-122.826914814512910
  0
LINE
  8
0
  6
CONTINUOUS
 62
3
 10
-366.308574206100050
 20
-118.496792266275000
 11
-368.808567990891330
 21
-119.940168910822470
  0
LINE
  8
0
  6
CONTINUOUS
 62
3
 10
-366.308563972767330
 20
-124.270287944353180
 11
-363.808571667723750
 21
-122.826912597609060
  0
LINE
  8
0
  6
CONTINUOUS
 62
3
 10
-366.308574267329500
 20
-118.496792746417720
 11
-363.808569539282640
 21
-119.940163781510870
  0
LINE
  8
0
  6
CONTINUOUS
 62
3
 10
-368.808568836836860
 20
-122.826914981307080
 11
-366.308564487330390
 21
-124.270288558002960
  0
ENDSEC
  0
EOF
