  0
SECTION
  2
HEADER
  9
$TEXTSIZE
 40
2.5
  9
$ACADVER
  1
AC1009
  9
$DIMASZ
 40
3.863703297614046
  9
$DIMEXE
 40
2.000000000000000
  9
$DIMEXO
 40
1.000000000000000
  9
$DIMLFAC
 40
1.000000000000000
  9
$DIMSCALE
 40
1.000000000000000
  9
$DIMTAD
 70
1
  9
$DIMTFAC
 40
0.625000000000000
  9
$DIMTXT
 40
3.200000047683716
  9
$LUPREC
 70
3
  9
$REGENMODE
 70
1
  9
$TEXTSTYLE
  7
STANDARD1
  0
ENDSEC
  0
SECTION
  2
TABLES
  0
TABLE
  2
LTYPE
 70
4
  0
LTYPE
  2
CONTINUOUS
 70
64
  3
Solid line
 72
65
 73
0
 40
0.0
  0
LTYPE
  2
DASHED
 70
64
  3
-- -- -- -- -- -- -- -- -- -- -- -- -- -- --
 72
65
 73
2
 40
0.75
 49
0.5
 49
-0.25
  0
LTYPE
  2
DASHDOT
 70
64
  3
__ . __ . __ . __ . __ . __ . __ . __ . __ . __
 72
65
 73
4
 40
1.0
 49
0.5
 49
-0.25
 49
0.0
 49
-0.25
  0
LTYPE
  2
DIVIDE
 70
64
  3
__ . . __ . . __ . . __ . . __ . . __ . . __
 72
65
 73
6
 40
1.25
 49
0.5
 49
-0.25
 49
0.0
 49
-0.25
 49
0.0
 49
-0.25
  0
ENDTAB
  0
TABLE
  2
LAYER
 70
1
  0
LAYER
  2
0
 70
64
 62
2
  6
CONTINUOUS
  0
ENDTAB
  0
TABLE
  2
STYLE
 70
4
  0
STYLE
  2
STANDARD1
 70
64
 40
0.0
 41
1.0
 50
0.0
 71
0
 42
3.200000047683716
  3
MONOTXT
  4
BIGFONT
  0
STYLE
  2
STANDARD2
 70
68
 40
0.0
 41
1.0
 50
0.0
 71
0
 42
3.200000047683716
  3
MONOTXT
  4
BIGFONT
  0
STYLE
  2
STANDARD3
 70
64
 40
0.0
 41
1.0
 50
0.0
 71
0
 42
3.200000047683716
  3
MONOTXT
  4

  0
STYLE
  2
STANDARD4
 70
68
 40
0.0
 41
1.0
 50
0.0
 71
0
 42
3.200000047683716
  3
MONOTXT
  4

  0
ENDTAB
  0
TABLE
  2
VIEW
 70
0
  0
ENDTAB
  0
ENDSEC
  0
SECTION
  2
BLOCKS
  0
BLOCK
  8
0
  2
ZU_SYM_1
 70
64
 10
0.000000000000000
 20
0.000000000000000
  0
POINT
  8
0
  6
CONTINUOUS
 62
256
 10
0.000000000000000
 20
0.000000000000000
  0
LINE
  8
0
  6
CONTINUOUS
 62
256
 10
0.000000000000000
 20
-6.500000000000000
 11
0.000000000000000
 21
6.500000000000000
  0
LINE
  8
0
  6
CONTINUOUS
 62
256
 10
-7.999999046325684
 20
5.633875846862793
 11
-7.999999046325684
 21
-5.634070396423340
  0
LINE
  8
0
  6
CONTINUOUS
 62
256
 10
0.000000000000000
 20
6.500000000000000
 11
-7.499999046325684
 21
6.500000000000000
  0
LINE
  8
0
  6
CONTINUOUS
 62
256
 10
0.000000000000000
 20
-6.500000000000000
 11
-7.499998092651367
 21
-6.500000000000000
  0
LINE
  8
0
  6
CONTINUOUS
 62
256
 10
-7.499999203818277
 20
6.499999909101064
 11
-7.999999021366804
 21
5.633876130311293
  0
LINE
  8
0
  6
CONTINUOUS
 62
256
 10
-7.499997911632022
 20
-6.499999445138201
 11
-7.999998623386432
 21
-5.634070287011241
  0
LINE
  8
0
  6
CONTINUOUS
 62
256
 10
-7.499999046325684
 20
6.500000000000000
 11
-7.499999046325684
 21
-6.500000000000000
  0
ENDBLK
  8
0
  0
BLOCK
  8
0
  2
ZU_SYM_2
 70
64
 10
0.000000000000000
 20
0.000000000000000
  0
CIRCLE
  8
0
  6
CONTINUOUS
 62
256
 10
0.000000000000000
 20
0.000000000000000
 40
5.633955001831055
  0
CIRCLE
  8
0
  6
CONTINUOUS
 62
256
 10
0.000000000000000
 20
0.000000000000000
 40
6.500000000000000
  0
POINT
  8
0
  6
CONTINUOUS
 62
256
 10
0.000000000000000
 20
0.000000000000000
  0
LINE
  8
0
  6
CONTINUOUS
 62
256
 10
-2.999996662140960
 20
-1.732045999551255
 11
-2.999997615815242
 21
1.732051977133316
  0
LINE
  8
0
  6
CONTINUOUS
 62
256
 10
2.999996662140697
 20
1.732046953225571
 11
2.999997615814979
 21
-1.732051023458999
  0
LINE
  8
0
  6
CONTINUOUS
 62
256
 10
0.000006701720849
 20
3.464096999935236
 11
-2.999997939551520
 21
1.732051821705568
  0
LINE
  8
0
  6
CONTINUOUS
 62
256
 10
2.999998112093635
 20
-1.732051392778772
 11
-0.000004464412200
 21
-3.464098365415111
  0
LINE
  8
0
  6
CONTINUOUS
 62
256
 10
0.000006618601731
 20
3.464096896385627
 11
2.999997425948948
 21
1.732046782136365
  0
LINE
  8
0
  6
CONTINUOUS
 62
256
 10
-0.000004704988612
 20
-3.464098175748802
 11
-2.999997577100373
 21
-1.732046218032735
  0
POINT
  8
0
  6
CONTINUOUS
 62
256
 10
0.500000119209290
 20
6.500000000000000
  0
POINT
  8
0
  6
CONTINUOUS
 62
256
 10
0.000000000000000
 20
5.633955001831055
  0
ENDBLK
  8
0
  0
ENDSEC
  0
SECTION
  2
ENTITIES
  0
ARC
  8
0
  6
CONTINUOUS
 62
256
 10
136.639236351488310
 20
-111.047306305612420
 40
6.000000000000000
 50
90.000000000000000
 51
270.000000000000000
  0
LINE
  8
0
  6
CONTINUOUS
 62
256
 10
185.639236351488310
 20
-117.047306305612420
 11
136.639236351488310
 21
-117.047306305612420
  0
LINE
  8
0
  6
CONTINUOUS
 62
256
 10
185.639236351488310
 20
-105.047306305612420
 11
136.639236351488310
 21
-105.047306305612420
  0
INSERT
  8
0
  2
ZU_SYM_1
 10
-17.860769699717366
 20
-122.047294295721240
  0
INSERT
  8
0
  2
ZU_SYM_1
 10
-17.860769699717366
 20
-188.047294295721260
  0
INSERT
  8
0
  2
ZU_SYM_1
 10
-17.860769699717366
 20
-46.539853804383711
  0
LINE
  8
0
  6
DASHDOT
 62
256
 10
196.859787144876920
 20
-111.047306305612420
 11
53.976177625183936
 21
-111.047306305612420
  0
LINE
  8
0
  6
CONTINUOUS
 62
256
 10
185.639236351488310
 20
-111.047306305612420
 11
185.639236351488310
 21
-91.447306305612983
  0
LINE
  8
0
  6
CONTINUOUS
 62
256
 10
125.239236351488220
 20
-133.547306305612440
 11
123.639236351489220
 21
-133.547306305612440
  0
LINE
  8
0
  6
CONTINUOUS
 62
256
 10
125.239236351488220
 20
-88.547306305612437
 11
123.639236351489220
 21
-88.547306305612437
  0
ARC
  8
0
  6
CONTINUOUS
 62
256
 10
185.239236351488220
 20
-91.447306305612983
 40
0.400000000000091
 50
0.000000000000000
 51
90.000000000000000
  0
LINE
  8
0
  6
CONTINUOUS
 62
256
 10
185.239236351488220
 20
-91.047306305612437
 11
128.699051098492870
 21
-91.047306305612437
  0
ARC
  8
0
  6
CONTINUOUS
 62
256
 10
127.239236351488220
 20
-89.597306305612619
 40
1.599999999999909
 50
180.000000000000000
 51
270.000000000000000
  0
LINE
  8
0
  6
CONTINUOUS
 62
256
 10
128.139243477357010
 20
-91.197306305612983
 11
127.239236351488220
 21
-91.197306305612983
  0
LINE
  8
0
  6
CONTINUOUS
 62
256
 10
125.239236351488220
 20
-88.547306305612437
 11
125.639236351488290
 21
-88.947306305612983
  0
LINE
  8
0
  6
CONTINUOUS
 62
256
 10
125.639236351488290
 20
-111.047306305612420
 11
125.639236351488290
 21
-88.947306305612983
  0
LINE
  8
0
  6
CONTINUOUS
 62
256
 10
128.699051098492420
 20
-91.047306305612437
 11
128.139243477357010
 21
-91.197306305612983
  0
ARC
  8
0
  6
CONTINUOUS
 62
256
 10
127.239236351488220
 20
-132.497306305612260
 40
1.599999999999454
 50
90.000000000000000
 51
180.000000000000000
  0
LINE
  8
0
  6
CONTINUOUS
 62
256
 10
128.139243477357010
 20
-130.897306305612800
 11
127.239236351488220
 21
-130.897306305612800
  0
LINE
  8
0
  6
CONTINUOUS
 62
256
 10
125.239236351488220
 20
-133.547306305612440
 11
125.639236351488290
 21
-133.147306305612800
  0
LINE
  8
0
  6
CONTINUOUS
 62
256
 10
125.639236351488290
 20
-111.047306305612420
 11
125.639236351488290
 21
-133.147306305612800
  0
LINE
  8
0
  6
CONTINUOUS
 62
256
 10
185.239236351488220
 20
-131.047306305612440
 11
128.699051098492870
 21
-131.047306305612440
  0
LINE
  8
0
  6
CONTINUOUS
 62
256
 10
128.699051098492420
 20
-131.047306305612440
 11
128.139243477357010
 21
-130.897306305612800
  0
LINE
  8
0
  6
CONTINUOUS
 62
256
 10
185.639236351488310
 20
-111.047306305612420
 11
185.639236351488310
 21
-130.647306305612800
  0
ARC
  8
0
  6
CONTINUOUS
 62
256
 10
185.239236351488220
 20
-130.647306305612800
 40
0.399999999999636
 50
270.000000000000000
 51
0.000000000000000
  0
LINE
  8
0
  6
CONTINUOUS
 62
256
 10
122.639236326579070
 20
-152.047306305612440
 11
123.639236351489220
 21
-152.047306305612440
  0
LINE
  8
0
  6
CONTINUOUS
 62
256
 10
122.639236326579070
 20
-70.047306305612437
 11
123.639236351489220
 21
-70.047306305612437
  0
LINE
  8
0
  6
CONTINUOUS
 62
256
 10
82.125015849981082
 20
-111.047306305612420
 11
82.125015849981082
 21
-229.700544969387010
  0
LINE
  8
0
  6
CONTINUOUS
 62
256
 10
116.995015849980970
 20
-111.047306305612420
 11
116.995015849980970
 21
-230.918232201564020
  0
LINE
  8
0
  6
CONTINUOUS
 62
256
 10
82.460024486150260
 20
-107.145499865289860
 11
82.125015849980585
 21
-111.047306305612420
  0
LINE
  8
0
  6
CONTINUOUS
 62
256
 10
83.452176200646306
 20
-103.393637658310620
 11
82.460024486150260
 21
-107.145499865289860
  0
LINE
  8
0
  6
CONTINUOUS
 62
256
 10
85.063343159485697
 20
-99.935901645220397
 11
83.452176200646306
 21
-103.393637658310620
  0
LINE
  8
0
  6
CONTINUOUS
 62
256
 10
87.231609119993124
 20
-96.905170681881501
 11
85.063343159485697
 21
-99.935901645220397
  0
LINE
  8
0
  6
CONTINUOUS
 62
256
 10
89.873648837283810
 20
-94.417914059561539
 11
87.231609119993124
 21
-96.905170681881501
  0
LINE
  8
0
  6
CONTINUOUS
 62
256
 10
92.887930206695231
 20
-92.569715655386716
 11
89.873648837283810
 21
-94.417914059561539
  0
LINE
  8
0
  6
CONTINUOUS
 62
256
 10
96.158616085629376
 20
-91.431600697547836
 11
92.887930206695231
 21
-92.569715655386716
  0
LINE
  8
0
  6
CONTINUOUS
 62
256
 10
99.560015849980573
 20
-91.047306305612437
 11
96.158616085629376
 21
-91.431600697547836
  0
LINE
  8
0
  6
CONTINUOUS
 62
256
 10
102.961415614331770
 20
-91.431600697547836
 11
99.560015849980573
 21
-91.047306305612437
  0
LINE
  8
0
  6
CONTINUOUS
 62
256
 10
106.232101493265920
 20
-92.569715655386716
 11
102.961415614331770
 21
-91.431600697547836
  0
LINE
  8
0
  6
CONTINUOUS
 62
256
 10
109.246382862677340
 20
-94.417914059561539
 11
106.232101493265920
 21
-92.569715655386716
  0
LINE
  8
0
  6
CONTINUOUS
 62
256
 10
111.888422579968020
 20
-96.905170681881486
 11
109.246382862677340
 21
-94.417914059561539
  0
LINE
  8
0
  6
CONTINUOUS
 62
256
 10
114.056688540475430
 20
-99.935901645220397
 11
111.888422579968020
 21
-96.905170681881486
  0
LINE
  8
0
  6
CONTINUOUS
 62
256
 10
115.667855499314850
 20
-103.393637658310620
 11
114.056688540475430
 21
-99.935901645220397
  0
LINE
  8
0
  6
CONTINUOUS
 62
256
 10
116.660007213810900
 20
-107.145499865289860
 11
115.667855499314850
 21
-103.393637658310620
  0
LINE
  8
0
  6
CONTINUOUS
 62
256
 10
116.995015849980580
 20
-111.047306305612420
 11
116.660007213810900
 21
-107.145499865289860
  0
LINE
  8
0
  6
CONTINUOUS
 62
256
 10
123.639236351489220
 20
-152.047306305612440
 11
123.639236351489220
 21
-111.047306305612420
  0
ARC
  8
0
  6
CONTINUOUS
 62
256
 10
122.639236326579070
 20
-153.047306330521680
 40
1.000000024909241
 50
90.000000000000000
 51
180.000000000000000
  0
LINE
  8
0
  6
CONTINUOUS
 62
256
 10
-6.360769699716911
 20
-26.047327215277619
 11
-6.360769699717366
 21
-111.047306305612420
  0
ARC
  8
0
  6
CONTINUOUS
 62
256
 10
118.639236301668920
 20
-64.370777946873204
 40
3.000000000000000
 50
0.000000000000000
 51
31.668452967603656
  0
LINE
  8
0
  6
CONTINUOUS
 62
256
 10
121.639236301668920
 20
-64.370777946873204
 11
121.639236301668920
 21
-111.047306305612420
  0
ARC
  8
0
  6
CONTINUOUS
 62
256
 10
57.360014347699234
 20
-102.171002241395390
 40
74.999999999999901
 50
31.668452967610172
 51
88.999999999999616
  0
LINE
  8
0
  6
CONTINUOUS
 62
256
 10
-6.360769699716911
 20
-26.047327215277619
 11
58.668944830496002
 21
-27.182425104665526
  0
LINE
  8
0
  6
CONTINUOUS
 62
256
 10
121.639217308249950
 20
-111.047306305612420
 11
121.639217308249950
 21
-232.736814059511740
  0
LINE
  8
0
  6
CONTINUOUS
 62
256
 10
123.639236351489220
 20
-70.047306305612437
 11
123.639236351489220
 21
-111.047306305612420
  0
ARC
  8
0
  6
CONTINUOUS
 62
256
 10
122.639236326579070
 20
-69.047306280703197
 40
1.000000024909241
 50
180.000000000000000
 51
270.000000000000000
  0
LINE
  8
0
  6
CONTINUOUS
 62
256
 10
123.639217358068440
 20
-237.427229867131250
 11
123.639217358068440
 21
-256.047332869712590
  0
LINE
  8
0
  6
CONTINUOUS
 62
256
 10
123.639217358068440
 20
-256.047332869712590
 11
-63.360778136887802
 21
-256.047332869712590
  0
LINE
  8
0
  6
DASHDOT
 62
256
 10
105.639231010200550
 20
-228.029344316024440
 11
105.639231010200550
 21
-261.499298201743840
  0
ARC
  8
0
  6
CONTINUOUS
 62
256
 10
-59.860778136887802
 20
-237.292188090430500
 40
3.499999999999234
 50
94.332468894025979
 51
180.000000000000000
  0
ARC
  8
0
  6
CONTINUOUS
 62
256
 10
-6.360769699717366
 20
-191.812678907072950
 40
2.000000000000000
 50
0.000000000000000
 51
90.000000000000000
  0
ARC
  8
0
  6
CONTINUOUS
 62
256
 10
-6.360769699717366
 20
-212.638958313392320
 40
1.999999999999825
 50
317.350764207258010
 51
0.000000000000000
  0
LINE
  8
0
  6
CONTINUOUS
 62
256
 10
-4.360769699717366
 20
-191.812678907072950
 11
-4.360769699717366
 21
-212.638958313392320
  0
LINE
  8
0
  6
CONTINUOUS
 62
256
 10
-4.360769699714638
 20
-229.577461112315180
 11
-23.360778136887802
 21
-231.016907356127380
  0
LINE
  8
0
  6
CONTINUOUS
 62
256
 10
-4.889739384077529
 20
-213.993974848520340
 11
-18.758776376656442
 21
-229.050450792477930
  0
LINE
  8
0
  6
CONTINUOUS
 62
256
 10
-63.360778136887802
 20
-256.047332869712590
 11
-63.360778136887802
 21
-237.292188090430500
  0
LINE
  8
0
  6
DASHDOT
 62
256
 10
-44.360791764110672
 20
-228.837236047857000
 11
-44.360791764110672
 21
-261.499298201743840
  0
LINE
  8
0
  6
CONTINUOUS
 62
256
 10
-4.360769699717366
 20
-229.577461112315180
 11
83.639217358068436
 21
-232.650488375637000
  0
LINE
  8
0
  6
CONTINUOUS
 62
256
 10
-6.360769699717366
 20
-111.047306305612420
 11
-6.360769699717366
 21
-215.590951810374460
  0
ARC
  8
0
  6
CONTINUOUS
 62
256
 10
85.125015849981082
 20
-229.700544969387010
 40
3.000000000000000
 50
180.000000000000000
 51
267.999999999996590
  0
ARC
  8
0
  6
CONTINUOUS
 62
256
 10
119.995015849980970
 20
-230.918232201564020
 40
3.000000000000000
 50
180.000000000000000
 51
267.999999999996590
  0
ARC
  8
0
  6
CONTINUOUS
 62
256
 10
120.139217358068440
 20
-237.427229867131250
 40
3.500000000000000
 50
0.000000000000000
 51
46.186939148157542
  0
ARC
  8
0
  6
CONTINUOUS
 62
256
 10
120.139217358068440
 20
-237.427229867131250
 40
3.500000000000175
 50
46.186939148157322
 51
87.999999999996461
  0
ARC
  8
0
  6
CONTINUOUS
 62
256
 10
124.639217308249950
 20
-232.736814059511740
 40
3.000000000000000
 50
180.000000000000000
 51
226.186939148152110
  0
ARC
  8
0
  6
CONTINUOUS
 62
256
 10
-23.171867323575952
 20
-224.985401187095700
 40
5.999999999999782
 50
274.332468894032620
 51
317.350764207251530
  0
LINE
  8
0
  6
CONTINUOUS
 62
256
 10
83.639217358068436
 20
-232.650488375637000
 11
120.261365596527410
 21
-233.929361972564040
  0
LINE
  8
0
  6
CONTINUOUS
 62
256
 10
-23.360778136887802
 20
-231.016907356127380
 11
-60.125181467365564
 21
-233.802189397189070
  0
LINE
  8
0
  6
CONTINUOUS
 62
256
 10
-6.860769699717366
 20
-26.047327215277619
 11
-6.860769699717366
 21
-143.047306305612440
  0
ARC
  8
0
  6
CONTINUOUS
 62
256
 10
-14.860769699717366
 20
-29.047306305612437
 40
3.000000000000000
 50
90.000000000000000
 51
180.000000000000000
  0
ARC
  8
0
  6
CONTINUOUS
 62
256
 10
-19.860769699717366
 20
-81.315243488152191
 40
2.000000000000000
 50
270.000000000000000
 51
0.000000000000000
  0
ARC
  8
0
  6
CONTINUOUS
 62
256
 10
-19.860769699717366
 20
-110.779345103290320
 40
2.000000000000000
 50
0.000000000000000
 51
90.000000000000000
  0
LINE
  8
0
  6
CONTINUOUS
 62
256
 10
-19.860769699717366
 20
-108.779345103290320
 11
-22.860769699717366
 21
-108.779345103290320
  0
ARC
  8
0
  6
CONTINUOUS
 62
256
 10
-22.860769699717366
 20
-106.779345103290320
 40
2.000000000000000
 50
180.000000000000000
 51
270.000000000000000
  0
LINE
  8
0
  6
CONTINUOUS
 62
256
 10
-24.860769699717366
 20
-85.315243488152191
 11
-24.860769699717366
 21
-106.779345103290320
  0
LINE
  8
0
  6
CONTINUOUS
 62
256
 10
-19.860769699717366
 20
-83.315243488152191
 11
-22.860769699717366
 21
-83.315243488152191
  0
ARC
  8
0
  6
CONTINUOUS
 62
256
 10
-22.860769699717366
 20
-85.315243488152191
 40
2.000000000000000
 50
90.000000000000000
 51
180.000000000000000
  0
LINE
  8
0
  6
CONTINUOUS
 62
256
 10
-17.860769699717366
 20
-29.047306305612437
 11
-17.860769699717366
 21
-81.315243488152191
  0
LINE
  8
0
  6
CONTINUOUS
 62
256
 10
-17.860769699717366
 20
-110.779345103290320
 11
-17.860769699717366
 21
-143.047306305612440
  0
ARC
  8
0
  6
CONTINUOUS
 62
256
 10
-29.860769699717366
 20
-81.097711930922742
 40
2.999999999999949
 50
273.000000000005680
 51
0.000000000000000
  0
ARC
  8
0
  6
CONTINUOUS
 62
256
 10
-22.860769699717366
 20
-207.418885180982220
 40
5.000000000000000
 50
0.000000000000000
 51
87.000000000004832
  0
LINE
  8
0
  6
CONTINUOUS
 62
256
 10
-6.860769699717366
 20
-26.047306305612437
 11
-26.860769699717366
 21
-26.047306305612437
  0
LINE
  8
0
  6
CONTINUOUS
 62
256
 10
-29.860769699717366
 20
-29.047306305612437
 11
-29.860769699717366
 21
-46.047294295721713
  0
ARC
  8
0
  6
CONTINUOUS
 62
256
 10
-26.860769699717366
 20
-29.047306305612437
 40
3.000000000000000
 50
90.000000000000000
 51
180.000000000000000
  0
LINE
  8
0
  6
CONTINUOUS
 62
256
 10
-26.860769699717366
 20
-51.243446718428459
 11
-26.860769699717366
 21
-81.097711930922742
  0
ARC
  8
0
  6
CONTINUOUS
 62
256
 10
-29.860769699717366
 20
-51.243446718428459
 40
3.000000000000000
 50
0.000000000000000
 51
59.999999999998366
  0
ARC
  8
0
  6
CONTINUOUS
 62
256
 10
-26.860769699717366
 20
-46.047294295721713
 40
3.000000000000000
 50
180.000000000000000
 51
240.000000000002730
  0
LINE
  8
0
  6
DASHDOT
 62
256
 10
-40.091017100533918
 20
-11.047294295721258
 11
-21.991751085242413
 21
-11.047294295721258
  0
LINE
  8
0
  6
CONTINUOUS
 62
256
 10
-34.360769699717366
 20
8.952705704278742
 11
-29.860769699717366
 21
8.952705704278742
  0
LINE
  8
0
  6
CONTINUOUS
 62
256
 10
-29.860769699717366
 20
8.952705704278742
 11
-29.860769699717366
 21
-49.047294295721258
  0
ARC
  8
0
  6
CONTINUOUS
 62
256
 10
-22.860769699717366
 20
-78.728112783945562
 40
5.000000000000054
 50
293.447344693371690
 51
0.000000000000000
  0
LINE
  8
0
  6
CONTINUOUS
 62
256
 10
-17.860769699716911
 20
-228.075558596568040
 11
-17.860769699717366
 21
-143.047306305612440
  0
LINE
  8
0
  6
CONTINUOUS
 62
256
 10
-6.860769699717366
 20
-216.133760801079010
 11
-6.860769699717366
 21
-143.047306305612440
  0
LINE
  8
0
  6
DASHDOT
 62
256
 10
333.018651413379760
 20
-258.181380723124680
 11
333.018651413379760
 21
25.167242263283697
  0
LINE
  8
0
  6
CONTINUOUS
 62
256
 10
312.518651413379760
 20
-1.047306305612437
 11
312.518651413379760
 21
-26.467733064271670
  0
CIRCLE
  8
0
  6
CONTINUOUS
 62
256
 10
333.018651413379760
 20
-11.047306305612437
 40
10.000000000000000
  0
LINE
  8
0
  6
DASHDOT
 62
256
 10
356.186564412261300
 20
-11.047306305612437
 11
309.164050510726610
 21
-11.047306305612437
  0
ARC
  8
0
  6
CONTINUOUS
 62
256
 10
322.518651413379760
 20
-1.047306305612437
 40
10.000000000000000
 50
90.000000000000000
 51
180.000000000000000
  0
LINE
  8
0
  6
CONTINUOUS
 62
256
 10
343.518651413379760
 20
8.952693694387563
 11
322.518651413379760
 21
8.952693694387563
  0
ARC
  8
0
  6
CONTINUOUS
 62
256
 10
343.518651413379760
 20
-1.047306305612437
 40
10.000000000000000
 50
0.000000000000000
 51
90.000000000000000
  0
LINE
  8
0
  6
CONTINUOUS
 62
256
 10
353.518651413379760
 20
-1.047306305612437
 11
353.518651413379760
 21
-26.467733064271670
  0
CIRCLE
  8
0
  6
CONTINUOUS
 62
256
 10
333.018651413379760
 20
-111.047306305612420
 40
4.000000000000000
  0
CIRCLE
  8
0
  6
CONTINUOUS
 62
256
 10
333.018651413379760
 20
-111.047306305612420
 40
3.324999999999989
  0
ARC
  8
0
  6
CONTINUOUS
 62
256
 10
365.018651413380670
 20
-112.282880575221480
 40
85.000000000000000
 50
0.000000000000000
 51
85.577622414022429
  0
ARC
  8
0
  6
CONTINUOUS
 62
256
 10
333.018651413379760
 20
-526.047306305612440
 40
500.000000000000230
 50
85.577622414021945
 51
90.000000000000000
  0
ARC
  8
0
  6
CONTINUOUS
 62
256
 10
333.018651413379760
 20
-526.047306305612440
 40
500.000000000000000
 50
90.000000000000000
 51
94.422377585978055
  0
LINE
  8
0
  6
CONTINUOUS
 62
256
 10
333.018651413379760
 20
-234.047309369469080
 11
455.018654527055790
 21
-234.047309369469080
  0
LINE
  8
0
  6
CONTINUOUS
 62
256
 10
333.018651413379760
 20
-253.047309792928900
 11
392.877226281012100
 21
-253.047309792928900
  0
LINE
  8
0
  6
CONTINUOUS
 62
256
 10
458.018654527055790
 20
-256.047309917476010
 11
458.018654527055790
 21
-237.047309369469080
  0
LINE
  8
0
  6
CONTINUOUS
 62
256
 10
413.018653406132670
 20
-256.047309917476010
 11
458.018654527055790
 21
-256.047309917476010
  0
LINE
  8
0
  6
DASHDOT
 62
256
 10
440.518654091140430
 20
-263.871768609087670
 11
440.518654091140430
 21
-228.333731408614770
  0
ARC
  8
0
  6
CONTINUOUS
 62
256
 10
455.018654527055790
 20
-237.047309369469080
 40
3.000000000000000
 50
0.000000000000000
 51
90.000000000000000
  0
LINE
  8
0
  6
CONTINUOUS
 62
256
 10
450.018651413380670
 20
-231.047309369469080
 11
450.018651413380670
 21
-112.282880575221480
  0
LINE
  8
0
  6
CONTINUOUS
 62
256
 10
418.142236102238260
 20
-111.047306305612420
 11
418.142236102238260
 21
-231.047309369469080
  0
ARC
  8
0
  6
CONTINUOUS
 62
256
 10
421.142236102238260
 20
-231.047309369469080
 40
3.000000000000000
 50
180.000000000000000
 51
270.000000000000000
  0
ARC
  8
0
  6
CONTINUOUS
 62
256
 10
453.018651413380670
 20
-231.047309369469080
 40
3.000000000000000
 50
180.000000000000000
 51
270.000000000000000
  0
LINE
  8
0
  6
CONTINUOUS
 62
256
 10
444.542236102238800
 20
-111.047306305612420
 11
444.542236102238800
 21
-231.047309369469080
  0
LINE
  8
0
  6
CONTINUOUS
 62
256
 10
418.395870400916350
 20
-107.145499865289860
 11
418.142236102239000
 21
-111.047306305612420
  0
LINE
  8
0
  6
CONTINUOUS
 62
256
 10
419.147026273090030
 20
-103.393637658310620
 11
418.395870400916350
 21
-107.145499865289860
  0
LINE
  8
0
  6
CONTINUOUS
 62
256
 10
420.366837219845420
 20
-99.935901645220397
 11
419.147026273090030
 21
-103.393637658310620
  0
LINE
  8
0
  6
CONTINUOUS
 62
256
 10
422.008426590576560
 20
-96.905170681881501
 11
420.366837219845420
 21
-99.935901645220397
  0
LINE
  8
0
  6
CONTINUOUS
 62
256
 10
424.008709026380250
 20
-94.417914059561539
 11
422.008426590576560
 21
-96.905170681881501
  0
LINE
  8
0
  6
CONTINUOUS
 62
256
 10
426.290814795019800
 20
-92.569715655386716
 11
424.008709026380250
 21
-94.417914059561539
  0
LINE
  8
0
  6
CONTINUOUS
 62
256
 10
428.767043851626110
 20
-91.431600697547836
 11
426.290814795019800
 21
-92.569715655386716
  0
LINE
  8
0
  6
CONTINUOUS
 62
256
 10
431.342236102238990
 20
-91.047306305612437
 11
428.767043851626110
 21
-91.431600697547836
  0
LINE
  8
0
  6
CONTINUOUS
 62
256
 10
433.917428352851860
 20
-91.431600697547836
 11
431.342236102238990
 21
-91.047306305612437
  0
LINE
  8
0
  6
CONTINUOUS
 62
256
 10
436.393657409458170
 20
-92.569715655386716
 11
433.917428352851860
 21
-91.431600697547836
  0
LINE
  8
0
  6
CONTINUOUS
 62
256
 10
438.675763178097720
 20
-94.417914059561539
 11
436.393657409458170
 21
-92.569715655386716
  0
LINE
  8
0
  6
CONTINUOUS
 62
256
 10
440.676045613901410
 20
-96.905170681881486
 11
438.675763178097720
 21
-94.417914059561539
  0
LINE
  8
0
  6
CONTINUOUS
 62
256
 10
442.317634984632550
 20
-99.935901645220397
 11
440.676045613901410
 21
-96.905170681881486
  0
LINE
  8
0
  6
CONTINUOUS
 62
256
 10
443.537445931387940
 20
-103.393637658310620
 11
442.317634984632550
 21
-99.935901645220397
  0
LINE
  8
0
  6
CONTINUOUS
 62
256
 10
444.288601803561620
 20
-107.145499865289860
 11
443.537445931387940
 21
-103.393637658310620
  0
LINE
  8
0
  6
CONTINUOUS
 62
256
 10
444.542236102238970
 20
-111.047306305612420
 11
444.288601803561620
 21
-107.145499865289860
  0
ARC
  8
0
  6
CONTINUOUS
 62
256
 10
447.542236102238800
 20
-231.047309369469080
 40
3.000000000000000
 50
180.000000000000000
 51
270.000000000000000
  0
LINE
  8
0
  6
CONTINUOUS
 62
256
 10
394.018656063137770
 20
-254.047309917476010
 11
411.018653406132670
 21
-254.047309917476010
  0
ARC
  8
0
  6
CONTINUOUS
 62
256
 10
400.018651413379760
 20
-246.047306430159550
 40
9.999999999999833
 50
224.427031979601760
 51
233.130135655587590
  0
ARC
  8
0
  6
CONTINUOUS
 62
256
 10
411.018653406132670
 20
-256.047309917476010
 40
2.000000000000000
 50
0.000000000000000
 51
90.000000000000000
  0
LINE
  8
0
  6
CONTINUOUS
 62
256
 10
384.932040823049190
 20
-111.047306305612420
 11
400.518651413379760
 21
-111.047306305612420
  0
ARC
  8
0
  6
CONTINUOUS
 62
256
 10
333.018651413379760
 20
-526.047306305612440
 40
462.518012424385230
 50
85.577622414021917
 51
90.000000000000000
  0
ARC
  8
0
  6
CONTINUOUS
 62
256
 10
365.018651413380670
 20
-112.282880575221480
 40
47.518012424385233
 50
0.000000000000000
 51
85.577622414022542
  0
LINE
  8
0
  6
CONTINUOUS
 62
256
 10
412.536663837765900
 20
-231.047309369469080
 11
412.536663837765900
 21
-111.047306305612420
  0
ARC
  8
0
  6
CONTINUOUS
 62
256
 10
415.536663837765900
 20
-231.047309369469080
 40
3.000000000000000
 50
180.000000000000000
 51
270.000000000000000
  0
ARC
  8
0
  6
CONTINUOUS
 62
256
 10
333.018651413379760
 20
-111.047306305612420
 40
49.000000000000014
 50
270.000000000000000
 51
356.692637820329420
  0
LINE
  8
0
  6
CONTINUOUS
 62
256
 10
404.518651413379760
 20
-218.347309369469260
 11
404.518651413379760
 21
-115.047306305612420
  0
LINE
  8
0
  6
CONTINUOUS
 62
256
 10
333.018651413379760
 20
-226.347309369469260
 11
396.518651413379760
 21
-226.347309369469260
  0
ARC
  8
0
  6
CONTINUOUS
 62
256
 10
396.518651413379760
 20
-218.347309369469260
 40
8.000000000000000
 50
270.000000000000000
 51
0.000000000000000
  0
ARC
  8
0
  6
CONTINUOUS
 62
256
 10
400.518651413379760
 20
-115.047306305612420
 40
4.000000000000000
 50
0.000000000000000
 51
90.000000000000000
  0
ARC
  8
0
  6
CONTINUOUS
 62
256
 10
384.932040823049190
 20
-114.047306305612420
 40
3.000000000000000
 50
90.000000000000000
 51
176.692637820325420
  0
POINT
  8
0
  6
DASHDOT
 62
256
 10
-95.860769699716457
 20
-202.833208104035070
  0
POINT
  8
0
  6
DASHDOT
 62
256
 10
-122.860769699716460
 20
-202.833208104035070
  0
LINE
  8
0
  6
CONTINUOUS
 62
256
 10
-146.360769699715770
 20
-89.307191205174831
 11
-148.360769699715770
 21
-90.959832844298262
  0
LINE
  8
0
  6
CONTINUOUS
 62
256
 10
-144.360769699715770
 20
-88.131405719552049
 11
-146.360769699715770
 21
-89.307191205174831
  0
LINE
  8
0
  6
CONTINUOUS
 62
256
 10
-146.360769699715770
 20
-89.307191205174831
 11
-144.360769699715770
 21
-90.959832844298262
  0
LINE
  8
0
  6
CONTINUOUS
 62
256
 10
-148.360769699715770
 20
-88.131405719552049
 11
-146.360769699715770
 21
-89.307191205174831
  0
LINE
  8
0
  6
CONTINUOUS
 62
256
 10
-141.751078881820600
 20
-91.826738239752729
 11
-141.660769699715790
 21
-91.123781273552368
  0
LINE
  8
0
  6
CONTINUOUS
 62
256
 10
-142.018535896912740
 20
-92.502680963964821
 11
-141.751078881820600
 21
-91.826738239752729
  0
LINE
  8
0
  6
CONTINUOUS
 62
256
 10
-142.452862521893820
 20
-93.125633346370222
 11
-142.018535896912740
 21
-92.502680963964821
  0
LINE
  8
0
  6
CONTINUOUS
 62
256
 10
-143.037367828139030
 20
-93.671655676268799
 11
-142.452862521893820
 21
-93.125633346370222
  0
LINE
  8
0
  6
CONTINUOUS
 62
256
 10
-143.749589604523660
 20
-94.119764621735413
 11
-143.037367828139030
 21
-93.671655676268799
  0
LINE
  8
0
  6
CONTINUOUS
 62
256
 10
-144.562157567599850
 20
-94.452739607298184
 11
-143.749589604523660
 21
-94.119764621735413
  0
LINE
  8
0
  6
CONTINUOUS
 62
256
 10
-145.443845186239970
 20
-94.657784590996428
 11
-144.562157567599850
 21
-94.452739607298184
  0
LINE
  8
0
  6
CONTINUOUS
 62
256
 10
-146.360769699715770
 20
-94.727019809097200
 11
-145.443845186239970
 21
-94.657784590996428
  0
LINE
  8
0
  6
CONTINUOUS
 62
256
 10
-147.277694213191580
 20
-94.657784590996428
 11
-146.360769699715770
 21
-94.727019809097200
  0
LINE
  8
0
  6
CONTINUOUS
 62
256
 10
-148.159381831831690
 20
-94.452739607298184
 11
-147.277694213191580
 21
-94.657784590996428
  0
LINE
  8
0
  6
CONTINUOUS
 62
256
 10
-148.971949794907890
 20
-94.119764621735413
 11
-148.159381831831690
 21
-94.452739607298184
  0
LINE
  8
0
  6
CONTINUOUS
 62
256
 10
-149.684171571292520
 20
-93.671655676268799
 11
-148.971949794907890
 21
-94.119764621735413
  0
LINE
  8
0
  6
CONTINUOUS
 62
256
 10
-150.268676877537730
 20
-93.125633346370222
 11
-149.684171571292520
 21
-93.671655676268799
  0
LINE
  8
0
  6
CONTINUOUS
 62
256
 10
-150.703003502518810
 20
-92.502680963964821
 11
-150.268676877537730
 21
-93.125633346370222
  0
LINE
  8
0
  6
CONTINUOUS
 62
256
 10
-150.970460517610950
 20
-91.826738239752729
 11
-150.703003502518810
 21
-92.502680963964821
  0
LINE
  8
0
  6
CONTINUOUS
 62
256
 10
-151.060769699715760
 20
-91.123781273552368
 11
-150.970460517610950
 21
-91.826738239752729
  0
LINE
  8
0
  6
CONTINUOUS
 62
256
 10
-150.970460517610950
 20
-90.420824307352007
 11
-151.060769699715760
 21
-91.123781273552368
  0
LINE
  8
0
  6
CONTINUOUS
 62
256
 10
-150.703003502518810
 20
-89.744881583139914
 11
-150.970460517610950
 21
-90.420824307352007
  0
LINE
  8
0
  6
CONTINUOUS
 62
256
 10
-150.268676877537730
 20
-89.121929200734513
 11
-150.703003502518810
 21
-89.744881583139914
  0
LINE
  8
0
  6
CONTINUOUS
 62
256
 10
-149.684171571292550
 20
-88.575906870835937
 11
-150.268676877537730
 21
-89.121929200734513
  0
LINE
  8
0
  6
CONTINUOUS
 62
256
 10
-148.971949794907890
 20
-88.127797925369322
 11
-149.684171571292550
 21
-88.575906870835937
  0
LINE
  8
0
  6
CONTINUOUS
 62
256
 10
-148.159381831831690
 20
-87.794822939806551
 11
-148.971949794907890
 21
-88.127797925369322
  0
LINE
  8
0
  6
CONTINUOUS
 62
256
 10
-147.277694213191580
 20
-87.589777956108307
 11
-148.159381831831690
 21
-87.794822939806551
  0
LINE
  8
0
  6
CONTINUOUS
 62
256
 10
-146.360769699715770
 20
-87.520542738007535
 11
-147.277694213191580
 21
-87.589777956108307
  0
LINE
  8
0
  6
CONTINUOUS
 62
256
 10
-145.443845186239970
 20
-87.589777956108307
 11
-146.360769699715770
 21
-87.520542738007535
  0
LINE
  8
0
  6
CONTINUOUS
 62
256
 10
-144.562157567599850
 20
-87.794822939806551
 11
-145.443845186239970
 21
-87.589777956108307
  0
LINE
  8
0
  6
CONTINUOUS
 62
256
 10
-143.749589604523660
 20
-88.127797925369322
 11
-144.562157567599850
 21
-87.794822939806551
  0
LINE
  8
0
  6
CONTINUOUS
 62
256
 10
-143.037367828139000
 20
-88.575906870835937
 11
-143.749589604523660
 21
-88.127797925369322
  0
LINE
  8
0
  6
CONTINUOUS
 62
256
 10
-142.452862521893820
 20
-89.121929200734513
 11
-143.037367828139000
 21
-88.575906870835937
  0
LINE
  8
0
  6
CONTINUOUS
 62
256
 10
-142.018535896912740
 20
-89.744881583139914
 11
-142.452862521893820
 21
-89.121929200734513
  0
LINE
  8
0
  6
CONTINUOUS
 62
256
 10
-141.751078881820600
 20
-90.420824307352007
 11
-142.018535896912740
 21
-89.744881583139914
  0
LINE
  8
0
  6
CONTINUOUS
 62
256
 10
-141.660769699715790
 20
-91.123781273552368
 11
-141.751078881820600
 21
-90.420824307352007
  0
ARC
  8
0
  6
CONTINUOUS
 62
256
 10
-183.760769699666070
 20
-190.490511362857890
 40
2.600000000000136
 50
180.000000000000000
 51
234.999999999998810
  0
LINE
  8
0
  6
CONTINUOUS
 62
256
 10
-175.526322649157690
 20
-199.430347191392230
 11
-185.252068434178680
 21
-192.620306678009000
  0
ARC
  8
0
  6
CONTINUOUS
 62
256
 10
-164.054793922136700
 20
-183.047306305612440
 40
20.000000000000007
 50
234.999999999999740
 51
270.000000000000000
  0
LINE
  8
0
  6
CONTINUOUS
 62
256
 10
-186.360769699666210
 20
-143.047306305612440
 11
-186.360769699666210
 21
-190.490511362857890
  0
LINE
  8
0
  6
CONTINUOUS
 62
256
 10
-149.406658862845920
 20
-203.047306305612440
 11
-164.054793922136700
 21
-203.047306305612440
  0
LINE
  8
0
  6
CONTINUOUS
 62
256
 10
-38.360769699716457
 20
-201.547306305612440
 11
-38.360769699716457
 21
-143.047306305612440
  0
LINE
  8
0
  6
CONTINUOUS
 62
256
 10
-38.360769699716457
 20
-201.547306305612440
 11
-66.921215921626299
 21
-201.547306305612440
  0
LINE
  8
0
  6
CONTINUOUS
 62
256
 10
-62.910769699717775
 20
-174.798098021986790
 11
-38.360769699716457
 21
-174.798098021986790
  0
LINE
  8
0
  6
CONTINUOUS
 62
256
 10
-62.910769699717775
 20
-178.761843445786330
 11
-38.360769699716457
 21
-178.761843445786330
  0
LINE
  8
0
  6
CONTINUOUS
 62
256
 10
-62.910769699717775
 20
-180.366491361348380
 11
-38.360769699716457
 21
-180.366491361348380
  0
LINE
  8
0
  6
CONTINUOUS
 62
256
 10
-62.910769699717775
 20
-188.413093024082170
 11
-38.360769699716457
 21
-188.413093024082170
  0
LINE
  8
0
  6
CONTINUOUS
 62
256
 10
-62.910769699717775
 20
-193.362840492387930
 11
-38.360769699716457
 21
-193.362840492387930
  0
LINE
  8
0
  6
CONTINUOUS
 62
256
 10
-64.109694252437293
 20
-198.047306305612440
 11
-38.360769699716457
 21
-198.047306305612440
  0
LINE
  8
0
  6
CONTINUOUS
 62
256
 10
-64.687250665282818
 20
-199.047306305612440
 11
-38.360769699716457
 21
-199.047306305612440
  0
LINE
  8
0
  6
CONTINUOUS
 62
256
 10
-65.858339100107969
 20
-200.547306305612440
 11
-38.360769699716457
 21
-200.547306305612440
  0
LINE
  8
0
  6
CONTINUOUS
 62
256
 10
-65.420450104208612
 20
-200.047306305612440
 11
-38.360769699716457
 21
-200.047306305612440
  0
LINE
  8
0
  6
CONTINUOUS
 62
256
 10
-62.910769699717775
 20
-163.047306305612440
 11
-38.360769699716457
 21
-163.047306305612440
  0
LINE
  8
0
  6
CONTINUOUS
 62
256
 10
-62.910769699717775
 20
-169.239240098092070
 11
-38.360769699716457
 21
-169.239240098092070
  0
LINE
  8
0
  6
CONTINUOUS
 62
256
 10
-62.910769699717775
 20
-167.877359762742800
 11
-38.360769699716457
 21
-167.877359762742800
  0
LINE
  8
0
  6
CONTINUOUS
 62
256
 10
-62.910769699717775
 20
-173.329740632181710
 11
-38.360769699716457
 21
-173.329740632181710
  0
ARC
  8
0
  6
CONTINUOUS
 62
256
 10
-183.760769699666070
 20
-95.604101248366987
 40
2.599999999999721
 50
125.000000000001380
 51
180.000000000000000
  0
LINE
  8
0
  6
CONTINUOUS
 62
256
 10
-175.526322649157690
 20
-86.664265419832645
 11
-185.252068434178680
 21
-93.474305933215874
  0
ARC
  8
0
  6
CONTINUOUS
 62
256
 10
-164.054793922136700
 20
-103.047306305612420
 40
20.000000000000000
 50
90.000000000000000
 51
125.000000000000240
  0
LINE
  8
0
  6
CONTINUOUS
 62
256
 10
-186.360769699666210
 20
-143.047306305612440
 11
-186.360769699666210
 21
-95.604101248366987
  0
LINE
  8
0
  6
CONTINUOUS
 62
256
 10
-135.360769699716340
 20
-83.047306305612437
 11
-164.054793922136700
 21
-83.047306305612437
  0
LINE
  8
0
  6
CONTINUOUS
 62
256
 10
-38.360769699716457
 20
-84.547306305612437
 11
-38.360769699716457
 21
-143.047306305612440
  0
LINE
  8
0
  6
CONTINUOUS
 62
256
 10
-38.360769699716457
 20
-84.547306305612437
 11
-135.360769699716340
 21
-84.547306305612437
  0
LINE
  8
0
  6
CONTINUOUS
 62
256
 10
-135.360769699716340
 20
-100.450698665006480
 11
-135.360769699716340
 21
-83.047306305612437
  0
LINE
  8
0
  6
CONTINUOUS
 62
256
 10
-62.910769699717775
 20
-111.296514589238090
 11
-38.360769699716457
 21
-111.296514589238090
  0
LINE
  8
0
  6
CONTINUOUS
 62
256
 10
-63.710639473265246
 20
-107.332769165438530
 11
-38.360769699716457
 21
-107.332769165438530
  0
LINE
  8
0
  6
CONTINUOUS
 62
256
 10
-64.516510403325810
 20
-105.728121249876490
 11
-38.360769699716457
 21
-105.728121249876490
  0
LINE
  8
0
  6
CONTINUOUS
 62
256
 10
-135.360769699716340
 20
-97.681519587142702
 11
-38.360769699716457
 21
-97.681519587142702
  0
LINE
  8
0
  6
CONTINUOUS
 62
256
 10
-135.360769699716340
 20
-92.731772118836943
 11
-38.360769699716457
 21
-92.731772118836943
  0
LINE
  8
0
  6
CONTINUOUS
 62
256
 10
-135.360769699716340
 20
-88.047306305612437
 11
-38.360769699716457
 21
-88.047306305612437
  0
LINE
  8
0
  6
CONTINUOUS
 62
256
 10
-135.360769699716340
 20
-87.047306305612437
 11
-38.360769699716457
 21
-87.047306305612437
  0
LINE
  8
0
  6
CONTINUOUS
 62
256
 10
-135.360769699716340
 20
-85.547306305612437
 11
-38.360769699716457
 21
-85.547306305612437
  0
LINE
  8
0
  6
CONTINUOUS
 62
256
 10
-135.360769699716340
 20
-86.047306305612437
 11
-38.360769699716457
 21
-86.047306305612437
  0
LINE
  8
0
  6
CONTINUOUS
 62
256
 10
-62.910769699717775
 20
-123.047306305612420
 11
-38.360769699716457
 21
-123.047306305612420
  0
LINE
  8
0
  6
CONTINUOUS
 62
256
 10
-62.910769699717775
 20
-116.855372513132810
 11
-38.360769699716457
 21
-116.855372513132810
  0
LINE
  8
0
  6
CONTINUOUS
 62
256
 10
-62.910769699717775
 20
-118.217252848482080
 11
-38.360769699716457
 21
-118.217252848482080
  0
LINE
  8
0
  6
CONTINUOUS
 62
256
 10
-62.910769699717775
 20
-112.764871979043160
 11
-38.360769699716457
 21
-112.764871979043160
  0
LINE
  8
0
  6
CONTINUOUS
 62
256
 10
-155.810769699715370
 20
-111.450698665006480
 11
-155.810769699715370
 21
-193.053418033262230
  0
LINE
  8
0
  6
CONTINUOUS
 62
256
 10
-149.410769699715730
 20
-111.545516868505050
 11
-149.410769699715730
 21
-187.623261075165150
  0
ARC
  8
0
  6
CONTINUOUS
 62
256
 10
-144.410769699715730
 20
-118.047306305612210
 40
5.000000000000000
 50
90.000000000000000
 51
180.000000000000000
  0
LINE
  8
0
  6
CONTINUOUS
 62
256
 10
-109.360769699716460
 20
-113.047306305612210
 11
-144.410769699715730
 21
-113.047306305612210
  0
ARC
  8
0
  6
CONTINUOUS
 62
256
 10
-144.410769699715730
 20
-111.545516868505050
 40
5.000000000000000
 50
90.000000000000000
 51
180.000000000000000
  0
LINE
  8
0
  6
CONTINUOUS
 62
256
 10
-109.360769699716460
 20
-106.545516868505050
 11
-144.410769699715730
 21
-106.545516868505050
  0
ARC
  8
0
  6
CONTINUOUS
 62
256
 10
-144.810769699715370
 20
-111.450698665006480
 40
11.000000000000000
 50
90.000000000000000
 51
180.000000000000000
  0
LINE
  8
0
  6
CONTINUOUS
 62
256
 10
-144.810769699715370
 20
-100.450698665006480
 11
-109.360769699716460
 21
-100.450698665006480
  0
LINE
  8
0
  6
CONTINUOUS
 62
256
 10
-131.011404794326610
 20
-173.780153549906340
 11
-116.577648064585900
 21
-173.780153549906340
  0
LINE
  8
0
  6
CONTINUOUS
 62
256
 10
-109.360769699716460
 20
-161.280153549906340
 11
-116.577648064585900
 21
-173.780153549906340
  0
LINE
  8
0
  6
CONTINUOUS
 62
256
 10
-123.794526429456250
 20
-161.280153549906340
 11
-131.011404794326610
 21
-173.780153549906340
  0
LINE
  8
0
  6
CONTINUOUS
 62
256
 10
-123.794526429456250
 20
-161.280153549906340
 11
-109.360769699716460
 21
-161.280153549906340
  0
LINE
  8
0
  6
CONTINUOUS
 62
256
 10
-116.577648064586810
 20
-148.780153549906570
 11
-109.360769699716460
 21
-161.280153549906340
  0
LINE
  8
0
  6
CONTINUOUS
 62
256
 10
-109.360769699716460
 20
-136.280153549906340
 11
-116.577648064586810
 21
-148.780153549906340
  0
LINE
  8
0
  6
CONTINUOUS
 62
256
 10
-94.927012969976658
 20
-161.280153549906340
 11
-87.710134605106305
 21
-173.780153549906340
  0
LINE
  8
0
  6
CONTINUOUS
 62
256
 10
-87.710134605106305
 20
-173.780153549906340
 11
-102.143891334847010
 21
-173.780153549906340
  0
LINE
  8
0
  6
CONTINUOUS
 62
256
 10
-109.360769699716460
 20
-136.280153549906340
 11
-102.143891334846100
 21
-148.780153549906340
  0
LINE
  8
0
  6
CONTINUOUS
 62
256
 10
-102.143891334846100
 20
-148.780153549906570
 11
-109.360769699716460
 21
-161.280153549906340
  0
LINE
  8
0
  6
CONTINUOUS
 62
256
 10
-94.927012969976658
 20
-161.280153549906340
 11
-109.360769699716460
 21
-161.280153549906340
  0
LINE
  8
0
  6
CONTINUOUS
 62
256
 10
-109.360769699716460
 20
-161.280153549906340
 11
-102.143891334847010
 21
-173.780153549906340
  0
LINE
  8
0
  6
DASHDOT
 62
256
 10
-109.360769699716460
 20
-97.547706472820437
 11
-109.360769699716460
 21
-210.201425898057100
  0
ARC
  8
0
  6
CONTINUOUS
 62
256
 10
-144.410769699715730
 20
-187.623261075165150
 40
5.000000000000000
 50
180.000000000000000
 51
270.000000000000000
  0
LINE
  8
0
  6
CONTINUOUS
 62
256
 10
-117.848243917110040
 20
-192.623261075165150
 11
-144.410769699715730
 21
-192.623261075165150
  0
ARC
  8
0
  6
CONTINUOUS
 62
256
 10
-144.810769699715370
 20
-193.053418033262230
 40
11.000000000000000
 50
180.000000000000000
 51
270.000000000000000
  0
ARC
  8
0
  6
CONTINUOUS
 62
256
 10
-144.810769699715370
 20
-191.833208104035070
 40
11.000000000000000
 50
180.000000000000000
 51
270.000000000000000
  0
LINE
  8
0
  6
CONTINUOUS
 62
256
 10
-144.810769699715370
 20
-202.833208104035070
 11
-109.360769699716460
 21
-202.833208104035070
  0
LINE
  8
0
  6
CONTINUOUS
 62
256
 10
-144.810769699715370
 20
-204.053418033262230
 11
-109.360769699716460
 21
-204.053418033262230
  0
ARC
  8
0
  6
CONTINUOUS
 62
256
 10
-118.620987880329720
 20
-188.623261088015400
 40
3.999999987149749
 50
270.000000000000000
 51
318.821565628880760
  0
LINE
  8
0
  6
CONTINUOUS
 62
256
 10
-114.619367623131320
 20
-190.311757665873130
 11
-115.610336758217730
 21
-191.256885932393660
  0
LINE
  8
0
  6
CONTINUOUS
 62
256
 10
-113.459765243559640
 20
-189.543248863087370
 11
-114.619367623131320
 21
-190.311757665873130
  0
LINE
  8
0
  6
CONTINUOUS
 62
256
 10
-112.168715864663010
 20
-188.976004141236020
 11
-113.459765243559640
 21
-189.543248863087370
  0
LINE
  8
0
  6
CONTINUOUS
 62
256
 10
-110.787620987131330
 20
-188.628213960828840
 11
-112.168715864663010
 21
-188.976004141236020
  0
LINE
  8
0
  6
CONTINUOUS
 62
256
 10
-109.360769699716460
 20
-188.511031292177850
 11
-110.787620987131330
 21
-188.628213960828840
  0
ARC
  8
0
  6
CONTINUOUS
 62
256
 10
-117.848243915436800
 20
-188.623261081388820
 40
3.999999993776328
 50
270.000000000000000
 51
313.301579148531460
  0
LINE
  8
0
  6
CONTINUOUS
 62
256
 10
-114.143189670621350
 20
-190.762397340690770
 11
-115.104890271195910
 21
-191.534276502617390
  0
LINE
  8
0
  6
CONTINUOUS
 62
256
 10
-113.059031502729450
 20
-190.140534772085200
 11
-114.143189670621350
 21
-190.762397340690770
  0
LINE
  8
0
  6
CONTINUOUS
 62
256
 10
-111.880176477084580
 20
-189.684612069499480
 11
-113.059031502729450
 21
-190.140534772085200
  0
LINE
  8
0
  6
CONTINUOUS
 62
256
 10
-110.636810089636170
 20
-189.406303486843400
 11
-111.880176477084580
 21
-189.684612069499480
  0
LINE
  8
0
  6
CONTINUOUS
 62
256
 10
-109.360769699716460
 20
-189.312735330924570
 11
-110.636810089636170
 21
-189.406303486843400
  0
LINE
  8
0
  6
CONTINUOUS
 62
256
 10
-107.360769699716460
 20
-197.482204709840290
 11
-111.360769699716460
 21
-193.828022879269840
  0
LINE
  8
0
  6
CONTINUOUS
 62
256
 10
-111.360769699716460
 20
-197.482204709840290
 11
-107.360769699716460
 21
-193.828022879269840
  0
LINE
  8
0
  6
CONTINUOUS
 62
256
 10
-105.928021218305160
 20
-197.039390609676900
 11
-105.860769699716460
 21
-196.365800839630770
  0
LINE
  8
0
  6
CONTINUOUS
 62
256
 10
-106.127191335926950
 20
-197.687094702613650
 11
-105.928021218305160
 21
-197.039390609676900
  0
LINE
  8
0
  6
CONTINUOUS
 62
256
 10
-106.450626056657550
 20
-198.284022213386120
 11
-106.127191335926950
 21
-197.687094702613650
  0
LINE
  8
0
  6
CONTINUOUS
 62
256
 10
-106.885895965563530
 20
-198.807233552516100
 11
-106.450626056657550
 21
-198.284022213386120
  0
LINE
  8
0
  6
CONTINUOUS
 62
256
 10
-107.416273884147860
 20
-199.236622001661150
 11
-106.885895965563530
 21
-198.807233552516100
  0
LINE
  8
0
  6
CONTINUOUS
 62
256
 10
-108.021377686438640
 20
-199.555686403524420
 11
-107.416273884147860
 21
-199.236622001661150
  0
LINE
  8
0
  6
CONTINUOUS
 62
256
 10
-108.677953572660020
 20
-199.752165292075690
 11
-108.021377686438640
 21
-199.555686403524420
  0
LINE
  8
0
  6
CONTINUOUS
 62
256
 10
-109.360769699716460
 20
-199.818508093814560
 11
-108.677953572660020
 21
-199.752165292075690
  0
LINE
  8
0
  6
CONTINUOUS
 62
256
 10
-110.043585826772910
 20
-199.752165292075690
 11
-109.360769699716460
 21
-199.818508093814560
  0
LINE
  8
0
  6
CONTINUOUS
 62
256
 10
-110.700161712994270
 20
-199.555686403524420
 11
-110.043585826772910
 21
-199.752165292075690
  0
LINE
  8
0
  6
CONTINUOUS
 62
256
 10
-111.305265515285040
 20
-199.236622001661150
 11
-110.700161712994270
 21
-199.555686403524420
  0
LINE
  8
0
  6
CONTINUOUS
 62
256
 10
-111.835643433869360
 20
-198.807233552516100
 11
-111.305265515285040
 21
-199.236622001661150
  0
LINE
  8
0
  6
CONTINUOUS
 62
256
 10
-112.270913342775340
 20
-198.284022213386120
 11
-111.835643433869360
 21
-198.807233552516100
  0
LINE
  8
0
  6
CONTINUOUS
 62
256
 10
-112.594348063505960
 20
-197.687094702613650
 11
-112.270913342775340
 21
-198.284022213386120
  0
LINE
  8
0
  6
CONTINUOUS
 62
256
 10
-112.793518181127770
 20
-197.039390609676900
 11
-112.594348063505960
 21
-197.687094702613650
  0
LINE
  8
0
  6
CONTINUOUS
 62
256
 10
-112.860769699716460
 20
-196.365800839630770
 11
-112.793518181127770
 21
-197.039390609676900
  0
LINE
  8
0
  6
CONTINUOUS
 62
256
 10
-112.793518181127770
 20
-195.692211069584630
 11
-112.860769699716460
 21
-196.365800839630770
  0
LINE
  8
0
  6
CONTINUOUS
 62
256
 10
-112.594348063505960
 20
-195.044506976647880
 11
-112.793518181127770
 21
-195.692211069584630
  0
LINE
  8
0
  6
CONTINUOUS
 62
256
 10
-112.270913342775340
 20
-194.447579465875410
 11
-112.594348063505960
 21
-195.044506976647880
  0
LINE
  8
0
  6
CONTINUOUS
 62
256
 10
-111.835643433869360
 20
-193.924368126745430
 11
-112.270913342775340
 21
-194.447579465875410
  0
LINE
  8
0
  6
CONTINUOUS
 62
256
 10
-111.305265515285040
 20
-193.494979677600380
 11
-111.835643433869360
 21
-193.924368126745430
  0
LINE
  8
0
  6
CONTINUOUS
 62
256
 10
-110.700161712994270
 20
-193.175915275737110
 11
-111.305265515285040
 21
-193.494979677600380
  0
LINE
  8
0
  6
CONTINUOUS
 62
256
 10
-110.043585826772910
 20
-192.979436387185840
 11
-110.700161712994270
 21
-193.175915275737110
  0
LINE
  8
0
  6
CONTINUOUS
 62
256
 10
-109.360769699716460
 20
-192.913093585446970
 11
-110.043585826772910
 21
-192.979436387185840
  0
LINE
  8
0
  6
CONTINUOUS
 62
256
 10
-108.677953572660000
 20
-192.979436387185840
 11
-109.360769699716460
 21
-192.913093585446970
  0
LINE
  8
0
  6
CONTINUOUS
 62
256
 10
-108.021377686438640
 20
-193.175915275737110
 11
-108.677953572660000
 21
-192.979436387185840
  0
LINE
  8
0
  6
CONTINUOUS
 62
256
 10
-107.416273884147860
 20
-193.494979677600380
 11
-108.021377686438640
 21
-193.175915275737110
  0
LINE
  8
0
  6
CONTINUOUS
 62
256
 10
-106.885895965563530
 20
-193.924368126745430
 11
-107.416273884147860
 21
-193.494979677600380
  0
LINE
  8
0
  6
CONTINUOUS
 62
256
 10
-106.450626056657550
 20
-194.447579465875410
 11
-106.885895965563530
 21
-193.924368126745430
  0
LINE
  8
0
  6
CONTINUOUS
 62
256
 10
-106.127191335926950
 20
-195.044506976647880
 11
-106.450626056657550
 21
-194.447579465875410
  0
LINE
  8
0
  6
CONTINUOUS
 62
256
 10
-105.928021218305130
 20
-195.692211069584630
 11
-106.127191335926950
 21
-195.044506976647880
  0
LINE
  8
0
  6
CONTINUOUS
 62
256
 10
-105.860769699716460
 20
-196.365800839630770
 11
-105.928021218305130
 21
-195.692211069584630
  0
LINE
  8
0
  6
CONTINUOUS
 62
256
 10
-100.873295482323100
 20
-192.623261075165150
 11
-74.310769699717184
 21
-192.623261075165150
  0
LINE
  8
0
  6
CONTINUOUS
 62
256
 10
-108.084729309796740
 20
-189.406303486843400
 11
-109.360769699716460
 21
-189.312735330924570
  0
LINE
  8
0
  6
CONTINUOUS
 62
256
 10
-106.841362922348320
 20
-189.684612069499480
 11
-108.084729309796740
 21
-189.406303486843400
  0
LINE
  8
0
  6
CONTINUOUS
 62
256
 10
-105.662507896703460
 20
-190.140534772085200
 11
-106.841362922348320
 21
-189.684612069499480
  0
LINE
  8
0
  6
CONTINUOUS
 62
256
 10
-104.578349728811550
 20
-190.762397340690770
 11
-105.662507896703460
 21
-190.140534772085200
  0
LINE
  8
0
  6
CONTINUOUS
 62
256
 10
-103.616649128236990
 20
-191.534276502617390
 11
-104.578349728811550
 21
-190.762397340690770
  0
ARC
  8
0
  6
CONTINUOUS
 62
256
 10
-100.873295483996340
 20
-188.623261081388820
 40
3.999999999999828
 50
226.698420851470760
 51
270.000000000000000
  0
LINE
  8
0
  6
CONTINUOUS
 62
256
 10
-107.933918412301640
 20
-188.628213960828840
 11
-109.360769699716460
 21
-188.511031292177850
  0
LINE
  8
0
  6
CONTINUOUS
 62
256
 10
-106.552823534770040
 20
-188.976004141235960
 11
-107.933918412301640
 21
-188.628213960828840
  0
LINE
  8
0
  6
CONTINUOUS
 62
256
 10
-105.261774155873450
 20
-189.543248863087290
 11
-106.552823534770040
 21
-188.976004141235960
  0
LINE
  8
0
  6
CONTINUOUS
 62
256
 10
-104.102171776301770
 20
-190.311757665872960
 11
-105.261774155873450
 21
-189.543248863087290
  0
LINE
  8
0
  6
CONTINUOUS
 62
256
 10
-103.111202641215410
 20
-191.256885932393370
 11
-104.102171776301770
 21
-190.311757665872960
  0
ARC
  8
0
  6
CONTINUOUS
 62
256
 10
-100.100551519103190
 20
-188.623261088015400
 40
4.000000000000156
 50
221.178434371117220
 51
270.000000000000000
  0
ARC
  8
0
  6
CONTINUOUS
 62
256
 10
-73.910769699717548
 20
-191.833208104035070
 40
11.000000000000000
 50
270.000000000000000
 51
0.000000000000000
  0
ARC
  8
0
  6
CONTINUOUS
 62
256
 10
-73.910769699717548
 20
-193.053418033262230
 40
11.000000000000000
 50
270.000000000000000
 51
0.000000000000000
  0
LINE
  8
0
  6
CONTINUOUS
 62
256
 10
-73.910769699717548
 20
-204.053418033262230
 11
-109.360769699716460
 21
-204.053418033262230
  0
LINE
  8
0
  6
CONTINUOUS
 62
256
 10
-73.910769699717548
 20
-202.833208104035070
 11
-109.360769699716460
 21
-202.833208104035070
  0
ARC
  8
0
  6
CONTINUOUS
 62
256
 10
-74.310769699717184
 20
-187.623261075165150
 40
5.000000000000000
 50
270.000000000000000
 51
0.000000000000000
  0
LINE
  8
0
  6
CONTINUOUS
 62
256
 10
-69.310769699717184
 20
-111.545516868505050
 11
-69.310769699717184
 21
-187.623261075165150
  0
LINE
  8
0
  6
CONTINUOUS
 62
256
 10
-62.910769699717548
 20
-111.450698665006480
 11
-62.910769699717548
 21
-193.053418033262230
  0
LINE
  8
0
  6
CONTINUOUS
 62
256
 10
-109.360769699716460
 20
-106.545516868505050
 11
-74.310769699717184
 21
-106.545516868505050
  0
ARC
  8
0
  6
CONTINUOUS
 62
256
 10
-74.310769699717184
 20
-111.545516868505050
 40
5.000000000000000
 50
0.000000000000000
 51
90.000000000000000
  0
LINE
  8
0
  6
CONTINUOUS
 62
256
 10
-109.360769699716460
 20
-113.047306305612210
 11
-74.310769699717184
 21
-113.047306305612210
  0
ARC
  8
0
  6
CONTINUOUS
 62
256
 10
-74.310769699717184
 20
-118.047306305612210
 40
5.000000000000000
 50
0.000000000000000
 51
90.000000000000000
  0
ARC
  8
0
  6
CONTINUOUS
 62
256
 10
-73.910769699717548
 20
-111.450698665006480
 40
11.000000000000000
 50
0.000000000000000
 51
90.000000000000000
  0
LINE
  8
0
  6
CONTINUOUS
 62
256
 10
-73.910769699717548
 20
-100.450698665006480
 11
-109.360769699716460
 21
-100.450698665006480
  0
LINE
  8
0
  6
CONTINUOUS
 62
256
 10
-24.170331178447213
 20
-83.803605722870088
 11
-38.360769699716457
 21
-84.547295092822424
  0
LINE
  8
0
  6
CONTINUOUS
 62
256
 10
-34.360769699721004
 20
-49.047294295721258
 11
-34.360769699717366
 21
8.952705704278742
  0
LINE
  8
0
  6
CONTINUOUS
 62
256
 10
-34.360769699721004
 20
-49.047294295721258
 11
-29.860769699721004
 21
-49.047294295721258
  0
LINE
  8
0
  6
CONTINUOUS
 62
256
 10
-17.860769699717366
 20
-163.032371238093670
 11
-38.360769699716457
 21
-163.032371238093670
  0
LINE
  8
0
  6
CONTINUOUS
 62
256
 10
-38.360769699716457
 20
-123.062241373131200
 11
-25.860768746043046
 21
-123.062241373131200
  0
LINE
  8
0
  6
CONTINUOUS
 62
256
 10
-38.360769699716457
 20
-143.047306305612440
 11
-38.360769699716457
 21
-201.547295092822880
  0
LINE
  8
0
  6
CONTINUOUS
 62
256
 10
-38.360769699716457
 20
-143.047306305612440
 11
-38.360769699716457
 21
-84.547295092821969
  0
LINE
  8
0
  6
CONTINUOUS
 62
256
 10
-22.599089918503068
 20
-202.425737507209310
 11
-38.360769699716457
 21
-201.599702872105350
  0
INSERT
  8
0
  2
ZU_SYM_1
 10
-34.360769699720095
 20
-39.047294295721258
  0
LINE
  8
0
  6
CONTINUOUS
 62
256
 10
318.018651413379760
 20
-105.047306305612420
 11
318.018651413379760
 21
-117.047306305612420
  0
ARC
  8
0
  6
CONTINUOUS
 62
256
 10
333.018651413379760
 20
-111.047306305612420
 40
19.999999999999961
 50
197.457603123722120
 51
162.542396876277880
  0
LINE
  8
0
  6
CONTINUOUS
 62
256
 10
310.018651413379760
 20
-105.047306305612420
 11
318.018651413379760
 21
-105.047306305612420
  0
LINE
  8
0
  6
CONTINUOUS
 62
256
 10
310.018651413379760
 20
-105.047306305612420
 11
310.018651413379760
 21
-117.047306305612420
  0
LINE
  8
0
  6
CONTINUOUS
 62
256
 10
310.018651413379760
 20
-117.047306305612420
 11
318.018651413379760
 21
-117.047306305612420
  0
ARC
  8
0
  6
DASHED
 62
256
 10
260.248551429164310
 20
-101.470981562826150
 40
0.999999999999856
 50
66.000000000020222
 51
155.999999999996160
  0
LINE
  8
0
  6
DASHED
 62
256
 10
219.590710383759640
 20
-199.674049037964980
 11
223.427601305858620
 21
-201.382342938883280
  0
LINE
  8
0
  6
DASHED
 62
256
 10
220.932941305910160
 20
-196.659349027744350
 11
224.769832228008910
 21
-198.367642928662660
  0
LINE
  8
0
  6
DASHED
 62
256
 10
224.592449142910480
 20
-197.905544193411260
 11
224.769832228008910
 21
-198.367642928662660
  0
LINE
  8
0
  6
DASHED
 62
256
 10
222.965502570607440
 20
-201.559726023981260
 11
223.427601305858840
 21
-201.382342938882830
  0
LINE
  8
0
  6
DASHED
 62
256
 10
224.769832228008910
 20
-198.367642928662660
 11
223.427601305858840
 21
-201.382342938882830
  0
LINE
  8
0
  6
CONTINUOUS
 62
256
 10
215.366774855027640
 20
-199.818508890915580
 11
214.472390735351150
 21
-199.420303425151100
  0
LINE
  8
0
  6
DASHED
 62
256
 10
218.213931356558530
 20
-193.423690687417290
 11
217.319547236882040
 21
-193.025485221653040
  0
ARC
  8
0
  6
DASHED
 62
256
 10
216.790789911199000
 20
-194.213093619608540
 40
1.299999237060620
 50
65.999999316753915
 51
139.398468892515750
  0
LINE
  8
0
  6
DASHED
 62
256
 10
262.459222414227040
 20
-103.389794574992460
 11
262.884054573973120
 21
-104.390636423607920
  0
LINE
  8
0
  6
DASHED
 62
256
 10
262.014308669017050
 20
-104.389087207949810
 11
262.147650691211080
 21
-104.703221326399200
  0
LINE
  8
0
  6
DASHED
 62
256
 10
262.884054573973120
 20
-104.390636423607920
 11
262.147650691211080
 21
-104.703221326399200
  0
LINE
  8
0
  6
DASHED
 62
256
 10
259.335005971521700
 20
-101.064244919750290
 11
240.642942390572900
 21
-143.047307102713570
  0
ARC
  8
0
  6
DASHED
 62
256
 10
254.812090149726370
 20
-103.847100174052670
 40
3.000000000000022
 50
279.318123119682530
 51
336.000000000000400
  0
LINE
  8
0
  6
DASHED
 62
256
 10
255.297838040165060
 20
-106.807513825374810
 11
229.342200946628960
 21
-111.066342978367840
  0
ARC
  8
0
  6
DASHED
 62
256
 10
231.770940398820580
 20
-125.868411234978780
 40
15.000000000000041
 50
99.318123119675519
 51
178.317231198866920
  0
ARC
  8
0
  6
DASHED
 62
256
 10
816.518651413379760
 20
-143.047307102713890
 40
600.000000000001140
 50
178.317231198866840
 51
184.715124834091570
  0
ARC
  8
0
  6
DASHED
 62
256
 10
217.552602421068060
 20
-192.450466460600150
 40
1.000000000000041
 50
335.999999999996420
 51
4.715124834082971
  0
LINE
  8
0
  6
DASHED
 62
256
 10
260.655288072239730
 20
-100.557436105183560
 11
263.213215353639040
 21
-101.696298705795680
  0
LINE
  8
0
  6
DASHED
 62
256
 10
260.935490152419330
 20
-106.812153268596570
 11
262.738861342606010
 21
-107.615065852726720
  0
ARC
  8
0
  6
DASHED
 62
256
 10
261.518651413379760
 20
-110.355702225654550
 40
3.000000000000000
 50
0.000000000000000
 51
66.000000000020350
  0
ARC
  8
0
  6
DASHED
 62
256
 10
259.518651413379760
 20
-184.547307102713570
 40
5.000000000000000
 50
270.000000000000000
 51
0.000000000000000
  0
LINE
  8
0
  6
DASHED
 62
256
 10
259.518651413379760
 20
-189.547307102713570
 11
224.099426382050980
 21
-189.547307102713570
  0
LINE
  8
0
  6
CONTINUOUS
 62
256
 10
214.938089390519510
 20
-203.239945544211850
 11
216.018651413379760
 21
-203.721042753044120
  0
ARC
  8
0
  6
CONTINUOUS
 62
256
 10
215.344826033595840
 20
-202.326400086569240
 40
0.999999999999948
 50
156.000000000008330
 51
245.999999999972570
  0
LINE
  8
0
  6
DASHED
 62
256
 10
240.642942390576080
 20
-143.047307102713570
 11
216.018651413379760
 21
-198.354370168810590
  0
ARC
  8
0
  6
DASHED
 62
256
 10
218.723964149681250
 20
-189.819544942592270
 40
1.000000000000041
 50
335.999999999996420
 51
66.000000000019739
  0
ARC
  8
0
  6
DASHED
 62
256
 10
220.148637816960670
 20
-187.169941690950710
 40
2.000000000000632
 50
184.231338074886000
 51
245.999999999972370
  0
LINE
  8
0
  6
DASHED
 62
256
 10
221.075299130986650
 20
-196.339608117569440
 11
224.592449142910480
 21
-197.905544193411260
  0
LINE
  8
0
  6
DASHED
 62
256
 10
219.448352558683380
 20
-199.993789948139440
 11
222.965502570607440
 21
-201.559726023981260
  0
LINE
  8
0
  6
DASHED
 62
256
 10
264.518651413379760
 20
-110.355702225654550
 11
264.518651413379760
 21
-184.547307102713570
  0
ARC
  8
0
  6
CONTINUOUS
 62
256
 10
816.518651413379760
 20
-143.047307102713890
 40
600.799999999999950
 50
179.412192132293110
 51
181.810720292779310
  0
ARC
  8
0
  6
DASHED
 62
256
 10
217.456052184595140
 20
-172.780154347007480
 40
0.999999999999988
 50
182.841389015366990
 51
236.047873053618080
  0
ARC
  8
0
  6
DASHED
 62
256
 10
216.339052159982660
 20
-174.439163372002640
 40
1.000000000000008
 50
2.994076090848812
 51
56.047873053603645
  0
ARC
  8
0
  6
DASHED
 62
256
 10
215.568843743829580
 20
-135.280154347007480
 40
0.999999999999994
 50
306.205708094031080
 51
359.259505056807140
  0
ARC
  8
0
  6
DASHED
 62
256
 10
216.750215860105980
 20
-136.893957285065620
 40
1.000000000000128
 50
126.205708094041640
 51
137.017707970249090
  0
LINE
  8
0
  6
DASHED
 62
256
 10
263.213215353644270
 20
-101.696298705797940
 11
217.496016671919280
 21
-204.378808144823980
  0
ARC
  8
0
  6
CONTINUOUS
 62
256
 10
215.001148061034430
 20
-198.232695027195600
 40
1.299999237060687
 50
172.601548410320760
 51
246.000017986079630
  0
ARC
  8
0
  6
CONTINUOUS
 62
256
 10
222.637043686215750
 20
-199.224214149694230
 40
9.000000000000075
 50
139.398468892516490
 51
172.601548410321130
  0
LINE
  8
0
  6
CONTINUOUS
 62
256
 10
333.018651413379760
 20
-226.347309369469260
 11
269.518651413379760
 21
-226.347309369469260
  0
ARC
  8
0
  6
CONTINUOUS
 62
256
 10
269.518651413379760
 20
-218.347309369469260
 40
8.000000000000000
 50
180.000000000000000
 51
270.000000000000000
  0
LINE
  8
0
  6
CONTINUOUS
 62
256
 10
261.518651413379760
 20
-218.347309369469260
 11
261.518651413379760
 21
-115.047306305612420
  0
ARC
  8
0
  6
CONTINUOUS
 62
256
 10
265.518651413379760
 20
-115.047306305612420
 40
4.000000000000000
 50
90.000000000000000
 51
180.000000000000000
  0
ARC
  8
0
  6
CONTINUOUS
 62
256
 10
333.018651413379760
 20
-111.047306305612420
 40
48.999999999999531
 50
183.307362179670630
 51
270.000000000000000
  0
LINE
  8
0
  6
CONTINUOUS
 62
256
 10
281.105262003710320
 20
-111.047306305612420
 11
265.518651413379760
 21
-111.047306305612420
  0
ARC
  8
0
  6
CONTINUOUS
 62
256
 10
281.105262003710320
 20
-114.047306305612420
 40
3.000000000000263
 50
3.307362179674563
 51
90.000000000000000
  0
ARC
  8
0
  6
CONTINUOUS
 62
256
 10
250.500638988994070
 20
-231.047309369469080
 40
3.000000000000000
 50
270.000000000000000
 51
0.000000000000000
  0
LINE
  8
0
  6
CONTINUOUS
 62
256
 10
253.500638988994070
 20
-231.047309369469080
 11
253.500638988994070
 21
-111.047306305612420
  0
ARC
  8
0
  6
CONTINUOUS
 62
256
 10
301.018651413378850
 20
-112.282880575221480
 40
47.518012424384921
 50
94.422377585977500
 51
180.000000000000000
  0
ARC
  8
0
  6
CONTINUOUS
 62
256
 10
333.018651413379760
 20
-526.047306305612440
 40
462.518012424385230
 50
90.000000000000000
 51
94.422377585978083
  0
ARC
  8
0
  6
CONTINUOUS
 62
256
 10
255.018649420627300
 20
-256.047309917476010
 40
2.000000000000000
 50
90.000000000000000
 51
180.000000000000000
  0
ARC
  8
0
  6
CONTINUOUS
 62
256
 10
333.018651413379760
 20
-111.047306305612420
 40
31.000000000000256
 50
70.008590721901967
 51
180.000000000000000
  0
ARC
  8
0
  6
CONTINUOUS
 62
256
 10
266.018651413379760
 20
-246.047306430159550
 40
10.000000000000053
 50
306.869864344412290
 51
315.572968020398320
  0
LINE
  8
0
  6
CONTINUOUS
 62
256
 10
272.018646763621750
 20
-254.047309917476010
 11
255.018649420627300
 21
-254.047309917476010
  0
ARC
  8
0
  6
CONTINUOUS
 62
256
 10
244.895066724520800
 20
-231.047309369469080
 40
3.000000000000000
 50
270.000000000000000
 51
0.000000000000000
  0
ARC
  8
0
  6
CONTINUOUS
 62
256
 10
218.495066724520710
 20
-231.047309369469080
 40
3.000000000000000
 50
270.000000000000000
 51
0.000000000000000
  0
LINE
  8
0
  6
CONTINUOUS
 62
256
 10
221.495066724520710
 20
-111.047306305612420
 11
221.495066724520710
 21
-231.047309369469080
  0
LINE
  8
0
  6
CONTINUOUS
 62
256
 10
247.895066724520800
 20
-111.047306305612420
 11
247.895066724520800
 21
-231.047309369469080
  0
LINE
  8
0
  6
CONTINUOUS
 62
256
 10
221.748701023198350
 20
-107.145499865289860
 11
221.495066724521000
 21
-111.047306305612420
  0
LINE
  8
0
  6
CONTINUOUS
 62
256
 10
222.499856895372030
 20
-103.393637658310620
 11
221.748701023198350
 21
-107.145499865289860
  0
LINE
  8
0
  6
CONTINUOUS
 62
256
 10
223.719667842127390
 20
-99.935901645220397
 11
222.499856895372030
 21
-103.393637658310620
  0
LINE
  8
0
  6
CONTINUOUS
 62
256
 10
225.361257212858560
 20
-96.905170681881501
 11
223.719667842127390
 21
-99.935901645220397
  0
LINE
  8
0
  6
CONTINUOUS
 62
256
 10
227.361539648662240
 20
-94.417914059561539
 11
225.361257212858560
 21
-96.905170681881501
  0
LINE
  8
0
  6
CONTINUOUS
 62
256
 10
229.643645417301800
 20
-92.569715655386716
 11
227.361539648662240
 21
-94.417914059561539
  0
LINE
  8
0
  6
CONTINUOUS
 62
256
 10
232.119874473908080
 20
-91.431600697547836
 11
229.643645417301800
 21
-92.569715655386716
  0
LINE
  8
0
  6
CONTINUOUS
 62
256
 10
234.695066724520980
 20
-91.047306305612437
 11
232.119874473908080
 21
-91.431600697547836
  0
LINE
  8
0
  6
CONTINUOUS
 62
256
 10
237.270258975133880
 20
-91.431600697547836
 11
234.695066724520980
 21
-91.047306305612437
  0
LINE
  8
0
  6
CONTINUOUS
 62
256
 10
239.746488031740170
 20
-92.569715655386716
 11
237.270258975133880
 21
-91.431600697547836
  0
LINE
  8
0
  6
CONTINUOUS
 62
256
 10
242.028593800379720
 20
-94.417914059561539
 11
239.746488031740170
 21
-92.569715655386716
  0
LINE
  8
0
  6
CONTINUOUS
 62
256
 10
244.028876236183410
 20
-96.905170681881486
 11
242.028593800379720
 21
-94.417914059561539
  0
LINE
  8
0
  6
CONTINUOUS
 62
256
 10
245.670465606914580
 20
-99.935901645220397
 11
244.028876236183410
 21
-96.905170681881486
  0
LINE
  8
0
  6
CONTINUOUS
 62
256
 10
246.890276553669960
 20
-103.393637658310620
 11
245.670465606914580
 21
-99.935901645220397
  0
LINE
  8
0
  6
CONTINUOUS
 62
256
 10
247.641432425843620
 20
-107.145499865289860
 11
246.890276553669960
 21
-103.393637658310620
  0
LINE
  8
0
  6
CONTINUOUS
 62
256
 10
247.895066724520970
 20
-111.047306305612420
 11
247.641432425843620
 21
-107.145499865289860
  0
ARC
  8
0
  6
CONTINUOUS
 62
256
 10
213.018651413379760
 20
-231.047309369469080
 40
3.000000000000000
 50
270.000000000000000
 51
0.000000000000000
  0
ARC
  8
0
  6
CONTINUOUS
 62
256
 10
333.018651413379760
 20
-111.047306305612420
 40
31.000000000000000
 50
180.000000000000000
 51
0.000000000000000
  0
LINE
  8
0
  6
CONTINUOUS
 62
256
 10
216.018651413379760
 20
-231.047309369469080
 11
216.018651413379760
 21
-112.282880575221480
  0
ARC
  8
0
  6
CONTINUOUS
 62
256
 10
211.018648299704180
 20
-237.047309369469080
 40
3.000000000000000
 50
90.000000000000000
 51
180.000000000000000
  0
LINE
  8
0
  6
CONTINUOUS
 62
256
 10
333.018651413379760
 20
-253.047309792928900
 11
273.160076545747420
 21
-253.047309792928900
  0
LINE
  8
0
  6
DASHDOT
 62
256
 10
225.518648735618630
 20
-263.871768609087670
 11
225.518648735618630
 21
-228.333731408614770
  0
LINE
  8
0
  6
CONTINUOUS
 62
256
 10
253.018649420627300
 20
-256.047309917476010
 11
208.018648299704180
 21
-256.047309917476010
  0
LINE
  8
0
  6
CONTINUOUS
 62
256
 10
333.018651413379760
 20
-234.047309369469080
 11
211.018648299704180
 21
-234.047309369469080
  0
LINE
  8
0
  6
CONTINUOUS
 62
256
 10
208.018648299704180
 20
-256.047309917476010
 11
208.018648299704180
 21
-237.047309369469080
  0
LINE
  8
0
  6
DASHDOT
 62
256
 10
207.118362867244290
 20
-111.047306305612420
 11
460.769287782994070
 21
-111.047306305612420
  0
LINE
  8
0
  6
DASHDOT
 62
256
 10
366.565475145449910
 20
-143.047307102713600
 11
300.124653197152380
 21
-143.047307102713600
  0
ARC
  8
0
  6
CONTINUOUS
 62
256
 10
301.018651413379760
 20
-112.282880575221480
 40
84.999999999999972
 50
94.422377585978197
 51
180.000000000000000
  0
CIRCLE
  8
0
  6
CONTINUOUS
 62
256
 10
333.018651413379760
 20
-111.047306305612420
 40
40.999999999999943
  0
CIRCLE
  8
0
  6
CONTINUOUS
 62
256
 10
333.018651413379760
 20
-111.047306305612420
 40
31.000000000000057
  0
ARC
  8
0
  6
CONTINUOUS
 62
256
 10
-98.103546362650377
 20
-143.047306305612440
 40
289.397000000000160
 50
180.000000000000000
 51
186.051985358668500
  0
ARC
  8
0
  6
CONTINUOUS
 62
256
 10
-370.576447287860900
 20
-171.935336030750700
 40
15.397000000000052
 50
186.051985358668840
 51
225.000000000000000
  0
LINE
  8
0
  6
CONTINUOUS
 62
256
 10
-376.887705005151700
 20
-187.398724533318730
 11
-381.463770397790310
 21
-182.822659140680120
  0
ARC
  8
0
  6
CONTINUOUS
 62
256
 10
-372.645064318032610
 20
-183.156083846199180
 40
6.000000000000049
 50
225.000000000003040
 51
262.102011327574530
  0
ARC
  8
0
  6
CONTINUOUS
 62
256
 10
-333.703546362650290
 20
97.552693694387472
 40
289.396999999999820
 50
262.102011327572200
 51
270.000000000000000
  0
ARC
  8
0
  6
CONTINUOUS
 62
256
 10
-569.303546362650420
 20
-143.047306305612440
 40
289.397000000000160
 50
353.948014641331550
 51
0.000000000000000
  0
ARC
  8
0
  6
CONTINUOUS
 62
256
 10
-296.830645437439900
 20
-171.935336030750700
 40
15.396999999999876
 50
315.000000000000000
 51
353.948014641331160
  0
LINE
  8
0
  6
CONTINUOUS
 62
256
 10
-290.519387720149100
 20
-187.398724533318730
 11
-285.943322327510490
 21
-182.822659140680120
  0
ARC
  8
0
  6
CONTINUOUS
 62
256
 10
-294.762028407268190
 20
-183.156083846199180
 40
5.999999999999923
 50
277.897988672425640
 51
314.999999999996760
  0
ARC
  8
0
  6
CONTINUOUS
 62
256
 10
-333.703546362650510
 20
97.552693694387472
 40
289.396999999999930
 50
270.000000000000000
 51
277.897988672427800
  0
ARC
  8
0
  6
CONTINUOUS
 62
256
 10
-569.303546362650420
 20
-143.047306305612440
 40
289.397000000000160
 50
0.000000000000000
 51
6.051985358668508
  0
ARC
  8
0
  6
CONTINUOUS
 62
256
 10
-296.830645437439900
 20
-114.159276580474170
 40
15.397000000000052
 50
6.051985358668850
 51
45.000000000000036
  0
LINE
  8
0
  6
CONTINUOUS
 62
256
 10
-290.519387720149100
 20
-98.695888077906147
 11
-285.943322327510490
 21
-103.271953470544740
  0
ARC
  8
0
  6
CONTINUOUS
 62
256
 10
-294.762028407268190
 20
-102.938528765025690
 40
6.000000000000049
 50
45.000000000003070
 51
82.102011327574544
  0
ARC
  8
0
  6
CONTINUOUS
 62
256
 10
-333.703546362650510
 20
-383.647306305612350
 40
289.396999999999820
 50
82.102011327572214
 51
90.000000000000000
  0
ARC
  8
0
  6
CONTINUOUS
 62
256
 10
-98.103546362650604
 20
-143.047306305612440
 40
289.396999999999930
 50
173.948014641331470
 51
180.000000000000000
  0
LINE
  8
0
  6
CONTINUOUS
 62
256
 10
-376.887705005151700
 20
-98.695888077906147
 11
-381.463770397790310
 21
-103.271953470544740
  0
ARC
  8
0
  6
CONTINUOUS
 62
256
 10
-370.576447287860900
 20
-114.159276580474170
 40
15.396999999999876
 50
135.000000000000000
 51
173.948014641331180
  0
ARC
  8
0
  6
CONTINUOUS
 62
256
 10
-296.830645437439900
 20
-171.935336030750700
 40
26.599999999999955
 50
315.000000000001020
 51
353.948014641331330
  0
LINE
  8
0
  6
CONTINUOUS
 62
256
 10
-285.088054176536840
 20
-197.810825528972150
 11
-278.021605057877420
 21
-190.744376410312500
  0
ARC
  8
0
  6
CONTINUOUS
 62
256
 10
-569.303546362650420
 20
-143.047306305612440
 40
300.600000000000080
 50
353.948014641331550
 51
6.051985358668500
  0
ARC
  8
0
  6
CONTINUOUS
 62
256
 10
-370.576447287860900
 20
-171.935336030750700
 40
26.599999999999969
 50
186.051985358668590
 51
224.999999999998950
  0
ARC
  8
0
  6
CONTINUOUS
 62
256
 10
-98.103546362650491
 20
-143.047306305612440
 40
300.599999999999970
 50
173.948014641331500
 51
186.051985358668470
  0
LINE
  8
0
  6
CONTINUOUS
 62
256
 10
-382.319038548764180
 20
-197.810825528972150
 11
-389.385487667423380
 21
-190.744376410312500
  0
ARC
  8
0
  6
CONTINUOUS
 62
256
 10
-370.576447287860900
 20
-114.159276580474170
 40
26.600000000000119
 50
135.000000000000000
 51
173.948014641331440
  0
LINE
  8
0
  6
CONTINUOUS
 62
256
 10
-382.319038548764180
 20
-88.283787082252957
 11
-389.385487667423150
 21
-95.350236200911922
  0
ARC
  8
0
  6
CONTINUOUS
 62
256
 10
-296.830645437440130
 20
-114.159276580474170
 40
26.600000000000193
 50
6.051985358668552
 51
45.000000000000000
  0
LINE
  8
0
  6
CONTINUOUS
 62
256
 10
-285.088054176536840
 20
-88.283787082252957
 11
-278.021605057877880
 21
-95.350236200911922
  0
LINE
  8
0
  6
CONTINUOUS
 62
256
 10
-68.360763648509760
 20
216.452693694387560
 11
-38.360763648509874
 21
216.452693694387560
  0
LINE
  8
0
  6
CONTINUOUS
 62
256
 10
-135.360763648509760
 20
213.952693694387560
 11
-38.360763648509874
 21
213.952693694387560
  0
LINE
  8
0
  6
CONTINUOUS
 62
256
 10
-135.360763648509760
 20
212.952693694387560
 11
-38.360763648509874
 21
212.952693694387560
  0
LINE
  8
0
  6
CONTINUOUS
 62
256
 10
-135.360763648509760
 20
211.952693694387560
 11
-38.360763648509874
 21
211.952693694387560
  0
LINE
  8
0
  6
CONTINUOUS
 62
256
 10
-135.360763648509760
 20
207.268227881163280
 11
-38.360763648509874
 21
207.268227881163280
  0
LINE
  8
0
  6
CONTINUOUS
 62
256
 10
-135.360763648509760
 20
202.318480412857530
 11
-38.360763648509874
 21
202.318480412857530
  0
LINE
  8
0
  6
CONTINUOUS
 62
256
 10
-135.360763648509760
 20
171.952693694387560
 11
-42.360762694846699
 21
171.952693694387560
  0
LINE
  8
0
  6
CONTINUOUS
 62
256
 10
-135.360763648509760
 20
176.325955503888740
 11
-38.360763648509874
 21
176.325955503888740
  0
LINE
  8
0
  6
CONTINUOUS
 62
256
 10
-135.360763648509760
 20
177.592193419975960
 11
-38.360763648509874
 21
177.592193419975960
  0
LINE
  8
0
  6
CONTINUOUS
 62
256
 10
-135.360763648509760
 20
181.782747151518150
 11
-38.360763648509874
 21
181.782747151518150
  0
LINE
  8
0
  6
CONTINUOUS
 62
256
 10
-135.360763648509760
 20
183.144627486867420
 11
-38.360763648509874
 21
183.144627486867420
  0
LINE
  8
0
  6
CONTINUOUS
 62
256
 10
-135.360763648509760
 20
187.235128020957290
 11
-38.360763648509874
 21
187.235128020957290
  0
LINE
  8
0
  6
CONTINUOUS
 62
256
 10
-135.360763648509760
 20
188.703485410761910
 11
-38.360763648509874
 21
188.703485410761910
  0
LINE
  8
0
  6
CONTINUOUS
 62
256
 10
-135.360763648509760
 20
192.667230834561450
 11
-38.360763648509874
 21
192.667230834561450
  0
LINE
  8
0
  6
CONTINUOUS
 62
256
 10
-135.360763648509760
 20
194.271878750123510
 11
-38.360763648509874
 21
194.271878750123510
  0
LINE
  8
0
  6
CONTINUOUS
 62
256
 10
-135.360763648509760
 20
141.952693694387560
 11
-42.360762694846699
 21
141.952693694387530
  0
LINE
  8
0
  6
CONTINUOUS
 62
256
 10
-135.360763648509760
 20
137.579431884886390
 11
-38.360763648509874
 21
137.579431884886390
  0
LINE
  8
0
  6
CONTINUOUS
 62
256
 10
-135.360763648509760
 20
136.313193968799170
 11
-38.360763648509874
 21
136.313193968799170
  0
LINE
  8
0
  6
CONTINUOUS
 62
256
 10
-135.360763648509760
 20
132.122640237256970
 11
-38.360763648509874
 21
132.122640237256970
  0
LINE
  8
0
  6
CONTINUOUS
 62
256
 10
-135.360763648509760
 20
130.760759901907700
 11
-38.360763648509874
 21
130.760759901907700
  0
LINE
  8
0
  6
CONTINUOUS
 62
256
 10
-135.360763648509760
 20
126.670259367817830
 11
-38.360763648509874
 21
126.670259367817830
  0
LINE
  8
0
  6
CONTINUOUS
 62
256
 10
-135.360763648509760
 20
125.201901978013210
 11
-38.360763648509874
 21
125.201901978013210
  0
LINE
  8
0
  6
CONTINUOUS
 62
256
 10
-135.360763648509760
 20
121.238156554213670
 11
-38.360763648509874
 21
121.238156554213670
  0
LINE
  8
0
  6
CONTINUOUS
 62
256
 10
-135.360763648509760
 20
119.633508638651620
 11
-38.360763648509874
 21
119.633508638651620
  0
LINE
  8
0
  6
CONTINUOUS
 62
256
 10
-135.360763648509760
 20
111.586906975917600
 11
-38.360763648509874
 21
111.586906975917600
  0
LINE
  8
0
  6
CONTINUOUS
 62
256
 10
-135.360763648509760
 20
106.637159507611840
 11
-38.360763648509874
 21
106.637159507611840
  0
LINE
  8
0
  6
CONTINUOUS
 62
256
 10
-135.360763648509760
 20
101.952693694387560
 11
-38.360763648509874
 21
101.952693694387560
  0
LINE
  8
0
  6
CONTINUOUS
 62
256
 10
-135.360763648509760
 20
100.952693694387560
 11
-38.360763648509874
 21
100.952693694387560
  0
LINE
  8
0
  6
CONTINUOUS
 62
256
 10
-135.360763648509760
 20
99.952693694387563
 11
-38.360763648509874
 21
99.952693694387563
  0
LINE
  8
0
  6
CONTINUOUS
 62
256
 10
-135.492972127717960
 20
97.452693694387563
 11
-38.360763648509874
 21
97.452693694387563
  0
LINE
  8
0
  6
CONTINUOUS
 62
256
 10
-135.360763648509760
 20
216.452693694387340
 11
-38.360763648509874
 21
216.452693694387340
  0
ARC
  8
0
  6
CONTINUOUS
 62
256
 10
-142.360763648509650
 20
92.333472777514771
 40
3.000000000000000
 50
90.000000000000000
 51
180.000000000000000
  0
ARC
  8
0
  6
CONTINUOUS
 62
256
 10
-138.360763648509760
 20
98.333472777514771
 40
3.000000000000000
 50
270.000000000000000
 51
0.000000000000000
  0
LINE
  8
0
  6
CONTINUOUS
 62
256
 10
-145.360763648509650
 20
91.952693694387563
 11
-145.360763648509650
 21
92.333472777514771
  0
LINE
  8
0
  6
CONTINUOUS
 62
256
 10
-142.360763648509650
 20
95.333472777514771
 11
-138.360763648509760
 21
95.333472777514771
  0
ARC
  8
0
  6
CONTINUOUS
 62
256
 10
-164.054787870930110
 20
111.952693694387560
 40
20.000000000000007
 50
234.999999999999740
 51
270.000000000000000
  0
LINE
  8
0
  6
CONTINUOUS
 62
256
 10
-145.360763648509650
 20
91.952693694387563
 11
-164.054787870930110
 21
91.952693694387563
  0
ARC
  8
0
  6
CONTINUOUS
 62
256
 10
-183.760763648459490
 20
104.509488637142110
 40
2.600000000000136
 50
180.000000000000000
 51
234.999999999998810
  0
LINE
  8
0
  6
CONTINUOUS
 62
256
 10
-175.526316597951110
 20
95.569652808607771
 11
-185.252062382972100
 21
102.379693321990980
  0
LINE
  8
0
  6
CONTINUOUS
 62
256
 10
-186.360763648459620
 20
156.952693694387560
 11
-186.360763648459620
 21
104.509488637142110
  0
LINE
  8
0
  6
CONTINUOUS
 62
256
 10
-135.360763648509760
 20
156.952693694387560
 11
-135.360763648509760
 21
98.333472777514771
  0
ARC
  8
0
  6
CONTINUOUS
 62
256
 10
-183.760763648459490
 20
209.395898751633010
 40
2.599999999999721
 50
125.000000000001380
 51
180.000000000000000
  0
LINE
  8
0
  6
CONTINUOUS
 62
256
 10
-175.526316597951110
 20
218.335734580167350
 11
-185.252062382972100
 21
211.525694066784130
  0
ARC
  8
0
  6
CONTINUOUS
 62
256
 10
-164.054787870930110
 20
201.952693694387560
 40
20.000000000000000
 50
90.000000000000000
 51
125.000000000000240
  0
LINE
  8
0
  6
CONTINUOUS
 62
256
 10
-186.360763648459620
 20
156.952693694387560
 11
-186.360763648459620
 21
209.395898751633010
  0
LINE
  8
0
  6
CONTINUOUS
 62
256
 10
-135.360763648509760
 20
221.952693694387560
 11
-164.054787870930110
 21
221.952693694387560
  0
LINE
  8
0
  6
CONTINUOUS
 62
256
 10
-135.360763648509760
 20
156.952693694387560
 11
-135.360763648509760
 21
221.952693694387560
  0
LINE
  8
0
  6
CONTINUOUS
 62
256
 10
-146.360763648509190
 20
210.692808794825170
 11
-148.360763648509190
 21
209.040167155701740
  0
LINE
  8
0
  6
CONTINUOUS
 62
256
 10
-144.360763648509190
 20
211.868594280447950
 11
-146.360763648509190
 21
210.692808794825170
  0
LINE
  8
0
  6
CONTINUOUS
 62
256
 10
-146.360763648509190
 20
210.692808794825170
 11
-144.360763648509190
 21
209.040167155701740
  0
LINE
  8
0
  6
CONTINUOUS
 62
256
 10
-148.360763648509190
 20
211.868594280447950
 11
-146.360763648509190
 21
210.692808794825170
  0
LINE
  8
0
  6
CONTINUOUS
 62
256
 10
-141.751072830614020
 20
208.173261760247270
 11
-141.660763648509200
 21
208.876218726447630
  0
LINE
  8
0
  6
CONTINUOUS
 62
256
 10
-142.018529845706150
 20
207.497319036035180
 11
-141.751072830614020
 21
208.173261760247270
  0
LINE
  8
0
  6
CONTINUOUS
 62
256
 10
-142.452856470687240
 20
206.874366653629780
 11
-142.018529845706150
 21
207.497319036035180
  0
LINE
  8
0
  6
CONTINUOUS
 62
256
 10
-143.037361776932440
 20
206.328344323731190
 11
-142.452856470687240
 21
206.874366653629780
  0
LINE
  8
0
  6
CONTINUOUS
 62
256
 10
-143.749583553317080
 20
205.880235378264560
 11
-143.037361776932440
 21
206.328344323731190
  0
LINE
  8
0
  6
CONTINUOUS
 62
256
 10
-144.562151516393270
 20
205.547260392701820
 11
-143.749583553317080
 21
205.880235378264560
  0
LINE
  8
0
  6
CONTINUOUS
 62
256
 10
-145.443839135033390
 20
205.342215409003560
 11
-144.562151516393270
 21
205.547260392701820
  0
LINE
  8
0
  6
CONTINUOUS
 62
256
 10
-146.360763648509190
 20
205.272980190902790
 11
-145.443839135033390
 21
205.342215409003560
  0
LINE
  8
0
  6
CONTINUOUS
 62
256
 10
-147.277688161985000
 20
205.342215409003560
 11
-146.360763648509190
 21
205.272980190902790
  0
LINE
  8
0
  6
CONTINUOUS
 62
256
 10
-148.159375780625110
 20
205.547260392701820
 11
-147.277688161985000
 21
205.342215409003560
  0
LINE
  8
0
  6
CONTINUOUS
 62
256
 10
-148.971943743701300
 20
205.880235378264560
 11
-148.159375780625110
 21
205.547260392701820
  0
LINE
  8
0
  6
CONTINUOUS
 62
256
 10
-149.684165520085940
 20
206.328344323731190
 11
-148.971943743701300
 21
205.880235378264560
  0
LINE
  8
0
  6
CONTINUOUS
 62
256
 10
-150.268670826331150
 20
206.874366653629780
 11
-149.684165520085940
 21
206.328344323731190
  0
LINE
  8
0
  6
CONTINUOUS
 62
256
 10
-150.702997451312230
 20
207.497319036035180
 11
-150.268670826331150
 21
206.874366653629780
  0
LINE
  8
0
  6
CONTINUOUS
 62
256
 10
-150.970454466404360
 20
208.173261760247270
 11
-150.702997451312230
 21
207.497319036035180
  0
LINE
  8
0
  6
CONTINUOUS
 62
256
 10
-151.060763648509180
 20
208.876218726447630
 11
-150.970454466404360
 21
208.173261760247270
  0
LINE
  8
0
  6
CONTINUOUS
 62
256
 10
-150.970454466404360
 20
209.579175692647990
 11
-151.060763648509180
 21
208.876218726447630
  0
LINE
  8
0
  6
CONTINUOUS
 62
256
 10
-150.702997451312230
 20
210.255118416860090
 11
-150.970454466404360
 21
209.579175692647990
  0
LINE
  8
0
  6
CONTINUOUS
 62
256
 10
-150.268670826331150
 20
210.878070799265490
 11
-150.702997451312230
 21
210.255118416860090
  0
LINE
  8
0
  6
CONTINUOUS
 62
256
 10
-149.684165520085970
 20
211.424093129164080
 11
-150.268670826331150
 21
210.878070799265490
  0
LINE
  8
0
  6
CONTINUOUS
 62
256
 10
-148.971943743701300
 20
211.872202074630710
 11
-149.684165520085970
 21
211.424093129164080
  0
LINE
  8
0
  6
CONTINUOUS
 62
256
 10
-148.159375780625110
 20
212.205177060193450
 11
-148.971943743701300
 21
211.872202074630710
  0
LINE
  8
0
  6
CONTINUOUS
 62
256
 10
-147.277688161985000
 20
212.410222043891710
 11
-148.159375780625110
 21
212.205177060193450
  0
LINE
  8
0
  6
CONTINUOUS
 62
256
 10
-146.360763648509190
 20
212.479457261992480
 11
-147.277688161985000
 21
212.410222043891710
  0
LINE
  8
0
  6
CONTINUOUS
 62
256
 10
-145.443839135033390
 20
212.410222043891710
 11
-146.360763648509190
 21
212.479457261992480
  0
LINE
  8
0
  6
CONTINUOUS
 62
256
 10
-144.562151516393270
 20
212.205177060193450
 11
-145.443839135033390
 21
212.410222043891710
  0
LINE
  8
0
  6
CONTINUOUS
 62
256
 10
-143.749583553317080
 20
211.872202074630710
 11
-144.562151516393270
 21
212.205177060193450
  0
LINE
  8
0
  6
CONTINUOUS
 62
256
 10
-143.037361776932410
 20
211.424093129164080
 11
-143.749583553317080
 21
211.872202074630710
  0
LINE
  8
0
  6
CONTINUOUS
 62
256
 10
-142.452856470687240
 20
210.878070799265490
 11
-143.037361776932410
 21
211.424093129164080
  0
LINE
  8
0
  6
CONTINUOUS
 62
256
 10
-142.018529845706150
 20
210.255118416860090
 11
-142.452856470687240
 21
210.878070799265490
  0
LINE
  8
0
  6
CONTINUOUS
 62
256
 10
-141.751072830614020
 20
209.579175692647990
 11
-142.018529845706150
 21
210.255118416860090
  0
LINE
  8
0
  6
CONTINUOUS
 62
256
 10
-141.660763648509200
 20
208.876218726447630
 11
-141.751072830614020
 21
209.579175692647990
  0
LINE
  8
0
  6
CONTINUOUS
 62
256
 10
-146.360763648509190
 20
103.212578593949710
 11
-148.360763648509190
 21
104.865220233073160
  0
LINE
  8
0
  6
CONTINUOUS
 62
256
 10
-144.360763648509190
 20
102.036793108327400
 11
-146.360763648509190
 21
103.212578593949710
  0
LINE
  8
0
  6
CONTINUOUS
 62
256
 10
-146.360763648509190
 20
103.212578593949710
 11
-144.360763648509190
 21
104.865220233073160
  0
LINE
  8
0
  6
CONTINUOUS
 62
256
 10
-148.360763648509190
 20
102.036793108327400
 11
-146.360763648509190
 21
103.212578593949710
  0
LINE
  8
0
  6
CONTINUOUS
 62
256
 10
-141.751072830614020
 20
104.326211696127340
 11
-141.660763648509200
 21
105.029168662327720
  0
LINE
  8
0
  6
CONTINUOUS
 62
256
 10
-142.018529845706150
 20
103.650268971915270
 11
-141.751072830614020
 21
104.326211696127340
  0
LINE
  8
0
  6
CONTINUOUS
 62
256
 10
-142.452856470687240
 20
103.027316589509870
 11
-142.018529845706150
 21
103.650268971915270
  0
LINE
  8
0
  6
CONTINUOUS
 62
256
 10
-143.037361776932440
 20
102.481294259611270
 11
-142.452856470687240
 21
103.027316589509870
  0
LINE
  8
0
  6
CONTINUOUS
 62
256
 10
-143.749583553317080
 20
102.033185314144670
 11
-143.037361776932440
 21
102.481294259611270
  0
LINE
  8
0
  6
CONTINUOUS
 62
256
 10
-144.562151516393270
 20
101.700210328581900
 11
-143.749583553317080
 21
102.033185314144670
  0
LINE
  8
0
  6
CONTINUOUS
 62
256
 10
-145.443839135033390
 20
101.495165344883650
 11
-144.562151516393270
 21
101.700210328581900
  0
LINE
  8
0
  6
CONTINUOUS
 62
256
 10
-146.360763648509190
 20
101.425930126782870
 11
-145.443839135033390
 21
101.495165344883650
  0
LINE
  8
0
  6
CONTINUOUS
 62
256
 10
-147.277688161985000
 20
101.495165344883650
 11
-146.360763648509190
 21
101.425930126782870
  0
LINE
  8
0
  6
CONTINUOUS
 62
256
 10
-148.159375780625110
 20
101.700210328581900
 11
-147.277688161985000
 21
101.495165344883650
  0
LINE
  8
0
  6
CONTINUOUS
 62
256
 10
-148.971943743701300
 20
102.033185314144670
 11
-148.159375780625110
 21
101.700210328581900
  0
LINE
  8
0
  6
CONTINUOUS
 62
256
 10
-149.684165520085940
 20
102.481294259611270
 11
-148.971943743701300
 21
102.033185314144670
  0
LINE
  8
0
  6
CONTINUOUS
 62
256
 10
-150.268670826331150
 20
103.027316589509870
 11
-149.684165520085940
 21
102.481294259611270
  0
LINE
  8
0
  6
CONTINUOUS
 62
256
 10
-150.702997451312230
 20
103.650268971915270
 11
-150.268670826331150
 21
103.027316589509870
  0
LINE
  8
0
  6
CONTINUOUS
 62
256
 10
-150.970454466404360
 20
104.326211696127340
 11
-150.702997451312230
 21
103.650268971915270
  0
LINE
  8
0
  6
CONTINUOUS
 62
256
 10
-151.060763648509180
 20
105.029168662327720
 11
-150.970454466404360
 21
104.326211696127340
  0
LINE
  8
0
  6
CONTINUOUS
 62
256
 10
-150.970454466404360
 20
105.732125628528080
 11
-151.060763648509180
 21
105.029168662327720
  0
LINE
  8
0
  6
CONTINUOUS
 62
256
 10
-150.702997451312230
 20
106.408068352740170
 11
-150.970454466404360
 21
105.732125628528080
  0
LINE
  8
0
  6
CONTINUOUS
 62
256
 10
-150.268670826331150
 20
107.031020735145570
 11
-150.702997451312230
 21
106.408068352740170
  0
LINE
  8
0
  6
CONTINUOUS
 62
256
 10
-149.684165520085970
 20
107.577043065044150
 11
-150.268670826331150
 21
107.031020735145570
  0
LINE
  8
0
  6
CONTINUOUS
 62
256
 10
-148.971943743701300
 20
108.025152010510770
 11
-149.684165520085970
 21
107.577043065044150
  0
LINE
  8
0
  6
CONTINUOUS
 62
256
 10
-148.159375780625110
 20
108.358126996073540
 11
-148.971943743701300
 21
108.025152010510770
  0
LINE
  8
0
  6
CONTINUOUS
 62
256
 10
-147.277688161985000
 20
108.563171979771780
 11
-148.159375780625110
 21
108.358126996073540
  0
LINE
  8
0
  6
CONTINUOUS
 62
256
 10
-146.360763648509190
 20
108.632407197872550
 11
-147.277688161985000
 21
108.563171979771780
  0
LINE
  8
0
  6
CONTINUOUS
 62
256
 10
-145.443839135033390
 20
108.563171979771780
 11
-146.360763648509190
 21
108.632407197872550
  0
LINE
  8
0
  6
CONTINUOUS
 62
256
 10
-144.562151516393270
 20
108.358126996073540
 11
-145.443839135033390
 21
108.563171979771780
  0
LINE
  8
0
  6
CONTINUOUS
 62
256
 10
-143.749583553317080
 20
108.025152010510770
 11
-144.562151516393270
 21
108.358126996073540
  0
LINE
  8
0
  6
CONTINUOUS
 62
256
 10
-143.037361776932410
 20
107.577043065044150
 11
-143.749583553317080
 21
108.025152010510770
  0
LINE
  8
0
  6
CONTINUOUS
 62
256
 10
-142.452856470687240
 20
107.031020735145570
 11
-143.037361776932410
 21
107.577043065044150
  0
LINE
  8
0
  6
CONTINUOUS
 62
256
 10
-142.018529845706150
 20
106.408068352740170
 11
-142.452856470687240
 21
107.031020735145570
  0
LINE
  8
0
  6
CONTINUOUS
 62
256
 10
-141.751072830614020
 20
105.732125628528080
 11
-142.018529845706150
 21
106.408068352740170
  0
LINE
  8
0
  6
CONTINUOUS
 62
256
 10
-141.660763648509200
 20
105.029168662327720
 11
-141.751072830614020
 21
105.732125628528080
  0
LINE
  8
0
  6
DASHDOT
 62
256
 10
-333.703546362650510
 20
-257.878333430806380
 11
-333.703546362650510
 21
18.580500850901444
  0
LINE
  8
0
  6
DASHDOT
 62
256
 10
-457.553126730792430
 20
-143.047306305612440
 11
-207.234816860134740
 21
-143.047306305612440
  0
ARC
  8
0
  6
CONTINUOUS
 62
256
 10
-377.652133792933000
 20
-193.143920773140960
 40
6.599999999999957
 50
225.000000000000000
 51
261.402917762750860
  0
ARC
  8
0
  6
CONTINUOUS
 62
256
 10
-333.703546362650510
 20
97.552693694387699
 40
300.599999999999970
 50
261.402917762750920
 51
270.000000000000000
  0
ARC
  8
0
  6
CONTINUOUS
 62
256
 10
-289.754958932368030
 20
-193.143920773140960
 40
6.599999999999747
 50
278.597082237248910
 51
314.999999999999830
  0
ARC
  8
0
  6
CONTINUOUS
 62
256
 10
-333.703546362650510
 20
-383.647306305612350
 40
300.599999999999800
 50
81.402917762750931
 51
90.000000000000000
  0
ARC
  8
0
  6
CONTINUOUS
 62
256
 10
-289.754958932368030
 20
-92.950691838084140
 40
6.600000000000118
 50
45.000000000001400
 51
81.402917762751571
  0
ARC
  8
0
  6
CONTINUOUS
 62
256
 10
-333.703546362650510
 20
97.552693694387699
 40
300.600000000000140
 50
270.000000000000000
 51
278.597082237249140
  0
ARC
  8
0
  6
CONTINUOUS
 62
256
 10
-333.703546362650510
 20
-383.647306305612350
 40
300.599999999999910
 50
90.000000000000000
 51
98.597082237249069
  0
ARC
  8
0
  6
CONTINUOUS
 62
256
 10
-329.703546362650510
 20
-101.740527200966880
 40
1.500000000000203
 50
84.468928475159146
 51
180.000000000000000
  0
ARC
  8
0
  6
CONTINUOUS
 62
256
 10
-337.703546362650510
 20
-101.740527200966650
 40
1.500000000000000
 50
0.000000000000000
 51
95.531071524841607
  0
ARC
  8
0
  6
CONTINUOUS
 62
256
 10
-333.703546362650290
 20
-143.047306305611980
 40
17.999999999999922
 50
41.837004155893318
 51
78.162995844107343
  0
ARC
  8
0
  6
CONTINUOUS
 62
256
 10
-333.703546362650740
 20
-143.047306305611980
 40
27.499999999999815
 50
97.928141766201691
 51
142.071858233797880
  0
LINE
  8
0
  6
CONTINUOUS
 62
256
 10
-331.203546362650510
 20
-101.740527200966880
 11
-331.203546362650510
 21
-104.755662308520850
  0
LINE
  8
0
  6
CONTINUOUS
 62
256
 10
-301.792009908499720
 20
-121.736420797605660
 11
-299.180826309515620
 21
-120.228853243828550
  0
LINE
  8
0
  6
CONTINUOUS
 62
256
 10
-331.203546362650510
 20
-111.298290572837440
 11
-331.203546362650510
 21
-114.324493072922000
  0
ARC
  8
0
  6
CONTINUOUS
 62
256
 10
-329.703546362650510
 20
-111.298290572837440
 40
1.499999999999998
 50
82.819244218541712
 51
180.000000000000000
  0
ARC
  8
0
  6
CONTINUOUS
 62
256
 10
-329.703546362650510
 20
-104.755662308520850
 40
1.500000000000000
 50
180.000000000000000
 51
264.036429881682010
  0
ARC
  8
0
  6
CONTINUOUS
 62
256
 10
-299.930826309515620
 20
-118.929815138151750
 40
1.500000000000123
 50
299.999999999997270
 51
35.531071524839312
  0
ARC
  8
0
  6
CONTINUOUS
 62
256
 10
-333.703546362650970
 20
-143.047306305612440
 40
42.999999999999908
 50
35.531071524839241
 51
84.468928475160197
  0
ARC
  8
0
  6
CONTINUOUS
 62
256
 10
-295.930826309515170
 20
-125.858018368427790
 40
1.500000000000034
 50
24.468928475159586
 51
119.999999999996760
  0
LINE
  8
0
  6
CONTINUOUS
 62
256
 10
-299.292009908499490
 20
-126.066547816528100
 11
-296.680826309515170
 21
-124.558980262750990
  0
ARC
  8
0
  6
CONTINUOUS
 62
256
 10
-298.542009908499490
 20
-127.365585922204900
 40
1.500000000000123
 50
119.999999999997300
 51
204.036429881681070
  0
ARC
  8
0
  6
CONTINUOUS
 62
256
 10
-333.703546362650740
 20
-143.047306305612890
 40
36.999999999999979
 50
335.963570118321680
 51
24.036429881678874
  0
ARC
  8
0
  6
CONTINUOUS
 62
256
 10
-333.703546362650740
 20
-143.047306305612890
 40
42.999999999999936
 50
335.531071524839770
 51
24.468928475160773
  0
ARC
  8
0
  6
CONTINUOUS
 62
256
 10
-295.930826309515170
 20
-160.236594242797310
 40
1.500000000000320
 50
240.000000000007050
 51
335.531071524832270
  0
LINE
  8
0
  6
CONTINUOUS
 62
256
 10
-296.680826309515170
 20
-161.535632348474340
 11
-299.292009908499270
 21
-160.028064794697000
  0
ARC
  8
0
  6
CONTINUOUS
 62
256
 10
-298.542009908499270
 20
-158.729026689020430
 40
1.500000000000063
 50
155.963570118322880
 51
239.999999999998660
  0
ARC
  8
0
  6
CONTINUOUS
 62
256
 10
-299.930826309515170
 20
-167.164797473073120
 40
1.499999999999844
 50
324.468928475167900
 51
59.999999999998622
  0
LINE
  8
0
  6
CONTINUOUS
 62
256
 10
-299.180826309515170
 20
-165.865759367396550
 11
-301.792009908499270
 21
-164.358191813619210
  0
LINE
  8
0
  6
CONTINUOUS
 62
256
 10
-336.203546362650510
 20
-101.740527200966650
 11
-336.203546362650510
 21
-104.755662308520850
  0
ARC
  8
0
  6
CONTINUOUS
 62
256
 10
-337.703546362650510
 20
-104.755662308520850
 40
1.499999999999933
 50
275.963570118318330
 51
0.000000000000000
  0
LINE
  8
0
  6
CONTINUOUS
 62
256
 10
-336.203546362650510
 20
-111.298290572837440
 11
-336.203546362650510
 21
-114.324493072922000
  0
ARC
  8
0
  6
CONTINUOUS
 62
256
 10
-337.703546362650510
 20
-111.298290572837440
 40
1.500000000000000
 50
0.000000000000000
 51
97.180755781458302
  0
ARC
  8
0
  6
CONTINUOUS
 62
256
 10
-333.703546362650970
 20
-143.047306305611980
 40
23.999999999999901
 50
100.240348321185680
 51
139.759651678813530
  0
ARC
  8
0
  6
CONTINUOUS
 62
256
 10
-350.878725631695490
 20
-128.512409777732050
 40
1.499999999999802
 50
139.759651678811450
 51
239.999999999998100
  0
LINE
  8
0
  6
CONTINUOUS
 62
256
 10
-348.981931038716310
 20
-131.339575454154780
 11
-351.628725631695490
 21
-129.811447883408620
  0
ARC
  8
0
  6
CONTINUOUS
 62
256
 10
-348.231931038716310
 20
-130.040537348478210
 40
1.499999999999926
 50
239.999999999998410
 51
318.162995844106090
  0
ARC
  8
0
  6
CONTINUOUS
 62
256
 10
-333.703546362650970
 20
-143.047306305611980
 40
17.999999999999829
 50
101.837004155891990
 51
138.162995844106180
  0
ARC
  8
0
  6
CONTINUOUS
 62
256
 10
-337.703546362650510
 20
-123.961971621619800
 40
1.499999999999954
 50
281.837004155896690
 51
0.000000000000000
  0
LINE
  8
0
  6
CONTINUOUS
 62
256
 10
-336.203546362650510
 20
-120.905716480127470
 11
-336.203546362650510
 21
-123.961971621619800
  0
ARC
  8
0
  6
CONTINUOUS
 62
256
 10
-337.703546362650510
 20
-120.905716480127470
 40
1.500000000000000
 50
0.000000000000000
 51
100.240348321194420
  0
ARC
  8
0
  6
CONTINUOUS
 62
256
 10
-333.703546362650970
 20
-143.047306305611980
 40
14.499999999999980
 50
107.920213139390850
 51
132.079786860607560
  0
ARC
  8
0
  6
CONTINUOUS
 62
256
 10
-342.415689005465080
 20
-133.398546252047710
 40
1.499999999999792
 50
132.079786860611680
 51
239.999999999998100
  0
LINE
  8
0
  6
CONTINUOUS
 62
256
 10
-340.390800295844430
 20
-136.299667101195150
 11
-343.165689005465080
 21
-134.697584357724280
  0
ARC
  8
0
  6
CONTINUOUS
 62
256
 10
-339.640800295844430
 20
-135.000628995518580
 40
1.499999999999926
 50
239.999999999998410
 51
306.421821521798170
  0
ARC
  8
0
  6
CONTINUOUS
 62
256
 10
-333.703546362650970
 20
-143.047306305611980
 40
8.499999999999879
 50
113.578178478199520
 51
126.421821521797430
  0
ARC
  8
0
  6
CONTINUOUS
 62
256
 10
-337.703546362650510
 20
-133.882154915700080
 40
1.500000000000139
 50
293.578178478195700
 51
0.000000000000000
  0
LINE
  8
0
  6
CONTINUOUS
 62
256
 10
-336.203546362650510
 20
-130.677989428759020
 11
-336.203546362650510
 21
-133.882154915700080
  0
ARC
  8
0
  6
CONTINUOUS
 62
256
 10
-337.703546362650510
 20
-130.677989428759020
 40
1.500000000000000
 50
0.000000000000000
 51
107.920213139394390
  0
ARC
  8
0
  6
CONTINUOUS
 62
256
 10
-333.703546362650510
 20
-143.047306305612440
 40
23.999999999999716
 50
280.240348321186270
 51
319.759651678814690
  0
ARC
  8
0
  6
CONTINUOUS
 62
256
 10
-329.703546362650510
 20
-165.188896131096950
 40
1.500000000000000
 50
180.000000000000000
 51
280.240348321187920
  0
LINE
  8
0
  6
CONTINUOUS
 62
256
 10
-331.203546362650510
 20
-162.132640989604620
 11
-331.203546362650510
 21
-165.188896131096950
  0
ARC
  8
0
  6
CONTINUOUS
 62
256
 10
-329.703546362650510
 20
-162.132640989604620
 40
1.499999999999731
 50
101.837004155898460
 51
180.000000000000000
  0
ARC
  8
0
  6
CONTINUOUS
 62
256
 10
-333.703546362650510
 20
-143.047306305612440
 40
18.000000000000146
 50
281.837004155893230
 51
318.162995844107740
  0
ARC
  8
0
  6
CONTINUOUS
 62
256
 10
-319.175161686584720
 20
-156.054075262746210
 40
1.499999999999926
 50
59.999999999998380
 51
138.162995844099160
  0
LINE
  8
0
  6
CONTINUOUS
 62
256
 10
-315.778367093605770
 20
-156.283164727815800
 11
-318.425161686584720
 21
-154.755037157069640
  0
ARC
  8
0
  6
CONTINUOUS
 62
256
 10
-316.528367093605770
 20
-157.582202833492370
 40
1.499999999999828
 50
319.759651678823670
 51
59.999999999998622
  0
ARC
  8
0
  6
CONTINUOUS
 62
256
 10
-333.703546362650510
 20
-143.047306305612440
 40
14.500000000000121
 50
287.920213139392560
 51
312.079786860608810
  0
ARC
  8
0
  6
CONTINUOUS
 62
256
 10
-329.703546362650510
 20
-155.416623182465170
 40
1.500000000000000
 50
180.000000000000000
 51
287.920213139391990
  0
LINE
  8
0
  6
CONTINUOUS
 62
256
 10
-331.203546362650510
 20
-152.212457695523880
 11
-331.203546362650510
 21
-155.416623182465170
  0
ARC
  8
0
  6
CONTINUOUS
 62
256
 10
-329.703546362650510
 20
-152.212457695524340
 40
1.500000000000139
 50
113.578178478195710
 51
179.999999999982630
  0
ARC
  8
0
  6
CONTINUOUS
 62
256
 10
-333.703546362650510
 20
-143.047306305612440
 40
8.500000000000060
 50
293.578178478202350
 51
306.421821521799070
  0
ARC
  8
0
  6
CONTINUOUS
 62
256
 10
-327.766292429456600
 20
-151.093983615705840
 40
1.499999999999926
 50
59.999999999998380
 51
126.421821521801220
  0
LINE
  8
0
  6
CONTINUOUS
 62
256
 10
-324.241403719836170
 20
-151.397028253499680
 11
-327.016292429456600
 21
-149.794945510029270
  0
ARC
  8
0
  6
CONTINUOUS
 62
256
 10
-324.991403719836170
 20
-152.696066359176710
 40
1.499999999999944
 50
312.079786860618130
 51
60.000000000006729
  0
ARC
  8
0
  6
CONTINUOUS
 62
256
 10
-333.703546362650510
 20
-143.047306305612440
 40
23.999999999999844
 50
220.240348321185310
 51
259.759651678813730
  0
ARC
  8
0
  6
CONTINUOUS
 62
256
 10
-337.703546362650510
 20
-165.188896131096950
 40
1.499999999999728
 50
259.759651678812470
 51
0.000000000000000
  0
LINE
  8
0
  6
CONTINUOUS
 62
256
 10
-336.203546362650510
 20
-162.132640989604620
 11
-336.203546362650510
 21
-165.188896131096950
  0
ARC
  8
0
  6
CONTINUOUS
 62
256
 10
-337.703546362650510
 20
-162.132640989604620
 40
1.500000000000000
 50
0.000000000000000
 51
78.162995844101417
  0
ARC
  8
0
  6
CONTINUOUS
 62
256
 10
-333.703546362650510
 20
-143.047306305612440
 40
17.999999999999940
 50
221.837004155892290
 51
258.162995844106770
  0
ARC
  8
0
  6
CONTINUOUS
 62
256
 10
-348.231931038716310
 20
-156.054075262746210
 40
1.500000000000118
 50
41.837004155899741
 51
120.000000000002130
  0
LINE
  8
0
  6
CONTINUOUS
 62
256
 10
-351.628725631695260
 20
-156.283164727815800
 11
-348.981931038716310
 21
-154.755037157069640
  0
ARC
  8
0
  6
CONTINUOUS
 62
256
 10
-350.878725631695260
 20
-157.582202833492370
 40
1.499999999999926
 50
120.000000000001620
 51
220.240348321176580
  0
ARC
  8
0
  6
CONTINUOUS
 62
256
 10
-333.703546362650510
 20
-143.047306305612440
 40
14.500000000000011
 50
227.920213139391080
 51
252.079786860607530
  0
ARC
  8
0
  6
CONTINUOUS
 62
256
 10
-337.703546362650510
 20
-155.416623182465170
 40
1.500000000000355
 50
252.079786860607900
 51
0.000000000000000
  0
LINE
  8
0
  6
CONTINUOUS
 62
256
 10
-336.203546362650510
 20
-152.212457695523880
 11
-336.203546362650510
 21
-155.416623182465170
  0
ARC
  8
0
  6
CONTINUOUS
 62
256
 10
-337.703546362650510
 20
-152.212457695524340
 40
1.500000000000000
 50
0.000000000017370
 51
66.421821521804546
  0
ARC
  8
0
  6
CONTINUOUS
 62
256
 10
-333.703546362650510
 20
-143.047306305612440
 40
8.499999999999870
 50
233.578178478199590
 51
246.421821521797570
  0
ARC
  8
0
  6
CONTINUOUS
 62
256
 10
-339.640800295844430
 20
-151.093983615705840
 40
1.500000000000059
 50
53.578178478205700
 51
120.000000000001340
  0
LINE
  8
0
  6
CONTINUOUS
 62
256
 10
-343.165689005464860
 20
-151.397028253499680
 11
-340.390800295844430
 21
-149.794945510029270
  0
ARC
  8
0
  6
CONTINUOUS
 62
256
 10
-342.415689005464860
 20
-152.696066359176710
 40
1.500000000000320
 50
119.999999999992940
 51
227.920213139382700
  0
ARC
  8
0
  6
CONTINUOUS
 62
256
 10
-333.703546362650970
 20
-143.047306305611980
 40
23.999999999999925
 50
160.240348321185910
 51
199.759651678814090
  0
ARC
  8
0
  6
CONTINUOUS
 62
256
 10
-354.878725631695490
 20
-135.440613008007400
 40
1.499999999999926
 50
59.999999999998380
 51
160.240348321184830
  0
LINE
  8
0
  6
CONTINUOUS
 62
256
 10
-351.481931038716310
 20
-135.669702473077000
 11
-354.128725631695490
 21
-134.141574902330830
  0
ARC
  8
0
  6
CONTINUOUS
 62
256
 10
-352.231931038716310
 20
-136.968740578753570
 40
1.500000000000038
 50
341.837004155895390
 51
59.999999999998124
  0
ARC
  8
0
  6
CONTINUOUS
 62
256
 10
-333.703546362650970
 20
-143.047306305611980
 40
17.999999999999726
 50
161.837004155893140
 51
198.162995844106860
  0
ARC
  8
0
  6
CONTINUOUS
 62
256
 10
-352.231931038716310
 20
-149.125872032470400
 40
1.500000000000320
 50
299.999999999992950
 51
18.162995844104298
  0
LINE
  8
0
  6
CONTINUOUS
 62
256
 10
-354.128725631695260
 20
-151.953037708893130
 11
-351.481931038716310
 21
-150.424910138147420
  0
ARC
  8
0
  6
CONTINUOUS
 62
256
 10
-354.878725631695260
 20
-150.653999603216560
 40
1.500000000000246
 50
199.759651678811790
 51
300.000000000001880
  0
ARC
  8
0
  6
CONTINUOUS
 62
256
 10
-333.703546362650970
 20
-143.047306305611980
 40
14.499999999999851
 50
167.920213139392840
 51
192.079786860608890
  0
ARC
  8
0
  6
CONTINUOUS
 62
256
 10
-346.415689005465080
 20
-140.326749482323070
 40
1.499999999999926
 50
59.999999999998380
 51
167.920213139405120
  0
LINE
  8
0
  6
CONTINUOUS
 62
256
 10
-342.890800295844430
 20
-140.629794120117370
 11
-345.665689005465080
 21
-139.027711376646490
  0
ARC
  8
0
  6
CONTINUOUS
 62
256
 10
-343.640800295844430
 20
-141.928832225793940
 40
1.499999999999873
 50
353.578178478198030
 51
59.999999999997286
  0
ARC
  8
0
  6
CONTINUOUS
 62
256
 10
-333.703546362650970
 20
-143.047306305611980
 40
8.499999999999814
 50
173.578178478202570
 51
186.421821521800520
  0
ARC
  8
0
  6
CONTINUOUS
 62
256
 10
-343.640800295844430
 20
-144.165780385430480
 40
1.499999999999926
 50
300.000000000001590
 51
6.421821521801724
  0
LINE
  8
0
  6
CONTINUOUS
 62
256
 10
-345.665689005464860
 20
-147.066901234577470
 11
-342.890800295844430
 21
-145.464818491107050
  0
ARC
  8
0
  6
CONTINUOUS
 62
256
 10
-346.415689005464860
 20
-145.767863128900900
 40
1.500000000000287
 50
192.079786860609570
 51
300.000000000001310
  0
ARC
  8
0
  6
CONTINUOUS
 62
256
 10
-333.703546362650290
 20
-143.047306305611980
 40
24.000000000000139
 50
340.240348321186050
 51
19.759651678813920
  0
ARC
  8
0
  6
CONTINUOUS
 62
256
 10
-312.528367093605770
 20
-135.440613008007400
 40
1.500000000000246
 50
19.759651678811821
 51
120.000000000001850
  0
LINE
  8
0
  6
CONTINUOUS
 62
256
 10
-315.925161686584720
 20
-135.669702473077000
 11
-313.278367093605770
 21
-134.141574902330830
  0
ARC
  8
0
  6
CONTINUOUS
 62
256
 10
-315.175161686584720
 20
-136.968740578753570
 40
1.499999999999926
 50
120.000000000001620
 51
198.162995844104900
  0
ARC
  8
0
  6
CONTINUOUS
 62
256
 10
-333.703546362650290
 20
-143.047306305611980
 40
17.999999999999943
 50
341.837004155893340
 51
18.162995844106639
  0
ARC
  8
0
  6
CONTINUOUS
 62
256
 10
-315.175161686584720
 20
-149.125872032470400
 40
1.500000000000038
 50
161.837004155895410
 51
240.000000000005940
  0
LINE
  8
0
  6
CONTINUOUS
 62
256
 10
-313.278367093605770
 20
-151.953037708893130
 11
-315.925161686584720
 21
-150.424910138147420
  0
ARC
  8
0
  6
CONTINUOUS
 62
256
 10
-312.528367093605770
 20
-150.653999603216560
 40
1.499999999999926
 50
239.999999999998410
 51
340.240348321188610
  0
ARC
  8
0
  6
CONTINUOUS
 62
256
 10
-333.703546362650290
 20
-143.047306305611980
 40
14.500000000000163
 50
347.920213139391360
 51
12.079786860606996
  0
ARC
  8
0
  6
CONTINUOUS
 62
256
 10
-320.991403719836170
 20
-140.326749482323070
 40
1.500000000000192
 50
12.079786860592611
 51
120.000000000001070
  0
LINE
  8
0
  6
CONTINUOUS
 62
256
 10
-324.516292429456600
 20
-140.629794120117370
 11
-321.741403719836170
 21
-139.027711376646490
  0
ARC
  8
0
  6
CONTINUOUS
 62
256
 10
-323.766292429456600
 20
-141.928832225793940
 40
1.499999999999926
 50
120.000000000001620
 51
186.421821521800640
  0
ARC
  8
0
  6
CONTINUOUS
 62
256
 10
-333.703546362650290
 20
-143.047306305611980
 40
8.499999999999865
 50
353.578178478199500
 51
6.421821521797406
  0
ARC
  8
0
  6
CONTINUOUS
 62
256
 10
-323.766292429456600
 20
-144.165780385430480
 40
1.500000000000099
 50
173.578178478198990
 51
239.999999999997270
  0
LINE
  8
0
  6
CONTINUOUS
 62
256
 10
-321.741403719836170
 20
-147.066901234577470
 11
-324.516292429456600
 21
-145.464818491107050
  0
ARC
  8
0
  6
CONTINUOUS
 62
256
 10
-320.991403719836170
 20
-145.767863128900900
 40
1.499999999999926
 50
239.999999999998410
 51
347.920213139390850
  0
ARC
  8
0
  6
CONTINUOUS
 62
256
 10
-333.703546362650290
 20
-143.047306305611980
 40
8.500000000000101
 50
53.578178478202645
 51
66.421821521799046
  0
ARC
  8
0
  6
CONTINUOUS
 62
256
 10
-333.703546362650290
 20
-143.047306305611980
 40
23.999999999999819
 50
40.240348321186090
 51
79.759651678814294
  0
LINE
  8
0
  6
CONTINUOUS
 62
256
 10
-327.016292429456600
 20
-136.299667101195150
 11
-324.241403719836170
 21
-134.697584357724280
  0
LINE
  8
0
  6
CONTINUOUS
 62
256
 10
-331.203546362650510
 20
-120.905716480127470
 11
-331.203546362650510
 21
-123.961971621619800
  0
LINE
  8
0
  6
CONTINUOUS
 62
256
 10
-331.203546362650510
 20
-130.677989428759020
 11
-331.203546362650510
 21
-133.882154915700080
  0
ARC
  8
0
  6
CONTINUOUS
 62
256
 10
-333.703546362650290
 20
-143.047306305611980
 40
14.499999999999860
 50
47.920213139391755
 51
72.079786860608294
  0
LINE
  8
0
  6
CONTINUOUS
 62
256
 10
-318.425161686584720
 20
-131.339575454154780
 11
-315.778367093605770
 21
-129.811447883408620
  0
ARC
  8
0
  6
CONTINUOUS
 62
256
 10
-324.991403719836170
 20
-133.398546252047710
 40
1.499999999999926
 50
300.000000000001590
 51
47.920213139381872
  0
ARC
  8
0
  6
CONTINUOUS
 62
256
 10
-329.703546362650510
 20
-120.905716480127470
 40
1.499999999999952
 50
79.759651678814038
 51
180.000000000000000
  0
ARC
  8
0
  6
CONTINUOUS
 62
256
 10
-319.175161686584720
 20
-130.040537348478210
 40
1.499999999999967
 50
221.837004155893250
 51
300.000000000001080
  0
ARC
  8
0
  6
CONTINUOUS
 62
256
 10
-329.703546362650510
 20
-123.961971621619800
 40
1.500000000000000
 50
180.000000000000000
 51
258.162995844103650
  0
ARC
  8
0
  6
CONTINUOUS
 62
256
 10
-329.703546362650510
 20
-130.677989428759020
 40
1.500000000000138
 50
72.079786860605211
 51
180.000000000000000
  0
ARC
  8
0
  6
CONTINUOUS
 62
256
 10
-316.528367093605770
 20
-128.512409777732050
 40
1.499999999999926
 50
300.000000000001590
 51
40.240348321183539
  0
ARC
  8
0
  6
CONTINUOUS
 62
256
 10
-329.703546362650510
 20
-133.882154915700080
 40
1.500000000000000
 50
180.000000000000000
 51
246.421821521804530
  0
ARC
  8
0
  6
CONTINUOUS
 62
256
 10
-327.766292429456600
 20
-135.000628995518580
 40
1.499999999999693
 50
233.578178478195380
 51
300.000000000001650
  0
CIRCLE
  8
0
  6
CONTINUOUS
 62
256
 10
-333.703546362650510
 20
-143.047306305611980
 40
5.000000000000000
  0
ARC
  8
0
  6
CONTINUOUS
 62
256
 10
-310.828860434984790
 20
-125.221798074129310
 40
1.499999999999843
 50
217.928141766204960
 51
300.000000000001080
  0
LINE
  8
0
  6
CONTINUOUS
 62
256
 10
-310.078860434984790
 20
-126.520836179805880
 11
-307.458092192915960
 21
-125.007734929763710
  0
ARC
  8
0
  6
CONTINUOUS
 62
256
 10
-329.703546362650510
 20
-114.324493072922000
 40
1.500000000000000
 50
180.000000000000000
 51
262.071858233795980
  0
ARC
  8
0
  6
CONTINUOUS
 62
256
 10
-333.703546362650290
 20
-143.047306305611980
 40
27.500000000000060
 50
37.928141766201819
 51
82.071858233798267
  0
ARC
  8
0
  6
CONTINUOUS
 62
256
 10
-308.208092192915960
 20
-123.708696824087160
 40
1.499999999999926
 50
300.000000000001590
 51
37.180755781456647
  0
ARC
  8
0
  6
CONTINUOUS
 62
256
 10
-302.542009908499720
 20
-120.437382691928860
 40
1.500000000000102
 50
215.963570118316280
 51
299.999999999997500
  0
ARC
  8
0
  6
CONTINUOUS
 62
256
 10
-333.703546362650970
 20
-143.047306305612440
 40
36.999999999999943
 50
35.963570118321186
 51
84.036429881678188
  0
ARC
  8
0
  6
CONTINUOUS
 62
256
 10
-333.703546362650970
 20
-143.047306305612440
 40
33.500000000000071
 50
37.180755781458252
 51
82.819244218540945
  0
LINE
  8
0
  6
CONTINUOUS
 62
256
 10
-307.578860434984560
 20
-130.850963198728550
 11
-304.958092192915730
 21
-129.337861948686400
  0
ARC
  8
0
  6
CONTINUOUS
 62
256
 10
-304.208092192915730
 20
-130.636900054363200
 40
1.499999999999948
 50
22.819244218550036
 51
119.999999999996250
  0
ARC
  8
0
  6
CONTINUOUS
 62
256
 10
-306.828860434984560
 20
-132.150001304405120
 40
1.499999999999926
 50
120.000000000001620
 51
202.071858233797800
  0
ARC
  8
0
  6
CONTINUOUS
 62
256
 10
-333.703546362650060
 20
-143.047306305612440
 40
27.499999999999886
 50
337.928141766202200
 51
22.071858233797808
  0
ARC
  8
0
  6
CONTINUOUS
 62
256
 10
-333.703546362650740
 20
-143.047306305612890
 40
33.500000000000142
 50
337.180755781459030
 51
22.819244218541950
  0
ARC
  8
0
  6
CONTINUOUS
 62
256
 10
-306.828860434984790
 20
-153.944611306819750
 40
1.499999999999899
 50
157.928141766199360
 51
240.000000000007500
  0
LINE
  8
0
  6
CONTINUOUS
 62
256
 10
-304.958092192915500
 20
-156.756750662538710
 11
-307.578860434984790
 21
-155.243649412496780
  0
ARC
  8
0
  6
CONTINUOUS
 62
256
 10
-304.208092192915500
 20
-155.457712556862130
 40
1.499999999999926
 50
239.999999999998410
 51
337.180755781453000
  0
ARC
  8
0
  6
CONTINUOUS
 62
256
 10
-329.703546362650290
 20
-184.354085410257540
 40
1.500000000000000
 50
180.000000000000000
 51
275.531071524830680
  0
LINE
  8
0
  6
CONTINUOUS
 62
256
 10
-331.203546362650290
 20
-181.338950302703320
 11
-331.203546362650290
 21
-184.354085410257540
  0
LINE
  8
0
  6
CONTINUOUS
 62
256
 10
-331.203546362650290
 20
-171.770119538302880
 11
-331.203546362650290
 21
-174.796322038387190
  0
ARC
  8
0
  6
CONTINUOUS
 62
256
 10
-329.703546362650290
 20
-181.338950302703780
 40
1.500000000000182
 50
95.963570118326047
 51
179.999999999982630
  0
ARC
  8
0
  6
CONTINUOUS
 62
256
 10
-329.703546362650290
 20
-174.796322038387190
 40
1.500000000000000
 50
180.000000000000000
 51
277.180755781458290
  0
ARC
  8
0
  6
CONTINUOUS
 62
256
 10
-329.703546362650290
 20
-171.770119538302880
 40
1.499999999999967
 50
97.928141766195438
 51
180.000000000000000
  0
ARC
  8
0
  6
CONTINUOUS
 62
256
 10
-333.703546362650290
 20
-143.047306305612890
 40
27.499999999999879
 50
277.928141766202600
 51
322.071858233798880
  0
ARC
  8
0
  6
CONTINUOUS
 62
256
 10
-333.703546362650290
 20
-143.047306305611980
 40
37.000000000000028
 50
275.963570118320770
 51
324.036429881678030
  0
ARC
  8
0
  6
CONTINUOUS
 62
256
 10
-333.703546362650290
 20
-143.047306305611980
 40
43.000000000000199
 50
275.531071524838860
 51
324.468928475160340
  0
ARC
  8
0
  6
CONTINUOUS
 62
256
 10
-333.703546362650290
 20
-143.047306305611980
 40
33.500000000000114
 50
277.180755781458230
 51
322.819244218540860
  0
ARC
  8
0
  6
CONTINUOUS
 62
256
 10
-310.828860434984790
 20
-160.872814537095560
 40
1.500000000000320
 50
60.000000000007056
 51
142.071858233781910
  0
ARC
  8
0
  6
CONTINUOUS
 62
256
 10
-302.542009908499270
 20
-165.657229919295790
 40
1.499999999999926
 50
59.999999999998380
 51
144.036429881690370
  0
LINE
  8
0
  6
CONTINUOUS
 62
256
 10
-307.458092192915500
 20
-161.086877681460920
 11
-310.078860434984790
 21
-159.573776431418540
  0
ARC
  8
0
  6
CONTINUOUS
 62
256
 10
-308.208092192915500
 20
-162.385915787137490
 40
1.500000000000240
 50
322.819244218535570
 51
59.999999999998167
  0
ARC
  8
0
  6
CONTINUOUS
 62
256
 10
-337.703546362650740
 20
-184.354085410257540
 40
1.500000000000430
 50
264.468928475160000
 51
0.000000000000000
  0
LINE
  8
0
  6
CONTINUOUS
 62
256
 10
-336.203546362650740
 20
-181.338950302703320
 11
-336.203546362650740
 21
-184.354085410257540
  0
LINE
  8
0
  6
CONTINUOUS
 62
256
 10
-336.203546362650740
 20
-171.770119538302880
 11
-336.203546362650740
 21
-174.796322038387190
  0
ARC
  8
0
  6
CONTINUOUS
 62
256
 10
-337.703546362650740
 20
-181.338950302703780
 40
1.500000000000000
 50
0.000000000017370
 51
84.036429881681926
  0
ARC
  8
0
  6
CONTINUOUS
 62
256
 10
-337.703546362650740
 20
-174.796322038387190
 40
1.499999999999998
 50
262.819244218541710
 51
0.000000000000000
  0
ARC
  8
0
  6
CONTINUOUS
 62
256
 10
-337.703546362650740
 20
-171.770119538302880
 40
1.500000000000000
 50
0.000000000000000
 51
82.071858233804718
  0
ARC
  8
0
  6
CONTINUOUS
 62
256
 10
-333.703546362650740
 20
-143.047306305612890
 40
27.499999999999780
 50
217.928141766201070
 51
262.071858233797340
  0
ARC
  8
0
  6
CONTINUOUS
 62
256
 10
-333.703546362650740
 20
-143.047306305611980
 40
37.000000000000021
 50
215.963570118321940
 51
264.036429881678880
  0
ARC
  8
0
  6
CONTINUOUS
 62
256
 10
-333.703546362650740
 20
-143.047306305611980
 40
42.999999999999872
 50
215.531071524839690
 51
264.468928475160790
  0
ARC
  8
0
  6
CONTINUOUS
 62
256
 10
-333.703546362650740
 20
-143.047306305611980
 40
33.500000000000163
 50
217.180755781459080
 51
262.819244218541770
  0
ARC
  8
0
  6
CONTINUOUS
 62
256
 10
-356.578232290316240
 20
-160.872814537095560
 40
1.500000000000122
 50
37.928141766218694
 51
119.999999999992440
  0
ARC
  8
0
  6
CONTINUOUS
 62
256
 10
-367.476266415785860
 20
-167.164797473073120
 40
1.499999999999926
 50
120.000000000001620
 51
215.531071524832610
  0
LINE
  8
0
  6
CONTINUOUS
 62
256
 10
-368.226266415785860
 20
-165.865759367396550
 11
-365.615082816801760
 21
-164.358191813619210
  0
ARC
  8
0
  6
CONTINUOUS
 62
256
 10
-364.865082816801760
 20
-165.657229919295790
 40
1.499999999999968
 50
35.963570118309242
 51
120.000000000001080
  0
LINE
  8
0
  6
CONTINUOUS
 62
256
 10
-359.949000532385530
 20
-161.086877681460920
 11
-357.328232290316240
 21
-159.573776431418540
  0
ARC
  8
0
  6
CONTINUOUS
 62
256
 10
-359.199000532385530
 20
-162.385915787137490
 40
1.499999999999926
 50
120.000000000001620
 51
217.180755781463600
  0
ARC
  8
0
  6
CONTINUOUS
 62
256
 10
-371.476266415785860
 20
-125.858018368427790
 40
1.499999999999926
 50
59.999999999998380
 51
155.531071524840120
  0
LINE
  8
0
  6
CONTINUOUS
 62
256
 10
-368.115082816801300
 20
-126.066547816528310
 11
-370.726266415785860
 21
-124.558980262751220
  0
LINE
  8
0
  6
CONTINUOUS
 62
256
 10
-359.828232290316460
 20
-130.850963198728550
 11
-362.449000532385300
 21
-129.337861948686400
  0
ARC
  8
0
  6
CONTINUOUS
 62
256
 10
-368.865082816801530
 20
-127.365585922204900
 40
1.499999999999855
 50
335.963570118319300
 51
59.999999999991623
  0
ARC
  8
0
  6
CONTINUOUS
 62
256
 10
-363.199000532385300
 20
-130.636900054363200
 40
1.500000000000123
 50
60.000000000002721
 51
157.180755781457350
  0
ARC
  8
0
  6
CONTINUOUS
 62
256
 10
-360.578232290316460
 20
-132.150001304405120
 40
1.500000000000110
 50
337.928141766202660
 51
59.999999999997868
  0
ARC
  8
0
  6
CONTINUOUS
 62
256
 10
-333.703546362650970
 20
-143.047306305612440
 40
27.499999999999886
 50
157.928141766202200
 51
202.071858233798710
  0
ARC
  8
0
  6
CONTINUOUS
 62
256
 10
-333.703546362650290
 20
-143.047306305612890
 40
37.000000000000156
 50
155.963570118321120
 51
204.036429881678230
  0
ARC
  8
0
  6
CONTINUOUS
 62
256
 10
-333.703546362650290
 20
-143.047306305612890
 40
43.000000000000121
 50
155.531071524839230
 51
204.468928475160170
  0
ARC
  8
0
  6
CONTINUOUS
 62
256
 10
-333.703546362650290
 20
-143.047306305612890
 40
33.499999999999794
 50
157.180755781458400
 51
202.819244218540890
  0
ARC
  8
0
  6
CONTINUOUS
 62
256
 10
-360.578232290316240
 20
-153.944611306819750
 40
1.500000000000320
 50
299.999999999992950
 51
22.071858233784432
  0
ARC
  8
0
  6
CONTINUOUS
 62
256
 10
-371.476266415785860
 20
-160.236594242797310
 40
1.500000000000128
 50
204.468928475167470
 51
299.999999999992440
  0
LINE
  8
0
  6
CONTINUOUS
 62
256
 10
-370.726266415785860
 20
-161.535632348474340
 11
-368.115082816801760
 21
-160.028064794697000
  0
ARC
  8
0
  6
CONTINUOUS
 62
256
 10
-368.865082816801760
 20
-158.729026689020430
 40
1.499999999999926
 50
300.000000000001590
 51
24.036429881676909
  0
LINE
  8
0
  6
CONTINUOUS
 62
256
 10
-362.449000532385530
 20
-156.756750662538710
 11
-359.828232290316240
 21
-155.243649412496780
  0
ARC
  8
0
  6
CONTINUOUS
 62
256
 10
-363.199000532385530
 20
-155.457712556862130
 40
1.500000000000157
 50
202.819244218546660
 51
300.000000000001590
  0
ARC
  8
0
  6
CONTINUOUS
 62
256
 10
-367.476266415785400
 20
-118.929815138151750
 40
1.499999999999976
 50
144.468928475160820
 51
240.000000000002160
  0
LINE
  8
0
  6
CONTINUOUS
 62
256
 10
-365.615082816801300
 20
-121.736420797605660
 11
-368.226266415785400
 21
-120.228853243828550
  0
LINE
  8
0
  6
CONTINUOUS
 62
256
 10
-357.328232290316240
 20
-126.520836179805880
 11
-359.949000532385070
 21
-125.007734929763710
  0
ARC
  8
0
  6
CONTINUOUS
 62
256
 10
-364.865082816801300
 20
-120.437382691928860
 40
1.500000000000123
 50
240.000000000002670
 51
324.036429881683320
  0
ARC
  8
0
  6
CONTINUOUS
 62
256
 10
-359.199000532385070
 20
-123.708696824087160
 40
1.500000000000103
 50
142.819244218542540
 51
239.999999999997580
  0
ARC
  8
0
  6
CONTINUOUS
 62
256
 10
-356.578232290316240
 20
-125.221798074129310
 40
1.499999999999926
 50
239.999999999998410
 51
322.071858233800750
  0
ARC
  8
0
  6
CONTINUOUS
 62
256
 10
-333.703546362650060
 20
-143.047306305612440
 40
37.000000000000099
 50
95.963570118321798
 51
144.036429881678830
  0
ARC
  8
0
  6
CONTINUOUS
 62
256
 10
-333.703546362650060
 20
-143.047306305612440
 40
43.000000000000043
 50
95.531071524839788
 51
144.468928475160770
  0
ARC
  8
0
  6
CONTINUOUS
 62
256
 10
-333.703546362650060
 20
-143.047306305612440
 40
33.499999999999950
 50
97.180755781459084
 51
142.819244218541710
  0
ARC
  8
0
  6
CONTINUOUS
 62
256
 10
-337.703546362650510
 20
-114.324493072922000
 40
1.499999999999998
 50
277.928141766204020
 51
0.000000000000000
  0
ARC
  8
0
  6
CONTINUOUS
 62
256
 10
-377.652133792933000
 20
-92.950691838084140
 40
6.599999999999971
 50
98.597082237248614
 51
134.999999999998520
  0
ARC
  8
0
  6
CONTINUOUS
 62
256
 10
-372.645064318032610
 20
-102.938528765025690
 40
5.999999999999923
 50
97.897988672425626
 51
134.999999999996730
  0
ARC
  8
0
  6
CONTINUOUS
 62
256
 10
-333.703546362650510
 20
-383.647306305612350
 40
289.396999999999930
 50
90.000000000000000
 51
97.897988672427743
  0
LINE
  8
0
  6
CONTINUOUS
 62
256
 10
-136.023528093313980
 20
96.452693694387563
 11
-72.610763648509874
 21
96.452693694387563
  0
LINE
  8
0
  6
CONTINUOUS
 62
256
 10
-72.610763648509874
 20
96.452693694387563
 11
-72.610763648509874
 21
97.452693694387563
  0
LINE
  8
0
  6
CONTINUOUS
 62
256
 10
-141.860763648509870
 20
89.452693694387563
 11
-141.860763648509870
 21
95.291512669064559
  0
LINE
  8
0
  6
CONTINUOUS
 62
256
 10
-76.860763648509760
 20
89.452693694387563
 11
-76.860763648509874
 21
96.452693694387563
  0
LINE
  8
0
  6
CONTINUOUS
 62
256
 10
-141.860763648509870
 20
89.452693694387563
 11
-76.860763648509760
 21
89.452693694387563
  0
LINE
  8
0
  6
CONTINUOUS
 62
256
 10
-137.523439413689860
 20
95.452693694387563
 11
-76.860763648509760
 21
95.452693694387563
  0
LINE
  8
0
  6
CONTINUOUS
 62
256
 10
-141.860763648509870
 20
93.452693694387563
 11
-76.860763648509760
 21
93.452693694387563
  0
LINE
  8
0
  6
DASHDOT
 62
256
 10
-109.360763648509870
 20
95.286407030540317
 11
-109.360763648509870
 21
33.223993513904134
  0
LINE
  8
0
  6
CONTINUOUS
 62
256
 10
-144.810763648508780
 20
38.278868314603642
 11
-112.418019854406110
 21
38.278868314603642
  0
LINE
  8
0
  6
CONTINUOUS
 62
256
 10
-144.810763648508780
 20
87.147257634651965
 11
-73.910763648511079
 21
87.147257634651851
  0
LINE
  8
0
  6
CONTINUOUS
 62
256
 10
-144.810763648508780
 20
83.675784895605148
 11
-73.910763648511079
 21
83.675784895605148
  0
LINE
  8
0
  6
CONTINUOUS
 62
256
 10
-62.910763648511079
 20
76.147257634651851
 11
-62.910763648511079
 21
49.278868314603642
  0
LINE
  8
0
  6
CONTINUOUS
 62
256
 10
-155.810763648508780
 20
76.147257634652078
 11
-155.810763648508780
 21
49.278868314603642
  0
LINE
  8
0
  6
CONTINUOUS
 62
256
 10
-69.310763648510715
 20
46.252693694387517
 11
-69.310763648510715
 21
75.828628394074258
  0
LINE
  8
0
  6
CONTINUOUS
 62
256
 10
-149.410763648509150
 20
46.252693694387517
 11
-149.410763648509150
 21
75.828628394074485
  0
LINE
  8
0
  6
CONTINUOUS
 62
256
 10
-144.410763648509150
 20
80.828628394074371
 11
-74.310763648510715
 21
80.828628394074258
  0
ARC
  8
0
  6
CONTINUOUS
 62
256
 10
-74.310763648510715
 20
75.828628394074258
 40
5.000000000000000
 50
0.000000000000000
 51
90.000000000000000
  0
ARC
  8
0
  6
CONTINUOUS
 62
256
 10
-144.410763648509150
 20
75.828628394074485
 40
4.999999999999886
 50
90.000000000000000
 51
180.000000000000000
  0
ARC
  8
0
  6
CONTINUOUS
 62
256
 10
-73.910763648511079
 20
49.278868314603642
 40
11.000000000000000
 50
270.000000000000000
 51
0.000000000000000
  0
ARC
  8
0
  6
CONTINUOUS
 62
256
 10
-144.810763648508780
 20
49.278868314603642
 40
11.000000000000000
 50
180.000000000000000
 51
270.000000000000000
  0
LINE
  8
0
  6
CONTINUOUS
 62
256
 10
-143.610763648509420
 20
40.452693694387563
 11
-75.110763648510670
 21
40.452693694387563
  0
ARC
  8
0
  6
CONTINUOUS
 62
256
 10
-75.110763648510670
 20
46.252693694387517
 40
5.799999999999955
 50
270.000000000000000
 51
0.000000000000000
  0
ARC
  8
0
  6
CONTINUOUS
 62
256
 10
-143.610763648509420
 20
46.252693694387517
 40
5.799999999999727
 50
180.000000000000000
 51
270.000000000000000
  0
ARC
  8
0
  6
CONTINUOUS
 62
256
 10
-73.910763648511079
 20
72.675784895605148
 40
11.000000000000000
 50
0.000000000000000
 51
90.000000000000000
  0
ARC
  8
0
  6
CONTINUOUS
 62
256
 10
-73.910763648511079
 20
76.147257634651851
 40
11.000000000000000
 50
0.000000000000000
 51
90.000000000000000
  0
ARC
  8
0
  6
CONTINUOUS
 62
256
 10
-144.810763648508780
 20
72.675784895605148
 40
11.000000000000000
 50
90.000000000000000
 51
180.000000000000000
  0
ARC
  8
0
  6
CONTINUOUS
 62
256
 10
-144.810763648508780
 20
76.147257634652078
 40
10.999999999999886
 50
90.000000000000000
 51
180.000000000000000
  0
LINE
  8
0
  6
CONTINUOUS
 62
256
 10
-130.411398743120120
 20
39.652693694387608
 11
-88.710128553899722
 21
39.652693694387608
  0
ARC
  8
0
  6
CONTINUOUS
 62
256
 10
-88.710128553899722
 20
40.652693694387608
 40
1.000000000000000
 50
270.000000000000000
 51
323.130102354140380
  0
ARC
  8
0
  6
CONTINUOUS
 62
256
 10
-87.110128553899813
 20
39.452693694387563
 40
1.000000000000000
 50
90.000000000000000
 51
143.130102354166580
  0
ARC
  8
0
  6
CONTINUOUS
 62
256
 10
-132.011398743120030
 20
39.452693694387563
 40
0.999999999999727
 50
36.869897645849228
 51
90.000000000000000
  0
ARC
  8
0
  6
CONTINUOUS
 62
256
 10
-130.411398743120120
 20
40.652693694387608
 40
1.000000000000227
 50
216.869897645844020
 51
270.000000000000000
  0
LINE
  8
0
  6
CONTINUOUS
 62
256
 10
-143.160763648510060
 20
88.452693694387563
 11
-75.560763648510033
 21
88.452693694387449
  0
ARC
  8
0
  6
CONTINUOUS
 62
256
 10
-75.560763648510033
 20
83.452693694387449
 40
5.000000000000008
 50
44.925956400534652
 51
90.000000000000000
  0
ARC
  8
0
  6
CONTINUOUS
 62
256
 10
-143.160763648510060
 20
83.452693694387563
 40
5.000000000000000
 50
90.000000000000000
 51
135.074043599465340
  0
LINE
  8
0
  6
CONTINUOUS
 62
256
 10
-78.360763648509987
 20
89.452693694387449
 11
-78.360763648509987
 21
88.452693694387449
  0
LINE
  8
0
  6
CONTINUOUS
 62
256
 10
-140.360763648509870
 20
89.452693694387563
 11
-140.360763648509870
 21
88.452693694387563
  0
LINE
  8
0
  6
DASHDOT
 62
256
 10
-132.184395279821730
 20
64.452693694387563
 11
-87.896677241423276
 21
64.452693694387563
  0
CIRCLE
  8
0
  6
DASHED
 62
256
 10
-109.360763648509870
 20
64.452693694387335
 40
13.500000000000000
  0
ARC
  8
0
  6
CONTINUOUS
 62
256
 10
-111.560764411449330
 20
39.256166182133711
 40
1.299999237060699
 50
162.240552086452960
 51
253.398468892505430
  0
ARC
  8
0
  6
CONTINUOUS
 62
256
 10
-109.360763648509870
 20
46.635191104981459
 40
8.999999999999858
 50
253.398468892518050
 51
286.601548410325050
  0
ARC
  8
0
  6
CONTINUOUS
 62
256
 10
-107.160762885570420
 20
39.256166182133711
 40
1.299999237060352
 50
286.601548410324710
 51
17.759447913550026
  0
LINE
  8
0
  6
CONTINUOUS
 62
256
 10
-106.303507442613860
 20
38.278868314603642
 11
-73.910763648511079
 21
38.278868314603642
  0
LINE
  8
0
  6
CONTINUOUS
 62
256
 10
-270.203546362650510
 20
-175.652049991889160
 11
-267.177369414342590
 21
-175.572806759666320
  0
ARC
  8
0
  6
CONTINUOUS
 62
256
 10
-267.203546362650510
 20
-174.573149434690780
 40
0.999999999999988
 50
271.500000000002730
 51
0.000000000000000
  0
ARC
  8
0
  6
CONTINUOUS
 62
256
 10
-267.203546362650510
 20
-111.521463176534080
 40
1.000000000000000
 50
0.000000000000000
 51
88.499999999997286
  0
LINE
  8
0
  6
CONTINUOUS
 62
256
 10
-266.203546362650510
 20
-174.573149434690780
 11
-266.203546362650510
 21
-111.521463176534080
  0
LINE
  8
0
  6
CONTINUOUS
 62
256
 10
-270.203546362650510
 20
-110.442562619335700
 11
-267.177369414342590
 21
-110.521805851558550
  0
LINE
  8
0
  6
CONTINUOUS
 62
256
 10
-270.203546362650510
 20
-113.054807243345640
 11
-270.203546362650510
 21
-110.442562619335700
  0
LINE
  8
0
  6
CONTINUOUS
 62
256
 10
-270.203546362650510
 20
-173.039805367879240
 11
-270.203546362650510
 21
-175.652049991889160
  0
LINE
  8
0
  6
CONTINUOUS
 62
256
 10
-266.203546362650510
 20
-143.047306305612440
 11
-266.203546362650510
 21
-112.047306305612420
  0
LINE
  8
0
  6
CONTINUOUS
 62
256
 10
-266.203546362650510
 20
-143.047306305612440
 11
-266.203546362650510
 21
-174.047306305612440
  0
ARC
  8
0
  6
CONTINUOUS
 62
256
 10
-260.933446378435060
 20
-101.470980765725020
 40
1.000000000000041
 50
24.000000000003581
 51
113.999999999978780
  0
LINE
  8
0
  6
CONTINUOUS
 62
256
 10
-220.275605333030400
 20
-199.674048240863840
 11
-224.112496255129370
 21
-201.382342141782150
  0
LINE
  8
0
  6
CONTINUOUS
 62
256
 10
-221.617836255180920
 20
-196.659348230643220
 11
-225.454727177279660
 21
-198.367642131561520
  0
LINE
  8
0
  6
CONTINUOUS
 62
256
 10
-225.277344092181240
 20
-197.905543396310120
 11
-225.454727177279660
 21
-198.367642131561520
  0
LINE
  8
0
  6
CONTINUOUS
 62
256
 10
-223.650397519878200
 20
-201.559725226880120
 11
-224.112496255129600
 21
-201.382342141781690
  0
LINE
  8
0
  6
CONTINUOUS
 62
256
 10
-225.454727177279660
 20
-198.367642131561520
 11
-224.112496255129600
 21
-201.382342141781690
  0
POINT
  8
0
  6
CONTINUOUS
 62
256
 10
-217.475248055063730
 20
-196.621098992065300
  0
LINE
  8
0
  6
CONTINUOUS
 62
256
 10
-218.898826305829290
 20
-193.423689890316150
 11
-216.051669804298400
 21
-199.818508093814440
  0
LINE
  8
0
  6
CONTINUOUS
 62
256
 10
-218.898826305829290
 20
-193.423689890316150
 11
-216.051669804298400
 21
-199.818508093814440
  0
LINE
  8
0
  6
CONTINUOUS
 62
256
 10
-216.051669804298400
 20
-199.818508093814440
 11
-215.157285684621910
 21
-199.420302628049970
  0
LINE
  8
0
  6
CONTINUOUS
 62
256
 10
-218.898826305829290
 20
-193.423689890316150
 11
-218.004442186152800
 21
-193.025484424551910
  0
ARC
  8
0
  6
CONTINUOUS
 62
256
 10
-217.475684860469760
 20
-194.213092822507410
 40
1.299999237060495
 50
40.601531107483844
 51
114.000000683245840
  0
LINE
  8
0
  6
CONTINUOUS
 62
256
 10
-263.144117363497800
 20
-103.389793777891310
 11
-263.568949523243870
 21
-104.390635626506760
  0
LINE
  8
0
  6
CONTINUOUS
 62
256
 10
-262.699203618287810
 20
-104.389086410848680
 11
-262.832545640481840
 21
-104.703220529298050
  0
LINE
  8
0
  6
CONTINUOUS
 62
256
 10
-263.568949523243870
 20
-104.390635626506760
 11
-262.832545640481840
 21
-104.703220529298050
  0
LINE
  8
0
  6
CONTINUOUS
 62
256
 10
-260.019900920792450
 20
-101.064244122649140
 11
-241.327837339843650
 21
-143.047306305612440
  0
ARC
  8
0
  6
CONTINUOUS
 62
256
 10
-255.496985098997130
 20
-103.847099376951500
 40
3.000000000000030
 50
203.999999999999600
 51
260.681876880317530
  0
LINE
  8
0
  6
CONTINUOUS
 62
256
 10
-255.982732989435820
 20
-106.807513028273660
 11
-230.027095895899720
 21
-111.066342181266690
  0
ARC
  8
0
  6
CONTINUOUS
 62
256
 10
-232.455835348091340
 20
-125.868410437877610
 40
15.000000000000393
 50
1.682768801133086
 51
80.681876880324495
  0
ARC
  8
0
  6
CONTINUOUS
 62
256
 10
-817.203546362650510
 20
-143.047306305612660
 40
600.000000000001020
 50
355.284875165908370
 51
1.682768801133149
  0
ARC
  8
0
  6
CONTINUOUS
 62
256
 10
-218.237497370338820
 20
-192.450465663499020
 40
0.999999999999983
 50
175.284875165916760
 51
204.000000000003410
  0
LINE
  8
0
  6
CONTINUOUS
 62
256
 10
-261.340183021510480
 20
-100.557435308082400
 11
-263.898110302909800
 21
-101.696297908694530
  0
LINE
  8
0
  6
CONTINUOUS
 62
256
 10
-261.620385101690090
 20
-106.812152471495420
 11
-263.423756291876770
 21
-107.615065055625560
  0
ARC
  8
0
  6
CONTINUOUS
 62
256
 10
-262.203546362650510
 20
-110.355701428553400
 40
2.999999999999568
 50
113.999999999979780
 51
180.000000000000000
  0
LINE
  8
0
  6
CONTINUOUS
 62
256
 10
-266.203546362650510
 20
-112.047306305612420
 11
-265.203546362650510
 21
-112.047306305612420
  0
ARC
  8
0
  6
CONTINUOUS
 62
256
 10
-260.203546362650510
 20
-184.547306305612440
 40
5.000000000000000
 50
180.000000000000000
 51
270.000000000000000
  0
LINE
  8
0
  6
CONTINUOUS
 62
256
 10
-260.203546362650510
 20
-189.547306305612440
 11
-224.784321331321730
 21
-189.547306305612440
  0
LINE
  8
0
  6
CONTINUOUS
 62
256
 10
-215.622984339790260
 20
-203.239944747110710
 11
-218.180911621190030
 21
-204.378807347722840
  0
ARC
  8
0
  6
CONTINUOUS
 62
256
 10
-216.029720982866590
 20
-202.326399289468100
 40
1.000000000000226
 50
294.000000000027340
 51
23.999999999991669
  0
LINE
  8
0
  6
CONTINUOUS
 62
256
 10
-241.327837339846840
 20
-143.047306305612440
 11
-215.116175525223980
 21
-201.919662646392450
  0
ARC
  8
0
  6
CONTINUOUS
 62
256
 10
-219.408859098952010
 20
-189.819544145491140
 40
0.999999999999856
 50
113.999999999979780
 51
204.000000000003100
  0
ARC
  8
0
  6
CONTINUOUS
 62
256
 10
-220.833532766231430
 20
-187.169940893849570
 40
2.000000000000451
 50
294.000000000027340
 51
355.768661925113630
  0
LINE
  8
0
  6
CONTINUOUS
 62
256
 10
-221.760194080257410
 20
-196.339607320468300
 11
-225.277344092181240
 21
-197.905543396310120
  0
LINE
  8
0
  6
CONTINUOUS
 62
256
 10
-220.133247507954140
 20
-199.993789151038300
 11
-223.650397519878200
 21
-201.559725226880120
  0
LINE
  8
0
  6
CONTINUOUS
 62
256
 10
-266.203546362650510
 20
-174.047306305612440
 11
-265.203546362650510
 21
-174.047306305612440
  0
LINE
  8
0
  6
CONTINUOUS
 62
256
 10
-265.203546362650510
 20
-110.355701428553400
 11
-265.203546362650510
 21
-184.547306305612440
  0
ARC
  8
0
  6
CONTINUOUS
 62
256
 10
-817.203546362650510
 20
-143.047306305612660
 40
600.799999999999950
 50
357.158610984636650
 51
0.587807867706885
  0
ARC
  8
0
  6
CONTINUOUS
 62
256
 10
-218.140947133865890
 20
-172.780153549906340
 40
1.000000000000147
 50
303.952126946381380
 51
357.158610984633470
  0
ARC
  8
0
  6
CONTINUOUS
 62
256
 10
-217.023947109253410
 20
-174.439162574901500
 40
0.999999999999769
 50
123.952126946395990
 51
177.005923909150510
  0
ARC
  8
0
  6
CONTINUOUS
 62
256
 10
-216.253738693100330
 20
-135.280153549906340
 40
0.999999999999967
 50
180.740494943192910
 51
233.794291905969200
  0
ARC
  8
0
  6
CONTINUOUS
 62
256
 10
-217.435110809376740
 20
-136.893956487964490
 40
1.000000000000077
 50
0.587807867721716
 51
53.794291905958730
  0
LINE
  8
0
  6
CONTINUOUS
 62
256
 10
-263.898110302915030
 20
-101.696297908696810
 11
-218.180911621190030
 21
-204.378807347722840
  0
LINE
  8
0
  6
DASHDOT
 62
256
 10
-241.203546362650510
 20
-175.164782525906730
 11
-241.203546362650510
 21
-198.033291701670350
  0
ARC
  8
0
  6
CONTINUOUS
 62
256
 10
-215.686043010305180
 20
-198.232694230094470
 40
1.299999237060559
 50
293.999982013920090
 51
7.398451589678659
  0
ARC
  8
0
  6
CONTINUOUS
 62
256
 10
-223.321938635486500
 20
-199.224213352593100
 40
9.000000000000235
 50
7.398451589678908
 51
40.601531107483581
  0
TEXT
  8
0
  6
CONTINUOUS
 62
256
 10
-405.897735595703120
 20
118.640670776367190
 40
12.000000000000000
  1
ＳＣＡＬＥ　１／１
 50
0.000002504478167
 41
0.833333333333333
  7
STANDARD1
  0
TEXT
  8
0
  6
CONTINUOUS
 62
256
 10
-405.897735595703120
 20
134.540664672851560
 40
12.000000000000000
  1
１／１２０～１／２００
 50
0.000002504478167
 41
0.833333333333333
  7
STANDARD1
  0
TEXT
  8
0
  6
CONTINUOUS
 62
256
 10
-405.897735595703120
 20
150.440673828125000
 40
12.000000000000000
  1
０．４（kＷ）
 50
0.000002504478167
 41
0.805381383814994
  7
STANDARD1
  0
TEXT
  8
0
  6
CONTINUOUS
 62
256
 10
-405.897735595703120
 20
166.340667724609370
 40
12.000000000000000
  1
ＧＭ－Ｄ
 50
0.000002504478167
 41
0.833333333333333
  7
STANDARD1
  0
TEXT
  8
0
  6
CONTINUOUS
 62
256
 10
-405.897735595703120
 20
182.240676879882810
 40
12.000000000000000
  1
三菱ギヤードモートル
 50
0.000002504478167
 41
0.833333333333333
  7
STANDARD1
  0
TEXT
  8
0
  6
CONTINUOUS
 62
256
 10
-405.897735595703120
 20
198.140670776367190
 40
12.000000000000000
  1
Ｄ００３
 50
0.000002504478167
 41
0.833333333333333
  7
STANDARD1
  0
LINE
  8
0
  6
CONTINUOUS
 62
256
 10
-313.203546362650510
 20
-1.047305508511727
 11
-313.203546362650510
 21
-26.467732267170959
  0
ARC
  8
0
  6
CONTINUOUS
 62
256
 10
-323.203546362650510
 20
-1.047305508511727
 40
10.000000000000000
 50
0.000000000000000
 51
90.000000000000000
  0
LINE
  8
0
  6
CONTINUOUS
 62
256
 10
-323.203546362650510
 20
8.952694491488273
 11
-344.203546362650510
 21
8.952694491488273
  0
ARC
  8
0
  6
CONTINUOUS
 62
256
 10
-344.203546362650510
 20
-1.047305508511727
 40
10.000000000000000
 50
90.000000000000000
 51
180.000000000000000
  0
LINE
  8
0
  6
DASHDOT
 62
256
 10
-310.535633363768970
 20
-11.047305508511727
 11
-357.558147265303660
 21
-11.047305508511727
  0
CIRCLE
  8
0
  6
CONTINUOUS
 62
256
 10
-333.703546362650510
 20
-11.047305508511727
 40
10.000000000000000
  0
LINE
  8
0
  6
CONTINUOUS
 62
256
 10
-354.203546362650510
 20
-1.047305508511727
 11
-354.203546362650510
 21
-26.467732267170959
  0
INSERT
  8
0
  2
ZU_SYM_2
 10
-400.703546362650510
 20
-246.047305508511610
 41
-1.000000000000000
 50
0.000000000000007
  0
INSERT
  8
0
  2
ZU_SYM_2
 10
-440.703546362650510
 20
-188.047305508511610
 41
-1.000000000000000
 50
0.000000000000007
  0
INSERT
  8
0
  2
ZU_SYM_2
 10
-439.703546362650510
 20
-122.047305508511390
 41
-1.000000000000000
 50
0.000000000000007
  0
INSERT
  8
0
  2
ZU_SYM_2
 10
-400.703546362650510
 20
-46.047305508511272
 41
-1.000000000000000
 50
0.000000000000007
  0
INSERT
  8
0
  2
ZU_SYM_2
 10
-344.203546362650510
 20
-39.047305508511727
 41
-1.000000000000000
 50
0.000000000000007
  0
INSERT
  8
0
  2
ZU_SYM_2
 10
-266.703546362650510
 20
-246.047305508511730
  0
INSERT
  8
0
  2
ZU_SYM_2
 10
-323.203546362650510
 20
-39.047305508511727
  0
INSERT
  8
0
  2
ZU_SYM_2
 10
-266.703546362650510
 20
-46.047305508511386
  0
POINT
  8
0
  6
DASHED
 62
256
 10
-226.203543684889380
 20
-256.047309120375300
  0
POINT
  8
0
  6
DASHED
 62
256
 10
-333.703546362650060
 20
-111.047305508511730
  0
POINT
  8
0
  6
DASHED
 62
256
 10
-441.203549040410730
 20
-256.047309120375300
  0
ARC
  8
0
  6
CONTINUOUS
 62
256
 10
-445.703546362650060
 20
-218.419715050457630
 40
5.000000000000114
 50
33.939289208664562
 51
180.000000000000000
  0
ARC
  8
0
  6
CONTINUOUS
 62
256
 10
-333.703546362650060
 20
-143.047306305612440
 40
129.999999999999940
 50
213.939289208665090
 51
230.380873009517220
  0
ARC
  8
0
  6
CONTINUOUS
 62
256
 10
-221.703546362650060
 20
-218.419715050457630
 40
5.000000000000000
 50
0.000000000000000
 51
146.060710791332640
  0
ARC
  8
0
  6
CONTINUOUS
 62
256
 10
-333.703546362650060
 20
-143.047306305612440
 40
130.000000000000230
 50
309.619126990482700
 51
326.060710791335000
  0
ARC
  8
0
  6
CONTINUOUS
 62
256
 10
-266.703546362650060
 20
-246.047305508511730
 40
9.999999999999833
 50
224.427031979601760
 51
233.130135655587590
  0
ARC
  8
0
  6
CONTINUOUS
 62
256
 10
-453.703546362650060
 20
-231.047308572368370
 40
3.000000000000000
 50
270.000000000000000
 51
0.000000000000000
  0
ARC
  8
0
  6
CONTINUOUS
 62
256
 10
-455.703549476325630
 20
-237.047308572368370
 40
3.000000000000000
 50
90.000000000000000
 51
180.000000000000000
  0
ARC
  8
0
  6
CONTINUOUS
 62
256
 10
-411.703548355402520
 20
-256.047308995828190
 40
2.000000000000000
 50
90.000000000000000
 51
180.000000000000000
  0
ARC
  8
0
  6
CONTINUOUS
 62
256
 10
-427.793926178282390
 20
-237.047308572368370
 40
3.000000000000004
 50
44.972469343427150
 51
90.000000000000000
  0
ARC
  8
0
  6
CONTINUOUS
 62
256
 10
-400.703546362650060
 20
-246.047305508511730
 40
10.000000000000053
 50
306.869864344412290
 51
315.572968020398320
  0
ARC
  8
0
  6
CONTINUOUS
 62
256
 10
-255.703544369897600
 20
-256.047308995828190
 40
2.000000000000000
 50
0.000000000000000
 51
90.000000000000000
  0
ARC
  8
0
  6
CONTINUOUS
 62
256
 10
-213.703546362650060
 20
-231.047308572368370
 40
3.000000000000000
 50
180.000000000000000
 51
270.000000000000000
  0
ARC
  8
0
  6
CONTINUOUS
 62
256
 10
-211.703543248974480
 20
-237.047308572368370
 40
3.000000000000000
 50
0.000000000000000
 51
90.000000000000000
  0
ARC
  8
0
  6
CONTINUOUS
 62
256
 10
-239.613166547017730
 20
-237.047308572368370
 40
3.000000000000000
 50
90.000000000000000
 51
135.027530656572880
  0
LINE
  8
0
  6
DASHDOT
 62
256
 10
-441.203549040410730
 20
-263.871767811986500
 11
-441.203549040410730
 21
-228.333730611514060
  0
LINE
  8
0
  6
CONTINUOUS
 62
256
 10
-413.703548355402520
 20
-256.047309120375300
 11
-458.703549476325630
 21
-256.047309120375300
  0
LINE
  8
0
  6
CONTINUOUS
 62
256
 10
-458.703549476325630
 20
-256.047309120375300
 11
-458.703549476325630
 21
-237.047308572368370
  0
LINE
  8
0
  6
CONTINUOUS
 62
256
 10
-427.793926178282390
 20
-234.047308572368370
 11
-455.703549476325630
 21
-234.047308572368370
  0
LINE
  8
0
  6
CONTINUOUS
 62
256
 10
-394.703551012408070
 20
-254.047308995828190
 11
-411.703548355402520
 21
-254.047308995828190
  0
LINE
  8
0
  6
CONTINUOUS
 62
256
 10
-413.703548355402520
 20
-256.047309120375300
 11
-413.703548355402520
 21
-249.348762783290110
  0
LINE
  8
0
  6
CONTINUOUS
 62
256
 10
-272.703541712892050
 20
-254.047308995828190
 11
-255.703544369897600
 21
-254.047308995828190
  0
LINE
  8
0
  6
CONTINUOUS
 62
256
 10
-253.703544369897600
 20
-256.047309120375300
 11
-253.703544369897600
 21
-249.348762783290340
  0
LINE
  8
0
  6
DASHDOT
 62
256
 10
-226.203543684889380
 20
-263.871767811986500
 11
-226.203543684889380
 21
-228.333730611514060
  0
LINE
  8
0
  6
CONTINUOUS
 62
256
 10
-253.703544369897600
 20
-256.047309120375300
 11
-208.703543248974480
 21
-256.047309120375300
  0
LINE
  8
0
  6
CONTINUOUS
 62
256
 10
-208.703543248974480
 20
-256.047309120375300
 11
-208.703543248974480
 21
-237.047308572368370
  0
LINE
  8
0
  6
CONTINUOUS
 62
256
 10
-239.613166547017730
 20
-234.047308572368370
 11
-211.703543248974480
 21
-234.047308572368370
  0
LINE
  8
0
  6
CONTINUOUS
 62
256
 10
-450.703546362650060
 20
-231.047308572368370
 11
-450.703546362650060
 21
-112.282879778121010
  0
LINE
  8
0
  6
CONTINUOUS
 62
256
 10
-216.703546362650060
 20
-231.047308572368370
 11
-216.703546362650060
 21
-203.721041955942750
  0
POINT
  8
0
  6
DASHDOT
 62
256
 10
-333.703546362650060
 20
-111.047305508511730
  0
POINT
  8
0
  6
DIVIDE
 62
256
 10
-253.703544369897600
 20
-245.516812409426850
  0
ARC
  8
0
  6
CONTINUOUS
 62
256
 10
-222.703546362650060
 20
-185.942527484666930
 40
6.000000000000148
 50
338.871302745699890
 51
0.000000000000000
  0
ARC
  8
0
  6
CONTINUOUS
 62
256
 10
-245.703544369897600
 20
-249.348762783290340
 40
8.000000000000055
 50
129.619126990482750
 51
180.000000000000000
  0
ARC
  8
0
  6
CONTINUOUS
 62
256
 10
-444.703546362650060
 20
-185.942527484666930
 40
6.000000000000000
 50
180.000000000000000
 51
201.128697254300020
  0
ARC
  8
0
  6
CONTINUOUS
 62
256
 10
-421.703548355402520
 20
-249.348762783290110
 40
8.000000000000000
 50
0.000000000000000
 51
50.380873009517437
  0
LINE
  8
0
  6
CONTINUOUS
 62
256
 10
-354.203546362650510
 20
-26.467732267171186
 11
-354.203546362650510
 21
-46.047305508511727
  0
LINE
  8
0
  6
CONTINUOUS
 62
256
 10
-313.203546362650510
 20
-26.467732267171186
 11
-313.203546362650510
 21
-46.047305508511727
  0
ARC
  8
0
  6
CONTINUOUS
 62
256
 10
-333.703546362650510
 20
-526.047305508511730
 40
499.999999999999940
 50
92.349785605460426
 51
94.422377585978055
  0
ARC
  8
0
  6
CONTINUOUS
 62
256
 10
-333.703546362650510
 20
-526.047305508511730
 40
499.999999999999940
 50
85.577622414021945
 51
87.650214394539574
  0
LINE
  8
0
  6
CONTINUOUS
 62
256
 10
-435.703546362650510
 20
-83.047305508511499
 11
-441.101608350399830
 21
-83.047305508511499
  0
ARC
  8
0
  6
CONTINUOUS
 62
256
 10
-427.363172173095110
 20
-58.226515260000269
 40
2.999999999999864
 50
45.000000000000000
 51
138.759285791780600
  0
ARC
  8
0
  6
CONTINUOUS
 62
256
 10
-418.429882428658170
 20
-49.482135474773713
 40
3.000000000000087
 50
130.016194045871200
 51
225.000000000001340
  0
ARC
  8
0
  6
CONTINUOUS
 62
256
 10
-415.437879624069640
 20
-233.620474331862400
 40
3.000000000000024
 50
134.999999999996960
 51
227.936520027067470
  0
ARC
  8
0
  6
CONTINUOUS
 62
256
 10
-418.690118280426990
 20
-245.352157577019280
 40
7.999999999999940
 50
357.786725011997310
 51
50.282947375419241
  0
ARC
  8
0
  6
CONTINUOUS
 62
256
 10
-424.276714388901610
 20
-224.781639567030420
 40
3.000000000000057
 50
222.063479972927580
 51
314.999999999998070
  0
ARC
  8
0
  6
CONTINUOUS
 62
256
 10
-435.703546362650510
 20
-96.047305508511499
 40
13.000000000000000
 50
270.000000000000000
 51
90.000000000000000
  0
LINE
  8
0
  6
CONTINUOUS
 62
256
 10
-435.703546362650510
 20
-109.047305508511490
 11
-447.703546362650510
 21
-109.047305508511490
  0
ARC
  8
0
  6
CONTINUOUS
 62
256
 10
-444.703546362650510
 20
-185.942527484667040
 40
6.000000000000000
 50
180.000000000000000
 51
201.128697254301220
  0
ARC
  8
0
  6
CONTINUOUS
 62
256
 10
-333.703546362650510
 20
-143.047306305612440
 40
125.000000000000270
 50
201.128697254301130
 51
230.282947375420260
  0
ARC
  8
0
  6
CONTINUOUS
 62
256
 10
-441.101608350399830
 20
-80.047305508511499
 40
3.000000000000154
 50
156.851427179928090
 51
270.000000000000000
  0
ARC
  8
0
  6
CONTINUOUS
 62
256
 10
-447.703546362650510
 20
-112.047305508511490
 40
3.000000000000000
 50
90.000000000000000
 51
180.000000000000000
  0
POINT
  8
0
  6
CONTINUOUS
 62
256
 10
-333.703546362650510
 20
-143.047306305612440
  0
POINT
  8
0
  6
CONTINUOUS
 62
256
 10
-333.703546362650510
 20
-143.047306305612440
  0
POINT
  8
0
  6
CONTINUOUS
 62
256
 10
-333.703546362650510
 20
-143.047306305612440
  0
POINT
  8
0
  6
CONTINUOUS
 62
256
 10
-333.703546362650510
 20
-143.047306305612440
  0
POINT
  8
0
  6
DASHDOT
 62
256
 10
-333.703546362650510
 20
-143.047306305612440
  0
POINT
  8
0
  6
CONTINUOUS
 62
256
 10
-333.703546362650510
 20
-143.047306305612440
  0
POINT
  8
0
  6
CONTINUOUS
 62
256
 10
-333.703546362650510
 20
-143.047306305612440
  0
POINT
  8
0
  6
CONTINUOUS
 62
256
 10
-333.703546362650510
 20
-143.047306305612440
  0
POINT
  8
0
  6
DASHDOT
 62
256
 10
-333.703546362650510
 20
-143.047306305612440
  0
POINT
  8
0
  6
DASHDOT
 62
256
 10
-333.703546362650510
 20
-143.047306305612440
  0
POINT
  8
0
  6
DASHDOT
 62
256
 10
-333.703546362650510
 20
-111.047305508511730
  0
POINT
  8
0
  6
DASHED
 62
256
 10
-333.703546362650510
 20
-111.047305508511730
  0
POINT
  8
0
  6
DASHED
 62
256
 10
-333.703546362650510
 20
-143.047306305612440
  0
LINE
  8
0
  6
CONTINUOUS
 62
256
 10
-384.482384214343540
 20
-87.672274376207511
 11
-420.551202772217720
 21
-51.603455818333373
  0
LINE
  8
0
  6
CONTINUOUS
 62
256
 10
-330.453546362650510
 20
-81.547306305612437
 11
-330.453546362650510
 21
-52.047305508511840
  0
LINE
  8
0
  6
CONTINUOUS
 62
256
 10
-336.953546362650510
 20
-81.547306305612437
 11
-336.953546362650510
 21
-52.047305508511727
  0
LINE
  8
0
  6
CONTINUOUS
 62
256
 10
-278.328514433245350
 20
-92.268468453920320
 11
-242.165240895765460
 21
-56.105194916440723
  0
LINE
  8
0
  6
CONTINUOUS
 62
256
 10
-282.924708510957710
 20
-87.672274376207469
 11
-246.855889953083310
 21
-51.603455818333373
  0
LINE
  8
0
  6
CONTINUOUS
 62
256
 10
-391.672323058013490
 20
-205.612277078687500
 11
-417.559199967629640
 21
-231.499153988302740
  0
LINE
  8
0
  6
CONTINUOUS
 62
256
 10
-392.302564855843000
 20
-197.050130721091820
 11
-422.155394045342060
 21
-226.902959910590080
  0
LINE
  8
0
  6
CONTINUOUS
 62
256
 10
-262.666892533193960
 20
-209.487766057356000
 11
-245.251698679959420
 21
-226.902959910590200
  0
LINE
  8
0
  6
CONTINUOUS
 62
256
 10
-266.567339120254250
 20
-214.779707625720560
 11
-249.847892757671840
 21
-231.499153988302740
  0
LINE
  8
0
  6
CONTINUOUS
 62
256
 10
-333.703546362650510
 20
-253.047308995828190
 11
-273.844971372938060
 21
-253.047308995828190
  0
LINE
  8
0
  6
CONTINUOUS
 62
256
 10
-333.703546362650510
 20
-253.047308995828190
 11
-393.562121352363420
 21
-253.047308995828190
  0
LINE
  8
0
  6
CONTINUOUS
 62
256
 10
-333.703546362650510
 20
-49.047305508511727
 11
-351.203546362650510
 21
-49.047305508511727
  0
LINE
  8
0
  6
CONTINUOUS
 62
256
 10
-333.703546362650510
 20
-49.047305508511727
 11
-316.203546362650510
 21
-49.047305508511727
  0
LINE
  8
0
  6
CONTINUOUS
 62
256
 10
-216.703546362650510
 20
-185.942527484666930
 11
-216.703546362650510
 21
-162.031246887060490
  0
LINE
  8
0
  6
DASHDOT
 62
256
 10
-308.139552705401000
 20
-111.047305508511730
 11
-359.156740503884070
 21
-111.047305508511730
  0
LINE
  8
0
  6
CONTINUOUS
 62
256
 10
-231.703546362650510
 20
-83.047305508511499
 11
-226.305484374901200
 21
-83.047305508511499
  0
LINE
  8
0
  6
CONTINUOUS
 62
256
 10
-231.703546362650510
 20
-109.047305508511490
 11
-219.703546362650510
 21
-109.047305508511490
  0
ARC
  8
0
  6
CONTINUOUS
 62
256
 10
-327.453546362650510
 20
-52.047305508511840
 40
3.000000000000000
 50
90.000000000000000
 51
180.000000000000000
  0
ARC
  8
0
  6
CONTINUOUS
 62
256
 10
-327.453546362650510
 20
-81.547306305612437
 40
3.000000000000000
 50
180.000000000000000
 51
210.493960341051320
  0
ARC
  8
0
  6
CONTINUOUS
 62
256
 10
-339.953546362650510
 20
-81.547306305612437
 40
2.999999999999730
 50
329.506039658948790
 51
0.000000000000000
  0
ARC
  8
0
  6
CONTINUOUS
 62
256
 10
-339.953546362650510
 20
-52.047305508511727
 40
3.000000000000000
 50
0.000000000000000
 51
90.000000000000000
  0
ARC
  8
0
  6
CONTINUOUS
 62
256
 10
-240.043920552205920
 20
-58.226515260000269
 40
3.000000000000097
 50
41.240714208219501
 51
135.000000000000110
  0
ARC
  8
0
  6
CONTINUOUS
 62
256
 10
-248.977210296642850
 20
-49.482135474773713
 40
2.999999999999944
 50
314.999999999998470
 51
49.983805954128734
  0
ARC
  8
0
  6
CONTINUOUS
 62
256
 10
-389.551002714453940
 20
-207.733597422247160
 40
2.999999999999707
 50
33.002416253119989
 51
134.999999999998470
  0
ARC
  8
0
  6
CONTINUOUS
 62
256
 10
-394.423885199402550
 20
-194.928810377532270
 40
2.999999999999864
 50
315.000000000000000
 51
8.666390951560810
  0
ARC
  8
0
  6
CONTINUOUS
 62
256
 10
-260.545572189633960
 20
-207.366445713796340
 40
3.000000000000064
 50
148.296383256602160
 51
224.999999999995000
  0
ARC
  8
0
  6
CONTINUOUS
 62
256
 10
-243.130378336399870
 20
-224.781639567030540
 40
2.999999999999944
 50
225.000000000001530
 51
317.936520027074040
  0
ARC
  8
0
  6
CONTINUOUS
 62
256
 10
-268.688659463813790
 20
-216.901027969280220
 40
2.999999999999944
 50
45.000000000001542
 51
130.705112768221770
  0
ARC
  8
0
  6
CONTINUOUS
 62
256
 10
-251.969213101231390
 20
-233.620474331862400
 40
2.999999999999820
 50
312.063479972925790
 51
45.000000000001542
  0
ARC
  8
0
  6
CONTINUOUS
 62
256
 10
-248.716974444874040
 20
-245.352157577019060
 40
8.000000000000103
 50
129.717052624580870
 51
182.213274988004290
  0
ARC
  8
0
  6
CONTINUOUS
 62
256
 10
-222.703546362650510
 20
-185.942527484666930
 40
6.000000000000148
 50
338.871302745699890
 51
0.000000000000000
  0
ARC
  8
0
  6
CONTINUOUS
 62
256
 10
-333.703546362650510
 20
-143.047306305612440
 40
124.999999999999960
 50
309.717052624579760
 51
332.211641912804960
  0
ARC
  8
0
  6
CONTINUOUS
 62
256
 10
-362.294955749712020
 20
-190.031679338158940
 40
29.499999999999968
 50
176.174628045369420
 51
333.472027621085540
  0
ARC
  8
0
  6
CONTINUOUS
 62
256
 10
-295.427467640015270
 20
-185.819906089330060
 40
37.999999999999751
 50
207.178610380823130
 51
354.370835208503820
  0
ARC
  8
0
  6
CONTINUOUS
 62
256
 10
-351.203546362650510
 20
-46.047305508511727
 40
3.000000000000000
 50
180.000000000000000
 51
270.000000000000000
  0
ARC
  8
0
  6
CONTINUOUS
 62
256
 10
-316.203546362650510
 20
-46.047305508511727
 40
3.000000000000000
 50
270.000000000000000
 51
0.000000000000000
  0
ARC
  8
0
  6
CONTINUOUS
 62
256
 10
-266.703546362650510
 20
-246.047305508511730
 40
10.000000000000053
 50
306.869864344412290
 51
2.213274988003489
  0
ARC
  8
0
  6
CONTINUOUS
 62
256
 10
-266.703546362650510
 20
-246.047305508511730
 40
10.000000000000158
 50
224.427031979599950
 51
233.130135655587680
  0
ARC
  8
0
  6
CONTINUOUS
 62
256
 10
-365.703546362650510
 20
-112.282879778121010
 40
84.999999999999972
 50
94.422377585978197
 51
180.000000000000000
  0
ARC
  8
0
  6
CONTINUOUS
 62
256
 10
-400.703546362650510
 20
-246.047305508511730
 40
10.000000000000156
 50
177.786725011996570
 51
233.130135655587680
  0
ARC
  8
0
  6
CONTINUOUS
 62
256
 10
-400.703546362650510
 20
-246.047305508511730
 40
10.000000000000053
 50
306.869864344412290
 51
315.572968020398320
  0
ARC
  8
0
  6
CONTINUOUS
 62
256
 10
-301.703546362650510
 20
-112.282879778121010
 40
85.000000000000000
 50
0.000000000000000
 51
85.577622414021803
  0
ARC
  8
0
  6
CONTINUOUS
 62
256
 10
-231.703546362650510
 20
-96.047305508511499
 40
13.000000000000000
 50
90.000000000000000
 51
270.000000000000000
  0
ARC
  8
0
  6
CONTINUOUS
 62
256
 10
-226.305484374901200
 20
-80.047305508511499
 40
3.000000000000000
 50
270.000000000000000
 51
23.148572820071980
  0
ARC
  8
0
  6
CONTINUOUS
 62
256
 10
-219.703546362650510
 20
-112.047305508511490
 40
3.000000000000000
 50
0.000000000000000
 51
90.000000000000000
  0
LINE
  8
0
  6
CONTINUOUS
 62
256
 10
-6.860763648510783
 20
39.952693694387563
 11
-6.860763648510783
 21
156.952693694387340
  0
ARC
  8
0
  6
CONTINUOUS
 62
256
 10
-22.860763648510556
 20
65.952693694387108
 40
2.000000000000000
 50
90.000000000000000
 51
180.000000000000000
  0
LINE
  8
0
  6
CONTINUOUS
 62
256
 10
-19.860763648510556
 20
67.952693694386880
 11
-22.860763648510556
 21
67.952693694387108
  0
ARC
  8
0
  6
CONTINUOUS
 62
256
 10
-19.860763648510556
 20
69.952693694386880
 40
2.000000000000000
 50
270.000000000000000
 51
0.000000000000000
  0
LINE
  8
0
  6
CONTINUOUS
 62
256
 10
-24.860763648510556
 20
65.952693694387108
 11
-24.860763648510556
 21
42.952693694387335
  0
LINE
  8
0
  6
CONTINUOUS
 62
256
 10
-6.860763648510783
 20
39.952693694387563
 11
-21.860763648510783
 21
39.952693694387335
  0
ARC
  8
0
  6
CONTINUOUS
 62
256
 10
-21.860763648510783
 20
42.952693694387335
 40
2.999999999999773
 50
180.000000000000000
 51
270.000000000000000
  0
LINE
  8
0
  6
CONTINUOUS
 62
256
 10
-27.860762694836467
 20
56.586569541250128
 11
-27.860762694836467
 21
45.318623297963995
  0
LINE
  8
0
  6
CONTINUOUS
 62
256
 10
-27.360762056978729
 20
57.452693718455521
 11
-27.860762083125792
 21
56.586569578321587
  0
LINE
  8
0
  6
CONTINUOUS
 62
256
 10
-27.360761430351431
 20
44.452693717088323
 11
-27.860762380544656
 21
45.318623288156687
  0
LINE
  8
0
  6
CONTINUOUS
 62
256
 10
-27.360762694836467
 20
57.452693694387335
 11
-27.360762694836467
 21
44.452693694387335
  0
LINE
  8
0
  6
CONTINUOUS
 62
256
 10
-24.860763648510328
 20
44.452693694387335
 11
-27.360761741162150
 21
44.452693694387335
  0
LINE
  8
0
  6
CONTINUOUS
 62
256
 10
-24.860763648510328
 20
57.452693694387335
 11
-27.360762694836467
 21
57.452693694387335
  0
ARC
  8
0
  6
CONTINUOUS
 62
256
 10
-14.860763648510783
 20
42.952693694387335
 40
3.000000000000000
 50
180.000000000000000
 51
270.000000000000000
  0
LINE
  8
0
  6
CONTINUOUS
 62
256
 10
-22.599083867296486
 20
96.626659059283611
 11
-38.360763648509874
 21
97.452693694387563
  0
ARC
  8
0
  6
CONTINUOUS
 62
256
 10
-20.860763648510783
 20
133.452693694387340
 40
3.000000000000000
 50
0.000000000000000
 51
90.000000000000000
  0
ARC
  8
0
  6
CONTINUOUS
 62
256
 10
-26.860763648510556
 20
139.452693694387340
 40
3.000000000000000
 50
180.000000000000000
 51
270.000000000000000
  0
LINE
  8
0
  6
CONTINUOUS
 62
256
 10
-29.860763648510328
 20
156.952693694387340
 11
-29.860763648510556
 21
136.452693694387340
  0
LINE
  8
0
  6
CONTINUOUS
 62
256
 10
-34.360763648521470
 20
136.452693694387340
 11
-34.360763648520106
 21
156.952693694387340
  0
LINE
  8
0
  6
CONTINUOUS
 62
256
 10
-34.360763648521470
 20
136.452693694387340
 11
-29.860763648510783
 21
136.452693694387340
  0
LINE
  8
0
  6
CONTINUOUS
 62
256
 10
-26.860763648510556
 20
136.452693694387340
 11
-20.860763648510783
 21
136.452693694387340
  0
LINE
  8
0
  6
CONTINUOUS
 62
256
 10
-17.860763648510783
 20
42.952693694387335
 11
-17.860763648510783
 21
133.452693694387340
  0
INSERT
  8
0
  2
ZU_SYM_1
 10
-34.360763648521015
 20
146.452693694387340
  0
LINE
  8
0
  6
CONTINUOUS
 62
256
 10
-38.360763648509874
 20
156.952693694387340
 11
-38.360763648509874
 21
152.952693694387340
  0
LINE
  8
0
  6
CONTINUOUS
 62
256
 10
-38.360763648509874
 20
139.952693694387340
 11
-38.360763648509874
 21
97.452693694387335
  0
INSERT
  8
0
  2
ZU_SYM_1
 10
-17.860763648510556
 20
89.952693694387335
  0
ARC
  8
0
  6
CONTINUOUS
 62
256
 10
-22.860763648510783
 20
91.633511385510701
 40
5.000000000000030
 50
74.544229700535027
 51
87.000000000004860
  0
LINE
  8
0
  6
CONTINUOUS
 62
256
 10
-6.860763648510783
 20
273.952693694387110
 11
-6.860763648510783
 21
156.952693694387340
  0
ARC
  8
0
  6
CONTINUOUS
 62
256
 10
-22.860763648510556
 20
247.952693694387560
 40
2.000000000000000
 50
180.000000000000000
 51
270.000000000000000
  0
LINE
  8
0
  6
CONTINUOUS
 62
256
 10
-19.860763648510556
 20
245.952693694387790
 11
-22.860763648510556
 21
245.952693694387560
  0
ARC
  8
0
  6
CONTINUOUS
 62
256
 10
-19.860763648510556
 20
243.952693694387790
 40
2.000000000000000
 50
0.000000000000000
 51
90.000000000000000
  0
LINE
  8
0
  6
CONTINUOUS
 62
256
 10
-24.860763648510556
 20
247.952693694387560
 11
-24.860763648510556
 21
270.952693694387340
  0
LINE
  8
0
  6
CONTINUOUS
 62
256
 10
-6.860763648510783
 20
273.952693694387110
 11
-21.860763648510783
 21
273.952693694387340
  0
ARC
  8
0
  6
CONTINUOUS
 62
256
 10
-21.860763648510783
 20
270.952693694387340
 40
3.000000000000000
 50
90.000000000000000
 51
180.000000000000000
  0
LINE
  8
0
  6
CONTINUOUS
 62
256
 10
-27.860762694836467
 20
257.318817847524540
 11
-27.860762694836467
 21
268.586764090810680
  0
LINE
  8
0
  6
CONTINUOUS
 62
256
 10
-27.360762056978729
 20
256.452693670319150
 11
-27.860762083125792
 21
257.318817810453080
  0
LINE
  8
0
  6
CONTINUOUS
 62
256
 10
-27.360761430351431
 20
269.452693671686350
 11
-27.860762380544656
 21
268.586764100617980
  0
LINE
  8
0
  6
CONTINUOUS
 62
256
 10
-27.360762694836467
 20
256.452693694387340
 11
-27.360762694836467
 21
269.452693694387340
  0
LINE
  8
0
  6
CONTINUOUS
 62
256
 10
-24.860763648510328
 20
269.452693694387340
 11
-27.360761741162150
 21
269.452693694387340
  0
LINE
  8
0
  6
CONTINUOUS
 62
256
 10
-24.860763648510328
 20
256.452693694387340
 11
-27.360762694836467
 21
256.452693694387340
  0
ARC
  8
0
  6
CONTINUOUS
 62
256
 10
-14.860763648510783
 20
270.952693694387340
 40
3.000000000000000
 50
90.000000000000000
 51
180.000000000000000
  0
LINE
  8
0
  6
CONTINUOUS
 62
256
 10
-22.599083867296486
 20
217.278728329491060
 11
-38.360763648509874
 21
216.452693694387110
  0
ARC
  8
0
  6
CONTINUOUS
 62
256
 10
-20.860763648510783
 20
180.452693694387340
 40
3.000000000000000
 50
270.000000000000000
 51
0.000000000000000
  0
ARC
  8
0
  6
CONTINUOUS
 62
256
 10
-26.860763648510556
 20
174.452693694387340
 40
3.000000000000000
 50
90.000000000000000
 51
180.000000000000000
  0
LINE
  8
0
  6
CONTINUOUS
 62
256
 10
-29.860763648510328
 20
156.952693694387340
 11
-29.860763648510556
 21
177.452693694387340
  0
LINE
  8
0
  6
CONTINUOUS
 62
256
 10
-34.360763648521470
 20
177.452693694387340
 11
-34.360763648520106
 21
156.952693694387340
  0
LINE
  8
0
  6
CONTINUOUS
 62
256
 10
-34.360763648521470
 20
177.452693694387340
 11
-29.860763648510783
 21
177.452693694387340
  0
LINE
  8
0
  6
CONTINUOUS
 62
256
 10
-26.860763648510556
 20
177.452693694387340
 11
-20.860763648510783
 21
177.452693694387340
  0
LINE
  8
0
  6
CONTINUOUS
 62
256
 10
-17.860763648510783
 20
270.952693694387340
 11
-17.860763648510783
 21
180.452693694387340
  0
INSERT
  8
0
  2
ZU_SYM_1
 10
-34.360763648521015
 20
167.452693694387340
 41
-1.000000000000000
 50
180.000000000000000
  0
LINE
  8
0
  6
CONTINUOUS
 62
256
 10
-38.360763648509874
 20
156.952693694387340
 11
-38.360763648509874
 21
160.952693694387340
  0
LINE
  8
0
  6
CONTINUOUS
 62
256
 10
-38.360763648509874
 20
173.952693694387340
 11
-38.360763648509874
 21
216.452693694387340
  0
INSERT
  8
0
  2
ZU_SYM_1
 10
-17.860763648510556
 20
223.952693694387340
 41
-1.000000000000000
 50
180.000000000000000
  0
ARC
  8
0
  6
CONTINUOUS
 62
256
 10
-22.860763648510783
 20
222.271876003263970
 40
5.000000000000018
 50
272.999999999995110
 51
285.455770299464920
  0
LINE
  8
0
  6
CONTINUOUS
 62
256
 10
-63.360763648510783
 20
244.369538830646890
 11
-63.360763648510783
 21
274.249911658396740
  0
LINE
  8
0
  6
DASHDOT
 62
256
 10
-26.860763648510783
 20
264.452696372148240
 11
-61.860763648510783
 21
264.452696372148240
  0
LINE
  8
0
  6
DASHDOT
 62
256
 10
-44.360763648510783
 20
281.952696372148240
 11
-44.360763648510783
 21
250.489463640707980
  0
LINE
  8
0
  6
CONTINUOUS
 62
256
 10
-6.360763648510783
 20
273.952693694387560
 11
58.675043540017668
 21
272.817489457253030
  0
LINE
  8
0
  6
DASHDOT
 62
256
 10
123.139236351489220
 20
264.452696372148240
 11
88.139236351489217
 21
264.452696372148240
  0
LINE
  8
0
  6
DASHDOT
 62
256
 10
105.639236351489220
 20
281.952696372148240
 11
105.639236351489220
 21
246.952696372148240
  0
LINE
  8
0
  6
CONTINUOUS
 62
256
 10
-6.360763648510783
 20
156.952693694387560
 11
-6.360763648510783
 21
273.952693694387560
  0
ARC
  8
0
  6
CONTINUOUS
 62
256
 10
57.366113057221355
 20
197.828912320523160
 40
75.000000000000327
 50
71.103485179946389
 51
88.999999999999972
  0
ARC
  8
0
  6
CONTINUOUS
 62
256
 10
118.639236351489220
 20
235.639021574074830
 40
3.000000000000000
 50
0.000000000000000
 51
31.677695816961641
  0
ARC
  8
0
  6
CONTINUOUS
 62
256
 10
57.366113057221355
 20
197.828912320523160
 40
75.000000000000767
 50
31.677695816952838
 51
35.133474768257862
  0
CIRCLE
  8
0
  6
CONTINUOUS
 62
256
 10
-44.360763648510783
 20
264.452696372148240
 40
7.500000000000000
  0
CIRCLE
  8
0
  6
CONTINUOUS
 62
256
 10
105.639236351489220
 20
264.452696372148240
 40
7.500000000000000
  0
ARC
  8
0
  6
CONTINUOUS
 62
256
 10
105.639236351489220
 20
264.452696372148240
 40
22.000000000000316
 50
176.569875503928900
 51
269.000000000000570
  0
ARC
  8
0
  6
CONTINUOUS
 62
256
 10
80.684023642959346
 20
265.948476660847520
 40
3.000000000000326
 50
356.569875503924440
 51
71.103485179939668
  0
LINE
  8
0
  6
CONTINUOUS
 62
256
 10
105.255283409869190
 20
242.456047078708250
 11
116.301051918109350
 21
242.263242472215100
  0
ARC
  8
0
  6
CONTINUOUS
 62
256
 10
116.248694698796950
 20
239.263699386745430
 40
3.000000000000104
 50
35.133474768258196
 51
88.999999999989839
  0
ARC
  8
0
  6
CONTINUOUS
 62
256
 10
115.639236351489220
 20
274.091118703137000
 40
8.000000000000000
 50
0.000000000000000
 51
89.000000000004746
  0
LINE
  8
0
  6
CONTINUOUS
 62
256
 10
115.778855602986820
 20
282.089900264388230
 11
-4.360763648510783
 21
284.186945118871340
  0
ARC
  8
0
  6
CONTINUOUS
 62
256
 10
-55.360763648510783
 20
274.249911658396740
 40
7.999999999999988
 50
92.168675586611627
 51
180.000000000000000
  0
LINE
  8
0
  6
CONTINUOUS
 62
256
 10
-55.663495586125919
 20
282.244181692236450
 11
-4.360763648510783
 21
284.186945118871340
  0
LINE
  8
0
  6
DASHDOT
 62
256
 10
-44.360763648510783
 20
250.489463640707980
 11
-44.360763648510783
 21
246.952696372148240
  0
LINE
  8
0
  6
CONTINUOUS
 62
256
 10
-55.500382900009299
 20
236.815492230814020
 11
-17.860763648510783
 21
236.158490232905480
  0
ARC
  8
0
  6
CONTINUOUS
 62
256
 10
-55.360763648510783
 20
244.814273792065250
 40
8.000000000000000
 50
180.000000000000000
 51
268.999999999998240
  0
ARC
  8
0
  6
CONTINUOUS
 62
256
 10
185.239236351488220
 20
137.352693694387200
 40
0.399999999999636
 50
270.000000000000000
 51
0.000000000000000
  0
LINE
  8
0
  6
CONTINUOUS
 62
256
 10
185.639236351488310
 20
156.952693694387560
 11
185.639236351488310
 21
133.952693694387560
  0
LINE
  8
0
  6
CONTINUOUS
 62
256
 10
128.699051098492420
 20
136.952693694387560
 11
128.139243477357010
 21
137.102693694387200
  0
LINE
  8
0
  6
CONTINUOUS
 62
256
 10
185.239236351488220
 20
136.952693694387560
 11
128.699051098492870
 21
136.952693694387560
  0
LINE
  8
0
  6
CONTINUOUS
 62
256
 10
125.639236351488290
 20
156.952693694387560
 11
125.639236351488290
 21
134.852693694387200
  0
LINE
  8
0
  6
CONTINUOUS
 62
256
 10
125.239236351488220
 20
134.452693694387560
 11
125.639236351488290
 21
134.852693694387200
  0
LINE
  8
0
  6
CONTINUOUS
 62
256
 10
128.139243477357010
 20
137.102693694387200
 11
127.239236351488220
 21
137.102693694387200
  0
ARC
  8
0
  6
CONTINUOUS
 62
256
 10
127.239236351488220
 20
135.502693694387740
 40
1.599999999999454
 50
90.000000000000000
 51
180.000000000000000
  0
LINE
  8
0
  6
CONTINUOUS
 62
256
 10
125.239236351488220
 20
134.452693694387560
 11
123.639236351489220
 21
134.452693694387560
  0
LINE
  8
0
  6
CONTINUOUS
 62
256
 10
128.699051098492420
 20
176.952693694386650
 11
128.139243477357010
 21
176.802693694387020
  0
LINE
  8
0
  6
CONTINUOUS
 62
256
 10
125.639236351488290
 20
156.952693694387560
 11
125.639236351488290
 21
179.052693694387020
  0
LINE
  8
0
  6
CONTINUOUS
 62
256
 10
125.239236351488220
 20
179.452693694387560
 11
123.639236351489220
 21
179.452693694387560
  0
LINE
  8
0
  6
CONTINUOUS
 62
256
 10
125.239236351488220
 20
179.452693694387560
 11
125.639236351488290
 21
179.052693694387020
  0
LINE
  8
0
  6
CONTINUOUS
 62
256
 10
128.139243477357010
 20
176.802693694387020
 11
127.239236351488220
 21
176.802693694387020
  0
ARC
  8
0
  6
CONTINUOUS
 62
256
 10
127.239236351488220
 20
178.402693694387380
 40
1.599999999999909
 50
180.000000000000000
 51
270.000000000000000
  0
LINE
  8
0
  6
CONTINUOUS
 62
256
 10
185.639236351488310
 20
156.952693694387560
 11
185.639236351488310
 21
176.552693694387020
  0
LINE
  8
0
  6
CONTINUOUS
 62
256
 10
185.239236351488220
 20
176.952693694387560
 11
128.699051098492870
 21
176.952693694386650
  0
ARC
  8
0
  6
CONTINUOUS
 62
256
 10
185.239236351488220
 20
176.552693694387020
 40
0.400000000000091
 50
0.000000000000000
 51
90.000000000000000
  0
LINE
  8
0
  6
CONTINUOUS
 62
256
 10
130.639236351488310
 20
136.952693694387560
 11
130.639236351488310
 21
133.952693694387560
  0
LINE
  8
0
  6
CONTINUOUS
 62
256
 10
185.639243477357010
 20
133.952693694387560
 11
130.639243477357010
 21
133.952693694387560
  0
ARC
  8
0
  6
CONTINUOUS
 62
256
 10
122.639236351489220
 20
114.952693694387560
 40
1.000000000000000
 50
90.000000000000000
 51
180.000000000000000
  0
ARC
  8
0
  6
CONTINUOUS
 62
256
 10
122.639236351489220
 20
198.952693694387560
 40
1.000000000000000
 50
180.000000000000000
 51
270.000000000000000
  0
LINE
  8
0
  6
DASHDOT
 62
256
 10
-195.809916129077460
 20
156.952693694387560
 11
202.654226592990650
 21
156.952693694387560
  0
LINE
  8
0
  6
CONTINUOUS
 62
256
 10
123.639236351489220
 20
156.952693694387560
 11
123.639236351489220
 21
274.091118703137000
  0
LINE
  8
0
  6
CONTINUOUS
 62
256
 10
121.639236351489220
 20
156.952693694387560
 11
121.639236351489220
 21
235.639021574074830
  0
LINE
  8
0
  6
CONTINUOUS
 62
256
 10
122.639236351489220
 20
115.952693694387560
 11
123.639236351489220
 21
115.952693694387560
  0
LINE
  8
0
  6
CONTINUOUS
 62
256
 10
122.639236351489220
 20
197.952693694387560
 11
123.639236351489220
 21
197.952693694387560
  0
LINE
  8
0
  6
DASHDOT
 62
256
 10
123.139236351489220
 20
49.452691016626886
 11
88.139236351489217
 21
49.452691016626886
  0
LINE
  8
0
  6
DASHDOT
 62
256
 10
-26.860763648510783
 20
49.452691016626886
 11
-61.860763648510783
 21
49.452691016626886
  0
ARC
  8
0
  6
CONTINUOUS
 62
256
 10
-55.360763648510783
 20
69.091113596709874
 40
8.000000000000108
 50
91.000000000001776
 51
161.931280232739740
  0
LINE
  8
0
  6
CONTINUOUS
 62
256
 10
-55.500382900009299
 20
77.089895157961109
 11
-17.860763648510783
 21
77.746897155869192
  0
LINE
  8
0
  6
CONTINUOUS
 62
256
 10
-6.360763648510783
 20
39.952693694387563
 11
58.675043540017668
 21
41.087897931522093
  0
LINE
  8
0
  6
CONTINUOUS
 62
256
 10
-63.360763648510783
 20
46.164787390800655
 11
-63.360763648510783
 21
39.369533724220673
  0
LINE
  8
0
  6
CONTINUOUS
 62
256
 10
-6.360763648510783
 20
156.952693694387560
 11
-6.360763648510783
 21
39.952693694387563
  0
ARC
  8
0
  6
CONTINUOUS
 62
256
 10
57.366113057221355
 20
116.076475068251970
 40
75.000000000000526
 50
271.000000000000060
 51
288.896514820053600
  0
ARC
  8
0
  6
CONTINUOUS
 62
256
 10
80.684023642959346
 20
47.956910727927607
 40
2.999999999999901
 50
288.896514820060250
 51
3.430124496075494
  0
ARC
  8
0
  6
CONTINUOUS
 62
256
 10
115.639236351489220
 20
39.814268685638126
 40
8.000000000000092
 50
270.999999999995280
 51
0.000000000000000
  0
LINE
  8
0
  6
CONTINUOUS
 62
256
 10
115.778855602986820
 20
31.815487124386891
 11
-4.360763648510783
 21
29.718442269903790
  0
LINE
  8
0
  6
DASHDOT
 62
256
 10
-44.360763648510783
 20
31.952691016626886
 11
-44.360763648510783
 21
66.952691016626886
  0
CIRCLE
  8
0
  6
CONTINUOUS
 62
256
 10
-44.360763648510783
 20
49.452691016626886
 40
7.500000000000000
  0
LINE
  8
0
  6
CONTINUOUS
 62
256
 10
-55.663495586125919
 20
31.661205696538673
 11
-4.360763648510783
 21
29.718442269903790
  0
ARC
  8
0
  6
CONTINUOUS
 62
256
 10
-55.360763648510783
 20
39.655475730378384
 40
8.000000000000000
 50
180.000000000000000
 51
267.831324413388360
  0
CIRCLE
  8
0
  6
CONTINUOUS
 62
256
 10
105.639236351489220
 20
49.452691016626886
 40
7.500000000000000
  0
LINE
  8
0
  6
DASHDOT
 62
256
 10
105.639236351489220
 20
31.952691016626886
 11
105.639236351489220
 21
66.952691016626886
  0
LINE
  8
0
  6
CONTINUOUS
 62
256
 10
123.639236351489220
 20
156.952693694387560
 11
123.639236351489220
 21
39.678200779168947
  0
ARC
  8
0
  6
CONTINUOUS
 62
256
 10
57.366113057221355
 20
116.076475068251970
 40
75.000000000000085
 50
324.866525231742120
 51
328.322304183047150
  0
LINE
  8
0
  6
CONTINUOUS
 62
256
 10
105.255283409869190
 20
71.449340310066873
 11
116.301051918109350
 21
71.642144916560028
  0
ARC
  8
0
  6
CONTINUOUS
 62
256
 10
116.248694698796950
 20
74.641688002029696
 40
3.000000000000504
 50
271.000000000010350
 51
324.866525231741830
  0
ARC
  8
0
  6
CONTINUOUS
 62
256
 10
105.639236351489220
 20
49.452691016626886
 40
21.999999999999375
 50
90.999999999999446
 51
183.430124496071100
  0
ARC
  8
0
  6
CONTINUOUS
 62
256
 10
118.639236351489220
 20
78.266365814700293
 40
3.000000000000318
 50
328.322304183038280
 51
0.000000000000000
  0
LINE
  8
0
  6
CONTINUOUS
 62
256
 10
121.639236351489220
 20
156.952693694387560
 11
121.639236351489220
 21
78.266365814700293
  0
LINE
  8
0
  6
CONTINUOUS
 62
256
 10
216.018651413379760
 20
-198.354370168810590
 11
214.431280575953220
 21
-201.919663443493590
  0
LINE
  8
0
  6
DASHED
 62
256
 10
216.018651413379760
 20
-203.721042753044120
 11
217.496016671919280
 21
-204.378808144823980
  0
ARC
  8
0
  6
CONTINUOUS
 62
256
 10
216.750215860105980
 20
-136.893957285065620
 40
1.000000000000255
 50
137.017707970248840
 51
179.412192132278390
  0
ARC
  8
0
  6
DASHED
 62
256
 10
816.518651413379760
 20
-143.047307102713890
 40
600.799999999999950
 50
181.810720292779310
 51
182.841389015363290
  0
LINE
  8
0
  6
CONTINUOUS
 62
256
 10
-216.703546362650060
 20
-193.167243810200770
 11
-216.703546362650060
 21
-162.031246887047270
  0
ARC
  8
0
  6
CONTINUOUS
 62
256
 10
-333.703546362650510
 20
-143.047306305612440
 40
124.999999999999990
 50
336.463102608948360
 51
338.871302745698980
  0
LINE
  8
0
  6
CONTINUOUS
 62
256
 10
-216.703546362650510
 20
-136.212184194389690
 11
-216.703546362650510
 21
-112.282879778121010
  0
LINE
  8
0
  6
CONTINUOUS
 62
256
 10
-216.703546362650060
 20
-136.212184194390370
 11
-216.703546362650060
 21
-112.282879778121010
  0
ARC
  8
0
  6
CONTINUOUS
 62
256
 10
-226.703546362650510
 20
-188.047305508511730
 40
5.633955001831038
 50
195.440822143987250
 51
305.707265004868650
  0
ARC
  8
0
  6
CONTINUOUS
 62
256
 10
-226.703546362650510
 20
-188.047305508511730
 40
6.499999999999966
 50
193.342371018229530
 51
304.129640101466800
  0
LINE
  8
0
  6
CONTINUOUS
 62
256
 10
-229.703543024791490
 20
-189.779351508062970
 11
-229.703543088674050
 21
-189.547306305612440
  0
LINE
  8
0
  6
CONTINUOUS
 62
256
 10
-224.481127390081610
 20
-190.228291047262990
 11
-226.703550827062710
 21
-191.511403873926840
  0
LINE
  8
0
  6
CONTINUOUS
 62
256
 10
-226.703551067639130
 20
-191.511403684260530
 11
-229.703543939750890
 21
-189.779351726544460
  0
LINE
  8
0
  6
CONTINUOUS
 62
256
 10
-389.078578292055680
 20
-92.268468453920320
 11
-425.241851829535560
 21
-56.105194916440723
  0
LINE
  8
0
  6
DASHDOT
 62
256
 10
11.993022532944451
 20
-143.047306305612440
 11
-196.289982238062980
 21
-143.047306305612440
  0
ARC
  8
0
  6
CONTINUOUS
 62
256
 10
-344.203546362650510
 20
-39.047305508511727
 40
10.000000000000000
 50
180.000000000000000
 51
270.000000000000000
  0
ARC
  8
0
  6
CONTINUOUS
 62
256
 10
-323.203546362650510
 20
-39.047305508511727
 40
10.000000000000000
 50
270.000000000000000
 51
0.000000000000000
  0
LINE
  8
0
  6
DASHDOT
 62
256
 10
-26.007016296851361
 20
-39.047294295721258
 11
-49.181392297567072
 21
-39.047294295721258
  0
LINE
  8
0
  6
CONTINUOUS
 62
256
 10
-278.690638921207100
 20
-94.681202337582718
 11
-278.203835529501480
 21
-94.194398945877097
  0
LINE
  8
0
  6
CONTINUOUS
 62
256
 10
-285.337442394620780
 20
-88.034398864169006
 11
-284.850639002915160
 21
-87.547595472463385
  0
LINE
  8
0
  6
CONTINUOUS
 62
256
 10
-278.377500312238280
 20
-94.428655386732345
 11
-285.054599614711210
 21
-87.751556084259434
  0
LINE
  8
0
  6
CONTINUOUS
 62
256
 10
-278.690638921207100
 20
-94.681202337582718
 11
-285.337442394620780
 21
-88.034398864169006
  0
POINT
  8
0
  6
CONTINUOUS
 62
256
 10
-282.014040657913940
 20
-91.357800600875862
  0
ARC
  8
0
  6
CONTINUOUS
 62
256
 10
-284.276782222840950
 20
-93.620542165802902
 40
6.099999427795398
 50
354.601910595264880
 51
95.398072101891529
  0
LINE
  8
0
  6
CONTINUOUS
 62
256
 10
-278.690638921207100
 20
-191.413410273642370
 11
-278.203835529501480
 21
-191.900213665347990
  0
LINE
  8
0
  6
CONTINUOUS
 62
256
 10
-285.337442394620780
 20
-198.060213747056110
 11
-284.850639002915160
 21
-198.547017138761700
  0
LINE
  8
0
  6
CONTINUOUS
 62
256
 10
-278.377500312238280
 20
-191.665957224492760
 11
-285.054599614711210
 21
-198.343056526965680
  0
LINE
  8
0
  6
CONTINUOUS
 62
256
 10
-278.690638921207100
 20
-191.413410273642370
 11
-285.337442394620780
 21
-198.060213747056110
  0
POINT
  8
0
  6
CONTINUOUS
 62
256
 10
-282.014040657913940
 20
-194.736812010349240
  0
ARC
  8
0
  6
CONTINUOUS
 62
256
 10
-284.276782222840950
 20
-192.474070445422200
 40
6.099999427795406
 50
264.601927898108500
 51
5.398089404735109
  0
LINE
  8
0
  6
CONTINUOUS
 62
256
 10
-388.716453804093930
 20
-191.413410273642370
 11
-389.203257195799550
 21
-191.900213665347990
  0
LINE
  8
0
  6
CONTINUOUS
 62
256
 10
-382.069650330680250
 20
-198.060213747056110
 11
-382.556453722385870
 21
-198.547017138761700
  0
LINE
  8
0
  6
CONTINUOUS
 62
256
 10
-389.029592413062740
 20
-191.665957224492760
 11
-382.352493110589820
 21
-198.343056526965680
  0
LINE
  8
0
  6
CONTINUOUS
 62
256
 10
-388.716453804093930
 20
-191.413410273642370
 11
-382.069650330680250
 21
-198.060213747056110
  0
POINT
  8
0
  6
CONTINUOUS
 62
256
 10
-385.393052067387090
 20
-194.736812010349240
  0
ARC
  8
0
  6
CONTINUOUS
 62
256
 10
-383.130310502460080
 20
-192.474070445422200
 40
6.099999427795398
 50
174.601910595264910
 51
275.398072101891500
  0
LINE
  8
0
  6
CONTINUOUS
 62
256
 10
-388.716453804093930
 20
-94.681202337582718
 11
-389.203257195799550
 21
-94.194398945877097
  0
LINE
  8
0
  6
CONTINUOUS
 62
256
 10
-382.069650330680250
 20
-88.034398864169006
 11
-382.556453722385870
 21
-87.547595472463385
  0
LINE
  8
0
  6
CONTINUOUS
 62
256
 10
-389.029592413062740
 20
-94.428655386732345
 11
-382.352493110589820
 21
-87.751556084259434
  0
LINE
  8
0
  6
CONTINUOUS
 62
256
 10
-388.716453804093930
 20
-94.681202337582718
 11
-382.069650330680250
 21
-88.034398864169006
  0
POINT
  8
0
  6
CONTINUOUS
 62
256
 10
-385.393052067387090
 20
-91.357800600875862
  0
ARC
  8
0
  6
CONTINUOUS
 62
256
 10
-383.130310502460080
 20
-93.620542165802902
 40
6.099999427795419
 50
84.601927898108499
 51
185.398089404735090
  0
ENDSEC
  0
EOF
