  0
SECTION
  2
HEADER
  9
$FILLMODE
 70
1
  9
$TEXTSTYLE
  7
STANDARD1
  9
$ACADVER
  1
AC1009
  9
$DIMASZ
 40
1.931851648807023
  9
$DIMEXE
 40
2.000000000000000
  9
$DIMEXO
 40
1.000000000000000
  9
$DIMLFAC
 40
1.000000000000000
  9
$DIMSCALE
 40
1.000000000000000
  9
$DIMTAD
 70
1
  9
$DIMTFAC
 40
0.714285731315613
  9
$DIMTXT
 40
2.799999952316284
  9
$LUPREC
 70
3
  9
$TEXTSIZE
 40
3.299999952316284
  9
$REGENMODE
 70
1
  0
ENDSEC
  0
SECTION
  2
TABLES
  0
TABLE
  2
LTYPE
 70
4
  0
LTYPE
  2
CONTINUOUS
 70
64
  3
Solid line
 72
65
 73
0
 40
0.0
  0
LTYPE
  2
DASHED
 70
64
  3
-- -- -- -- -- -- -- -- -- -- -- -- -- -- --
 72
65
 73
2
 40
0.75
 49
0.5
 49
-0.25
  0
LTYPE
  2
DASHDOT
 70
64
  3
__ . __ . __ . __ . __ . __ . __ . __ . __ . __
 72
65
 73
4
 40
1.0
 49
0.5
 49
-0.25
 49
0.0
 49
-0.25
  0
LTYPE
  2
DIVIDE
 70
64
  3
__ . . __ . . __ . . __ . . __ . . __ . . __
 72
65
 73
6
 40
1.25
 49
0.5
 49
-0.25
 49
0.0
 49
-0.25
 49
0.0
 49
-0.25
  0
ENDTAB
  0
TABLE
  2
LAYER
 70
1
  0
LAYER
  2
0
 70
64
 62
2
  6
CONTINUOUS
  0
ENDTAB
  0
TABLE
  2
STYLE
 70
4
  0
STYLE
  2
STANDARD1
 70
64
 40
0.0
 41
1.0
 50
0.0
 71
0
 42
3.299999952316284
  3
MONOTXT
  4
BIGFONT
  0
STYLE
  2
STANDARD2
 70
68
 40
0.0
 41
1.0
 50
0.0
 71
0
 42
3.299999952316284
  3
MONOTXT
  4
BIGFONT
  0
STYLE
  2
STANDARD3
 70
64
 40
0.0
 41
1.0
 50
0.0
 71
0
 42
3.299999952316284
  3
MONOTXT
  4

  0
STYLE
  2
STANDARD4
 70
68
 40
0.0
 41
1.0
 50
0.0
 71
0
 42
3.299999952316284
  3
MONOTXT
  4

  0
ENDTAB
  0
TABLE
  2
VIEW
 70
0
  0
ENDTAB
  0
ENDSEC
  0
SECTION
  2
BLOCKS
  0
BLOCK
  8
0
  2
SYM1
 70
64
 10
0.000000000000000
 20
0.000000000000000
  0
POINT
  8
0
  6
CONTINUOUS
 62
3
 10
0.000000000000000
 20
0.000000000000000
  0
LINE
  8
0
  6
CONTINUOUS
 62
3
 10
0.000000000000000
 20
-6.500000000000000
 11
-0.000000000000000
 21
6.500000000000000
  0
LINE
  8
0
  6
CONTINUOUS
 62
3
 10
-7.999999046325684
 20
5.633875846862793
 11
-7.999999046325684
 21
-5.634070396423340
  0
LINE
  8
0
  6
CONTINUOUS
 62
3
 10
0.000000000000000
 20
6.500000000000000
 11
-7.499999046325684
 21
6.500000000000000
  0
LINE
  8
0
  6
CONTINUOUS
 62
3
 10
-0.000000000000000
 20
-6.500000000000000
 11
-7.499998092651367
 21
-6.500000000000000
  0
LINE
  8
0
  6
CONTINUOUS
 62
3
 10
-7.499999203818277
 20
6.499999909101064
 11
-7.999999021366804
 21
5.633876130311293
  0
LINE
  8
0
  6
CONTINUOUS
 62
3
 10
-7.499997911632022
 20
-6.499999445138201
 11
-7.999998623386432
 21
-5.634070287011241
  0
LINE
  8
0
  6
CONTINUOUS
 62
3
 10
-7.499999046325684
 20
6.500000000000000
 11
-7.499999046325684
 21
-6.500000000000000
  0
ENDBLK
  8
0
  0
BLOCK
  8
0
  2
SYM2
 70
64
 10
0.000000000000000
 20
0.000000000000000
  0
ARC
  8
0
  6
CONTINUOUS
 62
3
 10
4.250000000000000
 20
-0.000017508195015
 40
9.750000000000000
 50
157.379852817599810
 51
202.619583464422590
  0
ARC
  8
0
  6
CONTINUOUS
 62
3
 10
-2.779975891113281
 20
5.625011444091797
 40
2.720000267028809
 50
179.999745461767870
 51
223.599738934167330
  0
ARC
  8
0
  6
CONTINUOUS
 62
3
 10
-2.780022621154785
 20
-5.624988555908203
 40
2.720000267028809
 50
136.399751989368410
 51
179.999745461767870
  0
LINE
  8
0
  6
CONTINUOUS
 62
3
 10
-4.749979019169359
 20
3.750014305102241
 11
0.000017610677105
 21
3.749996185290124
  0
LINE
  8
0
  6
CONTINUOUS
 62
3
 10
-4.750011996199395
 20
-3.749974250803856
 11
-0.000011530566302
 21
-3.749994277972148
  0
LINE
  8
0
  6
CONTINUOUS
 62
3
 10
0.000030896794669
 20
7.500000000000000
 11
-0.000030896794669
 21
-7.500000000000000
  0
LINE
  8
0
  6
CONTINUOUS
 62
3
 10
-4.749964714019825
 20
7.500017166133830
 11
0.000031348552056
 21
7.499999046315238
  0
LINE
  8
0
  6
CONTINUOUS
 62
3
 10
-5.499983083855739
 20
6.300024529816085
 11
-4.749977372865317
 21
7.500023360260684
  0
LINE
  8
0
  6
CONTINUOUS
 62
3
 10
-5.500023365026398
 20
-6.299976341312318
 11
-5.499970912939614
 21
6.300019271785827
  0
LINE
  8
0
  6
CONTINUOUS
 62
3
 10
-4.750049139977591
 20
-7.499993996888350
 11
-5.500046248261697
 21
-6.299990408291990
  0
LINE
  8
0
  6
CONTINUOUS
 62
3
 10
-0.000030423851130
 20
-7.499999046330735
 11
-4.750025899805295
 21
-7.499979019174840
  0
POINT
  8
0
  6
CONTINUOUS
 62
3
 10
0.000000000000000
 20
0.000000000000000
  0
ENDBLK
  8
0
  0
BLOCK
  8
0
  2
SYM3
 70
64
 10
0.000000000000000
 20
0.000000000000000
  0
POINT
  8
0
  6
CONTINUOUS
 62
3
 10
0.000000000000000
 20
5.633955001831055
  0
POINT
  8
0
  6
CONTINUOUS
 62
3
 10
0.500000119209290
 20
6.500000000000000
  0
LINE
  8
0
  6
CONTINUOUS
 62
3
 10
-0.000004704988612
 20
-3.464098175748802
 11
-2.999997577100373
 21
-1.732046218032735
  0
LINE
  8
0
  6
CONTINUOUS
 62
3
 10
0.000006618601731
 20
3.464096896385627
 11
2.999997425948948
 21
1.732046782136365
  0
LINE
  8
0
  6
CONTINUOUS
 62
3
 10
2.999998112093635
 20
-1.732051392778772
 11
-0.000004464412200
 21
-3.464098365415111
  0
LINE
  8
0
  6
CONTINUOUS
 62
3
 10
0.000006701720849
 20
3.464096999935236
 11
-2.999997939551520
 21
1.732051821705568
  0
LINE
  8
0
  6
CONTINUOUS
 62
3
 10
2.999996662140697
 20
1.732046953225571
 11
2.999997615814979
 21
-1.732051023458999
  0
LINE
  8
0
  6
CONTINUOUS
 62
3
 10
-2.999996662140960
 20
-1.732045999551255
 11
-2.999997615815242
 21
1.732051977133316
  0
POINT
  8
0
  6
CONTINUOUS
 62
3
 10
0.000000000000000
 20
0.000000000000000
  0
CIRCLE
  8
0
  6
CONTINUOUS
 62
3
 10
0.000000000000000
 20
0.000000000000000
 40
6.500000000000000
  0
CIRCLE
  8
0
  6
CONTINUOUS
 62
3
 10
0.000000000000000
 20
0.000000000000000
 40
5.633955001831055
  0
ENDBLK
  8
0
  0
BLOCK
  8
0
  2
SYM4
 70
64
 10
0.000000000000000
 20
0.000000000000000
  0
CIRCLE
  8
0
  6
CONTINUOUS
 62
3
 10
0.000000000000000
 20
0.000000000000000
 40
6.500000000000000
  0
LINE
  8
0
  6
CONTINUOUS
 62
3
 10
6.497593715787616
 20
-3.754167812298078
 11
0.002401379516073
 21
-7.504164176415429
  0
LINE
  8
0
  6
CONTINUOUS
 62
3
 10
6.495189094719432
 20
3.749993872743451
 11
6.497592351816327
 21
-3.754165100950397
  0
LINE
  8
0
  6
CONTINUOUS
 62
3
 10
-0.002401208367701
 20
7.504162813807056
 11
6.495187652077846
 21
3.749994904254493
  0
LINE
  8
0
  6
CONTINUOUS
 62
3
 10
-6.497593715787616
 20
3.754167812298078
 11
-0.002401379516073
 21
7.504164176415429
  0
LINE
  8
0
  6
CONTINUOUS
 62
3
 10
-6.495189094719432
 20
-3.749993872743451
 11
-6.497592351816327
 21
3.754165100950397
  0
LINE
  8
0
  6
CONTINUOUS
 62
3
 10
0.002401208367701
 20
-7.504162813807056
 11
-6.495187652077846
 21
-3.749994904254493
  0
POINT
  8
0
  6
CONTINUOUS
 62
3
 10
0.000000000000000
 20
0.000000000000000
  0
ENDBLK
  8
0
  0
BLOCK
  8
0
  2
SYM5
 70
64
 10
0.000000000000000
 20
0.000000000000000
  0
CIRCLE
  8
0
  6
CONTINUOUS
 62
3
 10
0.000000000000000
 20
0.000000000000000
 40
6.500000000000000
  0
LINE
  8
0
  6
CONTINUOUS
 62
3
 10
6.497593715787616
 20
-3.754167812298078
 11
0.002401379516073
 21
-7.504164176415429
  0
LINE
  8
0
  6
CONTINUOUS
 62
3
 10
6.495189094719432
 20
3.749993872743451
 11
6.497592351816327
 21
-3.754165100950397
  0
LINE
  8
0
  6
CONTINUOUS
 62
3
 10
-0.002401208367701
 20
7.504162813807056
 11
6.495187652077846
 21
3.749994904254493
  0
LINE
  8
0
  6
CONTINUOUS
 62
3
 10
-6.497593715787616
 20
3.754167812298078
 11
-0.002401379516073
 21
7.504164176415429
  0
LINE
  8
0
  6
CONTINUOUS
 62
3
 10
-6.495189094719432
 20
-3.749993872743451
 11
-6.497592351816327
 21
3.754165100950397
  0
LINE
  8
0
  6
CONTINUOUS
 62
3
 10
0.002401208367701
 20
-7.504162813807056
 11
-6.495187652077846
 21
-3.749994904254493
  0
POINT
  8
0
  6
CONTINUOUS
 62
3
 10
0.000000000000000
 20
0.000000000000000
  0
ENDBLK
  8
0
  0
ENDSEC
  0
SECTION
  2
ENTITIES
  0
ARC
  8
0
  6
CONTINUOUS
 62
3
 10
-457.641008626128210
 20
-121.951392490364320
 40
6.099999427795419
 50
84.601927898108485
 51
185.398089404735120
  0
POINT
  8
0
  6
CONTINUOUS
 62
3
 10
-459.903750191055220
 20
-119.688650925437280
  0
LINE
  8
0
  6
CONTINUOUS
 62
3
 10
-463.227151927762070
 20
-123.012052662144140
 11
-456.580348454348380
 21
-116.365249188730430
  0
LINE
  8
0
  6
CONTINUOUS
 62
3
 10
-463.540290536730880
 20
-122.759505711293770
 11
-456.863191234257950
 21
-116.082406408820850
  0
LINE
  8
0
  6
CONTINUOUS
 62
3
 10
-456.580348454348380
 20
-116.365249188730430
 11
-457.067151846054000
 21
-115.878445797024810
  0
LINE
  8
0
  6
CONTINUOUS
 62
3
 10
-463.227151927762070
 20
-123.012052662144140
 11
-463.713955319467690
 21
-122.525249270438520
  0
ARC
  8
0
  6
CONTINUOUS
 62
3
 10
-457.641008626128210
 20
-220.804920769983620
 40
6.099999427795398
 50
174.601910595264880
 51
275.398072101891500
  0
POINT
  8
0
  6
CONTINUOUS
 62
3
 10
-459.903750191055220
 20
-223.067662334910660
  0
LINE
  8
0
  6
CONTINUOUS
 62
3
 10
-463.227151927762070
 20
-219.744260598203790
 11
-456.580348454348380
 21
-226.391064071617540
  0
LINE
  8
0
  6
CONTINUOUS
 62
3
 10
-463.540290536730880
 20
-219.996807549054180
 11
-456.863191234257950
 21
-226.673906851527110
  0
LINE
  8
0
  6
CONTINUOUS
 62
3
 10
-456.580348454348380
 20
-226.391064071617540
 11
-457.067151846054000
 21
-226.877867463323130
  0
LINE
  8
0
  6
CONTINUOUS
 62
3
 10
-463.227151927762070
 20
-219.744260598203790
 11
-463.713955319467690
 21
-220.231063989909420
  0
ARC
  8
0
  6
CONTINUOUS
 62
3
 10
-358.787480346509080
 20
-220.804920769983620
 40
6.099999427795406
 50
264.601927898108500
 51
5.398089404735109
  0
POINT
  8
0
  6
CONTINUOUS
 62
3
 10
-356.524738781582070
 20
-223.067662334910660
  0
LINE
  8
0
  6
CONTINUOUS
 62
3
 10
-353.201337044875230
 20
-219.744260598203790
 11
-359.848140518288910
 21
-226.391064071617540
  0
LINE
  8
0
  6
CONTINUOUS
 62
3
 10
-352.888198435906420
 20
-219.996807549054180
 11
-359.565297738379340
 21
-226.673906851527110
  0
LINE
  8
0
  6
CONTINUOUS
 62
3
 10
-359.848140518288910
 20
-226.391064071617540
 11
-359.361337126583290
 21
-226.877867463323130
  0
LINE
  8
0
  6
CONTINUOUS
 62
3
 10
-353.201337044875230
 20
-219.744260598203790
 11
-352.714533653169610
 21
-220.231063989909420
  0
ARC
  8
0
  6
CONTINUOUS
 62
3
 10
-358.787480346509080
 20
-121.951392490364320
 40
6.099999427795398
 50
354.601910595264880
 51
95.398072101891515
  0
POINT
  8
0
  6
CONTINUOUS
 62
3
 10
-356.524738781582070
 20
-119.688650925437280
  0
LINE
  8
0
  6
CONTINUOUS
 62
3
 10
-353.201337044875230
 20
-123.012052662144140
 11
-359.848140518288910
 21
-116.365249188730430
  0
LINE
  8
0
  6
CONTINUOUS
 62
3
 10
-352.888198435906420
 20
-122.759505711293770
 11
-359.565297738379340
 21
-116.082406408820850
  0
LINE
  8
0
  6
CONTINUOUS
 62
3
 10
-359.848140518288910
 20
-116.365249188730430
 11
-359.361337126583290
 21
-115.878445797024810
  0
LINE
  8
0
  6
CONTINUOUS
 62
3
 10
-353.201337044875230
 20
-123.012052662144140
 11
-352.714533653169610
 21
-122.525249270438520
  0
ARC
  8
0
  6
CONTINUOUS
 62
3
 10
-38.666811231976340
 20
-295.157492131410320
 40
5.000000000000000
 50
0.000000000000000
 51
28.704380115585796
  0
LINE
  8
0
  6
CONTINUOUS
 62
3
 10
-33.666811231976340
 20
-280.914376483134110
 11
-37.349068421029074
 21
-273.017750458114620
  0
LINE
  8
0
  6
CONTINUOUS
 62
3
 10
-68.903780850295448
 20
-227.969065721036710
 11
-59.305916159571666
 21
-227.969065721036710
  0
ARC
  8
0
  6
CONTINUOUS
 62
3
 10
-71.535109198153918
 20
-230.969065721036710
 40
2.999999999999923
 50
28.704380115585955
 51
90.000000000000000
  0
ARC
  8
0
  6
CONTINUOUS
 62
3
 10
-63.521127878267748
 20
-232.019879361508740
 40
4.999999999999964
 50
203.855500852148960
 51
253.883837153531400
  0
ARC
  8
0
  6
CONTINUOUS
 62
3
 10
-72.666811231977249
 20
-236.064193394033850
 40
4.999999999999964
 50
23.855500852148985
 51
86.999999999997044
  0
LINE
  8
0
  6
CONTINUOUS
 62
3
 10
-72.405131450762269
 20
-231.071045720260940
 11
-95.166811231980205
 21
-229.878156630174200
  0
LINE
  8
0
  6
CONTINUOUS
 62
3
 10
-39.166823364838706
 20
-269.119562401324290
 11
-57.776717107196305
 21
-229.210516480891100
  0
LINE
  8
0
  6
CONTINUOUS
 62
3
 10
-34.281263985545387
 20
-292.756039373323570
 11
-68.903780850295448
 21
-229.528194066184710
  0
LINE
  8
0
  6
CONTINUOUS
 62
3
 10
-435.714244486318650
 20
-230.472794781309630
 11
-435.714244486318650
 21
-293.843148459691970
  0
LINE
  8
0
  6
CONTINUOUS
 62
3
 10
-430.714244486318650
 20
-234.493337144773020
 11
-430.714244486318650
 21
-294.863352556747260
  0
ARC
  8
0
  6
CONTINUOUS
 62
3
 10
-426.214244486319560
 20
-218.878156630172040
 40
80.000000000000057
 50
242.258787150594940
 51
270.000000000000000
  0
LINE
  8
0
  6
CONTINUOUS
 62
3
 10
-435.714244486318650
 20
-251.211208431170460
 11
-435.714244486318650
 21
-293.843148459691970
  0
LINE
  8
0
  6
CONTINUOUS
 62
3
 10
-430.714244486318650
 20
-256.501869429651150
 11
-430.714244486318650
 21
-294.863352556747260
  0
ARC
  8
0
  6
CONTINUOUS
 62
3
 10
-426.214244486319560
 20
-218.878156630172040
 40
80.000000000000057
 50
242.258787150594940
 51
270.000000000000000
  0
ARC
  8
0
  6
CONTINUOUS
 62
3
 10
-427.714244486318650
 20
-294.863352556747260
 40
3.000000000000000
 50
180.000000000000000
 51
268.869088815268640
  0
ARC
  8
0
  6
CONTINUOUS
 62
3
 10
-438.714244486318650
 20
-293.843148459691970
 40
3.000000000000254
 50
260.533338912428410
 51
0.000000000000000
  0
ARC
  8
0
  6
CONTINUOUS
 62
3
 10
-427.714244486318650
 20
-294.863352556747260
 40
3.000000000000000
 50
180.000000000000000
 51
268.869088815268640
  0
ARC
  8
0
  6
CONTINUOUS
 62
3
 10
-438.714244486318650
 20
-293.843148459691970
 40
3.000000000000254
 50
260.533338912428410
 51
0.000000000000000
  0
LINE
  8
0
  6
CONTINUOUS
 62
3
 10
-380.714244486318650
 20
-251.211208431170460
 11
-380.714244486318650
 21
-293.843148459691970
  0
LINE
  8
0
  6
CONTINUOUS
 62
3
 10
-396.341261140111560
 20
-298.878156630172040
 11
-390.214244486318190
 21
-298.878156630172040
  0
ARC
  8
0
  6
CONTINUOUS
 62
3
 10
-390.214244486318190
 20
-218.878156630172040
 40
80.000000000000000
 50
270.000000000000000
 51
279.172054809625190
  0
ARC
  8
0
  6
CONTINUOUS
 62
3
 10
-390.214244486318190
 20
-218.878156630172040
 40
80.000000000000043
 50
279.172054809625190
 51
323.661143755959020
  0
ARC
  8
0
  6
CONTINUOUS
 62
3
 10
-390.214244486318190
 20
-218.878156630172040
 40
80.000000000000043
 50
279.172054809625190
 51
323.661143755959020
  0
LINE
  8
0
  6
CONTINUOUS
 62
3
 10
-385.714244486318650
 20
-234.493337144773020
 11
-385.714244486318650
 21
-294.863352556746800
  0
LINE
  8
0
  6
CONTINUOUS
 62
3
 10
-380.714244486318650
 20
-230.472794781309630
 11
-380.714244486318650
 21
-293.843148459691970
  0
ARC
  8
0
  6
CONTINUOUS
 62
3
 10
-390.214244486318190
 20
-218.878156630172040
 40
80.000000000000000
 50
270.000000000000000
 51
279.172054809625190
  0
LINE
  8
0
  6
CONTINUOUS
 62
3
 10
-396.341261140111560
 20
-298.878156630172040
 11
-390.214244486318190
 21
-298.878156630172040
  0
ARC
  8
0
  6
CONTINUOUS
 62
3
 10
-377.714244486318650
 20
-293.843148459691970
 40
3.000000000000000
 50
180.000000000000000
 51
279.466661087573700
  0
ARC
  8
0
  6
CONTINUOUS
 62
3
 10
-388.714244486318650
 20
-294.863352556746800
 40
3.000000000000115
 50
271.130911184731190
 51
0.000000000000000
  0
ARC
  8
0
  6
CONTINUOUS
 62
3
 10
-377.714244486318650
 20
-293.843148459691970
 40
3.000000000000000
 50
180.000000000000000
 51
279.466661087573700
  0
ARC
  8
0
  6
CONTINUOUS
 62
3
 10
-388.714244486318650
 20
-294.863352556746800
 40
3.000000000000115
 50
271.130911184731190
 51
0.000000000000000
  0
LINE
  8
0
  6
CONTINUOUS
 62
3
 10
-385.714244486318650
 20
-256.501869429651150
 11
-385.714244486318650
 21
-294.863352556746800
  0
LINE
  8
0
  6
DASHDOT
 62
4
 10
-8.305761337414879
 20
-69.878156630126796
 11
-41.476612023849157
 21
-69.878156630126796
  0
ARC
  8
0
  6
CONTINUOUS
 62
3
 10
-74.013914213213866
 20
196.621843369826140
 40
3.000000000000000
 50
180.000000000000000
 51
270.000000000000000
  0
ARC
  8
0
  6
CONTINUOUS
 62
3
 10
-74.013914213213866
 20
160.621843369826140
 40
3.000000000000000
 50
90.000000000000000
 51
180.000000000000000
  0
LINE
  8
0
  6
CONTINUOUS
 62
3
 10
-77.013914213213866
 20
196.621843369826140
 11
-77.013914213213866
 21
233.121843369874770
  0
ARC
  8
0
  6
CONTINUOUS
 62
3
 10
-82.013914213213866
 20
124.121843369777480
 40
5.000000000000000
 50
270.000000000000000
 51
0.000000000000000
  0
ARC
  8
0
  6
CONTINUOUS
 62
3
 10
-82.013914213213866
 20
233.121843369874770
 40
5.000000000000000
 50
0.000000000000000
 51
90.000000000000000
  0
LINE
  8
0
  6
CONTINUOUS
 62
3
 10
-77.013914213213866
 20
124.121843369777480
 11
-77.013914213213866
 21
160.621843369826140
  0
LINE
  8
0
  6
CONTINUOUS
 62
3
 10
-20.166811231976453
 20
-21.878156630126796
 11
-15.666811231976453
 21
-21.878156630126796
  0
ARC
  8
0
  6
CONTINUOUS
 62
3
 10
-199.166811231976230
 20
114.002622452953340
 40
3.000000000000000
 50
90.000000000000000
 51
180.000000000000000
  0
ARC
  8
0
  6
CONTINUOUS
 62
3
 10
-195.166811231976340
 20
120.002622452953340
 40
3.000000000000000
 50
270.000000000000000
 51
0.000000000000000
  0
LINE
  8
0
  6
CONTINUOUS
 62
3
 10
-202.166811231976230
 20
113.621843369826130
 11
-202.166811231976230
 21
114.002622452953340
  0
LINE
  8
0
  6
CONTINUOUS
 62
3
 10
-199.166811231976230
 20
117.002622452953340
 11
-195.166811231976340
 21
117.002622452953340
  0
ARC
  8
0
  6
CONTINUOUS
 62
3
 10
-220.860835454396690
 20
133.621843369826140
 40
20.000000000000007
 50
234.999999999999740
 51
270.000000000000000
  0
LINE
  8
0
  6
CONTINUOUS
 62
3
 10
-202.166811231976230
 20
113.621843369826130
 11
-220.860835454396690
 21
113.621843369826130
  0
LINE
  8
0
  6
CONTINUOUS
 62
3
 10
-192.166811231976340
 20
178.621843369826140
 11
-192.166811231976340
 21
120.002622452953340
  0
ARC
  8
0
  6
CONTINUOUS
 62
3
 10
-220.860835454396690
 20
223.621843369826140
 40
20.000000000000000
 50
90.000000000000000
 51
125.000000000000240
  0
LINE
  8
0
  6
CONTINUOUS
 62
3
 10
-192.166811231976340
 20
243.621843369826140
 11
-220.860835454396690
 21
243.621843369826140
  0
LINE
  8
0
  6
CONTINUOUS
 62
3
 10
-192.166811231976340
 20
178.621843369826140
 11
-192.166811231976340
 21
243.621843369826140
  0
LINE
  8
0
  6
CONTINUOUS
 62
3
 10
-203.166811231975770
 20
232.361958470263740
 11
-205.166811231975770
 21
230.709316831140310
  0
LINE
  8
0
  6
CONTINUOUS
 62
3
 10
-201.166811231975770
 20
233.537743955886530
 11
-203.166811231975770
 21
232.361958470263740
  0
LINE
  8
0
  6
CONTINUOUS
 62
3
 10
-203.166811231975770
 20
232.361958470263740
 11
-201.166811231975770
 21
230.709316831140310
  0
LINE
  8
0
  6
CONTINUOUS
 62
3
 10
-205.166811231975770
 20
233.537743955886530
 11
-203.166811231975770
 21
232.361958470263740
  0
POLYLINE
  8
0
  6
CONTINUOUS
 62
3
 66
1
 70
1
  0
VERTEX
  8
0
  6
CONTINUOUS
 62
3
 10
-198.466811231975780
 20
230.545368401886210
  0
VERTEX
  8
0
  6
CONTINUOUS
 62
3
 10
-198.557120414080600
 20
231.248325368086570
  0
VERTEX
  8
0
  6
CONTINUOUS
 62
3
 10
-198.824577429172730
 20
231.924268092298660
  0
VERTEX
  8
0
  6
CONTINUOUS
 62
3
 10
-199.258904054153820
 20
232.547220474704060
  0
VERTEX
  8
0
  6
CONTINUOUS
 62
3
 10
-199.843409360398990
 20
233.093242804602650
  0
VERTEX
  8
0
  6
CONTINUOUS
 62
3
 10
-200.555631136783660
 20
233.541351750069280
  0
VERTEX
  8
0
  6
CONTINUOUS
 62
3
 10
-201.368199099859850
 20
233.874326735632020
  0
VERTEX
  8
0
  6
CONTINUOUS
 62
3
 10
-202.249886718499970
 20
234.079371719330280
  0
VERTEX
  8
0
  6
CONTINUOUS
 62
3
 10
-203.166811231975770
 20
234.148606937431050
  0
VERTEX
  8
0
  6
CONTINUOUS
 62
3
 10
-204.083735745451580
 20
234.079371719330280
  0
VERTEX
  8
0
  6
CONTINUOUS
 62
3
 10
-204.965423364091690
 20
233.874326735632020
  0
VERTEX
  8
0
  6
CONTINUOUS
 62
3
 10
-205.777991327167880
 20
233.541351750069280
  0
VERTEX
  8
0
  6
CONTINUOUS
 62
3
 10
-206.490213103552550
 20
233.093242804602650
  0
VERTEX
  8
0
  6
CONTINUOUS
 62
3
 10
-207.074718409797730
 20
232.547220474704060
  0
VERTEX
  8
0
  6
CONTINUOUS
 62
3
 10
-207.509045034778810
 20
231.924268092298660
  0
VERTEX
  8
0
  6
CONTINUOUS
 62
3
 10
-207.776502049870940
 20
231.248325368086570
  0
VERTEX
  8
0
  6
CONTINUOUS
 62
3
 10
-207.866811231975760
 20
230.545368401886210
  0
VERTEX
  8
0
  6
CONTINUOUS
 62
3
 10
-207.776502049870940
 20
229.842411435685850
  0
VERTEX
  8
0
  6
CONTINUOUS
 62
3
 10
-207.509045034778810
 20
229.166468711473750
  0
VERTEX
  8
0
  6
CONTINUOUS
 62
3
 10
-207.074718409797730
 20
228.543516329068350
  0
VERTEX
  8
0
  6
CONTINUOUS
 62
3
 10
-206.490213103552520
 20
227.997493999169760
  0
VERTEX
  8
0
  6
CONTINUOUS
 62
3
 10
-205.777991327167880
 20
227.549385053703130
  0
VERTEX
  8
0
  6
CONTINUOUS
 62
3
 10
-204.965423364091690
 20
227.216410068140390
  0
VERTEX
  8
0
  6
CONTINUOUS
 62
3
 10
-204.083735745451580
 20
227.011365084442130
  0
VERTEX
  8
0
  6
CONTINUOUS
 62
3
 10
-203.166811231975770
 20
226.942129866341360
  0
VERTEX
  8
0
  6
CONTINUOUS
 62
3
 10
-202.249886718499970
 20
227.011365084442130
  0
VERTEX
  8
0
  6
CONTINUOUS
 62
3
 10
-201.368199099859850
 20
227.216410068140390
  0
VERTEX
  8
0
  6
CONTINUOUS
 62
3
 10
-200.555631136783660
 20
227.549385053703130
  0
VERTEX
  8
0
  6
CONTINUOUS
 62
3
 10
-199.843409360399020
 20
227.997493999169760
  0
VERTEX
  8
0
  6
CONTINUOUS
 62
3
 10
-199.258904054153820
 20
228.543516329068350
  0
VERTEX
  8
0
  6
CONTINUOUS
 62
3
 10
-198.824577429172730
 20
229.166468711473750
  0
VERTEX
  8
0
  6
CONTINUOUS
 62
3
 10
-198.557120414080600
 20
229.842411435685850
  0
SEQEND
  8
0
  6
CONTINUOUS
 62
3
  0
LINE
  8
0
  6
CONTINUOUS
 62
3
 10
-203.166811231975770
 20
124.881728269388300
 11
-205.166811231975770
 21
126.534369908511730
  0
LINE
  8
0
  6
CONTINUOUS
 62
3
 10
-201.166811231975770
 20
123.705942783765970
 11
-203.166811231975770
 21
124.881728269388300
  0
LINE
  8
0
  6
CONTINUOUS
 62
3
 10
-203.166811231975770
 20
124.881728269388300
 11
-201.166811231975770
 21
126.534369908511730
  0
LINE
  8
0
  6
CONTINUOUS
 62
3
 10
-205.166811231975770
 20
123.705942783765970
 11
-203.166811231975770
 21
124.881728269388300
  0
POLYLINE
  8
0
  6
CONTINUOUS
 62
3
 66
1
 70
1
  0
VERTEX
  8
0
  6
CONTINUOUS
 62
3
 10
-198.466811231975780
 20
126.698318337766290
  0
VERTEX
  8
0
  6
CONTINUOUS
 62
3
 10
-198.557120414080600
 20
127.401275303966650
  0
VERTEX
  8
0
  6
CONTINUOUS
 62
3
 10
-198.824577429172730
 20
128.077218028178750
  0
VERTEX
  8
0
  6
CONTINUOUS
 62
3
 10
-199.258904054153820
 20
128.700170410584150
  0
VERTEX
  8
0
  6
CONTINUOUS
 62
3
 10
-199.843409360398990
 20
129.246192740482740
  0
VERTEX
  8
0
  6
CONTINUOUS
 62
3
 10
-200.555631136783660
 20
129.694301685949370
  0
VERTEX
  8
0
  6
CONTINUOUS
 62
3
 10
-201.368199099859850
 20
130.027276671512110
  0
VERTEX
  8
0
  6
CONTINUOUS
 62
3
 10
-202.249886718499970
 20
130.232321655210370
  0
VERTEX
  8
0
  6
CONTINUOUS
 62
3
 10
-203.166811231975770
 20
130.301556873311140
  0
VERTEX
  8
0
  6
CONTINUOUS
 62
3
 10
-204.083735745451580
 20
130.232321655210370
  0
VERTEX
  8
0
  6
CONTINUOUS
 62
3
 10
-204.965423364091690
 20
130.027276671512110
  0
VERTEX
  8
0
  6
CONTINUOUS
 62
3
 10
-205.777991327167880
 20
129.694301685949370
  0
VERTEX
  8
0
  6
CONTINUOUS
 62
3
 10
-206.490213103552550
 20
129.246192740482740
  0
VERTEX
  8
0
  6
CONTINUOUS
 62
3
 10
-207.074718409797730
 20
128.700170410584150
  0
VERTEX
  8
0
  6
CONTINUOUS
 62
3
 10
-207.509045034778810
 20
128.077218028178750
  0
VERTEX
  8
0
  6
CONTINUOUS
 62
3
 10
-207.776502049870940
 20
127.401275303966650
  0
VERTEX
  8
0
  6
CONTINUOUS
 62
3
 10
-207.866811231975760
 20
126.698318337766290
  0
VERTEX
  8
0
  6
CONTINUOUS
 62
3
 10
-207.776502049870940
 20
125.995361371565930
  0
VERTEX
  8
0
  6
CONTINUOUS
 62
3
 10
-207.509045034778810
 20
125.319418647353820
  0
VERTEX
  8
0
  6
CONTINUOUS
 62
3
 10
-207.074718409797730
 20
124.696466264948440
  0
VERTEX
  8
0
  6
CONTINUOUS
 62
3
 10
-206.490213103552520
 20
124.150443935049850
  0
VERTEX
  8
0
  6
CONTINUOUS
 62
3
 10
-205.777991327167880
 20
123.702334989583230
  0
VERTEX
  8
0
  6
CONTINUOUS
 62
3
 10
-204.965423364091690
 20
123.369360004020470
  0
VERTEX
  8
0
  6
CONTINUOUS
 62
3
 10
-204.083735745451580
 20
123.164315020322220
  0
VERTEX
  8
0
  6
CONTINUOUS
 62
3
 10
-203.166811231975770
 20
123.095079802221440
  0
VERTEX
  8
0
  6
CONTINUOUS
 62
3
 10
-202.249886718499970
 20
123.164315020322220
  0
VERTEX
  8
0
  6
CONTINUOUS
 62
3
 10
-201.368199099859850
 20
123.369360004020470
  0
VERTEX
  8
0
  6
CONTINUOUS
 62
3
 10
-200.555631136783660
 20
123.702334989583230
  0
VERTEX
  8
0
  6
CONTINUOUS
 62
3
 10
-199.843409360399020
 20
124.150443935049850
  0
VERTEX
  8
0
  6
CONTINUOUS
 62
3
 10
-199.258904054153820
 20
124.696466264948440
  0
VERTEX
  8
0
  6
CONTINUOUS
 62
3
 10
-198.824577429172730
 20
125.319418647353820
  0
VERTEX
  8
0
  6
CONTINUOUS
 62
3
 10
-198.557120414080600
 20
125.995361371565930
  0
SEQEND
  8
0
  6
CONTINUOUS
 62
3
  0
LINE
  8
0
  6
CONTINUOUS
 62
3
 10
-192.829575676780560
 20
118.121843369826130
 11
-129.416811231976450
 21
118.121843369826130
  0
LINE
  8
0
  6
CONTINUOUS
 62
3
 10
-129.416811231976450
 20
118.121843369826130
 11
-129.416811231976450
 21
119.121843369826130
  0
LINE
  8
0
  6
CONTINUOUS
 62
3
 10
-198.666811231976450
 20
111.121843369826130
 11
-198.666811231976450
 21
116.960662344503130
  0
LINE
  8
0
  6
CONTINUOUS
 62
3
 10
-133.666811231976340
 20
111.121843369826130
 11
-133.666811231976450
 21
118.121843369826130
  0
LINE
  8
0
  6
CONTINUOUS
 62
3
 10
-198.666811231976450
 20
111.121843369826130
 11
-133.666811231976340
 21
111.121843369826130
  0
LINE
  8
0
  6
CONTINUOUS
 62
3
 10
-194.329486997156440
 20
117.121843369826130
 11
-133.666811231976340
 21
117.121843369826130
  0
LINE
  8
0
  6
CONTINUOUS
 62
3
 10
-198.666811231976450
 20
115.121843369826130
 11
-133.666811231976340
 21
115.121843369826130
  0
LINE
  8
0
  6
DASHDOT
 62
4
 10
-166.166811231976450
 20
116.955556705978890
 11
-166.166811231976450
 21
54.893143189342709
  0
LINE
  8
0
  6
CONTINUOUS
 62
3
 10
-201.616811231975360
 20
59.948017990042217
 11
-169.224067437872690
 21
59.948017990042217
  0
LINE
  8
0
  6
CONTINUOUS
 62
3
 10
-201.616811231975360
 20
108.816407310090540
 11
-130.716811231977660
 21
108.816407310090420
  0
LINE
  8
0
  6
CONTINUOUS
 62
3
 10
-201.616811231975360
 20
105.344934571043720
 11
-130.716811231977660
 21
105.344934571043720
  0
LINE
  8
0
  6
CONTINUOUS
 62
3
 10
-119.716811231977650
 20
97.816407310090426
 11
-119.716811231977650
 21
70.948017990042217
  0
LINE
  8
0
  6
CONTINUOUS
 62
3
 10
-212.616811231975360
 20
97.816407310090653
 11
-212.616811231975360
 21
70.948017990042217
  0
LINE
  8
0
  6
CONTINUOUS
 62
3
 10
-126.116811231977290
 20
67.921843369826092
 11
-126.116811231977290
 21
97.497778069512833
  0
LINE
  8
0
  6
CONTINUOUS
 62
3
 10
-206.216811231975730
 20
67.921843369826092
 11
-206.216811231975730
 21
97.497778069513060
  0
LINE
  8
0
  6
CONTINUOUS
 62
3
 10
-201.216811231975730
 20
102.497778069512940
 11
-131.116811231977290
 21
102.497778069512830
  0
ARC
  8
0
  6
CONTINUOUS
 62
3
 10
-131.116811231977290
 20
97.497778069512833
 40
5.000000000000000
 50
0.000000000000000
 51
90.000000000000000
  0
ARC
  8
0
  6
CONTINUOUS
 62
3
 10
-201.216811231975730
 20
97.497778069513060
 40
4.999999999999886
 50
90.000000000000000
 51
180.000000000000000
  0
ARC
  8
0
  6
CONTINUOUS
 62
3
 10
-130.716811231977660
 20
70.948017990042217
 40
11.000000000000000
 50
270.000000000000000
 51
0.000000000000000
  0
ARC
  8
0
  6
CONTINUOUS
 62
3
 10
-201.616811231975360
 20
70.948017990042217
 40
11.000000000000000
 50
180.000000000000000
 51
270.000000000000000
  0
LINE
  8
0
  6
CONTINUOUS
 62
3
 10
-200.416811231976000
 20
62.121843369826138
 11
-131.916811231977250
 21
62.121843369826138
  0
ARC
  8
0
  6
CONTINUOUS
 62
3
 10
-131.916811231977250
 20
67.921843369826092
 40
5.799999999999955
 50
270.000000000000000
 51
0.000000000000000
  0
ARC
  8
0
  6
CONTINUOUS
 62
3
 10
-200.416811231976000
 20
67.921843369826092
 40
5.799999999999727
 50
180.000000000000000
 51
270.000000000000000
  0
ARC
  8
0
  6
CONTINUOUS
 62
3
 10
-130.716811231977660
 20
94.344934571043723
 40
11.000000000000000
 50
0.000000000000000
 51
90.000000000000000
  0
ARC
  8
0
  6
CONTINUOUS
 62
3
 10
-130.716811231977660
 20
97.816407310090426
 40
11.000000000000000
 50
0.000000000000000
 51
90.000000000000000
  0
ARC
  8
0
  6
CONTINUOUS
 62
3
 10
-201.616811231975360
 20
94.344934571043723
 40
11.000000000000000
 50
90.000000000000000
 51
180.000000000000000
  0
ARC
  8
0
  6
CONTINUOUS
 62
3
 10
-201.616811231975360
 20
97.816407310090653
 40
10.999999999999886
 50
90.000000000000000
 51
180.000000000000000
  0
LINE
  8
0
  6
CONTINUOUS
 62
3
 10
-187.217446326586700
 20
61.321843369826183
 11
-145.516176137366300
 21
61.321843369826183
  0
ARC
  8
0
  6
CONTINUOUS
 62
3
 10
-145.516176137366300
 20
62.321843369826183
 40
1.000000000000000
 50
270.000000000000000
 51
323.130102354140380
  0
ARC
  8
0
  6
CONTINUOUS
 62
3
 10
-143.916176137366390
 20
61.121843369826138
 40
1.000000000000000
 50
90.000000000000000
 51
143.130102354166380
  0
ARC
  8
0
  6
CONTINUOUS
 62
3
 10
-188.817446326586610
 20
61.121843369826138
 40
0.999999999999727
 50
36.869897645849235
 51
90.000000000000000
  0
ARC
  8
0
  6
CONTINUOUS
 62
3
 10
-187.217446326586700
 20
62.321843369826183
 40
1.000000000000227
 50
216.869897645844020
 51
270.000000000000000
  0
LINE
  8
0
  6
CONTINUOUS
 62
3
 10
-199.966811231976640
 20
110.121843369826130
 11
-132.366811231976610
 21
110.121843369826020
  0
ARC
  8
0
  6
CONTINUOUS
 62
3
 10
-132.366811231976610
 20
105.121843369826020
 40
5.000000000000008
 50
44.925956400534659
 51
90.000000000000000
  0
ARC
  8
0
  6
CONTINUOUS
 62
3
 10
-199.966811231976640
 20
105.121843369826130
 40
5.000000000000000
 50
90.000000000000000
 51
135.074043599465310
  0
LINE
  8
0
  6
CONTINUOUS
 62
3
 10
-135.166811231976570
 20
111.121843369826020
 11
-135.166811231976570
 21
110.121843369826020
  0
LINE
  8
0
  6
CONTINUOUS
 62
3
 10
-197.166811231976450
 20
111.121843369826130
 11
-197.166811231976450
 21
110.121843369826130
  0
LINE
  8
0
  6
DASHDOT
 62
4
 10
-188.990442863288310
 20
86.121843369826138
 11
-144.702724824889860
 21
86.121843369826138
  0
CIRCLE
  8
0
  6
DASHED
 62
4
 10
-166.166811231976450
 20
86.121843369825910
 40
13.500000000000000
  0
ARC
  8
0
  6
CONTINUOUS
 62
3
 10
-168.366811994915910
 20
60.925315857572286
 40
1.299999237060699
 50
162.240552086452960
 51
253.398468892505180
  0
ARC
  8
0
  6
CONTINUOUS
 62
3
 10
-166.166811231976450
 20
68.304340780420034
 40
8.999999999999858
 50
253.398468892518050
 51
286.601548410325050
  0
ARC
  8
0
  6
CONTINUOUS
 62
3
 10
-163.966810469037000
 20
60.925315857572286
 40
1.299999237060351
 50
286.601548410324710
 51
17.759447913550098
  0
LINE
  8
0
  6
CONTINUOUS
 62
3
 10
-163.109555026080440
 20
59.948017990042217
 11
-130.716811231977660
 21
59.948017990042217
  0
ARC
  8
0
  6
CONTINUOUS
 62
3
 10
-30.666811231976340
 20
83.621843369777025
 40
3.000000000000000
 50
180.000000000000000
 51
270.000000000000000
  0
LINE
  8
0
  6
CONTINUOUS
 62
3
 10
-23.666811231976340
 20
80.621843369777025
 11
-30.666811231976340
 21
80.621843369777025
  0
ARC
  8
0
  6
CONTINUOUS
 62
3
 10
-30.666811231976340
 20
273.621843369875250
 40
3.000000000000000
 50
90.000000000000000
 51
180.000000000000000
  0
LINE
  8
0
  6
CONTINUOUS
 62
3
 10
-23.666811231976340
 20
276.621843369875250
 11
-30.666811231976340
 21
276.621843369875250
  0
INSERT
  8
0
  2
SYM1
 10
-3.666811231976681
 20
299.621843369826140
 41
-1.000000000000000
 50
180.000000000000030
  0
INSERT
  8
0
  2
SYM1
 10
-3.666811231976453
 20
57.621843369826138
  0
ARC
  8
0
  6
CONTINUOUS
 62
3
 10
-42.666811231976453
 20
76.294870738668806
 40
10.000000000000137
 50
91.000000000001762
 51
180.000000000000000
  0
LINE
  8
0
  6
CONTINUOUS
 62
3
 10
-42.841335296349598
 20
86.293347690232849
 11
-33.666811231976340
 21
86.453489603462458
  0
ARC
  8
0
  6
CONTINUOUS
 62
3
 10
-42.666811231976453
 20
280.948816000983470
 40
10.000000000000000
 50
180.000000000000000
 51
268.999999999998240
  0
LINE
  8
0
  6
CONTINUOUS
 62
3
 10
-42.841335296349598
 20
270.950339049419430
 11
-33.666811231976340
 21
270.790197136189820
  0
LINE
  8
0
  6
CONTINUOUS
 62
3
 10
-43.058219218076147
 20
35.745466989673560
 11
10.833188768023547
 21
33.634496617554987
  0
ARC
  8
0
  6
CONTINUOUS
 62
3
 10
-42.666811231976453
 20
45.737804043056940
 40
10.000000000000000
 50
180.000000000000000
 51
267.756824425778010
  0
LINE
  8
0
  6
CONTINUOUS
 62
3
 10
-43.058219218076147
 20
321.498219749978720
 11
10.833188768023547
 21
323.609190122097290
  0
ARC
  8
0
  6
CONTINUOUS
 62
3
 10
-42.666811231976453
 20
311.505882696595340
 40
10.000000000000053
 50
92.243175574221979
 51
180.000000000000000
  0
LINE
  8
0
  6
CONTINUOUS
 62
3
 10
143.507712832396690
 20
35.950339049418517
 11
10.833188768023547
 21
33.634496617554987
  0
LINE
  8
0
  6
CONTINUOUS
 62
3
 10
143.507712832396690
 20
321.293347690233760
 11
10.833188768023547
 21
323.609190122097290
  0
LINE
  8
0
  6
CONTINUOUS
 62
3
 10
-52.666811231976453
 20
280.948816000983470
 11
-52.666811231976453
 21
311.505882696595340
  0
LINE
  8
0
  6
DASHDOT
 62
4
 10
-20.028232688347771
 20
53.621843369825228
 11
-48.564575017322340
 21
53.621843369825228
  0
LINE
  8
0
  6
DASHDOT
 62
4
 10
-20.028232688347771
 20
303.621843369827050
 11
-48.564575017322340
 21
303.621843369827050
  0
CIRCLE
  8
0
  6
CONTINUOUS
 62
3
 10
-34.666811231976453
 20
53.621843369825228
 40
7.500000000000000
  0
CIRCLE
  8
0
  6
CONTINUOUS
 62
3
 10
-34.666811231976453
 20
303.621843369827050
 40
7.500000000000000
  0
LINE
  8
0
  6
DASHDOT
 62
4
 10
-34.666811231976453
 20
39.611358849201906
 11
-34.666811231976453
 21
68.147701178176476
  0
LINE
  8
0
  6
DASHDOT
 62
4
 10
-34.666811231976453
 20
317.632327890450370
 11
-34.666811231976453
 21
289.095985561475800
  0
LINE
  8
0
  6
CONTINUOUS
 62
3
 10
-52.666811231976453
 20
76.294870738668806
 11
-52.666811231976453
 21
45.737804043056940
  0
LINE
  8
0
  6
CONTINUOUS
 62
3
 10
79.833188768023547
 20
44.878608044657312
 11
7.833188768023547
 21
43.621843369825228
  0
LINE
  8
0
  6
CONTINUOUS
 62
3
 10
79.833188768023547
 20
312.365078694994960
 11
7.833188768023547
 21
313.621843369827050
  0
ARC
  8
0
  6
CONTINUOUS
 62
3
 10
-1.666811231976681
 20
311.621843369826140
 40
2.000000000000000
 50
90.000000000000000
 51
180.000000000000000
  0
ARC
  8
0
  6
CONTINUOUS
 62
3
 10
-1.666811231976453
 20
45.621843369826138
 40
2.000000000000000
 50
180.000000000000000
 51
270.000000000000000
  0
ARC
  8
0
  6
CONTINUOUS
 62
3
 10
-5.666811231976681
 20
290.579883261376150
 40
3.000000000000000
 50
180.000000000000000
 51
260.405931773138780
  0
ARC
  8
0
  6
CONTINUOUS
 62
3
 10
-5.666811231976453
 20
66.663803478276122
 40
2.999999999999756
 50
99.594068226861253
 51
180.000000000000000
  0
ARC
  8
0
  6
CONTINUOUS
 62
3
 10
-6.666811231976681
 20
284.663803478276120
 40
3.000000000000124
 50
42.393848252412582
 51
80.405931773141646
  0
ARC
  8
0
  6
CONTINUOUS
 62
3
 10
-6.666811231976453
 20
72.579883261376153
 40
3.000000000000653
 50
279.594068226858330
 51
317.606151747584480
  0
LINE
  8
0
  6
CONTINUOUS
 62
3
 10
-8.666811231976681
 20
311.621843369826140
 11
-8.666811231976681
 21
306.121843369826140
  0
LINE
  8
0
  6
CONTINUOUS
 62
3
 10
-8.666811231976453
 20
45.621843369826138
 11
-8.666811231976453
 21
51.121843369826138
  0
LINE
  8
0
  6
CONTINUOUS
 62
3
 10
-9.181738102419558
 20
277.380973885298540
 11
-23.666811231976681
 21
276.621843369826820
  0
LINE
  8
0
  6
CONTINUOUS
 62
3
 10
-9.181738102419558
 20
79.862712854353731
 11
-23.666811231976453
 21
80.621843369825456
  0
ARC
  8
0
  6
CONTINUOUS
 62
3
 10
-6.666811231976681
 20
311.621843369826140
 40
2.000000000000000
 50
90.000000000000000
 51
180.000000000000000
  0
ARC
  8
0
  6
CONTINUOUS
 62
3
 10
-6.666811231976453
 20
45.621843369826138
 40
2.000000000000000
 50
180.000000000000000
 51
270.000000000000000
  0
LINE
  8
0
  6
CONTINUOUS
 62
3
 10
-8.666811231976681
 20
293.121843369826140
 11
-8.666811231976681
 21
290.579883261376150
  0
LINE
  8
0
  6
CONTINUOUS
 62
3
 10
-8.666811231976453
 20
64.121843369826138
 11
-8.666811231976453
 21
66.663803478276122
  0
ARC
  8
0
  6
CONTINUOUS
 62
3
 10
-6.666811231976681
 20
288.948281080891090
 40
3.000000000000161
 50
333.053200547384900
 51
0.000000000000000
  0
ARC
  8
0
  6
CONTINUOUS
 62
3
 10
-6.666811231976453
 20
68.295405658761183
 40
3.000000000000000
 50
0.000000000000000
 51
26.946799452617075
  0
ARC
  8
0
  6
CONTINUOUS
 62
3
 10
-6.666811231976681
 20
284.297103120746440
 40
3.000000000000161
 50
333.053200547384900
 51
0.000000000000000
  0
ARC
  8
0
  6
CONTINUOUS
 62
3
 10
-6.666811231976453
 20
72.946583618905834
 40
3.000000000000000
 50
0.000000000000000
 51
26.946799452617075
  0
LINE
  8
0
  6
CONTINUOUS
 62
4
 10
-46.666811231976453
 20
73.538768800778826
 11
-17.283568012435580
 21
73.538768800778826
  0
LINE
  8
0
  6
CONTINUOUS
 62
4
 10
-46.666811231976453
 20
283.704917938873450
 11
-17.283568012435580
 21
283.704917938873450
  0
LINE
  8
0
  6
CONTINUOUS
 62
3
 10
-6.666811231976681
 20
313.621843369826140
 11
7.833188768023547
 21
313.621843369826140
  0
LINE
  8
0
  6
CONTINUOUS
 62
3
 10
-6.666811231976453
 20
43.621843369826138
 11
7.833188768023547
 21
43.621843369826138
  0
LINE
  8
0
  6
CONTINUOUS
 62
3
 10
-125.166811231976340
 20
238.121843369826140
 11
-95.166811231976453
 21
238.121843369826140
  0
LINE
  8
0
  6
CONTINUOUS
 62
4
 10
-192.166811231976340
 20
235.621843369826140
 11
-95.166811231976453
 21
235.621843369826140
  0
LINE
  8
0
  6
CONTINUOUS
 62
4
 10
-192.166811231976340
 20
234.621843369826140
 11
-95.166811231976453
 21
234.621843369826140
  0
LINE
  8
0
  6
CONTINUOUS
 62
4
 10
-192.166811231976340
 20
233.621843369826140
 11
-95.166811231976453
 21
233.621843369826140
  0
LINE
  8
0
  6
CONTINUOUS
 62
4
 10
-192.166811231976340
 20
228.937377556601860
 11
-95.166811231976453
 21
228.937377556601860
  0
LINE
  8
0
  6
CONTINUOUS
 62
4
 10
-192.166811231976340
 20
223.987630088296100
 11
-95.166811231976453
 21
223.987630088296100
  0
LINE
  8
0
  6
CONTINUOUS
 62
4
 10
-192.166811231976340
 20
197.995105179327310
 11
-95.166811231976453
 21
197.995105179327310
  0
LINE
  8
0
  6
CONTINUOUS
 62
4
 10
-192.166811231976340
 20
199.261343095414530
 11
-95.166811231976453
 21
199.261343095414530
  0
LINE
  8
0
  6
CONTINUOUS
 62
4
 10
-192.166811231976340
 20
203.451896826956730
 11
-95.166811231976453
 21
203.451896826956730
  0
LINE
  8
0
  6
CONTINUOUS
 62
4
 10
-192.166811231976340
 20
204.813777162306000
 11
-95.166811231976453
 21
204.813777162306000
  0
LINE
  8
0
  6
CONTINUOUS
 62
4
 10
-192.166811231976340
 20
208.904277696395870
 11
-95.166811231976453
 21
208.904277696395870
  0
LINE
  8
0
  6
CONTINUOUS
 62
4
 10
-192.166811231976340
 20
210.372635086200490
 11
-95.166811231976453
 21
210.372635086200490
  0
LINE
  8
0
  6
CONTINUOUS
 62
4
 10
-192.166811231976340
 20
214.336380510000030
 11
-95.166811231976453
 21
214.336380510000030
  0
LINE
  8
0
  6
CONTINUOUS
 62
4
 10
-192.166811231976340
 20
215.941028425562080
 11
-95.166811231976453
 21
215.941028425562080
  0
LINE
  8
0
  6
CONTINUOUS
 62
4
 10
-192.166811231976340
 20
159.248581560324960
 11
-95.166811231976453
 21
159.248581560324960
  0
LINE
  8
0
  6
CONTINUOUS
 62
4
 10
-192.166811231976340
 20
157.982343644237740
 11
-95.166811231976453
 21
157.982343644237740
  0
LINE
  8
0
  6
CONTINUOUS
 62
4
 10
-192.166811231976340
 20
153.791789912695550
 11
-95.166811231976453
 21
153.791789912695550
  0
LINE
  8
0
  6
CONTINUOUS
 62
4
 10
-192.166811231976340
 20
152.429909577346280
 11
-95.166811231976453
 21
152.429909577346280
  0
LINE
  8
0
  6
CONTINUOUS
 62
4
 10
-192.166811231976340
 20
148.339409043256410
 11
-95.166811231976453
 21
148.339409043256410
  0
LINE
  8
0
  6
CONTINUOUS
 62
4
 10
-192.166811231976340
 20
146.871051653451790
 11
-95.166811231976453
 21
146.871051653451790
  0
LINE
  8
0
  6
CONTINUOUS
 62
4
 10
-192.166811231976340
 20
142.907306229652250
 11
-95.166811231976453
 21
142.907306229652250
  0
LINE
  8
0
  6
CONTINUOUS
 62
4
 10
-192.166811231976340
 20
141.302658314090190
 11
-95.166811231976453
 21
141.302658314090190
  0
LINE
  8
0
  6
CONTINUOUS
 62
4
 10
-192.166811231976340
 20
133.256056651356180
 11
-95.166811231976453
 21
133.256056651356180
  0
LINE
  8
0
  6
CONTINUOUS
 62
4
 10
-192.166811231976340
 20
128.306309183050420
 11
-95.166811231976453
 21
128.306309183050420
  0
LINE
  8
0
  6
CONTINUOUS
 62
4
 10
-192.166811231976340
 20
123.621843369826130
 11
-95.166811231976453
 21
123.621843369826130
  0
LINE
  8
0
  6
CONTINUOUS
 62
4
 10
-192.166811231976340
 20
122.621843369826130
 11
-95.166811231976453
 21
122.621843369826130
  0
LINE
  8
0
  6
CONTINUOUS
 62
4
 10
-192.166811231976340
 20
121.621843369826130
 11
-95.166811231976453
 21
121.621843369826130
  0
LINE
  8
0
  6
CONTINUOUS
 62
3
 10
-192.299019711184540
 20
119.121843369826130
 11
-95.166811231976453
 21
119.121843369826130
  0
LINE
  8
0
  6
CONTINUOUS
 62
3
 10
-192.166811231976340
 20
238.121843369825910
 11
-95.166811231976453
 21
238.121843369825910
  0
INSERT
  8
0
  2
SYM2
 10
-33.666811231976340
 20
114.982233062989280
  0
INSERT
  8
0
  2
SYM2
 10
-33.666811231976340
 20
242.261453676663000
 41
-1.000000000000000
 50
180.000000000000000
  0
LINE
  8
0
  6
CONTINUOUS
 62
3
 10
-95.166811231976340
 20
119.121843369777480
 11
-95.166811231976340
 21
178.621843369826140
  0
LINE
  8
0
  6
CONTINUOUS
 62
3
 10
-74.013914213213866
 20
163.621843369826140
 11
-36.666811231976340
 21
163.621843369826140
  0
ARC
  8
0
  6
CONTINUOUS
 62
3
 10
-36.666811231976340
 20
160.621843369826140
 40
3.000000000000000
 50
0.000000000000000
 51
90.000000000000000
  0
LINE
  8
0
  6
CONTINUOUS
 62
3
 10
-33.666811231976340
 20
178.621843369826140
 11
-33.666811231976340
 21
83.621843369777025
  0
LINE
  8
0
  6
CONTINUOUS
 62
3
 10
-33.666811231976340
 20
168.685351696674160
 11
-28.166810278306453
 21
168.685351696674160
  0
LINE
  8
0
  6
CONTINUOUS
 62
3
 10
-95.166811231976340
 20
238.121843369874800
 11
-95.166811231976340
 21
178.621843369826140
  0
LINE
  8
0
  6
CONTINUOUS
 62
3
 10
-74.013914213213866
 20
193.621843369826140
 11
-36.666811231976340
 21
193.621843369826140
  0
ARC
  8
0
  6
CONTINUOUS
 62
3
 10
-36.666811231976340
 20
196.621843369826140
 40
3.000000000000000
 50
270.000000000000000
 51
0.000000000000000
  0
LINE
  8
0
  6
CONTINUOUS
 62
3
 10
-33.666811231976340
 20
178.621843369826140
 11
-33.666811231976340
 21
273.621843369875250
  0
LINE
  8
0
  6
CONTINUOUS
 62
3
 10
-33.666811231976340
 20
188.558335042978110
 11
-28.166810278306453
 21
188.558335042978110
  0
LINE
  8
0
  6
CONTINUOUS
 62
3
 10
-38.725379871681163
 20
119.121843369777480
 11
-95.166811231976340
 21
119.121843369777480
  0
LINE
  8
0
  6
CONTINUOUS
 62
3
 10
-39.166791138407852
 20
238.121843369874770
 11
-95.166811231976340
 21
238.121843369874800
  0
INSERT
  8
0
  2
SYM1
 10
-3.666811231976453
 20
228.621843369826140
 41
-1.000000000000000
 50
180.000000000000030
  0
INSERT
  8
0
  2
SYM1
 10
-3.666811231976453
 20
128.621843369826140
  0
INSERT
  8
0
  2
SYM1
 10
-20.166811231980773
 20
189.121843369827270
 41
-1.000000000000000
 50
180.000000000000030
  0
INSERT
  8
0
  2
SYM1
 10
-20.166811231980773
 20
168.121843369825000
  0
LINE
  8
0
  6
CONTINUOUS
 62
3
 10
7.833188768023547
 20
178.621843369826140
 11
7.833188768023547
 21
43.621843369825228
  0
LINE
  8
0
  6
CONTINUOUS
 62
3
 10
7.833188768023547
 20
178.621843369826140
 11
7.833188768023547
 21
313.621843369827050
  0
LINE
  8
0
  6
DASHDOT
 62
4
 10
244.163557421234370
 20
178.621843369826140
 11
-263.162337069075870
 21
178.621843369826140
  0
LINE
  8
0
  6
CONTINUOUS
 62
3
 10
7.333188768023547
 20
178.621843369826140
 11
7.333188768023319
 21
313.621843369826140
  0
LINE
  8
0
  6
CONTINUOUS
 62
3
 10
7.333188768023547
 20
178.621843369826140
 11
7.333188768023547
 21
43.621843369826138
  0
LINE
  8
0
  6
CONTINUOUS
 62
3
 10
-3.666811231976453
 20
178.621843369826140
 11
-3.666811231976681
 21
311.621843369826140
  0
LINE
  8
0
  6
CONTINUOUS
 62
3
 10
-3.666811231976453
 20
178.621843369826140
 11
-3.666811231976453
 21
45.621843369826138
  0
LINE
  8
0
  6
CONTINUOUS
 62
3
 10
-8.492313748463857
 20
199.477144651142680
 11
-12.771509722084147
 21
199.327711834937650
  0
LINE
  8
0
  6
CONTINUOUS
 62
3
 10
-8.492313748463857
 20
157.766542088509600
 11
-12.771509722084147
 21
157.915974904714630
  0
LINE
  8
0
  6
CONTINUOUS
 62
3
 10
-23.666811231976453
 20
178.621843369826140
 11
-23.666811231976453
 21
182.621843369827270
  0
LINE
  8
0
  6
CONTINUOUS
 62
3
 10
-23.666811231976453
 20
178.621843369826140
 11
-23.666811231976453
 21
174.621843369825000
  0
LINE
  8
0
  6
CONTINUOUS
 62
3
 10
-15.666811231976453
 20
178.621843369826140
 11
-15.666811231976453
 21
199.121843369826140
  0
LINE
  8
0
  6
CONTINUOUS
 62
3
 10
-15.666811231976453
 20
178.621843369826140
 11
-15.666811231976453
 21
158.121843369826140
  0
ARC
  8
0
  6
CONTINUOUS
 62
3
 10
-8.666811231976453
 20
204.474098786238070
 40
4.999999999999918
 50
272.000000000001080
 51
0.000000000000000
  0
ARC
  8
0
  6
CONTINUOUS
 62
3
 10
-8.666811231976453
 20
152.769587953414200
 40
5.000000000000000
 50
0.000000000000000
 51
87.999999999998934
  0
ARC
  8
0
  6
CONTINUOUS
 62
3
 10
-12.666811231976453
 20
196.329539353880360
 40
3.000000000000001
 50
92.000000000003652
 51
180.000000000000000
  0
ARC
  8
0
  6
CONTINUOUS
 62
3
 10
-12.666811231976453
 20
160.914147385771910
 40
3.000000000000000
 50
180.000000000000000
 51
267.999999999996360
  0
LINE
  8
0
  6
CONTINUOUS
 62
3
 10
-20.166811231980091
 20
178.621843369826140
 11
-20.166811231980091
 21
199.121843369826140
  0
LINE
  8
0
  6
CONTINUOUS
 62
3
 10
-20.166811231980091
 20
178.621843369826140
 11
-20.166811231980091
 21
158.121843369826140
  0
LINE
  8
0
  6
CONTINUOUS
 62
3
 10
-15.666811231976453
 20
199.121843369826140
 11
-20.166811231980091
 21
199.121843369826140
  0
LINE
  8
0
  6
CONTINUOUS
 62
3
 10
-15.666811231976453
 20
158.121843369826140
 11
-20.166811231980091
 21
158.121843369826140
  0
LINE
  8
0
  6
CONTINUOUS
 62
3
 10
-5.527551943610206
 20
250.137235401253750
 11
-19.832846910607941
 21
250.137235401253750
  0
LINE
  8
0
  6
CONTINUOUS
 62
3
 10
-5.527551943610206
 20
107.106451338398520
 11
-19.832846910607941
 21
107.106451338398520
  0
LINE
  8
0
  6
CONTINUOUS
 62
3
 10
-19.832846910607941
 20
256.428924413679170
 11
-3.992528187676726
 21
287.588792133171860
  0
LINE
  8
0
  6
CONTINUOUS
 62
3
 10
-19.832846910607941
 20
100.814762325973100
 11
-3.992528187676726
 21
69.654894606480411
  0
LINE
  8
0
  6
CONTINUOUS
 62
3
 10
-19.832846910607941
 20
251.777746453534520
 11
-3.992528187676726
 21
282.937614173027210
  0
LINE
  8
0
  6
CONTINUOUS
 62
3
 10
-19.832846910607941
 20
105.465940286117750
 11
-3.992528187676726
 21
74.306072566625062
  0
ARC
  8
0
  6
CONTINUOUS
 62
3
 10
-22.507129954907896
 20
257.788413361398400
 40
3.000000000000000
 50
270.000000000000000
 51
333.053200547384900
  0
ARC
  8
0
  6
CONTINUOUS
 62
3
 10
-22.507129954907896
 20
99.455273378253878
 40
3.000000000000161
 50
26.946799452615107
 51
90.000000000000000
  0
ARC
  8
0
  6
CONTINUOUS
 62
3
 10
-22.507129954907896
 20
253.137235401253750
 40
3.000000000000000
 50
270.000000000000000
 51
333.053200547384900
  0
ARC
  8
0
  6
CONTINUOUS
 62
3
 10
-22.507129954907896
 20
104.106451338398520
 40
3.000000000000161
 50
26.946799452615107
 51
90.000000000000000
  0
LINE
  8
0
  6
CONTINUOUS
 62
3
 10
-23.666811231976453
 20
195.621843369827270
 11
-23.666811231976681
 21
276.621843369826820
  0
LINE
  8
0
  6
CONTINUOUS
 62
3
 10
-23.666811231976453
 20
161.621843369825000
 11
-23.666811231976453
 21
80.621843369825456
  0
LINE
  8
0
  6
CONTINUOUS
 62
4
 10
-192.166811231976340
 20
193.621843369826140
 11
-74.013914213213866
 21
193.621843369826140
  0
LINE
  8
0
  6
CONTINUOUS
 62
4
 10
-192.166811231976340
 20
163.621843369826140
 11
-74.013914213213866
 21
163.621843369826140
  0
CIRCLE
  8
0
  6
CONTINUOUS
 62
3
 10
-53.666811231976340
 20
178.621843369826140
 40
10.500000000000000
  0
LINE
  8
0
  6
DASHDOT
 62
4
 10
-53.666811231976340
 20
164.956244615196510
 11
-53.666811231976340
 21
192.767158925072410
  0
LINE
  8
0
  6
CONTINUOUS
 62
3
 10
-20.166811231980091
 20
-79.878156630126796
 11
-20.166811231976453
 21
-21.878156630126796
  0
LINE
  8
0
  6
CONTINUOUS
 62
3
 10
-15.666811231976453
 20
-21.878156630126796
 11
-15.666811231976453
 21
-79.878156630126796
  0
INSERT
  8
0
  2
SYM2
 10
-33.666811231976340
 20
-265.517766936962740
  0
INSERT
  8
0
  2
SYM2
 10
-33.666811231976340
 20
-138.238546323289030
 41
-1.000000000000000
 50
180.000000000000000
  0
INSERT
  8
0
  2
SYM1
 10
-3.666811231976453
 20
-70.878157443018608
  0
INSERT
  8
0
  2
SYM1
 10
-3.666811231976453
 20
-139.878157443018610
  0
INSERT
  8
0
  2
SYM1
 10
-3.666811231976453
 20
-229.878156630124980
  0
INSERT
  8
0
  2
SYM1
 10
-20.166811231980091
 20
-69.878156630126796
  0
LINE
  8
0
  6
CONTINUOUS
 62
3
 10
-95.166811231976226
 20
-229.878156630173860
 11
-95.166811231976226
 21
-171.378156630173860
  0
LINE
  8
0
  6
CONTINUOUS
 62
3
 10
-95.166811231976226
 20
-229.878156630173860
 11
-123.727257453886060
 21
-229.878156630173860
  0
LINE
  8
0
  6
DASHDOT
 62
4
 10
-87.190813868587384
 20
-171.378156630173860
 11
-258.190000379559930
 21
-171.378156630173860
  0
LINE
  8
0
  6
CONTINUOUS
 62
4
 10
-119.716811231977540
 20
-203.128948346548210
 11
-95.166811231976226
 21
-203.128948346548210
  0
LINE
  8
0
  6
CONTINUOUS
 62
4
 10
-119.716811231977540
 20
-207.092693770347750
 11
-95.166811231976226
 21
-207.092693770347750
  0
LINE
  8
0
  6
CONTINUOUS
 62
4
 10
-119.716811231977540
 20
-208.697341685909810
 11
-95.166811231976226
 21
-208.697341685909810
  0
LINE
  8
0
  6
CONTINUOUS
 62
4
 10
-119.716811231977540
 20
-216.743943348643600
 11
-95.166811231976226
 21
-216.743943348643600
  0
LINE
  8
0
  6
CONTINUOUS
 62
4
 10
-119.716811231977540
 20
-221.693690816949360
 11
-95.166811231976226
 21
-221.693690816949360
  0
LINE
  8
0
  6
CONTINUOUS
 62
4
 10
-120.915735784697060
 20
-226.378156630173860
 11
-95.166811231976226
 21
-226.378156630173860
  0
LINE
  8
0
  6
CONTINUOUS
 62
4
 10
-121.493292197542580
 20
-227.378156630173860
 11
-95.166811231976226
 21
-227.378156630173860
  0
LINE
  8
0
  6
CONTINUOUS
 62
4
 10
-122.664380632367620
 20
-228.878156630173860
 11
-95.166811231976226
 21
-228.878156630173860
  0
LINE
  8
0
  6
CONTINUOUS
 62
4
 10
-122.226491636468490
 20
-228.378156630173860
 11
-95.166811231976226
 21
-228.378156630173860
  0
LINE
  8
0
  6
CONTINUOUS
 62
4
 10
-119.716811231977540
 20
-191.378156630173860
 11
-95.166811231976226
 21
-191.378156630173860
  0
LINE
  8
0
  6
CONTINUOUS
 62
4
 10
-119.716811231977540
 20
-197.570090422653490
 11
-95.166811231976226
 21
-197.570090422653490
  0
LINE
  8
0
  6
CONTINUOUS
 62
4
 10
-119.716811231977540
 20
-196.208210087304220
 11
-95.166811231976226
 21
-196.208210087304220
  0
LINE
  8
0
  6
CONTINUOUS
 62
4
 10
-119.716811231977540
 20
-201.660590956743140
 11
-95.166811231976226
 21
-201.660590956743140
  0
LINE
  8
0
  6
CONTINUOUS
 62
3
 10
-95.166811231976226
 20
-112.878156630173860
 11
-95.166811231976226
 21
-171.378156630173860
  0
LINE
  8
0
  6
CONTINUOUS
 62
3
 10
-95.166811231976226
 20
-112.878156630173860
 11
-192.166811231976110
 21
-112.878156630173860
  0
LINE
  8
0
  6
CONTINUOUS
 62
4
 10
-119.716811231977540
 20
-139.627364913799510
 11
-95.166811231976226
 21
-139.627364913799510
  0
LINE
  8
0
  6
CONTINUOUS
 62
4
 10
-120.516681005525010
 20
-135.663619489999970
 11
-95.166811231976226
 21
-135.663619489999970
  0
LINE
  8
0
  6
CONTINUOUS
 62
4
 10
-121.322551935585570
 20
-134.058971574437920
 11
-95.166811231976226
 21
-134.058971574437920
  0
LINE
  8
0
  6
CONTINUOUS
 62
4
 10
-192.166811231976110
 20
-126.012369911704120
 11
-95.166811231976226
 21
-126.012369911704120
  0
LINE
  8
0
  6
CONTINUOUS
 62
4
 10
-192.166811231976110
 20
-121.062622443398360
 11
-95.166811231976226
 21
-121.062622443398360
  0
LINE
  8
0
  6
CONTINUOUS
 62
4
 10
-192.166811231976110
 20
-116.378156630173860
 11
-95.166811231976226
 21
-116.378156630173860
  0
LINE
  8
0
  6
CONTINUOUS
 62
4
 10
-192.166811231976110
 20
-115.378156630173860
 11
-95.166811231976226
 21
-115.378156630173860
  0
LINE
  8
0
  6
CONTINUOUS
 62
4
 10
-192.166811231976110
 20
-113.878156630173860
 11
-95.166811231976226
 21
-113.878156630173860
  0
LINE
  8
0
  6
CONTINUOUS
 62
4
 10
-192.166811231976110
 20
-114.378156630173860
 11
-95.166811231976226
 21
-114.378156630173860
  0
LINE
  8
0
  6
CONTINUOUS
 62
4
 10
-119.716811231977540
 20
-151.378156630173860
 11
-95.166811231976226
 21
-151.378156630173860
  0
LINE
  8
0
  6
CONTINUOUS
 62
4
 10
-119.716811231977540
 20
-145.186222837694230
 11
-95.166811231976226
 21
-145.186222837694230
  0
LINE
  8
0
  6
CONTINUOUS
 62
4
 10
-119.716811231977540
 20
-146.548103173043500
 11
-95.166811231976226
 21
-146.548103173043500
  0
LINE
  8
0
  6
CONTINUOUS
 62
4
 10
-119.716811231977540
 20
-141.095722303604590
 11
-95.166811231976226
 21
-141.095722303604590
  0
LINE
  8
0
  6
CONTINUOUS
 62
3
 10
-12.666811231976453
 20
-56.878156630125886
 11
7.833188768023547
 21
-56.878156630125886
  0
LINE
  8
0
  6
CONTINUOUS
 62
3
 10
-8.405131450762156
 20
-101.183141443229940
 11
-23.666810463624415
 21
-101.982972148423860
  0
LINE
  8
0
  6
CONTINUOUS
 62
3
 10
-11.666811231976453
 20
-98.507185137150373
 11
-11.666811231976453
 21
-84.535010879617403
  0
LINE
  8
0
  6
CONTINUOUS
 62
3
 10
-8.405131450762156
 20
-302.677987375587690
 11
-23.666811231976453
 21
-301.878156630125890
  0
LINE
  8
0
  6
CONTINUOUS
 62
3
 10
-23.666811231976453
 20
-201.878156630125890
 11
-23.666811231976453
 21
-301.878156630125890
  0
LINE
  8
0
  6
CONTINUOUS
 62
3
 10
-12.666811231976453
 20
-81.878156630125886
 11
-8.666811231976453
 21
-81.878156630125886
  0
LINE
  8
0
  6
CONTINUOUS
 62
3
 10
-15.666811231976453
 20
-73.878156630125886
 11
-15.666811231976453
 21
-59.878156630125886
  0
LINE
  8
0
  6
CONTINUOUS
 62
3
 10
-23.666811231976453
 20
-201.878156630125890
 11
-23.666811231976453
 21
-101.982972188691740
  0
LINE
  8
0
  6
DASHDOT
 62
4
 10
-29.979409617368219
 20
-41.878156630126796
 11
-7.797792617498772
 21
-41.878156630126796
  0
LINE
  8
0
  6
CONTINUOUS
 62
3
 10
-20.166811231980091
 20
-79.878156630126796
 11
-15.666811231980091
 21
-79.878156630126796
  0
LINE
  8
0
  6
CONTINUOUS
 62
3
 10
-8.666811231976453
 20
-212.878156630124070
 11
-8.666811231976453
 21
-205.878156630124070
  0
LINE
  8
0
  6
CONTINUOUS
 62
3
 10
-8.666811231976453
 20
-198.878156630124070
 11
-8.666811231976453
 21
-205.878156630124070
  0
LINE
  8
0
  6
CONTINUOUS
 62
3
 10
-3.666811231976453
 20
-218.794236413223190
 11
-3.666811231976453
 21
-297.305053065224460
  0
LINE
  8
0
  6
CONTINUOUS
 62
3
 10
7.333188768023547
 20
-201.878156630125890
 11
7.333188768023547
 21
-280.432177279356440
  0
LINE
  8
0
  6
CONTINUOUS
 62
3
 10
7.333188768023547
 20
-201.878156630125890
 11
7.333188768023547
 21
-56.878156630125886
  0
LINE
  8
0
  6
CONTINUOUS
 62
3
 10
-3.666811231976453
 20
-192.962076847024040
 11
-3.666811231976453
 21
-58.878156630125886
  0
LINE
  8
0
  6
CONTINUOUS
 62
3
 10
10.508593918494853
 20
-275.561430309020580
 11
-8.053825366846240
 21
-304.034284389635100
  0
LINE
  8
0
  6
CONTINUOUS
 62
3
 10
7.833188768023547
 20
-219.913197095695980
 11
8.833188768023547
 21
-219.913197095695980
  0
LINE
  8
0
  6
CONTINUOUS
 62
3
 10
-48.979315158891723
 20
-309.589184133233180
 11
-12.666811231976453
 21
-306.743536376536210
  0
LINE
  8
0
  6
CONTINUOUS
 62
3
 10
10.833188768023547
 20
-221.913197095695980
 11
10.833188768023547
 21
-274.469176866923590
  0
LINE
  8
0
  6
CONTINUOUS
 62
3
 10
79.833188768023547
 20
-58.134921304957970
 11
7.833188768023547
 21
-56.878156630125886
  0
LINE
  8
0
  6
CONTINUOUS
 62
3
 10
7.833188768023547
 20
-161.878156630125890
 11
7.833188768023547
 21
-279.665228380000370
  0
LINE
  8
0
  6
CONTINUOUS
 62
3
 10
-52.666811231976453
 20
-313.576958110737000
 11
-52.666811231976453
 21
-331.878156630125890
  0
LINE
  8
0
  6
CONTINUOUS
 62
3
 10
7.833188768023547
 20
-161.878156630125890
 11
7.833188768023547
 21
-56.878156630125886
  0
LINE
  8
0
  6
DASHDOT
 62
4
 10
-34.666811231976453
 20
-302.139946753111870
 11
-34.666811231976453
 21
-338.665189024534810
  0
LINE
  8
0
  6
CONTINUOUS
 62
3
 10
-12.666811231976453
 20
-306.743536376536210
 11
10.833188768024002
 21
-304.901946977553050
  0
LINE
  8
0
  6
CONTINUOUS
 62
3
 10
113.333188768023540
 20
-308.481325850455510
 11
10.833188768023547
 21
-304.901946977552140
  0
LINE
  8
0
  6
CONTINUOUS
 62
3
 10
-52.666811231976453
 20
-331.878156630125890
 11
153.333188768023550
 21
-331.878156630125890
  0
LINE
  8
0
  6
CONTINUOUS
 62
3
 10
-95.166811231976340
 20
-191.378156630176590
 11
-36.666811231976340
 21
-191.378156630176360
  0
LINE
  8
0
  6
CONTINUOUS
 62
3
 10
-95.166811231976340
 20
-229.878156630125660
 11
-95.166811231976340
 21
-112.878156630125430
  0
ARC
  8
0
  6
CONTINUOUS
 62
3
 10
-14.666811231976453
 20
-84.535010879617403
 40
3.000000000000322
 50
67.582369538516275
 51
70.528779365506566
  0
ARC
  8
0
  6
CONTINUOUS
 62
3
 10
-12.666811231976453
 20
-78.878156630125886
 40
3.000000000000000
 50
180.000000000000000
 51
270.000000000000000
  0
ARC
  8
0
  6
CONTINUOUS
 62
3
 10
-14.666811231976453
 20
-98.507185137150373
 40
3.000000000000403
 50
273.000000000005230
 51
0.000000000000000
  0
ARC
  8
0
  6
CONTINUOUS
 62
3
 10
-14.666811231976453
 20
-84.535010879617403
 40
3.000000000000000
 50
0.000000000000000
 51
70.528779365506566
  0
ARC
  8
0
  6
CONTINUOUS
 62
3
 10
-8.666811231976453
 20
-307.671135049360600
 40
5.000000000000356
 50
74.028040356722741
 51
87.000000000004846
  0
ARC
  8
0
  6
CONTINUOUS
 62
3
 10
-8.666811231976453
 20
-86.878156630125886
 40
5.000000000000000
 50
0.000000000000000
 51
90.000000000000000
  0
ARC
  8
0
  6
CONTINUOUS
 62
3
 10
-12.666811231976453
 20
-59.878156630125886
 40
3.000000000000000
 50
90.000000000000000
 51
180.000000000000000
  0
ARC
  8
0
  6
CONTINUOUS
 62
3
 10
-8.666811231976453
 20
-96.189993769456123
 40
5.000000000000018
 50
272.999999999995110
 51
0.000000000000000
  0
ARC
  8
0
  6
CONTINUOUS
 62
3
 10
-6.666811231976453
 20
-218.794236413223190
 40
3.000000000000000
 50
0.000000000000000
 51
80.405931773138747
  0
ARC
  8
0
  6
CONTINUOUS
 62
3
 10
-6.666811231976453
 20
-192.962076847024040
 40
3.000000000000653
 50
279.594068226858330
 51
0.000000000000000
  0
ARC
  8
0
  6
CONTINUOUS
 62
3
 10
-5.666811231976453
 20
-212.878156630124070
 40
3.000000000000000
 50
180.000000000000000
 51
260.405931773138780
  0
ARC
  8
0
  6
CONTINUOUS
 62
3
 10
-5.666811231976453
 20
-198.878156630124070
 40
2.999999999999756
 50
99.594068226861253
 51
180.000000000000000
  0
ARC
  8
0
  6
CONTINUOUS
 62
3
 10
-1.666811231976453
 20
-58.878156630125886
 40
2.000000000000000
 50
90.000000000000000
 51
180.000000000000000
  0
ARC
  8
0
  6
CONTINUOUS
 62
3
 10
8.833188768023547
 20
-274.469176866923590
 40
1.999999999999625
 50
326.898306520914790
 51
0.000000000000000
  0
ARC
  8
0
  6
CONTINUOUS
 62
3
 10
-13.080040818261068
 20
-300.757524063344140
 40
6.000000000000744
 50
274.480855207353900
 51
326.898306520919500
  0
ARC
  8
0
  6
CONTINUOUS
 62
3
 10
8.833188768023547
 20
-221.913197095695980
 40
2.000000000000000
 50
0.000000000000000
 51
90.000000000000000
  0
ARC
  8
0
  6
CONTINUOUS
 62
3
 10
-48.666811231976453
 20
-313.576958110737000
 40
3.999999999999263
 50
94.480855207350956
 51
180.000000000000000
  0
ARC
  8
0
  6
CONTINUOUS
 62
3
 10
-36.666811231976340
 20
-194.378156630176360
 40
3.000000000000000
 50
0.000000000000000
 51
90.000000000000000
  0
LINE
  8
0
  6
CONTINUOUS
 62
3
 10
-23.666811231976340
 20
-101.878156630174430
 11
-23.666811231976340
 21
-201.878156630174430
  0
LINE
  8
0
  6
CONTINUOUS
 62
3
 10
-30.666811231976340
 20
-104.878156630222170
 11
-23.666811231976340
 21
-104.878156630222170
  0
LINE
  8
0
  6
CONTINUOUS
 62
3
 10
-23.666811231976340
 20
-301.878156630174430
 11
-23.666811231976340
 21
-201.878156630174430
  0
LINE
  8
0
  6
CONTINUOUS
 62
3
 10
-33.666811231976340
 20
-280.914376483134110
 11
-33.666811231976340
 21
-298.878156630174430
  0
LINE
  8
0
  6
CONTINUOUS
 62
3
 10
-33.666811231976340
 20
-107.878156630173860
 11
-33.666811231976340
 21
-280.914376483134220
  0
LINE
  8
0
  6
CONTINUOUS
 62
3
 10
-30.666811231976340
 20
-101.878156630174430
 11
-23.666811231976340
 21
-101.878156630174430
  0
LINE
  8
0
  6
CONTINUOUS
 62
3
 10
-33.666811231976340
 20
-104.878156630174430
 11
-33.666811231976340
 21
-107.878156630173860
  0
LINE
  8
0
  6
CONTINUOUS
 62
3
 10
-38.666811231976567
 20
-123.878156630174090
 11
-71.166811231977022
 21
-123.878156630174090
  0
LINE
  8
0
  6
CONTINUOUS
 62
3
 10
-30.666811231976340
 20
-298.878156630222180
 11
-23.666811231976340
 21
-298.878156630222180
  0
LINE
  8
0
  6
CONTINUOUS
 62
3
 10
-95.166811231976340
 20
-171.378156630222410
 11
-95.166811231976340
 21
-229.878156630174320
  0
LINE
  8
0
  6
CONTINUOUS
 62
3
 10
-95.166811231976340
 20
-171.378156630222410
 11
-95.166811231976340
 21
-112.878156630173860
  0
LINE
  8
0
  6
CONTINUOUS
 62
3
 10
-30.666811231976340
 20
-301.878156630174430
 11
-23.666811231976340
 21
-301.878156630174430
  0
ARC
  8
0
  6
CONTINUOUS
 62
3
 10
-30.666811231976340
 20
-107.878156630222170
 40
3.000000000000000
 50
90.000000000000000
 51
180.000000000000000
  0
ARC
  8
0
  6
CONTINUOUS
 62
3
 10
-30.666811231976340
 20
-104.878156630174430
 40
3.000000000000000
 50
90.000000000000000
 51
180.000000000000000
  0
ARC
  8
0
  6
CONTINUOUS
 62
3
 10
-30.666811231976340
 20
-295.878156630222180
 40
3.000000000000000
 50
180.000000000000000
 51
270.000000000000000
  0
ARC
  8
0
  6
CONTINUOUS
 62
3
 10
-30.666811231976340
 20
-298.878156630174430
 40
3.000000000000000
 50
180.000000000000000
 51
270.000000000000000
  0
LINE
  8
0
  6
CONTINUOUS
 62
3
 10
-95.166811231976340
 20
-112.878156630173860
 11
-38.166811231976340
 21
-112.878156630173860
  0
ARC
  8
0
  6
CONTINUOUS
 62
3
 10
-38.666811231976340
 20
-107.878156630173860
 40
5.000000000000000
 50
270.000000000000000
 51
0.000000000000000
  0
ARC
  8
0
  6
CONTINUOUS
 62
3
 10
-38.666811231976567
 20
-118.878156630174090
 40
5.000000000000000
 50
270.000000000000000
 51
0.000000000000000
  0
ARC
  8
0
  6
CONTINUOUS
 62
3
 10
-71.166811231976567
 20
-118.878156630174090
 40
5.000000000000000
 50
179.999999999997410
 51
270.000000000000000
  0
ARC
  8
0
  6
CONTINUOUS
 62
3
 10
-81.166811231976567
 20
-117.878156630173860
 40
5.000000000000000
 50
359.999999999997390
 51
90.000000000000000
  0
LINE
  8
0
  6
DASHDOT
 62
4
 10
-53.666811231976340
 20
-147.073825017426660
 11
-53.666811231976340
 21
-106.000157400394520
  0
LINE
  8
0
  6
CONTINUOUS
 62
3
 10
-33.666811231976340
 20
-280.914376483134110
 11
-33.666811231976340
 21
-298.878156630174430
  0
LINE
  8
0
  6
CONTINUOUS
 62
3
 10
-95.166811231976340
 20
-151.378156630176590
 11
-76.166811231976567
 21
-151.378156630176590
  0
LINE
  8
0
  6
CONTINUOUS
 62
3
 10
-76.166811231976567
 20
-150.878156630173860
 11
-76.166811231976567
 21
-117.878156630174090
  0
ARC
  8
0
  6
CONTINUOUS
 62
3
 10
-38.666811231976340
 20
-150.878156630173860
 40
5.000000000000000
 50
270.000000000000000
 51
0.000000000000000
  0
LINE
  8
0
  6
CONTINUOUS
 62
3
 10
-38.666811231976340
 20
-155.878156630173860
 11
-71.166811231976567
 21
-155.878156630173860
  0
ARC
  8
0
  6
CONTINUOUS
 62
3
 10
-71.166811231976567
 20
-150.878156630173860
 40
5.000000000000000
 50
180.000000000000000
 51
270.000000000000000
  0
ARC
  8
0
  6
CONTINUOUS
 62
3
 10
-397.714244486318590
 20
-69.878156630126796
 40
10.000000000000000
 50
270.000000000000000
 51
0.000000000000000
  0
ARC
  8
0
  6
CONTINUOUS
 62
3
 10
-418.714244486318590
 20
-69.878156630126796
 40
10.000000000000057
 50
180.000000000000000
 51
270.000000000000000
  0
LINE
  8
0
  6
CONTINUOUS
 62
3
 10
-397.714244486318590
 20
-79.878156630126796
 11
-418.714244486318590
 21
-79.878156630126796
  0
POINT
  8
0
  6
CONTINUOUS
 62
3
 10
-516.826845570939890
 20
111.939649062044280
  0
POINT
  8
0
  6
CONTINUOUS
 62
3
 10
-516.326845451730610
 20
112.805694060213220
  0
LINE
  8
0
  6
CONTINUOUS
 62
3
 10
-286.214249191306860
 20
-233.342254805920390
 11
-289.214242063418620
 21
-231.610202848204320
  0
LINE
  8
0
  6
CONTINUOUS
 62
3
 10
-286.214237867716520
 20
-226.414059733785960
 11
-283.214247060369190
 21
-228.146109848035220
  0
LINE
  8
0
  6
CONTINUOUS
 62
3
 10
-283.214246374224560
 20
-231.610208022950360
 11
-286.214248950730390
 21
-233.342254995586700
  0
LINE
  8
0
  6
CONTINUOUS
 62
3
 10
-286.214237784597340
 20
-226.414059630236350
 11
-289.214242425869770
 21
-228.146104808466020
  0
LINE
  8
0
  6
CONTINUOUS
 62
3
 10
-283.214247824177510
 20
-228.146109676946030
 11
-283.214246870503190
 21
-231.610207653630600
  0
LINE
  8
0
  6
CONTINUOUS
 62
3
 10
-289.214241148459110
 20
-231.610202629722830
 11
-289.214242102133430
 21
-228.146104653038260
  0
ARC
  8
0
  6
CONTINUOUS
 62
3
 10
-286.214244486318190
 20
-229.878156630171590
 40
6.500000000000004
 50
203.577974107222640
 51
119.980245938815870
  0
ARC
  8
0
  6
CONTINUOUS
 62
3
 10
-286.214244486318190
 20
-229.878156630171590
 40
5.633955001830994
 50
203.513099321093960
 51
121.736370180365070
  0
ARC
  8
0
  6
CONTINUOUS
 62
3
 10
-286.214244486318190
 20
-205.878156630171590
 40
12.999999999999776
 50
236.296430203428680
 51
270.000000000000000
  0
ARC
  8
0
  6
CONTINUOUS
 62
3
 10
-344.574634179529310
 20
-138.238546323382930
 40
6.500000000000028
 50
18.226699476751552
 51
110.356064027258460
  0
LINE
  8
0
  6
CONTINUOUS
 62
3
 10
-338.079445084809890
 20
-134.488552450639470
 11
-338.078957750221320
 21
-136.010252409907620
  0
LINE
  8
0
  6
CONTINUOUS
 62
3
 10
-344.577035387897010
 20
-130.734383509575880
 11
-338.079446527451410
 21
-134.488551419128440
  0
LINE
  8
0
  6
CONTINUOUS
 62
3
 10
-346.871824209082090
 20
-132.059277338446210
 11
-344.577035559045380
 21
-130.734382146967500
  0
ARC
  8
0
  6
CONTINUOUS
 62
3
 10
-471.853854793107980
 20
-138.238546323382930
 40
6.500000000000004
 50
69.643935972741531
 51
268.435835376531830
  0
LINE
  8
0
  6
CONTINUOUS
 62
3
 10
-471.856256001475690
 20
-130.734383509575880
 11
-469.557950926736570
 21
-132.062295038492720
  0
LINE
  8
0
  6
CONTINUOUS
 62
3
 10
-478.351448508895600
 20
-134.484378511084860
 11
-471.856256172624060
 21
-130.734382146967500
  0
LINE
  8
0
  6
CONTINUOUS
 62
3
 10
-478.349043887827410
 20
-141.988540196126390
 11
-478.351447144924350
 21
-134.484381222432550
  0
LINE
  8
0
  6
CONTINUOUS
 62
3
 10
-472.106493171316630
 20
-145.595352717423420
 11
-478.349042445185890
 21
-141.988541227637430
  0
ARC
  8
0
  6
CONTINUOUS
 62
3
 10
-408.214244486318650
 20
-656.878157443065670
 40
600.000000000000000
 50
91.957986872393320
 51
92.924523789728269
  0
ARC
  8
0
  6
CONTINUOUS
 62
3
 10
-300.590245451485540
 20
-312.878156630171820
 40
3.000000000000000
 50
90.000000000000000
 51
135.930628020448210
  0
ARC
  8
0
  6
CONTINUOUS
 62
3
 10
-307.714244486318190
 20
-325.796917249175290
 40
7.999999999999903
 50
126.828805455883280
 51
180.000000000000000
  0
ARC
  8
0
  6
CONTINUOUS
 62
3
 10
-361.662592633990930
 20
-253.758207293086340
 40
82.000000000000171
 50
306.828805455884380
 51
339.539441936655010
  0
ARC
  8
0
  6
CONTINUOUS
 62
3
 10
-279.214244486318190
 20
-284.519707381998610
 40
6.000000000000000
 50
0.000000000000000
 51
159.539441936656910
  0
ARC
  8
0
  6
CONTINUOUS
 62
3
 10
-515.838243521151750
 20
-312.878156630171820
 40
3.000000000000119
 50
44.069371979551811
 51
90.000000000000000
  0
ARC
  8
0
  6
CONTINUOUS
 62
3
 10
-537.214244486319100
 20
-284.519707381998610
 40
6.000000000000107
 50
20.460558063343086
 51
180.000000000000000
  0
ARC
  8
0
  6
CONTINUOUS
 62
3
 10
-508.714244486319100
 20
-325.796917249175290
 40
8.000000000000000
 50
0.000000000000000
 51
53.171194544116702
  0
ARC
  8
0
  6
CONTINUOUS
 62
3
 10
-454.765896338646370
 20
-253.758207293086340
 40
81.999999999999886
 50
200.460558063344960
 51
233.171194544115650
  0
ARC
  8
0
  6
CONTINUOUS
 62
3
 10
-433.214244486319100
 20
-167.516328118383170
 40
110.000000000000040
 50
92.924523789728156
 51
180.000000000000000
  0
ARC
  8
0
  6
CONTINUOUS
 62
3
 10
-383.214244486318190
 20
-167.516328118383170
 40
110.000000000000000
 50
0.000000000000000
 51
87.075476210271844
  0
ARC
  8
0
  6
CONTINUOUS
 62
3
 10
-317.714244486318650
 20
-331.878156630171820
 40
2.000000000000000
 50
0.000000000000000
 51
90.000000000000000
  0
ARC
  8
0
  6
CONTINUOUS
 62
3
 10
-498.714244486319100
 20
-331.878156630171820
 40
2.000000000000000
 50
90.000000000000000
 51
180.000000000000000
  0
ARC
  8
0
  6
CONTINUOUS
 62
3
 10
-546.214244486319100
 20
-306.878156630171820
 40
3.000000000000000
 50
270.000000000000000
 51
0.000000000000000
  0
LINE
  8
0
  6
CONTINUOUS
 62
3
 10
-408.214244486318650
 20
-329.878156630171820
 11
-317.714244486318650
 21
-329.878156630171820
  0
LINE
  8
0
  6
CONTINUOUS
 62
3
 10
-315.714244486318650
 20
-331.878156630171820
 11
-265.714244486318650
 21
-331.878156630171820
  0
LINE
  8
0
  6
CONTINUOUS
 62
3
 10
-315.714244486318650
 20
-325.796917249175290
 11
-315.714244486318650
 21
-331.878156630171820
  0
LINE
  8
0
  6
CONTINUOUS
 62
3
 10
-515.838243521151750
 20
-309.878156630171820
 11
-547.714244486319100
 21
-309.878156630171820
  0
LINE
  8
0
  6
DASHDOT
 62
4
 10
-533.214244486319100
 20
-305.665324255598990
 11
-533.214244486319100
 21
-336.510094839705740
  0
LINE
  8
0
  6
CONTINUOUS
 62
3
 10
-500.714244486319100
 20
-325.796917249175290
 11
-500.714244486319100
 21
-331.878156630171820
  0
LINE
  8
0
  6
CONTINUOUS
 62
3
 10
-500.714244486319100
 20
-331.878156630171820
 11
-550.714244486319100
 21
-331.878156630171820
  0
LINE
  8
0
  6
CONTINUOUS
 62
3
 10
-408.214244486318650
 20
-329.878156630171820
 11
-498.714244486319100
 21
-329.878156630171820
  0
LINE
  8
0
  6
CONTINUOUS
 62
3
 10
-550.714244486319100
 20
-312.878156630171820
 11
-550.714244486319100
 21
-331.878156630171820
  0
ARC
  8
0
  6
CONTINUOUS
 62
3
 10
-547.714244486319100
 20
-312.878156630171820
 40
3.000000000000000
 50
90.000000000000000
 51
180.000000000000000
  0
LINE
  8
0
  6
CONTINUOUS
 62
3
 10
-300.590245451485540
 20
-309.878156630171820
 11
-268.714244486318650
 21
-309.878156630171820
  0
ARC
  8
0
  6
CONTINUOUS
 62
3
 10
-268.714244486318650
 20
-312.878156630171820
 40
3.000000000000000
 50
0.000000000000000
 51
90.000000000000000
  0
LINE
  8
0
  6
DASHDOT
 62
4
 10
-283.214244486318650
 20
-305.665324255598990
 11
-283.214244486318650
 21
-336.510094839705740
  0
LINE
  8
0
  6
CONTINUOUS
 62
3
 10
-265.714244486318650
 20
-312.878156630171820
 11
-265.714244486318650
 21
-331.878156630171820
  0
LINE
  8
0
  6
CONTINUOUS
 62
3
 10
-543.214244486319100
 20
-167.516328118383170
 11
-543.214244486319100
 21
-306.878156630171820
  0
LINE
  8
0
  6
CONTINUOUS
 62
3
 10
-273.214244486318650
 20
-167.516328118383170
 11
-273.214244486318650
 21
-306.878156630171820
  0
ARC
  8
0
  6
CONTINUOUS
 62
3
 10
-270.214244486318650
 20
-306.878156630171820
 40
3.000000000000000
 50
180.000000000000000
 51
270.000000000000000
  0
LINE
  8
0
  6
DASHDOT
 62
4
 10
-408.214244486318650
 20
-13.735108821971835
 11
-408.214244486318650
 21
-339.827946677197590
  0
CIRCLE
  8
0
  6
CONTINUOUS
 62
3
 10
-408.214244486317740
 20
-41.878156630171816
 40
10.000000000000000
  0
LINE
  8
0
  6
DASHDOT
 62
4
 10
-385.046331487436190
 20
-41.878156630171816
 11
-432.068845388970890
 21
-41.878156630171816
  0
LINE
  8
0
  6
CONTINUOUS
 62
3
 10
-397.714244486317740
 20
-21.878156630172043
 11
-418.714244486317740
 21
-21.878156630172043
  0
LINE
  8
0
  6
CONTINUOUS
 62
3
 10
-428.714244486317740
 20
-31.878156630172043
 11
-428.714244486317740
 21
-57.228467228100726
  0
ARC
  8
0
  6
CONTINUOUS
 62
3
 10
-418.714244486317740
 20
-31.878156630172043
 40
10.000000000000000
 50
90.000000000000000
 51
180.000000000000000
  0
LINE
  8
0
  6
CONTINUOUS
 62
3
 10
-387.714244486317740
 20
-31.878156630172043
 11
-387.714244486317740
 21
-57.228467228100726
  0
ARC
  8
0
  6
CONTINUOUS
 62
3
 10
-397.714244486317740
 20
-31.878156630172043
 40
10.000000000000000
 50
0.000000000000000
 51
90.000000000000000
  0
LINE
  8
0
  6
CONTINUOUS
 62
3
 10
-428.714244486318650
 20
-57.228468040994812
 11
-428.714244486318650
 21
-78.878156630172043
  0
ARC
  8
0
  6
CONTINUOUS
 62
3
 10
-408.214244486318650
 20
-656.878157443065670
 40
600.000000000000000
 50
87.075476210271731
 51
88.042013127606680
  0
LINE
  8
0
  6
CONTINUOUS
 62
3
 10
-387.714244486318650
 20
-57.228468040994812
 11
-387.714244486318650
 21
-78.878156630172043
  0
ARC
  8
0
  6
CONTINUOUS
 62
3
 10
-416.714244486318650
 20
-96.896036608287659
 40
4.999999999999828
 50
274.096043758155470
 51
0.000000000000000
  0
ARC
  8
0
  6
CONTINUOUS
 62
3
 10
-399.714244486318650
 20
-96.896036608287659
 40
5.000000000000000
 50
180.000000000000000
 51
265.903956241844530
  0
ARC
  8
0
  6
CONTINUOUS
 62
3
 10
-479.454272763973450
 20
-285.139000187997230
 40
5.000000000000090
 50
51.218416769277368
 51
135.000000000001820
  0
ARC
  8
0
  6
CONTINUOUS
 62
3
 10
-491.575595374110660
 20
-273.218692237792080
 40
5.000000000000041
 50
315.000000000001820
 51
39.739673259818957
  0
ARC
  8
0
  6
CONTINUOUS
 62
3
 10
-361.662592633991380
 20
-253.758207293086120
 40
44.000000000000071
 50
319.912288498426220
 51
0.098433614225120
  0
ARC
  8
0
  6
CONTINUOUS
 62
3
 10
-330.522529825809900
 20
-291.590686570850950
 40
5.000000000000041
 50
44.999999999998167
 51
129.457930749409770
  0
ARC
  8
0
  6
CONTINUOUS
 62
3
 10
-319.443221576798580
 20
-278.628364259519910
 40
4.999999999999973
 50
149.498945295270290
 51
225.000000000003690
  0
ARC
  8
0
  6
CONTINUOUS
 62
3
 10
-491.575595374110660
 20
-130.537621022552000
 40
5.000000000000097
 50
320.260326740183070
 51
44.999999999998167
  0
ARC
  8
0
  6
CONTINUOUS
 62
3
 10
-479.454272763973450
 20
-118.617313072346860
 40
5.000000000000041
 50
224.999999999998180
 51
308.781583230722620
  0
ARC
  8
0
  6
CONTINUOUS
 62
3
 10
-336.974216208663850
 20
-118.617313072346860
 40
4.999999999999913
 50
231.218416769275730
 51
315.000000000001820
  0
ARC
  8
0
  6
CONTINUOUS
 62
3
 10
-324.852893598526630
 20
-130.537621022552000
 40
5.000000000000041
 50
135.000000000001820
 51
219.739673259816950
  0
ARC
  8
0
  6
CONTINUOUS
 62
3
 10
-371.425921296756090
 20
-301.775677170442580
 40
4.999999999999877
 50
78.506801628089917
 51
102.770071443534390
  0
ARC
  8
0
  6
CONTINUOUS
 62
3
 10
-312.662664945525880
 20
-253.674025792015980
 40
4.999999999999810
 50
155.835163798775620
 51
180.098433614223640
  0
ARC
  8
0
  6
CONTINUOUS
 62
3
 10
-361.662592633991380
 20
-253.758207293086120
 40
44.000000000000099
 50
258.506801628087090
 51
319.912288498426220
  0
ARC
  8
0
  6
CONTINUOUS
 62
3
 10
-293.214244486318650
 20
-217.285402450294210
 40
19.999999999999925
 50
345.029598694534740
 51
0.000000000000000
  0
ARC
  8
0
  6
CONTINUOUS
 62
3
 10
-361.662592633991380
 20
-253.758207293086120
 40
77.000000000000085
 50
305.114466930115950
 51
340.000000000000340
  0
ARC
  8
0
  6
CONTINUOUS
 62
3
 10
-312.769588538740440
 20
-323.288590224160090
 40
7.999999999999969
 50
125.114466930115760
 51
175.505843472000290
  0
ARC
  8
0
  6
CONTINUOUS
 62
3
 10
-330.714244486318650
 20
-321.878156630171590
 40
10.000000000000000
 50
306.869897645843990
 51
355.505843472000610
  0
ARC
  8
0
  6
CONTINUOUS
 62
3
 10
-276.845065092344840
 20
-221.878156630171590
 40
2.999999999999921
 50
345.029598694536160
 51
90.000000000000000
  0
ARC
  8
0
  6
CONTINUOUS
 62
3
 10
-286.214244486318190
 20
-205.878156630171590
 40
13.000000000000000
 50
90.000000000000000
 51
113.210423839732210
  0
ARC
  8
0
  6
CONTINUOUS
 62
3
 10
-276.214244486318650
 20
-189.878156630171590
 40
3.000000000000000
 50
270.000000000000000
 51
0.000000000000000
  0
ARC
  8
0
  6
CONTINUOUS
 62
3
 10
-314.207197641626640
 20
-307.906018755033760
 40
4.999999999999997
 50
311.231476075718940
 51
45.000000000001855
  0
ARC
  8
0
  6
CONTINUOUS
 62
3
 10
-302.820753328816180
 20
-295.250832507501630
 40
5.000000000000041
 50
224.999999999998180
 51
324.810226266867350
  0
ARC
  8
0
  6
CONTINUOUS
 62
3
 10
-310.309430119029230
 20
-91.952526982712470
 40
5.000000000000201
 50
315.000000000000000
 51
46.026024481648633
  0
ARC
  8
0
  6
CONTINUOUS
 62
3
 10
-299.050508473769010
 20
-104.735235897795060
 40
4.999999999999919
 50
36.720727734713748
 51
135.000000000000000
  0
ARC
  8
0
  6
CONTINUOUS
 62
3
 10
-399.714244486318650
 20
-86.878156630172043
 40
5.000000000000000
 50
90.000000000000000
 51
180.000000000000000
  0
ARC
  8
0
  6
CONTINUOUS
 62
3
 10
-416.714244486318650
 20
-86.878156630172043
 40
5.000000000000000
 50
0.000000000000000
 51
90.000000000000000
  0
ARC
  8
0
  6
CONTINUOUS
 62
3
 10
-390.714244486318650
 20
-78.878156630172043
 40
3.000000000000000
 50
270.000000000000000
 51
0.000000000000000
  0
ARC
  8
0
  6
CONTINUOUS
 62
3
 10
-425.714244486318650
 20
-78.878156630172043
 40
3.000000000000000
 50
180.000000000000000
 51
270.000000000000000
  0
LINE
  8
0
  6
CONTINUOUS
 62
3
 10
-273.893056447618850
 20
-222.451802819332670
 11
-289.306260833476930
 21
-280.093758329162260
  0
LINE
  8
0
  6
CONTINUOUS
 62
3
 10
-286.214244486318190
 20
-218.878156630171590
 11
-276.845065092344840
 21
-218.878156630171590
  0
LINE
  8
0
  6
CONTINUOUS
 62
3
 10
-286.214244486318190
 20
-192.878156630171590
 11
-276.214244486318650
 21
-192.878156630171590
  0
LINE
  8
0
  6
CONTINUOUS
 62
3
 10
-488.040061468177780
 20
-276.754226143724740
 11
-510.072201737888240
 21
-298.786366413434510
  0
LINE
  8
0
  6
CONTINUOUS
 62
3
 10
-482.989806669906330
 20
-281.603466282064570
 11
-505.756825236943090
 21
-304.370484849101330
  0
LINE
  8
0
  6
CONTINUOUS
 62
3
 10
-488.040061468177780
 20
-127.002087116619350
 11
-513.842446592935400
 21
-101.199701991862180
  0
LINE
  8
0
  6
CONTINUOUS
 62
3
 10
-482.989806669906330
 20
-122.152846978279510
 11
-509.654592759540950
 21
-95.488060888645350
  0
LINE
  8
0
  6
CONTINUOUS
 62
3
 10
-333.438682302730970
 20
-122.152846978279510
 11
-306.773896213096350
 21
-95.488060888645350
  0
LINE
  8
0
  6
CONTINUOUS
 62
3
 10
-328.388427504459510
 20
-127.002087116619350
 11
-302.586042379701890
 21
-101.199701991862180
  0
LINE
  8
0
  6
CONTINUOUS
 62
3
 10
-411.714244486318650
 20
-86.878156630172043
 11
-411.714244486318650
 21
-96.896036608287659
  0
LINE
  8
0
  6
CONTINUOUS
 62
3
 10
-404.714244486318650
 20
-86.878156630172043
 11
-404.714244486318650
 21
-96.896036608287659
  0
LINE
  8
0
  6
CONTINUOUS
 62
3
 10
-408.214244486318650
 20
-81.878156630172043
 11
-390.714244486318650
 21
-81.878156630172043
  0
LINE
  8
0
  6
CONTINUOUS
 62
3
 10
-425.714244486318650
 20
-81.878156630172043
 11
-408.214244486318650
 21
-81.878156630172043
  0
LINE
  8
0
  6
CONTINUOUS
 62
3
 10
-322.978755482731000
 20
-282.163898165452790
 11
-306.356287234749060
 21
-298.786366413434280
  0
LINE
  8
0
  6
CONTINUOUS
 62
3
 10
-326.986995919877020
 20
-288.055152664918300
 11
-310.671663735694210
 21
-304.370484849101100
  0
ARC
  8
0
  6
CONTINUOUS
 62
3
 10
-523.214244486319100
 20
-217.285402450294210
 40
20.000000000000000
 50
180.000000000000000
 51
194.970401305464950
  0
ARC
  8
0
  6
CONTINUOUS
 62
3
 10
-485.714244486318650
 20
-321.878156630171590
 40
9.999999999999778
 50
184.494156527999370
 51
233.130102354155980
  0
ARC
  8
0
  6
CONTINUOUS
 62
3
 10
-503.658900433896860
 20
-323.288590224160090
 40
8.000000000000373
 50
4.494156527999717
 51
54.885533069884232
  0
ARC
  8
0
  6
CONTINUOUS
 62
3
 10
-454.765896338645920
 20
-253.758207293086120
 40
77.000000000000270
 50
199.999999999999660
 51
234.885533069884020
  0
ARC
  8
0
  6
CONTINUOUS
 62
3
 10
-539.583423880292460
 20
-221.878156630171590
 40
3.000000000000000
 50
90.000000000000000
 51
194.970401305463840
  0
ARC
  8
0
  6
CONTINUOUS
 62
3
 10
-530.214244486319100
 20
-205.878156630171590
 40
13.000000000000000
 50
270.000000000000000
 51
90.000000000000000
  0
ARC
  8
0
  6
CONTINUOUS
 62
3
 10
-540.214244486318650
 20
-189.878156630171590
 40
3.000000000000000
 50
180.000000000000000
 51
270.000000000000000
  0
ARC
  8
0
  6
CONTINUOUS
 62
3
 10
-513.607735643821120
 20
-295.250832507501850
 40
5.000000000000048
 50
215.189773733129640
 51
315.000000000001820
  0
ARC
  8
0
  6
CONTINUOUS
 62
3
 10
-502.221291331010660
 20
-307.906018755033980
 40
4.999999999999718
 50
134.999999999998150
 51
228.768523924275400
  0
LINE
  8
0
  6
CONTINUOUS
 62
3
 10
-542.535432525019360
 20
-222.451802819332670
 11
-527.122228139161280
 21
-280.093758329162260
  0
LINE
  8
0
  6
CONTINUOUS
 62
3
 10
-530.214244486319100
 20
-218.878156630171590
 11
-539.583423880292460
 21
-218.878156630171590
  0
LINE
  8
0
  6
CONTINUOUS
 62
3
 10
-530.214244486319100
 20
-192.878156630171590
 11
-540.214244486318650
 21
-192.878156630171590
  0
ARC
  8
0
  6
CONTINUOUS
 62
3
 10
-517.377980498868280
 20
-104.735235897795060
 40
5.000000000000201
 50
45.000000000000000
 51
143.279272265286270
  0
ARC
  8
0
  6
CONTINUOUS
 62
3
 10
-506.119058853608070
 20
-91.952526982712470
 40
4.999999999999923
 50
133.973975518351350
 51
225.000000000000000
  0
INSERT
  8
0
  2
SYM3
 10
-530.214244486318650
 20
-229.878156630171590
 41
-1.000000000000000
  0
INSERT
  8
0
  2
SYM3
 10
-529.214244486318190
 20
-139.878157443064990
 41
-1.000000000000000
  0
INSERT
  8
0
  2
SYM3
 10
-458.214244486318190
 20
-70.878157443065220
 41
-1.000000000000000
  0
INSERT
  8
0
  2
SYM3
 10
-418.714244486318650
 20
-69.878156630172043
 41
-1.000000000000000
  0
INSERT
  8
0
  2
SYM3
 10
-485.714244486318190
 20
-321.878156630171590
 41
-1.000000000000000
  0
INSERT
  8
0
  2
SYM3
 10
-400.714244486318650
 20
-321.878156630171590
  0
INSERT
  8
0
  2
SYM3
 10
-330.714244486318650
 20
-321.878156630171590
  0
INSERT
  8
0
  2
SYM3
 10
-287.214244486318650
 20
-139.878157443064990
  0
INSERT
  8
0
  2
SYM3
 10
-358.214244486318650
 20
-70.878157443065220
  0
INSERT
  8
0
  2
SYM3
 10
-397.714244486318650
 20
-69.878156630172043
  0
ARC
  8
0
  6
CONTINUOUS
 62
3
 10
-478.144484569916360
 20
-148.457547106783070
 40
1.999999999999921
 50
58.384308452266424
 51
142.623325274950420
  0
ARC
  8
0
  6
CONTINUOUS
 62
3
 10
-471.853854793108210
 20
-138.238546323382930
 40
9.999999999999989
 50
238.384308452267760
 51
267.319870332125790
  0
ARC
  8
0
  6
CONTINUOUS
 62
3
 10
-461.634854009707960
 20
-271.808396713769300
 40
1.999999999999898
 50
148.384308452273670
 51
232.623325274952980
  0
ARC
  8
0
  6
CONTINUOUS
 62
3
 10
-478.144484569916360
 20
-255.298766153561020
 40
1.999999999999958
 50
217.376674725049580
 51
301.615691547733600
  0
ARC
  8
0
  6
CONTINUOUS
 62
3
 10
-471.853854793108210
 20
-265.517766936961150
 40
10.000000000000108
 50
328.384308452266620
 51
121.615691547732220
  0
ARC
  8
0
  6
CONTINUOUS
 62
3
 10
-354.793634962929220
 20
-271.808396713769300
 40
1.999999999999890
 50
307.376674725047000
 51
31.615691547728044
  0
ARC
  8
0
  6
CONTINUOUS
 62
3
 10
-338.284004402720940
 20
-255.298766153561020
 40
1.999999999999921
 50
238.384308452266400
 51
322.623325274950450
  0
ARC
  8
0
  6
CONTINUOUS
 62
3
 10
-344.574634179529080
 20
-265.517766936961150
 40
9.999999999999989
 50
58.384308452267781
 51
211.615691547733350
  0
ARC
  8
0
  6
CONTINUOUS
 62
3
 10
-438.714244486318650
 20
-230.472794781309630
 40
3.000000000000000
 50
0.000000000000000
 51
6.837139023201846
  0
ARC
  8
0
  6
CONTINUOUS
 62
3
 10
-427.714244486318650
 20
-234.493337144773020
 40
3.000000000000230
 50
59.125594592429294
 51
180.000000000000000
  0
ARC
  8
0
  6
CONTINUOUS
 62
3
 10
-388.714244486318650
 20
-234.493337144773020
 40
3.000000000000000
 50
0.000000000000000
 51
120.874405407570700
  0
ARC
  8
0
  6
CONTINUOUS
 62
3
 10
-377.714244486318650
 20
-230.472794781309630
 40
3.000000000000032
 50
173.162860976798130
 51
180.000000000000000
  0
ARC
  8
0
  6
CONTINUOUS
 62
3
 10
-408.214244486318650
 20
-201.878156630172040
 40
35.000000000000092
 50
235.503770534084790
 51
304.496229465915180
  0
LINE
  8
0
  6
CONTINUOUS
 62
3
 10
-420.087227832526200
 20
-298.878156630172040
 11
-426.214244486319560
 21
-298.878156630172040
  0
ARC
  8
0
  6
CONTINUOUS
 62
3
 10
-390.214244486318190
 20
-218.878156630172040
 40
79.999999999999872
 50
323.661143755959020
 51
0.000000000000000
  0
ARC
  8
0
  6
CONTINUOUS
 62
3
 10
-420.087227832526200
 20
-300.878156630172040
 40
2.000000000000063
 50
14.477512185929456
 51
90.000000000000000
  0
ARC
  8
0
  6
CONTINUOUS
 62
3
 10
-416.214244486318650
 20
-299.878156630172040
 40
2.000000000000063
 50
194.477512185929440
 51
270.000000000000000
  0
ARC
  8
0
  6
CONTINUOUS
 62
3
 10
-426.214244486319560
 20
-218.878156630172040
 40
80.000000000000000
 50
180.000000000000000
 51
202.119118468599990
  0
ARC
  8
0
  6
CONTINUOUS
 62
3
 10
-396.341261140111560
 20
-300.878156630172040
 40
2.000000000000000
 50
90.000000000000000
 51
165.522487814070560
  0
ARC
  8
0
  6
CONTINUOUS
 62
3
 10
-400.214244486319100
 20
-299.878156630172040
 40
2.000000000000000
 50
270.000000000000000
 51
345.522487814070530
  0
ARC
  8
0
  6
CONTINUOUS
 62
3
 10
-396.341261140111560
 20
-102.878156630172040
 40
2.000000000000063
 50
194.477512185929440
 51
270.000000000000000
  0
ARC
  8
0
  6
CONTINUOUS
 62
3
 10
-400.214244486319100
 20
-103.878156630172040
 40
2.000000000000063
 50
14.477512185929456
 51
90.000000000000000
  0
ARC
  8
0
  6
CONTINUOUS
 62
3
 10
-390.214244486318190
 20
-184.878156630172040
 40
79.999999999999972
 50
37.939692129195038
 51
90.000000000000000
  0
ARC
  8
0
  6
CONTINUOUS
 62
3
 10
-420.087227832526200
 20
-102.878156630172040
 40
2.000000000000000
 50
270.000000000000000
 51
345.522487814070530
  0
ARC
  8
0
  6
CONTINUOUS
 62
3
 10
-416.214244486318650
 20
-103.878156630172040
 40
2.000000000000000
 50
90.000000000000000
 51
165.522487814070560
  0
ARC
  8
0
  6
CONTINUOUS
 62
3
 10
-426.214244486319560
 20
-184.878156630172040
 40
80.000000000000000
 50
90.000000000000000
 51
180.000000000000000
  0
ARC
  8
0
  6
CONTINUOUS
 62
3
 10
-426.214244486319560
 20
-218.878156630172040
 40
79.999999999999986
 50
202.119118468599990
 51
242.258787150594940
  0
LINE
  8
0
  6
CONTINUOUS
 62
3
 10
-310.214244486318190
 20
-217.878156630173860
 11
-310.214244486318190
 21
-218.878156630172040
  0
LINE
  8
0
  6
CONTINUOUS
 62
3
 10
-506.214244486319560
 20
-201.878156630172040
 11
-506.214244486319560
 21
-184.878156630172040
  0
LINE
  8
0
  6
CONTINUOUS
 62
3
 10
-506.214244486319560
 20
-201.878156630172040
 11
-506.214244486319560
 21
-218.878156630172040
  0
LINE
  8
0
  6
CONTINUOUS
 62
3
 10
-408.214244486318650
 20
-301.878156630172040
 11
-400.214244486319100
 21
-301.878156630172040
  0
LINE
  8
0
  6
CONTINUOUS
 62
3
 10
-408.214244486318650
 20
-301.878156630172040
 11
-416.214244486318650
 21
-301.878156630172040
  0
LINE
  8
0
  6
CONTINUOUS
 62
3
 10
-420.087227832526200
 20
-298.878156630172040
 11
-426.214244486319560
 21
-298.878156630172040
  0
LINE
  8
0
  6
CONTINUOUS
 62
3
 10
-396.341261140111560
 20
-104.878156630172040
 11
-390.214244486318190
 21
-104.878156630172040
  0
LINE
  8
0
  6
CONTINUOUS
 62
3
 10
-408.214244486318650
 20
-101.878156630172040
 11
-400.214244486319100
 21
-101.878156630172040
  0
LINE
  8
0
  6
CONTINUOUS
 62
3
 10
-420.087227832526200
 20
-104.878156630172040
 11
-426.214244486319560
 21
-104.878156630172040
  0
LINE
  8
0
  6
CONTINUOUS
 62
3
 10
-408.214244486318650
 20
-101.878156630172040
 11
-416.214244486318650
 21
-101.878156630172040
  0
INSERT
  8
0
  2
SYM4
 10
-344.574634179529080
 20
-265.517766936961150
  0
INSERT
  8
0
  2
SYM5
 10
-471.853854793108210
 20
-265.517766936961150
  0
LINE
  8
0
  6
DASHDOT
 62
4
 10
-547.974054200021780
 20
-171.378156630173860
 11
-267.069143560693190
 21
-171.378156630173860
  0
LINE
  8
0
  6
DASHDOT
 62
4
 10
-427.654707997637160
 20
-161.878156630172040
 11
-390.223245434433920
 21
-161.878156630172040
  0
LINE
  8
0
  6
CONTINUOUS
 62
3
 10
160.333188768023550
 20
151.121843369826140
 11
160.333188768023550
 21
154.621843369826140
  0
LINE
  8
0
  6
CONTINUOUS
 62
3
 10
155.333188768023550
 20
178.621843369826140
 11
155.333188768023550
 21
203.271843369826680
  0
LINE
  8
0
  6
CONTINUOUS
 62
3
 10
155.133188768023730
 20
203.621843369826140
 11
153.333188768023550
 21
203.621843369826140
  0
LINE
  8
0
  6
CONTINUOUS
 62
3
 10
157.333188768023550
 20
202.471843369825590
 11
157.892996389158950
 21
202.621843369826140
  0
LINE
  8
0
  6
CONTINUOUS
 62
3
 10
157.333188768023550
 20
202.471843369825590
 11
156.133188768023730
 21
202.471843369825590
  0
LINE
  8
0
  6
CONTINUOUS
 62
3
 10
155.333188768023550
 20
203.271843369826680
 11
155.333188768023550
 21
203.421843369826320
  0
ARC
  8
0
  6
CONTINUOUS
 62
3
 10
156.133188768023730
 20
203.271843369826680
 40
0.800000000000182
 50
180.000000000000000
 51
270.000000000000000
  0
LINE
  8
0
  6
CONTINUOUS
 62
3
 10
155.333188768023550
 20
203.421843369826320
 11
155.133188768023730
 21
203.621843369826140
  0
LINE
  8
0
  6
CONTINUOUS
 62
3
 10
155.333188768023550
 20
178.621843369826140
 11
155.333188768023550
 21
153.971843369825590
  0
LINE
  8
0
  6
CONTINUOUS
 62
3
 10
155.133188768023730
 20
153.621843369826140
 11
153.333188768023550
 21
153.621843369826140
  0
LINE
  8
0
  6
CONTINUOUS
 62
3
 10
157.333188768023550
 20
154.771843369826680
 11
157.892996389158950
 21
154.621843369826140
  0
LINE
  8
0
  6
CONTINUOUS
 62
3
 10
157.333188768023550
 20
154.771843369826680
 11
156.133188768023730
 21
154.771843369826680
  0
LINE
  8
0
  6
CONTINUOUS
 62
3
 10
155.333188768023550
 20
153.971843369825590
 11
155.333188768023550
 21
153.821843369825960
  0
ARC
  8
0
  6
CONTINUOUS
 62
3
 10
156.133188768023730
 20
153.971843369825590
 40
0.800000000001091
 50
90.000000000000000
 51
180.000000000000000
  0
LINE
  8
0
  6
CONTINUOUS
 62
3
 10
155.333188768023550
 20
153.821843369825960
 11
155.133188768023730
 21
153.621843369826140
  0
LINE
  8
0
  6
CONTINUOUS
 62
3
 10
229.933188768023910
 20
202.621843369826140
 11
157.892996389158950
 21
202.621843369826140
  0
LINE
  8
0
  6
CONTINUOUS
 62
3
 10
230.333188768023550
 20
178.621843369826140
 11
230.333188768023550
 21
202.221843369825590
  0
ARC
  8
0
  6
CONTINUOUS
 62
3
 10
229.933188768023910
 20
202.221843369825590
 40
0.399999999999636
 50
0.000000000000000
 51
90.000000000000000
  0
LINE
  8
0
  6
CONTINUOUS
 62
3
 10
230.333188768023550
 20
151.121843369826140
 11
160.333188768023550
 21
151.121843369826140
  0
LINE
  8
0
  6
CONTINUOUS
 62
3
 10
230.333188768023550
 20
178.621843369826140
 11
230.333188768023550
 21
151.121843369826140
  0
LINE
  8
0
  6
CONTINUOUS
 62
3
 10
229.933188768023910
 20
154.621843369826140
 11
157.892996389158950
 21
154.621843369826140
  0
ARC
  8
0
  6
CONTINUOUS
 62
3
 10
229.933188768023910
 20
155.021843369826680
 40
0.400000000000546
 50
270.000000000000000
 51
0.000000000000000
  0
LINE
  8
0
  6
CONTINUOUS
 62
3
 10
152.333188768023550
 20
222.621843369826140
 11
153.333188768023550
 21
222.621843369826140
  0
LINE
  8
0
  6
CONTINUOUS
 62
3
 10
152.333188768023550
 20
134.621843369826140
 11
153.333188768023550
 21
134.621843369826140
  0
ARC
  8
0
  6
CONTINUOUS
 62
3
 10
78.349734220854089
 20
227.378024606701960
 40
84.999999999999162
 50
66.689885608551080
 51
88.999999999999758
  0
ARC
  8
0
  6
CONTINUOUS
 62
3
 10
78.349734220854089
 20
129.865662132950320
 40
84.999999999999758
 50
271.000000000000230
 51
293.310114391448960
  0
ARC
  8
0
  6
CONTINUOUS
 62
3
 10
110.797759816696490
 20
302.684901018697250
 40
3.000000000000230
 50
2.147816690766376
 51
66.689885608550057
  0
ARC
  8
0
  6
CONTINUOUS
 62
3
 10
110.797759816696490
 20
54.558785720955029
 40
2.999999999999306
 50
293.310114391449990
 51
357.852183309233620
  0
LINE
  8
0
  6
CONTINUOUS
 62
3
 10
135.396243486236240
 20
281.625194076386150
 11
142.514495395961830
 21
281.500944527126420
  0
LINE
  8
0
  6
CONTINUOUS
 62
3
 10
135.396243486236240
 20
75.618492663266125
 11
142.514495395961830
 21
75.742742212525854
  0
ARC
  8
0
  6
CONTINUOUS
 62
3
 10
142.462138176650340
 20
278.501401441657660
 40
2.999999999999281
 50
38.568937924282025
 51
89.000000000006764
  0
ARC
  8
0
  6
CONTINUOUS
 62
3
 10
142.462138176650340
 20
78.742285297994613
 40
2.999999999999579
 50
270.999999999993240
 51
321.431062075717930
  0
ARC
  8
0
  6
CONTINUOUS
 62
3
 10
135.780196427857160
 20
303.621843369827050
 40
21.999999999999797
 50
182.147816690761830
 51
268.999999999998240
  0
ARC
  8
0
  6
CONTINUOUS
 62
3
 10
135.780196427857160
 20
53.621843369825228
 40
22.000000000000302
 50
91.000000000001762
 51
177.852183309238170
  0
ARC
  8
0
  6
CONTINUOUS
 62
3
 10
78.349734220854089
 20
227.378024606701960
 40
84.999999999999844
 50
31.410339509413163
 51
38.568937924282686
  0
ARC
  8
0
  6
CONTINUOUS
 62
3
 10
78.349734220854089
 20
129.865662132950320
 40
84.999999999999801
 50
321.431062075717310
 51
328.589660490586820
  0
ARC
  8
0
  6
CONTINUOUS
 62
3
 10
148.333188768023550
 20
270.113444221399050
 40
3.000000000000000
 50
0.000000000000000
 51
31.410339509421355
  0
ARC
  8
0
  6
CONTINUOUS
 62
3
 10
148.333188768023550
 20
87.130242518253226
 40
3.000000000000031
 50
328.589660490578640
 51
0.000000000000000
  0
LINE
  8
0
  6
CONTINUOUS
 62
3
 10
153.333188768023550
 20
178.621843369826140
 11
153.333188768023550
 21
311.294870738669720
  0
LINE
  8
0
  6
CONTINUOUS
 62
3
 10
153.333188768023550
 20
178.621843369826140
 11
153.333188768023550
 21
45.948816000982561
  0
LINE
  8
0
  6
DASHDOT
 62
4
 10
135.333188768023550
 20
317.632327890435820
 11
135.333188768023550
 21
288.525258714883650
  0
LINE
  8
0
  6
DASHDOT
 62
4
 10
135.333188768023550
 20
39.611358849216458
 11
135.333188768023550
 21
68.718428024768627
  0
LINE
  8
0
  6
DASHDOT
 62
4
 10
148.906913899189250
 20
303.621843369827050
 11
122.653478956525070
 21
303.621843369827050
  0
LINE
  8
0
  6
DASHDOT
 62
4
 10
148.906913899189250
 20
53.621843369825228
 11
122.653478956525070
 21
53.621843369825228
  0
CIRCLE
  8
0
  6
CONTINUOUS
 62
3
 10
135.333188768023550
 20
303.621843369827050
 40
7.500000000000000
  0
CIRCLE
  8
0
  6
CONTINUOUS
 62
3
 10
135.333188768023550
 20
53.621843369825228
 40
7.500000000000000
  0
ARC
  8
0
  6
CONTINUOUS
 62
3
 10
152.333188768023550
 20
223.621843369826140
 40
1.000000000000000
 50
180.000000000000000
 51
270.000000000000000
  0
ARC
  8
0
  6
CONTINUOUS
 62
3
 10
152.333188768023550
 20
133.621843369826140
 40
1.000000000000000
 50
90.000000000000000
 51
180.000000000000000
  0
LINE
  8
0
  6
CONTINUOUS
 62
3
 10
151.333188768023550
 20
178.621843369826140
 11
151.333188768023550
 21
270.113444221399050
  0
LINE
  8
0
  6
CONTINUOUS
 62
3
 10
151.333188768023550
 20
178.621843369826140
 11
151.333188768023550
 21
87.130242518253226
  0
ARC
  8
0
  6
CONTINUOUS
 62
3
 10
143.333188768023550
 20
311.294870738669720
 40
10.000000000000000
 50
0.000000000000000
 51
88.999999999998238
  0
ARC
  8
0
  6
CONTINUOUS
 62
3
 10
143.333188768023550
 20
45.948816000982561
 40
10.000000000000137
 50
271.000000000001760
 51
0.000000000000000
  0
TEXT
  8
0
  6
CONTINUOUS
 62
3
 10
-522.061706542968750
 20
198.611770629882810
 40
16.000000000000000
  1
Ｄ００４
 50
0.000002504478167
 41
0.833333333333333
  7
STANDARD1
  0
TEXT
  8
0
  6
CONTINUOUS
 62
3
 10
-522.061706542968750
 20
177.411773681640620
 40
16.000000000000000
  1
三菱ギヤードモートル
 50
0.000002504478167
 41
0.833333333333333
  7
STANDARD1
  0
TEXT
  8
0
  6
CONTINUOUS
 62
3
 10
-522.061706542968750
 20
156.211776733398440
 40
16.000000000000000
  1
ＧＭ－Ｄ
 50
0.000002504478167
 41
0.833333333333333
  7
STANDARD1
  0
TEXT
  8
0
  6
CONTINUOUS
 62
3
 10
-522.061706542968750
 20
135.011779785156250
 40
16.000000000000000
  1
０．４（kＷ）
 50
0.000002504478167
 41
0.804878051688032
  7
STANDARD1
  0
TEXT
  8
0
  6
CONTINUOUS
 62
3
 10
-522.061706542968750
 20
113.811775207519530
 40
16.000000000000000
  1
１／２７０～１／４５０
 50
0.000002504478167
 41
0.833333333333333
  7
STANDARD1
  0
TEXT
  8
0
  6
CONTINUOUS
 62
3
 10
-522.061706542968750
 20
92.611778259277344
 40
16.000000000000000
  1
ＳＣＡＬＥ　１／１
 50
0.000002504478167
 41
0.833333333333333
  7
STANDARD1
  0
ARC
  8
0
  6
CONTINUOUS
 62
3
 10
-297.832636759154640
 20
-227.555063677154520
 40
9.000000000000234
 50
7.398451589678908
 51
40.601531107483503
  0
ARC
  8
0
  6
CONTINUOUS
 62
3
 10
-290.196741133973320
 20
-226.563544554655890
 40
1.299999237060559
 50
293.999982013920090
 51
7.398451589679256
  0
LINE
  8
0
  6
DASHDOT
 62
4
 10
-315.714244486318650
 20
-203.495632850468160
 11
-315.714244486318650
 21
-226.364142026231780
  0
LINE
  8
0
  6
CONTINUOUS
 62
3
 10
-338.408808426583160
 20
-130.027148233258230
 11
-292.691609744858170
 21
-232.709657672284270
  0
ARC
  8
0
  6
CONTINUOUS
 62
3
 10
-291.945808933044870
 20
-165.224806812525910
 40
1.000000000000077
 50
0.587807867721716
 51
53.794291905958382
  0
ARC
  8
0
  6
CONTINUOUS
 62
3
 10
-290.764436816768470
 20
-163.611003874467770
 40
0.999999999999967
 50
180.740494943192910
 51
233.794291905968890
  0
ARC
  8
0
  6
CONTINUOUS
 62
3
 10
-291.534645232921550
 20
-202.770012899462930
 40
0.999999999999769
 50
123.952126946395960
 51
177.005923909151190
  0
ARC
  8
0
  6
CONTINUOUS
 62
3
 10
-292.651645257534030
 20
-201.111003874467770
 40
1.000000000000147
 50
303.952126946381380
 51
357.158610984632960
  0
ARC
  8
0
  6
CONTINUOUS
 62
3
 10
-891.714244486318650
 20
-171.378156630174090
 40
600.799999999999950
 50
357.158610984636650
 51
0.587807867706885
  0
LINE
  8
0
  6
CONTINUOUS
 62
3
 10
-339.714244486318650
 20
-138.686551753114830
 11
-339.714244486318650
 21
-212.878156630173860
  0
LINE
  8
0
  6
CONTINUOUS
 62
3
 10
-340.714244486318650
 20
-202.378156630173860
 11
-339.714244486318650
 21
-202.378156630173860
  0
LINE
  8
0
  6
CONTINUOUS
 62
3
 10
-294.643945631622270
 20
-228.324639475599720
 11
-298.161095643546330
 21
-229.890575551441540
  0
LINE
  8
0
  6
CONTINUOUS
 62
3
 10
-296.270892203925540
 20
-224.670457645029730
 11
-299.788042215849370
 21
-226.236393720871550
  0
ARC
  8
0
  6
CONTINUOUS
 62
3
 10
-295.344230889899560
 20
-215.500791218411000
 40
2.000000000000451
 50
294.000000000027340
 51
355.768661925113970
  0
ARC
  8
0
  6
CONTINUOUS
 62
3
 10
-293.919557222620140
 20
-218.150394470052560
 40
0.999999999999856
 50
113.999999999979760
 51
204.000000000003580
  0
LINE
  8
0
  6
CONTINUOUS
 62
3
 10
-315.838535463514970
 20
-171.378156630173860
 11
-289.626873648892110
 21
-230.250512970953880
  0
ARC
  8
0
  6
CONTINUOUS
 62
3
 10
-290.540419106534730
 20
-230.657249614029520
 40
1.000000000000226
 50
294.000000000027340
 51
23.999999999991683
  0
LINE
  8
0
  6
CONTINUOUS
 62
3
 10
-290.133682463458400
 20
-231.570795071672140
 11
-292.691609744858170
 21
-232.709657672284270
  0
LINE
  8
0
  6
CONTINUOUS
 62
3
 10
-334.714244486318650
 20
-217.878156630173860
 11
-299.295019454989870
 21
-217.878156630173860
  0
ARC
  8
0
  6
CONTINUOUS
 62
3
 10
-334.714244486318650
 20
-212.878156630173860
 40
5.000000000000000
 50
180.000000000000000
 51
270.000000000000000
  0
LINE
  8
0
  6
CONTINUOUS
 62
3
 10
-340.714244486318650
 20
-140.378156630173860
 11
-339.714244486318650
 21
-140.378156630173860
  0
ARC
  8
0
  6
CONTINUOUS
 62
3
 10
-336.714244486318650
 20
-138.686551753114830
 40
2.999999999999567
 50
113.999999999979760
 51
180.000000000000000
  0
LINE
  8
0
  6
CONTINUOUS
 62
3
 10
-336.131083225358220
 20
-135.143002796056860
 11
-337.934454415544910
 21
-135.945915380186990
  0
LINE
  8
0
  6
CONTINUOUS
 62
3
 10
-335.850881145178620
 20
-128.888285632643830
 11
-338.408808426577930
 21
-130.027148233255960
  0
ARC
  8
0
  6
CONTINUOUS
 62
3
 10
-292.748195494006950
 20
-220.781315988060440
 40
0.999999999999983
 50
175.284875165916760
 51
204.000000000003580
  0
ARC
  8
0
  6
CONTINUOUS
 62
3
 10
-891.714244486318650
 20
-171.378156630174090
 40
600.000000000000910
 50
355.284875165908370
 51
1.682768801133149
  0
ARC
  8
0
  6
CONTINUOUS
 62
3
 10
-306.966533471759480
 20
-154.199260762439050
 40
15.000000000000393
 50
1.682768801133086
 51
80.681876880324481
  0
LINE
  8
0
  6
CONTINUOUS
 62
3
 10
-330.493431113103950
 20
-135.138363352835090
 11
-304.537794019567850
 21
-139.397192505828120
  0
ARC
  8
0
  6
CONTINUOUS
 62
3
 10
-330.007683222665260
 20
-132.177949701512940
 40
3.000000000000030
 50
203.999999999999630
 51
260.681876880317470
  0
LINE
  8
0
  6
CONTINUOUS
 62
3
 10
-334.530599044460590
 20
-129.395094447210570
 11
-315.838535463511790
 21
-171.378156630173860
  0
LINE
  8
0
  6
CONTINUOUS
 62
3
 10
-338.079647646912010
 20
-132.721485951068190
 11
-337.343243764149970
 21
-133.034070853859480
  0
LINE
  8
0
  6
CONTINUOUS
 62
3
 10
-337.209901741955950
 20
-132.719936735410100
 11
-337.343243764149970
 21
-133.034070853859480
  0
LINE
  8
0
  6
CONTINUOUS
 62
3
 10
-337.654815487165930
 20
-131.720644102452750
 11
-338.079647646912010
 21
-132.721485951068190
  0
ARC
  8
0
  6
CONTINUOUS
 62
3
 10
-291.986382984137890
 20
-222.543943147068830
 40
1.299999237060495
 50
40.601531107483851
 51
114.000000683246080
  0
LINE
  8
0
  6
CONTINUOUS
 62
3
 10
-293.409524429497420
 20
-221.754540214877580
 11
-292.515140309820940
 21
-221.356334749113330
  0
LINE
  8
0
  6
CONTINUOUS
 62
3
 10
-290.562367927966530
 20
-228.149358418375870
 11
-289.667983808290050
 21
-227.751152952611390
  0
LINE
  8
0
  6
CONTINUOUS
 62
3
 10
-293.409524429497420
 20
-221.754540214877580
 11
-290.562367927966530
 21
-228.149358418375870
  0
LINE
  8
0
  6
CONTINUOUS
 62
3
 10
-293.409524429497420
 20
-221.754540214877580
 11
-290.562367927966530
 21
-228.149358418375870
  0
POINT
  8
0
  6
CONTINUOUS
 62
3
 10
-291.985946178731870
 20
-224.951949316626720
  0
LINE
  8
0
  6
CONTINUOUS
 62
3
 10
-299.965425300947800
 20
-226.698492456122950
 11
-298.623194378797730
 21
-229.713192466343120
  0
LINE
  8
0
  6
CONTINUOUS
 62
3
 10
-298.161095643546330
 20
-229.890575551441540
 11
-298.623194378797730
 21
-229.713192466343120
  0
LINE
  8
0
  6
CONTINUOUS
 62
3
 10
-299.788042215849370
 20
-226.236393720871550
 11
-299.965425300947800
 21
-226.698492456122950
  0
LINE
  8
0
  6
CONTINUOUS
 62
4
 10
-296.128534378849050
 20
-224.990198555204640
 11
-299.965425300947800
 21
-226.698492456122950
  0
LINE
  8
0
  6
CONTINUOUS
 62
4
 10
-294.786303456698530
 20
-228.004898565425260
 11
-298.623194378797510
 21
-229.713192466343570
  0
ARC
  8
0
  6
CONTINUOUS
 62
3
 10
-335.444144502103200
 20
-129.801831090286440
 40
1.000000000000041
 50
24.000000000003585
 51
113.999999999979760
  0
LINE
  8
0
  6
CONTINUOUS
 62
3
 10
-340.714244486318650
 20
-171.378156630173860
 11
-340.714244486318650
 21
-202.378156630173860
  0
LINE
  8
0
  6
CONTINUOUS
 62
3
 10
-340.714244486318650
 20
-171.378156630173860
 11
-340.714244486318650
 21
-140.378156630173860
  0
LINE
  8
0
  6
CONTINUOUS
 62
3
 10
-344.714244486318650
 20
-201.370655692440660
 11
-344.714244486318650
 21
-203.982900316450580
  0
LINE
  8
0
  6
CONTINUOUS
 62
3
 10
-344.714244486318650
 20
-141.385657567907060
 11
-344.714244486318650
 21
-138.773412943897140
  0
LINE
  8
0
  6
CONTINUOUS
 62
3
 10
-344.714244486318650
 20
-138.773412943897140
 11
-341.688067538010730
 21
-138.852656176119980
  0
LINE
  8
0
  6
CONTINUOUS
 62
3
 10
-340.714244486318650
 20
-202.903999759252200
 11
-340.714244486318650
 21
-139.852313501095520
  0
ARC
  8
0
  6
CONTINUOUS
 62
3
 10
-341.714244486318650
 20
-139.852313501095520
 40
1.000000000000000
 50
0.000000000000000
 51
88.499999999997257
  0
ARC
  8
0
  6
CONTINUOUS
 62
3
 10
-341.714244486318650
 20
-202.903999759252200
 40
0.999999999999988
 50
271.500000000002730
 51
0.000000000000000
  0
LINE
  8
0
  6
CONTINUOUS
 62
3
 10
-344.714244486318650
 20
-203.982900316450580
 11
-341.688067538010730
 21
-203.903657084227750
  0
ARC
  8
0
  6
CONTINUOUS
 62
4
 10
-408.214244486318650
 20
-411.978156630173770
 40
289.396999999999930
 50
90.000000000000000
 51
97.897988672427743
  0
ARC
  8
0
  6
CONTINUOUS
 62
4
 10
-447.155762441700740
 20
-131.269379089587120
 40
5.999999999999923
 50
97.897988672425626
 51
134.999999999996930
  0
ARC
  8
0
  6
CONTINUOUS
 62
3
 10
-452.162831916601140
 20
-121.281542162645560
 40
6.599999999999971
 50
98.597082237248614
 51
134.999999999998610
  0
ARC
  8
0
  6
CONTINUOUS
 62
3
 10
-412.214244486318650
 20
-142.655343397483420
 40
1.499999999999998
 50
277.928141766204020
 51
0.000000000000000
  0
ARC
  8
0
  6
CONTINUOUS
 62
3
 10
-408.214244486318190
 20
-171.378156630173860
 40
33.499999999999950
 50
97.180755781459069
 51
142.819244218541740
  0
ARC
  8
0
  6
CONTINUOUS
 62
3
 10
-408.214244486318190
 20
-171.378156630173860
 40
43.000000000000043
 50
95.531071524839788
 51
144.468928475160770
  0
ARC
  8
0
  6
CONTINUOUS
 62
3
 10
-408.214244486318190
 20
-171.378156630173860
 40
37.000000000000099
 50
95.963570118321798
 51
144.036429881678830
  0
ARC
  8
0
  6
CONTINUOUS
 62
3
 10
-431.088930413984370
 20
-153.552648398690740
 40
1.499999999999926
 50
239.999999999998410
 51
322.071858233800300
  0
ARC
  8
0
  6
CONTINUOUS
 62
3
 10
-433.709698656053210
 20
-152.039547148648580
 40
1.500000000000103
 50
142.819244218542510
 51
239.999999999998410
  0
ARC
  8
0
  6
CONTINUOUS
 62
3
 10
-439.375780940469440
 20
-148.768233016490290
 40
1.500000000000123
 50
240.000000000002730
 51
324.036429881683720
  0
LINE
  8
0
  6
CONTINUOUS
 62
3
 10
-431.838930413984370
 20
-154.851686504367310
 11
-434.459698656053210
 21
-153.338585254325150
  0
LINE
  8
0
  6
CONTINUOUS
 62
3
 10
-440.125780940469440
 20
-150.067271122167090
 11
-442.736964539453540
 21
-148.559703568389980
  0
ARC
  8
0
  6
CONTINUOUS
 62
3
 10
-441.986964539453540
 20
-147.260665462713180
 40
1.499999999999976
 50
144.468928475160790
 51
240.000000000002730
  0
ARC
  8
0
  6
CONTINUOUS
 62
3
 10
-437.709698656053660
 20
-183.788562881423560
 40
1.500000000000157
 50
202.819244218546660
 51
300.000000000001590
  0
LINE
  8
0
  6
CONTINUOUS
 62
3
 10
-436.959698656053660
 20
-185.087600987100130
 11
-434.338930413984370
 21
-183.574499737058200
  0
ARC
  8
0
  6
CONTINUOUS
 62
3
 10
-443.375780940469890
 20
-187.059877013581850
 40
1.499999999999926
 50
300.000000000001590
 51
24.036429881677126
  0
LINE
  8
0
  6
CONTINUOUS
 62
3
 10
-445.236964539453990
 20
-189.866482673035760
 11
-442.625780940469890
 21
-188.358915119258430
  0
ARC
  8
0
  6
CONTINUOUS
 62
3
 10
-445.986964539453990
 20
-188.567444567358730
 40
1.500000000000128
 50
204.468928475167470
 51
299.999999999992950
  0
ARC
  8
0
  6
CONTINUOUS
 62
3
 10
-435.088930413984370
 20
-182.275461631381180
 40
1.500000000000320
 50
299.999999999992950
 51
22.071858233784546
  0
ARC
  8
0
  6
CONTINUOUS
 62
3
 10
-408.214244486318420
 20
-171.378156630174320
 40
33.499999999999794
 50
157.180755781458400
 51
202.819244218540940
  0
ARC
  8
0
  6
CONTINUOUS
 62
3
 10
-408.214244486318420
 20
-171.378156630174320
 40
43.000000000000121
 50
155.531071524839230
 51
204.468928475160200
  0
ARC
  8
0
  6
CONTINUOUS
 62
3
 10
-408.214244486318420
 20
-171.378156630174320
 40
37.000000000000156
 50
155.963570118321120
 51
204.036429881678230
  0
ARC
  8
0
  6
CONTINUOUS
 62
3
 10
-408.214244486319100
 20
-171.378156630173860
 40
27.499999999999886
 50
157.928141766202200
 51
202.071858233798680
  0
ARC
  8
0
  6
CONTINUOUS
 62
3
 10
-435.088930413984600
 20
-160.480851628966550
 40
1.500000000000110
 50
337.928141766202600
 51
59.999999999998380
  0
ARC
  8
0
  6
CONTINUOUS
 62
3
 10
-437.709698656053430
 20
-158.967750378924620
 40
1.500000000000123
 50
60.000000000002721
 51
157.180755781457980
  0
ARC
  8
0
  6
CONTINUOUS
 62
3
 10
-443.375780940469670
 20
-155.696436246766320
 40
1.499999999999855
 50
335.963570118319300
 51
59.999999999990862
  0
LINE
  8
0
  6
CONTINUOUS
 62
3
 10
-434.338930413984600
 20
-159.181813523289970
 11
-436.959698656053430
 21
-157.668712273247820
  0
LINE
  8
0
  6
CONTINUOUS
 62
3
 10
-442.625780940469440
 20
-154.397398141089750
 11
-445.236964539453990
 21
-152.889830587312640
  0
ARC
  8
0
  6
CONTINUOUS
 62
3
 10
-445.986964539453990
 20
-154.188868692989220
 40
1.499999999999926
 50
59.999999999998380
 51
155.531071524840400
  0
ARC
  8
0
  6
CONTINUOUS
 62
3
 10
-433.709698656053660
 20
-190.716766111698920
 40
1.499999999999926
 50
120.000000000001620
 51
217.180755781464400
  0
LINE
  8
0
  6
CONTINUOUS
 62
3
 10
-434.459698656053660
 20
-189.417728006022340
 11
-431.838930413984370
 21
-187.904626755979960
  0
ARC
  8
0
  6
CONTINUOUS
 62
3
 10
-439.375780940469890
 20
-193.988080243857210
 40
1.499999999999968
 50
35.963570118309242
 51
120.000000000001620
  0
LINE
  8
0
  6
CONTINUOUS
 62
3
 10
-442.736964539453990
 20
-194.196609691957970
 11
-440.125780940469890
 21
-192.689042138180640
  0
ARC
  8
0
  6
CONTINUOUS
 62
3
 10
-441.986964539453990
 20
-195.495647797634550
 40
1.499999999999926
 50
120.000000000001620
 51
215.531071524832130
  0
ARC
  8
0
  6
CONTINUOUS
 62
3
 10
-431.088930413984370
 20
-189.203664861656990
 40
1.500000000000122
 50
37.928141766218701
 51
119.999999999992930
  0
ARC
  8
0
  6
CONTINUOUS
 62
3
 10
-408.214244486318880
 20
-171.378156630173410
 40
33.500000000000163
 50
217.180755781459110
 51
262.819244218541770
  0
ARC
  8
0
  6
CONTINUOUS
 62
3
 10
-408.214244486318880
 20
-171.378156630173410
 40
42.999999999999858
 50
215.531071524839690
 51
264.468928475160850
  0
ARC
  8
0
  6
CONTINUOUS
 62
3
 10
-408.214244486318880
 20
-171.378156630173410
 40
37.000000000000021
 50
215.963570118321970
 51
264.036429881678940
  0
ARC
  8
0
  6
CONTINUOUS
 62
3
 10
-408.214244486318880
 20
-171.378156630174320
 40
27.499999999999780
 50
217.928141766201070
 51
262.071858233797400
  0
ARC
  8
0
  6
CONTINUOUS
 62
3
 10
-412.214244486318880
 20
-200.100969862864300
 40
1.500000000000000
 50
0.000000000000000
 51
82.071858233804562
  0
ARC
  8
0
  6
CONTINUOUS
 62
3
 10
-412.214244486318880
 20
-203.127172362948610
 40
1.499999999999998
 50
262.819244218541710
 51
0.000000000000000
  0
ARC
  8
0
  6
CONTINUOUS
 62
3
 10
-412.214244486318880
 20
-209.669800627265200
 40
1.500000000000000
 50
0.000000000017370
 51
84.036429881682594
  0
LINE
  8
0
  6
CONTINUOUS
 62
3
 10
-410.714244486318880
 20
-200.100969862864300
 11
-410.714244486318880
 21
-203.127172362948610
  0
LINE
  8
0
  6
CONTINUOUS
 62
3
 10
-410.714244486318880
 20
-209.669800627264750
 11
-410.714244486318880
 21
-212.684935734818960
  0
ARC
  8
0
  6
CONTINUOUS
 62
3
 10
-412.214244486318880
 20
-212.684935734818960
 40
1.500000000000430
 50
264.468928475160000
 51
0.000000000000000
  0
ARC
  8
0
  6
CONTINUOUS
 62
3
 10
-382.718790316583640
 20
-190.716766111698920
 40
1.500000000000240
 50
322.819244218535570
 51
59.999999999998380
  0
LINE
  8
0
  6
CONTINUOUS
 62
3
 10
-381.968790316583640
 20
-189.417728006022340
 11
-384.589558558652930
 21
-187.904626755979960
  0
ARC
  8
0
  6
CONTINUOUS
 62
3
 10
-377.052708032167400
 20
-193.988080243857210
 40
1.499999999999926
 50
59.999999999998380
 51
144.036429881690740
  0
ARC
  8
0
  6
CONTINUOUS
 62
3
 10
-385.339558558652930
 20
-189.203664861656990
 40
1.500000000000320
 50
60.000000000007070
 51
142.071858233781280
  0
ARC
  8
0
  6
CONTINUOUS
 62
3
 10
-408.214244486318420
 20
-171.378156630173410
 40
33.500000000000114
 50
277.180755781458230
 51
322.819244218540860
  0
ARC
  8
0
  6
CONTINUOUS
 62
3
 10
-408.214244486318420
 20
-171.378156630173410
 40
43.000000000000199
 50
275.531071524838860
 51
324.468928475160340
  0
ARC
  8
0
  6
CONTINUOUS
 62
3
 10
-408.214244486318420
 20
-171.378156630173410
 40
37.000000000000028
 50
275.963570118320770
 51
324.036429881678030
  0
ARC
  8
0
  6
CONTINUOUS
 62
3
 10
-408.214244486318420
 20
-171.378156630174320
 40
27.499999999999879
 50
277.928141766202600
 51
322.071858233798930
  0
ARC
  8
0
  6
CONTINUOUS
 62
3
 10
-404.214244486318420
 20
-200.100969862864300
 40
1.499999999999967
 50
97.928141766195438
 51
180.000000000000000
  0
ARC
  8
0
  6
CONTINUOUS
 62
3
 10
-404.214244486318420
 20
-203.127172362948610
 40
1.500000000000000
 50
180.000000000000000
 51
277.180755781458290
  0
ARC
  8
0
  6
CONTINUOUS
 62
3
 10
-404.214244486318420
 20
-209.669800627265200
 40
1.500000000000182
 50
95.963570118326047
 51
179.999999999982630
  0
LINE
  8
0
  6
CONTINUOUS
 62
3
 10
-405.714244486318420
 20
-200.100969862864300
 11
-405.714244486318420
 21
-203.127172362948610
  0
LINE
  8
0
  6
CONTINUOUS
 62
3
 10
-405.714244486318420
 20
-209.669800627264750
 11
-405.714244486318420
 21
-212.684935734818960
  0
ARC
  8
0
  6
CONTINUOUS
 62
3
 10
-404.214244486318420
 20
-212.684935734818960
 40
1.500000000000000
 50
180.000000000000000
 51
275.531071524831360
  0
ARC
  8
0
  6
CONTINUOUS
 62
3
 10
-378.718790316583640
 20
-183.788562881423560
 40
1.499999999999926
 50
239.999999999998410
 51
337.180755781453340
  0
LINE
  8
0
  6
CONTINUOUS
 62
3
 10
-379.468790316583640
 20
-185.087600987100130
 11
-382.089558558652930
 21
-183.574499737058200
  0
ARC
  8
0
  6
CONTINUOUS
 62
3
 10
-381.339558558652930
 20
-182.275461631381180
 40
1.499999999999899
 50
157.928141766199360
 51
240.000000000007050
  0
ARC
  8
0
  6
CONTINUOUS
 62
3
 10
-408.214244486318880
 20
-171.378156630174320
 40
33.500000000000128
 50
337.180755781459030
 51
22.819244218541968
  0
ARC
  8
0
  6
CONTINUOUS
 62
3
 10
-408.214244486318190
 20
-171.378156630173860
 40
27.499999999999886
 50
337.928141766202200
 51
22.071858233797812
  0
ARC
  8
0
  6
CONTINUOUS
 62
3
 10
-381.339558558652700
 20
-160.480851628966550
 40
1.499999999999926
 50
120.000000000001620
 51
202.071858233797370
  0
ARC
  8
0
  6
CONTINUOUS
 62
3
 10
-378.718790316583860
 20
-158.967750378924620
 40
1.499999999999948
 50
22.819244218550043
 51
119.999999999997270
  0
LINE
  8
0
  6
CONTINUOUS
 62
3
 10
-382.089558558652700
 20
-159.181813523289970
 11
-379.468790316583860
 21
-157.668712273247820
  0
ARC
  8
0
  6
CONTINUOUS
 62
3
 10
-408.214244486319100
 20
-171.378156630173860
 40
33.500000000000071
 50
37.180755781458259
 51
82.819244218540931
  0
ARC
  8
0
  6
CONTINUOUS
 62
3
 10
-408.214244486319100
 20
-171.378156630173860
 40
36.999999999999943
 50
35.963570118321194
 51
84.036429881678174
  0
ARC
  8
0
  6
CONTINUOUS
 62
3
 10
-377.052708032167860
 20
-148.768233016490290
 40
1.500000000000102
 50
215.963570118316280
 51
299.999999999997270
  0
ARC
  8
0
  6
CONTINUOUS
 62
3
 10
-382.718790316584090
 20
-152.039547148648580
 40
1.499999999999926
 50
300.000000000001590
 51
37.180755781457485
  0
ARC
  8
0
  6
CONTINUOUS
 62
3
 10
-408.214244486318420
 20
-171.378156630173410
 40
27.500000000000060
 50
37.928141766201819
 51
82.071858233798309
  0
ARC
  8
0
  6
CONTINUOUS
 62
3
 10
-404.214244486318650
 20
-142.655343397483420
 40
1.500000000000000
 50
180.000000000000000
 51
262.071858233795980
  0
LINE
  8
0
  6
CONTINUOUS
 62
3
 10
-384.589558558652930
 20
-154.851686504367310
 11
-381.968790316584090
 21
-153.338585254325150
  0
ARC
  8
0
  6
CONTINUOUS
 62
3
 10
-385.339558558652930
 20
-153.552648398690740
 40
1.499999999999843
 50
217.928141766204990
 51
300.000000000001590
  0
CIRCLE
  8
0
  6
CONTINUOUS
 62
3
 10
-408.214244486318650
 20
-171.378156630173410
 40
5.000000000000000
  0
ARC
  8
0
  6
CONTINUOUS
 62
3
 10
-402.276990553124730
 20
-163.331479320080010
 40
1.499999999999693
 50
233.578178478195410
 51
300.000000000001590
  0
ARC
  8
0
  6
CONTINUOUS
 62
3
 10
-404.214244486318650
 20
-162.213005240261510
 40
1.500000000000000
 50
180.000000000000000
 51
246.421821521804280
  0
ARC
  8
0
  6
CONTINUOUS
 62
3
 10
-391.039065217273900
 20
-156.843260102293470
 40
1.499999999999926
 50
300.000000000001590
 51
40.240348321182964
  0
ARC
  8
0
  6
CONTINUOUS
 62
3
 10
-404.214244486318650
 20
-159.008839753320440
 40
1.500000000000138
 50
72.079786860605225
 51
180.000000000000000
  0
ARC
  8
0
  6
CONTINUOUS
 62
3
 10
-404.214244486318650
 20
-152.292821946181220
 40
1.500000000000000
 50
180.000000000000000
 51
258.162995844103310
  0
ARC
  8
0
  6
CONTINUOUS
 62
3
 10
-393.685859810252850
 20
-158.371387673039640
 40
1.499999999999967
 50
221.837004155893280
 51
300.000000000001590
  0
ARC
  8
0
  6
CONTINUOUS
 62
3
 10
-404.214244486318650
 20
-149.236566804688890
 40
1.499999999999952
 50
79.759651678814024
 51
180.000000000000000
  0
ARC
  8
0
  6
CONTINUOUS
 62
3
 10
-399.502101843504310
 20
-161.729396576609130
 40
1.499999999999926
 50
300.000000000001590
 51
47.920213139381872
  0
LINE
  8
0
  6
CONTINUOUS
 62
3
 10
-392.935859810252850
 20
-159.670425778716210
 11
-390.289065217273900
 21
-158.142298207970040
  0
ARC
  8
0
  6
CONTINUOUS
 62
3
 10
-408.214244486318420
 20
-171.378156630173410
 40
14.499999999999860
 50
47.920213139391755
 51
72.079786860608309
  0
LINE
  8
0
  6
CONTINUOUS
 62
3
 10
-405.714244486318650
 20
-159.008839753320440
 11
-405.714244486318650
 21
-162.213005240261510
  0
LINE
  8
0
  6
CONTINUOUS
 62
3
 10
-405.714244486318650
 20
-149.236566804688890
 11
-405.714244486318650
 21
-152.292821946181220
  0
LINE
  8
0
  6
CONTINUOUS
 62
3
 10
-401.526990553124730
 20
-164.630517425756580
 11
-398.752101843504310
 21
-163.028434682285710
  0
ARC
  8
0
  6
CONTINUOUS
 62
3
 10
-408.214244486318420
 20
-171.378156630173410
 40
23.999999999999819
 50
40.240348321186090
 51
79.759651678814322
  0
ARC
  8
0
  6
CONTINUOUS
 62
3
 10
-408.214244486318420
 20
-171.378156630173410
 40
8.500000000000101
 50
53.578178478202659
 51
66.421821521799089
  0
ARC
  8
0
  6
CONTINUOUS
 62
3
 10
-395.502101843504310
 20
-174.098713453462320
 40
1.499999999999926
 50
239.999999999998410
 51
347.920213139390400
  0
LINE
  8
0
  6
CONTINUOUS
 62
3
 10
-396.252101843504310
 20
-175.397751559138900
 11
-399.026990553124730
 21
-173.795668815668480
  0
ARC
  8
0
  6
CONTINUOUS
 62
3
 10
-398.276990553124730
 20
-172.496630709991900
 40
1.500000000000099
 50
173.578178478198990
 51
239.999999999998410
  0
ARC
  8
0
  6
CONTINUOUS
 62
3
 10
-408.214244486318420
 20
-171.378156630173410
 40
8.499999999999865
 50
353.578178478199500
 51
6.421821521797448
  0
ARC
  8
0
  6
CONTINUOUS
 62
3
 10
-398.276990553124730
 20
-170.259682550355360
 40
1.499999999999926
 50
120.000000000001620
 51
186.421821521801010
  0
LINE
  8
0
  6
CONTINUOUS
 62
3
 10
-399.026990553124730
 20
-168.960644444678790
 11
-396.252101843504310
 21
-167.358561701207920
  0
ARC
  8
0
  6
CONTINUOUS
 62
3
 10
-395.502101843504310
 20
-168.657599806884490
 40
1.500000000000192
 50
12.079786860592611
 51
120.000000000001620
  0
ARC
  8
0
  6
CONTINUOUS
 62
3
 10
-408.214244486318420
 20
-171.378156630173410
 40
14.500000000000169
 50
347.920213139391310
 51
12.079786860606980
  0
ARC
  8
0
  6
CONTINUOUS
 62
3
 10
-387.039065217273900
 20
-178.984849927777990
 40
1.499999999999926
 50
239.999999999998410
 51
340.240348321188210
  0
LINE
  8
0
  6
CONTINUOUS
 62
3
 10
-387.789065217273900
 20
-180.283888033454560
 11
-390.435859810252850
 21
-178.755760462708850
  0
ARC
  8
0
  6
CONTINUOUS
 62
3
 10
-389.685859810252850
 20
-177.456722357031820
 40
1.500000000000038
 50
161.837004155895410
 51
240.000000000007050
  0
ARC
  8
0
  6
CONTINUOUS
 62
3
 10
-408.214244486318420
 20
-171.378156630173410
 40
17.999999999999943
 50
341.837004155893340
 51
18.162995844106646
  0
ARC
  8
0
  6
CONTINUOUS
 62
3
 10
-389.685859810252850
 20
-165.299590903314990
 40
1.499999999999926
 50
120.000000000001620
 51
198.162995844104590
  0
LINE
  8
0
  6
CONTINUOUS
 62
3
 10
-390.435859810252850
 20
-164.000552797638420
 11
-387.789065217273900
 21
-162.472425226892260
  0
ARC
  8
0
  6
CONTINUOUS
 62
3
 10
-387.039065217273900
 20
-163.771463332568830
 40
1.500000000000246
 50
19.759651678811824
 51
120.000000000001620
  0
ARC
  8
0
  6
CONTINUOUS
 62
3
 10
-408.214244486318420
 20
-171.378156630173410
 40
24.000000000000139
 50
340.240348321186050
 51
19.759651678813924
  0
ARC
  8
0
  6
CONTINUOUS
 62
3
 10
-420.926387129132990
 20
-174.098713453462320
 40
1.500000000000287
 50
192.079786860609600
 51
300.000000000001590
  0
LINE
  8
0
  6
CONTINUOUS
 62
3
 10
-420.176387129132990
 20
-175.397751559138900
 11
-417.401498419512560
 21
-173.795668815668480
  0
ARC
  8
0
  6
CONTINUOUS
 62
3
 10
-418.151498419512560
 20
-172.496630709991900
 40
1.499999999999926
 50
300.000000000001590
 51
6.421821521801967
  0
ARC
  8
0
  6
CONTINUOUS
 62
3
 10
-408.214244486319100
 20
-171.378156630173410
 40
8.499999999999813
 50
173.578178478202550
 51
186.421821521800500
  0
ARC
  8
0
  6
CONTINUOUS
 62
3
 10
-418.151498419512560
 20
-170.259682550355360
 40
1.499999999999873
 50
353.578178478198030
 51
59.999999999998380
  0
LINE
  8
0
  6
CONTINUOUS
 62
3
 10
-417.401498419512560
 20
-168.960644444678790
 11
-420.176387129133220
 21
-167.358561701207920
  0
ARC
  8
0
  6
CONTINUOUS
 62
3
 10
-420.926387129133220
 20
-168.657599806884490
 40
1.499999999999926
 50
59.999999999998380
 51
167.920213139405550
  0
ARC
  8
0
  6
CONTINUOUS
 62
3
 10
-408.214244486319100
 20
-171.378156630173410
 40
14.499999999999851
 50
167.920213139392840
 51
192.079786860608920
  0
ARC
  8
0
  6
CONTINUOUS
 62
3
 10
-429.389423755363400
 20
-178.984849927777990
 40
1.500000000000246
 50
199.759651678811820
 51
300.000000000001590
  0
LINE
  8
0
  6
CONTINUOUS
 62
3
 10
-428.639423755363400
 20
-180.283888033454560
 11
-425.992629162384450
 21
-178.755760462708850
  0
ARC
  8
0
  6
CONTINUOUS
 62
3
 10
-426.742629162384450
 20
-177.456722357031820
 40
1.500000000000320
 50
299.999999999992950
 51
18.162995844104589
  0
ARC
  8
0
  6
CONTINUOUS
 62
3
 10
-408.214244486319100
 20
-171.378156630173410
 40
17.999999999999726
 50
161.837004155893140
 51
198.162995844106860
  0
ARC
  8
0
  6
CONTINUOUS
 62
3
 10
-426.742629162384450
 20
-165.299590903314990
 40
1.500000000000038
 50
341.837004155895390
 51
59.999999999998380
  0
LINE
  8
0
  6
CONTINUOUS
 62
3
 10
-425.992629162384450
 20
-164.000552797638420
 11
-428.639423755363620
 21
-162.472425226892260
  0
ARC
  8
0
  6
CONTINUOUS
 62
3
 10
-429.389423755363620
 20
-163.771463332568830
 40
1.499999999999926
 50
59.999999999998380
 51
160.240348321185250
  0
ARC
  8
0
  6
CONTINUOUS
 62
3
 10
-408.214244486319100
 20
-171.378156630173410
 40
23.999999999999925
 50
160.240348321185910
 51
199.759651678814090
  0
ARC
  8
0
  6
CONTINUOUS
 62
3
 10
-416.926387129132990
 20
-181.026916683738140
 40
1.500000000000320
 50
119.999999999992930
 51
227.920213139381870
  0
LINE
  8
0
  6
CONTINUOUS
 62
3
 10
-417.676387129132990
 20
-179.727878578061110
 11
-414.901498419512560
 21
-178.125795834590690
  0
ARC
  8
0
  6
CONTINUOUS
 62
3
 10
-414.151498419512560
 20
-179.424833940267260
 40
1.500000000000059
 50
53.578178478205707
 51
120.000000000001620
  0
ARC
  8
0
  6
CONTINUOUS
 62
3
 10
-408.214244486318650
 20
-171.378156630173860
 40
8.499999999999870
 50
233.578178478199590
 51
246.421821521797680
  0
ARC
  8
0
  6
CONTINUOUS
 62
3
 10
-412.214244486318650
 20
-180.543308020085760
 40
1.500000000000000
 50
0.000000000017370
 51
66.421821521804304
  0
LINE
  8
0
  6
CONTINUOUS
 62
3
 10
-410.714244486318650
 20
-180.543308020085310
 11
-410.714244486318650
 21
-183.747473507026600
  0
ARC
  8
0
  6
CONTINUOUS
 62
3
 10
-412.214244486318650
 20
-183.747473507026600
 40
1.500000000000355
 50
252.079786860607900
 51
0.000000000000000
  0
ARC
  8
0
  6
CONTINUOUS
 62
3
 10
-408.214244486318650
 20
-171.378156630173860
 40
14.500000000000011
 50
227.920213139391080
 51
252.079786860607410
  0
ARC
  8
0
  6
CONTINUOUS
 62
3
 10
-425.389423755363400
 20
-185.913053158053800
 40
1.499999999999926
 50
120.000000000001620
 51
220.240348321176330
  0
LINE
  8
0
  6
CONTINUOUS
 62
3
 10
-426.139423755363400
 20
-184.614015052377230
 11
-423.492629162384450
 21
-183.085887481631060
  0
ARC
  8
0
  6
CONTINUOUS
 62
3
 10
-422.742629162384450
 20
-184.384925587307630
 40
1.500000000000118
 50
41.837004155899741
 51
120.000000000001620
  0
ARC
  8
0
  6
CONTINUOUS
 62
3
 10
-408.214244486318650
 20
-171.378156630173860
 40
17.999999999999940
 50
221.837004155892320
 51
258.162995844106770
  0
ARC
  8
0
  6
CONTINUOUS
 62
3
 10
-412.214244486318650
 20
-190.463491314166050
 40
1.500000000000000
 50
0.000000000000000
 51
78.162995844101530
  0
LINE
  8
0
  6
CONTINUOUS
 62
3
 10
-410.714244486318650
 20
-190.463491314166050
 11
-410.714244486318650
 21
-193.519746455658380
  0
ARC
  8
0
  6
CONTINUOUS
 62
3
 10
-412.214244486318650
 20
-193.519746455658380
 40
1.499999999999728
 50
259.759651678812470
 51
0.000000000000000
  0
ARC
  8
0
  6
CONTINUOUS
 62
3
 10
-408.214244486318650
 20
-171.378156630173860
 40
23.999999999999844
 50
220.240348321185340
 51
259.759651678813730
  0
ARC
  8
0
  6
CONTINUOUS
 62
3
 10
-399.502101843504310
 20
-181.026916683738140
 40
1.499999999999944
 50
312.079786860618130
 51
60.000000000007070
  0
LINE
  8
0
  6
CONTINUOUS
 62
3
 10
-398.752101843504310
 20
-179.727878578061110
 11
-401.526990553124730
 21
-178.125795834590690
  0
ARC
  8
0
  6
CONTINUOUS
 62
3
 10
-402.276990553124730
 20
-179.424833940267260
 40
1.499999999999926
 50
59.999999999998380
 51
126.421821521801260
  0
ARC
  8
0
  6
CONTINUOUS
 62
3
 10
-408.214244486318650
 20
-171.378156630173860
 40
8.500000000000060
 50
293.578178478202350
 51
306.421821521799190
  0
ARC
  8
0
  6
CONTINUOUS
 62
3
 10
-404.214244486318650
 20
-180.543308020085760
 40
1.500000000000139
 50
113.578178478195690
 51
179.999999999982630
  0
LINE
  8
0
  6
CONTINUOUS
 62
3
 10
-405.714244486318650
 20
-180.543308020085310
 11
-405.714244486318650
 21
-183.747473507026600
  0
ARC
  8
0
  6
CONTINUOUS
 62
3
 10
-404.214244486318650
 20
-183.747473507026600
 40
1.500000000000000
 50
180.000000000000000
 51
287.920213139392100
  0
ARC
  8
0
  6
CONTINUOUS
 62
3
 10
-408.214244486318650
 20
-171.378156630173860
 40
14.500000000000121
 50
287.920213139392560
 51
312.079786860608860
  0
ARC
  8
0
  6
CONTINUOUS
 62
3
 10
-391.039065217273900
 20
-185.913053158053800
 40
1.499999999999828
 50
319.759651678823670
 51
59.999999999998380
  0
LINE
  8
0
  6
CONTINUOUS
 62
3
 10
-390.289065217273900
 20
-184.614015052377230
 11
-392.935859810252850
 21
-183.085887481631060
  0
ARC
  8
0
  6
CONTINUOUS
 62
3
 10
-393.685859810252850
 20
-184.384925587307630
 40
1.499999999999926
 50
59.999999999998380
 51
138.162995844100240
  0
ARC
  8
0
  6
CONTINUOUS
 62
3
 10
-408.214244486318650
 20
-171.378156630173860
 40
18.000000000000146
 50
281.837004155893230
 51
318.162995844107680
  0
ARC
  8
0
  6
CONTINUOUS
 62
3
 10
-404.214244486318650
 20
-190.463491314166050
 40
1.499999999999731
 50
101.837004155898450
 51
180.000000000000000
  0
LINE
  8
0
  6
CONTINUOUS
 62
3
 10
-405.714244486318650
 20
-190.463491314166050
 11
-405.714244486318650
 21
-193.519746455658380
  0
ARC
  8
0
  6
CONTINUOUS
 62
3
 10
-404.214244486318650
 20
-193.519746455658380
 40
1.500000000000000
 50
180.000000000000000
 51
280.240348321187530
  0
ARC
  8
0
  6
CONTINUOUS
 62
3
 10
-408.214244486318650
 20
-171.378156630173860
 40
23.999999999999716
 50
280.240348321186270
 51
319.759651678814690
  0
ARC
  8
0
  6
CONTINUOUS
 62
3
 10
-412.214244486318650
 20
-159.008839753320440
 40
1.500000000000000
 50
0.000000000000000
 51
107.920213139394770
  0
LINE
  8
0
  6
CONTINUOUS
 62
3
 10
-410.714244486318650
 20
-159.008839753320440
 11
-410.714244486318650
 21
-162.213005240261510
  0
ARC
  8
0
  6
CONTINUOUS
 62
3
 10
-412.214244486318650
 20
-162.213005240261510
 40
1.500000000000139
 50
293.578178478195700
 51
0.000000000000000
  0
ARC
  8
0
  6
CONTINUOUS
 62
3
 10
-408.214244486319100
 20
-171.378156630173410
 40
8.499999999999879
 50
113.578178478199500
 51
126.421821521797340
  0
ARC
  8
0
  6
CONTINUOUS
 62
3
 10
-414.151498419512560
 20
-163.331479320080010
 40
1.499999999999926
 50
239.999999999998410
 51
306.421821521797600
  0
LINE
  8
0
  6
CONTINUOUS
 62
3
 10
-414.901498419512560
 20
-164.630517425756580
 11
-417.676387129133220
 21
-163.028434682285710
  0
ARC
  8
0
  6
CONTINUOUS
 62
3
 10
-416.926387129133220
 20
-161.729396576609130
 40
1.499999999999792
 50
132.079786860611680
 51
239.999999999998410
  0
ARC
  8
0
  6
CONTINUOUS
 62
3
 10
-408.214244486319100
 20
-171.378156630173410
 40
14.499999999999980
 50
107.920213139390830
 51
132.079786860607560
  0
ARC
  8
0
  6
CONTINUOUS
 62
3
 10
-412.214244486318650
 20
-149.236566804688890
 40
1.500000000000000
 50
0.000000000000000
 51
100.240348321194510
  0
LINE
  8
0
  6
CONTINUOUS
 62
3
 10
-410.714244486318650
 20
-149.236566804688890
 11
-410.714244486318650
 21
-152.292821946181220
  0
ARC
  8
0
  6
CONTINUOUS
 62
3
 10
-412.214244486318650
 20
-152.292821946181220
 40
1.499999999999954
 50
281.837004155896690
 51
0.000000000000000
  0
ARC
  8
0
  6
CONTINUOUS
 62
3
 10
-408.214244486319100
 20
-171.378156630173410
 40
17.999999999999829
 50
101.837004155891980
 51
138.162995844106210
  0
ARC
  8
0
  6
CONTINUOUS
 62
3
 10
-422.742629162384450
 20
-158.371387673039640
 40
1.499999999999926
 50
239.999999999998410
 51
318.162995844106720
  0
LINE
  8
0
  6
CONTINUOUS
 62
3
 10
-423.492629162384450
 20
-159.670425778716210
 11
-426.139423755363620
 21
-158.142298207970040
  0
ARC
  8
0
  6
CONTINUOUS
 62
3
 10
-425.389423755363620
 20
-156.843260102293470
 40
1.499999999999802
 50
139.759651678811420
 51
239.999999999998410
  0
ARC
  8
0
  6
CONTINUOUS
 62
3
 10
-408.214244486319100
 20
-171.378156630173410
 40
23.999999999999901
 50
100.240348321185670
 51
139.759651678813550
  0
ARC
  8
0
  6
CONTINUOUS
 62
3
 10
-412.214244486318650
 20
-139.629140897398880
 40
1.500000000000000
 50
0.000000000000000
 51
97.180755781458288
  0
LINE
  8
0
  6
CONTINUOUS
 62
3
 10
-410.714244486318650
 20
-139.629140897398880
 11
-410.714244486318650
 21
-142.655343397483420
  0
ARC
  8
0
  6
CONTINUOUS
 62
3
 10
-412.214244486318650
 20
-133.086512633082290
 40
1.499999999999933
 50
275.963570118318330
 51
0.000000000000000
  0
LINE
  8
0
  6
CONTINUOUS
 62
3
 10
-410.714244486318650
 20
-130.071377525528080
 11
-410.714244486318650
 21
-133.086512633082290
  0
LINE
  8
0
  6
CONTINUOUS
 62
3
 10
-373.691524433183300
 20
-194.196609691957970
 11
-376.302708032167400
 21
-192.689042138180640
  0
ARC
  8
0
  6
CONTINUOUS
 62
3
 10
-374.441524433183300
 20
-195.495647797634550
 40
1.499999999999844
 50
324.468928475167900
 51
59.999999999998380
  0
ARC
  8
0
  6
CONTINUOUS
 62
3
 10
-373.052708032167400
 20
-187.059877013581850
 40
1.500000000000063
 50
155.963570118322880
 51
239.999999999998410
  0
LINE
  8
0
  6
CONTINUOUS
 62
3
 10
-371.191524433183300
 20
-189.866482673035760
 11
-373.802708032167400
 21
-188.358915119258430
  0
ARC
  8
0
  6
CONTINUOUS
 62
3
 10
-370.441524433183300
 20
-188.567444567358730
 40
1.500000000000320
 50
240.000000000007050
 51
335.531071524832500
  0
ARC
  8
0
  6
CONTINUOUS
 62
3
 10
-408.214244486318880
 20
-171.378156630174320
 40
42.999999999999936
 50
335.531071524839770
 51
24.468928475160769
  0
ARC
  8
0
  6
CONTINUOUS
 62
3
 10
-408.214244486318880
 20
-171.378156630174320
 40
36.999999999999972
 50
335.963570118321740
 51
24.036429881678870
  0
ARC
  8
0
  6
CONTINUOUS
 62
3
 10
-373.052708032167630
 20
-155.696436246766320
 40
1.500000000000123
 50
119.999999999997270
 51
204.036429881680680
  0
LINE
  8
0
  6
CONTINUOUS
 62
3
 10
-373.802708032167630
 20
-154.397398141089520
 11
-371.191524433183300
 21
-152.889830587312420
  0
ARC
  8
0
  6
CONTINUOUS
 62
3
 10
-370.441524433183300
 20
-154.188868692989220
 40
1.500000000000034
 50
24.468928475159590
 51
119.999999999997270
  0
ARC
  8
0
  6
CONTINUOUS
 62
3
 10
-408.214244486319100
 20
-171.378156630173860
 40
42.999999999999908
 50
35.531071524839248
 51
84.468928475160212
  0
ARC
  8
0
  6
CONTINUOUS
 62
3
 10
-374.441524433183760
 20
-147.260665462713180
 40
1.500000000000123
 50
299.999999999997270
 51
35.531071524839192
  0
ARC
  8
0
  6
CONTINUOUS
 62
3
 10
-404.214244486318650
 20
-133.086512633082290
 40
1.500000000000000
 50
180.000000000000000
 51
264.036429881682580
  0
ARC
  8
0
  6
CONTINUOUS
 62
3
 10
-404.214244486318650
 20
-139.629140897398880
 40
1.499999999999998
 50
82.819244218541712
 51
180.000000000000000
  0
LINE
  8
0
  6
CONTINUOUS
 62
3
 10
-405.714244486318650
 20
-139.629140897398880
 11
-405.714244486318650
 21
-142.655343397483420
  0
LINE
  8
0
  6
CONTINUOUS
 62
3
 10
-376.302708032167860
 20
-150.067271122167090
 11
-373.691524433183760
 21
-148.559703568389980
  0
LINE
  8
0
  6
CONTINUOUS
 62
3
 10
-405.714244486318650
 20
-130.071377525528310
 11
-405.714244486318650
 21
-133.086512633082290
  0
ARC
  8
0
  6
CONTINUOUS
 62
3
 10
-408.214244486318880
 20
-171.378156630173410
 40
27.499999999999815
 50
97.928141766201691
 51
142.071858233797880
  0
ARC
  8
0
  6
CONTINUOUS
 62
3
 10
-408.214244486318420
 20
-171.378156630173410
 40
17.999999999999922
 50
41.837004155893325
 51
78.162995844107314
  0
ARC
  8
0
  6
CONTINUOUS
 62
3
 10
-412.214244486318650
 20
-130.071377525528080
 40
1.500000000000000
 50
0.000000000000000
 51
95.531071524841693
  0
ARC
  8
0
  6
CONTINUOUS
 62
3
 10
-404.214244486318650
 20
-130.071377525528310
 40
1.500000000000203
 50
84.468928475159132
 51
180.000000000000000
  0
ARC
  8
0
  6
CONTINUOUS
 62
3
 10
-408.214244486318650
 20
-411.978156630173770
 40
300.599999999999910
 50
90.000000000000000
 51
98.597082237249069
  0
ARC
  8
0
  6
CONTINUOUS
 62
3
 10
-408.214244486318650
 20
69.221843369826274
 40
300.600000000000140
 50
270.000000000000000
 51
278.597082237249080
  0
ARC
  8
0
  6
CONTINUOUS
 62
3
 10
-364.265657056036160
 20
-121.281542162645560
 40
6.600000000000118
 50
45.000000000001400
 51
81.402917762751386
  0
ARC
  8
0
  6
CONTINUOUS
 62
3
 10
-408.214244486318650
 20
-411.978156630173770
 40
300.599999999999800
 50
81.402917762750931
 51
90.000000000000000
  0
ARC
  8
0
  6
CONTINUOUS
 62
3
 10
-364.265657056036160
 20
-221.474771097702390
 40
6.599999999999747
 50
278.597082237248910
 51
315.000000000000000
  0
ARC
  8
0
  6
CONTINUOUS
 62
3
 10
-408.214244486318650
 20
69.221843369826274
 40
300.600000000000020
 50
261.402917762750920
 51
270.000000000000000
  0
ARC
  8
0
  6
CONTINUOUS
 62
3
 10
-452.162831916601140
 20
-221.474771097702390
 40
6.599999999999957
 50
225.000000000000000
 51
261.402917762751090
  0
LINE
  8
0
  6
CONTINUOUS
 62
3
 10
-243.166811231926200
 20
178.621843369826140
 11
-243.166811231926200
 21
231.065048427071590
  0
LINE
  8
0
  6
CONTINUOUS
 62
3
 10
-232.332364181417690
 20
240.004884255605930
 11
-242.058109966438680
 21
233.194843742222700
  0
ARC
  8
0
  6
CONTINUOUS
 62
3
 10
-240.566811231926070
 20
231.065048427071590
 40
2.599999999999721
 50
125.000000000001370
 51
180.000000000000000
  0
LINE
  8
0
  6
CONTINUOUS
 62
3
 10
-243.166811231926200
 20
178.621843369826140
 11
-243.166811231926200
 21
126.178638312580680
  0
LINE
  8
0
  6
CONTINUOUS
 62
3
 10
-232.332364181417690
 20
117.238802484046340
 11
-242.058109966438680
 21
124.048842997429570
  0
ARC
  8
0
  6
CONTINUOUS
 62
3
 10
-240.566811231926070
 20
126.178638312580680
 40
2.600000000000136
 50
180.000000000000000
 51
234.999999999998610
  0
LINE
  8
0
  6
CONTINUOUS
 62
3
 10
-359.598752300204980
 20
-116.614637406814380
 11
-352.532303181546010
 21
-123.681086525473340
  0
ARC
  8
0
  6
CONTINUOUS
 62
3
 10
-371.341343561108260
 20
-142.490126905035590
 40
26.600000000000193
 50
6.051985358668552
 51
45.000000000000000
  0
LINE
  8
0
  6
CONTINUOUS
 62
3
 10
-456.829736672432320
 20
-116.614637406814380
 11
-463.896185791091280
 21
-123.681086525473340
  0
ARC
  8
0
  6
CONTINUOUS
 62
3
 10
-445.087145411529040
 20
-142.490126905035590
 40
26.600000000000119
 50
135.000000000000000
 51
173.948014641331410
  0
LINE
  8
0
  6
CONTINUOUS
 62
3
 10
-456.829736672432320
 20
-226.141675853533570
 11
-463.896185791091510
 21
-219.075226734873920
  0
ARC
  8
0
  6
CONTINUOUS
 62
3
 10
-172.614244486318600
 20
-171.378156630173860
 40
300.599999999999970
 50
173.948014641331500
 51
186.051985358668500
  0
ARC
  8
0
  6
CONTINUOUS
 62
3
 10
-445.087145411529040
 20
-200.266186355312130
 40
26.599999999999969
 50
186.051985358668590
 51
224.999999999998980
  0
ARC
  8
0
  6
CONTINUOUS
 62
3
 10
-643.814244486318560
 20
-171.378156630173860
 40
300.600000000000080
 50
353.948014641331500
 51
6.051985358668499
  0
LINE
  8
0
  6
CONTINUOUS
 62
3
 10
-359.598752300204980
 20
-226.141675853533570
 11
-352.532303181545560
 21
-219.075226734873920
  0
ARC
  8
0
  6
CONTINUOUS
 62
3
 10
-371.341343561108030
 20
-200.266186355312130
 40
26.599999999999955
 50
315.000000000001020
 51
353.948014641331380
  0
ARC
  8
0
  6
CONTINUOUS
 62
4
 10
-445.087145411529040
 20
-142.490126905035590
 40
15.396999999999876
 50
135.000000000000000
 51
173.948014641331160
  0
LINE
  8
0
  6
CONTINUOUS
 62
4
 10
-451.398403128819840
 20
-127.026738402467570
 11
-455.974468521458450
 21
-131.602803795106180
  0
ARC
  8
0
  6
CONTINUOUS
 62
4
 10
-172.614244486318710
 20
-171.378156630173860
 40
289.396999999999930
 50
173.948014641331470
 51
180.000000000000000
  0
ARC
  8
0
  6
CONTINUOUS
 62
4
 10
-408.214244486318650
 20
-411.978156630173770
 40
289.396999999999820
 50
82.102011327572214
 51
90.000000000000000
  0
ARC
  8
0
  6
CONTINUOUS
 62
4
 10
-369.272726530936320
 20
-131.269379089587120
 40
6.000000000000049
 50
45.000000000003077
 51
82.102011327574374
  0
LINE
  8
0
  6
CONTINUOUS
 62
4
 10
-365.030085843817230
 20
-127.026738402467570
 11
-360.454020451178620
 21
-131.602803795106180
  0
ARC
  8
0
  6
CONTINUOUS
 62
4
 10
-371.341343561108030
 20
-142.490126905035590
 40
15.397000000000052
 50
6.051985358668849
 51
45.000000000000000
  0
ARC
  8
0
  6
CONTINUOUS
 62
4
 10
-643.814244486318560
 20
-171.378156630173860
 40
289.397000000000160
 50
0.000000000000000
 51
6.051985358668508
  0
ARC
  8
0
  6
CONTINUOUS
 62
4
 10
-408.214244486318650
 20
69.221843369826047
 40
289.396999999999930
 50
270.000000000000000
 51
277.897988672427800
  0
ARC
  8
0
  6
CONTINUOUS
 62
4
 10
-369.272726530936320
 20
-211.486934170760610
 40
5.999999999999923
 50
277.897988672425640
 51
314.999999999996870
  0
LINE
  8
0
  6
CONTINUOUS
 62
4
 10
-365.030085843817230
 20
-215.729574857880150
 11
-360.454020451178620
 21
-211.153509465241540
  0
ARC
  8
0
  6
CONTINUOUS
 62
4
 10
-371.341343561108030
 20
-200.266186355312130
 40
15.396999999999876
 50
315.000000000000000
 51
353.948014641331160
  0
ARC
  8
0
  6
CONTINUOUS
 62
4
 10
-643.814244486318560
 20
-171.378156630173860
 40
289.397000000000160
 50
353.948014641331500
 51
0.000000000000000
  0
ARC
  8
0
  6
CONTINUOUS
 62
4
 10
-408.214244486318420
 20
69.221843369826047
 40
289.396999999999820
 50
262.102011327572200
 51
270.000000000000000
  0
ARC
  8
0
  6
CONTINUOUS
 62
4
 10
-447.155762441700740
 20
-211.486934170760610
 40
6.000000000000049
 50
225.000000000003070
 51
262.102011327574360
  0
LINE
  8
0
  6
CONTINUOUS
 62
4
 10
-451.398403128819840
 20
-215.729574857880150
 11
-455.974468521458450
 21
-211.153509465241540
  0
ARC
  8
0
  6
CONTINUOUS
 62
4
 10
-445.087145411529040
 20
-200.266186355312130
 40
15.397000000000052
 50
186.051985358668840
 51
225.000000000000000
  0
ARC
  8
0
  6
CONTINUOUS
 62
4
 10
-172.614244486318480
 20
-171.378156630173860
 40
289.397000000000160
 50
180.000000000000000
 51
186.051985358668500
  0
POLYLINE
  8
0
  6
CONTINUOUS
 62
3
 66
1
  0
VERTEX
  8
0
  6
CONTINUOUS
 62
3
 10
521.431967228218580
 20
-169.709995340119350
  0
VERTEX
  8
0
  6
CONTINUOUS
 62
3
 10
521.234842033059980
 20
-164.334804678867020
  0
VERTEX
  8
0
  6
CONTINUOUS
 62
3
 10
520.650179310098450
 20
-159.142659700180270
  0
VERTEX
  8
0
  6
CONTINUOUS
 62
3
 10
519.697889048382080
 20
-154.310372685054970
  0
VERTEX
  8
0
  6
CONTINUOUS
 62
3
 10
518.410400352651550
 20
-150.002501382374820
  0
VERTEX
  8
0
  6
CONTINUOUS
 62
3
 10
516.831557109004730
 20
-146.365745191788680
  0
VERTEX
  8
0
  6
CONTINUOUS
 62
3
 10
515.015124933846780
 20
-143.523949491290180
  0
VERTEX
  8
0
  6
CONTINUOUS
 62
3
 10
513.022960250193930
 20
-141.573888231143000
  0
VERTEX
  8
0
  6
CONTINUOUS
 62
3
 10
510.922903841245220
 20
-140.581968412866440
  0
VERTEX
  8
0
  6
CONTINUOUS
 62
3
 10
508.786470613731690
 20
-140.581968678303980
  0
VERTEX
  8
0
  6
CONTINUOUS
 62
3
 10
506.686414243389150
 20
-141.573889018416450
  0
VERTEX
  8
0
  6
CONTINUOUS
 62
3
 10
504.694249635634150
 20
-143.523950773589890
  0
VERTEX
  8
0
  6
CONTINUOUS
 62
3
 10
502.877817571080930
 20
-146.365746925447470
  0
VERTEX
  8
0
  6
CONTINUOUS
 62
3
 10
501.298974468979220
 20
-150.002503508355010
  0
VERTEX
  8
0
  6
CONTINUOUS
 62
3
 10
500.011485940914160
 20
-154.310375130958870
  0
VERTEX
  8
0
  6
CONTINUOUS
 62
3
 10
499.059195867273730
 20
-159.142662382715540
  0
VERTEX
  8
0
  6
CONTINUOUS
 62
3
 10
498.474533346394200
 20
-164.334807506683090
  0
VERTEX
  8
0
  6
CONTINUOUS
 62
3
 10
498.277408360441770
 20
-169.709998216918390
  0
SEQEND
  8
0
  6
CONTINUOUS
 62
3
  0
POLYLINE
  8
0
  6
CONTINUOUS
 62
3
 66
1
  0
VERTEX
  8
0
  6
CONTINUOUS
 62
3
 10
143.911526048686480
 20
-169.709995340120260
  0
VERTEX
  8
0
  6
CONTINUOUS
 62
3
 10
143.622266059106720
 20
-164.003054407644530
  0
VERTEX
  8
0
  6
CONTINUOUS
 62
3
 10
142.765602189548190
 20
-158.515428014714470
  0
VERTEX
  8
0
  6
CONTINUOUS
 62
3
 10
141.374455552095330
 20
-153.458002566114090
  0
VERTEX
  8
0
  6
CONTINUOUS
 62
3
 10
139.502287131861460
 20
-149.025132085596200
  0
VERTEX
  8
0
  6
CONTINUOUS
 62
3
 10
137.221043311312030
 20
-145.387169299744730
  0
VERTEX
  8
0
  6
CONTINUOUS
 62
3
 10
134.618391011134460
 20
-142.683919078226890
  0
VERTEX
  8
0
  6
CONTINUOUS
 62
3
 10
131.794348699640350
 20
-141.019265811055450
  0
VERTEX
  8
0
  6
CONTINUOUS
 62
3
 10
128.857442739119280
 20
-140.457181189739460
  0
VERTEX
  8
0
  6
CONTINUOUS
 62
3
 10
125.920536778598190
 20
-141.019265811055450
  0
VERTEX
  8
0
  6
CONTINUOUS
 62
3
 10
123.096494467104090
 20
-142.683919078226890
  0
VERTEX
  8
0
  6
CONTINUOUS
 62
3
 10
120.493842166926540
 20
-145.387169299744730
  0
VERTEX
  8
0
  6
CONTINUOUS
 62
3
 10
118.212598346377100
 20
-149.025132085596230
  0
VERTEX
  8
0
  6
CONTINUOUS
 62
3
 10
116.340429926143240
 20
-153.458002566114090
  0
VERTEX
  8
0
  6
CONTINUOUS
 62
3
 10
114.949283288690390
 20
-158.515428014714470
  0
VERTEX
  8
0
  6
CONTINUOUS
 62
3
 10
114.092619419131830
 20
-164.003054407644530
  0
VERTEX
  8
0
  6
CONTINUOUS
 62
3
 10
113.803359429552100
 20
-169.709995340120260
  0
SEQEND
  8
0
  6
CONTINUOUS
 62
3
  0
POLYLINE
  8
0
  6
CONTINUOUS
 62
3
 66
1
  0
VERTEX
  8
0
  6
CONTINUOUS
 62
3
 10
-159.917244173475180
 20
-219.587736256954800
  0
VERTEX
  8
0
  6
CONTINUOUS
 62
3
 10
-160.908213308561560
 20
-218.642607990434390
  0
VERTEX
  8
0
  6
CONTINUOUS
 62
3
 10
-162.067815688133240
 20
-217.874099187648710
  0
VERTEX
  8
0
  6
CONTINUOUS
 62
3
 10
-163.358865067029800
 20
-217.306854465797390
  0
VERTEX
  8
0
  6
CONTINUOUS
 62
3
 10
-164.739959944561410
 20
-216.959064285390270
  0
VERTEX
  8
0
  6
CONTINUOUS
 62
3
 10
-166.166811231976230
 20
-216.841881616739270
  0
SEQEND
  8
0
  6
CONTINUOUS
 62
3
  0
POLYLINE
  8
0
  6
CONTINUOUS
 62
3
 66
1
  0
VERTEX
  8
0
  6
CONTINUOUS
 62
3
 10
-160.422690660496760
 20
-219.865126827178810
  0
VERTEX
  8
0
  6
CONTINUOUS
 62
3
 10
-161.384391261071300
 20
-219.093247665252190
  0
VERTEX
  8
0
  6
CONTINUOUS
 62
3
 10
-162.468549428963230
 20
-218.471385096646630
  0
VERTEX
  8
0
  6
CONTINUOUS
 62
3
 10
-163.647404454608110
 20
-218.015462394060900
  0
VERTEX
  8
0
  6
CONTINUOUS
 62
3
 10
-164.890770842056500
 20
-217.737153811404820
  0
VERTEX
  8
0
  6
CONTINUOUS
 62
3
 10
-166.166811231976230
 20
-217.643585655485990
  0
SEQEND
  8
0
  6
CONTINUOUS
 62
3
  0
POLYLINE
  8
0
  6
CONTINUOUS
 62
3
 66
1
 70
1
  0
VERTEX
  8
0
  6
CONTINUOUS
 62
3
 10
-162.666811231976230
 20
-224.696651164192190
  0
VERTEX
  8
0
  6
CONTINUOUS
 62
3
 10
-162.734062750564930
 20
-224.023061394146050
  0
VERTEX
  8
0
  6
CONTINUOUS
 62
3
 10
-162.933232868186740
 20
-223.375357301209310
  0
VERTEX
  8
0
  6
CONTINUOUS
 62
3
 10
-163.256667588917310
 20
-222.778429790436830
  0
VERTEX
  8
0
  6
CONTINUOUS
 62
3
 10
-163.691937497823320
 20
-222.255218451306860
  0
VERTEX
  8
0
  6
CONTINUOUS
 62
3
 10
-164.222315416407610
 20
-221.825830002161810
  0
VERTEX
  8
0
  6
CONTINUOUS
 62
3
 10
-164.827419218698420
 20
-221.506765600298540
  0
VERTEX
  8
0
  6
CONTINUOUS
 62
3
 10
-165.483995104919790
 20
-221.310286711747270
  0
VERTEX
  8
0
  6
CONTINUOUS
 62
3
 10
-166.166811231976230
 20
-221.243943910008400
  0
VERTEX
  8
0
  6
CONTINUOUS
 62
3
 10
-166.849627359032670
 20
-221.310286711747270
  0
VERTEX
  8
0
  6
CONTINUOUS
 62
3
 10
-167.506203245254030
 20
-221.506765600298540
  0
VERTEX
  8
0
  6
CONTINUOUS
 62
3
 10
-168.111307047544840
 20
-221.825830002161810
  0
VERTEX
  8
0
  6
CONTINUOUS
 62
3
 10
-168.641684966129130
 20
-222.255218451306860
  0
VERTEX
  8
0
  6
CONTINUOUS
 62
3
 10
-169.076954875035140
 20
-222.778429790436830
  0
VERTEX
  8
0
  6
CONTINUOUS
 62
3
 10
-169.400389595765720
 20
-223.375357301209310
  0
VERTEX
  8
0
  6
CONTINUOUS
 62
3
 10
-169.599559713387520
 20
-224.023061394146050
  0
VERTEX
  8
0
  6
CONTINUOUS
 62
3
 10
-169.666811231976230
 20
-224.696651164192190
  0
VERTEX
  8
0
  6
CONTINUOUS
 62
3
 10
-169.599559713387520
 20
-225.370240934238320
  0
VERTEX
  8
0
  6
CONTINUOUS
 62
3
 10
-169.400389595765720
 20
-226.017945027175070
  0
VERTEX
  8
0
  6
CONTINUOUS
 62
3
 10
-169.076954875035140
 20
-226.614872537947550
  0
VERTEX
  8
0
  6
CONTINUOUS
 62
3
 10
-168.641684966129130
 20
-227.138083877077520
  0
VERTEX
  8
0
  6
CONTINUOUS
 62
3
 10
-168.111307047544840
 20
-227.567472326222570
  0
VERTEX
  8
0
  6
CONTINUOUS
 62
3
 10
-167.506203245254030
 20
-227.886536728085840
  0
VERTEX
  8
0
  6
CONTINUOUS
 62
3
 10
-166.849627359032670
 20
-228.083015616637110
  0
VERTEX
  8
0
  6
CONTINUOUS
 62
3
 10
-166.166811231976230
 20
-228.149358418375980
  0
VERTEX
  8
0
  6
CONTINUOUS
 62
3
 10
-165.483995104919790
 20
-228.083015616637110
  0
VERTEX
  8
0
  6
CONTINUOUS
 62
3
 10
-164.827419218698420
 20
-227.886536728085840
  0
VERTEX
  8
0
  6
CONTINUOUS
 62
3
 10
-164.222315416407610
 20
-227.567472326222570
  0
VERTEX
  8
0
  6
CONTINUOUS
 62
3
 10
-163.691937497823320
 20
-227.138083877077520
  0
VERTEX
  8
0
  6
CONTINUOUS
 62
3
 10
-163.256667588917310
 20
-226.614872537947550
  0
VERTEX
  8
0
  6
CONTINUOUS
 62
3
 10
-162.933232868186740
 20
-226.017945027175070
  0
VERTEX
  8
0
  6
CONTINUOUS
 62
3
 10
-162.734062750564930
 20
-225.370240934238320
  0
SEQEND
  8
0
  6
CONTINUOUS
 62
3
  0
POLYLINE
  8
0
  6
CONTINUOUS
 62
3
 66
1
  0
VERTEX
  8
0
  6
CONTINUOUS
 62
3
 10
-166.166811231976230
 20
-217.643585655485990
  0
VERTEX
  8
0
  6
CONTINUOUS
 62
3
 10
-167.442851621895950
 20
-217.737153811404820
  0
VERTEX
  8
0
  6
CONTINUOUS
 62
3
 10
-168.686218009344340
 20
-218.015462394060900
  0
VERTEX
  8
0
  6
CONTINUOUS
 62
3
 10
-169.865073034989220
 20
-218.471385096646630
  0
VERTEX
  8
0
  6
CONTINUOUS
 62
3
 10
-170.949231202881150
 20
-219.093247665252190
  0
VERTEX
  8
0
  6
CONTINUOUS
 62
3
 10
-171.910931803455700
 20
-219.865126827178810
  0
SEQEND
  8
0
  6
CONTINUOUS
 62
3
  0
POLYLINE
  8
0
  6
CONTINUOUS
 62
3
 66
1
  0
VERTEX
  8
0
  6
CONTINUOUS
 62
3
 10
-166.166811231976230
 20
-216.841881616739270
  0
VERTEX
  8
0
  6
CONTINUOUS
 62
3
 10
-167.593662519391100
 20
-216.959064285390270
  0
VERTEX
  8
0
  6
CONTINUOUS
 62
3
 10
-168.974757396922770
 20
-217.306854465797440
  0
VERTEX
  8
0
  6
CONTINUOUS
 62
3
 10
-170.265806775819410
 20
-217.874099187648800
  0
VERTEX
  8
0
  6
CONTINUOUS
 62
3
 10
-171.425409155391120
 20
-218.642607990434560
  0
VERTEX
  8
0
  6
CONTINUOUS
 62
3
 10
-172.416378290477500
 20
-219.587736256955080
  0
SEQEND
  8
0
  6
CONTINUOUS
 62
3
  0
POLYLINE
  8
0
  6
CONTINUOUS
 62
3
 66
1
 70
1
  0
VERTEX
  8
0
  6
CONTINUOUS
 62
3
 10
-198.466811231975560
 20
-119.454631598113790
  0
VERTEX
  8
0
  6
CONTINUOUS
 62
3
 10
-198.557120414080370
 20
-118.751674631913430
  0
VERTEX
  8
0
  6
CONTINUOUS
 62
3
 10
-198.824577429172510
 20
-118.075731907701330
  0
VERTEX
  8
0
  6
CONTINUOUS
 62
3
 10
-199.258904054153590
 20
-117.452779525295930
  0
VERTEX
  8
0
  6
CONTINUOUS
 62
3
 10
-199.843409360398770
 20
-116.906757195397360
  0
VERTEX
  8
0
  6
CONTINUOUS
 62
3
 10
-200.555631136783430
 20
-116.458648249930740
  0
VERTEX
  8
0
  6
CONTINUOUS
 62
3
 10
-201.368199099859620
 20
-116.125673264367970
  0
VERTEX
  8
0
  6
CONTINUOUS
 62
3
 10
-202.249886718499740
 20
-115.920628280669730
  0
VERTEX
  8
0
  6
CONTINUOUS
 62
3
 10
-203.166811231975540
 20
-115.851393062568960
  0
VERTEX
  8
0
  6
CONTINUOUS
 62
3
 10
-204.083735745451350
 20
-115.920628280669730
  0
VERTEX
  8
0
  6
CONTINUOUS
 62
3
 10
-204.965423364091460
 20
-116.125673264367970
  0
VERTEX
  8
0
  6
CONTINUOUS
 62
3
 10
-205.777991327167650
 20
-116.458648249930740
  0
VERTEX
  8
0
  6
CONTINUOUS
 62
3
 10
-206.490213103552320
 20
-116.906757195397360
  0
VERTEX
  8
0
  6
CONTINUOUS
 62
3
 10
-207.074718409797500
 20
-117.452779525295930
  0
VERTEX
  8
0
  6
CONTINUOUS
 62
3
 10
-207.509045034778580
 20
-118.075731907701330
  0
VERTEX
  8
0
  6
CONTINUOUS
 62
3
 10
-207.776502049870710
 20
-118.751674631913430
  0
VERTEX
  8
0
  6
CONTINUOUS
 62
3
 10
-207.866811231975530
 20
-119.454631598113790
  0
VERTEX
  8
0
  6
CONTINUOUS
 62
3
 10
-207.776502049870710
 20
-120.157588564314150
  0
VERTEX
  8
0
  6
CONTINUOUS
 62
3
 10
-207.509045034778580
 20
-120.833531288526240
  0
VERTEX
  8
0
  6
CONTINUOUS
 62
3
 10
-207.074718409797500
 20
-121.456483670931640
  0
VERTEX
  8
0
  6
CONTINUOUS
 62
3
 10
-206.490213103552290
 20
-122.002506000830220
  0
VERTEX
  8
0
  6
CONTINUOUS
 62
3
 10
-205.777991327167650
 20
-122.450614946296830
  0
VERTEX
  8
0
  6
CONTINUOUS
 62
3
 10
-204.965423364091460
 20
-122.783589931859600
  0
VERTEX
  8
0
  6
CONTINUOUS
 62
3
 10
-204.083735745451350
 20
-122.988634915557850
  0
VERTEX
  8
0
  6
CONTINUOUS
 62
3
 10
-203.166811231975540
 20
-123.057870133658620
  0
VERTEX
  8
0
  6
CONTINUOUS
 62
3
 10
-202.249886718499740
 20
-122.988634915557850
  0
VERTEX
  8
0
  6
CONTINUOUS
 62
3
 10
-201.368199099859620
 20
-122.783589931859600
  0
VERTEX
  8
0
  6
CONTINUOUS
 62
3
 10
-200.555631136783430
 20
-122.450614946296830
  0
VERTEX
  8
0
  6
CONTINUOUS
 62
3
 10
-199.843409360398790
 20
-122.002506000830220
  0
VERTEX
  8
0
  6
CONTINUOUS
 62
3
 10
-199.258904054153590
 20
-121.456483670931640
  0
VERTEX
  8
0
  6
CONTINUOUS
 62
3
 10
-198.824577429172510
 20
-120.833531288526240
  0
VERTEX
  8
0
  6
CONTINUOUS
 62
3
 10
-198.557120414080370
 20
-120.157588564314150
  0
SEQEND
  8
0
  6
CONTINUOUS
 62
3
  0
POLYLINE
  8
0
  6
CONTINUOUS
 62
3
 66
1
  0
VERTEX
  8
0
  6
CONTINUOUS
 62
3
 10
292.567976567341700
 20
-169.709998216918390
  0
VERTEX
  8
0
  6
CONTINUOUS
 62
3
 10
292.370851581389270
 20
-164.334807506683090
  0
VERTEX
  8
0
  6
CONTINUOUS
 62
3
 10
291.786189060509740
 20
-159.142662382715540
  0
VERTEX
  8
0
  6
CONTINUOUS
 62
3
 10
290.833898986869310
 20
-154.310375130958870
  0
VERTEX
  8
0
  6
CONTINUOUS
 62
3
 10
289.546410458804250
 20
-150.002503508355010
  0
VERTEX
  8
0
  6
CONTINUOUS
 62
3
 10
287.967567356702550
 20
-146.365746925447470
  0
VERTEX
  8
0
  6
CONTINUOUS
 62
3
 10
286.151135292149320
 20
-143.523950773589890
  0
VERTEX
  8
0
  6
CONTINUOUS
 62
3
 10
284.158970684394320
 20
-141.573889018416450
  0
VERTEX
  8
0
  6
CONTINUOUS
 62
3
 10
282.058914314051780
 20
-140.581968678303980
  0
VERTEX
  8
0
  6
CONTINUOUS
 62
3
 10
279.922481086538260
 20
-140.581968412866440
  0
VERTEX
  8
0
  6
CONTINUOUS
 62
3
 10
277.822424677589480
 20
-141.573888231143000
  0
VERTEX
  8
0
  6
CONTINUOUS
 62
3
 10
275.830259993936690
 20
-143.523949491290180
  0
VERTEX
  8
0
  6
CONTINUOUS
 62
3
 10
274.013827818778740
 20
-146.365745191788680
  0
VERTEX
  8
0
  6
CONTINUOUS
 62
3
 10
272.434984575131920
 20
-150.002501382374820
  0
VERTEX
  8
0
  6
CONTINUOUS
 62
3
 10
271.147495879401450
 20
-154.310372685054970
  0
VERTEX
  8
0
  6
CONTINUOUS
 62
3
 10
270.195205617684960
 20
-159.142659700180270
  0
VERTEX
  8
0
  6
CONTINUOUS
 62
3
 10
269.610542894723490
 20
-164.334804678867020
  0
VERTEX
  8
0
  6
CONTINUOUS
 62
3
 10
269.413417699564830
 20
-169.709995340119350
  0
SEQEND
  8
0
  6
CONTINUOUS
 62
3
  0
ARC
  8
0
  6
CONTINUOUS
 62
3
 10
492.749682304249520
 20
-304.878156630124980
 40
5.000000000000000
 50
180.000000000000000
 51
270.000000000000000
  0
ARC
  8
0
  6
CONTINUOUS
 62
3
 10
503.277408360442000
 20
-304.878156630124980
 40
5.000000000000000
 50
180.000000000000000
 51
270.000000000000000
  0
ARC
  8
0
  6
CONTINUOUS
 62
3
 10
526.431967228219260
 20
-304.878156630124980
 40
5.000000000000000
 50
180.000000000000000
 51
270.000000000000000
  0
ARC
  8
0
  6
CONTINUOUS
 62
3
 10
298.095702623533950
 20
-304.878156630124980
 40
5.000000000000000
 50
270.000000000000000
 51
0.000000000000000
  0
ARC
  8
0
  6
CONTINUOUS
 62
3
 10
287.567976567342380
 20
-304.878156630124980
 40
5.000000000000000
 50
270.000000000000000
 51
0.000000000000000
  0
ARC
  8
0
  6
CONTINUOUS
 62
3
 10
264.413417699565120
 20
-304.878156630124980
 40
5.000000000000000
 50
270.000000000000000
 51
0.000000000000000
  0
ARC
  8
0
  6
CONTINUOUS
 62
3
 10
420.422692463892640
 20
-167.516327305442250
 40
67.326989840399619
 50
0.000000000000000
 51
87.075476210271830
  0
ARC
  8
0
  6
CONTINUOUS
 62
3
 10
467.922692463891740
 20
-290.178156630125160
 40
10.000000000000000
 50
270.000000000000000
 51
0.000000000000000
  0
ARC
  8
0
  6
CONTINUOUS
 62
3
 10
472.922692463891740
 20
-166.878156630125890
 40
5.000000000000000
 50
0.000000000000000
 51
90.000000000000000
  0
ARC
  8
0
  6
CONTINUOUS
 62
3
 10
452.343690346923040
 20
-164.878156630125890
 40
3.000000000000000
 50
90.000000000000000
 51
176.983038690193300
  0
ARC
  8
0
  6
CONTINUOUS
 62
3
 10
322.922692463891740
 20
-290.178156630125160
 40
10.000000000000000
 50
180.000000000000000
 51
270.000000000000000
  0
ARC
  8
0
  6
CONTINUOUS
 62
3
 10
255.922692463891740
 20
-312.878156630124980
 40
3.000000000000000
 50
90.000000000000000
 51
180.000000000000000
  0
ARC
  8
0
  6
CONTINUOUS
 62
3
 10
534.922692463891740
 20
-312.878156630124980
 40
3.000000000000000
 50
0.000000000000000
 51
90.000000000000000
  0
ARC
  8
0
  6
CONTINUOUS
 62
3
 10
304.922692463891740
 20
-331.878156630124980
 40
2.000000000000000
 50
90.000000000000000
 51
180.000000000000000
  0
ARC
  8
0
  6
CONTINUOUS
 62
3
 10
257.422692463891740
 20
-306.878156630124980
 40
3.000000000000000
 50
270.000000000000000
 51
0.000000000000000
  0
ARC
  8
0
  6
CONTINUOUS
 62
3
 10
485.922692463891740
 20
-331.878156630124980
 40
2.000000000000000
 50
0.000000000000000
 51
90.000000000000000
  0
ARC
  8
0
  6
CONTINUOUS
 62
3
 10
533.422692463891740
 20
-306.878156630124980
 40
3.000000000000000
 50
180.000000000000000
 51
270.000000000000000
  0
ARC
  8
0
  6
CONTINUOUS
 62
3
 10
395.422692463891740
 20
-656.878156630125890
 40
600.000000000000680
 50
87.075476210271646
 51
90.000000000000000
  0
ARC
  8
0
  6
CONTINUOUS
 62
3
 10
420.422692463892640
 20
-167.516327305442250
 40
109.999999999999090
 50
0.000000000000000
 51
87.075476210271603
  0
ARC
  8
0
  6
CONTINUOUS
 62
3
 10
395.422692463891740
 20
-656.878156630125890
 40
557.326989840400530
 50
87.075476210271688
 51
90.000000000000000
  0
ARC
  8
0
  6
CONTINUOUS
 62
3
 10
395.422692463891740
 20
-656.878156630125890
 40
557.326989840400530
 50
90.000000000000000
 51
92.924523789728227
  0
ARC
  8
0
  6
CONTINUOUS
 62
3
 10
395.422692463891740
 20
-656.878156630125890
 40
600.000000000000000
 50
90.000000000000000
 51
92.924523789728170
  0
CIRCLE
  8
0
  6
CONTINUOUS
 62
3
 10
395.422692463891740
 20
-161.878156630125890
 40
33.999999999999659
  0
ARC
  8
0
  6
CONTINUOUS
 62
3
 10
405.922692463892640
 20
-31.878156630125886
 40
10.000000000000000
 50
0.000000000000000
 51
90.000000000000000
  0
CIRCLE
  8
0
  6
CONTINUOUS
 62
3
 10
395.422692463892640
 20
-41.878156630125886
 40
10.000000000000000
  0
ARC
  8
0
  6
CONTINUOUS
 62
3
 10
384.922692463892640
 20
-31.878156630125886
 40
10.000000000000000
 50
90.000000000000000
 51
180.000000000000000
  0
ARC
  8
0
  6
CONTINUOUS
 62
3
 10
395.422692463891740
 20
-161.909389181390000
 40
23.999999999999723
 50
196.957763300004330
 51
163.042236699995670
  0
CIRCLE
  8
0
  6
CONTINUOUS
 62
3
 10
395.422692463891740
 20
-161.878156630125890
 40
3.324999999999989
  0
CIRCLE
  8
0
  6
CONTINUOUS
 62
4
 10
395.422692463891740
 20
-161.878156630125890
 40
4.000000000000000
  0
ARC
  8
0
  6
CONTINUOUS
 62
3
 10
152.333188768023550
 20
-116.878156630125880
 40
1.000000000000000
 50
180.000000000000000
 51
270.000000000000000
  0
ARC
  8
0
  6
CONTINUOUS
 62
3
 10
152.333188768023550
 20
-206.878156630125890
 40
1.000000000000000
 50
90.000000000000000
 51
180.000000000000000
  0
ARC
  8
0
  6
CONTINUOUS
 62
3
 10
78.349734220854089
 20
-143.121975393250980
 40
84.999999999999844
 50
31.410339509413163
 51
88.999999999999758
  0
ARC
  8
0
  6
CONTINUOUS
 62
3
 10
148.333188768023550
 20
-100.386555778552970
 40
3.000000000000000
 50
0.000000000000000
 51
31.410339509406533
  0
ARC
  8
0
  6
CONTINUOUS
 62
3
 10
149.333188768023550
 20
-313.740911729354590
 40
4.000000000000000
 50
0.000000000000000
 51
87.999999999996504
  0
ARC
  8
0
  6
CONTINUOUS
 62
3
 10
154.333188768023550
 20
-308.841932243787600
 40
3.000000000000000
 50
180.000000000000000
 51
224.415308597194890
  0
ARC
  8
0
  6
CONTINUOUS
 62
3
 10
146.911526048686260
 20
-306.652078593653640
 40
3.000000000000000
 50
180.000000000000000
 51
268.000000000005290
  0
ARC
  8
0
  6
CONTINUOUS
 62
3
 10
116.803359429552300
 20
-305.600678247327780
 40
3.000000000000000
 50
180.000000000000000
 51
267.999999999996080
  0
ARC
  8
0
  6
CONTINUOUS
 62
3
 10
229.933188768023910
 20
-138.278156630126430
 40
0.399999999999636
 50
0.000000000000000
 51
90.000000000000000
  0
ARC
  8
0
  6
CONTINUOUS
 62
3
 10
229.933188768023910
 20
-185.478156630125340
 40
0.400000000000546
 50
270.000000000000000
 51
0.000000000000000
  0
ARC
  8
0
  6
CONTINUOUS
 62
3
 10
156.133188768023730
 20
-186.528156630126430
 40
0.800000000001091
 50
90.000000000000000
 51
180.000000000000000
  0
ARC
  8
0
  6
CONTINUOUS
 62
3
 10
156.133188768023730
 20
-137.228156630125340
 40
0.800000000000182
 50
180.000000000000000
 51
270.000000000000000
  0
ARC
  8
0
  6
CONTINUOUS
 62
3
 10
167.332781388882040
 20
-161.909389181390910
 40
7.000000000000000
 50
90.000000000000000
 51
270.000000000000000
  0
ARC
  8
0
  6
CONTINUOUS
 62
3
 10
-130.716811231977430
 20
-139.781548989567910
 40
11.000000000000000
 50
0.000000000000000
 51
90.000000000000000
  0
ARC
  8
0
  6
CONTINUOUS
 62
4
 10
-131.116811231977070
 20
-146.378156630173630
 40
5.000000000000000
 50
0.000000000000000
 51
90.000000000000000
  0
ARC
  8
0
  6
CONTINUOUS
 62
3
 10
-131.116811231977070
 20
-139.876367193066470
 40
5.000000000000000
 50
0.000000000000000
 51
90.000000000000000
  0
ARC
  8
0
  6
CONTINUOUS
 62
3
 10
-131.116811231977070
 20
-215.954111399726570
 40
5.000000000000000
 50
270.000000000000000
 51
0.000000000000000
  0
ARC
  8
0
  6
CONTINUOUS
 62
3
 10
-130.716811231977430
 20
-221.384268357823660
 40
11.000000000000000
 50
270.000000000000000
 51
0.000000000000000
  0
ARC
  8
0
  6
CONTINUOUS
 62
3
 10
-130.716811231977430
 20
-220.164058428596490
 40
11.000000000000000
 50
270.000000000000000
 51
0.000000000000000
  0
ARC
  8
0
  6
CONTINUOUS
 62
3
 10
-156.906593051362960
 20
-216.954111412576820
 40
4.000000000000156
 50
221.178434371117250
 51
270.000000000000000
  0
ARC
  8
0
  6
CONTINUOUS
 62
3
 10
-157.679337016256110
 20
-216.954111405950240
 40
3.999999999999828
 50
226.698420851470790
 51
270.000000000000000
  0
ARC
  8
0
  6
CONTINUOUS
 62
3
 10
-174.654285447696570
 20
-216.954111405950240
 40
3.999999993776328
 50
270.000000000000000
 51
313.301579148531630
  0
ARC
  8
0
  6
CONTINUOUS
 62
3
 10
-175.427029412589490
 20
-216.954111412576820
 40
3.999999987149749
 50
270.000000000000000
 51
318.821565628880590
  0
ARC
  8
0
  6
CONTINUOUS
 62
3
 10
-201.616811231975130
 20
-220.164058428596490
 40
11.000000000000000
 50
180.000000000000000
 51
270.000000000000000
  0
ARC
  8
0
  6
CONTINUOUS
 62
3
 10
-201.616811231975130
 20
-221.384268357823660
 40
11.000000000000000
 50
180.000000000000000
 51
270.000000000000000
  0
ARC
  8
0
  6
CONTINUOUS
 62
3
 10
-201.216811231975500
 20
-215.954111399726570
 40
5.000000000000000
 50
180.000000000000000
 51
270.000000000000000
  0
ARC
  8
0
  6
CONTINUOUS
 62
3
 10
-201.616811231975130
 20
-139.781548989567910
 40
11.000000000000000
 50
90.000000000000000
 51
180.000000000000000
  0
ARC
  8
0
  6
CONTINUOUS
 62
3
 10
-201.216811231975500
 20
-139.876367193066470
 40
5.000000000000000
 50
90.000000000000000
 51
180.000000000000000
  0
ARC
  8
0
  6
CONTINUOUS
 62
4
 10
-201.216811231975500
 20
-146.378156630173630
 40
5.000000000000000
 50
90.000000000000000
 51
180.000000000000000
  0
ARC
  8
0
  6
CONTINUOUS
 62
3
 10
-220.860835454396470
 20
-131.378156630173860
 40
20.000000000000000
 50
90.000000000000000
 51
125.000000000000240
  0
ARC
  8
0
  6
CONTINUOUS
 62
3
 10
-240.566811231925840
 20
-123.934951572928410
 40
2.599999999999721
 50
125.000000000001370
 51
180.000000000000000
  0
ARC
  8
0
  6
CONTINUOUS
 62
3
 10
-220.860835454396470
 20
-211.378156630173860
 40
20.000000000000007
 50
234.999999999999740
 51
270.000000000000000
  0
ARC
  8
0
  6
CONTINUOUS
 62
3
 10
-240.566811231925840
 20
-218.821361687419310
 40
2.600000000000136
 50
180.000000000000000
 51
234.999999999998610
  0
ARC
  8
0
  6
CONTINUOUS
 62
3
 10
395.422692463891740
 20
-161.878156630125890
 40
53.999999999999424
 50
183.016961309816540
 51
356.983038690183490
  0
ARC
  8
0
  6
CONTINUOUS
 62
3
 10
338.501694580861340
 20
-164.878156630125890
 40
3.000000000000143
 50
3.016961309806693
 51
90.000000000000000
  0
ARC
  8
0
  6
CONTINUOUS
 62
3
 10
317.922692463891740
 20
-166.878156630125890
 40
5.000000000000000
 50
90.000000000000000
 51
180.000000000000000
  0
ARC
  8
0
  6
CONTINUOUS
 62
3
 10
370.422692463891740
 20
-167.516327305442250
 40
109.999999999999800
 50
92.924523789727928
 51
180.000000000000000
  0
CIRCLE
  8
0
  6
CONTINUOUS
 62
3
 10
395.422692463891740
 20
-161.878156630125890
 40
43.999999999999545
  0
ARC
  8
0
  6
DASHED
 62
3
 10
285.041084736727730
 20
-227.555063677154520
 40
9.000000000000075
 50
139.398468892516490
 51
172.601548410321070
  0
ARC
  8
0
  6
DASHED
 62
3
 10
277.405189111546410
 20
-226.563544554655890
 40
1.299999237060687
 50
172.601548410320760
 51
246.000017986079880
  0
ARC
  8
0
  6
DASHED
 62
3
 10
279.154256910617960
 20
-165.224806812525910
 40
1.000000000000128
 50
126.205708094041610
 51
179.412192132278280
  0
ARC
  8
0
  6
DASHED
 62
3
 10
277.972884794341550
 20
-163.611003874467770
 40
0.999999999999994
 50
306.205708094031080
 51
359.259505056807090
  0
ARC
  8
0
  6
DASHED
 62
3
 10
278.743093210494640
 20
-202.770012899462930
 40
1.000000000000008
 50
2.994076090848812
 51
56.047873053604029
  0
ARC
  8
0
  6
DASHED
 62
3
 10
279.860093235107120
 20
-201.111003874467770
 40
0.999999999999988
 50
182.841389015366990
 51
236.047873053618590
  0
ARC
  8
0
  6
DASHED
 62
3
 10
878.922692463891740
 20
-171.378156630174090
 40
600.799999999999950
 50
179.412192132293110
 51
182.841389015363350
  0
ARC
  8
0
  6
DASHED
 62
3
 10
282.552678867472650
 20
-215.500791218411000
 40
2.000000000000632
 50
184.231338074886000
 51
245.999999999972630
  0
ARC
  8
0
  6
DASHED
 62
3
 10
281.128005200193230
 20
-218.150394470052560
 40
1.000000000000041
 50
335.999999999996420
 51
66.000000000020236
  0
ARC
  8
0
  6
DASHED
 62
3
 10
277.748867084107810
 20
-230.657249614029520
 40
0.999999999999948
 50
156.000000000008300
 51
245.999999999972630
  0
ARC
  8
0
  6
DASHED
 62
3
 10
321.922692463891740
 20
-212.878156630173860
 40
5.000000000000000
 50
270.000000000000000
 51
0.000000000000000
  0
ARC
  8
0
  6
DASHED
 62
3
 10
323.922692463891740
 20
-138.686551753114830
 40
3.000000000000000
 50
0.000000000000000
 51
66.000000000020236
  0
ARC
  8
0
  6
DASHED
 62
3
 10
279.956643471580040
 20
-220.781315988060440
 40
1.000000000000041
 50
335.999999999996420
 51
4.715124834083239
  0
ARC
  8
0
  6
DASHED
 62
3
 10
878.922692463891740
 20
-171.378156630174090
 40
600.000000000001140
 50
178.317231198866840
 51
184.715124834091600
  0
ARC
  8
0
  6
DASHED
 62
3
 10
294.174981449332560
 20
-154.199260762439050
 40
15.000000000000041
 50
99.318123119675519
 51
178.317231198866920
  0
ARC
  8
0
  6
DASHED
 62
3
 10
317.216131200238350
 20
-132.177949701512940
 40
3.000000000000022
 50
279.318123119682530
 51
336.000000000000400
  0
ARC
  8
0
  6
DASHED
 62
3
 10
279.194830961710980
 20
-222.543943147068830
 40
1.299999237060620
 50
65.999999316753915
 51
139.398468892516150
  0
ARC
  8
0
  6
DASHED
 62
3
 10
322.652592479676290
 20
-129.801831090286440
 40
0.999999999999856
 50
66.000000000020236
 51
155.999999999996390
  0
ARC
  8
0
  6
CONTINUOUS
 62
3
 10
370.422692463891740
 20
-167.516327305442250
 40
67.326989840399662
 50
92.924523789728170
 51
180.000000000000000
  0
LINE
  8
0
  6
CONTINUOUS
 62
3
 10
252.922692463891740
 20
-312.878156630124980
 11
252.922692463891740
 21
-331.878156630124980
  0
LINE
  8
0
  6
DASHDOT
 62
4
 10
426.574710678986090
 20
-171.378156630173860
 11
364.584260226351260
 21
-171.378156630173860
  0
LINE
  8
0
  6
CONTINUOUS
 62
3
 10
395.422692463891740
 20
-300.178156630125160
 11
467.922692463891740
 21
-300.178156630125160
  0
LINE
  8
0
  6
CONTINUOUS
 62
3
 10
477.922692463891740
 20
-166.878156630125890
 11
477.922692463891740
 21
-290.178156630125160
  0
LINE
  8
0
  6
CONTINUOUS
 62
3
 10
452.343690346923040
 20
-161.878156630125890
 11
472.922692463891740
 21
-161.878156630125890
  0
LINE
  8
0
  6
CONTINUOUS
 62
3
 10
395.422692463891740
 20
-300.178156630125160
 11
322.922692463891740
 21
-300.178156630125160
  0
LINE
  8
0
  6
CONTINUOUS
 62
3
 10
537.922692463891740
 20
-312.878156630124980
 11
537.922692463891740
 21
-331.878156630124980
  0
LINE
  8
0
  6
CONTINUOUS
 62
3
 10
302.922692463891740
 20
-331.878156630124980
 11
252.922692463891740
 21
-331.878156630124980
  0
LINE
  8
0
  6
DASHED
 62
3
 10
289.422692463891740
 20
-309.878156630124980
 11
289.198336714552400
 21
-309.878156630124980
  0
LINE
  8
0
  6
DASHDOT
 62
4
 10
270.422692463891740
 20
-305.665324255552150
 11
270.422692463891740
 21
-336.510094839659360
  0
LINE
  8
0
  6
CONTINUOUS
 62
3
 10
395.422692463891740
 20
-309.878156630124980
 11
255.922692463891740
 21
-309.878156630124980
  0
LINE
  8
0
  6
DASHED
 62
3
 10
501.422692463891740
 20
-309.878156630124980
 11
501.647048213231980
 21
-309.878156630124980
  0
LINE
  8
0
  6
CONTINUOUS
 62
3
 10
395.422692463891740
 20
-309.878156630124980
 11
534.922692463891740
 21
-309.878156630124980
  0
LINE
  8
0
  6
DASHDOT
 62
4
 10
520.422692463891740
 20
-305.665324255552150
 11
520.422692463891740
 21
-336.510094839658450
  0
LINE
  8
0
  6
CONTINUOUS
 62
3
 10
487.922692463891740
 20
-331.878156630124980
 11
537.922692463891740
 21
-331.878156630124980
  0
LINE
  8
0
  6
CONTINUOUS
 62
3
 10
395.422692463891740
 20
-329.878156630124980
 11
304.922692463891740
 21
-329.878156630124980
  0
LINE
  8
0
  6
CONTINUOUS
 62
3
 10
395.422692463891740
 20
-329.878156630124980
 11
485.922692463891740
 21
-329.878156630124980
  0
LINE
  8
0
  6
CONTINUOUS
 62
3
 10
487.749682304249520
 20
-166.878156630125890
 11
487.749682304249520
 21
-304.878156630124980
  0
LINE
  8
0
  6
CONTINUOUS
 62
3
 10
498.277408360442000
 20
-169.709998216918390
 11
498.277408360442000
 21
-304.878156630124980
  0
LINE
  8
0
  6
CONTINUOUS
 62
3
 10
521.431967228219260
 20
-169.709995340119350
 11
521.431967228219260
 21
-304.878156630124980
  0
LINE
  8
0
  6
CONTINUOUS
 62
3
 10
530.422692463891740
 20
-167.516327305442250
 11
530.422692463891740
 21
-306.878156630124980
  0
LINE
  8
0
  6
CONTINUOUS
 62
3
 10
415.922692463892640
 20
-31.878156630125886
 11
415.922692463892640
 21
-57.228467228054797
  0
LINE
  8
0
  6
DASHDOT
 62
4
 10
418.590605462774190
 20
-41.878156630125886
 11
371.568091561239500
 21
-41.878156630125886
  0
LINE
  8
0
  6
CONTINUOUS
 62
3
 10
405.922692463892640
 20
-21.878156630125886
 11
384.922692463892640
 21
-21.878156630125886
  0
LINE
  8
0
  6
CONTINUOUS
 62
3
 10
374.922692463892640
 20
-31.878156630125886
 11
374.922692463892640
 21
-57.228467228054797
  0
LINE
  8
0
  6
CONTINUOUS
 62
3
 10
367.922692463891740
 20
-154.909389181390000
 11
367.922692463891740
 21
-168.909389181390000
  0
LINE
  8
0
  6
CONTINUOUS
 62
3
 10
376.922692463891740
 20
-154.909389181390000
 11
376.922692463891740
 21
-168.909389181390000
  0
LINE
  8
0
  6
CONTINUOUS
 62
3
 10
367.922692463891740
 20
-154.909389181390000
 11
376.922692463891740
 21
-154.909389181390000
  0
LINE
  8
0
  6
CONTINUOUS
 62
3
 10
367.922692463891740
 20
-168.909389181390000
 11
376.922692463891740
 21
-168.909389181390000
  0
LINE
  8
0
  6
CONTINUOUS
 62
3
 10
153.333188768023550
 20
-313.740911729354590
 11
153.333188768023550
 21
-331.878156630125890
  0
LINE
  8
0
  6
CONTINUOUS
 62
3
 10
149.472786754833810
 20
-309.743348421277910
 11
113.333188768023540
 21
-308.481325850455510
  0
LINE
  8
0
  6
DASHDOT
 62
4
 10
135.333188768023550
 20
-302.951195074645510
 11
135.333188768023550
 21
-340.289419104185980
  0
LINE
  8
0
  6
CONTINUOUS
 62
3
 10
151.333188768023550
 20
-161.878156630125890
 11
151.333188768023550
 21
-308.841932243787600
  0
LINE
  8
0
  6
CONTINUOUS
 62
3
 10
153.333188768023550
 20
-161.878156630125890
 11
153.333188768023550
 21
-205.878156630125890
  0
LINE
  8
0
  6
CONTINUOUS
 62
3
 10
153.333188768023550
 20
-161.878156630125890
 11
153.333188768023550
 21
-117.878156630125880
  0
LINE
  8
0
  6
CONTINUOUS
 62
3
 10
151.333188768023550
 20
-161.878156630125890
 11
151.333188768023550
 21
-100.386555778552970
  0
LINE
  8
0
  6
DASHDOT
 62
4
 10
242.119090252650490
 20
-161.878156630125890
 11
96.252449355074759
 21
-161.878156630125890
  0
LINE
  8
0
  6
CONTINUOUS
 62
3
 10
143.911526048686260
 20
-169.709995340120260
 11
143.911526048686260
 21
-306.652078593653640
  0
LINE
  8
0
  6
CONTINUOUS
 62
3
 10
113.803359429552300
 20
-169.709995340120260
 11
113.803359429552300
 21
-305.600678247327780
  0
LINE
  8
0
  6
CONTINUOUS
 62
3
 10
152.333188768023550
 20
-117.878156630125880
 11
153.333188768023550
 21
-117.878156630125880
  0
LINE
  8
0
  6
CONTINUOUS
 62
3
 10
152.333188768023550
 20
-205.878156630125890
 11
153.333188768023550
 21
-205.878156630125890
  0
LINE
  8
0
  6
CONTINUOUS
 62
3
 10
229.933188768023910
 20
-137.878156630125890
 11
157.892996389158950
 21
-137.878156630125890
  0
LINE
  8
0
  6
CONTINUOUS
 62
3
 10
230.333188768023550
 20
-161.878156630125890
 11
230.333188768023550
 21
-138.278156630126430
  0
LINE
  8
0
  6
CONTINUOUS
 62
3
 10
230.333188768023550
 20
-161.878156630125890
 11
230.333188768023550
 21
-185.478156630125340
  0
LINE
  8
0
  6
CONTINUOUS
 62
3
 10
229.933188768023910
 20
-185.878156630125890
 11
157.892996389158950
 21
-185.878156630125890
  0
LINE
  8
0
  6
CONTINUOUS
 62
3
 10
155.333188768023550
 20
-186.678156630126070
 11
155.133188768023730
 21
-186.878156630125890
  0
LINE
  8
0
  6
CONTINUOUS
 62
3
 10
155.333188768023550
 20
-186.528156630126430
 11
155.333188768023550
 21
-186.678156630126070
  0
LINE
  8
0
  6
CONTINUOUS
 62
3
 10
157.333188768023550
 20
-185.728156630125340
 11
156.133188768023730
 21
-185.728156630125340
  0
LINE
  8
0
  6
CONTINUOUS
 62
3
 10
157.333188768023550
 20
-185.728156630125340
 11
157.892996389158950
 21
-185.878156630125890
  0
LINE
  8
0
  6
CONTINUOUS
 62
3
 10
155.133188768023730
 20
-186.878156630125890
 11
153.333188768023550
 21
-186.878156630125890
  0
LINE
  8
0
  6
CONTINUOUS
 62
3
 10
155.333188768023550
 20
-161.878156630125890
 11
155.333188768023550
 21
-186.528156630126430
  0
LINE
  8
0
  6
CONTINUOUS
 62
3
 10
155.333188768023550
 20
-137.078156630125700
 11
155.133188768023730
 21
-136.878156630125890
  0
LINE
  8
0
  6
CONTINUOUS
 62
3
 10
155.333188768023550
 20
-137.228156630125340
 11
155.333188768023550
 21
-137.078156630125700
  0
LINE
  8
0
  6
CONTINUOUS
 62
3
 10
157.333188768023550
 20
-138.028156630126430
 11
156.133188768023730
 21
-138.028156630126430
  0
LINE
  8
0
  6
CONTINUOUS
 62
3
 10
157.333188768023550
 20
-138.028156630126430
 11
157.892996389158950
 21
-137.878156630125890
  0
LINE
  8
0
  6
CONTINUOUS
 62
3
 10
155.133188768023730
 20
-136.878156630125890
 11
153.333188768023550
 21
-136.878156630125890
  0
LINE
  8
0
  6
CONTINUOUS
 62
3
 10
155.333188768023550
 20
-161.878156630125890
 11
155.333188768023550
 21
-137.228156630125340
  0
LINE
  8
0
  6
CONTINUOUS
 62
3
 10
230.333188768023090
 20
-154.909389181390910
 11
167.332781388882040
 21
-154.909389181390910
  0
LINE
  8
0
  6
CONTINUOUS
 62
3
 10
230.333188768023090
 20
-168.909389181390910
 11
167.332781388882040
 21
-168.909389181390910
  0
LINE
  8
0
  6
CONTINUOUS
 62
3
 10
-130.716811231977430
 20
-128.781548989567910
 11
-166.166811231976230
 21
-128.781548989567910
  0
LINE
  8
0
  6
CONTINUOUS
 62
4
 10
-166.166811231976230
 20
-141.378156630173630
 11
-131.116811231977070
 21
-141.378156630173630
  0
LINE
  8
0
  6
CONTINUOUS
 62
3
 10
-166.166811231976230
 20
-134.876367193066470
 11
-131.116811231977070
 21
-134.876367193066470
  0
LINE
  8
0
  6
CONTINUOUS
 62
3
 10
-119.716811231977430
 20
-139.781548989567910
 11
-119.716811231977430
 21
-221.384268357823660
  0
LINE
  8
0
  6
CONTINUOUS
 62
3
 10
-126.116811231977060
 20
-139.876367193066470
 11
-126.116811231977060
 21
-215.954111399726570
  0
LINE
  8
0
  6
CONTINUOUS
 62
3
 10
-130.716811231977430
 20
-231.164058428596490
 11
-166.166811231976230
 21
-231.164058428596490
  0
LINE
  8
0
  6
CONTINUOUS
 62
3
 10
-130.716811231977430
 20
-232.384268357823660
 11
-166.166811231976230
 21
-232.384268357823660
  0
LINE
  8
0
  6
CONTINUOUS
 62
3
 10
-157.679337014582870
 20
-220.954111399726570
 11
-131.116811231977070
 21
-220.954111399726570
  0
LINE
  8
0
  6
CONTINUOUS
 62
3
 10
-168.166811231976230
 20
-225.813055034401710
 11
-164.166811231976230
 21
-222.158873203831260
  0
LINE
  8
0
  6
CONTINUOUS
 62
3
 10
-164.166811231976230
 20
-225.813055034401710
 11
-168.166811231976230
 21
-222.158873203831260
  0
LINE
  8
0
  6
CONTINUOUS
 62
3
 10
-201.616811231975130
 20
-232.384268357823660
 11
-166.166811231976230
 21
-232.384268357823660
  0
LINE
  8
0
  6
CONTINUOUS
 62
3
 10
-201.616811231975130
 20
-231.164058428596490
 11
-166.166811231976230
 21
-231.164058428596490
  0
LINE
  8
0
  6
CONTINUOUS
 62
3
 10
-174.654285449369810
 20
-220.954111399726570
 11
-201.216811231975500
 21
-220.954111399726570
  0
LINE
  8
0
  6
DASHDOT
 62
4
 10
-166.166811231976230
 20
-125.878556797381860
 11
-166.166811231976230
 21
-238.532276222618520
  0
LINE
  8
0
  6
CONTINUOUS
 62
4
 10
-166.166811231976230
 20
-189.611003874467770
 11
-158.949932867106780
 21
-202.111003874467770
  0
LINE
  8
0
  6
CONTINUOUS
 62
4
 10
-151.733054502236430
 20
-189.611003874467770
 11
-166.166811231976230
 21
-189.611003874467770
  0
LINE
  8
0
  6
CONTINUOUS
 62
4
 10
-158.949932867105870
 20
-177.111003874468000
 11
-166.166811231976230
 21
-189.611003874467770
  0
LINE
  8
0
  6
CONTINUOUS
 62
4
 10
-166.166811231976230
 20
-164.611003874467770
 11
-158.949932867105870
 21
-177.111003874467770
  0
LINE
  8
0
  6
CONTINUOUS
 62
4
 10
-144.516176137366070
 20
-202.111003874467770
 11
-158.949932867106780
 21
-202.111003874467770
  0
LINE
  8
0
  6
CONTINUOUS
 62
4
 10
-151.733054502236430
 20
-189.611003874467770
 11
-144.516176137366070
 21
-202.111003874467770
  0
LINE
  8
0
  6
CONTINUOUS
 62
4
 10
-166.166811231976230
 20
-164.611003874467770
 11
-173.383689596846580
 21
-177.111003874467770
  0
LINE
  8
0
  6
CONTINUOUS
 62
4
 10
-173.383689596846580
 20
-177.111003874468000
 11
-166.166811231976230
 21
-189.611003874467770
  0
LINE
  8
0
  6
CONTINUOUS
 62
4
 10
-180.600567961716020
 20
-189.611003874467770
 11
-166.166811231976230
 21
-189.611003874467770
  0
LINE
  8
0
  6
CONTINUOUS
 62
4
 10
-180.600567961716020
 20
-189.611003874467770
 11
-187.817446326586380
 21
-202.111003874467770
  0
LINE
  8
0
  6
CONTINUOUS
 62
4
 10
-166.166811231976230
 20
-189.611003874467770
 11
-173.383689596845670
 21
-202.111003874467770
  0
LINE
  8
0
  6
CONTINUOUS
 62
4
 10
-187.817446326586380
 20
-202.111003874467770
 11
-173.383689596845670
 21
-202.111003874467770
  0
LINE
  8
0
  6
CONTINUOUS
 62
3
 10
-201.616811231975130
 20
-128.781548989567910
 11
-166.166811231976230
 21
-128.781548989567910
  0
LINE
  8
0
  6
CONTINUOUS
 62
3
 10
-166.166811231976230
 20
-134.876367193066470
 11
-201.216811231975500
 21
-134.876367193066470
  0
LINE
  8
0
  6
CONTINUOUS
 62
4
 10
-166.166811231976230
 20
-141.378156630173630
 11
-201.216811231975500
 21
-141.378156630173630
  0
LINE
  8
0
  6
CONTINUOUS
 62
3
 10
-206.216811231975500
 20
-139.876367193066470
 11
-206.216811231975500
 21
-215.954111399726570
  0
LINE
  8
0
  6
CONTINUOUS
 62
3
 10
-212.616811231975130
 20
-139.781548989567910
 11
-212.616811231975130
 21
-221.384268357823660
  0
LINE
  8
0
  6
CONTINUOUS
 62
3
 10
-192.166811231976110
 20
-128.781548989567910
 11
-192.166811231976110
 21
-111.378156630173860
  0
LINE
  8
0
  6
CONTINUOUS
 62
3
 10
-192.166811231976110
 20
-111.378156630173860
 11
-220.860835454396470
 21
-111.378156630173860
  0
LINE
  8
0
  6
CONTINUOUS
 62
3
 10
-243.166811231925980
 20
-171.378156630173860
 11
-243.166811231925980
 21
-123.934951572928410
  0
LINE
  8
0
  6
CONTINUOUS
 62
3
 10
-232.332364181417460
 20
-114.995115744394070
 11
-242.058109966438450
 21
-121.805156257777290
  0
LINE
  8
0
  6
CONTINUOUS
 62
3
 10
-206.212700395105680
 20
-231.378156630173860
 11
-220.860835454396470
 21
-231.378156630173860
  0
LINE
  8
0
  6
CONTINUOUS
 62
3
 10
-243.166811231925980
 20
-171.378156630173860
 11
-243.166811231925980
 21
-218.821361687419310
  0
LINE
  8
0
  6
CONTINUOUS
 62
3
 10
-232.332364181417460
 20
-227.761197515953650
 11
-242.058109966438450
 21
-220.951157002570430
  0
LINE
  8
0
  6
CONTINUOUS
 62
3
 10
-205.166811231975540
 20
-116.462256044113470
 11
-203.166811231975540
 21
-117.638041529736250
  0
LINE
  8
0
  6
CONTINUOUS
 62
3
 10
-203.166811231975540
 20
-117.638041529736250
 11
-201.166811231975540
 21
-119.290683168859680
  0
LINE
  8
0
  6
CONTINUOUS
 62
3
 10
-201.166811231975540
 20
-116.462256044113470
 11
-203.166811231975540
 21
-117.638041529736250
  0
LINE
  8
0
  6
CONTINUOUS
 62
3
 10
-203.166811231975540
 20
-117.638041529736250
 11
-205.166811231975540
 21
-119.290683168859680
  0
LINE
  8
0
  6
CONTINUOUS
 62
3
 10
303.095702623533950
 20
-166.878156630125890
 11
303.095702623533950
 21
-304.878156630124980
  0
LINE
  8
0
  6
DASHDOT
 62
4
 10
539.445322331154100
 20
-161.878156630125890
 11
249.289166743099490
 21
-161.878156630125890
  0
LINE
  8
0
  6
CONTINUOUS
 62
3
 10
338.501694580861340
 20
-161.878156630125890
 11
317.922692463891740
 21
-161.878156630125890
  0
LINE
  8
0
  6
CONTINUOUS
 62
3
 10
312.922692463891740
 20
-166.878156630125890
 11
312.922692463891740
 21
-290.178156630125160
  0
LINE
  8
0
  6
CONTINUOUS
 62
3
 10
269.413417699565120
 20
-169.709995340119350
 11
269.413417699565120
 21
-304.878156630124980
  0
LINE
  8
0
  6
CONTINUOUS
 62
3
 10
292.567976567342380
 20
-169.709998216918390
 11
292.567976567342380
 21
-304.878156630124980
  0
LINE
  8
0
  6
CONTINUOUS
 62
3
 10
260.422692463891740
 20
-167.516327305442250
 11
260.422692463891740
 21
-306.878156630124980
  0
LINE
  8
0
  6
DASHDOT
 62
4
 10
302.922692463891740
 20
-203.495632850468160
 11
302.922692463891740
 21
-226.364142026231780
  0
LINE
  8
0
  6
DASHED
 62
3
 10
325.617256404156250
 20
-130.027148233258230
 11
279.900057722431260
 21
-232.709657672284270
  0
LINE
  8
0
  6
DASHED
 62
3
 10
326.922692463891740
 20
-138.686551753114830
 11
326.922692463891740
 21
-212.878156630173860
  0
LINE
  8
0
  6
DASHED
 62
3
 10
281.852393609195360
 20
-228.324639475599720
 11
285.369543621119420
 21
-229.890575551441540
  0
LINE
  8
0
  6
DASHED
 62
3
 10
283.479340181498630
 20
-224.670457645029730
 11
286.996490193422460
 21
-226.236393720871550
  0
LINE
  8
0
  6
DASHED
 62
3
 10
303.046983441088060
 20
-171.378156630173860
 11
276.835321626465200
 21
-230.250512970953880
  0
LINE
  8
0
  6
DASHED
 62
3
 10
277.342130441031490
 20
-231.570795071672140
 11
279.900057722431260
 21
-232.709657672284270
  0
LINE
  8
0
  6
DASHED
 62
3
 10
321.922692463891740
 20
-217.878156630173860
 11
286.503467432562960
 21
-217.878156630173860
  0
LINE
  8
0
  6
DASHED
 62
3
 10
323.339531202931310
 20
-135.143002796056860
 11
325.142902393117990
 21
-135.945915380186990
  0
LINE
  8
0
  6
DASHED
 62
3
 10
323.059329122751710
 20
-128.888285632643830
 11
325.617256404151020
 21
-130.027148233255960
  0
LINE
  8
0
  6
DASHED
 62
3
 10
317.701879090677040
 20
-135.138363352835090
 11
291.746241997140940
 21
-139.397192505828120
  0
LINE
  8
0
  6
DASHED
 62
3
 10
321.739047022033670
 20
-129.395094447210570
 11
303.046983441084880
 21
-171.378156630173860
  0
LINE
  8
0
  6
DASHED
 62
3
 10
325.288095624485090
 20
-132.721485951068190
 11
324.551691741723060
 21
-133.034070853859480
  0
LINE
  8
0
  6
DASHED
 62
3
 10
324.418349719529030
 20
-132.719936735410100
 11
324.551691741723060
 21
-133.034070853859480
  0
LINE
  8
0
  6
DASHED
 62
3
 10
324.863263464739020
 20
-131.720644102452750
 11
325.288095624485090
 21
-132.721485951068190
  0
LINE
  8
0
  6
DASHED
 62
3
 10
280.617972407070510
 20
-221.754540214877580
 11
279.723588287394020
 21
-221.356334749113330
  0
LINE
  8
0
  6
DASHED
 62
3
 10
277.770815905539620
 20
-228.149358418375870
 11
276.876431785863130
 21
-227.751152952611390
  0
LINE
  8
0
  6
DASHED
 62
3
 10
280.617972407070510
 20
-221.754540214877580
 11
277.770815905539620
 21
-228.149358418375870
  0
LINE
  8
0
  6
DASHED
 62
3
 10
280.617972407070510
 20
-221.754540214877580
 11
277.770815905539620
 21
-228.149358418375870
  0
LINE
  8
0
  6
DASHED
 62
3
 10
287.173873278520890
 20
-226.698492456122950
 11
285.831642356370820
 21
-229.713192466343120
  0
LINE
  8
0
  6
DASHED
 62
3
 10
285.369543621119420
 20
-229.890575551441540
 11
285.831642356370820
 21
-229.713192466343120
  0
LINE
  8
0
  6
DASHED
 62
3
 10
286.996490193422460
 20
-226.236393720871550
 11
287.173873278520890
 21
-226.698492456122950
  0
LINE
  8
0
  6
DASHED
 62
3
 10
283.336982356422140
 20
-224.990198555204640
 11
287.173873278520890
 21
-226.698492456122950
  0
LINE
  8
0
  6
DASHED
 62
3
 10
281.994751434271620
 20
-228.004898565425260
 11
285.831642356370590
 21
-229.713192466343570
  0
LINE
  8
0
  6
DASHDOT
 62
4
 10
395.422692463891740
 20
-6.785566854228819
 11
395.422692463891740
 21
-339.218315412490480
  0
POINT
  8
0
  6
DASHED
 62
3
 10
279.194394156304950
 20
-224.951949316626720
  0
ENDSEC
  0
EOF
