  0
SECTION
  2
HEADER
  9
$FILLMODE
 70
1
  9
$TEXTSTYLE
  7
STANDARD1
  9
$ACADVER
  1
AC1009
  9
$DIMASZ
 40
1.931851648807023
  9
$DIMEXE
 40
2.000000000000000
  9
$DIMEXO
 40
1.000000000000000
  9
$DIMLFAC
 40
1.000000000000000
  9
$DIMSCALE
 40
1.000000000000000
  9
$DIMTAD
 70
1
  9
$DIMTFAC
 40
0.714285731315613
  9
$DIMTXT
 40
2.799999952316284
  9
$LUPREC
 70
3
  9
$TEXTSIZE
 40
4.000000000000000
  9
$REGENMODE
 70
1
  0
ENDSEC
  0
SECTION
  2
TABLES
  0
TABLE
  2
LTYPE
 70
4
  0
LTYPE
  2
CONTINUOUS
 70
64
  3
Solid line
 72
65
 73
0
 40
0.0
  0
LTYPE
  2
DASHED
 70
64
  3
-- -- -- -- -- -- -- -- -- -- -- -- -- -- --
 72
65
 73
2
 40
0.75
 49
0.5
 49
-0.25
  0
LTYPE
  2
DASHDOT
 70
64
  3
__ . __ . __ . __ . __ . __ . __ . __ . __ . __
 72
65
 73
4
 40
1.0
 49
0.5
 49
-0.25
 49
0.0
 49
-0.25
  0
LTYPE
  2
DIVIDE
 70
64
  3
__ . . __ . . __ . . __ . . __ . . __ . . __
 72
65
 73
6
 40
1.25
 49
0.5
 49
-0.25
 49
0.0
 49
-0.25
 49
0.0
 49
-0.25
  0
ENDTAB
  0
TABLE
  2
LAYER
 70
1
  0
LAYER
  2
0
 70
64
 62
2
  6
CONTINUOUS
  0
ENDTAB
  0
TABLE
  2
STYLE
 70
4
  0
STYLE
  2
STANDARD1
 70
64
 40
0.0
 41
1.0
 50
0.0
 71
0
 42
4.000000000000000
  3
MONOTXT
  4
BIGFONT
  0
STYLE
  2
STANDARD2
 70
68
 40
0.0
 41
1.0
 50
0.0
 71
0
 42
4.000000000000000
  3
MONOTXT
  4
BIGFONT
  0
STYLE
  2
STANDARD3
 70
64
 40
0.0
 41
1.0
 50
0.0
 71
0
 42
4.000000000000000
  3
MONOTXT
  4

  0
STYLE
  2
STANDARD4
 70
68
 40
0.0
 41
1.0
 50
0.0
 71
0
 42
4.000000000000000
  3
MONOTXT
  4

  0
ENDTAB
  0
TABLE
  2
VIEW
 70
0
  0
ENDTAB
  0
ENDSEC
  0
SECTION
  2
BLOCKS
  0
BLOCK
  8
0
  2
SYM1
 70
64
 10
0.000000000000000
 20
0.000000000000000
  0
POINT
  8
0
  6
CONTINUOUS
 62
3
 10
0.000000000000000
 20
0.000000000000000
  0
LINE
  8
0
  6
CONTINUOUS
 62
3
 10
0.000000000000000
 20
5.000000000000000
 11
0.000000000000000
 21
-5.000000000000000
  0
LINE
  8
0
  6
CONTINUOUS
 62
3
 10
-6.000000000000000
 20
-5.000000000000000
 11
-6.000000000000000
 21
5.000000000000000
  0
LINE
  8
0
  6
CONTINUOUS
 62
3
 10
0.000000000000000
 20
5.000000000000000
 11
-6.000000000000000
 21
5.000000000000000
  0
LINE
  8
0
  6
CONTINUOUS
 62
3
 10
-0.000000000000000
 20
-5.000000000000000
 11
-6.000000000000000
 21
-5.000000000000000
  0
ENDBLK
  8
0
  0
BLOCK
  8
0
  2
SYM2
 70
64
 10
0.000000000000000
 20
0.000000000000000
  0
CIRCLE
  8
0
  6
CONTINUOUS
 62
3
 10
0.000000000000000
 20
0.000000000000000
 40
5.000000000000000
  0
POINT
  8
0
  6
CONTINUOUS
 62
3
 10
0.000000000000000
 20
0.000000000000000
  0
LINE
  8
0
  6
CONTINUOUS
 62
3
 10
-2.499997615815493
 20
-1.443371644997905
 11
-2.499998569489762
 21
1.443377622580220
  0
LINE
  8
0
  6
CONTINUOUS
 62
3
 10
2.499997615814836
 20
1.443371644999042
 11
2.499998569489158
 21
-1.443373807881817
  0
LINE
  8
0
  6
CONTINUOUS
 62
3
 10
0.000004721207233
 20
2.886748740356097
 11
2.499998505998519
 21
1.443372095808627
  0
LINE
  8
0
  6
CONTINUOUS
 62
3
 10
-0.000005512125483
 20
-2.886746937722080
 11
-2.499997817169060
 21
-1.443371590977961
  0
LINE
  8
0
  6
CONTINUOUS
 62
3
 10
0.000004782436690
 20
2.886748260213380
 11
-2.499999945610170
 21
1.443377225120230
  0
LINE
  8
0
  6
CONTINUOUS
 62
3
 10
2.499999351944041
 20
-1.443373974675978
 11
-0.000004997562428
 21
-2.886747551371855
  0
ENDBLK
  8
0
  0
ENDSEC
  0
SECTION
  2
ENTITIES
  0
ARC
  8
0
  6
CONTINUOUS
 62
3
 10
-266.693062992718470
 20
-160.075736844110590
 40
6.099999427795406
 50
264.601927898108500
 51
5.398089404735109
  0
POINT
  8
0
  6
CONTINUOUS
 62
3
 10
-264.430321427791450
 20
-162.338478409037630
  0
LINE
  8
0
  6
CONTINUOUS
 62
3
 10
-261.106919691084610
 20
-159.015076672330760
 11
-267.753723164498300
 21
-165.661880145744500
  0
LINE
  8
0
  6
CONTINUOUS
 62
3
 10
-260.793781082115800
 20
-159.267623623181150
 11
-267.470880384588720
 21
-165.944722925654080
  0
LINE
  8
0
  6
CONTINUOUS
 62
3
 10
-267.753723164498300
 20
-165.661880145744500
 11
-267.266919772792680
 21
-166.148683537450100
  0
LINE
  8
0
  6
CONTINUOUS
 62
3
 10
-261.106919691084610
 20
-159.015076672330760
 11
-260.620116299378990
 21
-159.501880064036380
  0
ARC
  8
0
  6
CONTINUOUS
 62
3
 10
-365.546591272337590
 20
-160.075736844110590
 40
6.099999427795398
 50
174.601910595264880
 51
275.398072101891500
  0
POINT
  8
0
  6
CONTINUOUS
 62
3
 10
-367.809332837264610
 20
-162.338478409037630
  0
LINE
  8
0
  6
CONTINUOUS
 62
3
 10
-371.132734573971450
 20
-159.015076672330760
 11
-364.485931100557760
 21
-165.661880145744500
  0
LINE
  8
0
  6
CONTINUOUS
 62
3
 10
-371.445873182940260
 20
-159.267623623181150
 11
-364.768773880467340
 21
-165.944722925654080
  0
LINE
  8
0
  6
CONTINUOUS
 62
3
 10
-364.485931100557760
 20
-165.661880145744500
 11
-364.972734492263380
 21
-166.148683537450100
  0
LINE
  8
0
  6
CONTINUOUS
 62
3
 10
-371.132734573971450
 20
-159.015076672330760
 11
-371.619537965677070
 21
-159.501880064036380
  0
ARC
  8
0
  6
CONTINUOUS
 62
3
 10
-365.546591272337590
 20
-61.222208564491289
 40
6.099999427795406
 50
84.601927898108471
 51
185.398089404735260
  0
POINT
  8
0
  6
CONTINUOUS
 62
3
 10
-367.809332837264610
 20
-58.959466999564256
  0
LINE
  8
0
  6
CONTINUOUS
 62
3
 10
-371.132734573971450
 20
-62.282868736271112
 11
-364.485931100557760
 21
-55.636065262857400
  0
LINE
  8
0
  6
CONTINUOUS
 62
3
 10
-371.445873182940260
 20
-62.030321785420746
 11
-364.768773880467340
 21
-55.353222482947821
  0
LINE
  8
0
  6
CONTINUOUS
 62
3
 10
-364.485931100557760
 20
-55.636065262857400
 11
-364.972734492263380
 21
-55.149261871151779
  0
LINE
  8
0
  6
CONTINUOUS
 62
3
 10
-371.132734573971450
 20
-62.282868736271112
 11
-371.619537965677070
 21
-61.796065344565491
  0
ARC
  8
0
  6
CONTINUOUS
 62
3
 10
-266.693062992718470
 20
-61.222208564491289
 40
6.099999427795398
 50
354.601910595264830
 51
95.398072101891529
  0
POINT
  8
0
  6
CONTINUOUS
 62
3
 10
-264.430321427791450
 20
-58.959466999564256
  0
LINE
  8
0
  6
CONTINUOUS
 62
3
 10
-261.106919691084610
 20
-62.282868736271112
 11
-267.753723164498300
 21
-55.636065262857400
  0
LINE
  8
0
  6
CONTINUOUS
 62
3
 10
-260.793781082115800
 20
-62.030321785420746
 11
-267.470880384588720
 21
-55.353222482947821
  0
LINE
  8
0
  6
CONTINUOUS
 62
3
 10
-267.753723164498300
 20
-55.636065262857400
 11
-267.266919772792680
 21
-55.149261871151779
  0
LINE
  8
0
  6
CONTINUOUS
 62
3
 10
-261.106919691084610
 20
-62.282868736271112
 11
-260.620116299378990
 21
-61.796065344565491
  0
INSERT
  8
0
  2
SYM1
 10
56.944296593443596
 20
62.351027295699168
 50
0.000000000000014
  0
INSERT
  8
0
  2
SYM1
 10
56.944296593443596
 20
156.351027295699170
 41
-1.000000000000000
 50
180.000000000000000
  0
TEXT
  8
0
  6
CONTINUOUS
 62
3
 10
-373.043792724609380
 20
160.326782226562500
 40
16.000000000000000
  1
Ｄ０３０
 50
0.000002504478167
 41
0.833333333333333
  7
STANDARD1
  0
TEXT
  8
0
  6
CONTINUOUS
 62
3
 10
-373.043792724609380
 20
139.126785278320310
 40
16.000000000000000
  1
三菱ギヤードモートル
 50
0.000002504478167
 41
0.833333333333333
  7
STANDARD1
  0
TEXT
  8
0
  6
CONTINUOUS
 62
3
 10
-373.043792724609380
 20
117.926788330078120
 40
16.000000000000000
  1
ＧＭーＤＢ
 50
0.000002504478167
 41
0.833333333333333
  7
STANDARD1
  0
TEXT
  8
0
  6
CONTINUOUS
 62
3
 10
-373.043792724609380
 20
96.726791381835938
 40
16.000000000000000
  1
０．４（kＷ）
 50
0.000002504478167
 41
0.804878051688032
  7
STANDARD1
  0
TEXT
  8
0
  6
CONTINUOUS
 62
3
 10
-373.043792724609380
 20
75.526786804199219
 40
16.000000000000000
  1
１／３～１／５０
 50
0.000002504478167
 41
0.833333333333333
  7
STANDARD1
  0
TEXT
  8
0
  6
CONTINUOUS
 62
3
 10
-373.043792724609380
 20
54.326789855957031
 40
16.000000000000000
  1
ＳＣＡＬＥ　１／１
 50
0.000002504478167
 41
0.833333333333333
  7
STANDARD1
  0
LINE
  8
0
  6
CONTINUOUS
 62
3
 10
31.194296593443568
 20
49.851027295699168
 11
31.194296593443568
 21
109.351027295699160
  0
LINE
  8
0
  6
CONTINUOUS
 62
3
 10
31.194296593443568
 20
168.851027295698940
 11
31.194296593443568
 21
109.351027295699160
  0
ARC
  8
0
  6
CONTINUOUS
 62
3
 10
39.327505122734237
 20
52.784347165337749
 40
2.999999999999768
 50
271.691038599313400
 51
282.294121480709120
  0
ARC
  8
0
  6
CONTINUOUS
 62
3
 10
39.327505122734237
 20
165.917707426060590
 40
2.999999999999290
 50
77.705878519290863
 51
88.308961400669205
  0
ARC
  8
0
  6
CONTINUOUS
 62
3
 10
131.694296593443600
 20
26.316421821930817
 40
2.000000000000043
 50
271.000000000027800
 51
0.000000000000000
  0
ARC
  8
0
  6
CONTINUOUS
 62
3
 10
26.694296593443596
 20
26.292853171189563
 40
2.000000000000000
 50
180.000000000000000
 51
268.308961400695520
  0
ARC
  8
0
  6
CONTINUOUS
 62
3
 10
26.694296593443596
 20
47.409201420208774
 40
1.999999999999230
 50
91.691038599305259
 51
180.000000000000000
  0
ARC
  8
0
  6
CONTINUOUS
 62
3
 10
26.694296593443596
 20
171.292853171189560
 40
2.000000000000000
 50
180.000000000000000
 51
268.308961400694730
  0
ARC
  8
0
  6
CONTINUOUS
 62
3
 10
26.694296593443596
 20
192.409201420208770
 40
2.000000000000139
 50
91.691038599304477
 51
180.000000000000000
  0
ARC
  8
0
  6
CONTINUOUS
 62
3
 10
131.694296593443600
 20
192.385632769467520
 40
2.000000000000000
 50
0.000000000000000
 51
88.999999999972189
  0
LINE
  8
0
  6
CONTINUOUS
 62
3
 10
63.194296593443596
 20
29.342909075410716
 11
63.194296593443596
 21
109.851027295699160
  0
LINE
  8
0
  6
CONTINUOUS
 62
3
 10
63.194296593443596
 20
189.359145515987620
 11
63.194296593443596
 21
108.851027295699160
  0
LINE
  8
0
  6
CONTINUOUS
 62
3
 10
133.694296593443600
 20
192.385632769467520
 11
133.694296593443600
 21
109.351027295699160
  0
LINE
  8
0
  6
CONTINUOUS
 62
3
 10
131.729201406319130
 20
194.385328159780330
 11
65.194296593443596
 21
195.546699243282090
  0
LINE
  8
0
  6
CONTINUOUS
 62
3
 10
131.729201406319130
 20
24.316726431618008
 11
65.194296593443596
 21
23.155355348116245
  0
LINE
  8
0
  6
CONTINUOUS
 62
3
 10
133.694296593443600
 20
26.316421821930817
 11
133.694296593443600
 21
109.351027295699160
  0
LINE
  8
0
  6
CONTINUOUS
 62
3
 10
26.635276780212280
 20
24.293724195448704
 11
65.194296593443596
 21
23.155355348116245
  0
LINE
  8
0
  6
CONTINUOUS
 62
3
 10
24.694296593443596
 20
26.292853171189563
 11
24.694296593443596
 21
47.409201420208774
  0
LINE
  8
0
  6
CONTINUOUS
 62
3
 10
26.635276780212280
 20
49.408330395948724
 11
39.416034842581666
 21
49.785653701726915
  0
LINE
  8
0
  6
CONTINUOUS
 62
3
 10
26.635276780212280
 20
169.293724195449610
 11
39.416034842582576
 21
168.916400889671420
  0
LINE
  8
0
  6
CONTINUOUS
 62
3
 10
26.635276780212280
 20
194.408330395949630
 11
65.194296593443596
 21
195.546699243282090
  0
LINE
  8
0
  6
CONTINUOUS
 62
3
 10
24.694296593443596
 20
192.409201420208770
 11
24.694296593443596
 21
171.292853171189560
  0
LINE
  8
0
  6
CONTINUOUS
 62
3
 10
131.694296593443600
 20
167.411339702201080
 11
131.694296593443600
 21
109.351027295699160
  0
ARC
  8
0
  6
CONTINUOUS
 62
3
 10
84.060132777083254
 20
123.977216103566200
 40
64.999999999999829
 50
43.585047535284680
 51
45.930861093226845
  0
ARC
  8
0
  6
CONTINUOUS
 62
3
 10
127.878264033237880
 20
169.242781086435570
 40
2.000000000000038
 50
45.930861093237034
 51
88.999999999998693
  0
LINE
  8
0
  6
CONTINUOUS
 62
3
 10
121.240603136312070
 20
171.358946544451100
 11
127.913168846112510
 21
171.242476476749290
  0
CIRCLE
  8
0
  6
CONTINUOUS
 62
3
 10
121.694296593443590
 20
184.351027295699170
 40
5.000000000000000
  0
CIRCLE
  8
0
  6
CONTINUOUS
 62
3
 10
36.694296593443596
 20
184.351027295699170
 40
5.000000000000000
  0
LINE
  8
0
  6
DASHDOT
 62
4
 10
131.965942415907650
 20
184.351027295699170
 11
112.202690890857860
 21
184.351027295699170
  0
LINE
  8
0
  6
DASHDOT
 62
4
 10
121.694296593443590
 20
194.351027295699170
 11
121.694296593443590
 21
173.759715803213110
  0
LINE
  8
0
  6
DASHDOT
 62
4
 10
46.965942415907648
 20
184.351027295699170
 11
27.202690890857866
 21
184.351027295699170
  0
LINE
  8
0
  6
DASHDOT
 62
4
 10
36.694296593443596
 20
194.351027295699170
 11
36.694296593443596
 21
173.759715803213110
  0
ARC
  8
0
  6
CONTINUOUS
 62
3
 10
129.694296593443600
 20
167.411339702201080
 40
2.000000000000000
 50
0.000000000000000
 51
43.585047535268956
  0
ARC
  8
0
  6
CONTINUOUS
 62
3
 10
83.955418338459367
 20
123.978129932627780
 40
65.000000000000128
 50
68.753041256959463
 51
88.907895481707214
  0
ARC
  8
0
  6
CONTINUOUS
 62
3
 10
121.694296593443590
 20
184.351027295699170
 40
12.999999999999165
 50
186.335260080964190
 51
270.000000000000000
  0
ARC
  8
0
  6
CONTINUOUS
 62
3
 10
106.785898049664410
 20
182.695837620822200
 40
2.000000000000057
 50
6.335260080975698
 51
68.753041256968885
  0
LINE
  8
0
  6
CONTINUOUS
 62
3
 10
131.694296593443600
 20
51.290714889197261
 11
131.694296593443600
 21
109.351027295699160
  0
ARC
  8
0
  6
CONTINUOUS
 62
3
 10
84.060132777083254
 20
94.724838487832130
 40
64.999999999999758
 50
314.069138906773160
 51
316.414952464715330
  0
ARC
  8
0
  6
CONTINUOUS
 62
3
 10
127.878264033237880
 20
49.459273504962766
 40
2.000000000000937
 50
271.000000000001310
 51
314.069138906762990
  0
LINE
  8
0
  6
CONTINUOUS
 62
3
 10
121.240603136312070
 20
47.343108046947236
 11
127.913168846112510
 21
47.459578114649048
  0
CIRCLE
  8
0
  6
CONTINUOUS
 62
3
 10
121.694296593443590
 20
34.351027295699168
 40
5.000000000000000
  0
CIRCLE
  8
0
  6
CONTINUOUS
 62
3
 10
36.694296593443596
 20
34.351027295699168
 40
5.000000000000000
  0
LINE
  8
0
  6
DASHDOT
 62
4
 10
131.965942415907650
 20
34.351027295699168
 11
112.202690890857860
 21
34.351027295699168
  0
LINE
  8
0
  6
DASHDOT
 62
4
 10
121.694296593443590
 20
24.351027295699168
 11
121.694296593443590
 21
44.942338788185225
  0
LINE
  8
0
  6
DASHDOT
 62
4
 10
46.965942415907648
 20
34.351027295699168
 11
27.202690890857866
 21
34.351027295699168
  0
LINE
  8
0
  6
DASHDOT
 62
4
 10
36.694296593443596
 20
24.351027295699168
 11
36.694296593443596
 21
44.942338788185225
  0
ARC
  8
0
  6
CONTINUOUS
 62
3
 10
129.694296593443600
 20
51.290714889197261
 40
2.000000000000612
 50
316.414952464731070
 51
0.000000000000000
  0
LINE
  8
0
  6
CONTINUOUS
 62
4
 10
63.124476333731309
 20
29.351636607874752
 11
66.990044487036812
 21
29.351636607874752
  0
ARC
  8
0
  6
CONTINUOUS
 62
3
 10
83.955418338459367
 20
94.723924658770557
 40
64.999999999999844
 50
271.092104518292790
 51
291.246958743040580
  0
ARC
  8
0
  6
CONTINUOUS
 62
3
 10
121.694296593443590
 20
34.351027295699168
 40
13.000000000000000
 50
90.000000000000000
 51
173.664739919035810
  0
ARC
  8
0
  6
CONTINUOUS
 62
3
 10
106.785898049664410
 20
36.006216970576133
 40
2.000000000000191
 50
291.246958743031090
 51
353.664739919024330
  0
ARC
  8
0
  6
CONTINUOUS
 62
3
 10
132.694296593443600
 20
130.351027295699170
 40
1.000000000000000
 50
0.000000000000000
 51
90.000000000000000
  0
ARC
  8
0
  6
CONTINUOUS
 62
3
 10
132.694296593443600
 20
132.351027295699170
 40
1.000000000000000
 50
180.000000000000000
 51
270.000000000000000
  0
ARC
  8
0
  6
CONTINUOUS
 62
3
 10
132.694296593443600
 20
88.351027295699168
 40
1.000000000000000
 50
270.000000000000000
 51
0.000000000000000
  0
ARC
  8
0
  6
CONTINUOUS
 62
3
 10
132.694296593443600
 20
86.351027295699168
 40
1.000000000000000
 50
90.000000000000000
 51
180.000000000000000
  0
LINE
  8
0
  6
CONTINUOUS
 62
3
 10
63.194296593443596
 20
189.350417983523580
 11
85.194296593443596
 21
188.966406555102370
  0
LINE
  8
0
  6
CONTINUOUS
 62
3
 10
63.194296593443596
 20
29.351636607874752
 11
85.194296593443596
 21
29.735648036295970
  0
LINE
  8
0
  6
CONTINUOUS
 62
3
 10
39.966295544984405
 20
168.848909704382090
 11
42.770416135032519
 21
168.237813913074210
  0
LINE
  8
0
  6
CONTINUOUS
 62
3
 10
39.966295544984405
 20
49.853144887016242
 11
42.770416135025016
 21
50.464240678325041
  0
LINE
  8
0
  6
CONTINUOUS
 62
3
 10
171.294296593443960
 20
98.351027295699168
 11
138.254104214579000
 21
98.351027295699168
  0
LINE
  8
0
  6
CONTINUOUS
 62
3
 10
171.294296593443960
 20
98.351027295699168
 11
138.254104214579000
 21
98.351027295699168
  0
ARC
  8
0
  6
CONTINUOUS
 62
3
 10
171.294296593443960
 20
98.751027295698805
 40
0.399999999999636
 50
270.000000000000000
 51
0.000000000000000
  0
LINE
  8
0
  6
CONTINUOUS
 62
3
 10
171.694296593443600
 20
109.351027295699160
 11
171.694296593443600
 21
95.851027295699168
  0
LINE
  8
0
  6
CONTINUOUS
 62
3
 10
133.694296593443600
 20
121.351027295699160
 11
135.294296593443960
 21
121.351027295699160
  0
LINE
  8
0
  6
CONTINUOUS
 62
3
 10
135.694296593443600
 20
120.951027295699530
 11
135.294296593443960
 21
121.351027295699160
  0
LINE
  8
0
  6
CONTINUOUS
 62
3
 10
138.254104214579000
 20
120.351027295699160
 11
137.694296593443600
 21
120.201027295699530
  0
LINE
  8
0
  6
CONTINUOUS
 62
3
 10
137.694296593443600
 20
120.201027295699530
 11
136.494296593444690
 21
120.201027295699530
  0
ARC
  8
0
  6
CONTINUOUS
 62
3
 10
136.494296593444690
 20
121.001027295698800
 40
0.800000000000237
 50
183.703196634280290
 51
270.000000000000000
  0
LINE
  8
0
  6
CONTINUOUS
 62
3
 10
135.694296593443600
 20
120.951027295699530
 11
135.294296593443960
 21
121.351027295699160
  0
LINE
  8
0
  6
CONTINUOUS
 62
3
 10
138.254104214579000
 20
120.351027295699160
 11
137.694296593443600
 21
120.201027295699530
  0
LINE
  8
0
  6
CONTINUOUS
 62
3
 10
137.694296593443600
 20
120.201027295699530
 11
136.494296593444690
 21
120.201027295699530
  0
LINE
  8
0
  6
CONTINUOUS
 62
3
 10
135.694296593443600
 20
109.351027295699160
 11
135.694296593443600
 21
120.951027295699530
  0
LINE
  8
0
  6
CONTINUOUS
 62
3
 10
133.694296593443600
 20
121.351027295699160
 11
135.294296593443960
 21
121.351027295699160
  0
LINE
  8
0
  6
CONTINUOUS
 62
3
 10
135.694296593443600
 20
109.351027295699160
 11
135.694296593443600
 21
97.751027295698805
  0
LINE
  8
0
  6
CONTINUOUS
 62
3
 10
133.694296593443600
 20
97.351027295699168
 11
135.294296593443960
 21
97.351027295699168
  0
LINE
  8
0
  6
CONTINUOUS
 62
3
 10
171.294296593443960
 20
120.351027295699160
 11
138.254104214579000
 21
120.351027295699160
  0
LINE
  8
0
  6
CONTINUOUS
 62
3
 10
135.694296593443600
 20
97.751027295698805
 11
135.294296593443960
 21
97.351027295699168
  0
LINE
  8
0
  6
CONTINUOUS
 62
3
 10
138.254104214579000
 20
98.351027295699168
 11
137.694296593443600
 21
98.501027295698805
  0
LINE
  8
0
  6
CONTINUOUS
 62
3
 10
137.694296593443600
 20
98.501027295698805
 11
136.494296593444690
 21
98.501027295698805
  0
ARC
  8
0
  6
CONTINUOUS
 62
3
 10
136.494296593444690
 20
97.701027295699532
 40
0.799999999999272
 50
90.000000000000000
 51
176.296803365719710
  0
LINE
  8
0
  6
CONTINUOUS
 62
3
 10
171.294296593443960
 20
120.351027295699160
 11
138.254104214579000
 21
120.351027295699160
  0
LINE
  8
0
  6
CONTINUOUS
 62
3
 10
135.694296593443600
 20
97.751027295698805
 11
135.294296593443960
 21
97.351027295699168
  0
LINE
  8
0
  6
CONTINUOUS
 62
3
 10
138.254104214579000
 20
98.351027295699168
 11
137.694296593443600
 21
98.501027295698805
  0
LINE
  8
0
  6
CONTINUOUS
 62
3
 10
137.694296593443600
 20
98.501027295698805
 11
136.494296593444690
 21
98.501027295698805
  0
LINE
  8
0
  6
CONTINUOUS
 62
3
 10
133.694296593443600
 20
97.351027295699168
 11
135.294296593443960
 21
97.351027295699168
  0
LINE
  8
0
  6
CONTINUOUS
 62
3
 10
171.694296593443600
 20
95.851027295699168
 11
139.694296593443600
 21
95.851027295699168
  0
LINE
  8
0
  6
CONTINUOUS
 62
3
 10
139.694296593443600
 20
98.351027295699168
 11
139.694296593443600
 21
95.851027295699168
  0
ARC
  8
0
  6
CONTINUOUS
 62
3
 10
171.294296593443960
 20
119.951027295699530
 40
0.399999999999636
 50
0.000000000000000
 51
90.000000000000000
  0
LINE
  8
0
  6
CONTINUOUS
 62
3
 10
171.694296593443600
 20
109.351027295699160
 11
171.694296593443600
 21
119.951027295699530
  0
LINE
  8
0
  6
CONTINUOUS
 62
3
 10
52.694296593443596
 20
42.351027295699168
 11
50.944296593443596
 21
42.351027295699168
  0
LINE
  8
0
  6
CONTINUOUS
 62
3
 10
52.694296593443596
 20
32.351027295699168
 11
50.944296593443596
 21
32.351027295699168
  0
LINE
  8
0
  6
CONTINUOUS
 62
3
 10
50.944296593443596
 20
32.351027295699168
 11
50.944296593443596
 21
42.351027295699168
  0
LINE
  8
0
  6
CONTINUOUS
 62
3
 10
53.694296593443596
 20
67.351027295699168
 11
53.694296593443596
 21
109.351027295699160
  0
LINE
  8
0
  6
CONTINUOUS
 62
3
 10
53.694296593443596
 20
29.851027295699168
 11
53.694296593443596
 21
57.351027295699168
  0
ARC
  8
0
  6
CONTINUOUS
 62
3
 10
54.694296593443596
 20
69.601027295699168
 40
1.000000000000000
 50
180.000000000000000
 51
270.000000000000000
  0
ARC
  8
0
  6
CONTINUOUS
 62
3
 10
56.544296593443960
 20
68.201027295699532
 40
0.399999999999636
 50
0.000000000000000
 51
90.000000000000000
  0
LINE
  8
0
  6
CONTINUOUS
 62
3
 10
56.944296593443596
 20
68.201027295699532
 11
56.944296593443596
 21
56.501027295700624
  0
LINE
  8
0
  6
CONTINUOUS
 62
3
 10
54.694296593443596
 20
68.601027295699168
 11
56.544296593443960
 21
68.601027295699168
  0
ARC
  8
0
  6
CONTINUOUS
 62
3
 10
54.694296593443596
 20
55.101027295699168
 40
1.000000000000000
 50
90.000000000000000
 51
180.000000000000000
  0
LINE
  8
0
  6
CONTINUOUS
 62
3
 10
54.694296593443596
 20
56.101027295699168
 11
56.544296593443960
 21
56.101027295699168
  0
ARC
  8
0
  6
CONTINUOUS
 62
3
 10
56.544296593443960
 20
56.501027295700624
 40
0.400000000001455
 50
270.000000000000000
 51
0.000000000000000
  0
ARC
  8
0
  6
CONTINUOUS
 62
3
 10
51.694296593443596
 20
49.152002361565792
 40
1.000000000000000
 50
0.000000000000000
 51
87.999999999996049
  0
LINE
  8
0
  6
CONTINUOUS
 62
3
 10
52.694296593443596
 20
30.851027295700078
 11
52.694296593443596
 21
49.152002361565792
  0
ARC
  8
0
  6
CONTINUOUS
 62
3
 10
53.194296593443596
 20
30.851027295700078
 40
0.500000000000000
 50
180.000000000000000
 51
270.000000000000000
  0
ARC
  8
0
  6
CONTINUOUS
 62
3
 10
53.194296593443596
 20
29.851027295700078
 40
0.500000000000000
 50
0.000000000000000
 51
90.000000000000000
  0
LINE
  8
0
  6
CONTINUOUS
 62
3
 10
62.694296593443596
 20
29.351027295699168
 11
62.694296593443596
 21
109.351027295699160
  0
LINE
  8
0
  6
CONTINUOUS
 62
3
 10
63.194296593443596
 20
29.351027295699168
 11
54.194296593443596
 21
29.351027295699168
  0
LINE
  8
0
  6
CONTINUOUS
 62
3
 10
31.194296593443596
 20
50.868487680445469
 11
31.194296593443596
 21
109.351027295699160
  0
LINE
  8
0
  6
CONTINUOUS
 62
3
 10
52.729196090146161
 20
50.116472419093043
 11
31.194296593443596
 21
50.868487680445469
  0
ARC
  8
0
  6
CONTINUOUS
 62
3
 10
54.194296593443596
 20
29.851027295699168
 40
0.500000000000000
 50
180.000000000000000
 51
270.000000000000000
  0
ARC
  8
0
  6
CONTINUOUS
 62
3
 10
52.694296593443596
 20
49.117081592073191
 40
1.000000000000000
 50
0.000000000000000
 51
87.999999999997854
  0
LINE
  8
0
  6
CONTINUOUS
 62
3
 10
53.694296593443596
 20
151.351027295699170
 11
53.694296593443596
 21
109.351027295699160
  0
LINE
  8
0
  6
CONTINUOUS
 62
3
 10
62.694296593443596
 20
189.351027295699170
 11
62.694296593443596
 21
109.351027295699160
  0
LINE
  8
0
  6
CONTINUOUS
 62
3
 10
31.194296593443596
 20
167.833566910952870
 11
31.194296593443596
 21
109.351027295699160
  0
LINE
  8
0
  6
CONTINUOUS
 62
3
 10
52.694296593443596
 20
176.351027295699170
 11
50.944296593443596
 21
176.351027295699170
  0
LINE
  8
0
  6
CONTINUOUS
 62
3
 10
52.694296593443596
 20
186.351027295699170
 11
50.944296593443596
 21
186.351027295699170
  0
LINE
  8
0
  6
CONTINUOUS
 62
3
 10
50.944296593443596
 20
186.351027295699170
 11
50.944296593443596
 21
176.351027295699170
  0
LINE
  8
0
  6
CONTINUOUS
 62
3
 10
53.694296593443596
 20
188.851027295699170
 11
53.694296593443596
 21
161.351027295699170
  0
ARC
  8
0
  6
CONTINUOUS
 62
3
 10
54.694296593443596
 20
149.101027295699170
 40
1.000000000000000
 50
90.000000000000000
 51
180.000000000000000
  0
ARC
  8
0
  6
CONTINUOUS
 62
3
 10
56.544296593443960
 20
150.501027295698800
 40
0.399999999999636
 50
270.000000000000000
 51
0.000000000000000
  0
LINE
  8
0
  6
CONTINUOUS
 62
3
 10
56.944296593443596
 20
150.501027295698800
 11
56.944296593443596
 21
162.201027295698620
  0
LINE
  8
0
  6
CONTINUOUS
 62
3
 10
54.694296593443596
 20
150.101027295699170
 11
56.544296593443960
 21
150.101027295699170
  0
ARC
  8
0
  6
CONTINUOUS
 62
3
 10
54.694296593443596
 20
163.601027295699170
 40
1.000000000000000
 50
180.000000000000000
 51
270.000000000000000
  0
LINE
  8
0
  6
CONTINUOUS
 62
3
 10
54.694296593443596
 20
162.601027295699170
 11
56.544296593443960
 21
162.601027295699170
  0
ARC
  8
0
  6
CONTINUOUS
 62
3
 10
56.544296593443960
 20
162.201027295698620
 40
0.399999999999636
 50
0.000000000000000
 51
90.000000000000000
  0
ARC
  8
0
  6
CONTINUOUS
 62
3
 10
51.694296593443596
 20
169.550052229832540
 40
0.999999999999849
 50
272.000000000003920
 51
0.000000000000000
  0
LINE
  8
0
  6
CONTINUOUS
 62
3
 10
52.694296593443596
 20
187.851027295699170
 11
52.694296593443596
 21
169.550052229832540
  0
ARC
  8
0
  6
CONTINUOUS
 62
3
 10
53.194296593443596
 20
187.851027295699170
 40
0.500000000000000
 50
90.000000000000000
 51
180.000000000000000
  0
ARC
  8
0
  6
CONTINUOUS
 62
3
 10
53.194296593443596
 20
188.851027295699170
 40
0.500000000000000
 50
270.000000000000000
 51
0.000000000000000
  0
LINE
  8
0
  6
CONTINUOUS
 62
3
 10
63.194296593443596
 20
189.351027295699170
 11
54.194296593443596
 21
189.351027295699170
  0
LINE
  8
0
  6
CONTINUOUS
 62
3
 10
52.729196090146161
 20
168.585582172305290
 11
31.194296593443596
 21
167.833566910952870
  0
ARC
  8
0
  6
CONTINUOUS
 62
3
 10
54.194296593443596
 20
188.851027295699170
 40
0.500000000000000
 50
90.000000000000000
 51
180.000000000000000
  0
ARC
  8
0
  6
CONTINUOUS
 62
3
 10
52.694296593443596
 20
169.584972999325150
 40
1.000000000000758
 50
272.000000000002100
 51
0.000000000000000
  0
LINE
  8
0
  6
CONTINUOUS
 62
3
 10
1.194296593443596
 20
168.851027295699170
 11
31.194296593443482
 21
168.851027295699170
  0
LINE
  8
0
  6
CONTINUOUS
 62
4
 10
-65.805703406556404
 20
166.351027295699170
 11
53.694296593443596
 21
166.351027295699170
  0
LINE
  8
0
  6
CONTINUOUS
 62
4
 10
-65.805703406556404
 20
165.351027295699170
 11
53.694296593443596
 21
165.351027295699170
  0
LINE
  8
0
  6
CONTINUOUS
 62
4
 10
-65.805703406556404
 20
164.351027295699170
 11
53.694296593443596
 21
164.351027295699170
  0
LINE
  8
0
  6
CONTINUOUS
 62
4
 10
-65.805703406556404
 20
159.666561482474890
 11
50.944296593443596
 21
159.666561482474890
  0
LINE
  8
0
  6
CONTINUOUS
 62
4
 10
-65.805703406556404
 20
154.716814014169130
 11
50.944296593443596
 21
154.716814014169130
  0
LINE
  8
0
  6
CONTINUOUS
 62
4
 10
-65.805703406556404
 20
124.351027295699160
 11
53.694296593443596
 21
124.351027295699160
  0
LINE
  8
0
  6
CONTINUOUS
 62
4
 10
-65.805703406556404
 20
128.724289105200340
 11
53.694296593443596
 21
128.724289105200340
  0
LINE
  8
0
  6
CONTINUOUS
 62
4
 10
-65.805703406556404
 20
129.990527021287560
 11
53.694296593443596
 21
129.990527021287560
  0
LINE
  8
0
  6
CONTINUOUS
 62
4
 10
-65.805703406556404
 20
134.181080752829760
 11
53.694296593443596
 21
134.181080752829760
  0
LINE
  8
0
  6
CONTINUOUS
 62
4
 10
-65.805703406556404
 20
135.542961088179030
 11
53.694296593443596
 21
135.542961088179030
  0
LINE
  8
0
  6
CONTINUOUS
 62
4
 10
-65.805703406556404
 20
139.633461622268900
 11
53.694296593443596
 21
139.633461622268900
  0
LINE
  8
0
  6
CONTINUOUS
 62
4
 10
-65.805703406556404
 20
141.101819012073520
 11
53.694296593443596
 21
141.101819012073520
  0
LINE
  8
0
  6
CONTINUOUS
 62
4
 10
-65.805703406556404
 20
145.065564435873060
 11
53.694296593443596
 21
145.065564435873060
  0
LINE
  8
0
  6
CONTINUOUS
 62
4
 10
-65.805703406556404
 20
146.670212351435110
 11
53.694296593443596
 21
146.670212351435110
  0
LINE
  8
0
  6
CONTINUOUS
 62
4
 10
-65.805703406556404
 20
94.351027295699168
 11
53.694296593443596
 21
94.351027295699168
  0
LINE
  8
0
  6
CONTINUOUS
 62
4
 10
-65.805703406556404
 20
89.977765486197995
 11
53.694296593443596
 21
89.977765486197995
  0
LINE
  8
0
  6
CONTINUOUS
 62
4
 10
-65.805703406556404
 20
88.711527570110775
 11
53.694296593443596
 21
88.711527570110761
  0
LINE
  8
0
  6
CONTINUOUS
 62
4
 10
-65.805703406556404
 20
84.520973838568580
 11
53.694296593443596
 21
84.520973838568580
  0
LINE
  8
0
  6
CONTINUOUS
 62
4
 10
-65.805703406556404
 20
83.159093503219310
 11
53.694296593443596
 21
83.159093503219310
  0
LINE
  8
0
  6
CONTINUOUS
 62
4
 10
-65.805703406556404
 20
79.068592969129440
 11
53.694296593443596
 21
79.068592969129440
  0
LINE
  8
0
  6
CONTINUOUS
 62
4
 10
-65.805703406556404
 20
77.600235579324817
 11
53.694296593443596
 21
77.600235579324817
  0
LINE
  8
0
  6
CONTINUOUS
 62
4
 10
-65.805703406556404
 20
73.636490155525280
 11
53.694296593443596
 21
73.636490155525280
  0
LINE
  8
0
  6
CONTINUOUS
 62
4
 10
-65.805703406556404
 20
72.031842239963225
 11
53.694296593443596
 21
72.031842239963225
  0
LINE
  8
0
  6
CONTINUOUS
 62
4
 10
-65.805703406556404
 20
63.985240577229206
 11
50.944296593443596
 21
63.985240577229206
  0
LINE
  8
0
  6
CONTINUOUS
 62
4
 10
-65.805703406556404
 20
59.035493108923447
 11
50.944296593443596
 21
59.035493108923447
  0
LINE
  8
0
  6
CONTINUOUS
 62
4
 10
-65.805703406556404
 20
54.351027295699168
 11
53.694296593443596
 21
54.351027295699168
  0
LINE
  8
0
  6
CONTINUOUS
 62
4
 10
-65.805703406556404
 20
53.351027295699168
 11
53.694296593443596
 21
53.351027295699168
  0
LINE
  8
0
  6
CONTINUOUS
 62
4
 10
-65.805703406556404
 20
52.351027295699168
 11
53.694296593443596
 21
52.351027295699161
  0
LINE
  8
0
  6
CONTINUOUS
 62
3
 10
-65.937911885764606
 20
49.851027295699168
 11
31.194296593443482
 21
49.851027295699168
  0
LINE
  8
0
  6
CONTINUOUS
 62
3
 10
-65.805703406556404
 20
168.851027295698940
 11
31.194296593443482
 21
168.851027295698940
  0
ARC
  8
0
  6
CONTINUOUS
 62
3
 10
-72.805703406556290
 20
44.731806378826377
 40
3.000000000000000
 50
90.000000000000000
 51
180.000000000000000
  0
ARC
  8
0
  6
CONTINUOUS
 62
3
 10
-68.805703406556404
 20
50.731806378826377
 40
3.000000000000000
 50
270.000000000000000
 51
0.000000000000000
  0
LINE
  8
0
  6
CONTINUOUS
 62
3
 10
-75.805703406556290
 20
44.351027295699168
 11
-75.805703406556290
 21
44.731806378826377
  0
LINE
  8
0
  6
CONTINUOUS
 62
3
 10
-72.805703406556290
 20
47.731806378826377
 11
-68.805703406556404
 21
47.731806378826377
  0
ARC
  8
0
  6
CONTINUOUS
 62
3
 10
-146.499727628976760
 20
64.351027295699168
 40
20.000000000000007
 50
234.999999999999740
 51
270.000000000000000
  0
LINE
  8
0
  6
CONTINUOUS
 62
3
 10
-75.805703406556290
 20
44.351027295699168
 11
-146.499727628976760
 21
44.351027295699168
  0
ARC
  8
0
  6
CONTINUOUS
 62
3
 10
-166.205703406506130
 20
56.907822238453718
 40
2.600000000000136
 50
180.000000000000000
 51
234.999999999998610
  0
LINE
  8
0
  6
CONTINUOUS
 62
3
 10
-157.971256355997750
 20
47.967986409919376
 11
-167.697002141018740
 21
54.778026923302605
  0
LINE
  8
0
  6
CONTINUOUS
 62
3
 10
-168.805703406506270
 20
109.351027295699160
 11
-168.805703406506270
 21
56.907822238453718
  0
LINE
  8
0
  6
CONTINUOUS
 62
3
 10
31.194296593443482
 20
49.851027295699168
 11
31.194296593443482
 21
109.351027295699160
  0
LINE
  8
0
  6
CONTINUOUS
 62
3
 10
-65.805703406556404
 20
109.351027295699160
 11
-65.805703406556404
 21
50.731806378826377
  0
ARC
  8
0
  6
CONTINUOUS
 62
3
 10
-166.205703406506130
 20
161.794232352944620
 40
2.599999999999721
 50
125.000000000001370
 51
180.000000000000000
  0
LINE
  8
0
  6
CONTINUOUS
 62
3
 10
-157.971256355997750
 20
170.734068181478960
 11
-167.697002141018740
 21
163.924027668095730
  0
ARC
  8
0
  6
CONTINUOUS
 62
3
 10
-146.499727628976760
 20
154.351027295699170
 40
20.000000000000000
 50
90.000000000000000
 51
125.000000000000240
  0
LINE
  8
0
  6
CONTINUOUS
 62
3
 10
-168.805703406506270
 20
109.351027295699160
 11
-168.805703406506270
 21
161.794232352944620
  0
LINE
  8
0
  6
CONTINUOUS
 62
3
 10
-65.805703406556404
 20
174.351027295699170
 11
-146.499727628976760
 21
174.351027295699170
  0
LINE
  8
0
  6
CONTINUOUS
 62
3
 10
31.194296593443482
 20
168.851027295698940
 11
31.194296593443482
 21
109.351027295699160
  0
LINE
  8
0
  6
CONTINUOUS
 62
3
 10
-65.805703406556404
 20
109.351027295699160
 11
-65.805703406556404
 21
174.351027295699170
  0
LINE
  8
0
  6
CONTINUOUS
 62
3
 10
-76.805703406555835
 20
163.091142396136770
 11
-78.805703406555835
 21
161.438500757013340
  0
LINE
  8
0
  6
CONTINUOUS
 62
3
 10
-74.805703406555835
 20
164.266927881759560
 11
-76.805703406555835
 21
163.091142396136770
  0
LINE
  8
0
  6
CONTINUOUS
 62
3
 10
-76.805703406555835
 20
163.091142396136770
 11
-74.805703406555835
 21
161.438500757013340
  0
LINE
  8
0
  6
CONTINUOUS
 62
3
 10
-78.805703406555835
 20
164.266927881759560
 11
-76.805703406555835
 21
163.091142396136770
  0
POLYLINE
  8
0
  6
CONTINUOUS
 62
3
 66
1
 70
1
  0
VERTEX
  8
0
  6
CONTINUOUS
 62
3
 10
-72.105703406555847
 20
161.274552327759240
  0
VERTEX
  8
0
  6
CONTINUOUS
 62
3
 10
-72.196012588660665
 20
161.977509293959600
  0
VERTEX
  8
0
  6
CONTINUOUS
 62
3
 10
-72.463469603752799
 20
162.653452018171690
  0
VERTEX
  8
0
  6
CONTINUOUS
 62
3
 10
-72.897796228733881
 20
163.276404400577090
  0
VERTEX
  8
0
  6
CONTINUOUS
 62
3
 10
-73.482301534979072
 20
163.822426730475680
  0
VERTEX
  8
0
  6
CONTINUOUS
 62
3
 10
-74.194523311363710
 20
164.270535675942310
  0
VERTEX
  8
0
  6
CONTINUOUS
 62
3
 10
-75.007091274439915
 20
164.603510661505060
  0
VERTEX
  8
0
  6
CONTINUOUS
 62
3
 10
-75.888778893080030
 20
164.808555645203310
  0
VERTEX
  8
0
  6
CONTINUOUS
 62
3
 10
-76.805703406555835
 20
164.877790863304090
  0
VERTEX
  8
0
  6
CONTINUOUS
 62
3
 10
-77.722627920031641
 20
164.808555645203310
  0
VERTEX
  8
0
  6
CONTINUOUS
 62
3
 10
-78.604315538671756
 20
164.603510661505060
  0
VERTEX
  8
0
  6
CONTINUOUS
 62
3
 10
-79.416883501747961
 20
164.270535675942310
  0
VERTEX
  8
0
  6
CONTINUOUS
 62
3
 10
-80.129105278132599
 20
163.822426730475680
  0
VERTEX
  8
0
  6
CONTINUOUS
 62
3
 10
-80.713610584377790
 20
163.276404400577090
  0
VERTEX
  8
0
  6
CONTINUOUS
 62
3
 10
-81.147937209358872
 20
162.653452018171690
  0
VERTEX
  8
0
  6
CONTINUOUS
 62
3
 10
-81.415394224451006
 20
161.977509293959600
  0
VERTEX
  8
0
  6
CONTINUOUS
 62
3
 10
-81.505703406555824
 20
161.274552327759240
  0
VERTEX
  8
0
  6
CONTINUOUS
 62
3
 10
-81.415394224451006
 20
160.571595361558880
  0
VERTEX
  8
0
  6
CONTINUOUS
 62
3
 10
-81.147937209358872
 20
159.895652637346790
  0
VERTEX
  8
0
  6
CONTINUOUS
 62
3
 10
-80.713610584377790
 20
159.272700254941380
  0
VERTEX
  8
0
  6
CONTINUOUS
 62
3
 10
-80.129105278132599
 20
158.726677925042790
  0
VERTEX
  8
0
  6
CONTINUOUS
 62
3
 10
-79.416883501747961
 20
158.278568979576160
  0
VERTEX
  8
0
  6
CONTINUOUS
 62
3
 10
-78.604315538671756
 20
157.945593994013420
  0
VERTEX
  8
0
  6
CONTINUOUS
 62
3
 10
-77.722627920031641
 20
157.740549010315160
  0
VERTEX
  8
0
  6
CONTINUOUS
 62
3
 10
-76.805703406555835
 20
157.671313792214390
  0
VERTEX
  8
0
  6
CONTINUOUS
 62
3
 10
-75.888778893080030
 20
157.740549010315160
  0
VERTEX
  8
0
  6
CONTINUOUS
 62
3
 10
-75.007091274439915
 20
157.945593994013420
  0
VERTEX
  8
0
  6
CONTINUOUS
 62
3
 10
-74.194523311363710
 20
158.278568979576160
  0
VERTEX
  8
0
  6
CONTINUOUS
 62
3
 10
-73.482301534979072
 20
158.726677925042790
  0
VERTEX
  8
0
  6
CONTINUOUS
 62
3
 10
-72.897796228733881
 20
159.272700254941380
  0
VERTEX
  8
0
  6
CONTINUOUS
 62
3
 10
-72.463469603752799
 20
159.895652637346790
  0
VERTEX
  8
0
  6
CONTINUOUS
 62
3
 10
-72.196012588660665
 20
160.571595361558880
  0
SEQEND
  8
0
  6
CONTINUOUS
 62
3
  0
LINE
  8
0
  6
CONTINUOUS
 62
3
 10
-76.805703406555835
 20
55.610912195261335
 11
-78.805703406555835
 21
57.263553834384766
  0
LINE
  8
0
  6
CONTINUOUS
 62
3
 10
-74.805703406555835
 20
54.435126709639007
 11
-76.805703406555835
 21
55.610912195261335
  0
LINE
  8
0
  6
CONTINUOUS
 62
3
 10
-76.805703406555835
 20
55.610912195261335
 11
-74.805703406555835
 21
57.263553834384766
  0
LINE
  8
0
  6
CONTINUOUS
 62
3
 10
-78.805703406555835
 20
54.435126709639007
 11
-76.805703406555835
 21
55.610912195261335
  0
POLYLINE
  8
0
  6
CONTINUOUS
 62
3
 66
1
 70
1
  0
VERTEX
  8
0
  6
CONTINUOUS
 62
3
 10
-72.105703406555847
 20
57.427502263639326
  0
VERTEX
  8
0
  6
CONTINUOUS
 62
3
 10
-72.196012588660665
 20
58.130459229839687
  0
VERTEX
  8
0
  6
CONTINUOUS
 62
3
 10
-72.463469603752799
 20
58.806401954051779
  0
VERTEX
  8
0
  6
CONTINUOUS
 62
3
 10
-72.897796228733881
 20
59.429354336457180
  0
VERTEX
  8
0
  6
CONTINUOUS
 62
3
 10
-73.482301534979072
 20
59.975376666355764
  0
VERTEX
  8
0
  6
CONTINUOUS
 62
3
 10
-74.194523311363710
 20
60.423485611822379
  0
VERTEX
  8
0
  6
CONTINUOUS
 62
3
 10
-75.007091274439915
 20
60.756460597385136
  0
VERTEX
  8
0
  6
CONTINUOUS
 62
3
 10
-75.888778893080030
 20
60.961505581083387
  0
VERTEX
  8
0
  6
CONTINUOUS
 62
3
 10
-76.805703406555835
 20
61.030740799184159
  0
VERTEX
  8
0
  6
CONTINUOUS
 62
3
 10
-77.722627920031641
 20
60.961505581083387
  0
VERTEX
  8
0
  6
CONTINUOUS
 62
3
 10
-78.604315538671756
 20
60.756460597385136
  0
VERTEX
  8
0
  6
CONTINUOUS
 62
3
 10
-79.416883501747961
 20
60.423485611822379
  0
VERTEX
  8
0
  6
CONTINUOUS
 62
3
 10
-80.129105278132599
 20
59.975376666355764
  0
VERTEX
  8
0
  6
CONTINUOUS
 62
3
 10
-80.713610584377790
 20
59.429354336457180
  0
VERTEX
  8
0
  6
CONTINUOUS
 62
3
 10
-81.147937209358872
 20
58.806401954051779
  0
VERTEX
  8
0
  6
CONTINUOUS
 62
3
 10
-81.415394224451006
 20
58.130459229839687
  0
VERTEX
  8
0
  6
CONTINUOUS
 62
3
 10
-81.505703406555824
 20
57.427502263639326
  0
VERTEX
  8
0
  6
CONTINUOUS
 62
3
 10
-81.415394224451006
 20
56.724545297438965
  0
VERTEX
  8
0
  6
CONTINUOUS
 62
3
 10
-81.147937209358872
 20
56.048602573226873
  0
VERTEX
  8
0
  6
CONTINUOUS
 62
3
 10
-80.713610584377790
 20
55.425650190821472
  0
VERTEX
  8
0
  6
CONTINUOUS
 62
3
 10
-80.129105278132599
 20
54.879627860922895
  0
VERTEX
  8
0
  6
CONTINUOUS
 62
3
 10
-79.416883501747961
 20
54.431518915456273
  0
VERTEX
  8
0
  6
CONTINUOUS
 62
3
 10
-78.604315538671756
 20
54.098543929893516
  0
VERTEX
  8
0
  6
CONTINUOUS
 62
3
 10
-77.722627920031641
 20
53.893498946195265
  0
VERTEX
  8
0
  6
CONTINUOUS
 62
3
 10
-76.805703406555835
 20
53.824263728094493
  0
VERTEX
  8
0
  6
CONTINUOUS
 62
3
 10
-75.888778893080030
 20
53.893498946195265
  0
VERTEX
  8
0
  6
CONTINUOUS
 62
3
 10
-75.007091274439915
 20
54.098543929893516
  0
VERTEX
  8
0
  6
CONTINUOUS
 62
3
 10
-74.194523311363710
 20
54.431518915456273
  0
VERTEX
  8
0
  6
CONTINUOUS
 62
3
 10
-73.482301534979072
 20
54.879627860922895
  0
VERTEX
  8
0
  6
CONTINUOUS
 62
3
 10
-72.897796228733881
 20
55.425650190821472
  0
VERTEX
  8
0
  6
CONTINUOUS
 62
3
 10
-72.463469603752799
 20
56.048602573226873
  0
VERTEX
  8
0
  6
CONTINUOUS
 62
3
 10
-72.196012588660665
 20
56.724545297438965
  0
SEQEND
  8
0
  6
CONTINUOUS
 62
3
  0
LINE
  8
0
  6
CONTINUOUS
 62
3
 10
-66.468467851360629
 20
48.851027295699168
 11
-3.055703406556518
 21
48.851027295699168
  0
LINE
  8
0
  6
CONTINUOUS
 62
3
 10
-3.055703406556518
 20
48.851027295699168
 11
-3.055703406556518
 21
49.851027295699168
  0
LINE
  8
0
  6
CONTINUOUS
 62
3
 10
-72.305703406556518
 20
41.851027295699168
 11
-72.305703406556518
 21
47.689846270376165
  0
LINE
  8
0
  6
CONTINUOUS
 62
3
 10
-7.305703406556404
 20
41.851027295699168
 11
-7.305703406556518
 21
48.851027295699168
  0
LINE
  8
0
  6
CONTINUOUS
 62
3
 10
-72.305703406556518
 20
41.851027295699168
 11
-7.305703406556404
 21
41.851027295699168
  0
LINE
  8
0
  6
CONTINUOUS
 62
3
 10
-67.968379171736501
 20
47.851027295699168
 11
-7.305703406556404
 21
47.851027295699168
  0
LINE
  8
0
  6
CONTINUOUS
 62
3
 10
-72.305703406556518
 20
45.851027295699168
 11
-7.305703406556404
 21
45.851027295699168
  0
LINE
  8
0
  6
DASHDOT
 62
4
 10
-39.805703406556518
 20
47.684740631851923
 11
-39.805703406556518
 21
-14.377672884784261
  0
LINE
  8
0
  6
CONTINUOUS
 62
3
 10
-75.255703406555426
 20
-9.322798084084752
 11
-42.862959612452755
 21
-9.322798084084752
  0
LINE
  8
0
  6
CONTINUOUS
 62
3
 10
-75.255703406555426
 20
39.545591235963570
 11
-4.355703406557723
 21
39.545591235963457
  0
LINE
  8
0
  6
CONTINUOUS
 62
3
 10
-75.255703406555426
 20
36.074118496916753
 11
-4.355703406557723
 21
36.074118496916753
  0
LINE
  8
0
  6
CONTINUOUS
 62
3
 10
6.644296593442277
 20
28.545591235963457
 11
6.644296593442277
 21
1.677201915915248
  0
LINE
  8
0
  6
CONTINUOUS
 62
3
 10
-86.255703406555426
 20
28.545591235963684
 11
-86.255703406555426
 21
1.677201915915248
  0
LINE
  8
0
  6
CONTINUOUS
 62
3
 10
0.244296593442641
 20
-1.348972704300877
 11
0.244296593442641
 21
28.226961995385864
  0
LINE
  8
0
  6
CONTINUOUS
 62
3
 10
-79.855703406555790
 20
-1.348972704300877
 11
-79.855703406555790
 21
28.226961995386091
  0
LINE
  8
0
  6
CONTINUOUS
 62
3
 10
-74.855703406555790
 20
33.226961995385977
 11
-4.755703406557359
 21
33.226961995385864
  0
ARC
  8
0
  6
CONTINUOUS
 62
3
 10
-4.755703406557359
 20
28.226961995385864
 40
5.000000000000000
 50
0.000000000000000
 51
90.000000000000000
  0
ARC
  8
0
  6
CONTINUOUS
 62
3
 10
-74.855703406555790
 20
28.226961995386091
 40
4.999999999999886
 50
90.000000000000000
 51
180.000000000000000
  0
ARC
  8
0
  6
CONTINUOUS
 62
3
 10
-4.355703406557723
 20
1.677201915915248
 40
11.000000000000000
 50
270.000000000000000
 51
0.000000000000000
  0
ARC
  8
0
  6
CONTINUOUS
 62
3
 10
-75.255703406555426
 20
1.677201915915248
 40
11.000000000000000
 50
180.000000000000000
 51
270.000000000000000
  0
LINE
  8
0
  6
CONTINUOUS
 62
3
 10
-74.055703406556063
 20
-7.148972704300832
 11
-5.555703406557313
 21
-7.148972704300832
  0
ARC
  8
0
  6
CONTINUOUS
 62
3
 10
-5.555703406557313
 20
-1.348972704300877
 40
5.799999999999955
 50
270.000000000000000
 51
0.000000000000000
  0
ARC
  8
0
  6
CONTINUOUS
 62
3
 10
-74.055703406556063
 20
-1.348972704300877
 40
5.799999999999727
 50
180.000000000000000
 51
270.000000000000000
  0
ARC
  8
0
  6
CONTINUOUS
 62
3
 10
-4.355703406557723
 20
25.074118496916753
 40
11.000000000000000
 50
0.000000000000000
 51
90.000000000000000
  0
ARC
  8
0
  6
CONTINUOUS
 62
3
 10
-4.355703406557723
 20
28.545591235963457
 40
11.000000000000000
 50
0.000000000000000
 51
90.000000000000000
  0
ARC
  8
0
  6
CONTINUOUS
 62
3
 10
-75.255703406555426
 20
25.074118496916753
 40
11.000000000000000
 50
90.000000000000000
 51
180.000000000000000
  0
ARC
  8
0
  6
CONTINUOUS
 62
3
 10
-75.255703406555426
 20
28.545591235963684
 40
10.999999999999886
 50
90.000000000000000
 51
180.000000000000000
  0
LINE
  8
0
  6
CONTINUOUS
 62
3
 10
-60.856338501166761
 20
-7.948972704300786
 11
-19.155068311946366
 21
-7.948972704300786
  0
ARC
  8
0
  6
CONTINUOUS
 62
3
 10
-19.155068311946366
 20
-6.948972704300786
 40
1.000000000000000
 50
270.000000000000000
 51
323.130102354140380
  0
ARC
  8
0
  6
CONTINUOUS
 62
3
 10
-17.555068311946457
 20
-8.148972704300832
 40
1.000000000000000
 50
90.000000000000000
 51
143.130102354166380
  0
ARC
  8
0
  6
CONTINUOUS
 62
3
 10
-62.456338501166670
 20
-8.148972704300832
 40
0.999999999999727
 50
36.869897645849235
 51
90.000000000000000
  0
ARC
  8
0
  6
CONTINUOUS
 62
3
 10
-60.856338501166761
 20
-6.948972704300786
 40
1.000000000000227
 50
216.869897645844020
 51
270.000000000000000
  0
LINE
  8
0
  6
CONTINUOUS
 62
3
 10
-73.605703406556700
 20
40.851027295699168
 11
-6.005703406556677
 21
40.851027295699055
  0
ARC
  8
0
  6
CONTINUOUS
 62
3
 10
-6.005703406556677
 20
35.851027295699055
 40
5.000000000000008
 50
44.925956400534659
 51
90.000000000000000
  0
ARC
  8
0
  6
CONTINUOUS
 62
3
 10
-73.605703406556700
 20
35.851027295699168
 40
5.000000000000000
 50
90.000000000000000
 51
135.074043599465310
  0
LINE
  8
0
  6
CONTINUOUS
 62
3
 10
-8.805703406556631
 20
41.851027295699055
 11
-8.805703406556631
 21
40.851027295699055
  0
LINE
  8
0
  6
CONTINUOUS
 62
3
 10
-70.805703406556518
 20
41.851027295699168
 11
-70.805703406556518
 21
40.851027295699168
  0
LINE
  8
0
  6
DASHDOT
 62
4
 10
-62.629335037868373
 20
16.851027295699168
 11
-18.341616999469920
 21
16.851027295699168
  0
CIRCLE
  8
0
  6
DASHED
 62
4
 10
-39.805703406556518
 20
16.851027295698941
 40
13.500000000000000
  0
ARC
  8
0
  6
CONTINUOUS
 62
3
 10
-42.005704169495971
 20
-8.345500216554683
 40
1.299999237060699
 50
162.240552086452960
 51
253.398468892505180
  0
ARC
  8
0
  6
CONTINUOUS
 62
3
 10
-39.805703406556518
 20
-0.966475293706935
 40
8.999999999999858
 50
253.398468892518050
 51
286.601548410325050
  0
ARC
  8
0
  6
CONTINUOUS
 62
3
 10
-37.605702643617064
 20
-8.345500216554683
 40
1.299999237060351
 50
286.601548410324710
 51
17.759447913550098
  0
LINE
  8
0
  6
CONTINUOUS
 62
3
 10
-36.748447200660507
 20
-9.322798084084752
 11
-4.355703406557723
 21
-9.322798084084752
  0
LINE
  8
0
  6
DASHDOT
 62
4
 10
182.339000670804550
 20
109.351027295699160
 11
-191.085582609419390
 21
109.351027295699160
  0
INSERT
  8
0
  2
SYM1
 10
56.944296593443596
 20
-105.148972704300830
  0
INSERT
  8
0
  2
SYM2
 10
-358.119827132528480
 20
-184.148972704300830
 41
-1.000000000000000
  0
INSERT
  8
0
  2
SYM2
 10
-388.119827132528260
 20
-105.148972704300830
 41
-1.000000000000000
  0
INSERT
  8
0
  2
SYM2
 10
-363.119827132528480
 20
-46.648972704300718
 41
-1.000000000000000
  0
INSERT
  8
0
  2
SYM2
 10
-269.119827132528030
 20
-46.648972704300718
  0
INSERT
  8
0
  2
SYM2
 10
-274.119827132528030
 20
-184.148972704300830
  0
ARC
  8
0
  6
CONTINUOUS
 62
3
 10
319.956804435724280
 20
-480.648972704300830
 40
449.999999999999720
 50
87.767131757208674
 51
90.000000000000000
  0
ARC
  8
0
  6
CONTINUOUS
 62
3
 10
319.956804435724280
 20
-480.648972704300830
 40
450.000000000000000
 50
90.000000000000000
 51
92.232868242791568
  0
LINE
  8
0
  6
CONTINUOUS
 62
3
 10
62.694296593444506
 20
-30.648972704300832
 11
54.694296593444506
 21
-30.648972704300832
  0
LINE
  8
0
  6
CONTINUOUS
 62
3
 10
63.194296593443596
 20
-30.648972704300832
 11
85.194539195506422
 21
-31.032988367356666
  0
ARC
  8
0
  6
CONTINUOUS
 62
3
 10
54.694296593444506
 20
-31.648972704300832
 40
1.000000000000000
 50
90.000000000000000
 51
180.000000000000000
  0
POINT
  8
0
  6
CONTINUOUS
 62
3
 10
203.728506128137500
 20
-164.222765390753640
  0
LINE
  8
0
  6
CONTINUOUS
 62
3
 10
234.956804435724280
 20
-178.648972704300830
 11
234.956804435724280
 21
-190.648972704300830
  0
LINE
  8
0
  6
CONTINUOUS
 62
3
 10
259.956804435724280
 20
-190.648972704300830
 11
234.956804435724280
 21
-190.648972704300830
  0
LINE
  8
0
  6
CONTINUOUS
 62
3
 10
261.471282643137330
 20
-95.941291470873693
 11
261.471282643137330
 21
-172.648972704300830
  0
LINE
  8
0
  6
CONTINUOUS
 62
3
 10
239.956804435724280
 20
-95.941291470873693
 11
239.956804435724280
 21
-172.732892921201710
  0
LINE
  8
0
  6
CONTINUOUS
 62
3
 10
245.180355085005890
 20
-172.648972704300830
 11
245.180355085005890
 21
-90.648972228313141
  0
LINE
  8
0
  6
CONTINUOUS
 62
3
 10
258.131355085006820
 20
-172.648972704300830
 11
258.131355085005910
 21
-90.648972704300832
  0
LINE
  8
0
  6
DASHDOT
 62
4
 10
244.956804435724280
 20
-194.729476473222350
 11
244.956804435724280
 21
-172.644435047965090
  0
LINE
  8
0
  6
CONTINUOUS
 62
3
 10
319.956804435724280
 20
-175.648972704300830
 11
237.956804435724280
 21
-175.648972704300830
  0
LINE
  8
0
  6
CONTINUOUS
 62
3
 10
319.956804435724280
 20
-188.648972704300830
 11
284.571182713385040
 21
-188.648972704300830
  0
LINE
  8
0
  6
CONTINUOUS
 62
3
 10
260.956804435724280
 20
-189.648972704300830
 11
283.766279455034690
 21
-189.648972704300830
  0
LINE
  8
0
  6
DASHDOT
 62
4
 10
405.437744942606970
 20
-90.648972704300832
 11
192.833900025500040
 21
-90.648972704300832
  0
LINE
  8
0
  6
CONTINUOUS
 62
3
 10
319.956804435724280
 20
-168.248972704301200
 11
275.456804435724280
 21
-168.248972704301200
  0
LINE
  8
0
  6
CONTINUOUS
 62
3
 10
268.456804435724280
 20
-94.148972704300832
 11
268.456804435724280
 21
-161.248972704301200
  0
LINE
  8
0
  6
CONTINUOUS
 62
3
 10
271.956804435724280
 20
-90.648972704300832
 11
288.520360616487320
 21
-90.648972704300832
  0
LINE
  8
0
  6
DASHDOT
 62
4
 10
227.456804435724280
 20
-142.766448924595100
 11
227.456804435724280
 21
-165.634958100358690
  0
LINE
  8
0
  6
CONTINUOUS
 62
3
 10
239.956804435724280
 20
-92.195329811134087
 11
204.434169694263800
 21
-171.980473746411180
  0
LINE
  8
0
  6
CONTINUOUS
 62
3
 10
206.386505581027900
 20
-167.595455549726640
 11
209.903655592951960
 21
-169.161391625568460
  0
LINE
  8
0
  6
CONTINUOUS
 62
3
 10
208.013452153331170
 20
-163.941273719156640
 11
211.530602165255000
 21
-165.507209794998460
  0
LINE
  8
0
  6
CONTINUOUS
 62
3
 10
227.581095412920600
 20
-110.648972704300800
 11
201.369433598297750
 21
-169.521329045080790
  0
LINE
  8
0
  6
CONTINUOUS
 62
3
 10
201.876242412864030
 20
-170.841611145799050
 11
204.434169694263800
 21
-171.980473746411180
  0
LINE
  8
0
  6
CONTINUOUS
 62
3
 10
239.956804435724280
 20
-157.148972704300800
 11
211.037579404395500
 21
-157.148972704300800
  0
LINE
  8
0
  6
CONTINUOUS
 62
3
 10
242.235991062509580
 20
-74.409179426962027
 11
216.280353968973490
 21
-78.668008579955057
  0
LINE
  8
0
  6
CONTINUOUS
 62
3
 10
243.326803092595500
 20
-75.283534224600700
 11
227.581095412917420
 21
-110.648972704300800
  0
LINE
  8
0
  6
CONTINUOUS
 62
3
 10
205.152084378903060
 20
-161.025356289004490
 11
204.257700259226570
 21
-160.627150823240240
  0
LINE
  8
0
  6
CONTINUOUS
 62
3
 10
202.304927877372170
 20
-167.420174492502780
 11
201.410543757695680
 21
-167.021969026738300
  0
LINE
  8
0
  6
CONTINUOUS
 62
3
 10
205.152084378903060
 20
-161.025356289004490
 11
202.304927877372170
 21
-167.420174492502780
  0
LINE
  8
0
  6
CONTINUOUS
 62
3
 10
205.152084378903060
 20
-161.025356289004490
 11
202.304927877372170
 21
-167.420174492502780
  0
LINE
  8
0
  6
CONTINUOUS
 62
3
 10
211.707985250353430
 20
-165.969308530249860
 11
210.365754328203370
 21
-168.984008540470030
  0
LINE
  8
0
  6
CONTINUOUS
 62
3
 10
209.903655592951960
 20
-169.161391625568460
 11
210.365754328203370
 21
-168.984008540470030
  0
LINE
  8
0
  6
CONTINUOUS
 62
3
 10
211.530602165255000
 20
-165.507209794998460
 11
211.707985250353430
 21
-165.969308530249860
  0
LINE
  8
0
  6
CONTINUOUS
 62
4
 10
207.871094328254690
 20
-164.261014629331560
 11
211.707985250353430
 21
-165.969308530249860
  0
LINE
  8
0
  6
CONTINUOUS
 62
4
 10
206.528863406104160
 20
-167.275714639552180
 11
210.365754328203140
 21
-168.984008540470480
  0
LINE
  8
0
  6
CONTINUOUS
 62
3
 10
367.956804435724280
 20
-90.648972704300832
 11
351.393248254960330
 21
-90.648972704300832
  0
LINE
  8
0
  6
CONTINUOUS
 62
3
 10
319.956804435724280
 20
-168.248972704301200
 11
364.456804435724280
 21
-168.248972704301200
  0
LINE
  8
0
  6
CONTINUOUS
 62
3
 10
371.456804435724280
 20
-94.148972704300832
 11
371.456804435724280
 21
-161.248972704301200
  0
LINE
  8
0
  6
DASHDOT
 62
4
 10
394.956804435724280
 20
-194.729476473270550
 11
394.956804435724280
 21
-172.823674349247090
  0
LINE
  8
0
  6
DASHDOT
 62
4
 10
319.956804435724280
 20
-21.397030999592971
 11
319.956804435724280
 21
-195.296355645516090
  0
LINE
  8
0
  6
CONTINUOUS
 62
3
 10
378.956804435724280
 20
-189.648972704300830
 11
356.147329416412050
 21
-189.648972704300830
  0
LINE
  8
0
  6
CONTINUOUS
 62
3
 10
319.956804435724280
 20
-188.648972704300830
 11
355.342426158062610
 21
-188.648972704300830
  0
LINE
  8
0
  6
DASHDOT
 62
4
 10
300.176427467537000
 20
-110.648972704300830
 11
340.087303268766850
 21
-110.648972704300830
  0
LINE
  8
0
  6
CONTINUOUS
 62
3
 10
381.782253786441740
 20
-172.648972704300830
 11
381.782253786441740
 21
-90.648972704300832
  0
LINE
  8
0
  6
CONTINUOUS
 62
3
 10
394.733253786440860
 20
-172.648972704300830
 11
394.733253786440860
 21
-90.648972228313141
  0
LINE
  8
0
  6
CONTINUOUS
 62
3
 10
399.956804435724280
 20
-95.941291470873693
 11
399.956804435724280
 21
-172.732892921201710
  0
LINE
  8
0
  6
CONTINUOUS
 62
3
 10
378.442326228309410
 20
-95.941291470873693
 11
378.442326228309410
 21
-172.648972704300830
  0
LINE
  8
0
  6
CONTINUOUS
 62
3
 10
319.956804435724280
 20
-175.648972704300830
 11
401.956804435724280
 21
-175.648972704300830
  0
LINE
  8
0
  6
CONTINUOUS
 62
3
 10
379.956804435724280
 20
-190.648972704300830
 11
404.956804435724280
 21
-190.648972704300830
  0
LINE
  8
0
  6
CONTINUOUS
 62
3
 10
404.956804435724280
 20
-178.648972704300830
 11
404.956804435724280
 21
-190.648972704300830
  0
LINE
  8
0
  6
CONTINUOUS
 62
3
 10
312.456804435724280
 20
-87.648972704300832
 11
312.456804435724280
 21
-93.648972704300832
  0
LINE
  8
0
  6
CONTINUOUS
 62
3
 10
306.456804435724280
 20
-87.648972704300832
 11
312.456804435724280
 21
-87.648972704300832
  0
LINE
  8
0
  6
CONTINUOUS
 62
3
 10
306.456804435724280
 20
-93.648972704300832
 11
306.456804435724280
 21
-87.648972704300832
  0
LINE
  8
0
  6
CONTINUOUS
 62
3
 10
306.456804435724280
 20
-93.648972704300832
 11
312.456804435724280
 21
-93.648972704300832
  0
ARC
  8
0
  6
CONTINUOUS
 62
3
 10
304.956804435724280
 20
-95.941291470873693
 40
43.485521792585239
 50
92.232868242791568
 51
180.000000000000000
  0
ARC
  8
0
  6
CONTINUOUS
 62
3
 10
304.956804435724280
 20
-95.941291470873693
 40
64.999999999999588
 50
92.232868242792094
 51
180.000000000000000
  0
ARC
  8
0
  6
CONTINUOUS
 62
3
 10
237.956804435724280
 20
-178.648972704300830
 40
3.000000000000000
 50
90.000000000000000
 51
180.000000000000000
  0
ARC
  8
0
  6
CONTINUOUS
 62
3
 10
277.956804435724280
 20
-184.148972704300830
 40
7.999999999999481
 50
316.567463442206700
 51
325.771133672184530
  0
ARC
  8
0
  6
CONTINUOUS
 62
3
 10
260.956804435724280
 20
-190.648972704300830
 40
1.000000000000000
 50
90.000000000000000
 51
180.000000000000000
  0
ARC
  8
0
  6
CONTINUOUS
 62
3
 10
236.956804435724280
 20
-172.732892921201710
 40
2.999999999999756
 50
279.594068226861220
 51
0.000000000000000
  0
ARC
  8
0
  6
CONTINUOUS
 62
3
 10
242.180355085005890
 20
-172.648972704300830
 40
3.000000000000000
 50
270.000000000000000
 51
0.000000000000000
  0
ARC
  8
0
  6
CONTINUOUS
 62
3
 10
255.131355085006820
 20
-172.648972704300830
 40
3.000000000000000
 50
270.000000000000000
 51
0.000000000000000
  0
ARC
  8
0
  6
CONTINUOUS
 62
3
 10
258.471282643137330
 20
-172.648972704300830
 40
3.000000000000000
 50
270.000000000000000
 51
0.000000000000000
  0
ARC
  8
0
  6
CONTINUOUS
 62
3
 10
319.956804435724280
 20
-90.648972704300832
 40
29.500000000000675
 50
183.640275875615230
 51
270.000000000000000
  0
ARC
  8
0
  6
CONTINUOUS
 62
3
 10
288.520360616487320
 20
-92.648972704300832
 40
1.999999999999982
 50
3.640275875614456
 51
90.000000000000000
  0
ARC
  8
0
  6
CONTINUOUS
 62
3
 10
271.956804435724280
 20
-94.148972704300832
 40
3.500000000000000
 50
90.000000000000000
 51
180.000000000000000
  0
ARC
  8
0
  6
CONTINUOUS
 62
3
 10
275.456804435724280
 20
-161.248972704301200
 40
7.000000000000000
 50
180.000000000000000
 51
270.000000000000000
  0
ARC
  8
0
  6
CONTINUOUS
 62
3
 10
201.939301083378950
 20
-165.834360628782800
 40
1.299999237060687
 50
172.601548410320760
 51
246.000017986079880
  0
ARC
  8
0
  6
CONTINUOUS
 62
3
 10
203.688368882450500
 20
-104.495622886652850
 40
1.000000000000128
 50
126.205708094041610
 51
179.412192132278280
  0
ARC
  8
0
  6
CONTINUOUS
 62
3
 10
202.506996766174100
 20
-102.881819948594710
 40
0.999999999999994
 50
306.205708094031080
 51
359.259505056807090
  0
ARC
  8
0
  6
CONTINUOUS
 62
3
 10
203.277205182327180
 20
-142.040828973589870
 40
1.000000000000008
 50
2.994076090848812
 51
56.047873053604029
  0
ARC
  8
0
  6
CONTINUOUS
 62
3
 10
204.394205206939660
 20
-140.381819948594710
 40
0.999999999999988
 50
182.841389015366990
 51
236.047873053618590
  0
ARC
  8
0
  6
CONTINUOUS
 62
3
 10
803.456804435724280
 20
-110.648972704301110
 40
600.799999999999950
 50
179.412192132293110
 51
182.841389015363320
  0
ARC
  8
0
  6
CONTINUOUS
 62
3
 10
207.086790839305190
 20
-154.771607292537940
 40
2.000000000000632
 50
184.231338074886000
 51
245.999999999972630
  0
ARC
  8
0
  6
CONTINUOUS
 62
3
 10
205.662117172025770
 20
-157.421210544179500
 40
1.000000000000029
 50
335.999999999997950
 51
66.000000000020236
  0
ARC
  8
0
  6
CONTINUOUS
 62
3
 10
202.282979055940360
 20
-169.928065688156440
 40
0.999999999999948
 50
156.000000000008300
 51
245.999999999972630
  0
ARC
  8
0
  6
CONTINUOUS
 62
3
 10
204.490755443412580
 20
-160.052132062187350
 40
1.000000000000041
 50
335.999999999996420
 51
4.715124834083239
  0
ARC
  8
0
  6
CONTINUOUS
 62
3
 10
803.456804435724280
 20
-110.648972704301110
 40
600.000000000001140
 50
178.317231198866840
 51
184.715124834091600
  0
ARC
  8
0
  6
CONTINUOUS
 62
3
 10
218.709093421165110
 20
-93.470076836565994
 40
15.000000000000041
 50
99.318123119675519
 51
178.317231198866920
  0
ARC
  8
0
  6
CONTINUOUS
 62
3
 10
241.750243172070900
 20
-71.448765775639885
 40
3.000000000000022
 50
279.318123119682530
 51
317.526034232468310
  0
ARC
  8
0
  6
CONTINUOUS
 62
3
 10
203.728942933543520
 20
-161.814759221195740
 40
1.299999237060620
 50
65.999999316753915
 51
139.398468892516150
  0
ARC
  8
0
  6
CONTINUOUS
 62
3
 10
209.575196708560270
 20
-166.825879751281430
 40
9.000000000000075
 50
139.398468892516490
 51
172.601548410321070
  0
CIRCLE
  8
0
  6
CONTINUOUS
 62
3
 10
319.956804435724280
 20
-90.648972704300832
 40
19.000000000000000
  0
ARC
  8
0
  6
CONTINUOUS
 62
3
 10
364.456804435724280
 20
-161.248972704301200
 40
7.000000000000000
 50
270.000000000000000
 51
0.000000000000000
  0
ARC
  8
0
  6
CONTINUOUS
 62
3
 10
367.956804435724280
 20
-94.148972704300832
 40
3.500000000000000
 50
0.000000000000000
 51
90.000000000000000
  0
ARC
  8
0
  6
CONTINUOUS
 62
3
 10
351.393248254960330
 20
-92.648972704300832
 40
2.000000000000000
 50
90.000000000000000
 51
176.359724124385540
  0
ARC
  8
0
  6
CONTINUOUS
 62
3
 10
319.956804435724280
 20
-90.648972704300832
 40
29.500000000000000
 50
270.000000000000000
 51
356.359724124384680
  0
ARC
  8
0
  6
CONTINUOUS
 62
3
 10
381.442326228309410
 20
-172.648972704300830
 40
3.000000000000000
 50
180.000000000000000
 51
270.000000000000000
  0
ARC
  8
0
  6
CONTINUOUS
 62
3
 10
384.782253786441740
 20
-172.648972704300830
 40
3.000000000000000
 50
180.000000000000000
 51
270.000000000000000
  0
ARC
  8
0
  6
CONTINUOUS
 62
3
 10
397.733253786440860
 20
-172.648972704300830
 40
3.000000000000000
 50
180.000000000000000
 51
270.000000000000000
  0
ARC
  8
0
  6
CONTINUOUS
 62
3
 10
402.956804435724280
 20
-172.732892921201710
 40
3.000000000000000
 50
180.000000000000000
 51
260.405931773138780
  0
ARC
  8
0
  6
CONTINUOUS
 62
3
 10
378.956804435724280
 20
-190.648972704300830
 40
1.000000000000000
 50
0.000000000000000
 51
90.000000000000000
  0
CIRCLE
  8
0
  6
CONTINUOUS
 62
4
 10
319.956804435724280
 20
-90.648972704300832
 40
4.000000000000000
  0
ARC
  8
0
  6
CONTINUOUS
 62
3
 10
361.956804435724280
 20
-184.148972704300830
 40
8.000000000000162
 50
214.228866327811770
 51
223.432536557784320
  0
ARC
  8
0
  6
CONTINUOUS
 62
3
 10
401.956804435724280
 20
-178.648972704300830
 40
3.000000000000000
 50
0.000000000000000
 51
90.000000000000000
  0
ARC
  8
0
  6
CONTINUOUS
 62
3
 10
334.956804435724280
 20
-95.941291470873693
 40
65.000000000000000
 50
0.000000000000000
 51
87.767131757209512
  0
ARC
  8
0
  6
CONTINUOUS
 62
3
 10
334.956804435724280
 20
-95.941291470873693
 40
43.485521792585132
 50
0.000000000000000
 51
87.767131757209640
  0
ARC
  8
0
  6
CONTINUOUS
 62
3
 10
319.956804435724280
 20
-480.648972704300830
 40
428.485521792585420
 50
87.767131757208631
 51
90.000000000000000
  0
ARC
  8
0
  6
CONTINUOUS
 62
3
 10
319.956804435724280
 20
-480.648972704300830
 40
428.485521792585130
 50
90.000000000000000
 51
92.232868242791483
  0
CIRCLE
  8
0
  6
CONTINUOUS
 62
3
 10
319.956804435724280
 20
-90.648972704300832
 40
21.999999999999886
  0
CIRCLE
  8
0
  6
CONTINUOUS
 62
4
 10
319.956804435724280
 20
-90.648972704300832
 40
4.000000000000000
  0
CIRCLE
  8
0
  6
CONTINUOUS
 62
3
 10
319.956804435724280
 20
-90.648972704300832
 40
3.323500000000024
  0
ARC
  8
0
  6
CONTINUOUS
 62
3
 10
319.956804435724280
 20
-90.648972704300832
 40
11.000000000000476
 50
195.826620131871660
 51
164.173379868128340
  0
POLYLINE
  8
0
  6
CONTINUOUS
 62
3
 66
1
  0
VERTEX
  8
0
  6
CONTINUOUS
 62
3
 10
258.131355085006360
 20
-90.648972704300832
  0
VERTEX
  8
0
  6
CONTINUOUS
 62
3
 10
258.021097388677900
 20
-88.811477498612589
  0
VERTEX
  8
0
  6
CONTINUOUS
 62
3
 10
257.694078993414960
 20
-87.036555990212207
  0
VERTEX
  8
0
  6
CONTINUOUS
 62
3
 10
257.161436118789370
 20
-85.384651004110879
  0
VERTEX
  8
0
  6
CONTINUOUS
 62
3
 10
256.441307279609820
 20
-83.912016185068396
  0
VERTEX
  8
0
  6
CONTINUOUS
 62
3
 10
255.558215600536240
 20
-82.668800347131764
  0
VERTEX
  8
0
  6
CONTINUOUS
 62
3
 10
254.542233710456460
 20
-81.697339715868097
  0
VERTEX
  8
0
  6
CONTINUOUS
 62
3
 10
253.427959655146570
 20
-81.030716218936078
  0
VERTEX
  8
0
  6
CONTINUOUS
 62
3
 10
252.253338702282260
 20
-80.691630920682911
  0
VERTEX
  8
0
  6
CONTINUOUS
 62
3
 10
251.058371160819430
 20
-80.691630964601515
  0
VERTEX
  8
0
  6
CONTINUOUS
 62
3
 10
249.883750218406620
 20
-81.030716349196297
  0
VERTEX
  8
0
  6
CONTINUOUS
 62
3
 10
248.769476183643800
 20
-81.697339928034069
  0
VERTEX
  8
0
  6
CONTINUOUS
 62
3
 10
247.753494323506910
 20
-82.668800633978435
  0
VERTEX
  8
0
  6
CONTINUOUS
 62
3
 10
246.870402682752480
 20
-83.912016536827551
  0
VERTEX
  8
0
  6
CONTINUOUS
 62
3
 10
246.150273888963340
 20
-85.384651408803776
  0
VERTEX
  8
0
  6
CONTINUOUS
 62
3
 10
245.617631065253730
 20
-87.036556434057516
  0
VERTEX
  8
0
  6
CONTINUOUS
 62
3
 10
245.290612724698430
 20
-88.811477966495687
  0
VERTEX
  8
0
  6
CONTINUOUS
 62
3
 10
245.180355085006340
 20
-90.648973180288522
  0
SEQEND
  8
0
  6
CONTINUOUS
 62
3
  0
POLYLINE
  8
0
  6
CONTINUOUS
 62
3
 66
1
  0
VERTEX
  8
0
  6
CONTINUOUS
 62
3
 10
394.733253786441310
 20
-90.648973180288522
  0
VERTEX
  8
0
  6
CONTINUOUS
 62
3
 10
394.622996146749190
 20
-88.811477966495687
  0
VERTEX
  8
0
  6
CONTINUOUS
 62
3
 10
394.295977806193950
 20
-87.036556434057516
  0
VERTEX
  8
0
  6
CONTINUOUS
 62
3
 10
393.763334982484310
 20
-85.384651408803776
  0
VERTEX
  8
0
  6
CONTINUOUS
 62
3
 10
393.043206188695140
 20
-83.912016536827551
  0
VERTEX
  8
0
  6
CONTINUOUS
 62
3
 10
392.160114547940740
 20
-82.668800633978435
  0
VERTEX
  8
0
  6
CONTINUOUS
 62
3
 10
391.144132687803850
 20
-81.697339928034069
  0
VERTEX
  8
0
  6
CONTINUOUS
 62
3
 10
390.029858653041000
 20
-81.030716349196297
  0
VERTEX
  8
0
  6
CONTINUOUS
 62
3
 10
388.855237710628220
 20
-80.691630964601515
  0
VERTEX
  8
0
  6
CONTINUOUS
 62
3
 10
387.660270169165410
 20
-80.691630920682911
  0
VERTEX
  8
0
  6
CONTINUOUS
 62
3
 10
386.485649216301110
 20
-81.030716218936078
  0
VERTEX
  8
0
  6
CONTINUOUS
 62
3
 10
385.371375160991190
 20
-81.697339715868097
  0
VERTEX
  8
0
  6
CONTINUOUS
 62
3
 10
384.355393270911410
 20
-82.668800347131764
  0
VERTEX
  8
0
  6
CONTINUOUS
 62
3
 10
383.472301591837830
 20
-83.912016185068396
  0
VERTEX
  8
0
  6
CONTINUOUS
 62
3
 10
382.752172752658280
 20
-85.384651004110879
  0
VERTEX
  8
0
  6
CONTINUOUS
 62
3
 10
382.219529878032690
 20
-87.036555990212207
  0
VERTEX
  8
0
  6
CONTINUOUS
 62
3
 10
381.892511482769750
 20
-88.811477498612589
  0
VERTEX
  8
0
  6
CONTINUOUS
 62
3
 10
381.782253786441290
 20
-90.648972704300832
  0
SEQEND
  8
0
  6
CONTINUOUS
 62
3
  0
LINE
  8
0
  6
CONTINUOUS
 62
3
 10
-76.805703406554699
 20
-56.908857603863225
 11
-78.805703406554699
 21
-58.561499242986656
  0
LINE
  8
0
  6
CONTINUOUS
 62
3
 10
-74.805703406554699
 20
-55.733072118240443
 11
-76.805703406554699
 21
-56.908857603863225
  0
LINE
  8
0
  6
CONTINUOUS
 62
3
 10
-76.805703406554699
 20
-56.908857603863225
 11
-74.805703406554699
 21
-58.561499242986656
  0
LINE
  8
0
  6
CONTINUOUS
 62
3
 10
-78.805703406554699
 20
-55.733072118240443
 11
-76.805703406554699
 21
-56.908857603863225
  0
LINE
  8
0
  6
CONTINUOUS
 62
3
 10
-157.971256355996620
 20
-167.032013590080620
 11
-167.697002141017610
 21
-160.221973076697400
  0
LINE
  8
0
  6
CONTINUOUS
 62
3
 10
-168.805703406505130
 20
-110.648972704300830
 11
-168.805703406505130
 21
-158.092177761546280
  0
LINE
  8
0
  6
CONTINUOUS
 62
3
 10
-79.851592569684840
 20
-170.648972704300830
 11
-146.499727628975620
 21
-170.648972704300830
  0
LINE
  8
0
  6
CONTINUOUS
 62
3
 10
31.194296593444619
 20
-169.148972704300830
 11
31.194296593444619
 21
-110.648972704300830
  0
LINE
  8
0
  6
CONTINUOUS
 62
3
 10
53.694296593444506
 20
-169.148972704300830
 11
31.194296593444619
 21
-169.148972704300830
  0
LINE
  8
0
  6
DASHDOT
 62
4
 10
72.469276809573785
 20
-110.648972704300830
 11
-178.734915944901900
 21
-110.648972704300830
  0
LINE
  8
0
  6
CONTINUOUS
 62
4
 10
6.644296593443300
 20
-142.399764420675180
 11
31.194296593444619
 21
-142.399764420675180
  0
LINE
  8
0
  6
CONTINUOUS
 62
4
 10
6.644296593443300
 20
-146.363509844474720
 11
31.194296593444619
 21
-146.363509844474720
  0
LINE
  8
0
  6
CONTINUOUS
 62
4
 10
6.644296593443300
 20
-147.968157760036770
 11
31.194296593444619
 21
-147.968157760036770
  0
LINE
  8
0
  6
CONTINUOUS
 62
4
 10
6.644296593443300
 20
-156.014759422770570
 11
31.194296593444619
 21
-156.014759422770570
  0
LINE
  8
0
  6
CONTINUOUS
 62
4
 10
6.644296593443300
 20
-160.964506891076330
 11
31.194296593444619
 21
-160.964506891076330
  0
LINE
  8
0
  6
CONTINUOUS
 62
4
 10
5.445372040723782
 20
-165.648972704300830
 11
31.194296593444619
 21
-165.648972704300830
  0
LINE
  8
0
  6
CONTINUOUS
 62
4
 10
4.867815627878258
 20
-166.648972704300830
 11
31.194296593444619
 21
-166.648972704300830
  0
LINE
  8
0
  6
CONTINUOUS
 62
4
 10
3.696727193053221
 20
-168.148972704300830
 11
31.194296593444619
 21
-168.148972704300830
  0
LINE
  8
0
  6
CONTINUOUS
 62
4
 10
4.134616188952350
 20
-167.648972704300830
 11
31.194296593444619
 21
-167.648972704300830
  0
LINE
  8
0
  6
CONTINUOUS
 62
4
 10
6.644296593443300
 20
-130.648972704300830
 11
31.194296593444619
 21
-130.648972704300830
  0
LINE
  8
0
  6
CONTINUOUS
 62
4
 10
6.644296593443300
 20
-136.840906496780460
 11
31.194296593444619
 21
-136.840906496780460
  0
LINE
  8
0
  6
CONTINUOUS
 62
4
 10
6.644296593443300
 20
-135.479026161431190
 11
31.194296593444619
 21
-135.479026161431190
  0
LINE
  8
0
  6
CONTINUOUS
 62
4
 10
6.644296593443300
 20
-140.931407030870100
 11
31.194296593444619
 21
-140.931407030870100
  0
LINE
  8
0
  6
CONTINUOUS
 62
3
 10
-157.971256355996620
 20
-54.265931818521040
 11
-167.697002141017610
 21
-61.075972331904268
  0
LINE
  8
0
  6
CONTINUOUS
 62
3
 10
-168.805703406505130
 20
-110.648972704300830
 11
-168.805703406505130
 21
-63.205767647055382
  0
LINE
  8
0
  6
CONTINUOUS
 62
3
 10
-65.805703406555267
 20
-50.648972704300832
 11
-146.499727628975620
 21
-50.648972704300832
  0
LINE
  8
0
  6
CONTINUOUS
 62
3
 10
31.194296593444619
 20
-52.148972704300832
 11
31.194296593444619
 21
-110.648972704300830
  0
LINE
  8
0
  6
CONTINUOUS
 62
3
 10
31.194296593444619
 20
-52.148972704300832
 11
-65.805703406555267
 21
-52.148972704300832
  0
LINE
  8
0
  6
CONTINUOUS
 62
3
 10
-65.805703406555267
 20
-68.052365063694879
 11
-65.805703406555267
 21
-50.648972704300832
  0
LINE
  8
0
  6
CONTINUOUS
 62
4
 10
6.644296593443300
 20
-78.898180987926480
 11
31.194296593444619
 21
-78.898180987926480
  0
LINE
  8
0
  6
CONTINUOUS
 62
4
 10
5.844426819895830
 20
-74.934435564126943
 11
31.194296593444619
 21
-74.934435564126943
  0
LINE
  8
0
  6
CONTINUOUS
 62
4
 10
5.038555889835266
 20
-73.329787648564889
 11
31.194296593444619
 21
-73.329787648564889
  0
LINE
  8
0
  6
CONTINUOUS
 62
4
 10
-65.805703406555267
 20
-65.283185985831096
 11
31.194296593444619
 21
-65.283185985831096
  0
LINE
  8
0
  6
CONTINUOUS
 62
4
 10
-65.805703406555267
 20
-60.333438517525337
 11
31.194296593444619
 21
-60.333438517525337
  0
LINE
  8
0
  6
CONTINUOUS
 62
4
 10
-65.805703406555267
 20
-55.648972704300832
 11
31.194296593444619
 21
-55.648972704300832
  0
LINE
  8
0
  6
CONTINUOUS
 62
4
 10
-65.805703406555267
 20
-54.648972704300832
 11
31.194296593444619
 21
-54.648972704300832
  0
LINE
  8
0
  6
CONTINUOUS
 62
4
 10
-65.805703406555267
 20
-53.148972704300832
 11
31.194296593444619
 21
-53.148972704300832
  0
LINE
  8
0
  6
CONTINUOUS
 62
4
 10
-65.805703406555267
 20
-53.648972704300832
 11
31.194296593444619
 21
-53.648972704300832
  0
LINE
  8
0
  6
CONTINUOUS
 62
4
 10
6.644296593443300
 20
-90.648972704300832
 11
31.194296593444619
 21
-90.648972704300832
  0
LINE
  8
0
  6
CONTINUOUS
 62
4
 10
6.644296593443300
 20
-84.457038911821201
 11
31.194296593444619
 21
-84.457038911821201
  0
LINE
  8
0
  6
CONTINUOUS
 62
4
 10
6.644296593443300
 20
-85.818919247170470
 11
31.194296593444619
 21
-85.818919247170470
  0
LINE
  8
0
  6
CONTINUOUS
 62
4
 10
6.644296593443300
 20
-80.366538377731558
 11
31.194296593444619
 21
-80.366538377731558
  0
LINE
  8
0
  6
CONTINUOUS
 62
3
 10
-86.255703406554289
 20
-79.052365063694879
 11
-86.255703406554289
 21
-160.655084431950630
  0
LINE
  8
0
  6
CONTINUOUS
 62
3
 10
-79.855703406554653
 20
-79.147183267193441
 11
-79.855703406554653
 21
-155.224927473853540
  0
LINE
  8
0
  6
CONTINUOUS
 62
4
 10
-39.805703406555381
 20
-80.648972704300604
 11
-74.855703406554653
 21
-80.648972704300604
  0
LINE
  8
0
  6
CONTINUOUS
 62
3
 10
-39.805703406555381
 20
-74.147183267193441
 11
-74.855703406554653
 21
-74.147183267193441
  0
LINE
  8
0
  6
CONTINUOUS
 62
3
 10
-75.255703406554289
 20
-68.052365063694879
 11
-39.805703406555381
 21
-68.052365063694879
  0
LINE
  8
0
  6
CONTINUOUS
 62
4
 10
-61.456338501165533
 20
-141.381819948594740
 11
-47.022581771424825
 21
-141.381819948594740
  0
LINE
  8
0
  6
CONTINUOUS
 62
4
 10
-39.805703406555381
 20
-128.881819948594740
 11
-47.022581771424825
 21
-141.381819948594740
  0
LINE
  8
0
  6
CONTINUOUS
 62
4
 10
-54.239460136295179
 20
-128.881819948594740
 11
-61.456338501165533
 21
-141.381819948594740
  0
LINE
  8
0
  6
CONTINUOUS
 62
4
 10
-54.239460136295179
 20
-128.881819948594740
 11
-39.805703406555381
 21
-128.881819948594740
  0
LINE
  8
0
  6
CONTINUOUS
 62
4
 10
-47.022581771425735
 20
-116.381819948594960
 11
-39.805703406555381
 21
-128.881819948594740
  0
LINE
  8
0
  6
CONTINUOUS
 62
4
 10
-39.805703406555381
 20
-103.881819948594730
 11
-47.022581771425735
 21
-116.381819948594730
  0
LINE
  8
0
  6
CONTINUOUS
 62
4
 10
-25.371946676815583
 20
-128.881819948594740
 11
-18.155068311945229
 21
-141.381819948594740
  0
LINE
  8
0
  6
CONTINUOUS
 62
4
 10
-18.155068311945229
 20
-141.381819948594740
 11
-32.588825041685936
 21
-141.381819948594740
  0
LINE
  8
0
  6
CONTINUOUS
 62
4
 10
-39.805703406555381
 20
-103.881819948594730
 11
-32.588825041685027
 21
-116.381819948594730
  0
LINE
  8
0
  6
CONTINUOUS
 62
4
 10
-32.588825041685027
 20
-116.381819948594960
 11
-39.805703406555381
 21
-128.881819948594740
  0
LINE
  8
0
  6
CONTINUOUS
 62
4
 10
-25.371946676815583
 20
-128.881819948594740
 11
-39.805703406555381
 21
-128.881819948594740
  0
LINE
  8
0
  6
CONTINUOUS
 62
4
 10
-39.805703406555381
 20
-128.881819948594740
 11
-32.588825041685936
 21
-141.381819948594740
  0
LINE
  8
0
  6
DASHDOT
 62
4
 10
-39.805703406555381
 20
-65.149372871508831
 11
-39.805703406555381
 21
-177.803092296745490
  0
LINE
  8
0
  6
CONTINUOUS
 62
3
 10
-48.293177623948964
 20
-160.224927473853540
 11
-74.855703406554653
 21
-160.224927473853540
  0
LINE
  8
0
  6
CONTINUOUS
 62
3
 10
-75.255703406554289
 20
-170.434874502723460
 11
-39.805703406555381
 21
-170.434874502723460
  0
LINE
  8
0
  6
CONTINUOUS
 62
3
 10
-75.255703406554289
 20
-171.655084431950630
 11
-39.805703406555381
 21
-171.655084431950630
  0
LINE
  8
0
  6
CONTINUOUS
 62
3
 10
-37.805703406555381
 20
-165.083871108528680
 11
-41.805703406555381
 21
-161.429689277958230
  0
LINE
  8
0
  6
CONTINUOUS
 62
3
 10
-41.805703406555381
 20
-165.083871108528680
 11
-37.805703406555381
 21
-161.429689277958230
  0
LINE
  8
0
  6
CONTINUOUS
 62
3
 10
-31.318229189162025
 20
-160.224927473853540
 11
-4.755703406556222
 21
-160.224927473853540
  0
LINE
  8
0
  6
CONTINUOUS
 62
3
 10
-4.355703406556586
 20
-171.655084431950630
 11
-39.805703406555381
 21
-171.655084431950630
  0
LINE
  8
0
  6
CONTINUOUS
 62
3
 10
-4.355703406556586
 20
-170.434874502723460
 11
-39.805703406555381
 21
-170.434874502723460
  0
LINE
  8
0
  6
CONTINUOUS
 62
3
 10
0.244296593443778
 20
-79.147183267193441
 11
0.244296593443778
 21
-155.224927473853540
  0
LINE
  8
0
  6
CONTINUOUS
 62
3
 10
6.644296593443414
 20
-79.052365063694879
 11
6.644296593443414
 21
-160.655084431950630
  0
LINE
  8
0
  6
CONTINUOUS
 62
3
 10
-39.805703406555381
 20
-74.147183267193441
 11
-4.755703406556222
 21
-74.147183267193441
  0
LINE
  8
0
  6
CONTINUOUS
 62
4
 10
-39.805703406555381
 20
-80.648972704300604
 11
-4.755703406556222
 21
-80.648972704300604
  0
LINE
  8
0
  6
CONTINUOUS
 62
3
 10
-4.355703406556586
 20
-68.052365063694879
 11
-39.805703406555381
 21
-68.052365063694879
  0
LINE
  8
0
  6
CONTINUOUS
 62
3
 10
52.694296593443596
 20
-80.648972704300832
 11
52.694296593443596
 21
-95.648972704300832
  0
LINE
  8
0
  6
CONTINUOUS
 62
3
 10
54.694296593443596
 20
-111.398972704300830
 11
56.544296593443960
 21
-111.398972704300830
  0
LINE
  8
0
  6
CONTINUOUS
 62
3
 10
54.694296593443596
 20
-98.898972704300832
 11
56.544296593443960
 21
-98.898972704300832
  0
LINE
  8
0
  6
CONTINUOUS
 62
3
 10
56.944296593443596
 20
-99.298972704300468
 11
56.944296593443596
 21
-110.998972704301190
  0
LINE
  8
0
  6
CONTINUOUS
 62
3
 10
53.694296593444506
 20
-173.784763943945110
 11
53.694296593444506
 21
-110.148972704300830
  0
LINE
  8
0
  6
CONTINUOUS
 62
3
 10
53.694296593444506
 20
-31.648972704300832
 11
53.694296593445415
 21
-41.648972704300832
  0
LINE
  8
0
  6
CONTINUOUS
 62
3
 10
31.194296593444506
 20
-169.157700236764870
 11
52.711748999881365
 21
-169.533288765609540
  0
LINE
  8
0
  6
CONTINUOUS
 62
3
 10
31.194296593444506
 20
-52.140245171836796
 11
52.711748999881365
 21
-51.764656642992122
  0
LINE
  8
0
  6
CONTINUOUS
 62
3
 10
31.194296593444506
 20
-110.648972704300830
 11
31.194296593444506
 21
-52.148972704300832
  0
LINE
  8
0
  6
CONTINUOUS
 62
3
 10
31.194296593444506
 20
-110.648972704300830
 11
31.194296593444506
 21
-169.148972704300830
  0
LINE
  8
0
  6
CONTINUOUS
 62
3
 10
53.694296593444506
 20
-45.389956176937631
 11
53.694296593444506
 21
-90.648972704300832
  0
LINE
  8
0
  6
CONTINUOUS
 62
3
 10
53.694296593444506
 20
-100.148972704300830
 11
53.694296593444506
 21
-90.648972704300832
  0
LINE
  8
0
  6
CONTINUOUS
 62
3
 10
50.944296593444506
 20
-51.648972704300832
 11
50.944296593444506
 21
-41.648972704300832
  0
LINE
  8
0
  6
CONTINUOUS
 62
3
 10
56.944296593444506
 20
-41.648972704300832
 11
50.944296593444506
 21
-41.648972704300832
  0
LINE
  8
0
  6
CONTINUOUS
 62
3
 10
53.161473703066008
 20
-51.648972704300832
 11
50.944296593444506
 21
-51.648972704300832
  0
LINE
  8
0
  6
CONTINUOUS
 62
3
 10
54.694296593444506
 20
-36.259321831794296
 11
56.544296593444869
 21
-36.259321831794296
  0
LINE
  8
0
  6
CONTINUOUS
 62
3
 10
56.944296593444506
 20
-36.659321831794841
 11
56.944296593444506
 21
-43.989956176937994
  0
LINE
  8
0
  6
CONTINUOUS
 62
3
 10
54.694296593444506
 20
-44.389956176937631
 11
56.544296593444869
 21
-44.389956176937631
  0
LINE
  8
0
  6
CONTINUOUS
 62
3
 10
24.694296593443596
 20
-190.148972704300830
 11
24.694296593443596
 21
-178.561711517537330
  0
LINE
  8
0
  6
CONTINUOUS
 62
3
 10
131.694296593443600
 20
-190.648972704300830
 11
26.694296593443596
 21
-190.648972704300830
  0
LINE
  8
0
  6
CONTINUOUS
 62
3
 10
27.605766873596167
 20
-175.563018053926500
 11
65.194296593443596
 21
-174.453300756718820
  0
LINE
  8
0
  6
CONTINUOUS
 62
3
 10
64.135766671216061
 20
-168.213748236797980
 11
52.314883768000527
 21
-174.520745607442220
  0
LINE
  8
0
  6
DASHDOT
 62
4
 10
36.694296593443596
 20
-197.482590715775590
 11
36.694296593443596
 21
-169.867599048686320
  0
LINE
  8
0
  6
CONTINUOUS
 62
3
 10
26.694296593443596
 20
-190.648972704300830
 11
26.694296593443596
 21
-190.148972704300830
  0
LINE
  8
0
  6
CONTINUOUS
 62
3
 10
26.694296593443596
 20
-190.148972704300830
 11
24.694296593443596
 21
-190.148972704300830
  0
LINE
  8
0
  6
CONTINUOUS
 62
3
 10
31.194296593444506
 20
-52.148972704300832
 11
31.194296593444506
 21
-110.648972704300830
  0
LINE
  8
0
  6
CONTINUOUS
 62
3
 10
31.194296593444506
 20
-169.148972704300830
 11
31.194296593444506
 21
-110.648972704300830
  0
LINE
  8
0
  6
CONTINUOUS
 62
3
 10
171.294296593443960
 20
-79.648972704300832
 11
138.254104214579000
 21
-79.648972704300832
  0
LINE
  8
0
  6
CONTINUOUS
 62
3
 10
171.294296593443960
 20
-79.648972704300832
 11
138.254104214579000
 21
-79.648972704300832
  0
LINE
  8
0
  6
CONTINUOUS
 62
3
 10
171.694296593443600
 20
-90.648972704300832
 11
171.694296593443600
 21
-80.048972704301377
  0
LINE
  8
0
  6
CONTINUOUS
 62
3
 10
133.694296593443600
 20
-78.648972704300832
 11
135.294296593443960
 21
-78.648972704300832
  0
LINE
  8
0
  6
CONTINUOUS
 62
3
 10
135.694296593443600
 20
-79.048972704301377
 11
135.294296593443960
 21
-78.648972704300832
  0
LINE
  8
0
  6
CONTINUOUS
 62
3
 10
138.254104214579000
 20
-79.648972704300832
 11
137.694296593443600
 21
-79.798972704301377
  0
LINE
  8
0
  6
CONTINUOUS
 62
3
 10
137.694296593443600
 20
-79.798972704301377
 11
136.494296593444690
 21
-79.798972704301377
  0
LINE
  8
0
  6
CONTINUOUS
 62
3
 10
133.694296593443600
 20
-190.148972704300830
 11
131.694296593443600
 21
-190.148972704300830
  0
LINE
  8
0
  6
CONTINUOUS
 62
3
 10
131.694296593443600
 20
-190.148972704300830
 11
131.694296593443600
 21
-190.648972704300830
  0
LINE
  8
0
  6
CONTINUOUS
 62
3
 10
135.694296593443600
 20
-79.048972704301377
 11
135.294296593443960
 21
-78.648972704300832
  0
LINE
  8
0
  6
CONTINUOUS
 62
3
 10
138.254104214579000
 20
-79.648972704300832
 11
137.694296593443600
 21
-79.798972704301377
  0
LINE
  8
0
  6
CONTINUOUS
 62
3
 10
137.694296593443600
 20
-79.798972704301377
 11
136.494296593444690
 21
-79.798972704301377
  0
LINE
  8
0
  6
CONTINUOUS
 62
3
 10
135.694296593443600
 20
-90.648972704300832
 11
135.694296593443600
 21
-79.048972704301377
  0
LINE
  8
0
  6
CONTINUOUS
 62
3
 10
133.694296593443600
 20
-78.648972704300832
 11
135.294296593443960
 21
-78.648972704300832
  0
LINE
  8
0
  6
DASHDOT
 62
4
 10
183.438993331921670
 20
-90.648972704300832
 11
115.807734230788350
 21
-90.648972704300832
  0
LINE
  8
0
  6
CONTINUOUS
 62
3
 10
63.194296593443596
 20
-30.640245171836796
 11
63.194296593443596
 21
-92.648972704300832
  0
LINE
  8
0
  6
CONTINUOUS
 62
3
 10
63.194296593443596
 20
-168.716066832934300
 11
63.194296593443596
 21
-92.648972704300832
  0
LINE
  8
0
  6
CONTINUOUS
 62
3
 10
65.194296593443596
 20
-166.449198976317350
 11
65.194296593443596
 21
-149.274478635847120
  0
LINE
  8
0
  6
CONTINUOUS
 62
3
 10
133.694296593443600
 20
-90.648972704300832
 11
133.694296593443600
 21
-111.648972704300830
  0
LINE
  8
0
  6
CONTINUOUS
 62
3
 10
133.694296593443600
 20
-90.648972704300832
 11
133.694296593443600
 21
-69.648972704300832
  0
LINE
  8
0
  6
DASHDOT
 62
4
 10
121.694296593443590
 20
-174.694746911898620
 11
121.694296593443590
 21
-193.982590715775590
  0
LINE
  8
0
  6
CONTINUOUS
 62
3
 10
130.746653812755990
 20
-175.597521408179090
 11
65.194296593443596
 21
-174.453300756718820
  0
LINE
  8
0
  6
CONTINUOUS
 62
3
 10
131.694296593443600
 20
-52.697421867401317
 11
131.694296593443600
 21
-90.648972704300832
  0
LINE
  8
0
  6
CONTINUOUS
 62
3
 10
131.694296593443600
 20
-90.648972704300832
 11
131.694296593443600
 21
-175.132962878510630
  0
LINE
  8
0
  6
CONTINUOUS
 62
3
 10
128.695155825188070
 20
-90.648972704300832
 11
128.695155825188070
 21
-172.681130011402270
  0
LINE
  8
0
  6
CONTINUOUS
 62
3
 10
108.695155825188060
 20
-90.648972704300832
 11
108.695155825188060
 21
-172.264519289694360
  0
LINE
  8
0
  6
CONTINUOUS
 62
3
 10
133.694296593443600
 20
-178.597064493647850
 11
133.694296593443600
 21
-190.148972704300830
  0
LINE
  8
0
  6
CONTINUOUS
 62
3
 10
135.694296593443600
 20
-90.648972704300832
 11
135.694296593443600
 21
-102.248972704301190
  0
LINE
  8
0
  6
CONTINUOUS
 62
3
 10
171.694296593443600
 20
-87.648972704300832
 11
142.694296593444510
 21
-87.648972704300832
  0
LINE
  8
0
  6
CONTINUOUS
 62
3
 10
171.694296593443600
 20
-93.648972704300832
 11
142.694296593444510
 21
-93.648972704300832
  0
LINE
  8
0
  6
CONTINUOUS
 62
3
 10
133.694296593443600
 20
-102.648972704300830
 11
135.294296593443960
 21
-102.648972704300830
  0
LINE
  8
0
  6
CONTINUOUS
 62
3
 10
171.294296593443960
 20
-101.648972704300830
 11
138.254104214579000
 21
-101.648972704300830
  0
LINE
  8
0
  6
CONTINUOUS
 62
3
 10
135.694296593443600
 20
-102.248972704301190
 11
135.294296593443960
 21
-102.648972704300830
  0
LINE
  8
0
  6
CONTINUOUS
 62
3
 10
138.254104214579000
 20
-101.648972704300830
 11
137.694296593443600
 21
-101.498972704301190
  0
LINE
  8
0
  6
CONTINUOUS
 62
3
 10
137.694296593443600
 20
-101.498972704301190
 11
136.494296593444690
 21
-101.498972704301190
  0
LINE
  8
0
  6
CONTINUOUS
 62
3
 10
171.294296593443960
 20
-101.648972704300830
 11
138.254104214579000
 21
-101.648972704300830
  0
LINE
  8
0
  6
CONTINUOUS
 62
3
 10
135.694296593443600
 20
-102.248972704301190
 11
135.294296593443960
 21
-102.648972704300830
  0
LINE
  8
0
  6
CONTINUOUS
 62
3
 10
138.254104214579000
 20
-101.648972704300830
 11
137.694296593443600
 21
-101.498972704301190
  0
LINE
  8
0
  6
CONTINUOUS
 62
3
 10
137.694296593443600
 20
-101.498972704301190
 11
136.494296593444690
 21
-101.498972704301190
  0
LINE
  8
0
  6
CONTINUOUS
 62
3
 10
133.694296593443600
 20
-102.648972704300830
 11
135.294296593443960
 21
-102.648972704300830
  0
LINE
  8
0
  6
DASHDOT
 62
4
 10
173.694296593443600
 20
-90.648972704300832
 11
171.694296593443600
 21
-90.648972704300832
  0
LINE
  8
0
  6
DASHDOT
 62
4
 10
173.694296593443600
 20
-90.648972704300832
 11
171.694296593443600
 21
-90.648972704300832
  0
LINE
  8
0
  6
CONTINUOUS
 62
3
 10
171.694296593443600
 20
-90.648972704300832
 11
171.694296593443600
 21
-101.248972704301190
  0
LINE
  8
0
  6
CONTINUOUS
 62
3
 10
62.694296593443596
 20
-30.648972704300832
 11
62.694296593443596
 21
-90.648972704300832
  0
LINE
  8
0
  6
CONTINUOUS
 62
3
 10
62.694296593443596
 20
-168.982840365092670
 11
62.694296593445415
 21
-90.648972704300832
  0
ARC
  8
0
  6
CONTINUOUS
 62
3
 10
-166.205703406504990
 20
-158.092177761546280
 40
2.600000000000136
 50
180.000000000000000
 51
234.999999999998610
  0
ARC
  8
0
  6
CONTINUOUS
 62
3
 10
-146.499727628975620
 20
-150.648972704300830
 40
20.000000000000007
 50
234.999999999999740
 51
270.000000000000000
  0
ARC
  8
0
  6
CONTINUOUS
 62
3
 10
-166.205703406504990
 20
-63.205767647055382
 40
2.599999999999721
 50
125.000000000001370
 51
180.000000000000000
  0
ARC
  8
0
  6
CONTINUOUS
 62
3
 10
-146.499727628975620
 20
-70.648972704300832
 40
20.000000000000000
 50
90.000000000000000
 51
125.000000000000240
  0
ARC
  8
0
  6
CONTINUOUS
 62
4
 10
-74.855703406554653
 20
-85.648972704300604
 40
5.000000000000000
 50
90.000000000000000
 51
180.000000000000000
  0
ARC
  8
0
  6
CONTINUOUS
 62
3
 10
-74.855703406554653
 20
-79.147183267193441
 40
5.000000000000000
 50
90.000000000000000
 51
180.000000000000000
  0
ARC
  8
0
  6
CONTINUOUS
 62
3
 10
-75.255703406554289
 20
-79.052365063694879
 40
11.000000000000000
 50
90.000000000000000
 51
180.000000000000000
  0
ARC
  8
0
  6
CONTINUOUS
 62
3
 10
-74.855703406554653
 20
-155.224927473853540
 40
5.000000000000000
 50
180.000000000000000
 51
270.000000000000000
  0
ARC
  8
0
  6
CONTINUOUS
 62
3
 10
-75.255703406554289
 20
-160.655084431950630
 40
11.000000000000000
 50
180.000000000000000
 51
270.000000000000000
  0
ARC
  8
0
  6
CONTINUOUS
 62
3
 10
-75.255703406554289
 20
-159.434874502723460
 40
11.000000000000000
 50
180.000000000000000
 51
270.000000000000000
  0
ARC
  8
0
  6
CONTINUOUS
 62
3
 10
-49.065921587168646
 20
-156.224927486703790
 40
3.999999987149749
 50
270.000000000000000
 51
318.821565628880590
  0
ARC
  8
0
  6
CONTINUOUS
 62
3
 10
-48.293177622275721
 20
-156.224927480077210
 40
3.999999993776328
 50
270.000000000000000
 51
313.301579148531630
  0
ARC
  8
0
  6
CONTINUOUS
 62
3
 10
-31.318229190835268
 20
-156.224927480077210
 40
3.999999999999828
 50
226.698420851470790
 51
270.000000000000000
  0
ARC
  8
0
  6
CONTINUOUS
 62
3
 10
-30.545485225942116
 20
-156.224927486703790
 40
4.000000000000156
 50
221.178434371117250
 51
270.000000000000000
  0
ARC
  8
0
  6
CONTINUOUS
 62
3
 10
-4.355703406556586
 20
-159.434874502723460
 40
11.000000000000000
 50
270.000000000000000
 51
0.000000000000000
  0
ARC
  8
0
  6
CONTINUOUS
 62
3
 10
-4.355703406556586
 20
-160.655084431950630
 40
11.000000000000000
 50
270.000000000000000
 51
0.000000000000000
  0
ARC
  8
0
  6
CONTINUOUS
 62
3
 10
-4.755703406556222
 20
-155.224927473853540
 40
5.000000000000000
 50
270.000000000000000
 51
0.000000000000000
  0
ARC
  8
0
  6
CONTINUOUS
 62
3
 10
-4.755703406556222
 20
-79.147183267193441
 40
5.000000000000000
 50
0.000000000000000
 51
90.000000000000000
  0
ARC
  8
0
  6
CONTINUOUS
 62
4
 10
-4.755703406556222
 20
-85.648972704300604
 40
5.000000000000000
 50
0.000000000000000
 51
90.000000000000000
  0
ARC
  8
0
  6
CONTINUOUS
 62
3
 10
-4.355703406556586
 20
-79.052365063694879
 40
11.000000000000000
 50
0.000000000000000
 51
90.000000000000000
  0
ARC
  8
0
  6
CONTINUOUS
 62
3
 10
53.194296593443596
 20
-79.648972704300832
 40
0.500000000000000
 50
270.000000000000000
 51
0.000000000000000
  0
ARC
  8
0
  6
CONTINUOUS
 62
3
 10
53.194296593443596
 20
-80.648972704300832
 40
0.500000000000000
 50
90.000000000000000
 51
180.000000000000000
  0
ARC
  8
0
  6
CONTINUOUS
 62
3
 10
53.194296593443596
 20
-96.648972704300832
 40
0.500000000000000
 50
0.000000000000000
 51
90.000000000000000
  0
ARC
  8
0
  6
CONTINUOUS
 62
3
 10
53.194296593443596
 20
-95.648972704300832
 40
0.500000000000000
 50
180.000000000000000
 51
270.000000000000000
  0
ARC
  8
0
  6
CONTINUOUS
 62
3
 10
56.544296593443960
 20
-110.998972704301190
 40
0.399999999999636
 50
270.000000000000000
 51
0.000000000000000
  0
ARC
  8
0
  6
CONTINUOUS
 62
3
 10
54.694296593443596
 20
-112.398972704300830
 40
1.000000000000000
 50
90.000000000000000
 51
180.000000000000000
  0
ARC
  8
0
  6
CONTINUOUS
 62
3
 10
56.544296593443960
 20
-99.298972704300468
 40
0.399999999999636
 50
0.000000000000000
 51
90.000000000000000
  0
ARC
  8
0
  6
CONTINUOUS
 62
3
 10
54.694296593443596
 20
-97.898972704300832
 40
1.000000000000000
 50
180.000000000000000
 51
270.000000000000000
  0
ARC
  8
0
  6
CONTINUOUS
 62
3
 10
52.694296593444506
 20
-170.533136460766400
 40
1.000000000000000
 50
0.000000000000000
 51
89.000000000024741
  0
ARC
  8
0
  6
CONTINUOUS
 62
3
 10
52.694296593444506
 20
-50.764808947836173
 40
0.999999999999551
 50
270.999999999976180
 51
0.000000000000000
  0
ARC
  8
0
  6
CONTINUOUS
 62
3
 10
54.694296593444506
 20
-37.259321831794296
 40
1.000000000000000
 50
90.000000000000000
 51
180.000000000000000
  0
ARC
  8
0
  6
CONTINUOUS
 62
3
 10
54.694296593444506
 20
-45.389956176937631
 40
1.000000000000000
 50
90.000000000000000
 51
180.000000000000000
  0
ARC
  8
0
  6
CONTINUOUS
 62
3
 10
56.544296593444869
 20
-43.989956176937994
 40
0.399999999999636
 50
270.000000000000000
 51
0.000000000000000
  0
ARC
  8
0
  6
CONTINUOUS
 62
3
 10
56.544296593443960
 20
-36.659321831794841
 40
0.400000000000546
 50
0.000000000000000
 51
90.000000000000000
  0
ARC
  8
0
  6
CONTINUOUS
 62
3
 10
27.694296593443596
 20
-178.561711517537330
 40
2.999999999999768
 50
91.691038599313430
 51
180.000000000000000
  0
ARC
  8
0
  6
CONTINUOUS
 62
3
 10
50.902678651342740
 20
-171.873921716722180
 40
2.999999999999795
 50
271.691038599330800
 51
298.082020081932910
  0
ARC
  8
0
  6
CONTINUOUS
 62
3
 10
171.294296593443960
 20
-80.048972704301377
 40
0.399999999999636
 50
0.000000000000000
 51
90.000000000000000
  0
ARC
  8
0
  6
CONTINUOUS
 62
3
 10
131.695155825188070
 20
-172.681130011402270
 40
3.000000000000000
 50
180.000000000000000
 51
260.397610222573580
  0
ARC
  8
0
  6
CONTINUOUS
 62
3
 10
111.695155825188060
 20
-172.264519289694360
 40
3.000000000000000
 50
180.000000000000000
 51
268.999999999989650
  0
ARC
  8
0
  6
CONTINUOUS
 62
3
 10
136.494296593444690
 20
-78.998972704301195
 40
0.800000000000237
 50
183.703196634280290
 51
270.000000000000000
  0
ARC
  8
0
  6
CONTINUOUS
 62
3
 10
132.694296593443600
 20
-175.132962878510630
 40
1.000000000000000
 50
180.000000000000000
 51
240.000000000015750
  0
ARC
  8
0
  6
CONTINUOUS
 62
3
 10
63.194296593443596
 20
-149.274478635847120
 40
2.000000000000000
 50
0.000000000000000
 51
88.499999999984155
  0
ARC
  8
0
  6
CONTINUOUS
 62
3
 10
132.694296593443600
 20
-111.648972704300830
 40
1.000000000000000
 50
270.000000000000000
 51
0.000000000000000
  0
ARC
  8
0
  6
CONTINUOUS
 62
3
 10
132.694296593443600
 20
-113.648972704300830
 40
1.000000000000000
 50
90.000000000000000
 51
180.000000000000000
  0
ARC
  8
0
  6
CONTINUOUS
 62
3
 10
132.694296593443600
 20
-69.648972704300832
 40
1.000000000000000
 50
0.000000000000000
 51
90.000000000000000
  0
ARC
  8
0
  6
CONTINUOUS
 62
3
 10
132.694296593443600
 20
-67.648972704300832
 40
1.000000000000000
 50
180.000000000000000
 51
270.000000000000000
  0
ARC
  8
0
  6
CONTINUOUS
 62
3
 10
129.694296593443600
 20
-52.697421867401317
 40
2.000000000000000
 50
0.000000000000000
 51
43.446738789867872
  0
ARC
  8
0
  6
CONTINUOUS
 62
3
 10
83.955418338459367
 20
-96.021260755196636
 40
64.999999999999659
 50
43.446738789854834
 51
89.000000000000213
  0
ARC
  8
0
  6
CONTINUOUS
 62
3
 10
63.194296593443596
 20
-166.449198976317350
 40
2.000000000000912
 50
298.082020081940070
 51
0.000000000000000
  0
ARC
  8
0
  6
CONTINUOUS
 62
3
 10
130.694296593443600
 20
-178.597064493647850
 40
3.000000000000000
 50
0.000000000000000
 51
88.999999999989399
  0
ARC
  8
0
  6
CONTINUOUS
 62
3
 10
118.695155825188060
 20
-90.648972704300832
 40
10.000000000000000
 50
0.000000000000000
 51
180.000000000000000
  0
ARC
  8
0
  6
CONTINUOUS
 62
3
 10
142.694296593444510
 20
-90.648972704300832
 40
3.000000000000000
 50
90.000000000000000
 51
270.000000000000000
  0
ARC
  8
0
  6
CONTINUOUS
 62
3
 10
136.494296593444690
 20
-102.298972704301370
 40
0.800000000000182
 50
90.000000000000000
 51
176.296803365719710
  0
ARC
  8
0
  6
CONTINUOUS
 62
3
 10
171.294296593443960
 20
-101.248972704301190
 40
0.399999999999636
 50
270.000000000000000
 51
0.000000000000000
  0
POLYLINE
  8
0
  6
CONTINUOUS
 62
3
 66
1
 70
1
  0
VERTEX
  8
0
  6
CONTINUOUS
 62
3
 10
-72.105703406554710
 20
-58.725447672240762
  0
VERTEX
  8
0
  6
CONTINUOUS
 62
3
 10
-72.196012588659528
 20
-58.022490706040401
  0
VERTEX
  8
0
  6
CONTINUOUS
 62
3
 10
-72.463469603751662
 20
-57.346547981828309
  0
VERTEX
  8
0
  6
CONTINUOUS
 62
3
 10
-72.897796228732744
 20
-56.723595599422907
  0
VERTEX
  8
0
  6
CONTINUOUS
 62
3
 10
-73.482301534977935
 20
-56.177573269524324
  0
VERTEX
  8
0
  6
CONTINUOUS
 62
3
 10
-74.194523311362573
 20
-55.729464324057709
  0
VERTEX
  8
0
  6
CONTINUOUS
 62
3
 10
-75.007091274438778
 20
-55.396489338494952
  0
VERTEX
  8
0
  6
CONTINUOUS
 62
3
 10
-75.888778893078893
 20
-55.191444354796701
  0
VERTEX
  8
0
  6
CONTINUOUS
 62
3
 10
-76.805703406554699
 20
-55.122209136695929
  0
VERTEX
  8
0
  6
CONTINUOUS
 62
3
 10
-77.722627920030504
 20
-55.191444354796701
  0
VERTEX
  8
0
  6
CONTINUOUS
 62
3
 10
-78.604315538670619
 20
-55.396489338494952
  0
VERTEX
  8
0
  6
CONTINUOUS
 62
3
 10
-79.416883501746824
 20
-55.729464324057709
  0
VERTEX
  8
0
  6
CONTINUOUS
 62
3
 10
-80.129105278131462
 20
-56.177573269524324
  0
VERTEX
  8
0
  6
CONTINUOUS
 62
3
 10
-80.713610584376653
 20
-56.723595599422907
  0
VERTEX
  8
0
  6
CONTINUOUS
 62
3
 10
-81.147937209357735
 20
-57.346547981828309
  0
VERTEX
  8
0
  6
CONTINUOUS
 62
3
 10
-81.415394224449869
 20
-58.022490706040401
  0
VERTEX
  8
0
  6
CONTINUOUS
 62
3
 10
-81.505703406554687
 20
-58.725447672240762
  0
VERTEX
  8
0
  6
CONTINUOUS
 62
3
 10
-81.415394224449869
 20
-59.428404638441123
  0
VERTEX
  8
0
  6
CONTINUOUS
 62
3
 10
-81.147937209357735
 20
-60.104347362653215
  0
VERTEX
  8
0
  6
CONTINUOUS
 62
3
 10
-80.713610584376653
 20
-60.727299745058616
  0
VERTEX
  8
0
  6
CONTINUOUS
 62
3
 10
-80.129105278131462
 20
-61.273322074957193
  0
VERTEX
  8
0
  6
CONTINUOUS
 62
3
 10
-79.416883501746824
 20
-61.721431020423815
  0
VERTEX
  8
0
  6
CONTINUOUS
 62
3
 10
-78.604315538670619
 20
-62.054406005986571
  0
VERTEX
  8
0
  6
CONTINUOUS
 62
3
 10
-77.722627920030504
 20
-62.259450989684822
  0
VERTEX
  8
0
  6
CONTINUOUS
 62
3
 10
-76.805703406554699
 20
-62.328686207785594
  0
VERTEX
  8
0
  6
CONTINUOUS
 62
3
 10
-75.888778893078893
 20
-62.259450989684822
  0
VERTEX
  8
0
  6
CONTINUOUS
 62
3
 10
-75.007091274438778
 20
-62.054406005986571
  0
VERTEX
  8
0
  6
CONTINUOUS
 62
3
 10
-74.194523311362573
 20
-61.721431020423815
  0
VERTEX
  8
0
  6
CONTINUOUS
 62
3
 10
-73.482301534977935
 20
-61.273322074957193
  0
VERTEX
  8
0
  6
CONTINUOUS
 62
3
 10
-72.897796228732744
 20
-60.727299745058616
  0
VERTEX
  8
0
  6
CONTINUOUS
 62
3
 10
-72.463469603751662
 20
-60.104347362653215
  0
VERTEX
  8
0
  6
CONTINUOUS
 62
3
 10
-72.196012588659528
 20
-59.428404638441123
  0
SEQEND
  8
0
  6
CONTINUOUS
 62
3
  0
POLYLINE
  8
0
  6
CONTINUOUS
 62
3
 66
1
  0
VERTEX
  8
0
  6
CONTINUOUS
 62
3
 10
-39.805703406555381
 20
-156.112697690866240
  0
VERTEX
  8
0
  6
CONTINUOUS
 62
3
 10
-41.232554693970265
 20
-156.229880359517240
  0
VERTEX
  8
0
  6
CONTINUOUS
 62
3
 10
-42.613649571501931
 20
-156.577670539924410
  0
VERTEX
  8
0
  6
CONTINUOUS
 62
3
 10
-43.904698950398561
 20
-157.144915261775760
  0
VERTEX
  8
0
  6
CONTINUOUS
 62
3
 10
-45.064301329970263
 20
-157.913424064561530
  0
VERTEX
  8
0
  6
CONTINUOUS
 62
3
 10
-46.055270465056651
 20
-158.858552331082050
  0
SEQEND
  8
0
  6
CONTINUOUS
 62
3
  0
POLYLINE
  8
0
  6
CONTINUOUS
 62
3
 66
1
  0
VERTEX
  8
0
  6
CONTINUOUS
 62
3
 10
-39.805703406555381
 20
-156.914401729612960
  0
VERTEX
  8
0
  6
CONTINUOUS
 62
3
 10
-41.081743796475102
 20
-157.007969885531790
  0
VERTEX
  8
0
  6
CONTINUOUS
 62
3
 10
-42.325110183923492
 20
-157.286278468187870
  0
VERTEX
  8
0
  6
CONTINUOUS
 62
3
 10
-43.503965209568378
 20
-157.742201170773600
  0
VERTEX
  8
0
  6
CONTINUOUS
 62
3
 10
-44.588123377460299
 20
-158.364063739379160
  0
VERTEX
  8
0
  6
CONTINUOUS
 62
3
 10
-45.549823978034851
 20
-159.135942901305780
  0
SEQEND
  8
0
  6
CONTINUOUS
 62
3
  0
POLYLINE
  8
0
  6
CONTINUOUS
 62
3
 66
1
 70
1
  0
VERTEX
  8
0
  6
CONTINUOUS
 62
3
 10
-36.305703406555381
 20
-163.967467238319160
  0
VERTEX
  8
0
  6
CONTINUOUS
 62
3
 10
-36.372954925144072
 20
-163.293877468273020
  0
VERTEX
  8
0
  6
CONTINUOUS
 62
3
 10
-36.572125042765876
 20
-162.646173375336280
  0
VERTEX
  8
0
  6
CONTINUOUS
 62
3
 10
-36.895559763496472
 20
-162.049245864563800
  0
VERTEX
  8
0
  6
CONTINUOUS
 62
3
 10
-37.330829672402466
 20
-161.526034525433830
  0
VERTEX
  8
0
  6
CONTINUOUS
 62
3
 10
-37.861207590986773
 20
-161.096646076288780
  0
VERTEX
  8
0
  6
CONTINUOUS
 62
3
 10
-38.466311393277564
 20
-160.777581674425510
  0
VERTEX
  8
0
  6
CONTINUOUS
 62
3
 10
-39.122887279498933
 20
-160.581102785874240
  0
VERTEX
  8
0
  6
CONTINUOUS
 62
3
 10
-39.805703406555381
 20
-160.514759984135370
  0
VERTEX
  8
0
  6
CONTINUOUS
 62
3
 10
-40.488519533611829
 20
-160.581102785874240
  0
VERTEX
  8
0
  6
CONTINUOUS
 62
3
 10
-41.145095419833197
 20
-160.777581674425510
  0
VERTEX
  8
0
  6
CONTINUOUS
 62
3
 10
-41.750199222123989
 20
-161.096646076288780
  0
VERTEX
  8
0
  6
CONTINUOUS
 62
3
 10
-42.280577140708296
 20
-161.526034525433830
  0
VERTEX
  8
0
  6
CONTINUOUS
 62
3
 10
-42.715847049614290
 20
-162.049245864563800
  0
VERTEX
  8
0
  6
CONTINUOUS
 62
3
 10
-43.039281770344886
 20
-162.646173375336280
  0
VERTEX
  8
0
  6
CONTINUOUS
 62
3
 10
-43.238451887966683
 20
-163.293877468273020
  0
VERTEX
  8
0
  6
CONTINUOUS
 62
3
 10
-43.305703406555381
 20
-163.967467238319160
  0
VERTEX
  8
0
  6
CONTINUOUS
 62
3
 10
-43.238451887966683
 20
-164.641057008365290
  0
VERTEX
  8
0
  6
CONTINUOUS
 62
3
 10
-43.039281770344886
 20
-165.288761101302040
  0
VERTEX
  8
0
  6
CONTINUOUS
 62
3
 10
-42.715847049614290
 20
-165.885688612074520
  0
VERTEX
  8
0
  6
CONTINUOUS
 62
3
 10
-42.280577140708296
 20
-166.408899951204490
  0
VERTEX
  8
0
  6
CONTINUOUS
 62
3
 10
-41.750199222123989
 20
-166.838288400349540
  0
VERTEX
  8
0
  6
CONTINUOUS
 62
3
 10
-41.145095419833197
 20
-167.157352802212810
  0
VERTEX
  8
0
  6
CONTINUOUS
 62
3
 10
-40.488519533611829
 20
-167.353831690764080
  0
VERTEX
  8
0
  6
CONTINUOUS
 62
3
 10
-39.805703406555381
 20
-167.420174492502950
  0
VERTEX
  8
0
  6
CONTINUOUS
 62
3
 10
-39.122887279498933
 20
-167.353831690764080
  0
VERTEX
  8
0
  6
CONTINUOUS
 62
3
 10
-38.466311393277572
 20
-167.157352802212810
  0
VERTEX
  8
0
  6
CONTINUOUS
 62
3
 10
-37.861207590986773
 20
-166.838288400349540
  0
VERTEX
  8
0
  6
CONTINUOUS
 62
3
 10
-37.330829672402466
 20
-166.408899951204490
  0
VERTEX
  8
0
  6
CONTINUOUS
 62
3
 10
-36.895559763496479
 20
-165.885688612074520
  0
VERTEX
  8
0
  6
CONTINUOUS
 62
3
 10
-36.572125042765883
 20
-165.288761101302040
  0
VERTEX
  8
0
  6
CONTINUOUS
 62
3
 10
-36.372954925144079
 20
-164.641057008365290
  0
SEQEND
  8
0
  6
CONTINUOUS
 62
3
  0
POLYLINE
  8
0
  6
CONTINUOUS
 62
3
 66
1
  0
VERTEX
  8
0
  6
CONTINUOUS
 62
3
 10
-34.061582835075910
 20
-159.135942901305780
  0
VERTEX
  8
0
  6
CONTINUOUS
 62
3
 10
-35.023283435650463
 20
-158.364063739379160
  0
VERTEX
  8
0
  6
CONTINUOUS
 62
3
 10
-36.107441603542384
 20
-157.742201170773600
  0
VERTEX
  8
0
  6
CONTINUOUS
 62
3
 10
-37.286296629187270
 20
-157.286278468187870
  0
VERTEX
  8
0
  6
CONTINUOUS
 62
3
 10
-38.529663016635659
 20
-157.007969885531790
  0
VERTEX
  8
0
  6
CONTINUOUS
 62
3
 10
-39.805703406555381
 20
-156.914401729612960
  0
SEQEND
  8
0
  6
CONTINUOUS
 62
3
  0
POLYLINE
  8
0
  6
CONTINUOUS
 62
3
 66
1
  0
VERTEX
  8
0
  6
CONTINUOUS
 62
3
 10
-33.556136348054338
 20
-158.858552331081770
  0
VERTEX
  8
0
  6
CONTINUOUS
 62
3
 10
-34.547105483140712
 20
-157.913424064561350
  0
VERTEX
  8
0
  6
CONTINUOUS
 62
3
 10
-35.706707862712385
 20
-157.144915261775680
  0
VERTEX
  8
0
  6
CONTINUOUS
 62
3
 10
-36.997757241608966
 20
-156.577670539924360
  0
VERTEX
  8
0
  6
CONTINUOUS
 62
3
 10
-38.378852119140568
 20
-156.229880359517240
  0
VERTEX
  8
0
  6
CONTINUOUS
 62
3
 10
-39.805703406555381
 20
-156.112697690866240
  0
SEQEND
  8
0
  6
CONTINUOUS
 62
3
  0
LINE
  8
0
  6
CONTINUOUS
 62
4
 10
31.194296593444619
 20
-53.148972704300832
 11
53.694296593444506
 21
-53.148972704300832
  0
LINE
  8
0
  6
CONTINUOUS
 62
4
 10
31.194296593444619
 20
-53.648972704300832
 11
53.694296593444506
 21
-53.648972704300832
  0
LINE
  8
0
  6
CONTINUOUS
 62
4
 10
31.194296593444619
 20
-54.648972704300832
 11
53.694296593444506
 21
-54.648972704300832
  0
LINE
  8
0
  6
CONTINUOUS
 62
4
 10
31.194296593444619
 20
-55.648972704300832
 11
53.694296593444506
 21
-55.648972704300832
  0
LINE
  8
0
  6
CONTINUOUS
 62
4
 10
31.194296593444619
 20
-60.333438517525337
 11
53.694296593444506
 21
-60.333438517525337
  0
LINE
  8
0
  6
CONTINUOUS
 62
4
 10
31.194296593444619
 20
-65.283185985831096
 11
53.694296593444506
 21
-65.283185985831096
  0
LINE
  8
0
  6
CONTINUOUS
 62
4
 10
31.194296593444619
 20
-73.329787648564889
 11
53.694296593444506
 21
-73.329787648564889
  0
LINE
  8
0
  6
CONTINUOUS
 62
4
 10
31.194296593444619
 20
-74.934435564126943
 11
53.694296593444506
 21
-74.934435564126943
  0
LINE
  8
0
  6
CONTINUOUS
 62
4
 10
31.194296593444619
 20
-78.898180987926480
 11
53.694296593444506
 21
-78.898180987926480
  0
LINE
  8
0
  6
CONTINUOUS
 62
4
 10
31.194296593444619
 20
-80.366538377731558
 11
52.781706177685635
 21
-80.366538377731558
  0
LINE
  8
0
  6
CONTINUOUS
 62
4
 10
31.194296593444619
 20
-84.457038911821201
 11
52.694296593443653
 21
-84.457038911821201
  0
LINE
  8
0
  6
CONTINUOUS
 62
4
 10
31.194296593444619
 20
-85.818919247170470
 11
52.694296593443653
 21
-85.818919247170470
  0
LINE
  8
0
  6
CONTINUOUS
 62
4
 10
31.194296593444619
 20
-90.648972704300832
 11
52.694296593443653
 21
-90.648972704300832
  0
LINE
  8
0
  6
CONTINUOUS
 62
4
 10
31.194296593444619
 20
-130.648972704300830
 11
53.694296593444506
 21
-130.648972704300830
  0
LINE
  8
0
  6
CONTINUOUS
 62
4
 10
31.194296593444619
 20
-135.479026161431190
 11
53.694296593444506
 21
-135.479026161431190
  0
LINE
  8
0
  6
CONTINUOUS
 62
4
 10
31.194296593444619
 20
-136.840906496780460
 11
53.694296593444506
 21
-136.840906496780460
  0
LINE
  8
0
  6
CONTINUOUS
 62
4
 10
31.194296593444619
 20
-140.931407030870100
 11
53.694296593444506
 21
-140.931407030870100
  0
LINE
  8
0
  6
CONTINUOUS
 62
4
 10
31.194296593444619
 20
-142.399764420675180
 11
53.694296593444506
 21
-142.399764420675180
  0
LINE
  8
0
  6
CONTINUOUS
 62
4
 10
31.194296593444619
 20
-146.363509844474720
 11
53.694296593444506
 21
-146.363509844474720
  0
LINE
  8
0
  6
CONTINUOUS
 62
4
 10
31.194296593444619
 20
-147.968157760036770
 11
53.694296593444506
 21
-147.968157760036770
  0
LINE
  8
0
  6
CONTINUOUS
 62
4
 10
31.194296593444619
 20
-156.014759422770570
 11
53.694296593444506
 21
-156.014759422770570
  0
LINE
  8
0
  6
CONTINUOUS
 62
4
 10
31.194296593444619
 20
-160.964506891076330
 11
53.694296593444506
 21
-160.964506891076330
  0
LINE
  8
0
  6
CONTINUOUS
 62
4
 10
31.194296593444619
 20
-165.648972704300830
 11
53.694296593444506
 21
-165.648972704300830
  0
LINE
  8
0
  6
CONTINUOUS
 62
4
 10
31.194296593444619
 20
-166.648972704300830
 11
53.694296593444506
 21
-166.648972704300830
  0
LINE
  8
0
  6
CONTINUOUS
 62
4
 10
31.194296593444619
 20
-167.648972704300830
 11
53.694296593444506
 21
-167.648972704300830
  0
LINE
  8
0
  6
CONTINUOUS
 62
4
 10
31.194296593444619
 20
-168.148972704300830
 11
53.694296593444506
 21
-168.148972704300830
  0
LINE
  8
0
  6
CONTINUOUS
 62
3
 10
31.194296593444619
 20
-169.148972704300830
 11
2.633850371534777
 21
-169.148972704300830
  0
POINT
  8
0
  6
CONTINUOUS
 62
4
 10
-53.305703406555381
 20
-171.655084431950630
  0
POINT
  8
0
  6
CONTINUOUS
 62
4
 10
-26.305703406555381
 20
-171.655084431950630
  0
ARC
  8
0
  6
CONTINUOUS
 62
3
 10
-233.119827132528030
 20
-172.732892921201260
 40
3.000000000000000
 50
180.000000000000000
 51
260.405931773139460
  0
ARC
  8
0
  6
CONTINUOUS
 62
3
 10
-399.119827132528030
 20
-172.732892921201370
 40
3.000000000000092
 50
279.594068226860200
 51
0.000000000000000
  0
LINE
  8
0
  6
CONTINUOUS
 62
3
 10
-401.119827132528030
 20
-190.148972704252630
 11
-375.985852536284370
 21
-190.148972704252510
  0
LINE
  8
0
  6
CONTINUOUS
 62
3
 10
-231.119827132528030
 20
-190.148972704252510
 11
-256.253801728771460
 21
-190.148972704252510
  0
ARC
  8
0
  6
CONTINUOUS
 62
3
 10
-375.119827132528030
 20
-190.648972704300950
 40
1.000000000000000
 50
90.000000000000000
 51
180.000000000000000
  0
POINT
  8
0
  6
CONTINUOUS
 62
3
 10
-376.119827132528030
 20
-180.409344075720010
  0
POINT
  8
0
  6
CONTINUOUS
 62
3
 10
-316.119827132528030
 20
-110.648972704300940
  0
POINT
  8
0
  6
CONTINUOUS
 62
3
 10
-316.119827132528030
 20
-90.648972704300945
  0
POINT
  8
0
  6
CONTINUOUS
 62
3
 10
-256.119827132528030
 20
-180.409344075720010
  0
ARC
  8
0
  6
CONTINUOUS
 62
3
 10
-284.998944498233980
 20
-139.592722704300970
 40
45.999999999999929
 50
298.526485311172960
 51
329.454500991333190
  0
LINE
  8
0
  6
CONTINUOUS
 62
3
 10
-390.188460999424360
 20
-167.648972704300950
 11
-393.119827132528030
 21
-167.648972704300950
  0
ARC
  8
0
  6
CONTINUOUS
 62
3
 10
-393.119827132528030
 20
-170.648972704300950
 40
3.000000000000000
 50
90.000000000000000
 51
180.000000000000000
  0
POINT
  8
0
  6
CONTINUOUS
 62
3
 10
-376.119827132528030
 20
-180.409344075719900
  0
ARC
  8
0
  6
CONTINUOUS
 62
3
 10
-347.240709766822080
 20
-139.592722704300970
 40
49.999999999999908
 50
233.757622303339840
 51
241.416136725165470
  0
ARC
  8
0
  6
CONTINUOUS
 62
3
 10
-253.119827132528030
 20
-181.822104520138400
 40
2.999999999999976
 50
129.566618037904420
 51
180.000000000000000
  0
ARC
  8
0
  6
CONTINUOUS
 62
3
 10
-260.119827132528030
 20
-187.648972704300950
 40
2.000000000000000
 50
180.000000000000000
 51
270.000000000000000
  0
LINE
  8
0
  6
DASHDOT
 62
4
 10
-241.119827132528030
 20
-194.729476473221780
 11
-241.119827132528030
 21
-172.823674349198310
  0
ARC
  8
0
  6
CONTINUOUS
 62
3
 10
-249.279616363707080
 20
-178.648972704300950
 40
3.000000000000000
 50
90.000000000000000
 51
129.566618037903050
  0
ARC
  8
0
  6
CONTINUOUS
 62
3
 10
-234.119827132528030
 20
-178.648972704300950
 40
3.000000000000000
 50
0.000000000000000
 51
90.000000000000000
  0
ARC
  8
0
  6
CONTINUOUS
 62
3
 10
-239.119827132528030
 20
-170.648972704300830
 40
3.000000000000000
 50
0.000000000000000
 51
90.000000000000000
  0
ARC
  8
0
  6
CONTINUOUS
 62
3
 10
-242.051193265631470
 20
-170.648972704300950
 40
3.000000000000000
 50
90.000000000000000
 51
144.128667793850780
  0
ARC
  8
0
  6
CONTINUOUS
 62
3
 10
-347.240709766822080
 20
-139.592722704300970
 40
46.000000000000071
 50
210.545499008666410
 51
219.301285481804170
  0
ARC
  8
0
  6
CONTINUOUS
 62
3
 10
-260.165567220635350
 20
-185.279738069593120
 40
6.000000000000011
 50
118.526485311173740
 51
175.367233369122230
  0
ARC
  8
0
  6
CONTINUOUS
 62
3
 10
-274.119827132528030
 20
-184.148972704300950
 40
7.999999999999977
 50
316.567463442210060
 51
355.367233369122400
  0
LINE
  8
0
  6
CONTINUOUS
 62
3
 10
-262.119827132528030
 20
-187.648972704300950
 11
-262.119827132528030
 21
-185.254846166788180
  0
ARC
  8
0
  6
CONTINUOUS
 62
3
 10
-260.119827132528030
 20
-187.648972704300950
 40
2.000000000000000
 50
180.000000000000000
 51
270.000000000000000
  0
ARC
  8
0
  6
CONTINUOUS
 62
3
 10
-257.119827132528030
 20
-190.648972704300950
 40
1.000000000000000
 50
0.000000000000000
 51
90.000000000000000
  0
ARC
  8
0
  6
CONTINUOUS
 62
3
 10
-274.119827132528030
 20
-184.148972704300950
 40
7.999999999999973
 50
214.228866327812710
 51
223.432536557789920
  0
LINE
  8
0
  6
CONTINUOUS
 62
3
 10
-257.119827132528030
 20
-189.648972704300950
 11
-279.929302151839120
 21
-189.648972704300950
  0
LINE
  8
0
  6
CONTINUOUS
 62
3
 10
-280.734205410189470
 20
-188.648972704300950
 11
-316.119827132528030
 21
-188.648972704300950
  0
ARC
  8
0
  6
CONTINUOUS
 62
3
 10
-358.119827132528030
 20
-184.148972704300950
 40
7.999999999999977
 50
316.567463442210060
 51
325.771133672187320
  0
ARC
  8
0
  6
CONTINUOUS
 62
3
 10
-372.119827132528030
 20
-187.648972704300950
 40
2.000000000000000
 50
270.000000000000000
 51
0.000000000000000
  0
ARC
  8
0
  6
CONTINUOUS
 62
3
 10
-372.074087044420710
 20
-185.279738069593120
 40
6.000000000000056
 50
4.632766630877777
 51
61.473514688826256
  0
LINE
  8
0
  6
CONTINUOUS
 62
3
 10
-375.119827132528030
 20
-189.648972704300950
 11
-352.310352113216940
 21
-189.648972704300950
  0
ARC
  8
0
  6
CONTINUOUS
 62
3
 10
-358.119827132528030
 20
-184.148972704300950
 40
7.999999999999921
 50
184.632766630877600
 51
223.432536557789920
  0
LINE
  8
0
  6
CONTINUOUS
 62
3
 10
-241.946915773845720
 20
-157.148972704300830
 11
-245.382555454129150
 21
-162.970954440386780
  0
ARC
  8
0
  6
CONTINUOUS
 62
3
 10
-284.998944498233980
 20
-139.592722704300970
 40
46.000000000000050
 50
298.241217900780500
 51
300.661052610439700
  0
ARC
  8
0
  6
CONTINUOUS
 62
3
 10
-398.119827132528030
 20
-178.648972704301060
 40
3.000000000000000
 50
90.000000000000000
 51
180.000000000000000
  0
ARC
  8
0
  6
CONTINUOUS
 62
3
 10
-234.119827132528030
 20
-178.648972704300830
 40
3.000000000000000
 50
0.000000000000000
 51
90.000000000000000
  0
ARC
  8
0
  6
CONTINUOUS
 62
3
 10
-284.998944498233980
 20
-139.592722704300970
 40
50.000000000000021
 50
298.583863274834530
 51
306.242377696660130
  0
ARC
  8
0
  6
CONTINUOUS
 62
3
 10
-253.119827132528030
 20
-181.822104520138510
 40
3.000000000000121
 50
129.566618037907770
 51
180.000000000000000
  0
ARC
  8
0
  6
CONTINUOUS
 62
3
 10
-249.279616363707310
 20
-178.648972704301060
 40
3.000000000000000
 50
90.000000000000000
 51
129.566618037898310
  0
ARC
  8
0
  6
CONTINUOUS
 62
3
 10
-379.119827132528030
 20
-181.822104520138400
 40
3.000000000000000
 50
0.000000000000000
 51
50.433381962095574
  0
ARC
  8
0
  6
CONTINUOUS
 62
3
 10
-382.960037901348980
 20
-178.648972704300950
 40
3.000000000000064
 50
50.433381962096959
 51
90.000000000000000
  0
ARC
  8
0
  6
CONTINUOUS
 62
3
 10
-347.240709766822080
 20
-139.592722704300970
 40
49.999999999999993
 50
215.871332206148790
 51
226.822259083042980
  0
ARC
  8
0
  6
CONTINUOUS
 62
3
 10
-242.051193265631700
 20
-170.648972704300950
 40
3.000000000000000
 50
90.000000000000000
 51
144.128667793850780
  0
ARC
  8
0
  6
CONTINUOUS
 62
3
 10
-284.998944498233980
 20
-139.592722704300970
 40
49.999999999999972
 50
313.177740916957020
 51
324.128667793851090
  0
ARC
  8
0
  6
CONTINUOUS
 62
3
 10
-260.119827132528030
 20
-185.254846166788180
 40
1.999999999999946
 50
118.583863274835990
 51
180.000000000000000
  0
ARC
  8
0
  6
CONTINUOUS
 62
3
 10
-347.240709766822080
 20
-139.592722704300970
 40
50.000000000000043
 50
233.757622303339640
 51
241.416136725165470
  0
ARC
  8
0
  6
CONTINUOUS
 62
3
 10
-372.119827132528030
 20
-185.254846166788180
 40
2.000000000000000
 50
0.000000000000000
 51
61.416136725164009
  0
ARC
  8
0
  6
CONTINUOUS
 62
3
 10
-390.188460999424590
 20
-170.648972704300950
 40
3.000000000000094
 50
35.871332206149205
 51
90.000000000000000
  0
LINE
  8
0
  6
CONTINUOUS
 62
3
 10
-382.960037901348980
 20
-175.648972704300950
 11
-398.119827132528030
 21
-175.648972704301060
  0
LINE
  8
0
  6
CONTINUOUS
 62
3
 10
-242.051193265631700
 20
-167.648972704300950
 11
-239.119827132528030
 21
-167.648972704300830
  0
LINE
  8
0
  6
CONTINUOUS
 62
3
 10
-249.279616363707310
 20
-175.648972704300950
 11
-234.119827132528030
 21
-175.648972704300830
  0
LINE
  8
0
  6
CONTINUOUS
 62
3
 10
-251.190541247287570
 20
-176.336319230623300
 11
-255.030752016108750
 21
-179.509451046460980
  0
LINE
  8
0
  6
CONTINUOUS
 62
3
 10
-381.049113017768490
 20
-176.336319230623300
 11
-377.208902248947540
 21
-179.509451046460870
  0
LINE
  8
0
  6
CONTINUOUS
 62
3
 10
-370.119827132528030
 20
-187.648972704300950
 11
-370.119827132528030
 21
-185.254846166788180
  0
LINE
  8
0
  6
DASHDOT
 62
4
 10
-391.119827132528030
 20
-194.729476473221890
 11
-391.119827132528030
 21
-172.823674349198430
  0
POINT
  8
0
  6
CONTINUOUS
 62
3
 10
-256.119827132528030
 20
-180.409344075719900
  0
ARC
  8
0
  6
CONTINUOUS
 62
3
 10
-239.119827132528030
 20
-170.648972704300830
 40
3.000000000000000
 50
0.000000000000000
 51
90.000000000000000
  0
LINE
  8
0
  6
CONTINUOUS
 62
3
 10
-390.188460999424590
 20
-167.648972704300950
 11
-393.119827132528030
 21
-167.648972704300950
  0
ARC
  8
0
  6
CONTINUOUS
 62
3
 10
-393.119827132528030
 20
-170.648972704300950
 40
3.000000000000000
 50
90.000000000000000
 51
180.000000000000000
  0
LINE
  8
0
  6
CONTINUOUS
 62
3
 10
-395.287182225237420
 20
-148.685465786423380
 11
-386.857098810927140
 21
-162.970954440386550
  0
ARC
  8
0
  6
CONTINUOUS
 62
3
 10
-390.119827132528030
 20
-145.636131212151440
 40
6.000000000000000
 50
180.000000000000000
 51
210.545499008666440
  0
LINE
  8
0
  6
CONTINUOUS
 62
3
 10
-236.119827132528030
 20
-157.148972704300830
 11
-236.119827132528030
 21
-172.732892921201260
  0
LINE
  8
0
  6
CONTINUOUS
 62
3
 10
-396.119827132528030
 20
-95.941291470874035
 11
-396.119827132528030
 21
-172.732892921201370
  0
LINE
  8
0
  6
CONTINUOUS
 62
3
 10
-401.119827132528030
 20
-190.648972704252630
 11
-376.119827132528030
 21
-190.648972704252510
  0
LINE
  8
0
  6
CONTINUOUS
 62
3
 10
-231.119827132528030
 20
-190.648972704252510
 11
-256.119827132528030
 21
-190.648972704252510
  0
LINE
  8
0
  6
CONTINUOUS
 62
3
 10
-401.119827132528030
 20
-190.648972704252630
 11
-401.119827132528030
 21
-178.648972704301060
  0
LINE
  8
0
  6
CONTINUOUS
 62
3
 10
-376.119827132528030
 20
-190.648972704252510
 11
-376.119827132528030
 21
-181.822104520138400
  0
LINE
  8
0
  6
CONTINUOUS
 62
3
 10
-256.119827132528030
 20
-190.648972704252510
 11
-256.119827132528030
 21
-181.822104520138510
  0
LINE
  8
0
  6
CONTINUOUS
 62
3
 10
-231.119827132528030
 20
-190.648972704252510
 11
-231.119827132528030
 21
-178.648972704300830
  0
ARC
  8
0
  6
CONTINUOUS
 62
3
 10
-274.119827132528030
 20
-184.148972704300830
 40
8.000000000000162
 50
214.228866327811770
 51
223.432536557788810
  0
ARC
  8
0
  6
CONTINUOUS
 62
3
 10
-301.119827132528260
 20
-95.941291470873921
 40
65.000000000000014
 50
20.221019215724230
 51
87.767131757208730
  0
ARC
  8
0
  6
CONTINUOUS
 62
3
 10
-281.369827132528260
 20
-187.648972704300830
 40
1.000000000000000
 50
270.000000000000000
 51
0.000000000000000
  0
ARC
  8
0
  6
CONTINUOUS
 62
3
 10
-261.869827132528260
 20
-45.389956176937289
 40
1.000000000000016
 50
52.172861259904892
 51
180.000000000000000
  0
ARC
  8
0
  6
CONTINUOUS
 62
3
 10
-269.119827132528030
 20
-46.648972704300832
 40
6.250000000000000
 50
180.000000000000000
 51
0.000000000000000
  0
ARC
  8
0
  6
CONTINUOUS
 62
3
 10
-276.369827132528030
 20
-36.920638306070714
 40
1.000000000000000
 50
0.000000000000000
 51
67.249516112927580
  0
ARC
  8
0
  6
CONTINUOUS
 62
3
 10
-274.119827132528260
 20
-184.148972704300830
 40
6.250000000000168
 50
18.324659916294014
 51
180.000000000000000
  0
ARC
  8
0
  6
CONTINUOUS
 62
3
 10
-266.762827707563590
 20
-181.712364516456660
 40
1.499999999999815
 50
198.324659916295590
 51
331.598332663997160
  0
LINE
  8
0
  6
CONTINUOUS
 62
3
 10
-280.369827132528260
 20
-184.148972704300830
 11
-280.369827132528260
 21
-187.648972704300830
  0
LINE
  8
0
  6
CONTINUOUS
 62
3
 10
-275.369827132528030
 20
-36.920638306070714
 11
-275.369827132528030
 21
-46.648972704300832
  0
LINE
  8
0
  6
CONTINUOUS
 62
3
 10
-262.869827132528030
 20
-45.389956176937289
 11
-262.869827132528030
 21
-46.648972704300832
  0
LINE
  8
0
  6
CONTINUOUS
 62
3
 10
-351.869827132528030
 20
-184.148972704300830
 11
-351.869827132528030
 21
-187.648972704300830
  0
LINE
  8
0
  6
CONTINUOUS
 62
3
 10
-395.119827132528030
 20
-111.398972704300830
 11
-388.119827132528030
 21
-111.398972704300830
  0
LINE
  8
0
  6
CONTINUOUS
 62
3
 10
-395.119827132528030
 20
-98.898972704300832
 11
-388.119827132528030
 21
-98.898972704300832
  0
LINE
  8
0
  6
CONTINUOUS
 62
3
 10
-356.869827132528260
 20
-36.920638306070714
 11
-356.869827132528260
 21
-46.648972704300832
  0
LINE
  8
0
  6
CONTINUOUS
 62
3
 10
-369.369827132528260
 20
-45.389956176937289
 11
-369.369827132528260
 21
-46.648972704300832
  0
LINE
  8
0
  6
CONTINUOUS
 62
3
 10
-387.119827132528030
 20
-80.148972704300832
 11
-379.568502100333150
 21
-80.148972704300832
  0
LINE
  8
0
  6
CONTINUOUS
 62
3
 10
-387.119827132528030
 20
-96.148972704300832
 11
-380.769906233266970
 21
-96.148972704300832
  0
LINE
  8
0
  6
DASHDOT
 62
4
 10
-295.629383014947960
 20
-90.648972704300832
 11
-337.666240708171240
 21
-90.648972704300832
  0
LINE
  8
0
  6
CONTINUOUS
 62
3
 10
-351.505448854867040
 20
-188.648972704300830
 11
-316.119827132528030
 21
-188.648972704300830
  0
ARC
  8
0
  6
CONTINUOUS
 62
3
 10
-365.476826557492700
 20
-181.712364516456550
 40
1.500000000000089
 50
208.401667336006680
 51
341.675340083700290
  0
ARC
  8
0
  6
CONTINUOUS
 62
3
 10
-358.119827132528030
 20
-184.148972704300830
 40
6.250000000000000
 50
0.000000000000000
 51
161.675340083705980
  0
CIRCLE
  8
0
  6
CONTINUOUS
 62
3
 10
-363.119827132528260
 20
-46.648972704300832
 40
3.300000000000011
  0
ARC
  8
0
  6
CONTINUOUS
 62
3
 10
-350.869827132528030
 20
-187.648972704300830
 40
1.000000000000000
 50
180.000000000000000
 51
270.000000000000000
  0
ARC
  8
0
  6
CONTINUOUS
 62
3
 10
-395.119827132528030
 20
-97.898972704300832
 40
1.000000000000000
 50
180.000000000000000
 51
270.000000000000000
  0
ARC
  8
0
  6
CONTINUOUS
 62
3
 10
-395.119827132528030
 20
-112.398972704300830
 40
1.000000000000000
 50
90.000000000000000
 51
180.000000000000000
  0
ARC
  8
0
  6
CONTINUOUS
 62
3
 10
-388.119827132528030
 20
-105.148972704300830
 40
6.250000000000000
 50
270.000000000000000
 51
90.000000000000000
  0
ARC
  8
0
  6
CONTINUOUS
 62
3
 10
-370.369827132528260
 20
-45.389956176937289
 40
1.000000000000000
 50
0.000000000000000
 51
127.827138740095090
  0
ARC
  8
0
  6
CONTINUOUS
 62
3
 10
-355.869827132528260
 20
-36.920638306070714
 40
1.000000000000058
 50
112.750483887072420
 51
180.000000000000000
  0
ARC
  8
0
  6
CONTINUOUS
 62
3
 10
-363.119827132528260
 20
-46.648972704300832
 40
6.250000000000000
 50
180.000000000000000
 51
0.000000000000000
  0
ARC
  8
0
  6
CONTINUOUS
 62
3
 10
-387.119827132528030
 20
-88.148972704300832
 40
8.000000000000000
 50
90.000000000000000
 51
270.000000000000000
  0
ARC
  8
0
  6
CONTINUOUS
 62
3
 10
-347.240709766822310
 20
-139.592722704300850
 40
45.999999999999844
 50
219.301285481804480
 51
241.473514688826810
  0
ARC
  8
0
  6
CONTINUOUS
 62
3
 10
-331.119827132528260
 20
-95.941291470873921
 40
65.000000000000142
 50
92.232868242791668
 51
180.000000000000000
  0
ARC
  8
0
  6
CONTINUOUS
 62
3
 10
-358.119827132528030
 20
-184.148972704300830
 40
7.999999999999647
 50
316.567463442207780
 51
325.771133672185440
  0
ARC
  8
0
  6
CONTINUOUS
 62
3
 10
-205.738219405364020
 20
-166.825879751281490
 40
9.000000000000234
 50
7.398451589678908
 51
40.601531107483503
  0
ARC
  8
0
  6
CONTINUOUS
 62
3
 10
-198.102323780182700
 20
-165.834360628782860
 40
1.299999237060559
 50
293.999982013920090
 51
7.398451589679256
  0
LINE
  8
0
  6
DASHDOT
 62
4
 10
-223.619827132528030
 20
-142.766448924595120
 11
-223.619827132528030
 21
-165.634958100358740
  0
LINE
  8
0
  6
CONTINUOUS
 62
3
 10
-246.314391072792550
 20
-69.297964307385200
 11
-200.597192391067550
 21
-171.980473746411230
  0
ARC
  8
0
  6
CONTINUOUS
 62
3
 10
-199.851391579254250
 20
-104.495622886652880
 40
1.000000000000077
 50
0.587807867721716
 51
53.794291905958382
  0
ARC
  8
0
  6
CONTINUOUS
 62
3
 10
-198.670019462977850
 20
-102.881819948594730
 40
0.999999999999967
 50
180.740494943192910
 51
233.794291905968890
  0
ARC
  8
0
  6
CONTINUOUS
 62
3
 10
-199.440227879130930
 20
-142.040828973589900
 40
0.999999999999769
 50
123.952126946395960
 51
177.005923909151190
  0
ARC
  8
0
  6
CONTINUOUS
 62
3
 10
-200.557227903743410
 20
-140.381819948594740
 40
1.000000000000147
 50
303.952126946381380
 51
357.158610984632960
  0
ARC
  8
0
  6
CONTINUOUS
 62
3
 10
-799.619827132528030
 20
-110.648972704301050
 40
600.799999999999950
 50
357.158610984636650
 51
0.587807867706885
  0
LINE
  8
0
  6
CONTINUOUS
 62
3
 10
-247.619827132528030
 20
-77.957367827241796
 11
-247.619827132528030
 21
-152.148972704300830
  0
LINE
  8
0
  6
CONTINUOUS
 62
3
 10
-248.619827132528030
 20
-141.648972704300830
 11
-247.619827132528030
 21
-141.648972704300830
  0
LINE
  8
0
  6
CONTINUOUS
 62
3
 10
-202.549528277831660
 20
-167.595455549726690
 11
-206.066678289755710
 21
-169.161391625568510
  0
LINE
  8
0
  6
CONTINUOUS
 62
3
 10
-204.176474850134920
 20
-163.941273719156700
 11
-207.693624862058750
 21
-165.507209794998520
  0
ARC
  8
0
  6
CONTINUOUS
 62
3
 10
-203.249813536108950
 20
-154.771607292537960
 40
2.000000000000451
 50
294.000000000027340
 51
355.768661925113970
  0
ARC
  8
0
  6
CONTINUOUS
 62
3
 10
-201.825139868829520
 20
-157.421210544179530
 40
0.999999999999856
 50
113.999999999979760
 51
204.000000000003580
  0
LINE
  8
0
  6
CONTINUOUS
 62
3
 10
-223.744118109724350
 20
-110.648972704300830
 11
-197.532456295101500
 21
-169.521329045080850
  0
ARC
  8
0
  6
CONTINUOUS
 62
3
 10
-198.446001752744110
 20
-169.928065688156490
 40
1.000000000000226
 50
294.000000000027340
 51
23.999999999991683
  0
LINE
  8
0
  6
CONTINUOUS
 62
3
 10
-198.039265109667780
 20
-170.841611145799110
 11
-200.597192391067550
 21
-171.980473746411230
  0
LINE
  8
0
  6
CONTINUOUS
 62
3
 10
-242.619827132528030
 20
-157.148972704300830
 11
-207.200602101199250
 21
-157.148972704300830
  0
ARC
  8
0
  6
CONTINUOUS
 62
3
 10
-242.619827132528030
 20
-152.148972704300830
 40
5.000000000000000
 50
180.000000000000000
 51
270.000000000000000
  0
LINE
  8
0
  6
CONTINUOUS
 62
3
 10
-248.619827132528030
 20
-79.648972704300832
 11
-247.619827132528030
 21
-79.648972704300832
  0
ARC
  8
0
  6
CONTINUOUS
 62
3
 10
-244.619827132528030
 20
-77.957367827241796
 40
2.999999999999567
 50
113.999999999979760
 51
180.000000000000000
  0
LINE
  8
0
  6
CONTINUOUS
 62
3
 10
-244.036665871567610
 20
-74.413818870183832
 11
-245.840037061754290
 21
-75.216731454313958
  0
LINE
  8
0
  6
CONTINUOUS
 62
3
 10
-243.756463791388000
 20
-68.159101706770798
 11
-246.314391072787320
 21
-69.297964307382927
  0
ARC
  8
0
  6
CONTINUOUS
 62
3
 10
-200.653778140216330
 20
-160.052132062187410
 40
0.999999999999983
 50
175.284875165916760
 51
204.000000000003580
  0
ARC
  8
0
  6
CONTINUOUS
 62
3
 10
-799.619827132528030
 20
-110.648972704301050
 40
600.000000000000910
 50
355.284875165908370
 51
1.682768801133149
  0
ARC
  8
0
  6
CONTINUOUS
 62
3
 10
-214.872116117968860
 20
-93.470076836566022
 40
15.000000000000393
 50
1.682768801133086
 51
80.681876880324481
  0
LINE
  8
0
  6
CONTINUOUS
 62
3
 10
-238.399013759313330
 20
-74.409179426962055
 11
-212.443376665777240
 21
-78.668008579955085
  0
ARC
  8
0
  6
CONTINUOUS
 62
3
 10
-237.913265868874650
 20
-71.448765775639913
 40
3.000000000000030
 50
203.999999999999630
 51
260.681876880317470
  0
LINE
  8
0
  6
CONTINUOUS
 62
3
 10
-242.436181690669970
 20
-68.665910521337537
 11
-223.744118109721170
 21
-110.648972704300830
  0
LINE
  8
0
  6
CONTINUOUS
 62
3
 10
-245.985230293121390
 20
-71.992302025195158
 11
-245.248826410359360
 21
-72.304886927986445
  0
LINE
  8
0
  6
CONTINUOUS
 62
3
 10
-245.115484388165330
 20
-71.990752809537071
 11
-245.248826410359360
 21
-72.304886927986445
  0
LINE
  8
0
  6
CONTINUOUS
 62
3
 10
-245.560398133375320
 20
-70.991460176579722
 11
-245.985230293121390
 21
-71.992302025195158
  0
ARC
  8
0
  6
CONTINUOUS
 62
3
 10
-199.891965630347270
 20
-161.814759221195800
 40
1.299999237060495
 50
40.601531107483851
 51
114.000000683246080
  0
LINE
  8
0
  6
CONTINUOUS
 62
3
 10
-201.315107075706810
 20
-161.025356289004550
 11
-200.420722956030320
 21
-160.627150823240300
  0
LINE
  8
0
  6
CONTINUOUS
 62
3
 10
-198.467950574175920
 20
-167.420174492502840
 11
-197.573566454499430
 21
-167.021969026738360
  0
LINE
  8
0
  6
CONTINUOUS
 62
3
 10
-201.315107075706810
 20
-161.025356289004550
 11
-198.467950574175920
 21
-167.420174492502840
  0
LINE
  8
0
  6
CONTINUOUS
 62
3
 10
-201.315107075706810
 20
-161.025356289004550
 11
-198.467950574175920
 21
-167.420174492502840
  0
POINT
  8
0
  6
CONTINUOUS
 62
3
 10
-199.891528824941250
 20
-164.222765390753690
  0
LINE
  8
0
  6
CONTINUOUS
 62
3
 10
-207.871007947157180
 20
-165.969308530249920
 11
-206.528777025007120
 21
-168.984008540470090
  0
LINE
  8
0
  6
CONTINUOUS
 62
3
 10
-206.066678289755710
 20
-169.161391625568510
 11
-206.528777025007120
 21
-168.984008540470090
  0
LINE
  8
0
  6
CONTINUOUS
 62
3
 10
-207.693624862058750
 20
-165.507209794998520
 11
-207.871007947157180
 21
-165.969308530249920
  0
LINE
  8
0
  6
CONTINUOUS
 62
4
 10
-204.034117025058440
 20
-164.261014629331610
 11
-207.871007947157180
 21
-165.969308530249920
  0
LINE
  8
0
  6
CONTINUOUS
 62
4
 10
-202.691886102907920
 20
-167.275714639552230
 11
-206.528777025006890
 21
-168.984008540470540
  0
ARC
  8
0
  6
CONTINUOUS
 62
3
 10
-243.349727148312580
 20
-69.072647164413411
 40
1.000000000000041
 50
24.000000000003585
 51
113.999999999979760
  0
LINE
  8
0
  6
CONTINUOUS
 62
3
 10
-248.619827132528030
 20
-110.648972704300830
 11
-248.619827132528030
 21
-141.648972704300830
  0
LINE
  8
0
  6
CONTINUOUS
 62
3
 10
-248.619827132528030
 20
-110.648972704300830
 11
-248.619827132528030
 21
-79.648972704300832
  0
LINE
  8
0
  6
CONTINUOUS
 62
3
 10
-252.619827132528030
 20
-140.641471766567630
 11
-252.619827132528030
 21
-143.253716390577550
  0
LINE
  8
0
  6
CONTINUOUS
 62
3
 10
-252.619827132528030
 20
-80.656473642034030
 11
-252.619827132528030
 21
-78.044229018024112
  0
LINE
  8
0
  6
CONTINUOUS
 62
3
 10
-252.619827132528030
 20
-78.044229018024112
 11
-249.593650184220110
 21
-78.123472250246948
  0
LINE
  8
0
  6
CONTINUOUS
 62
3
 10
-248.619827132528030
 20
-142.174815833379170
 11
-248.619827132528030
 21
-79.123129575222492
  0
ARC
  8
0
  6
CONTINUOUS
 62
3
 10
-249.619827132528030
 20
-79.123129575222492
 40
1.000000000000000
 50
0.000000000000000
 51
88.499999999997257
  0
ARC
  8
0
  6
CONTINUOUS
 62
3
 10
-249.619827132528030
 20
-142.174815833379170
 40
0.999999999999931
 50
271.500000000002790
 51
0.000000000000000
  0
LINE
  8
0
  6
CONTINUOUS
 62
3
 10
-252.619827132528030
 20
-143.253716390577550
 11
-249.593650184220110
 21
-143.174473158354660
  0
ARC
  8
0
  6
CONTINUOUS
 62
4
 10
-316.119827132528030
 20
-351.248972704300740
 40
289.396999999999930
 50
90.000000000000000
 51
97.897988672427743
  0
ARC
  8
0
  6
CONTINUOUS
 62
4
 10
-355.061345087910130
 20
-70.540195163714088
 40
5.999999999999923
 50
97.897988672425626
 51
134.999999999996930
  0
ARC
  8
0
  6
CONTINUOUS
 62
3
 10
-360.068414562810520
 20
-60.552358236772534
 40
6.599999999999971
 50
98.597082237248614
 51
134.999999999998610
  0
ARC
  8
0
  6
CONTINUOUS
 62
3
 10
-320.119827132528030
 20
-81.926159471610390
 40
1.499999999999998
 50
277.928141766204020
 51
0.000000000000000
  0
ARC
  8
0
  6
CONTINUOUS
 62
3
 10
-316.119827132527580
 20
-110.648972704300830
 40
33.499999999999950
 50
97.180755781459069
 51
142.819244218541740
  0
ARC
  8
0
  6
CONTINUOUS
 62
3
 10
-316.119827132527580
 20
-110.648972704300830
 40
43.000000000000043
 50
95.531071524839788
 51
144.468928475160770
  0
ARC
  8
0
  6
CONTINUOUS
 62
3
 10
-316.119827132527580
 20
-110.648972704300830
 40
37.000000000000099
 50
95.963570118321798
 51
144.036429881678830
  0
ARC
  8
0
  6
CONTINUOUS
 62
3
 10
-338.994513060193750
 20
-92.823464472817705
 40
1.499999999999926
 50
239.999999999998410
 51
322.071858233800300
  0
ARC
  8
0
  6
CONTINUOUS
 62
3
 10
-341.615281302262590
 20
-91.310363222775550
 40
1.500000000000103
 50
142.819244218542510
 51
239.999999999998410
  0
ARC
  8
0
  6
CONTINUOUS
 62
3
 10
-347.281363586678820
 20
-88.039049090617254
 40
1.500000000000123
 50
240.000000000002730
 51
324.036429881683720
  0
LINE
  8
0
  6
CONTINUOUS
 62
3
 10
-339.744513060193750
 20
-94.122502578494277
 11
-342.365281302262590
 21
-92.609401328452122
  0
LINE
  8
0
  6
CONTINUOUS
 62
3
 10
-348.031363586678820
 20
-89.338087196294055
 11
-350.642547185662920
 21
-87.830519642516947
  0
ARC
  8
0
  6
CONTINUOUS
 62
3
 10
-349.892547185662920
 20
-86.531481536840147
 40
1.499999999999976
 50
144.468928475160790
 51
240.000000000002730
  0
ARC
  8
0
  6
CONTINUOUS
 62
3
 10
-345.615281302263040
 20
-123.059378955550520
 40
1.500000000000157
 50
202.819244218546660
 51
300.000000000001590
  0
LINE
  8
0
  6
CONTINUOUS
 62
3
 10
-344.865281302263040
 20
-124.358417061227100
 11
-342.244513060193750
 21
-122.845315811185170
  0
ARC
  8
0
  6
CONTINUOUS
 62
3
 10
-351.281363586679280
 20
-126.330693087708820
 40
1.499999999999926
 50
300.000000000001590
 51
24.036429881677126
  0
LINE
  8
0
  6
CONTINUOUS
 62
3
 10
-353.142547185663370
 20
-129.137298747162730
 11
-350.531363586679280
 21
-127.629731193385390
  0
ARC
  8
0
  6
CONTINUOUS
 62
3
 10
-353.892547185663370
 20
-127.838260641485700
 40
1.500000000000128
 50
204.468928475167470
 51
299.999999999992950
  0
ARC
  8
0
  6
CONTINUOUS
 62
3
 10
-342.994513060193750
 20
-121.546277705508140
 40
1.500000000000320
 50
299.999999999992950
 51
22.071858233784546
  0
ARC
  8
0
  6
CONTINUOUS
 62
3
 10
-316.119827132527800
 20
-110.648972704301280
 40
33.499999999999794
 50
157.180755781458400
 51
202.819244218540940
  0
ARC
  8
0
  6
CONTINUOUS
 62
3
 10
-316.119827132527800
 20
-110.648972704301280
 40
43.000000000000121
 50
155.531071524839230
 51
204.468928475160200
  0
ARC
  8
0
  6
CONTINUOUS
 62
3
 10
-316.119827132527800
 20
-110.648972704301280
 40
37.000000000000156
 50
155.963570118321120
 51
204.036429881678230
  0
ARC
  8
0
  6
CONTINUOUS
 62
3
 10
-316.119827132528480
 20
-110.648972704300830
 40
27.499999999999886
 50
157.928141766202200
 51
202.071858233798680
  0
ARC
  8
0
  6
CONTINUOUS
 62
3
 10
-342.994513060193980
 20
-99.751667703093517
 40
1.500000000000110
 50
337.928141766202600
 51
59.999999999998380
  0
ARC
  8
0
  6
CONTINUOUS
 62
3
 10
-345.615281302262820
 20
-98.238566453051590
 40
1.500000000000123
 50
60.000000000002721
 51
157.180755781457980
  0
ARC
  8
0
  6
CONTINUOUS
 62
3
 10
-351.281363586679050
 20
-94.967252320893294
 40
1.499999999999855
 50
335.963570118319300
 51
59.999999999990862
  0
LINE
  8
0
  6
CONTINUOUS
 62
3
 10
-342.244513060193980
 20
-98.452629597416944
 11
-344.865281302262820
 21
-96.939528347374790
  0
LINE
  8
0
  6
CONTINUOUS
 62
3
 10
-350.531363586678820
 20
-93.668214215216722
 11
-353.142547185663370
 21
-92.160646661439614
  0
ARC
  8
0
  6
CONTINUOUS
 62
3
 10
-353.892547185663370
 20
-93.459684767116187
 40
1.499999999999926
 50
59.999999999998380
 51
155.531071524840400
  0
ARC
  8
0
  6
CONTINUOUS
 62
3
 10
-341.615281302263040
 20
-129.987582185825890
 40
1.499999999999926
 50
120.000000000001620
 51
217.180755781464400
  0
LINE
  8
0
  6
CONTINUOUS
 62
3
 10
-342.365281302263040
 20
-128.688544080149310
 11
-339.744513060193750
 21
-127.175442830106930
  0
ARC
  8
0
  6
CONTINUOUS
 62
3
 10
-347.281363586679280
 20
-133.258896317984180
 40
1.499999999999968
 50
35.963570118309242
 51
120.000000000001620
  0
LINE
  8
0
  6
CONTINUOUS
 62
3
 10
-350.642547185663370
 20
-133.467425766084940
 11
-348.031363586679280
 21
-131.959858212307610
  0
ARC
  8
0
  6
CONTINUOUS
 62
3
 10
-349.892547185663370
 20
-134.766463871761520
 40
1.499999999999926
 50
120.000000000001620
 51
215.531071524832130
  0
ARC
  8
0
  6
CONTINUOUS
 62
3
 10
-338.994513060193750
 20
-128.474480935783960
 40
1.500000000000122
 50
37.928141766218701
 51
119.999999999992930
  0
ARC
  8
0
  6
CONTINUOUS
 62
3
 10
-316.119827132528260
 20
-110.648972704300370
 40
33.500000000000163
 50
217.180755781459110
 51
262.819244218541770
  0
ARC
  8
0
  6
CONTINUOUS
 62
3
 10
-316.119827132528260
 20
-110.648972704300370
 40
42.999999999999858
 50
215.531071524839690
 51
264.468928475160850
  0
ARC
  8
0
  6
CONTINUOUS
 62
3
 10
-316.119827132528260
 20
-110.648972704300370
 40
37.000000000000021
 50
215.963570118321970
 51
264.036429881678940
  0
ARC
  8
0
  6
CONTINUOUS
 62
3
 10
-316.119827132528260
 20
-110.648972704301280
 40
27.499999999999780
 50
217.928141766201070
 51
262.071858233797400
  0
ARC
  8
0
  6
CONTINUOUS
 62
3
 10
-320.119827132528260
 20
-139.371785936991270
 40
1.500000000000000
 50
0.000000000000000
 51
82.071858233804562
  0
ARC
  8
0
  6
CONTINUOUS
 62
3
 10
-320.119827132528260
 20
-142.397988437075580
 40
1.499999999999998
 50
262.819244218541710
 51
0.000000000000000
  0
ARC
  8
0
  6
CONTINUOUS
 62
3
 10
-320.119827132528260
 20
-148.940616701392170
 40
1.500000000000000
 50
0.000000000017370
 51
84.036429881682594
  0
LINE
  8
0
  6
CONTINUOUS
 62
3
 10
-318.619827132528260
 20
-139.371785936991270
 11
-318.619827132528260
 21
-142.397988437075580
  0
LINE
  8
0
  6
CONTINUOUS
 62
3
 10
-318.619827132528260
 20
-148.940616701391720
 11
-318.619827132528260
 21
-151.955751808945930
  0
ARC
  8
0
  6
CONTINUOUS
 62
3
 10
-320.119827132528260
 20
-151.955751808945930
 40
1.500000000000430
 50
264.468928475160000
 51
0.000000000000000
  0
ARC
  8
0
  6
CONTINUOUS
 62
3
 10
-290.624372962793020
 20
-129.987582185825890
 40
1.500000000000240
 50
322.819244218535570
 51
59.999999999998380
  0
LINE
  8
0
  6
CONTINUOUS
 62
3
 10
-289.874372962793020
 20
-128.688544080149310
 11
-292.495141204862310
 21
-127.175442830106930
  0
ARC
  8
0
  6
CONTINUOUS
 62
3
 10
-284.958290678376780
 20
-133.258896317984180
 40
1.499999999999926
 50
59.999999999998380
 51
144.036429881690740
  0
ARC
  8
0
  6
CONTINUOUS
 62
3
 10
-293.245141204862310
 20
-128.474480935783960
 40
1.500000000000320
 50
60.000000000007070
 51
142.071858233781280
  0
ARC
  8
0
  6
CONTINUOUS
 62
3
 10
-316.119827132527800
 20
-110.648972704300370
 40
33.500000000000114
 50
277.180755781458230
 51
322.819244218540860
  0
ARC
  8
0
  6
CONTINUOUS
 62
3
 10
-316.119827132527800
 20
-110.648972704300370
 40
43.000000000000199
 50
275.531071524838860
 51
324.468928475160340
  0
ARC
  8
0
  6
CONTINUOUS
 62
3
 10
-316.119827132527800
 20
-110.648972704300370
 40
37.000000000000028
 50
275.963570118320770
 51
324.036429881678030
  0
ARC
  8
0
  6
CONTINUOUS
 62
3
 10
-316.119827132527800
 20
-110.648972704301280
 40
27.499999999999879
 50
277.928141766202600
 51
322.071858233798930
  0
ARC
  8
0
  6
CONTINUOUS
 62
3
 10
-312.119827132527800
 20
-139.371785936991270
 40
1.499999999999967
 50
97.928141766195438
 51
180.000000000000000
  0
ARC
  8
0
  6
CONTINUOUS
 62
3
 10
-312.119827132527800
 20
-142.397988437075580
 40
1.500000000000000
 50
180.000000000000000
 51
277.180755781458290
  0
ARC
  8
0
  6
CONTINUOUS
 62
3
 10
-312.119827132527800
 20
-148.940616701392170
 40
1.500000000000182
 50
95.963570118326047
 51
179.999999999982630
  0
LINE
  8
0
  6
CONTINUOUS
 62
3
 10
-313.619827132527800
 20
-139.371785936991270
 11
-313.619827132527800
 21
-142.397988437075580
  0
LINE
  8
0
  6
CONTINUOUS
 62
3
 10
-313.619827132527800
 20
-148.940616701391720
 11
-313.619827132527800
 21
-151.955751808945930
  0
ARC
  8
0
  6
CONTINUOUS
 62
3
 10
-312.119827132527800
 20
-151.955751808945930
 40
1.500000000000000
 50
180.000000000000000
 51
275.531071524831360
  0
ARC
  8
0
  6
CONTINUOUS
 62
3
 10
-286.624372962793020
 20
-123.059378955550520
 40
1.499999999999926
 50
239.999999999998410
 51
337.180755781453340
  0
LINE
  8
0
  6
CONTINUOUS
 62
3
 10
-287.374372962793020
 20
-124.358417061227100
 11
-289.995141204862310
 21
-122.845315811185170
  0
ARC
  8
0
  6
CONTINUOUS
 62
3
 10
-289.245141204862310
 20
-121.546277705508140
 40
1.499999999999899
 50
157.928141766199360
 51
240.000000000007050
  0
ARC
  8
0
  6
CONTINUOUS
 62
3
 10
-316.119827132528260
 20
-110.648972704301280
 40
33.500000000000128
 50
337.180755781459030
 51
22.819244218541968
  0
ARC
  8
0
  6
CONTINUOUS
 62
3
 10
-316.119827132527580
 20
-110.648972704300830
 40
27.499999999999886
 50
337.928141766202200
 51
22.071858233797812
  0
ARC
  8
0
  6
CONTINUOUS
 62
3
 10
-289.245141204862080
 20
-99.751667703093517
 40
1.499999999999926
 50
120.000000000001620
 51
202.071858233797370
  0
ARC
  8
0
  6
CONTINUOUS
 62
3
 10
-286.624372962793250
 20
-98.238566453051590
 40
1.499999999999948
 50
22.819244218550043
 51
119.999999999997270
  0
LINE
  8
0
  6
CONTINUOUS
 62
3
 10
-289.995141204862080
 20
-98.452629597416944
 11
-287.374372962793250
 21
-96.939528347374790
  0
ARC
  8
0
  6
CONTINUOUS
 62
3
 10
-316.119827132528480
 20
-110.648972704300830
 40
33.500000000000071
 50
37.180755781458259
 51
82.819244218540931
  0
ARC
  8
0
  6
CONTINUOUS
 62
3
 10
-316.119827132528480
 20
-110.648972704300830
 40
36.999999999999943
 50
35.963570118321194
 51
84.036429881678174
  0
ARC
  8
0
  6
CONTINUOUS
 62
3
 10
-284.958290678377240
 20
-88.039049090617254
 40
1.500000000000102
 50
215.963570118316280
 51
299.999999999997270
  0
ARC
  8
0
  6
CONTINUOUS
 62
3
 10
-290.624372962793470
 20
-91.310363222775550
 40
1.499999999999926
 50
300.000000000001590
 51
37.180755781457485
  0
ARC
  8
0
  6
CONTINUOUS
 62
3
 10
-316.119827132527800
 20
-110.648972704300370
 40
27.500000000000060
 50
37.928141766201819
 51
82.071858233798309
  0
ARC
  8
0
  6
CONTINUOUS
 62
3
 10
-312.119827132528030
 20
-81.926159471610390
 40
1.500000000000000
 50
180.000000000000000
 51
262.071858233795980
  0
LINE
  8
0
  6
CONTINUOUS
 62
3
 10
-292.495141204862310
 20
-94.122502578494277
 11
-289.874372962793470
 21
-92.609401328452122
  0
ARC
  8
0
  6
CONTINUOUS
 62
3
 10
-293.245141204862310
 20
-92.823464472817705
 40
1.499999999999843
 50
217.928141766204990
 51
300.000000000001590
  0
CIRCLE
  8
0
  6
CONTINUOUS
 62
3
 10
-316.119827132528030
 20
-110.648972704300370
 40
5.000000000000000
  0
ARC
  8
0
  6
CONTINUOUS
 62
3
 10
-310.182573199334120
 20
-102.602295394206970
 40
1.499999999999693
 50
233.578178478195410
 51
300.000000000001590
  0
ARC
  8
0
  6
CONTINUOUS
 62
3
 10
-312.119827132528030
 20
-101.483821314388470
 40
1.500000000000000
 50
180.000000000000000
 51
246.421821521804280
  0
ARC
  8
0
  6
CONTINUOUS
 62
3
 10
-298.944647863483280
 20
-96.114076176420440
 40
1.499999999999926
 50
300.000000000001590
 51
40.240348321182964
  0
ARC
  8
0
  6
CONTINUOUS
 62
3
 10
-312.119827132528030
 20
-98.279655827447414
 40
1.500000000000138
 50
72.079786860605225
 51
180.000000000000000
  0
ARC
  8
0
  6
CONTINUOUS
 62
3
 10
-312.119827132528030
 20
-91.563638020308190
 40
1.500000000000000
 50
180.000000000000000
 51
258.162995844103310
  0
ARC
  8
0
  6
CONTINUOUS
 62
3
 10
-301.591442456462230
 20
-97.642203747166604
 40
1.499999999999967
 50
221.837004155893280
 51
300.000000000001590
  0
ARC
  8
0
  6
CONTINUOUS
 62
3
 10
-312.119827132528030
 20
-88.507382878815861
 40
1.499999999999952
 50
79.759651678814024
 51
180.000000000000000
  0
ARC
  8
0
  6
CONTINUOUS
 62
3
 10
-307.407684489713690
 20
-101.000212650736100
 40
1.499999999999926
 50
300.000000000001590
 51
47.920213139381872
  0
LINE
  8
0
  6
CONTINUOUS
 62
3
 10
-300.841442456462230
 20
-98.941241852843177
 11
-298.194647863483280
 21
-97.413114282097013
  0
ARC
  8
0
  6
CONTINUOUS
 62
3
 10
-316.119827132527800
 20
-110.648972704300370
 40
14.499999999999860
 50
47.920213139391755
 51
72.079786860608309
  0
LINE
  8
0
  6
CONTINUOUS
 62
3
 10
-313.619827132528030
 20
-98.279655827447414
 11
-313.619827132528030
 21
-101.483821314388470
  0
LINE
  8
0
  6
CONTINUOUS
 62
3
 10
-313.619827132528030
 20
-88.507382878815861
 11
-313.619827132528030
 21
-91.563638020308190
  0
LINE
  8
0
  6
CONTINUOUS
 62
3
 10
-309.432573199334120
 20
-103.901333499883540
 11
-306.657684489713690
 21
-102.299250756412670
  0
ARC
  8
0
  6
CONTINUOUS
 62
3
 10
-316.119827132527800
 20
-110.648972704300370
 40
23.999999999999819
 50
40.240348321186090
 51
79.759651678814322
  0
ARC
  8
0
  6
CONTINUOUS
 62
3
 10
-316.119827132527800
 20
-110.648972704300370
 40
8.500000000000101
 50
53.578178478202659
 51
66.421821521799089
  0
ARC
  8
0
  6
CONTINUOUS
 62
3
 10
-303.407684489713690
 20
-113.369529527589290
 40
1.499999999999926
 50
239.999999999998410
 51
347.920213139390400
  0
LINE
  8
0
  6
CONTINUOUS
 62
3
 10
-304.157684489713690
 20
-114.668567633265860
 11
-306.932573199334120
 21
-113.066484889795440
  0
ARC
  8
0
  6
CONTINUOUS
 62
3
 10
-306.182573199334120
 20
-111.767446784118870
 40
1.500000000000099
 50
173.578178478198990
 51
239.999999999998410
  0
ARC
  8
0
  6
CONTINUOUS
 62
3
 10
-316.119827132527800
 20
-110.648972704300370
 40
8.499999999999865
 50
353.578178478199500
 51
6.421821521797448
  0
ARC
  8
0
  6
CONTINUOUS
 62
3
 10
-306.182573199334120
 20
-109.530498624482330
 40
1.499999999999926
 50
120.000000000001620
 51
186.421821521801010
  0
LINE
  8
0
  6
CONTINUOUS
 62
3
 10
-306.932573199334120
 20
-108.231460518805760
 11
-304.157684489713690
 21
-106.629377775334880
  0
ARC
  8
0
  6
CONTINUOUS
 62
3
 10
-303.407684489713690
 20
-107.928415881011460
 40
1.500000000000192
 50
12.079786860592611
 51
120.000000000001620
  0
ARC
  8
0
  6
CONTINUOUS
 62
3
 10
-316.119827132527800
 20
-110.648972704300370
 40
14.500000000000169
 50
347.920213139391310
 51
12.079786860606980
  0
ARC
  8
0
  6
CONTINUOUS
 62
3
 10
-294.944647863483280
 20
-118.255666001904950
 40
1.499999999999926
 50
239.999999999998410
 51
340.240348321188210
  0
LINE
  8
0
  6
CONTINUOUS
 62
3
 10
-295.694647863483280
 20
-119.554704107581520
 11
-298.341442456462230
 21
-118.026576536835810
  0
ARC
  8
0
  6
CONTINUOUS
 62
3
 10
-297.591442456462230
 20
-116.727538431158790
 40
1.500000000000038
 50
161.837004155895410
 51
240.000000000007050
  0
ARC
  8
0
  6
CONTINUOUS
 62
3
 10
-316.119827132527800
 20
-110.648972704300370
 40
17.999999999999943
 50
341.837004155893340
 51
18.162995844106646
  0
ARC
  8
0
  6
CONTINUOUS
 62
3
 10
-297.591442456462230
 20
-104.570406977441960
 40
1.499999999999926
 50
120.000000000001620
 51
198.162995844104590
  0
LINE
  8
0
  6
CONTINUOUS
 62
3
 10
-298.341442456462230
 20
-103.271368871765380
 11
-295.694647863483280
 21
-101.743241301019220
  0
ARC
  8
0
  6
CONTINUOUS
 62
3
 10
-294.944647863483280
 20
-103.042279406695790
 40
1.500000000000246
 50
19.759651678811824
 51
120.000000000001620
  0
ARC
  8
0
  6
CONTINUOUS
 62
3
 10
-316.119827132527800
 20
-110.648972704300370
 40
24.000000000000139
 50
340.240348321186050
 51
19.759651678813924
  0
ARC
  8
0
  6
CONTINUOUS
 62
3
 10
-328.831969775342370
 20
-113.369529527589290
 40
1.500000000000287
 50
192.079786860609600
 51
300.000000000001590
  0
LINE
  8
0
  6
CONTINUOUS
 62
3
 10
-328.081969775342370
 20
-114.668567633265860
 11
-325.307081065721950
 21
-113.066484889795440
  0
ARC
  8
0
  6
CONTINUOUS
 62
3
 10
-326.057081065721950
 20
-111.767446784118870
 40
1.499999999999926
 50
300.000000000001590
 51
6.421821521801967
  0
ARC
  8
0
  6
CONTINUOUS
 62
3
 10
-316.119827132528480
 20
-110.648972704300370
 40
8.499999999999813
 50
173.578178478202550
 51
186.421821521800500
  0
ARC
  8
0
  6
CONTINUOUS
 62
3
 10
-326.057081065721950
 20
-109.530498624482330
 40
1.499999999999873
 50
353.578178478198030
 51
59.999999999998380
  0
LINE
  8
0
  6
CONTINUOUS
 62
3
 10
-325.307081065721950
 20
-108.231460518805760
 11
-328.081969775342600
 21
-106.629377775334880
  0
ARC
  8
0
  6
CONTINUOUS
 62
3
 10
-328.831969775342600
 20
-107.928415881011460
 40
1.499999999999926
 50
59.999999999998380
 51
167.920213139405550
  0
ARC
  8
0
  6
CONTINUOUS
 62
3
 10
-316.119827132528480
 20
-110.648972704300370
 40
14.499999999999851
 50
167.920213139392840
 51
192.079786860608920
  0
ARC
  8
0
  6
CONTINUOUS
 62
3
 10
-337.295006401572780
 20
-118.255666001904950
 40
1.500000000000246
 50
199.759651678811820
 51
300.000000000001590
  0
LINE
  8
0
  6
CONTINUOUS
 62
3
 10
-336.545006401572780
 20
-119.554704107581520
 11
-333.898211808593830
 21
-118.026576536835810
  0
ARC
  8
0
  6
CONTINUOUS
 62
3
 10
-334.648211808593830
 20
-116.727538431158790
 40
1.500000000000320
 50
299.999999999992950
 51
18.162995844104589
  0
ARC
  8
0
  6
CONTINUOUS
 62
3
 10
-316.119827132528480
 20
-110.648972704300370
 40
17.999999999999726
 50
161.837004155893140
 51
198.162995844106860
  0
ARC
  8
0
  6
CONTINUOUS
 62
3
 10
-334.648211808593830
 20
-104.570406977441960
 40
1.500000000000038
 50
341.837004155895390
 51
59.999999999998380
  0
LINE
  8
0
  6
CONTINUOUS
 62
3
 10
-333.898211808593830
 20
-103.271368871765380
 11
-336.545006401573000
 21
-101.743241301019220
  0
ARC
  8
0
  6
CONTINUOUS
 62
3
 10
-337.295006401573000
 20
-103.042279406695790
 40
1.499999999999926
 50
59.999999999998380
 51
160.240348321185250
  0
ARC
  8
0
  6
CONTINUOUS
 62
3
 10
-316.119827132528480
 20
-110.648972704300370
 40
23.999999999999925
 50
160.240348321185910
 51
199.759651678814090
  0
ARC
  8
0
  6
CONTINUOUS
 62
3
 10
-324.831969775342370
 20
-120.297732757865100
 40
1.500000000000320
 50
119.999999999992930
 51
227.920213139381870
  0
LINE
  8
0
  6
CONTINUOUS
 62
3
 10
-325.581969775342370
 20
-118.998694652188070
 11
-322.807081065721950
 21
-117.396611908717650
  0
ARC
  8
0
  6
CONTINUOUS
 62
3
 10
-322.057081065721950
 20
-118.695650014394230
 40
1.500000000000059
 50
53.578178478205707
 51
120.000000000001620
  0
ARC
  8
0
  6
CONTINUOUS
 62
3
 10
-316.119827132528030
 20
-110.648972704300830
 40
8.499999999999870
 50
233.578178478199590
 51
246.421821521797680
  0
ARC
  8
0
  6
CONTINUOUS
 62
3
 10
-320.119827132528030
 20
-119.814124094212730
 40
1.500000000000000
 50
0.000000000017370
 51
66.421821521804304
  0
LINE
  8
0
  6
CONTINUOUS
 62
3
 10
-318.619827132528030
 20
-119.814124094212270
 11
-318.619827132528030
 21
-123.018289581153560
  0
ARC
  8
0
  6
CONTINUOUS
 62
3
 10
-320.119827132528030
 20
-123.018289581153560
 40
1.500000000000355
 50
252.079786860607900
 51
0.000000000000000
  0
ARC
  8
0
  6
CONTINUOUS
 62
3
 10
-316.119827132528030
 20
-110.648972704300830
 40
14.500000000000011
 50
227.920213139391080
 51
252.079786860607410
  0
ARC
  8
0
  6
CONTINUOUS
 62
3
 10
-333.295006401572780
 20
-125.183869232180760
 40
1.499999999999926
 50
120.000000000001620
 51
220.240348321176330
  0
LINE
  8
0
  6
CONTINUOUS
 62
3
 10
-334.045006401572780
 20
-123.884831126504190
 11
-331.398211808593830
 21
-122.356703555758030
  0
ARC
  8
0
  6
CONTINUOUS
 62
3
 10
-330.648211808593830
 20
-123.655741661434600
 40
1.500000000000118
 50
41.837004155899741
 51
120.000000000001620
  0
ARC
  8
0
  6
CONTINUOUS
 62
3
 10
-316.119827132528030
 20
-110.648972704300830
 40
17.999999999999940
 50
221.837004155892320
 51
258.162995844106770
  0
ARC
  8
0
  6
CONTINUOUS
 62
3
 10
-320.119827132528030
 20
-129.734307388293020
 40
1.500000000000000
 50
0.000000000000000
 51
78.162995844101530
  0
LINE
  8
0
  6
CONTINUOUS
 62
3
 10
-318.619827132528030
 20
-129.734307388293020
 11
-318.619827132528030
 21
-132.790562529785350
  0
ARC
  8
0
  6
CONTINUOUS
 62
3
 10
-320.119827132528030
 20
-132.790562529785350
 40
1.499999999999728
 50
259.759651678812470
 51
0.000000000000000
  0
ARC
  8
0
  6
CONTINUOUS
 62
3
 10
-316.119827132528030
 20
-110.648972704300830
 40
23.999999999999844
 50
220.240348321185340
 51
259.759651678813730
  0
ARC
  8
0
  6
CONTINUOUS
 62
3
 10
-307.407684489713690
 20
-120.297732757865100
 40
1.499999999999944
 50
312.079786860618130
 51
60.000000000007070
  0
LINE
  8
0
  6
CONTINUOUS
 62
3
 10
-306.657684489713690
 20
-118.998694652188070
 11
-309.432573199334120
 21
-117.396611908717650
  0
ARC
  8
0
  6
CONTINUOUS
 62
3
 10
-310.182573199334120
 20
-118.695650014394230
 40
1.499999999999926
 50
59.999999999998380
 51
126.421821521801260
  0
ARC
  8
0
  6
CONTINUOUS
 62
3
 10
-316.119827132528030
 20
-110.648972704300830
 40
8.500000000000060
 50
293.578178478202350
 51
306.421821521799190
  0
ARC
  8
0
  6
CONTINUOUS
 62
3
 10
-312.119827132528030
 20
-119.814124094212730
 40
1.500000000000139
 50
113.578178478195690
 51
179.999999999982630
  0
LINE
  8
0
  6
CONTINUOUS
 62
3
 10
-313.619827132528030
 20
-119.814124094212270
 11
-313.619827132528030
 21
-123.018289581153560
  0
ARC
  8
0
  6
CONTINUOUS
 62
3
 10
-312.119827132528030
 20
-123.018289581153560
 40
1.500000000000000
 50
180.000000000000000
 51
287.920213139392100
  0
ARC
  8
0
  6
CONTINUOUS
 62
3
 10
-316.119827132528030
 20
-110.648972704300830
 40
14.500000000000121
 50
287.920213139392560
 51
312.079786860608860
  0
ARC
  8
0
  6
CONTINUOUS
 62
3
 10
-298.944647863483280
 20
-125.183869232180760
 40
1.499999999999828
 50
319.759651678823670
 51
59.999999999998380
  0
LINE
  8
0
  6
CONTINUOUS
 62
3
 10
-298.194647863483280
 20
-123.884831126504190
 11
-300.841442456462230
 21
-122.356703555758030
  0
ARC
  8
0
  6
CONTINUOUS
 62
3
 10
-301.591442456462230
 20
-123.655741661434600
 40
1.499999999999926
 50
59.999999999998380
 51
138.162995844100240
  0
ARC
  8
0
  6
CONTINUOUS
 62
3
 10
-316.119827132528030
 20
-110.648972704300830
 40
18.000000000000146
 50
281.837004155893230
 51
318.162995844107680
  0
ARC
  8
0
  6
CONTINUOUS
 62
3
 10
-312.119827132528030
 20
-129.734307388293020
 40
1.499999999999731
 50
101.837004155898450
 51
180.000000000000000
  0
LINE
  8
0
  6
CONTINUOUS
 62
3
 10
-313.619827132528030
 20
-129.734307388293020
 11
-313.619827132528030
 21
-132.790562529785350
  0
ARC
  8
0
  6
CONTINUOUS
 62
3
 10
-312.119827132528030
 20
-132.790562529785350
 40
1.500000000000000
 50
180.000000000000000
 51
280.240348321187530
  0
ARC
  8
0
  6
CONTINUOUS
 62
3
 10
-316.119827132528030
 20
-110.648972704300830
 40
23.999999999999716
 50
280.240348321186270
 51
319.759651678814690
  0
ARC
  8
0
  6
CONTINUOUS
 62
3
 10
-320.119827132528030
 20
-98.279655827447414
 40
1.500000000000000
 50
0.000000000000000
 51
107.920213139394770
  0
LINE
  8
0
  6
CONTINUOUS
 62
3
 10
-318.619827132528030
 20
-98.279655827447414
 11
-318.619827132528030
 21
-101.483821314388470
  0
ARC
  8
0
  6
CONTINUOUS
 62
3
 10
-320.119827132528030
 20
-101.483821314388470
 40
1.500000000000139
 50
293.578178478195700
 51
0.000000000000000
  0
ARC
  8
0
  6
CONTINUOUS
 62
3
 10
-316.119827132528480
 20
-110.648972704300370
 40
8.499999999999879
 50
113.578178478199500
 51
126.421821521797340
  0
ARC
  8
0
  6
CONTINUOUS
 62
3
 10
-322.057081065721950
 20
-102.602295394206970
 40
1.499999999999926
 50
239.999999999998410
 51
306.421821521797600
  0
LINE
  8
0
  6
CONTINUOUS
 62
3
 10
-322.807081065721950
 20
-103.901333499883540
 11
-325.581969775342600
 21
-102.299250756412670
  0
ARC
  8
0
  6
CONTINUOUS
 62
3
 10
-324.831969775342600
 20
-101.000212650736100
 40
1.499999999999792
 50
132.079786860611680
 51
239.999999999998410
  0
ARC
  8
0
  6
CONTINUOUS
 62
3
 10
-316.119827132528480
 20
-110.648972704300370
 40
14.499999999999980
 50
107.920213139390830
 51
132.079786860607560
  0
ARC
  8
0
  6
CONTINUOUS
 62
3
 10
-320.119827132528030
 20
-88.507382878815861
 40
1.500000000000000
 50
0.000000000000000
 51
100.240348321194510
  0
LINE
  8
0
  6
CONTINUOUS
 62
3
 10
-318.619827132528030
 20
-88.507382878815861
 11
-318.619827132528030
 21
-91.563638020308190
  0
ARC
  8
0
  6
CONTINUOUS
 62
3
 10
-320.119827132528030
 20
-91.563638020308190
 40
1.499999999999954
 50
281.837004155896690
 51
0.000000000000000
  0
ARC
  8
0
  6
CONTINUOUS
 62
3
 10
-316.119827132528480
 20
-110.648972704300370
 40
17.999999999999829
 50
101.837004155891980
 51
138.162995844106210
  0
ARC
  8
0
  6
CONTINUOUS
 62
3
 10
-330.648211808593830
 20
-97.642203747166604
 40
1.499999999999926
 50
239.999999999998410
 51
318.162995844106720
  0
LINE
  8
0
  6
CONTINUOUS
 62
3
 10
-331.398211808593830
 20
-98.941241852843177
 11
-334.045006401573000
 21
-97.413114282097013
  0
ARC
  8
0
  6
CONTINUOUS
 62
3
 10
-333.295006401573000
 20
-96.114076176420440
 40
1.499999999999802
 50
139.759651678811420
 51
239.999999999998410
  0
ARC
  8
0
  6
CONTINUOUS
 62
3
 10
-316.119827132528480
 20
-110.648972704300370
 40
23.999999999999901
 50
100.240348321185670
 51
139.759651678813550
  0
ARC
  8
0
  6
CONTINUOUS
 62
3
 10
-320.119827132528030
 20
-78.899956971525853
 40
1.500000000000000
 50
0.000000000000000
 51
97.180755781458288
  0
LINE
  8
0
  6
CONTINUOUS
 62
3
 10
-318.619827132528030
 20
-78.899956971525853
 11
-318.619827132528030
 21
-81.926159471610390
  0
ARC
  8
0
  6
CONTINUOUS
 62
3
 10
-320.119827132528030
 20
-72.357328707209263
 40
1.499999999999933
 50
275.963570118318330
 51
0.000000000000000
  0
LINE
  8
0
  6
CONTINUOUS
 62
3
 10
-318.619827132528030
 20
-69.342193599655047
 11
-318.619827132528030
 21
-72.357328707209263
  0
LINE
  8
0
  6
CONTINUOUS
 62
3
 10
-281.597107079392690
 20
-133.467425766084940
 11
-284.208290678376780
 21
-131.959858212307610
  0
ARC
  8
0
  6
CONTINUOUS
 62
3
 10
-282.347107079392690
 20
-134.766463871761520
 40
1.499999999999844
 50
324.468928475167900
 51
59.999999999998380
  0
ARC
  8
0
  6
CONTINUOUS
 62
3
 10
-280.958290678376780
 20
-126.330693087708820
 40
1.500000000000063
 50
155.963570118322880
 51
239.999999999998410
  0
LINE
  8
0
  6
CONTINUOUS
 62
3
 10
-279.097107079392690
 20
-129.137298747162730
 11
-281.708290678376780
 21
-127.629731193385390
  0
ARC
  8
0
  6
CONTINUOUS
 62
3
 10
-278.347107079392690
 20
-127.838260641485700
 40
1.500000000000320
 50
240.000000000007050
 51
335.531071524832500
  0
ARC
  8
0
  6
CONTINUOUS
 62
3
 10
-316.119827132528260
 20
-110.648972704301280
 40
42.999999999999936
 50
335.531071524839770
 51
24.468928475160769
  0
ARC
  8
0
  6
CONTINUOUS
 62
3
 10
-316.119827132528260
 20
-110.648972704301280
 40
36.999999999999972
 50
335.963570118321740
 51
24.036429881678870
  0
ARC
  8
0
  6
CONTINUOUS
 62
3
 10
-280.958290678377010
 20
-94.967252320893294
 40
1.500000000000123
 50
119.999999999997270
 51
204.036429881680680
  0
LINE
  8
0
  6
CONTINUOUS
 62
3
 10
-281.708290678377010
 20
-93.668214215216494
 11
-279.097107079392690
 21
-92.160646661439387
  0
ARC
  8
0
  6
CONTINUOUS
 62
3
 10
-278.347107079392690
 20
-93.459684767116187
 40
1.500000000000034
 50
24.468928475159590
 51
119.999999999997270
  0
ARC
  8
0
  6
CONTINUOUS
 62
3
 10
-316.119827132528480
 20
-110.648972704300830
 40
42.999999999999908
 50
35.531071524839248
 51
84.468928475160212
  0
ARC
  8
0
  6
CONTINUOUS
 62
3
 10
-282.347107079393140
 20
-86.531481536840147
 40
1.500000000000123
 50
299.999999999997270
 51
35.531071524839192
  0
ARC
  8
0
  6
CONTINUOUS
 62
3
 10
-312.119827132528030
 20
-72.357328707209263
 40
1.500000000000000
 50
180.000000000000000
 51
264.036429881682580
  0
ARC
  8
0
  6
CONTINUOUS
 62
3
 10
-312.119827132528030
 20
-78.899956971525853
 40
1.499999999999998
 50
82.819244218541712
 51
180.000000000000000
  0
LINE
  8
0
  6
CONTINUOUS
 62
3
 10
-313.619827132528030
 20
-78.899956971525853
 11
-313.619827132528030
 21
-81.926159471610390
  0
LINE
  8
0
  6
CONTINUOUS
 62
3
 10
-284.208290678377240
 20
-89.338087196294055
 11
-281.597107079393140
 21
-87.830519642516947
  0
LINE
  8
0
  6
CONTINUOUS
 62
3
 10
-313.619827132528030
 20
-69.342193599655275
 11
-313.619827132528030
 21
-72.357328707209263
  0
ARC
  8
0
  6
CONTINUOUS
 62
3
 10
-316.119827132528260
 20
-110.648972704300370
 40
27.499999999999815
 50
97.928141766201691
 51
142.071858233797880
  0
ARC
  8
0
  6
CONTINUOUS
 62
3
 10
-316.119827132527800
 20
-110.648972704300370
 40
17.999999999999922
 50
41.837004155893325
 51
78.162995844107314
  0
ARC
  8
0
  6
CONTINUOUS
 62
3
 10
-320.119827132528030
 20
-69.342193599655047
 40
1.500000000000000
 50
0.000000000000000
 51
95.531071524841693
  0
ARC
  8
0
  6
CONTINUOUS
 62
3
 10
-312.119827132528030
 20
-69.342193599655275
 40
1.500000000000203
 50
84.468928475159132
 51
180.000000000000000
  0
ARC
  8
0
  6
CONTINUOUS
 62
3
 10
-316.119827132528030
 20
-351.248972704300740
 40
300.599999999999910
 50
90.000000000000000
 51
98.597082237249069
  0
ARC
  8
0
  6
CONTINUOUS
 62
3
 10
-316.119827132528030
 20
129.951027295699300
 40
300.600000000000140
 50
270.000000000000000
 51
278.597082237249080
  0
ARC
  8
0
  6
CONTINUOUS
 62
3
 10
-272.171239702245540
 20
-60.552358236772534
 40
6.600000000000118
 50
45.000000000001400
 51
81.402917762751386
  0
ARC
  8
0
  6
CONTINUOUS
 62
3
 10
-316.119827132528030
 20
-351.248972704300740
 40
300.599999999999800
 50
81.402917762750931
 51
90.000000000000000
  0
ARC
  8
0
  6
CONTINUOUS
 62
3
 10
-272.171239702245540
 20
-160.745587171829360
 40
6.599999999999747
 50
278.597082237248910
 51
315.000000000000000
  0
ARC
  8
0
  6
CONTINUOUS
 62
3
 10
-316.119827132528030
 20
129.951027295699300
 40
300.600000000000020
 50
261.402917762750920
 51
270.000000000000000
  0
ARC
  8
0
  6
CONTINUOUS
 62
3
 10
-360.068414562810520
 20
-160.745587171829360
 40
6.599999999999957
 50
225.000000000000000
 51
261.402917762751090
  0
LINE
  8
0
  6
DASHDOT
 62
4
 10
-402.674167128110070
 20
-110.648972704300830
 11
-187.341134717866230
 21
-110.648972704300830
  0
LINE
  8
0
  6
DASHDOT
 62
4
 10
-316.119827132528030
 20
-198.251106844629250
 11
-316.119827132528030
 21
-17.695232888145426
  0
LINE
  8
0
  6
CONTINUOUS
 62
3
 10
-267.504334946414360
 20
-55.885453480941351
 11
-260.437885827755390
 21
-62.951902599600317
  0
ARC
  8
0
  6
CONTINUOUS
 62
3
 10
-279.246926207317640
 20
-81.760942979162564
 40
26.600000000000193
 50
6.051985358668552
 51
45.000000000000000
  0
LINE
  8
0
  6
CONTINUOUS
 62
3
 10
-364.735319318641700
 20
-55.885453480941351
 11
-371.801768437300670
 21
-62.951902599600317
  0
ARC
  8
0
  6
CONTINUOUS
 62
3
 10
-352.992728057738420
 20
-81.760942979162564
 40
26.600000000000119
 50
135.000000000000000
 51
173.948014641331410
  0
LINE
  8
0
  6
CONTINUOUS
 62
3
 10
-364.735319318641700
 20
-165.412491927660540
 11
-371.801768437300890
 21
-158.346042809000890
  0
ARC
  8
0
  6
CONTINUOUS
 62
3
 10
-80.519827132527979
 20
-110.648972704300830
 40
300.599999999999970
 50
173.948014641331500
 51
186.051985358668500
  0
ARC
  8
0
  6
CONTINUOUS
 62
3
 10
-352.992728057738420
 20
-139.537002429439100
 40
26.599999999999969
 50
186.051985358668590
 51
224.999999999998980
  0
ARC
  8
0
  6
CONTINUOUS
 62
3
 10
-551.719827132527940
 20
-110.648972704300830
 40
300.600000000000080
 50
353.948014641331500
 51
6.051985358668499
  0
LINE
  8
0
  6
CONTINUOUS
 62
3
 10
-267.504334946414360
 20
-165.412491927660540
 11
-260.437885827754940
 21
-158.346042809000890
  0
ARC
  8
0
  6
CONTINUOUS
 62
3
 10
-279.246926207317410
 20
-139.537002429439100
 40
26.599999999999955
 50
315.000000000001020
 51
353.948014641331380
  0
ARC
  8
0
  6
CONTINUOUS
 62
4
 10
-352.992728057738420
 20
-81.760942979162564
 40
15.396999999999876
 50
135.000000000000000
 51
173.948014641331160
  0
LINE
  8
0
  6
CONTINUOUS
 62
4
 10
-359.303985775029220
 20
-66.297554476594541
 11
-363.880051167667830
 21
-70.873619869233153
  0
ARC
  8
0
  6
CONTINUOUS
 62
4
 10
-80.519827132528093
 20
-110.648972704300830
 40
289.396999999999930
 50
173.948014641331470
 51
180.000000000000000
  0
ARC
  8
0
  6
CONTINUOUS
 62
4
 10
-316.119827132528030
 20
-351.248972704300740
 40
289.396999999999820
 50
82.102011327572214
 51
90.000000000000000
  0
ARC
  8
0
  6
CONTINUOUS
 62
4
 10
-277.178309177145710
 20
-70.540195163714088
 40
6.000000000000049
 50
45.000000000003077
 51
82.102011327574374
  0
LINE
  8
0
  6
CONTINUOUS
 62
4
 10
-272.935668490026610
 20
-66.297554476594541
 11
-268.359603097388000
 21
-70.873619869233153
  0
ARC
  8
0
  6
CONTINUOUS
 62
4
 10
-279.246926207317410
 20
-81.760942979162564
 40
15.397000000000052
 50
6.051985358668849
 51
45.000000000000000
  0
ARC
  8
0
  6
CONTINUOUS
 62
4
 10
-551.719827132527940
 20
-110.648972704300830
 40
289.397000000000160
 50
0.000000000000000
 51
6.051985358668508
  0
ARC
  8
0
  6
CONTINUOUS
 62
4
 10
-316.119827132528030
 20
129.951027295699080
 40
289.396999999999930
 50
270.000000000000000
 51
277.897988672427800
  0
ARC
  8
0
  6
CONTINUOUS
 62
4
 10
-277.178309177145710
 20
-150.757750244887570
 40
5.999999999999923
 50
277.897988672425640
 51
314.999999999996870
  0
LINE
  8
0
  6
CONTINUOUS
 62
4
 10
-272.935668490026610
 20
-155.000390932007120
 11
-268.359603097388000
 21
-150.424325539368510
  0
ARC
  8
0
  6
CONTINUOUS
 62
4
 10
-279.246926207317410
 20
-139.537002429439100
 40
15.396999999999876
 50
315.000000000000000
 51
353.948014641331160
  0
ARC
  8
0
  6
CONTINUOUS
 62
4
 10
-551.719827132527940
 20
-110.648972704300830
 40
289.397000000000160
 50
353.948014641331500
 51
0.000000000000000
  0
ARC
  8
0
  6
CONTINUOUS
 62
4
 10
-316.119827132527800
 20
129.951027295699080
 40
289.396999999999820
 50
262.102011327572200
 51
270.000000000000000
  0
ARC
  8
0
  6
CONTINUOUS
 62
4
 10
-355.061345087910130
 20
-150.757750244887570
 40
6.000000000000049
 50
225.000000000003070
 51
262.102011327574360
  0
LINE
  8
0
  6
CONTINUOUS
 62
4
 10
-359.303985775029220
 20
-155.000390932007120
 11
-363.880051167667830
 21
-150.424325539368510
  0
ARC
  8
0
  6
CONTINUOUS
 62
4
 10
-352.992728057738420
 20
-139.537002429439100
 40
15.397000000000052
 50
186.051985358668840
 51
225.000000000000000
  0
ARC
  8
0
  6
CONTINUOUS
 62
4
 10
-80.519827132527865
 20
-110.648972704300830
 40
289.397000000000160
 50
180.000000000000000
 51
186.051985358668500
  0
ARC
  8
0
  6
CONTINUOUS
 62
3
 10
-316.119827132528030
 20
-480.648972704300830
 40
450.000000000000110
 50
87.767131757208588
 51
90.000000000000000
  0
ARC
  8
0
  6
CONTINUOUS
 62
3
 10
-316.119827132528030
 20
-480.648972704300830
 40
450.000000000000000
 50
90.000000000000000
 51
92.232868242791525
  0
ENDSEC
  0
EOF
