  0
SECTION
  2
HEADER
  9
$TEXTSIZE
 40
2.5
  9
$ACADVER
  1
AC1009
  9
$DIMASZ
 40
3.863703297614046
  9
$DIMEXE
 40
2.000000000000000
  9
$DIMEXO
 40
1.000000000000000
  9
$DIMLFAC
 40
1.000000000000000
  9
$DIMSCALE
 40
1.000000000000000
  9
$DIMTAD
 70
1
  9
$DIMTFAC
 40
0.625000000000000
  9
$DIMTXT
 40
3.200000047683716
  9
$LUPREC
 70
3
  9
$REGENMODE
 70
1
  9
$TEXTSTYLE
  7
STANDARD1
  0
ENDSEC
  0
SECTION
  2
TABLES
  0
TABLE
  2
LTYPE
 70
4
  0
LTYPE
  2
CONTINUOUS
 70
64
  3
Solid line
 72
65
 73
0
 40
0.0
  0
LTYPE
  2
DASHED
 70
64
  3
-- -- -- -- -- -- -- -- -- -- -- -- -- -- --
 72
65
 73
2
 40
0.75
 49
0.5
 49
-0.25
  0
LTYPE
  2
DASHDOT
 70
64
  3
__ . __ . __ . __ . __ . __ . __ . __ . __ . __
 72
65
 73
4
 40
1.0
 49
0.5
 49
-0.25
 49
0.0
 49
-0.25
  0
LTYPE
  2
DIVIDE
 70
64
  3
__ . . __ . . __ . . __ . . __ . . __ . . __
 72
65
 73
6
 40
1.25
 49
0.5
 49
-0.25
 49
0.0
 49
-0.25
 49
0.0
 49
-0.25
  0
ENDTAB
  0
TABLE
  2
LAYER
 70
1
  0
LAYER
  2
0
 70
64
 62
2
  6
CONTINUOUS
  0
ENDTAB
  0
TABLE
  2
STYLE
 70
4
  0
STYLE
  2
STANDARD1
 70
64
 40
0.0
 41
1.0
 50
0.0
 71
0
 42
3.200000047683716
  3
MONOTXT
  4
BIGFONT
  0
STYLE
  2
STANDARD2
 70
68
 40
0.0
 41
1.0
 50
0.0
 71
0
 42
3.200000047683716
  3
MONOTXT
  4
BIGFONT
  0
STYLE
  2
STANDARD3
 70
64
 40
0.0
 41
1.0
 50
0.0
 71
0
 42
3.200000047683716
  3
MONOTXT
  4

  0
STYLE
  2
STANDARD4
 70
68
 40
0.0
 41
1.0
 50
0.0
 71
0
 42
3.200000047683716
  3
MONOTXT
  4

  0
ENDTAB
  0
TABLE
  2
VIEW
 70
0
  0
ENDTAB
  0
ENDSEC
  0
SECTION
  2
BLOCKS
  0
BLOCK
  8
0
  2
ZU_SYM_1
 70
64
 10
0.000000000000000
 20
0.000000000000000
  0
POINT
  8
0
  6
CONTINUOUS
 62
256
 10
0.000000000000000
 20
0.000000000000000
  0
LINE
  8
0
  6
CONTINUOUS
 62
256
 10
0.000000000000000
 20
-6.500000000000000
 11
0.000000000000000
 21
6.500000000000000
  0
LINE
  8
0
  6
CONTINUOUS
 62
256
 10
-7.999999046325684
 20
5.633875846862793
 11
-7.999999046325684
 21
-5.634070396423340
  0
LINE
  8
0
  6
CONTINUOUS
 62
256
 10
0.000000000000000
 20
6.500000000000000
 11
-7.499999046325684
 21
6.500000000000000
  0
LINE
  8
0
  6
CONTINUOUS
 62
256
 10
0.000000000000000
 20
-6.500000000000000
 11
-7.499998092651367
 21
-6.500000000000000
  0
LINE
  8
0
  6
CONTINUOUS
 62
256
 10
-7.499999203818277
 20
6.499999909101064
 11
-7.999999021366804
 21
5.633876130311293
  0
LINE
  8
0
  6
CONTINUOUS
 62
256
 10
-7.499997911632022
 20
-6.499999445138201
 11
-7.999998623386432
 21
-5.634070287011241
  0
LINE
  8
0
  6
CONTINUOUS
 62
256
 10
-7.499999046325684
 20
6.500000000000000
 11
-7.499999046325684
 21
-6.500000000000000
  0
ENDBLK
  8
0
  0
BLOCK
  8
0
  2
ZU_SYM_2
 70
64
 10
0.000000000000000
 20
0.000000000000000
  0
CIRCLE
  8
0
  6
CONTINUOUS
 62
256
 10
0.000000000000000
 20
0.000000000000000
 40
5.633955001831055
  0
CIRCLE
  8
0
  6
CONTINUOUS
 62
256
 10
0.000000000000000
 20
0.000000000000000
 40
6.500000000000000
  0
POINT
  8
0
  6
CONTINUOUS
 62
256
 10
0.000000000000000
 20
0.000000000000000
  0
LINE
  8
0
  6
CONTINUOUS
 62
256
 10
-2.999996662140960
 20
-1.732045999551255
 11
-2.999997615815242
 21
1.732051977133316
  0
LINE
  8
0
  6
CONTINUOUS
 62
256
 10
2.999996662140697
 20
1.732046953225571
 11
2.999997615814979
 21
-1.732051023458999
  0
LINE
  8
0
  6
CONTINUOUS
 62
256
 10
0.000006701720849
 20
3.464096999935236
 11
-2.999997939551520
 21
1.732051821705568
  0
LINE
  8
0
  6
CONTINUOUS
 62
256
 10
2.999998112093635
 20
-1.732051392778772
 11
-0.000004464412200
 21
-3.464098365415111
  0
LINE
  8
0
  6
CONTINUOUS
 62
256
 10
0.000006618601731
 20
3.464096896385627
 11
2.999997425948948
 21
1.732046782136365
  0
LINE
  8
0
  6
CONTINUOUS
 62
256
 10
-0.000004704988612
 20
-3.464098175748802
 11
-2.999997577100373
 21
-1.732046218032735
  0
POINT
  8
0
  6
CONTINUOUS
 62
256
 10
0.500000119209290
 20
6.500000000000000
  0
POINT
  8
0
  6
CONTINUOUS
 62
256
 10
0.000000000000000
 20
5.633955001831055
  0
ENDBLK
  8
0
  0
ENDSEC
  0
SECTION
  2
ENTITIES
  0
LINE
  8
0
  6
CONTINUOUS
 62
256
 10
349.811644985723890
 20
-119.502205011365730
 11
357.811644985723890
 21
-119.502205011365730
  0
LINE
  8
0
  6
CONTINUOUS
 62
256
 10
349.811644985723890
 20
-107.502205011365730
 11
357.811644985723890
 21
-107.502205011365730
  0
LINE
  8
0
  6
CONTINUOUS
 62
256
 10
215.732229923832450
 20
-119.502205011365730
 11
166.732229923832450
 21
-119.502205011365730
  0
LINE
  8
0
  6
CONTINUOUS
 62
256
 10
215.732229923832450
 20
-107.502205011365730
 11
166.732229923832450
 21
-107.502205011365730
  0
ARC
  8
0
  6
CONTINUOUS
 62
256
 10
166.732229923832450
 20
-113.502205011365730
 40
6.000000000000000
 50
90.000000000000000
 51
270.000000000000000
  0
LINE
  8
0
  6
CONTINUOUS
 62
256
 10
151.732229923833360
 20
154.497794988634270
 11
151.732229923833360
 21
75.811467108946999
  0
TEXT
  8
0
  6
CONTINUOUS
 62
256
 10
-445.517669677734370
 20
91.727401733398438
 40
16.000000000000000
  1
ＳＣＡＬＥ　１／１
 50
0.000002504478167
 41
0.833333333333333
  7
STANDARD1
  0
TEXT
  8
0
  6
CONTINUOUS
 62
256
 10
-445.517669677734370
 20
112.927398681640620
 40
16.000000000000000
  1
１／１２０～１／２００
 50
0.000002504478167
 41
0.833333333333333
  7
STANDARD1
  0
TEXT
  8
0
  6
CONTINUOUS
 62
256
 10
-445.517669677734370
 20
134.127395629882810
 40
16.000000000000000
  1
０．４（kＷ）
 50
0.000002504478167
 41
0.805381403683209
  7
STANDARD1
  0
TEXT
  8
0
  6
CONTINUOUS
 62
256
 10
-445.517669677734370
 20
155.327407836914060
 40
16.000000000000000
  1
ＧＭーＤＢ
 50
0.000002504478167
 41
0.833333333333333
  7
STANDARD1
  0
TEXT
  8
0
  6
CONTINUOUS
 62
256
 10
-445.517669677734370
 20
176.527404785156250
 40
16.000000000000000
  1
三菱ギヤードモートル
 50
0.000002504478167
 41
0.833333333333333
  7
STANDARD1
  0
TEXT
  8
0
  6
CONTINUOUS
 62
256
 10
-445.517669677734370
 20
197.727401733398440
 40
16.000000000000000
  1
Ｄ０３２
 50
0.000002504478167
 41
0.833333333333333
  7
STANDARD1
  0
LINE
  8
0
  6
DASHDOT
 62
256
 10
-226.639722083920790
 20
154.497794988634270
 11
232.747220165334800
 21
154.497794988634270
  0
LINE
  8
0
  6
CONTINUOUS
 62
256
 10
-38.267776127365551
 20
213.997794988634270
 11
-8.267776127365664
 21
213.997794988634270
  0
LINE
  8
0
  6
CONTINUOUS
 62
256
 10
-105.267776127365550
 20
211.497794988634270
 11
-8.267776127365664
 21
211.497794988634270
  0
LINE
  8
0
  6
CONTINUOUS
 62
256
 10
-105.267776127365550
 20
210.497794988634270
 11
-8.267776127365664
 21
210.497794988634270
  0
LINE
  8
0
  6
CONTINUOUS
 62
256
 10
-105.267776127365550
 20
209.497794988634270
 11
-8.267776127365664
 21
209.497794988634270
  0
LINE
  8
0
  6
CONTINUOUS
 62
256
 10
-105.267776127365550
 20
204.813329175409990
 11
-8.267776127365664
 21
204.813329175409990
  0
LINE
  8
0
  6
CONTINUOUS
 62
256
 10
-105.267776127365550
 20
199.863581707104230
 11
-8.267776127365664
 21
199.863581707104230
  0
LINE
  8
0
  6
CONTINUOUS
 62
256
 10
-105.267776127365550
 20
169.497794988634270
 11
-12.267775173702546
 21
169.497794988634270
  0
LINE
  8
0
  6
CONTINUOUS
 62
256
 10
-105.267776127365550
 20
173.871056798135440
 11
-8.267776127365664
 21
173.871056798135440
  0
LINE
  8
0
  6
CONTINUOUS
 62
256
 10
-105.267776127365550
 20
175.137294714222660
 11
-8.267776127365664
 21
175.137294714222660
  0
LINE
  8
0
  6
CONTINUOUS
 62
256
 10
-105.267776127365550
 20
179.327848445764860
 11
-8.267776127365664
 21
179.327848445764860
  0
LINE
  8
0
  6
CONTINUOUS
 62
256
 10
-105.267776127365550
 20
180.689728781114130
 11
-8.267776127365664
 21
180.689728781114130
  0
LINE
  8
0
  6
CONTINUOUS
 62
256
 10
-105.267776127365550
 20
184.780229315204000
 11
-8.267776127365664
 21
184.780229315204000
  0
LINE
  8
0
  6
CONTINUOUS
 62
256
 10
-105.267776127365550
 20
186.248586705008620
 11
-8.267776127365664
 21
186.248586705008620
  0
LINE
  8
0
  6
CONTINUOUS
 62
256
 10
-105.267776127365550
 20
190.212332128808160
 11
-8.267776127365664
 21
190.212332128808160
  0
LINE
  8
0
  6
CONTINUOUS
 62
256
 10
-105.267776127365550
 20
191.816980044370210
 11
-8.267776127365664
 21
191.816980044370210
  0
LINE
  8
0
  6
CONTINUOUS
 62
256
 10
-105.267776127365550
 20
139.497794988634270
 11
-12.267775173702546
 21
139.497794988634270
  0
LINE
  8
0
  6
CONTINUOUS
 62
256
 10
-105.267776127365550
 20
135.124533179133100
 11
-8.267776127365664
 21
135.124533179133100
  0
LINE
  8
0
  6
CONTINUOUS
 62
256
 10
-105.267776127365550
 20
133.858295263045870
 11
-8.267776127365664
 21
133.858295263045870
  0
LINE
  8
0
  6
CONTINUOUS
 62
256
 10
-105.267776127365550
 20
129.667741531503680
 11
-8.267776127365664
 21
129.667741531503680
  0
LINE
  8
0
  6
CONTINUOUS
 62
256
 10
-105.267776127365550
 20
128.305861196154410
 11
-8.267776127365664
 21
128.305861196154410
  0
LINE
  8
0
  6
CONTINUOUS
 62
256
 10
-105.267776127365550
 20
124.215360662064540
 11
-8.267776127365664
 21
124.215360662064540
  0
LINE
  8
0
  6
CONTINUOUS
 62
256
 10
-105.267776127365550
 20
122.747003272259900
 11
-8.267776127365664
 21
122.747003272259900
  0
LINE
  8
0
  6
CONTINUOUS
 62
256
 10
-105.267776127365550
 20
118.783257848460380
 11
-8.267776127365664
 21
118.783257848460380
  0
LINE
  8
0
  6
CONTINUOUS
 62
256
 10
-105.267776127365550
 20
117.178609932898330
 11
-8.267776127365664
 21
117.178609932898330
  0
LINE
  8
0
  6
CONTINUOUS
 62
256
 10
-105.267776127365550
 20
109.132008270164310
 11
-8.267776127365664
 21
109.132008270164310
  0
LINE
  8
0
  6
CONTINUOUS
 62
256
 10
-105.267776127365550
 20
104.182260801858550
 11
-8.267776127365664
 21
104.182260801858550
  0
LINE
  8
0
  6
CONTINUOUS
 62
256
 10
-105.267776127365550
 20
99.497794988634269
 11
-8.267776127365664
 21
99.497794988634269
  0
LINE
  8
0
  6
CONTINUOUS
 62
256
 10
-105.267776127365550
 20
98.497794988634269
 11
-8.267776127365664
 21
98.497794988634269
  0
LINE
  8
0
  6
CONTINUOUS
 62
256
 10
-105.267776127365550
 20
97.497794988634269
 11
-8.267776127365664
 21
97.497794988634269
  0
LINE
  8
0
  6
CONTINUOUS
 62
256
 10
-105.399984606573750
 20
94.997794988634269
 11
-8.267776127365664
 21
94.997794988634269
  0
LINE
  8
0
  6
CONTINUOUS
 62
256
 10
-105.267776127365550
 20
213.997794988634040
 11
-8.267776127365664
 21
213.997794988634040
  0
ARC
  8
0
  6
CONTINUOUS
 62
256
 10
-112.267776127365440
 20
89.878574071761477
 40
3.000000000000000
 50
90.000000000000000
 51
180.000000000000000
  0
ARC
  8
0
  6
CONTINUOUS
 62
256
 10
-108.267776127365550
 20
95.878574071761477
 40
3.000000000000000
 50
270.000000000000000
 51
0.000000000000000
  0
LINE
  8
0
  6
CONTINUOUS
 62
256
 10
-115.267776127365440
 20
89.497794988634269
 11
-115.267776127365440
 21
89.878574071761477
  0
LINE
  8
0
  6
CONTINUOUS
 62
256
 10
-112.267776127365440
 20
92.878574071761477
 11
-108.267776127365550
 21
92.878574071761477
  0
ARC
  8
0
  6
CONTINUOUS
 62
256
 10
-185.961800349785900
 20
109.497794988634250
 40
19.999999999999993
 50
234.999999999999740
 51
270.000000000000000
  0
LINE
  8
0
  6
CONTINUOUS
 62
256
 10
-115.267776127365440
 20
89.497794988634269
 11
-185.961800349785900
 21
89.497794988634269
  0
ARC
  8
0
  6
CONTINUOUS
 62
256
 10
-205.667776127315280
 20
102.054589931388800
 40
2.600000000000136
 50
180.000000000000000
 51
234.999999999998810
  0
LINE
  8
0
  6
CONTINUOUS
 62
256
 10
-197.433329076806900
 20
93.114754102854477
 11
-207.159074861827890
 21
99.924794616237705
  0
LINE
  8
0
  6
CONTINUOUS
 62
256
 10
-208.267776127315410
 20
154.497794988634270
 11
-208.267776127315410
 21
102.054589931388800
  0
LINE
  8
0
  6
CONTINUOUS
 62
256
 10
-105.267776127365550
 20
154.497794988634270
 11
-105.267776127365550
 21
95.878574071761477
  0
ARC
  8
0
  6
CONTINUOUS
 62
256
 10
-205.667776127315280
 20
206.941000045879720
 40
2.599999999999721
 50
125.000000000001380
 51
180.000000000000000
  0
LINE
  8
0
  6
CONTINUOUS
 62
256
 10
-197.433329076806900
 20
215.880835874414060
 11
-207.159074861827890
 21
209.070795361030830
  0
ARC
  8
0
  6
CONTINUOUS
 62
256
 10
-185.961800349785900
 20
199.497794988634270
 40
20.000000000000000
 50
90.000000000000000
 51
125.000000000000240
  0
LINE
  8
0
  6
CONTINUOUS
 62
256
 10
-208.267776127315410
 20
154.497794988634270
 11
-208.267776127315410
 21
206.941000045879720
  0
LINE
  8
0
  6
CONTINUOUS
 62
256
 10
-105.267776127365550
 20
219.497794988634270
 11
-185.961800349785900
 21
219.497794988634270
  0
LINE
  8
0
  6
CONTINUOUS
 62
256
 10
-105.267776127365550
 20
154.497794988634270
 11
-105.267776127365550
 21
219.497794988634270
  0
LINE
  8
0
  6
CONTINUOUS
 62
256
 10
-116.267776127364980
 20
208.237910089071870
 11
-118.267776127364980
 21
206.585268449948440
  0
LINE
  8
0
  6
CONTINUOUS
 62
256
 10
-114.267776127364980
 20
209.413695574694660
 11
-116.267776127364980
 21
208.237910089071870
  0
LINE
  8
0
  6
CONTINUOUS
 62
256
 10
-116.267776127364980
 20
208.237910089071870
 11
-114.267776127364980
 21
206.585268449948440
  0
LINE
  8
0
  6
CONTINUOUS
 62
256
 10
-118.267776127364980
 20
209.413695574694660
 11
-116.267776127364980
 21
208.237910089071870
  0
LINE
  8
0
  6
CONTINUOUS
 62
256
 10
-111.658085309469810
 20
205.718363054493980
 11
-111.567776127364990
 21
206.421320020694340
  0
LINE
  8
0
  6
CONTINUOUS
 62
256
 10
-111.925542324561950
 20
205.042420330281890
 11
-111.658085309469810
 21
205.718363054493980
  0
LINE
  8
0
  6
CONTINUOUS
 62
256
 10
-112.359868949543010
 20
204.419467947876480
 11
-111.925542324561950
 21
205.042420330281890
  0
LINE
  8
0
  6
CONTINUOUS
 62
256
 10
-112.944374255788200
 20
203.873445617977890
 11
-112.359868949543010
 21
204.419467947876480
  0
LINE
  8
0
  6
CONTINUOUS
 62
256
 10
-113.656596032172860
 20
203.425336672511260
 11
-112.944374255788200
 21
203.873445617977890
  0
LINE
  8
0
  6
CONTINUOUS
 62
256
 10
-114.469163995249060
 20
203.092361686948520
 11
-113.656596032172860
 21
203.425336672511260
  0
LINE
  8
0
  6
CONTINUOUS
 62
256
 10
-115.350851613889180
 20
202.887316703250260
 11
-114.469163995249060
 21
203.092361686948520
  0
LINE
  8
0
  6
CONTINUOUS
 62
256
 10
-116.267776127364980
 20
202.818081485149490
 11
-115.350851613889180
 21
202.887316703250260
  0
LINE
  8
0
  6
CONTINUOUS
 62
256
 10
-117.184700640840770
 20
202.887316703250260
 11
-116.267776127364980
 21
202.818081485149490
  0
LINE
  8
0
  6
CONTINUOUS
 62
256
 10
-118.066388259480900
 20
203.092361686948520
 11
-117.184700640840770
 21
202.887316703250260
  0
LINE
  8
0
  6
CONTINUOUS
 62
256
 10
-118.878956222557090
 20
203.425336672511260
 11
-118.066388259480900
 21
203.092361686948520
  0
LINE
  8
0
  6
CONTINUOUS
 62
256
 10
-119.591177998941750
 20
203.873445617977890
 11
-118.878956222557090
 21
203.425336672511260
  0
LINE
  8
0
  6
CONTINUOUS
 62
256
 10
-120.175683305186940
 20
204.419467947876480
 11
-119.591177998941750
 21
203.873445617977890
  0
LINE
  8
0
  6
CONTINUOUS
 62
256
 10
-120.610009930168000
 20
205.042420330281890
 11
-120.175683305186940
 21
204.419467947876480
  0
LINE
  8
0
  6
CONTINUOUS
 62
256
 10
-120.877466945260150
 20
205.718363054493980
 11
-120.610009930168000
 21
205.042420330281890
  0
LINE
  8
0
  6
CONTINUOUS
 62
256
 10
-120.967776127364970
 20
206.421320020694340
 11
-120.877466945260150
 21
205.718363054493980
  0
LINE
  8
0
  6
CONTINUOUS
 62
256
 10
-120.877466945260150
 20
207.124276986894700
 11
-120.967776127364970
 21
206.421320020694340
  0
LINE
  8
0
  6
CONTINUOUS
 62
256
 10
-120.610009930168000
 20
207.800219711106790
 11
-120.877466945260150
 21
207.124276986894700
  0
LINE
  8
0
  6
CONTINUOUS
 62
256
 10
-120.175683305186940
 20
208.423172093512190
 11
-120.610009930168000
 21
207.800219711106790
  0
LINE
  8
0
  6
CONTINUOUS
 62
256
 10
-119.591177998941750
 20
208.969194423410780
 11
-120.175683305186940
 21
208.423172093512190
  0
LINE
  8
0
  6
CONTINUOUS
 62
256
 10
-118.878956222557090
 20
209.417303368877410
 11
-119.591177998941750
 21
208.969194423410780
  0
LINE
  8
0
  6
CONTINUOUS
 62
256
 10
-118.066388259480900
 20
209.750278354440160
 11
-118.878956222557090
 21
209.417303368877410
  0
LINE
  8
0
  6
CONTINUOUS
 62
256
 10
-117.184700640840770
 20
209.955323338138410
 11
-118.066388259480900
 21
209.750278354440160
  0
LINE
  8
0
  6
CONTINUOUS
 62
256
 10
-116.267776127364980
 20
210.024558556239190
 11
-117.184700640840770
 21
209.955323338138410
  0
LINE
  8
0
  6
CONTINUOUS
 62
256
 10
-115.350851613889180
 20
209.955323338138410
 11
-116.267776127364980
 21
210.024558556239190
  0
LINE
  8
0
  6
CONTINUOUS
 62
256
 10
-114.469163995249060
 20
209.750278354440160
 11
-115.350851613889180
 21
209.955323338138410
  0
LINE
  8
0
  6
CONTINUOUS
 62
256
 10
-113.656596032172860
 20
209.417303368877410
 11
-114.469163995249060
 21
209.750278354440160
  0
LINE
  8
0
  6
CONTINUOUS
 62
256
 10
-112.944374255788200
 20
208.969194423410780
 11
-113.656596032172860
 21
209.417303368877410
  0
LINE
  8
0
  6
CONTINUOUS
 62
256
 10
-112.359868949543010
 20
208.423172093512190
 11
-112.944374255788200
 21
208.969194423410780
  0
LINE
  8
0
  6
CONTINUOUS
 62
256
 10
-111.925542324561950
 20
207.800219711106790
 11
-112.359868949543010
 21
208.423172093512190
  0
LINE
  8
0
  6
CONTINUOUS
 62
256
 10
-111.658085309469810
 20
207.124276986894700
 11
-111.925542324561950
 21
207.800219711106790
  0
LINE
  8
0
  6
CONTINUOUS
 62
256
 10
-111.567776127364990
 20
206.421320020694340
 11
-111.658085309469810
 21
207.124276986894700
  0
LINE
  8
0
  6
CONTINUOUS
 62
256
 10
-116.267776127364980
 20
100.757679888196440
 11
-118.267776127364980
 21
102.410321527319870
  0
LINE
  8
0
  6
CONTINUOUS
 62
256
 10
-114.267776127364980
 20
99.581894402574108
 11
-116.267776127364980
 21
100.757679888196440
  0
LINE
  8
0
  6
CONTINUOUS
 62
256
 10
-116.267776127364980
 20
100.757679888196440
 11
-114.267776127364980
 21
102.410321527319870
  0
LINE
  8
0
  6
CONTINUOUS
 62
256
 10
-118.267776127364980
 20
99.581894402574108
 11
-116.267776127364980
 21
100.757679888196440
  0
LINE
  8
0
  6
CONTINUOUS
 62
256
 10
-111.658085309469810
 20
101.871312990374070
 11
-111.567776127364990
 21
102.574269956574430
  0
LINE
  8
0
  6
CONTINUOUS
 62
256
 10
-111.925542324561950
 20
101.195370266161970
 11
-111.658085309469810
 21
101.871312990374070
  0
LINE
  8
0
  6
CONTINUOUS
 62
256
 10
-112.359868949543010
 20
100.572417883756570
 11
-111.925542324561950
 21
101.195370266161970
  0
LINE
  8
0
  6
CONTINUOUS
 62
256
 10
-112.944374255788200
 20
100.026395553857990
 11
-112.359868949543010
 21
100.572417883756570
  0
LINE
  8
0
  6
CONTINUOUS
 62
256
 10
-113.656596032172860
 20
99.578286608391380
 11
-112.944374255788200
 21
100.026395553857990
  0
LINE
  8
0
  6
CONTINUOUS
 62
256
 10
-114.469163995249060
 20
99.245311622828609
 11
-113.656596032172860
 21
99.578286608391380
  0
LINE
  8
0
  6
CONTINUOUS
 62
256
 10
-115.350851613889180
 20
99.040266639130365
 11
-114.469163995249060
 21
99.245311622828609
  0
LINE
  8
0
  6
CONTINUOUS
 62
256
 10
-116.267776127364980
 20
98.971031421029593
 11
-115.350851613889180
 21
99.040266639130365
  0
LINE
  8
0
  6
CONTINUOUS
 62
256
 10
-117.184700640840770
 20
99.040266639130365
 11
-116.267776127364980
 21
98.971031421029593
  0
LINE
  8
0
  6
CONTINUOUS
 62
256
 10
-118.066388259480900
 20
99.245311622828609
 11
-117.184700640840770
 21
99.040266639130365
  0
LINE
  8
0
  6
CONTINUOUS
 62
256
 10
-118.878956222557090
 20
99.578286608391380
 11
-118.066388259480900
 21
99.245311622828609
  0
LINE
  8
0
  6
CONTINUOUS
 62
256
 10
-119.591177998941750
 20
100.026395553857990
 11
-118.878956222557090
 21
99.578286608391380
  0
LINE
  8
0
  6
CONTINUOUS
 62
256
 10
-120.175683305186940
 20
100.572417883756570
 11
-119.591177998941750
 21
100.026395553857990
  0
LINE
  8
0
  6
CONTINUOUS
 62
256
 10
-120.610009930168000
 20
101.195370266161970
 11
-120.175683305186940
 21
100.572417883756570
  0
LINE
  8
0
  6
CONTINUOUS
 62
256
 10
-120.877466945260150
 20
101.871312990374070
 11
-120.610009930168000
 21
101.195370266161970
  0
LINE
  8
0
  6
CONTINUOUS
 62
256
 10
-120.967776127364970
 20
102.574269956574430
 11
-120.877466945260150
 21
101.871312990374070
  0
LINE
  8
0
  6
CONTINUOUS
 62
256
 10
-120.877466945260150
 20
103.277226922774790
 11
-120.967776127364970
 21
102.574269956574430
  0
LINE
  8
0
  6
CONTINUOUS
 62
256
 10
-120.610009930168000
 20
103.953169646986860
 11
-120.877466945260150
 21
103.277226922774790
  0
LINE
  8
0
  6
CONTINUOUS
 62
256
 10
-120.175683305186940
 20
104.576122029392280
 11
-120.610009930168000
 21
103.953169646986860
  0
LINE
  8
0
  6
CONTINUOUS
 62
256
 10
-119.591177998941750
 20
105.122144359290860
 11
-120.175683305186940
 21
104.576122029392280
  0
LINE
  8
0
  6
CONTINUOUS
 62
256
 10
-118.878956222557090
 20
105.570253304757470
 11
-119.591177998941750
 21
105.122144359290860
  0
LINE
  8
0
  6
CONTINUOUS
 62
256
 10
-118.066388259480900
 20
105.903228290320240
 11
-118.878956222557090
 21
105.570253304757470
  0
LINE
  8
0
  6
CONTINUOUS
 62
256
 10
-117.184700640840770
 20
106.108273274018490
 11
-118.066388259480900
 21
105.903228290320240
  0
LINE
  8
0
  6
CONTINUOUS
 62
256
 10
-116.267776127364980
 20
106.177508492119240
 11
-117.184700640840770
 21
106.108273274018490
  0
LINE
  8
0
  6
CONTINUOUS
 62
256
 10
-115.350851613889180
 20
106.108273274018490
 11
-116.267776127364980
 21
106.177508492119240
  0
LINE
  8
0
  6
CONTINUOUS
 62
256
 10
-114.469163995249060
 20
105.903228290320240
 11
-115.350851613889180
 21
106.108273274018490
  0
LINE
  8
0
  6
CONTINUOUS
 62
256
 10
-113.656596032172860
 20
105.570253304757470
 11
-114.469163995249060
 21
105.903228290320240
  0
LINE
  8
0
  6
CONTINUOUS
 62
256
 10
-112.944374255788200
 20
105.122144359290860
 11
-113.656596032172860
 21
105.570253304757470
  0
LINE
  8
0
  6
CONTINUOUS
 62
256
 10
-112.359868949543010
 20
104.576122029392280
 11
-112.944374255788200
 21
105.122144359290860
  0
LINE
  8
0
  6
CONTINUOUS
 62
256
 10
-111.925542324561950
 20
103.953169646986860
 11
-112.359868949543010
 21
104.576122029392280
  0
LINE
  8
0
  6
CONTINUOUS
 62
256
 10
-111.658085309469810
 20
103.277226922774790
 11
-111.925542324561950
 21
103.953169646986860
  0
LINE
  8
0
  6
CONTINUOUS
 62
256
 10
-111.567776127364990
 20
102.574269956574430
 11
-111.658085309469810
 21
103.277226922774790
  0
LINE
  8
0
  6
CONTINUOUS
 62
256
 10
-105.930540572169780
 20
93.997794988634269
 11
-42.517776127365664
 21
93.997794988634269
  0
LINE
  8
0
  6
CONTINUOUS
 62
256
 10
-42.517776127365664
 20
93.997794988634269
 11
-42.517776127365664
 21
94.997794988634269
  0
LINE
  8
0
  6
CONTINUOUS
 62
256
 10
-111.767776127365660
 20
86.997794988634269
 11
-111.767776127365660
 21
92.836613963311265
  0
LINE
  8
0
  6
CONTINUOUS
 62
256
 10
-46.767776127365551
 20
86.997794988634269
 11
-46.767776127365664
 21
93.997794988634269
  0
LINE
  8
0
  6
CONTINUOUS
 62
256
 10
-111.767776127365660
 20
86.997794988634269
 11
-46.767776127365551
 21
86.997794988634269
  0
LINE
  8
0
  6
CONTINUOUS
 62
256
 10
-107.430451892545630
 20
92.997794988634269
 11
-46.767776127365551
 21
92.997794988634269
  0
LINE
  8
0
  6
CONTINUOUS
 62
256
 10
-111.767776127365660
 20
90.997794988634269
 11
-46.767776127365551
 21
90.997794988634269
  0
LINE
  8
0
  6
DASHDOT
 62
256
 10
-79.267776127365664
 20
92.831508324787023
 11
-79.267776127365664
 21
30.769094808150840
  0
LINE
  8
0
  6
CONTINUOUS
 62
256
 10
-114.717776127364570
 20
35.823969608850348
 11
-82.325032333261902
 21
35.823969608850348
  0
LINE
  8
0
  6
CONTINUOUS
 62
256
 10
-114.717776127364570
 20
84.692358928898670
 11
-43.817776127366869
 21
84.692358928898557
  0
LINE
  8
0
  6
CONTINUOUS
 62
256
 10
-114.717776127364570
 20
81.220886189851853
 11
-43.817776127366869
 21
81.220886189851853
  0
LINE
  8
0
  6
CONTINUOUS
 62
256
 10
-32.817776127366869
 20
73.692358928898557
 11
-32.817776127366869
 21
46.823969608850348
  0
LINE
  8
0
  6
CONTINUOUS
 62
256
 10
-125.717776127364570
 20
73.692358928898784
 11
-125.717776127364570
 21
46.823969608850348
  0
LINE
  8
0
  6
CONTINUOUS
 62
256
 10
-39.217776127366506
 20
43.797794988634223
 11
-39.217776127366506
 21
73.373729688320964
  0
LINE
  8
0
  6
CONTINUOUS
 62
256
 10
-119.317776127364940
 20
43.797794988634223
 11
-119.317776127364940
 21
73.373729688321191
  0
LINE
  8
0
  6
CONTINUOUS
 62
256
 10
-114.317776127364940
 20
78.373729688321077
 11
-44.217776127366506
 21
78.373729688320964
  0
ARC
  8
0
  6
CONTINUOUS
 62
256
 10
-44.217776127366506
 20
73.373729688320964
 40
5.000000000000000
 50
0.000000000000000
 51
90.000000000000000
  0
ARC
  8
0
  6
CONTINUOUS
 62
256
 10
-114.317776127364940
 20
73.373729688321191
 40
4.999999999999886
 50
90.000000000000000
 51
180.000000000000000
  0
ARC
  8
0
  6
CONTINUOUS
 62
256
 10
-43.817776127366869
 20
46.823969608850348
 40
11.000000000000000
 50
270.000000000000000
 51
0.000000000000000
  0
ARC
  8
0
  6
CONTINUOUS
 62
256
 10
-114.717776127364570
 20
46.823969608850348
 40
11.000000000000000
 50
180.000000000000000
 51
270.000000000000000
  0
LINE
  8
0
  6
CONTINUOUS
 62
256
 10
-113.517776127365210
 20
37.997794988634269
 11
-45.017776127366460
 21
37.997794988634269
  0
ARC
  8
0
  6
CONTINUOUS
 62
256
 10
-45.017776127366460
 20
43.797794988634223
 40
5.799999999999955
 50
270.000000000000000
 51
0.000000000000000
  0
ARC
  8
0
  6
CONTINUOUS
 62
256
 10
-113.517776127365210
 20
43.797794988634223
 40
5.799999999999727
 50
180.000000000000000
 51
270.000000000000000
  0
ARC
  8
0
  6
CONTINUOUS
 62
256
 10
-43.817776127366869
 20
70.220886189851853
 40
11.000000000000000
 50
0.000000000000000
 51
90.000000000000000
  0
ARC
  8
0
  6
CONTINUOUS
 62
256
 10
-43.817776127366869
 20
73.692358928898557
 40
11.000000000000000
 50
0.000000000000000
 51
90.000000000000000
  0
ARC
  8
0
  6
CONTINUOUS
 62
256
 10
-114.717776127364570
 20
70.220886189851853
 40
11.000000000000000
 50
90.000000000000000
 51
180.000000000000000
  0
ARC
  8
0
  6
CONTINUOUS
 62
256
 10
-114.717776127364570
 20
73.692358928898784
 40
10.999999999999886
 50
90.000000000000000
 51
180.000000000000000
  0
LINE
  8
0
  6
CONTINUOUS
 62
256
 10
-100.318411221975890
 20
37.197794988634314
 11
-58.617141032755512
 21
37.197794988634314
  0
ARC
  8
0
  6
CONTINUOUS
 62
256
 10
-58.617141032755512
 20
38.197794988634314
 40
1.000000000000000
 50
270.000000000000000
 51
323.130102354140090
  0
ARC
  8
0
  6
CONTINUOUS
 62
256
 10
-57.017141032755603
 20
36.997794988634269
 40
1.000000000000000
 50
90.000000000000000
 51
143.130102354166580
  0
ARC
  8
0
  6
CONTINUOUS
 62
256
 10
-101.918411221975820
 20
36.997794988634269
 40
0.999999999999727
 50
36.869897645849228
 51
90.000000000000000
  0
ARC
  8
0
  6
CONTINUOUS
 62
256
 10
-100.318411221975890
 20
38.197794988634314
 40
1.000000000000227
 50
216.869897645844020
 51
270.000000000000000
  0
LINE
  8
0
  6
CONTINUOUS
 62
256
 10
-113.067776127365850
 20
85.997794988634269
 11
-45.467776127365823
 21
85.997794988634155
  0
ARC
  8
0
  6
CONTINUOUS
 62
256
 10
-45.467776127365823
 20
80.997794988634155
 40
5.000000000000008
 50
44.925956400534652
 51
90.000000000000000
  0
ARC
  8
0
  6
CONTINUOUS
 62
256
 10
-113.067776127365850
 20
80.997794988634269
 40
5.000000000000000
 50
90.000000000000000
 51
135.074043599465340
  0
LINE
  8
0
  6
CONTINUOUS
 62
256
 10
-48.267776127365778
 20
86.997794988634155
 11
-48.267776127365778
 21
85.997794988634155
  0
LINE
  8
0
  6
CONTINUOUS
 62
256
 10
-110.267776127365660
 20
86.997794988634269
 11
-110.267776127365660
 21
85.997794988634269
  0
LINE
  8
0
  6
DASHDOT
 62
256
 10
-102.091407758677510
 20
61.997794988634269
 11
-57.803689720279067
 21
61.997794988634269
  0
CIRCLE
  8
0
  6
DASHED
 62
256
 10
-79.267776127365664
 20
61.997794988634041
 40
13.500000000000000
  0
ARC
  8
0
  6
CONTINUOUS
 62
256
 10
-81.467776890305117
 20
36.801267476380417
 40
1.299999237060699
 50
162.240552086452960
 51
253.398468892505430
  0
ARC
  8
0
  6
CONTINUOUS
 62
256
 10
-79.267776127365664
 20
44.180292399228165
 40
8.999999999999858
 50
253.398468892518050
 51
286.601548410325050
  0
ARC
  8
0
  6
CONTINUOUS
 62
256
 10
-77.067775364426211
 20
36.801267476380417
 40
1.299999237060352
 50
286.601548410324710
 51
17.759447913550026
  0
LINE
  8
0
  6
CONTINUOUS
 62
256
 10
-76.210519921469654
 20
35.823969608850348
 11
-43.817776127366869
 21
35.823969608850348
  0
LINE
  8
0
  6
CONTINUOUS
 62
256
 10
-32.817776127366926
 20
73.692358928898557
 11
-32.817776127366926
 21
46.823969608850348
  0
LINE
  8
0
  6
CONTINUOUS
 62
256
 10
23.232223872633369
 20
37.497794988634269
 11
23.232223872633369
 21
154.497794988634040
  0
ARC
  8
0
  6
CONTINUOUS
 62
256
 10
7.232223872633597
 20
63.497794988633814
 40
2.000000000000000
 50
90.000000000000000
 51
180.000000000000000
  0
LINE
  8
0
  6
CONTINUOUS
 62
256
 10
10.232223872633597
 20
65.497794988633586
 11
7.232223872633597
 21
65.497794988633814
  0
ARC
  8
0
  6
CONTINUOUS
 62
256
 10
10.232223872633597
 20
67.497794988633586
 40
2.000000000000000
 50
270.000000000000000
 51
0.000000000000000
  0
LINE
  8
0
  6
CONTINUOUS
 62
256
 10
5.232223872633597
 20
63.497794988633814
 11
5.232223872633597
 21
40.497794988634041
  0
LINE
  8
0
  6
CONTINUOUS
 62
256
 10
23.232223872633369
 20
37.497794988634269
 11
8.232223872633369
 21
37.497794988634041
  0
ARC
  8
0
  6
CONTINUOUS
 62
256
 10
8.232223872633369
 20
40.497794988634041
 40
2.999999999999773
 50
180.000000000000000
 51
270.000000000000000
  0
LINE
  8
0
  6
CONTINUOUS
 62
256
 10
4.232224826307686
 20
54.131670835496834
 11
4.232224826307686
 21
42.863724592210701
  0
LINE
  8
0
  6
CONTINUOUS
 62
256
 10
4.732225464165424
 20
54.997795012702227
 11
4.232225438018361
 21
54.131670872568293
  0
LINE
  8
0
  6
CONTINUOUS
 62
256
 10
4.732226090792722
 20
41.997795011335029
 11
4.232225140599496
 21
42.863724582403393
  0
LINE
  8
0
  6
CONTINUOUS
 62
256
 10
4.732224826307686
 20
54.997794988634041
 11
4.732224826307686
 21
41.997794988634041
  0
LINE
  8
0
  6
CONTINUOUS
 62
256
 10
5.232223872633597
 20
41.997794988634041
 11
4.732225779982002
 21
41.997794988634041
  0
LINE
  8
0
  6
CONTINUOUS
 62
256
 10
5.232223872633597
 20
54.997794988634041
 11
4.732224826307686
 21
54.997794988634041
  0
ARC
  8
0
  6
CONTINUOUS
 62
256
 10
15.232223872633369
 20
40.497794988634041
 40
3.000000000000000
 50
180.000000000000000
 51
270.000000000000000
  0
LINE
  8
0
  6
CONTINUOUS
 62
256
 10
7.493903653847667
 20
94.171760353530317
 11
-8.267776127365721
 21
94.997794988634269
  0
ARC
  8
0
  6
CONTINUOUS
 62
256
 10
9.232223872633369
 20
130.997794988634040
 40
3.000000000000000
 50
0.000000000000000
 51
90.000000000000000
  0
ARC
  8
0
  6
CONTINUOUS
 62
256
 10
3.232223872633597
 20
136.997794988634040
 40
3.000000000000000
 50
180.000000000000000
 51
270.000000000000000
  0
LINE
  8
0
  6
CONTINUOUS
 62
256
 10
0.232223872633824
 20
154.497794988634040
 11
0.232223872633597
 21
133.997794988634040
  0
LINE
  8
0
  6
CONTINUOUS
 62
256
 10
-4.267776127377317
 20
133.997794988634040
 11
-4.267776127375953
 21
154.497794988634040
  0
LINE
  8
0
  6
CONTINUOUS
 62
256
 10
-4.267776127377317
 20
133.997794988634040
 11
0.232223872633369
 21
133.997794988634040
  0
LINE
  8
0
  6
CONTINUOUS
 62
256
 10
3.232223872633597
 20
133.997794988634040
 11
9.232223872633369
 21
133.997794988634040
  0
LINE
  8
0
  6
CONTINUOUS
 62
256
 10
12.232223872633369
 20
40.497794988634041
 11
12.232223872633369
 21
130.997794988634040
  0
LINE
  8
0
  6
CONTINUOUS
 62
256
 10
-8.267776127365721
 20
154.497794988634040
 11
-8.267776127365721
 21
150.497794988634040
  0
LINE
  8
0
  6
CONTINUOUS
 62
256
 10
-8.267776127365721
 20
137.497794988634040
 11
-8.267776127365721
 21
94.997794988634041
  0
ARC
  8
0
  6
CONTINUOUS
 62
256
 10
7.232223872633369
 20
89.178612679757407
 40
5.000000000000030
 50
74.544229700535027
 51
87.000000000004846
  0
LINE
  8
0
  6
CONTINUOUS
 62
256
 10
23.232223872633369
 20
271.497794988633810
 11
23.232223872633369
 21
154.497794988634040
  0
ARC
  8
0
  6
CONTINUOUS
 62
256
 10
7.232223872633597
 20
245.497794988634270
 40
2.000000000000000
 50
180.000000000000000
 51
270.000000000000000
  0
LINE
  8
0
  6
CONTINUOUS
 62
256
 10
10.232223872633597
 20
243.497794988634500
 11
7.232223872633597
 21
243.497794988634270
  0
ARC
  8
0
  6
CONTINUOUS
 62
256
 10
10.232223872633597
 20
241.497794988634500
 40
2.000000000000000
 50
0.000000000000000
 51
90.000000000000000
  0
LINE
  8
0
  6
CONTINUOUS
 62
256
 10
5.232223872633597
 20
245.497794988634270
 11
5.232223872633597
 21
268.497794988634040
  0
LINE
  8
0
  6
CONTINUOUS
 62
256
 10
23.232223872633369
 20
271.497794988633810
 11
8.232223872633369
 21
271.497794988634040
  0
ARC
  8
0
  6
CONTINUOUS
 62
256
 10
8.232223872633369
 20
268.497794988634040
 40
3.000000000000000
 50
90.000000000000000
 51
180.000000000000000
  0
LINE
  8
0
  6
CONTINUOUS
 62
256
 10
4.232224826307686
 20
254.863919141771250
 11
4.232224826307686
 21
266.131865385057380
  0
LINE
  8
0
  6
CONTINUOUS
 62
256
 10
4.732225464165424
 20
253.997794964565860
 11
4.232225438018361
 21
254.863919104699790
  0
LINE
  8
0
  6
CONTINUOUS
 62
256
 10
4.732226090792722
 20
266.997794965933050
 11
4.232225140599496
 21
266.131865394864690
  0
LINE
  8
0
  6
CONTINUOUS
 62
256
 10
4.732224826307686
 20
253.997794988634040
 11
4.732224826307686
 21
266.997794988634040
  0
LINE
  8
0
  6
CONTINUOUS
 62
256
 10
5.232223872633597
 20
266.997794988634040
 11
4.732225779982002
 21
266.997794988634040
  0
LINE
  8
0
  6
CONTINUOUS
 62
256
 10
5.232223872633597
 20
253.997794988634040
 11
4.732224826307686
 21
253.997794988634040
  0
ARC
  8
0
  6
CONTINUOUS
 62
256
 10
15.232223872633369
 20
268.497794988634040
 40
3.000000000000000
 50
90.000000000000000
 51
180.000000000000000
  0
LINE
  8
0
  6
CONTINUOUS
 62
256
 10
7.493903653847667
 20
214.823829623737770
 11
-8.267776127365721
 21
213.997794988633810
  0
ARC
  8
0
  6
CONTINUOUS
 62
256
 10
9.232223872633369
 20
177.997794988634040
 40
3.000000000000000
 50
270.000000000000000
 51
0.000000000000000
  0
ARC
  8
0
  6
CONTINUOUS
 62
256
 10
3.232223872633597
 20
171.997794988634040
 40
3.000000000000000
 50
90.000000000000000
 51
180.000000000000000
  0
LINE
  8
0
  6
CONTINUOUS
 62
256
 10
0.232223872633824
 20
154.497794988634040
 11
0.232223872633597
 21
174.997794988634040
  0
LINE
  8
0
  6
CONTINUOUS
 62
256
 10
-4.267776127377317
 20
174.997794988634040
 11
-4.267776127375953
 21
154.497794988634040
  0
LINE
  8
0
  6
CONTINUOUS
 62
256
 10
-4.267776127377317
 20
174.997794988634040
 11
0.232223872633369
 21
174.997794988634040
  0
LINE
  8
0
  6
CONTINUOUS
 62
256
 10
3.232223872633597
 20
174.997794988634040
 11
9.232223872633369
 21
174.997794988634040
  0
LINE
  8
0
  6
CONTINUOUS
 62
256
 10
12.232223872633369
 20
268.497794988634040
 11
12.232223872633369
 21
177.997794988634040
  0
LINE
  8
0
  6
CONTINUOUS
 62
256
 10
-8.267776127365721
 20
154.497794988634040
 11
-8.267776127365721
 21
158.497794988634040
  0
LINE
  8
0
  6
CONTINUOUS
 62
256
 10
-8.267776127365721
 20
171.497794988634040
 11
-8.267776127365721
 21
213.997794988634040
  0
ARC
  8
0
  6
CONTINUOUS
 62
256
 10
7.232223872633369
 20
219.816977297510680
 40
5.000000000000018
 50
272.999999999995110
 51
285.455770299464920
  0
LINE
  8
0
  6
CONTINUOUS
 62
256
 10
-33.267770076166642
 20
241.914640124893590
 11
-33.267770076166642
 21
271.795012952643450
  0
LINE
  8
0
  6
DASHDOT
 62
256
 10
3.232229923833358
 20
261.997797666394940
 11
-31.767770076166642
 21
261.997797666394940
  0
LINE
  8
0
  6
DASHDOT
 62
256
 10
-14.267770076166642
 20
279.497797666394940
 11
-14.267770076166642
 21
248.034564934954690
  0
LINE
  8
0
  6
CONTINUOUS
 62
256
 10
23.732229923833358
 20
271.497794988634270
 11
88.768037112361810
 21
270.362590751499740
  0
LINE
  8
0
  6
DASHDOT
 62
256
 10
153.232229923833360
 20
261.997797666394940
 11
118.232229923833340
 21
261.997797666394940
  0
LINE
  8
0
  6
DASHDOT
 62
256
 10
135.732229923833360
 20
279.497797666394940
 11
135.732229923833360
 21
244.497797666394940
  0
LINE
  8
0
  6
CONTINUOUS
 62
256
 10
23.732223872633369
 20
154.497794988634270
 11
23.732223872633369
 21
271.497794988634270
  0
ARC
  8
0
  6
CONTINUOUS
 62
256
 10
87.459106629565497
 20
195.374013614769860
 40
75.000000000000327
 50
71.103485179946389
 51
88.999999999999972
  0
ARC
  8
0
  6
CONTINUOUS
 62
256
 10
148.732229923833360
 20
233.184122868321540
 40
3.000000000000000
 50
0.000000000000000
 51
31.677695816961783
  0
ARC
  8
0
  6
CONTINUOUS
 62
256
 10
87.459106629565497
 20
195.374013614769860
 40
75.000000000000767
 50
31.677695816952838
 51
35.133474768257862
  0
CIRCLE
  8
0
  6
CONTINUOUS
 62
256
 10
-14.267770076166642
 20
261.997797666394940
 40
7.500000000000000
  0
CIRCLE
  8
0
  6
CONTINUOUS
 62
256
 10
135.732229923833360
 20
261.997797666394940
 40
7.500000000000000
  0
ARC
  8
0
  6
CONTINUOUS
 62
256
 10
135.732229923833360
 20
261.997797666394940
 40
22.000000000000316
 50
176.569875503928900
 51
269.000000000000510
  0
ARC
  8
0
  6
CONTINUOUS
 62
256
 10
110.777017215303470
 20
263.493577955094220
 40
3.000000000000326
 50
356.569875503924440
 51
71.103485179939668
  0
LINE
  8
0
  6
CONTINUOUS
 62
256
 10
135.348276982213350
 20
240.001148372954960
 11
146.394045490453490
 21
239.808343766461800
  0
ARC
  8
0
  6
CONTINUOUS
 62
256
 10
146.341688271141090
 20
236.808800680992140
 40
3.000000000000104
 50
35.133474768258196
 51
88.999999999989583
  0
ARC
  8
0
  6
CONTINUOUS
 62
256
 10
145.732229923833360
 20
271.636219997383710
 40
8.000000000000000
 50
0.000000000000000
 51
89.000000000004746
  0
LINE
  8
0
  6
CONTINUOUS
 62
256
 10
145.871849175330960
 20
279.635001558634940
 11
25.732229923833358
 21
281.732046413118040
  0
ARC
  8
0
  6
CONTINUOUS
 62
256
 10
-25.267770076166642
 20
271.795012952643450
 40
7.999999999999988
 50
92.168675586611627
 51
180.000000000000000
  0
LINE
  8
0
  6
CONTINUOUS
 62
256
 10
-25.570502013781777
 20
279.789282986483160
 11
25.732229923833358
 21
281.732046413118040
  0
LINE
  8
0
  6
DASHDOT
 62
256
 10
-14.267770076166642
 20
248.034564934954690
 11
-14.267770076166642
 21
244.497797666394940
  0
LINE
  8
0
  6
CONTINUOUS
 62
256
 10
-25.407389327665157
 20
234.360593525060720
 11
12.232229923833358
 21
233.703591527152180
  0
ARC
  8
0
  6
CONTINUOUS
 62
256
 10
-25.267770076166642
 20
242.359375086311960
 40
8.000000000000000
 50
180.000000000000000
 51
268.999999999998240
  0
ARC
  8
0
  6
CONTINUOUS
 62
256
 10
215.332229923832360
 20
134.897794988633900
 40
0.399999999999636
 50
270.000000000000000
 51
0.000000000000000
  0
LINE
  8
0
  6
CONTINUOUS
 62
256
 10
215.732229923832450
 20
154.497794988634270
 11
215.732229923832450
 21
131.497794988634270
  0
LINE
  8
0
  6
CONTINUOUS
 62
256
 10
158.792044670836560
 20
134.497794988634270
 11
158.232237049701150
 21
134.647794988633900
  0
LINE
  8
0
  6
CONTINUOUS
 62
256
 10
215.332229923832360
 20
134.497794988634270
 11
158.792044670837020
 21
134.497794988634270
  0
LINE
  8
0
  6
CONTINUOUS
 62
256
 10
155.732229923832450
 20
154.497794988634270
 11
155.732229923832450
 21
132.397794988633900
  0
LINE
  8
0
  6
CONTINUOUS
 62
256
 10
155.332229923832360
 20
131.997794988634270
 11
155.732229923832450
 21
132.397794988633900
  0
LINE
  8
0
  6
CONTINUOUS
 62
256
 10
158.232237049701150
 20
134.647794988633900
 11
157.332229923832360
 21
134.647794988633900
  0
ARC
  8
0
  6
CONTINUOUS
 62
256
 10
157.332229923832360
 20
133.047794988634450
 40
1.599999999999454
 50
90.000000000000000
 51
180.000000000000000
  0
LINE
  8
0
  6
CONTINUOUS
 62
256
 10
155.332229923832360
 20
131.997794988634270
 11
153.732229923833360
 21
131.997794988634270
  0
LINE
  8
0
  6
CONTINUOUS
 62
256
 10
158.792044670836560
 20
174.497794988633360
 11
158.232237049701150
 21
174.347794988633720
  0
LINE
  8
0
  6
CONTINUOUS
 62
256
 10
155.732229923832450
 20
154.497794988634270
 11
155.732229923832450
 21
176.597794988633720
  0
LINE
  8
0
  6
CONTINUOUS
 62
256
 10
155.332229923832360
 20
176.997794988634270
 11
153.732229923833360
 21
176.997794988634270
  0
LINE
  8
0
  6
CONTINUOUS
 62
256
 10
155.332229923832360
 20
176.997794988634270
 11
155.732229923832450
 21
176.597794988633720
  0
LINE
  8
0
  6
CONTINUOUS
 62
256
 10
158.232237049701150
 20
174.347794988633720
 11
157.332229923832360
 21
174.347794988633720
  0
ARC
  8
0
  6
CONTINUOUS
 62
256
 10
157.332229923832360
 20
175.947794988634090
 40
1.599999999999909
 50
180.000000000000000
 51
270.000000000000000
  0
LINE
  8
0
  6
CONTINUOUS
 62
256
 10
215.732229923832450
 20
154.497794988634270
 11
215.732229923832450
 21
174.097794988633720
  0
LINE
  8
0
  6
CONTINUOUS
 62
256
 10
215.332229923832360
 20
174.497794988634270
 11
158.792044670837020
 21
174.497794988633360
  0
ARC
  8
0
  6
CONTINUOUS
 62
256
 10
215.332229923832360
 20
174.097794988633720
 40
0.400000000000091
 50
0.000000000000000
 51
90.000000000000000
  0
LINE
  8
0
  6
CONTINUOUS
 62
256
 10
160.732229923832450
 20
134.497794988634270
 11
160.732229923832450
 21
131.497794988634270
  0
LINE
  8
0
  6
CONTINUOUS
 62
256
 10
215.732237049701150
 20
131.497794988634270
 11
160.732237049701150
 21
131.497794988634270
  0
ARC
  8
0
  6
CONTINUOUS
 62
256
 10
152.732229923833360
 20
112.497794988634250
 40
1.000000000000000
 50
90.000000000000000
 51
180.000000000000000
  0
ARC
  8
0
  6
CONTINUOUS
 62
256
 10
152.732229923833360
 20
196.497794988634270
 40
1.000000000000000
 50
180.000000000000000
 51
270.000000000000000
  0
LINE
  8
0
  6
CONTINUOUS
 62
256
 10
153.732229923833360
 20
154.497794988634270
 11
153.732229923833360
 21
271.636219997383710
  0
LINE
  8
0
  6
CONTINUOUS
 62
256
 10
151.732229923833360
 20
154.497794988634270
 11
151.732229923833360
 21
233.184122868321540
  0
LINE
  8
0
  6
CONTINUOUS
 62
256
 10
152.732229923833360
 20
113.497794988634250
 11
153.732229923833360
 21
113.497794988634250
  0
LINE
  8
0
  6
CONTINUOUS
 62
256
 10
152.732229923833360
 20
195.497794988634270
 11
153.732229923833360
 21
195.497794988634270
  0
LINE
  8
0
  6
DASHDOT
 62
256
 10
153.232229923833360
 20
46.997792310873592
 11
118.232229923833340
 21
46.997792310873592
  0
LINE
  8
0
  6
DASHDOT
 62
256
 10
3.232229923833358
 20
46.997792310873592
 11
-31.767770076166642
 21
46.997792310873592
  0
ARC
  8
0
  6
CONTINUOUS
 62
256
 10
-25.267770076166642
 20
66.636214890956580
 40
8.000000000000108
 50
91.000000000001776
 51
161.931280232739970
  0
LINE
  8
0
  6
CONTINUOUS
 62
256
 10
-25.407389327665157
 20
74.634996452207815
 11
12.232229923833358
 21
75.291998450115898
  0
LINE
  8
0
  6
CONTINUOUS
 62
256
 10
23.732229923833358
 20
37.497794988634269
 11
88.768037112361810
 21
38.632999225768799
  0
LINE
  8
0
  6
CONTINUOUS
 62
256
 10
-33.267770076166642
 20
43.709888685047304
 11
-33.267770076166642
 21
36.914635018467379
  0
LINE
  8
0
  6
CONTINUOUS
 62
256
 10
23.732223872633369
 20
154.497794988634270
 11
23.732223872633369
 21
37.497794988634269
  0
ARC
  8
0
  6
CONTINUOUS
 62
256
 10
87.459106629565497
 20
113.621576362498670
 40
75.000000000000526
 50
271.000000000000060
 51
288.896514820053600
  0
ARC
  8
0
  6
CONTINUOUS
 62
256
 10
110.777017215303470
 20
45.502012022174313
 40
2.999999999999901
 50
288.896514820060250
 51
3.430124496075494
  0
ARC
  8
0
  6
CONTINUOUS
 62
256
 10
145.732229923833360
 20
37.359369979884832
 40
8.000000000000092
 50
270.999999999995280
 51
0.000000000000000
  0
LINE
  8
0
  6
CONTINUOUS
 62
256
 10
145.871849175330960
 20
29.360588418633597
 11
25.732229923833358
 21
27.263543564150496
  0
LINE
  8
0
  6
DASHDOT
 62
256
 10
-14.267770076166642
 20
29.497792310873592
 11
-14.267770076166642
 21
64.497792310873592
  0
CIRCLE
  8
0
  6
CONTINUOUS
 62
256
 10
-14.267770076166642
 20
46.997792310873592
 40
7.500000000000000
  0
LINE
  8
0
  6
CONTINUOUS
 62
256
 10
-25.570502013781777
 20
29.206306990785379
 11
25.732229923833358
 21
27.263543564150496
  0
ARC
  8
0
  6
CONTINUOUS
 62
256
 10
-25.267770076166642
 20
37.200577024625090
 40
8.000000000000000
 50
180.000000000000000
 51
267.831324413388360
  0
CIRCLE
  8
0
  6
CONTINUOUS
 62
256
 10
135.732229923833360
 20
46.997792310873592
 40
7.500000000000000
  0
LINE
  8
0
  6
DASHDOT
 62
256
 10
135.732229923833360
 20
29.497792310873592
 11
135.732229923833360
 21
64.497792310873592
  0
LINE
  8
0
  6
CONTINUOUS
 62
256
 10
153.732229923833360
 20
154.497794988634270
 11
153.732229923833360
 21
37.223302073415653
  0
ARC
  8
0
  6
CONTINUOUS
 62
256
 10
87.459106629565497
 20
113.621576362498670
 40
75.000000000000085
 50
324.866525231742120
 51
328.322304183047150
  0
LINE
  8
0
  6
CONTINUOUS
 62
256
 10
135.348276982213350
 20
68.994441604313579
 11
146.394045490453490
 21
69.187246210806734
  0
ARC
  8
0
  6
CONTINUOUS
 62
256
 10
146.341688271141090
 20
72.186789296276402
 40
3.000000000000504
 50
271.000000000010350
 51
324.866525231741720
  0
ARC
  8
0
  6
CONTINUOUS
 62
256
 10
135.732229923833360
 20
46.997792310873592
 40
21.999999999999375
 50
90.999999999999446
 51
183.430124496071100
  0
ARC
  8
0
  6
CONTINUOUS
 62
256
 10
148.732229923833360
 20
75.811467108946999
 40
3.000000000000318
 50
328.322304183038280
 51
0.000000000000000
  0
INSERT
  8
0
  2
ZU_SYM_1
 10
-4.267776127376862
 20
143.997794988634040
  0
INSERT
  8
0
  2
ZU_SYM_1
 10
12.232223872633597
 20
87.497794988634041
  0
INSERT
  8
0
  2
ZU_SYM_1
 10
-4.267776127376862
 20
164.997794988634040
 41
-1.000000000000000
 50
180.000000000000000
  0
INSERT
  8
0
  2
ZU_SYM_1
 10
12.232223872633597
 20
221.497794988634040
 41
-1.000000000000000
 50
180.000000000000000
  0
ARC
  8
0
  6
CONTINUOUS
 62
256
 10
-129.838811622881620
 20
-145.502205011365730
 40
289.397000000000160
 50
180.000000000000000
 51
186.051985358668500
  0
ARC
  8
0
  6
CONTINUOUS
 62
256
 10
-402.311712548092150
 20
-174.390234736504000
 40
15.397000000000052
 50
186.051985358668840
 51
225.000000000000000
  0
LINE
  8
0
  6
CONTINUOUS
 62
256
 10
-408.622970265382950
 20
-189.853623239072020
 11
-413.199035658021560
 21
-185.277557846433410
  0
ARC
  8
0
  6
CONTINUOUS
 62
256
 10
-404.380329578263850
 20
-185.610982551952470
 40
6.000000000000049
 50
225.000000000003040
 51
262.102011327574530
  0
ARC
  8
0
  6
CONTINUOUS
 62
256
 10
-365.438811622881530
 20
95.097794988634178
 40
289.396999999999820
 50
262.102011327572200
 51
270.000000000000000
  0
ARC
  8
0
  6
CONTINUOUS
 62
256
 10
-601.038811622881670
 20
-145.502205011365730
 40
289.397000000000160
 50
353.948014641331550
 51
0.000000000000000
  0
ARC
  8
0
  6
CONTINUOUS
 62
256
 10
-328.565910697671140
 20
-174.390234736504000
 40
15.396999999999876
 50
315.000000000000000
 51
353.948014641331160
  0
LINE
  8
0
  6
CONTINUOUS
 62
256
 10
-322.254652980380340
 20
-189.853623239072020
 11
-317.678587587741730
 21
-185.277557846433410
  0
ARC
  8
0
  6
CONTINUOUS
 62
256
 10
-326.497293667499430
 20
-185.610982551952470
 40
5.999999999999923
 50
277.897988672425640
 51
314.999999999996760
  0
ARC
  8
0
  6
CONTINUOUS
 62
256
 10
-365.438811622881760
 20
95.097794988634178
 40
289.396999999999930
 50
270.000000000000000
 51
277.897988672427800
  0
ARC
  8
0
  6
CONTINUOUS
 62
256
 10
-601.038811622881670
 20
-145.502205011365730
 40
289.397000000000160
 50
0.000000000000000
 51
6.051985358668508
  0
ARC
  8
0
  6
CONTINUOUS
 62
256
 10
-328.565910697671140
 20
-116.614175286227460
 40
15.397000000000052
 50
6.051985358668850
 51
45.000000000000036
  0
LINE
  8
0
  6
CONTINUOUS
 62
256
 10
-322.254652980380340
 20
-101.150786783659440
 11
-317.678587587741730
 21
-105.726852176298050
  0
ARC
  8
0
  6
CONTINUOUS
 62
256
 10
-326.497293667499430
 20
-105.393427470778970
 40
6.000000000000049
 50
45.000000000003070
 51
82.102011327574544
  0
ARC
  8
0
  6
CONTINUOUS
 62
256
 10
-365.438811622881760
 20
-386.102205011365530
 40
289.396999999999650
 50
82.102011327572200
 51
90.000000000000000
  0
ARC
  8
0
  6
CONTINUOUS
 62
256
 10
-129.838811622881850
 20
-145.502205011365730
 40
289.396999999999930
 50
173.948014641331470
 51
180.000000000000000
  0
LINE
  8
0
  6
CONTINUOUS
 62
256
 10
-408.622970265382950
 20
-101.150786783659440
 11
-413.199035658021560
 21
-105.726852176298050
  0
ARC
  8
0
  6
CONTINUOUS
 62
256
 10
-402.311712548092150
 20
-116.614175286227460
 40
15.396999999999876
 50
135.000000000000000
 51
173.948014641331180
  0
ARC
  8
0
  6
CONTINUOUS
 62
256
 10
-328.565910697671140
 20
-174.390234736504000
 40
26.599999999999955
 50
315.000000000001020
 51
353.948014641331330
  0
LINE
  8
0
  6
CONTINUOUS
 62
256
 10
-316.823319436768090
 20
-200.265724234725440
 11
-309.756870318108670
 21
-193.199275116065790
  0
ARC
  8
0
  6
CONTINUOUS
 62
256
 10
-601.038811622881670
 20
-145.502205011365730
 40
300.600000000000080
 50
353.948014641331550
 51
6.051985358668500
  0
ARC
  8
0
  6
CONTINUOUS
 62
256
 10
-402.311712548092150
 20
-174.390234736504000
 40
26.599999999999969
 50
186.051985358668590
 51
224.999999999998950
  0
ARC
  8
0
  6
CONTINUOUS
 62
256
 10
-129.838811622881740
 20
-145.502205011365730
 40
300.599999999999970
 50
173.948014641331500
 51
186.051985358668470
  0
LINE
  8
0
  6
CONTINUOUS
 62
256
 10
-414.054303808995430
 20
-200.265724234725440
 11
-421.120752927654620
 21
-193.199275116065790
  0
ARC
  8
0
  6
CONTINUOUS
 62
256
 10
-402.311712548092150
 20
-116.614175286227460
 40
26.600000000000119
 50
135.000000000000000
 51
173.948014641331440
  0
LINE
  8
0
  6
CONTINUOUS
 62
256
 10
-414.054303808995430
 20
-90.738685788006251
 11
-421.120752927654390
 21
-97.805134906665216
  0
ARC
  8
0
  6
CONTINUOUS
 62
256
 10
-328.565910697671370
 20
-116.614175286227460
 40
26.600000000000193
 50
6.051985358668552
 51
45.000000000000000
  0
LINE
  8
0
  6
CONTINUOUS
 62
256
 10
-316.823319436768090
 20
-90.738685788006251
 11
-309.756870318109120
 21
-97.805134906665216
  0
LINE
  8
0
  6
DASHDOT
 62
256
 10
-365.438811622881760
 20
-269.215426627783020
 11
-365.438811622881760
 21
16.125602145148150
  0
LINE
  8
0
  6
DASHDOT
 62
256
 10
-498.197236647542010
 20
-145.502205808465730
 11
-234.785772009323410
 21
-145.502205808465730
  0
ARC
  8
0
  6
CONTINUOUS
 62
256
 10
-409.387399053164240
 20
-195.598819478894260
 40
6.599999999999957
 50
225.000000000000000
 51
261.402917762750860
  0
ARC
  8
0
  6
CONTINUOUS
 62
256
 10
-365.438811622881760
 20
95.097794988634405
 40
300.599999999999970
 50
261.402917762750920
 51
270.000000000000000
  0
ARC
  8
0
  6
CONTINUOUS
 62
256
 10
-321.490224192599270
 20
-195.598819478894260
 40
6.599999999999747
 50
278.597082237248910
 51
314.999999999999830
  0
ARC
  8
0
  6
CONTINUOUS
 62
256
 10
-365.438811622881760
 20
-386.102205011365530
 40
300.599999999999740
 50
81.402917762750931
 51
90.000000000000000
  0
ARC
  8
0
  6
CONTINUOUS
 62
256
 10
-321.490224192599270
 20
-95.405590543837434
 40
6.600000000000118
 50
45.000000000001400
 51
81.402917762751571
  0
ARC
  8
0
  6
CONTINUOUS
 62
256
 10
-365.438811622881760
 20
95.097794988634405
 40
300.600000000000140
 50
270.000000000000000
 51
278.597082237249140
  0
ARC
  8
0
  6
CONTINUOUS
 62
256
 10
-365.438811622881760
 20
-386.102205011365530
 40
300.599999999999800
 50
90.000000000000000
 51
98.597082237249069
  0
ARC
  8
0
  6
CONTINUOUS
 62
256
 10
-361.438811622881760
 20
-104.195425906720170
 40
1.500000000000203
 50
84.468928475159146
 51
180.000000000000000
  0
ARC
  8
0
  6
CONTINUOUS
 62
256
 10
-369.438811622881760
 20
-104.195425906719930
 40
1.500000000000000
 50
0.000000000000000
 51
95.531071524841607
  0
ARC
  8
0
  6
CONTINUOUS
 62
256
 10
-365.438811622881530
 20
-145.502205011365280
 40
17.999999999999922
 50
41.837004155893318
 51
78.162995844107343
  0
ARC
  8
0
  6
CONTINUOUS
 62
256
 10
-365.438811622881990
 20
-145.502205011365280
 40
27.499999999999815
 50
97.928141766201691
 51
142.071858233797880
  0
LINE
  8
0
  6
CONTINUOUS
 62
256
 10
-362.938811622881760
 20
-104.195425906720170
 11
-362.938811622881760
 21
-107.210561014274160
  0
LINE
  8
0
  6
CONTINUOUS
 62
256
 10
-333.527275168730970
 20
-124.191319503358950
 11
-330.916091569746870
 21
-122.683751949581850
  0
LINE
  8
0
  6
CONTINUOUS
 62
256
 10
-362.938811622881760
 20
-113.753189278590750
 11
-362.938811622881760
 21
-116.779391778675290
  0
ARC
  8
0
  6
CONTINUOUS
 62
256
 10
-361.438811622881760
 20
-113.753189278590750
 40
1.499999999999998
 50
82.819244218541712
 51
180.000000000000000
  0
ARC
  8
0
  6
CONTINUOUS
 62
256
 10
-361.438811622881760
 20
-107.210561014274160
 40
1.500000000000000
 50
180.000000000000000
 51
264.036429881682010
  0
ARC
  8
0
  6
CONTINUOUS
 62
256
 10
-331.666091569746870
 20
-121.384713843905050
 40
1.500000000000123
 50
299.999999999997270
 51
35.531071524839312
  0
ARC
  8
0
  6
CONTINUOUS
 62
256
 10
-365.438811622882210
 20
-145.502205011365730
 40
42.999999999999908
 50
35.531071524839241
 51
84.468928475160197
  0
ARC
  8
0
  6
CONTINUOUS
 62
256
 10
-327.666091569746410
 20
-128.312917074181090
 40
1.500000000000034
 50
24.468928475159586
 51
119.999999999996760
  0
LINE
  8
0
  6
CONTINUOUS
 62
256
 10
-331.027275168730740
 20
-128.521446522281390
 11
-328.416091569746410
 21
-127.013878968504290
  0
ARC
  8
0
  6
CONTINUOUS
 62
256
 10
-330.277275168730740
 20
-129.820484627958190
 40
1.500000000000123
 50
119.999999999997300
 51
204.036429881681070
  0
ARC
  8
0
  6
CONTINUOUS
 62
256
 10
-365.438811622881990
 20
-145.502205011366190
 40
36.999999999999979
 50
335.963570118321680
 51
24.036429881678892
  0
ARC
  8
0
  6
CONTINUOUS
 62
256
 10
-365.438811622881990
 20
-145.502205011366190
 40
42.999999999999936
 50
335.531071524839770
 51
24.468928475160773
  0
ARC
  8
0
  6
CONTINUOUS
 62
256
 10
-327.666091569746410
 20
-162.691492948550600
 40
1.500000000000320
 50
240.000000000007050
 51
335.531071524832270
  0
LINE
  8
0
  6
CONTINUOUS
 62
256
 10
-328.416091569746410
 20
-163.990531054227630
 11
-331.027275168730510
 21
-162.482963500450300
  0
ARC
  8
0
  6
CONTINUOUS
 62
256
 10
-330.277275168730510
 20
-161.183925394773720
 40
1.500000000000063
 50
155.963570118322880
 51
239.999999999998660
  0
ARC
  8
0
  6
CONTINUOUS
 62
256
 10
-331.666091569746410
 20
-169.619696178826420
 40
1.499999999999844
 50
324.468928475167900
 51
59.999999999998622
  0
LINE
  8
0
  6
CONTINUOUS
 62
256
 10
-330.916091569746410
 20
-168.320658073149840
 11
-333.527275168730510
 21
-166.813090519372510
  0
LINE
  8
0
  6
CONTINUOUS
 62
256
 10
-367.938811622881760
 20
-104.195425906719930
 11
-367.938811622881760
 21
-107.210561014274160
  0
ARC
  8
0
  6
CONTINUOUS
 62
256
 10
-369.438811622881760
 20
-107.210561014274160
 40
1.499999999999933
 50
275.963570118318330
 51
0.000000000000000
  0
LINE
  8
0
  6
CONTINUOUS
 62
256
 10
-367.938811622881760
 20
-113.753189278590750
 11
-367.938811622881760
 21
-116.779391778675290
  0
ARC
  8
0
  6
CONTINUOUS
 62
256
 10
-369.438811622881760
 20
-113.753189278590750
 40
1.500000000000000
 50
0.000000000000000
 51
97.180755781458302
  0
ARC
  8
0
  6
CONTINUOUS
 62
256
 10
-365.438811622882210
 20
-145.502205011365280
 40
23.999999999999901
 50
100.240348321185680
 51
139.759651678813530
  0
ARC
  8
0
  6
CONTINUOUS
 62
256
 10
-382.613990891926730
 20
-130.967308483485340
 40
1.499999999999802
 50
139.759651678811450
 51
239.999999999998100
  0
LINE
  8
0
  6
CONTINUOUS
 62
256
 10
-380.717196298947560
 20
-133.794474159908080
 11
-383.363990891926730
 21
-132.266346589161910
  0
ARC
  8
0
  6
CONTINUOUS
 62
256
 10
-379.967196298947560
 20
-132.495436054231500
 40
1.499999999999926
 50
239.999999999998410
 51
318.162995844106090
  0
ARC
  8
0
  6
CONTINUOUS
 62
256
 10
-365.438811622882210
 20
-145.502205011365280
 40
17.999999999999829
 50
101.837004155891990
 51
138.162995844106180
  0
ARC
  8
0
  6
CONTINUOUS
 62
256
 10
-369.438811622881760
 20
-126.416870327373090
 40
1.499999999999954
 50
281.837004155896690
 51
0.000000000000000
  0
LINE
  8
0
  6
CONTINUOUS
 62
256
 10
-367.938811622881760
 20
-123.360615185880760
 11
-367.938811622881760
 21
-126.416870327373090
  0
ARC
  8
0
  6
CONTINUOUS
 62
256
 10
-369.438811622881760
 20
-123.360615185880760
 40
1.500000000000000
 50
0.000000000000000
 51
100.240348321194420
  0
ARC
  8
0
  6
CONTINUOUS
 62
256
 10
-365.438811622882210
 20
-145.502205011365280
 40
14.499999999999980
 50
107.920213139390850
 51
132.079786860607560
  0
ARC
  8
0
  6
CONTINUOUS
 62
256
 10
-374.150954265696330
 20
-135.853444957801000
 40
1.499999999999792
 50
132.079786860611680
 51
239.999999999998100
  0
LINE
  8
0
  6
CONTINUOUS
 62
256
 10
-372.126065556075670
 20
-138.754565806948450
 11
-374.900954265696330
 21
-137.152483063477580
  0
ARC
  8
0
  6
CONTINUOUS
 62
256
 10
-371.376065556075670
 20
-137.455527701271880
 40
1.499999999999926
 50
239.999999999998410
 51
306.421821521798170
  0
ARC
  8
0
  6
CONTINUOUS
 62
256
 10
-365.438811622882210
 20
-145.502205011365280
 40
8.499999999999879
 50
113.578178478199520
 51
126.421821521797430
  0
ARC
  8
0
  6
CONTINUOUS
 62
256
 10
-369.438811622881760
 20
-136.337053621453380
 40
1.500000000000139
 50
293.578178478195700
 51
0.000000000000000
  0
LINE
  8
0
  6
CONTINUOUS
 62
256
 10
-367.938811622881760
 20
-133.132888134512310
 11
-367.938811622881760
 21
-136.337053621453380
  0
ARC
  8
0
  6
CONTINUOUS
 62
256
 10
-369.438811622881760
 20
-133.132888134512310
 40
1.500000000000000
 50
0.000000000000000
 51
107.920213139394390
  0
ARC
  8
0
  6
CONTINUOUS
 62
256
 10
-365.438811622881760
 20
-145.502205011365730
 40
23.999999999999716
 50
280.240348321186270
 51
319.759651678814690
  0
ARC
  8
0
  6
CONTINUOUS
 62
256
 10
-361.438811622881760
 20
-167.643794836850250
 40
1.500000000000000
 50
180.000000000000000
 51
280.240348321187920
  0
LINE
  8
0
  6
CONTINUOUS
 62
256
 10
-362.938811622881760
 20
-164.587539695357920
 11
-362.938811622881760
 21
-167.643794836850250
  0
ARC
  8
0
  6
CONTINUOUS
 62
256
 10
-361.438811622881760
 20
-164.587539695357920
 40
1.499999999999731
 50
101.837004155898460
 51
180.000000000000000
  0
ARC
  8
0
  6
CONTINUOUS
 62
256
 10
-365.438811622881760
 20
-145.502205011365730
 40
18.000000000000146
 50
281.837004155893230
 51
318.162995844107740
  0
ARC
  8
0
  6
CONTINUOUS
 62
256
 10
-350.910426946815960
 20
-158.508973968499500
 40
1.499999999999926
 50
59.999999999998380
 51
138.162995844099160
  0
LINE
  8
0
  6
CONTINUOUS
 62
256
 10
-347.513632353837010
 20
-158.738063433569100
 11
-350.160426946815960
 21
-157.209935862822930
  0
ARC
  8
0
  6
CONTINUOUS
 62
256
 10
-348.263632353837010
 20
-160.037101539245670
 40
1.499999999999828
 50
319.759651678823670
 51
59.999999999998622
  0
ARC
  8
0
  6
CONTINUOUS
 62
256
 10
-365.438811622881760
 20
-145.502205011365730
 40
14.500000000000121
 50
287.920213139392560
 51
312.079786860608810
  0
ARC
  8
0
  6
CONTINUOUS
 62
256
 10
-361.438811622881760
 20
-157.871521888218470
 40
1.500000000000000
 50
180.000000000000000
 51
287.920213139391990
  0
LINE
  8
0
  6
CONTINUOUS
 62
256
 10
-362.938811622881760
 20
-154.667356401277170
 11
-362.938811622881760
 21
-157.871521888218470
  0
ARC
  8
0
  6
CONTINUOUS
 62
256
 10
-361.438811622881760
 20
-154.667356401277630
 40
1.500000000000139
 50
113.578178478195710
 51
179.999999999982630
  0
ARC
  8
0
  6
CONTINUOUS
 62
256
 10
-365.438811622881760
 20
-145.502205011365730
 40
8.500000000000060
 50
293.578178478202350
 51
306.421821521799070
  0
ARC
  8
0
  6
CONTINUOUS
 62
256
 10
-359.501557689687840
 20
-153.548882321459130
 40
1.499999999999926
 50
59.999999999998380
 51
126.421821521801220
  0
LINE
  8
0
  6
CONTINUOUS
 62
256
 10
-355.976668980067420
 20
-153.851926959252980
 11
-358.751557689687840
 21
-152.249844215782560
  0
ARC
  8
0
  6
CONTINUOUS
 62
256
 10
-356.726668980067420
 20
-155.150965064930010
 40
1.499999999999944
 50
312.079786860618130
 51
60.000000000006729
  0
ARC
  8
0
  6
CONTINUOUS
 62
256
 10
-365.438811622881760
 20
-145.502205011365730
 40
23.999999999999844
 50
220.240348321185310
 51
259.759651678813730
  0
ARC
  8
0
  6
CONTINUOUS
 62
256
 10
-369.438811622881760
 20
-167.643794836850250
 40
1.499999999999728
 50
259.759651678812470
 51
0.000000000000000
  0
LINE
  8
0
  6
CONTINUOUS
 62
256
 10
-367.938811622881760
 20
-164.587539695357920
 11
-367.938811622881760
 21
-167.643794836850250
  0
ARC
  8
0
  6
CONTINUOUS
 62
256
 10
-369.438811622881760
 20
-164.587539695357920
 40
1.500000000000000
 50
0.000000000000000
 51
78.162995844101417
  0
ARC
  8
0
  6
CONTINUOUS
 62
256
 10
-365.438811622881760
 20
-145.502205011365730
 40
17.999999999999940
 50
221.837004155892290
 51
258.162995844106770
  0
ARC
  8
0
  6
CONTINUOUS
 62
256
 10
-379.967196298947560
 20
-158.508973968499500
 40
1.500000000000118
 50
41.837004155899741
 51
120.000000000002130
  0
LINE
  8
0
  6
CONTINUOUS
 62
256
 10
-383.363990891926510
 20
-158.738063433569100
 11
-380.717196298947560
 21
-157.209935862822930
  0
ARC
  8
0
  6
CONTINUOUS
 62
256
 10
-382.613990891926510
 20
-160.037101539245670
 40
1.499999999999926
 50
120.000000000001620
 51
220.240348321176580
  0
ARC
  8
0
  6
CONTINUOUS
 62
256
 10
-365.438811622881760
 20
-145.502205011365730
 40
14.500000000000011
 50
227.920213139391080
 51
252.079786860607530
  0
ARC
  8
0
  6
CONTINUOUS
 62
256
 10
-369.438811622881760
 20
-157.871521888218470
 40
1.500000000000355
 50
252.079786860607900
 51
0.000000000000000
  0
LINE
  8
0
  6
CONTINUOUS
 62
256
 10
-367.938811622881760
 20
-154.667356401277170
 11
-367.938811622881760
 21
-157.871521888218470
  0
ARC
  8
0
  6
CONTINUOUS
 62
256
 10
-369.438811622881760
 20
-154.667356401277630
 40
1.500000000000000
 50
0.000000000017370
 51
66.421821521804546
  0
ARC
  8
0
  6
CONTINUOUS
 62
256
 10
-365.438811622881760
 20
-145.502205011365730
 40
8.499999999999870
 50
233.578178478199590
 51
246.421821521797570
  0
ARC
  8
0
  6
CONTINUOUS
 62
256
 10
-371.376065556075670
 20
-153.548882321459130
 40
1.500000000000059
 50
53.578178478205700
 51
120.000000000001340
  0
LINE
  8
0
  6
CONTINUOUS
 62
256
 10
-374.900954265696100
 20
-153.851926959252980
 11
-372.126065556075670
 21
-152.249844215782560
  0
ARC
  8
0
  6
CONTINUOUS
 62
256
 10
-374.150954265696100
 20
-155.150965064930010
 40
1.500000000000320
 50
119.999999999992940
 51
227.920213139382700
  0
ARC
  8
0
  6
CONTINUOUS
 62
256
 10
-365.438811622882210
 20
-145.502205011365280
 40
23.999999999999925
 50
160.240348321185910
 51
199.759651678814090
  0
ARC
  8
0
  6
CONTINUOUS
 62
256
 10
-386.613990891926730
 20
-137.895511713760700
 40
1.499999999999926
 50
59.999999999998380
 51
160.240348321184830
  0
LINE
  8
0
  6
CONTINUOUS
 62
256
 10
-383.217196298947560
 20
-138.124601178830290
 11
-385.863990891926730
 21
-136.596473608084120
  0
ARC
  8
0
  6
CONTINUOUS
 62
256
 10
-383.967196298947560
 20
-139.423639284506860
 40
1.500000000000038
 50
341.837004155895390
 51
59.999999999998124
  0
ARC
  8
0
  6
CONTINUOUS
 62
256
 10
-365.438811622882210
 20
-145.502205011365280
 40
17.999999999999726
 50
161.837004155893140
 51
198.162995844106860
  0
ARC
  8
0
  6
CONTINUOUS
 62
256
 10
-383.967196298947560
 20
-151.580770738223690
 40
1.500000000000320
 50
299.999999999992950
 51
18.162995844104298
  0
LINE
  8
0
  6
CONTINUOUS
 62
256
 10
-385.863990891926510
 20
-154.407936414646430
 11
-383.217196298947560
 21
-152.879808843900720
  0
ARC
  8
0
  6
CONTINUOUS
 62
256
 10
-386.613990891926510
 20
-153.108898308969860
 40
1.500000000000246
 50
199.759651678811790
 51
300.000000000001880
  0
ARC
  8
0
  6
CONTINUOUS
 62
256
 10
-365.438811622882210
 20
-145.502205011365280
 40
14.499999999999851
 50
167.920213139392840
 51
192.079786860608890
  0
ARC
  8
0
  6
CONTINUOUS
 62
256
 10
-378.150954265696330
 20
-142.781648188076360
 40
1.499999999999926
 50
59.999999999998380
 51
167.920213139405120
  0
LINE
  8
0
  6
CONTINUOUS
 62
256
 10
-374.626065556075670
 20
-143.084692825870660
 11
-377.400954265696330
 21
-141.482610082399790
  0
ARC
  8
0
  6
CONTINUOUS
 62
256
 10
-375.376065556075670
 20
-144.383730931547230
 40
1.499999999999873
 50
353.578178478198030
 51
59.999999999997286
  0
ARC
  8
0
  6
CONTINUOUS
 62
256
 10
-365.438811622882210
 20
-145.502205011365280
 40
8.499999999999814
 50
173.578178478202570
 51
186.421821521800520
  0
ARC
  8
0
  6
CONTINUOUS
 62
256
 10
-375.376065556075670
 20
-146.620679091183770
 40
1.499999999999926
 50
300.000000000001590
 51
6.421821521801724
  0
LINE
  8
0
  6
CONTINUOUS
 62
256
 10
-377.400954265696100
 20
-149.521799940330770
 11
-374.626065556075670
 21
-147.919717196860350
  0
ARC
  8
0
  6
CONTINUOUS
 62
256
 10
-378.150954265696100
 20
-148.222761834654190
 40
1.500000000000287
 50
192.079786860609570
 51
300.000000000001310
  0
ARC
  8
0
  6
CONTINUOUS
 62
256
 10
-365.438811622881530
 20
-145.502205011365280
 40
24.000000000000139
 50
340.240348321186050
 51
19.759651678813920
  0
ARC
  8
0
  6
CONTINUOUS
 62
256
 10
-344.263632353837010
 20
-137.895511713760700
 40
1.500000000000246
 50
19.759651678811821
 51
120.000000000001850
  0
LINE
  8
0
  6
CONTINUOUS
 62
256
 10
-347.660426946815960
 20
-138.124601178830290
 11
-345.013632353837010
 21
-136.596473608084120
  0
ARC
  8
0
  6
CONTINUOUS
 62
256
 10
-346.910426946815960
 20
-139.423639284506860
 40
1.499999999999926
 50
120.000000000001620
 51
198.162995844104900
  0
ARC
  8
0
  6
CONTINUOUS
 62
256
 10
-365.438811622881530
 20
-145.502205011365280
 40
17.999999999999943
 50
341.837004155893340
 51
18.162995844106639
  0
ARC
  8
0
  6
CONTINUOUS
 62
256
 10
-346.910426946815960
 20
-151.580770738223690
 40
1.500000000000038
 50
161.837004155895410
 51
240.000000000005940
  0
LINE
  8
0
  6
CONTINUOUS
 62
256
 10
-345.013632353837010
 20
-154.407936414646430
 11
-347.660426946815960
 21
-152.879808843900720
  0
ARC
  8
0
  6
CONTINUOUS
 62
256
 10
-344.263632353837010
 20
-153.108898308969860
 40
1.499999999999926
 50
239.999999999998410
 51
340.240348321188610
  0
ARC
  8
0
  6
CONTINUOUS
 62
256
 10
-365.438811622881530
 20
-145.502205011365280
 40
14.500000000000163
 50
347.920213139391360
 51
12.079786860606996
  0
ARC
  8
0
  6
CONTINUOUS
 62
256
 10
-352.726668980067420
 20
-142.781648188076360
 40
1.500000000000192
 50
12.079786860592611
 51
120.000000000001070
  0
LINE
  8
0
  6
CONTINUOUS
 62
256
 10
-356.251557689687840
 20
-143.084692825870660
 11
-353.476668980067420
 21
-141.482610082399790
  0
ARC
  8
0
  6
CONTINUOUS
 62
256
 10
-355.501557689687840
 20
-144.383730931547230
 40
1.499999999999926
 50
120.000000000001620
 51
186.421821521800640
  0
ARC
  8
0
  6
CONTINUOUS
 62
256
 10
-365.438811622881530
 20
-145.502205011365280
 40
8.499999999999865
 50
353.578178478199500
 51
6.421821521797406
  0
ARC
  8
0
  6
CONTINUOUS
 62
256
 10
-355.501557689687840
 20
-146.620679091183770
 40
1.500000000000099
 50
173.578178478198990
 51
239.999999999997270
  0
LINE
  8
0
  6
CONTINUOUS
 62
256
 10
-353.476668980067420
 20
-149.521799940330770
 11
-356.251557689687840
 21
-147.919717196860350
  0
ARC
  8
0
  6
CONTINUOUS
 62
256
 10
-352.726668980067420
 20
-148.222761834654190
 40
1.499999999999926
 50
239.999999999998410
 51
347.920213139390850
  0
ARC
  8
0
  6
CONTINUOUS
 62
256
 10
-365.438811622881530
 20
-145.502205011365280
 40
8.500000000000101
 50
53.578178478202645
 51
66.421821521799046
  0
ARC
  8
0
  6
CONTINUOUS
 62
256
 10
-365.438811622881530
 20
-145.502205011365280
 40
23.999999999999819
 50
40.240348321186090
 51
79.759651678814294
  0
LINE
  8
0
  6
CONTINUOUS
 62
256
 10
-358.751557689687840
 20
-138.754565806948450
 11
-355.976668980067420
 21
-137.152483063477580
  0
LINE
  8
0
  6
CONTINUOUS
 62
256
 10
-362.938811622881760
 20
-123.360615185880760
 11
-362.938811622881760
 21
-126.416870327373090
  0
LINE
  8
0
  6
CONTINUOUS
 62
256
 10
-362.938811622881760
 20
-133.132888134512310
 11
-362.938811622881760
 21
-136.337053621453380
  0
ARC
  8
0
  6
CONTINUOUS
 62
256
 10
-365.438811622881530
 20
-145.502205011365280
 40
14.499999999999860
 50
47.920213139391755
 51
72.079786860608294
  0
LINE
  8
0
  6
CONTINUOUS
 62
256
 10
-350.160426946815960
 20
-133.794474159908080
 11
-347.513632353837010
 21
-132.266346589161910
  0
ARC
  8
0
  6
CONTINUOUS
 62
256
 10
-356.726668980067420
 20
-135.853444957801000
 40
1.499999999999926
 50
300.000000000001590
 51
47.920213139381872
  0
ARC
  8
0
  6
CONTINUOUS
 62
256
 10
-361.438811622881760
 20
-123.360615185880760
 40
1.499999999999952
 50
79.759651678814038
 51
180.000000000000000
  0
ARC
  8
0
  6
CONTINUOUS
 62
256
 10
-350.910426946815960
 20
-132.495436054231500
 40
1.499999999999967
 50
221.837004155893250
 51
300.000000000001080
  0
ARC
  8
0
  6
CONTINUOUS
 62
256
 10
-361.438811622881760
 20
-126.416870327373090
 40
1.500000000000000
 50
180.000000000000000
 51
258.162995844103650
  0
ARC
  8
0
  6
CONTINUOUS
 62
256
 10
-361.438811622881760
 20
-133.132888134512310
 40
1.500000000000138
 50
72.079786860605211
 51
180.000000000000000
  0
ARC
  8
0
  6
CONTINUOUS
 62
256
 10
-348.263632353837010
 20
-130.967308483485340
 40
1.499999999999926
 50
300.000000000001590
 51
40.240348321183539
  0
ARC
  8
0
  6
CONTINUOUS
 62
256
 10
-361.438811622881760
 20
-136.337053621453380
 40
1.500000000000000
 50
180.000000000000000
 51
246.421821521804530
  0
ARC
  8
0
  6
CONTINUOUS
 62
256
 10
-359.501557689687840
 20
-137.455527701271880
 40
1.499999999999693
 50
233.578178478195380
 51
300.000000000001650
  0
CIRCLE
  8
0
  6
CONTINUOUS
 62
256
 10
-365.438811622881760
 20
-145.502205011365280
 40
5.000000000000000
  0
ARC
  8
0
  6
CONTINUOUS
 62
256
 10
-342.564125695216030
 20
-127.676696779882600
 40
1.499999999999843
 50
217.928141766204960
 51
300.000000000001360
  0
LINE
  8
0
  6
CONTINUOUS
 62
256
 10
-341.814125695216030
 20
-128.975734885559180
 11
-339.193357453147200
 21
-127.462633635517020
  0
ARC
  8
0
  6
CONTINUOUS
 62
256
 10
-361.438811622881760
 20
-116.779391778675290
 40
1.500000000000000
 50
180.000000000000000
 51
262.071858233795980
  0
ARC
  8
0
  6
CONTINUOUS
 62
256
 10
-365.438811622881530
 20
-145.502205011365280
 40
27.500000000000060
 50
37.928141766201819
 51
82.071858233798267
  0
ARC
  8
0
  6
CONTINUOUS
 62
256
 10
-339.943357453147200
 20
-126.163595529840450
 40
1.499999999999926
 50
300.000000000001590
 51
37.180755781456647
  0
ARC
  8
0
  6
CONTINUOUS
 62
256
 10
-334.277275168730970
 20
-122.892281397682150
 40
1.500000000000102
 50
215.963570118316280
 51
299.999999999997500
  0
ARC
  8
0
  6
CONTINUOUS
 62
256
 10
-365.438811622882210
 20
-145.502205011365730
 40
36.999999999999943
 50
35.963570118321186
 51
84.036429881678188
  0
ARC
  8
0
  6
CONTINUOUS
 62
256
 10
-365.438811622882210
 20
-145.502205011365730
 40
33.500000000000071
 50
37.180755781458252
 51
82.819244218540945
  0
LINE
  8
0
  6
CONTINUOUS
 62
256
 10
-339.314125695215810
 20
-133.305861904481840
 11
-336.693357453146970
 21
-131.792760654439690
  0
ARC
  8
0
  6
CONTINUOUS
 62
256
 10
-335.943357453146970
 20
-133.091798760116490
 40
1.499999999999948
 50
22.819244218550036
 51
119.999999999996250
  0
ARC
  8
0
  6
CONTINUOUS
 62
256
 10
-338.564125695215810
 20
-134.604900010158420
 40
1.499999999999926
 50
120.000000000001620
 51
202.071858233797800
  0
ARC
  8
0
  6
CONTINUOUS
 62
256
 10
-365.438811622881300
 20
-145.502205011365730
 40
27.499999999999886
 50
337.928141766202200
 51
22.071858233797808
  0
ARC
  8
0
  6
CONTINUOUS
 62
256
 10
-365.438811622881990
 20
-145.502205011366190
 40
33.500000000000142
 50
337.180755781459030
 51
22.819244218541950
  0
ARC
  8
0
  6
CONTINUOUS
 62
256
 10
-338.564125695216030
 20
-156.399510012573050
 40
1.499999999999899
 50
157.928141766199360
 51
240.000000000007500
  0
LINE
  8
0
  6
CONTINUOUS
 62
256
 10
-336.693357453146750
 20
-159.211649368292000
 11
-339.314125695216030
 21
-157.698548118250070
  0
ARC
  8
0
  6
CONTINUOUS
 62
256
 10
-335.943357453146750
 20
-157.912611262615430
 40
1.499999999999926
 50
239.999999999998410
 51
337.180755781453000
  0
ARC
  8
0
  6
CONTINUOUS
 62
256
 10
-361.438811622881530
 20
-186.808984116010830
 40
1.500000000000000
 50
180.000000000000000
 51
275.531071524830680
  0
LINE
  8
0
  6
CONTINUOUS
 62
256
 10
-362.938811622881530
 20
-183.793849008456620
 11
-362.938811622881530
 21
-186.808984116010830
  0
LINE
  8
0
  6
CONTINUOUS
 62
256
 10
-362.938811622881530
 20
-174.225018244056170
 11
-362.938811622881530
 21
-177.251220744140480
  0
ARC
  8
0
  6
CONTINUOUS
 62
256
 10
-361.438811622881530
 20
-183.793849008457070
 40
1.500000000000182
 50
95.963570118326047
 51
179.999999999982630
  0
ARC
  8
0
  6
CONTINUOUS
 62
256
 10
-361.438811622881530
 20
-177.251220744140480
 40
1.500000000000000
 50
180.000000000000000
 51
277.180755781458290
  0
ARC
  8
0
  6
CONTINUOUS
 62
256
 10
-361.438811622881530
 20
-174.225018244056170
 40
1.499999999999967
 50
97.928141766195438
 51
180.000000000000000
  0
ARC
  8
0
  6
CONTINUOUS
 62
256
 10
-365.438811622881530
 20
-145.502205011366190
 40
27.499999999999879
 50
277.928141766202600
 51
322.071858233798880
  0
ARC
  8
0
  6
CONTINUOUS
 62
256
 10
-365.438811622881530
 20
-145.502205011365280
 40
37.000000000000028
 50
275.963570118320770
 51
324.036429881678030
  0
ARC
  8
0
  6
CONTINUOUS
 62
256
 10
-365.438811622881530
 20
-145.502205011365280
 40
43.000000000000199
 50
275.531071524838860
 51
324.468928475160340
  0
ARC
  8
0
  6
CONTINUOUS
 62
256
 10
-365.438811622881530
 20
-145.502205011365280
 40
33.500000000000114
 50
277.180755781458230
 51
322.819244218540860
  0
ARC
  8
0
  6
CONTINUOUS
 62
256
 10
-342.564125695216030
 20
-163.327713242848860
 40
1.500000000000320
 50
60.000000000007056
 51
142.071858233781910
  0
ARC
  8
0
  6
CONTINUOUS
 62
256
 10
-334.277275168730510
 20
-168.112128625049080
 40
1.499999999999926
 50
59.999999999998380
 51
144.036429881690370
  0
LINE
  8
0
  6
CONTINUOUS
 62
256
 10
-339.193357453146750
 20
-163.541776387214210
 11
-341.814125695216030
 21
-162.028675137171830
  0
ARC
  8
0
  6
CONTINUOUS
 62
256
 10
-339.943357453146750
 20
-164.840814492890790
 40
1.500000000000240
 50
322.819244218535570
 51
59.999999999998167
  0
ARC
  8
0
  6
CONTINUOUS
 62
256
 10
-369.438811622881990
 20
-186.808984116010830
 40
1.500000000000430
 50
264.468928475160000
 51
0.000000000000000
  0
LINE
  8
0
  6
CONTINUOUS
 62
256
 10
-367.938811622881990
 20
-183.793849008456620
 11
-367.938811622881990
 21
-186.808984116010830
  0
LINE
  8
0
  6
CONTINUOUS
 62
256
 10
-367.938811622881990
 20
-174.225018244056170
 11
-367.938811622881990
 21
-177.251220744140480
  0
ARC
  8
0
  6
CONTINUOUS
 62
256
 10
-369.438811622881990
 20
-183.793849008457070
 40
1.500000000000000
 50
0.000000000017370
 51
84.036429881681926
  0
ARC
  8
0
  6
CONTINUOUS
 62
256
 10
-369.438811622881990
 20
-177.251220744140480
 40
1.499999999999998
 50
262.819244218541710
 51
0.000000000000000
  0
ARC
  8
0
  6
CONTINUOUS
 62
256
 10
-369.438811622881990
 20
-174.225018244056170
 40
1.500000000000000
 50
0.000000000000000
 51
82.071858233804718
  0
ARC
  8
0
  6
CONTINUOUS
 62
256
 10
-365.438811622881990
 20
-145.502205011366190
 40
27.499999999999780
 50
217.928141766201070
 51
262.071858233797340
  0
ARC
  8
0
  6
CONTINUOUS
 62
256
 10
-365.438811622881990
 20
-145.502205011365280
 40
37.000000000000021
 50
215.963570118321940
 51
264.036429881678880
  0
ARC
  8
0
  6
CONTINUOUS
 62
256
 10
-365.438811622881990
 20
-145.502205011365280
 40
42.999999999999872
 50
215.531071524839690
 51
264.468928475160790
  0
ARC
  8
0
  6
CONTINUOUS
 62
256
 10
-365.438811622881990
 20
-145.502205011365280
 40
33.500000000000163
 50
217.180755781459080
 51
262.819244218541770
  0
ARC
  8
0
  6
CONTINUOUS
 62
256
 10
-388.313497550547480
 20
-163.327713242848860
 40
1.500000000000122
 50
37.928141766218694
 51
119.999999999992440
  0
ARC
  8
0
  6
CONTINUOUS
 62
256
 10
-399.211531676017100
 20
-169.619696178826420
 40
1.499999999999926
 50
120.000000000001620
 51
215.531071524832610
  0
LINE
  8
0
  6
CONTINUOUS
 62
256
 10
-399.961531676017100
 20
-168.320658073149840
 11
-397.350348077033000
 21
-166.813090519372510
  0
ARC
  8
0
  6
CONTINUOUS
 62
256
 10
-396.600348077033000
 20
-168.112128625049080
 40
1.499999999999968
 50
35.963570118309242
 51
120.000000000001080
  0
LINE
  8
0
  6
CONTINUOUS
 62
256
 10
-391.684265792616770
 20
-163.541776387214210
 11
-389.063497550547480
 21
-162.028675137171830
  0
ARC
  8
0
  6
CONTINUOUS
 62
256
 10
-390.934265792616770
 20
-164.840814492890790
 40
1.499999999999926
 50
120.000000000001620
 51
217.180755781463600
  0
ARC
  8
0
  6
CONTINUOUS
 62
256
 10
-403.211531676017100
 20
-128.312917074181090
 40
1.499999999999926
 50
59.999999999998380
 51
155.531071524840120
  0
LINE
  8
0
  6
CONTINUOUS
 62
256
 10
-399.850348077032550
 20
-128.521446522281620
 11
-402.461531676017100
 21
-127.013878968504510
  0
LINE
  8
0
  6
CONTINUOUS
 62
256
 10
-391.563497550547710
 20
-133.305861904481840
 11
-394.184265792616540
 21
-131.792760654439690
  0
ARC
  8
0
  6
CONTINUOUS
 62
256
 10
-400.600348077032780
 20
-129.820484627958190
 40
1.499999999999855
 50
335.963570118319300
 51
59.999999999991360
  0
ARC
  8
0
  6
CONTINUOUS
 62
256
 10
-394.934265792616540
 20
-133.091798760116490
 40
1.500000000000123
 50
60.000000000002721
 51
157.180755781457350
  0
ARC
  8
0
  6
CONTINUOUS
 62
256
 10
-392.313497550547710
 20
-134.604900010158420
 40
1.500000000000110
 50
337.928141766202660
 51
59.999999999997868
  0
ARC
  8
0
  6
CONTINUOUS
 62
256
 10
-365.438811622882210
 20
-145.502205011365730
 40
27.499999999999886
 50
157.928141766202200
 51
202.071858233798710
  0
ARC
  8
0
  6
CONTINUOUS
 62
256
 10
-365.438811622881530
 20
-145.502205011366190
 40
37.000000000000156
 50
155.963570118321140
 51
204.036429881678230
  0
ARC
  8
0
  6
CONTINUOUS
 62
256
 10
-365.438811622881530
 20
-145.502205011366190
 40
43.000000000000121
 50
155.531071524839230
 51
204.468928475160170
  0
ARC
  8
0
  6
CONTINUOUS
 62
256
 10
-365.438811622881530
 20
-145.502205011366190
 40
33.499999999999794
 50
157.180755781458400
 51
202.819244218540890
  0
ARC
  8
0
  6
CONTINUOUS
 62
256
 10
-392.313497550547480
 20
-156.399510012573050
 40
1.500000000000320
 50
299.999999999992950
 51
22.071858233784432
  0
ARC
  8
0
  6
CONTINUOUS
 62
256
 10
-403.211531676017100
 20
-162.691492948550600
 40
1.500000000000128
 50
204.468928475167470
 51
299.999999999992440
  0
LINE
  8
0
  6
CONTINUOUS
 62
256
 10
-402.461531676017100
 20
-163.990531054227630
 11
-399.850348077033000
 21
-162.482963500450300
  0
ARC
  8
0
  6
CONTINUOUS
 62
256
 10
-400.600348077033000
 20
-161.183925394773720
 40
1.499999999999926
 50
300.000000000001590
 51
24.036429881676909
  0
LINE
  8
0
  6
CONTINUOUS
 62
256
 10
-394.184265792616770
 20
-159.211649368292000
 11
-391.563497550547480
 21
-157.698548118250070
  0
ARC
  8
0
  6
CONTINUOUS
 62
256
 10
-394.934265792616770
 20
-157.912611262615430
 40
1.500000000000157
 50
202.819244218546660
 51
300.000000000001590
  0
ARC
  8
0
  6
CONTINUOUS
 62
256
 10
-399.211531676016650
 20
-121.384713843905050
 40
1.499999999999976
 50
144.468928475160820
 51
240.000000000002160
  0
LINE
  8
0
  6
CONTINUOUS
 62
256
 10
-397.350348077032550
 20
-124.191319503358950
 11
-399.961531676016650
 21
-122.683751949581850
  0
LINE
  8
0
  6
CONTINUOUS
 62
256
 10
-389.063497550547480
 20
-128.975734885559180
 11
-391.684265792616320
 21
-127.462633635517020
  0
ARC
  8
0
  6
CONTINUOUS
 62
256
 10
-396.600348077032550
 20
-122.892281397682150
 40
1.500000000000123
 50
240.000000000002670
 51
324.036429881683320
  0
ARC
  8
0
  6
CONTINUOUS
 62
256
 10
-390.934265792616320
 20
-126.163595529840450
 40
1.500000000000103
 50
142.819244218542540
 51
239.999999999997580
  0
ARC
  8
0
  6
CONTINUOUS
 62
256
 10
-388.313497550547480
 20
-127.676696779882600
 40
1.499999999999926
 50
239.999999999998410
 51
322.071858233800750
  0
ARC
  8
0
  6
CONTINUOUS
 62
256
 10
-365.438811622881300
 20
-145.502205011365730
 40
37.000000000000099
 50
95.963570118321798
 51
144.036429881678830
  0
ARC
  8
0
  6
CONTINUOUS
 62
256
 10
-365.438811622881300
 20
-145.502205011365730
 40
43.000000000000043
 50
95.531071524839788
 51
144.468928475160770
  0
ARC
  8
0
  6
CONTINUOUS
 62
256
 10
-365.438811622881300
 20
-145.502205011365730
 40
33.499999999999950
 50
97.180755781459084
 51
142.819244218541710
  0
ARC
  8
0
  6
CONTINUOUS
 62
256
 10
-369.438811622881760
 20
-116.779391778675290
 40
1.499999999999998
 50
277.928141766204020
 51
0.000000000000000
  0
ARC
  8
0
  6
CONTINUOUS
 62
256
 10
-409.387399053164240
 20
-95.405590543837434
 40
6.599999999999971
 50
98.597082237248614
 51
134.999999999998520
  0
ARC
  8
0
  6
CONTINUOUS
 62
256
 10
-404.380329578263850
 20
-105.393427470778970
 40
5.999999999999923
 50
97.897988672425626
 51
134.999999999996730
  0
ARC
  8
0
  6
CONTINUOUS
 62
256
 10
-365.438811622881760
 20
-386.102205011365530
 40
289.396999999999820
 50
90.000000000000000
 51
97.897988672427743
  0
LINE
  8
0
  6
CONTINUOUS
 62
256
 10
-301.938811622881760
 20
-178.106948697642450
 11
-298.912634674573840
 21
-178.027705465419670
  0
ARC
  8
0
  6
CONTINUOUS
 62
256
 10
-298.938811622881760
 20
-177.028048140444070
 40
1.000000000000045
 50
271.500000000002670
 51
0.000000000000000
  0
ARC
  8
0
  6
CONTINUOUS
 62
256
 10
-298.938811622881760
 20
-113.976361882287390
 40
1.000000000000000
 50
0.000000000000000
 51
88.499999999997286
  0
LINE
  8
0
  6
CONTINUOUS
 62
256
 10
-297.938811622881760
 20
-177.028048140444070
 11
-297.938811622881760
 21
-113.976361882287390
  0
LINE
  8
0
  6
CONTINUOUS
 62
256
 10
-301.938811622881760
 20
-112.897461325089010
 11
-298.912634674573840
 21
-112.976704557311790
  0
LINE
  8
0
  6
CONTINUOUS
 62
256
 10
-301.938811622881760
 20
-115.509705949098930
 11
-301.938811622881760
 21
-112.897461325089010
  0
LINE
  8
0
  6
CONTINUOUS
 62
256
 10
-301.938811622881760
 20
-175.494704073632530
 11
-301.938811622881760
 21
-178.106948697642450
  0
LINE
  8
0
  6
CONTINUOUS
 62
256
 10
-297.938811622881760
 20
-145.502205011365730
 11
-297.938811622881760
 21
-114.502205011365730
  0
LINE
  8
0
  6
CONTINUOUS
 62
256
 10
-297.938811622881760
 20
-145.502205011365730
 11
-297.938811622881760
 21
-176.502205011365730
  0
ARC
  8
0
  6
CONTINUOUS
 62
256
 10
-292.668711638666310
 20
-103.925879471478310
 40
1.000000000000041
 50
24.000000000003581
 51
113.999999999978780
  0
LINE
  8
0
  6
CONTINUOUS
 62
256
 10
-252.010870593261640
 20
-202.128946946617130
 11
-255.847761515360620
 21
-203.837240847535440
  0
LINE
  8
0
  6
CONTINUOUS
 62
256
 10
-253.353101515412160
 20
-199.114246936396510
 11
-257.189992437510910
 21
-200.822540837314820
  0
LINE
  8
0
  6
CONTINUOUS
 62
256
 10
-257.012609352412480
 20
-200.360442102063420
 11
-257.189992437510910
 21
-200.822540837314820
  0
LINE
  8
0
  6
CONTINUOUS
 62
256
 10
-255.385662780109440
 20
-204.014623932633410
 11
-255.847761515360840
 21
-203.837240847534990
  0
LINE
  8
0
  6
CONTINUOUS
 62
256
 10
-257.189992437510910
 20
-200.822540837314820
 11
-255.847761515360840
 21
-203.837240847534990
  0
POINT
  8
0
  6
CONTINUOUS
 62
256
 10
-249.210513315294970
 20
-199.075997697818590
  0
LINE
  8
0
  6
CONTINUOUS
 62
256
 10
-250.634091566060530
 20
-195.878588596069450
 11
-247.786935064529640
 21
-202.273406799567740
  0
LINE
  8
0
  6
CONTINUOUS
 62
256
 10
-250.634091566060530
 20
-195.878588596069450
 11
-247.786935064529640
 21
-202.273406799567740
  0
LINE
  8
0
  6
CONTINUOUS
 62
256
 10
-247.786935064529640
 20
-202.273406799567740
 11
-246.892550944853160
 21
-201.875201333803260
  0
LINE
  8
0
  6
CONTINUOUS
 62
256
 10
-250.634091566060530
 20
-195.878588596069450
 11
-249.739707446384050
 21
-195.480383130305200
  0
ARC
  8
0
  6
CONTINUOUS
 62
256
 10
-249.210950120701000
 20
-196.667991528260700
 40
1.299999237060495
 50
40.601531107483844
 51
114.000000683245840
  0
LINE
  8
0
  6
CONTINUOUS
 62
256
 10
-294.879382623729040
 20
-105.844692483644620
 11
-295.304214783475120
 21
-106.845534332260040
  0
LINE
  8
0
  6
CONTINUOUS
 62
256
 10
-294.434468878519060
 20
-106.843985116601970
 11
-294.567810900713080
 21
-107.158119235051340
  0
LINE
  8
0
  6
CONTINUOUS
 62
256
 10
-295.304214783475120
 20
-106.845534332260040
 11
-294.567810900713080
 21
-107.158119235051340
  0
LINE
  8
0
  6
CONTINUOUS
 62
256
 10
-291.755166181023700
 20
-103.519142828402440
 11
-273.063102600074900
 21
-145.502205011365730
  0
ARC
  8
0
  6
CONTINUOUS
 62
256
 10
-287.232250359228370
 20
-106.301998082704810
 40
3.000000000000030
 50
203.999999999999600
 51
260.681876880317530
  0
LINE
  8
0
  6
CONTINUOUS
 62
256
 10
-287.717998249667060
 20
-109.262411734026950
 11
-261.762361156130960
 21
-113.521240887019990
  0
ARC
  8
0
  6
CONTINUOUS
 62
256
 10
-264.191100608322590
 20
-128.323309143630920
 40
15.000000000000393
 50
1.682768801133086
 51
80.681876880324481
  0
ARC
  8
0
  6
CONTINUOUS
 62
256
 10
-848.938811622881760
 20
-145.502205011365960
 40
600.000000000001020
 50
355.284875165908370
 51
1.682768801133149
  0
ARC
  8
0
  6
CONTINUOUS
 62
256
 10
-249.972762630570060
 20
-194.905364369252310
 40
0.999999999999983
 50
175.284875165916760
 51
204.000000000003410
  0
LINE
  8
0
  6
CONTINUOUS
 62
256
 10
-293.075448281741730
 20
-103.012334013835680
 11
-295.633375563141040
 21
-104.151196614447830
  0
LINE
  8
0
  6
CONTINUOUS
 62
256
 10
-293.355650361921330
 20
-109.267051177248730
 11
-295.159021552108020
 21
-110.069963761378840
  0
ARC
  8
0
  6
CONTINUOUS
 62
256
 10
-293.938811622881760
 20
-112.810600134306700
 40
2.999999999999568
 50
113.999999999979780
 51
180.000000000000000
  0
LINE
  8
0
  6
CONTINUOUS
 62
256
 10
-297.938811622881760
 20
-114.502205011365730
 11
-296.938811622881760
 21
-114.502205011365730
  0
ARC
  8
0
  6
CONTINUOUS
 62
256
 10
-291.938811622881760
 20
-187.002205011365730
 40
5.000000000000000
 50
180.000000000000000
 51
270.000000000000000
  0
LINE
  8
0
  6
CONTINUOUS
 62
256
 10
-291.938811622881760
 20
-192.002205011365730
 11
-256.519586591552980
 21
-192.002205011365730
  0
LINE
  8
0
  6
CONTINUOUS
 62
256
 10
-247.358249600021510
 20
-205.694843452864010
 11
-249.916176881421280
 21
-206.833706053476130
  0
ARC
  8
0
  6
CONTINUOUS
 62
256
 10
-247.764986243097840
 20
-204.781297995221390
 40
1.000000000000226
 50
294.000000000027340
 51
23.999999999991669
  0
LINE
  8
0
  6
CONTINUOUS
 62
256
 10
-273.063102600078080
 20
-145.502205011365730
 11
-246.851440785455220
 21
-204.374561352145750
  0
ARC
  8
0
  6
CONTINUOUS
 62
256
 10
-251.144124359183250
 20
-192.274442851244430
 40
0.999999999999856
 50
113.999999999979780
 51
204.000000000003100
  0
ARC
  8
0
  6
CONTINUOUS
 62
256
 10
-252.568798026462670
 20
-189.624839599602860
 40
2.000000000000451
 50
294.000000000027340
 51
355.768661925113630
  0
LINE
  8
0
  6
CONTINUOUS
 62
256
 10
-253.495459340488650
 20
-198.794506026221600
 11
-257.012609352412480
 21
-200.360442102063420
  0
LINE
  8
0
  6
CONTINUOUS
 62
256
 10
-251.868512768185380
 20
-202.448687856791590
 11
-255.385662780109440
 21
-204.014623932633410
  0
LINE
  8
0
  6
CONTINUOUS
 62
256
 10
-297.938811622881760
 20
-176.502205011365730
 11
-296.938811622881760
 21
-176.502205011365730
  0
LINE
  8
0
  6
CONTINUOUS
 62
256
 10
-296.938811622881760
 20
-112.810600134306700
 11
-296.938811622881760
 21
-187.002205011365730
  0
ARC
  8
0
  6
CONTINUOUS
 62
256
 10
-848.938811622881760
 20
-145.502205011365960
 40
600.799999999999950
 50
357.158610984636650
 51
0.587807867706885
  0
ARC
  8
0
  6
CONTINUOUS
 62
256
 10
-249.876212394097140
 20
-175.235052255659640
 40
1.000000000000147
 50
303.952126946381380
 51
357.158610984633470
  0
ARC
  8
0
  6
CONTINUOUS
 62
256
 10
-248.759212369484660
 20
-176.894061280654800
 40
0.999999999999769
 50
123.952126946395990
 51
177.005923909150510
  0
ARC
  8
0
  6
CONTINUOUS
 62
256
 10
-247.989003953331580
 20
-137.735052255659640
 40
0.999999999999967
 50
180.740494943192910
 51
233.794291905969200
  0
ARC
  8
0
  6
CONTINUOUS
 62
256
 10
-249.170376069607980
 20
-139.348855193717780
 40
1.000000000000077
 50
0.587807867721716
 51
53.794291905958730
  0
LINE
  8
0
  6
CONTINUOUS
 62
256
 10
-295.633375563146270
 20
-104.151196614450100
 11
-249.916176881421280
 21
-206.833706053476130
  0
LINE
  8
0
  6
DASHDOT
 62
256
 10
-272.938811622881760
 20
-177.619681231660020
 11
-272.938811622881760
 21
-200.488190407423640
  0
ARC
  8
0
  6
CONTINUOUS
 62
256
 10
-247.421308270536430
 20
-200.687592935847760
 40
1.299999237060559
 50
293.999982013920090
 51
7.398451589678659
  0
ARC
  8
0
  6
CONTINUOUS
 62
256
 10
-255.057203895717750
 20
-201.679112058346390
 40
9.000000000000235
 50
7.398451589678908
 51
40.601531107483581
  0
LINE
  8
0
  6
CONTINUOUS
 62
256
 10
-344.938811622881760
 20
-3.502205011365021
 11
-344.938811622881760
 21
-28.922631770024253
  0
ARC
  8
0
  6
CONTINUOUS
 62
256
 10
-354.938811622881760
 20
-3.502205011365021
 40
10.000000000000000
 50
0.000000000000000
 51
90.000000000000000
  0
LINE
  8
0
  6
CONTINUOUS
 62
256
 10
-354.938811622881760
 20
6.497794988634979
 11
-375.938811622881760
 21
6.497794988634979
  0
ARC
  8
0
  6
CONTINUOUS
 62
256
 10
-375.938811622881760
 20
-3.502205011365021
 40
10.000000000000000
 50
90.000000000000000
 51
180.000000000000000
  0
LINE
  8
0
  6
DASHDOT
 62
256
 10
-342.270898624000210
 20
-13.502205011365021
 11
-389.293412525534900
 21
-13.502205011365021
  0
CIRCLE
  8
0
  6
CONTINUOUS
 62
256
 10
-365.438811622881760
 20
-13.502205011365021
 40
10.000000000000000
  0
LINE
  8
0
  6
CONTINUOUS
 62
256
 10
-385.938811622881760
 20
-3.502205011365021
 11
-385.938811622881760
 21
-28.922631770024253
  0
POINT
  8
0
  6
DASHED
 62
256
 10
-257.938808945120630
 20
-258.502207826128600
  0
POINT
  8
0
  6
DASHED
 62
256
 10
-365.438811622881300
 20
-113.502205011365020
  0
POINT
  8
0
  6
DASHED
 62
256
 10
-472.938814300641980
 20
-258.502207826128600
  0
ARC
  8
0
  6
CONTINUOUS
 62
256
 10
-477.438811622881300
 20
-220.874613756210920
 40
5.000000000000114
 50
33.939289208664562
 51
180.000000000000000
  0
ARC
  8
0
  6
CONTINUOUS
 62
256
 10
-365.438811622881300
 20
-145.502205011365730
 40
129.999999999999940
 50
213.939289208665090
 51
230.380873009517220
  0
ARC
  8
0
  6
CONTINUOUS
 62
256
 10
-253.438811622881300
 20
-220.874613756210920
 40
5.000000000000000
 50
0.000000000000000
 51
146.060710791332640
  0
ARC
  8
0
  6
CONTINUOUS
 62
256
 10
-365.438811622881300
 20
-145.502205011365730
 40
130.000000000000260
 50
309.619126990482700
 51
326.060710791335000
  0
ARC
  8
0
  6
CONTINUOUS
 62
256
 10
-298.438811622881300
 20
-248.502204214265020
 40
9.999999999999833
 50
224.427031979601760
 51
233.130135655587590
  0
ARC
  8
0
  6
CONTINUOUS
 62
256
 10
-485.438811622881300
 20
-233.502207278121660
 40
3.000000000000000
 50
270.000000000000000
 51
0.000000000000000
  0
ARC
  8
0
  6
CONTINUOUS
 62
256
 10
-487.438814736556880
 20
-239.502207278121660
 40
2.999999999995104
 50
89.958233096699374
 51
180.000000000000000
  0
ARC
  8
0
  6
CONTINUOUS
 62
256
 10
-443.438813615633760
 20
-258.502207701581480
 40
2.000000000000000
 50
90.000000000000000
 51
180.000000000000000
  0
ARC
  8
0
  6
CONTINUOUS
 62
256
 10
-459.529191438513640
 20
-239.502207278121660
 40
3.000000000000004
 50
44.972469343427150
 51
90.041766903300569
  0
ARC
  8
0
  6
CONTINUOUS
 62
256
 10
-432.438811622881300
 20
-248.502204214265020
 40
10.000000000000053
 50
306.869864344412290
 51
315.572968020398320
  0
ARC
  8
0
  6
CONTINUOUS
 62
256
 10
-287.438809630128840
 20
-258.502207701581480
 40
2.000000000000000
 50
0.000000000000000
 51
90.000000000000000
  0
ARC
  8
0
  6
CONTINUOUS
 62
256
 10
-245.438811622881300
 20
-233.502207278121660
 40
3.000000000000000
 50
180.000000000000000
 51
270.000000000000000
  0
ARC
  8
0
  6
CONTINUOUS
 62
256
 10
-243.438808509205730
 20
-239.502207278121660
 40
3.000000000000000
 50
0.000000000000000
 51
90.041767157468172
  0
ARC
  8
0
  6
CONTINUOUS
 62
256
 10
-271.348431807248970
 20
-239.502207278121660
 40
3.000000000004805
 50
89.958232842531899
 51
135.027530656573190
  0
LINE
  8
0
  6
DASHDOT
 62
256
 10
-472.938814300641980
 20
-266.326666517739800
 11
-472.938814300641980
 21
-230.788629317267350
  0
LINE
  8
0
  6
CONTINUOUS
 62
256
 10
-445.438813615633760
 20
-258.502207826128600
 11
-490.438814736556880
 21
-258.502207826128600
  0
LINE
  8
0
  6
CONTINUOUS
 62
256
 10
-490.438814736556880
 20
-258.502207826128600
 11
-490.438814736556880
 21
-239.502207278121660
  0
LINE
  8
0
  6
CONTINUOUS
 62
256
 10
-426.438816272639310
 20
-256.502207701581480
 11
-443.438813615633760
 21
-256.502207701581480
  0
LINE
  8
0
  6
CONTINUOUS
 62
256
 10
-445.438813615633760
 20
-258.502207826128600
 11
-445.438813615633760
 21
-251.803661489043410
  0
LINE
  8
0
  6
CONTINUOUS
 62
256
 10
-304.438806973123290
 20
-256.502207701581480
 11
-287.438809630128840
 21
-256.502207701581480
  0
LINE
  8
0
  6
CONTINUOUS
 62
256
 10
-285.438809630128840
 20
-258.502207826128600
 11
-285.438809630128840
 21
-251.803661489043630
  0
LINE
  8
0
  6
DASHDOT
 62
256
 10
-257.938808945120630
 20
-266.326666517739800
 11
-257.938808945120630
 21
-230.788629317267350
  0
LINE
  8
0
  6
CONTINUOUS
 62
256
 10
-285.438809630128840
 20
-258.502207826128600
 11
-240.438808509205730
 21
-258.502207826128600
  0
LINE
  8
0
  6
CONTINUOUS
 62
256
 10
-240.438808509205730
 20
-258.502207826128600
 11
-240.438808509205730
 21
-239.502207278121660
  0
LINE
  8
0
  6
CONTINUOUS
 62
256
 10
-482.438811622881300
 20
-233.502207278121660
 11
-482.438811622881300
 21
-114.737778483874290
  0
LINE
  8
0
  6
CONTINUOUS
 62
256
 10
-248.438811622881300
 20
-233.502207278121660
 11
-248.438811622881300
 21
-206.175940661696020
  0
POINT
  8
0
  6
DASHDOT
 62
256
 10
-365.438811622881300
 20
-113.502205011365020
  0
ARC
  8
0
  6
CONTINUOUS
 62
256
 10
-254.438811622881300
 20
-188.397426190420220
 40
6.000000000000148
 50
338.871302745699890
 51
0.000000000000000
  0
ARC
  8
0
  6
CONTINUOUS
 62
256
 10
-277.438809630128840
 20
-251.803661489043630
 40
8.000000000000055
 50
129.619126990482750
 51
180.000000000000000
  0
ARC
  8
0
  6
CONTINUOUS
 62
256
 10
-476.438811622881300
 20
-188.397426190420220
 40
6.000000000000000
 50
180.000000000000000
 51
201.128697254300020
  0
ARC
  8
0
  6
CONTINUOUS
 62
256
 10
-453.438813615633760
 20
-251.803661489043410
 40
8.000000000000000
 50
0.000000000000000
 51
50.380873009517437
  0
LINE
  8
0
  6
CONTINUOUS
 62
256
 10
-385.938811622881760
 20
-28.922631770024481
 11
-385.938811622881760
 21
-48.502205011365021
  0
LINE
  8
0
  6
CONTINUOUS
 62
256
 10
-344.938811622881760
 20
-28.922631770024481
 11
-344.938811622881760
 21
-48.502205011365021
  0
ARC
  8
0
  6
CONTINUOUS
 62
256
 10
-365.438811622881760
 20
-528.502204214264910
 40
499.999999999999830
 50
92.349785605460426
 51
94.422377585978055
  0
ARC
  8
0
  6
CONTINUOUS
 62
256
 10
-365.438811622881760
 20
-528.502204214264910
 40
499.999999999999830
 50
85.577622414021945
 51
87.650214394539574
  0
LINE
  8
0
  6
CONTINUOUS
 62
256
 10
-467.438811622881760
 20
-85.502204214264793
 11
-472.836873610631070
 21
-85.502204214264793
  0
ARC
  8
0
  6
CONTINUOUS
 62
256
 10
-459.098437433326350
 20
-60.681413965753563
 40
2.999999999999864
 50
45.000000000000000
 51
138.759285791780600
  0
ARC
  8
0
  6
CONTINUOUS
 62
256
 10
-450.165147688889420
 20
-51.937034180527007
 40
3.000000000000087
 50
130.016194045871200
 51
225.000000000001340
  0
ARC
  8
0
  6
CONTINUOUS
 62
256
 10
-447.173144884300880
 20
-236.075373037615690
 40
3.000000000000024
 50
134.999999999996960
 51
227.936520027067470
  0
ARC
  8
0
  6
CONTINUOUS
 62
256
 10
-450.425383540658230
 20
-247.807056282772580
 40
7.999999999999940
 50
357.786725011997310
 51
50.282947375419241
  0
ARC
  8
0
  6
CONTINUOUS
 62
256
 10
-456.011979649132850
 20
-227.236538272783720
 40
3.000000000000057
 50
222.063479972927580
 51
314.999999999998070
  0
ARC
  8
0
  6
CONTINUOUS
 62
256
 10
-467.438811622881760
 20
-98.502204214264793
 40
13.000000000000000
 50
270.000000000000000
 51
90.000000000000000
  0
LINE
  8
0
  6
CONTINUOUS
 62
256
 10
-467.438811622881760
 20
-111.502204214264790
 11
-479.438811622881760
 21
-111.502204214264790
  0
ARC
  8
0
  6
CONTINUOUS
 62
256
 10
-476.438811622881760
 20
-188.397426190420330
 40
6.000000000000000
 50
180.000000000000000
 51
201.128697254301220
  0
ARC
  8
0
  6
CONTINUOUS
 62
256
 10
-365.438811622881760
 20
-145.502205011365730
 40
125.000000000000270
 50
201.128697254301130
 51
230.282947375420260
  0
ARC
  8
0
  6
CONTINUOUS
 62
256
 10
-472.836873610631070
 20
-82.502204214264793
 40
3.000000000000154
 50
156.851427179928090
 51
270.000000000000000
  0
ARC
  8
0
  6
CONTINUOUS
 62
256
 10
-479.438811622881760
 20
-114.502204214264790
 40
3.000000000000000
 50
90.000000000000000
 51
180.000000000000000
  0
POINT
  8
0
  6
CONTINUOUS
 62
256
 10
-365.438811622881760
 20
-145.502204214265730
  0
POINT
  8
0
  6
CONTINUOUS
 62
256
 10
-365.438811622881760
 20
-145.502204214265730
  0
POINT
  8
0
  6
CONTINUOUS
 62
256
 10
-365.438811622881760
 20
-145.502204214265730
  0
POINT
  8
0
  6
CONTINUOUS
 62
256
 10
-365.438811622881760
 20
-145.502204214265730
  0
POINT
  8
0
  6
DASHDOT
 62
256
 10
-365.438811622881760
 20
-145.502204214265730
  0
POINT
  8
0
  6
CONTINUOUS
 62
256
 10
-365.438811622881760
 20
-145.502204214265730
  0
POINT
  8
0
  6
CONTINUOUS
 62
256
 10
-365.438811622881760
 20
-145.502204214265730
  0
POINT
  8
0
  6
CONTINUOUS
 62
256
 10
-365.438811622881760
 20
-145.502204214265730
  0
POINT
  8
0
  6
DASHDOT
 62
256
 10
-365.438811622881760
 20
-145.502204214265730
  0
POINT
  8
0
  6
DASHDOT
 62
256
 10
-365.438811622881760
 20
-145.502204214265730
  0
POINT
  8
0
  6
DASHDOT
 62
256
 10
-365.438811622881760
 20
-113.502205011365020
  0
POINT
  8
0
  6
DASHED
 62
256
 10
-365.438811622881760
 20
-113.502205011365020
  0
POINT
  8
0
  6
DASHED
 62
256
 10
-365.438811622881760
 20
-145.502204214265730
  0
LINE
  8
0
  6
CONTINUOUS
 62
256
 10
-416.217649474574730
 20
-90.127173081960791
 11
-452.286468032448970
 21
-54.058354524086667
  0
LINE
  8
0
  6
CONTINUOUS
 62
256
 10
-362.188811622881760
 20
-84.002205011365731
 11
-362.188811622881760
 21
-54.502204214265134
  0
LINE
  8
0
  6
CONTINUOUS
 62
256
 10
-368.688811622881760
 20
-84.002205011365731
 11
-368.688811622881760
 21
-54.502204214265021
  0
LINE
  8
0
  6
CONTINUOUS
 62
256
 10
-310.063779693476590
 20
-94.723367159673558
 11
-273.900506155996710
 21
-58.560093622194017
  0
LINE
  8
0
  6
CONTINUOUS
 62
256
 10
-314.659973771189020
 20
-90.127173081960791
 11
-278.591155213314550
 21
-54.058354524086667
  0
LINE
  8
0
  6
CONTINUOUS
 62
256
 10
-423.407588318244730
 20
-208.067175784440790
 11
-449.294465227860880
 21
-233.954052694056030
  0
LINE
  8
0
  6
CONTINUOUS
 62
256
 10
-424.037830116074250
 20
-199.505029426845110
 11
-453.890659305573310
 21
-229.357858616343380
  0
LINE
  8
0
  6
CONTINUOUS
 62
256
 10
-294.402157793425200
 20
-211.942664763109290
 11
-276.986963940190660
 21
-229.357858616343490
  0
LINE
  8
0
  6
CONTINUOUS
 62
256
 10
-298.302604380485490
 20
-217.234606331473860
 11
-281.583158017903090
 21
-233.954052694056030
  0
LINE
  8
0
  6
CONTINUOUS
 62
256
 10
-365.438811622881760
 20
-255.502207701581480
 11
-305.580236633169310
 21
-255.502207701581480
  0
LINE
  8
0
  6
CONTINUOUS
 62
256
 10
-365.438811622881760
 20
-255.502207701581480
 11
-425.297386612594660
 21
-255.502207701581480
  0
LINE
  8
0
  6
CONTINUOUS
 62
256
 10
-365.438811622881760
 20
-51.502205011365021
 11
-382.938811622881760
 21
-51.502205011365021
  0
LINE
  8
0
  6
CONTINUOUS
 62
256
 10
-365.438811622881760
 20
-51.502205011365021
 11
-347.938811622881760
 21
-51.502205011365021
  0
LINE
  8
0
  6
DASHDOT
 62
256
 10
-339.695276626476700
 20
-113.502205011365020
 11
-391.318723656117070
 21
-113.502205011365020
  0
LINE
  8
0
  6
CONTINUOUS
 62
256
 10
-263.438811622881760
 20
-85.502204214264793
 11
-258.040749635132440
 21
-85.502204214264793
  0
LINE
  8
0
  6
CONTINUOUS
 62
256
 10
-263.438811622881760
 20
-111.502204214264790
 11
-251.438811622881760
 21
-111.502204214264790
  0
ARC
  8
0
  6
CONTINUOUS
 62
256
 10
-359.188811622881760
 20
-54.502204214265134
 40
3.000000000000000
 50
90.000000000000000
 51
180.000000000000000
  0
ARC
  8
0
  6
CONTINUOUS
 62
256
 10
-359.188811622881760
 20
-84.002205011365731
 40
3.000000000000000
 50
180.000000000000000
 51
210.493960341050840
  0
ARC
  8
0
  6
CONTINUOUS
 62
256
 10
-371.688811622881760
 20
-84.002205011365731
 40
2.999999999999778
 50
329.506039658949360
 51
0.000000000000000
  0
ARC
  8
0
  6
CONTINUOUS
 62
256
 10
-371.688811622881760
 20
-54.502204214265021
 40
3.000000000000000
 50
0.000000000000000
 51
90.000000000000000
  0
ARC
  8
0
  6
CONTINUOUS
 62
256
 10
-271.779185812437160
 20
-60.681413965753563
 40
3.000000000000097
 50
41.240714208219501
 51
135.000000000000110
  0
ARC
  8
0
  6
CONTINUOUS
 62
256
 10
-280.712475556874100
 20
-51.937034180527007
 40
2.999999999999944
 50
314.999999999998470
 51
49.983805954129153
  0
ARC
  8
0
  6
CONTINUOUS
 62
256
 10
-421.286267974685190
 20
-210.188496128000450
 40
2.999999999999707
 50
33.002416253119989
 51
134.999999999998470
  0
ARC
  8
0
  6
CONTINUOUS
 62
256
 10
-426.159150459633790
 20
-197.383709083285570
 40
2.999999999999864
 50
315.000000000000000
 51
8.666390951560810
  0
ARC
  8
0
  6
CONTINUOUS
 62
256
 10
-292.280837449865200
 20
-209.821344419549630
 40
3.000000000000064
 50
148.296383256602160
 51
224.999999999995000
  0
ARC
  8
0
  6
CONTINUOUS
 62
256
 10
-274.865643596631120
 20
-227.236538272783830
 40
2.999999999999944
 50
225.000000000001530
 51
317.936520027074440
  0
ARC
  8
0
  6
CONTINUOUS
 62
256
 10
-300.423924724045040
 20
-219.355926675033520
 40
2.999999999999944
 50
45.000000000001542
 51
130.705112768221770
  0
ARC
  8
0
  6
CONTINUOUS
 62
256
 10
-283.704478361462630
 20
-236.075373037615690
 40
2.999999999999820
 50
312.063479972925790
 51
45.000000000001918
  0
ARC
  8
0
  6
CONTINUOUS
 62
256
 10
-280.452239705105280
 20
-247.807056282772350
 40
8.000000000000103
 50
129.717052624580870
 51
182.213274988004290
  0
ARC
  8
0
  6
CONTINUOUS
 62
256
 10
-254.438811622881760
 20
-188.397426190420220
 40
6.000000000000148
 50
338.871302745699890
 51
0.000000000000000
  0
ARC
  8
0
  6
CONTINUOUS
 62
256
 10
-365.438811622881760
 20
-145.502205011365730
 40
124.999999999999970
 50
309.717052624579760
 51
332.211641912804960
  0
ARC
  8
0
  6
CONTINUOUS
 62
256
 10
-394.030221009943260
 20
-192.486578043912230
 40
29.499999999999911
 50
176.174628045369390
 51
333.472027621085540
  0
ARC
  8
0
  6
CONTINUOUS
 62
256
 10
-327.162732900246510
 20
-188.274804795083360
 40
37.999999999999751
 50
207.178610380823130
 51
354.370835208503820
  0
ARC
  8
0
  6
CONTINUOUS
 62
256
 10
-382.938811622881760
 20
-48.502205011365021
 40
3.000000000000000
 50
180.000000000000000
 51
270.000000000000000
  0
ARC
  8
0
  6
CONTINUOUS
 62
256
 10
-347.938811622881760
 20
-48.502205011365021
 40
3.000000000000000
 50
270.000000000000000
 51
0.000000000000000
  0
ARC
  8
0
  6
CONTINUOUS
 62
256
 10
-298.438811622881760
 20
-248.502204214265020
 40
10.000000000000053
 50
306.869864344412290
 51
2.213274988003489
  0
ARC
  8
0
  6
CONTINUOUS
 62
256
 10
-298.438811622881760
 20
-248.502204214265020
 40
10.000000000000158
 50
224.427031979599950
 51
233.130135655587790
  0
ARC
  8
0
  6
CONTINUOUS
 62
256
 10
-397.438811622881760
 20
-114.737778483874290
 40
84.999999999999972
 50
94.422377585978197
 51
180.000000000000000
  0
ARC
  8
0
  6
CONTINUOUS
 62
256
 10
-432.438811622881760
 20
-248.502204214265020
 40
10.000000000000156
 50
177.786725011996570
 51
233.130135655587790
  0
ARC
  8
0
  6
CONTINUOUS
 62
256
 10
-432.438811622881760
 20
-248.502204214265020
 40
10.000000000000053
 50
306.869864344412290
 51
315.572968020398320
  0
ARC
  8
0
  6
CONTINUOUS
 62
256
 10
-333.438811622881760
 20
-114.737778483874290
 40
85.000000000000000
 50
0.000000000000000
 51
85.577622414021803
  0
ARC
  8
0
  6
CONTINUOUS
 62
256
 10
-263.438811622881760
 20
-98.502204214264793
 40
13.000000000000000
 50
90.000000000000000
 51
270.000000000000000
  0
ARC
  8
0
  6
CONTINUOUS
 62
256
 10
-258.040749635132440
 20
-82.502204214264793
 40
3.000000000000000
 50
270.000000000000000
 51
23.148572820071980
  0
ARC
  8
0
  6
CONTINUOUS
 62
256
 10
-251.438811622881760
 20
-114.502204214264790
 40
3.000000000000000
 50
0.000000000000000
 51
90.000000000000000
  0
LINE
  8
0
  6
CONTINUOUS
 62
256
 10
-248.438811622881300
 20
-195.622142515954120
 11
-248.438811622881300
 21
-164.486145592800540
  0
ARC
  8
0
  6
CONTINUOUS
 62
256
 10
-365.438811622881760
 20
-145.502205011365730
 40
124.999999999999930
 50
336.463102608948360
 51
338.871302745698980
  0
LINE
  8
0
  6
CONTINUOUS
 62
256
 10
-248.438811622881300
 20
-138.667082900143670
 11
-248.438811622881300
 21
-114.737778483874290
  0
ARC
  8
0
  6
CONTINUOUS
 62
256
 10
-258.438811622881760
 20
-190.502204214265020
 40
5.633955001831038
 50
195.440822143987250
 51
305.707265004868650
  0
ARC
  8
0
  6
CONTINUOUS
 62
256
 10
-258.438811622881760
 20
-190.502204214265020
 40
6.499999999999966
 50
193.342371018229530
 51
304.129640101466920
  0
LINE
  8
0
  6
CONTINUOUS
 62
256
 10
-261.438808285022730
 20
-192.234250213816270
 11
-261.438808348905300
 21
-192.002205011365730
  0
LINE
  8
0
  6
CONTINUOUS
 62
256
 10
-256.216392650312860
 20
-192.683189753016340
 11
-258.438816087293960
 21
-193.966302579680130
  0
LINE
  8
0
  6
CONTINUOUS
 62
256
 10
-258.438816327870370
 20
-193.966302390013770
 11
-261.438809199982130
 21
-192.234250432297700
  0
LINE
  8
0
  6
CONTINUOUS
 62
256
 10
-420.813843552286930
 20
-94.723367159673558
 11
-456.977117089766810
 21
-58.560093622194017
  0
INSERT
  8
0
  2
ZU_SYM_2
 10
-432.438811622881760
 20
-248.502204214264910
 41
-1.000000000000000
 50
0.000000000000007
  0
INSERT
  8
0
  2
ZU_SYM_2
 10
-472.438811622881760
 20
-190.502204214264910
 41
-1.000000000000000
 50
0.000000000000007
  0
INSERT
  8
0
  2
ZU_SYM_2
 10
-471.438811622881760
 20
-124.502204214264680
 41
-1.000000000000000
 50
0.000000000000007
  0
INSERT
  8
0
  2
ZU_SYM_2
 10
-432.438811622881760
 20
-48.502204214264566
 41
-1.000000000000000
 50
0.000000000000007
  0
INSERT
  8
0
  2
ZU_SYM_2
 10
-375.938811622881760
 20
-41.502205011365021
 41
-1.000000000000000
 50
0.000000000000007
  0
INSERT
  8
0
  2
ZU_SYM_2
 10
-298.438811622881760
 20
-248.502204214265020
  0
INSERT
  8
0
  2
ZU_SYM_2
 10
-354.938811622881760
 20
-41.502205011365021
  0
INSERT
  8
0
  2
ZU_SYM_2
 10
-298.438811622881760
 20
-48.502204214264680
  0
LINE
  8
0
  6
CONTINUOUS
 62
256
 10
23.732223872627230
 20
-28.502225921030913
 11
23.732223872626776
 21
-113.502205011365730
  0
LINE
  8
0
  6
CONTINUOUS
 62
256
 10
23.732223872627230
 20
-28.502225921030913
 11
88.761938402840144
 21
-29.637323810418820
  0
ARC
  8
0
  6
CONTINUOUS
 62
256
 10
-29.767784564543661
 20
-239.747086796183790
 40
3.499999999999234
 50
94.332468894025979
 51
180.000000000000000
  0
ARC
  8
0
  6
CONTINUOUS
 62
256
 10
23.732223872626776
 20
-194.267577612826240
 40
2.000000000000000
 50
0.000000000000000
 51
90.000000000000000
  0
ARC
  8
0
  6
CONTINUOUS
 62
256
 10
23.732223872626776
 20
-215.093857019145620
 40
1.999999999999826
 50
317.350764207258010
 51
0.000000000000000
  0
LINE
  8
0
  6
CONTINUOUS
 62
256
 10
25.732223872626776
 20
-194.267577612826240
 11
25.732223872626776
 21
-215.093857019145620
  0
LINE
  8
0
  6
CONTINUOUS
 62
256
 10
25.732223872629504
 20
-232.032359818068470
 11
6.732215435456339
 21
-233.471806061880670
  0
LINE
  8
0
  6
CONTINUOUS
 62
256
 10
25.203254188266612
 20
-216.448873554273630
 11
11.334217195687700
 21
-231.505349498231230
  0
LINE
  8
0
  6
CONTINUOUS
 62
256
 10
-33.267784564543661
 20
-258.502231575465880
 11
-33.267784564543661
 21
-239.747086796183790
  0
LINE
  8
0
  6
DASHDOT
 62
256
 10
-14.267798191766531
 20
-231.292134753610300
 11
-14.267798191766531
 21
-263.954196907497130
  0
LINE
  8
0
  6
CONTINUOUS
 62
256
 10
25.732223872626776
 20
-232.032359818068470
 11
113.732210930412560
 21
-235.105387081390290
  0
LINE
  8
0
  6
CONTINUOUS
 62
256
 10
23.732223872626776
 20
-113.502205011365730
 11
23.732223872626776
 21
-218.045850516127760
  0
ARC
  8
0
  6
CONTINUOUS
 62
256
 10
6.921126248768189
 20
-227.440299892849000
 40
5.999999999999782
 50
274.332468894032670
 51
317.350764207251530
  0
LINE
  8
0
  6
CONTINUOUS
 62
256
 10
6.732215435456339
 20
-233.471806061880670
 11
-30.032187895021423
 21
-236.257088102942360
  0
LINE
  8
0
  6
CONTINUOUS
 62
256
 10
23.232223872626776
 20
-28.502225921030913
 11
23.232223872626776
 21
-145.502205011365730
  0
ARC
  8
0
  6
CONTINUOUS
 62
256
 10
15.232223872626776
 20
-31.502205011365731
 40
3.000000000000000
 50
90.000000000000000
 51
180.000000000000000
  0
ARC
  8
0
  6
CONTINUOUS
 62
256
 10
10.232223872626776
 20
-83.770142193905485
 40
2.000000000000000
 50
270.000000000000000
 51
0.000000000000000
  0
ARC
  8
0
  6
CONTINUOUS
 62
256
 10
10.232223872626776
 20
-113.234243809043600
 40
2.000000000000000
 50
0.000000000000000
 51
90.000000000000000
  0
LINE
  8
0
  6
CONTINUOUS
 62
256
 10
12.232223872626776
 20
-31.502205011365731
 11
12.232223872626776
 21
-83.770142193905485
  0
LINE
  8
0
  6
CONTINUOUS
 62
256
 10
12.232223872626776
 20
-113.234243809043600
 11
12.232223872626776
 21
-145.502205011365730
  0
LINE
  8
0
  6
CONTINUOUS
 62
256
 10
23.232223872626776
 20
-28.502205011365731
 11
3.232223872626776
 21
-28.502205011365731
  0
ARC
  8
0
  6
CONTINUOUS
 62
256
 10
3.232223872626776
 20
-31.502205011365731
 40
3.000000000000000
 50
90.000000000000000
 51
180.000000000000000
  0
LINE
  8
0
  6
DASHDOT
 62
256
 10
-9.998023528189776
 20
-13.502205011374556
 11
8.101242487101729
 21
-13.502205011374556
  0
LINE
  8
0
  6
CONTINUOUS
 62
256
 10
-4.267776127373224
 20
6.497794988625444
 11
0.232223872626776
 21
6.497794988625444
  0
ARC
  8
0
  6
CONTINUOUS
 62
256
 10
7.232223872626776
 20
-81.183011489698856
 40
5.000000000000054
 50
293.447344693371690
 51
0.000000000000000
  0
LINE
  8
0
  6
CONTINUOUS
 62
256
 10
12.232223872627230
 20
-230.530457302321340
 11
12.232223872626776
 21
-145.502205011365730
  0
LINE
  8
0
  6
CONTINUOUS
 62
256
 10
23.232223872626776
 20
-218.588659506832300
 11
23.232223872626776
 21
-145.502205011365730
  0
LINE
  8
0
  6
CONTINUOUS
 62
256
 10
10.232223872626776
 20
-111.234243809043600
 11
7.232223872626776
 21
-111.234243809043600
  0
ARC
  8
0
  6
CONTINUOUS
 62
256
 10
7.232223872626776
 20
-109.234243809043600
 40
2.000000000000000
 50
180.000000000000000
 51
270.000000000000000
  0
LINE
  8
0
  6
CONTINUOUS
 62
256
 10
5.232223872626776
 20
-87.770142193905485
 11
5.232223872626776
 21
-109.234243809043600
  0
LINE
  8
0
  6
CONTINUOUS
 62
256
 10
10.232223872626776
 20
-85.770142193905485
 11
7.232223872626776
 21
-85.770142193905485
  0
ARC
  8
0
  6
CONTINUOUS
 62
256
 10
7.232223872626776
 20
-87.770142193905485
 40
2.000000000000000
 50
90.000000000000000
 51
180.000000000000000
  0
ARC
  8
0
  6
CONTINUOUS
 62
256
 10
0.232223872626776
 20
-83.552610636676036
 40
2.999999999999949
 50
273.000000000005680
 51
0.000000000000000
  0
LINE
  8
0
  6
CONTINUOUS
 62
256
 10
7.493903653841073
 20
-204.880636212962600
 11
-8.267776127372315
 21
-204.054601577858650
  0
ARC
  8
0
  6
CONTINUOUS
 62
256
 10
7.232223872626776
 20
-209.873783886735510
 40
5.000000000000000
 50
0.000000000000000
 51
87.000000000004832
  0
LINE
  8
0
  6
CONTINUOUS
 62
256
 10
-8.267776127372315
 20
-145.502205011365730
 11
-8.267776127372315
 21
-87.002193798575263
  0
LINE
  8
0
  6
CONTINUOUS
 62
256
 10
-8.267776127372315
 20
-145.502205011365730
 11
-8.267776127372315
 21
-204.002193798576170
  0
LINE
  8
0
  6
CONTINUOUS
 62
256
 10
-8.267776127372315
 20
-125.517140078884490
 11
4.232224826301092
 21
-125.517140078884490
  0
LINE
  8
0
  6
CONTINUOUS
 62
256
 10
12.232223872626776
 20
-165.487269943846970
 11
-8.267776127372315
 21
-165.487269943846970
  0
LINE
  8
0
  6
CONTINUOUS
 62
256
 10
0.232223872626776
 20
-31.502205011365731
 11
0.232223872626776
 21
-48.502193001475007
  0
LINE
  8
0
  6
CONTINUOUS
 62
256
 10
3.232223872626776
 20
-53.698345424181753
 11
3.232223872626776
 21
-83.552610636676036
  0
ARC
  8
0
  6
CONTINUOUS
 62
256
 10
0.232223872626776
 20
-53.698345424181753
 40
3.000000000000000
 50
0.000000000000000
 51
59.999999999998380
  0
ARC
  8
0
  6
CONTINUOUS
 62
256
 10
3.232223872626776
 20
-48.502193001475007
 40
3.000000000000000
 50
180.000000000000000
 51
240.000000000002670
  0
LINE
  8
0
  6
CONTINUOUS
 62
256
 10
-4.267776127376862
 20
-51.502205011374542
 11
0.232223872623138
 21
-51.502205011374542
  0
LINE
  8
0
  6
CONTINUOUS
 62
256
 10
0.232223872626776
 20
6.497794988625444
 11
0.232223872626776
 21
-51.502205011374542
  0
LINE
  8
0
  6
CONTINUOUS
 62
256
 10
-4.267776127376862
 20
-51.502205011374542
 11
-4.267776127373224
 21
6.497794988625444
  0
LINE
  8
0
  6
CONTINUOUS
 62
256
 10
5.922662393896928
 20
-86.258504428623382
 11
-8.267776127372315
 21
-87.002193798575718
  0
LINE
  8
0
  6
CONTINUOUS
 62
256
 10
-43.817776127373520
 20
-102.905597370759760
 11
-79.267776127372315
 21
-102.905597370759760
  0
ARC
  8
0
  6
CONTINUOUS
 62
256
 10
-43.817776127373520
 20
-113.905597370759760
 40
11.000000000000000
 50
0.000000000000000
 51
90.000000000000000
  0
ARC
  8
0
  6
CONTINUOUS
 62
256
 10
-44.217776127373156
 20
-120.502205011365500
 40
5.000000000000000
 50
0.000000000000000
 51
90.000000000000000
  0
LINE
  8
0
  6
CONTINUOUS
 62
256
 10
-79.267776127372315
 20
-115.502205011365500
 11
-44.217776127373156
 21
-115.502205011365500
  0
ARC
  8
0
  6
CONTINUOUS
 62
256
 10
-44.217776127373156
 20
-114.000415574258340
 40
5.000000000000000
 50
0.000000000000000
 51
90.000000000000000
  0
LINE
  8
0
  6
CONTINUOUS
 62
256
 10
-79.267776127372315
 20
-109.000415574258340
 11
-44.217776127373156
 21
-109.000415574258340
  0
LINE
  8
0
  6
CONTINUOUS
 62
256
 10
-32.817776127373520
 20
-113.905597370759760
 11
-32.817776127373520
 21
-195.508316739015530
  0
LINE
  8
0
  6
CONTINUOUS
 62
256
 10
-39.217776127373156
 20
-114.000415574258340
 11
-39.217776127373156
 21
-190.078159780918440
  0
ARC
  8
0
  6
CONTINUOUS
 62
256
 10
-44.217776127373156
 20
-190.078159780918440
 40
5.000000000000000
 50
270.000000000000000
 51
0.000000000000000
  0
LINE
  8
0
  6
CONTINUOUS
 62
256
 10
-43.817776127373520
 20
-205.288106809788360
 11
-79.267776127372315
 21
-205.288106809788360
  0
LINE
  8
0
  6
CONTINUOUS
 62
256
 10
-43.817776127373520
 20
-206.508316739015530
 11
-79.267776127372315
 21
-206.508316739015530
  0
ARC
  8
0
  6
CONTINUOUS
 62
256
 10
-43.817776127373520
 20
-195.508316739015530
 40
11.000000000000000
 50
270.000000000000000
 51
0.000000000000000
  0
ARC
  8
0
  6
CONTINUOUS
 62
256
 10
-43.817776127373520
 20
-194.288106809788360
 40
11.000000000000000
 50
270.000000000000000
 51
0.000000000000000
  0
ARC
  8
0
  6
CONTINUOUS
 62
256
 10
-70.007557946759050
 20
-191.078159793768690
 40
4.000000000000156
 50
221.178434371117220
 51
270.000000000000000
  0
LINE
  8
0
  6
CONTINUOUS
 62
256
 10
-77.840924839957495
 20
-191.083112666582140
 11
-79.267776127372315
 21
-190.965929997931140
  0
LINE
  8
0
  6
CONTINUOUS
 62
256
 10
-76.459829962425900
 20
-191.430902846989260
 11
-77.840924839957495
 21
-191.083112666582140
  0
LINE
  8
0
  6
CONTINUOUS
 62
256
 10
-75.168780583529326
 20
-191.998147568840580
 11
-76.459829962425900
 21
-191.430902846989260
  0
LINE
  8
0
  6
CONTINUOUS
 62
256
 10
-74.009178203957646
 20
-192.766656371626250
 11
-75.168780583529326
 21
-191.998147568840580
  0
LINE
  8
0
  6
CONTINUOUS
 62
256
 10
-73.018209068871272
 20
-193.711784638146670
 11
-74.009178203957646
 21
-192.766656371626250
  0
ARC
  8
0
  6
CONTINUOUS
 62
256
 10
-70.780301911652202
 20
-191.078159787142110
 40
3.999999999999828
 50
226.698420851470760
 51
270.000000000000000
  0
LINE
  8
0
  6
CONTINUOUS
 62
256
 10
-77.991735737452601
 20
-191.861202192596690
 11
-79.267776127372315
 21
-191.767634036677860
  0
LINE
  8
0
  6
CONTINUOUS
 62
256
 10
-76.748369350004197
 20
-192.139510775252770
 11
-77.991735737452601
 21
-191.861202192596690
  0
LINE
  8
0
  6
CONTINUOUS
 62
256
 10
-75.569514324359318
 20
-192.595433477838500
 11
-76.748369350004197
 21
-192.139510775252770
  0
LINE
  8
0
  6
CONTINUOUS
 62
256
 10
-74.485356156467404
 20
-193.217296046444060
 11
-75.569514324359318
 21
-192.595433477838500
  0
LINE
  8
0
  6
CONTINUOUS
 62
256
 10
-73.523655555892844
 20
-193.989175208370680
 11
-74.485356156467404
 21
-193.217296046444060
  0
LINE
  8
0
  6
CONTINUOUS
 62
256
 10
-70.780301909978959
 20
-195.078159780918440
 11
-44.217776127373156
 21
-195.078159780918440
  0
LINE
  8
0
  6
CONTINUOUS
 62
256
 10
-75.835027645961020
 20
-199.494289315430190
 11
-75.767776127372315
 21
-198.820699545384060
  0
LINE
  8
0
  6
CONTINUOUS
 62
256
 10
-76.034197763582810
 20
-200.141993408366940
 11
-75.835027645961020
 21
-199.494289315430190
  0
LINE
  8
0
  6
CONTINUOUS
 62
256
 10
-76.357632484313413
 20
-200.738920919139420
 11
-76.034197763582810
 21
-200.141993408366940
  0
LINE
  8
0
  6
CONTINUOUS
 62
256
 10
-76.792902393219407
 20
-201.262132258269390
 11
-76.357632484313413
 21
-200.738920919139420
  0
LINE
  8
0
  6
CONTINUOUS
 62
256
 10
-77.323280311803714
 20
-201.691520707414440
 11
-76.792902393219407
 21
-201.262132258269390
  0
LINE
  8
0
  6
CONTINUOUS
 62
256
 10
-77.928384114094499
 20
-202.010585109277710
 11
-77.323280311803714
 21
-201.691520707414440
  0
LINE
  8
0
  6
CONTINUOUS
 62
256
 10
-78.584960000315874
 20
-202.207063997828980
 11
-77.928384114094499
 21
-202.010585109277710
  0
LINE
  8
0
  6
CONTINUOUS
 62
256
 10
-79.267776127372315
 20
-202.273406799567850
 11
-78.584960000315874
 21
-202.207063997828980
  0
LINE
  8
0
  6
CONTINUOUS
 62
256
 10
-79.950592254428770
 20
-202.207063997828980
 11
-79.267776127372315
 21
-202.273406799567850
  0
LINE
  8
0
  6
CONTINUOUS
 62
256
 10
-80.607168140650131
 20
-202.010585109277710
 11
-79.950592254428770
 21
-202.207063997828980
  0
LINE
  8
0
  6
CONTINUOUS
 62
256
 10
-81.212271942940916
 20
-201.691520707414440
 11
-80.607168140650131
 21
-202.010585109277710
  0
LINE
  8
0
  6
CONTINUOUS
 62
256
 10
-81.742649861525223
 20
-201.262132258269390
 11
-81.212271942940916
 21
-201.691520707414440
  0
LINE
  8
0
  6
CONTINUOUS
 62
256
 10
-82.177919770431217
 20
-200.738920919139420
 11
-81.742649861525223
 21
-201.262132258269390
  0
LINE
  8
0
  6
CONTINUOUS
 62
256
 10
-82.501354491161820
 20
-200.141993408366940
 11
-82.177919770431217
 21
-200.738920919139420
  0
LINE
  8
0
  6
CONTINUOUS
 62
256
 10
-82.700524608783624
 20
-199.494289315430190
 11
-82.501354491161820
 21
-200.141993408366940
  0
LINE
  8
0
  6
CONTINUOUS
 62
256
 10
-82.767776127372315
 20
-198.820699545384060
 11
-82.700524608783624
 21
-199.494289315430190
  0
LINE
  8
0
  6
CONTINUOUS
 62
256
 10
-82.700524608783624
 20
-198.147109775337920
 11
-82.767776127372315
 21
-198.820699545384060
  0
LINE
  8
0
  6
CONTINUOUS
 62
256
 10
-82.501354491161820
 20
-197.499405682401170
 11
-82.700524608783624
 21
-198.147109775337920
  0
LINE
  8
0
  6
CONTINUOUS
 62
256
 10
-82.177919770431217
 20
-196.902478171628700
 11
-82.501354491161820
 21
-197.499405682401170
  0
LINE
  8
0
  6
CONTINUOUS
 62
256
 10
-81.742649861525237
 20
-196.379266832498730
 11
-82.177919770431217
 21
-196.902478171628700
  0
LINE
  8
0
  6
CONTINUOUS
 62
256
 10
-81.212271942940916
 20
-195.949878383353680
 11
-81.742649861525237
 21
-196.379266832498730
  0
LINE
  8
0
  6
CONTINUOUS
 62
256
 10
-80.607168140650131
 20
-195.630813981490410
 11
-81.212271942940916
 21
-195.949878383353680
  0
LINE
  8
0
  6
CONTINUOUS
 62
256
 10
-79.950592254428770
 20
-195.434335092939140
 11
-80.607168140650131
 21
-195.630813981490410
  0
LINE
  8
0
  6
CONTINUOUS
 62
256
 10
-79.267776127372315
 20
-195.367992291200270
 11
-79.950592254428770
 21
-195.434335092939140
  0
LINE
  8
0
  6
CONTINUOUS
 62
256
 10
-78.584960000315860
 20
-195.434335092939140
 11
-79.267776127372315
 21
-195.367992291200270
  0
LINE
  8
0
  6
CONTINUOUS
 62
256
 10
-77.928384114094499
 20
-195.630813981490410
 11
-78.584960000315860
 21
-195.434335092939140
  0
LINE
  8
0
  6
CONTINUOUS
 62
256
 10
-77.323280311803714
 20
-195.949878383353680
 11
-77.928384114094499
 21
-195.630813981490410
  0
LINE
  8
0
  6
CONTINUOUS
 62
256
 10
-76.792902393219393
 20
-196.379266832498730
 11
-77.323280311803714
 21
-195.949878383353680
  0
LINE
  8
0
  6
CONTINUOUS
 62
256
 10
-76.357632484313413
 20
-196.902478171628700
 11
-76.792902393219393
 21
-196.379266832498730
  0
LINE
  8
0
  6
CONTINUOUS
 62
256
 10
-76.034197763582810
 20
-197.499405682401170
 11
-76.357632484313413
 21
-196.902478171628700
  0
LINE
  8
0
  6
CONTINUOUS
 62
256
 10
-75.835027645961006
 20
-198.147109775337920
 11
-76.034197763582810
 21
-197.499405682401170
  0
LINE
  8
0
  6
CONTINUOUS
 62
256
 10
-75.767776127372315
 20
-198.820699545384060
 11
-75.835027645961006
 21
-198.147109775337920
  0
LINE
  8
0
  6
CONTINUOUS
 62
256
 10
-81.267776127372315
 20
-199.937103415593580
 11
-77.267776127372315
 21
-196.282921585023130
  0
LINE
  8
0
  6
CONTINUOUS
 62
256
 10
-77.267776127372315
 20
-199.937103415593580
 11
-81.267776127372315
 21
-196.282921585023130
  0
LINE
  8
0
  6
CONTINUOUS
 62
256
 10
-84.050196098277226
 20
-193.217296046444060
 11
-85.011896698851785
 21
-193.989175208370680
  0
LINE
  8
0
  6
CONTINUOUS
 62
256
 10
-82.966037930385312
 20
-192.595433477838500
 11
-84.050196098277226
 21
-193.217296046444060
  0
LINE
  8
0
  6
CONTINUOUS
 62
256
 10
-81.787182904740433
 20
-192.139510775252770
 11
-82.966037930385312
 21
-192.595433477838500
  0
LINE
  8
0
  6
CONTINUOUS
 62
256
 10
-80.543816517292029
 20
-191.861202192596690
 11
-81.787182904740433
 21
-192.139510775252770
  0
LINE
  8
0
  6
CONTINUOUS
 62
256
 10
-79.267776127372315
 20
-191.767634036677860
 11
-80.543816517292029
 21
-191.861202192596690
  0
ARC
  8
0
  6
CONTINUOUS
 62
256
 10
-87.755250343092655
 20
-191.078159787142110
 40
3.999999993776328
 50
270.000000000000000
 51
313.301579148531460
  0
LINE
  8
0
  6
CONTINUOUS
 62
256
 10
-84.526374050787197
 20
-192.766656371626420
 11
-85.517343185873585
 21
-193.711784638146950
  0
LINE
  8
0
  6
CONTINUOUS
 62
256
 10
-83.366771671215503
 20
-191.998147568840660
 11
-84.526374050787197
 21
-192.766656371626420
  0
LINE
  8
0
  6
CONTINUOUS
 62
256
 10
-82.075722292318872
 20
-191.430902846989310
 11
-83.366771671215503
 21
-191.998147568840660
  0
LINE
  8
0
  6
CONTINUOUS
 62
256
 10
-80.694627414787206
 20
-191.083112666582140
 11
-82.075722292318872
 21
-191.430902846989310
  0
LINE
  8
0
  6
CONTINUOUS
 62
256
 10
-79.267776127372315
 20
-190.965929997931140
 11
-80.694627414787206
 21
-191.083112666582140
  0
ARC
  8
0
  6
CONTINUOUS
 62
256
 10
-88.527994307985580
 20
-191.078159793768690
 40
3.999999987149749
 50
270.000000000000000
 51
318.821565628880760
  0
LINE
  8
0
  6
CONTINUOUS
 62
256
 10
-114.717776127371220
 20
-206.508316739015530
 11
-79.267776127372315
 21
-206.508316739015530
  0
LINE
  8
0
  6
CONTINUOUS
 62
256
 10
-114.717776127371220
 20
-205.288106809788360
 11
-79.267776127372315
 21
-205.288106809788360
  0
ARC
  8
0
  6
CONTINUOUS
 62
256
 10
-114.717776127371220
 20
-194.288106809788360
 40
11.000000000000000
 50
180.000000000000000
 51
270.000000000000000
  0
ARC
  8
0
  6
CONTINUOUS
 62
256
 10
-114.717776127371220
 20
-195.508316739015530
 40
11.000000000000000
 50
180.000000000000000
 51
270.000000000000000
  0
LINE
  8
0
  6
CONTINUOUS
 62
256
 10
-87.755250344765898
 20
-195.078159780918440
 11
-114.317776127371570
 21
-195.078159780918440
  0
ARC
  8
0
  6
CONTINUOUS
 62
256
 10
-114.317776127371570
 20
-190.078159780918440
 40
5.000000000000000
 50
180.000000000000000
 51
270.000000000000000
  0
LINE
  8
0
  6
DASHDOT
 62
256
 10
-79.267776127372315
 20
-100.002605178573730
 11
-79.267776127372315
 21
-212.656324603810390
  0
LINE
  8
0
  6
CONTINUOUS
 62
256
 10
-79.267776127372315
 20
-163.735052255659640
 11
-72.050897762502871
 21
-176.235052255659640
  0
LINE
  8
0
  6
CONTINUOUS
 62
256
 10
-64.834019397632517
 20
-163.735052255659640
 11
-79.267776127372315
 21
-163.735052255659640
  0
LINE
  8
0
  6
CONTINUOUS
 62
256
 10
-72.050897762501961
 20
-151.235052255659870
 11
-79.267776127372315
 21
-163.735052255659640
  0
LINE
  8
0
  6
CONTINUOUS
 62
256
 10
-79.267776127372315
 20
-138.735052255659640
 11
-72.050897762501961
 21
-151.235052255659640
  0
LINE
  8
0
  6
CONTINUOUS
 62
256
 10
-57.617141032762163
 20
-176.235052255659640
 11
-72.050897762502871
 21
-176.235052255659640
  0
LINE
  8
0
  6
CONTINUOUS
 62
256
 10
-64.834019397632517
 20
-163.735052255659640
 11
-57.617141032762163
 21
-176.235052255659640
  0
LINE
  8
0
  6
CONTINUOUS
 62
256
 10
-79.267776127372315
 20
-138.735052255659640
 11
-86.484654492242669
 21
-151.235052255659640
  0
LINE
  8
0
  6
CONTINUOUS
 62
256
 10
-86.484654492242669
 20
-151.235052255659870
 11
-79.267776127372315
 21
-163.735052255659640
  0
LINE
  8
0
  6
CONTINUOUS
 62
256
 10
-93.701532857112113
 20
-163.735052255659640
 11
-79.267776127372315
 21
-163.735052255659640
  0
LINE
  8
0
  6
CONTINUOUS
 62
256
 10
-93.701532857112113
 20
-163.735052255659640
 11
-100.918411221982470
 21
-176.235052255659640
  0
LINE
  8
0
  6
CONTINUOUS
 62
256
 10
-79.267776127372315
 20
-163.735052255659640
 11
-86.484654492241759
 21
-176.235052255659640
  0
LINE
  8
0
  6
CONTINUOUS
 62
256
 10
-100.918411221982470
 20
-176.235052255659640
 11
-86.484654492241759
 21
-176.235052255659640
  0
LINE
  8
0
  6
CONTINUOUS
 62
256
 10
-114.717776127371220
 20
-102.905597370759760
 11
-79.267776127372315
 21
-102.905597370759760
  0
ARC
  8
0
  6
CONTINUOUS
 62
256
 10
-114.717776127371220
 20
-113.905597370759760
 40
11.000000000000000
 50
90.000000000000000
 51
180.000000000000000
  0
LINE
  8
0
  6
CONTINUOUS
 62
256
 10
-79.267776127372315
 20
-109.000415574258340
 11
-114.317776127371570
 21
-109.000415574258340
  0
ARC
  8
0
  6
CONTINUOUS
 62
256
 10
-114.317776127371570
 20
-114.000415574258340
 40
5.000000000000000
 50
90.000000000000000
 51
180.000000000000000
  0
LINE
  8
0
  6
CONTINUOUS
 62
256
 10
-79.267776127372315
 20
-115.502205011365500
 11
-114.317776127371570
 21
-115.502205011365500
  0
ARC
  8
0
  6
CONTINUOUS
 62
256
 10
-114.317776127371570
 20
-120.502205011365500
 40
5.000000000000000
 50
90.000000000000000
 51
180.000000000000000
  0
LINE
  8
0
  6
CONTINUOUS
 62
256
 10
-119.317776127371570
 20
-114.000415574258340
 11
-119.317776127371570
 21
-190.078159780918440
  0
LINE
  8
0
  6
CONTINUOUS
 62
256
 10
-125.717776127371220
 20
-113.905597370759760
 11
-125.717776127371220
 21
-195.508316739015530
  0
LINE
  8
0
  6
CONTINUOUS
 62
256
 10
-32.817776127373634
 20
-115.219770684796440
 11
-8.267776127372315
 21
-115.219770684796440
  0
LINE
  8
0
  6
CONTINUOUS
 62
256
 10
-32.817776127373634
 20
-120.672151554235370
 11
-8.267776127372315
 21
-120.672151554235370
  0
LINE
  8
0
  6
CONTINUOUS
 62
256
 10
-32.817776127373634
 20
-119.310271218886100
 11
-8.267776127372315
 21
-119.310271218886100
  0
LINE
  8
0
  6
CONTINUOUS
 62
256
 10
-32.817776127373634
 20
-125.502205011365730
 11
-8.267776127372315
 21
-125.502205011365730
  0
LINE
  8
0
  6
CONTINUOUS
 62
256
 10
-105.267776127372200
 20
-88.502205011365731
 11
-8.267776127372315
 21
-88.502205011365731
  0
LINE
  8
0
  6
CONTINUOUS
 62
256
 10
-105.267776127372200
 20
-88.002205011365731
 11
-8.267776127372315
 21
-88.002205011365731
  0
LINE
  8
0
  6
CONTINUOUS
 62
256
 10
-105.267776127372200
 20
-89.502205011365731
 11
-8.267776127372315
 21
-89.502205011365731
  0
LINE
  8
0
  6
CONTINUOUS
 62
256
 10
-105.267776127372200
 20
-90.502205011365731
 11
-8.267776127372315
 21
-90.502205011365731
  0
LINE
  8
0
  6
CONTINUOUS
 62
256
 10
-105.267776127372200
 20
-95.186670824590237
 11
-8.267776127372315
 21
-95.186670824590237
  0
LINE
  8
0
  6
CONTINUOUS
 62
256
 10
-105.267776127372200
 20
-100.136418292896000
 11
-8.267776127372315
 21
-100.136418292896000
  0
LINE
  8
0
  6
CONTINUOUS
 62
256
 10
-34.423516830981669
 20
-108.183019955629770
 11
-8.267776127372315
 21
-108.183019955629770
  0
LINE
  8
0
  6
CONTINUOUS
 62
256
 10
-33.617645900921104
 20
-109.787667871191840
 11
-8.267776127372315
 21
-109.787667871191840
  0
LINE
  8
0
  6
CONTINUOUS
 62
256
 10
-32.817776127373634
 20
-113.751413294991380
 11
-8.267776127372315
 21
-113.751413294991380
  0
LINE
  8
0
  6
CONTINUOUS
 62
256
 10
-105.267776127372200
 20
-102.905597370759760
 11
-105.267776127372200
 21
-85.502205011365731
  0
LINE
  8
0
  6
CONTINUOUS
 62
256
 10
-8.267776127372315
 20
-87.002205011365731
 11
-105.267776127372200
 21
-87.002205011365731
  0
LINE
  8
0
  6
CONTINUOUS
 62
256
 10
-8.267776127372315
 20
-87.002205011365731
 11
-8.267776127372315
 21
-145.502205011365730
  0
LINE
  8
0
  6
CONTINUOUS
 62
256
 10
-105.267776127372200
 20
-85.502205011365731
 11
-185.961800349792550
 21
-85.502205011365731
  0
LINE
  8
0
  6
CONTINUOUS
 62
256
 10
-208.267776127322070
 20
-145.502205011365730
 11
-208.267776127322070
 21
-98.058999954120281
  0
ARC
  8
0
  6
CONTINUOUS
 62
256
 10
-185.961800349792550
 20
-105.502205011365730
 40
20.000000000000000
 50
90.000000000000000
 51
125.000000000000240
  0
LINE
  8
0
  6
CONTINUOUS
 62
256
 10
-197.433329076813550
 20
-89.119164125585939
 11
-207.159074861834540
 21
-95.929204638969168
  0
ARC
  8
0
  6
CONTINUOUS
 62
256
 10
-205.667776127321930
 20
-98.058999954120281
 40
2.599999999999721
 50
125.000000000001380
 51
180.000000000000000
  0
LINE
  8
0
  6
CONTINUOUS
 62
256
 10
-32.817776127373634
 20
-175.784639337935000
 11
-8.267776127372315
 21
-175.784639337935000
  0
LINE
  8
0
  6
CONTINUOUS
 62
256
 10
-32.817776127373634
 20
-170.332258468496090
 11
-8.267776127372315
 21
-170.332258468496090
  0
LINE
  8
0
  6
CONTINUOUS
 62
256
 10
-32.817776127373634
 20
-171.694138803845360
 11
-8.267776127372315
 21
-171.694138803845360
  0
LINE
  8
0
  6
CONTINUOUS
 62
256
 10
-32.817776127373634
 20
-165.502205011365730
 11
-8.267776127372315
 21
-165.502205011365730
  0
LINE
  8
0
  6
CONTINUOUS
 62
256
 10
-35.327456531864584
 20
-202.502205011365730
 11
-8.267776127372315
 21
-202.502205011365730
  0
LINE
  8
0
  6
CONTINUOUS
 62
256
 10
-35.765345527763714
 20
-203.002205011365730
 11
-8.267776127372315
 21
-203.002205011365730
  0
LINE
  8
0
  6
CONTINUOUS
 62
256
 10
-34.594257092938676
 20
-201.502205011365730
 11
-8.267776127372315
 21
-201.502205011365730
  0
LINE
  8
0
  6
CONTINUOUS
 62
256
 10
-34.016700680093152
 20
-200.502205011365730
 11
-8.267776127372315
 21
-200.502205011365730
  0
LINE
  8
0
  6
CONTINUOUS
 62
256
 10
-32.817776127373634
 20
-195.817739198141230
 11
-8.267776127372315
 21
-195.817739198141230
  0
LINE
  8
0
  6
CONTINUOUS
 62
256
 10
-32.817776127373634
 20
-190.867991729835470
 11
-8.267776127372315
 21
-190.867991729835470
  0
LINE
  8
0
  6
CONTINUOUS
 62
256
 10
-32.817776127373634
 20
-182.821390067101670
 11
-8.267776127372315
 21
-182.821390067101670
  0
LINE
  8
0
  6
CONTINUOUS
 62
256
 10
-32.817776127373634
 20
-181.216742151539620
 11
-8.267776127372315
 21
-181.216742151539620
  0
LINE
  8
0
  6
CONTINUOUS
 62
256
 10
-32.817776127373634
 20
-177.252996727740080
 11
-8.267776127372315
 21
-177.252996727740080
  0
LINE
  8
0
  6
DASHDOT
 62
256
 10
33.814535023961071
 20
-145.502205808465730
 11
-223.923411522551760
 21
-145.502205808465730
  0
LINE
  8
0
  6
CONTINUOUS
 62
256
 10
-8.267776127372315
 20
-204.002205011365730
 11
-36.828222349282157
 21
-204.002205011365730
  0
LINE
  8
0
  6
CONTINUOUS
 62
256
 10
-8.267776127372315
 20
-204.002205011365730
 11
-8.267776127372315
 21
-145.502205011365730
  0
LINE
  8
0
  6
CONTINUOUS
 62
256
 10
-119.313665290501770
 20
-205.502205011365730
 11
-185.961800349792550
 21
-205.502205011365730
  0
LINE
  8
0
  6
CONTINUOUS
 62
256
 10
-208.267776127322070
 20
-145.502205011365730
 11
-208.267776127322070
 21
-192.945410068611180
  0
ARC
  8
0
  6
CONTINUOUS
 62
256
 10
-185.961800349792550
 20
-185.502205011365730
 40
20.000000000000007
 50
234.999999999999740
 51
270.000000000000000
  0
LINE
  8
0
  6
CONTINUOUS
 62
256
 10
-197.433329076813550
 20
-201.885245897145520
 11
-207.159074861834540
 21
-195.075205383762300
  0
ARC
  8
0
  6
CONTINUOUS
 62
256
 10
-205.667776127321930
 20
-192.945410068611180
 40
2.600000000000136
 50
180.000000000000000
 51
234.999999999998810
  0
LINE
  8
0
  6
CONTINUOUS
 62
256
 10
-111.658085309476460
 20
-94.281636945506023
 11
-111.567776127371640
 21
-93.578679979305662
  0
LINE
  8
0
  6
CONTINUOUS
 62
256
 10
-111.925542324568600
 20
-94.957579669718115
 11
-111.658085309476460
 21
-94.281636945506023
  0
LINE
  8
0
  6
CONTINUOUS
 62
256
 10
-112.359868949549660
 20
-95.580532052123516
 11
-111.925542324568600
 21
-94.957579669718115
  0
LINE
  8
0
  6
CONTINUOUS
 62
256
 10
-112.944374255794870
 20
-96.126554382022093
 11
-112.359868949549660
 21
-95.580532052123516
  0
LINE
  8
0
  6
CONTINUOUS
 62
256
 10
-113.656596032179490
 20
-96.574663327488707
 11
-112.944374255794870
 21
-96.126554382022093
  0
LINE
  8
0
  6
CONTINUOUS
 62
256
 10
-114.469163995255710
 20
-96.907638313051478
 11
-113.656596032179490
 21
-96.574663327488707
  0
LINE
  8
0
  6
CONTINUOUS
 62
256
 10
-115.350851613895830
 20
-97.112683296749722
 11
-114.469163995255710
 21
-96.907638313051478
  0
LINE
  8
0
  6
CONTINUOUS
 62
256
 10
-116.267776127371630
 20
-97.181918514850494
 11
-115.350851613895830
 21
-97.112683296749722
  0
LINE
  8
0
  6
CONTINUOUS
 62
256
 10
-117.184700640847420
 20
-97.112683296749722
 11
-116.267776127371630
 21
-97.181918514850494
  0
LINE
  8
0
  6
CONTINUOUS
 62
256
 10
-118.066388259487550
 20
-96.907638313051478
 11
-117.184700640847420
 21
-97.112683296749722
  0
LINE
  8
0
  6
CONTINUOUS
 62
256
 10
-118.878956222563740
 20
-96.574663327488707
 11
-118.066388259487550
 21
-96.907638313051478
  0
LINE
  8
0
  6
CONTINUOUS
 62
256
 10
-119.591177998948400
 20
-96.126554382022093
 11
-118.878956222563740
 21
-96.574663327488707
  0
LINE
  8
0
  6
CONTINUOUS
 62
256
 10
-120.175683305193590
 20
-95.580532052123516
 11
-119.591177998948400
 21
-96.126554382022093
  0
LINE
  8
0
  6
CONTINUOUS
 62
256
 10
-120.610009930174670
 20
-94.957579669718115
 11
-120.175683305193590
 21
-95.580532052123516
  0
LINE
  8
0
  6
CONTINUOUS
 62
256
 10
-120.877466945266800
 20
-94.281636945506023
 11
-120.610009930174670
 21
-94.957579669718115
  0
LINE
  8
0
  6
CONTINUOUS
 62
256
 10
-120.967776127371620
 20
-93.578679979305662
 11
-120.877466945266800
 21
-94.281636945506023
  0
LINE
  8
0
  6
CONTINUOUS
 62
256
 10
-120.877466945266800
 20
-92.875723013105301
 11
-120.967776127371620
 21
-93.578679979305662
  0
LINE
  8
0
  6
CONTINUOUS
 62
256
 10
-120.610009930174670
 20
-92.199780288893209
 11
-120.877466945266800
 21
-92.875723013105301
  0
LINE
  8
0
  6
CONTINUOUS
 62
256
 10
-120.175683305193590
 20
-91.576827906487807
 11
-120.610009930174670
 21
-92.199780288893209
  0
LINE
  8
0
  6
CONTINUOUS
 62
256
 10
-119.591177998948400
 20
-91.030805576589231
 11
-120.175683305193590
 21
-91.576827906487807
  0
LINE
  8
0
  6
CONTINUOUS
 62
256
 10
-118.878956222563740
 20
-90.582696631122616
 11
-119.591177998948400
 21
-91.030805576589231
  0
LINE
  8
0
  6
CONTINUOUS
 62
256
 10
-118.066388259487550
 20
-90.249721645559845
 11
-118.878956222563740
 21
-90.582696631122616
  0
LINE
  8
0
  6
CONTINUOUS
 62
256
 10
-117.184700640847420
 20
-90.044676661861601
 11
-118.066388259487550
 21
-90.249721645559845
  0
LINE
  8
0
  6
CONTINUOUS
 62
256
 10
-116.267776127371630
 20
-89.975441443760829
 11
-117.184700640847420
 21
-90.044676661861601
  0
LINE
  8
0
  6
CONTINUOUS
 62
256
 10
-115.350851613895830
 20
-90.044676661861601
 11
-116.267776127371630
 21
-89.975441443760829
  0
LINE
  8
0
  6
CONTINUOUS
 62
256
 10
-114.469163995255710
 20
-90.249721645559845
 11
-115.350851613895830
 21
-90.044676661861601
  0
LINE
  8
0
  6
CONTINUOUS
 62
256
 10
-113.656596032179490
 20
-90.582696631122616
 11
-114.469163995255710
 21
-90.249721645559845
  0
LINE
  8
0
  6
CONTINUOUS
 62
256
 10
-112.944374255794870
 20
-91.030805576589231
 11
-113.656596032179490
 21
-90.582696631122616
  0
LINE
  8
0
  6
CONTINUOUS
 62
256
 10
-112.359868949549660
 20
-91.576827906487807
 11
-112.944374255794870
 21
-91.030805576589231
  0
LINE
  8
0
  6
CONTINUOUS
 62
256
 10
-111.925542324568600
 20
-92.199780288893209
 11
-112.359868949549660
 21
-91.576827906487807
  0
LINE
  8
0
  6
CONTINUOUS
 62
256
 10
-111.658085309476460
 20
-92.875723013105301
 11
-111.925542324568600
 21
-92.199780288893209
  0
LINE
  8
0
  6
CONTINUOUS
 62
256
 10
-111.567776127371640
 20
-93.578679979305662
 11
-111.658085309476460
 21
-92.875723013105301
  0
LINE
  8
0
  6
CONTINUOUS
 62
256
 10
-118.267776127371630
 20
-90.586304425305343
 11
-116.267776127371630
 21
-91.762089910928125
  0
LINE
  8
0
  6
CONTINUOUS
 62
256
 10
-116.267776127371630
 20
-91.762089910928125
 11
-114.267776127371630
 21
-93.414731550051556
  0
LINE
  8
0
  6
CONTINUOUS
 62
256
 10
-114.267776127371630
 20
-90.586304425305343
 11
-116.267776127371630
 21
-91.762089910928125
  0
LINE
  8
0
  6
CONTINUOUS
 62
256
 10
-116.267776127371630
 20
-91.762089910928125
 11
-118.267776127371630
 21
-93.414731550051556
  0
POINT
  8
0
  6
DASHDOT
 62
256
 10
-92.767776127372315
 20
-205.288106809788360
  0
POINT
  8
0
  6
DASHDOT
 62
256
 10
-65.767776127372315
 20
-205.288106809788360
  0
LINE
  8
0
  6
CONTINUOUS
 62
256
 10
113.732210930412560
 20
-235.105387081390290
 11
150.354359168871550
 21
-236.384260678317330
  0
ARC
  8
0
  6
CONTINUOUS
 62
256
 10
154.732210880594100
 20
-235.191712765265040
 40
3.000000000000000
 50
180.000000000000000
 51
226.186939148152110
  0
ARC
  8
0
  6
CONTINUOUS
 62
256
 10
150.232210930412580
 20
-239.882128572884540
 40
3.500000000000175
 50
46.186939148157322
 51
87.999999999996461
  0
ARC
  8
0
  6
CONTINUOUS
 62
256
 10
150.232210930412580
 20
-239.882128572884540
 40
3.500000000000000
 50
0.000000000000000
 51
46.186939148157379
  0
ARC
  8
0
  6
CONTINUOUS
 62
256
 10
150.088009422325110
 20
-233.373130907317320
 40
3.000000000000000
 50
180.000000000000000
 51
267.999999999996870
  0
ARC
  8
0
  6
CONTINUOUS
 62
256
 10
115.218009422325220
 20
-232.155443675140300
 40
3.000000000000000
 50
180.000000000000000
 51
267.999999999996590
  0
LINE
  8
0
  6
DASHDOT
 62
256
 10
135.732224582544690
 20
-230.484243021777730
 11
135.732224582544690
 21
-263.954196907497130
  0
LINE
  8
0
  6
CONTINUOUS
 62
256
 10
153.732210930412580
 20
-239.882128572884540
 11
153.732210930412580
 21
-258.502231575465880
  0
ARC
  8
0
  6
CONTINUOUS
 62
256
 10
152.732229898923210
 20
-71.502204986456491
 40
1.000000024909241
 50
180.000000000000000
 51
270.000000000000000
  0
LINE
  8
0
  6
CONTINUOUS
 62
256
 10
153.732229923833360
 20
-72.502205011365731
 11
153.732229923833360
 21
-113.502205011365730
  0
LINE
  8
0
  6
CONTINUOUS
 62
256
 10
151.732210880594100
 20
-113.502205011365730
 11
151.732210880594100
 21
-235.191712765265040
  0
ARC
  8
0
  6
CONTINUOUS
 62
256
 10
87.453007920043376
 20
-104.625900947148690
 40
74.999999999999901
 50
31.668452967610165
 51
88.999999999999616
  0
LINE
  8
0
  6
CONTINUOUS
 62
256
 10
151.732229874013060
 20
-66.825676652626498
 11
151.732229874013060
 21
-113.502205011365730
  0
ARC
  8
0
  6
CONTINUOUS
 62
256
 10
148.732229874013060
 20
-66.825676652626498
 40
3.000000000000000
 50
0.000000000000000
 51
31.668452967603631
  0
ARC
  8
0
  6
CONTINUOUS
 62
256
 10
152.732229898923210
 20
-155.502205036274970
 40
1.000000024909241
 50
90.000000000000000
 51
180.000000000000000
  0
LINE
  8
0
  6
CONTINUOUS
 62
256
 10
153.732229923833360
 20
-154.502205011365730
 11
153.732229923833360
 21
-113.502205011365730
  0
LINE
  8
0
  6
CONTINUOUS
 62
256
 10
112.553018058494400
 20
-109.600398571043170
 11
112.218009422324730
 21
-113.502205011365730
  0
LINE
  8
0
  6
CONTINUOUS
 62
256
 10
113.545169772990430
 20
-105.848536364063930
 11
112.553018058494400
 21
-109.600398571043170
  0
LINE
  8
0
  6
CONTINUOUS
 62
256
 10
115.156336731829820
 20
-102.390800350973690
 11
113.545169772990430
 21
-105.848536364063930
  0
LINE
  8
0
  6
CONTINUOUS
 62
256
 10
117.324602692337270
 20
-99.360069387634795
 11
115.156336731829820
 21
-102.390800350973690
  0
LINE
  8
0
  6
CONTINUOUS
 62
256
 10
119.966642409627950
 20
-96.872812765314833
 11
117.324602692337270
 21
-99.360069387634795
  0
LINE
  8
0
  6
CONTINUOUS
 62
256
 10
122.980923779039370
 20
-95.024614361140010
 11
119.966642409627950
 21
-96.872812765314833
  0
LINE
  8
0
  6
CONTINUOUS
 62
256
 10
126.251609657973500
 20
-93.886499403301130
 11
122.980923779039370
 21
-95.024614361140010
  0
LINE
  8
0
  6
CONTINUOUS
 62
256
 10
129.653009422324710
 20
-93.502205011365731
 11
126.251609657973500
 21
-93.886499403301130
  0
LINE
  8
0
  6
CONTINUOUS
 62
256
 10
133.054409186675910
 20
-93.886499403301130
 11
129.653009422324710
 21
-93.502205011365731
  0
LINE
  8
0
  6
CONTINUOUS
 62
256
 10
136.325095065610040
 20
-95.024614361140010
 11
133.054409186675910
 21
-93.886499403301130
  0
LINE
  8
0
  6
CONTINUOUS
 62
256
 10
139.339376435021480
 20
-96.872812765314833
 11
136.325095065610040
 21
-95.024614361140010
  0
LINE
  8
0
  6
CONTINUOUS
 62
256
 10
141.981416152312160
 20
-99.360069387634780
 11
139.339376435021480
 21
-96.872812765314833
  0
LINE
  8
0
  6
CONTINUOUS
 62
256
 10
144.149682112819590
 20
-102.390800350973690
 11
141.981416152312160
 21
-99.360069387634780
  0
LINE
  8
0
  6
CONTINUOUS
 62
256
 10
145.760849071659010
 20
-105.848536364063930
 11
144.149682112819590
 21
-102.390800350973690
  0
LINE
  8
0
  6
CONTINUOUS
 62
256
 10
146.753000786155040
 20
-109.600398571043170
 11
145.760849071659010
 21
-105.848536364063930
  0
LINE
  8
0
  6
CONTINUOUS
 62
256
 10
147.088009422324720
 20
-113.502205011365730
 11
146.753000786155040
 21
-109.600398571043170
  0
LINE
  8
0
  6
CONTINUOUS
 62
256
 10
147.088009422325110
 20
-113.502205011365730
 11
147.088009422325110
 21
-233.373130907317320
  0
LINE
  8
0
  6
CONTINUOUS
 62
256
 10
112.218009422325220
 20
-113.502205011365730
 11
112.218009422325220
 21
-232.155443675140300
  0
LINE
  8
0
  6
CONTINUOUS
 62
256
 10
152.732229898923210
 20
-72.502205011365731
 11
153.732229923833360
 21
-72.502205011365731
  0
LINE
  8
0
  6
CONTINUOUS
 62
256
 10
152.732229898923210
 20
-154.502205011365730
 11
153.732229923833360
 21
-154.502205011365730
  0
ARC
  8
0
  6
CONTINUOUS
 62
256
 10
215.332229923832360
 20
-133.102205011366100
 40
0.399999999999636
 50
270.000000000000000
 51
0.000000000000000
  0
LINE
  8
0
  6
CONTINUOUS
 62
256
 10
215.732229923832450
 20
-113.502205011365730
 11
215.732229923832450
 21
-133.102205011366100
  0
LINE
  8
0
  6
CONTINUOUS
 62
256
 10
158.792044670836560
 20
-133.502205011365730
 11
158.232237049701150
 21
-133.352205011366100
  0
LINE
  8
0
  6
CONTINUOUS
 62
256
 10
215.332229923832360
 20
-133.502205011365730
 11
158.792044670837020
 21
-133.502205011365730
  0
LINE
  8
0
  6
CONTINUOUS
 62
256
 10
155.732229923832450
 20
-113.502205011365730
 11
155.732229923832450
 21
-135.602205011366100
  0
LINE
  8
0
  6
CONTINUOUS
 62
256
 10
155.332229923832360
 20
-136.002205011365730
 11
155.732229923832450
 21
-135.602205011366100
  0
LINE
  8
0
  6
CONTINUOUS
 62
256
 10
158.232237049701150
 20
-133.352205011366100
 11
157.332229923832360
 21
-133.352205011366100
  0
ARC
  8
0
  6
CONTINUOUS
 62
256
 10
157.332229923832360
 20
-134.952205011365550
 40
1.599999999999454
 50
90.000000000000000
 51
180.000000000000000
  0
LINE
  8
0
  6
CONTINUOUS
 62
256
 10
158.792044670836560
 20
-93.502205011365731
 11
158.232237049701150
 21
-93.652205011366277
  0
LINE
  8
0
  6
CONTINUOUS
 62
256
 10
155.732229923832450
 20
-113.502205011365730
 11
155.732229923832450
 21
-91.402205011366277
  0
LINE
  8
0
  6
CONTINUOUS
 62
256
 10
155.332229923832360
 20
-91.002205011365731
 11
155.732229923832450
 21
-91.402205011366277
  0
LINE
  8
0
  6
CONTINUOUS
 62
256
 10
158.232237049701150
 20
-93.652205011366277
 11
157.332229923832360
 21
-93.652205011366277
  0
ARC
  8
0
  6
CONTINUOUS
 62
256
 10
157.332229923832360
 20
-92.052205011365913
 40
1.599999999999909
 50
180.000000000000000
 51
270.000000000000000
  0
LINE
  8
0
  6
CONTINUOUS
 62
256
 10
215.332229923832360
 20
-93.502205011365731
 11
158.792044670837020
 21
-93.502205011365731
  0
ARC
  8
0
  6
CONTINUOUS
 62
256
 10
215.332229923832360
 20
-93.902205011366277
 40
0.400000000000091
 50
0.000000000000000
 51
90.000000000000000
  0
LINE
  8
0
  6
CONTINUOUS
 62
256
 10
155.332229923832360
 20
-91.002205011365731
 11
153.732229923833360
 21
-91.002205011365731
  0
LINE
  8
0
  6
CONTINUOUS
 62
256
 10
155.332229923832360
 20
-136.002205011365730
 11
153.732229923833360
 21
-136.002205011365730
  0
LINE
  8
0
  6
CONTINUOUS
 62
256
 10
215.732229923832450
 20
-113.502205011365730
 11
215.732229923832450
 21
-93.902205011366277
  0
LINE
  8
0
  6
DASHDOT
 62
256
 10
226.952780717221060
 20
-113.502205011365730
 11
84.069171197528078
 21
-113.502205011365730
  0
INSERT
  8
0
  2
ZU_SYM_1
 10
12.232223872626776
 20
-124.502193001474550
  0
INSERT
  8
0
  2
ZU_SYM_1
 10
12.232223872626776
 20
-190.502193001474550
  0
INSERT
  8
0
  2
ZU_SYM_1
 10
12.232223872626776
 20
-48.994752510137005
  0
INSERT
  8
0
  2
ZU_SYM_1
 10
-4.267776127375953
 20
-41.502205011374542
  0
LINE
  8
0
  6
DASHED
 62
256
 10
280.435935962920210
 20
-145.502205808466870
 11
255.811644985723890
 21
-200.809268874563970
  0
POINT
  8
0
  6
DASHED
 62
256
 10
256.583346678137100
 20
-199.075998494919760
  0
LINE
  8
0
  6
CONTINUOUS
 62
256
 10
255.811644985723890
 20
-200.809268874563970
 11
254.224274148297350
 21
-204.374562149246910
  0
LINE
  8
0
  6
CONTINUOUS
 62
256
 10
254.731082962863640
 20
-205.694844249965170
 11
255.811644985723890
 21
-206.175941458797410
  0
ARC
  8
0
  6
CONTINUOUS
 62
256
 10
255.137819605939970
 20
-204.781298792322560
 40
0.999999999999948
 50
156.000000000008330
 51
245.999999999972570
  0
LINE
  8
0
  6
CONTINUOUS
 62
256
 10
255.159768427371770
 20
-202.273407596668900
 11
254.265384307695290
 21
-201.875202130904430
  0
ARC
  8
0
  6
CONTINUOUS
 62
256
 10
262.430037258559880
 20
-201.679112855447560
 40
9.000000000000075
 50
139.398468892516490
 51
172.601548410321130
  0
ARC
  8
0
  6
CONTINUOUS
 62
256
 10
254.794141633378560
 20
-200.687593732948930
 40
1.299999237060687
 50
172.601548410320760
 51
246.000017986079630
  0
ARC
  8
0
  6
DASHED
 62
256
 10
256.583783483543130
 20
-196.667992325361870
 40
1.299999237060556
 50
126.438032573750550
 51
139.398468892516830
  0
ARC
  8
0
  6
DASHED
 62
256
 10
256.583783483543130
 20
-196.667992325361870
 40
1.299999237060620
 50
65.999999316753915
 51
126.438032573750080
  0
LINE
  8
0
  6
DASHED
 62
256
 10
255.811644985723890
 20
-206.175941458797410
 11
257.289010244263410
 21
-206.833706850577300
  0
LINE
  8
0
  6
DASHDOT
 62
256
 10
280.311644985723890
 20
-177.619682028761160
 11
280.311644985723890
 21
-200.488191204524810
  0
CIRCLE
  8
0
  6
CONTINUOUS
 62
256
 10
372.811644985723890
 20
-113.502205011365730
 40
31.000000000000057
  0
CIRCLE
  8
0
  6
CONTINUOUS
 62
256
 10
372.811644985723890
 20
-113.502205011365730
 40
40.999999999999943
  0
LINE
  8
0
  6
DASHDOT
 62
256
 10
406.358468717794040
 20
-145.502205808466900
 11
339.917646769496510
 21
-145.502205808466900
  0
LINE
  8
0
  6
CONTINUOUS
 62
256
 10
247.811641872048310
 20
-258.502208623229310
 11
247.811641872048310
 21
-239.502208075222370
  0
LINE
  8
0
  6
CONTINUOUS
 62
256
 10
372.811644985723890
 20
-236.502208075222370
 11
250.811641872048310
 21
-236.502208075222370
  0
LINE
  8
0
  6
DASHDOT
 62
256
 10
265.311642307962760
 20
-266.326667314840960
 11
265.311642307962760
 21
-230.788630114368060
  0
ARC
  8
0
  6
CONTINUOUS
 62
256
 10
250.811641872048310
 20
-239.502208075222370
 40
3.000000000000000
 50
90.000000000000000
 51
180.000000000000000
  0
ARC
  8
0
  6
CONTINUOUS
 62
256
 10
372.811644985723890
 20
-113.502205011365730
 40
31.000000000000000
 50
180.000000000000000
 51
0.000000000000000
  0
ARC
  8
0
  6
CONTINUOUS
 62
256
 10
252.811644985723890
 20
-233.502208075222370
 40
3.000000000000000
 50
270.000000000000000
 51
0.000000000000000
  0
ARC
  8
0
  6
CONTINUOUS
 62
256
 10
258.288060296864840
 20
-233.502208075222370
 40
3.000000000000000
 50
270.000000000000000
 51
0.000000000000000
  0
ARC
  8
0
  6
CONTINUOUS
 62
256
 10
284.688060296864930
 20
-233.502208075222370
 40
3.000000000000000
 50
270.000000000000000
 51
0.000000000000000
  0
ARC
  8
0
  6
CONTINUOUS
 62
256
 10
372.811644985723890
 20
-113.502205011365730
 40
31.000000000000256
 50
70.008590721901967
 51
180.000000000000000
  0
ARC
  8
0
  6
CONTINUOUS
 62
256
 10
372.811644985723890
 20
-528.502205011365730
 40
462.518012424385230
 50
90.000000000000000
 51
94.422377585978083
  0
ARC
  8
0
  6
CONTINUOUS
 62
256
 10
290.293632561338200
 20
-233.502208075222370
 40
3.000000000000000
 50
270.000000000000000
 51
0.000000000000000
  0
LINE
  8
0
  6
CONTINUOUS
 62
256
 10
372.811644985723890
 20
-228.802208075222550
 11
309.311644985723890
 21
-228.802208075222550
  0
ARC
  8
0
  6
CONTINUOUS
 62
256
 10
340.811644985723890
 20
-114.737779280974790
 40
84.999999999999972
 50
94.422377585978197
 51
180.000000000000000
  0
LINE
  8
0
  6
DASHDOT
 62
256
 10
240.149456692983220
 20
-113.502205011365730
 11
503.105328366102190
 21
-113.502205011365730
  0
LINE
  8
0
  6
CONTINUOUS
 62
256
 10
255.811644985723890
 20
-233.502208075222370
 11
255.811644985723890
 21
-114.737779280974790
  0
LINE
  8
0
  6
CONTINUOUS
 62
256
 10
261.541694595542480
 20
-109.600398571043170
 11
261.288060296865130
 21
-113.502205011365730
  0
LINE
  8
0
  6
CONTINUOUS
 62
256
 10
262.292850467716160
 20
-105.848536364063930
 11
261.541694595542480
 21
-109.600398571043170
  0
LINE
  8
0
  6
CONTINUOUS
 62
256
 10
263.512661414471550
 20
-102.390800350973690
 11
262.292850467716160
 21
-105.848536364063930
  0
LINE
  8
0
  6
CONTINUOUS
 62
256
 10
265.154250785202690
 20
-99.360069387634795
 11
263.512661414471550
 21
-102.390800350973690
  0
LINE
  8
0
  6
CONTINUOUS
 62
256
 10
267.154533221006370
 20
-96.872812765314833
 11
265.154250785202690
 21
-99.360069387634795
  0
LINE
  8
0
  6
CONTINUOUS
 62
256
 10
269.436638989645930
 20
-95.024614361140010
 11
267.154533221006370
 21
-96.872812765314833
  0
LINE
  8
0
  6
CONTINUOUS
 62
256
 10
271.912868046252240
 20
-93.886499403301130
 11
269.436638989645930
 21
-95.024614361140010
  0
LINE
  8
0
  6
CONTINUOUS
 62
256
 10
274.488060296865110
 20
-93.502205011365731
 11
271.912868046252240
 21
-93.886499403301130
  0
LINE
  8
0
  6
CONTINUOUS
 62
256
 10
277.063252547477990
 20
-93.886499403301130
 11
274.488060296865110
 21
-93.502205011365731
  0
LINE
  8
0
  6
CONTINUOUS
 62
256
 10
279.539481604084300
 20
-95.024614361140010
 11
277.063252547477990
 21
-93.886499403301130
  0
LINE
  8
0
  6
CONTINUOUS
 62
256
 10
281.821587372723850
 20
-96.872812765314833
 11
279.539481604084300
 21
-95.024614361140010
  0
LINE
  8
0
  6
CONTINUOUS
 62
256
 10
283.821869808527540
 20
-99.360069387634780
 11
281.821587372723850
 21
-96.872812765314833
  0
LINE
  8
0
  6
CONTINUOUS
 62
256
 10
285.463459179258680
 20
-102.390800350973690
 11
283.821869808527540
 21
-99.360069387634780
  0
LINE
  8
0
  6
CONTINUOUS
 62
256
 10
286.683270126014070
 20
-105.848536364063930
 11
285.463459179258680
 21
-102.390800350973690
  0
LINE
  8
0
  6
CONTINUOUS
 62
256
 10
287.434425998187750
 20
-109.600398571043170
 11
286.683270126014070
 21
-105.848536364063930
  0
LINE
  8
0
  6
CONTINUOUS
 62
256
 10
287.688060296865100
 20
-113.502205011365730
 11
287.434425998187750
 21
-109.600398571043170
  0
LINE
  8
0
  6
CONTINUOUS
 62
256
 10
287.688060296864930
 20
-113.502205011365730
 11
287.688060296864930
 21
-233.502208075222370
  0
LINE
  8
0
  6
CONTINUOUS
 62
256
 10
261.288060296864840
 20
-113.502205011365730
 11
261.288060296864840
 21
-233.502208075222370
  0
ARC
  8
0
  6
CONTINUOUS
 62
256
 10
340.811644985722980
 20
-114.737779280974790
 40
47.518012424384935
 50
94.422377585977500
 51
180.000000000000000
  0
LINE
  8
0
  6
CONTINUOUS
 62
256
 10
293.293632561338200
 20
-233.502208075222370
 11
293.293632561338200
 21
-113.502205011365730
  0
ARC
  8
0
  6
CONTINUOUS
 62
256
 10
320.898255576054450
 20
-116.502205011365730
 40
3.000000000000263
 50
3.307362179674563
 51
90.000000000000000
  0
LINE
  8
0
  6
CONTINUOUS
 62
256
 10
320.898255576054450
 20
-113.502205011365730
 11
305.311644985723890
 21
-113.502205011365730
  0
ARC
  8
0
  6
CONTINUOUS
 62
256
 10
372.811644985723890
 20
-113.502205011365730
 40
48.999999999999531
 50
183.307362179670630
 51
270.000000000000000
  0
ARC
  8
0
  6
CONTINUOUS
 62
256
 10
305.311644985723890
 20
-117.502205011365730
 40
4.000000000000000
 50
90.000000000000000
 51
180.000000000000000
  0
LINE
  8
0
  6
CONTINUOUS
 62
256
 10
301.311644985723890
 20
-220.802208075222550
 11
301.311644985723890
 21
-117.502205011365730
  0
ARC
  8
0
  6
CONTINUOUS
 62
256
 10
309.311644985723890
 20
-220.802208075222550
 40
8.000000000000000
 50
180.000000000000000
 51
270.000000000000000
  0
ARC
  8
0
  6
DASHED
 62
256
 10
300.041545001508440
 20
-103.925880268579430
 40
0.999999999999856
 50
66.000000000020222
 51
155.999999999996160
  0
LINE
  8
0
  6
DASHED
 62
256
 10
259.383703956103770
 20
-202.128947743718300
 11
263.220594878202750
 21
-203.837241644636610
  0
LINE
  8
0
  6
DASHED
 62
256
 10
260.725934878254290
 20
-199.114247733497680
 11
264.562825800353040
 21
-200.822541634415980
  0
LINE
  8
0
  6
DASHED
 62
256
 10
264.385442715254610
 20
-200.360442899164580
 11
264.562825800353040
 21
-200.822541634415980
  0
LINE
  8
0
  6
DASHED
 62
256
 10
262.758496142951570
 20
-204.014624729734580
 11
263.220594878202970
 21
-203.837241644636150
  0
LINE
  8
0
  6
DASHED
 62
256
 10
264.562825800353040
 20
-200.822541634415980
 11
263.220594878202970
 21
-203.837241644636150
  0
LINE
  8
0
  6
DASHED
 62
256
 10
258.006924928902660
 20
-195.878589393170610
 11
257.112540809226180
 21
-195.480383927406360
  0
LINE
  8
0
  6
DASHED
 62
256
 10
302.252215986571170
 20
-105.844693280745740
 11
302.677048146317250
 21
-106.845535129361200
  0
LINE
  8
0
  6
DASHED
 62
256
 10
301.807302241361190
 20
-106.843985913703090
 11
301.940644263555210
 21
-107.158120032152480
  0
LINE
  8
0
  6
DASHED
 62
256
 10
302.677048146317250
 20
-106.845535129361200
 11
301.940644263555210
 21
-107.158120032152480
  0
LINE
  8
0
  6
DASHED
 62
256
 10
299.127999543865830
 20
-103.519143625503570
 11
280.435935962917030
 21
-145.502205808466870
  0
ARC
  8
0
  6
DASHED
 62
256
 10
294.605083722070500
 20
-106.301998879805950
 40
3.000000000000022
 50
279.318123119682530
 51
336.000000000000400
  0
LINE
  8
0
  6
DASHED
 62
256
 10
295.090831612509190
 20
-109.262412531128090
 11
269.135194518973090
 21
-113.521241684121120
  0
ARC
  8
0
  6
DASHED
 62
256
 10
271.563933971164720
 20
-128.323309940732060
 40
15.000000000000041
 50
99.318123119675519
 51
178.317231198866920
  0
ARC
  8
0
  6
DASHED
 62
256
 10
856.311644985723890
 20
-145.502205808467180
 40
600.000000000001140
 50
178.317231198866840
 51
184.715124834091570
  0
ARC
  8
0
  6
DASHED
 62
256
 10
257.345595993412190
 20
-194.905365166353480
 40
1.000000000000041
 50
335.999999999996420
 51
4.715124834082971
  0
LINE
  8
0
  6
DASHED
 62
256
 10
300.448281644583860
 20
-103.012334810936840
 11
303.006208925983170
 21
-104.151197411548960
  0
LINE
  8
0
  6
DASHED
 62
256
 10
300.728483724763460
 20
-109.267051974349850
 11
302.531854914950150
 21
-110.069964558480000
  0
ARC
  8
0
  6
DASHED
 62
256
 10
301.311644985723890
 20
-112.810600931407830
 40
3.000000000000000
 50
0.000000000000000
 51
66.000000000020350
  0
ARC
  8
0
  6
DASHED
 62
256
 10
299.311644985723890
 20
-187.002205808466870
 40
5.000000000000028
 50
270.000000000000000
 51
0.000000000000000
  0
LINE
  8
0
  6
DASHED
 62
256
 10
299.311644985723890
 20
-192.002205808466900
 11
263.892419954395110
 21
-192.002205808466900
  0
ARC
  8
0
  6
DASHED
 62
256
 10
258.516957722025380
 20
-192.274443648345600
 40
1.000000000000041
 50
335.999999999996420
 51
66.000000000021231
  0
ARC
  8
0
  6
DASHED
 62
256
 10
259.941631389304800
 20
-189.624840396704000
 40
2.000000000000632
 50
184.231338074886000
 51
245.999999999973080
  0
LINE
  8
0
  6
DASHED
 62
256
 10
260.868292703330780
 20
-198.794506823322760
 11
264.385442715254610
 21
-200.360442899164580
  0
LINE
  8
0
  6
DASHED
 62
256
 10
259.241346131027510
 20
-202.448688653892760
 11
262.758496142951570
 21
-204.014624729734580
  0
LINE
  8
0
  6
DASHED
 62
256
 10
304.311644985723890
 20
-112.810600931407830
 11
304.311644985723890
 21
-187.002205808466870
  0
ARC
  8
0
  6
DASHED
 62
256
 10
856.311644985723890
 20
-145.502205808467180
 40
600.799999999999950
 50
179.412192132293110
 51
182.841389015363290
  0
ARC
  8
0
  6
DASHED
 62
256
 10
257.249045756939270
 20
-175.235053052760780
 40
0.999999999999988
 50
182.841389015366990
 51
236.047873053619410
  0
ARC
  8
0
  6
DASHED
 62
256
 10
256.132045732326790
 20
-176.894062077755930
 40
1.000000000000008
 50
2.994076090848812
 51
56.047873053604988
  0
ARC
  8
0
  6
DASHED
 62
256
 10
255.361837316173710
 20
-137.735053052760780
 40
0.999999999999994
 50
306.205708094031080
 51
359.259505056807090
  0
ARC
  8
0
  6
DASHED
 62
256
 10
256.543209432450110
 20
-139.348855990818920
 40
1.000000000000128
 50
126.205708094041640
 51
179.412192132278340
  0
LINE
  8
0
  6
DASHED
 62
256
 10
303.006208925988400
 20
-104.151197411551220
 11
257.289010244263410
 21
-206.833706850577300
  0
ARC
  8
0
  6
CONTINUOUS
 62
256
 10
424.725034395393320
 20
-116.502205011365730
 40
3.000000000000000
 50
90.000000000000000
 51
176.692637820325420
  0
ARC
  8
0
  6
CONTINUOUS
 62
256
 10
440.311644985723890
 20
-117.502205011365730
 40
4.000000000000000
 50
0.000000000000000
 51
90.000000000000000
  0
ARC
  8
0
  6
CONTINUOUS
 62
256
 10
436.311644985723890
 20
-220.802208075222550
 40
8.000000000000000
 50
270.000000000000000
 51
0.000000000000000
  0
LINE
  8
0
  6
CONTINUOUS
 62
256
 10
372.811644985723890
 20
-228.802208075222550
 11
436.311644985723890
 21
-228.802208075222550
  0
LINE
  8
0
  6
CONTINUOUS
 62
256
 10
444.311644985723890
 20
-220.802208075222550
 11
444.311644985723890
 21
-117.502205011365730
  0
ARC
  8
0
  6
CONTINUOUS
 62
256
 10
372.811644985723890
 20
-113.502205011365730
 40
49.000000000000000
 50
270.000000000000000
 51
356.692637820329420
  0
ARC
  8
0
  6
CONTINUOUS
 62
256
 10
455.329657410110030
 20
-233.502208075222370
 40
3.000000000000000
 50
180.000000000000000
 51
270.000000000000000
  0
LINE
  8
0
  6
CONTINUOUS
 62
256
 10
452.329657410110030
 20
-233.502208075222370
 11
452.329657410110030
 21
-113.502205011365730
  0
ARC
  8
0
  6
CONTINUOUS
 62
256
 10
404.811644985724800
 20
-114.737779280974790
 40
47.518012424385233
 50
0.000000000000000
 51
85.577622414022542
  0
ARC
  8
0
  6
CONTINUOUS
 62
256
 10
372.811644985723890
 20
-528.502205011365730
 40
462.518012424385230
 50
85.577622414021917
 51
90.000000000000000
  0
LINE
  8
0
  6
CONTINUOUS
 62
256
 10
424.725034395393320
 20
-113.502205011365730
 11
440.311644985723890
 21
-113.502205011365730
  0
ARC
  8
0
  6
CONTINUOUS
 62
256
 10
294.811642992971430
 20
-258.502208623229310
 40
2.000000000000000
 50
90.000000000000000
 51
180.000000000000000
  0
ARC
  8
0
  6
CONTINUOUS
 62
256
 10
450.811646978476800
 20
-258.502208623229310
 40
2.000000000000000
 50
0.000000000000000
 51
90.000000000000000
  0
ARC
  8
0
  6
CONTINUOUS
 62
256
 10
305.811644985723890
 20
-248.502205135912850
 40
10.000000000000053
 50
306.869864344412290
 51
315.572968020398320
  0
LINE
  8
0
  6
CONTINUOUS
 62
256
 10
311.811640335965880
 20
-256.502208623229310
 11
294.811642992971430
 21
-256.502208623229310
  0
ARC
  8
0
  6
CONTINUOUS
 62
256
 10
439.811644985723890
 20
-248.502205135912850
 40
9.999999999999833
 50
224.427031979601760
 51
233.130135655587590
  0
LINE
  8
0
  6
CONTINUOUS
 62
256
 10
433.811649635481900
 20
-256.502208623229310
 11
450.811646978476800
 21
-256.502208623229310
  0
ARC
  8
0
  6
CONTINUOUS
 62
256
 10
487.335229674582930
 20
-233.502208075222370
 40
3.000000000000000
 50
180.000000000000000
 51
270.000000000000000
  0
LINE
  8
0
  6
CONTINUOUS
 62
256
 10
458.188863973260480
 20
-109.600398571043170
 11
457.935229674583130
 21
-113.502205011365730
  0
LINE
  8
0
  6
CONTINUOUS
 62
256
 10
458.940019845434160
 20
-105.848536364063930
 11
458.188863973260480
 21
-109.600398571043170
  0
LINE
  8
0
  6
CONTINUOUS
 62
256
 10
460.159830792189550
 20
-102.390800350973690
 11
458.940019845434160
 21
-105.848536364063930
  0
LINE
  8
0
  6
CONTINUOUS
 62
256
 10
461.801420162920690
 20
-99.360069387634795
 11
460.159830792189550
 21
-102.390800350973690
  0
LINE
  8
0
  6
CONTINUOUS
 62
256
 10
463.801702598724380
 20
-96.872812765314833
 11
461.801420162920690
 21
-99.360069387634795
  0
LINE
  8
0
  6
CONTINUOUS
 62
256
 10
466.083808367363930
 20
-95.024614361140010
 11
463.801702598724380
 21
-96.872812765314833
  0
LINE
  8
0
  6
CONTINUOUS
 62
256
 10
468.560037423970240
 20
-93.886499403301130
 11
466.083808367363930
 21
-95.024614361140010
  0
LINE
  8
0
  6
CONTINUOUS
 62
256
 10
471.135229674583120
 20
-93.502205011365731
 11
468.560037423970240
 21
-93.886499403301130
  0
LINE
  8
0
  6
CONTINUOUS
 62
256
 10
473.710421925195990
 20
-93.886499403301130
 11
471.135229674583120
 21
-93.502205011365731
  0
LINE
  8
0
  6
CONTINUOUS
 62
256
 10
476.186650981802300
 20
-95.024614361140010
 11
473.710421925195990
 21
-93.886499403301130
  0
LINE
  8
0
  6
CONTINUOUS
 62
256
 10
478.468756750441860
 20
-96.872812765314833
 11
476.186650981802300
 21
-95.024614361140010
  0
LINE
  8
0
  6
CONTINUOUS
 62
256
 10
480.469039186245540
 20
-99.360069387634780
 11
478.468756750441860
 21
-96.872812765314833
  0
LINE
  8
0
  6
CONTINUOUS
 62
256
 10
482.110628556976680
 20
-102.390800350973690
 11
480.469039186245540
 21
-99.360069387634780
  0
LINE
  8
0
  6
CONTINUOUS
 62
256
 10
483.330439503732070
 20
-105.848536364063930
 11
482.110628556976680
 21
-102.390800350973690
  0
LINE
  8
0
  6
CONTINUOUS
 62
256
 10
484.081595375905750
 20
-109.600398571043170
 11
483.330439503732070
 21
-105.848536364063930
  0
LINE
  8
0
  6
CONTINUOUS
 62
256
 10
484.335229674583100
 20
-113.502205011365730
 11
484.081595375905750
 21
-109.600398571043170
  0
LINE
  8
0
  6
CONTINUOUS
 62
256
 10
484.335229674582930
 20
-113.502205011365730
 11
484.335229674582930
 21
-233.502208075222370
  0
ARC
  8
0
  6
CONTINUOUS
 62
256
 10
492.811644985724800
 20
-233.502208075222370
 40
3.000000000000000
 50
180.000000000000000
 51
270.000000000000000
  0
ARC
  8
0
  6
CONTINUOUS
 62
256
 10
460.935229674582390
 20
-233.502208075222370
 40
3.000000000000000
 50
180.000000000000000
 51
270.000000000000000
  0
LINE
  8
0
  6
CONTINUOUS
 62
256
 10
457.935229674582390
 20
-113.502205011365730
 11
457.935229674582390
 21
-233.502208075222370
  0
LINE
  8
0
  6
CONTINUOUS
 62
256
 10
489.811644985724800
 20
-233.502208075222370
 11
489.811644985724800
 21
-114.737779280974790
  0
ARC
  8
0
  6
CONTINUOUS
 62
256
 10
494.811648099399920
 20
-239.502208075222370
 40
3.000000000000000
 50
0.000000000000000
 51
90.000000000000000
  0
LINE
  8
0
  6
CONTINUOUS
 62
256
 10
372.811644985723890
 20
-255.502208498682190
 11
312.953070118091550
 21
-255.502208498682190
  0
LINE
  8
0
  6
DASHDOT
 62
256
 10
480.311647663484560
 20
-266.326667314840960
 11
480.311647663484560
 21
-230.788630114368060
  0
LINE
  8
0
  6
CONTINUOUS
 62
256
 10
497.811648099399920
 20
-258.502208623229310
 11
497.811648099399920
 21
-239.502208075222370
  0
LINE
  8
0
  6
CONTINUOUS
 62
256
 10
372.811644985723890
 20
-255.502208498682190
 11
432.670219853356230
 21
-255.502208498682190
  0
LINE
  8
0
  6
CONTINUOUS
 62
256
 10
372.811644985723890
 20
-236.502208075222370
 11
494.811648099399920
 21
-236.502208075222370
  0
ARC
  8
0
  6
CONTINUOUS
 62
256
 10
372.811644985723890
 20
-528.502205011365730
 40
500.000000000000000
 50
90.000000000000000
 51
94.422377585978055
  0
ARC
  8
0
  6
CONTINUOUS
 62
256
 10
372.811644985723890
 20
-528.502205011365730
 40
500.000000000000230
 50
85.577622414021945
 51
90.000000000000000
  0
ARC
  8
0
  6
CONTINUOUS
 62
256
 10
404.811644985724800
 20
-114.737779280974790
 40
85.000000000000000
 50
0.000000000000000
 51
85.577622414022429
  0
LINE
  8
0
  6
CONTINUOUS
 62
256
 10
349.811644985723890
 20
-107.502205011365730
 11
349.811644985723890
 21
-119.502205011365730
  0
LINE
  8
0
  6
CONTINUOUS
 62
256
 10
357.811644985723890
 20
-107.502205011365730
 11
357.811644985723890
 21
-119.502205011365730
  0
ARC
  8
0
  6
CONTINUOUS
 62
256
 10
372.811644985723890
 20
-113.502205011365730
 40
19.999999999999744
 50
197.457603123722320
 51
162.542396876277680
  0
CIRCLE
  8
0
  6
CONTINUOUS
 62
256
 10
372.811644985723890
 20
-113.502205011365730
 40
3.324999999999989
  0
CIRCLE
  8
0
  6
CONTINUOUS
 62
256
 10
372.811644985723890
 20
-113.502205011365730
 40
4.000000000000000
  0
LINE
  8
0
  6
CONTINUOUS
 62
256
 10
393.311644985723890
 20
-3.502205011365731
 11
393.311644985723890
 21
-28.922631770024964
  0
ARC
  8
0
  6
CONTINUOUS
 62
256
 10
383.311644985723890
 20
-3.502205011365731
 40
10.000000000000000
 50
0.000000000000000
 51
90.000000000000000
  0
LINE
  8
0
  6
CONTINUOUS
 62
256
 10
383.311644985723890
 20
6.497794988634269
 11
362.311644985723890
 21
6.497794988634269
  0
ARC
  8
0
  6
CONTINUOUS
 62
256
 10
362.311644985723890
 20
-3.502205011365731
 40
10.000000000000000
 50
90.000000000000000
 51
180.000000000000000
  0
LINE
  8
0
  6
DASHDOT
 62
256
 10
395.979557984605440
 20
-13.502205011365731
 11
348.957044083070740
 21
-13.502205011365731
  0
CIRCLE
  8
0
  6
CONTINUOUS
 62
256
 10
372.811644985723890
 20
-13.502205011365731
 40
10.000000000000000
  0
LINE
  8
0
  6
CONTINUOUS
 62
256
 10
352.311644985723890
 20
-3.502205011365731
 11
352.311644985723890
 21
-28.922631770024964
  0
LINE
  8
0
  6
DASHDOT
 62
256
 10
372.811644985723890
 20
-268.652472278819910
 11
372.811644985723890
 21
22.712343557530403
  0
LINE
  8
0
  6
CONTINUOUS
 62
256
 10
292.811642992971430
 20
-258.502208075222370
 11
247.811641872048310
 21
-258.502208075222370
  0
LINE
  8
0
  6
CONTINUOUS
 62
256
 10
452.811646978476350
 20
-258.502208075222370
 11
497.811648099399460
 21
-258.502208075222370
  0
LINE
  8
0
  6
CONTINUOUS
 62
256
 10
452.811646978476350
 20
-258.502208075222370
 11
497.811648099399460
 21
-258.502208075222370
  0
LINE
  8
0
  6
CONTINUOUS
 62
256
 10
452.811646978476350
 20
-258.502208075222370
 11
497.811648099399460
 21
-258.502208075222370
  0
LINE
  8
0
  6
CONTINUOUS
 62
256
 10
153.732210930412580
 20
-258.502208075222370
 11
-33.267784564543689
 21
-258.502208075222370
  0
LINE
  8
0
  6
CONTINUOUS
 62
256
 10
-243.436621586148360
 20
-236.502208075222370
 11
-271.350618723756270
 21
-236.502208075222370
  0
LINE
  8
0
  6
CONTINUOUS
 62
256
 10
-459.527004522110250
 20
-236.502208075222370
 11
-487.441001653064180
 21
-236.502208075222370
  0
ARC
  8
0
  6
CONTINUOUS
 62
256
 10
-375.938811622881760
 20
-41.502205011365021
 40
10.000000000000000
 50
180.000000000000000
 51
270.000000000000000
  0
ARC
  8
0
  6
CONTINUOUS
 62
256
 10
-354.938811622881760
 20
-41.502205011365021
 40
10.000000000000000
 50
270.000000000000000
 51
0.000000000000000
  0
LINE
  8
0
  6
DASHDOT
 62
256
 10
3.849792050175893
 20
-41.502205011374542
 11
-20.275207638911525
 21
-41.502205011374542
  0
ARC
  8
0
  6
CONTINUOUS
 62
256
 10
-316.012047483072190
 20
-96.075440871556196
 40
6.099999427795398
 50
354.601910595264880
 51
95.398072101891529
  0
POINT
  8
0
  6
CONTINUOUS
 62
256
 10
-313.749305918145180
 20
-93.812699306629156
  0
LINE
  8
0
  6
CONTINUOUS
 62
256
 10
-310.425904181438340
 20
-97.136101043336012
 11
-317.072707654852020
 21
-90.489297569922300
  0
LINE
  8
0
  6
CONTINUOUS
 62
256
 10
-310.112765572469530
 20
-96.883554092485639
 11
-316.789864874942450
 21
-90.206454790012728
  0
LINE
  8
0
  6
CONTINUOUS
 62
256
 10
-317.072707654852020
 20
-90.489297569922300
 11
-316.585904263146400
 21
-90.002494178216679
  0
LINE
  8
0
  6
CONTINUOUS
 62
256
 10
-310.425904181438340
 20
-97.136101043336012
 11
-309.939100789732720
 21
-96.649297651630391
  0
ARC
  8
0
  6
CONTINUOUS
 62
256
 10
-316.012047483072190
 20
-194.928969151175490
 40
6.099999427795406
 50
264.601927898108500
 51
5.398089404735109
  0
POINT
  8
0
  6
CONTINUOUS
 62
256
 10
-313.749305918145180
 20
-197.191710716102530
  0
LINE
  8
0
  6
CONTINUOUS
 62
256
 10
-310.425904181438340
 20
-193.868308979395660
 11
-317.072707654852020
 21
-200.515112452809400
  0
LINE
  8
0
  6
CONTINUOUS
 62
256
 10
-310.112765572469530
 20
-194.120855930246050
 11
-316.789864874942450
 21
-200.797955232718980
  0
LINE
  8
0
  6
CONTINUOUS
 62
256
 10
-317.072707654852020
 20
-200.515112452809400
 11
-316.585904263146400
 21
-201.001915844515000
  0
LINE
  8
0
  6
CONTINUOUS
 62
256
 10
-310.425904181438340
 20
-193.868308979395660
 11
-309.939100789732720
 21
-194.355112371101280
  0
ARC
  8
0
  6
CONTINUOUS
 62
256
 10
-414.865575762691320
 20
-194.928969151175490
 40
6.099999427795398
 50
174.601910595264910
 51
275.398072101891500
  0
POINT
  8
0
  6
CONTINUOUS
 62
256
 10
-417.128317327618330
 20
-197.191710716102530
  0
LINE
  8
0
  6
CONTINUOUS
 62
256
 10
-420.451719064325180
 20
-193.868308979395660
 11
-413.804915590911490
 21
-200.515112452809400
  0
LINE
  8
0
  6
CONTINUOUS
 62
256
 10
-420.764857673293990
 20
-194.120855930246050
 11
-414.087758370821060
 21
-200.797955232718980
  0
LINE
  8
0
  6
CONTINUOUS
 62
256
 10
-413.804915590911490
 20
-200.515112452809400
 11
-414.291718982617110
 21
-201.001915844515000
  0
LINE
  8
0
  6
CONTINUOUS
 62
256
 10
-420.451719064325180
 20
-193.868308979395660
 11
-420.938522456030800
 21
-194.355112371101280
  0
ARC
  8
0
  6
CONTINUOUS
 62
256
 10
-414.865575762691320
 20
-96.075440871556196
 40
6.099999427795419
 50
84.601927898108499
 51
185.398089404735090
  0
POINT
  8
0
  6
CONTINUOUS
 62
256
 10
-417.128317327618330
 20
-93.812699306629156
  0
LINE
  8
0
  6
CONTINUOUS
 62
256
 10
-420.451719064325180
 20
-97.136101043336012
 11
-413.804915590911490
 21
-90.489297569922300
  0
LINE
  8
0
  6
CONTINUOUS
 62
256
 10
-420.764857673293990
 20
-96.883554092485639
 11
-414.087758370821060
 21
-90.206454790012728
  0
LINE
  8
0
  6
CONTINUOUS
 62
256
 10
-413.804915590911490
 20
-90.489297569922300
 11
-414.291718982617110
 21
-90.002494178216679
  0
LINE
  8
0
  6
CONTINUOUS
 62
256
 10
-420.451719064325180
 20
-97.136101043336012
 11
-420.938522456030800
 21
-96.649297651630391
  0
ENDSEC
  0
EOF
