  0
SECTION
  2
HEADER
  9
$FILLMODE
 70
1
  9
$TEXTSTYLE
  7
STANDARD1
  9
$ACADVER
  1
AC1009
  9
$DIMASZ
 40
1.931851648807023
  9
$DIMEXE
 40
2.000000000000000
  9
$DIMEXO
 40
1.000000000000000
  9
$DIMLFAC
 40
1.000000000000000
  9
$DIMSCALE
 40
1.000000000000000
  9
$DIMTAD
 70
1
  9
$DIMTFAC
 40
0.714285731315613
  9
$DIMTXT
 40
3.200000047683716
  9
$LUPREC
 70
3
  9
$TEXTSIZE
 40
2.799999952316284
  9
$REGENMODE
 70
1
  0
ENDSEC
  0
SECTION
  2
TABLES
  0
TABLE
  2
LTYPE
 70
4
  0
LTYPE
  2
CONTINUOUS
 70
64
  3
Solid line
 72
65
 73
0
 40
0.0
  0
LTYPE
  2
DASHED
 70
64
  3
-- -- -- -- -- -- -- -- -- -- -- -- -- -- --
 72
65
 73
2
 40
0.75
 49
0.5
 49
-0.25
  0
LTYPE
  2
DASHDOT
 70
64
  3
__ . __ . __ . __ . __ . __ . __ . __ . __ . __
 72
65
 73
4
 40
1.0
 49
0.5
 49
-0.25
 49
0.0
 49
-0.25
  0
LTYPE
  2
DIVIDE
 70
64
  3
__ . . __ . . __ . . __ . . __ . . __ . . __
 72
65
 73
6
 40
1.25
 49
0.5
 49
-0.25
 49
0.0
 49
-0.25
 49
0.0
 49
-0.25
  0
ENDTAB
  0
TABLE
  2
LAYER
 70
1
  0
LAYER
  2
0
 70
64
 62
2
  6
CONTINUOUS
  0
ENDTAB
  0
TABLE
  2
STYLE
 70
4
  0
STYLE
  2
STANDARD1
 70
64
 40
0.0
 41
1.0
 50
0.0
 71
0
 42
2.799999952316284
  3
MONOTXT
  4
BIGFONT
  0
STYLE
  2
STANDARD2
 70
68
 40
0.0
 41
1.0
 50
0.0
 71
0
 42
2.799999952316284
  3
MONOTXT
  4
BIGFONT
  0
STYLE
  2
STANDARD3
 70
64
 40
0.0
 41
1.0
 50
0.0
 71
0
 42
2.799999952316284
  3
MONOTXT
  4

  0
STYLE
  2
STANDARD4
 70
68
 40
0.0
 41
1.0
 50
0.0
 71
0
 42
2.799999952316284
  3
MONOTXT
  4

  0
ENDTAB
  0
TABLE
  2
VIEW
 70
0
  0
ENDTAB
  0
ENDSEC
  0
SECTION
  2
BLOCKS
  0
BLOCK
  8
0
  2
SYM1
 70
64
 10
0.000000000000000
 20
0.000000000000000
  0
ARC
  8
0
  6
CONTINUOUS
 62
3
 10
4.250000000000000
 20
-0.000017508195015
 40
9.750000000000000
 50
157.379852817599810
 51
202.619583464422590
  0
ARC
  8
0
  6
CONTINUOUS
 62
3
 10
-2.779975891113281
 20
5.625011444091797
 40
2.720000267028809
 50
179.999745461767870
 51
223.599738934167330
  0
ARC
  8
0
  6
CONTINUOUS
 62
3
 10
-2.780022621154785
 20
-5.624988555908203
 40
2.720000267028809
 50
136.399751989368410
 51
179.999745461767870
  0
LINE
  8
0
  6
CONTINUOUS
 62
3
 10
-4.749979019169359
 20
3.750014305102241
 11
0.000017610677105
 21
3.749996185290124
  0
LINE
  8
0
  6
CONTINUOUS
 62
3
 10
-4.750011996199395
 20
-3.749974250803856
 11
-0.000011530566302
 21
-3.749994277972148
  0
LINE
  8
0
  6
CONTINUOUS
 62
3
 10
0.000030896794669
 20
7.500000000000000
 11
-0.000030896794669
 21
-7.500000000000000
  0
LINE
  8
0
  6
CONTINUOUS
 62
3
 10
-4.749964714019825
 20
7.500017166133830
 11
0.000031348552056
 21
7.499999046315238
  0
LINE
  8
0
  6
CONTINUOUS
 62
3
 10
-5.499983083855739
 20
6.300024529816085
 11
-4.749977372865317
 21
7.500023360260684
  0
LINE
  8
0
  6
CONTINUOUS
 62
3
 10
-5.500023365026398
 20
-6.299976341312318
 11
-5.499970912939614
 21
6.300019271785827
  0
LINE
  8
0
  6
CONTINUOUS
 62
3
 10
-4.750049139977591
 20
-7.499993996888350
 11
-5.500046248261697
 21
-6.299990408291990
  0
LINE
  8
0
  6
CONTINUOUS
 62
3
 10
-0.000030423851130
 20
-7.499999046330735
 11
-4.750025899805295
 21
-7.499979019174840
  0
POINT
  8
0
  6
CONTINUOUS
 62
3
 10
0.000000000000000
 20
0.000000000000000
  0
ENDBLK
  8
0
  0
BLOCK
  8
0
  2
SYM2
 70
64
 10
0.000000000000000
 20
0.000000000000000
  0
POINT
  8
0
  6
CONTINUOUS
 62
3
 10
0.000000000000000
 20
0.000000000000000
  0
LINE
  8
0
  6
CONTINUOUS
 62
3
 10
0.000000000000000
 20
-6.500000000000000
 11
-0.000000000000000
 21
6.500000000000000
  0
LINE
  8
0
  6
CONTINUOUS
 62
3
 10
-7.999999046325684
 20
5.633875846862793
 11
-7.999999046325684
 21
-5.634070396423340
  0
LINE
  8
0
  6
CONTINUOUS
 62
3
 10
0.000000000000000
 20
6.500000000000000
 11
-7.499999046325684
 21
6.500000000000000
  0
LINE
  8
0
  6
CONTINUOUS
 62
3
 10
-0.000000000000000
 20
-6.500000000000000
 11
-7.499998092651367
 21
-6.500000000000000
  0
LINE
  8
0
  6
CONTINUOUS
 62
3
 10
-7.499999203818277
 20
6.499999909101064
 11
-7.999999021366804
 21
5.633876130311293
  0
LINE
  8
0
  6
CONTINUOUS
 62
3
 10
-7.499997911632022
 20
-6.499999445138201
 11
-7.999998623386432
 21
-5.634070287011241
  0
LINE
  8
0
  6
CONTINUOUS
 62
3
 10
-7.499999046325684
 20
6.500000000000000
 11
-7.499999046325684
 21
-6.500000000000000
  0
ENDBLK
  8
0
  0
BLOCK
  8
0
  2
SYM3
 70
64
 10
0.000000000000000
 20
0.000000000000000
  0
POINT
  8
0
  6
CONTINUOUS
 62
3
 10
0.000000000000000
 20
0.000000000000000
  0
LINE
  8
0
  6
CONTINUOUS
 62
3
 10
0.002401208367701
 20
-7.504162813807056
 11
-6.495187652077846
 21
-3.749994904254493
  0
LINE
  8
0
  6
CONTINUOUS
 62
3
 10
-6.495189094719432
 20
-3.749993872743451
 11
-6.497592351816327
 21
3.754165100950397
  0
LINE
  8
0
  6
CONTINUOUS
 62
3
 10
-6.497593715787616
 20
3.754167812298078
 11
-0.002401379516073
 21
7.504164176415429
  0
LINE
  8
0
  6
CONTINUOUS
 62
3
 10
-0.002401208367701
 20
7.504162813807056
 11
6.495187652077846
 21
3.749994904254493
  0
LINE
  8
0
  6
CONTINUOUS
 62
3
 10
6.495189094719432
 20
3.749993872743451
 11
6.497592351816327
 21
-3.754165100950397
  0
LINE
  8
0
  6
CONTINUOUS
 62
3
 10
6.497593715787616
 20
-3.754167812298078
 11
0.002401379516073
 21
-7.504164176415429
  0
CIRCLE
  8
0
  6
CONTINUOUS
 62
3
 10
0.000000000000000
 20
0.000000000000000
 40
6.500000000000000
  0
ENDBLK
  8
0
  0
BLOCK
  8
0
  2
SYM4
 70
64
 10
0.000000000000000
 20
0.000000000000000
  0
POINT
  8
0
  6
CONTINUOUS
 62
3
 10
0.000000000000000
 20
0.000000000000000
  0
LINE
  8
0
  6
CONTINUOUS
 62
3
 10
0.002401208367701
 20
-7.504162813807056
 11
-6.495187652077846
 21
-3.749994904254493
  0
LINE
  8
0
  6
CONTINUOUS
 62
3
 10
-6.495189094719432
 20
-3.749993872743451
 11
-6.497592351816327
 21
3.754165100950397
  0
LINE
  8
0
  6
CONTINUOUS
 62
3
 10
-6.497593715787616
 20
3.754167812298078
 11
-0.002401379516073
 21
7.504164176415429
  0
LINE
  8
0
  6
CONTINUOUS
 62
3
 10
-0.002401208367701
 20
7.504162813807056
 11
6.495187652077846
 21
3.749994904254493
  0
LINE
  8
0
  6
CONTINUOUS
 62
3
 10
6.495189094719432
 20
3.749993872743451
 11
6.497592351816327
 21
-3.754165100950397
  0
LINE
  8
0
  6
CONTINUOUS
 62
3
 10
6.497593715787616
 20
-3.754167812298078
 11
0.002401379516073
 21
-7.504164176415429
  0
CIRCLE
  8
0
  6
CONTINUOUS
 62
3
 10
0.000000000000000
 20
0.000000000000000
 40
6.500000000000000
  0
ENDBLK
  8
0
  0
BLOCK
  8
0
  2
SYM5
 70
64
 10
0.000000000000000
 20
0.000000000000000
  0
CIRCLE
  8
0
  6
CONTINUOUS
 62
3
 10
0.000000000000000
 20
0.000000000000000
 40
5.633955001831055
  0
CIRCLE
  8
0
  6
CONTINUOUS
 62
3
 10
0.000000000000000
 20
0.000000000000000
 40
6.500000000000000
  0
POINT
  8
0
  6
CONTINUOUS
 62
3
 10
0.000000000000000
 20
0.000000000000000
  0
LINE
  8
0
  6
CONTINUOUS
 62
3
 10
-2.999996662140960
 20
-1.732045999551255
 11
-2.999997615815242
 21
1.732051977133316
  0
LINE
  8
0
  6
CONTINUOUS
 62
3
 10
2.999996662140697
 20
1.732046953225571
 11
2.999997615814979
 21
-1.732051023458999
  0
LINE
  8
0
  6
CONTINUOUS
 62
3
 10
0.000006701720849
 20
3.464096999935236
 11
-2.999997939551520
 21
1.732051821705568
  0
LINE
  8
0
  6
CONTINUOUS
 62
3
 10
2.999998112093635
 20
-1.732051392778772
 11
-0.000004464412200
 21
-3.464098365415111
  0
LINE
  8
0
  6
CONTINUOUS
 62
3
 10
0.000006618601731
 20
3.464096896385627
 11
2.999997425948948
 21
1.732046782136365
  0
LINE
  8
0
  6
CONTINUOUS
 62
3
 10
-0.000004704988612
 20
-3.464098175748802
 11
-2.999997577100373
 21
-1.732046218032735
  0
POINT
  8
0
  6
CONTINUOUS
 62
3
 10
0.500000119209290
 20
6.500000000000000
  0
POINT
  8
0
  6
CONTINUOUS
 62
3
 10
0.000000000000000
 20
5.633955001831055
  0
ENDBLK
  8
0
  0
ENDSEC
  0
SECTION
  2
ENTITIES
  0
LINE
  8
0
  6
CONTINUOUS
 62
3
 10
-505.933128042633940
 20
-120.804009969972960
 11
-506.419931434339560
 21
-120.317206578267340
  0
LINE
  8
0
  6
CONTINUOUS
 62
3
 10
-499.286324569220260
 20
-114.157206496559250
 11
-499.773127960925880
 21
-113.670403104853630
  0
LINE
  8
0
  6
CONTINUOUS
 62
3
 10
-506.246266651602750
 20
-120.551463019122590
 11
-499.569167349129830
 21
-113.874363716649680
  0
LINE
  8
0
  6
CONTINUOUS
 62
3
 10
-505.933128042633940
 20
-120.804009969972960
 11
-499.286324569220260
 21
-114.157206496559250
  0
POINT
  8
0
  6
CONTINUOUS
 62
3
 10
-502.609726305927100
 20
-117.480608233266110
  0
ARC
  8
0
  6
CONTINUOUS
 62
3
 10
-500.346984741000090
 20
-119.743349798193150
 40
6.099999427795419
 50
84.601927898108485
 51
185.398089404735120
  0
LINE
  8
0
  6
CONTINUOUS
 62
3
 10
-505.933128042633940
 20
-217.536217906032620
 11
-506.419931434339560
 21
-218.023021297738240
  0
LINE
  8
0
  6
CONTINUOUS
 62
3
 10
-499.286324569220260
 20
-224.183021379446360
 11
-499.773127960925880
 21
-224.669824771151950
  0
LINE
  8
0
  6
CONTINUOUS
 62
3
 10
-506.246266651602750
 20
-217.788764856883010
 11
-499.569167349129830
 21
-224.465864159355930
  0
LINE
  8
0
  6
CONTINUOUS
 62
3
 10
-505.933128042633940
 20
-217.536217906032620
 11
-499.286324569220260
 21
-224.183021379446360
  0
POINT
  8
0
  6
CONTINUOUS
 62
3
 10
-502.609726305927100
 20
-220.859619642739490
  0
ARC
  8
0
  6
CONTINUOUS
 62
3
 10
-500.346984741000090
 20
-218.596878077812450
 40
6.099999427795398
 50
174.601910595264880
 51
275.398072101891500
  0
LINE
  8
0
  6
CONTINUOUS
 62
3
 10
-395.907313159747100
 20
-217.536217906032620
 11
-395.420509768041480
 21
-218.023021297738240
  0
LINE
  8
0
  6
CONTINUOUS
 62
3
 10
-402.554116633160790
 20
-224.183021379446360
 11
-402.067313241455170
 21
-224.669824771151950
  0
LINE
  8
0
  6
CONTINUOUS
 62
3
 10
-395.594174550778290
 20
-217.788764856883010
 11
-402.271273853251220
 21
-224.465864159355930
  0
LINE
  8
0
  6
CONTINUOUS
 62
3
 10
-395.907313159747100
 20
-217.536217906032620
 11
-402.554116633160790
 21
-224.183021379446360
  0
POINT
  8
0
  6
CONTINUOUS
 62
3
 10
-399.230714896453950
 20
-220.859619642739490
  0
ARC
  8
0
  6
CONTINUOUS
 62
3
 10
-401.493456461380960
 20
-218.596878077812450
 40
6.099999427795406
 50
264.601927898108500
 51
5.398089404735109
  0
LINE
  8
0
  6
CONTINUOUS
 62
3
 10
-395.907313159747100
 20
-120.804009969972960
 11
-395.420509768041480
 21
-120.317206578267340
  0
LINE
  8
0
  6
CONTINUOUS
 62
3
 10
-402.554116633160790
 20
-114.157206496559250
 11
-402.067313241455170
 21
-113.670403104853630
  0
LINE
  8
0
  6
CONTINUOUS
 62
3
 10
-395.594174550778290
 20
-120.551463019122590
 11
-402.271273853251220
 21
-113.874363716649680
  0
LINE
  8
0
  6
CONTINUOUS
 62
3
 10
-395.907313159747100
 20
-120.804009969972960
 11
-402.554116633160790
 21
-114.157206496559250
  0
POINT
  8
0
  6
CONTINUOUS
 62
3
 10
-399.230714896453950
 20
-117.480608233266110
  0
ARC
  8
0
  6
CONTINUOUS
 62
3
 10
-401.493456461380960
 20
-119.743349798193150
 40
6.099999427795398
 50
354.601910595264880
 51
95.398072101891515
  0
ARC
  8
0
  6
CONTINUOUS
 62
3
 10
12.569694288084406
 20
-292.949449439239170
 40
5.000000000000000
 50
0.000000000000000
 51
28.704380115585796
  0
LINE
  8
0
  6
CONTINUOUS
 62
3
 10
17.569694288084406
 20
-278.706333790962960
 11
13.887437099031672
 21
-270.809707765943470
  0
LINE
  8
0
  6
CONTINUOUS
 62
3
 10
-17.667275330234702
 20
-225.761023028865570
 11
-8.069410639510920
 21
-225.761023028865570
  0
ARC
  8
0
  6
CONTINUOUS
 62
3
 10
-20.298603678093173
 20
-228.761023028865570
 40
2.999999999999923
 50
28.704380115585955
 51
90.000000000000000
  0
ARC
  8
0
  6
CONTINUOUS
 62
3
 10
-12.284622358207002
 20
-229.811836669337590
 40
4.999999999999964
 50
203.855500852148960
 51
253.883837153531400
  0
ARC
  8
0
  6
CONTINUOUS
 62
3
 10
-21.430305711916503
 20
-233.856150701862700
 40
4.999999999999964
 50
23.855500852148985
 51
86.999999999997044
  0
LINE
  8
0
  6
CONTINUOUS
 62
3
 10
-21.168625930701523
 20
-228.863003028089790
 11
-43.930305711919459
 21
-227.670113938003060
  0
LINE
  8
0
  6
CONTINUOUS
 62
3
 10
12.069682155222040
 20
-266.911519709153140
 11
-6.540211587135559
 21
-227.002473788719950
  0
LINE
  8
0
  6
CONTINUOUS
 62
3
 10
16.955241534515359
 20
-290.547996681152430
 11
-17.667275330234702
 21
-227.320151374013560
  0
INSERT
  8
0
  2
SYM1
 10
17.569694288084406
 20
-263.309724244791600
  0
INSERT
  8
0
  2
SYM1
 10
17.569694288084406
 20
-136.030503631117880
 41
-1.000000000000000
 50
180.000000000000000
  0
INSERT
  8
0
  2
SYM2
 10
47.569694288084293
 20
-137.670114750847460
  0
INSERT
  8
0
  2
SYM2
 10
47.569694288084293
 20
-227.670113937953830
  0
LINE
  8
0
  6
CONTINUOUS
 62
3
 10
-68.480305711916799
 20
-137.573506297396760
 11
-68.480305711916799
 21
-219.176225665652510
  0
LINE
  8
0
  6
CONTINUOUS
 62
3
 10
-74.880305711916435
 20
-137.668324500895320
 11
-74.880305711916435
 21
-213.746068707555420
  0
LINE
  8
0
  6
CONTINUOUS
 62
4
 10
-68.480305711916913
 20
-138.887679611433440
 11
-43.930305711915594
 21
-138.887679611433440
  0
LINE
  8
0
  6
CONTINUOUS
 62
4
 10
-68.480305711916913
 20
-144.340060480872350
 11
-43.930305711915594
 21
-144.340060480872350
  0
LINE
  8
0
  6
CONTINUOUS
 62
4
 10
-68.480305711916913
 20
-142.978180145523080
 11
-43.930305711915594
 21
-142.978180145523080
  0
LINE
  8
0
  6
CONTINUOUS
 62
4
 10
-68.480305711916913
 20
-149.170113938002710
 11
-43.930305711915594
 21
-149.170113938002710
  0
LINE
  8
0
  6
CONTINUOUS
 62
4
 10
-140.930305711915480
 20
-112.170113938002710
 11
-43.930305711915594
 21
-112.170113938002710
  0
LINE
  8
0
  6
CONTINUOUS
 62
4
 10
-140.930305711915480
 20
-111.670113938002710
 11
-43.930305711915594
 21
-111.670113938002710
  0
LINE
  8
0
  6
CONTINUOUS
 62
4
 10
-140.930305711915480
 20
-113.170113938002710
 11
-43.930305711915594
 21
-113.170113938002710
  0
LINE
  8
0
  6
CONTINUOUS
 62
4
 10
-140.930305711915480
 20
-114.170113938002710
 11
-43.930305711915594
 21
-114.170113938002710
  0
LINE
  8
0
  6
CONTINUOUS
 62
4
 10
-140.930305711915480
 20
-118.854579751227220
 11
-43.930305711915594
 21
-118.854579751227220
  0
LINE
  8
0
  6
CONTINUOUS
 62
4
 10
-140.930305711915480
 20
-123.804327219532970
 11
-43.930305711915594
 21
-123.804327219532970
  0
LINE
  8
0
  6
CONTINUOUS
 62
4
 10
-70.086046415524947
 20
-131.850928882266770
 11
-43.930305711915594
 21
-131.850928882266770
  0
LINE
  8
0
  6
CONTINUOUS
 62
4
 10
-69.280175485464383
 20
-133.455576797828830
 11
-43.930305711915594
 21
-133.455576797828830
  0
LINE
  8
0
  6
CONTINUOUS
 62
4
 10
-68.480305711916913
 20
-137.419322221628360
 11
-43.930305711915594
 21
-137.419322221628360
  0
LINE
  8
0
  6
CONTINUOUS
 62
3
 10
-43.930305711915594
 20
-110.670113938002710
 11
-140.930305711915480
 21
-110.670113938002710
  0
LINE
  8
0
  6
CONTINUOUS
 62
3
 10
-43.930305711915594
 20
-110.670113938002710
 11
-43.930305711915594
 21
-169.170113938002710
  0
LINE
  8
0
  6
CONTINUOUS
 62
4
 10
-68.480305711916913
 20
-199.452548264571990
 11
-43.930305711915594
 21
-199.452548264571990
  0
LINE
  8
0
  6
CONTINUOUS
 62
4
 10
-68.480305711916913
 20
-194.000167395133080
 11
-43.930305711915594
 21
-194.000167395133080
  0
LINE
  8
0
  6
CONTINUOUS
 62
4
 10
-68.480305711916913
 20
-195.362047730482350
 11
-43.930305711915594
 21
-195.362047730482350
  0
LINE
  8
0
  6
CONTINUOUS
 62
4
 10
-68.480305711916913
 20
-189.170113938002710
 11
-43.930305711915594
 21
-189.170113938002710
  0
LINE
  8
0
  6
CONTINUOUS
 62
4
 10
-70.989986116407863
 20
-226.170113938002710
 11
-43.930305711915594
 21
-226.170113938002710
  0
LINE
  8
0
  6
CONTINUOUS
 62
4
 10
-71.427875112306992
 20
-226.670113938002710
 11
-43.930305711915594
 21
-226.670113938002710
  0
LINE
  8
0
  6
CONTINUOUS
 62
4
 10
-70.256786677481955
 20
-225.170113938002710
 11
-43.930305711915594
 21
-225.170113938002710
  0
LINE
  8
0
  6
CONTINUOUS
 62
4
 10
-69.679230264636431
 20
-224.170113938002710
 11
-43.930305711915594
 21
-224.170113938002710
  0
LINE
  8
0
  6
CONTINUOUS
 62
4
 10
-68.480305711916913
 20
-219.485648124778210
 11
-43.930305711915594
 21
-219.485648124778210
  0
LINE
  8
0
  6
CONTINUOUS
 62
4
 10
-68.480305711916913
 20
-214.535900656472450
 11
-43.930305711915594
 21
-214.535900656472450
  0
LINE
  8
0
  6
CONTINUOUS
 62
4
 10
-68.480305711916913
 20
-206.489298993738660
 11
-43.930305711915594
 21
-206.489298993738660
  0
LINE
  8
0
  6
CONTINUOUS
 62
4
 10
-68.480305711916913
 20
-204.884651078176600
 11
-43.930305711915594
 21
-204.884651078176600
  0
LINE
  8
0
  6
CONTINUOUS
 62
4
 10
-68.480305711916913
 20
-200.920905654377070
 11
-43.930305711915594
 21
-200.920905654377070
  0
LINE
  8
0
  6
CONTINUOUS
 62
3
 10
-43.930305711915594
 20
-227.670113938002710
 11
-72.490751933825436
 21
-227.670113938002710
  0
LINE
  8
0
  6
CONTINUOUS
 62
3
 10
-43.930305711915594
 20
-227.670113938002710
 11
-43.930305711915594
 21
-169.170113938002710
  0
LINE
  8
0
  6
CONTINUOUS
 62
3
 10
-43.930305711915480
 20
-227.670113938002710
 11
-43.930305711915480
 21
-169.170113938002710
  0
LINE
  8
0
  6
CONTINUOUS
 62
3
 10
-43.930305711915480
 20
-110.670113938002710
 11
-43.930305711915480
 21
-169.170113938002710
  0
LINE
  8
0
  6
CONTINUOUS
 62
3
 10
42.831374069298590
 20
-98.975098751058795
 11
27.569695056436331
 21
-99.774929456252721
  0
LINE
  8
0
  6
CONTINUOUS
 62
3
 10
39.569694288084293
 20
-96.299142444979225
 11
39.569694288084293
 21
-82.326968187446255
  0
LINE
  8
0
  6
CONTINUOUS
 62
3
 10
42.831374069298590
 20
-300.469944683416540
 11
27.569694288084293
 21
-299.670113937954740
  0
LINE
  8
0
  6
CONTINUOUS
 62
3
 10
38.569694288084293
 20
-79.670113937954739
 11
42.569694288084293
 21
-79.670113937954739
  0
LINE
  8
0
  6
CONTINUOUS
 62
3
 10
31.069694288080655
 20
-77.670113937955648
 11
35.569694288080655
 21
-77.670113937955648
  0
LINE
  8
0
  6
CONTINUOUS
 62
3
 10
31.069694288080655
 20
-77.670113937955648
 11
31.069694288084293
 21
-19.670113937955648
  0
LINE
  8
0
  6
CONTINUOUS
 62
3
 10
35.569694288084293
 20
-19.670113937955648
 11
35.569694288084293
 21
-77.670113937955648
  0
LINE
  8
0
  6
CONTINUOUS
 62
3
 10
42.569694288084293
 20
-210.670113937952920
 11
42.569694288084293
 21
-203.670113937952920
  0
LINE
  8
0
  6
CONTINUOUS
 62
3
 10
42.569694288084293
 20
-196.670113937952920
 11
42.569694288084293
 21
-203.670113937952920
  0
LINE
  8
0
  6
CONTINUOUS
 62
3
 10
58.569694288084293
 20
-199.670113937954740
 11
58.569694288084293
 21
-278.224134587185290
  0
LINE
  8
0
  6
CONTINUOUS
 62
3
 10
58.569694288084293
 20
-199.670113937954740
 11
58.569694288084293
 21
-54.670113937954739
  0
LINE
  8
0
  6
CONTINUOUS
 62
3
 10
61.745099438555599
 20
-273.353387616849430
 11
43.182680153214505
 21
-301.826241697463960
  0
LINE
  8
0
  6
CONTINUOUS
 62
3
 10
59.069694288084293
 20
-217.705154403524830
 11
60.069694288084293
 21
-217.705154403524830
  0
LINE
  8
0
  6
CONTINUOUS
 62
3
 10
2.257190361169023
 20
-307.381141441062030
 11
38.569694288084293
 21
-304.535493684365060
  0
LINE
  8
0
  6
CONTINUOUS
 62
3
 10
62.069694288084293
 20
-219.705154403524830
 11
62.069694288084293
 21
-272.261134174752440
  0
LINE
  8
0
  6
CONTINUOUS
 62
3
 10
59.069694288084293
 20
-159.670113937954740
 11
59.069694288084293
 21
-277.457185687829220
  0
LINE
  8
0
  6
CONTINUOUS
 62
3
 10
-1.430305711915707
 20
-311.368915418565850
 11
-1.430305711915707
 21
-329.670113937954740
  0
LINE
  8
0
  6
CONTINUOUS
 62
3
 10
59.069694288084293
 20
-159.670113937954740
 11
59.069694288084293
 21
-54.670113937954739
  0
LINE
  8
0
  6
DASHDOT
 62
4
 10
16.569694288084293
 20
-299.931904060940720
 11
16.569694288084293
 21
-336.457146332363660
  0
LINE
  8
0
  6
CONTINUOUS
 62
3
 10
38.569694288084293
 20
-304.535493684365060
 11
62.069694288084747
 21
-302.693904285381900
  0
LINE
  8
0
  6
CONTINUOUS
 62
3
 10
164.569694288084290
 20
-306.273283158284360
 11
62.069694288084293
 21
-302.693904285381000
  0
LINE
  8
0
  6
CONTINUOUS
 62
3
 10
-1.430305711915707
 20
-329.670113937954740
 11
204.569694288084290
 21
-329.670113937954740
  0
LINE
  8
0
  6
CONTINUOUS
 62
3
 10
-43.930305711915594
 20
-189.170113938005440
 11
14.569694288084406
 21
-189.170113938005220
  0
LINE
  8
0
  6
CONTINUOUS
 62
3
 10
-43.930305711915594
 20
-227.670113937954510
 11
-43.930305711915594
 21
-110.670113937954280
  0
ARC
  8
0
  6
CONTINUOUS
 62
3
 10
-79.480305711916799
 20
-137.573506297396760
 40
11.000000000000000
 50
0.000000000000000
 51
90.000000000000000
  0
ARC
  8
0
  6
CONTINUOUS
 62
4
 10
-79.880305711916435
 20
-144.170113938002490
 40
5.000000000000000
 50
0.000000000000000
 51
90.000000000000000
  0
ARC
  8
0
  6
CONTINUOUS
 62
3
 10
-79.880305711916435
 20
-137.668324500895320
 40
5.000000000000000
 50
0.000000000000000
 51
90.000000000000000
  0
ARC
  8
0
  6
CONTINUOUS
 62
3
 10
-79.880305711916435
 20
-213.746068707555420
 40
5.000000000000000
 50
270.000000000000000
 51
0.000000000000000
  0
ARC
  8
0
  6
CONTINUOUS
 62
3
 10
-79.480305711916799
 20
-219.176225665652510
 40
11.000000000000000
 50
270.000000000000000
 51
0.000000000000000
  0
ARC
  8
0
  6
CONTINUOUS
 62
3
 10
-79.480305711916799
 20
-217.956015736425340
 40
11.000000000000000
 50
270.000000000000000
 51
0.000000000000000
  0
ARC
  8
0
  6
CONTINUOUS
 62
3
 10
36.569694288084293
 20
-82.326968187446255
 40
3.000000000000322
 50
67.582369538516275
 51
70.528779365506566
  0
ARC
  8
0
  6
CONTINUOUS
 62
3
 10
38.569694288084293
 20
-76.670113937954739
 40
3.000000000000000
 50
180.000000000000000
 51
270.000000000000000
  0
ARC
  8
0
  6
CONTINUOUS
 62
3
 10
36.569694288084293
 20
-96.299142444979225
 40
3.000000000000403
 50
273.000000000005230
 51
0.000000000000000
  0
ARC
  8
0
  6
CONTINUOUS
 62
3
 10
36.569694288084293
 20
-82.326968187446255
 40
3.000000000000000
 50
0.000000000000000
 51
70.528779365506566
  0
ARC
  8
0
  6
CONTINUOUS
 62
3
 10
42.569694288084293
 20
-305.463092357189450
 40
5.000000000000356
 50
74.028040356722741
 51
87.000000000004846
  0
ARC
  8
0
  6
CONTINUOUS
 62
3
 10
42.569694288084293
 20
-84.670113937954739
 40
5.000000000000000
 50
0.000000000000000
 51
90.000000000000000
  0
ARC
  8
0
  6
CONTINUOUS
 62
3
 10
42.569694288084293
 20
-93.981951077284975
 40
5.000000000000018
 50
272.999999999995110
 51
0.000000000000000
  0
ARC
  8
0
  6
CONTINUOUS
 62
3
 10
44.569694288084293
 20
-216.586193721052040
 40
3.000000000000000
 50
0.000000000000000
 51
80.405931773138747
  0
ARC
  8
0
  6
CONTINUOUS
 62
3
 10
44.569694288084293
 20
-190.754034154852890
 40
3.000000000000653
 50
279.594068226858330
 51
0.000000000000000
  0
ARC
  8
0
  6
CONTINUOUS
 62
3
 10
45.569694288084293
 20
-210.670113937952920
 40
3.000000000000000
 50
180.000000000000000
 51
260.405931773138780
  0
ARC
  8
0
  6
CONTINUOUS
 62
3
 10
45.569694288084293
 20
-196.670113937952920
 40
2.999999999999756
 50
99.594068226861253
 51
180.000000000000000
  0
ARC
  8
0
  6
CONTINUOUS
 62
3
 10
60.069694288084293
 20
-272.261134174752440
 40
1.999999999999625
 50
326.898306520914790
 51
0.000000000000000
  0
ARC
  8
0
  6
CONTINUOUS
 62
3
 10
38.156464701799678
 20
-298.549481371172990
 40
6.000000000000744
 50
274.480855207353900
 51
326.898306520919500
  0
ARC
  8
0
  6
CONTINUOUS
 62
3
 10
60.069694288084293
 20
-219.705154403524830
 40
2.000000000000000
 50
0.000000000000000
 51
90.000000000000000
  0
ARC
  8
0
  6
CONTINUOUS
 62
3
 10
2.569694288084293
 20
-311.368915418565850
 40
3.999999999999263
 50
94.480855207350956
 51
180.000000000000000
  0
ARC
  8
0
  6
CONTINUOUS
 62
3
 10
14.569694288084406
 20
-192.170113938005220
 40
3.000000000000000
 50
0.000000000000000
 51
90.000000000000000
  0
ARC
  8
0
  6
CONTINUOUS
 62
3
 10
-19.930305711915821
 20
-148.670113938002710
 40
5.000000000000000
 50
180.000000000000000
 51
270.000000000000000
  0
ARC
  8
0
  6
CONTINUOUS
 62
3
 10
12.569694288084406
 20
-148.670113938002710
 40
5.000000000000000
 50
270.000000000000000
 51
0.000000000000000
  0
LINE
  8
0
  6
CONTINUOUS
 62
3
 10
27.569694288084406
 20
-99.670113938003283
 11
27.569694288084406
 21
-199.670113938003280
  0
LINE
  8
0
  6
CONTINUOUS
 62
3
 10
27.569694288084406
 20
-299.670113938003280
 11
27.569694288084406
 21
-199.670113938003280
  0
LINE
  8
0
  6
CONTINUOUS
 62
3
 10
17.569694288084406
 20
-278.706333790962960
 11
17.569694288084406
 21
-296.670113938003280
  0
LINE
  8
0
  6
CONTINUOUS
 62
3
 10
20.569694288084406
 20
-99.670113938003283
 11
27.569694288084406
 21
-99.670113938003283
  0
LINE
  8
0
  6
CONTINUOUS
 62
3
 10
17.569694288084406
 20
-102.670113938003280
 11
17.569694288084406
 21
-105.670113938002710
  0
LINE
  8
0
  6
CONTINUOUS
 62
3
 10
20.569694288084406
 20
-299.670113938003280
 11
27.569694288084406
 21
-299.670113938003280
  0
ARC
  8
0
  6
CONTINUOUS
 62
3
 10
20.569694288084406
 20
-102.670113938003280
 40
3.000000000000000
 50
90.000000000000000
 51
180.000000000000000
  0
ARC
  8
0
  6
CONTINUOUS
 62
3
 10
20.569694288084406
 20
-296.670113938003280
 40
3.000000000000000
 50
180.000000000000000
 51
270.000000000000000
  0
LINE
  8
0
  6
CONTINUOUS
 62
3
 10
-43.930305711915594
 20
-110.670113938002710
 11
13.069694288084406
 21
-110.670113938002710
  0
ARC
  8
0
  6
CONTINUOUS
 62
3
 10
12.569694288084406
 20
-105.670113938002710
 40
5.000000000000000
 50
270.000000000000000
 51
0.000000000000000
  0
LINE
  8
0
  6
CONTINUOUS
 62
3
 10
12.569694288084406
 20
-153.670113938002710
 11
-19.930305711915821
 21
-153.670113938002710
  0
ARC
  8
0
  6
CONTINUOUS
 62
3
 10
20.569694288084406
 20
-105.670113938051030
 40
3.000000000000000
 50
90.000000000000000
 51
180.000000000000000
  0
LINE
  8
0
  6
CONTINUOUS
 62
3
 10
20.569694288084406
 20
-102.670113938051030
 11
27.569694288084406
 21
-102.670113938051030
  0
ARC
  8
0
  6
CONTINUOUS
 62
3
 10
12.569694288084179
 20
-116.670113938002940
 40
5.000000000000000
 50
270.000000000000000
 51
0.000000000000000
  0
LINE
  8
0
  6
CONTINUOUS
 62
3
 10
-24.930305711915821
 20
-148.670113938002710
 11
-24.930305711915821
 21
-115.670113938002940
  0
ARC
  8
0
  6
CONTINUOUS
 62
3
 10
-19.930305711915821
 20
-116.670113938002940
 40
5.000000000000000
 50
179.999999999997410
 51
270.000000000000000
  0
ARC
  8
0
  6
CONTINUOUS
 62
3
 10
-29.930305711915821
 20
-115.670113938002710
 40
5.000000000000000
 50
359.999999999997390
 51
90.000000000000000
  0
LINE
  8
0
  6
CONTINUOUS
 62
3
 10
12.569694288084179
 20
-121.670113938002940
 11
-19.930305711916276
 21
-121.670113938002940
  0
LINE
  8
0
  6
CONTINUOUS
 62
3
 10
17.569694288084406
 20
-105.670113938002710
 11
17.569694288084406
 21
-278.706333790962960
  0
LINE
  8
0
  6
DASHDOT
 62
4
 10
-2.430305711915594
 20
-144.865782325255510
 11
-2.430305711915594
 21
-101.711527768876630
  0
LINE
  8
0
  6
CONTINUOUS
 62
3
 10
-43.930305711915594
 20
-149.170113938005440
 11
-24.930305711915821
 21
-149.170113938005440
  0
LINE
  8
0
  6
CONTINUOUS
 62
3
 10
47.569694288084293
 20
-190.754034154852890
 11
47.569694288084293
 21
-56.670113937954739
  0
LINE
  8
0
  6
CONTINUOUS
 62
3
 10
47.569694288084293
 20
-216.586193721052040
 11
47.569694288084293
 21
-295.097010373053310
  0
LINE
  8
0
  6
CONTINUOUS
 62
3
 10
20.569694288084406
 20
-296.670113938051030
 11
27.569694288084406
 21
-296.670113938051030
  0
ARC
  8
0
  6
CONTINUOUS
 62
3
 10
20.569694288084406
 20
-293.670113938051030
 40
3.000000000000000
 50
180.000000000000000
 51
270.000000000000000
  0
LINE
  8
0
  6
DASHDOT
 62
4
 10
-35.954308348526752
 20
-169.170113938002710
 11
-265.831531938576520
 21
-169.170113938002710
  0
LINE
  8
0
  6
DASHDOT
 62
4
 10
-51.840246015376124
 20
-169.170113938002710
 11
-19.470704554005806
 21
-169.170113938002710
  0
ARC
  8
0
  6
CONTINUOUS
 62
3
 10
-79.480305711916913
 20
73.156060682213365
 40
11.000000000000000
 50
270.000000000000000
 51
0.000000000000000
  0
LINE
  8
0
  6
CONTINUOUS
 62
3
 10
44.569694288084293
 20
45.829886061997286
 11
59.069694288084293
 21
45.829886061997286
  0
LINE
  8
0
  6
CONTINUOUS
 62
4
 10
4.569694288084293
 20
75.746811492949973
 11
33.952937507625165
 21
75.746811492949973
  0
ARC
  8
0
  6
CONTINUOUS
 62
3
 10
44.569694288084293
 20
75.154626311076981
 40
3.000000000000000
 50
0.000000000000000
 51
26.946799452617075
  0
ARC
  8
0
  6
CONTINUOUS
 62
3
 10
44.569694288084293
 20
70.503448350932331
 40
3.000000000000000
 50
0.000000000000000
 51
26.946799452617075
  0
LINE
  8
0
  6
CONTINUOUS
 62
3
 10
42.569694288084293
 20
66.329886061997286
 11
42.569694288084293
 21
68.871846170447270
  0
ARC
  8
0
  6
CONTINUOUS
 62
3
 10
44.569694288084293
 20
47.829886061997286
 40
2.000000000000000
 50
180.000000000000000
 51
270.000000000000000
  0
LINE
  8
0
  6
CONTINUOUS
 62
3
 10
42.569694288084293
 20
47.829886061997286
 11
42.569694288084293
 21
53.329886061997286
  0
ARC
  8
0
  6
CONTINUOUS
 62
3
 10
44.569694288084293
 20
74.787925953547301
 40
3.000000000000653
 50
279.594068226858330
 51
317.606151747584480
  0
ARC
  8
0
  6
CONTINUOUS
 62
3
 10
45.569694288084293
 20
68.871846170447270
 40
2.999999999999756
 50
99.594068226861253
 51
180.000000000000000
  0
ARC
  8
0
  6
CONTINUOUS
 62
3
 10
49.569694288084293
 20
47.829886061997286
 40
2.000000000000000
 50
180.000000000000000
 51
270.000000000000000
  0
LINE
  8
0
  6
DASHDOT
 62
4
 10
16.569694288084293
 20
41.819401541373054
 11
16.569694288084293
 21
70.355743870347624
  0
CIRCLE
  8
0
  6
CONTINUOUS
 62
3
 10
16.569694288084293
 20
55.829886061996376
 40
7.500000000000000
  0
LINE
  8
0
  6
DASHDOT
 62
4
 10
31.208272831712975
 20
55.829886061996376
 11
2.671930502738405
 21
55.829886061996376
  0
ARC
  8
0
  6
CONTINUOUS
 62
3
 10
8.569694288084293
 20
47.945846735228088
 40
10.000000000000000
 50
180.000000000000000
 51
267.756824425778010
  0
LINE
  8
0
  6
CONTINUOUS
 62
3
 10
8.178286301984599
 20
37.953509681844707
 11
62.069694288084293
 21
35.842539309726135
  0
LINE
  8
0
  6
CONTINUOUS
 62
3
 10
8.395170223711148
 20
273.158381741590570
 11
17.569694288084406
 21
272.998239828360970
  0
INSERT
  8
0
  2
SYM2
 10
47.569694288084293
 20
59.829886061997286
  0
ARC
  8
0
  6
CONTINUOUS
 62
3
 10
-29.930305711914450
 20
235.329886062046060
 40
5.000000000000000
 50
0.000000000000000
 51
90.000000000000000
  0
ARC
  8
0
  6
CONTINUOUS
 62
3
 10
-21.930305711914450
 20
198.829886061997400
 40
3.000000000000000
 50
180.000000000000000
 51
270.000000000000000
  0
LINE
  8
0
  6
CONTINUOUS
 62
3
 10
-24.930305711914450
 20
198.829886061997400
 11
-24.930305711914450
 21
235.329886062046060
  0
ARC
  8
0
  6
CONTINUOUS
 62
3
 10
-21.930305711914450
 20
162.829886061997170
 40
3.000000000000000
 50
90.000000000000000
 51
180.000000000000000
  0
ARC
  8
0
  6
CONTINUOUS
 62
3
 10
-29.930305711914450
 20
126.329886061948510
 40
5.000000000000000
 50
270.000000000000000
 51
0.000000000000000
  0
LINE
  8
0
  6
CONTINUOUS
 62
3
 10
-24.930305711914450
 20
162.829886061997170
 11
-24.930305711914450
 21
126.329886061948510
  0
CIRCLE
  8
0
  6
CONTINUOUS
 62
3
 10
-2.430305711915587
 20
180.829886061997400
 40
10.500000000000000
  0
ARC
  8
0
  6
CONTINUOUS
 62
3
 10
14.569694288084406
 20
198.829886061997290
 40
3.000000000000000
 50
270.000000000000000
 51
0.000000000000000
  0
LINE
  8
0
  6
CONTINUOUS
 62
3
 10
-21.930305711914450
 20
195.829886061997290
 11
14.569694288084406
 21
195.829886061997290
  0
ARC
  8
0
  6
CONTINUOUS
 62
3
 10
14.569694288084406
 20
162.829886061997290
 40
3.000000000000000
 50
0.000000000000000
 51
90.000000000000000
  0
LINE
  8
0
  6
CONTINUOUS
 62
3
 10
-21.930305711914450
 20
165.829886061997290
 11
14.569694288084406
 21
165.829886061997290
  0
LINE
  8
0
  6
DASHDOT
 62
4
 10
-2.430305711915587
 20
167.331854881580510
 11
-2.430305711915587
 21
194.566823522203780
  0
LINE
  8
0
  6
DASHDOT
 62
4
 10
295.400062941295120
 20
180.829886061997290
 11
-262.636420383514630
 21
180.829886061997290
  0
ARC
  8
0
  6
CONTINUOUS
 62
3
 10
-79.480305711916913
 20
100.024450002261570
 40
11.000000000000000
 50
0.000000000000000
 51
90.000000000000000
  0
ARC
  8
0
  6
CONTINUOUS
 62
3
 10
-79.480305711916913
 20
96.552977263214871
 40
11.000000000000000
 50
0.000000000000000
 51
90.000000000000000
  0
LINE
  8
0
  6
CONTINUOUS
 62
3
 10
-68.480305711916913
 20
100.024450002261570
 11
-68.480305711916913
 21
73.156060682213365
  0
LINE
  8
0
  6
CONTINUOUS
 62
3
 10
-43.930305711915707
 20
240.329886061997060
 11
-43.930305711915707
 21
180.829886061997290
  0
LINE
  8
0
  6
CONTINUOUS
 62
3
 10
-43.930305711915707
 20
121.329886061997280
 11
-43.930305711915707
 21
180.829886061997290
  0
LINE
  8
0
  6
CONTINUOUS
 62
3
 10
-140.930305711915590
 20
240.329886061997060
 11
-43.930305711915707
 21
240.329886061997060
  0
LINE
  8
0
  6
CONTINUOUS
 62
3
 10
-141.062514191123800
 20
121.329886061997280
 11
-43.930305711915707
 21
121.329886061997280
  0
LINE
  8
0
  6
CONTINUOUS
 62
4
 10
-140.930305711915590
 20
123.829886061997280
 11
-43.930305711915707
 21
123.829886061997280
  0
LINE
  8
0
  6
CONTINUOUS
 62
4
 10
-140.930305711915590
 20
124.829886061997280
 11
-43.930305711915707
 21
124.829886061997280
  0
LINE
  8
0
  6
CONTINUOUS
 62
4
 10
-140.930305711915590
 20
125.829886061997280
 11
-43.930305711915707
 21
125.829886061997280
  0
LINE
  8
0
  6
CONTINUOUS
 62
4
 10
-140.930305711915590
 20
130.514351875221560
 11
-43.930305711915707
 21
130.514351875221560
  0
LINE
  8
0
  6
CONTINUOUS
 62
4
 10
-140.930305711915590
 20
135.464099343527320
 11
-43.930305711915707
 21
135.464099343527320
  0
LINE
  8
0
  6
CONTINUOUS
 62
4
 10
-140.930305711915590
 20
143.510701006261340
 11
-43.930305711915707
 21
143.510701006261340
  0
LINE
  8
0
  6
CONTINUOUS
 62
4
 10
-140.930305711915590
 20
145.115348921823400
 11
-43.930305711915707
 21
145.115348921823400
  0
LINE
  8
0
  6
CONTINUOUS
 62
4
 10
-140.930305711915590
 20
149.079094345622930
 11
-43.930305711915707
 21
149.079094345622930
  0
LINE
  8
0
  6
CONTINUOUS
 62
4
 10
-140.930305711915590
 20
150.547451735427560
 11
-43.930305711915707
 21
150.547451735427560
  0
LINE
  8
0
  6
CONTINUOUS
 62
4
 10
-140.930305711915590
 20
154.637952269517430
 11
-43.930305711915707
 21
154.637952269517430
  0
LINE
  8
0
  6
CONTINUOUS
 62
4
 10
-140.930305711915590
 20
155.999832604866700
 11
-43.930305711915707
 21
155.999832604866700
  0
LINE
  8
0
  6
CONTINUOUS
 62
4
 10
-140.930305711915590
 20
160.190386336408890
 11
-43.930305711915707
 21
160.190386336408890
  0
LINE
  8
0
  6
CONTINUOUS
 62
4
 10
-140.930305711915590
 20
161.456624252496110
 11
-43.930305711915707
 21
161.456624252496110
  0
LINE
  8
0
  6
CONTINUOUS
 62
4
 10
-140.930305711915590
 20
218.149071117733230
 11
-43.930305711915707
 21
218.149071117733230
  0
LINE
  8
0
  6
CONTINUOUS
 62
4
 10
-140.930305711915590
 20
216.544423202171170
 11
-43.930305711915707
 21
216.544423202171170
  0
LINE
  8
0
  6
CONTINUOUS
 62
4
 10
-140.930305711915590
 20
212.580677778371640
 11
-43.930305711915707
 21
212.580677778371640
  0
LINE
  8
0
  6
CONTINUOUS
 62
4
 10
-140.930305711915590
 20
211.112320388567010
 11
-43.930305711915707
 21
211.112320388567010
  0
LINE
  8
0
  6
CONTINUOUS
 62
4
 10
-140.930305711915590
 20
207.021819854477140
 11
-43.930305711915707
 21
207.021819854477140
  0
LINE
  8
0
  6
CONTINUOUS
 62
4
 10
-140.930305711915590
 20
205.659939519127870
 11
-43.930305711915707
 21
205.659939519127870
  0
LINE
  8
0
  6
CONTINUOUS
 62
4
 10
-140.930305711915590
 20
201.469385787585680
 11
-43.930305711915707
 21
201.469385787585680
  0
LINE
  8
0
  6
CONTINUOUS
 62
4
 10
-140.930305711915590
 20
200.203147871498460
 11
-43.930305711915707
 21
200.203147871498460
  0
LINE
  8
0
  6
CONTINUOUS
 62
4
 10
-140.930305711915590
 20
226.195672780467250
 11
-43.930305711915707
 21
226.195672780467250
  0
LINE
  8
0
  6
CONTINUOUS
 62
4
 10
-140.930305711915590
 20
231.145420248773010
 11
-43.930305711915707
 21
231.145420248773010
  0
LINE
  8
0
  6
CONTINUOUS
 62
4
 10
-140.930305711915590
 20
235.829886061997290
 11
-43.930305711915707
 21
235.829886061997290
  0
LINE
  8
0
  6
CONTINUOUS
 62
4
 10
-140.930305711915590
 20
236.829886061997290
 11
-43.930305711915707
 21
236.829886061997290
  0
LINE
  8
0
  6
CONTINUOUS
 62
4
 10
-140.930305711915590
 20
237.829886061997290
 11
-43.930305711915707
 21
237.829886061997290
  0
LINE
  8
0
  6
CONTINUOUS
 62
3
 10
-73.930305711915594
 20
240.329886061997290
 11
-43.930305711915707
 21
240.329886061997290
  0
LINE
  8
0
  6
CONTINUOUS
 62
3
 10
27.569694288084293
 20
163.829886061996150
 11
27.569694288084293
 21
82.829886061996604
  0
LINE
  8
0
  6
CONTINUOUS
 62
3
 10
27.569694288084293
 20
197.829886061998420
 11
27.569694288084065
 21
278.829886061997970
  0
ARC
  8
0
  6
CONTINUOUS
 62
3
 10
28.729375565152850
 20
106.314494030569670
 40
3.000000000000161
 50
26.946799452615107
 51
90.000000000000000
  0
ARC
  8
0
  6
CONTINUOUS
 62
3
 10
28.729375565152850
 20
255.345278093424890
 40
3.000000000000000
 50
270.000000000000000
 51
333.053200547384900
  0
ARC
  8
0
  6
CONTINUOUS
 62
3
 10
28.729375565152850
 20
101.663316070425020
 40
3.000000000000161
 50
26.946799452615107
 51
90.000000000000000
  0
ARC
  8
0
  6
CONTINUOUS
 62
3
 10
28.729375565152850
 20
259.996456053569550
 40
3.000000000000000
 50
270.000000000000000
 51
333.053200547384900
  0
LINE
  8
0
  6
CONTINUOUS
 62
3
 10
31.403658609452805
 20
107.673982978288900
 11
47.243977332384020
 21
76.514115258796210
  0
LINE
  8
0
  6
CONTINUOUS
 62
3
 10
31.403658609452805
 20
253.985789145705670
 11
47.243977332384020
 21
285.145656865198360
  0
LINE
  8
0
  6
CONTINUOUS
 62
3
 10
31.403658609452805
 20
103.022805018144250
 11
47.243977332384020
 21
71.862937298651559
  0
LINE
  8
0
  6
CONTINUOUS
 62
3
 10
31.403658609452805
 20
258.636967105850320
 11
47.243977332384020
 21
289.796834825343010
  0
LINE
  8
0
  6
CONTINUOUS
 62
3
 10
47.569694288084435
 20
109.314494030569670
 11
31.403658609452805
 21
109.314494030569670
  0
LINE
  8
0
  6
CONTINUOUS
 62
3
 10
47.569694288084179
 20
252.345278093424890
 11
31.403658609452805
 21
252.345278093424890
  0
LINE
  8
0
  6
CONTINUOUS
 62
3
 10
35.569694288084293
 20
160.329886061997290
 11
31.069694288080655
 21
160.329886061997290
  0
LINE
  8
0
  6
CONTINUOUS
 62
3
 10
35.569694288084293
 20
201.329886061997290
 11
31.069694288080655
 21
201.329886061997290
  0
LINE
  8
0
  6
CONTINUOUS
 62
3
 10
31.069694288080655
 20
180.829886061997290
 11
31.069694288080655
 21
160.329886061997290
  0
LINE
  8
0
  6
CONTINUOUS
 62
3
 10
31.069694288080655
 20
180.829886061997290
 11
31.069694288080655
 21
201.329886061997290
  0
ARC
  8
0
  6
CONTINUOUS
 62
3
 10
38.569694288084293
 20
163.122190077943060
 40
3.000000000000000
 50
180.000000000000000
 51
267.999999999996360
  0
ARC
  8
0
  6
CONTINUOUS
 62
3
 10
38.569694288084293
 20
198.537582046051510
 40
3.000000000000001
 50
92.000000000003652
 51
180.000000000000000
  0
ARC
  8
0
  6
CONTINUOUS
 62
3
 10
42.569694288084293
 20
154.977630645585350
 40
5.000000000000000
 50
0.000000000000000
 51
87.999999999998934
  0
ARC
  8
0
  6
CONTINUOUS
 62
3
 10
42.569694288084293
 20
206.682141478409220
 40
4.999999999999918
 50
272.000000000001080
 51
0.000000000000000
  0
LINE
  8
0
  6
CONTINUOUS
 62
3
 10
35.569694288084293
 20
180.829886061997290
 11
35.569694288084293
 21
160.329886061997290
  0
LINE
  8
0
  6
CONTINUOUS
 62
3
 10
35.569694288084293
 20
180.829886061997290
 11
35.569694288084293
 21
201.329886061997290
  0
LINE
  8
0
  6
CONTINUOUS
 62
3
 10
42.054767417641187
 20
82.070755546524879
 11
27.569694288084293
 21
82.829886061996604
  0
LINE
  8
0
  6
CONTINUOUS
 62
3
 10
27.569694288084293
 20
180.829886061997290
 11
27.569694288084293
 21
176.829886061996150
  0
LINE
  8
0
  6
CONTINUOUS
 62
3
 10
27.569694288084293
 20
180.829886061997290
 11
27.569694288084293
 21
184.829886061998420
  0
LINE
  8
0
  6
CONTINUOUS
 62
3
 10
42.744191771596888
 20
159.974584780680740
 11
38.464995797976599
 21
160.124017596885780
  0
LINE
  8
0
  6
CONTINUOUS
 62
3
 10
42.744191771596888
 20
201.685187343313830
 11
38.464995797976599
 21
201.535754527108790
  0
LINE
  8
0
  6
CONTINUOUS
 62
3
 10
47.569694288084293
 20
180.829886061997290
 11
47.569694288084293
 21
47.829886061997286
  0
LINE
  8
0
  6
CONTINUOUS
 62
3
 10
47.569694288084293
 20
180.829886061997290
 11
47.569694288084065
 21
313.829886061997290
  0
LINE
  8
0
  6
CONTINUOUS
 62
3
 10
-1.430305711915707
 20
78.502913430839953
 11
-1.430305711915707
 21
47.945846735228088
  0
LINE
  8
0
  6
CONTINUOUS
 62
3
 10
8.395170223711148
 20
88.501390382403997
 11
17.569694288084406
 21
88.661532295633606
  0
ARC
  8
0
  6
CONTINUOUS
 62
3
 10
8.569694288084293
 20
78.502913430839953
 40
10.000000000000137
 50
91.000000000001762
 51
180.000000000000000
  0
INSERT
  8
0
  2
SYM2
 10
31.069694288079972
 20
170.329886061996150
  0
INSERT
  8
0
  2
SYM2
 10
31.069694288079972
 20
191.329886061998420
 41
-1.000000000000000
 50
180.000000000000030
  0
INSERT
  8
0
  2
SYM2
 10
47.569694288084293
 20
130.829886061997290
  0
INSERT
  8
0
  2
SYM2
 10
47.569694288084293
 20
230.829886061997290
 41
-1.000000000000000
 50
180.000000000000030
  0
LINE
  8
0
  6
CONTINUOUS
 62
3
 10
12.069714381652886
 20
240.329886062045940
 11
-43.930305711915594
 21
240.329886062045940
  0
LINE
  8
0
  6
CONTINUOUS
 62
3
 10
12.069714381652886
 20
121.329886061948620
 11
-43.930305711915594
 21
121.329886061948620
  0
LINE
  8
0
  6
CONTINUOUS
 62
3
 10
17.569694288084406
 20
190.766377735149260
 11
23.069695241754275
 21
190.766377735149260
  0
LINE
  8
0
  6
CONTINUOUS
 62
3
 10
17.569694288084406
 20
180.829886061997290
 11
17.569694288084406
 21
275.829886062046400
  0
LINE
  8
0
  6
CONTINUOUS
 62
3
 10
-43.930305711915594
 20
240.329886062045940
 11
-43.930305711915594
 21
180.829886061997290
  0
LINE
  8
0
  6
CONTINUOUS
 62
3
 10
17.569694288084406
 20
170.893394388845310
 11
23.069695241754275
 21
170.893394388845310
  0
LINE
  8
0
  6
CONTINUOUS
 62
3
 10
17.569694288084406
 20
180.829886061997290
 11
17.569694288084406
 21
85.829886061948173
  0
LINE
  8
0
  6
CONTINUOUS
 62
3
 10
-43.930305711915594
 20
121.329886061948620
 11
-43.930305711915594
 21
180.829886061997290
  0
LINE
  8
0
  6
CONTINUOUS
 62
3
 10
27.569694288084406
 20
82.829886061948173
 11
20.569694288084406
 21
82.829886061948173
  0
ARC
  8
0
  6
CONTINUOUS
 62
3
 10
20.569694288084406
 20
85.829886061948173
 40
3.000000000000000
 50
180.000000000000000
 51
270.000000000000000
  0
INSERT
  8
0
  2
SYM1
 10
17.569694288084406
 20
244.469496368834140
 41
-1.000000000000000
 50
180.000000000000000
  0
INSERT
  8
0
  2
SYM1
 10
17.569694288084406
 20
117.190275755160420
  0
LINE
  8
0
  6
CONTINUOUS
 62
3
 10
-43.930305711915707
 20
240.329886061997060
 11
-43.930305711915707
 21
180.829886061997290
  0
LINE
  8
0
  6
CONTINUOUS
 62
3
 10
-43.930305711915707
 20
121.329886061997280
 11
-43.930305711915707
 21
180.829886061997290
  0
LINE
  8
0
  6
CONTINUOUS
 62
4
 10
-140.930305711915590
 20
195.829886061997290
 11
-21.930305711914457
 21
195.829886061997290
  0
LINE
  8
0
  6
CONTINUOUS
 62
4
 10
-140.930305711915590
 20
165.829886061997290
 11
-21.930305711914457
 21
165.829886061997290
  0
CIRCLE
  8
0
  6
DASHED
 62
4
 10
-114.930305711915700
 20
88.329886061997058
 40
13.500000000000000
  0
LINE
  8
0
  6
DASHDOT
 62
4
 10
-137.753937343227560
 20
88.329886061997286
 11
-93.466219304829110
 21
88.329886061997286
  0
LINE
  8
0
  6
CONTINUOUS
 62
3
 10
-83.930305711915821
 20
113.329886061997170
 11
-83.930305711915821
 21
112.329886061997170
  0
ARC
  8
0
  6
CONTINUOUS
 62
3
 10
-81.130305711915867
 20
107.329886061997170
 40
5.000000000000008
 50
44.925956400534659
 51
90.000000000000000
  0
LINE
  8
0
  6
CONTINUOUS
 62
3
 10
-148.730305711915890
 20
112.329886061997280
 11
-81.130305711915867
 21
112.329886061997170
  0
ARC
  8
0
  6
CONTINUOUS
 62
3
 10
-79.880305711916549
 20
99.705820761683981
 40
5.000000000000000
 50
0.000000000000000
 51
90.000000000000000
  0
LINE
  8
0
  6
CONTINUOUS
 62
3
 10
-149.980305711914980
 20
104.705820761684090
 11
-79.880305711916549
 21
104.705820761683980
  0
LINE
  8
0
  6
CONTINUOUS
 62
3
 10
-74.880305711916549
 20
70.129886061997240
 11
-74.880305711916549
 21
99.705820761683981
  0
LINE
  8
0
  6
CONTINUOUS
 62
3
 10
-150.380305711914620
 20
107.552977263214870
 11
-79.480305711916913
 21
107.552977263214870
  0
LINE
  8
0
  6
CONTINUOUS
 62
3
 10
-150.380305711914620
 20
111.024450002261680
 11
-79.480305711916913
 21
111.024450002261570
  0
LINE
  8
0
  6
DASHDOT
 62
4
 10
-114.930305711915700
 20
119.163599398150040
 11
-114.930305711915700
 21
57.101185881513857
  0
LINE
  8
0
  6
CONTINUOUS
 62
3
 10
-147.430305711915710
 20
117.329886061997280
 11
-82.430305711915594
 21
117.329886061997280
  0
LINE
  8
0
  6
CONTINUOUS
 62
3
 10
-143.092981477095690
 20
119.329886061997280
 11
-82.430305711915594
 21
119.329886061997280
  0
LINE
  8
0
  6
CONTINUOUS
 62
3
 10
-147.430305711915710
 20
113.329886061997280
 11
-82.430305711915594
 21
113.329886061997280
  0
LINE
  8
0
  6
CONTINUOUS
 62
3
 10
-82.430305711915594
 20
113.329886061997280
 11
-82.430305711915707
 21
120.329886061997280
  0
LINE
  8
0
  6
CONTINUOUS
 62
3
 10
-78.180305711915707
 20
120.329886061997280
 11
-78.180305711915707
 21
121.329886061997280
  0
LINE
  8
0
  6
CONTINUOUS
 62
3
 10
-141.593070156719820
 20
120.329886061997280
 11
-78.180305711915707
 21
120.329886061997280
  0
LINE
  8
0
  6
CONTINUOUS
 62
3
 10
58.569694288084293
 20
180.829886061997290
 11
58.569694288084293
 21
45.829886061997286
  0
LINE
  8
0
  6
CONTINUOUS
 62
3
 10
58.569694288084293
 20
180.829886061997290
 11
58.569694288084065
 21
315.829886061997290
  0
LINE
  8
0
  6
CONTINUOUS
 62
3
 10
59.069694288084293
 20
180.829886061997290
 11
59.069694288084293
 21
315.829886061998200
  0
LINE
  8
0
  6
CONTINUOUS
 62
3
 10
59.069694288084293
 20
180.829886061997290
 11
59.069694288084293
 21
45.829886061996376
  0
LINE
  8
0
  6
DASHDOT
 62
4
 10
37.980196535947471
 20
-67.670113937955648
 11
15.895302561533754
 21
-67.670113937955648
  0
LINE
  8
0
  6
CONTINUOUS
 62
3
 10
-478.420220601190520
 20
-228.264752089138450
 11
-478.420220601190520
 21
-291.635105767520830
  0
LINE
  8
0
  6
CONTINUOUS
 62
3
 10
-473.420220601190520
 20
-232.285294452601850
 11
-473.420220601190520
 21
-292.655309864576110
  0
LINE
  8
0
  6
CONTINUOUS
 62
3
 10
-462.793203947398070
 20
-296.670113938000900
 11
-468.920220601191430
 21
-296.670113938000900
  0
ARC
  8
0
  6
CONTINUOUS
 62
3
 10
-468.920220601191430
 20
-216.670113938000870
 40
80.000000000000085
 50
242.258787150594940
 51
270.000000000000000
  0
LINE
  8
0
  6
CONTINUOUS
 62
3
 10
-478.420220601190520
 20
-249.003165738999310
 11
-478.420220601190520
 21
-291.635105767520830
  0
LINE
  8
0
  6
CONTINUOUS
 62
3
 10
-473.420220601190520
 20
-254.293826737480000
 11
-473.420220601190520
 21
-292.655309864576110
  0
ARC
  8
0
  6
CONTINUOUS
 62
3
 10
-468.920220601191430
 20
-216.670113938000870
 40
80.000000000000085
 50
242.258787150594940
 51
270.000000000000000
  0
LINE
  8
0
  6
CONTINUOUS
 62
3
 10
-462.793203947398070
 20
-296.670113938000900
 11
-468.920220601191430
 21
-296.670113938000900
  0
ARC
  8
0
  6
CONTINUOUS
 62
3
 10
-470.420220601190520
 20
-292.655309864576110
 40
3.000000000000000
 50
180.000000000000000
 51
268.869088815268640
  0
ARC
  8
0
  6
CONTINUOUS
 62
3
 10
-481.420220601190520
 20
-291.635105767520830
 40
3.000000000000254
 50
260.533338912428410
 51
0.000000000000000
  0
ARC
  8
0
  6
CONTINUOUS
 62
3
 10
-470.420220601190520
 20
-292.655309864576110
 40
3.000000000000000
 50
180.000000000000000
 51
268.869088815268640
  0
ARC
  8
0
  6
CONTINUOUS
 62
3
 10
-481.420220601190520
 20
-291.635105767520830
 40
3.000000000000254
 50
260.533338912428410
 51
0.000000000000000
  0
LINE
  8
0
  6
CONTINUOUS
 62
3
 10
-428.420220601190520
 20
-254.293826737480000
 11
-428.420220601190520
 21
-292.655309864575660
  0
LINE
  8
0
  6
CONTINUOUS
 62
3
 10
-423.420220601190520
 20
-249.003165738999310
 11
-423.420220601190520
 21
-291.635105767520830
  0
LINE
  8
0
  6
CONTINUOUS
 62
3
 10
-439.047237254983430
 20
-296.670113938000900
 11
-432.920220601190070
 21
-296.670113938000900
  0
ARC
  8
0
  6
CONTINUOUS
 62
3
 10
-432.920220601190070
 20
-216.670113938000870
 40
80.000000000000028
 50
270.000000000000000
 51
279.172054809625190
  0
ARC
  8
0
  6
CONTINUOUS
 62
3
 10
-432.920220601190070
 20
-216.670113938000870
 40
80.000000000000071
 50
279.172054809625190
 51
323.661143755959020
  0
ARC
  8
0
  6
CONTINUOUS
 62
3
 10
-432.920220601190070
 20
-216.670113938000870
 40
80.000000000000071
 50
279.172054809625190
 51
323.661143755959020
  0
LINE
  8
0
  6
CONTINUOUS
 62
3
 10
-428.420220601190520
 20
-232.285294452601850
 11
-428.420220601190520
 21
-292.655309864575660
  0
LINE
  8
0
  6
CONTINUOUS
 62
3
 10
-423.420220601190520
 20
-228.264752089138450
 11
-423.420220601190520
 21
-291.635105767520830
  0
ARC
  8
0
  6
CONTINUOUS
 62
3
 10
-432.920220601190070
 20
-216.670113938000870
 40
80.000000000000028
 50
270.000000000000000
 51
279.172054809625190
  0
LINE
  8
0
  6
CONTINUOUS
 62
3
 10
-439.047237254983430
 20
-296.670113938000900
 11
-432.920220601190070
 21
-296.670113938000900
  0
ARC
  8
0
  6
CONTINUOUS
 62
3
 10
-414.131897411627960
 20
-299.567634478271430
 40
4.999999999999877
 50
78.506801628089917
 51
102.770071443534390
  0
ARC
  8
0
  6
CONTINUOUS
 62
3
 10
-420.420220601190520
 20
-291.635105767520830
 40
3.000000000000000
 50
180.000000000000000
 51
279.466661087573700
  0
ARC
  8
0
  6
CONTINUOUS
 62
3
 10
-431.420220601190520
 20
-292.655309864575660
 40
3.000000000000115
 50
271.130911184731190
 51
0.000000000000000
  0
ARC
  8
0
  6
CONTINUOUS
 62
3
 10
-420.420220601190520
 20
-291.635105767520830
 40
3.000000000000000
 50
180.000000000000000
 51
279.466661087573700
  0
ARC
  8
0
  6
CONTINUOUS
 62
3
 10
-431.420220601190520
 20
-292.655309864575660
 40
3.000000000000115
 50
271.130911184731190
 51
0.000000000000000
  0
ARC
  8
0
  6
CONTINUOUS
 62
4
 10
-215.320220601190390
 20
-169.170113938002690
 40
289.397000000000160
 50
180.000000000000000
 51
186.051985358668500
  0
ARC
  8
0
  6
CONTINUOUS
 62
4
 10
-487.793121526400910
 20
-198.058143663140950
 40
15.397000000000052
 50
186.051985358668840
 51
225.000000000000000
  0
LINE
  8
0
  6
CONTINUOUS
 62
4
 10
-494.104379243691710
 20
-213.521532165708980
 11
-498.680444636330320
 21
-208.945466773070360
  0
ARC
  8
0
  6
CONTINUOUS
 62
4
 10
-489.861738556572620
 20
-209.278891478589430
 40
6.000000000000049
 50
225.000000000003070
 51
262.102011327574360
  0
ARC
  8
0
  6
CONTINUOUS
 62
4
 10
-450.920220601190290
 20
71.429886061997223
 40
289.396999999999820
 50
262.102011327572200
 51
270.000000000000000
  0
ARC
  8
0
  6
CONTINUOUS
 62
4
 10
-686.520220601190430
 20
-169.170113938002690
 40
289.397000000000160
 50
353.948014641331500
 51
0.000000000000000
  0
ARC
  8
0
  6
CONTINUOUS
 62
4
 10
-414.047319675979910
 20
-198.058143663140950
 40
15.396999999999876
 50
315.000000000000000
 51
353.948014641331160
  0
LINE
  8
0
  6
CONTINUOUS
 62
4
 10
-407.736061958689110
 20
-213.521532165708980
 11
-403.159996566050490
 21
-208.945466773070360
  0
ARC
  8
0
  6
CONTINUOUS
 62
4
 10
-411.978702645808200
 20
-209.278891478589430
 40
5.999999999999923
 50
277.897988672425640
 51
314.999999999996870
  0
ARC
  8
0
  6
CONTINUOUS
 62
4
 10
-450.920220601190520
 20
71.429886061997223
 40
289.396999999999930
 50
270.000000000000000
 51
277.897988672427800
  0
ARC
  8
0
  6
CONTINUOUS
 62
4
 10
-686.520220601190430
 20
-169.170113938002690
 40
289.397000000000160
 50
0.000000000000000
 51
6.051985358668508
  0
ARC
  8
0
  6
CONTINUOUS
 62
4
 10
-414.047319675979910
 20
-140.282084212864420
 40
15.397000000000052
 50
6.051985358668849
 51
45.000000000000000
  0
LINE
  8
0
  6
CONTINUOUS
 62
4
 10
-407.736061958689110
 20
-124.818695710296390
 11
-403.159996566050490
 21
-129.394761102935010
  0
ARC
  8
0
  6
CONTINUOUS
 62
4
 10
-411.978702645808200
 20
-129.061336397415940
 40
6.000000000000049
 50
45.000000000003077
 51
82.102011327574374
  0
ARC
  8
0
  6
CONTINUOUS
 62
4
 10
-450.920220601190520
 20
-409.770113938002620
 40
289.396999999999820
 50
82.102011327572214
 51
90.000000000000000
  0
ARC
  8
0
  6
CONTINUOUS
 62
4
 10
-215.320220601190610
 20
-169.170113938002690
 40
289.396999999999930
 50
173.948014641331470
 51
180.000000000000000
  0
LINE
  8
0
  6
CONTINUOUS
 62
4
 10
-494.104379243691710
 20
-124.818695710296390
 11
-498.680444636330320
 21
-129.394761102935010
  0
ARC
  8
0
  6
CONTINUOUS
 62
4
 10
-487.793121526400910
 20
-140.282084212864420
 40
15.396999999999876
 50
135.000000000000000
 51
173.948014641331160
  0
ARC
  8
0
  6
CONTINUOUS
 62
3
 10
-414.047319675979910
 20
-198.058143663140950
 40
26.599999999999955
 50
315.000000000001020
 51
353.948014641331380
  0
LINE
  8
0
  6
CONTINUOUS
 62
3
 10
-402.304728415076850
 20
-223.933633161362390
 11
-395.238279296417430
 21
-216.867184042702750
  0
ARC
  8
0
  6
CONTINUOUS
 62
3
 10
-686.520220601190430
 20
-169.170113938002690
 40
300.600000000000080
 50
353.948014641331500
 51
6.051985358668499
  0
ARC
  8
0
  6
CONTINUOUS
 62
3
 10
-487.793121526400910
 20
-198.058143663140950
 40
26.599999999999969
 50
186.051985358668590
 51
224.999999999998980
  0
ARC
  8
0
  6
CONTINUOUS
 62
3
 10
-215.320220601190500
 20
-169.170113938002690
 40
300.599999999999970
 50
173.948014641331500
 51
186.051985358668500
  0
LINE
  8
0
  6
CONTINUOUS
 62
3
 10
-499.535712787304190
 20
-223.933633161362390
 11
-506.602161905963380
 21
-216.867184042702750
  0
ARC
  8
0
  6
CONTINUOUS
 62
3
 10
-487.793121526400910
 20
-140.282084212864420
 40
26.600000000000119
 50
135.000000000000000
 51
173.948014641331410
  0
LINE
  8
0
  6
CONTINUOUS
 62
3
 10
-499.535712787304190
 20
-114.406594714643200
 11
-506.602161905963160
 21
-121.473043833302170
  0
ARC
  8
0
  6
CONTINUOUS
 62
3
 10
-414.047319675980130
 20
-140.282084212864420
 40
26.600000000000193
 50
6.051985358668552
 51
45.000000000000000
  0
LINE
  8
0
  6
CONTINUOUS
 62
3
 10
-402.304728415076850
 20
-114.406594714643200
 11
-395.238279296417890
 21
-121.473043833302170
  0
ARC
  8
0
  6
CONTINUOUS
 62
3
 10
-494.868808031473010
 20
-219.266728405531210
 40
6.599999999999957
 50
225.000000000000000
 51
261.402917762751090
  0
ARC
  8
0
  6
CONTINUOUS
 62
3
 10
-450.920220601190520
 20
71.429886061997450
 40
300.600000000000020
 50
261.402917762750920
 51
270.000000000000000
  0
ARC
  8
0
  6
CONTINUOUS
 62
3
 10
-406.971633170908040
 20
-219.266728405531210
 40
6.599999999999747
 50
278.597082237248910
 51
315.000000000000000
  0
ARC
  8
0
  6
CONTINUOUS
 62
3
 10
-450.920220601190520
 20
-409.770113938002620
 40
300.599999999999800
 50
81.402917762750931
 51
90.000000000000000
  0
ARC
  8
0
  6
CONTINUOUS
 62
3
 10
-406.971633170908040
 20
-119.073499470474380
 40
6.600000000000118
 50
45.000000000001400
 51
81.402917762751386
  0
ARC
  8
0
  6
CONTINUOUS
 62
3
 10
-450.920220601190520
 20
71.429886061997450
 40
300.600000000000140
 50
270.000000000000000
 51
278.597082237249080
  0
ARC
  8
0
  6
CONTINUOUS
 62
3
 10
-450.920220601190520
 20
-409.770113938002620
 40
300.599999999999910
 50
90.000000000000000
 51
98.597082237249069
  0
ARC
  8
0
  6
CONTINUOUS
 62
3
 10
-446.920220601190520
 20
-127.863334833357120
 40
1.500000000000203
 50
84.468928475159132
 51
180.000000000000000
  0
ARC
  8
0
  6
CONTINUOUS
 62
3
 10
-454.920220601190520
 20
-127.863334833356900
 40
1.500000000000000
 50
0.000000000000000
 51
95.531071524841693
  0
ARC
  8
0
  6
CONTINUOUS
 62
3
 10
-450.920220601190290
 20
-169.170113938002230
 40
17.999999999999922
 50
41.837004155893325
 51
78.162995844107314
  0
ARC
  8
0
  6
CONTINUOUS
 62
3
 10
-450.920220601190750
 20
-169.170113938002230
 40
27.499999999999815
 50
97.928141766201691
 51
142.071858233797880
  0
LINE
  8
0
  6
CONTINUOUS
 62
3
 10
-448.420220601190520
 20
-127.863334833357120
 11
-448.420220601190520
 21
-130.878469940911120
  0
LINE
  8
0
  6
CONTINUOUS
 62
3
 10
-419.008684147039730
 20
-147.859228429995910
 11
-416.397500548055630
 21
-146.351660876218800
  0
LINE
  8
0
  6
CONTINUOUS
 62
3
 10
-448.420220601190520
 20
-137.421098205227710
 11
-448.420220601190520
 21
-140.447300705312240
  0
ARC
  8
0
  6
CONTINUOUS
 62
3
 10
-446.920220601190520
 20
-137.421098205227710
 40
1.499999999999998
 50
82.819244218541712
 51
180.000000000000000
  0
ARC
  8
0
  6
CONTINUOUS
 62
3
 10
-446.920220601190520
 20
-130.878469940911120
 40
1.500000000000000
 50
180.000000000000000
 51
264.036429881682580
  0
ARC
  8
0
  6
CONTINUOUS
 62
3
 10
-417.147500548055630
 20
-145.052622770542000
 40
1.500000000000123
 50
299.999999999997270
 51
35.531071524839192
  0
ARC
  8
0
  6
CONTINUOUS
 62
3
 10
-450.920220601190980
 20
-169.170113938002690
 40
42.999999999999908
 50
35.531071524839248
 51
84.468928475160212
  0
ARC
  8
0
  6
CONTINUOUS
 62
3
 10
-413.147500548055180
 20
-151.980826000818040
 40
1.500000000000034
 50
24.468928475159590
 51
119.999999999997270
  0
LINE
  8
0
  6
CONTINUOUS
 62
3
 10
-416.508684147039500
 20
-152.189355448918350
 11
-413.897500548055180
 21
-150.681787895141240
  0
ARC
  8
0
  6
CONTINUOUS
 62
3
 10
-415.758684147039500
 20
-153.488393554595150
 40
1.500000000000123
 50
119.999999999997270
 51
204.036429881680680
  0
ARC
  8
0
  6
CONTINUOUS
 62
3
 10
-450.920220601190750
 20
-169.170113938003140
 40
36.999999999999972
 50
335.963570118321740
 51
24.036429881678870
  0
ARC
  8
0
  6
CONTINUOUS
 62
3
 10
-450.920220601190750
 20
-169.170113938003140
 40
42.999999999999936
 50
335.531071524839770
 51
24.468928475160769
  0
ARC
  8
0
  6
CONTINUOUS
 62
3
 10
-413.147500548055180
 20
-186.359401875187560
 40
1.500000000000320
 50
240.000000000007050
 51
335.531071524832500
  0
LINE
  8
0
  6
CONTINUOUS
 62
3
 10
-413.897500548055180
 20
-187.658439980864590
 11
-416.508684147039280
 21
-186.150872427087250
  0
ARC
  8
0
  6
CONTINUOUS
 62
3
 10
-415.758684147039280
 20
-184.851834321410680
 40
1.500000000000063
 50
155.963570118322880
 51
239.999999999998410
  0
ARC
  8
0
  6
CONTINUOUS
 62
3
 10
-417.147500548055180
 20
-193.287605105463370
 40
1.499999999999844
 50
324.468928475167900
 51
59.999999999998380
  0
LINE
  8
0
  6
CONTINUOUS
 62
3
 10
-416.397500548055180
 20
-191.988566999786800
 11
-419.008684147039280
 21
-190.480999446009460
  0
LINE
  8
0
  6
CONTINUOUS
 62
3
 10
-453.420220601190520
 20
-127.863334833356900
 11
-453.420220601190520
 21
-130.878469940911120
  0
ARC
  8
0
  6
CONTINUOUS
 62
3
 10
-454.920220601190520
 20
-130.878469940911120
 40
1.499999999999933
 50
275.963570118318330
 51
0.000000000000000
  0
LINE
  8
0
  6
CONTINUOUS
 62
3
 10
-453.420220601190520
 20
-137.421098205227710
 11
-453.420220601190520
 21
-140.447300705312240
  0
ARC
  8
0
  6
CONTINUOUS
 62
3
 10
-454.920220601190520
 20
-137.421098205227710
 40
1.500000000000000
 50
0.000000000000000
 51
97.180755781458288
  0
ARC
  8
0
  6
CONTINUOUS
 62
3
 10
-450.920220601190980
 20
-169.170113938002230
 40
23.999999999999901
 50
100.240348321185670
 51
139.759651678813550
  0
ARC
  8
0
  6
CONTINUOUS
 62
3
 10
-468.095399870235500
 20
-154.635217410122290
 40
1.499999999999802
 50
139.759651678811420
 51
239.999999999998410
  0
LINE
  8
0
  6
CONTINUOUS
 62
3
 10
-466.198605277256320
 20
-157.462383086545030
 11
-468.845399870235500
 21
-155.934255515798870
  0
ARC
  8
0
  6
CONTINUOUS
 62
3
 10
-465.448605277256320
 20
-156.163344980868460
 40
1.499999999999926
 50
239.999999999998410
 51
318.162995844106720
  0
ARC
  8
0
  6
CONTINUOUS
 62
3
 10
-450.920220601190980
 20
-169.170113938002230
 40
17.999999999999829
 50
101.837004155891980
 51
138.162995844106210
  0
ARC
  8
0
  6
CONTINUOUS
 62
3
 10
-454.920220601190520
 20
-150.084779254010040
 40
1.499999999999954
 50
281.837004155896690
 51
0.000000000000000
  0
LINE
  8
0
  6
CONTINUOUS
 62
3
 10
-453.420220601190520
 20
-147.028524112517720
 11
-453.420220601190520
 21
-150.084779254010040
  0
ARC
  8
0
  6
CONTINUOUS
 62
3
 10
-454.920220601190520
 20
-147.028524112517720
 40
1.500000000000000
 50
0.000000000000000
 51
100.240348321194510
  0
ARC
  8
0
  6
CONTINUOUS
 62
3
 10
-450.920220601190980
 20
-169.170113938002230
 40
14.499999999999980
 50
107.920213139390830
 51
132.079786860607560
  0
ARC
  8
0
  6
CONTINUOUS
 62
3
 10
-459.632363244005090
 20
-159.521353884437960
 40
1.499999999999792
 50
132.079786860611680
 51
239.999999999998410
  0
LINE
  8
0
  6
CONTINUOUS
 62
3
 10
-457.607474534384440
 20
-162.422474733585400
 11
-460.382363244005090
 21
-160.820391990114530
  0
ARC
  8
0
  6
CONTINUOUS
 62
3
 10
-456.857474534384440
 20
-161.123436627908830
 40
1.499999999999926
 50
239.999999999998410
 51
306.421821521797600
  0
ARC
  8
0
  6
CONTINUOUS
 62
3
 10
-450.920220601190980
 20
-169.170113938002230
 40
8.499999999999879
 50
113.578178478199500
 51
126.421821521797340
  0
ARC
  8
0
  6
CONTINUOUS
 62
3
 10
-454.920220601190520
 20
-160.004962548090330
 40
1.500000000000139
 50
293.578178478195700
 51
0.000000000000000
  0
LINE
  8
0
  6
CONTINUOUS
 62
3
 10
-453.420220601190520
 20
-156.800797061149270
 11
-453.420220601190520
 21
-160.004962548090330
  0
ARC
  8
0
  6
CONTINUOUS
 62
3
 10
-454.920220601190520
 20
-156.800797061149270
 40
1.500000000000000
 50
0.000000000000000
 51
107.920213139394770
  0
ARC
  8
0
  6
CONTINUOUS
 62
3
 10
-450.920220601190520
 20
-169.170113938002690
 40
23.999999999999716
 50
280.240348321186270
 51
319.759651678814690
  0
ARC
  8
0
  6
CONTINUOUS
 62
3
 10
-446.920220601190520
 20
-191.311703763487200
 40
1.500000000000000
 50
180.000000000000000
 51
280.240348321187530
  0
LINE
  8
0
  6
CONTINUOUS
 62
3
 10
-448.420220601190520
 20
-188.255448621994870
 11
-448.420220601190520
 21
-191.311703763487200
  0
ARC
  8
0
  6
CONTINUOUS
 62
3
 10
-446.920220601190520
 20
-188.255448621994870
 40
1.499999999999731
 50
101.837004155898450
 51
180.000000000000000
  0
ARC
  8
0
  6
CONTINUOUS
 62
3
 10
-450.920220601190520
 20
-169.170113938002690
 40
18.000000000000146
 50
281.837004155893230
 51
318.162995844107680
  0
ARC
  8
0
  6
CONTINUOUS
 62
3
 10
-436.391835925124720
 20
-182.176882895136460
 40
1.499999999999926
 50
59.999999999998380
 51
138.162995844100240
  0
LINE
  8
0
  6
CONTINUOUS
 62
3
 10
-432.995041332145770
 20
-182.405972360206050
 11
-435.641835925124720
 21
-180.877844789459890
  0
ARC
  8
0
  6
CONTINUOUS
 62
3
 10
-433.745041332145770
 20
-183.705010465882620
 40
1.499999999999828
 50
319.759651678823670
 51
59.999999999998380
  0
ARC
  8
0
  6
CONTINUOUS
 62
3
 10
-450.920220601190520
 20
-169.170113938002690
 40
14.500000000000121
 50
287.920213139392560
 51
312.079786860608860
  0
ARC
  8
0
  6
CONTINUOUS
 62
3
 10
-446.920220601190520
 20
-181.539430814855420
 40
1.500000000000000
 50
180.000000000000000
 51
287.920213139392100
  0
LINE
  8
0
  6
CONTINUOUS
 62
3
 10
-448.420220601190520
 20
-178.335265327914130
 11
-448.420220601190520
 21
-181.539430814855420
  0
ARC
  8
0
  6
CONTINUOUS
 62
3
 10
-446.920220601190520
 20
-178.335265327914580
 40
1.500000000000139
 50
113.578178478195690
 51
179.999999999982630
  0
ARC
  8
0
  6
CONTINUOUS
 62
3
 10
-450.920220601190520
 20
-169.170113938002690
 40
8.500000000000060
 50
293.578178478202350
 51
306.421821521799190
  0
ARC
  8
0
  6
CONTINUOUS
 62
3
 10
-444.982966667996610
 20
-177.216791248096090
 40
1.499999999999926
 50
59.999999999998380
 51
126.421821521801260
  0
LINE
  8
0
  6
CONTINUOUS
 62
3
 10
-441.458077958376180
 20
-177.519835885889930
 11
-444.232966667996610
 21
-175.917753142419510
  0
ARC
  8
0
  6
CONTINUOUS
 62
3
 10
-442.208077958376180
 20
-178.818873991566960
 40
1.499999999999944
 50
312.079786860618130
 51
60.000000000007070
  0
ARC
  8
0
  6
CONTINUOUS
 62
3
 10
-450.920220601190520
 20
-169.170113938002690
 40
23.999999999999844
 50
220.240348321185340
 51
259.759651678813730
  0
ARC
  8
0
  6
CONTINUOUS
 62
3
 10
-454.920220601190520
 20
-191.311703763487200
 40
1.499999999999728
 50
259.759651678812470
 51
0.000000000000000
  0
LINE
  8
0
  6
CONTINUOUS
 62
3
 10
-453.420220601190520
 20
-188.255448621994870
 11
-453.420220601190520
 21
-191.311703763487200
  0
ARC
  8
0
  6
CONTINUOUS
 62
3
 10
-454.920220601190520
 20
-188.255448621994870
 40
1.500000000000000
 50
0.000000000000000
 51
78.162995844101530
  0
ARC
  8
0
  6
CONTINUOUS
 62
3
 10
-450.920220601190520
 20
-169.170113938002690
 40
17.999999999999940
 50
221.837004155892320
 51
258.162995844106770
  0
ARC
  8
0
  6
CONTINUOUS
 62
3
 10
-465.448605277256320
 20
-182.176882895136460
 40
1.500000000000118
 50
41.837004155899741
 51
120.000000000001620
  0
LINE
  8
0
  6
CONTINUOUS
 62
3
 10
-468.845399870235270
 20
-182.405972360206050
 11
-466.198605277256320
 21
-180.877844789459890
  0
ARC
  8
0
  6
CONTINUOUS
 62
3
 10
-468.095399870235270
 20
-183.705010465882620
 40
1.499999999999926
 50
120.000000000001620
 51
220.240348321176330
  0
ARC
  8
0
  6
CONTINUOUS
 62
3
 10
-450.920220601190520
 20
-169.170113938002690
 40
14.500000000000011
 50
227.920213139391080
 51
252.079786860607410
  0
ARC
  8
0
  6
CONTINUOUS
 62
3
 10
-454.920220601190520
 20
-181.539430814855420
 40
1.500000000000355
 50
252.079786860607900
 51
0.000000000000000
  0
LINE
  8
0
  6
CONTINUOUS
 62
3
 10
-453.420220601190520
 20
-178.335265327914130
 11
-453.420220601190520
 21
-181.539430814855420
  0
ARC
  8
0
  6
CONTINUOUS
 62
3
 10
-454.920220601190520
 20
-178.335265327914580
 40
1.500000000000000
 50
0.000000000017370
 51
66.421821521804304
  0
ARC
  8
0
  6
CONTINUOUS
 62
3
 10
-450.920220601190520
 20
-169.170113938002690
 40
8.499999999999870
 50
233.578178478199590
 51
246.421821521797680
  0
ARC
  8
0
  6
CONTINUOUS
 62
3
 10
-456.857474534384440
 20
-177.216791248096090
 40
1.500000000000059
 50
53.578178478205707
 51
120.000000000001620
  0
LINE
  8
0
  6
CONTINUOUS
 62
3
 10
-460.382363244004860
 20
-177.519835885889930
 11
-457.607474534384440
 21
-175.917753142419510
  0
ARC
  8
0
  6
CONTINUOUS
 62
3
 10
-459.632363244004860
 20
-178.818873991566960
 40
1.500000000000320
 50
119.999999999992930
 51
227.920213139381870
  0
ARC
  8
0
  6
CONTINUOUS
 62
3
 10
-450.920220601190980
 20
-169.170113938002230
 40
23.999999999999925
 50
160.240348321185910
 51
199.759651678814090
  0
ARC
  8
0
  6
CONTINUOUS
 62
3
 10
-472.095399870235500
 20
-161.563420640397650
 40
1.499999999999926
 50
59.999999999998380
 51
160.240348321185250
  0
LINE
  8
0
  6
CONTINUOUS
 62
3
 10
-468.698605277256320
 20
-161.792510105467240
 11
-471.345399870235500
 21
-160.264382534721080
  0
ARC
  8
0
  6
CONTINUOUS
 62
3
 10
-469.448605277256320
 20
-163.091548211143820
 40
1.500000000000038
 50
341.837004155895390
 51
59.999999999998380
  0
ARC
  8
0
  6
CONTINUOUS
 62
3
 10
-450.920220601190980
 20
-169.170113938002230
 40
17.999999999999726
 50
161.837004155893140
 51
198.162995844106860
  0
ARC
  8
0
  6
CONTINUOUS
 62
3
 10
-469.448605277256320
 20
-175.248679664860650
 40
1.500000000000320
 50
299.999999999992950
 51
18.162995844104589
  0
LINE
  8
0
  6
CONTINUOUS
 62
3
 10
-471.345399870235270
 20
-178.075845341283380
 11
-468.698605277256320
 21
-176.547717770537670
  0
ARC
  8
0
  6
CONTINUOUS
 62
3
 10
-472.095399870235270
 20
-176.776807235606810
 40
1.500000000000246
 50
199.759651678811820
 51
300.000000000001590
  0
ARC
  8
0
  6
CONTINUOUS
 62
3
 10
-450.920220601190980
 20
-169.170113938002230
 40
14.499999999999851
 50
167.920213139392840
 51
192.079786860608920
  0
ARC
  8
0
  6
CONTINUOUS
 62
3
 10
-463.632363244005090
 20
-166.449557114713310
 40
1.499999999999926
 50
59.999999999998380
 51
167.920213139405550
  0
LINE
  8
0
  6
CONTINUOUS
 62
3
 10
-460.107474534384440
 20
-166.752601752507620
 11
-462.882363244005090
 21
-165.150519009036740
  0
ARC
  8
0
  6
CONTINUOUS
 62
3
 10
-460.857474534384440
 20
-168.051639858184190
 40
1.499999999999873
 50
353.578178478198030
 51
59.999999999998380
  0
ARC
  8
0
  6
CONTINUOUS
 62
3
 10
-450.920220601190980
 20
-169.170113938002230
 40
8.499999999999813
 50
173.578178478202550
 51
186.421821521800500
  0
ARC
  8
0
  6
CONTINUOUS
 62
3
 10
-460.857474534384440
 20
-170.288588017820730
 40
1.499999999999926
 50
300.000000000001590
 51
6.421821521801967
  0
LINE
  8
0
  6
CONTINUOUS
 62
3
 10
-462.882363244004860
 20
-173.189708866967720
 11
-460.107474534384440
 21
-171.587626123497300
  0
ARC
  8
0
  6
CONTINUOUS
 62
3
 10
-463.632363244004860
 20
-171.890670761291150
 40
1.500000000000287
 50
192.079786860609600
 51
300.000000000001590
  0
ARC
  8
0
  6
CONTINUOUS
 62
3
 10
-450.920220601190290
 20
-169.170113938002230
 40
24.000000000000139
 50
340.240348321186050
 51
19.759651678813924
  0
ARC
  8
0
  6
CONTINUOUS
 62
3
 10
-429.745041332145770
 20
-161.563420640397650
 40
1.500000000000246
 50
19.759651678811824
 51
120.000000000001620
  0
LINE
  8
0
  6
CONTINUOUS
 62
3
 10
-433.141835925124720
 20
-161.792510105467240
 11
-430.495041332145770
 21
-160.264382534721080
  0
ARC
  8
0
  6
CONTINUOUS
 62
3
 10
-432.391835925124720
 20
-163.091548211143820
 40
1.499999999999926
 50
120.000000000001620
 51
198.162995844104590
  0
ARC
  8
0
  6
CONTINUOUS
 62
3
 10
-450.920220601190290
 20
-169.170113938002230
 40
17.999999999999943
 50
341.837004155893340
 51
18.162995844106646
  0
ARC
  8
0
  6
CONTINUOUS
 62
3
 10
-432.391835925124720
 20
-175.248679664860650
 40
1.500000000000038
 50
161.837004155895410
 51
240.000000000007050
  0
LINE
  8
0
  6
CONTINUOUS
 62
3
 10
-430.495041332145770
 20
-178.075845341283380
 11
-433.141835925124720
 21
-176.547717770537670
  0
ARC
  8
0
  6
CONTINUOUS
 62
3
 10
-429.745041332145770
 20
-176.776807235606810
 40
1.499999999999926
 50
239.999999999998410
 51
340.240348321188210
  0
ARC
  8
0
  6
CONTINUOUS
 62
3
 10
-450.920220601190290
 20
-169.170113938002230
 40
14.500000000000169
 50
347.920213139391310
 51
12.079786860606980
  0
ARC
  8
0
  6
CONTINUOUS
 62
3
 10
-438.208077958376180
 20
-166.449557114713310
 40
1.500000000000192
 50
12.079786860592611
 51
120.000000000001620
  0
LINE
  8
0
  6
CONTINUOUS
 62
3
 10
-441.732966667996610
 20
-166.752601752507620
 11
-438.958077958376180
 21
-165.150519009036740
  0
ARC
  8
0
  6
CONTINUOUS
 62
3
 10
-440.982966667996610
 20
-168.051639858184190
 40
1.499999999999926
 50
120.000000000001620
 51
186.421821521801010
  0
ARC
  8
0
  6
CONTINUOUS
 62
3
 10
-450.920220601190290
 20
-169.170113938002230
 40
8.499999999999865
 50
353.578178478199500
 51
6.421821521797448
  0
ARC
  8
0
  6
CONTINUOUS
 62
3
 10
-440.982966667996610
 20
-170.288588017820730
 40
1.500000000000099
 50
173.578178478198990
 51
239.999999999998410
  0
LINE
  8
0
  6
CONTINUOUS
 62
3
 10
-438.958077958376180
 20
-173.189708866967720
 11
-441.732966667996610
 21
-171.587626123497300
  0
ARC
  8
0
  6
CONTINUOUS
 62
3
 10
-438.208077958376180
 20
-171.890670761291150
 40
1.499999999999926
 50
239.999999999998410
 51
347.920213139390400
  0
ARC
  8
0
  6
CONTINUOUS
 62
3
 10
-450.920220601190290
 20
-169.170113938002230
 40
8.500000000000101
 50
53.578178478202659
 51
66.421821521799089
  0
ARC
  8
0
  6
CONTINUOUS
 62
3
 10
-450.920220601190290
 20
-169.170113938002230
 40
23.999999999999819
 50
40.240348321186090
 51
79.759651678814322
  0
LINE
  8
0
  6
CONTINUOUS
 62
3
 10
-444.232966667996610
 20
-162.422474733585400
 11
-441.458077958376180
 21
-160.820391990114530
  0
LINE
  8
0
  6
CONTINUOUS
 62
3
 10
-448.420220601190520
 20
-147.028524112517720
 11
-448.420220601190520
 21
-150.084779254010040
  0
LINE
  8
0
  6
CONTINUOUS
 62
3
 10
-448.420220601190520
 20
-156.800797061149270
 11
-448.420220601190520
 21
-160.004962548090330
  0
ARC
  8
0
  6
CONTINUOUS
 62
3
 10
-450.920220601190290
 20
-169.170113938002230
 40
14.499999999999860
 50
47.920213139391755
 51
72.079786860608309
  0
LINE
  8
0
  6
CONTINUOUS
 62
3
 10
-435.641835925124720
 20
-157.462383086545030
 11
-432.995041332145770
 21
-155.934255515798870
  0
ARC
  8
0
  6
CONTINUOUS
 62
3
 10
-442.208077958376180
 20
-159.521353884437960
 40
1.499999999999926
 50
300.000000000001590
 51
47.920213139381872
  0
ARC
  8
0
  6
CONTINUOUS
 62
3
 10
-446.920220601190520
 20
-147.028524112517720
 40
1.499999999999952
 50
79.759651678814024
 51
180.000000000000000
  0
ARC
  8
0
  6
CONTINUOUS
 62
3
 10
-436.391835925124720
 20
-156.163344980868460
 40
1.499999999999967
 50
221.837004155893280
 51
300.000000000001590
  0
ARC
  8
0
  6
CONTINUOUS
 62
3
 10
-446.920220601190520
 20
-150.084779254010040
 40
1.500000000000000
 50
180.000000000000000
 51
258.162995844103310
  0
ARC
  8
0
  6
CONTINUOUS
 62
3
 10
-446.920220601190520
 20
-156.800797061149270
 40
1.500000000000138
 50
72.079786860605225
 51
180.000000000000000
  0
ARC
  8
0
  6
CONTINUOUS
 62
3
 10
-433.745041332145770
 20
-154.635217410122290
 40
1.499999999999926
 50
300.000000000001590
 51
40.240348321182964
  0
ARC
  8
0
  6
CONTINUOUS
 62
3
 10
-446.920220601190520
 20
-160.004962548090330
 40
1.500000000000000
 50
180.000000000000000
 51
246.421821521804280
  0
ARC
  8
0
  6
CONTINUOUS
 62
3
 10
-444.982966667996610
 20
-161.123436627908830
 40
1.499999999999693
 50
233.578178478195410
 51
300.000000000001590
  0
CIRCLE
  8
0
  6
CONTINUOUS
 62
3
 10
-450.920220601190520
 20
-169.170113938002230
 40
5.000000000000000
  0
ARC
  8
0
  6
CONTINUOUS
 62
3
 10
-428.045534673524800
 20
-151.344605706519560
 40
1.499999999999843
 50
217.928141766204990
 51
300.000000000001590
  0
LINE
  8
0
  6
CONTINUOUS
 62
3
 10
-427.295534673524800
 20
-152.643643812196130
 11
-424.674766431455960
 21
-151.130542562153980
  0
ARC
  8
0
  6
CONTINUOUS
 62
3
 10
-446.920220601190520
 20
-140.447300705312240
 40
1.500000000000000
 50
180.000000000000000
 51
262.071858233795980
  0
ARC
  8
0
  6
CONTINUOUS
 62
3
 10
-450.920220601190290
 20
-169.170113938002230
 40
27.500000000000060
 50
37.928141766201819
 51
82.071858233798309
  0
ARC
  8
0
  6
CONTINUOUS
 62
3
 10
-425.424766431455960
 20
-149.831504456477400
 40
1.499999999999926
 50
300.000000000001590
 51
37.180755781457485
  0
ARC
  8
0
  6
CONTINUOUS
 62
3
 10
-419.758684147039730
 20
-146.560190324319110
 40
1.500000000000102
 50
215.963570118316280
 51
299.999999999997270
  0
ARC
  8
0
  6
CONTINUOUS
 62
3
 10
-450.920220601190980
 20
-169.170113938002690
 40
36.999999999999943
 50
35.963570118321194
 51
84.036429881678174
  0
ARC
  8
0
  6
CONTINUOUS
 62
3
 10
-450.920220601190980
 20
-169.170113938002690
 40
33.500000000000071
 50
37.180755781458259
 51
82.819244218540931
  0
LINE
  8
0
  6
CONTINUOUS
 62
3
 10
-424.795534673524570
 20
-156.973770831118800
 11
-422.174766431455740
 21
-155.460669581076640
  0
ARC
  8
0
  6
CONTINUOUS
 62
3
 10
-421.424766431455740
 20
-156.759707686753440
 40
1.499999999999948
 50
22.819244218550043
 51
119.999999999997270
  0
ARC
  8
0
  6
CONTINUOUS
 62
3
 10
-424.045534673524570
 20
-158.272808936795370
 40
1.499999999999926
 50
120.000000000001620
 51
202.071858233797370
  0
ARC
  8
0
  6
CONTINUOUS
 62
3
 10
-450.920220601190070
 20
-169.170113938002690
 40
27.499999999999886
 50
337.928141766202200
 51
22.071858233797812
  0
ARC
  8
0
  6
CONTINUOUS
 62
3
 10
-450.920220601190750
 20
-169.170113938003140
 40
33.500000000000128
 50
337.180755781459030
 51
22.819244218541968
  0
ARC
  8
0
  6
CONTINUOUS
 62
3
 10
-424.045534673524800
 20
-180.067418939210000
 40
1.499999999999899
 50
157.928141766199360
 51
240.000000000007050
  0
LINE
  8
0
  6
CONTINUOUS
 62
3
 10
-422.174766431455510
 20
-182.879558294928960
 11
-424.795534673524800
 21
-181.366457044887030
  0
ARC
  8
0
  6
CONTINUOUS
 62
3
 10
-421.424766431455510
 20
-181.580520189252380
 40
1.499999999999926
 50
239.999999999998410
 51
337.180755781453340
  0
ARC
  8
0
  6
CONTINUOUS
 62
3
 10
-446.920220601190290
 20
-210.476893042647790
 40
1.500000000000000
 50
180.000000000000000
 51
275.531071524831360
  0
LINE
  8
0
  6
CONTINUOUS
 62
3
 10
-448.420220601190290
 20
-207.461757935093570
 11
-448.420220601190290
 21
-210.476893042647790
  0
LINE
  8
0
  6
CONTINUOUS
 62
3
 10
-448.420220601190290
 20
-197.892927170693130
 11
-448.420220601190290
 21
-200.919129670777440
  0
ARC
  8
0
  6
CONTINUOUS
 62
3
 10
-446.920220601190290
 20
-207.461757935094030
 40
1.500000000000182
 50
95.963570118326047
 51
179.999999999982630
  0
ARC
  8
0
  6
CONTINUOUS
 62
3
 10
-446.920220601190290
 20
-200.919129670777440
 40
1.500000000000000
 50
180.000000000000000
 51
277.180755781458290
  0
ARC
  8
0
  6
CONTINUOUS
 62
3
 10
-446.920220601190290
 20
-197.892927170693130
 40
1.499999999999967
 50
97.928141766195438
 51
180.000000000000000
  0
ARC
  8
0
  6
CONTINUOUS
 62
3
 10
-450.920220601190290
 20
-169.170113938003140
 40
27.499999999999879
 50
277.928141766202600
 51
322.071858233798930
  0
ARC
  8
0
  6
CONTINUOUS
 62
3
 10
-450.920220601190290
 20
-169.170113938002230
 40
37.000000000000028
 50
275.963570118320770
 51
324.036429881678030
  0
ARC
  8
0
  6
CONTINUOUS
 62
3
 10
-450.920220601190290
 20
-169.170113938002230
 40
43.000000000000199
 50
275.531071524838860
 51
324.468928475160340
  0
ARC
  8
0
  6
CONTINUOUS
 62
3
 10
-450.920220601190290
 20
-169.170113938002230
 40
33.500000000000114
 50
277.180755781458230
 51
322.819244218540860
  0
ARC
  8
0
  6
CONTINUOUS
 62
3
 10
-428.045534673524800
 20
-186.995622169485810
 40
1.500000000000320
 50
60.000000000007070
 51
142.071858233781280
  0
ARC
  8
0
  6
CONTINUOUS
 62
3
 10
-419.758684147039280
 20
-191.780037551686040
 40
1.499999999999926
 50
59.999999999998380
 51
144.036429881690740
  0
LINE
  8
0
  6
CONTINUOUS
 62
3
 10
-424.674766431455510
 20
-187.209685313851170
 11
-427.295534673524800
 21
-185.696584063808790
  0
ARC
  8
0
  6
CONTINUOUS
 62
3
 10
-425.424766431455510
 20
-188.508723419527740
 40
1.500000000000240
 50
322.819244218535570
 51
59.999999999998380
  0
ARC
  8
0
  6
CONTINUOUS
 62
3
 10
-454.920220601190750
 20
-210.476893042647790
 40
1.500000000000430
 50
264.468928475160000
 51
0.000000000000000
  0
LINE
  8
0
  6
CONTINUOUS
 62
3
 10
-453.420220601190750
 20
-207.461757935093570
 11
-453.420220601190750
 21
-210.476893042647790
  0
LINE
  8
0
  6
CONTINUOUS
 62
3
 10
-453.420220601190750
 20
-197.892927170693130
 11
-453.420220601190750
 21
-200.919129670777440
  0
ARC
  8
0
  6
CONTINUOUS
 62
3
 10
-454.920220601190750
 20
-207.461757935094030
 40
1.500000000000000
 50
0.000000000017370
 51
84.036429881682594
  0
ARC
  8
0
  6
CONTINUOUS
 62
3
 10
-454.920220601190750
 20
-200.919129670777440
 40
1.499999999999998
 50
262.819244218541710
 51
0.000000000000000
  0
ARC
  8
0
  6
CONTINUOUS
 62
3
 10
-454.920220601190750
 20
-197.892927170693130
 40
1.500000000000000
 50
0.000000000000000
 51
82.071858233804562
  0
ARC
  8
0
  6
CONTINUOUS
 62
3
 10
-450.920220601190750
 20
-169.170113938003140
 40
27.499999999999780
 50
217.928141766201070
 51
262.071858233797400
  0
ARC
  8
0
  6
CONTINUOUS
 62
3
 10
-450.920220601190750
 20
-169.170113938002230
 40
37.000000000000021
 50
215.963570118321970
 51
264.036429881678940
  0
ARC
  8
0
  6
CONTINUOUS
 62
3
 10
-450.920220601190750
 20
-169.170113938002230
 40
42.999999999999858
 50
215.531071524839690
 51
264.468928475160850
  0
ARC
  8
0
  6
CONTINUOUS
 62
3
 10
-450.920220601190750
 20
-169.170113938002230
 40
33.500000000000163
 50
217.180755781459110
 51
262.819244218541770
  0
ARC
  8
0
  6
CONTINUOUS
 62
3
 10
-473.794906528856250
 20
-186.995622169485810
 40
1.500000000000122
 50
37.928141766218701
 51
119.999999999992930
  0
ARC
  8
0
  6
CONTINUOUS
 62
3
 10
-484.692940654325870
 20
-193.287605105463370
 40
1.499999999999926
 50
120.000000000001620
 51
215.531071524832130
  0
LINE
  8
0
  6
CONTINUOUS
 62
3
 10
-485.442940654325870
 20
-191.988566999786800
 11
-482.831757055341770
 21
-190.480999446009460
  0
ARC
  8
0
  6
CONTINUOUS
 62
3
 10
-482.081757055341770
 20
-191.780037551686040
 40
1.499999999999968
 50
35.963570118309242
 51
120.000000000001620
  0
LINE
  8
0
  6
CONTINUOUS
 62
3
 10
-477.165674770925530
 20
-187.209685313851170
 11
-474.544906528856250
 21
-185.696584063808790
  0
ARC
  8
0
  6
CONTINUOUS
 62
3
 10
-476.415674770925530
 20
-188.508723419527740
 40
1.499999999999926
 50
120.000000000001620
 51
217.180755781464400
  0
ARC
  8
0
  6
CONTINUOUS
 62
3
 10
-488.692940654325870
 20
-151.980826000818040
 40
1.499999999999926
 50
59.999999999998380
 51
155.531071524840400
  0
LINE
  8
0
  6
CONTINUOUS
 62
3
 10
-485.331757055341310
 20
-152.189355448918580
 11
-487.942940654325870
 21
-150.681787895141470
  0
LINE
  8
0
  6
CONTINUOUS
 62
3
 10
-477.044906528856470
 20
-156.973770831118800
 11
-479.665674770925310
 21
-155.460669581076640
  0
ARC
  8
0
  6
CONTINUOUS
 62
3
 10
-486.081757055341540
 20
-153.488393554595150
 40
1.499999999999855
 50
335.963570118319300
 51
59.999999999990862
  0
ARC
  8
0
  6
CONTINUOUS
 62
3
 10
-480.415674770925310
 20
-156.759707686753440
 40
1.500000000000123
 50
60.000000000002721
 51
157.180755781457980
  0
ARC
  8
0
  6
CONTINUOUS
 62
3
 10
-477.794906528856470
 20
-158.272808936795370
 40
1.500000000000110
 50
337.928141766202600
 51
59.999999999998380
  0
ARC
  8
0
  6
CONTINUOUS
 62
3
 10
-450.920220601190980
 20
-169.170113938002690
 40
27.499999999999886
 50
157.928141766202200
 51
202.071858233798680
  0
ARC
  8
0
  6
CONTINUOUS
 62
3
 10
-450.920220601190290
 20
-169.170113938003140
 40
37.000000000000156
 50
155.963570118321120
 51
204.036429881678230
  0
ARC
  8
0
  6
CONTINUOUS
 62
3
 10
-450.920220601190290
 20
-169.170113938003140
 40
43.000000000000121
 50
155.531071524839230
 51
204.468928475160200
  0
ARC
  8
0
  6
CONTINUOUS
 62
3
 10
-450.920220601190290
 20
-169.170113938003140
 40
33.499999999999794
 50
157.180755781458400
 51
202.819244218540940
  0
ARC
  8
0
  6
CONTINUOUS
 62
3
 10
-477.794906528856250
 20
-180.067418939210000
 40
1.500000000000320
 50
299.999999999992950
 51
22.071858233784546
  0
ARC
  8
0
  6
CONTINUOUS
 62
3
 10
-488.692940654325870
 20
-186.359401875187560
 40
1.500000000000128
 50
204.468928475167470
 51
299.999999999992950
  0
LINE
  8
0
  6
CONTINUOUS
 62
3
 10
-487.942940654325870
 20
-187.658439980864590
 11
-485.331757055341770
 21
-186.150872427087250
  0
ARC
  8
0
  6
CONTINUOUS
 62
3
 10
-486.081757055341770
 20
-184.851834321410680
 40
1.499999999999926
 50
300.000000000001590
 51
24.036429881677126
  0
LINE
  8
0
  6
CONTINUOUS
 62
3
 10
-479.665674770925530
 20
-182.879558294928960
 11
-477.044906528856250
 21
-181.366457044887030
  0
ARC
  8
0
  6
CONTINUOUS
 62
3
 10
-480.415674770925530
 20
-181.580520189252380
 40
1.500000000000157
 50
202.819244218546660
 51
300.000000000001590
  0
ARC
  8
0
  6
CONTINUOUS
 62
3
 10
-484.692940654325410
 20
-145.052622770542000
 40
1.499999999999976
 50
144.468928475160790
 51
240.000000000002730
  0
LINE
  8
0
  6
CONTINUOUS
 62
3
 10
-482.831757055341310
 20
-147.859228429995910
 11
-485.442940654325410
 21
-146.351660876218800
  0
LINE
  8
0
  6
CONTINUOUS
 62
3
 10
-474.544906528856250
 20
-152.643643812196130
 11
-477.165674770925080
 21
-151.130542562153980
  0
ARC
  8
0
  6
CONTINUOUS
 62
3
 10
-482.081757055341310
 20
-146.560190324319110
 40
1.500000000000123
 50
240.000000000002730
 51
324.036429881683720
  0
ARC
  8
0
  6
CONTINUOUS
 62
3
 10
-476.415674770925080
 20
-149.831504456477400
 40
1.500000000000103
 50
142.819244218542510
 51
239.999999999998410
  0
ARC
  8
0
  6
CONTINUOUS
 62
3
 10
-473.794906528856250
 20
-151.344605706519560
 40
1.499999999999926
 50
239.999999999998410
 51
322.071858233800300
  0
ARC
  8
0
  6
CONTINUOUS
 62
3
 10
-450.920220601190070
 20
-169.170113938002690
 40
37.000000000000099
 50
95.963570118321798
 51
144.036429881678830
  0
ARC
  8
0
  6
CONTINUOUS
 62
3
 10
-450.920220601190070
 20
-169.170113938002690
 40
43.000000000000043
 50
95.531071524839788
 51
144.468928475160770
  0
ARC
  8
0
  6
CONTINUOUS
 62
3
 10
-450.920220601190070
 20
-169.170113938002690
 40
33.499999999999950
 50
97.180755781459069
 51
142.819244218541740
  0
ARC
  8
0
  6
CONTINUOUS
 62
3
 10
-454.920220601190520
 20
-140.447300705312240
 40
1.499999999999998
 50
277.928141766204020
 51
0.000000000000000
  0
ARC
  8
0
  6
CONTINUOUS
 62
3
 10
-494.868808031473010
 20
-119.073499470474380
 40
6.599999999999971
 50
98.597082237248614
 51
134.999999999998610
  0
ARC
  8
0
  6
CONTINUOUS
 62
4
 10
-489.861738556572620
 20
-129.061336397415940
 40
5.999999999999923
 50
97.897988672425626
 51
134.999999999996930
  0
ARC
  8
0
  6
CONTINUOUS
 62
4
 10
-450.920220601190520
 20
-409.770113938002620
 40
289.396999999999930
 50
90.000000000000000
 51
97.897988672427743
  0
LINE
  8
0
  6
CONTINUOUS
 62
3
 10
-387.420220601190520
 20
-201.774857624279410
 11
-384.394043652882600
 21
-201.695614392056570
  0
ARC
  8
0
  6
CONTINUOUS
 62
3
 10
-384.420220601190520
 20
-200.695957067081030
 40
0.999999999999988
 50
271.500000000002730
 51
0.000000000000000
  0
ARC
  8
0
  6
CONTINUOUS
 62
3
 10
-384.420220601190520
 20
-137.644270808924350
 40
1.000000000000000
 50
0.000000000000000
 51
88.499999999997257
  0
LINE
  8
0
  6
CONTINUOUS
 62
3
 10
-383.420220601190520
 20
-200.695957067081030
 11
-383.420220601190520
 21
-137.644270808924350
  0
LINE
  8
0
  6
CONTINUOUS
 62
3
 10
-387.420220601190520
 20
-136.565370251725970
 11
-384.394043652882600
 21
-136.644613483948800
  0
LINE
  8
0
  6
CONTINUOUS
 62
3
 10
-387.420220601190520
 20
-139.177614875735880
 11
-387.420220601190520
 21
-136.565370251725970
  0
LINE
  8
0
  6
CONTINUOUS
 62
3
 10
-387.420220601190520
 20
-199.162613000269490
 11
-387.420220601190520
 21
-201.774857624279410
  0
LINE
  8
0
  6
CONTINUOUS
 62
3
 10
-383.420220601190520
 20
-169.170113938002690
 11
-383.420220601190520
 21
-138.170113938002690
  0
LINE
  8
0
  6
CONTINUOUS
 62
3
 10
-383.420220601190520
 20
-169.170113938002690
 11
-383.420220601190520
 21
-200.170113938002690
  0
ARC
  8
0
  6
CONTINUOUS
 62
3
 10
-378.150120616975070
 20
-127.593788398115260
 40
1.000000000000041
 50
24.000000000003585
 51
113.999999999979760
  0
LINE
  8
0
  6
CONTINUOUS
 62
4
 10
-337.492279571570410
 20
-225.796855873254090
 11
-341.329170493669380
 21
-227.505149774172390
  0
LINE
  8
0
  6
CONTINUOUS
 62
4
 10
-338.834510493720930
 20
-222.782155863033470
 11
-342.671401415819670
 21
-224.490449763951770
  0
LINE
  8
0
  6
CONTINUOUS
 62
3
 10
-342.494018330721250
 20
-224.028351028700370
 11
-342.671401415819670
 21
-224.490449763951770
  0
LINE
  8
0
  6
CONTINUOUS
 62
3
 10
-340.867071758418210
 20
-227.682532859270370
 11
-341.329170493669610
 21
-227.505149774171940
  0
LINE
  8
0
  6
CONTINUOUS
 62
3
 10
-342.671401415819670
 20
-224.490449763951770
 11
-341.329170493669610
 21
-227.505149774171940
  0
LINE
  8
0
  6
CONTINUOUS
 62
3
 10
-336.115500544369300
 20
-219.546497522706400
 11
-333.268344042838410
 21
-225.941315726204690
  0
LINE
  8
0
  6
CONTINUOUS
 62
3
 10
-336.115500544369300
 20
-219.546497522706400
 11
-333.268344042838410
 21
-225.941315726204690
  0
LINE
  8
0
  6
CONTINUOUS
 62
3
 10
-333.268344042838410
 20
-225.941315726204690
 11
-332.373959923161920
 21
-225.543110260440220
  0
LINE
  8
0
  6
CONTINUOUS
 62
3
 10
-336.115500544369300
 20
-219.546497522706400
 11
-335.221116424692810
 21
-219.148292056942150
  0
ARC
  8
0
  6
CONTINUOUS
 62
3
 10
-334.692359099009760
 20
-220.335900454897650
 40
1.299999237060495
 50
40.601531107483851
 51
114.000000683246080
  0
LINE
  8
0
  6
CONTINUOUS
 62
3
 10
-380.360791602037810
 20
-129.512601410281580
 11
-380.785623761783880
 21
-130.513443258897010
  0
LINE
  8
0
  6
CONTINUOUS
 62
3
 10
-379.915877856827820
 20
-130.511894043238930
 11
-380.049219879021850
 21
-130.826028161688300
  0
LINE
  8
0
  6
CONTINUOUS
 62
3
 10
-380.785623761783880
 20
-130.513443258897010
 11
-380.049219879021850
 21
-130.826028161688300
  0
LINE
  8
0
  6
CONTINUOUS
 62
3
 10
-377.236575159332460
 20
-127.187051755039390
 11
-358.544511578383660
 21
-169.170113938002690
  0
ARC
  8
0
  6
CONTINUOUS
 62
3
 10
-372.713659337537140
 20
-129.969907009341770
 40
3.000000000000030
 50
203.999999999999630
 51
260.681876880317470
  0
LINE
  8
0
  6
CONTINUOUS
 62
3
 10
-373.199407227975830
 20
-132.930320660663910
 11
-347.243770134439730
 21
-137.189149813656940
  0
ARC
  8
0
  6
CONTINUOUS
 62
3
 10
-349.672509586631350
 20
-151.991218070267880
 40
15.000000000000393
 50
1.682768801133086
 51
80.681876880324481
  0
ARC
  8
0
  6
CONTINUOUS
 62
3
 10
-934.420220601190520
 20
-169.170113938002910
 40
600.000000000000910
 50
355.284875165908370
 51
1.682768801133149
  0
ARC
  8
0
  6
CONTINUOUS
 62
3
 10
-335.454171608878820
 20
-218.573273295889270
 40
0.999999999999983
 50
175.284875165916760
 51
204.000000000003580
  0
LINE
  8
0
  6
CONTINUOUS
 62
3
 10
-378.556857260050490
 20
-126.680242940472650
 11
-381.114784541449810
 21
-127.819105541084780
  0
LINE
  8
0
  6
CONTINUOUS
 62
3
 10
-378.837059340230100
 20
-132.934960103885690
 11
-380.640430530416780
 21
-133.737872688015810
  0
ARC
  8
0
  6
CONTINUOUS
 62
3
 10
-379.420220601190520
 20
-136.478509060943650
 40
2.999999999999567
 50
113.999999999979760
 51
180.000000000000000
  0
LINE
  8
0
  6
CONTINUOUS
 62
3
 10
-383.420220601190520
 20
-138.170113938002690
 11
-382.420220601190520
 21
-138.170113938002690
  0
ARC
  8
0
  6
CONTINUOUS
 62
3
 10
-377.420220601190520
 20
-210.670113938002690
 40
5.000000000000000
 50
180.000000000000000
 51
270.000000000000000
  0
LINE
  8
0
  6
CONTINUOUS
 62
3
 10
-377.420220601190520
 20
-215.670113938002690
 11
-342.000995569861740
 21
-215.670113938002690
  0
LINE
  8
0
  6
CONTINUOUS
 62
3
 10
-332.839658578330270
 20
-229.362752379500960
 11
-335.397585859730040
 21
-230.501614980113090
  0
ARC
  8
0
  6
CONTINUOUS
 62
3
 10
-333.246395221406600
 20
-228.449206921858350
 40
1.000000000000226
 50
294.000000000027340
 51
23.999999999991683
  0
LINE
  8
0
  6
CONTINUOUS
 62
3
 10
-358.544511578386850
 20
-169.170113938002690
 11
-332.332849763763990
 21
-228.042470278782700
  0
ARC
  8
0
  6
CONTINUOUS
 62
3
 10
-336.625533337492020
 20
-215.942351777881380
 40
0.999999999999856
 50
113.999999999979760
 51
204.000000000003580
  0
ARC
  8
0
  6
CONTINUOUS
 62
3
 10
-338.050207004771440
 20
-213.292748526239820
 40
2.000000000000451
 50
294.000000000027340
 51
355.768661925113970
  0
LINE
  8
0
  6
CONTINUOUS
 62
3
 10
-338.976868318797410
 20
-222.462414952858550
 11
-342.494018330721250
 21
-224.028351028700370
  0
LINE
  8
0
  6
CONTINUOUS
 62
3
 10
-337.349921746494150
 20
-226.116596783428550
 11
-340.867071758418210
 21
-227.682532859270370
  0
LINE
  8
0
  6
CONTINUOUS
 62
3
 10
-383.420220601190520
 20
-200.170113938002690
 11
-382.420220601190520
 21
-200.170113938002690
  0
LINE
  8
0
  6
CONTINUOUS
 62
3
 10
-382.420220601190520
 20
-136.478509060943650
 11
-382.420220601190520
 21
-210.670113938002690
  0
ARC
  8
0
  6
CONTINUOUS
 62
3
 10
-934.420220601190520
 20
-169.170113938002910
 40
600.799999999999950
 50
357.158610984636650
 51
0.587807867706885
  0
ARC
  8
0
  6
CONTINUOUS
 62
3
 10
-335.357621372405900
 20
-198.902961182296590
 40
1.000000000000147
 50
303.952126946381380
 51
357.158610984632960
  0
ARC
  8
0
  6
CONTINUOUS
 62
3
 10
-334.240621347793420
 20
-200.561970207291750
 40
0.999999999999769
 50
123.952126946395960
 51
177.005923909151190
  0
ARC
  8
0
  6
CONTINUOUS
 62
3
 10
-333.470412931640340
 20
-161.402961182296590
 40
0.999999999999967
 50
180.740494943192910
 51
233.794291905968890
  0
ARC
  8
0
  6
CONTINUOUS
 62
3
 10
-334.651785047916750
 20
-163.016764120354740
 40
1.000000000000077
 50
0.587807867721716
 51
53.794291905958382
  0
LINE
  8
0
  6
CONTINUOUS
 62
3
 10
-381.114784541455040
 20
-127.819105541087050
 11
-335.397585859730040
 21
-230.501614980113090
  0
LINE
  8
0
  6
DASHDOT
 62
4
 10
-358.420220601190520
 20
-201.287590158296980
 11
-358.420220601190520
 21
-224.156099334060600
  0
ARC
  8
0
  6
CONTINUOUS
 62
3
 10
-332.902717248845190
 20
-224.355501862484720
 40
1.299999237060559
 50
293.999982013920090
 51
7.398451589679256
  0
ARC
  8
0
  6
CONTINUOUS
 62
3
 10
-340.538612874026510
 20
-225.347020984983350
 40
9.000000000000234
 50
7.398451589678908
 51
40.601531107483503
  0
LINE
  8
0
  6
DASHDOT
 62
4
 10
-471.723668923918010
 20
-159.670113938000870
 11
-427.010753034777740
 21
-159.670113938000870
  0
LINE
  8
0
  6
DASHDOT
 62
4
 10
-593.374806803058160
 20
-169.170113938002690
 11
-308.778315047849900
 21
-169.170113938002690
  0
INSERT
  8
0
  2
SYM3
 10
-514.559830907980090
 20
-263.309724244790000
  0
INSERT
  8
0
  2
SYM4
 10
-387.280610294400960
 20
-263.309724244790000
  0
LINE
  8
0
  6
CONTINUOUS
 62
3
 10
-450.920220601190520
 20
-99.670113938000867
 11
-458.920220601190520
 21
-99.670113938000867
  0
LINE
  8
0
  6
CONTINUOUS
 62
3
 10
-462.793203947398070
 20
-102.670113938000860
 11
-468.920220601191430
 21
-102.670113938000860
  0
LINE
  8
0
  6
CONTINUOUS
 62
3
 10
-450.920220601190520
 20
-99.670113938000867
 11
-442.920220601190980
 21
-99.670113938000867
  0
LINE
  8
0
  6
CONTINUOUS
 62
3
 10
-439.047237254983430
 20
-102.670113938000860
 11
-432.920220601190070
 21
-102.670113938000860
  0
LINE
  8
0
  6
CONTINUOUS
 62
3
 10
-450.920220601190520
 20
-299.670113938000900
 11
-458.920220601190520
 21
-299.670113938000900
  0
LINE
  8
0
  6
CONTINUOUS
 62
3
 10
-450.920220601190520
 20
-299.670113938000900
 11
-442.920220601190980
 21
-299.670113938000900
  0
LINE
  8
0
  6
CONTINUOUS
 62
3
 10
-548.920220601191430
 20
-199.670113938000870
 11
-548.920220601191430
 21
-216.670113938000870
  0
LINE
  8
0
  6
CONTINUOUS
 62
3
 10
-548.920220601191430
 20
-199.670113938000870
 11
-548.920220601191430
 21
-182.670113938000870
  0
LINE
  8
0
  6
CONTINUOUS
 62
3
 10
-352.920220601190070
 20
-215.670113938002690
 11
-352.920220601190070
 21
-216.670113938000870
  0
ARC
  8
0
  6
CONTINUOUS
 62
3
 10
-468.920220601191430
 20
-216.670113938000870
 40
80.000000000000000
 50
202.119118468599990
 51
242.258787150594940
  0
ARC
  8
0
  6
CONTINUOUS
 62
3
 10
-468.920220601191430
 20
-182.670113938000870
 40
80.000000000000000
 50
90.000000000000000
 51
180.000000000000000
  0
ARC
  8
0
  6
CONTINUOUS
 62
3
 10
-458.920220601190520
 20
-101.670113938000860
 40
2.000000000000000
 50
90.000000000000000
 51
165.522487814070560
  0
ARC
  8
0
  6
CONTINUOUS
 62
3
 10
-462.793203947398070
 20
-100.670113938000860
 40
2.000000000000000
 50
270.000000000000000
 51
345.522487814070530
  0
ARC
  8
0
  6
CONTINUOUS
 62
3
 10
-432.920220601190070
 20
-182.670113938000870
 40
79.999999999999972
 50
37.939692129195038
 51
90.000000000000000
  0
ARC
  8
0
  6
CONTINUOUS
 62
3
 10
-442.920220601190980
 20
-101.670113938000860
 40
2.000000000000063
 50
14.477512185929456
 51
90.000000000000000
  0
ARC
  8
0
  6
CONTINUOUS
 62
3
 10
-439.047237254983430
 20
-100.670113938000860
 40
2.000000000000063
 50
194.477512185929440
 51
270.000000000000000
  0
ARC
  8
0
  6
CONTINUOUS
 62
3
 10
-442.920220601190980
 20
-297.670113938000900
 40
2.000000000000000
 50
270.000000000000000
 51
345.522487814070530
  0
ARC
  8
0
  6
CONTINUOUS
 62
3
 10
-439.047237254983430
 20
-298.670113938000900
 40
2.000000000000000
 50
90.000000000000000
 51
165.522487814070560
  0
ARC
  8
0
  6
CONTINUOUS
 62
3
 10
-468.920220601191430
 20
-216.670113938000870
 40
80.000000000000000
 50
180.000000000000000
 51
202.119118468599990
  0
ARC
  8
0
  6
CONTINUOUS
 62
3
 10
-458.920220601190520
 20
-297.670113938000900
 40
2.000000000000063
 50
194.477512185929440
 51
270.000000000000000
  0
ARC
  8
0
  6
CONTINUOUS
 62
3
 10
-462.793203947398070
 20
-298.670113938000900
 40
2.000000000000063
 50
14.477512185929456
 51
90.000000000000000
  0
ARC
  8
0
  6
CONTINUOUS
 62
3
 10
-432.920220601190070
 20
-216.670113938000870
 40
79.999999999999886
 50
323.661143755959020
 51
0.000000000000000
  0
ARC
  8
0
  6
CONTINUOUS
 62
3
 10
-450.920220601190520
 20
-199.670113938000870
 40
35.000000000000092
 50
235.503770534084790
 51
304.496229465915180
  0
ARC
  8
0
  6
CONTINUOUS
 62
3
 10
-420.420220601190520
 20
-228.264752089138450
 40
3.000000000000032
 50
173.162860976798130
 51
180.000000000000000
  0
ARC
  8
0
  6
CONTINUOUS
 62
3
 10
-431.420220601190520
 20
-232.285294452601850
 40
3.000000000000000
 50
0.000000000000000
 51
120.874405407570700
  0
ARC
  8
0
  6
CONTINUOUS
 62
3
 10
-470.420220601190520
 20
-232.285294452601850
 40
3.000000000000230
 50
59.125594592429294
 51
180.000000000000000
  0
ARC
  8
0
  6
CONTINUOUS
 62
3
 10
-481.420220601190520
 20
-228.264752089138450
 40
3.000000000000000
 50
0.000000000000000
 51
6.837139023201846
  0
ARC
  8
0
  6
CONTINUOUS
 62
3
 10
-387.280610294400960
 20
-263.309724244790000
 40
9.999999999999989
 50
58.384308452267781
 51
211.615691547733350
  0
ARC
  8
0
  6
CONTINUOUS
 62
3
 10
-380.989980517592810
 20
-253.090723461389870
 40
1.999999999999921
 50
238.384308452266400
 51
322.623325274950450
  0
ARC
  8
0
  6
CONTINUOUS
 62
3
 10
-397.499611077801090
 20
-269.600354021598150
 40
1.999999999999890
 50
307.376674725047000
 51
31.615691547728044
  0
ARC
  8
0
  6
CONTINUOUS
 62
3
 10
-514.559830907980090
 20
-263.309724244790000
 40
10.000000000000108
 50
328.384308452266620
 51
121.615691547732220
  0
ARC
  8
0
  6
CONTINUOUS
 62
3
 10
-520.850460684788230
 20
-253.090723461389870
 40
1.999999999999958
 50
217.376674725049580
 51
301.615691547733600
  0
ARC
  8
0
  6
CONTINUOUS
 62
3
 10
-504.340830124579840
 20
-269.600354021598150
 40
1.999999999999898
 50
148.384308452273670
 51
232.623325274952980
  0
ARC
  8
0
  6
CONTINUOUS
 62
3
 10
-514.559830907980090
 20
-136.030503631211760
 40
9.999999999999989
 50
238.384308452267760
 51
267.319870332125790
  0
ARC
  8
0
  6
CONTINUOUS
 62
3
 10
-520.850460684788230
 20
-146.249504414611890
 40
1.999999999999921
 50
58.384308452266424
 51
142.623325274950420
  0
INSERT
  8
0
  2
SYM5
 10
-440.420220601190520
 20
-67.670113938000867
  0
INSERT
  8
0
  2
SYM5
 10
-400.920220601190520
 20
-68.670114750894044
  0
INSERT
  8
0
  2
SYM5
 10
-329.920220601190520
 20
-137.670114750893820
  0
INSERT
  8
0
  2
SYM5
 10
-373.420220601190520
 20
-319.670113938000440
  0
INSERT
  8
0
  2
SYM5
 10
-443.420220601190520
 20
-319.670113938000440
  0
INSERT
  8
0
  2
SYM5
 10
-528.420220601190070
 20
-319.670113938000440
 41
-1.000000000000000
  0
INSERT
  8
0
  2
SYM5
 10
-461.420220601190520
 20
-67.670113938000867
 41
-1.000000000000000
  0
INSERT
  8
0
  2
SYM5
 10
-500.920220601190070
 20
-68.670114750894044
 41
-1.000000000000000
  0
INSERT
  8
0
  2
SYM5
 10
-571.920220601190070
 20
-137.670114750893820
 41
-1.000000000000000
  0
INSERT
  8
0
  2
SYM5
 10
-572.920220601190520
 20
-227.670113938000410
 41
-1.000000000000000
  0
ARC
  8
0
  6
CONTINUOUS
 62
3
 10
-548.825034968479940
 20
-89.744484290541294
 40
4.999999999999923
 50
133.973975518351350
 51
225.000000000000000
  0
ARC
  8
0
  6
CONTINUOUS
 62
3
 10
-560.083956613740160
 20
-102.527193205623880
 40
5.000000000000201
 50
45.000000000000000
 51
143.279272265286270
  0
LINE
  8
0
  6
CONTINUOUS
 62
3
 10
-572.920220601190980
 20
-190.670113938000410
 11
-582.920220601190520
 21
-190.670113938000410
  0
LINE
  8
0
  6
CONTINUOUS
 62
3
 10
-572.920220601190980
 20
-216.670113938000410
 11
-582.289399995164330
 21
-216.670113938000410
  0
LINE
  8
0
  6
CONTINUOUS
 62
3
 10
-585.241408639891230
 20
-220.243760127161490
 11
-569.828204254033150
 21
-277.885715636991110
  0
ARC
  8
0
  6
CONTINUOUS
 62
3
 10
-544.927267445882530
 20
-305.697976062862840
 40
4.999999999999718
 50
134.999999999998150
 51
228.768523924275400
  0
ARC
  8
0
  6
CONTINUOUS
 62
3
 10
-556.313711758692990
 20
-293.042789815330710
 40
5.000000000000048
 50
215.189773733129640
 51
315.000000000001820
  0
ARC
  8
0
  6
CONTINUOUS
 62
3
 10
-582.920220601190520
 20
-187.670113938000410
 40
3.000000000000000
 50
180.000000000000000
 51
270.000000000000000
  0
ARC
  8
0
  6
CONTINUOUS
 62
3
 10
-572.920220601190980
 20
-203.670113938000410
 40
13.000000000000000
 50
270.000000000000000
 51
90.000000000000000
  0
ARC
  8
0
  6
CONTINUOUS
 62
3
 10
-582.289399995164330
 20
-219.670113938000410
 40
3.000000000000000
 50
90.000000000000000
 51
194.970401305463840
  0
ARC
  8
0
  6
CONTINUOUS
 62
3
 10
-497.471872453517790
 20
-251.550164600914970
 40
77.000000000000270
 50
199.999999999999660
 51
234.885533069884020
  0
ARC
  8
0
  6
CONTINUOUS
 62
3
 10
-546.364876548768730
 20
-321.080547531988940
 40
8.000000000000373
 50
4.494156527999717
 51
54.885533069884232
  0
ARC
  8
0
  6
CONTINUOUS
 62
3
 10
-528.420220601190520
 20
-319.670113938000440
 40
9.999999999999778
 50
184.494156527999370
 51
233.130102354155980
  0
ARC
  8
0
  6
CONTINUOUS
 62
3
 10
-565.920220601190980
 20
-215.077359758123040
 40
20.000000000000000
 50
180.000000000000000
 51
194.970401305464950
  0
LINE
  8
0
  6
CONTINUOUS
 62
3
 10
-369.692972034748890
 20
-285.847109972747150
 11
-353.377639850566080
 21
-302.162442156929960
  0
LINE
  8
0
  6
CONTINUOUS
 62
3
 10
-365.684731597602880
 20
-279.955855473281640
 11
-349.062263349620930
 21
-296.578323721263130
  0
LINE
  8
0
  6
CONTINUOUS
 62
3
 10
-468.420220601190520
 20
-79.670113938000867
 11
-450.920220601190520
 21
-79.670113938000867
  0
LINE
  8
0
  6
CONTINUOUS
 62
3
 10
-450.920220601190520
 20
-79.670113938000867
 11
-433.420220601190520
 21
-79.670113938000867
  0
LINE
  8
0
  6
CONTINUOUS
 62
3
 10
-447.420220601190520
 20
-84.670113938000867
 11
-447.420220601190520
 21
-94.687993916116483
  0
LINE
  8
0
  6
CONTINUOUS
 62
3
 10
-454.420220601190520
 20
-84.670113938000867
 11
-454.420220601190520
 21
-94.687993916116483
  0
LINE
  8
0
  6
CONTINUOUS
 62
3
 10
-371.094403619331390
 20
-124.794044424448170
 11
-345.292018494573770
 21
-98.991659299691008
  0
LINE
  8
0
  6
CONTINUOUS
 62
3
 10
-376.144658417602840
 20
-119.944804286108330
 11
-349.479872327968220
 21
-93.280018196474174
  0
LINE
  8
0
  6
CONTINUOUS
 62
3
 10
-525.695782784778200
 20
-119.944804286108330
 11
-552.360568874412820
 21
-93.280018196474174
  0
LINE
  8
0
  6
CONTINUOUS
 62
3
 10
-530.746037583049660
 20
-124.794044424448170
 11
-556.548422707807280
 21
-98.991659299691008
  0
LINE
  8
0
  6
CONTINUOUS
 62
3
 10
-525.695782784778200
 20
-279.395423589893430
 11
-548.462801351814960
 21
-302.162442156930180
  0
LINE
  8
0
  6
CONTINUOUS
 62
3
 10
-530.746037583049660
 20
-274.546183451553590
 11
-552.778177852760110
 21
-296.578323721263360
  0
LINE
  8
0
  6
CONTINUOUS
 62
3
 10
-328.920220601190070
 20
-190.670113938000410
 11
-318.920220601190520
 21
-190.670113938000410
  0
LINE
  8
0
  6
CONTINUOUS
 62
3
 10
-328.920220601190070
 20
-216.670113938000410
 11
-319.551041207216710
 21
-216.670113938000410
  0
LINE
  8
0
  6
CONTINUOUS
 62
3
 10
-316.599032562490720
 20
-220.243760127161490
 11
-332.012236948348800
 21
-277.885715636991110
  0
ARC
  8
0
  6
CONTINUOUS
 62
3
 10
-468.420220601190520
 20
-76.670113938000867
 40
3.000000000000000
 50
180.000000000000000
 51
270.000000000000000
  0
ARC
  8
0
  6
CONTINUOUS
 62
3
 10
-433.420220601190520
 20
-76.670113938000867
 40
3.000000000000000
 50
270.000000000000000
 51
0.000000000000000
  0
ARC
  8
0
  6
CONTINUOUS
 62
3
 10
-459.420220601190520
 20
-84.670113938000867
 40
5.000000000000000
 50
0.000000000000000
 51
90.000000000000000
  0
ARC
  8
0
  6
CONTINUOUS
 62
3
 10
-442.420220601190520
 20
-84.670113938000867
 40
5.000000000000000
 50
90.000000000000000
 51
180.000000000000000
  0
ARC
  8
0
  6
CONTINUOUS
 62
3
 10
-341.756484588640890
 20
-102.527193205623880
 40
4.999999999999919
 50
36.720727734713748
 51
135.000000000000000
  0
ARC
  8
0
  6
CONTINUOUS
 62
3
 10
-353.015406233901100
 20
-89.744484290541294
 40
5.000000000000201
 50
315.000000000000000
 51
46.026024481648633
  0
ARC
  8
0
  6
CONTINUOUS
 62
3
 10
-345.526729443688050
 20
-293.042789815330480
 40
5.000000000000041
 50
224.999999999998180
 51
324.810226266867350
  0
ARC
  8
0
  6
CONTINUOUS
 62
3
 10
-356.913173756498510
 20
-305.697976062862610
 40
4.999999999999997
 50
311.231476075718940
 51
45.000000000001855
  0
ARC
  8
0
  6
CONTINUOUS
 62
3
 10
-318.920220601190520
 20
-187.670113938000410
 40
3.000000000000000
 50
270.000000000000000
 51
0.000000000000000
  0
ARC
  8
0
  6
CONTINUOUS
 62
3
 10
-328.920220601190070
 20
-203.670113938000410
 40
13.000000000000000
 50
90.000000000000000
 51
113.210423839732210
  0
ARC
  8
0
  6
CONTINUOUS
 62
3
 10
-319.551041207216710
 20
-219.670113938000410
 40
2.999999999999921
 50
345.029598694536160
 51
90.000000000000000
  0
ARC
  8
0
  6
CONTINUOUS
 62
3
 10
-373.420220601190520
 20
-319.670113938000440
 40
10.000000000000000
 50
306.869897645843990
 51
355.505843472000610
  0
ARC
  8
0
  6
CONTINUOUS
 62
3
 10
-355.475564653612310
 20
-321.080547531988940
 40
7.999999999999969
 50
125.114466930115760
 51
175.505843472000290
  0
ARC
  8
0
  6
CONTINUOUS
 62
3
 10
-404.368568748863250
 20
-251.550164600914970
 40
77.000000000000085
 50
305.114466930115950
 51
340.000000000000340
  0
ARC
  8
0
  6
CONTINUOUS
 62
3
 10
-335.920220601190520
 20
-215.077359758123040
 40
19.999999999999925
 50
345.029598694534740
 51
0.000000000000000
  0
ARC
  8
0
  6
CONTINUOUS
 62
3
 10
-404.368568748863250
 20
-251.550164600914970
 40
44.000000000000099
 50
258.506801628087090
 51
319.912288498426220
  0
ARC
  8
0
  6
CONTINUOUS
 62
3
 10
-355.368641060397750
 20
-251.465983099844830
 40
4.999999999999810
 50
155.835163798775620
 51
180.098433614223640
  0
ARC
  8
0
  6
CONTINUOUS
 62
3
 10
-367.558869713398510
 20
-128.329578330380830
 40
5.000000000000041
 50
135.000000000001820
 51
219.739673259816950
  0
ARC
  8
0
  6
CONTINUOUS
 62
3
 10
-379.680192323535720
 20
-116.409270380175680
 40
4.999999999999913
 50
231.218416769275730
 51
315.000000000001820
  0
ARC
  8
0
  6
CONTINUOUS
 62
3
 10
-522.160248878845320
 20
-116.409270380175680
 40
5.000000000000041
 50
224.999999999998180
 51
308.781583230722620
  0
ARC
  8
0
  6
CONTINUOUS
 62
3
 10
-534.281571488982540
 20
-128.329578330380830
 40
5.000000000000097
 50
320.260326740183070
 51
44.999999999998167
  0
ARC
  8
0
  6
CONTINUOUS
 62
3
 10
-362.149197691670450
 20
-276.420321567348760
 40
4.999999999999973
 50
149.498945295270290
 51
225.000000000003690
  0
ARC
  8
0
  6
CONTINUOUS
 62
3
 10
-373.228505940681770
 20
-289.382643878679800
 40
5.000000000000041
 50
44.999999999998167
 51
129.457930749409770
  0
ARC
  8
0
  6
CONTINUOUS
 62
3
 10
-404.368568748863250
 20
-251.550164600914970
 40
44.000000000000071
 50
319.912288498426220
 51
0.098433614225120
  0
ARC
  8
0
  6
CONTINUOUS
 62
3
 10
-534.281571488982540
 20
-271.010649545620940
 40
5.000000000000041
 50
315.000000000001820
 51
39.739673259818957
  0
ARC
  8
0
  6
CONTINUOUS
 62
3
 10
-522.160248878845320
 20
-282.930957495826080
 40
5.000000000000090
 50
51.218416769277368
 51
135.000000000001820
  0
ARC
  8
0
  6
CONTINUOUS
 62
3
 10
-442.420220601190520
 20
-94.687993916116483
 40
5.000000000000000
 50
180.000000000000000
 51
265.903956241844530
  0
ARC
  8
0
  6
CONTINUOUS
 62
3
 10
-459.420220601190520
 20
-94.687993916116483
 40
4.999999999999828
 50
274.096043758155470
 51
0.000000000000000
  0
LINE
  8
0
  6
CONTINUOUS
 62
3
 10
-430.420220601190520
 20
-55.020425348823636
 11
-430.420220601190520
 21
-76.670113938000867
  0
ARC
  8
0
  6
CONTINUOUS
 62
3
 10
-450.920220601190520
 20
-654.670114750894530
 40
600.000000000000000
 50
87.075476210271731
 51
88.042013127606680
  0
LINE
  8
0
  6
CONTINUOUS
 62
3
 10
-471.420220601190520
 20
-55.020425348823636
 11
-471.420220601190520
 21
-76.670113938000867
  0
ARC
  8
0
  6
CONTINUOUS
 62
3
 10
-440.420220601189610
 20
-29.670113938000867
 40
10.000000000000000
 50
0.000000000000000
 51
90.000000000000000
  0
LINE
  8
0
  6
CONTINUOUS
 62
3
 10
-430.420220601189610
 20
-29.670113938000867
 11
-430.420220601189610
 21
-55.020424535929550
  0
ARC
  8
0
  6
CONTINUOUS
 62
3
 10
-461.420220601189610
 20
-29.670113938000867
 40
10.000000000000000
 50
90.000000000000000
 51
180.000000000000000
  0
LINE
  8
0
  6
CONTINUOUS
 62
3
 10
-471.420220601189610
 20
-29.670113938000867
 11
-471.420220601189610
 21
-55.020424535929550
  0
LINE
  8
0
  6
CONTINUOUS
 62
3
 10
-440.420220601189610
 20
-19.670113938000867
 11
-461.420220601189610
 21
-19.670113938000867
  0
LINE
  8
0
  6
DASHDOT
 62
4
 10
-427.752307602308060
 20
-39.670113938000640
 11
-474.774821503842760
 21
-39.670113938000640
  0
CIRCLE
  8
0
  6
CONTINUOUS
 62
3
 10
-450.920220601189610
 20
-39.670113938000640
 40
10.000000000000000
  0
LINE
  8
0
  6
DASHDOT
 62
4
 10
-450.920220601190520
 20
-11.527066129800659
 11
-450.920220601190520
 21
-337.619903985026440
  0
ARC
  8
0
  6
CONTINUOUS
 62
3
 10
-312.920220601190520
 20
-304.670113938000670
 40
3.000000000000000
 50
180.000000000000000
 51
270.000000000000000
  0
LINE
  8
0
  6
CONTINUOUS
 62
3
 10
-315.920220601190520
 20
-165.308285426212000
 11
-315.920220601190520
 21
-304.670113938000670
  0
LINE
  8
0
  6
CONTINUOUS
 62
3
 10
-585.920220601190980
 20
-165.308285426212000
 11
-585.920220601190980
 21
-304.670113938000670
  0
LINE
  8
0
  6
CONTINUOUS
 62
3
 10
-308.420220601190520
 20
-310.670113938000670
 11
-308.420220601190520
 21
-329.670113938000670
  0
LINE
  8
0
  6
DASHDOT
 62
4
 10
-325.920220601190520
 20
-303.457281563427840
 11
-325.920220601190520
 21
-334.302052147534600
  0
ARC
  8
0
  6
CONTINUOUS
 62
3
 10
-311.420220601190520
 20
-310.670113938000670
 40
3.000000000000000
 50
0.000000000000000
 51
90.000000000000000
  0
LINE
  8
0
  6
CONTINUOUS
 62
3
 10
-343.296221566357420
 20
-307.670113938000670
 11
-311.420220601190520
 21
-307.670113938000670
  0
ARC
  8
0
  6
CONTINUOUS
 62
3
 10
-590.420220601190980
 20
-310.670113938000670
 40
3.000000000000000
 50
90.000000000000000
 51
180.000000000000000
  0
LINE
  8
0
  6
CONTINUOUS
 62
3
 10
-593.420220601190980
 20
-310.670113938000670
 11
-593.420220601190980
 21
-329.670113938000670
  0
LINE
  8
0
  6
CONTINUOUS
 62
3
 10
-450.920220601190520
 20
-327.670113938000670
 11
-541.420220601190980
 21
-327.670113938000670
  0
LINE
  8
0
  6
CONTINUOUS
 62
3
 10
-543.420220601190980
 20
-329.670113938000670
 11
-593.420220601190980
 21
-329.670113938000670
  0
LINE
  8
0
  6
CONTINUOUS
 62
3
 10
-543.420220601190980
 20
-323.588874557004150
 11
-543.420220601190980
 21
-329.670113938000670
  0
LINE
  8
0
  6
DASHDOT
 62
4
 10
-575.920220601190980
 20
-303.457281563427840
 11
-575.920220601190980
 21
-334.302052147534600
  0
LINE
  8
0
  6
CONTINUOUS
 62
3
 10
-558.544219636023630
 20
-307.670113938000670
 11
-590.420220601190980
 21
-307.670113938000670
  0
LINE
  8
0
  6
CONTINUOUS
 62
3
 10
-358.420220601190520
 20
-323.588874557004150
 11
-358.420220601190520
 21
-329.670113938000670
  0
LINE
  8
0
  6
CONTINUOUS
 62
3
 10
-358.420220601190520
 20
-329.670113938000670
 11
-308.420220601190520
 21
-329.670113938000670
  0
LINE
  8
0
  6
CONTINUOUS
 62
3
 10
-450.920220601190520
 20
-327.670113938000670
 11
-360.420220601190520
 21
-327.670113938000670
  0
ARC
  8
0
  6
CONTINUOUS
 62
3
 10
-588.920220601190980
 20
-304.670113938000670
 40
3.000000000000000
 50
270.000000000000000
 51
0.000000000000000
  0
ARC
  8
0
  6
CONTINUOUS
 62
3
 10
-541.420220601190980
 20
-329.670113938000670
 40
2.000000000000000
 50
90.000000000000000
 51
180.000000000000000
  0
ARC
  8
0
  6
CONTINUOUS
 62
3
 10
-360.420220601190520
 20
-329.670113938000670
 40
2.000000000000000
 50
0.000000000000000
 51
90.000000000000000
  0
ARC
  8
0
  6
CONTINUOUS
 62
3
 10
-425.920220601190070
 20
-165.308285426212000
 40
110.000000000000000
 50
0.000000000000000
 51
87.075476210271844
  0
ARC
  8
0
  6
CONTINUOUS
 62
3
 10
-475.920220601190980
 20
-165.308285426212000
 40
110.000000000000040
 50
92.924523789728156
 51
180.000000000000000
  0
ARC
  8
0
  6
CONTINUOUS
 62
3
 10
-497.471872453518240
 20
-251.550164600915200
 40
81.999999999999886
 50
200.460558063344960
 51
233.171194544115650
  0
ARC
  8
0
  6
CONTINUOUS
 62
3
 10
-551.420220601190980
 20
-323.588874557004150
 40
8.000000000000000
 50
0.000000000000000
 51
53.171194544116702
  0
ARC
  8
0
  6
CONTINUOUS
 62
3
 10
-579.920220601190980
 20
-282.311664689827470
 40
6.000000000000107
 50
20.460558063343086
 51
180.000000000000000
  0
ARC
  8
0
  6
CONTINUOUS
 62
3
 10
-558.544219636023630
 20
-310.670113938000670
 40
3.000000000000119
 50
44.069371979551811
 51
90.000000000000000
  0
ARC
  8
0
  6
CONTINUOUS
 62
3
 10
-321.920220601190070
 20
-282.311664689827470
 40
6.000000000000000
 50
0.000000000000000
 51
159.539441936656910
  0
ARC
  8
0
  6
CONTINUOUS
 62
3
 10
-404.368568748862800
 20
-251.550164600915200
 40
82.000000000000171
 50
306.828805455884380
 51
339.539441936655010
  0
ARC
  8
0
  6
CONTINUOUS
 62
3
 10
-350.420220601190070
 20
-323.588874557004150
 40
7.999999999999903
 50
126.828805455883280
 51
180.000000000000000
  0
ARC
  8
0
  6
CONTINUOUS
 62
3
 10
-343.296221566357420
 20
-310.670113938000670
 40
3.000000000000000
 50
90.000000000000000
 51
135.930628020448210
  0
ARC
  8
0
  6
CONTINUOUS
 62
3
 10
-450.920220601190520
 20
-654.670114750894530
 40
600.000000000000000
 50
91.957986872393320
 51
92.924523789728269
  0
LINE
  8
0
  6
CONTINUOUS
 62
3
 10
-514.812469286188500
 20
-143.387310025252250
 11
-521.055018560057760
 21
-139.780498535466250
  0
LINE
  8
0
  6
CONTINUOUS
 62
3
 10
-521.055020002699280
 20
-139.780497503955220
 11
-521.057423259796220
 21
-132.276338530261370
  0
LINE
  8
0
  6
CONTINUOUS
 62
3
 10
-521.057424623767470
 20
-132.276335818913680
 11
-514.562232287495930
 21
-128.526339454796330
  0
LINE
  8
0
  6
CONTINUOUS
 62
3
 10
-514.562232116347560
 20
-128.526340817404700
 11
-512.263927041608440
 21
-129.854252346321540
  0
ARC
  8
0
  6
CONTINUOUS
 62
3
 10
-514.559830907979860
 20
-136.030503631211760
 40
6.500000000000004
 50
69.643935972741531
 51
268.435835376531830
  0
LINE
  8
0
  6
CONTINUOUS
 62
3
 10
-389.577800323953970
 20
-129.851234646275030
 11
-387.283011673917260
 21
-128.526339454796330
  0
LINE
  8
0
  6
CONTINUOUS
 62
3
 10
-387.283011502768890
 20
-128.526340817404700
 11
-380.785422642323280
 21
-132.280508726957270
  0
LINE
  8
0
  6
CONTINUOUS
 62
3
 10
-380.785421199681760
 20
-132.280509758468300
 11
-380.784933865093190
 21
-133.802209717736450
  0
ARC
  8
0
  6
CONTINUOUS
 62
3
 10
-387.280610294401190
 20
-136.030503631211760
 40
6.500000000000028
 50
18.226699476751552
 51
110.356064027258460
  0
ARC
  8
0
  6
CONTINUOUS
 62
3
 10
-328.920220601190070
 20
-203.670113938000410
 40
12.999999999999776
 50
236.296430203428680
 51
270.000000000000000
  0
ARC
  8
0
  6
CONTINUOUS
 62
3
 10
-328.920220601190070
 20
-227.670113938000410
 40
5.633955001830994
 50
203.513099321093960
 51
121.736370180365070
  0
ARC
  8
0
  6
CONTINUOUS
 62
3
 10
-328.920220601190070
 20
-227.670113938000410
 40
6.500000000000004
 50
203.577974107222640
 51
119.980245938815870
  0
LINE
  8
0
  6
CONTINUOUS
 62
3
 10
-331.920217263330980
 20
-229.402159937551660
 11
-331.920218217005300
 21
-225.938061960867090
  0
LINE
  8
0
  6
CONTINUOUS
 62
3
 10
-325.920223939049380
 20
-225.938066984774850
 11
-325.920222985375060
 21
-229.402164961459420
  0
LINE
  8
0
  6
CONTINUOUS
 62
3
 10
-328.920213899469220
 20
-224.206016938065180
 11
-331.920218540741640
 21
-225.938062116294840
  0
LINE
  8
0
  6
CONTINUOUS
 62
3
 10
-325.920222489096430
 20
-229.402165330779180
 11
-328.920225065602270
 21
-231.134212303415520
  0
LINE
  8
0
  6
CONTINUOUS
 62
3
 10
-328.920213982588390
 20
-224.206017041614790
 11
-325.920223175241060
 21
-225.938067155864050
  0
LINE
  8
0
  6
CONTINUOUS
 62
3
 10
-328.920225306178740
 20
-231.134212113749210
 11
-331.920218178290500
 21
-229.402160156033150
  0
LINE
  8
0
  6
CONTINUOUS
 62
3
 10
-440.420220601190520
 20
-77.670113937955620
 11
-461.420220601190520
 21
-77.670113937955620
  0
ARC
  8
0
  6
CONTINUOUS
 62
3
 10
-461.420220601190520
 20
-67.670113937955620
 40
10.000000000000000
 50
180.000000000000000
 51
270.000000000000000
  0
ARC
  8
0
  6
CONTINUOUS
 62
3
 10
-440.420220601190520
 20
-67.670113937955620
 40
10.000000000000000
 50
270.000000000000000
 51
0.000000000000000
  0
LINE
  8
0
  6
CONTINUOUS
 62
3
 10
-140.930305711915590
 20
245.829886061997290
 11
-221.624329934335950
 21
245.829886061997290
  0
LINE
  8
0
  6
CONTINUOUS
 62
3
 10
-243.930305711865460
 20
180.829886061997290
 11
-243.930305711865460
 21
233.273091119242740
  0
ARC
  8
0
  6
CONTINUOUS
 62
3
 10
-221.624329934335950
 20
225.829886061997290
 40
20.000000000000000
 50
90.000000000000000
 51
125.000000000000240
  0
LINE
  8
0
  6
CONTINUOUS
 62
3
 10
-233.095858661356940
 20
242.212926947777080
 11
-242.821604446377930
 21
235.402886434393850
  0
ARC
  8
0
  6
CONTINUOUS
 62
3
 10
-241.330305711865320
 20
233.273091119242740
 40
2.599999999999721
 50
125.000000000001370
 51
180.000000000000000
  0
LINE
  8
0
  6
CONTINUOUS
 62
3
 10
-243.930305711865460
 20
180.829886061997290
 11
-243.930305711865460
 21
128.386681004751840
  0
LINE
  8
0
  6
CONTINUOUS
 62
3
 10
-233.095858661356940
 20
119.446845176217490
 11
-242.821604446377930
 21
126.256885689600720
  0
ARC
  8
0
  6
CONTINUOUS
 62
3
 10
-241.330305711865320
 20
128.386681004751840
 40
2.600000000000136
 50
180.000000000000000
 51
234.999999999998610
  0
LINE
  8
0
  6
CONTINUOUS
 62
3
 10
-150.930305711915480
 20
115.829886061997280
 11
-221.624329934335950
 21
115.829886061997280
  0
ARC
  8
0
  6
CONTINUOUS
 62
3
 10
-221.624329934335950
 20
135.829886061997290
 40
20.000000000000007
 50
234.999999999999740
 51
270.000000000000000
  0
TEXT
  8
0
  6
CONTINUOUS
 62
3
 10
-469.770996093750000
 20
217.868164062500000
 40
16.000000000000000
  1
Ｄ０３３
 50
0.000002504478167
 41
0.833333333333333
  7
STANDARD1
  0
TEXT
  8
0
  6
CONTINUOUS
 62
3
 10
-469.770996093750000
 20
196.668167114257810
 40
16.000000000000000
  1
三菱ギヤードモートル
 50
0.000002504478167
 41
0.833333333333333
  7
STANDARD1
  0
TEXT
  8
0
  6
CONTINUOUS
 62
3
 10
-469.770996093750000
 20
175.468170166015620
 40
16.000000000000000
  1
ＧＭーＤＢ
 50
0.000002504478167
 41
0.833333333333333
  7
STANDARD1
  0
TEXT
  8
0
  6
CONTINUOUS
 62
3
 10
-469.770996093750000
 20
154.268157958984380
 40
16.000000000000000
  1
０．４（kＷ）
 50
0.000002504478167
 41
0.804878051688032
  7
STANDARD1
  0
TEXT
  8
0
  6
CONTINUOUS
 62
3
 10
-469.770996093750000
 20
133.068161010742190
 40
16.000000000000000
  1
１／２７０～１／４５０
 50
0.000002504478167
 41
0.833333333333333
  7
STANDARD1
  0
TEXT
  8
0
  6
CONTINUOUS
 62
3
 10
-469.770996093750000
 20
111.868164062500000
 40
16.000000000000000
  1
ＳＣＡＬＥ　１／１
 50
0.000002504478167
 41
0.833333333333333
  7
STANDARD1
  0
ARC
  8
0
  6
CONTINUOUS
 62
3
 10
20.569694288084406
 20
275.829886062046400
 40
3.000000000000000
 50
90.000000000000000
 51
180.000000000000000
  0
LINE
  8
0
  6
CONTINUOUS
 62
3
 10
27.569694288084406
 20
278.829886062046400
 11
20.569694288084406
 21
278.829886062046400
  0
INSERT
  8
0
  2
SYM2
 10
47.569694288084065
 20
301.829886061997290
 41
-1.000000000000000
 50
180.000000000000030
  0
ARC
  8
0
  6
CONTINUOUS
 62
3
 10
8.569694288084293
 20
283.156858693154620
 40
10.000000000000000
 50
180.000000000000000
 51
268.999999999998240
  0
ARC
  8
0
  6
CONTINUOUS
 62
3
 10
194.569694288084290
 20
48.156858693153708
 40
10.000000000000137
 50
271.000000000001760
 51
0.000000000000000
  0
ARC
  8
0
  6
CONTINUOUS
 62
3
 10
194.569694288084290
 20
313.502913430840860
 40
10.000000000000000
 50
0.000000000000000
 51
88.999999999998238
  0
LINE
  8
0
  6
CONTINUOUS
 62
3
 10
8.178286301984599
 20
323.706262442149860
 11
62.069694288084293
 21
325.817232814268440
  0
ARC
  8
0
  6
CONTINUOUS
 62
3
 10
8.569694288084293
 20
313.713925388766480
 40
10.000000000000053
 50
92.243175574221979
 51
180.000000000000000
  0
LINE
  8
0
  6
CONTINUOUS
 62
3
 10
194.744218352457440
 20
38.158381741589665
 11
62.069694288084293
 21
35.842539309726135
  0
LINE
  8
0
  6
CONTINUOUS
 62
3
 10
194.744218352457440
 20
323.501390382404910
 11
62.069694288084293
 21
325.817232814268440
  0
LINE
  8
0
  6
CONTINUOUS
 62
3
 10
-1.430305711915707
 20
283.156858693154620
 11
-1.430305711915707
 21
313.713925388766480
  0
LINE
  8
0
  6
CONTINUOUS
 62
3
 10
202.569694288084290
 20
180.829886061997290
 11
202.569694288084290
 21
89.338285210424374
  0
LINE
  8
0
  6
CONTINUOUS
 62
3
 10
202.569694288084290
 20
180.829886061997290
 11
202.569694288084290
 21
272.321486913570200
  0
ARC
  8
0
  6
CONTINUOUS
 62
3
 10
203.569694288084290
 20
135.829886061997290
 40
1.000000000000000
 50
90.000000000000000
 51
180.000000000000000
  0
ARC
  8
0
  6
CONTINUOUS
 62
3
 10
203.569694288084290
 20
225.829886061997290
 40
1.000000000000000
 50
180.000000000000000
 51
270.000000000000000
  0
LINE
  8
0
  6
DASHDOT
 62
4
 10
31.208272831712975
 20
305.829886061998200
 11
2.671930502738405
 21
305.829886061998200
  0
CIRCLE
  8
0
  6
CONTINUOUS
 62
3
 10
186.569694288084290
 20
55.829886061996376
 40
7.500000000000000
  0
CIRCLE
  8
0
  6
CONTINUOUS
 62
3
 10
186.569694288084290
 20
305.829886061998200
 40
7.500000000000000
  0
CIRCLE
  8
0
  6
CONTINUOUS
 62
3
 10
16.569694288084293
 20
305.829886061998200
 40
7.500000000000000
  0
LINE
  8
0
  6
DASHDOT
 62
4
 10
200.143419419249990
 20
55.829886061996376
 11
173.889984476585820
 21
55.829886061996376
  0
LINE
  8
0
  6
DASHDOT
 62
4
 10
200.143419419249990
 20
305.829886061998200
 11
173.889984476585820
 21
305.829886061998200
  0
LINE
  8
0
  6
DASHDOT
 62
4
 10
186.569694288084290
 20
41.819401541387606
 11
186.569694288084290
 21
70.926470716939775
  0
LINE
  8
0
  6
DASHDOT
 62
4
 10
186.569694288084290
 20
319.840370582606970
 11
186.569694288084290
 21
290.733301407054800
  0
LINE
  8
0
  6
DASHDOT
 62
4
 10
16.569694288084293
 20
319.840370582621520
 11
16.569694288084293
 21
291.304028253646950
  0
LINE
  8
0
  6
CONTINUOUS
 62
3
 10
204.569694288084290
 20
180.829886061997290
 11
204.569694288084290
 21
48.156858693153708
  0
LINE
  8
0
  6
CONTINUOUS
 62
3
 10
204.569694288084290
 20
180.829886061997290
 11
204.569694288084290
 21
313.502913430840860
  0
ARC
  8
0
  6
CONTINUOUS
 62
3
 10
199.569694288084290
 20
89.338285210424374
 40
3.000000000000031
 50
328.589660490578640
 51
0.000000000000000
  0
ARC
  8
0
  6
CONTINUOUS
 62
3
 10
199.569694288084290
 20
272.321486913570200
 40
3.000000000000000
 50
0.000000000000000
 51
31.410339509421355
  0
ARC
  8
0
  6
CONTINUOUS
 62
3
 10
129.586239740914830
 20
132.073704825121470
 40
84.999999999999801
 50
321.431062075717310
 51
328.589660490586820
  0
ARC
  8
0
  6
CONTINUOUS
 62
3
 10
129.586239740914830
 20
229.586067298873100
 40
84.999999999999844
 50
31.410339509413163
 51
38.568937924282686
  0
ARC
  8
0
  6
CONTINUOUS
 62
3
 10
187.016701947917910
 20
55.829886061996376
 40
22.000000000000302
 50
91.000000000001762
 51
177.852183309238170
  0
ARC
  8
0
  6
CONTINUOUS
 62
3
 10
187.016701947917910
 20
305.829886061998200
 40
21.999999999999797
 50
182.147816690761830
 51
268.999999999998240
  0
ARC
  8
0
  6
CONTINUOUS
 62
3
 10
193.698643696711090
 20
80.950327990165761
 40
2.999999999999579
 50
270.999999999993240
 51
321.431062075717930
  0
ARC
  8
0
  6
CONTINUOUS
 62
3
 10
193.698643696711090
 20
280.709444133828810
 40
2.999999999999281
 50
38.568937924282025
 51
89.000000000006764
  0
LINE
  8
0
  6
CONTINUOUS
 62
3
 10
186.632749006296990
 20
77.826535355437272
 11
193.751000916022580
 21
77.950784904697002
  0
LINE
  8
0
  6
CONTINUOUS
 62
3
 10
186.632749006296990
 20
283.833236768557300
 11
193.751000916022580
 21
283.708987219297570
  0
ARC
  8
0
  6
CONTINUOUS
 62
3
 10
162.034265336757240
 20
56.766828413126177
 40
2.999999999999306
 50
293.310114391449990
 51
357.852183309233620
  0
ARC
  8
0
  6
CONTINUOUS
 62
3
 10
162.034265336757240
 20
304.892943710868390
 40
3.000000000000230
 50
2.147816690766376
 51
66.689885608550057
  0
ARC
  8
0
  6
CONTINUOUS
 62
3
 10
129.586239740914830
 20
132.073704825121470
 40
84.999999999999758
 50
271.000000000000230
 51
293.310114391448960
  0
ARC
  8
0
  6
CONTINUOUS
 62
3
 10
129.586239740914830
 20
229.586067298873100
 40
84.999999999999162
 50
66.689885608551080
 51
88.999999999999758
  0
LINE
  8
0
  6
CONTINUOUS
 62
3
 10
131.069694288084290
 20
47.086650736828460
 11
59.069694288084293
 21
45.829886061996376
  0
LINE
  8
0
  6
CONTINUOUS
 62
3
 10
131.069694288084290
 20
314.573121387166110
 11
59.069694288084293
 21
315.829886061998200
  0
LINE
  8
0
  6
CONTINUOUS
 62
3
 10
203.569694288084290
 20
136.829886061997290
 11
204.569694288084290
 21
136.829886061997290
  0
LINE
  8
0
  6
CONTINUOUS
 62
3
 10
203.569694288084290
 20
224.829886061997290
 11
204.569694288084290
 21
224.829886061997290
  0
ARC
  8
0
  6
CONTINUOUS
 62
3
 10
49.569694288084065
 20
313.829886061997290
 40
2.000000000000000
 50
90.000000000000000
 51
180.000000000000000
  0
ARC
  8
0
  6
CONTINUOUS
 62
3
 10
45.569694288084065
 20
292.787925953547300
 40
3.000000000000000
 50
180.000000000000000
 51
260.405931773138780
  0
ARC
  8
0
  6
CONTINUOUS
 62
3
 10
44.569694288084065
 20
286.871846170447270
 40
3.000000000000124
 50
42.393848252412582
 51
80.405931773141646
  0
LINE
  8
0
  6
CONTINUOUS
 62
3
 10
42.569694288084065
 20
313.829886061997290
 11
42.569694288084065
 21
308.329886061997290
  0
ARC
  8
0
  6
CONTINUOUS
 62
3
 10
281.169694288084660
 20
157.229886061997830
 40
0.400000000000546
 50
270.000000000000000
 51
0.000000000000000
  0
LINE
  8
0
  6
CONTINUOUS
 62
3
 10
281.169694288084660
 20
156.829886061997290
 11
209.129501909219700
 21
156.829886061997290
  0
LINE
  8
0
  6
CONTINUOUS
 62
3
 10
281.569694288084290
 20
180.829886061997290
 11
281.569694288084290
 21
153.329886061997290
  0
LINE
  8
0
  6
CONTINUOUS
 62
3
 10
281.569694288084290
 20
153.329886061997290
 11
211.569694288084290
 21
153.329886061997290
  0
ARC
  8
0
  6
CONTINUOUS
 62
3
 10
281.169694288084660
 20
204.429886061996740
 40
0.399999999999636
 50
0.000000000000000
 51
90.000000000000000
  0
LINE
  8
0
  6
CONTINUOUS
 62
3
 10
281.569694288084290
 20
180.829886061997290
 11
281.569694288084290
 21
204.429886061996740
  0
LINE
  8
0
  6
CONTINUOUS
 62
3
 10
281.169694288084660
 20
204.829886061997290
 11
209.129501909219700
 21
204.829886061997290
  0
LINE
  8
0
  6
CONTINUOUS
 62
3
 10
206.569694288084290
 20
156.029886061997100
 11
206.369694288084470
 21
155.829886061997290
  0
ARC
  8
0
  6
CONTINUOUS
 62
3
 10
207.369694288084470
 20
156.179886061996740
 40
0.800000000001091
 50
90.000000000000000
 51
180.000000000000000
  0
LINE
  8
0
  6
CONTINUOUS
 62
3
 10
206.569694288084290
 20
156.179886061996740
 11
206.569694288084290
 21
156.029886061997100
  0
LINE
  8
0
  6
CONTINUOUS
 62
3
 10
208.569694288084290
 20
156.979886061997830
 11
207.369694288084470
 21
156.979886061997830
  0
LINE
  8
0
  6
CONTINUOUS
 62
3
 10
208.569694288084290
 20
156.979886061997830
 11
209.129501909219700
 21
156.829886061997290
  0
LINE
  8
0
  6
CONTINUOUS
 62
3
 10
206.369694288084470
 20
155.829886061997290
 11
204.569694288084290
 21
155.829886061997290
  0
LINE
  8
0
  6
CONTINUOUS
 62
3
 10
206.569694288084290
 20
180.829886061997290
 11
206.569694288084290
 21
156.179886061996740
  0
LINE
  8
0
  6
CONTINUOUS
 62
3
 10
206.569694288084290
 20
205.629886061997470
 11
206.369694288084470
 21
205.829886061997290
  0
ARC
  8
0
  6
CONTINUOUS
 62
3
 10
207.369694288084470
 20
205.479886061997830
 40
0.800000000000182
 50
180.000000000000000
 51
270.000000000000000
  0
LINE
  8
0
  6
CONTINUOUS
 62
3
 10
206.569694288084290
 20
205.479886061997830
 11
206.569694288084290
 21
205.629886061997470
  0
LINE
  8
0
  6
CONTINUOUS
 62
3
 10
208.569694288084290
 20
204.679886061996740
 11
207.369694288084470
 21
204.679886061996740
  0
LINE
  8
0
  6
CONTINUOUS
 62
3
 10
208.569694288084290
 20
204.679886061996740
 11
209.129501909219700
 21
204.829886061997290
  0
LINE
  8
0
  6
CONTINUOUS
 62
3
 10
206.369694288084470
 20
205.829886061997290
 11
204.569694288084290
 21
205.829886061997290
  0
LINE
  8
0
  6
CONTINUOUS
 62
3
 10
206.569694288084290
 20
180.829886061997290
 11
206.569694288084290
 21
205.479886061997830
  0
LINE
  8
0
  6
CONTINUOUS
 62
3
 10
211.569694288084290
 20
153.329886061997290
 11
211.569694288084290
 21
156.829886061997290
  0
LINE
  8
0
  6
CONTINUOUS
 62
3
 10
42.054767417641187
 20
279.589016577469690
 11
27.569694288084065
 21
278.829886061997970
  0
ARC
  8
0
  6
CONTINUOUS
 62
3
 10
44.569694288084065
 20
313.829886061997290
 40
2.000000000000000
 50
90.000000000000000
 51
180.000000000000000
  0
LINE
  8
0
  6
CONTINUOUS
 62
3
 10
42.569694288084065
 20
295.329886061997290
 11
42.569694288084065
 21
292.787925953547300
  0
ARC
  8
0
  6
CONTINUOUS
 62
3
 10
44.569694288084065
 20
291.156323773062240
 40
3.000000000000161
 50
333.053200547384900
 51
0.000000000000000
  0
ARC
  8
0
  6
CONTINUOUS
 62
3
 10
44.569694288084065
 20
286.505145812917590
 40
3.000000000000161
 50
333.053200547384900
 51
0.000000000000000
  0
LINE
  8
0
  6
CONTINUOUS
 62
4
 10
4.569694288084293
 20
285.912960631044600
 11
33.952937507625165
 21
285.912960631044600
  0
LINE
  8
0
  6
CONTINUOUS
 62
3
 10
44.569694288084065
 20
315.829886061997290
 11
59.069694288084293
 21
315.829886061997290
  0
ARC
  8
0
  6
CONTINUOUS
 62
3
 10
-147.930305711915480
 20
116.210665145124490
 40
3.000000000000000
 50
90.000000000000000
 51
180.000000000000000
  0
ARC
  8
0
  6
CONTINUOUS
 62
3
 10
-143.930305711915590
 20
122.210665145124490
 40
3.000000000000000
 50
270.000000000000000
 51
0.000000000000000
  0
LINE
  8
0
  6
CONTINUOUS
 62
3
 10
-150.930305711915480
 20
115.829886061997280
 11
-150.930305711915480
 21
116.210665145124490
  0
LINE
  8
0
  6
CONTINUOUS
 62
3
 10
-147.930305711915480
 20
119.210665145124490
 11
-143.930305711915590
 21
119.210665145124490
  0
LINE
  8
0
  6
CONTINUOUS
 62
3
 10
-140.930305711915590
 20
180.829886061997290
 11
-140.930305711915590
 21
122.210665145124490
  0
LINE
  8
0
  6
CONTINUOUS
 62
3
 10
-140.930305711915590
 20
180.829886061997290
 11
-140.930305711915590
 21
245.829886061997290
  0
LINE
  8
0
  6
CONTINUOUS
 62
3
 10
-151.930305711915030
 20
234.570001162434890
 11
-153.930305711915030
 21
232.917359523311460
  0
LINE
  8
0
  6
CONTINUOUS
 62
3
 10
-149.930305711915030
 20
235.745786648057670
 11
-151.930305711915030
 21
234.570001162434890
  0
LINE
  8
0
  6
CONTINUOUS
 62
3
 10
-151.930305711915030
 20
234.570001162434890
 11
-149.930305711915030
 21
232.917359523311460
  0
LINE
  8
0
  6
CONTINUOUS
 62
3
 10
-153.930305711915030
 20
235.745786648057670
 11
-151.930305711915030
 21
234.570001162434890
  0
POLYLINE
  8
0
  6
CONTINUOUS
 62
3
 66
1
 70
1
  0
VERTEX
  8
0
  6
CONTINUOUS
 62
3
 10
-147.230305711915040
 20
232.753411094057360
  0
VERTEX
  8
0
  6
CONTINUOUS
 62
3
 10
-147.320614894019850
 20
233.456368060257720
  0
VERTEX
  8
0
  6
CONTINUOUS
 62
3
 10
-147.588071909111990
 20
234.132310784469810
  0
VERTEX
  8
0
  6
CONTINUOUS
 62
3
 10
-148.022398534093070
 20
234.755263166875210
  0
VERTEX
  8
0
  6
CONTINUOUS
 62
3
 10
-148.606903840338250
 20
235.301285496773800
  0
VERTEX
  8
0
  6
CONTINUOUS
 62
3
 10
-149.319125616722910
 20
235.749394442240430
  0
VERTEX
  8
0
  6
CONTINUOUS
 62
3
 10
-150.131693579799110
 20
236.082369427803170
  0
VERTEX
  8
0
  6
CONTINUOUS
 62
3
 10
-151.013381198439220
 20
236.287414411501430
  0
VERTEX
  8
0
  6
CONTINUOUS
 62
3
 10
-151.930305711915030
 20
236.356649629602200
  0
VERTEX
  8
0
  6
CONTINUOUS
 62
3
 10
-152.847230225390830
 20
236.287414411501430
  0
VERTEX
  8
0
  6
CONTINUOUS
 62
3
 10
-153.728917844030950
 20
236.082369427803170
  0
VERTEX
  8
0
  6
CONTINUOUS
 62
3
 10
-154.541485807107140
 20
235.749394442240430
  0
VERTEX
  8
0
  6
CONTINUOUS
 62
3
 10
-155.253707583491800
 20
235.301285496773800
  0
VERTEX
  8
0
  6
CONTINUOUS
 62
3
 10
-155.838212889736980
 20
234.755263166875210
  0
VERTEX
  8
0
  6
CONTINUOUS
 62
3
 10
-156.272539514718060
 20
234.132310784469810
  0
VERTEX
  8
0
  6
CONTINUOUS
 62
3
 10
-156.539996529810200
 20
233.456368060257720
  0
VERTEX
  8
0
  6
CONTINUOUS
 62
3
 10
-156.630305711915010
 20
232.753411094057360
  0
VERTEX
  8
0
  6
CONTINUOUS
 62
3
 10
-156.539996529810200
 20
232.050454127856990
  0
VERTEX
  8
0
  6
CONTINUOUS
 62
3
 10
-156.272539514718060
 20
231.374511403644900
  0
VERTEX
  8
0
  6
CONTINUOUS
 62
3
 10
-155.838212889736980
 20
230.751559021239500
  0
VERTEX
  8
0
  6
CONTINUOUS
 62
3
 10
-155.253707583491770
 20
230.205536691340910
  0
VERTEX
  8
0
  6
CONTINUOUS
 62
3
 10
-154.541485807107140
 20
229.757427745874280
  0
VERTEX
  8
0
  6
CONTINUOUS
 62
3
 10
-153.728917844030950
 20
229.424452760311540
  0
VERTEX
  8
0
  6
CONTINUOUS
 62
3
 10
-152.847230225390830
 20
229.219407776613280
  0
VERTEX
  8
0
  6
CONTINUOUS
 62
3
 10
-151.930305711915030
 20
229.150172558512510
  0
VERTEX
  8
0
  6
CONTINUOUS
 62
3
 10
-151.013381198439220
 20
229.219407776613280
  0
VERTEX
  8
0
  6
CONTINUOUS
 62
3
 10
-150.131693579799110
 20
229.424452760311540
  0
VERTEX
  8
0
  6
CONTINUOUS
 62
3
 10
-149.319125616722910
 20
229.757427745874280
  0
VERTEX
  8
0
  6
CONTINUOUS
 62
3
 10
-148.606903840338280
 20
230.205536691340910
  0
VERTEX
  8
0
  6
CONTINUOUS
 62
3
 10
-148.022398534093070
 20
230.751559021239500
  0
VERTEX
  8
0
  6
CONTINUOUS
 62
3
 10
-147.588071909111990
 20
231.374511403644900
  0
VERTEX
  8
0
  6
CONTINUOUS
 62
3
 10
-147.320614894019850
 20
232.050454127856990
  0
SEQEND
  8
0
  6
CONTINUOUS
 62
3
  0
LINE
  8
0
  6
CONTINUOUS
 62
3
 10
-151.930305711915030
 20
127.089770961559450
 11
-153.930305711915030
 21
128.742412600682880
  0
LINE
  8
0
  6
CONTINUOUS
 62
3
 10
-149.930305711915030
 20
125.913985475937120
 11
-151.930305711915030
 21
127.089770961559450
  0
LINE
  8
0
  6
CONTINUOUS
 62
3
 10
-151.930305711915030
 20
127.089770961559450
 11
-149.930305711915030
 21
128.742412600682880
  0
LINE
  8
0
  6
CONTINUOUS
 62
3
 10
-153.930305711915030
 20
125.913985475937120
 11
-151.930305711915030
 21
127.089770961559450
  0
POLYLINE
  8
0
  6
CONTINUOUS
 62
3
 66
1
 70
1
  0
VERTEX
  8
0
  6
CONTINUOUS
 62
3
 10
-147.230305711915040
 20
128.906361029937440
  0
VERTEX
  8
0
  6
CONTINUOUS
 62
3
 10
-147.320614894019850
 20
129.609317996137800
  0
VERTEX
  8
0
  6
CONTINUOUS
 62
3
 10
-147.588071909111990
 20
130.285260720349900
  0
VERTEX
  8
0
  6
CONTINUOUS
 62
3
 10
-148.022398534093070
 20
130.908213102755300
  0
VERTEX
  8
0
  6
CONTINUOUS
 62
3
 10
-148.606903840338250
 20
131.454235432653890
  0
VERTEX
  8
0
  6
CONTINUOUS
 62
3
 10
-149.319125616722910
 20
131.902344378120520
  0
VERTEX
  8
0
  6
CONTINUOUS
 62
3
 10
-150.131693579799110
 20
132.235319363683260
  0
VERTEX
  8
0
  6
CONTINUOUS
 62
3
 10
-151.013381198439220
 20
132.440364347381520
  0
VERTEX
  8
0
  6
CONTINUOUS
 62
3
 10
-151.930305711915030
 20
132.509599565482290
  0
VERTEX
  8
0
  6
CONTINUOUS
 62
3
 10
-152.847230225390830
 20
132.440364347381520
  0
VERTEX
  8
0
  6
CONTINUOUS
 62
3
 10
-153.728917844030950
 20
132.235319363683260
  0
VERTEX
  8
0
  6
CONTINUOUS
 62
3
 10
-154.541485807107140
 20
131.902344378120520
  0
VERTEX
  8
0
  6
CONTINUOUS
 62
3
 10
-155.253707583491800
 20
131.454235432653890
  0
VERTEX
  8
0
  6
CONTINUOUS
 62
3
 10
-155.838212889736980
 20
130.908213102755300
  0
VERTEX
  8
0
  6
CONTINUOUS
 62
3
 10
-156.272539514718060
 20
130.285260720349900
  0
VERTEX
  8
0
  6
CONTINUOUS
 62
3
 10
-156.539996529810200
 20
129.609317996137800
  0
VERTEX
  8
0
  6
CONTINUOUS
 62
3
 10
-156.630305711915010
 20
128.906361029937440
  0
VERTEX
  8
0
  6
CONTINUOUS
 62
3
 10
-156.539996529810200
 20
128.203404063737080
  0
VERTEX
  8
0
  6
CONTINUOUS
 62
3
 10
-156.272539514718060
 20
127.527461339524970
  0
VERTEX
  8
0
  6
CONTINUOUS
 62
3
 10
-155.838212889736980
 20
126.904508957119580
  0
VERTEX
  8
0
  6
CONTINUOUS
 62
3
 10
-155.253707583491770
 20
126.358486627220990
  0
VERTEX
  8
0
  6
CONTINUOUS
 62
3
 10
-154.541485807107140
 20
125.910377681754380
  0
VERTEX
  8
0
  6
CONTINUOUS
 62
3
 10
-153.728917844030950
 20
125.577402696191620
  0
VERTEX
  8
0
  6
CONTINUOUS
 62
3
 10
-152.847230225390830
 20
125.372357712493360
  0
VERTEX
  8
0
  6
CONTINUOUS
 62
3
 10
-151.930305711915030
 20
125.303122494392590
  0
VERTEX
  8
0
  6
CONTINUOUS
 62
3
 10
-151.013381198439220
 20
125.372357712493360
  0
VERTEX
  8
0
  6
CONTINUOUS
 62
3
 10
-150.131693579799110
 20
125.577402696191620
  0
VERTEX
  8
0
  6
CONTINUOUS
 62
3
 10
-149.319125616722910
 20
125.910377681754380
  0
VERTEX
  8
0
  6
CONTINUOUS
 62
3
 10
-148.606903840338280
 20
126.358486627220990
  0
VERTEX
  8
0
  6
CONTINUOUS
 62
3
 10
-148.022398534093070
 20
126.904508957119580
  0
VERTEX
  8
0
  6
CONTINUOUS
 62
3
 10
-147.588071909111990
 20
127.527461339524970
  0
VERTEX
  8
0
  6
CONTINUOUS
 62
3
 10
-147.320614894019850
 20
128.203404063737080
  0
SEQEND
  8
0
  6
CONTINUOUS
 62
3
  0
LINE
  8
0
  6
CONTINUOUS
 62
3
 10
-147.430305711915710
 20
113.329886061997280
 11
-147.430305711915710
 21
119.168705036674280
  0
LINE
  8
0
  6
CONTINUOUS
 62
3
 10
-150.380305711914620
 20
62.156060682213365
 11
-117.987561917811940
 21
62.156060682213365
  0
LINE
  8
0
  6
CONTINUOUS
 62
3
 10
-161.380305711914620
 20
100.024450002261800
 11
-161.380305711914620
 21
73.156060682213365
  0
LINE
  8
0
  6
CONTINUOUS
 62
3
 10
-154.980305711914980
 20
70.129886061997240
 11
-154.980305711914980
 21
99.705820761684208
  0
ARC
  8
0
  6
CONTINUOUS
 62
3
 10
-149.980305711914980
 20
99.705820761684208
 40
4.999999999999886
 50
90.000000000000000
 51
180.000000000000000
  0
ARC
  8
0
  6
CONTINUOUS
 62
3
 10
-150.380305711914620
 20
73.156060682213365
 40
11.000000000000000
 50
180.000000000000000
 51
270.000000000000000
  0
LINE
  8
0
  6
CONTINUOUS
 62
3
 10
-149.180305711915250
 20
64.329886061997286
 11
-80.680305711916503
 21
64.329886061997286
  0
ARC
  8
0
  6
CONTINUOUS
 62
3
 10
-80.680305711916503
 20
70.129886061997240
 40
5.799999999999955
 50
270.000000000000000
 51
0.000000000000000
  0
ARC
  8
0
  6
CONTINUOUS
 62
3
 10
-149.180305711915250
 20
70.129886061997240
 40
5.799999999999727
 50
180.000000000000000
 51
270.000000000000000
  0
ARC
  8
0
  6
CONTINUOUS
 62
3
 10
-150.380305711914620
 20
96.552977263214871
 40
11.000000000000000
 50
90.000000000000000
 51
180.000000000000000
  0
ARC
  8
0
  6
CONTINUOUS
 62
3
 10
-150.380305711914620
 20
100.024450002261800
 40
10.999999999999886
 50
90.000000000000000
 51
180.000000000000000
  0
LINE
  8
0
  6
CONTINUOUS
 62
3
 10
-135.980940806525950
 20
63.529886061997331
 11
-94.279670617305555
 21
63.529886061997331
  0
ARC
  8
0
  6
CONTINUOUS
 62
3
 10
-94.279670617305555
 20
64.529886061997331
 40
1.000000000000000
 50
270.000000000000000
 51
323.130102354140380
  0
ARC
  8
0
  6
CONTINUOUS
 62
3
 10
-92.679670617305646
 20
63.329886061997286
 40
1.000000000000000
 50
90.000000000000000
 51
143.130102354166380
  0
ARC
  8
0
  6
CONTINUOUS
 62
3
 10
-137.580940806525860
 20
63.329886061997286
 40
0.999999999999727
 50
36.869897645849235
 51
90.000000000000000
  0
ARC
  8
0
  6
CONTINUOUS
 62
3
 10
-135.980940806525950
 20
64.529886061997331
 40
1.000000000000227
 50
216.869897645844020
 51
270.000000000000000
  0
ARC
  8
0
  6
CONTINUOUS
 62
3
 10
-148.730305711915890
 20
107.329886061997280
 40
5.000000000000000
 50
90.000000000000000
 51
135.074043599465310
  0
LINE
  8
0
  6
CONTINUOUS
 62
3
 10
-145.930305711915710
 20
113.329886061997280
 11
-145.930305711915710
 21
112.329886061997280
  0
ARC
  8
0
  6
CONTINUOUS
 62
3
 10
-117.130306474855160
 20
63.133358549743434
 40
1.299999237060699
 50
162.240552086452960
 51
253.398468892505180
  0
ARC
  8
0
  6
CONTINUOUS
 62
3
 10
-114.930305711915700
 20
70.512383472591182
 40
8.999999999999858
 50
253.398468892518050
 51
286.601548410325050
  0
ARC
  8
0
  6
CONTINUOUS
 62
3
 10
-112.730304948976250
 20
63.133358549743434
 40
1.299999237060351
 50
286.601548410324710
 51
17.759447913550098
  0
LINE
  8
0
  6
CONTINUOUS
 62
3
 10
-111.873049506019690
 20
62.156060682213365
 11
-79.480305711916913
 21
62.156060682213365
  0
POLYLINE
  8
0
  6
CONTINUOUS
 62
3
 66
1
  0
VERTEX
  8
0
  6
CONTINUOUS
 62
3
 10
572.668472748279330
 20
-167.501952647948200
  0
VERTEX
  8
0
  6
CONTINUOUS
 62
3
 10
572.471347553120610
 20
-162.126761986695870
  0
VERTEX
  8
0
  6
CONTINUOUS
 62
3
 10
571.886684830159200
 20
-156.934617008009130
  0
VERTEX
  8
0
  6
CONTINUOUS
 62
3
 10
570.934394568442710
 20
-152.102329992883820
  0
VERTEX
  8
0
  6
CONTINUOUS
 62
3
 10
569.646905872712300
 20
-147.794458690203670
  0
VERTEX
  8
0
  6
CONTINUOUS
 62
3
 10
568.068062629065480
 20
-144.157702499617530
  0
VERTEX
  8
0
  6
CONTINUOUS
 62
3
 10
566.251630453907520
 20
-141.315906799119030
  0
VERTEX
  8
0
  6
CONTINUOUS
 62
3
 10
564.259465770254680
 20
-139.365845538971850
  0
VERTEX
  8
0
  6
CONTINUOUS
 62
3
 10
562.159409361305960
 20
-138.373925720695300
  0
VERTEX
  8
0
  6
CONTINUOUS
 62
3
 10
560.022976133792440
 20
-138.373925986132830
  0
VERTEX
  8
0
  6
CONTINUOUS
 62
3
 10
557.922919763449950
 20
-139.365846326245300
  0
VERTEX
  8
0
  6
CONTINUOUS
 62
3
 10
555.930755155694900
 20
-141.315908081418740
  0
VERTEX
  8
0
  6
CONTINUOUS
 62
3
 10
554.114323091141730
 20
-144.157704233276320
  0
VERTEX
  8
0
  6
CONTINUOUS
 62
3
 10
552.535479989040030
 20
-147.794460816183860
  0
VERTEX
  8
0
  6
CONTINUOUS
 62
3
 10
551.247991460974960
 20
-152.102332438787730
  0
VERTEX
  8
0
  6
CONTINUOUS
 62
3
 10
550.295701387334470
 20
-156.934619690544390
  0
VERTEX
  8
0
  6
CONTINUOUS
 62
3
 10
549.711038866455060
 20
-162.126764814511940
  0
VERTEX
  8
0
  6
CONTINUOUS
 62
3
 10
549.513913880502510
 20
-167.501955524747250
  0
SEQEND
  8
0
  6
CONTINUOUS
 62
3
  0
POLYLINE
  8
0
  6
CONTINUOUS
 62
3
 66
1
  0
VERTEX
  8
0
  6
CONTINUOUS
 62
3
 10
343.804482087402450
 20
-167.501955524747250
  0
VERTEX
  8
0
  6
CONTINUOUS
 62
3
 10
343.607357101450020
 20
-162.126764814511940
  0
VERTEX
  8
0
  6
CONTINUOUS
 62
3
 10
343.022694580570490
 20
-156.934619690544390
  0
VERTEX
  8
0
  6
CONTINUOUS
 62
3
 10
342.070404506930060
 20
-152.102332438787730
  0
VERTEX
  8
0
  6
CONTINUOUS
 62
3
 10
340.782915978864990
 20
-147.794460816183860
  0
VERTEX
  8
0
  6
CONTINUOUS
 62
3
 10
339.204072876763290
 20
-144.157704233276320
  0
VERTEX
  8
0
  6
CONTINUOUS
 62
3
 10
337.387640812210070
 20
-141.315908081418740
  0
VERTEX
  8
0
  6
CONTINUOUS
 62
3
 10
335.395476204455060
 20
-139.365846326245300
  0
VERTEX
  8
0
  6
CONTINUOUS
 62
3
 10
333.295419834112520
 20
-138.373925986132830
  0
VERTEX
  8
0
  6
CONTINUOUS
 62
3
 10
331.158986606599000
 20
-138.373925720695300
  0
VERTEX
  8
0
  6
CONTINUOUS
 62
3
 10
329.058930197650230
 20
-139.365845538971850
  0
VERTEX
  8
0
  6
CONTINUOUS
 62
3
 10
327.066765513997440
 20
-141.315906799119030
  0
VERTEX
  8
0
  6
CONTINUOUS
 62
3
 10
325.250333338839480
 20
-144.157702499617530
  0
VERTEX
  8
0
  6
CONTINUOUS
 62
3
 10
323.671490095192670
 20
-147.794458690203670
  0
VERTEX
  8
0
  6
CONTINUOUS
 62
3
 10
322.384001399462190
 20
-152.102329992883820
  0
VERTEX
  8
0
  6
CONTINUOUS
 62
3
 10
321.431711137745710
 20
-156.934617008009130
  0
VERTEX
  8
0
  6
CONTINUOUS
 62
3
 10
320.847048414784240
 20
-162.126761986695870
  0
VERTEX
  8
0
  6
CONTINUOUS
 62
3
 10
320.649923219625580
 20
-167.501952647948200
  0
SEQEND
  8
0
  6
CONTINUOUS
 62
3
  0
POLYLINE
  8
0
  6
CONTINUOUS
 62
3
 66
1
  0
VERTEX
  8
0
  6
CONTINUOUS
 62
3
 10
195.148031568747230
 20
-167.501952647949110
  0
VERTEX
  8
0
  6
CONTINUOUS
 62
3
 10
194.858771579167500
 20
-161.795011715473380
  0
VERTEX
  8
0
  6
CONTINUOUS
 62
3
 10
194.002107709608940
 20
-156.307385322543330
  0
VERTEX
  8
0
  6
CONTINUOUS
 62
3
 10
192.610961072156070
 20
-151.249959873942940
  0
VERTEX
  8
0
  6
CONTINUOUS
 62
3
 10
190.738792651922210
 20
-146.817089393425050
  0
VERTEX
  8
0
  6
CONTINUOUS
 62
3
 10
188.457548831372780
 20
-143.179126607573580
  0
VERTEX
  8
0
  6
CONTINUOUS
 62
3
 10
185.854896531195210
 20
-140.475876386055750
  0
VERTEX
  8
0
  6
CONTINUOUS
 62
3
 10
183.030854219701100
 20
-138.811223118884300
  0
VERTEX
  8
0
  6
CONTINUOUS
 62
3
 10
180.093948259180020
 20
-138.249138497568310
  0
VERTEX
  8
0
  6
CONTINUOUS
 62
3
 10
177.157042298658950
 20
-138.811223118884300
  0
VERTEX
  8
0
  6
CONTINUOUS
 62
3
 10
174.332999987164840
 20
-140.475876386055750
  0
VERTEX
  8
0
  6
CONTINUOUS
 62
3
 10
171.730347686987270
 20
-143.179126607573580
  0
VERTEX
  8
0
  6
CONTINUOUS
 62
3
 10
169.449103866437840
 20
-146.817089393425080
  0
VERTEX
  8
0
  6
CONTINUOUS
 62
3
 10
167.576935446203980
 20
-151.249959873942940
  0
VERTEX
  8
0
  6
CONTINUOUS
 62
3
 10
166.185788808751110
 20
-156.307385322543330
  0
VERTEX
  8
0
  6
CONTINUOUS
 62
3
 10
165.329124939192580
 20
-161.795011715473380
  0
VERTEX
  8
0
  6
CONTINUOUS
 62
3
 10
165.039864949612820
 20
-167.501952647949110
  0
SEQEND
  8
0
  6
CONTINUOUS
 62
3
  0
POLYLINE
  8
0
  6
CONTINUOUS
 62
3
 66
1
 70
1
  0
VERTEX
  8
0
  6
CONTINUOUS
 62
3
 10
-147.230305711914920
 20
-117.246588905942640
  0
VERTEX
  8
0
  6
CONTINUOUS
 62
3
 10
-147.320614894019740
 20
-116.543631939742280
  0
VERTEX
  8
0
  6
CONTINUOUS
 62
3
 10
-147.588071909111870
 20
-115.867689215530190
  0
VERTEX
  8
0
  6
CONTINUOUS
 62
3
 10
-148.022398534092960
 20
-115.244736833124790
  0
VERTEX
  8
0
  6
CONTINUOUS
 62
3
 10
-148.606903840338130
 20
-114.698714503226210
  0
VERTEX
  8
0
  6
CONTINUOUS
 62
3
 10
-149.319125616722800
 20
-114.250605557759590
  0
VERTEX
  8
0
  6
CONTINUOUS
 62
3
 10
-150.131693579798990
 20
-113.917630572196820
  0
VERTEX
  8
0
  6
CONTINUOUS
 62
3
 10
-151.013381198439110
 20
-113.712585588498580
  0
VERTEX
  8
0
  6
CONTINUOUS
 62
3
 10
-151.930305711914910
 20
-113.643350370397810
  0
VERTEX
  8
0
  6
CONTINUOUS
 62
3
 10
-152.847230225390720
 20
-113.712585588498580
  0
VERTEX
  8
0
  6
CONTINUOUS
 62
3
 10
-153.728917844030830
 20
-113.917630572196820
  0
VERTEX
  8
0
  6
CONTINUOUS
 62
3
 10
-154.541485807107020
 20
-114.250605557759590
  0
VERTEX
  8
0
  6
CONTINUOUS
 62
3
 10
-155.253707583491690
 20
-114.698714503226210
  0
VERTEX
  8
0
  6
CONTINUOUS
 62
3
 10
-155.838212889736870
 20
-115.244736833124790
  0
VERTEX
  8
0
  6
CONTINUOUS
 62
3
 10
-156.272539514717950
 20
-115.867689215530190
  0
VERTEX
  8
0
  6
CONTINUOUS
 62
3
 10
-156.539996529810080
 20
-116.543631939742280
  0
VERTEX
  8
0
  6
CONTINUOUS
 62
3
 10
-156.630305711914900
 20
-117.246588905942640
  0
VERTEX
  8
0
  6
CONTINUOUS
 62
3
 10
-156.539996529810080
 20
-117.949545872143000
  0
VERTEX
  8
0
  6
CONTINUOUS
 62
3
 10
-156.272539514717950
 20
-118.625488596355090
  0
VERTEX
  8
0
  6
CONTINUOUS
 62
3
 10
-155.838212889736870
 20
-119.248440978760490
  0
VERTEX
  8
0
  6
CONTINUOUS
 62
3
 10
-155.253707583491660
 20
-119.794463308659070
  0
VERTEX
  8
0
  6
CONTINUOUS
 62
3
 10
-154.541485807107020
 20
-120.242572254125690
  0
VERTEX
  8
0
  6
CONTINUOUS
 62
3
 10
-153.728917844030830
 20
-120.575547239688460
  0
VERTEX
  8
0
  6
CONTINUOUS
 62
3
 10
-152.847230225390720
 20
-120.780592223386700
  0
VERTEX
  8
0
  6
CONTINUOUS
 62
3
 10
-151.930305711914910
 20
-120.849827441487470
  0
VERTEX
  8
0
  6
CONTINUOUS
 62
3
 10
-151.013381198439110
 20
-120.780592223386700
  0
VERTEX
  8
0
  6
CONTINUOUS
 62
3
 10
-150.131693579798990
 20
-120.575547239688460
  0
VERTEX
  8
0
  6
CONTINUOUS
 62
3
 10
-149.319125616722800
 20
-120.242572254125690
  0
VERTEX
  8
0
  6
CONTINUOUS
 62
3
 10
-148.606903840338160
 20
-119.794463308659070
  0
VERTEX
  8
0
  6
CONTINUOUS
 62
3
 10
-148.022398534092960
 20
-119.248440978760490
  0
VERTEX
  8
0
  6
CONTINUOUS
 62
3
 10
-147.588071909111870
 20
-118.625488596355090
  0
VERTEX
  8
0
  6
CONTINUOUS
 62
3
 10
-147.320614894019740
 20
-117.949545872143000
  0
SEQEND
  8
0
  6
CONTINUOUS
 62
3
  0
POLYLINE
  8
0
  6
CONTINUOUS
 62
3
 66
1
  0
VERTEX
  8
0
  6
CONTINUOUS
 62
3
 10
-114.930305711915590
 20
-214.633838924568120
  0
VERTEX
  8
0
  6
CONTINUOUS
 62
3
 10
-116.357156999330480
 20
-214.751021593219120
  0
VERTEX
  8
0
  6
CONTINUOUS
 62
3
 10
-117.738251876862150
 20
-215.098811773626300
  0
VERTEX
  8
0
  6
CONTINUOUS
 62
3
 10
-119.029301255758780
 20
-215.666056495477650
  0
VERTEX
  8
0
  6
CONTINUOUS
 62
3
 10
-120.188903635330470
 20
-216.434565298263410
  0
VERTEX
  8
0
  6
CONTINUOUS
 62
3
 10
-121.179872770416860
 20
-217.379693564783930
  0
SEQEND
  8
0
  6
CONTINUOUS
 62
3
  0
POLYLINE
  8
0
  6
CONTINUOUS
 62
3
 66
1
  0
VERTEX
  8
0
  6
CONTINUOUS
 62
3
 10
-114.930305711915590
 20
-215.435542963314840
  0
VERTEX
  8
0
  6
CONTINUOUS
 62
3
 10
-116.206346101835300
 20
-215.529111119233680
  0
VERTEX
  8
0
  6
CONTINUOUS
 62
3
 10
-117.449712489283710
 20
-215.807419701889760
  0
VERTEX
  8
0
  6
CONTINUOUS
 62
3
 10
-118.628567514928590
 20
-216.263342404475480
  0
VERTEX
  8
0
  6
CONTINUOUS
 62
3
 10
-119.712725682820500
 20
-216.885204973081040
  0
VERTEX
  8
0
  6
CONTINUOUS
 62
3
 10
-120.674426283395060
 20
-217.657084135007660
  0
SEQEND
  8
0
  6
CONTINUOUS
 62
3
  0
POLYLINE
  8
0
  6
CONTINUOUS
 62
3
 66
1
 70
1
  0
VERTEX
  8
0
  6
CONTINUOUS
 62
3
 10
-111.430305711915590
 20
-222.488608472021040
  0
VERTEX
  8
0
  6
CONTINUOUS
 62
3
 10
-111.497557230504280
 20
-221.815018701974910
  0
VERTEX
  8
0
  6
CONTINUOUS
 62
3
 10
-111.696727348126080
 20
-221.167314609038160
  0
VERTEX
  8
0
  6
CONTINUOUS
 62
3
 10
-112.020162068856690
 20
-220.570387098265680
  0
VERTEX
  8
0
  6
CONTINUOUS
 62
3
 10
-112.455431977762670
 20
-220.047175759135710
  0
VERTEX
  8
0
  6
CONTINUOUS
 62
3
 10
-112.985809896346990
 20
-219.617787309990660
  0
VERTEX
  8
0
  6
CONTINUOUS
 62
3
 10
-113.590913698637770
 20
-219.298722908127390
  0
VERTEX
  8
0
  6
CONTINUOUS
 62
3
 10
-114.247489584859130
 20
-219.102244019576120
  0
VERTEX
  8
0
  6
CONTINUOUS
 62
3
 10
-114.930305711915590
 20
-219.035901217837250
  0
VERTEX
  8
0
  6
CONTINUOUS
 62
3
 10
-115.613121838972040
 20
-219.102244019576120
  0
VERTEX
  8
0
  6
CONTINUOUS
 62
3
 10
-116.269697725193410
 20
-219.298722908127390
  0
VERTEX
  8
0
  6
CONTINUOUS
 62
3
 10
-116.874801527484190
 20
-219.617787309990660
  0
VERTEX
  8
0
  6
CONTINUOUS
 62
3
 10
-117.405179446068510
 20
-220.047175759135710
  0
VERTEX
  8
0
  6
CONTINUOUS
 62
3
 10
-117.840449354974490
 20
-220.570387098265680
  0
VERTEX
  8
0
  6
CONTINUOUS
 62
3
 10
-118.163884075705090
 20
-221.167314609038160
  0
VERTEX
  8
0
  6
CONTINUOUS
 62
3
 10
-118.363054193326900
 20
-221.815018701974910
  0
VERTEX
  8
0
  6
CONTINUOUS
 62
3
 10
-118.430305711915590
 20
-222.488608472021040
  0
VERTEX
  8
0
  6
CONTINUOUS
 62
3
 10
-118.363054193326900
 20
-223.162198242067180
  0
VERTEX
  8
0
  6
CONTINUOUS
 62
3
 10
-118.163884075705090
 20
-223.809902335003930
  0
VERTEX
  8
0
  6
CONTINUOUS
 62
3
 10
-117.840449354974490
 20
-224.406829845776400
  0
VERTEX
  8
0
  6
CONTINUOUS
 62
3
 10
-117.405179446068500
 20
-224.930041184906370
  0
VERTEX
  8
0
  6
CONTINUOUS
 62
3
 10
-116.874801527484190
 20
-225.359429634051420
  0
VERTEX
  8
0
  6
CONTINUOUS
 62
3
 10
-116.269697725193410
 20
-225.678494035914700
  0
VERTEX
  8
0
  6
CONTINUOUS
 62
3
 10
-115.613121838972040
 20
-225.874972924465960
  0
VERTEX
  8
0
  6
CONTINUOUS
 62
3
 10
-114.930305711915590
 20
-225.941315726204830
  0
VERTEX
  8
0
  6
CONTINUOUS
 62
3
 10
-114.247489584859150
 20
-225.874972924465960
  0
VERTEX
  8
0
  6
CONTINUOUS
 62
3
 10
-113.590913698637770
 20
-225.678494035914700
  0
VERTEX
  8
0
  6
CONTINUOUS
 62
3
 10
-112.985809896346990
 20
-225.359429634051420
  0
VERTEX
  8
0
  6
CONTINUOUS
 62
3
 10
-112.455431977762680
 20
-224.930041184906370
  0
VERTEX
  8
0
  6
CONTINUOUS
 62
3
 10
-112.020162068856690
 20
-224.406829845776400
  0
VERTEX
  8
0
  6
CONTINUOUS
 62
3
 10
-111.696727348126080
 20
-223.809902335003930
  0
VERTEX
  8
0
  6
CONTINUOUS
 62
3
 10
-111.497557230504290
 20
-223.162198242067180
  0
SEQEND
  8
0
  6
CONTINUOUS
 62
3
  0
POLYLINE
  8
0
  6
CONTINUOUS
 62
3
 66
1
  0
VERTEX
  8
0
  6
CONTINUOUS
 62
3
 10
-109.186185140436120
 20
-217.657084135007660
  0
VERTEX
  8
0
  6
CONTINUOUS
 62
3
 10
-110.147885741010680
 20
-216.885204973081040
  0
VERTEX
  8
0
  6
CONTINUOUS
 62
3
 10
-111.232043908902590
 20
-216.263342404475480
  0
VERTEX
  8
0
  6
CONTINUOUS
 62
3
 10
-112.410898934547470
 20
-215.807419701889760
  0
VERTEX
  8
0
  6
CONTINUOUS
 62
3
 10
-113.654265321995870
 20
-215.529111119233680
  0
VERTEX
  8
0
  6
CONTINUOUS
 62
3
 10
-114.930305711915590
 20
-215.435542963314840
  0
SEQEND
  8
0
  6
CONTINUOUS
 62
3
  0
POLYLINE
  8
0
  6
CONTINUOUS
 62
3
 66
1
  0
VERTEX
  8
0
  6
CONTINUOUS
 62
3
 10
-108.680738653414550
 20
-217.379693564783650
  0
VERTEX
  8
0
  6
CONTINUOUS
 62
3
 10
-109.671707788500920
 20
-216.434565298263240
  0
VERTEX
  8
0
  6
CONTINUOUS
 62
3
 10
-110.831310168072600
 20
-215.666056495477560
  0
VERTEX
  8
0
  6
CONTINUOUS
 62
3
 10
-112.122359546969170
 20
-215.098811773626240
  0
VERTEX
  8
0
  6
CONTINUOUS
 62
3
 10
-113.503454424500770
 20
-214.751021593219120
  0
VERTEX
  8
0
  6
CONTINUOUS
 62
3
 10
-114.930305711915590
 20
-214.633838924568120
  0
SEQEND
  8
0
  6
CONTINUOUS
 62
3
  0
ARC
  8
0
  6
CONTINUOUS
 62
3
 10
543.986187824310260
 20
-302.670113937953830
 40
5.000000000000000
 50
180.000000000000000
 51
270.000000000000000
  0
ARC
  8
0
  6
CONTINUOUS
 62
3
 10
554.513913880502740
 20
-302.670113937953830
 40
5.000000000000000
 50
180.000000000000000
 51
270.000000000000000
  0
ARC
  8
0
  6
CONTINUOUS
 62
3
 10
577.668472748280010
 20
-302.670113937953830
 40
5.000000000000000
 50
180.000000000000000
 51
270.000000000000000
  0
ARC
  8
0
  6
CONTINUOUS
 62
3
 10
349.332208143594700
 20
-302.670113937953830
 40
5.000000000000000
 50
270.000000000000000
 51
0.000000000000000
  0
ARC
  8
0
  6
CONTINUOUS
 62
3
 10
338.804482087403130
 20
-302.670113937953830
 40
5.000000000000000
 50
270.000000000000000
 51
0.000000000000000
  0
ARC
  8
0
  6
CONTINUOUS
 62
3
 10
315.649923219625860
 20
-302.670113937953830
 40
5.000000000000000
 50
270.000000000000000
 51
0.000000000000000
  0
ARC
  8
0
  6
CONTINUOUS
 62
3
 10
471.659197983953390
 20
-165.308284613271100
 40
67.326989840399619
 50
0.000000000000000
 51
87.075476210271830
  0
ARC
  8
0
  6
CONTINUOUS
 62
3
 10
519.159197983952480
 20
-287.970113937954010
 40
10.000000000000000
 50
270.000000000000000
 51
0.000000000000000
  0
ARC
  8
0
  6
CONTINUOUS
 62
3
 10
524.159197983952480
 20
-164.670113937954740
 40
5.000000000000000
 50
0.000000000000000
 51
90.000000000000000
  0
ARC
  8
0
  6
CONTINUOUS
 62
3
 10
503.580195866983790
 20
-162.670113937954740
 40
3.000000000000000
 50
90.000000000000000
 51
176.983038690193300
  0
ARC
  8
0
  6
CONTINUOUS
 62
3
 10
374.159197983952480
 20
-287.970113937954010
 40
10.000000000000000
 50
180.000000000000000
 51
270.000000000000000
  0
ARC
  8
0
  6
CONTINUOUS
 62
3
 10
307.159197983952480
 20
-310.670113937953830
 40
3.000000000000000
 50
90.000000000000000
 51
180.000000000000000
  0
ARC
  8
0
  6
CONTINUOUS
 62
3
 10
586.159197983952480
 20
-310.670113937953830
 40
3.000000000000000
 50
0.000000000000000
 51
90.000000000000000
  0
ARC
  8
0
  6
CONTINUOUS
 62
3
 10
356.159197983952480
 20
-329.670113937953830
 40
2.000000000000000
 50
90.000000000000000
 51
180.000000000000000
  0
ARC
  8
0
  6
CONTINUOUS
 62
3
 10
308.659197983952480
 20
-304.670113937953830
 40
3.000000000000000
 50
270.000000000000000
 51
0.000000000000000
  0
ARC
  8
0
  6
CONTINUOUS
 62
3
 10
537.159197983952480
 20
-329.670113937953830
 40
2.000000000000000
 50
0.000000000000000
 51
90.000000000000000
  0
ARC
  8
0
  6
CONTINUOUS
 62
3
 10
584.659197983952480
 20
-304.670113937953830
 40
3.000000000000000
 50
180.000000000000000
 51
270.000000000000000
  0
ARC
  8
0
  6
CONTINUOUS
 62
3
 10
446.659197983952480
 20
-654.670113937954740
 40
600.000000000000680
 50
87.075476210271646
 51
90.000000000000000
  0
ARC
  8
0
  6
CONTINUOUS
 62
3
 10
471.659197983953390
 20
-165.308284613271100
 40
109.999999999999090
 50
0.000000000000000
 51
87.075476210271603
  0
ARC
  8
0
  6
CONTINUOUS
 62
3
 10
446.659197983952480
 20
-654.670113937954740
 40
557.326989840400530
 50
87.075476210271688
 51
90.000000000000000
  0
ARC
  8
0
  6
CONTINUOUS
 62
3
 10
446.659197983952480
 20
-654.670113937954740
 40
557.326989840400530
 50
90.000000000000000
 51
92.924523789728227
  0
ARC
  8
0
  6
CONTINUOUS
 62
3
 10
446.659197983952480
 20
-654.670113937954740
 40
600.000000000000000
 50
90.000000000000000
 51
92.924523789728170
  0
CIRCLE
  8
0
  6
CONTINUOUS
 62
3
 10
446.659197983952480
 20
-159.670113937954740
 40
33.999999999999659
  0
ARC
  8
0
  6
CONTINUOUS
 62
3
 10
457.159197983953390
 20
-29.670113937954739
 40
10.000000000000000
 50
0.000000000000000
 51
90.000000000000000
  0
CIRCLE
  8
0
  6
CONTINUOUS
 62
3
 10
446.659197983953390
 20
-39.670113937954739
 40
10.000000000000000
  0
ARC
  8
0
  6
CONTINUOUS
 62
3
 10
436.159197983953390
 20
-29.670113937954739
 40
10.000000000000000
 50
90.000000000000000
 51
180.000000000000000
  0
ARC
  8
0
  6
CONTINUOUS
 62
3
 10
446.659197983952480
 20
-159.701346489218850
 40
23.999999999999723
 50
196.957763300004330
 51
163.042236699995670
  0
CIRCLE
  8
0
  6
CONTINUOUS
 62
3
 10
446.659197983952480
 20
-159.670113937954740
 40
3.324999999999989
  0
CIRCLE
  8
0
  6
CONTINUOUS
 62
4
 10
446.659197983952480
 20
-159.670113937954740
 40
4.000000000000000
  0
ARC
  8
0
  6
CONTINUOUS
 62
3
 10
446.659197983952480
 20
-159.670113937954740
 40
53.999999999999424
 50
183.016961309816540
 51
356.983038690183490
  0
ARC
  8
0
  6
CONTINUOUS
 62
3
 10
389.738200100922090
 20
-162.670113937954740
 40
3.000000000000143
 50
3.016961309806693
 51
90.000000000000000
  0
ARC
  8
0
  6
CONTINUOUS
 62
3
 10
369.159197983952480
 20
-164.670113937954740
 40
5.000000000000000
 50
90.000000000000000
 51
180.000000000000000
  0
ARC
  8
0
  6
CONTINUOUS
 62
3
 10
421.659197983952480
 20
-165.308284613271100
 40
109.999999999999800
 50
92.924523789727928
 51
180.000000000000000
  0
CIRCLE
  8
0
  6
CONTINUOUS
 62
3
 10
446.659197983952480
 20
-159.670113937954740
 40
43.999999999999545
  0
ARC
  8
0
  6
DASHED
 62
3
 10
336.277590256788470
 20
-225.347020984983370
 40
9.000000000000075
 50
139.398468892516490
 51
172.601548410321070
  0
ARC
  8
0
  6
DASHED
 62
3
 10
328.641694631607150
 20
-224.355501862484740
 40
1.299999237060687
 50
172.601548410320760
 51
246.000017986079880
  0
ARC
  8
0
  6
DASHED
 62
3
 10
330.390762430678710
 20
-163.016764120354760
 40
1.000000000000128
 50
126.205708094041610
 51
179.412192132278280
  0
ARC
  8
0
  6
DASHED
 62
3
 10
329.209390314402300
 20
-161.402961182296620
 40
0.999999999999994
 50
306.205708094031080
 51
359.259505056807090
  0
ARC
  8
0
  6
DASHED
 62
3
 10
329.979598730555380
 20
-200.561970207291780
 40
1.000000000000008
 50
2.994076090848812
 51
56.047873053604029
  0
ARC
  8
0
  6
DASHED
 62
3
 10
331.096598755167860
 20
-198.902961182296620
 40
0.999999999999988
 50
182.841389015366990
 51
236.047873053618590
  0
ARC
  8
0
  6
DASHED
 62
3
 10
930.159197983952480
 20
-169.170113938002940
 40
600.799999999999950
 50
179.412192132293110
 51
182.841389015363350
  0
ARC
  8
0
  6
DASHED
 62
3
 10
333.789184387533400
 20
-213.292748526239850
 40
2.000000000000632
 50
184.231338074886000
 51
245.999999999972630
  0
ARC
  8
0
  6
DASHED
 62
3
 10
332.364510720253970
 20
-215.942351777881410
 40
1.000000000000041
 50
335.999999999996420
 51
66.000000000020236
  0
ARC
  8
0
  6
DASHED
 62
3
 10
328.985372604168560
 20
-228.449206921858380
 40
0.999999999999948
 50
156.000000000008300
 51
245.999999999972630
  0
ARC
  8
0
  6
DASHED
 62
3
 10
373.159197983952480
 20
-210.670113938002710
 40
5.000000000000000
 50
270.000000000000000
 51
0.000000000000000
  0
ARC
  8
0
  6
DASHED
 62
3
 10
375.159197983952480
 20
-136.478509060943680
 40
3.000000000000000
 50
0.000000000000000
 51
66.000000000020236
  0
ARC
  8
0
  6
DASHED
 62
3
 10
331.193148991640780
 20
-218.573273295889290
 40
1.000000000000041
 50
335.999999999996420
 51
4.715124834083239
  0
ARC
  8
0
  6
DASHED
 62
3
 10
930.159197983952480
 20
-169.170113938002940
 40
600.000000000001140
 50
178.317231198866840
 51
184.715124834091600
  0
ARC
  8
0
  6
DASHED
 62
3
 10
345.411486969393310
 20
-151.991218070267910
 40
15.000000000000041
 50
99.318123119675519
 51
178.317231198866920
  0
ARC
  8
0
  6
DASHED
 62
3
 10
368.452636720299100
 20
-129.969907009341800
 40
3.000000000000022
 50
279.318123119682530
 51
336.000000000000400
  0
ARC
  8
0
  6
DASHED
 62
3
 10
330.431336481771720
 20
-220.335900454897680
 40
1.299999237060620
 50
65.999999316753915
 51
139.398468892516150
  0
ARC
  8
0
  6
DASHED
 62
3
 10
373.889097999737030
 20
-127.593788398115290
 40
0.999999999999856
 50
66.000000000020236
 51
155.999999999996390
  0
ARC
  8
0
  6
CONTINUOUS
 62
3
 10
421.659197983952480
 20
-165.308284613271100
 40
67.326989840399662
 50
92.924523789728170
 51
180.000000000000000
  0
ARC
  8
0
  6
CONTINUOUS
 62
3
 10
203.569694288084290
 20
-114.670113937954730
 40
1.000000000000000
 50
180.000000000000000
 51
270.000000000000000
  0
ARC
  8
0
  6
CONTINUOUS
 62
3
 10
203.569694288084290
 20
-204.670113937954740
 40
1.000000000000000
 50
90.000000000000000
 51
180.000000000000000
  0
ARC
  8
0
  6
CONTINUOUS
 62
3
 10
129.586239740914830
 20
-140.913932701079830
 40
84.999999999999844
 50
31.410339509413163
 51
88.999999999999758
  0
ARC
  8
0
  6
CONTINUOUS
 62
3
 10
199.569694288084290
 20
-98.178513086381827
 40
3.000000000000000
 50
0.000000000000000
 51
31.410339509406533
  0
ARC
  8
0
  6
CONTINUOUS
 62
3
 10
200.569694288084290
 20
-311.532869037183450
 40
4.000000000000000
 50
0.000000000000000
 51
87.999999999996504
  0
ARC
  8
0
  6
CONTINUOUS
 62
3
 10
205.569694288084290
 20
-306.633889551616450
 40
3.000000000000000
 50
180.000000000000000
 51
224.415308597194890
  0
ARC
  8
0
  6
CONTINUOUS
 62
3
 10
198.148031568747000
 20
-304.444035901482490
 40
3.000000000000000
 50
180.000000000000000
 51
268.000000000005290
  0
ARC
  8
0
  6
CONTINUOUS
 62
3
 10
168.039864949613050
 20
-303.392635555156630
 40
3.000000000000000
 50
180.000000000000000
 51
267.999999999996080
  0
ARC
  8
0
  6
CONTINUOUS
 62
3
 10
49.569694288084293
 20
-56.670113937954739
 40
2.000000000000000
 50
90.000000000000000
 51
180.000000000000000
  0
ARC
  8
0
  6
CONTINUOUS
 62
3
 10
281.169694288084660
 20
-136.070113937955280
 40
0.399999999999636
 50
0.000000000000000
 51
90.000000000000000
  0
ARC
  8
0
  6
CONTINUOUS
 62
3
 10
281.169694288084660
 20
-183.270113937954190
 40
0.400000000000546
 50
270.000000000000000
 51
0.000000000000000
  0
ARC
  8
0
  6
CONTINUOUS
 62
3
 10
207.369694288084470
 20
-184.320113937955280
 40
0.800000000001091
 50
90.000000000000000
 51
180.000000000000000
  0
ARC
  8
0
  6
CONTINUOUS
 62
3
 10
207.369694288084470
 20
-135.020113937954190
 40
0.800000000000182
 50
180.000000000000000
 51
270.000000000000000
  0
ARC
  8
0
  6
CONTINUOUS
 62
3
 10
218.569286908942790
 20
-159.701346489219760
 40
7.000000000000000
 50
90.000000000000000
 51
270.000000000000000
  0
ARC
  8
0
  6
CONTINUOUS
 62
3
 10
38.569694288084293
 20
-57.670113937954739
 40
3.000000000000000
 50
90.000000000000000
 51
180.000000000000000
  0
ARC
  8
0
  6
CONTINUOUS
 62
3
 10
-241.330305711865210
 20
-216.613318995248160
 40
2.600000000000136
 50
180.000000000000000
 51
234.999999999998610
  0
ARC
  8
0
  6
CONTINUOUS
 62
3
 10
-221.624329934335830
 20
-209.170113938002710
 40
20.000000000000007
 50
234.999999999999740
 51
270.000000000000000
  0
ARC
  8
0
  6
CONTINUOUS
 62
3
 10
-241.330305711865210
 20
-121.726908880757260
 40
2.599999999999721
 50
125.000000000001370
 51
180.000000000000000
  0
ARC
  8
0
  6
CONTINUOUS
 62
3
 10
-221.624329934335830
 20
-129.170113938002710
 40
20.000000000000000
 50
90.000000000000000
 51
125.000000000000240
  0
ARC
  8
0
  6
CONTINUOUS
 62
4
 10
-149.980305711914870
 20
-144.170113938002490
 40
5.000000000000000
 50
90.000000000000000
 51
180.000000000000000
  0
ARC
  8
0
  6
CONTINUOUS
 62
3
 10
-149.980305711914870
 20
-137.668324500895320
 40
5.000000000000000
 50
90.000000000000000
 51
180.000000000000000
  0
ARC
  8
0
  6
CONTINUOUS
 62
3
 10
-150.380305711914500
 20
-137.573506297396760
 40
11.000000000000000
 50
90.000000000000000
 51
180.000000000000000
  0
ARC
  8
0
  6
CONTINUOUS
 62
3
 10
-149.980305711914870
 20
-213.746068707555420
 40
5.000000000000000
 50
180.000000000000000
 51
270.000000000000000
  0
ARC
  8
0
  6
CONTINUOUS
 62
3
 10
-150.380305711914500
 20
-219.176225665652510
 40
11.000000000000000
 50
180.000000000000000
 51
270.000000000000000
  0
ARC
  8
0
  6
CONTINUOUS
 62
3
 10
-150.380305711914500
 20
-217.956015736425340
 40
11.000000000000000
 50
180.000000000000000
 51
270.000000000000000
  0
ARC
  8
0
  6
CONTINUOUS
 62
3
 10
-124.190523892528850
 20
-214.746068720405670
 40
3.999999987149749
 50
270.000000000000000
 51
318.821565628880590
  0
ARC
  8
0
  6
CONTINUOUS
 62
3
 10
-123.417779927635930
 20
-214.746068713779100
 40
3.999999993776328
 50
270.000000000000000
 51
313.301579148531630
  0
ARC
  8
0
  6
CONTINUOUS
 62
3
 10
-106.442831496195480
 20
-214.746068713779100
 40
3.999999999999828
 50
226.698420851470790
 51
270.000000000000000
  0
ARC
  8
0
  6
CONTINUOUS
 62
3
 10
-105.670087531302320
 20
-214.746068720405670
 40
4.000000000000156
 50
221.178434371117250
 51
270.000000000000000
  0
LINE
  8
0
  6
CONTINUOUS
 62
3
 10
304.159197983952480
 20
-310.670113937953830
 11
304.159197983952480
 21
-329.670113937953830
  0
LINE
  8
0
  6
DASHDOT
 62
4
 10
477.811216199046840
 20
-169.170113938002710
 11
415.820765746412010
 21
-169.170113938002710
  0
LINE
  8
0
  6
CONTINUOUS
 62
3
 10
446.659197983952480
 20
-297.970113937954010
 11
519.159197983952480
 21
-297.970113937954010
  0
LINE
  8
0
  6
CONTINUOUS
 62
3
 10
529.159197983952480
 20
-164.670113937954740
 11
529.159197983952480
 21
-287.970113937954010
  0
LINE
  8
0
  6
CONTINUOUS
 62
3
 10
503.580195866983790
 20
-159.670113937954740
 11
524.159197983952480
 21
-159.670113937954740
  0
LINE
  8
0
  6
CONTINUOUS
 62
3
 10
446.659197983952480
 20
-297.970113937954010
 11
374.159197983952480
 21
-297.970113937954010
  0
LINE
  8
0
  6
CONTINUOUS
 62
3
 10
589.159197983952480
 20
-310.670113937953830
 11
589.159197983952480
 21
-329.670113937953830
  0
LINE
  8
0
  6
CONTINUOUS
 62
3
 10
354.159197983952480
 20
-329.670113937953830
 11
304.159197983952480
 21
-329.670113937953830
  0
LINE
  8
0
  6
DASHED
 62
3
 10
340.659197983952480
 20
-307.670113937953830
 11
340.434842234613140
 21
-307.670113937953830
  0
LINE
  8
0
  6
DASHDOT
 62
4
 10
321.659197983952480
 20
-303.457281563381000
 11
321.659197983952480
 21
-334.302052147488210
  0
LINE
  8
0
  6
CONTINUOUS
 62
3
 10
446.659197983952480
 20
-307.670113937953830
 11
307.159197983952480
 21
-307.670113937953830
  0
LINE
  8
0
  6
DASHED
 62
3
 10
552.659197983952480
 20
-307.670113937953830
 11
552.883553733292730
 21
-307.670113937953830
  0
LINE
  8
0
  6
CONTINUOUS
 62
3
 10
446.659197983952480
 20
-307.670113937953830
 11
586.159197983952480
 21
-307.670113937953830
  0
LINE
  8
0
  6
DASHDOT
 62
4
 10
571.659197983952480
 20
-303.457281563381000
 11
571.659197983952480
 21
-334.302052147487300
  0
LINE
  8
0
  6
CONTINUOUS
 62
3
 10
539.159197983952480
 20
-329.670113937953830
 11
589.159197983952480
 21
-329.670113937953830
  0
LINE
  8
0
  6
CONTINUOUS
 62
3
 10
446.659197983952480
 20
-327.670113937953830
 11
356.159197983952480
 21
-327.670113937953830
  0
LINE
  8
0
  6
CONTINUOUS
 62
3
 10
446.659197983952480
 20
-327.670113937953830
 11
537.159197983952480
 21
-327.670113937953830
  0
LINE
  8
0
  6
CONTINUOUS
 62
3
 10
538.986187824310260
 20
-164.670113937954740
 11
538.986187824310260
 21
-302.670113937953830
  0
LINE
  8
0
  6
CONTINUOUS
 62
3
 10
549.513913880502740
 20
-167.501955524747250
 11
549.513913880502740
 21
-302.670113937953830
  0
LINE
  8
0
  6
CONTINUOUS
 62
3
 10
572.668472748280010
 20
-167.501952647948200
 11
572.668472748280010
 21
-302.670113937953830
  0
LINE
  8
0
  6
CONTINUOUS
 62
3
 10
581.659197983952480
 20
-165.308284613271100
 11
581.659197983952480
 21
-304.670113937953830
  0
LINE
  8
0
  6
CONTINUOUS
 62
3
 10
467.159197983953390
 20
-29.670113937954739
 11
467.159197983953390
 21
-55.020424535883649
  0
LINE
  8
0
  6
DASHDOT
 62
4
 10
469.827110982834940
 20
-39.670113937954739
 11
422.804597081300240
 21
-39.670113937954739
  0
LINE
  8
0
  6
CONTINUOUS
 62
3
 10
457.159197983953390
 20
-19.670113937954739
 11
436.159197983953390
 21
-19.670113937954739
  0
LINE
  8
0
  6
CONTINUOUS
 62
3
 10
426.159197983953390
 20
-29.670113937954739
 11
426.159197983953390
 21
-55.020424535883649
  0
LINE
  8
0
  6
CONTINUOUS
 62
3
 10
419.159197983952480
 20
-152.701346489218850
 11
419.159197983952480
 21
-166.701346489218850
  0
LINE
  8
0
  6
CONTINUOUS
 62
3
 10
428.159197983952480
 20
-152.701346489218850
 11
428.159197983952480
 21
-166.701346489218850
  0
LINE
  8
0
  6
CONTINUOUS
 62
3
 10
419.159197983952480
 20
-152.701346489218850
 11
428.159197983952480
 21
-152.701346489218850
  0
LINE
  8
0
  6
CONTINUOUS
 62
3
 10
419.159197983952480
 20
-166.701346489218850
 11
428.159197983952480
 21
-166.701346489218850
  0
LINE
  8
0
  6
CONTINUOUS
 62
3
 10
354.332208143594700
 20
-164.670113937954740
 11
354.332208143594700
 21
-302.670113937953830
  0
LINE
  8
0
  6
DASHDOT
 62
4
 10
590.681827851214850
 20
-159.670113937954740
 11
307.052085892892820
 21
-159.670113937954740
  0
LINE
  8
0
  6
CONTINUOUS
 62
3
 10
389.738200100922090
 20
-159.670113937954740
 11
369.159197983952480
 21
-159.670113937954740
  0
LINE
  8
0
  6
CONTINUOUS
 62
3
 10
364.159197983952480
 20
-164.670113937954740
 11
364.159197983952480
 21
-287.970113937954010
  0
LINE
  8
0
  6
CONTINUOUS
 62
3
 10
320.649923219625860
 20
-167.501952647948200
 11
320.649923219625860
 21
-302.670113937953830
  0
LINE
  8
0
  6
CONTINUOUS
 62
3
 10
343.804482087403130
 20
-167.501955524747250
 11
343.804482087403130
 21
-302.670113937953830
  0
LINE
  8
0
  6
CONTINUOUS
 62
3
 10
311.659197983952480
 20
-165.308284613271100
 11
311.659197983952480
 21
-304.670113937953830
  0
LINE
  8
0
  6
DASHDOT
 62
4
 10
354.159197983952480
 20
-201.287590158297010
 11
354.159197983952480
 21
-224.156099334060630
  0
LINE
  8
0
  6
DASHED
 62
3
 10
376.853761924217000
 20
-127.819105541087080
 11
331.136563242492000
 21
-230.501614980113120
  0
LINE
  8
0
  6
DASHED
 62
3
 10
378.159197983952480
 20
-136.478509060943680
 11
378.159197983952480
 21
-210.670113938002710
  0
LINE
  8
0
  6
DASHED
 62
3
 10
333.088899129256110
 20
-226.116596783428580
 11
336.606049141180160
 21
-227.682532859270400
  0
LINE
  8
0
  6
DASHED
 62
3
 10
334.715845701559370
 20
-222.462414952858580
 11
338.232995713483210
 21
-224.028351028700400
  0
LINE
  8
0
  6
DASHED
 62
3
 10
354.283488961148810
 20
-169.170113938002710
 11
328.071827146525950
 21
-228.042470278782730
  0
LINE
  8
0
  6
DASHED
 62
3
 10
328.578635961092230
 20
-229.362752379500990
 11
331.136563242492000
 21
-230.501614980113120
  0
LINE
  8
0
  6
DASHED
 62
3
 10
373.159197983952480
 20
-215.670113938002710
 11
337.739972952623700
 21
-215.670113938002710
  0
LINE
  8
0
  6
DASHED
 62
3
 10
374.576036722992060
 20
-132.934960103885710
 11
376.379407913178740
 21
-133.737872688015840
  0
LINE
  8
0
  6
DASHED
 62
3
 10
374.295834642812450
 20
-126.680242940472680
 11
376.853761924211770
 21
-127.819105541084800
  0
LINE
  8
0
  6
DASHED
 62
3
 10
368.938384610737780
 20
-132.930320660663940
 11
342.982747517201690
 21
-137.189149813656970
  0
LINE
  8
0
  6
DASHED
 62
3
 10
372.975552542094420
 20
-127.187051755039420
 11
354.283488961145620
 21
-169.170113938002710
  0
LINE
  8
0
  6
DASHED
 62
3
 10
376.524601144545840
 20
-130.513443258897040
 11
375.788197261783810
 21
-130.826028161688330
  0
LINE
  8
0
  6
DASHED
 62
3
 10
375.654855239589780
 20
-130.511894043238950
 11
375.788197261783810
 21
-130.826028161688330
  0
LINE
  8
0
  6
DASHED
 62
3
 10
376.099768984799770
 20
-129.512601410281600
 11
376.524601144545840
 21
-130.513443258897040
  0
LINE
  8
0
  6
DASHED
 62
3
 10
331.854477927131260
 20
-219.546497522706430
 11
330.960093807454770
 21
-219.148292056942180
  0
LINE
  8
0
  6
DASHED
 62
3
 10
329.007321425600370
 20
-225.941315726204720
 11
328.112937305923880
 21
-225.543110260440240
  0
LINE
  8
0
  6
DASHED
 62
3
 10
331.854477927131260
 20
-219.546497522706430
 11
329.007321425600370
 21
-225.941315726204720
  0
LINE
  8
0
  6
DASHED
 62
3
 10
331.854477927131260
 20
-219.546497522706430
 11
329.007321425600370
 21
-225.941315726204720
  0
LINE
  8
0
  6
DASHED
 62
3
 10
338.410378798581630
 20
-224.490449763951800
 11
337.068147876431570
 21
-227.505149774171970
  0
LINE
  8
0
  6
DASHED
 62
3
 10
336.606049141180160
 20
-227.682532859270400
 11
337.068147876431570
 21
-227.505149774171970
  0
LINE
  8
0
  6
DASHED
 62
3
 10
338.232995713483210
 20
-224.028351028700400
 11
338.410378798581630
 21
-224.490449763951800
  0
LINE
  8
0
  6
DASHED
 62
3
 10
334.573487876482890
 20
-222.782155863033490
 11
338.410378798581630
 21
-224.490449763951800
  0
LINE
  8
0
  6
DASHED
 62
3
 10
333.231256954332370
 20
-225.796855873254120
 11
337.068147876431340
 21
-227.505149774172420
  0
LINE
  8
0
  6
DASHDOT
 62
4
 10
446.659197983952480
 20
-4.577524162057671
 11
446.659197983952480
 21
-337.010272720319340
  0
LINE
  8
0
  6
CONTINUOUS
 62
3
 10
204.569694288084290
 20
-311.532869037183450
 11
204.569694288084290
 21
-329.670113937954740
  0
LINE
  8
0
  6
CONTINUOUS
 62
3
 10
200.709292274894550
 20
-307.535305729106770
 11
164.569694288084290
 21
-306.273283158284360
  0
LINE
  8
0
  6
DASHDOT
 62
4
 10
186.569694288084290
 20
-300.743152382474360
 11
186.569694288084290
 21
-338.081376412014830
  0
LINE
  8
0
  6
CONTINUOUS
 62
3
 10
202.569694288084290
 20
-159.670113937954740
 11
202.569694288084290
 21
-306.633889551616450
  0
LINE
  8
0
  6
CONTINUOUS
 62
3
 10
204.569694288084290
 20
-159.670113937954740
 11
204.569694288084290
 21
-203.670113937954740
  0
LINE
  8
0
  6
CONTINUOUS
 62
3
 10
204.569694288084290
 20
-159.670113937954740
 11
204.569694288084290
 21
-115.670113937954730
  0
LINE
  8
0
  6
CONTINUOUS
 62
3
 10
202.569694288084290
 20
-159.670113937954740
 11
202.569694288084290
 21
-98.178513086381827
  0
LINE
  8
0
  6
DASHDOT
 62
4
 10
297.623876625109230
 20
-159.670113937954740
 11
147.488954875135510
 21
-159.670113937954740
  0
LINE
  8
0
  6
CONTINUOUS
 62
3
 10
131.069694288084290
 20
-55.926878612786822
 11
59.069694288084293
 21
-54.670113937954739
  0
LINE
  8
0
  6
CONTINUOUS
 62
3
 10
195.148031568747000
 20
-167.501952647949110
 11
195.148031568747000
 21
-304.444035901482490
  0
LINE
  8
0
  6
CONTINUOUS
 62
3
 10
165.039864949613050
 20
-167.501952647949110
 11
165.039864949613050
 21
-303.392635555156630
  0
LINE
  8
0
  6
CONTINUOUS
 62
3
 10
203.569694288084290
 20
-115.670113937954730
 11
204.569694288084290
 21
-115.670113937954730
  0
LINE
  8
0
  6
CONTINUOUS
 62
3
 10
203.569694288084290
 20
-203.670113937954740
 11
204.569694288084290
 21
-203.670113937954740
  0
LINE
  8
0
  6
CONTINUOUS
 62
3
 10
281.169694288084660
 20
-135.670113937954740
 11
209.129501909219700
 21
-135.670113937954740
  0
LINE
  8
0
  6
CONTINUOUS
 62
3
 10
281.569694288084290
 20
-159.670113937954740
 11
281.569694288084290
 21
-136.070113937955280
  0
LINE
  8
0
  6
CONTINUOUS
 62
3
 10
281.569694288084290
 20
-159.670113937954740
 11
281.569694288084290
 21
-183.270113937954190
  0
LINE
  8
0
  6
CONTINUOUS
 62
3
 10
281.169694288084660
 20
-183.670113937954740
 11
209.129501909219700
 21
-183.670113937954740
  0
LINE
  8
0
  6
CONTINUOUS
 62
3
 10
206.569694288084290
 20
-184.470113937954920
 11
206.369694288084470
 21
-184.670113937954740
  0
LINE
  8
0
  6
CONTINUOUS
 62
3
 10
206.569694288084290
 20
-184.320113937955280
 11
206.569694288084290
 21
-184.470113937954920
  0
LINE
  8
0
  6
CONTINUOUS
 62
3
 10
208.569694288084290
 20
-183.520113937954190
 11
207.369694288084470
 21
-183.520113937954190
  0
LINE
  8
0
  6
CONTINUOUS
 62
3
 10
208.569694288084290
 20
-183.520113937954190
 11
209.129501909219700
 21
-183.670113937954740
  0
LINE
  8
0
  6
CONTINUOUS
 62
3
 10
206.369694288084470
 20
-184.670113937954740
 11
204.569694288084290
 21
-184.670113937954740
  0
LINE
  8
0
  6
CONTINUOUS
 62
3
 10
206.569694288084290
 20
-159.670113937954740
 11
206.569694288084290
 21
-184.320113937955280
  0
LINE
  8
0
  6
CONTINUOUS
 62
3
 10
206.569694288084290
 20
-134.870113937954560
 11
206.369694288084470
 21
-134.670113937954740
  0
LINE
  8
0
  6
CONTINUOUS
 62
3
 10
206.569694288084290
 20
-135.020113937954190
 11
206.569694288084290
 21
-134.870113937954560
  0
LINE
  8
0
  6
CONTINUOUS
 62
3
 10
208.569694288084290
 20
-135.820113937955280
 11
207.369694288084470
 21
-135.820113937955280
  0
LINE
  8
0
  6
CONTINUOUS
 62
3
 10
208.569694288084290
 20
-135.820113937955280
 11
209.129501909219700
 21
-135.670113937954740
  0
LINE
  8
0
  6
CONTINUOUS
 62
3
 10
206.369694288084470
 20
-134.670113937954740
 11
204.569694288084290
 21
-134.670113937954740
  0
LINE
  8
0
  6
CONTINUOUS
 62
3
 10
206.569694288084290
 20
-159.670113937954740
 11
206.569694288084290
 21
-135.020113937954190
  0
LINE
  8
0
  6
CONTINUOUS
 62
3
 10
31.069694288084293
 20
-19.670113937955648
 11
35.569694288084293
 21
-19.670113937955648
  0
LINE
  8
0
  6
DASHDOT
 62
4
 10
25.339446887270469
 20
-39.670113937955648
 11
43.438712902561974
 21
-39.670113937955648
  0
LINE
  8
0
  6
CONTINUOUS
 62
3
 10
281.569694288083840
 20
-152.701346489219760
 11
218.569286908942790
 21
-152.701346489219760
  0
LINE
  8
0
  6
CONTINUOUS
 62
3
 10
281.569694288083840
 20
-166.701346489219760
 11
218.569286908942790
 21
-166.701346489219760
  0
LINE
  8
0
  6
CONTINUOUS
 62
3
 10
35.569694288084293
 20
-71.670113937954739
 11
35.569694288084293
 21
-57.670113937954739
  0
LINE
  8
0
  6
CONTINUOUS
 62
3
 10
38.569694288084293
 20
-54.670113937954739
 11
59.069694288084293
 21
-54.670113937954739
  0
LINE
  8
0
  6
CONTINUOUS
 62
3
 10
-151.930305711914910
 20
-115.429998837565100
 11
-153.930305711914910
 21
-117.082640476688530
  0
LINE
  8
0
  6
CONTINUOUS
 62
3
 10
-149.930305711914910
 20
-114.254213351942320
 11
-151.930305711914910
 21
-115.429998837565100
  0
LINE
  8
0
  6
CONTINUOUS
 62
3
 10
-151.930305711914910
 20
-115.429998837565100
 11
-149.930305711914910
 21
-117.082640476688530
  0
LINE
  8
0
  6
CONTINUOUS
 62
3
 10
-153.930305711914910
 20
-114.254213351942320
 11
-151.930305711914910
 21
-115.429998837565100
  0
LINE
  8
0
  6
CONTINUOUS
 62
3
 10
-233.095858661356830
 20
-225.553154823782510
 11
-242.821604446377820
 21
-218.743114310399280
  0
LINE
  8
0
  6
CONTINUOUS
 62
3
 10
-243.930305711865340
 20
-169.170113938002710
 11
-243.930305711865340
 21
-216.613318995248160
  0
LINE
  8
0
  6
CONTINUOUS
 62
3
 10
-154.976194875045050
 20
-229.170113938002710
 11
-221.624329934335830
 21
-229.170113938002710
  0
LINE
  8
0
  6
CONTINUOUS
 62
3
 10
-233.095858661356830
 20
-112.787073052222920
 11
-242.821604446377820
 21
-119.597113565606150
  0
LINE
  8
0
  6
CONTINUOUS
 62
3
 10
-243.930305711865340
 20
-169.170113938002710
 11
-243.930305711865340
 21
-121.726908880757260
  0
LINE
  8
0
  6
CONTINUOUS
 62
3
 10
-140.930305711915480
 20
-109.170113938002710
 11
-221.624329934335830
 21
-109.170113938002710
  0
LINE
  8
0
  6
CONTINUOUS
 62
3
 10
-140.930305711915480
 20
-126.573506297396760
 11
-140.930305711915480
 21
-109.170113938002710
  0
LINE
  8
0
  6
CONTINUOUS
 62
3
 10
-161.380305711914500
 20
-137.573506297396760
 11
-161.380305711914500
 21
-219.176225665652510
  0
LINE
  8
0
  6
CONTINUOUS
 62
3
 10
-154.980305711914870
 20
-137.668324500895320
 11
-154.980305711914870
 21
-213.746068707555420
  0
LINE
  8
0
  6
CONTINUOUS
 62
4
 10
-114.930305711915590
 20
-139.170113938002490
 11
-149.980305711914870
 21
-139.170113938002490
  0
LINE
  8
0
  6
CONTINUOUS
 62
3
 10
-114.930305711915590
 20
-132.668324500895320
 11
-149.980305711914870
 21
-132.668324500895320
  0
LINE
  8
0
  6
CONTINUOUS
 62
3
 10
-150.380305711914500
 20
-126.573506297396760
 11
-114.930305711915590
 21
-126.573506297396760
  0
LINE
  8
0
  6
CONTINUOUS
 62
4
 10
-136.580940806525750
 20
-199.902961182296620
 11
-122.147184076785030
 21
-199.902961182296620
  0
LINE
  8
0
  6
CONTINUOUS
 62
4
 10
-114.930305711915590
 20
-187.402961182296620
 11
-122.147184076785030
 21
-199.902961182296620
  0
LINE
  8
0
  6
CONTINUOUS
 62
4
 10
-129.364062441655390
 20
-187.402961182296620
 11
-136.580940806525750
 21
-199.902961182296620
  0
LINE
  8
0
  6
CONTINUOUS
 62
4
 10
-129.364062441655390
 20
-187.402961182296620
 11
-114.930305711915590
 21
-187.402961182296620
  0
LINE
  8
0
  6
CONTINUOUS
 62
4
 10
-122.147184076785940
 20
-174.902961182296850
 11
-114.930305711915590
 21
-187.402961182296620
  0
LINE
  8
0
  6
CONTINUOUS
 62
4
 10
-114.930305711915590
 20
-162.402961182296620
 11
-122.147184076785940
 21
-174.902961182296620
  0
LINE
  8
0
  6
CONTINUOUS
 62
4
 10
-100.496548982175790
 20
-187.402961182296620
 11
-93.279670617305442
 21
-199.902961182296620
  0
LINE
  8
0
  6
CONTINUOUS
 62
4
 10
-93.279670617305442
 20
-199.902961182296620
 11
-107.713427347046140
 21
-199.902961182296620
  0
LINE
  8
0
  6
CONTINUOUS
 62
4
 10
-114.930305711915590
 20
-162.402961182296620
 11
-107.713427347045240
 21
-174.902961182296620
  0
LINE
  8
0
  6
CONTINUOUS
 62
4
 10
-107.713427347045240
 20
-174.902961182296850
 11
-114.930305711915590
 21
-187.402961182296620
  0
LINE
  8
0
  6
CONTINUOUS
 62
4
 10
-100.496548982175790
 20
-187.402961182296620
 11
-114.930305711915590
 21
-187.402961182296620
  0
LINE
  8
0
  6
CONTINUOUS
 62
4
 10
-114.930305711915590
 20
-187.402961182296620
 11
-107.713427347046140
 21
-199.902961182296620
  0
LINE
  8
0
  6
DASHDOT
 62
4
 10
-114.930305711915590
 20
-123.670514105210710
 11
-114.930305711915590
 21
-236.324233530447370
  0
LINE
  8
0
  6
CONTINUOUS
 62
3
 10
-123.417779929309170
 20
-218.746068707555420
 11
-149.980305711914870
 21
-218.746068707555420
  0
LINE
  8
0
  6
CONTINUOUS
 62
3
 10
-150.380305711914500
 20
-228.956015736425340
 11
-114.930305711915590
 21
-228.956015736425340
  0
LINE
  8
0
  6
CONTINUOUS
 62
3
 10
-150.380305711914500
 20
-230.176225665652510
 11
-114.930305711915590
 21
-230.176225665652510
  0
LINE
  8
0
  6
CONTINUOUS
 62
3
 10
-112.930305711915590
 20
-223.605012342230570
 11
-116.930305711915590
 21
-219.950830511660120
  0
LINE
  8
0
  6
CONTINUOUS
 62
3
 10
-116.930305711915590
 20
-223.605012342230570
 11
-112.930305711915590
 21
-219.950830511660120
  0
LINE
  8
0
  6
CONTINUOUS
 62
3
 10
-106.442831494522230
 20
-218.746068707555420
 11
-79.880305711916435
 21
-218.746068707555420
  0
LINE
  8
0
  6
CONTINUOUS
 62
3
 10
-79.480305711916799
 20
-230.176225665652510
 11
-114.930305711915590
 21
-230.176225665652510
  0
LINE
  8
0
  6
CONTINUOUS
 62
3
 10
-79.480305711916799
 20
-228.956015736425340
 11
-114.930305711915590
 21
-228.956015736425340
  0
LINE
  8
0
  6
CONTINUOUS
 62
3
 10
-114.930305711915590
 20
-132.668324500895320
 11
-79.880305711916435
 21
-132.668324500895320
  0
LINE
  8
0
  6
CONTINUOUS
 62
4
 10
-114.930305711915590
 20
-139.170113938002490
 11
-79.880305711916435
 21
-139.170113938002490
  0
LINE
  8
0
  6
CONTINUOUS
 62
3
 10
-79.480305711916799
 20
-126.573506297396760
 11
-114.930305711915590
 21
-126.573506297396760
  0
INSERT
  8
0
  2
SYM2
 10
31.069694288080655
 20
-67.670113937955648
  0
INSERT
  8
0
  2
SYM2
 10
47.569694288084293
 20
-68.670114750847461
  0
ENDSEC
  0
EOF
