  0
SECTION
  2
HEADER
  9
$FILLMODE
 70
1
  9
$TEXTSTYLE
  7
STANDARD1
  9
$ACADVER
  1
AC1009
  9
$DIMASZ
 40
1.931851648807023
  9
$DIMEXE
 40
2.000000000000000
  9
$DIMEXO
 40
1.000000000000000
  9
$DIMLFAC
 40
1.000000000000000
  9
$DIMSCALE
 40
1.000000000000000
  9
$DIMTAD
 70
1
  9
$DIMTFAC
 40
0.714285731315613
  9
$DIMTXT
 40
3.200000047683716
  9
$LUPREC
 70
3
  9
$TEXTSIZE
 40
2.799999952316284
  9
$REGENMODE
 70
1
  0
ENDSEC
  0
SECTION
  2
TABLES
  0
TABLE
  2
LTYPE
 70
4
  0
LTYPE
  2
CONTINUOUS
 70
64
  3
Solid line
 72
65
 73
0
 40
0.0
  0
LTYPE
  2
DASHED
 70
64
  3
-- -- -- -- -- -- -- -- -- -- -- -- -- -- --
 72
65
 73
2
 40
0.75
 49
0.5
 49
-0.25
  0
LTYPE
  2
DASHDOT
 70
64
  3
__ . __ . __ . __ . __ . __ . __ . __ . __ . __
 72
65
 73
4
 40
1.0
 49
0.5
 49
-0.25
 49
0.0
 49
-0.25
  0
LTYPE
  2
DIVIDE
 70
64
  3
__ . . __ . . __ . . __ . . __ . . __ . . __
 72
65
 73
6
 40
1.25
 49
0.5
 49
-0.25
 49
0.0
 49
-0.25
 49
0.0
 49
-0.25
  0
ENDTAB
  0
TABLE
  2
LAYER
 70
1
  0
LAYER
  2
0
 70
64
 62
2
  6
CONTINUOUS
  0
ENDTAB
  0
TABLE
  2
STYLE
 70
4
  0
STYLE
  2
STANDARD1
 70
64
 40
0.0
 41
1.0
 50
0.0
 71
0
 42
2.799999952316284
  3
MONOTXT
  4
BIGFONT
  0
STYLE
  2
STANDARD2
 70
68
 40
0.0
 41
1.0
 50
0.0
 71
0
 42
2.799999952316284
  3
MONOTXT
  4
BIGFONT
  0
STYLE
  2
STANDARD3
 70
64
 40
0.0
 41
1.0
 50
0.0
 71
0
 42
2.799999952316284
  3
MONOTXT
  4

  0
STYLE
  2
STANDARD4
 70
68
 40
0.0
 41
1.0
 50
0.0
 71
0
 42
2.799999952316284
  3
MONOTXT
  4

  0
ENDTAB
  0
TABLE
  2
VIEW
 70
0
  0
ENDTAB
  0
ENDSEC
  0
SECTION
  2
BLOCKS
  0
BLOCK
  8
0
  2
SYM1
 70
64
 10
0.000000000000000
 20
0.000000000000000
  0
ARC
  8
0
  6
CONTINUOUS
 62
3
 10
4.250000000000000
 20
-0.000017508195015
 40
9.750000000000000
 50
157.379852817599810
 51
202.619583464422590
  0
ARC
  8
0
  6
CONTINUOUS
 62
3
 10
-2.779975891113281
 20
5.625011444091797
 40
2.720000267028809
 50
179.999745461767870
 51
223.599738934167330
  0
ARC
  8
0
  6
CONTINUOUS
 62
3
 10
-2.780022621154785
 20
-5.624988555908203
 40
2.720000267028809
 50
136.399751989368410
 51
179.999745461767870
  0
LINE
  8
0
  6
CONTINUOUS
 62
3
 10
-4.749979019169359
 20
3.750014305102241
 11
0.000017610677105
 21
3.749996185290124
  0
LINE
  8
0
  6
CONTINUOUS
 62
3
 10
-4.750011996199395
 20
-3.749974250803856
 11
-0.000011530566302
 21
-3.749994277972148
  0
LINE
  8
0
  6
CONTINUOUS
 62
3
 10
0.000030896794669
 20
7.500000000000000
 11
-0.000030896794669
 21
-7.500000000000000
  0
LINE
  8
0
  6
CONTINUOUS
 62
3
 10
-4.749964714019825
 20
7.500017166133830
 11
0.000031348552056
 21
7.499999046315238
  0
LINE
  8
0
  6
CONTINUOUS
 62
3
 10
-5.499983083855739
 20
6.300024529816085
 11
-4.749977372865317
 21
7.500023360260684
  0
LINE
  8
0
  6
CONTINUOUS
 62
3
 10
-5.500023365026398
 20
-6.299976341312318
 11
-5.499970912939614
 21
6.300019271785827
  0
LINE
  8
0
  6
CONTINUOUS
 62
3
 10
-4.750049139977591
 20
-7.499993996888350
 11
-5.500046248261697
 21
-6.299990408291990
  0
LINE
  8
0
  6
CONTINUOUS
 62
3
 10
-0.000030423851130
 20
-7.499999046330735
 11
-4.750025899805295
 21
-7.499979019174840
  0
POINT
  8
0
  6
CONTINUOUS
 62
3
 10
0.000000000000000
 20
0.000000000000000
  0
ENDBLK
  8
0
  0
BLOCK
  8
0
  2
SYM2
 70
64
 10
0.000000000000000
 20
0.000000000000000
  0
POINT
  8
0
  6
CONTINUOUS
 62
3
 10
0.000000000000000
 20
0.000000000000000
  0
LINE
  8
0
  6
CONTINUOUS
 62
3
 10
0.000000000000000
 20
-6.500000000000000
 11
-0.000000000000000
 21
6.500000000000000
  0
LINE
  8
0
  6
CONTINUOUS
 62
3
 10
-7.999999046325684
 20
5.633875846862793
 11
-7.999999046325684
 21
-5.634070396423340
  0
LINE
  8
0
  6
CONTINUOUS
 62
3
 10
0.000000000000000
 20
6.500000000000000
 11
-7.499999046325684
 21
6.500000000000000
  0
LINE
  8
0
  6
CONTINUOUS
 62
3
 10
-0.000000000000000
 20
-6.500000000000000
 11
-7.499998092651367
 21
-6.500000000000000
  0
LINE
  8
0
  6
CONTINUOUS
 62
3
 10
-7.499999203818277
 20
6.499999909101064
 11
-7.999999021366804
 21
5.633876130311293
  0
LINE
  8
0
  6
CONTINUOUS
 62
3
 10
-7.499997911632022
 20
-6.499999445138201
 11
-7.999998623386432
 21
-5.634070287011241
  0
LINE
  8
0
  6
CONTINUOUS
 62
3
 10
-7.499999046325684
 20
6.500000000000000
 11
-7.499999046325684
 21
-6.500000000000000
  0
ENDBLK
  8
0
  0
BLOCK
  8
0
  2
SYM3
 70
64
 10
0.000000000000000
 20
0.000000000000000
  0
POINT
  8
0
  6
CONTINUOUS
 62
3
 10
0.000000000000000
 20
0.000000000000000
  0
LINE
  8
0
  6
CONTINUOUS
 62
3
 10
0.002401208367701
 20
-7.504162813807056
 11
-6.495187652077846
 21
-3.749994904254493
  0
LINE
  8
0
  6
CONTINUOUS
 62
3
 10
-6.495189094719432
 20
-3.749993872743451
 11
-6.497592351816327
 21
3.754165100950397
  0
LINE
  8
0
  6
CONTINUOUS
 62
3
 10
-6.497593715787616
 20
3.754167812298078
 11
-0.002401379516073
 21
7.504164176415429
  0
LINE
  8
0
  6
CONTINUOUS
 62
3
 10
-0.002401208367701
 20
7.504162813807056
 11
6.495187652077846
 21
3.749994904254493
  0
LINE
  8
0
  6
CONTINUOUS
 62
3
 10
6.495189094719432
 20
3.749993872743451
 11
6.497592351816327
 21
-3.754165100950397
  0
LINE
  8
0
  6
CONTINUOUS
 62
3
 10
6.497593715787616
 20
-3.754167812298078
 11
0.002401379516073
 21
-7.504164176415429
  0
CIRCLE
  8
0
  6
CONTINUOUS
 62
3
 10
0.000000000000000
 20
0.000000000000000
 40
6.500000000000000
  0
ENDBLK
  8
0
  0
BLOCK
  8
0
  2
SYM4
 70
64
 10
0.000000000000000
 20
0.000000000000000
  0
POINT
  8
0
  6
CONTINUOUS
 62
3
 10
0.000000000000000
 20
0.000000000000000
  0
LINE
  8
0
  6
CONTINUOUS
 62
3
 10
0.002401208367701
 20
-7.504162813807056
 11
-6.495187652077846
 21
-3.749994904254493
  0
LINE
  8
0
  6
CONTINUOUS
 62
3
 10
-6.495189094719432
 20
-3.749993872743451
 11
-6.497592351816327
 21
3.754165100950397
  0
LINE
  8
0
  6
CONTINUOUS
 62
3
 10
-6.497593715787616
 20
3.754167812298078
 11
-0.002401379516073
 21
7.504164176415429
  0
LINE
  8
0
  6
CONTINUOUS
 62
3
 10
-0.002401208367701
 20
7.504162813807056
 11
6.495187652077846
 21
3.749994904254493
  0
LINE
  8
0
  6
CONTINUOUS
 62
3
 10
6.495189094719432
 20
3.749993872743451
 11
6.497592351816327
 21
-3.754165100950397
  0
LINE
  8
0
  6
CONTINUOUS
 62
3
 10
6.497593715787616
 20
-3.754167812298078
 11
0.002401379516073
 21
-7.504164176415429
  0
CIRCLE
  8
0
  6
CONTINUOUS
 62
3
 10
0.000000000000000
 20
0.000000000000000
 40
6.500000000000000
  0
ENDBLK
  8
0
  0
BLOCK
  8
0
  2
SYM5
 70
64
 10
0.000000000000000
 20
0.000000000000000
  0
CIRCLE
  8
0
  6
CONTINUOUS
 62
3
 10
0.000000000000000
 20
0.000000000000000
 40
5.633955001831055
  0
CIRCLE
  8
0
  6
CONTINUOUS
 62
3
 10
0.000000000000000
 20
0.000000000000000
 40
6.500000000000000
  0
POINT
  8
0
  6
CONTINUOUS
 62
3
 10
0.000000000000000
 20
0.000000000000000
  0
LINE
  8
0
  6
CONTINUOUS
 62
3
 10
-2.999996662140960
 20
-1.732045999551255
 11
-2.999997615815242
 21
1.732051977133316
  0
LINE
  8
0
  6
CONTINUOUS
 62
3
 10
2.999996662140697
 20
1.732046953225571
 11
2.999997615814979
 21
-1.732051023458999
  0
LINE
  8
0
  6
CONTINUOUS
 62
3
 10
0.000006701720849
 20
3.464096999935236
 11
-2.999997939551520
 21
1.732051821705568
  0
LINE
  8
0
  6
CONTINUOUS
 62
3
 10
2.999998112093635
 20
-1.732051392778772
 11
-0.000004464412200
 21
-3.464098365415111
  0
LINE
  8
0
  6
CONTINUOUS
 62
3
 10
0.000006618601731
 20
3.464096896385627
 11
2.999997425948948
 21
1.732046782136365
  0
LINE
  8
0
  6
CONTINUOUS
 62
3
 10
-0.000004704988612
 20
-3.464098175748802
 11
-2.999997577100373
 21
-1.732046218032735
  0
POINT
  8
0
  6
CONTINUOUS
 62
3
 10
0.500000119209290
 20
6.500000000000000
  0
POINT
  8
0
  6
CONTINUOUS
 62
3
 10
0.000000000000000
 20
5.633955001831055
  0
ENDBLK
  8
0
  0
BLOCK
  8
0
  2
SYM6
 70
64
 10
0.000000000000000
 20
0.000000000000000
  0
CIRCLE
  8
0
  6
CONTINUOUS
 62
3
 10
0.000000000000000
 20
0.000000000000000
 40
6.960738182067871
  0
CIRCLE
  8
0
  6
CONTINUOUS
 62
3
 10
0.000000000000000
 20
0.000000000000000
 40
8.000000000000000
  0
POINT
  8
0
  6
CONTINUOUS
 62
3
 10
0.000000000000000
 20
0.000000000000000
  0
LINE
  8
0
  6
CONTINUOUS
 62
3
 10
-3.999997139938404
 20
-2.309395532903077
 11
-3.999999047287009
 21
2.314052838984130
  0
LINE
  8
0
  6
CONTINUOUS
 62
3
 10
3.999998569010026
 20
2.314043870120289
 11
3.999999522684329
 21
-2.309402594418285
  0
LINE
  8
0
  6
CONTINUOUS
 62
3
 10
3.999998221725946
 20
2.314044355750525
 11
0.000007450274552
 21
4.623449687881021
  0
LINE
  8
0
  6
CONTINUOUS
 62
3
 10
-0.000006538738603
 20
-4.618798907292330
 11
-3.999997310189656
 21
-2.309395428508765
  0
LINE
  8
0
  6
CONTINUOUS
 62
3
 10
-3.999998875528718
 20
2.314052870410592
 11
0.000007037532896
 21
4.623449279581905
  0
LINE
  8
0
  6
CONTINUOUS
 62
3
 10
3.999999097720604
 20
-2.309402025869701
 11
-0.000006540038783
 21
-4.618798985645469
  0
ENDBLK
  8
0
  0
BLOCK
  8
0
  2
SYM7
 70
64
 10
0.000000000000000
 20
0.000000000000000
  0
POINT
  8
0
  6
CONTINUOUS
 62
3
 10
0.000000000000000
 20
0.000000000000000
  0
LINE
  8
0
  6
CONTINUOUS
 62
3
 10
0.000000000000000
 20
8.000000000000000
 11
0.000000000000000
 21
-8.000000000000000
  0
LINE
  8
0
  6
CONTINUOUS
 62
3
 10
-10.000000476827037
 20
6.960612565696465
 11
-9.999999523152582
 21
-6.960911482155097
  0
LINE
  8
0
  6
CONTINUOUS
 62
3
 10
0.000000000000000
 20
8.000000000000000
 11
-9.399999618530273
 21
8.000000000000000
  0
LINE
  8
0
  6
CONTINUOUS
 62
3
 10
-0.000000000000000
 20
-8.000000000000000
 11
-9.399999618530273
 21
-8.000000000000000
  0
POINT
  8
0
  6
CONTINUOUS
 62
3
 10
0.000000000000000
 20
0.000000000000000
  0
LINE
  8
0
  6
CONTINUOUS
 62
3
 10
-9.399995837072993
 20
7.999998091430371
 11
-9.999996234594676
 21
6.960609445139085
  0
LINE
  8
0
  6
CONTINUOUS
 62
3
 10
-9.399998831389837
 20
-7.999998896492343
 11
-9.999998372115272
 21
-6.960910396167719
  0
LINE
  8
0
  6
CONTINUOUS
 62
3
 10
-9.399999618530273
 20
8.000000000000000
 11
-9.399999618530273
 21
-8.000000000000000
  0
ENDBLK
  8
0
  0
ENDSEC
  0
SECTION
  2
ENTITIES
  0
ARC
  8
0
  6
CONTINUOUS
 62
3
 10
-496.814258507844730
 20
-147.248297643575910
 40
6.099999427795406
 50
84.601927898108471
 51
185.398089404735120
  0
POINT
  8
0
  6
CONTINUOUS
 62
3
 10
-499.077000072771740
 20
-144.985556078648870
  0
LINE
  8
0
  6
CONTINUOUS
 62
3
 10
-502.400401809478580
 20
-148.308957815355740
 11
-495.753598336064900
 21
-141.662154341942000
  0
LINE
  8
0
  6
CONTINUOUS
 62
3
 10
-502.713540418447390
 20
-148.056410864505350
 11
-496.036441115974470
 21
-141.379311562032430
  0
LINE
  8
0
  6
CONTINUOUS
 62
3
 10
-495.753598336064900
 20
-141.662154341942000
 11
-496.240401727770520
 21
-141.175350950236410
  0
LINE
  8
0
  6
CONTINUOUS
 62
3
 10
-502.400401809478580
 20
-148.308957815355740
 11
-502.887205201184200
 21
-147.822154423650120
  0
ARC
  8
0
  6
CONTINUOUS
 62
3
 10
-496.814258507844730
 20
-246.101825923195210
 40
6.099999427795398
 50
174.601910595264880
 51
275.398072101891500
  0
POINT
  8
0
  6
CONTINUOUS
 62
3
 10
-499.077000072771740
 20
-248.364567488122250
  0
LINE
  8
0
  6
CONTINUOUS
 62
3
 10
-502.400401809478580
 20
-245.041165751415380
 11
-495.753598336064900
 21
-251.687969224829120
  0
LINE
  8
0
  6
CONTINUOUS
 62
3
 10
-502.713540418447390
 20
-245.293712702265760
 11
-496.036441115974470
 21
-251.970812004738690
  0
LINE
  8
0
  6
CONTINUOUS
 62
3
 10
-495.753598336064900
 20
-251.687969224829120
 11
-496.240401727770520
 21
-252.174772616534710
  0
LINE
  8
0
  6
CONTINUOUS
 62
3
 10
-502.400401809478580
 20
-245.041165751415380
 11
-502.887205201184200
 21
-245.527969143121000
  0
ARC
  8
0
  6
CONTINUOUS
 62
3
 10
-397.960730228225600
 20
-246.101825923195210
 40
6.099999427795406
 50
264.601927898108500
 51
5.398089404735109
  0
POINT
  8
0
  6
CONTINUOUS
 62
3
 10
-395.697988663298590
 20
-248.364567488122250
  0
LINE
  8
0
  6
CONTINUOUS
 62
3
 10
-392.374586926591750
 20
-245.041165751415380
 11
-399.021390400005430
 21
-251.687969224829120
  0
LINE
  8
0
  6
CONTINUOUS
 62
3
 10
-392.061448317622930
 20
-245.293712702265760
 11
-398.738547620095860
 21
-251.970812004738690
  0
LINE
  8
0
  6
CONTINUOUS
 62
3
 10
-399.021390400005430
 20
-251.687969224829120
 11
-398.534587008299810
 21
-252.174772616534710
  0
LINE
  8
0
  6
CONTINUOUS
 62
3
 10
-392.374586926591750
 20
-245.041165751415380
 11
-391.887783534886130
 21
-245.527969143121000
  0
ARC
  8
0
  6
CONTINUOUS
 62
3
 10
-397.960730228225600
 20
-147.248297643575910
 40
6.099999427795398
 50
354.601910595264880
 51
95.398072101891529
  0
POINT
  8
0
  6
CONTINUOUS
 62
3
 10
-395.697988663298590
 20
-144.985556078648870
  0
LINE
  8
0
  6
CONTINUOUS
 62
3
 10
-392.374586926591750
 20
-148.308957815355740
 11
-399.021390400005430
 21
-141.662154341942000
  0
LINE
  8
0
  6
CONTINUOUS
 62
3
 10
-392.061448317622930
 20
-148.056410864505350
 11
-398.738547620095860
 21
-141.379311562032430
  0
LINE
  8
0
  6
CONTINUOUS
 62
3
 10
-399.021390400005430
 20
-141.662154341942000
 11
-398.534587008299810
 21
-141.175350950236410
  0
LINE
  8
0
  6
CONTINUOUS
 62
3
 10
-392.374586926591750
 20
-148.308957815355740
 11
-391.887783534886130
 21
-147.822154423650120
  0
ARC
  8
0
  6
CONTINUOUS
 62
3
 10
-12.882586876608343
 20
-320.454397284621680
 40
5.000000000000000
 50
0.000000000000000
 51
28.704380115586343
  0
LINE
  8
0
  6
CONTINUOUS
 62
3
 10
-7.882586876608343
 20
-306.211281636345690
 11
-11.564844065661077
 21
-298.314655611326200
  0
LINE
  8
0
  6
CONTINUOUS
 62
3
 10
-43.119556494927451
 20
-253.265970874248300
 11
-33.521691804203670
 21
-253.265970874248300
  0
ARC
  8
0
  6
CONTINUOUS
 62
3
 10
-45.750884842785922
 20
-256.265970874248300
 40
2.999999999999923
 50
28.704380115585955
 51
90.000000000000000
  0
ARC
  8
0
  6
CONTINUOUS
 62
3
 10
-37.736903522899752
 20
-257.316784514720330
 40
4.999999999999964
 50
203.855500852148960
 51
253.883837153531400
  0
ARC
  8
0
  6
CONTINUOUS
 62
3
 10
-46.882586876609253
 20
-261.361098547245430
 40
4.999999999999964
 50
23.855500852148985
 51
86.999999999997044
  0
LINE
  8
0
  6
CONTINUOUS
 62
3
 10
-46.620907095394273
 20
-256.367950873472520
 11
-69.382586876612208
 21
-255.175061783385790
  0
LINE
  8
0
  6
CONTINUOUS
 62
3
 10
-13.382599009470709
 20
-294.416467554535870
 11
-31.992492751828308
 21
-254.507421634102680
  0
LINE
  8
0
  6
CONTINUOUS
 62
3
 10
-8.497039630177490
 20
-318.052944526534930
 11
-43.119556494927451
 21
-254.825099219396290
  0
LINE
  8
0
  6
DASHDOT
 62
4
 10
21.880203842913033
 20
-75.175061783337469
 11
-5.410877612157492
 21
-75.175061783337469
  0
LINE
  8
0
  6
CONTINUOUS
 62
3
 10
22.879092904606750
 20
-126.191803810384720
 11
2.117413123391543
 21
-127.279877341904230
  0
LINE
  8
0
  6
CONTINUOUS
 62
3
 10
22.879092904606750
 20
-129.086988251818870
 11
2.117413123391543
 21
-130.175061783338380
  0
LINE
  8
0
  6
CONTINUOUS
 62
3
 10
22.879092904606750
 20
-328.158319756291120
 11
2.117413123391543
 21
-327.070246224771610
  0
LINE
  8
0
  6
DASHDOT
 62
4
 10
-77.292527180068873
 20
-196.675061783385440
 11
-44.922985718698556
 21
-196.675061783385440
  0
LINE
  8
0
  6
CONTINUOUS
 62
3
 10
-69.382586876608229
 20
-255.175061783337240
 11
-69.382586876608229
 21
-138.175061783337010
  0
INSERT
  8
0
  2
SYM1
 10
-7.882586876608229
 20
-290.814672090174330
  0
INSERT
  8
0
  2
SYM1
 10
-7.882586876608229
 20
-163.535451476500610
 41
-1.000000000000000
 50
180.000000000000000
  0
LINE
  8
0
  6
CONTINUOUS
 62
3
 10
-69.382586876608116
 20
-255.175061783385440
 11
-69.382586876608116
 21
-196.675061783385440
  0
LINE
  8
0
  6
CONTINUOUS
 62
3
 10
-69.382586876608116
 20
-138.175061783385440
 11
-69.382586876608116
 21
-196.675061783385440
  0
LINE
  8
0
  6
CONTINUOUS
 62
3
 10
-69.382586876608002
 20
-255.175061783337240
 11
-69.382586876608002
 21
-138.175061783337010
  0
LINE
  8
0
  6
CONTINUOUS
 62
3
 10
-69.382586876608343
 20
-255.175061783385440
 11
-69.382586876608343
 21
-196.675061783385440
  0
LINE
  8
0
  6
CONTINUOUS
 62
3
 10
-69.382586876608343
 20
-255.175061783385440
 11
-97.943033098518185
 21
-255.175061783385440
  0
LINE
  8
0
  6
DASHDOT
 62
4
 10
-61.406589513219501
 20
-196.675061783385440
 11
-279.311799414954860
 21
-196.675061783385440
  0
LINE
  8
0
  6
CONTINUOUS
 62
4
 10
-93.932586876609662
 20
-228.425853499759800
 11
-69.382586876608343
 21
-228.425853499759800
  0
LINE
  8
0
  6
CONTINUOUS
 62
4
 10
-93.932586876609662
 20
-232.389598923559330
 11
-69.382586876608343
 21
-232.389598923559330
  0
LINE
  8
0
  6
CONTINUOUS
 62
4
 10
-93.932586876609662
 20
-233.994246839121390
 11
-69.382586876608343
 21
-233.994246839121390
  0
LINE
  8
0
  6
CONTINUOUS
 62
4
 10
-93.932586876609662
 20
-242.040848501855180
 11
-69.382586876608343
 21
-242.040848501855180
  0
LINE
  8
0
  6
CONTINUOUS
 62
4
 10
-93.932586876609662
 20
-246.990595970160940
 11
-69.382586876608343
 21
-246.990595970160940
  0
LINE
  8
0
  6
CONTINUOUS
 62
4
 10
-95.131511429329180
 20
-251.675061783385440
 11
-69.382586876608343
 21
-251.675061783385440
  0
LINE
  8
0
  6
CONTINUOUS
 62
4
 10
-95.709067842174704
 20
-252.675061783385440
 11
-69.382586876608343
 21
-252.675061783385440
  0
LINE
  8
0
  6
CONTINUOUS
 62
4
 10
-96.880156276999742
 20
-254.175061783385440
 11
-69.382586876608343
 21
-254.175061783385440
  0
LINE
  8
0
  6
CONTINUOUS
 62
4
 10
-96.442267281100612
 20
-253.675061783385440
 11
-69.382586876608343
 21
-253.675061783385440
  0
LINE
  8
0
  6
CONTINUOUS
 62
4
 10
-93.932586876609662
 20
-216.675061783385440
 11
-69.382586876608343
 21
-216.675061783385440
  0
LINE
  8
0
  6
CONTINUOUS
 62
4
 10
-93.932586876609662
 20
-222.866995575865080
 11
-69.382586876608343
 21
-222.866995575865080
  0
LINE
  8
0
  6
CONTINUOUS
 62
4
 10
-93.932586876609662
 20
-221.505115240515810
 11
-69.382586876608343
 21
-221.505115240515810
  0
LINE
  8
0
  6
CONTINUOUS
 62
4
 10
-93.932586876609662
 20
-226.957496109954720
 11
-69.382586876608343
 21
-226.957496109954720
  0
LINE
  8
0
  6
CONTINUOUS
 62
3
 10
-69.382586876608343
 20
-138.175061783385440
 11
-69.382586876608343
 21
-196.675061783385440
  0
LINE
  8
0
  6
CONTINUOUS
 62
3
 10
-69.382586876608343
 20
-138.175061783385440
 11
-166.382586876608230
 21
-138.175061783385440
  0
LINE
  8
0
  6
CONTINUOUS
 62
4
 10
-93.932586876609662
 20
-164.924270067011090
 11
-69.382586876608343
 21
-164.924270067011090
  0
LINE
  8
0
  6
CONTINUOUS
 62
4
 10
-94.732456650157133
 20
-160.960524643211560
 11
-69.382586876608343
 21
-160.960524643211560
  0
LINE
  8
0
  6
CONTINUOUS
 62
4
 10
-95.538327580217697
 20
-159.355876727649500
 11
-69.382586876608343
 21
-159.355876727649500
  0
LINE
  8
0
  6
CONTINUOUS
 62
4
 10
-166.382586876608230
 20
-151.309275064915710
 11
-69.382586876608343
 21
-151.309275064915710
  0
LINE
  8
0
  6
CONTINUOUS
 62
4
 10
-166.382586876608230
 20
-146.359527596609950
 11
-69.382586876608343
 21
-146.359527596609950
  0
LINE
  8
0
  6
CONTINUOUS
 62
4
 10
-166.382586876608230
 20
-141.675061783385440
 11
-69.382586876608343
 21
-141.675061783385440
  0
LINE
  8
0
  6
CONTINUOUS
 62
4
 10
-166.382586876608230
 20
-140.675061783385440
 11
-69.382586876608343
 21
-140.675061783385440
  0
LINE
  8
0
  6
CONTINUOUS
 62
4
 10
-166.382586876608230
 20
-139.175061783385440
 11
-69.382586876608343
 21
-139.175061783385440
  0
LINE
  8
0
  6
CONTINUOUS
 62
4
 10
-166.382586876608230
 20
-139.675061783385440
 11
-69.382586876608343
 21
-139.675061783385440
  0
LINE
  8
0
  6
CONTINUOUS
 62
4
 10
-93.932586876609662
 20
-176.675061783385440
 11
-69.382586876608343
 21
-176.675061783385440
  0
LINE
  8
0
  6
CONTINUOUS
 62
4
 10
-93.932586876609662
 20
-170.483127990905810
 11
-69.382586876608343
 21
-170.483127990905810
  0
LINE
  8
0
  6
CONTINUOUS
 62
4
 10
-93.932586876609662
 20
-171.845008326255080
 11
-69.382586876608343
 21
-171.845008326255080
  0
LINE
  8
0
  6
CONTINUOUS
 62
4
 10
-93.932586876609662
 20
-166.392627456816170
 11
-69.382586876608343
 21
-166.392627456816170
  0
ARC
  8
0
  6
CONTINUOUS
 62
3
 10
-104.932586876609540
 20
-245.460963581808070
 40
11.000000000000000
 50
270.000000000000000
 51
0.000000000000000
  0
ARC
  8
0
  6
CONTINUOUS
 62
3
 10
-104.932586876609540
 20
-246.681173511035240
 40
11.000000000000000
 50
270.000000000000000
 51
0.000000000000000
  0
LINE
  8
0
  6
CONTINUOUS
 62
3
 10
-93.932586876609548
 20
-165.078454142779490
 11
-93.932586876609548
 21
-246.681173511035240
  0
ARC
  8
0
  6
CONTINUOUS
 62
3
 10
-104.932586876609540
 20
-165.078454142779490
 40
11.000000000000000
 50
0.000000000000000
 51
90.000000000000000
  0
LINE
  8
0
  6
CONTINUOUS
 62
3
 10
-69.382586876608229
 20
-216.675061783388170
 11
-10.882586876608229
 21
-216.675061783387950
  0
ARC
  8
0
  6
CONTINUOUS
 62
3
 10
-10.882586876608229
 20
-219.675061783387950
 40
3.000000000000000
 50
0.000000000000000
 51
90.000000000000000
  0
ARC
  8
0
  6
CONTINUOUS
 62
3
 10
-45.382586876608570
 20
-176.175061783385440
 40
5.000000000000000
 50
180.000000000000000
 51
270.000000000000000
  0
ARC
  8
0
  6
CONTINUOUS
 62
3
 10
-12.882586876608343
 20
-176.175061783385440
 40
5.000000000000000
 50
270.000000000000000
 51
0.000000000000000
  0
LINE
  8
0
  6
CONTINUOUS
 62
3
 10
2.117413123391657
 20
-127.175061783386010
 11
2.117413123391657
 21
-227.175061783386010
  0
LINE
  8
0
  6
CONTINUOUS
 62
3
 10
2.117413123391657
 20
-327.175061783386010
 11
2.117413123391657
 21
-227.175061783386010
  0
LINE
  8
0
  6
CONTINUOUS
 62
3
 10
-7.882586876608343
 20
-306.211281636345690
 11
-7.882586876608343
 21
-324.175061783386010
  0
LINE
  8
0
  6
CONTINUOUS
 62
3
 10
-4.882586876608343
 20
-127.175061783386010
 11
2.117413123391657
 21
-127.175061783386010
  0
LINE
  8
0
  6
CONTINUOUS
 62
3
 10
-7.882586876608343
 20
-130.175061783386010
 11
-7.882586876608343
 21
-133.175061783385440
  0
LINE
  8
0
  6
CONTINUOUS
 62
3
 10
-4.882586876608343
 20
-327.175061783386010
 11
2.117413123391657
 21
-327.175061783386010
  0
ARC
  8
0
  6
CONTINUOUS
 62
3
 10
-4.882586876608343
 20
-130.175061783386010
 40
3.000000000000000
 50
90.000000000000000
 51
180.000000000000000
  0
ARC
  8
0
  6
CONTINUOUS
 62
3
 10
-4.882586876608343
 20
-324.175061783386010
 40
3.000000000000000
 50
180.000000000000000
 51
270.000000000000000
  0
LINE
  8
0
  6
CONTINUOUS
 62
3
 10
-69.382586876608343
 20
-138.175061783385440
 11
-12.382586876608343
 21
-138.175061783385440
  0
ARC
  8
0
  6
CONTINUOUS
 62
3
 10
-12.882586876608343
 20
-133.175061783385440
 40
5.000000000000000
 50
270.000000000000000
 51
0.000000000000000
  0
LINE
  8
0
  6
CONTINUOUS
 62
3
 10
-12.882586876608343
 20
-181.175061783385440
 11
-45.382586876608570
 21
-181.175061783385440
  0
ARC
  8
0
  6
CONTINUOUS
 62
3
 10
-4.882586876608343
 20
-133.175061783433760
 40
3.000000000000000
 50
90.000000000000000
 51
180.000000000000000
  0
LINE
  8
0
  6
CONTINUOUS
 62
3
 10
-4.882586876608343
 20
-130.175061783433760
 11
2.117413123391657
 21
-130.175061783433760
  0
ARC
  8
0
  6
CONTINUOUS
 62
3
 10
-12.882586876608570
 20
-144.175061783385670
 40
5.000000000000000
 50
270.000000000000000
 51
0.000000000000000
  0
LINE
  8
0
  6
CONTINUOUS
 62
3
 10
-50.382586876608570
 20
-176.175061783385440
 11
-50.382586876608570
 21
-143.175061783385670
  0
ARC
  8
0
  6
CONTINUOUS
 62
3
 10
-45.382586876608570
 20
-144.175061783385670
 40
5.000000000000000
 50
179.999999999997410
 51
270.000000000000000
  0
ARC
  8
0
  6
CONTINUOUS
 62
3
 10
-55.382586876608570
 20
-143.175061783385440
 40
5.000000000000000
 50
359.999999999997390
 51
90.000000000000000
  0
LINE
  8
0
  6
CONTINUOUS
 62
3
 10
-12.882586876608570
 20
-149.175061783385670
 11
-45.382586876609025
 21
-149.175061783385670
  0
LINE
  8
0
  6
CONTINUOUS
 62
3
 10
-7.882586876608343
 20
-133.175061783385440
 11
-7.882586876608343
 21
-306.211281636345690
  0
LINE
  8
0
  6
DASHDOT
 62
4
 10
-27.882586876608343
 20
-172.370730170638240
 11
-27.882586876608343
 21
-129.216475614259370
  0
LINE
  8
0
  6
CONTINUOUS
 62
3
 10
-4.882586876608343
 20
-324.175061783433760
 11
2.117413123391657
 21
-324.175061783433760
  0
ARC
  8
0
  6
CONTINUOUS
 62
3
 10
-4.882586876608343
 20
-321.175061783433760
 40
3.000000000000000
 50
180.000000000000000
 51
270.000000000000000
  0
LINE
  8
0
  6
CONTINUOUS
 62
3
 10
-69.382586876608229
 20
-176.675061783388170
 11
-50.357524062141394
 21
-176.675061783388170
  0
ARC
  8
0
  6
CONTINUOUS
 62
3
 10
-104.932586876610790
 20
122.519502156878840
 40
11.000000000000000
 50
0.000000000000000
 51
90.000000000000000
  0
ARC
  8
0
  6
CONTINUOUS
 62
3
 10
-104.932586876610790
 20
119.048029417832140
 40
11.000000000000000
 50
0.000000000000000
 51
90.000000000000000
  0
LINE
  8
0
  6
CONTINUOUS
 62
3
 10
-93.932586876610799
 20
122.519502156878840
 11
-93.932586876610799
 21
95.651112836830634
  0
LINE
  8
0
  6
CONTINUOUS
 62
3
 10
-166.382586876609480
 20
262.824938216614330
 11
-69.382586876609594
 21
262.824938216614330
  0
LINE
  8
0
  6
CONTINUOUS
 62
3
 10
-166.514795355817680
 20
143.824938216614560
 11
-69.382586876609594
 21
143.824938216614560
  0
LINE
  8
0
  6
CONTINUOUS
 62
4
 10
-166.382586876609480
 20
146.324938216614560
 11
-69.382586876609594
 21
146.324938216614560
  0
LINE
  8
0
  6
CONTINUOUS
 62
4
 10
-166.382586876609480
 20
147.324938216614560
 11
-69.382586876609594
 21
147.324938216614560
  0
LINE
  8
0
  6
CONTINUOUS
 62
4
 10
-166.382586876609480
 20
148.324938216614560
 11
-69.382586876609594
 21
148.324938216614560
  0
LINE
  8
0
  6
CONTINUOUS
 62
4
 10
-166.382586876609480
 20
153.009404029838830
 11
-69.382586876609594
 21
153.009404029838830
  0
LINE
  8
0
  6
CONTINUOUS
 62
4
 10
-166.382586876609480
 20
157.959151498144590
 11
-69.382586876609594
 21
157.959151498144590
  0
LINE
  8
0
  6
CONTINUOUS
 62
4
 10
-166.382586876609480
 20
166.005753160878610
 11
-69.382586876609594
 21
166.005753160878610
  0
LINE
  8
0
  6
CONTINUOUS
 62
4
 10
-166.382586876609480
 20
167.610401076440670
 11
-69.382586876609594
 21
167.610401076440670
  0
LINE
  8
0
  6
CONTINUOUS
 62
4
 10
-166.382586876609480
 20
171.574146500240200
 11
-69.382586876609594
 21
171.574146500240200
  0
LINE
  8
0
  6
CONTINUOUS
 62
4
 10
-166.382586876609480
 20
173.042503890044830
 11
-69.382586876609594
 21
173.042503890044830
  0
LINE
  8
0
  6
CONTINUOUS
 62
4
 10
-166.382586876609480
 20
177.133004424134700
 11
-69.382586876609594
 21
177.133004424134700
  0
LINE
  8
0
  6
CONTINUOUS
 62
4
 10
-166.382586876609480
 20
178.494884759483970
 11
-69.382586876609594
 21
178.494884759483970
  0
LINE
  8
0
  6
CONTINUOUS
 62
4
 10
-166.382586876609480
 20
182.685438491026160
 11
-69.382586876609594
 21
182.685438491026160
  0
LINE
  8
0
  6
CONTINUOUS
 62
4
 10
-166.382586876609480
 20
183.951676407113380
 11
-69.382586876609594
 21
183.951676407113380
  0
LINE
  8
0
  6
CONTINUOUS
 62
4
 10
-166.382586876609480
 20
240.644123272350500
 11
-69.382586876609594
 21
240.644123272350500
  0
LINE
  8
0
  6
CONTINUOUS
 62
4
 10
-166.382586876609480
 20
239.039475356788440
 11
-69.382586876609594
 21
239.039475356788440
  0
LINE
  8
0
  6
CONTINUOUS
 62
4
 10
-166.382586876609480
 20
235.075729932988910
 11
-69.382586876609594
 21
235.075729932988910
  0
LINE
  8
0
  6
CONTINUOUS
 62
4
 10
-166.382586876609480
 20
233.607372543184280
 11
-69.382586876609594
 21
233.607372543184280
  0
LINE
  8
0
  6
CONTINUOUS
 62
4
 10
-166.382586876609480
 20
229.516872009094410
 11
-69.382586876609594
 21
229.516872009094410
  0
LINE
  8
0
  6
CONTINUOUS
 62
4
 10
-166.382586876609480
 20
228.154991673745140
 11
-69.382586876609594
 21
228.154991673745140
  0
LINE
  8
0
  6
CONTINUOUS
 62
4
 10
-166.382586876609480
 20
223.964437942202950
 11
-69.382586876609594
 21
223.964437942202950
  0
LINE
  8
0
  6
CONTINUOUS
 62
4
 10
-166.382586876609480
 20
222.698200026115730
 11
-69.382586876609594
 21
222.698200026115730
  0
LINE
  8
0
  6
CONTINUOUS
 62
4
 10
-166.382586876609480
 20
248.690724935084520
 11
-69.382586876609594
 21
248.690724935084520
  0
LINE
  8
0
  6
CONTINUOUS
 62
4
 10
-166.382586876609480
 20
253.640472403390280
 11
-69.382586876609594
 21
253.640472403390280
  0
LINE
  8
0
  6
CONTINUOUS
 62
4
 10
-166.382586876609480
 20
258.324938216614560
 11
-69.382586876609594
 21
258.324938216614560
  0
LINE
  8
0
  6
CONTINUOUS
 62
4
 10
-166.382586876609480
 20
259.324938216614560
 11
-69.382586876609594
 21
259.324938216614560
  0
LINE
  8
0
  6
CONTINUOUS
 62
4
 10
-166.382586876609480
 20
260.324938216614560
 11
-69.382586876609594
 21
260.324938216614560
  0
LINE
  8
0
  6
CONTINUOUS
 62
3
 10
-99.382586876609480
 20
262.824938216614560
 11
-69.382586876609594
 21
262.824938216614560
  0
LINE
  8
0
  6
CONTINUOUS
 62
3
 10
6.930472124129210
 20
132.182828130569990
 11
27.617413123390634
 21
132.182828130569990
  0
LINE
  8
0
  6
CONTINUOUS
 62
3
 10
6.930472124129210
 20
274.467048302658900
 11
27.617413123390634
 21
274.467048302658900
  0
ARC
  8
0
  6
CONTINUOUS
 62
3
 10
3.230841079025140
 20
129.182828130569990
 40
2.999999999999903
 50
25.671927745923867
 51
90.000000000000000
  0
ARC
  8
0
  6
CONTINUOUS
 62
3
 10
3.230841079025140
 20
277.467048302658900
 40
3.000000000000000
 50
270.000000000000000
 51
334.328072254076120
  0
ARC
  8
0
  6
CONTINUOUS
 62
3
 10
3.230841079025140
 20
124.068171318269600
 40
2.999999999999903
 50
25.671927745923867
 51
90.000000000000000
  0
ARC
  8
0
  6
CONTINUOUS
 62
3
 10
3.230841079025140
 20
282.581705114959280
 40
3.000000000000000
 50
270.000000000000000
 51
334.328072254076120
  0
LINE
  8
0
  6
CONTINUOUS
 62
3
 10
5.934709236554227
 20
130.482480771355090
 11
27.321281280919720
 21
85.988691173446568
  0
LINE
  8
0
  6
CONTINUOUS
 62
3
 10
5.934709236554227
 20
276.167395661873800
 11
27.321281280919720
 21
320.661185259782310
  0
LINE
  8
0
  6
CONTINUOUS
 62
3
 10
5.934709236554227
 20
125.367823959054700
 11
27.321281280919720
 21
80.874034361146187
  0
LINE
  8
0
  6
CONTINUOUS
 62
3
 10
5.934709236554227
 20
281.282052474174180
 11
27.321281280919720
 21
325.775842072082700
  0
LINE
  8
0
  6
CONTINUOUS
 62
3
 10
16.850693666433472
 20
303.992261172863210
 11
2.117413123390634
 21
303.220122658048470
  0
LINE
  8
0
  6
CONTINUOUS
 62
3
 10
2.117413123390634
 20
203.324938216614560
 11
2.117413123390634
 21
103.429753775180410
  0
LINE
  8
0
  6
CONTINUOUS
 62
3
 10
2.117413123390634
 20
203.324938216614330
 11
2.117413123390634
 21
303.220122658048470
  0
LINE
  8
0
  6
CONTINUOUS
 62
3
 10
-28.382586876609366
 20
348.538672805053010
 11
-28.382586876609366
 21
298.153382090649300
  0
LINE
  8
0
  6
CONTINUOUS
 62
3
 10
-23.557084360121735
 20
293.156427955554590
 11
-7.882586876609594
 21
292.609062442033860
  0
LINE
  8
0
  6
CONTINUOUS
 62
3
 10
-23.557084360121735
 20
113.493448477674510
 11
-7.882586876609594
 21
114.040813991195700
  0
LINE
  8
0
  6
CONTINUOUS
 62
3
 10
-28.382586876609366
 20
58.123489909755790
 11
-28.382586876609366
 21
108.496494342578890
  0
ARC
  8
0
  6
CONTINUOUS
 62
3
 10
-23.382586876608912
 20
298.153382090649300
 40
5.000000000000455
 50
180.000000000000000
 51
267.999999999996080
  0
ARC
  8
0
  6
CONTINUOUS
 62
3
 10
-23.382586876608912
 20
108.496494342578890
 40
5.000000000000153
 50
92.000000000003595
 51
180.000000000000000
  0
INSERT
  8
0
  2
SYM2
 10
12.117413123388815
 20
192.824938216614560
  0
INSERT
  8
0
  2
SYM2
 10
12.117413123388815
 20
213.824938216614330
 41
-1.000000000000000
 50
180.000000000000030
  0
INSERT
  8
0
  2
SYM1
 10
-7.882586876609594
 20
266.964548523451530
 41
-1.000000000000000
 50
180.000000000000000
  0
ARC
  8
0
  6
CONTINUOUS
 62
3
 10
-4.882586876609594
 20
298.324938216663780
 40
3.000000000000000
 50
90.000000000000000
 51
180.000000000000000
  0
LINE
  8
0
  6
CONTINUOUS
 62
3
 10
2.117413123390406
 20
301.324938216663780
 11
-4.882586876609594
 21
301.324938216663780
  0
LINE
  8
0
  6
CONTINUOUS
 62
3
 10
-13.382566783041085
 20
262.824938216663330
 11
-69.382586876609594
 21
262.824938216663330
  0
LINE
  8
0
  6
CONTINUOUS
 62
3
 10
-69.382586876609594
 20
262.824938216663330
 11
-69.382586876609594
 21
203.324938216614670
  0
LINE
  8
0
  6
CONTINUOUS
 62
3
 10
-7.882586876609594
 20
203.324938216614670
 11
-7.882586876609594
 21
298.324938216663780
  0
LINE
  8
0
  6
CONTINUOUS
 62
3
 10
-7.882586876609594
 20
213.261429889766650
 11
2.117413123390406
 21
213.261429889766650
  0
LINE
  8
0
  6
CONTINUOUS
 62
3
 10
-7.882586876609594
 20
193.388446543462690
 11
2.117413123390406
 21
193.388446543462690
  0
ARC
  8
0
  6
CONTINUOUS
 62
3
 10
-4.882586876609594
 20
108.324938216565550
 40
3.000000000000000
 50
180.000000000000000
 51
270.000000000000000
  0
LINE
  8
0
  6
CONTINUOUS
 62
3
 10
-13.382566783041085
 20
143.824938216566010
 11
-69.382586876609594
 21
143.824938216566010
  0
INSERT
  8
0
  2
SYM1
 10
-7.882586876609594
 20
139.685327909777810
  0
LINE
  8
0
  6
CONTINUOUS
 62
3
 10
-69.382586876609594
 20
143.824938216566010
 11
-69.382586876609594
 21
203.324938216614670
  0
LINE
  8
0
  6
CONTINUOUS
 62
3
 10
-7.882586876609594
 20
203.324938216614670
 11
-7.882586876609594
 21
108.324938216565550
  0
LINE
  8
0
  6
DASHDOT
 62
4
 10
311.414640271232200
 20
203.324938216614560
 11
-292.717108543401990
 21
203.324938216614560
  0
LINE
  8
0
  6
CONTINUOUS
 62
3
 10
-69.382586876609594
 20
262.824938216614330
 11
-69.382586876609594
 21
203.324938216614560
  0
LINE
  8
0
  6
CONTINUOUS
 62
3
 10
-69.382586876609594
 20
143.824938216614560
 11
-69.382586876609594
 21
203.324938216614560
  0
ARC
  8
0
  6
CONTINUOUS
 62
3
 10
-55.382586876607206
 20
257.824938216663330
 40
5.000000000000000
 50
0.000000000000000
 51
90.000000000000000
  0
ARC
  8
0
  6
CONTINUOUS
 62
3
 10
-47.382586876607206
 20
221.324938216614670
 40
3.000000000000000
 50
180.000000000000000
 51
270.000000000000000
  0
LINE
  8
0
  6
CONTINUOUS
 62
3
 10
-50.382586876607206
 20
221.324938216614670
 11
-50.382586876607206
 21
257.824938216663330
  0
ARC
  8
0
  6
CONTINUOUS
 62
3
 10
-47.382586876607206
 20
185.324938216614440
 40
3.000000000000000
 50
90.000000000000000
 51
180.000000000000000
  0
ARC
  8
0
  6
CONTINUOUS
 62
3
 10
-55.382586876607206
 20
148.824938216565780
 40
5.000000000000000
 50
270.000000000000000
 51
0.000000000000000
  0
LINE
  8
0
  6
CONTINUOUS
 62
3
 10
-50.382586876607206
 20
185.324938216614440
 11
-50.382586876607206
 21
148.824938216565780
  0
CIRCLE
  8
0
  6
CONTINUOUS
 62
3
 10
-27.882586876608343
 20
203.324938216614670
 40
10.500000000000000
  0
ARC
  8
0
  6
CONTINUOUS
 62
3
 10
-10.882586876608350
 20
221.324938216614560
 40
3.000000000000000
 50
270.000000000000000
 51
0.000000000000000
  0
LINE
  8
0
  6
CONTINUOUS
 62
3
 10
-47.382586876607206
 20
218.324938216614560
 11
-10.882586876608350
 21
218.324938216614560
  0
ARC
  8
0
  6
CONTINUOUS
 62
3
 10
-10.882586876608350
 20
185.324938216614560
 40
3.000000000000007
 50
0.000000000000000
 51
90.000000000000000
  0
LINE
  8
0
  6
CONTINUOUS
 62
3
 10
-47.382586876607206
 20
188.324938216614560
 11
-10.882586876608350
 21
188.324938216614560
  0
LINE
  8
0
  6
DASHDOT
 62
4
 10
-27.882586876608343
 20
189.826907036197780
 11
-27.882586876608343
 21
217.061875676821050
  0
LINE
  8
0
  6
CONTINUOUS
 62
4
 10
-166.382586876609480
 20
218.324938216614560
 11
-47.382586876607206
 21
218.324938216614560
  0
LINE
  8
0
  6
CONTINUOUS
 62
4
 10
-166.382586876609480
 20
188.324938216614560
 11
-47.382586876607206
 21
188.324938216614560
  0
LINE
  8
0
  6
DASHDOT
 62
4
 10
648.217696803738360
 20
-177.175061783337470
 11
477.307776141998150
 21
-177.175061783337470
  0
ARC
  8
0
  6
CONTINUOUS
 62
4
 10
-211.787494368034970
 20
-196.675061783385440
 40
289.397000000000220
 50
180.000000000000000
 51
186.051985358668500
  0
ARC
  8
0
  6
CONTINUOUS
 62
4
 10
-484.260395293245550
 20
-225.563091508523710
 40
15.397000000000052
 50
186.051985358668840
 51
225.000000000000000
  0
LINE
  8
0
  6
CONTINUOUS
 62
4
 10
-490.571653010536350
 20
-241.026480011091730
 11
-495.147718403174960
 21
-236.450414618453120
  0
ARC
  8
0
  6
CONTINUOUS
 62
4
 10
-486.329012323417260
 20
-236.783839323972190
 40
6.000000000000049
 50
225.000000000003070
 51
262.102011327574360
  0
ARC
  8
0
  6
CONTINUOUS
 62
4
 10
-447.387494368034940
 20
43.924938216614464
 40
289.396999999999820
 50
262.102011327572200
 51
270.000000000000000
  0
ARC
  8
0
  6
CONTINUOUS
 62
4
 10
-682.987494368035070
 20
-196.675061783385440
 40
289.397000000000160
 50
353.948014641331500
 51
0.000000000000000
  0
ARC
  8
0
  6
CONTINUOUS
 62
4
 10
-410.514593442824550
 20
-225.563091508523710
 40
15.396999999999876
 50
315.000000000000000
 51
353.948014641331160
  0
LINE
  8
0
  6
CONTINUOUS
 62
4
 10
-404.203335725533750
 20
-241.026480011091730
 11
-399.627270332895140
 21
-236.450414618453120
  0
ARC
  8
0
  6
CONTINUOUS
 62
4
 10
-408.445976412652840
 20
-236.783839323972190
 40
5.999999999999923
 50
277.897988672425640
 51
314.999999999996870
  0
ARC
  8
0
  6
CONTINUOUS
 62
4
 10
-447.387494368035160
 20
43.924938216614464
 40
289.396999999999930
 50
270.000000000000000
 51
277.897988672427800
  0
ARC
  8
0
  6
CONTINUOUS
 62
4
 10
-682.987494368035070
 20
-196.675061783385440
 40
289.397000000000160
 50
0.000000000000000
 51
6.051985358668508
  0
ARC
  8
0
  6
CONTINUOUS
 62
4
 10
-410.514593442824550
 20
-167.787032058247180
 40
15.397000000000052
 50
6.051985358668849
 51
45.000000000000000
  0
LINE
  8
0
  6
CONTINUOUS
 62
4
 10
-404.203335725533750
 20
-152.323643555679150
 11
-399.627270332895140
 21
-156.899708948317770
  0
ARC
  8
0
  6
CONTINUOUS
 62
4
 10
-408.445976412652840
 20
-156.566284242798700
 40
6.000000000000049
 50
45.000000000003077
 51
82.102011327574374
  0
ARC
  8
0
  6
CONTINUOUS
 62
4
 10
-447.387494368035160
 20
-437.275061783385350
 40
289.396999999999820
 50
82.102011327572214
 51
90.000000000000000
  0
ARC
  8
0
  6
CONTINUOUS
 62
4
 10
-211.787494368035200
 20
-196.675061783385440
 40
289.396999999999990
 50
173.948014641331470
 51
180.000000000000000
  0
LINE
  8
0
  6
CONTINUOUS
 62
4
 10
-490.571653010536350
 20
-152.323643555679150
 11
-495.147718403174960
 21
-156.899708948317770
  0
ARC
  8
0
  6
CONTINUOUS
 62
4
 10
-484.260395293245550
 20
-167.787032058247180
 40
15.396999999999876
 50
135.000000000000000
 51
173.948014641331160
  0
ARC
  8
0
  6
CONTINUOUS
 62
3
 10
-410.514593442824550
 20
-225.563091508523710
 40
26.599999999999955
 50
315.000000000001020
 51
353.948014641331380
  0
LINE
  8
0
  6
CONTINUOUS
 62
3
 10
-398.772002181921490
 20
-251.438581006745150
 11
-391.705553063262070
 21
-244.372131888085510
  0
ARC
  8
0
  6
CONTINUOUS
 62
3
 10
-682.987494368035070
 20
-196.675061783385440
 40
300.600000000000080
 50
353.948014641331500
 51
6.051985358668499
  0
ARC
  8
0
  6
CONTINUOUS
 62
3
 10
-484.260395293245550
 20
-225.563091508523710
 40
26.599999999999969
 50
186.051985358668590
 51
224.999999999998980
  0
ARC
  8
0
  6
CONTINUOUS
 62
3
 10
-211.787494368035080
 20
-196.675061783385440
 40
300.600000000000020
 50
173.948014641331500
 51
186.051985358668500
  0
LINE
  8
0
  6
CONTINUOUS
 62
3
 10
-496.002986554148830
 20
-251.438581006745150
 11
-503.069435672808030
 21
-244.372131888085510
  0
ARC
  8
0
  6
CONTINUOUS
 62
3
 10
-484.260395293245550
 20
-167.787032058247180
 40
26.600000000000119
 50
135.000000000000000
 51
173.948014641331410
  0
LINE
  8
0
  6
CONTINUOUS
 62
3
 10
-496.002986554148830
 20
-141.911542560025960
 11
-503.069435672807800
 21
-148.977991678684930
  0
ARC
  8
0
  6
CONTINUOUS
 62
3
 10
-410.514593442824780
 20
-167.787032058247180
 40
26.600000000000193
 50
6.051985358668552
 51
45.000000000000000
  0
LINE
  8
0
  6
CONTINUOUS
 62
3
 10
-398.772002181921490
 20
-141.911542560025960
 11
-391.705553063262530
 21
-148.977991678684930
  0
ARC
  8
0
  6
CONTINUOUS
 62
3
 10
-491.336081798317650
 20
-246.771676250913970
 40
6.599999999999957
 50
225.000000000000000
 51
261.402917762751090
  0
ARC
  8
0
  6
CONTINUOUS
 62
3
 10
-447.387494368035160
 20
43.924938216614692
 40
300.600000000000020
 50
261.402917762750920
 51
270.000000000000000
  0
ARC
  8
0
  6
CONTINUOUS
 62
3
 10
-403.438906937752680
 20
-246.771676250913970
 40
6.599999999999747
 50
278.597082237248910
 51
315.000000000000000
  0
ARC
  8
0
  6
CONTINUOUS
 62
3
 10
-447.387494368035160
 20
-437.275061783385350
 40
300.599999999999800
 50
81.402917762750931
 51
90.000000000000000
  0
ARC
  8
0
  6
CONTINUOUS
 62
3
 10
-403.438906937752680
 20
-146.578447315857150
 40
6.600000000000118
 50
45.000000000001400
 51
81.402917762751386
  0
ARC
  8
0
  6
CONTINUOUS
 62
3
 10
-447.387494368035160
 20
43.924938216614692
 40
300.600000000000140
 50
270.000000000000000
 51
278.597082237249080
  0
ARC
  8
0
  6
CONTINUOUS
 62
3
 10
-447.387494368035160
 20
-437.275061783385350
 40
300.599999999999910
 50
90.000000000000000
 51
98.597082237249069
  0
ARC
  8
0
  6
CONTINUOUS
 62
3
 10
-443.387494368035160
 20
-155.368282678739890
 40
1.500000000000203
 50
84.468928475159132
 51
180.000000000000000
  0
ARC
  8
0
  6
CONTINUOUS
 62
3
 10
-451.387494368035160
 20
-155.368282678739660
 40
1.500000000000000
 50
0.000000000000000
 51
95.531071524841693
  0
ARC
  8
0
  6
CONTINUOUS
 62
3
 10
-447.387494368034940
 20
-196.675061783384990
 40
17.999999999999922
 50
41.837004155893325
 51
78.162995844107314
  0
ARC
  8
0
  6
CONTINUOUS
 62
3
 10
-447.387494368035390
 20
-196.675061783384990
 40
27.499999999999815
 50
97.928141766201691
 51
142.071858233797880
  0
LINE
  8
0
  6
CONTINUOUS
 62
3
 10
-444.887494368035160
 20
-155.368282678739890
 11
-444.887494368035160
 21
-158.383417786293880
  0
LINE
  8
0
  6
CONTINUOUS
 62
3
 10
-415.475957913884370
 20
-175.364176275378670
 11
-412.864774314900270
 21
-173.856608721601560
  0
LINE
  8
0
  6
CONTINUOUS
 62
3
 10
-444.887494368035160
 20
-164.926046050610470
 11
-444.887494368035160
 21
-167.952248550695000
  0
ARC
  8
0
  6
CONTINUOUS
 62
3
 10
-443.387494368035160
 20
-164.926046050610470
 40
1.499999999999998
 50
82.819244218541712
 51
180.000000000000000
  0
ARC
  8
0
  6
CONTINUOUS
 62
3
 10
-443.387494368035160
 20
-158.383417786293880
 40
1.500000000000000
 50
180.000000000000000
 51
264.036429881682580
  0
ARC
  8
0
  6
CONTINUOUS
 62
3
 10
-413.614774314900270
 20
-172.557570615924760
 40
1.500000000000123
 50
299.999999999997270
 51
35.531071524839192
  0
ARC
  8
0
  6
CONTINUOUS
 62
3
 10
-447.387494368035620
 20
-196.675061783385440
 40
42.999999999999908
 50
35.531071524839248
 51
84.468928475160212
  0
ARC
  8
0
  6
CONTINUOUS
 62
3
 10
-409.614774314899820
 20
-179.485773846200800
 40
1.500000000000034
 50
24.468928475159590
 51
119.999999999997270
  0
LINE
  8
0
  6
CONTINUOUS
 62
3
 10
-412.975957913884140
 20
-179.694303294301110
 11
-410.364774314899820
 21
-178.186735740524000
  0
ARC
  8
0
  6
CONTINUOUS
 62
3
 10
-412.225957913884140
 20
-180.993341399977910
 40
1.500000000000123
 50
119.999999999997270
 51
204.036429881680680
  0
ARC
  8
0
  6
CONTINUOUS
 62
3
 10
-447.387494368035390
 20
-196.675061783385900
 40
36.999999999999972
 50
335.963570118321740
 51
24.036429881678870
  0
ARC
  8
0
  6
CONTINUOUS
 62
3
 10
-447.387494368035390
 20
-196.675061783385900
 40
42.999999999999936
 50
335.531071524839770
 51
24.468928475160769
  0
ARC
  8
0
  6
CONTINUOUS
 62
3
 10
-409.614774314899820
 20
-213.864349720570320
 40
1.500000000000320
 50
240.000000000007050
 51
335.531071524832500
  0
LINE
  8
0
  6
CONTINUOUS
 62
3
 10
-410.364774314899820
 20
-215.163387826247340
 11
-412.975957913883920
 21
-213.655820272470010
  0
ARC
  8
0
  6
CONTINUOUS
 62
3
 10
-412.225957913883920
 20
-212.356782166793440
 40
1.500000000000063
 50
155.963570118322880
 51
239.999999999998410
  0
ARC
  8
0
  6
CONTINUOUS
 62
3
 10
-413.614774314899820
 20
-220.792552950846130
 40
1.499999999999844
 50
324.468928475167900
 51
59.999999999998380
  0
LINE
  8
0
  6
CONTINUOUS
 62
3
 10
-412.864774314899820
 20
-219.493514845169560
 11
-415.475957913883920
 21
-217.985947291392220
  0
LINE
  8
0
  6
CONTINUOUS
 62
3
 10
-449.887494368035160
 20
-155.368282678739660
 11
-449.887494368035160
 21
-158.383417786293880
  0
ARC
  8
0
  6
CONTINUOUS
 62
3
 10
-451.387494368035160
 20
-158.383417786293880
 40
1.499999999999933
 50
275.963570118318330
 51
0.000000000000000
  0
LINE
  8
0
  6
CONTINUOUS
 62
3
 10
-449.887494368035160
 20
-164.926046050610470
 11
-449.887494368035160
 21
-167.952248550695000
  0
ARC
  8
0
  6
CONTINUOUS
 62
3
 10
-451.387494368035160
 20
-164.926046050610470
 40
1.500000000000000
 50
0.000000000000000
 51
97.180755781458288
  0
ARC
  8
0
  6
CONTINUOUS
 62
3
 10
-447.387494368035620
 20
-196.675061783384990
 40
23.999999999999901
 50
100.240348321185670
 51
139.759651678813550
  0
ARC
  8
0
  6
CONTINUOUS
 62
3
 10
-464.562673637080140
 20
-182.140165255505050
 40
1.499999999999802
 50
139.759651678811420
 51
239.999999999998410
  0
LINE
  8
0
  6
CONTINUOUS
 62
3
 10
-462.665879044100960
 20
-184.967330931927790
 11
-465.312673637080140
 21
-183.439203361181630
  0
ARC
  8
0
  6
CONTINUOUS
 62
3
 10
-461.915879044100960
 20
-183.668292826251220
 40
1.499999999999926
 50
239.999999999998410
 51
318.162995844106720
  0
ARC
  8
0
  6
CONTINUOUS
 62
3
 10
-447.387494368035620
 20
-196.675061783384990
 40
17.999999999999829
 50
101.837004155891980
 51
138.162995844106210
  0
ARC
  8
0
  6
CONTINUOUS
 62
3
 10
-451.387494368035160
 20
-177.589727099392800
 40
1.499999999999954
 50
281.837004155896690
 51
0.000000000000000
  0
LINE
  8
0
  6
CONTINUOUS
 62
3
 10
-449.887494368035160
 20
-174.533471957900470
 11
-449.887494368035160
 21
-177.589727099392800
  0
ARC
  8
0
  6
CONTINUOUS
 62
3
 10
-451.387494368035160
 20
-174.533471957900470
 40
1.500000000000000
 50
0.000000000000000
 51
100.240348321194510
  0
ARC
  8
0
  6
CONTINUOUS
 62
3
 10
-447.387494368035620
 20
-196.675061783384990
 40
14.499999999999980
 50
107.920213139390830
 51
132.079786860607560
  0
ARC
  8
0
  6
CONTINUOUS
 62
3
 10
-456.099637010849730
 20
-187.026301729820720
 40
1.499999999999792
 50
132.079786860611680
 51
239.999999999998410
  0
LINE
  8
0
  6
CONTINUOUS
 62
3
 10
-454.074748301229080
 20
-189.927422578968160
 11
-456.849637010849730
 21
-188.325339835497290
  0
ARC
  8
0
  6
CONTINUOUS
 62
3
 10
-453.324748301229080
 20
-188.628384473291590
 40
1.499999999999926
 50
239.999999999998410
 51
306.421821521797600
  0
ARC
  8
0
  6
CONTINUOUS
 62
3
 10
-447.387494368035620
 20
-196.675061783384990
 40
8.499999999999879
 50
113.578178478199500
 51
126.421821521797340
  0
ARC
  8
0
  6
CONTINUOUS
 62
3
 10
-451.387494368035160
 20
-187.509910393473090
 40
1.500000000000139
 50
293.578178478195700
 51
0.000000000000000
  0
LINE
  8
0
  6
CONTINUOUS
 62
3
 10
-449.887494368035160
 20
-184.305744906532030
 11
-449.887494368035160
 21
-187.509910393473090
  0
ARC
  8
0
  6
CONTINUOUS
 62
3
 10
-451.387494368035160
 20
-184.305744906532030
 40
1.500000000000000
 50
0.000000000000000
 51
107.920213139394770
  0
ARC
  8
0
  6
CONTINUOUS
 62
3
 10
-447.387494368035160
 20
-196.675061783385440
 40
23.999999999999716
 50
280.240348321186270
 51
319.759651678814690
  0
ARC
  8
0
  6
CONTINUOUS
 62
3
 10
-443.387494368035160
 20
-218.816651608869960
 40
1.500000000000000
 50
180.000000000000000
 51
280.240348321187530
  0
LINE
  8
0
  6
CONTINUOUS
 62
3
 10
-444.887494368035160
 20
-215.760396467377630
 11
-444.887494368035160
 21
-218.816651608869960
  0
ARC
  8
0
  6
CONTINUOUS
 62
3
 10
-443.387494368035160
 20
-215.760396467377630
 40
1.499999999999731
 50
101.837004155898450
 51
180.000000000000000
  0
ARC
  8
0
  6
CONTINUOUS
 62
3
 10
-447.387494368035160
 20
-196.675061783385440
 40
18.000000000000146
 50
281.837004155893230
 51
318.162995844107680
  0
ARC
  8
0
  6
CONTINUOUS
 62
3
 10
-432.859109691969370
 20
-209.681830740519220
 40
1.499999999999926
 50
59.999999999998380
 51
138.162995844100240
  0
LINE
  8
0
  6
CONTINUOUS
 62
3
 10
-429.462315098990420
 20
-209.910920205588810
 11
-432.109109691969370
 21
-208.382792634842640
  0
ARC
  8
0
  6
CONTINUOUS
 62
3
 10
-430.212315098990420
 20
-211.209958311265380
 40
1.499999999999828
 50
319.759651678823670
 51
59.999999999998380
  0
ARC
  8
0
  6
CONTINUOUS
 62
3
 10
-447.387494368035160
 20
-196.675061783385440
 40
14.500000000000121
 50
287.920213139392560
 51
312.079786860608860
  0
ARC
  8
0
  6
CONTINUOUS
 62
3
 10
-443.387494368035160
 20
-209.044378660238180
 40
1.500000000000000
 50
180.000000000000000
 51
287.920213139392100
  0
LINE
  8
0
  6
CONTINUOUS
 62
3
 10
-444.887494368035160
 20
-205.840213173296890
 11
-444.887494368035160
 21
-209.044378660238180
  0
ARC
  8
0
  6
CONTINUOUS
 62
3
 10
-443.387494368035160
 20
-205.840213173297340
 40
1.500000000000139
 50
113.578178478195690
 51
179.999999999982630
  0
ARC
  8
0
  6
CONTINUOUS
 62
3
 10
-447.387494368035160
 20
-196.675061783385440
 40
8.500000000000060
 50
293.578178478202350
 51
306.421821521799190
  0
ARC
  8
0
  6
CONTINUOUS
 62
3
 10
-441.450240434841250
 20
-204.721739093478850
 40
1.499999999999926
 50
59.999999999998380
 51
126.421821521801260
  0
LINE
  8
0
  6
CONTINUOUS
 62
3
 10
-437.925351725220820
 20
-205.024783731272690
 11
-440.700240434841250
 21
-203.422700987802270
  0
ARC
  8
0
  6
CONTINUOUS
 62
3
 10
-438.675351725220820
 20
-206.323821836949720
 40
1.499999999999944
 50
312.079786860618130
 51
60.000000000007070
  0
ARC
  8
0
  6
CONTINUOUS
 62
3
 10
-447.387494368035160
 20
-196.675061783385440
 40
23.999999999999844
 50
220.240348321185340
 51
259.759651678813730
  0
ARC
  8
0
  6
CONTINUOUS
 62
3
 10
-451.387494368035160
 20
-218.816651608869960
 40
1.499999999999728
 50
259.759651678812470
 51
0.000000000000000
  0
LINE
  8
0
  6
CONTINUOUS
 62
3
 10
-449.887494368035160
 20
-215.760396467377630
 11
-449.887494368035160
 21
-218.816651608869960
  0
ARC
  8
0
  6
CONTINUOUS
 62
3
 10
-451.387494368035160
 20
-215.760396467377630
 40
1.500000000000000
 50
0.000000000000000
 51
78.162995844101530
  0
ARC
  8
0
  6
CONTINUOUS
 62
3
 10
-447.387494368035160
 20
-196.675061783385440
 40
17.999999999999940
 50
221.837004155892320
 51
258.162995844106770
  0
ARC
  8
0
  6
CONTINUOUS
 62
3
 10
-461.915879044100960
 20
-209.681830740519220
 40
1.500000000000118
 50
41.837004155899741
 51
120.000000000001620
  0
LINE
  8
0
  6
CONTINUOUS
 62
3
 10
-465.312673637079910
 20
-209.910920205588810
 11
-462.665879044100960
 21
-208.382792634842640
  0
ARC
  8
0
  6
CONTINUOUS
 62
3
 10
-464.562673637079910
 20
-211.209958311265380
 40
1.499999999999926
 50
120.000000000001620
 51
220.240348321176330
  0
ARC
  8
0
  6
CONTINUOUS
 62
3
 10
-447.387494368035160
 20
-196.675061783385440
 40
14.500000000000011
 50
227.920213139391080
 51
252.079786860607410
  0
ARC
  8
0
  6
CONTINUOUS
 62
3
 10
-451.387494368035160
 20
-209.044378660238180
 40
1.500000000000355
 50
252.079786860607900
 51
0.000000000000000
  0
LINE
  8
0
  6
CONTINUOUS
 62
3
 10
-449.887494368035160
 20
-205.840213173296890
 11
-449.887494368035160
 21
-209.044378660238180
  0
ARC
  8
0
  6
CONTINUOUS
 62
3
 10
-451.387494368035160
 20
-205.840213173297340
 40
1.500000000000000
 50
0.000000000017370
 51
66.421821521804304
  0
ARC
  8
0
  6
CONTINUOUS
 62
3
 10
-447.387494368035160
 20
-196.675061783385440
 40
8.499999999999870
 50
233.578178478199590
 51
246.421821521797680
  0
ARC
  8
0
  6
CONTINUOUS
 62
3
 10
-453.324748301229080
 20
-204.721739093478850
 40
1.500000000000059
 50
53.578178478205707
 51
120.000000000001620
  0
LINE
  8
0
  6
CONTINUOUS
 62
3
 10
-456.849637010849510
 20
-205.024783731272690
 11
-454.074748301229080
 21
-203.422700987802270
  0
ARC
  8
0
  6
CONTINUOUS
 62
3
 10
-456.099637010849510
 20
-206.323821836949720
 40
1.500000000000320
 50
119.999999999992930
 51
227.920213139381870
  0
ARC
  8
0
  6
CONTINUOUS
 62
3
 10
-447.387494368035620
 20
-196.675061783384990
 40
23.999999999999925
 50
160.240348321185910
 51
199.759651678814090
  0
ARC
  8
0
  6
CONTINUOUS
 62
3
 10
-468.562673637080140
 20
-189.068368485780410
 40
1.499999999999926
 50
59.999999999998380
 51
160.240348321185250
  0
LINE
  8
0
  6
CONTINUOUS
 62
3
 10
-465.165879044100960
 20
-189.297457950850000
 11
-467.812673637080140
 21
-187.769330380103840
  0
ARC
  8
0
  6
CONTINUOUS
 62
3
 10
-465.915879044100960
 20
-190.596496056526580
 40
1.500000000000038
 50
341.837004155895390
 51
59.999999999998380
  0
ARC
  8
0
  6
CONTINUOUS
 62
3
 10
-447.387494368035620
 20
-196.675061783384990
 40
17.999999999999726
 50
161.837004155893140
 51
198.162995844106860
  0
ARC
  8
0
  6
CONTINUOUS
 62
3
 10
-465.915879044100960
 20
-202.753627510243400
 40
1.500000000000320
 50
299.999999999992950
 51
18.162995844104589
  0
LINE
  8
0
  6
CONTINUOUS
 62
3
 10
-467.812673637079910
 20
-205.580793186666140
 11
-465.165879044100960
 21
-204.052665615920430
  0
ARC
  8
0
  6
CONTINUOUS
 62
3
 10
-468.562673637079910
 20
-204.281755080989570
 40
1.500000000000246
 50
199.759651678811820
 51
300.000000000001590
  0
ARC
  8
0
  6
CONTINUOUS
 62
3
 10
-447.387494368035620
 20
-196.675061783384990
 40
14.499999999999851
 50
167.920213139392840
 51
192.079786860608920
  0
ARC
  8
0
  6
CONTINUOUS
 62
3
 10
-460.099637010849730
 20
-193.954504960096070
 40
1.499999999999926
 50
59.999999999998380
 51
167.920213139405550
  0
LINE
  8
0
  6
CONTINUOUS
 62
3
 10
-456.574748301229080
 20
-194.257549597890370
 11
-459.349637010849730
 21
-192.655466854419500
  0
ARC
  8
0
  6
CONTINUOUS
 62
3
 10
-457.324748301229080
 20
-195.556587703566950
 40
1.499999999999873
 50
353.578178478198030
 51
59.999999999998380
  0
ARC
  8
0
  6
CONTINUOUS
 62
3
 10
-447.387494368035620
 20
-196.675061783384990
 40
8.499999999999813
 50
173.578178478202550
 51
186.421821521800500
  0
ARC
  8
0
  6
CONTINUOUS
 62
3
 10
-457.324748301229080
 20
-197.793535863203490
 40
1.499999999999926
 50
300.000000000001590
 51
6.421821521801967
  0
LINE
  8
0
  6
CONTINUOUS
 62
3
 10
-459.349637010849510
 20
-200.694656712350480
 11
-456.574748301229080
 21
-199.092573968880060
  0
ARC
  8
0
  6
CONTINUOUS
 62
3
 10
-460.099637010849510
 20
-199.395618606673910
 40
1.500000000000287
 50
192.079786860609600
 51
300.000000000001590
  0
ARC
  8
0
  6
CONTINUOUS
 62
3
 10
-447.387494368034940
 20
-196.675061783384990
 40
24.000000000000139
 50
340.240348321186050
 51
19.759651678813924
  0
ARC
  8
0
  6
CONTINUOUS
 62
3
 10
-426.212315098990420
 20
-189.068368485780410
 40
1.500000000000246
 50
19.759651678811824
 51
120.000000000001620
  0
LINE
  8
0
  6
CONTINUOUS
 62
3
 10
-429.609109691969370
 20
-189.297457950850000
 11
-426.962315098990420
 21
-187.769330380103840
  0
ARC
  8
0
  6
CONTINUOUS
 62
3
 10
-428.859109691969370
 20
-190.596496056526580
 40
1.499999999999926
 50
120.000000000001620
 51
198.162995844104590
  0
ARC
  8
0
  6
CONTINUOUS
 62
3
 10
-447.387494368034940
 20
-196.675061783384990
 40
17.999999999999943
 50
341.837004155893340
 51
18.162995844106646
  0
ARC
  8
0
  6
CONTINUOUS
 62
3
 10
-428.859109691969370
 20
-202.753627510243400
 40
1.500000000000038
 50
161.837004155895410
 51
240.000000000007050
  0
LINE
  8
0
  6
CONTINUOUS
 62
3
 10
-426.962315098990420
 20
-205.580793186666140
 11
-429.609109691969370
 21
-204.052665615920430
  0
ARC
  8
0
  6
CONTINUOUS
 62
3
 10
-426.212315098990420
 20
-204.281755080989570
 40
1.499999999999926
 50
239.999999999998410
 51
340.240348321188210
  0
ARC
  8
0
  6
CONTINUOUS
 62
3
 10
-447.387494368034940
 20
-196.675061783384990
 40
14.500000000000169
 50
347.920213139391310
 51
12.079786860606980
  0
ARC
  8
0
  6
CONTINUOUS
 62
3
 10
-434.675351725220820
 20
-193.954504960096070
 40
1.500000000000192
 50
12.079786860592611
 51
120.000000000001620
  0
LINE
  8
0
  6
CONTINUOUS
 62
3
 10
-438.200240434841250
 20
-194.257549597890370
 11
-435.425351725220820
 21
-192.655466854419500
  0
ARC
  8
0
  6
CONTINUOUS
 62
3
 10
-437.450240434841250
 20
-195.556587703566950
 40
1.499999999999926
 50
120.000000000001620
 51
186.421821521801010
  0
ARC
  8
0
  6
CONTINUOUS
 62
3
 10
-447.387494368034940
 20
-196.675061783384990
 40
8.499999999999865
 50
353.578178478199500
 51
6.421821521797448
  0
ARC
  8
0
  6
CONTINUOUS
 62
3
 10
-437.450240434841250
 20
-197.793535863203490
 40
1.500000000000099
 50
173.578178478198990
 51
239.999999999998410
  0
LINE
  8
0
  6
CONTINUOUS
 62
3
 10
-435.425351725220820
 20
-200.694656712350480
 11
-438.200240434841250
 21
-199.092573968880060
  0
ARC
  8
0
  6
CONTINUOUS
 62
3
 10
-434.675351725220820
 20
-199.395618606673910
 40
1.499999999999926
 50
239.999999999998410
 51
347.920213139390400
  0
ARC
  8
0
  6
CONTINUOUS
 62
3
 10
-447.387494368034940
 20
-196.675061783384990
 40
8.500000000000101
 50
53.578178478202659
 51
66.421821521799089
  0
ARC
  8
0
  6
CONTINUOUS
 62
3
 10
-447.387494368034940
 20
-196.675061783384990
 40
23.999999999999819
 50
40.240348321186090
 51
79.759651678814322
  0
LINE
  8
0
  6
CONTINUOUS
 62
3
 10
-440.700240434841250
 20
-189.927422578968160
 11
-437.925351725220820
 21
-188.325339835497290
  0
LINE
  8
0
  6
CONTINUOUS
 62
3
 10
-444.887494368035160
 20
-174.533471957900470
 11
-444.887494368035160
 21
-177.589727099392800
  0
LINE
  8
0
  6
CONTINUOUS
 62
3
 10
-444.887494368035160
 20
-184.305744906532030
 11
-444.887494368035160
 21
-187.509910393473090
  0
ARC
  8
0
  6
CONTINUOUS
 62
3
 10
-447.387494368034940
 20
-196.675061783384990
 40
14.499999999999860
 50
47.920213139391755
 51
72.079786860608309
  0
LINE
  8
0
  6
CONTINUOUS
 62
3
 10
-432.109109691969370
 20
-184.967330931927790
 11
-429.462315098990420
 21
-183.439203361181630
  0
ARC
  8
0
  6
CONTINUOUS
 62
3
 10
-438.675351725220820
 20
-187.026301729820720
 40
1.499999999999926
 50
300.000000000001590
 51
47.920213139381872
  0
ARC
  8
0
  6
CONTINUOUS
 62
3
 10
-443.387494368035160
 20
-174.533471957900470
 40
1.499999999999952
 50
79.759651678814024
 51
180.000000000000000
  0
ARC
  8
0
  6
CONTINUOUS
 62
3
 10
-432.859109691969370
 20
-183.668292826251220
 40
1.499999999999967
 50
221.837004155893280
 51
300.000000000001590
  0
ARC
  8
0
  6
CONTINUOUS
 62
3
 10
-443.387494368035160
 20
-177.589727099392800
 40
1.500000000000000
 50
180.000000000000000
 51
258.162995844103310
  0
ARC
  8
0
  6
CONTINUOUS
 62
3
 10
-443.387494368035160
 20
-184.305744906532030
 40
1.500000000000138
 50
72.079786860605225
 51
180.000000000000000
  0
ARC
  8
0
  6
CONTINUOUS
 62
3
 10
-430.212315098990420
 20
-182.140165255505050
 40
1.499999999999926
 50
300.000000000001590
 51
40.240348321182964
  0
ARC
  8
0
  6
CONTINUOUS
 62
3
 10
-443.387494368035160
 20
-187.509910393473090
 40
1.500000000000000
 50
180.000000000000000
 51
246.421821521804280
  0
ARC
  8
0
  6
CONTINUOUS
 62
3
 10
-441.450240434841250
 20
-188.628384473291590
 40
1.499999999999693
 50
233.578178478195410
 51
300.000000000001590
  0
CIRCLE
  8
0
  6
CONTINUOUS
 62
3
 10
-447.387494368035160
 20
-196.675061783384990
 40
5.000000000000000
  0
ARC
  8
0
  6
CONTINUOUS
 62
3
 10
-424.512808440369440
 20
-178.849553551902320
 40
1.499999999999843
 50
217.928141766204990
 51
300.000000000001590
  0
LINE
  8
0
  6
CONTINUOUS
 62
3
 10
-423.762808440369440
 20
-180.148591657578890
 11
-421.142040198300610
 21
-178.635490407536740
  0
ARC
  8
0
  6
CONTINUOUS
 62
3
 10
-443.387494368035160
 20
-167.952248550695000
 40
1.500000000000000
 50
180.000000000000000
 51
262.071858233795980
  0
ARC
  8
0
  6
CONTINUOUS
 62
3
 10
-447.387494368034940
 20
-196.675061783384990
 40
27.500000000000060
 50
37.928141766201819
 51
82.071858233798309
  0
ARC
  8
0
  6
CONTINUOUS
 62
3
 10
-421.892040198300610
 20
-177.336452301860160
 40
1.499999999999926
 50
300.000000000001590
 51
37.180755781457485
  0
ARC
  8
0
  6
CONTINUOUS
 62
3
 10
-416.225957913884370
 20
-174.065138169701870
 40
1.500000000000102
 50
215.963570118316280
 51
299.999999999997270
  0
ARC
  8
0
  6
CONTINUOUS
 62
3
 10
-447.387494368035620
 20
-196.675061783385440
 40
36.999999999999943
 50
35.963570118321194
 51
84.036429881678174
  0
ARC
  8
0
  6
CONTINUOUS
 62
3
 10
-447.387494368035620
 20
-196.675061783385440
 40
33.500000000000071
 50
37.180755781458259
 51
82.819244218540931
  0
LINE
  8
0
  6
CONTINUOUS
 62
3
 10
-421.262808440369210
 20
-184.478718676501560
 11
-418.642040198300380
 21
-182.965617426459400
  0
ARC
  8
0
  6
CONTINUOUS
 62
3
 10
-417.892040198300380
 20
-184.264655532136200
 40
1.499999999999948
 50
22.819244218550043
 51
119.999999999997270
  0
ARC
  8
0
  6
CONTINUOUS
 62
3
 10
-420.512808440369210
 20
-185.777756782178130
 40
1.499999999999926
 50
120.000000000001620
 51
202.071858233797370
  0
ARC
  8
0
  6
CONTINUOUS
 62
3
 10
-447.387494368034710
 20
-196.675061783385440
 40
27.499999999999886
 50
337.928141766202200
 51
22.071858233797812
  0
ARC
  8
0
  6
CONTINUOUS
 62
3
 10
-447.387494368035390
 20
-196.675061783385900
 40
33.500000000000128
 50
337.180755781459030
 51
22.819244218541968
  0
ARC
  8
0
  6
CONTINUOUS
 62
3
 10
-420.512808440369440
 20
-207.572366784592760
 40
1.499999999999899
 50
157.928141766199360
 51
240.000000000007050
  0
LINE
  8
0
  6
CONTINUOUS
 62
3
 10
-418.642040198300150
 20
-210.384506140311710
 11
-421.262808440369440
 21
-208.871404890269790
  0
ARC
  8
0
  6
CONTINUOUS
 62
3
 10
-417.892040198300150
 20
-209.085468034635140
 40
1.499999999999926
 50
239.999999999998410
 51
337.180755781453340
  0
ARC
  8
0
  6
CONTINUOUS
 62
3
 10
-443.387494368034940
 20
-237.981840888030550
 40
1.500000000000000
 50
180.000000000000000
 51
275.531071524831360
  0
LINE
  8
0
  6
CONTINUOUS
 62
3
 10
-444.887494368034940
 20
-234.966705780476330
 11
-444.887494368034940
 21
-237.981840888030550
  0
LINE
  8
0
  6
CONTINUOUS
 62
3
 10
-444.887494368034940
 20
-225.397875016075890
 11
-444.887494368034940
 21
-228.424077516160200
  0
ARC
  8
0
  6
CONTINUOUS
 62
3
 10
-443.387494368034940
 20
-234.966705780476790
 40
1.500000000000182
 50
95.963570118326047
 51
179.999999999982630
  0
ARC
  8
0
  6
CONTINUOUS
 62
3
 10
-443.387494368034940
 20
-228.424077516160200
 40
1.500000000000000
 50
180.000000000000000
 51
277.180755781458290
  0
ARC
  8
0
  6
CONTINUOUS
 62
3
 10
-443.387494368034940
 20
-225.397875016075890
 40
1.499999999999967
 50
97.928141766195438
 51
180.000000000000000
  0
ARC
  8
0
  6
CONTINUOUS
 62
3
 10
-447.387494368034940
 20
-196.675061783385900
 40
27.499999999999879
 50
277.928141766202600
 51
322.071858233798930
  0
ARC
  8
0
  6
CONTINUOUS
 62
3
 10
-447.387494368034940
 20
-196.675061783384990
 40
37.000000000000028
 50
275.963570118320770
 51
324.036429881678030
  0
ARC
  8
0
  6
CONTINUOUS
 62
3
 10
-447.387494368034940
 20
-196.675061783384990
 40
43.000000000000199
 50
275.531071524838860
 51
324.468928475160340
  0
ARC
  8
0
  6
CONTINUOUS
 62
3
 10
-447.387494368034940
 20
-196.675061783384990
 40
33.500000000000114
 50
277.180755781458230
 51
322.819244218540860
  0
ARC
  8
0
  6
CONTINUOUS
 62
3
 10
-424.512808440369440
 20
-214.500570014868570
 40
1.500000000000320
 50
60.000000000007070
 51
142.071858233781280
  0
ARC
  8
0
  6
CONTINUOUS
 62
3
 10
-416.225957913883920
 20
-219.284985397068790
 40
1.499999999999926
 50
59.999999999998380
 51
144.036429881690740
  0
LINE
  8
0
  6
CONTINUOUS
 62
3
 10
-421.142040198300150
 20
-214.714633159233930
 11
-423.762808440369440
 21
-213.201531909191540
  0
ARC
  8
0
  6
CONTINUOUS
 62
3
 10
-421.892040198300150
 20
-216.013671264910500
 40
1.500000000000240
 50
322.819244218535570
 51
59.999999999998380
  0
ARC
  8
0
  6
CONTINUOUS
 62
3
 10
-451.387494368035390
 20
-237.981840888030550
 40
1.500000000000430
 50
264.468928475160000
 51
0.000000000000000
  0
LINE
  8
0
  6
CONTINUOUS
 62
3
 10
-449.887494368035390
 20
-234.966705780476330
 11
-449.887494368035390
 21
-237.981840888030550
  0
LINE
  8
0
  6
CONTINUOUS
 62
3
 10
-449.887494368035390
 20
-225.397875016075890
 11
-449.887494368035390
 21
-228.424077516160200
  0
ARC
  8
0
  6
CONTINUOUS
 62
3
 10
-451.387494368035390
 20
-234.966705780476790
 40
1.500000000000000
 50
0.000000000017370
 51
84.036429881682594
  0
ARC
  8
0
  6
CONTINUOUS
 62
3
 10
-451.387494368035390
 20
-228.424077516160200
 40
1.499999999999998
 50
262.819244218541710
 51
0.000000000000000
  0
ARC
  8
0
  6
CONTINUOUS
 62
3
 10
-451.387494368035390
 20
-225.397875016075890
 40
1.500000000000000
 50
0.000000000000000
 51
82.071858233804562
  0
ARC
  8
0
  6
CONTINUOUS
 62
3
 10
-447.387494368035390
 20
-196.675061783385900
 40
27.499999999999780
 50
217.928141766201070
 51
262.071858233797400
  0
ARC
  8
0
  6
CONTINUOUS
 62
3
 10
-447.387494368035390
 20
-196.675061783384990
 40
37.000000000000021
 50
215.963570118321970
 51
264.036429881678940
  0
ARC
  8
0
  6
CONTINUOUS
 62
3
 10
-447.387494368035390
 20
-196.675061783384990
 40
42.999999999999858
 50
215.531071524839690
 51
264.468928475160850
  0
ARC
  8
0
  6
CONTINUOUS
 62
3
 10
-447.387494368035390
 20
-196.675061783384990
 40
33.500000000000163
 50
217.180755781459110
 51
262.819244218541770
  0
ARC
  8
0
  6
CONTINUOUS
 62
3
 10
-470.262180295700890
 20
-214.500570014868570
 40
1.500000000000122
 50
37.928141766218701
 51
119.999999999992930
  0
ARC
  8
0
  6
CONTINUOUS
 62
3
 10
-481.160214421170510
 20
-220.792552950846130
 40
1.499999999999926
 50
120.000000000001620
 51
215.531071524832130
  0
LINE
  8
0
  6
CONTINUOUS
 62
3
 10
-481.910214421170510
 20
-219.493514845169560
 11
-479.299030822186410
 21
-217.985947291392220
  0
ARC
  8
0
  6
CONTINUOUS
 62
3
 10
-478.549030822186410
 20
-219.284985397068790
 40
1.499999999999968
 50
35.963570118309242
 51
120.000000000001620
  0
LINE
  8
0
  6
CONTINUOUS
 62
3
 10
-473.632948537770180
 20
-214.714633159233930
 11
-471.012180295700890
 21
-213.201531909191540
  0
ARC
  8
0
  6
CONTINUOUS
 62
3
 10
-472.882948537770180
 20
-216.013671264910500
 40
1.499999999999926
 50
120.000000000001620
 51
217.180755781464400
  0
ARC
  8
0
  6
CONTINUOUS
 62
3
 10
-485.160214421170510
 20
-179.485773846200800
 40
1.499999999999926
 50
59.999999999998380
 51
155.531071524840400
  0
LINE
  8
0
  6
CONTINUOUS
 62
3
 10
-481.799030822185960
 20
-179.694303294301330
 11
-484.410214421170510
 21
-178.186735740524230
  0
LINE
  8
0
  6
CONTINUOUS
 62
3
 10
-473.512180295701110
 20
-184.478718676501560
 11
-476.132948537769950
 21
-182.965617426459400
  0
ARC
  8
0
  6
CONTINUOUS
 62
3
 10
-482.549030822186180
 20
-180.993341399977910
 40
1.499999999999855
 50
335.963570118319300
 51
59.999999999990862
  0
ARC
  8
0
  6
CONTINUOUS
 62
3
 10
-476.882948537769950
 20
-184.264655532136200
 40
1.500000000000123
 50
60.000000000002721
 51
157.180755781457980
  0
ARC
  8
0
  6
CONTINUOUS
 62
3
 10
-474.262180295701110
 20
-185.777756782178130
 40
1.500000000000110
 50
337.928141766202600
 51
59.999999999998380
  0
ARC
  8
0
  6
CONTINUOUS
 62
3
 10
-447.387494368035620
 20
-196.675061783385440
 40
27.499999999999886
 50
157.928141766202200
 51
202.071858233798680
  0
ARC
  8
0
  6
CONTINUOUS
 62
3
 10
-447.387494368034940
 20
-196.675061783385900
 40
37.000000000000156
 50
155.963570118321120
 51
204.036429881678230
  0
ARC
  8
0
  6
CONTINUOUS
 62
3
 10
-447.387494368034940
 20
-196.675061783385900
 40
43.000000000000121
 50
155.531071524839230
 51
204.468928475160200
  0
ARC
  8
0
  6
CONTINUOUS
 62
3
 10
-447.387494368034940
 20
-196.675061783385900
 40
33.499999999999794
 50
157.180755781458400
 51
202.819244218540940
  0
ARC
  8
0
  6
CONTINUOUS
 62
3
 10
-474.262180295700890
 20
-207.572366784592760
 40
1.500000000000320
 50
299.999999999992950
 51
22.071858233784546
  0
ARC
  8
0
  6
CONTINUOUS
 62
3
 10
-485.160214421170510
 20
-213.864349720570320
 40
1.500000000000128
 50
204.468928475167470
 51
299.999999999992950
  0
LINE
  8
0
  6
CONTINUOUS
 62
3
 10
-484.410214421170510
 20
-215.163387826247340
 11
-481.799030822186410
 21
-213.655820272470010
  0
ARC
  8
0
  6
CONTINUOUS
 62
3
 10
-482.549030822186410
 20
-212.356782166793440
 40
1.499999999999926
 50
300.000000000001590
 51
24.036429881677126
  0
LINE
  8
0
  6
CONTINUOUS
 62
3
 10
-476.132948537770180
 20
-210.384506140311710
 11
-473.512180295700890
 21
-208.871404890269790
  0
ARC
  8
0
  6
CONTINUOUS
 62
3
 10
-476.882948537770180
 20
-209.085468034635140
 40
1.500000000000157
 50
202.819244218546660
 51
300.000000000001590
  0
ARC
  8
0
  6
CONTINUOUS
 62
3
 10
-481.160214421170050
 20
-172.557570615924760
 40
1.499999999999976
 50
144.468928475160790
 51
240.000000000002730
  0
LINE
  8
0
  6
CONTINUOUS
 62
3
 10
-479.299030822185960
 20
-175.364176275378670
 11
-481.910214421170050
 21
-173.856608721601560
  0
LINE
  8
0
  6
CONTINUOUS
 62
3
 10
-471.012180295700890
 20
-180.148591657578890
 11
-473.632948537769720
 21
-178.635490407536740
  0
ARC
  8
0
  6
CONTINUOUS
 62
3
 10
-478.549030822185960
 20
-174.065138169701870
 40
1.500000000000123
 50
240.000000000002730
 51
324.036429881683720
  0
ARC
  8
0
  6
CONTINUOUS
 62
3
 10
-472.882948537769720
 20
-177.336452301860160
 40
1.500000000000103
 50
142.819244218542510
 51
239.999999999998410
  0
ARC
  8
0
  6
CONTINUOUS
 62
3
 10
-470.262180295700890
 20
-178.849553551902320
 40
1.499999999999926
 50
239.999999999998410
 51
322.071858233800300
  0
ARC
  8
0
  6
CONTINUOUS
 62
3
 10
-447.387494368034710
 20
-196.675061783385440
 40
37.000000000000099
 50
95.963570118321798
 51
144.036429881678830
  0
ARC
  8
0
  6
CONTINUOUS
 62
3
 10
-447.387494368034710
 20
-196.675061783385440
 40
43.000000000000043
 50
95.531071524839788
 51
144.468928475160770
  0
ARC
  8
0
  6
CONTINUOUS
 62
3
 10
-447.387494368034710
 20
-196.675061783385440
 40
33.499999999999950
 50
97.180755781459069
 51
142.819244218541740
  0
ARC
  8
0
  6
CONTINUOUS
 62
3
 10
-451.387494368035160
 20
-167.952248550695000
 40
1.499999999999998
 50
277.928141766204020
 51
0.000000000000000
  0
ARC
  8
0
  6
CONTINUOUS
 62
3
 10
-491.336081798317650
 20
-146.578447315857150
 40
6.599999999999971
 50
98.597082237248614
 51
134.999999999998610
  0
ARC
  8
0
  6
CONTINUOUS
 62
4
 10
-486.329012323417260
 20
-156.566284242798700
 40
5.999999999999923
 50
97.897988672425626
 51
134.999999999996930
  0
ARC
  8
0
  6
CONTINUOUS
 62
4
 10
-447.387494368035160
 20
-437.275061783385350
 40
289.396999999999930
 50
90.000000000000000
 51
97.897988672427743
  0
LINE
  8
0
  6
CONTINUOUS
 62
3
 10
-383.887494368035160
 20
-229.279805469662160
 11
-380.861317419727240
 21
-229.200562237439270
  0
ARC
  8
0
  6
CONTINUOUS
 62
3
 10
-380.887494368035160
 20
-228.200904912463780
 40
0.999999999999931
 50
271.500000000002790
 51
0.000000000000000
  0
ARC
  8
0
  6
CONTINUOUS
 62
3
 10
-380.887494368035160
 20
-165.149218654307110
 40
1.000000000000000
 50
0.000000000000000
 51
88.499999999997186
  0
LINE
  8
0
  6
CONTINUOUS
 62
3
 10
-379.887494368035160
 20
-228.200904912463780
 11
-379.887494368035160
 21
-165.149218654307110
  0
LINE
  8
0
  6
CONTINUOUS
 62
3
 10
-383.887494368035160
 20
-164.070318097108720
 11
-380.861317419727240
 21
-164.149561329331620
  0
LINE
  8
0
  6
CONTINUOUS
 62
3
 10
-383.887494368035160
 20
-166.682562721118640
 11
-383.887494368035160
 21
-164.070318097108720
  0
LINE
  8
0
  6
CONTINUOUS
 62
3
 10
-383.887494368035160
 20
-226.667560845652250
 11
-383.887494368035160
 21
-229.279805469662160
  0
LINE
  8
0
  6
CONTINUOUS
 62
3
 10
-379.887494368035160
 20
-196.675061783385440
 11
-379.887494368035160
 21
-165.675061783385440
  0
LINE
  8
0
  6
CONTINUOUS
 62
3
 10
-379.887494368035160
 20
-196.675061783385440
 11
-379.887494368035160
 21
-227.675061783385440
  0
ARC
  8
0
  6
CONTINUOUS
 62
3
 10
-374.617394383819710
 20
-155.098736243498020
 40
1.000000000000041
 50
24.000000000003585
 51
113.999999999979760
  0
LINE
  8
0
  6
CONTINUOUS
 62
4
 10
-333.959553338414990
 20
-253.301803718636850
 11
-337.796444260513970
 21
-255.010097619555150
  0
LINE
  8
0
  6
CONTINUOUS
 62
4
 10
-335.301784260565510
 20
-250.287103708416230
 11
-339.138675182664260
 21
-251.995397609334530
  0
LINE
  8
0
  6
CONTINUOUS
 62
3
 10
-338.961292097565830
 20
-251.533298874083130
 11
-339.138675182664260
 21
-251.995397609334530
  0
LINE
  8
0
  6
CONTINUOUS
 62
3
 10
-337.334345525262790
 20
-255.187480704653130
 11
-337.796444260514190
 21
-255.010097619554700
  0
LINE
  8
0
  6
CONTINUOUS
 62
3
 10
-339.138675182664260
 20
-251.995397609334530
 11
-337.796444260514190
 21
-255.010097619554700
  0
LINE
  8
0
  6
CONTINUOUS
 62
3
 10
-332.582774311213880
 20
-247.051445368089160
 11
-329.735617809682990
 21
-253.446263571587450
  0
LINE
  8
0
  6
CONTINUOUS
 62
3
 10
-332.582774311213880
 20
-247.051445368089160
 11
-329.735617809682990
 21
-253.446263571587450
  0
LINE
  8
0
  6
CONTINUOUS
 62
3
 10
-329.735617809682990
 20
-253.446263571587450
 11
-328.841233690006500
 21
-253.048058105822970
  0
LINE
  8
0
  6
CONTINUOUS
 62
3
 10
-332.582774311213880
 20
-247.051445368089160
 11
-331.688390191537390
 21
-246.653239902324910
  0
ARC
  8
0
  6
CONTINUOUS
 62
3
 10
-331.159632865854350
 20
-247.840848300280410
 40
1.299999237060495
 50
40.601531107483851
 51
114.000000683246080
  0
LINE
  8
0
  6
CONTINUOUS
 62
3
 10
-376.828065368882450
 20
-157.017549255664330
 11
-377.252897528628520
 21
-158.018391104279770
  0
LINE
  8
0
  6
CONTINUOUS
 62
3
 10
-376.383151623672460
 20
-158.016841888621680
 11
-376.516493645866490
 21
-158.330976007071060
  0
LINE
  8
0
  6
CONTINUOUS
 62
3
 10
-377.252897528628520
 20
-158.018391104279770
 11
-376.516493645866490
 21
-158.330976007071060
  0
LINE
  8
0
  6
CONTINUOUS
 62
3
 10
-373.703848926177100
 20
-154.691999600422150
 11
-355.011785345228250
 21
-196.675061783385440
  0
ARC
  8
0
  6
CONTINUOUS
 62
3
 10
-369.180933104381780
 20
-157.474854854724530
 40
3.000000000000030
 50
203.999999999999630
 51
260.681876880317470
  0
LINE
  8
0
  6
CONTINUOUS
 62
3
 10
-369.666680994820470
 20
-160.435268506046670
 11
-343.711043901284310
 21
-164.694097659039700
  0
ARC
  8
0
  6
CONTINUOUS
 62
3
 10
-346.139783353475930
 20
-179.496165915650640
 40
15.000000000000393
 50
1.682768801133086
 51
80.681876880324481
  0
ARC
  8
0
  6
CONTINUOUS
 62
3
 10
-930.887494368035050
 20
-196.675061783385670
 40
600.000000000000910
 50
355.284875165908370
 51
1.682768801133149
  0
ARC
  8
0
  6
CONTINUOUS
 62
3
 10
-331.921445375723410
 20
-246.078221141272020
 40
0.999999999999983
 50
175.284875165916760
 51
204.000000000003580
  0
LINE
  8
0
  6
CONTINUOUS
 62
3
 10
-375.024131026895130
 20
-154.185190785855410
 11
-377.582058308294450
 21
-155.324053386467540
  0
LINE
  8
0
  6
CONTINUOUS
 62
3
 10
-375.304333107074740
 20
-160.439907949268450
 11
-377.107704297261420
 21
-161.242820533398570
  0
ARC
  8
0
  6
CONTINUOUS
 62
3
 10
-375.887494368035160
 20
-163.983456906326410
 40
2.999999999999567
 50
113.999999999979760
 51
180.000000000000000
  0
LINE
  8
0
  6
CONTINUOUS
 62
3
 10
-379.887494368035160
 20
-165.675061783385440
 11
-378.887494368035160
 21
-165.675061783385440
  0
ARC
  8
0
  6
CONTINUOUS
 62
3
 10
-373.887494368035160
 20
-238.175061783385440
 40
5.000000000000000
 50
180.000000000000000
 51
270.000000000000000
  0
LINE
  8
0
  6
CONTINUOUS
 62
3
 10
-373.887494368035160
 20
-243.175061783385440
 11
-338.468269336706330
 21
-243.175061783385440
  0
LINE
  8
0
  6
CONTINUOUS
 62
3
 10
-329.306932345174860
 20
-256.867700224883720
 11
-331.864859626574630
 21
-258.006562825495850
  0
ARC
  8
0
  6
CONTINUOUS
 62
3
 10
-329.713668988251190
 20
-255.954154767241110
 40
1.000000000000226
 50
294.000000000027340
 51
23.999999999991683
  0
LINE
  8
0
  6
CONTINUOUS
 62
3
 10
-355.011785345231430
 20
-196.675061783385440
 11
-328.800123530608570
 21
-255.547418124165460
  0
ARC
  8
0
  6
CONTINUOUS
 62
3
 10
-333.092807104336600
 20
-243.447299623264140
 40
0.999999999999856
 50
113.999999999979760
 51
204.000000000003580
  0
ARC
  8
0
  6
CONTINUOUS
 62
3
 10
-334.517480771616020
 20
-240.797696371622580
 40
2.000000000000451
 50
294.000000000027340
 51
355.768661925113970
  0
LINE
  8
0
  6
CONTINUOUS
 62
3
 10
-335.444142085642000
 20
-249.967362798241310
 11
-338.961292097565830
 21
-251.533298874083130
  0
LINE
  8
0
  6
CONTINUOUS
 62
3
 10
-333.817195513338730
 20
-253.621544628811310
 11
-337.334345525262790
 21
-255.187480704653130
  0
LINE
  8
0
  6
CONTINUOUS
 62
3
 10
-379.887494368035160
 20
-227.675061783385440
 11
-378.887494368035160
 21
-227.675061783385440
  0
LINE
  8
0
  6
CONTINUOUS
 62
3
 10
-378.887494368035160
 20
-163.983456906326410
 11
-378.887494368035160
 21
-238.175061783385440
  0
ARC
  8
0
  6
CONTINUOUS
 62
3
 10
-930.887494368035050
 20
-196.675061783385670
 40
600.799999999999950
 50
357.158610984636650
 51
0.587807867706885
  0
ARC
  8
0
  6
CONTINUOUS
 62
3
 10
-331.824895139250490
 20
-226.407909027679350
 40
1.000000000000147
 50
303.952126946381380
 51
357.158610984632960
  0
ARC
  8
0
  6
CONTINUOUS
 62
3
 10
-330.707895114638010
 20
-228.066918052674510
 40
0.999999999999769
 50
123.952126946395960
 51
177.005923909151190
  0
ARC
  8
0
  6
CONTINUOUS
 62
3
 10
-329.937686698484920
 20
-188.907909027679350
 40
0.999999999999967
 50
180.740494943192910
 51
233.794291905968890
  0
ARC
  8
0
  6
CONTINUOUS
 62
3
 10
-331.119058814761330
 20
-190.521711965737500
 40
1.000000000000077
 50
0.587807867721716
 51
53.794291905958382
  0
LINE
  8
0
  6
CONTINUOUS
 62
3
 10
-377.582058308299680
 20
-155.324053386469810
 11
-331.864859626574630
 21
-258.006562825495850
  0
LINE
  8
0
  6
DASHDOT
 62
4
 10
-354.887494368035110
 20
-228.792538003679740
 11
-354.887494368035110
 21
-251.661047179443360
  0
ARC
  8
0
  6
CONTINUOUS
 62
3
 10
-329.369991015689780
 20
-251.860449707867470
 40
1.299999237060559
 50
293.999982013920090
 51
7.398451589679256
  0
ARC
  8
0
  6
CONTINUOUS
 62
3
 10
-337.005886640871100
 20
-252.851968830366100
 40
9.000000000000234
 50
7.398451589678908
 51
40.601531107483503
  0
LINE
  8
0
  6
DASHDOT
 62
4
 10
-367.387494368035160
 20
-76.175061783383626
 11
-367.387494368035160
 21
-135.175061783383630
  0
LINE
  8
0
  6
DASHDOT
 62
4
 10
-337.887494368035110
 20
-105.675061783383620
 11
-396.887494368035160
 21
-105.675061783383620
  0
LINE
  8
0
  6
DASHDOT
 62
4
 10
-470.968399515601050
 20
-177.175061783383630
 11
-423.859838977179610
 21
-177.175061783383630
  0
INSERT
  8
0
  2
SYM3
 10
-383.747884061245600
 20
-290.814672090172730
  0
INSERT
  8
0
  2
SYM4
 10
-511.027104674824730
 20
-290.814672090172730
 41
-1.000000000000000
  0
LINE
  8
0
  6
DASHDOT
 62
4
 10
-605.891741667845050
 20
-196.675061783385440
 11
-289.331103206655830
 21
-196.675061783385440
  0
LINE
  8
0
  6
CONTINUOUS
 62
3
 10
-459.260477714242710
 20
-324.175061783383630
 11
-465.387494368036070
 21
-324.175061783383630
  0
LINE
  8
0
  6
CONTINUOUS
 62
3
 10
-435.514511021828070
 20
-324.175061783383630
 11
-429.387494368034710
 21
-324.175061783383630
  0
LINE
  8
0
  6
CONTINUOUS
 62
3
 10
-447.387494368035160
 20
-327.175061783383630
 11
-455.387494368035160
 21
-327.175061783383630
  0
LINE
  8
0
  6
CONTINUOUS
 62
3
 10
-447.387494368035160
 20
-327.175061783383630
 11
-439.387494368035620
 21
-327.175061783383630
  0
ARC
  8
0
  6
CONTINUOUS
 62
3
 10
-465.387494368036070
 20
-244.175061783383630
 40
79.999999999999943
 50
242.258787150595110
 51
270.000000000000000
  0
ARC
  8
0
  6
CONTINUOUS
 62
3
 10
-429.387494368034710
 20
-244.175061783383630
 40
80.000000000000000
 50
270.000000000000000
 51
279.172054809625190
  0
ARC
  8
0
  6
CONTINUOUS
 62
3
 10
-439.387494368035620
 20
-325.175061783383630
 40
2.000000000000000
 50
270.000000000000000
 51
345.522487814070530
  0
ARC
  8
0
  6
CONTINUOUS
 62
3
 10
-435.514511021828070
 20
-326.175061783383630
 40
2.000000000000000
 50
90.000000000000000
 51
165.522487814070560
  0
ARC
  8
0
  6
CONTINUOUS
 62
3
 10
-455.387494368035160
 20
-325.175061783383630
 40
2.000000000000063
 50
194.477512185929440
 51
270.000000000000000
  0
ARC
  8
0
  6
CONTINUOUS
 62
3
 10
-459.260477714242710
 20
-326.175061783383630
 40
2.000000000000063
 50
14.477512185929456
 51
90.000000000000000
  0
ARC
  8
0
  6
CONTINUOUS
 62
3
 10
-429.387494368034710
 20
-244.175061783383630
 40
80.000000000000043
 50
279.172054809625190
 51
323.661143755959020
  0
ARC
  8
0
  6
CONTINUOUS
 62
3
 10
-429.387494368034710
 20
-244.175061783383630
 40
80.000000000000043
 50
279.172054809625190
 51
323.661143755959020
  0
ARC
  8
0
  6
CONTINUOUS
 62
3
 10
-427.887494368035160
 20
-320.160257709958730
 40
3.000000000000001
 50
271.130911184731250
 51
0.000000000000000
  0
ARC
  8
0
  6
CONTINUOUS
 62
3
 10
-416.887494368035160
 20
-319.140053612903670
 40
3.000000000000000
 50
180.000000000000000
 51
279.466661087574440
  0
ARC
  8
0
  6
CONTINUOUS
 62
3
 10
-429.387494368034710
 20
-244.175061783383630
 40
80.000000000000000
 50
270.000000000000000
 51
279.172054809625190
  0
LINE
  8
0
  6
CONTINUOUS
 62
3
 10
-435.514511021828070
 20
-324.175061783383630
 11
-429.387494368034710
 21
-324.175061783383630
  0
ARC
  8
0
  6
CONTINUOUS
 62
3
 10
-477.887494368035160
 20
-319.140053612903780
 40
3.000000000000048
 50
260.533338912425560
 51
0.000000000000000
  0
ARC
  8
0
  6
CONTINUOUS
 62
3
 10
-466.887494368035160
 20
-320.160257709958730
 40
3.000000000000000
 50
180.000000000000000
 51
268.869088815268750
  0
ARC
  8
0
  6
CONTINUOUS
 62
3
 10
-465.387494368036070
 20
-244.175061783383630
 40
79.999999999999943
 50
242.258787150595110
 51
270.000000000000000
  0
LINE
  8
0
  6
CONTINUOUS
 62
3
 10
-459.260477714242710
 20
-324.175061783383630
 11
-465.387494368036070
 21
-324.175061783383630
  0
ARC
  8
0
  6
CONTINUOUS
 62
3
 10
-416.887494368035160
 20
-319.140053612903670
 40
3.000000000000000
 50
180.000000000000000
 51
279.466661087574440
  0
ARC
  8
0
  6
CONTINUOUS
 62
3
 10
-427.887494368035160
 20
-320.160257709958730
 40
3.000000000000001
 50
271.130911184731250
 51
0.000000000000000
  0
ARC
  8
0
  6
CONTINUOUS
 62
3
 10
-466.887494368035160
 20
-320.160257709958730
 40
3.000000000000000
 50
180.000000000000000
 51
268.869088815268750
  0
ARC
  8
0
  6
CONTINUOUS
 62
3
 10
-477.887494368035160
 20
-319.140053612903780
 40
3.000000000000048
 50
260.533338912425560
 51
0.000000000000000
  0
LINE
  8
0
  6
CONTINUOUS
 62
3
 10
-474.887494368035160
 20
-255.769699934521440
 11
-474.887494368035160
 21
-319.140053612903780
  0
LINE
  8
0
  6
CONTINUOUS
 62
3
 10
-469.887494368035160
 20
-259.790242297984490
 11
-469.887494368035160
 21
-320.160257709958730
  0
LINE
  8
0
  6
CONTINUOUS
 62
3
 10
-424.887494368035160
 20
-281.798774582862960
 11
-424.887494368035160
 21
-320.160257709958730
  0
LINE
  8
0
  6
CONTINUOUS
 62
3
 10
-419.887494368035160
 20
-276.508113584382040
 11
-419.887494368035160
 21
-319.140053612903670
  0
LINE
  8
0
  6
CONTINUOUS
 62
3
 10
-447.387494368035160
 20
-127.175061783383620
 11
-455.387494368035160
 21
-127.175061783383620
  0
LINE
  8
0
  6
CONTINUOUS
 62
3
 10
-459.260477714242710
 20
-130.175061783383630
 11
-465.387494368036070
 21
-130.175061783383630
  0
LINE
  8
0
  6
CONTINUOUS
 62
3
 10
-447.387494368035160
 20
-127.175061783383620
 11
-439.387494368035620
 21
-127.175061783383620
  0
LINE
  8
0
  6
CONTINUOUS
 62
3
 10
-435.514511021828070
 20
-130.175061783383630
 11
-429.387494368034710
 21
-130.175061783383630
  0
LINE
  8
0
  6
CONTINUOUS
 62
3
 10
-545.387494368036070
 20
-227.175061783383630
 11
-545.387494368036070
 21
-244.175061783383630
  0
LINE
  8
0
  6
CONTINUOUS
 62
3
 10
-545.387494368036070
 20
-227.175061783383630
 11
-545.387494368036070
 21
-210.175061783383630
  0
LINE
  8
0
  6
CONTINUOUS
 62
3
 10
-349.387494368034650
 20
-243.175061783385440
 11
-349.387494368034650
 21
-244.175061783383630
  0
ARC
  8
0
  6
CONTINUOUS
 62
3
 10
-465.387494368036070
 20
-244.175061783383630
 40
79.999999999999986
 50
202.119118468599990
 51
242.258787150595110
  0
ARC
  8
0
  6
CONTINUOUS
 62
3
 10
-465.387494368036070
 20
-210.175061783383630
 40
80.000000000000000
 50
90.000000000000000
 51
180.000000000000000
  0
ARC
  8
0
  6
CONTINUOUS
 62
3
 10
-455.387494368035160
 20
-129.175061783383630
 40
2.000000000000000
 50
90.000000000000000
 51
165.522487814070560
  0
ARC
  8
0
  6
CONTINUOUS
 62
3
 10
-459.260477714242710
 20
-128.175061783383630
 40
2.000000000000000
 50
270.000000000000000
 51
345.522487814070530
  0
ARC
  8
0
  6
CONTINUOUS
 62
3
 10
-429.387494368034710
 20
-210.175061783383630
 40
79.999999999999986
 50
37.939692129195059
 51
90.000000000000000
  0
ARC
  8
0
  6
CONTINUOUS
 62
3
 10
-439.387494368035620
 20
-129.175061783383630
 40
2.000000000000063
 50
14.477512185929456
 51
90.000000000000000
  0
ARC
  8
0
  6
CONTINUOUS
 62
3
 10
-435.514511021828070
 20
-128.175061783383630
 40
2.000000000000063
 50
194.477512185929440
 51
270.000000000000000
  0
ARC
  8
0
  6
CONTINUOUS
 62
3
 10
-465.387494368036070
 20
-244.175061783383630
 40
80.000000000000000
 50
180.000000000000000
 51
202.119118468599990
  0
ARC
  8
0
  6
CONTINUOUS
 62
3
 10
-429.387494368034710
 20
-244.175061783383630
 40
80.000000000000199
 50
323.661143755959020
 51
0.000000000000000
  0
LINE
  8
0
  6
CONTINUOUS
 62
3
 10
-424.887494368035160
 20
-259.790242297984490
 11
-424.887494368035160
 21
-320.160257709958730
  0
LINE
  8
0
  6
CONTINUOUS
 62
3
 10
-419.887494368035160
 20
-255.769699934521440
 11
-419.887494368035160
 21
-319.140053612903670
  0
LINE
  8
0
  6
CONTINUOUS
 62
3
 10
-474.887494368035160
 20
-276.508113584382040
 11
-474.887494368035160
 21
-319.140053612903780
  0
LINE
  8
0
  6
CONTINUOUS
 62
3
 10
-469.887494368035160
 20
-281.798774582862960
 11
-469.887494368035160
 21
-320.160257709958730
  0
ARC
  8
0
  6
CONTINUOUS
 62
3
 10
-447.387494368035160
 20
-227.175061783383630
 40
35.000000000000043
 50
235.503770534084740
 51
304.496229465915230
  0
ARC
  8
0
  6
CONTINUOUS
 62
3
 10
-416.887494368035160
 20
-255.769699934521440
 40
2.999999999999607
 50
173.162860976792790
 51
180.000000000000000
  0
ARC
  8
0
  6
CONTINUOUS
 62
3
 10
-427.887494368035160
 20
-259.790242297984490
 40
3.000000000000000
 50
0.000000000000000
 51
120.874405407572180
  0
ARC
  8
0
  6
CONTINUOUS
 62
3
 10
-466.887494368035160
 20
-259.790242297984490
 40
2.999999999999880
 50
59.125594592427817
 51
180.000000000000000
  0
ARC
  8
0
  6
CONTINUOUS
 62
3
 10
-477.887494368035160
 20
-255.769699934521440
 40
3.000000000000000
 50
0.000000000000000
 51
6.837139023207191
  0
ARC
  8
0
  6
CONTINUOUS
 62
3
 10
-383.747884061245600
 20
-290.814672090172730
 40
10.000000000000108
 50
58.384308452266673
 51
211.615691547732780
  0
ARC
  8
0
  6
CONTINUOUS
 62
3
 10
-377.457254284437450
 20
-280.595671306772600
 40
1.999999999999801
 50
238.384308452271990
 51
322.623325274950450
  0
ARC
  8
0
  6
CONTINUOUS
 62
3
 10
-393.966884844645730
 20
-297.105301866980990
 40
2.000000000000049
 50
307.376674725047560
 51
31.615691547733597
  0
ARC
  8
0
  6
CONTINUOUS
 62
3
 10
-511.027104674824730
 20
-290.814672090172730
 40
10.000000000000050
 50
328.384308452267190
 51
121.615691547731100
  0
ARC
  8
0
  6
CONTINUOUS
 62
3
 10
-517.317734451632870
 20
-280.595671306772600
 40
1.999999999999958
 50
217.376674725049580
 51
301.615691547739120
  0
ARC
  8
0
  6
CONTINUOUS
 62
3
 10
-500.808103891424590
 20
-297.105301866980990
 40
1.999999999999921
 50
148.384308452266400
 51
232.623325274952350
  0
ARC
  8
0
  6
CONTINUOUS
 62
3
 10
-511.027104674824730
 20
-163.535451476594520
 40
9.999999999999870
 50
238.384308452268900
 51
267.319870332125730
  0
ARC
  8
0
  6
CONTINUOUS
 62
3
 10
-517.317734451632870
 20
-173.754452259994650
 40
2.000000000000040
 50
58.384308452260875
 51
142.623325274950420
  0
LINE
  8
0
  6
CONTINUOUS
 62
3
 10
-312.387494368035110
 20
-240.175061783383630
 11
-302.387494368035110
 21
-240.175061783383630
  0
LINE
  8
0
  6
CONTINUOUS
 62
3
 10
-312.387494368035110
 20
-214.175061783383630
 11
-302.387494368035110
 21
-214.175061783383630
  0
LINE
  8
0
  6
CONTINUOUS
 62
3
 10
-429.887494368035160
 20
-87.175061783383626
 11
-447.387494368035160
 21
-87.175061783383626
  0
LINE
  8
0
  6
CONTINUOUS
 62
3
 10
-464.887494368035160
 20
-87.175061783383626
 11
-447.387494368035160
 21
-87.175061783383626
  0
LINE
  8
0
  6
CONTINUOUS
 62
3
 10
-300.727240330190680
 20
-279.642973634331840
 11
-322.627341633970270
 21
-317.575061783383720
  0
ARC
  8
0
  6
CONTINUOUS
 62
3
 10
-335.164808537897730
 20
-326.669825552162820
 40
5.000000000000201
 50
225.000000000000000
 51
319.414552653951260
  0
ARC
  8
0
  6
CONTINUOUS
 62
3
 10
-324.910062148862890
 20
-117.425551625569820
 40
4.999999999999977
 50
34.760457584000342
 51
134.999999999998150
  0
ARC
  8
0
  6
CONTINUOUS
 62
3
 10
-336.361205360865430
 20
-103.420850714856440
 40
5.000000000000041
 50
314.999999999998120
 51
43.782820215094013
  0
ARC
  8
0
  6
CONTINUOUS
 62
3
 10
-302.387494368035110
 20
-211.175061783383630
 40
3.000000000000000
 50
270.000000000000000
 51
0.000000000000000
  0
ARC
  8
0
  6
CONTINUOUS
 62
3
 10
-302.387494368035110
 20
-243.175061783383630
 40
3.000000000000000
 50
0.000000000000000
 51
90.000000000000000
  0
ARC
  8
0
  6
CONTINUOUS
 62
3
 10
-309.387494368035110
 20
-274.642973634331840
 40
10.000000000000032
 50
330.000000000000110
 51
0.000000000000000
  0
ARC
  8
0
  6
CONTINUOUS
 62
3
 10
-429.887494368035160
 20
-84.175061783383626
 40
3.000000000000000
 50
270.000000000000000
 51
0.000000000000000
  0
ARC
  8
0
  6
CONTINUOUS
 62
3
 10
-464.887494368035160
 20
-84.175061783383626
 40
3.000000000000000
 50
180.000000000000000
 51
270.000000000000000
  0
ARC
  8
0
  6
CONTINUOUS
 62
3
 10
-312.387494368035110
 20
-227.175061783383630
 40
13.000000000000000
 50
90.000000000000000
 51
270.000000000000000
  0
LINE
  8
0
  6
CONTINUOUS
 62
3
 10
-582.387494368035160
 20
-240.175061783383630
 11
-593.387494368035160
 21
-240.175061783383630
  0
LINE
  8
0
  6
CONTINUOUS
 62
3
 10
-582.387494368035160
 20
-214.175061783383630
 11
-593.387494368035160
 21
-214.175061783383630
  0
LINE
  8
0
  6
CONTINUOUS
 62
3
 10
-566.329392681274730
 20
-113.890017719636940
 11
-527.533259790558870
 21
-152.686150610352800
  0
LINE
  8
0
  6
CONTINUOUS
 62
3
 10
-561.949317281137500
 20
-106.956384620789320
 11
-521.769920854415770
 21
-147.135781047511270
  0
LINE
  8
0
  6
CONTINUOUS
 62
3
 10
-443.387494368035160
 20
-92.175061783383626
 11
-443.387494368035160
 21
-122.246858553108260
  0
LINE
  8
0
  6
CONTINUOUS
 62
3
 10
-451.387494368035160
 20
-92.175061783383626
 11
-451.387494368035160
 21
-122.246858553108260
  0
LINE
  8
0
  6
CONTINUOUS
 62
3
 10
-594.047748405879590
 20
-279.642973634331840
 11
-572.147647102100000
 21
-317.575061783383720
  0
LINE
  8
0
  6
CONTINUOUS
 62
3
 10
-332.825671454932770
 20
-106.956384620789320
 11
-373.005067881655010
 21
-147.135781047511500
  0
LINE
  8
0
  6
CONTINUOUS
 62
3
 10
-328.445596054795540
 20
-113.890017719636940
 11
-367.241728945511680
 21
-152.686150610353020
  0
LINE
  8
0
  6
CONTINUOUS
 62
3
 10
-549.905884719058920
 20
-335.350306383899580
 11
-525.314625969041460
 21
-310.759047633882350
  0
LINE
  8
0
  6
CONTINUOUS
 62
3
 10
-556.074646292239660
 20
-330.205359458095700
 11
-531.904336717798170
 21
-306.035049883654210
  0
LINE
  8
0
  6
CONTINUOUS
 62
3
 10
-344.869104017011350
 20
-335.350306383899580
 11
-367.104624925264370
 21
-313.114785475646610
  0
LINE
  8
0
  6
CONTINUOUS
 62
3
 10
-338.700342443830610
 20
-330.205359458095700
 11
-365.681923128870840
 21
-303.223778773055070
  0
CIRCLE
  8
0
  6
CONTINUOUS
 62
3
 10
-367.387494368035160
 20
-105.675061783383620
 40
9.350000000000023
  0
CIRCLE
  8
0
  6
CONTINUOUS
 62
4
 10
-367.387494368035160
 20
-105.675061783383620
 40
10.500000000000000
  0
ARC
  8
0
  6
CONTINUOUS
 62
3
 10
-362.146389222938180
 20
-299.688244867122420
 40
5.000000000000076
 50
163.709803389738140
 51
225.000000000000000
  0
ARC
  8
0
  6
CONTINUOUS
 62
3
 10
-370.640158831197250
 20
-316.650319381579270
 40
5.000000000000041
 50
44.999999999998167
 51
143.091301640803810
  0
ARC
  8
0
  6
CONTINUOUS
 62
3
 10
-521.779092063109030
 20
-314.294581539815000
 40
4.999999999999874
 50
61.306201207327504
 51
134.999999999998150
  0
ARC
  8
0
  6
CONTINUOUS
 62
3
 10
-535.439870623731050
 20
-302.499515977721330
 40
5.000000000000201
 50
315.000000000000000
 51
37.077467885865147
  0
ARC
  8
0
  6
CONTINUOUS
 62
3
 10
-544.131752827228750
 20
-276.180401333400140
 40
4.999999999999752
 50
359.474123357936660
 51
22.119118468601268
  0
ARC
  8
0
  6
CONTINUOUS
 62
3
 10
-504.953191431140000
 20
-319.405079834097250
 40
5.000000000000101
 50
62.258787150593506
 51
84.903782261257945
  0
ARC
  8
0
  6
CONTINUOUS
 62
3
 10
-437.392164940964340
 20
-331.884656441592370
 40
4.999999999999948
 50
62.620744204631244
 51
106.561661668955390
  0
ARC
  8
0
  6
CONTINUOUS
 62
3
 10
-360.917732370800990
 20
-294.542627657090410
 40
4.999999999999986
 50
143.661143755957770
 51
169.431241352002160
  0
ARC
  8
0
  6
CONTINUOUS
 62
3
 10
-501.133563991776440
 20
-276.575061783383720
 40
38.000000000000213
 50
179.474123357936550
 51
264.903782261258130
  0
ARC
  8
0
  6
CONTINUOUS
 62
3
 10
-413.018614144157600
 20
-284.821613387030990
 40
48.000000000000206
 50
242.620744204633890
 51
349.431241352001790
  0
ARC
  8
0
  6
CONTINUOUS
 62
3
 10
-438.387494368035160
 20
-122.246858553108260
 40
5.000000000000000
 50
180.000000000000000
 51
261.786789298255770
  0
ARC
  8
0
  6
CONTINUOUS
 62
3
 10
-456.387494368035160
 20
-122.246858553108260
 40
4.999999999999934
 50
278.213210701739000
 51
0.000000000000000
  0
ARC
  8
0
  6
CONTINUOUS
 62
3
 10
-518.234386948482890
 20
-143.600247141578620
 40
5.000000000000041
 50
224.999999999998180
 51
308.442443111783120
  0
ARC
  8
0
  6
CONTINUOUS
 62
3
 10
-531.068793696491750
 20
-156.221684516285450
 40
5.000000000000294
 50
320.598880246799980
 51
44.999999999998167
  0
ARC
  8
0
  6
CONTINUOUS
 62
3
 10
-376.540601787587660
 20
-143.600247141578620
 40
5.000000000000147
 50
231.557556888216450
 51
314.999999999998120
  0
ARC
  8
0
  6
CONTINUOUS
 62
3
 10
-363.706195039579030
 20
-156.221684516285680
 40
4.999999999999879
 50
135.000000000000000
 51
219.401119753201640
  0
ARC
  8
0
  6
CONTINUOUS
 62
3
 10
-546.370350813126040
 20
-338.885840289832230
 40
5.000000000000041
 50
135.000000000001820
 51
234.020855184674960
  0
ARC
  8
0
  6
CONTINUOUS
 62
3
 10
-559.610180198172540
 20
-326.669825552162820
 40
5.000000000000148
 50
220.585447346047000
 51
315.000000000000000
  0
ARC
  8
0
  6
CONTINUOUS
 62
3
 10
-348.404637922944230
 20
-338.885840289832460
 40
5.000000000000025
 50
305.979144815324450
 51
45.000000000000000
  0
ARC
  8
0
  6
CONTINUOUS
 62
3
 10
-558.413783375205070
 20
-103.420850714856440
 40
4.999999999999830
 50
136.217179784904200
 51
225.000000000003690
  0
ARC
  8
0
  6
CONTINUOUS
 62
3
 10
-569.864926587207150
 20
-117.425551625569820
 40
4.999999999999879
 50
45.000000000003688
 51
145.239542416001110
  0
ARC
  8
0
  6
CONTINUOUS
 62
3
 10
-438.387494368035160
 20
-92.175061783383626
 40
5.000000000000000
 50
90.000000000000000
 51
180.000000000000000
  0
ARC
  8
0
  6
CONTINUOUS
 62
3
 10
-456.387494368035160
 20
-92.175061783383626
 40
5.000000000000000
 50
0.000000000000000
 51
90.000000000000000
  0
ARC
  8
0
  6
CONTINUOUS
 62
3
 10
-371.387494368035160
 20
-358.175061783383630
 40
11.999999999999991
 50
293.556464309101160
 51
5.963919453129750
  0
ARC
  8
0
  6
CONTINUOUS
 62
3
 10
-351.495743922212170
 20
-356.097018424572520
 40
7.999999999999761
 50
117.923051853925750
 51
185.963919453133000
  0
ARC
  8
0
  6
CONTINUOUS
 62
3
 10
-543.279244813858330
 20
-356.097018424572520
 40
8.000000000000169
 50
354.036080546867080
 51
62.076948146072816
  0
ARC
  8
0
  6
CONTINUOUS
 62
3
 10
-523.387494368035160
 20
-358.175061783383630
 40
11.999999999999956
 50
174.036080546870270
 51
246.443535690898870
  0
ARC
  8
0
  6
CONTINUOUS
 62
3
 10
-585.387494368035160
 20
-274.642973634331840
 40
10.000000000000000
 50
180.000000000000000
 51
209.999999999999890
  0
ARC
  8
0
  6
CONTINUOUS
 62
3
 10
-393.641424744294340
 20
-276.575061783383720
 40
81.999999999999901
 50
297.923051853925760
 51
330.000000000000060
  0
ARC
  8
0
  6
CONTINUOUS
 62
3
 10
-501.133563991775990
 20
-276.575061783383720
 40
82.000000000000028
 50
210.000000000000000
 51
242.076948146074220
  0
CIRCLE
  8
0
  6
CONTINUOUS
 62
3
 10
-367.387494368035160
 20
-105.675061783383620
 40
17.500000000000000
  0
ARC
  8
0
  6
CONTINUOUS
 62
3
 10
-593.387494368035160
 20
-212.175061783383630
 40
2.000000000000000
 50
180.000000000000000
 51
270.000000000000000
  0
ARC
  8
0
  6
CONTINUOUS
 62
3
 10
-582.387494368035160
 20
-227.175061783383630
 40
13.000000000000000
 50
270.000000000000000
 51
90.000000000000000
  0
ARC
  8
0
  6
CONTINUOUS
 62
3
 10
-593.387494368035160
 20
-242.175061783383630
 40
2.000000000000000
 50
90.000000000000000
 51
180.000000000000000
  0
INSERT
  8
0
  2
SYM5
 10
-436.887494368035160
 20
-75.175061783383626
  0
INSERT
  8
0
  2
SYM6
 10
-387.387494368035160
 20
-81.675061783383626
  0
INSERT
  8
0
  2
SYM6
 10
-315.387494368035110
 20
-157.175061783383630
  0
INSERT
  8
0
  2
SYM6
 10
-312.387494368035110
 20
-257.175061783384080
  0
INSERT
  8
0
  2
SYM6
 10
-371.387494368035160
 20
-358.175061783383400
  0
INSERT
  8
0
  2
SYM6
 10
-523.387494368035160
 20
-358.175061783383400
 41
-1.000000000000000
  0
INSERT
  8
0
  2
SYM6
 10
-582.387494368035160
 20
-257.175061783384080
 41
-1.000000000000000
  0
INSERT
  8
0
  2
SYM6
 10
-579.387494368035160
 20
-157.175061783383630
 41
-1.000000000000000
  0
INSERT
  8
0
  2
SYM6
 10
-507.387494368035160
 20
-81.675061783383626
 41
-1.000000000000000
  0
INSERT
  8
0
  2
SYM5
 10
-457.887494368035160
 20
-75.175061783383626
 41
-1.000000000000000
  0
LINE
  8
0
  6
CONTINUOUS
 62
3
 10
-426.887494368035160
 20
-37.175068744247483
 11
-426.887494368035160
 21
-62.525372381311399
  0
ARC
  8
0
  6
CONTINUOUS
 62
3
 10
-436.887494368035160
 20
-37.175068744247483
 40
10.000000000000000
 50
0.000000000000000
 51
90.000000000000000
  0
ARC
  8
0
  6
CONTINUOUS
 62
3
 10
-457.887494368035160
 20
-37.175068744247483
 40
10.000000000000000
 50
90.000000000000000
 51
180.000000000000000
  0
LINE
  8
0
  6
DASHDOT
 62
4
 10
-424.219581369153620
 20
-47.175068744247483
 11
-471.242095270688310
 21
-47.175068744247483
  0
LINE
  8
0
  6
CONTINUOUS
 62
3
 10
-467.887494368035160
 20
-37.175068744247483
 11
-467.887494368035160
 21
-62.525372381311399
  0
LINE
  8
0
  6
CONTINUOUS
 62
3
 10
-436.887494368035160
 20
-27.175068744247483
 11
-457.887494368035160
 21
-27.175068744247483
  0
CIRCLE
  8
0
  6
CONTINUOUS
 62
3
 10
-447.387494368035160
 20
-47.175068744247483
 40
10.000000000000000
  0
LINE
  8
0
  6
CONTINUOUS
 62
3
 10
-426.887494368035160
 20
-62.525372381312764
 11
-426.887494368035160
 21
-84.175061783383626
  0
LINE
  8
0
  6
CONTINUOUS
 62
3
 10
-467.887494368035160
 20
-62.525372381312764
 11
-467.887494368035160
 21
-84.175061783383626
  0
ARC
  8
0
  6
CONTINUOUS
 62
3
 10
-447.387494368035620
 20
-662.175061783383630
 40
600.000000000000000
 50
91.957986872393278
 51
93.344152204455611
  0
ARC
  8
0
  6
CONTINUOUS
 62
3
 10
-447.387494368035620
 20
-662.175061783383630
 40
600.000000000000110
 50
86.655847795544304
 51
88.042013127606623
  0
LINE
  8
0
  6
CONTINUOUS
 62
3
 10
-297.387494368035110
 20
-330.647197738383280
 11
-297.387494368035110
 21
-372.175061783383630
  0
ARC
  8
0
  6
CONTINUOUS
 62
3
 10
-360.387494368035160
 20
-372.175061783383630
 40
3.000000000000057
 50
0.000000000000000
 51
90.000000000000000
  0
LINE
  8
0
  6
CONTINUOUS
 62
3
 10
-447.387494368035160
 20
-369.175061783383630
 11
-360.387494368035160
 21
-369.175061783383630
  0
LINE
  8
0
  6
CONTINUOUS
 62
3
 10
-357.387494368035110
 20
-372.175061783383630
 11
-297.387494368035110
 21
-372.175061783383630
  0
LINE
  8
0
  6
DASHDOT
 62
4
 10
-317.387494368035110
 20
-339.441160019674950
 11
-317.387494368035110
 21
-376.806999992917330
  0
LINE
  8
0
  6
CONTINUOUS
 62
3
 10
-341.213951030601320
 20
-347.175061783383630
 11
-300.387494368035110
 21
-347.175061783383630
  0
ARC
  8
0
  6
CONTINUOUS
 62
3
 10
-341.213951030601320
 20
-352.175061783383630
 40
5.000000000000000
 50
90.000000000000000
 51
124.740731777757070
  0
LINE
  8
0
  6
CONTINUOUS
 62
3
 10
-540.144708252157560
 20
-356.538124809565260
 11
-537.387494368035160
 21
-372.175061783383630
  0
ARC
  8
0
  6
CONTINUOUS
 62
3
 10
-349.706241718852030
 20
-357.406365697899900
 40
5.000000000000283
 50
118.525923803088630
 51
170.000000000001220
  0
ARC
  8
0
  6
CONTINUOUS
 62
3
 10
-300.387494368035110
 20
-350.175061783383630
 40
3.000000000000000
 50
0.000000000000000
 51
90.000000000000000
  0
ARC
  8
0
  6
CONTINUOUS
 62
3
 10
-419.387494368035160
 20
-182.992424368378810
 40
120.000000000000050
 50
0.000000000000000
 51
86.655847795544332
  0
ARC
  8
0
  6
CONTINUOUS
 62
3
 10
-393.641424744294800
 20
-276.575061783383490
 40
87.000000000000099
 50
298.525923803082950
 51
332.680796053209750
  0
ARC
  8
0
  6
CONTINUOUS
 62
3
 10
-475.387494368035160
 20
-182.992424368378810
 40
120.000000000000050
 50
93.344152204455668
 51
180.000000000000000
  0
ARC
  8
0
  6
CONTINUOUS
 62
3
 10
-545.068747017218240
 20
-357.406365697899900
 40
4.999999999999649
 50
10.000000000000568
 51
61.474076196920521
  0
ARC
  8
0
  6
CONTINUOUS
 62
3
 10
-553.561037705469400
 20
-352.175061783383630
 40
4.999999999999954
 50
55.259268222247194
 51
90.000000000000000
  0
ARC
  8
0
  6
CONTINUOUS
 62
3
 10
-501.133563991776440
 20
-276.575061783383490
 40
86.999999999999716
 50
207.319203946790420
 51
241.474076196917140
  0
LINE
  8
0
  6
CONTINUOUS
 62
3
 10
-597.387494368035160
 20
-330.647197738383280
 11
-597.387494368035160
 21
-372.175061783383630
  0
ARC
  8
0
  6
CONTINUOUS
 62
3
 10
-534.387494368035160
 20
-372.175061783383630
 40
3.000000000000000
 50
90.000000000000000
 51
180.000000000000000
  0
LINE
  8
0
  6
CONTINUOUS
 62
3
 10
-447.387494368035160
 20
-369.175061783383630
 11
-534.387494368035160
 21
-369.175061783383630
  0
LINE
  8
0
  6
CONTINUOUS
 62
3
 10
-537.387494368035160
 20
-372.175061783383630
 11
-597.387494368035160
 21
-372.175061783383630
  0
LINE
  8
0
  6
DASHDOT
 62
4
 10
-577.387494368035160
 20
-339.441160019674950
 11
-577.387494368035160
 21
-376.806999992917330
  0
LINE
  8
0
  6
CONTINUOUS
 62
3
 10
-553.561037705469400
 20
-347.175061783383630
 11
-594.387494368035160
 21
-347.175061783383630
  0
ARC
  8
0
  6
CONTINUOUS
 62
3
 10
-594.387494368035160
 20
-350.175061783383630
 40
3.000000000000000
 50
90.000000000000000
 51
180.000000000000000
  0
LINE
  8
0
  6
CONTINUOUS
 62
3
 10
-595.387494368035160
 20
-182.992424368378810
 11
-595.387494368035160
 21
-326.175061783383630
  0
LINE
  8
0
  6
CONTINUOUS
 62
3
 10
-299.387494368035110
 20
-182.992424368378810
 11
-299.387494368035110
 21
-326.175061783383630
  0
LINE
  8
0
  6
CONTINUOUS
 62
3
 10
-354.630280483913620
 20
-356.538124809565260
 11
-357.387494368035110
 21
-372.175061783383630
  0
ARC
  8
0
  6
CONTINUOUS
 62
3
 10
-598.387494368035160
 20
-326.175061783383630
 40
2.999999999999944
 50
311.810314895779530
 51
0.000000000000000
  0
ARC
  8
0
  6
CONTINUOUS
 62
3
 10
-594.387494368035160
 20
-330.647197738383280
 40
3.000000000000114
 50
131.810314895776630
 51
180.000000000000000
  0
ARC
  8
0
  6
CONTINUOUS
 62
3
 10
-300.387494368035110
 20
-330.647197738383280
 40
3.000000000000000
 50
0.000000000000000
 51
48.189685104223358
  0
ARC
  8
0
  6
CONTINUOUS
 62
3
 10
-296.387494368035110
 20
-326.175061783383630
 40
3.000000000000000
 50
180.000000000000000
 51
228.189685104220470
  0
ARC
  8
0
  6
CONTINUOUS
 62
3
 10
-587.387494368035160
 20
-320.175061783383630
 40
8.000000000000000
 50
90.000000000000000
 51
180.000000000000000
  0
ARC
  8
0
  6
CONTINUOUS
 62
3
 10
-585.537592331660450
 20
-320.175061783383630
 40
8.000000000000039
 50
27.319203946790914
 51
90.000000000000000
  0
LINE
  8
0
  6
CONTINUOUS
 62
3
 10
-585.537592331660450
 20
-312.175061783383630
 11
-587.387494368035160
 21
-312.175061783383630
  0
ARC
  8
0
  6
CONTINUOUS
 62
3
 10
-307.387494368035110
 20
-320.175061783383630
 40
8.000000000000000
 50
0.000000000000000
 51
90.000000000000000
  0
ARC
  8
0
  6
CONTINUOUS
 62
3
 10
-309.237396404410280
 20
-320.175061783383630
 40
8.000000000000000
 50
90.000000000000000
 51
152.680796053209090
  0
LINE
  8
0
  6
CONTINUOUS
 62
3
 10
-309.237396404410280
 20
-312.175061783383630
 11
-307.387494368035110
 21
-312.175061783383630
  0
LINE
  8
0
  6
DASHDOT
 62
4
 10
-447.387494368035160
 20
-383.507144677505040
 11
-447.387494368035160
 21
-16.940123459009101
  0
LINE
  8
0
  6
CONTINUOUS
 62
3
 10
-508.729914645271720
 20
-157.356182491657930
 11
-511.024703295308650
 21
-156.031287300179090
  0
LINE
  8
0
  6
CONTINUOUS
 62
3
 10
-511.024703466457030
 20
-156.031288662787460
 11
-517.522292326902630
 21
-159.785456572340080
  0
LINE
  8
0
  6
CONTINUOUS
 62
3
 10
-517.522293769544150
 20
-159.785457603851110
 11
-517.524697026641090
 21
-167.289616577544960
  0
LINE
  8
0
  6
CONTINUOUS
 62
3
 10
-517.524698390612340
 20
-167.289619288892600
 11
-511.279979528172590
 21
-170.895004905929800
  0
ARC
  8
0
  6
CONTINUOUS
 62
3
 10
-511.027104674824730
 20
-163.535451476594520
 40
6.499999999999977
 50
69.643935972739300
 51
268.435835376533870
  0
LINE
  8
0
  6
CONTINUOUS
 62
3
 10
-386.045074090798610
 20
-157.356182491657930
 11
-383.750285440761670
 21
-156.031287300179090
  0
LINE
  8
0
  6
CONTINUOUS
 62
3
 10
-383.750285269613300
 20
-156.031288662787460
 11
-377.252696409167700
 21
-159.785456572340080
  0
LINE
  8
0
  6
CONTINUOUS
 62
3
 10
-377.252694966526180
 20
-159.785457603851110
 11
-377.252207631937490
 21
-161.307157563119060
  0
ARC
  8
0
  6
CONTINUOUS
 62
3
 10
-383.747884061245600
 20
-163.535451476594520
 40
6.499999999999929
 50
18.226699476752106
 51
110.356064027260700
  0
LINE
  8
0
  6
CONTINUOUS
 62
3
 10
-436.887494368035160
 20
-85.175061783337469
 11
-457.887494368035160
 21
-85.175061783337469
  0
ARC
  8
0
  6
CONTINUOUS
 62
3
 10
-457.887494368035160
 20
-75.175061783337469
 40
10.000000000000000
 50
180.000000000000000
 51
270.000000000000000
  0
ARC
  8
0
  6
CONTINUOUS
 62
3
 10
-436.887494368035160
 20
-75.175061783337469
 40
10.000000000000000
 50
270.000000000000000
 51
0.000000000000000
  0
ARC
  8
0
  6
CONTINUOUS
 62
3
 10
19.617413123391543
 20
-85.175061783337469
 40
3.000000000000000
 50
180.000000000000000
 51
228.189670711320250
  0
TEXT
  8
0
  6
CONTINUOUS
 62
3
 10
-531.495788574218750
 20
246.107818603515620
 40
16.000000000000000
  1
Ｄ０３４
 50
0.000002504478167
 41
0.833333333333333
  7
STANDARD1
  0
TEXT
  8
0
  6
CONTINUOUS
 62
3
 10
-531.495788574218750
 20
224.907821655273440
 40
16.000000000000000
  1
三菱ギヤードモートル
 50
0.000002504478167
 41
0.833333333333333
  7
STANDARD1
  0
TEXT
  8
0
  6
CONTINUOUS
 62
3
 10
-531.495788574218750
 20
203.707824707031250
 40
16.000000000000000
  1
ＧＭーＤＢ
 50
0.000002504478167
 41
0.833333333333333
  7
STANDARD1
  0
TEXT
  8
0
  6
CONTINUOUS
 62
3
 10
-531.495788574218750
 20
182.507812500000000
 40
16.000000000000000
  1
０．４（kＷ）
 50
0.000002504478167
 41
0.804878051688032
  7
STANDARD1
  0
TEXT
  8
0
  6
CONTINUOUS
 62
3
 10
-531.495788574218750
 20
161.307815551757810
 40
16.000000000000000
  1
１／５４０～１／９００
 50
0.000002504478167
 41
0.833333333333333
  7
STANDARD1
  0
TEXT
  8
0
  6
CONTINUOUS
 62
3
 10
-531.495788574218750
 20
140.107818603515620
 40
16.000000000000000
  1
ＳＣＡＬＥ　１／１
 50
0.000002504478167
 41
0.833333333333333
  7
STANDARD1
  0
LINE
  8
0
  6
DASHDOT
 62
4
 10
316.909502061593230
 20
-177.175061783337470
 11
477.307776141998150
 21
-177.175061783337470
  0
LINE
  8
0
  6
CONTINUOUS
 62
3
 10
2.117413123390406
 20
105.324938216565550
 11
-4.882586876609594
 21
105.324938216565550
  0
INSERT
  8
0
  2
SYM7
 10
27.617413123390634
 20
263.413107494291810
 41
-1.000000000000000
 50
180.000000000000030
  0
INSERT
  8
0
  2
SYM7
 10
27.617413123390634
 20
143.236768938937080
  0
ARC
  8
0
  6
CONTINUOUS
 62
3
 10
-23.382586876609366
 20
348.538672805053010
 40
4.999999999999607
 50
92.502311715374148
 51
180.000000000000000
  0
ARC
  8
0
  6
CONTINUOUS
 62
3
 10
-23.382586876609366
 20
58.123489909755790
 40
5.000000000000000
 50
180.000000000000000
 51
267.644445349204200
  0
ARC
  8
0
  6
CONTINUOUS
 62
3
 10
206.617413123390630
 20
348.411451901035890
 40
5.000000000000000
 50
0.000000000000000
 51
88.999999999998138
  0
ARC
  8
0
  6
CONTINUOUS
 62
3
 10
206.617413123390630
 20
58.238424532193221
 40
4.999999999999614
 50
271.000000000001880
 51
0.000000000000000
  0
LINE
  8
0
  6
CONTINUOUS
 62
3
 10
-23.588089896425572
 20
53.127714843877129
 11
43.117413123390634
 21
50.383759776209899
  0
LINE
  8
0
  6
CONTINUOUS
 62
3
 10
206.704675155577210
 20
53.239186056411654
 11
43.117413123390634
 21
50.383759776209899
  0
LINE
  8
0
  6
CONTINUOUS
 62
3
 10
-23.600885356474464
 20
353.533905109329230
 11
40.117413123390634
 21
356.318481851803430
  0
LINE
  8
0
  6
CONTINUOUS
 62
3
 10
206.704675155577210
 20
353.410690376817460
 11
40.117413123390634
 21
356.318481851803430
  0
LINE
  8
0
  6
DASHDOT
 62
4
 10
80.117413123390634
 20
178.554408889995560
 11
80.117413123390634
 21
228.368382846897020
  0
LINE
  8
0
  6
CONTINUOUS
 62
3
 10
210.617413123390630
 20
154.165217445941830
 11
211.617413123390630
 21
154.165217445941830
  0
LINE
  8
0
  6
CONTINUOUS
 62
3
 10
210.617413123390630
 20
254.165217445941830
 11
211.617413123390630
 21
254.165217445941830
  0
ARC
  8
0
  6
CONTINUOUS
 62
3
 10
100.045371522871840
 20
54.377897970435242
 40
2.999999999999587
 50
271.000000000001930
 51
351.336030589425950
  0
ARC
  8
0
  6
CONTINUOUS
 62
3
 10
105.976904395365180
 20
53.474062928774856
 40
3.000000000000496
 50
91.000000000001606
 51
171.336030589408810
  0
LINE
  8
0
  6
CONTINUOUS
 62
3
 10
43.117413123390634
 20
55.324938216614555
 11
43.117413123390634
 21
50.331394581425684
  0
ARC
  8
0
  6
CONTINUOUS
 62
3
 10
105.976904395365180
 20
353.175813504454250
 40
3.000000000000163
 50
188.663969410591190
 51
268.999999999998410
  0
ARC
  8
0
  6
CONTINUOUS
 62
3
 10
100.045371522871840
 20
352.271978462792960
 40
3.000000000000163
 50
8.663969410591202
 51
88.999999999998394
  0
LINE
  8
0
  6
CONTINUOUS
 62
3
 10
43.117413123390634
 20
351.324938216613650
 11
43.117413123390634
 21
356.318481851803430
  0
ARC
  8
0
  6
CONTINUOUS
 62
3
 10
206.617413123390630
 20
108.489958077476780
 40
3.000000000000099
 50
333.813783854849020
 51
0.000000000000000
  0
ARC
  8
0
  6
CONTINUOUS
 62
3
 10
128.546696544035970
 20
146.882186624229230
 40
90.000000000000114
 50
328.570812018625650
 51
333.813783854846180
  0
ARC
  8
0
  6
CONTINUOUS
 62
3
 10
202.782515076054100
 20
101.516525085116420
 40
2.999999999999587
 50
271.000000000001930
 51
328.570812018632810
  0
ARC
  8
0
  6
CONTINUOUS
 62
3
 10
128.546696544035970
 20
146.882186624229230
 40
90.000000000000256
 50
270.999999999999430
 51
293.851943086942130
  0
ARC
  8
0
  6
CONTINUOUS
 62
3
 10
163.727287841194080
 20
67.312556764700730
 40
2.999999999999688
 50
293.851943086941620
 51
358.999999999989600
  0
ARC
  8
0
  6
CONTINUOUS
 62
3
 10
206.617413123390630
 20
298.159918355752320
 40
3.000000000000000
 50
0.000000000000000
 51
26.186216145151025
  0
ARC
  8
0
  6
CONTINUOUS
 62
3
 10
128.546696544035970
 20
259.767689808999880
 40
90.000000000000085
 50
26.186216145153860
 51
31.429187981374334
  0
ARC
  8
0
  6
CONTINUOUS
 62
3
 10
202.782515076054100
 20
305.133351348111770
 40
3.000000000000215
 50
31.429187981382050
 51
88.999999999998394
  0
ARC
  8
0
  6
CONTINUOUS
 62
3
 10
128.546696544035970
 20
259.767689808999880
 40
89.999999999999957
 50
66.148056913057857
 51
89.000000000000540
  0
ARC
  8
0
  6
CONTINUOUS
 62
3
 10
163.727287841194080
 20
339.337319668528380
 40
3.000000000000033
 50
0.999999999993078
 51
66.148056913058383
  0
ARC
  8
0
  6
CONTINUOUS
 62
3
 10
210.617413123390630
 20
153.165217445941830
 40
1.000000000000000
 50
90.000000000000000
 51
180.000000000000000
  0
LINE
  8
0
  6
DASHDOT
 62
4
 10
191.617691333941960
 20
56.917442255064543
 11
191.617691333941960
 21
98.324938216614555
  0
LINE
  8
0
  6
DASHDOT
 62
4
 10
207.513520516023760
 20
73.324938216614555
 11
175.291305730757500
 21
73.324938216614555
  0
CIRCLE
  8
0
  6
CONTINUOUS
 62
3
 10
191.617691333941960
 20
73.324938216614555
 40
9.500000000000000
  0
LINE
  8
0
  6
CONTINUOUS
 62
3
 10
209.617413123390630
 20
108.489958077476780
 11
209.617413123390630
 21
203.324938216614560
  0
LINE
  8
0
  6
CONTINUOUS
 62
3
 10
211.617413123390630
 20
58.238424532193221
 11
211.617413123390630
 21
203.324938216614560
  0
LINE
  8
0
  6
CONTINUOUS
 62
3
 10
40.117413123390634
 20
55.324938216614555
 11
130.117413123391090
 21
56.895894060154660
  0
LINE
  8
0
  6
DASHDOT
 62
4
 10
-8.382586876609366
 20
56.917442255064543
 11
-8.382586876609366
 21
89.987610061002215
  0
LINE
  8
0
  6
DASHDOT
 62
4
 10
7.513242305472431
 20
73.324938216614555
 11
-24.708972479793829
 21
73.324938216614555
  0
CIRCLE
  8
0
  6
CONTINUOUS
 62
3
 10
-8.382586876609366
 20
73.324938216614555
 40
9.500000000000000
  0
LINE
  8
0
  6
CONTINUOUS
 62
3
 10
40.117413123390634
 20
55.324938216614555
 11
40.117413123390634
 21
203.324938216614560
  0
LINE
  8
0
  6
CONTINUOUS
 62
3
 10
40.117413123390634
 20
351.324938216613650
 11
130.117413123391540
 21
349.753982373074450
  0
LINE
  8
0
  6
DASHDOT
 62
4
 10
191.617691333941960
 20
349.732434178164570
 11
191.617691333941960
 21
308.324938216614560
  0
LINE
  8
0
  6
DASHDOT
 62
4
 10
207.513520516023760
 20
333.324938216614560
 11
175.291305730757500
 21
333.324938216614560
  0
LINE
  8
0
  6
CONTINUOUS
 62
3
 10
40.117413123390634
 20
351.324938216613650
 11
40.117413123390634
 21
203.324938216614560
  0
LINE
  8
0
  6
DASHDOT
 62
4
 10
-8.382586876609366
 20
349.732434178164570
 11
-8.382586876609366
 21
316.662266372226900
  0
LINE
  8
0
  6
DASHDOT
 62
4
 10
7.513242305472431
 20
333.324938216614560
 11
-24.708972479793829
 21
333.324938216614560
  0
ARC
  8
0
  6
CONTINUOUS
 62
3
 10
210.617413123390630
 20
255.165217445941830
 40
1.000000000000000
 50
180.000000000000000
 51
270.000000000000000
  0
CIRCLE
  8
0
  6
CONTINUOUS
 62
3
 10
191.617691333941960
 20
333.324938216614560
 40
9.500000000000000
  0
CIRCLE
  8
0
  6
CONTINUOUS
 62
3
 10
-8.382586876609366
 20
333.324938216614560
 40
9.500000000000000
  0
LINE
  8
0
  6
CONTINUOUS
 62
3
 10
211.617413123390630
 20
348.411451901035890
 11
211.617413123390630
 21
203.324938216614560
  0
LINE
  8
0
  6
CONTINUOUS
 62
3
 10
209.617413123390630
 20
298.159918355752320
 11
209.617413123390630
 21
203.324938216614560
  0
LINE
  8
0
  6
CONTINUOUS
 62
3
 10
191.832691333941970
 20
98.324938216613646
 11
202.834872295366040
 21
98.516981999647669
  0
LINE
  8
0
  6
CONTINUOUS
 62
3
 10
166.726830926663300
 20
67.260199545388332
 11
166.847920658464770
 21
74.197425634178671
  0
ARC
  8
0
  6
CONTINUOUS
 62
3
 10
191.832691333941970
 20
73.324938216613646
 40
25.000000000000000
 50
90.000000000000000
 51
180.000000000000000
  0
LINE
  8
0
  6
CONTINUOUS
 62
3
 10
191.832691333941970
 20
308.324938216614560
 11
202.834872295366040
 21
308.132894433581440
  0
LINE
  8
0
  6
CONTINUOUS
 62
3
 10
166.726830926663300
 20
339.389676887839870
 11
166.847920658464770
 21
332.452450799050440
  0
ARC
  8
0
  6
CONTINUOUS
 62
3
 10
191.832691333941970
 20
333.324938216614560
 40
25.000000000000000
 50
180.000000000000000
 51
270.000000000000000
  0
LINE
  8
0
  6
CONTINUOUS
 62
3
 10
39.617413123390634
 20
203.324938216614330
 11
39.617413123390634
 21
351.324938216614330
  0
LINE
  8
0
  6
CONTINUOUS
 62
3
 10
39.617413123390634
 20
203.324938216614560
 11
39.617413123390634
 21
55.324938216614555
  0
LINE
  8
0
  6
CONTINUOUS
 62
3
 10
27.617413123390634
 20
348.324938216614330
 11
27.617413123390634
 21
226.824938216614100
  0
LINE
  8
0
  6
CONTINUOUS
 62
3
 10
27.617413123390634
 20
58.324938216614555
 11
27.617413123390634
 21
179.824938216614780
  0
ARC
  8
0
  6
CONTINUOUS
 62
3
 10
30.617413123390634
 20
348.324938216614330
 40
3.000000000000000
 50
90.000000000000000
 51
180.000000000000000
  0
ARC
  8
0
  6
CONTINUOUS
 62
3
 10
30.617413123390634
 20
58.324938216614555
 40
3.000000000000000
 50
180.000000000000000
 51
270.000000000000000
  0
LINE
  8
0
  6
CONTINUOUS
 62
3
 10
297.817413123390910
 20
175.824938216614560
 11
234.617413123390630
 21
175.824938216614560
  0
LINE
  8
0
  6
CONTINUOUS
 62
3
 10
298.617413123390630
 20
203.324938216614560
 11
298.617413123390630
 21
176.624938216614740
  0
ARC
  8
0
  6
CONTINUOUS
 62
3
 10
297.817413123390910
 20
176.624938216614740
 40
0.800000000000182
 50
270.000000000000000
 51
0.000000000000000
  0
LINE
  8
0
  6
CONTINUOUS
 62
3
 10
226.617413123390630
 20
175.824938216614560
 11
219.177220744526040
 21
175.824938216614560
  0
LINE
  8
0
  6
CONTINUOUS
 62
3
 10
234.617413123390630
 20
175.824938216614560
 11
226.617413123390630
 21
175.824938216614560
  0
LINE
  8
0
  6
CONTINUOUS
 62
3
 10
216.617413123390630
 20
203.324938216614560
 11
216.617413123390630
 21
175.124938216615650
  0
LINE
  8
0
  6
CONTINUOUS
 62
3
 10
215.817413123390910
 20
174.324938216614560
 11
211.617413123390630
 21
174.324938216614560
  0
LINE
  8
0
  6
CONTINUOUS
 62
3
 10
216.617413123390630
 20
175.124938216615650
 11
216.617413123390630
 21
203.324938216614560
  0
LINE
  8
0
  6
CONTINUOUS
 62
3
 10
218.617413123390180
 20
175.974938216615100
 11
217.417413123390820
 21
175.974938216615100
  0
LINE
  8
0
  6
CONTINUOUS
 62
3
 10
218.617413123390630
 20
175.974938216615100
 11
219.177220744526040
 21
175.824938216614560
  0
ARC
  8
0
  6
CONTINUOUS
 62
3
 10
217.417413123390820
 20
175.174938216614920
 40
0.800000000000182
 50
90.000000000000000
 51
180.000000000000000
  0
LINE
  8
0
  6
CONTINUOUS
 62
3
 10
215.817413123390910
 20
174.324938216614560
 11
216.617413123390630
 21
175.124938216614740
  0
LINE
  8
0
  6
CONTINUOUS
 62
3
 10
216.617413123390630
 20
203.324938216614560
 11
216.617413123390630
 21
231.524938216615280
  0
LINE
  8
0
  6
CONTINUOUS
 62
3
 10
216.617413123390630
 20
231.524938216615280
 11
216.617413123390630
 21
203.324938216614560
  0
LINE
  8
0
  6
CONTINUOUS
 62
3
 10
297.817413123390910
 20
230.824938216614560
 11
219.177220744526040
 21
230.824938216614560
  0
LINE
  8
0
  6
CONTINUOUS
 62
3
 10
218.617413123390180
 20
230.674938216614920
 11
217.417413123390820
 21
230.674938216614920
  0
LINE
  8
0
  6
CONTINUOUS
 62
3
 10
218.617413123390630
 20
230.674938216614920
 11
219.177220744526040
 21
230.824938216614560
  0
ARC
  8
0
  6
CONTINUOUS
 62
3
 10
217.417413123390820
 20
231.474938216615100
 40
0.800000000000182
 50
180.000000000000000
 51
270.000000000000000
  0
LINE
  8
0
  6
CONTINUOUS
 62
3
 10
215.817413123390910
 20
232.324938216614560
 11
216.617413123390630
 21
231.524938216615280
  0
LINE
  8
0
  6
CONTINUOUS
 62
3
 10
215.817413123390910
 20
232.324938216614560
 11
211.617413123390630
 21
232.324938216614560
  0
LINE
  8
0
  6
CONTINUOUS
 62
3
 10
227.617413123390630
 20
175.824938216614560
 11
227.617413123390630
 21
171.824938216614560
  0
LINE
  8
0
  6
CONTINUOUS
 62
3
 10
298.617413123390630
 20
171.824938216614560
 11
227.617413123390630
 21
171.824938216614560
  0
LINE
  8
0
  6
CONTINUOUS
 62
3
 10
298.617413123390630
 20
203.324938216614560
 11
298.617413123390630
 21
230.024938216615280
  0
LINE
  8
0
  6
CONTINUOUS
 62
3
 10
298.617413123390630
 20
171.824938216614560
 11
298.617413123390630
 21
176.624938216613830
  0
ARC
  8
0
  6
CONTINUOUS
 62
3
 10
297.817413123390910
 20
230.024938216615280
 40
0.799999999999727
 50
0.000000000000000
 51
90.000000000000000
  0
CIRCLE
  8
0
  6
CONTINUOUS
 62
3
 10
80.117413123390634
 20
203.324938216614560
 40
16.000581886004753
  0
LINE
  8
0
  6
CONTINUOUS
 62
3
 10
16.850693666433472
 20
102.657615260365670
 11
2.117413123390634
 21
103.429753775180410
  0
LINE
  8
0
  6
CONTINUOUS
 62
3
 10
21.617413123390634
 20
343.324938216614330
 11
21.617413123390634
 21
348.324938216614330
  0
LINE
  8
0
  6
CONTINUOUS
 62
3
 10
21.617413123390634
 20
63.324938216614555
 11
21.617413123390634
 21
58.324938216614555
  0
ARC
  8
0
  6
CONTINUOUS
 62
3
 10
24.617413123390634
 20
348.324938216614330
 40
3.000000000000000
 50
90.000000000000000
 51
180.000000000000000
  0
ARC
  8
0
  6
CONTINUOUS
 62
3
 10
24.617413123390634
 20
58.324938216614555
 40
3.000000000000000
 50
180.000000000000000
 51
270.000000000000000
  0
ARC
  8
0
  6
CONTINUOUS
 62
3
 10
24.617413123390634
 20
328.324938216614330
 40
3.000000000000097
 50
199.471220634494640
 51
270.000000000000000
  0
ARC
  8
0
  6
CONTINUOUS
 62
3
 10
24.617413123390634
 20
78.324938216614555
 40
3.000000000000000
 50
90.000000000000000
 51
160.528779365505360
  0
ARC
  8
0
  6
CONTINUOUS
 62
3
 10
24.617413123390634
 20
322.324938216614330
 40
2.999999999999964
 50
46.028108457829475
 51
90.000000000000000
  0
ARC
  8
0
  6
CONTINUOUS
 62
3
 10
24.617413123390634
 20
84.324938216614555
 40
3.000000000000000
 50
270.000000000000000
 51
313.971891542170510
  0
LINE
  8
0
  6
CONTINUOUS
 62
3
 10
18.217413504860360
 20
327.324938216614100
 11
18.217413504860360
 21
343.324938216614100
  0
LINE
  8
0
  6
CONTINUOUS
 62
3
 10
18.217413504860360
 20
79.324938216614783
 11
18.217413504860360
 21
63.324938216614783
  0
LINE
  8
0
  6
CONTINUOUS
 62
3
 10
18.217413810671587
 20
343.324937295935340
 11
17.617414389168061
 21
342.285849002080110
  0
LINE
  8
0
  6
CONTINUOUS
 62
3
 10
18.217413810671587
 20
63.324939137293541
 11
17.617414389168061
 21
64.364027431148770
  0
LINE
  8
0
  6
CONTINUOUS
 62
3
 10
18.217417045996626
 20
327.324939692273120
 11
17.617416648474773
 21
328.364328338564290
  0
LINE
  8
0
  6
CONTINUOUS
 62
3
 10
18.217417045996626
 20
79.324936740955764
 11
17.617416648474773
 21
78.285548094664591
  0
LINE
  8
0
  6
CONTINUOUS
 62
3
 10
27.617413123390634
 20
343.324938216614100
 11
18.217413504860360
 21
343.324938216614100
  0
LINE
  8
0
  6
CONTINUOUS
 62
3
 10
27.617413123390634
 20
63.324938216614783
 11
18.217413504860360
 21
63.324938216614783
  0
LINE
  8
0
  6
CONTINUOUS
 62
3
 10
27.617413123390634
 20
327.324938216614100
 11
18.217413504860360
 21
327.324938216614100
  0
LINE
  8
0
  6
CONTINUOUS
 62
3
 10
27.617413123390634
 20
79.324938216614783
 11
18.217413504860360
 21
79.324938216614783
  0
LINE
  8
0
  6
CONTINUOUS
 62
3
 10
17.617412646563480
 20
328.364325822176620
 11
17.617413600237796
 21
342.285849870028190
  0
LINE
  8
0
  6
CONTINUOUS
 62
3
 10
17.617412646563480
 20
78.285550611052258
 11
17.617413600237796
 21
64.364026563200696
  0
LINE
  8
0
  6
CONTINUOUS
 62
3
 10
16.617413123390634
 20
203.324938216614330
 11
16.617413123390634
 21
223.824938216614330
  0
LINE
  8
0
  6
CONTINUOUS
 62
3
 10
16.617413123390634
 20
203.324938216614560
 11
16.617413123390634
 21
182.824938216614560
  0
LINE
  8
0
  6
CONTINUOUS
 62
3
 10
12.117413123388815
 20
223.824938216614330
 11
16.617413123390634
 21
223.824938216614330
  0
LINE
  8
0
  6
CONTINUOUS
 62
3
 10
12.117413123388815
 20
182.824938216614560
 11
16.617413123390634
 21
182.824938216614560
  0
ARC
  8
0
  6
CONTINUOUS
 62
3
 10
24.617413123390634
 20
226.824938216614100
 40
2.999999999999773
 50
270.000000000000000
 51
0.000000000000000
  0
ARC
  8
0
  6
CONTINUOUS
 62
3
 10
24.617413123390634
 20
179.824938216614780
 40
3.000000000000000
 50
0.000000000000000
 51
90.000000000000000
  0
ARC
  8
0
  6
CONTINUOUS
 62
3
 10
19.617413123390634
 20
220.824938216614330
 40
3.000000000000000
 50
90.000000000000000
 51
180.000000000000000
  0
ARC
  8
0
  6
CONTINUOUS
 62
3
 10
19.617413123390634
 20
185.824938216614560
 40
3.000000000000000
 50
180.000000000000000
 51
270.000000000000000
  0
LINE
  8
0
  6
CONTINUOUS
 62
3
 10
12.117413123388815
 20
203.324938216614330
 11
12.117413123388815
 21
223.824938216614330
  0
LINE
  8
0
  6
CONTINUOUS
 62
3
 10
12.117413123388815
 20
203.324938216614560
 11
12.117413123388815
 21
182.824938216614560
  0
LINE
  8
0
  6
CONTINUOUS
 62
3
 10
19.617413123390634
 20
223.824938216614330
 11
24.617413123390634
 21
223.824938216614330
  0
LINE
  8
0
  6
CONTINUOUS
 62
3
 10
19.617413123390634
 20
182.824938216614560
 11
24.617413123390634
 21
182.824938216614560
  0
ARC
  8
0
  6
CONTINUOUS
 62
3
 10
24.617413123390634
 20
327.075494712867790
 40
2.999999999999903
 50
334.328072254076120
 51
0.000000000000000
  0
ARC
  8
0
  6
CONTINUOUS
 62
3
 10
24.617413123390634
 20
79.574381720361089
 40
3.000000000000000
 50
0.000000000000000
 51
25.671927745923867
  0
ARC
  8
0
  6
CONTINUOUS
 62
3
 10
24.617413123390634
 20
321.960837900567410
 40
2.999999999999903
 50
334.328072254076120
 51
0.000000000000000
  0
ARC
  8
0
  6
CONTINUOUS
 62
3
 10
24.617413123390634
 20
84.689038532661471
 40
3.000000000000000
 50
0.000000000000000
 51
25.671927745923867
  0
LINE
  8
0
  6
CONTINUOUS
 62
3
 10
24.617413123390634
 20
351.324938216614330
 11
40.117413123390634
 21
351.324938216614330
  0
LINE
  8
0
  6
CONTINUOUS
 62
3
 10
24.617413123390634
 20
55.324938216614555
 11
40.117413123390634
 21
55.324938216614555
  0
ARC
  8
0
  6
CONTINUOUS
 62
3
 10
-173.382586876609370
 20
138.705717299741760
 40
3.000000000000000
 50
90.000000000000000
 51
180.000000000000000
  0
ARC
  8
0
  6
CONTINUOUS
 62
3
 10
-169.382586876609480
 20
144.705717299741760
 40
3.000000000000000
 50
270.000000000000000
 51
0.000000000000000
  0
LINE
  8
0
  6
CONTINUOUS
 62
3
 10
-176.382586876609370
 20
138.324938216614560
 11
-176.382586876609370
 21
138.705717299741760
  0
LINE
  8
0
  6
CONTINUOUS
 62
3
 10
-173.382586876609370
 20
141.705717299741760
 11
-169.382586876609480
 21
141.705717299741760
  0
ARC
  8
0
  6
CONTINUOUS
 62
3
 10
-247.076611099029830
 20
158.324938216614560
 40
20.000000000000007
 50
234.999999999999740
 51
270.000000000000000
  0
LINE
  8
0
  6
CONTINUOUS
 62
3
 10
-176.382586876609370
 20
138.324938216614560
 11
-247.076611099029830
 21
138.324938216614560
  0
ARC
  8
0
  6
CONTINUOUS
 62
3
 10
-266.782586876559210
 20
150.881733159369110
 40
2.600000000000136
 50
180.000000000000000
 51
234.999999999998610
  0
LINE
  8
0
  6
CONTINUOUS
 62
3
 10
-258.548139826050830
 20
141.941897330834760
 11
-268.273885611071820
 21
148.751937844217990
  0
LINE
  8
0
  6
CONTINUOUS
 62
3
 10
-269.382586876559340
 20
203.324938216614560
 11
-269.382586876559340
 21
150.881733159369110
  0
LINE
  8
0
  6
CONTINUOUS
 62
3
 10
-166.382586876609480
 20
203.324938216614560
 11
-166.382586876609480
 21
144.705717299741760
  0
ARC
  8
0
  6
CONTINUOUS
 62
3
 10
-266.782586876559210
 20
255.768143273860010
 40
2.599999999999721
 50
125.000000000001370
 51
180.000000000000000
  0
LINE
  8
0
  6
CONTINUOUS
 62
3
 10
-258.548139826050830
 20
264.707979102394350
 11
-268.273885611071820
 21
257.897938589011120
  0
ARC
  8
0
  6
CONTINUOUS
 62
3
 10
-247.076611099029830
 20
248.324938216614560
 40
20.000000000000000
 50
90.000000000000000
 51
125.000000000000240
  0
LINE
  8
0
  6
CONTINUOUS
 62
3
 10
-269.382586876559340
 20
203.324938216614560
 11
-269.382586876559340
 21
255.768143273860010
  0
LINE
  8
0
  6
CONTINUOUS
 62
3
 10
-166.382586876609480
 20
268.324938216614560
 11
-247.076611099029830
 21
268.324938216614560
  0
LINE
  8
0
  6
CONTINUOUS
 62
3
 10
-166.382586876609480
 20
203.324938216614560
 11
-166.382586876609480
 21
268.324938216614560
  0
LINE
  8
0
  6
CONTINUOUS
 62
3
 10
-177.382586876608910
 20
257.065053317052160
 11
-179.382586876608910
 21
255.412411677928730
  0
LINE
  8
0
  6
CONTINUOUS
 62
3
 10
-175.382586876608910
 20
258.240838802674940
 11
-177.382586876608910
 21
257.065053317052160
  0
LINE
  8
0
  6
CONTINUOUS
 62
3
 10
-177.382586876608910
 20
257.065053317052160
 11
-175.382586876608910
 21
255.412411677928730
  0
LINE
  8
0
  6
CONTINUOUS
 62
3
 10
-179.382586876608910
 20
258.240838802674940
 11
-177.382586876608910
 21
257.065053317052160
  0
POLYLINE
  8
0
  6
CONTINUOUS
 62
3
 66
1
 70
1
  0
VERTEX
  8
0
  6
CONTINUOUS
 62
3
 10
-172.682586876608920
 20
255.248463248674620
  0
VERTEX
  8
0
  6
CONTINUOUS
 62
3
 10
-172.772896058713740
 20
255.951420214874990
  0
VERTEX
  8
0
  6
CONTINUOUS
 62
3
 10
-173.040353073805870
 20
256.627362939087110
  0
VERTEX
  8
0
  6
CONTINUOUS
 62
3
 10
-173.474679698786960
 20
257.250315321492510
  0
VERTEX
  8
0
  6
CONTINUOUS
 62
3
 10
-174.059185005032130
 20
257.796337651391070
  0
VERTEX
  8
0
  6
CONTINUOUS
 62
3
 10
-174.771406781416800
 20
258.244446596857700
  0
VERTEX
  8
0
  6
CONTINUOUS
 62
3
 10
-175.583974744492990
 20
258.577421582420470
  0
VERTEX
  8
0
  6
CONTINUOUS
 62
3
 10
-176.465662363133110
 20
258.782466566118730
  0
VERTEX
  8
0
  6
CONTINUOUS
 62
3
 10
-177.382586876608910
 20
258.851701784219470
  0
VERTEX
  8
0
  6
CONTINUOUS
 62
3
 10
-178.299511390084720
 20
258.782466566118730
  0
VERTEX
  8
0
  6
CONTINUOUS
 62
3
 10
-179.181199008724830
 20
258.577421582420470
  0
VERTEX
  8
0
  6
CONTINUOUS
 62
3
 10
-179.993766971801020
 20
258.244446596857700
  0
VERTEX
  8
0
  6
CONTINUOUS
 62
3
 10
-180.705988748185690
 20
257.796337651391070
  0
VERTEX
  8
0
  6
CONTINUOUS
 62
3
 10
-181.290494054430870
 20
257.250315321492510
  0
VERTEX
  8
0
  6
CONTINUOUS
 62
3
 10
-181.724820679411950
 20
256.627362939087110
  0
VERTEX
  8
0
  6
CONTINUOUS
 62
3
 10
-181.992277694504080
 20
255.951420214874990
  0
VERTEX
  8
0
  6
CONTINUOUS
 62
3
 10
-182.082586876608900
 20
255.248463248674620
  0
VERTEX
  8
0
  6
CONTINUOUS
 62
3
 10
-181.992277694504080
 20
254.545506282474260
  0
VERTEX
  8
0
  6
CONTINUOUS
 62
3
 10
-181.724820679411950
 20
253.869563558262170
  0
VERTEX
  8
0
  6
CONTINUOUS
 62
3
 10
-181.290494054430870
 20
253.246611175856770
  0
VERTEX
  8
0
  6
CONTINUOUS
 62
3
 10
-180.705988748185660
 20
252.700588845958180
  0
VERTEX
  8
0
  6
CONTINUOUS
 62
3
 10
-179.993766971801020
 20
252.252479900491550
  0
VERTEX
  8
0
  6
CONTINUOUS
 62
3
 10
-179.181199008724830
 20
251.919504914928810
  0
VERTEX
  8
0
  6
CONTINUOUS
 62
3
 10
-178.299511390084720
 20
251.714459931230550
  0
VERTEX
  8
0
  6
CONTINUOUS
 62
3
 10
-177.382586876608910
 20
251.645224713129780
  0
VERTEX
  8
0
  6
CONTINUOUS
 62
3
 10
-176.465662363133110
 20
251.714459931230550
  0
VERTEX
  8
0
  6
CONTINUOUS
 62
3
 10
-175.583974744492990
 20
251.919504914928810
  0
VERTEX
  8
0
  6
CONTINUOUS
 62
3
 10
-174.771406781416800
 20
252.252479900491550
  0
VERTEX
  8
0
  6
CONTINUOUS
 62
3
 10
-174.059185005032160
 20
252.700588845958180
  0
VERTEX
  8
0
  6
CONTINUOUS
 62
3
 10
-173.474679698786960
 20
253.246611175856770
  0
VERTEX
  8
0
  6
CONTINUOUS
 62
3
 10
-173.040353073805870
 20
253.869563558262170
  0
VERTEX
  8
0
  6
CONTINUOUS
 62
3
 10
-172.772896058713740
 20
254.545506282474260
  0
SEQEND
  8
0
  6
CONTINUOUS
 62
3
  0
LINE
  8
0
  6
CONTINUOUS
 62
3
 10
-177.382586876608910
 20
149.584823116176720
 11
-179.382586876608910
 21
151.237464755300150
  0
LINE
  8
0
  6
CONTINUOUS
 62
3
 10
-175.382586876608910
 20
148.409037630554390
 11
-177.382586876608910
 21
149.584823116176720
  0
LINE
  8
0
  6
CONTINUOUS
 62
3
 10
-177.382586876608910
 20
149.584823116176720
 11
-175.382586876608910
 21
151.237464755300150
  0
LINE
  8
0
  6
CONTINUOUS
 62
3
 10
-179.382586876608910
 20
148.409037630554390
 11
-177.382586876608910
 21
149.584823116176720
  0
POLYLINE
  8
0
  6
CONTINUOUS
 62
3
 66
1
 70
1
  0
VERTEX
  8
0
  6
CONTINUOUS
 62
3
 10
-172.682586876608920
 20
151.401413184554710
  0
VERTEX
  8
0
  6
CONTINUOUS
 62
3
 10
-172.772896058713740
 20
152.104370150755070
  0
VERTEX
  8
0
  6
CONTINUOUS
 62
3
 10
-173.040353073805870
 20
152.780312874967170
  0
VERTEX
  8
0
  6
CONTINUOUS
 62
3
 10
-173.474679698786960
 20
153.403265257372570
  0
VERTEX
  8
0
  6
CONTINUOUS
 62
3
 10
-174.059185005032130
 20
153.949287587271160
  0
VERTEX
  8
0
  6
CONTINUOUS
 62
3
 10
-174.771406781416800
 20
154.397396532737790
  0
VERTEX
  8
0
  6
CONTINUOUS
 62
3
 10
-175.583974744492990
 20
154.730371518300530
  0
VERTEX
  8
0
  6
CONTINUOUS
 62
3
 10
-176.465662363133110
 20
154.935416501998790
  0
VERTEX
  8
0
  6
CONTINUOUS
 62
3
 10
-177.382586876608910
 20
155.004651720099560
  0
VERTEX
  8
0
  6
CONTINUOUS
 62
3
 10
-178.299511390084720
 20
154.935416501998790
  0
VERTEX
  8
0
  6
CONTINUOUS
 62
3
 10
-179.181199008724830
 20
154.730371518300530
  0
VERTEX
  8
0
  6
CONTINUOUS
 62
3
 10
-179.993766971801020
 20
154.397396532737790
  0
VERTEX
  8
0
  6
CONTINUOUS
 62
3
 10
-180.705988748185690
 20
153.949287587271160
  0
VERTEX
  8
0
  6
CONTINUOUS
 62
3
 10
-181.290494054430870
 20
153.403265257372570
  0
VERTEX
  8
0
  6
CONTINUOUS
 62
3
 10
-181.724820679411950
 20
152.780312874967170
  0
VERTEX
  8
0
  6
CONTINUOUS
 62
3
 10
-181.992277694504080
 20
152.104370150755070
  0
VERTEX
  8
0
  6
CONTINUOUS
 62
3
 10
-182.082586876608900
 20
151.401413184554710
  0
VERTEX
  8
0
  6
CONTINUOUS
 62
3
 10
-181.992277694504080
 20
150.698456218354350
  0
VERTEX
  8
0
  6
CONTINUOUS
 62
3
 10
-181.724820679411950
 20
150.022513494142260
  0
VERTEX
  8
0
  6
CONTINUOUS
 62
3
 10
-181.290494054430870
 20
149.399561111736860
  0
VERTEX
  8
0
  6
CONTINUOUS
 62
3
 10
-180.705988748185660
 20
148.853538781838270
  0
VERTEX
  8
0
  6
CONTINUOUS
 62
3
 10
-179.993766971801020
 20
148.405429836371640
  0
VERTEX
  8
0
  6
CONTINUOUS
 62
3
 10
-179.181199008724830
 20
148.072454850808900
  0
VERTEX
  8
0
  6
CONTINUOUS
 62
3
 10
-178.299511390084720
 20
147.867409867110640
  0
VERTEX
  8
0
  6
CONTINUOUS
 62
3
 10
-177.382586876608910
 20
147.798174649009870
  0
VERTEX
  8
0
  6
CONTINUOUS
 62
3
 10
-176.465662363133110
 20
147.867409867110640
  0
VERTEX
  8
0
  6
CONTINUOUS
 62
3
 10
-175.583974744492990
 20
148.072454850808900
  0
VERTEX
  8
0
  6
CONTINUOUS
 62
3
 10
-174.771406781416800
 20
148.405429836371640
  0
VERTEX
  8
0
  6
CONTINUOUS
 62
3
 10
-174.059185005032160
 20
148.853538781838270
  0
VERTEX
  8
0
  6
CONTINUOUS
 62
3
 10
-173.474679698786960
 20
149.399561111736860
  0
VERTEX
  8
0
  6
CONTINUOUS
 62
3
 10
-173.040353073805870
 20
150.022513494142260
  0
VERTEX
  8
0
  6
CONTINUOUS
 62
3
 10
-172.772896058713740
 20
150.698456218354350
  0
SEQEND
  8
0
  6
CONTINUOUS
 62
3
  0
LINE
  8
0
  6
CONTINUOUS
 62
3
 10
-167.045351321413700
 20
142.824938216614560
 11
-103.632586876609590
 21
142.824938216614560
  0
LINE
  8
0
  6
CONTINUOUS
 62
3
 10
-103.632586876609590
 20
142.824938216614560
 11
-103.632586876609590
 21
143.824938216614560
  0
LINE
  8
0
  6
CONTINUOUS
 62
3
 10
-172.882586876609590
 20
135.824938216614560
 11
-172.882586876609590
 21
141.663757191291550
  0
LINE
  8
0
  6
CONTINUOUS
 62
3
 10
-107.882586876609480
 20
135.824938216614560
 11
-107.882586876609590
 21
142.824938216614560
  0
LINE
  8
0
  6
CONTINUOUS
 62
3
 10
-172.882586876609590
 20
135.824938216614560
 11
-107.882586876609480
 21
135.824938216614560
  0
LINE
  8
0
  6
CONTINUOUS
 62
3
 10
-168.545262641789580
 20
141.824938216614560
 11
-107.882586876609480
 21
141.824938216614560
  0
LINE
  8
0
  6
CONTINUOUS
 62
3
 10
-172.882586876609590
 20
139.824938216614560
 11
-107.882586876609480
 21
139.824938216614560
  0
LINE
  8
0
  6
DASHDOT
 62
4
 10
-140.382586876609590
 20
141.658651552767310
 11
-140.382586876609590
 21
79.596238036131126
  0
LINE
  8
0
  6
CONTINUOUS
 62
3
 10
-175.832586876608500
 20
84.651112836830634
 11
-143.439843082505830
 21
84.651112836830634
  0
LINE
  8
0
  6
CONTINUOUS
 62
3
 10
-175.832586876608500
 20
133.519502156878960
 11
-104.932586876610790
 21
133.519502156878840
  0
LINE
  8
0
  6
CONTINUOUS
 62
3
 10
-175.832586876608500
 20
130.048029417832140
 11
-104.932586876610790
 21
130.048029417832140
  0
LINE
  8
0
  6
CONTINUOUS
 62
3
 10
-186.832586876608500
 20
122.519502156879070
 11
-186.832586876608500
 21
95.651112836830634
  0
LINE
  8
0
  6
CONTINUOUS
 62
3
 10
-100.332586876610430
 20
92.624938216614510
 11
-100.332586876610430
 21
122.200872916301250
  0
LINE
  8
0
  6
CONTINUOUS
 62
3
 10
-180.432586876608870
 20
92.624938216614510
 11
-180.432586876608870
 21
122.200872916301470
  0
LINE
  8
0
  6
CONTINUOUS
 62
3
 10
-175.432586876608870
 20
127.200872916301360
 11
-105.332586876610430
 21
127.200872916301250
  0
ARC
  8
0
  6
CONTINUOUS
 62
3
 10
-105.332586876610430
 20
122.200872916301250
 40
5.000000000000000
 50
0.000000000000000
 51
90.000000000000000
  0
ARC
  8
0
  6
CONTINUOUS
 62
3
 10
-175.432586876608870
 20
122.200872916301470
 40
4.999999999999886
 50
90.000000000000000
 51
180.000000000000000
  0
ARC
  8
0
  6
CONTINUOUS
 62
3
 10
-104.932586876610790
 20
95.651112836830634
 40
11.000000000000000
 50
270.000000000000000
 51
0.000000000000000
  0
ARC
  8
0
  6
CONTINUOUS
 62
3
 10
-175.832586876608500
 20
95.651112836830634
 40
11.000000000000000
 50
180.000000000000000
 51
270.000000000000000
  0
LINE
  8
0
  6
CONTINUOUS
 62
3
 10
-174.632586876609140
 20
86.824938216614555
 11
-106.132586876610380
 21
86.824938216614555
  0
ARC
  8
0
  6
CONTINUOUS
 62
3
 10
-106.132586876610380
 20
92.624938216614510
 40
5.799999999999955
 50
270.000000000000000
 51
0.000000000000000
  0
ARC
  8
0
  6
CONTINUOUS
 62
3
 10
-174.632586876609140
 20
92.624938216614510
 40
5.799999999999727
 50
180.000000000000000
 51
270.000000000000000
  0
ARC
  8
0
  6
CONTINUOUS
 62
3
 10
-175.832586876608500
 20
119.048029417832140
 40
11.000000000000000
 50
90.000000000000000
 51
180.000000000000000
  0
ARC
  8
0
  6
CONTINUOUS
 62
3
 10
-175.832586876608500
 20
122.519502156879070
 40
10.999999999999886
 50
90.000000000000000
 51
180.000000000000000
  0
LINE
  8
0
  6
CONTINUOUS
 62
3
 10
-161.433221971219840
 20
86.024938216614601
 11
-119.731951781999440
 21
86.024938216614601
  0
ARC
  8
0
  6
CONTINUOUS
 62
3
 10
-119.731951781999440
 20
87.024938216614601
 40
1.000000000000000
 50
270.000000000000000
 51
323.130102354140380
  0
ARC
  8
0
  6
CONTINUOUS
 62
3
 10
-118.131951781999530
 20
85.824938216614555
 40
1.000000000000000
 50
90.000000000000000
 51
143.130102354166380
  0
ARC
  8
0
  6
CONTINUOUS
 62
3
 10
-163.033221971219750
 20
85.824938216614555
 40
0.999999999999727
 50
36.869897645849235
 51
90.000000000000000
  0
ARC
  8
0
  6
CONTINUOUS
 62
3
 10
-161.433221971219840
 20
87.024938216614601
 40
1.000000000000227
 50
216.869897645844020
 51
270.000000000000000
  0
LINE
  8
0
  6
CONTINUOUS
 62
3
 10
-174.182586876609780
 20
134.824938216614560
 11
-106.582586876609750
 21
134.824938216614440
  0
ARC
  8
0
  6
CONTINUOUS
 62
3
 10
-106.582586876609750
 20
129.824938216614440
 40
5.000000000000008
 50
44.925956400534659
 51
90.000000000000000
  0
ARC
  8
0
  6
CONTINUOUS
 62
3
 10
-174.182586876609780
 20
129.824938216614560
 40
5.000000000000000
 50
90.000000000000000
 51
135.074043599465310
  0
LINE
  8
0
  6
CONTINUOUS
 62
3
 10
-109.382586876609700
 20
135.824938216614440
 11
-109.382586876609700
 21
134.824938216614440
  0
LINE
  8
0
  6
CONTINUOUS
 62
3
 10
-171.382586876609590
 20
135.824938216614560
 11
-171.382586876609590
 21
134.824938216614560
  0
LINE
  8
0
  6
DASHDOT
 62
4
 10
-163.206218507921450
 20
110.824938216614550
 11
-118.918500469522990
 21
110.824938216614550
  0
CIRCLE
  8
0
  6
DASHED
 62
4
 10
-140.382586876609590
 20
110.824938216614320
 40
13.500000000000000
  0
ARC
  8
0
  6
CONTINUOUS
 62
3
 10
-142.582587639549050
 20
85.628410704360704
 40
1.299999237060699
 50
162.240552086452960
 51
253.398468892505180
  0
ARC
  8
0
  6
CONTINUOUS
 62
3
 10
-140.382586876609590
 20
93.007435627208451
 40
8.999999999999858
 50
253.398468892518050
 51
286.601548410325050
  0
ARC
  8
0
  6
CONTINUOUS
 62
3
 10
-138.182586113670140
 20
85.628410704360704
 40
1.299999237060351
 50
286.601548410324710
 51
17.759447913550098
  0
LINE
  8
0
  6
CONTINUOUS
 62
3
 10
-137.325330670713580
 20
84.651112836830634
 11
-104.932586876610790
 21
84.651112836830634
  0
LINE
  8
0
  6
CONTINUOUS
 62
3
 10
-104.932586876609540
 20
-154.078454142779490
 11
-140.382586876608340
 21
-154.078454142779490
  0
ARC
  8
0
  6
CONTINUOUS
 62
4
 10
-105.332586876609180
 20
-171.675061783385220
 40
5.000000000000000
 50
0.000000000000000
 51
90.000000000000000
  0
LINE
  8
0
  6
CONTINUOUS
 62
4
 10
-140.382586876608340
 20
-166.675061783385220
 11
-105.332586876609180
 21
-166.675061783385220
  0
ARC
  8
0
  6
CONTINUOUS
 62
3
 10
-105.332586876609180
 20
-165.173272346278050
 40
5.000000000000000
 50
0.000000000000000
 51
90.000000000000000
  0
LINE
  8
0
  6
CONTINUOUS
 62
3
 10
-140.382586876608340
 20
-160.173272346278050
 11
-105.332586876609180
 21
-160.173272346278050
  0
LINE
  8
0
  6
CONTINUOUS
 62
3
 10
-100.332586876609180
 20
-165.173272346278050
 11
-100.332586876609180
 21
-241.251016552938150
  0
ARC
  8
0
  6
CONTINUOUS
 62
3
 10
-105.332586876609180
 20
-241.251016552938150
 40
5.000000000000000
 50
270.000000000000000
 51
0.000000000000000
  0
LINE
  8
0
  6
CONTINUOUS
 62
3
 10
-104.932586876609540
 20
-256.460963581808070
 11
-140.382586876608340
 21
-256.460963581808070
  0
LINE
  8
0
  6
CONTINUOUS
 62
3
 10
-104.932586876609540
 20
-257.681173511035240
 11
-140.382586876608340
 21
-257.681173511035240
  0
ARC
  8
0
  6
CONTINUOUS
 62
3
 10
-131.122368695995080
 20
-242.251016565788400
 40
4.000000000000156
 50
221.178434371117250
 51
270.000000000000000
  0
POLYLINE
  8
0
  6
CONTINUOUS
 62
3
 66
1
  0
VERTEX
  8
0
  6
CONTINUOUS
 62
3
 10
-134.133019818107300
 20
-244.884641410166380
  0
VERTEX
  8
0
  6
CONTINUOUS
 62
3
 10
-135.123988953193670
 20
-243.939513143645970
  0
VERTEX
  8
0
  6
CONTINUOUS
 62
3
 10
-136.283591332765350
 20
-243.171004340860290
  0
VERTEX
  8
0
  6
CONTINUOUS
 62
3
 10
-137.574640711661910
 20
-242.603759619008970
  0
VERTEX
  8
0
  6
CONTINUOUS
 62
3
 10
-138.955735589193520
 20
-242.255969438601850
  0
VERTEX
  8
0
  6
CONTINUOUS
 62
3
 10
-140.382586876608340
 20
-242.138786769950850
  0
SEQEND
  8
0
  6
CONTINUOUS
 62
3
  0
ARC
  8
0
  6
CONTINUOUS
 62
3
 10
-131.895112660888230
 20
-242.251016559161830
 40
3.999999999999828
 50
226.698420851470790
 51
270.000000000000000
  0
POLYLINE
  8
0
  6
CONTINUOUS
 62
3
 66
1
  0
VERTEX
  8
0
  6
CONTINUOUS
 62
3
 10
-134.638466305128870
 20
-245.162031980390400
  0
VERTEX
  8
0
  6
CONTINUOUS
 62
3
 10
-135.600166905703420
 20
-244.390152818463780
  0
VERTEX
  8
0
  6
CONTINUOUS
 62
3
 10
-136.684325073595350
 20
-243.768290249858210
  0
VERTEX
  8
0
  6
CONTINUOUS
 62
3
 10
-137.863180099240220
 20
-243.312367547272490
  0
VERTEX
  8
0
  6
CONTINUOUS
 62
3
 10
-139.106546486688610
 20
-243.034058964616410
  0
VERTEX
  8
0
  6
CONTINUOUS
 62
3
 10
-140.382586876608340
 20
-242.940490808697580
  0
SEQEND
  8
0
  6
CONTINUOUS
 62
3
  0
LINE
  8
0
  6
CONTINUOUS
 62
3
 10
-131.895112659214990
 20
-246.251016552938150
 11
-105.332586876609180
 21
-246.251016552938150
  0
POLYLINE
  8
0
  6
CONTINUOUS
 62
3
 66
1
 70
1
  0
VERTEX
  8
0
  6
CONTINUOUS
 62
3
 10
-136.882586876608340
 20
-249.993556317403770
  0
VERTEX
  8
0
  6
CONTINUOUS
 62
3
 10
-136.949838395197050
 20
-249.319966547357640
  0
VERTEX
  8
0
  6
CONTINUOUS
 62
3
 10
-137.149008512818850
 20
-248.672262454420890
  0
VERTEX
  8
0
  6
CONTINUOUS
 62
3
 10
-137.472443233549430
 20
-248.075334943648410
  0
VERTEX
  8
0
  6
CONTINUOUS
 62
3
 10
-137.907713142455440
 20
-247.552123604518440
  0
VERTEX
  8
0
  6
CONTINUOUS
 62
3
 10
-138.438091061039730
 20
-247.122735155373390
  0
VERTEX
  8
0
  6
CONTINUOUS
 62
3
 10
-139.043194863330540
 20
-246.803670753510120
  0
VERTEX
  8
0
  6
CONTINUOUS
 62
3
 10
-139.699770749551900
 20
-246.607191864958850
  0
VERTEX
  8
0
  6
CONTINUOUS
 62
3
 10
-140.382586876608340
 20
-246.540849063219980
  0
VERTEX
  8
0
  6
CONTINUOUS
 62
3
 10
-141.065403003664780
 20
-246.607191864958850
  0
VERTEX
  8
0
  6
CONTINUOUS
 62
3
 10
-141.721978889886150
 20
-246.803670753510120
  0
VERTEX
  8
0
  6
CONTINUOUS
 62
3
 10
-142.327082692176960
 20
-247.122735155373390
  0
VERTEX
  8
0
  6
CONTINUOUS
 62
3
 10
-142.857460610761250
 20
-247.552123604518440
  0
VERTEX
  8
0
  6
CONTINUOUS
 62
3
 10
-143.292730519667260
 20
-248.075334943648410
  0
VERTEX
  8
0
  6
CONTINUOUS
 62
3
 10
-143.616165240397830
 20
-248.672262454420890
  0
VERTEX
  8
0
  6
CONTINUOUS
 62
3
 10
-143.815335358019640
 20
-249.319966547357640
  0
VERTEX
  8
0
  6
CONTINUOUS
 62
3
 10
-143.882586876608340
 20
-249.993556317403770
  0
VERTEX
  8
0
  6
CONTINUOUS
 62
3
 10
-143.815335358019640
 20
-250.667146087449910
  0
VERTEX
  8
0
  6
CONTINUOUS
 62
3
 10
-143.616165240397830
 20
-251.314850180386660
  0
VERTEX
  8
0
  6
CONTINUOUS
 62
3
 10
-143.292730519667260
 20
-251.911777691159130
  0
VERTEX
  8
0
  6
CONTINUOUS
 62
3
 10
-142.857460610761250
 20
-252.434989030289100
  0
VERTEX
  8
0
  6
CONTINUOUS
 62
3
 10
-142.327082692176960
 20
-252.864377479434150
  0
VERTEX
  8
0
  6
CONTINUOUS
 62
3
 10
-141.721978889886150
 20
-253.183441881297430
  0
VERTEX
  8
0
  6
CONTINUOUS
 62
3
 10
-141.065403003664780
 20
-253.379920769848700
  0
VERTEX
  8
0
  6
CONTINUOUS
 62
3
 10
-140.382586876608340
 20
-253.446263571587560
  0
VERTEX
  8
0
  6
CONTINUOUS
 62
3
 10
-139.699770749551900
 20
-253.379920769848700
  0
VERTEX
  8
0
  6
CONTINUOUS
 62
3
 10
-139.043194863330540
 20
-253.183441881297430
  0
VERTEX
  8
0
  6
CONTINUOUS
 62
3
 10
-138.438091061039730
 20
-252.864377479434150
  0
VERTEX
  8
0
  6
CONTINUOUS
 62
3
 10
-137.907713142455440
 20
-252.434989030289100
  0
VERTEX
  8
0
  6
CONTINUOUS
 62
3
 10
-137.472443233549430
 20
-251.911777691159130
  0
VERTEX
  8
0
  6
CONTINUOUS
 62
3
 10
-137.149008512818850
 20
-251.314850180386660
  0
VERTEX
  8
0
  6
CONTINUOUS
 62
3
 10
-136.949838395197050
 20
-250.667146087449910
  0
SEQEND
  8
0
  6
CONTINUOUS
 62
3
  0
LINE
  8
0
  6
CONTINUOUS
 62
3
 10
-142.382586876608340
 20
-251.109960187613300
 11
-138.382586876608340
 21
-247.455778357042850
  0
LINE
  8
0
  6
CONTINUOUS
 62
3
 10
-138.382586876608340
 20
-251.109960187613300
 11
-142.382586876608340
 21
-247.455778357042850
  0
POLYLINE
  8
0
  6
CONTINUOUS
 62
3
 66
1
  0
VERTEX
  8
0
  6
CONTINUOUS
 62
3
 10
-140.382586876608340
 20
-242.940490808697580
  0
VERTEX
  8
0
  6
CONTINUOUS
 62
3
 10
-141.658627266528070
 20
-243.034058964616410
  0
VERTEX
  8
0
  6
CONTINUOUS
 62
3
 10
-142.901993653976460
 20
-243.312367547272490
  0
VERTEX
  8
0
  6
CONTINUOUS
 62
3
 10
-144.080848679621340
 20
-243.768290249858210
  0
VERTEX
  8
0
  6
CONTINUOUS
 62
3
 10
-145.165006847513270
 20
-244.390152818463780
  0
VERTEX
  8
0
  6
CONTINUOUS
 62
3
 10
-146.126707448087810
 20
-245.162031980390400
  0
SEQEND
  8
0
  6
CONTINUOUS
 62
3
  0
ARC
  8
0
  6
CONTINUOUS
 62
3
 10
-148.870061092328680
 20
-242.251016559161830
 40
3.999999993776328
 50
270.000000000000000
 51
313.301579148531630
  0
POLYLINE
  8
0
  6
CONTINUOUS
 62
3
 66
1
  0
VERTEX
  8
0
  6
CONTINUOUS
 62
3
 10
-140.382586876608340
 20
-242.138786769950850
  0
VERTEX
  8
0
  6
CONTINUOUS
 62
3
 10
-141.809438164023220
 20
-242.255969438601850
  0
VERTEX
  8
0
  6
CONTINUOUS
 62
3
 10
-143.190533041554890
 20
-242.603759619009030
  0
VERTEX
  8
0
  6
CONTINUOUS
 62
3
 10
-144.481582420451530
 20
-243.171004340860380
  0
VERTEX
  8
0
  6
CONTINUOUS
 62
3
 10
-145.641184800023240
 20
-243.939513143646140
  0
VERTEX
  8
0
  6
CONTINUOUS
 62
3
 10
-146.632153935109610
 20
-244.884641410166670
  0
SEQEND
  8
0
  6
CONTINUOUS
 62
3
  0
ARC
  8
0
  6
CONTINUOUS
 62
3
 10
-149.642805057221610
 20
-242.251016565788400
 40
3.999999987149749
 50
270.000000000000000
 51
318.821565628880590
  0
LINE
  8
0
  6
CONTINUOUS
 62
3
 10
-175.832586876607250
 20
-257.681173511035240
 11
-140.382586876608340
 21
-257.681173511035240
  0
LINE
  8
0
  6
CONTINUOUS
 62
3
 10
-175.832586876607250
 20
-256.460963581808070
 11
-140.382586876608340
 21
-256.460963581808070
  0
ARC
  8
0
  6
CONTINUOUS
 62
3
 10
-175.832586876607250
 20
-245.460963581808070
 40
11.000000000000000
 50
180.000000000000000
 51
270.000000000000000
  0
ARC
  8
0
  6
CONTINUOUS
 62
3
 10
-175.832586876607250
 20
-246.681173511035240
 40
11.000000000000000
 50
180.000000000000000
 51
270.000000000000000
  0
LINE
  8
0
  6
CONTINUOUS
 62
3
 10
-148.870061094001930
 20
-246.251016552938150
 11
-175.432586876607620
 21
-246.251016552938150
  0
ARC
  8
0
  6
CONTINUOUS
 62
3
 10
-175.432586876607620
 20
-241.251016552938150
 40
5.000000000000000
 50
180.000000000000000
 51
270.000000000000000
  0
LINE
  8
0
  6
DASHDOT
 62
4
 10
-140.382586876608340
 20
-151.175461950593440
 11
-140.382586876608340
 21
-263.829181375830100
  0
LINE
  8
0
  6
CONTINUOUS
 62
4
 10
-140.382586876608340
 20
-214.907909027679350
 11
-133.165708511738900
 21
-227.407909027679350
  0
LINE
  8
0
  6
CONTINUOUS
 62
4
 10
-125.948830146868540
 20
-214.907909027679350
 11
-140.382586876608340
 21
-214.907909027679350
  0
LINE
  8
0
  6
CONTINUOUS
 62
4
 10
-133.165708511737990
 20
-202.407909027679580
 11
-140.382586876608340
 21
-214.907909027679350
  0
LINE
  8
0
  6
CONTINUOUS
 62
4
 10
-140.382586876608340
 20
-189.907909027679350
 11
-133.165708511737990
 21
-202.407909027679350
  0
LINE
  8
0
  6
CONTINUOUS
 62
4
 10
-118.731951781998190
 20
-227.407909027679350
 11
-133.165708511738900
 21
-227.407909027679350
  0
LINE
  8
0
  6
CONTINUOUS
 62
4
 10
-125.948830146868540
 20
-214.907909027679350
 11
-118.731951781998190
 21
-227.407909027679350
  0
LINE
  8
0
  6
CONTINUOUS
 62
4
 10
-140.382586876608340
 20
-189.907909027679350
 11
-147.599465241478700
 21
-202.407909027679350
  0
LINE
  8
0
  6
CONTINUOUS
 62
4
 10
-147.599465241478700
 20
-202.407909027679580
 11
-140.382586876608340
 21
-214.907909027679350
  0
LINE
  8
0
  6
CONTINUOUS
 62
4
 10
-154.816343606348140
 20
-214.907909027679350
 11
-140.382586876608340
 21
-214.907909027679350
  0
LINE
  8
0
  6
CONTINUOUS
 62
4
 10
-154.816343606348140
 20
-214.907909027679350
 11
-162.033221971218500
 21
-227.407909027679350
  0
LINE
  8
0
  6
CONTINUOUS
 62
4
 10
-140.382586876608340
 20
-214.907909027679350
 11
-147.599465241477790
 21
-227.407909027679350
  0
LINE
  8
0
  6
CONTINUOUS
 62
4
 10
-162.033221971218500
 20
-227.407909027679350
 11
-147.599465241477790
 21
-227.407909027679350
  0
LINE
  8
0
  6
CONTINUOUS
 62
3
 10
-175.832586876607250
 20
-154.078454142779490
 11
-140.382586876608340
 21
-154.078454142779490
  0
ARC
  8
0
  6
CONTINUOUS
 62
3
 10
-175.832586876607250
 20
-165.078454142779490
 40
11.000000000000000
 50
90.000000000000000
 51
180.000000000000000
  0
LINE
  8
0
  6
CONTINUOUS
 62
3
 10
-140.382586876608340
 20
-160.173272346278050
 11
-175.432586876607620
 21
-160.173272346278050
  0
ARC
  8
0
  6
CONTINUOUS
 62
3
 10
-175.432586876607620
 20
-165.173272346278050
 40
5.000000000000000
 50
90.000000000000000
 51
180.000000000000000
  0
LINE
  8
0
  6
CONTINUOUS
 62
4
 10
-140.382586876608340
 20
-166.675061783385220
 11
-175.432586876607620
 21
-166.675061783385220
  0
ARC
  8
0
  6
CONTINUOUS
 62
4
 10
-175.432586876607620
 20
-171.675061783385220
 40
5.000000000000000
 50
90.000000000000000
 51
180.000000000000000
  0
LINE
  8
0
  6
CONTINUOUS
 62
3
 10
-180.432586876607620
 20
-165.173272346278050
 11
-180.432586876607620
 21
-241.251016552938150
  0
LINE
  8
0
  6
CONTINUOUS
 62
3
 10
-186.832586876607250
 20
-165.078454142779490
 11
-186.832586876607250
 21
-246.681173511035240
  0
LINE
  8
0
  6
CONTINUOUS
 62
3
 10
-166.382586876608230
 20
-154.078454142779490
 11
-166.382586876608230
 21
-136.675061783385440
  0
LINE
  8
0
  6
CONTINUOUS
 62
3
 10
-166.382586876608230
 20
-136.675061783385440
 11
-247.076611099028580
 21
-136.675061783385440
  0
LINE
  8
0
  6
CONTINUOUS
 62
3
 10
-269.382586876558090
 20
-196.675061783385440
 11
-269.382586876558090
 21
-149.231856726139990
  0
ARC
  8
0
  6
CONTINUOUS
 62
3
 10
-247.076611099028580
 20
-156.675061783385440
 40
20.000000000000000
 50
90.000000000000000
 51
125.000000000000240
  0
LINE
  8
0
  6
CONTINUOUS
 62
3
 10
-258.548139826049580
 20
-140.292020897605650
 11
-268.273885611070570
 21
-147.102061410988880
  0
ARC
  8
0
  6
CONTINUOUS
 62
3
 10
-266.782586876557960
 20
-149.231856726139990
 40
2.599999999999721
 50
125.000000000001370
 51
180.000000000000000
  0
LINE
  8
0
  6
CONTINUOUS
 62
3
 10
-180.428476039737800
 20
-256.675061783385440
 11
-247.076611099028580
 21
-256.675061783385440
  0
LINE
  8
0
  6
CONTINUOUS
 62
3
 10
-269.382586876558090
 20
-196.675061783385440
 11
-269.382586876558090
 21
-244.118266840630890
  0
ARC
  8
0
  6
CONTINUOUS
 62
3
 10
-247.076611099028580
 20
-236.675061783385440
 40
20.000000000000007
 50
234.999999999999740
 51
270.000000000000000
  0
LINE
  8
0
  6
CONTINUOUS
 62
3
 10
-258.548139826049580
 20
-253.058102669165240
 11
-268.273885611070570
 21
-246.248062155782010
  0
ARC
  8
0
  6
CONTINUOUS
 62
3
 10
-266.782586876557960
 20
-244.118266840630890
 40
2.600000000000136
 50
180.000000000000000
 51
234.999999999998610
  0
POLYLINE
  8
0
  6
CONTINUOUS
 62
3
 66
1
 70
1
  0
VERTEX
  8
0
  6
CONTINUOUS
 62
3
 10
-172.682586876607670
 20
-144.751536751325380
  0
VERTEX
  8
0
  6
CONTINUOUS
 62
3
 10
-172.772896058712490
 20
-144.048579785125010
  0
VERTEX
  8
0
  6
CONTINUOUS
 62
3
 10
-173.040353073804620
 20
-143.372637060912920
  0
VERTEX
  8
0
  6
CONTINUOUS
 62
3
 10
-173.474679698785710
 20
-142.749684678507520
  0
VERTEX
  8
0
  6
CONTINUOUS
 62
3
 10
-174.059185005030880
 20
-142.203662348608930
  0
VERTEX
  8
0
  6
CONTINUOUS
 62
3
 10
-174.771406781415550
 20
-141.755553403142300
  0
VERTEX
  8
0
  6
CONTINUOUS
 62
3
 10
-175.583974744491740
 20
-141.422578417579560
  0
VERTEX
  8
0
  6
CONTINUOUS
 62
3
 10
-176.465662363131860
 20
-141.217533433881300
  0
VERTEX
  8
0
  6
CONTINUOUS
 62
3
 10
-177.382586876607660
 20
-141.148298215780530
  0
VERTEX
  8
0
  6
CONTINUOUS
 62
3
 10
-178.299511390083470
 20
-141.217533433881300
  0
VERTEX
  8
0
  6
CONTINUOUS
 62
3
 10
-179.181199008723580
 20
-141.422578417579560
  0
VERTEX
  8
0
  6
CONTINUOUS
 62
3
 10
-179.993766971799770
 20
-141.755553403142300
  0
VERTEX
  8
0
  6
CONTINUOUS
 62
3
 10
-180.705988748184440
 20
-142.203662348608930
  0
VERTEX
  8
0
  6
CONTINUOUS
 62
3
 10
-181.290494054429620
 20
-142.749684678507520
  0
VERTEX
  8
0
  6
CONTINUOUS
 62
3
 10
-181.724820679410700
 20
-143.372637060912920
  0
VERTEX
  8
0
  6
CONTINUOUS
 62
3
 10
-181.992277694502830
 20
-144.048579785125010
  0
VERTEX
  8
0
  6
CONTINUOUS
 62
3
 10
-182.082586876607650
 20
-144.751536751325380
  0
VERTEX
  8
0
  6
CONTINUOUS
 62
3
 10
-181.992277694502830
 20
-145.454493717525740
  0
VERTEX
  8
0
  6
CONTINUOUS
 62
3
 10
-181.724820679410700
 20
-146.130436441737830
  0
VERTEX
  8
0
  6
CONTINUOUS
 62
3
 10
-181.290494054429620
 20
-146.753388824143230
  0
VERTEX
  8
0
  6
CONTINUOUS
 62
3
 10
-180.705988748184410
 20
-147.299411154041820
  0
VERTEX
  8
0
  6
CONTINUOUS
 62
3
 10
-179.993766971799770
 20
-147.747520099508450
  0
VERTEX
  8
0
  6
CONTINUOUS
 62
3
 10
-179.181199008723580
 20
-148.080495085071190
  0
VERTEX
  8
0
  6
CONTINUOUS
 62
3
 10
-178.299511390083470
 20
-148.285540068769450
  0
VERTEX
  8
0
  6
CONTINUOUS
 62
3
 10
-177.382586876607660
 20
-148.354775286870220
  0
VERTEX
  8
0
  6
CONTINUOUS
 62
3
 10
-176.465662363131860
 20
-148.285540068769450
  0
VERTEX
  8
0
  6
CONTINUOUS
 62
3
 10
-175.583974744491740
 20
-148.080495085071190
  0
VERTEX
  8
0
  6
CONTINUOUS
 62
3
 10
-174.771406781415550
 20
-147.747520099508450
  0
VERTEX
  8
0
  6
CONTINUOUS
 62
3
 10
-174.059185005030910
 20
-147.299411154041820
  0
VERTEX
  8
0
  6
CONTINUOUS
 62
3
 10
-173.474679698785710
 20
-146.753388824143230
  0
VERTEX
  8
0
  6
CONTINUOUS
 62
3
 10
-173.040353073804620
 20
-146.130436441737830
  0
VERTEX
  8
0
  6
CONTINUOUS
 62
3
 10
-172.772896058712490
 20
-145.454493717525740
  0
SEQEND
  8
0
  6
CONTINUOUS
 62
3
  0
LINE
  8
0
  6
CONTINUOUS
 62
3
 10
-179.382586876607660
 20
-141.759161197325060
 11
-177.382586876607660
 21
-142.934946682947840
  0
LINE
  8
0
  6
CONTINUOUS
 62
3
 10
-177.382586876607660
 20
-142.934946682947840
 11
-175.382586876607660
 21
-144.587588322071270
  0
LINE
  8
0
  6
CONTINUOUS
 62
3
 10
-175.382586876607660
 20
-141.759161197325060
 11
-177.382586876607660
 21
-142.934946682947840
  0
LINE
  8
0
  6
CONTINUOUS
 62
3
 10
-177.382586876607660
 20
-142.934946682947840
 11
-179.382586876607660
 21
-144.587588322071270
  0
LINE
  8
0
  6
DASHED
 62
3
 10
406.748347142845430
 20
-157.017549255664330
 11
407.173179302591510
 21
-158.018391104279770
  0
LINE
  8
0
  6
DASHED
 62
3
 10
406.303433397635440
 20
-158.016841888621680
 11
406.436775419829470
 21
-158.330976007071060
  0
LINE
  8
0
  6
DASHED
 62
3
 10
407.173179302591510
 20
-158.018391104279770
 11
406.436775419829470
 21
-158.330976007071060
  0
LINE
  8
0
  6
DASHED
 62
3
 10
403.624130700140090
 20
-154.691999600422150
 11
384.932067119191290
 21
-196.675061783385440
  0
LINE
  8
0
  6
DASHED
 62
3
 10
404.944412800858120
 20
-154.185190785855410
 11
407.502340082257430
 21
-155.324053386467540
  0
LINE
  8
0
  6
DASHED
 62
3
 10
405.224614881037720
 20
-160.439907949268450
 11
407.027986071224400
 21
-161.242820533398570
  0
LINE
  8
0
  6
DASHED
 62
3
 10
408.807776141998150
 20
-163.983456906326410
 11
408.807776141998150
 21
-238.175061783385440
  0
LINE
  8
0
  6
DASHED
 62
3
 10
407.502340082262660
 20
-155.324053386469810
 11
361.785141400537670
 21
-258.006562825495850
  0
ARC
  8
0
  6
DASHED
 62
3
 10
404.537676157782700
 20
-155.098736243498020
 40
0.999999999999856
 50
66.000000000020236
 51
155.999999999996390
  0
ARC
  8
0
  6
DASHED
 62
3
 10
399.101214878344760
 20
-157.474854854724530
 40
3.000000000000022
 50
279.318123119682530
 51
336.000000000000400
  0
ARC
  8
0
  6
DASHED
 62
3
 10
405.807776141998150
 20
-163.983456906326410
 40
3.000000000000000
 50
0.000000000000000
 51
66.000000000020236
  0
LINE
  8
0
  6
DASHED
 62
3
 10
403.807776141998150
 20
-243.175061783385440
 11
368.388551110669370
 21
-243.175061783385440
  0
ARC
  8
0
  6
DASHED
 62
3
 10
403.807776141998150
 20
-238.175061783385440
 40
5.000000000000000
 50
270.000000000000000
 51
0.000000000000000
  0
LINE
  8
0
  6
DASHED
 62
3
 10
363.879835112378030
 20
-253.301803718636850
 11
367.716726034477010
 21
-255.010097619555150
  0
LINE
  8
0
  6
DASHED
 62
3
 10
365.222066034528550
 20
-250.287103708416230
 11
369.058956956627300
 21
-251.995397609334530
  0
LINE
  8
0
  6
DASHED
 62
3
 10
368.881573871528870
 20
-251.533298874083130
 11
369.058956956627300
 21
-251.995397609334530
  0
LINE
  8
0
  6
DASHED
 62
3
 10
367.254627299225830
 20
-255.187480704653130
 11
367.716726034477230
 21
-255.010097619554700
  0
LINE
  8
0
  6
DASHED
 62
3
 10
369.058956956627300
 20
-251.995397609334530
 11
367.716726034477230
 21
-255.010097619554700
  0
LINE
  8
0
  6
DASHED
 62
3
 10
362.503056085176920
 20
-247.051445368089160
 11
359.655899583646030
 21
-253.446263571587450
  0
LINE
  8
0
  6
DASHED
 62
3
 10
362.503056085176920
 20
-247.051445368089160
 11
359.655899583646030
 21
-253.446263571587450
  0
LINE
  8
0
  6
DASHED
 62
3
 10
359.655899583646030
 20
-253.446263571587450
 11
358.761515463969540
 21
-253.048058105822970
  0
LINE
  8
0
  6
DASHED
 62
3
 10
362.503056085176920
 20
-247.051445368089160
 11
361.608671965500430
 21
-246.653239902324910
  0
LINE
  8
0
  6
DASHED
 62
3
 10
359.227214119137900
 20
-256.867700224883720
 11
361.785141400537670
 21
-258.006562825495850
  0
LINE
  8
0
  6
DASHED
 62
3
 10
384.932067119194470
 20
-196.675061783385440
 11
358.720405304571610
 21
-255.547418124165460
  0
LINE
  8
0
  6
DASHED
 62
3
 10
365.364423859605040
 20
-249.967362798241310
 11
368.881573871528870
 21
-251.533298874083130
  0
LINE
  8
0
  6
DASHED
 62
3
 10
363.737477287301770
 20
-253.621544628811310
 11
367.254627299225830
 21
-255.187480704653130
  0
ARC
  8
0
  6
DASHED
 62
3
 10
361.079914639817390
 20
-247.840848300280410
 40
1.299999237060620
 50
65.999999316753915
 51
139.398468892516150
  0
ARC
  8
0
  6
DASHED
 62
3
 10
960.807776141998150
 20
-196.675061783385670
 40
600.000000000001140
 50
178.317231198866840
 51
184.715124834091600
  0
ARC
  8
0
  6
DASHED
 62
3
 10
361.841727149686450
 20
-246.078221141272020
 40
1.000000000000041
 50
335.999999999996420
 51
4.715124834083239
  0
ARC
  8
0
  6
DASHED
 62
3
 10
359.633950762214230
 20
-255.954154767241110
 40
0.999999999999948
 50
156.000000000008300
 51
245.999999999972630
  0
ARC
  8
0
  6
DASHED
 62
3
 10
363.013088878299640
 20
-243.447299623264140
 40
1.000000000000041
 50
335.999999999996420
 51
66.000000000020236
  0
ARC
  8
0
  6
DASHED
 62
3
 10
364.437762545579060
 20
-240.797696371622580
 40
2.000000000000632
 50
184.231338074886000
 51
245.999999999972630
  0
ARC
  8
0
  6
DASHED
 62
3
 10
960.807776141998150
 20
-196.675061783385670
 40
600.799999999999950
 50
179.412192132293110
 51
182.841389015363350
  0
ARC
  8
0
  6
DASHED
 62
3
 10
361.745176913213530
 20
-226.407909027679350
 40
0.999999999999988
 50
182.841389015366990
 51
236.047873053618590
  0
ARC
  8
0
  6
DASHED
 62
3
 10
360.628176888601050
 20
-228.066918052674510
 40
1.000000000000008
 50
2.994076090848812
 51
56.047873053604029
  0
ARC
  8
0
  6
DASHED
 62
3
 10
359.290272789652820
 20
-251.860449707867470
 40
1.299999237060687
 50
172.601548410320760
 51
246.000017986079880
  0
ARC
  8
0
  6
DASHED
 62
3
 10
366.926168414834140
 20
-252.851968830366100
 40
9.000000000000075
 50
139.398468892516490
 51
172.601548410321070
  0
LINE
  8
0
  6
DASHED
 62
3
 10
399.586962768783450
 20
-160.435268506046670
 11
373.631325675247350
 21
-164.694097659039700
  0
ARC
  8
0
  6
DASHED
 62
3
 10
359.857968472447960
 20
-188.907909027679350
 40
0.999999999999994
 50
306.205708094031080
 51
359.259505056807090
  0
ARC
  8
0
  6
DASHED
 62
3
 10
361.039340588724370
 20
-190.521711965737500
 40
1.000000000000128
 50
126.205708094041610
 51
179.412192132278280
  0
ARC
  8
0
  6
DASHED
 62
3
 10
376.060065127438970
 20
-179.496165915650640
 40
15.000000000000041
 50
99.318123119675519
 51
178.317231198866920
  0
INSERT
  8
0
  2
SYM7
 10
27.617412162863275
 20
-257.089241387566970
  0
INSERT
  8
0
  2
SYM7
 10
27.617412162863275
 20
-157.089241387566970
  0
INSERT
  8
0
  2
SYM7
 10
27.617412162863275
 20
-81.589241387566972
  0
INSERT
  8
0
  2
SYM2
 10
12.117413123388815
 20
-75.175061783337469
  0
ARC
  8
0
  6
CONTINUOUS
 62
3
 10
40.117413123390634
 20
-341.781160440256600
 40
2.999999999999531
 50
271.999999999995280
 51
0.000000000000000
  0
LINE
  8
0
  6
CONTINUOUS
 62
3
 10
43.117413123390634
 20
-328.441949056352090
 11
43.117413123390634
 21
-341.781160440256600
  0
LINE
  8
0
  6
CONTINUOUS
 62
3
 10
85.117413123390634
 20
-329.175061783337470
 11
43.117413123390634
 21
-328.441949056352090
  0
ARC
  8
0
  6
CONTINUOUS
 62
3
 10
107.165531628241290
 20
-340.626743648422010
 40
5.000000000000074
 50
196.541483843753500
 51
269.151052584569130
  0
LINE
  8
0
  6
CONTINUOUS
 62
3
 10
210.617413123390630
 20
-227.175061783337470
 11
211.617413123390630
 21
-227.175061783337470
  0
LINE
  8
0
  6
CONTINUOUS
 62
3
 10
210.617413123390630
 20
-127.175061783337460
 11
211.617413123390630
 21
-127.175061783337460
  0
LINE
  8
0
  6
CONTINUOUS
 62
3
 10
166.617413123390630
 20
-346.508251244229310
 11
207.676678665097370
 21
-347.116667932923290
  0
ARC
  8
0
  6
CONTINUOUS
 62
3
 10
206.650298434939940
 20
-344.101129676236040
 40
3.000000000000000
 50
180.000000000000000
 51
269.151052584572710
  0
ARC
  8
0
  6
CONTINUOUS
 62
3
 10
170.092180959121830
 20
-343.559411053507350
 40
3.000000000000000
 50
180.000000000000000
 51
269.151052584572430
  0
ARC
  8
0
  6
CONTINUOUS
 62
3
 10
207.617413123390630
 20
-351.116228858271600
 40
4.000000000000000
 50
0.000000000000000
 51
89.151052584577101
  0
ARC
  8
0
  6
CONTINUOUS
 62
3
 10
212.617413123390630
 20
-346.217249372704600
 40
3.000000000000000
 50
180.000000000000000
 51
224.415308597188780
  0
LINE
  8
0
  6
CONTINUOUS
 62
3
 10
107.091449701107190
 20
-345.626194805106710
 11
166.617413123390630
 21
-346.508251244229310
  0
ARC
  8
0
  6
CONTINUOUS
 62
3
 10
41.117413123390634
 20
-297.175061783337470
 40
2.000000000000000
 50
0.000000000000000
 51
90.000000000000000
  0
ARC
  8
0
  6
CONTINUOUS
 62
3
 10
16.430853674317859
 20
-339.606484689933270
 40
5.999999999999986
 50
271.999999999999320
 51
324.808447381648880
  0
LINE
  8
0
  6
CONTINUOUS
 62
3
 10
21.334232927526955
 20
-343.064355696664960
 11
42.751872874460332
 21
-312.693410347910460
  0
LINE
  8
0
  6
CONTINUOUS
 62
3
 10
43.117413123390634
 20
-297.175061783337470
 11
43.117413123390634
 21
-311.540786678999890
  0
ARC
  8
0
  6
CONTINUOUS
 62
3
 10
41.117413123390634
 20
-311.540786678999890
 40
1.999999999999918
 50
324.808447381648880
 51
0.000000000000000
  0
LINE
  8
0
  6
CONTINUOUS
 62
3
 10
40.117413123390634
 20
-295.175061783337470
 11
41.117413123390634
 21
-295.175061783337470
  0
ARC
  8
0
  6
CONTINUOUS
 62
3
 10
206.617413123407000
 20
-115.340081644199690
 40
3.000000000000000
 50
0.000000000000000
 51
26.186216145151025
  0
ARC
  8
0
  6
CONTINUOUS
 62
3
 10
128.546696544052340
 20
-153.732310190952150
 40
90.000000000000085
 50
26.186216145153860
 51
89.000000000000540
  0
POLYLINE
  8
0
  6
CONTINUOUS
 62
3
 66
1
  0
VERTEX
  8
0
  6
CONTINUOUS
 62
3
 10
203.650298434939940
 20
-182.992424368332420
  0
VERTEX
  8
0
  6
CONTINUOUS
 62
3
 10
203.299071446798140
 20
-176.164263097767930
  0
VERTEX
  8
0
  6
CONTINUOUS
 62
3
 10
202.258887938556650
 20
-169.598504235554260
  0
VERTEX
  8
0
  6
CONTINUOUS
 62
3
 10
200.569721579095590
 20
-163.547466212646330
  0
VERTEX
  8
0
  6
CONTINUOUS
 62
3
 10
198.296486084313590
 20
-158.243687026803230
  0
VERTEX
  8
0
  6
CONTINUOUS
 62
3
 10
195.526540619430020
 20
-153.890987937743290
  0
VERTEX
  8
0
  6
CONTINUOUS
 62
3
 10
192.366332635257010
 20
-150.656640730437350
  0
VERTEX
  8
0
  6
CONTINUOUS
 62
3
 10
188.937307152361290
 20
-148.664939554219300
  0
VERTEX
  8
0
  6
CONTINUOUS
 62
3
 10
185.371239697030890
 20
-147.992424368332370
  0
VERTEX
  8
0
  6
CONTINUOUS
 62
3
 10
181.805172241700490
 20
-148.664939554219300
  0
VERTEX
  8
0
  6
CONTINUOUS
 62
3
 10
178.376146758804770
 20
-150.656640730437350
  0
VERTEX
  8
0
  6
CONTINUOUS
 62
3
 10
175.215938774631750
 20
-153.890987937743320
  0
VERTEX
  8
0
  6
CONTINUOUS
 62
3
 10
172.445993309748190
 20
-158.243687026803230
  0
VERTEX
  8
0
  6
CONTINUOUS
 62
3
 10
170.172757814966220
 20
-163.547466212646330
  0
VERTEX
  8
0
  6
CONTINUOUS
 62
3
 10
168.483591455505120
 20
-169.598504235554260
  0
VERTEX
  8
0
  6
CONTINUOUS
 62
3
 10
167.443407947263670
 20
-176.164263097767930
  0
VERTEX
  8
0
  6
CONTINUOUS
 62
3
 10
167.092180959121830
 20
-182.992424368332420
  0
SEQEND
  8
0
  6
CONTINUOUS
 62
3
  0
LINE
  8
0
  6
CONTINUOUS
 62
3
 10
203.650298434939940
 20
-182.992424368332420
 11
203.650298434939940
 21
-344.101129676236040
  0
LINE
  8
0
  6
CONTINUOUS
 62
3
 10
167.092180959121830
 20
-182.992424368332420
 11
167.092180959121830
 21
-343.559411053507350
  0
LINE
  8
0
  6
DASHDOT
 62
4
 10
41.117413123390634
 20
-285.175061783337470
 11
88.075746566003090
 21
-285.175061783337470
  0
LINE
  8
0
  6
DASHDOT
 62
4
 10
65.117413123390634
 20
-261.175061783337470
 11
65.117413123390634
 21
-309.175061783337470
  0
CIRCLE
  8
0
  6
CONTINUOUS
 62
3
 10
65.117413123390634
 20
-285.175061783337470
 40
15.000000000000000
  0
LINE
  8
0
  6
DASHDOT
 62
4
 10
103.117413123390630
 20
-347.175061783337470
 11
67.117413123390634
 21
-347.175061783337470
  0
CIRCLE
  8
0
  6
CONTINUOUS
 62
4
 10
85.117413123390634
 20
-347.175061783337470
 40
10.500000000000000
  0
CIRCLE
  8
0
  6
CONTINUOUS
 62
3
 10
85.117413123390634
 20
-347.175061783337470
 40
9.000000000000000
  0
LINE
  8
0
  6
DASHDOT
 62
4
 10
85.117413123390634
 20
-324.302233337328970
 11
85.117413123390634
 21
-365.175061783337470
  0
ARC
  8
0
  6
CONTINUOUS
 62
3
 10
85.117413123390634
 20
-347.175061783337470
 40
17.999999999999947
 50
16.541483843759224
 51
90.000000000000000
  0
LINE
  8
0
  6
CONTINUOUS
 62
3
 10
16.617413123390634
 20
-345.603627156208630
 11
-24.385023568533143
 21
-347.035463796527210
  0
LINE
  8
0
  6
DASHDOT
 62
4
 10
80.117413123390634
 20
-77.842479372229491
 11
80.117413123390634
 21
-51.324814826466309
  0
LINE
  8
0
  6
CONTINUOUS
 62
3
 10
40.117413123390634
 20
-62.175061783338379
 11
130.117413123407000
 21
-63.746017626877574
  0
LINE
  8
0
  6
CONTINUOUS
 62
3
 10
209.617413123390630
 20
-177.175061783337470
 11
209.617413123390630
 21
-115.340081644199690
  0
LINE
  8
0
  6
CONTINUOUS
 62
3
 10
40.117413123390634
 20
-62.175061783338379
 11
40.117413123390634
 21
-316.429164302196800
  0
LINE
  8
0
  6
CONTINUOUS
 62
3
 10
211.617413123390630
 20
-177.175061783337470
 11
211.617413123390630
 21
-227.175061783337470
  0
LINE
  8
0
  6
DASHDOT
 62
4
 10
191.617413123390630
 20
-343.248100227856180
 11
191.617413123390630
 21
-380.586324257397560
  0
LINE
  8
0
  6
DASHDOT
 62
4
 10
-8.382586876609366
 20
-343.248100227856180
 11
-8.382586876609366
 21
-380.586324257397560
  0
LINE
  8
0
  6
CONTINUOUS
 62
3
 10
-28.382586876609366
 20
-372.175061783337470
 11
211.617413123390630
 21
-372.175061783337470
  0
LINE
  8
0
  6
CONTINUOUS
 62
3
 10
-28.382586876609366
 20
-351.175061783337470
 11
-28.382586876609366
 21
-372.175061783337470
  0
ARC
  8
0
  6
CONTINUOUS
 62
3
 10
-24.382586876609366
 20
-351.175061783337470
 40
4.000000000000000
 50
90.000000000000000
 51
180.000000000000000
  0
LINE
  8
0
  6
DASHDOT
 62
4
 10
313.209701392137500
 20
-177.175061783337470
 11
137.258952837749800
 21
-177.175061783337470
  0
LINE
  8
0
  6
CONTINUOUS
 62
3
 10
211.617413123390630
 20
-177.175061783337470
 11
211.617413123390630
 21
-127.175061783337460
  0
ARC
  8
0
  6
CONTINUOUS
 62
3
 10
210.617413123390630
 20
-126.175061783337460
 40
1.000000000000000
 50
180.000000000000000
 51
270.000000000000000
  0
ARC
  8
0
  6
CONTINUOUS
 62
3
 10
210.617413123390630
 20
-228.175061783337470
 40
1.000000000000000
 50
90.000000000000000
 51
180.000000000000000
  0
LINE
  8
0
  6
CONTINUOUS
 62
3
 10
211.617413123390630
 20
-351.116228858271600
 11
211.617413123390630
 21
-372.175061783337470
  0
LINE
  8
0
  6
CONTINUOUS
 62
3
 10
209.617413123390630
 20
-177.175061783337470
 11
209.617413123390630
 21
-346.217249372704600
  0
LINE
  8
0
  6
CONTINUOUS
 62
3
 10
40.222111613497873
 20
-344.779332921313430
 11
16.617413123390634
 21
-345.603627156208630
  0
LINE
  8
0
  6
CONTINUOUS
 62
3
 10
39.617413123391543
 20
-62.175061783337469
 11
19.617413123391543
 21
-62.175061783337469
  0
LINE
  8
0
  6
CONTINUOUS
 62
3
 10
39.617413123391543
 20
-227.175061783337470
 11
39.617413123391543
 21
-317.138181388671680
  0
LINE
  8
0
  6
CONTINUOUS
 62
3
 10
27.617413123391543
 20
-334.154591464107630
 11
27.617413123391543
 21
-243.175061783337470
  0
LINE
  8
0
  6
CONTINUOUS
 62
3
 10
39.617413123391543
 20
-227.175061783337470
 11
39.617413123391543
 21
-62.175061783337469
  0
ARC
  8
0
  6
CONTINUOUS
 62
3
 10
30.617413123391543
 20
-65.175061783337469
 40
3.000000000000000
 50
90.000000000000000
 51
180.000000000000000
  0
LINE
  8
0
  6
CONTINUOUS
 62
3
 10
21.617413123391543
 20
-237.175061783337470
 11
21.617413123391543
 21
-217.175061783337470
  0
ARC
  8
0
  6
CONTINUOUS
 62
3
 10
24.617413123391543
 20
-217.175061783337470
 40
3.000000000000000
 50
90.000000000000000
 51
180.000000000000000
  0
ARC
  8
0
  6
CONTINUOUS
 62
3
 10
24.617413123391543
 20
-237.175061783337470
 40
3.000000000000000
 50
180.000000000000000
 51
270.000000000000000
  0
ARC
  8
0
  6
CONTINUOUS
 62
3
 10
24.617413123391543
 20
-211.175061783337470
 40
3.000000000000000
 50
270.000000000000000
 51
0.000000000000000
  0
ARC
  8
0
  6
CONTINUOUS
 62
3
 10
24.617413123391543
 20
-243.175061783337470
 40
3.000000000000000
 50
0.000000000000000
 51
90.000000000000000
  0
LINE
  8
0
  6
CONTINUOUS
 62
3
 10
16.617413123391543
 20
-27.175061783337469
 11
16.617413123391543
 21
-73.589241387566972
  0
LINE
  8
0
  6
CONTINUOUS
 62
3
 10
12.117413123391543
 20
-27.175061783337469
 11
16.617413123391543
 21
-27.175061783337469
  0
LINE
  8
0
  6
CONTINUOUS
 62
3
 10
12.117413123387905
 20
-85.175061783337469
 11
12.117413123391543
 21
-27.175061783337469
  0
LINE
  8
0
  6
DASHDOT
 62
4
 10
6.387165722574082
 20
-47.175061783337469
 11
24.486431737865587
 21
-47.175061783337469
  0
LINE
  8
0
  6
CONTINUOUS
 62
3
 10
12.117413123387905
 20
-85.175061783337469
 11
16.617413123391543
 21
-85.175061783337469
  0
LINE
  8
0
  6
CONTINUOUS
 62
3
 10
297.817413123390910
 20
-204.675061783338380
 11
234.617413123390630
 21
-204.675061783338380
  0
LINE
  8
0
  6
CONTINUOUS
 62
3
 10
298.617413123390630
 20
-177.175061783338380
 11
298.617413123390630
 21
-203.875061783338200
  0
ARC
  8
0
  6
CONTINUOUS
 62
3
 10
297.817413123390910
 20
-203.875061783338200
 40
0.800000000000182
 50
270.000000000000000
 51
0.000000000000000
  0
LINE
  8
0
  6
CONTINUOUS
 62
3
 10
226.617413123390630
 20
-204.675061783338380
 11
219.177220744526040
 21
-204.675061783338380
  0
LINE
  8
0
  6
CONTINUOUS
 62
3
 10
234.617413123390630
 20
-204.675061783338380
 11
226.617413123390630
 21
-204.675061783338380
  0
LINE
  8
0
  6
CONTINUOUS
 62
3
 10
216.617413123390630
 20
-177.175061783338380
 11
216.617413123390630
 21
-205.375061783337290
  0
LINE
  8
0
  6
CONTINUOUS
 62
3
 10
215.817413123390910
 20
-206.175061783338380
 11
211.617413123390630
 21
-206.175061783338380
  0
LINE
  8
0
  6
CONTINUOUS
 62
3
 10
216.617413123390630
 20
-205.375061783337290
 11
216.617413123390630
 21
-177.175061783338380
  0
LINE
  8
0
  6
CONTINUOUS
 62
3
 10
218.617413123390180
 20
-204.525061783337830
 11
217.417413123390820
 21
-204.525061783337830
  0
LINE
  8
0
  6
CONTINUOUS
 62
3
 10
218.617413123390630
 20
-204.525061783337830
 11
219.177220744526040
 21
-204.675061783338380
  0
ARC
  8
0
  6
CONTINUOUS
 62
3
 10
217.417413123390820
 20
-205.325061783338010
 40
0.800000000000182
 50
90.000000000000000
 51
180.000000000000000
  0
LINE
  8
0
  6
CONTINUOUS
 62
3
 10
215.817413123390910
 20
-206.175061783338380
 11
216.617413123390630
 21
-205.375061783338200
  0
LINE
  8
0
  6
CONTINUOUS
 62
3
 10
216.617413123390630
 20
-177.175061783338380
 11
216.617413123390630
 21
-148.975061783337650
  0
LINE
  8
0
  6
CONTINUOUS
 62
3
 10
216.617413123390630
 20
-148.975061783337650
 11
216.617413123390630
 21
-177.175061783338380
  0
LINE
  8
0
  6
CONTINUOUS
 62
3
 10
297.817413123390910
 20
-149.675061783338380
 11
219.177220744526040
 21
-149.675061783338380
  0
LINE
  8
0
  6
CONTINUOUS
 62
3
 10
218.617413123390180
 20
-149.825061783338010
 11
217.417413123390820
 21
-149.825061783338010
  0
LINE
  8
0
  6
CONTINUOUS
 62
3
 10
218.617413123390630
 20
-149.825061783338010
 11
219.177220744526040
 21
-149.675061783338380
  0
ARC
  8
0
  6
CONTINUOUS
 62
3
 10
217.417413123390820
 20
-149.025061783337830
 40
0.800000000000182
 50
180.000000000000000
 51
270.000000000000000
  0
LINE
  8
0
  6
CONTINUOUS
 62
3
 10
215.817413123390910
 20
-148.175061783338380
 11
216.617413123390630
 21
-148.975061783337650
  0
LINE
  8
0
  6
CONTINUOUS
 62
3
 10
215.817413123390910
 20
-148.175061783338380
 11
211.617413123390630
 21
-148.175061783338380
  0
LINE
  8
0
  6
CONTINUOUS
 62
3
 10
298.617413123390630
 20
-177.175061783338380
 11
298.617413123390630
 21
-150.475061783337650
  0
ARC
  8
0
  6
CONTINUOUS
 62
3
 10
297.817413123390910
 20
-150.475061783337650
 40
0.799999999999727
 50
0.000000000000000
 51
90.000000000000000
  0
LINE
  8
0
  6
CONTINUOUS
 62
3
 10
235.617413123390630
 20
-169.175061783337470
 11
298.617413123390630
 21
-169.175061783337470
  0
LINE
  8
0
  6
CONTINUOUS
 62
3
 10
235.617413123390630
 20
-185.175061783337470
 11
298.617413123390630
 21
-185.175061783338380
  0
ARC
  8
0
  6
CONTINUOUS
 62
3
 10
235.617413123390630
 20
-177.175061783337470
 40
8.000000000000000
 50
90.000000000000000
 51
270.000000000000000
  0
LINE
  8
0
  6
CONTINUOUS
 62
3
 10
80.117413123390634
 20
-62.593983341615740
 11
64.617413123390634
 21
-62.593983341615740
  0
LINE
  8
0
  6
CONTINUOUS
 62
3
 10
80.117413123390634
 20
-62.593983341615740
 11
95.617413123390634
 21
-62.593983341615740
  0
LINE
  8
0
  6
CONTINUOUS
 62
3
 10
80.117413123390634
 20
-53.593983341615740
 11
64.617413123390634
 21
-53.593983341615740
  0
LINE
  8
0
  6
CONTINUOUS
 62
3
 10
80.117413123390634
 20
-53.593983341615740
 11
95.617413123390634
 21
-53.593983341615740
  0
LINE
  8
0
  6
CONTINUOUS
 62
3
 10
64.117413123390634
 20
-54.093983341615740
 11
64.117413123390634
 21
-62.093983341615740
  0
LINE
  8
0
  6
CONTINUOUS
 62
3
 10
96.117413123390634
 20
-54.093983341615740
 11
96.117413123390634
 21
-62.093983341615740
  0
ARC
  8
0
  6
CONTINUOUS
 62
3
 10
64.617413123390634
 20
-54.093983341615740
 40
0.500000000000000
 50
90.000000000000000
 51
180.000000000000000
  0
ARC
  8
0
  6
CONTINUOUS
 62
3
 10
95.617413123390634
 20
-54.093983341615740
 40
0.500000000000000
 50
0.000000000000000
 51
90.000000000000000
  0
ARC
  8
0
  6
CONTINUOUS
 62
3
 10
64.617413123389724
 20
-62.093983341615740
 40
0.499999999999091
 50
180.000000000000000
 51
270.000000000000000
  0
ARC
  8
0
  6
CONTINUOUS
 62
3
 10
95.617413123390634
 20
-62.093983341615740
 40
0.500000000000000
 50
270.000000000000000
 51
0.000000000000000
  0
LINE
  8
0
  6
CONTINUOUS
 62
3
 10
27.617413123391543
 20
-211.175061783337470
 11
27.617413123391543
 21
-65.175061783337469
  0
ARC
  8
0
  6
CONTINUOUS
 62
3
 10
22.617413123391543
 20
-124.093840578045950
 40
5.000000000000066
 50
273.000000000005570
 51
0.000000000000000
  0
ARC
  8
0
  6
CONTINUOUS
 62
3
 10
22.617413123391543
 20
-121.198656136611810
 40
5.000000000000066
 50
273.000000000005570
 51
0.000000000000000
  0
ARC
  8
0
  6
CONTINUOUS
 62
3
 10
22.617413123391543
 20
-333.151467430064030
 40
5.000000000000000
 50
0.000000000000000
 51
86.999999999994429
  0
ARC
  8
0
  6
CONTINUOUS
 62
3
 10
14.617413123391543
 20
-121.617918370876160
 40
5.000000000000066
 50
273.000000000005570
 51
0.000000000000000
  0
ARC
  8
0
  6
CONTINUOUS
 62
3
 10
19.617413123391543
 20
-65.175061783337469
 40
3.000000000000000
 50
90.000000000000000
 51
180.000000000000000
  0
ARC
  8
0
  6
CONTINUOUS
 62
3
 10
14.617413123391543
 20
-90.420059781735972
 40
5.000000000000000
 50
0.000000000000000
 51
9.564841603927883
  0
LINE
  8
0
  6
CONTINUOUS
 62
3
 10
16.617413123391543
 20
-85.175061783337469
 11
16.617413123391543
 21
-65.175061783337469
  0
LINE
  8
0
  6
CONTINUOUS
 62
3
 10
19.617413123391543
 20
-121.617918370876160
 11
19.617413123391543
 21
-90.420059781735972
  0
LINE
  8
0
  6
CONTINUOUS
 62
3
 10
327.307776141997690
 20
-350.175061783337470
 11
327.307776141997690
 21
-372.175061783337470
  0
LINE
  8
0
  6
CONTINUOUS
 62
3
 10
327.307776141997690
 20
-330.647197738336900
 11
327.307776141997690
 21
-372.175061783337470
  0
ARC
  8
0
  6
CONTINUOUS
 62
3
 10
539.235152963562540
 20
-180.175061783337470
 40
3.000000000000000
 50
90.000000000000000
 51
177.226540597909410
  0
ARC
  8
0
  6
CONTINUOUS
 62
3
 10
415.380399320433750
 20
-180.175061783337470
 40
3.000000000000233
 50
2.773459402090611
 51
90.000000000000000
  0
ARC
  8
0
  6
CONTINUOUS
 62
3
 10
477.307776141998150
 20
-177.175061783337470
 40
59.000000000000014
 50
182.773459402084340
 51
357.226540597915630
  0
ARC
  8
0
  6
CONTINUOUS
 62
3
 10
338.715124420298710
 20
-342.175061783337470
 40
5.000000000000000
 50
270.000000000000000
 51
0.000000000000000
  0
ARC
  8
0
  6
CONTINUOUS
 62
3
 10
367.514053241242440
 20
-342.175061783337470
 40
5.000000000000000
 50
270.000000000000000
 51
0.000000000000000
  0
ARC
  8
0
  6
CONTINUOUS
 62
3
 10
376.781282235065190
 20
-342.175061783337470
 40
5.000000000000000
 50
270.000000000000000
 51
0.000000000000000
  0
ARC
  8
0
  6
CONTINUOUS
 62
3
 10
577.834270048931100
 20
-342.175061783337470
 40
5.000000000000000
 50
180.000000000000000
 51
270.000000000000000
  0
ARC
  8
0
  6
CONTINUOUS
 62
3
 10
587.101499042753860
 20
-342.175061783337470
 40
5.000000000000000
 50
180.000000000000000
 51
270.000000000000000
  0
ARC
  8
0
  6
CONTINUOUS
 62
3
 10
615.900427863696680
 20
-342.175061783337470
 40
5.000000000000000
 50
180.000000000000000
 51
270.000000000000000
  0
ARC
  8
0
  6
CONTINUOUS
 62
3
 10
554.807776141998150
 20
-329.175061783337470
 40
9.000000000000000
 50
270.000000000000000
 51
0.000000000000000
  0
ARC
  8
0
  6
CONTINUOUS
 62
3
 10
399.807776141997240
 20
-329.175061783337470
 40
9.000000000000000
 50
180.000000000000000
 51
270.000000000000000
  0
LINE
  8
0
  6
CONTINUOUS
 62
3
 10
572.834270048931100
 20
-182.992424368332420
 11
572.834270048931100
 21
-342.175061783337470
  0
ARC
  8
0
  6
CONTINUOUS
 62
3
 10
505.307776141998150
 20
-182.992424368332420
 40
67.526493906932956
 50
0.000000000000000
 51
86.655847795544631
  0
ARC
  8
0
  6
CONTINUOUS
 62
3
 10
477.307776141998150
 20
-662.175061783336560
 40
547.526493906932050
 50
86.655847795544375
 51
90.000000000000000
  0
ARC
  8
0
  6
CONTINUOUS
 62
3
 10
477.307776141998150
 20
-662.175061783336560
 40
547.526493906932050
 50
90.000000000000000
 51
93.344152204455725
  0
ARC
  8
0
  6
CONTINUOUS
 62
3
 10
449.307776141998150
 20
-182.992424368332420
 40
67.526493906932785
 50
93.344152204456151
 51
180.000000000000000
  0
LINE
  8
0
  6
CONTINUOUS
 62
3
 10
381.781282235065190
 20
-182.992424368332420
 11
381.781282235065190
 21
-342.175061783337470
  0
ARC
  8
0
  6
CONTINUOUS
 62
3
 10
628.307776141998150
 20
-326.175061783337470
 40
3.000000000000000
 50
180.000000000000000
 51
228.189685104226240
  0
ARC
  8
0
  6
CONTINUOUS
 62
3
 10
624.307776141998150
 20
-330.647197738336900
 40
3.000000000000000
 50
0.000000000000000
 51
48.189685104214675
  0
ARC
  8
0
  6
CONTINUOUS
 62
3
 10
326.307776141997690
 20
-326.175061783337470
 40
3.000000000000284
 50
311.810314895773730
 51
0.000000000000000
  0
ARC
  8
0
  6
CONTINUOUS
 62
3
 10
330.307776141997690
 20
-330.647197738336900
 40
2.999999999999606
 50
131.810314895785330
 51
180.000000000000000
  0
LINE
  8
0
  6
CONTINUOUS
 62
3
 10
477.307776141998150
 20
-338.175061783337470
 11
554.807776141998150
 21
-338.175061783337470
  0
LINE
  8
0
  6
CONTINUOUS
 62
3
 10
563.807776141998150
 20
-182.175061783337470
 11
563.807776141998150
 21
-329.175061783337470
  0
ARC
  8
0
  6
CONTINUOUS
 62
3
 10
558.807776141998150
 20
-182.175061783337470
 40
5.000000000000000
 50
0.000000000000000
 51
90.000000000000000
  0
LINE
  8
0
  6
CONTINUOUS
 62
3
 10
539.235152963562540
 20
-177.175061783337470
 11
558.807776141998150
 21
-177.175061783337470
  0
ARC
  8
0
  6
CONTINUOUS
 62
3
 10
395.807776141997240
 20
-182.175061783337470
 40
5.000000000000000
 50
90.000000000000000
 51
180.000000000000000
  0
LINE
  8
0
  6
CONTINUOUS
 62
3
 10
415.380399320433750
 20
-177.175061783337470
 11
395.807776141997240
 21
-177.175061783337470
  0
LINE
  8
0
  6
CONTINUOUS
 62
3
 10
390.807776141997240
 20
-182.175061783337470
 11
390.807776141997240
 21
-329.175061783337470
  0
LINE
  8
0
  6
CONTINUOUS
 62
3
 10
477.307776141998150
 20
-338.175061783337470
 11
399.807776141997240
 21
-338.175061783337470
  0
LINE
  8
0
  6
CONTINUOUS
 62
3
 10
582.101499042753860
 20
-177.175061783337470
 11
582.101499042753860
 21
-342.175061783337470
  0
LINE
  8
0
  6
CONTINUOUS
 62
3
 10
610.900427863696680
 20
-177.175061783337470
 11
610.900427863696680
 21
-342.175061783337470
  0
POLYLINE
  8
0
  6
CONTINUOUS
 62
3
 66
1
  0
VERTEX
  8
0
  6
CONTINUOUS
 62
3
 10
610.700135900938680
 20
-177.175061783337470
  0
VERTEX
  8
0
  6
CONTINUOUS
 62
3
 10
610.006769638693300
 20
-170.854328784342750
  0
VERTEX
  8
0
  6
CONTINUOUS
 62
3
 10
608.841615293651560
 20
-164.957606671164830
  0
VERTEX
  8
0
  6
CONTINUOUS
 62
3
 10
607.245374318733750
 20
-159.690881164489750
  0
VERTEX
  8
0
  6
CONTINUOUS
 62
3
 10
605.273806989105650
 20
-155.238130791425590
  0
VERTEX
  8
0
  6
CONTINUOUS
 62
3
 10
602.995784570782350
 20
-151.754900103169830
  0
VERTEX
  8
0
  6
CONTINUOUS
 62
3
 10
600.490883492934590
 20
-149.362866155189070
  0
VERTEX
  8
0
  6
CONTINUOUS
 62
3
 10
597.846605564849480
 20
-148.145588054937060
  0
VERTEX
  8
0
  6
CONTINUOUS
 62
3
 10
595.155321341601050
 20
-148.145588054937060
  0
VERTEX
  8
0
  6
CONTINUOUS
 62
3
 10
592.511043413515950
 20
-149.362866155189070
  0
VERTEX
  8
0
  6
CONTINUOUS
 62
3
 10
590.006142335668190
 20
-151.754900103169830
  0
VERTEX
  8
0
  6
CONTINUOUS
 62
3
 10
587.728119917344880
 20
-155.238130791425590
  0
VERTEX
  8
0
  6
CONTINUOUS
 62
3
 10
585.756552587716780
 20
-159.690881164489750
  0
VERTEX
  8
0
  6
CONTINUOUS
 62
3
 10
584.160311612798980
 20
-164.957606671164830
  0
VERTEX
  8
0
  6
CONTINUOUS
 62
3
 10
582.995157267757240
 20
-170.854328784342730
  0
VERTEX
  8
0
  6
CONTINUOUS
 62
3
 10
582.301791005511860
 20
-177.175061783337440
  0
SEQEND
  8
0
  6
CONTINUOUS
 62
3
  0
POLYLINE
  8
0
  6
CONTINUOUS
 62
3
 66
1
  0
VERTEX
  8
0
  6
CONTINUOUS
 62
3
 10
372.313761278484380
 20
-177.175061783337470
  0
VERTEX
  8
0
  6
CONTINUOUS
 62
3
 10
371.620395016239060
 20
-170.854328784342750
  0
VERTEX
  8
0
  6
CONTINUOUS
 62
3
 10
370.455240671197320
 20
-164.957606671164830
  0
VERTEX
  8
0
  6
CONTINUOUS
 62
3
 10
368.858999696279510
 20
-159.690881164489750
  0
VERTEX
  8
0
  6
CONTINUOUS
 62
3
 10
366.887432366651350
 20
-155.238130791425590
  0
VERTEX
  8
0
  6
CONTINUOUS
 62
3
 10
364.609409948328160
 20
-151.754900103169830
  0
VERTEX
  8
0
  6
CONTINUOUS
 62
3
 10
362.104508870480340
 20
-149.362866155189070
  0
VERTEX
  8
0
  6
CONTINUOUS
 62
3
 10
359.460230942395240
 20
-148.145588054937060
  0
VERTEX
  8
0
  6
CONTINUOUS
 62
3
 10
356.768946719146810
 20
-148.145588054937060
  0
VERTEX
  8
0
  6
CONTINUOUS
 62
3
 10
354.124668791061710
 20
-149.362866155189070
  0
VERTEX
  8
0
  6
CONTINUOUS
 62
3
 10
351.619767713213890
 20
-151.754900103169830
  0
VERTEX
  8
0
  6
CONTINUOUS
 62
3
 10
349.341745294890700
 20
-155.238130791425590
  0
VERTEX
  8
0
  6
CONTINUOUS
 62
3
 10
347.370177965262540
 20
-159.690881164489750
  0
VERTEX
  8
0
  6
CONTINUOUS
 62
3
 10
345.773936990344740
 20
-164.957606671164830
  0
VERTEX
  8
0
  6
CONTINUOUS
 62
3
 10
344.608782645302940
 20
-170.854328784342730
  0
VERTEX
  8
0
  6
CONTINUOUS
 62
3
 10
343.915416383057670
 20
-177.175061783337440
  0
SEQEND
  8
0
  6
CONTINUOUS
 62
3
  0
LINE
  8
0
  6
CONTINUOUS
 62
3
 10
372.514053241242440
 20
-177.175061783337470
 11
372.514053241242440
 21
-342.175061783337470
  0
LINE
  8
0
  6
CONTINUOUS
 62
3
 10
343.715124420299160
 20
-177.175061783337470
 11
343.715124420299160
 21
-342.175061783337470
  0
LINE
  8
0
  6
DASHDOT
 62
4
 10
515.033465460630400
 20
-196.675061783385440
 11
438.533655461193120
 21
-196.675061783385440
  0
ARC
  8
0
  6
CONTINUOUS
 62
3
 10
390.307776141997240
 20
-372.175061783337470
 40
3.000000000000000
 50
90.000000000000000
 51
180.000000000000000
  0
LINE
  8
0
  6
CONTINUOUS
 62
3
 10
477.307776141998150
 20
-369.175061783337470
 11
390.307776141997240
 21
-369.175061783337470
  0
LINE
  8
0
  6
CONTINUOUS
 62
3
 10
387.307776141997240
 20
-372.175061783337470
 11
327.307776141997690
 21
-372.175061783337470
  0
LINE
  8
0
  6
DASHDOT
 62
4
 10
347.307776141997690
 20
-339.441160019628800
 11
347.307776141997690
 21
-376.806999992870940
  0
LINE
  8
0
  6
CONTINUOUS
 62
3
 10
477.307776141998150
 20
-347.175061783337470
 11
330.307776141997690
 21
-347.175061783337470
  0
ARC
  8
0
  6
CONTINUOUS
 62
3
 10
326.307776141997690
 20
-345.702925828338040
 40
2.999999999999606
 50
311.810314895785330
 51
0.000000000000000
  0
ARC
  8
0
  6
CONTINUOUS
 62
3
 10
330.307776141997690
 20
-350.175061783337470
 40
3.000000000000000
 50
90.000000000000000
 51
180.000000000000000
  0
ARC
  8
0
  6
CONTINUOUS
 62
3
 10
477.307776141998150
 20
-662.175061783336560
 40
600.000000000000000
 50
91.519080938704334
 51
93.344152204455753
  0
LINE
  8
0
  6
CONTINUOUS
 62
3
 10
329.307776141997690
 20
-182.992424368332420
 11
329.307776141997690
 21
-345.702925828338040
  0
ARC
  8
0
  6
CONTINUOUS
 62
3
 10
449.307776141997240
 20
-182.992424368332420
 40
119.999999999999820
 50
93.344152204455668
 51
180.000000000000000
  0
ARC
  8
0
  6
CONTINUOUS
 62
3
 10
505.307776141998150
 20
-182.992424368332420
 40
120.000000000000000
 50
0.000000000000000
 51
86.655847795544332
  0
ARC
  8
0
  6
CONTINUOUS
 62
3
 10
628.307776141998150
 20
-345.702925828338040
 40
3.000000000000000
 50
180.000000000000000
 51
228.189685104214670
  0
LINE
  8
0
  6
CONTINUOUS
 62
3
 10
627.307776141998150
 20
-350.175061783337470
 11
627.307776141998150
 21
-372.175061783337470
  0
ARC
  8
0
  6
CONTINUOUS
 62
3
 10
564.307776141998150
 20
-372.175061783337470
 40
3.000000000000000
 50
0.000000000000000
 51
90.000000000000000
  0
LINE
  8
0
  6
DASHDOT
 62
4
 10
477.307776141998150
 20
-19.174980171059133
 11
477.307776141998150
 21
-62.175061783337469
  0
LINE
  8
0
  6
CONTINUOUS
 62
3
 10
477.307776141998150
 20
-369.175061783337470
 11
564.307776141998150
 21
-369.175061783337470
  0
LINE
  8
0
  6
CONTINUOUS
 62
3
 10
567.307776141998150
 20
-372.175061783337470
 11
627.307776141998150
 21
-372.175061783337470
  0
LINE
  8
0
  6
DASHDOT
 62
4
 10
607.307776141998150
 20
-339.441160019628800
 11
607.307776141998150
 21
-376.806999992870940
  0
LINE
  8
0
  6
CONTINUOUS
 62
3
 10
477.307776141998150
 20
-347.175061783337470
 11
624.307776141998150
 21
-347.175061783337470
  0
ARC
  8
0
  6
CONTINUOUS
 62
3
 10
624.307776141998150
 20
-350.175061783337470
 40
3.000000000000000
 50
0.000000000000000
 51
90.000000000000000
  0
ARC
  8
0
  6
CONTINUOUS
 62
3
 10
477.307776141998150
 20
-662.175061783336560
 40
599.999999999999090
 50
86.655847795544332
 51
88.480919061295666
  0
LINE
  8
0
  6
CONTINUOUS
 62
3
 10
625.307776141998150
 20
-182.992424368332420
 11
625.307776141998150
 21
-345.702925828338040
  0
LINE
  8
0
  6
CONTINUOUS
 62
3
 10
627.307776141998150
 20
-330.647197738336900
 11
627.307776141998150
 21
-372.175061783337470
  0
CIRCLE
  8
0
  6
CONTINUOUS
 62
3
 10
477.307776141998150
 20
-177.175061783337470
 40
50.000000000000000
  0
CIRCLE
  8
0
  6
CONTINUOUS
 62
3
 10
477.307776141998150
 20
-177.175061783337470
 40
39.999999999999886
  0
ARC
  8
0
  6
CONTINUOUS
 62
3
 10
477.307776141998150
 20
-177.175061783337470
 40
27.500000000000906
 50
196.912389803425270
 51
163.087610196574700
  0
LINE
  8
0
  6
CONTINUOUS
 62
3
 10
445.807776141998150
 20
-169.175061783337470
 11
455.807776141998150
 21
-169.175061783337470
  0
LINE
  8
0
  6
CONTINUOUS
 62
3
 10
455.807776141998150
 20
-169.175061783337470
 11
455.807776141998150
 21
-185.175061783337470
  0
LINE
  8
0
  6
CONTINUOUS
 62
3
 10
445.807776141998150
 20
-185.175061783337470
 11
455.807776141998150
 21
-185.175061783337470
  0
LINE
  8
0
  6
CONTINUOUS
 62
3
 10
445.807776141998150
 20
-169.175061783337470
 11
445.807776141998150
 21
-185.175061783337470
  0
LINE
  8
0
  6
CONTINUOUS
 62
3
 10
477.307776141998150
 20
-62.593983341615740
 11
461.807776141997240
 21
-62.593983341615740
  0
LINE
  8
0
  6
CONTINUOUS
 62
3
 10
477.307776141998150
 20
-62.593983341615740
 11
492.807776141999060
 21
-62.593983341615740
  0
LINE
  8
0
  6
CONTINUOUS
 62
3
 10
477.307776141998150
 20
-53.593983341615740
 11
461.807776141998150
 21
-53.593983341615740
  0
LINE
  8
0
  6
CONTINUOUS
 62
3
 10
477.307776141998150
 20
-53.593983341615740
 11
492.807776141998150
 21
-53.593983341615740
  0
LINE
  8
0
  6
CONTINUOUS
 62
3
 10
461.307776141998150
 20
-54.093983341615740
 11
461.307776141998150
 21
-62.093983341615740
  0
LINE
  8
0
  6
CONTINUOUS
 62
3
 10
493.307776141998150
 20
-54.093983341615740
 11
493.307776141998150
 21
-62.093983341615740
  0
ARC
  8
0
  6
CONTINUOUS
 62
3
 10
461.807776141998150
 20
-54.093983341615740
 40
0.500000000000000
 50
90.000000000000000
 51
180.000000000000000
  0
ARC
  8
0
  6
CONTINUOUS
 62
3
 10
492.807776141998150
 20
-54.093983341615740
 40
0.500000000000000
 50
0.000000000000000
 51
90.000000000000000
  0
ARC
  8
0
  6
CONTINUOUS
 62
3
 10
461.807776141997240
 20
-62.093983341615740
 40
0.499999999999091
 50
180.000000000000000
 51
270.000000000000000
  0
ARC
  8
0
  6
CONTINUOUS
 62
3
 10
492.807776141999060
 20
-62.093983341615740
 40
0.500000000000000
 50
270.000000000000000
 51
0.000000000000000
  0
LINE
  8
0
  6
DASHDOT
 62
4
 10
477.307776141998150
 20
-62.175061783337469
 11
477.307776141998150
 21
-376.450363092499860
  0
LINE
  8
0
  6
CONTINUOUS
 62
3
 10
487.807776141998150
 20
-27.175068744201553
 11
466.807776141998150
 21
-27.175068744201553
  0
LINE
  8
0
  6
CONTINUOUS
 62
3
 10
456.807776141998150
 20
-37.175068744201553
 11
456.807776141998150
 21
-62.525372381265470
  0
ARC
  8
0
  6
CONTINUOUS
 62
3
 10
477.307776141998150
 20
-47.175068744201553
 40
9.999999999999803
 50
322.123365558860430
 51
217.876634441139570
  0
LINE
  8
0
  6
DASHDOT
 62
4
 10
500.475689140879690
 20
-47.175068744201553
 11
453.453175239345000
 21
-47.175068744201553
  0
ARC
  8
0
  6
CONTINUOUS
 62
3
 10
466.807776141998150
 20
-37.175068744201553
 40
10.000000000000000
 50
90.000000000000000
 51
180.000000000000000
  0
LINE
  8
0
  6
CONTINUOUS
 62
3
 10
497.807776141998150
 20
-37.175068744201553
 11
497.807776141998150
 21
-62.525372381265470
  0
ARC
  8
0
  6
CONTINUOUS
 62
3
 10
487.807776141998150
 20
-37.175068744201553
 40
10.000000000000000
 50
0.000000000000000
 51
90.000000000000000
  0
CIRCLE
  8
0
  6
CONTINUOUS
 62
4
 10
477.307776141998150
 20
-177.175061783337470
 40
5.000000000000000
  0
CIRCLE
  8
0
  6
CONTINUOUS
 62
3
 10
477.307776141998150
 20
-177.175061783337470
 40
4.187999999999988
  0
ENDSEC
  0
EOF
