  0
SECTION
  2
HEADER
  9
$FILLMODE
 70
1
  9
$TEXTSTYLE
  7
STANDARD1
  9
$ACADVER
  1
AC1009
  9
$DIMASZ
 40
1.931851648807023
  9
$DIMEXE
 40
2.000000000000000
  9
$DIMEXO
 40
1.000000000000000
  9
$DIMLFAC
 40
1.000000000000000
  9
$DIMSCALE
 40
1.000000000000000
  9
$DIMTAD
 70
1
  9
$DIMTFAC
 40
0.714285731315613
  9
$DIMTXT
 40
3.200000047683716
  9
$LUPREC
 70
3
  9
$TEXTSIZE
 40
2.799999952316284
  9
$REGENMODE
 70
1
  0
ENDSEC
  0
SECTION
  2
TABLES
  0
TABLE
  2
LTYPE
 70
4
  0
LTYPE
  2
CONTINUOUS
 70
64
  3
Solid line
 72
65
 73
0
 40
0.0
  0
LTYPE
  2
DASHED
 70
64
  3
-- -- -- -- -- -- -- -- -- -- -- -- -- -- --
 72
65
 73
2
 40
0.75
 49
0.5
 49
-0.25
  0
LTYPE
  2
DASHDOT
 70
64
  3
__ . __ . __ . __ . __ . __ . __ . __ . __ . __
 72
65
 73
4
 40
1.0
 49
0.5
 49
-0.25
 49
0.0
 49
-0.25
  0
LTYPE
  2
DIVIDE
 70
64
  3
__ . . __ . . __ . . __ . . __ . . __ . . __
 72
65
 73
6
 40
1.25
 49
0.5
 49
-0.25
 49
0.0
 49
-0.25
 49
0.0
 49
-0.25
  0
ENDTAB
  0
TABLE
  2
LAYER
 70
1
  0
LAYER
  2
0
 70
64
 62
2
  6
CONTINUOUS
  0
ENDTAB
  0
TABLE
  2
STYLE
 70
4
  0
STYLE
  2
STANDARD1
 70
64
 40
0.0
 41
1.0
 50
0.0
 71
0
 42
2.799999952316284
  3
MONOTXT
  4
BIGFONT
  0
STYLE
  2
STANDARD2
 70
68
 40
0.0
 41
1.0
 50
0.0
 71
0
 42
2.799999952316284
  3
MONOTXT
  4
BIGFONT
  0
STYLE
  2
STANDARD3
 70
64
 40
0.0
 41
1.0
 50
0.0
 71
0
 42
2.799999952316284
  3
MONOTXT
  4

  0
STYLE
  2
STANDARD4
 70
68
 40
0.0
 41
1.0
 50
0.0
 71
0
 42
2.799999952316284
  3
MONOTXT
  4

  0
ENDTAB
  0
TABLE
  2
VIEW
 70
0
  0
ENDTAB
  0
ENDSEC
  0
SECTION
  2
BLOCKS
  0
BLOCK
  8
0
  2
SYM1
 70
64
 10
0.000000000000000
 20
0.000000000000000
  0
POINT
  8
0
  6
CONTINUOUS
 62
3
 10
0.000000000000000
 20
0.000000000000000
  0
LINE
  8
0
  6
CONTINUOUS
 62
3
 10
0.000000000000000
 20
-6.500000000000000
 11
-0.000000000000000
 21
6.500000000000000
  0
LINE
  8
0
  6
CONTINUOUS
 62
3
 10
-7.999999046325684
 20
5.633875846862793
 11
-7.999999046325684
 21
-5.634070396423340
  0
LINE
  8
0
  6
CONTINUOUS
 62
3
 10
0.000000000000000
 20
6.500000000000000
 11
-7.499999046325684
 21
6.500000000000000
  0
LINE
  8
0
  6
CONTINUOUS
 62
3
 10
-0.000000000000000
 20
-6.500000000000000
 11
-7.499998092651367
 21
-6.500000000000000
  0
LINE
  8
0
  6
CONTINUOUS
 62
3
 10
-7.499999203818277
 20
6.499999909101064
 11
-7.999999021366804
 21
5.633876130311293
  0
LINE
  8
0
  6
CONTINUOUS
 62
3
 10
-7.499997911632022
 20
-6.499999445138201
 11
-7.999998623386432
 21
-5.634070287011241
  0
LINE
  8
0
  6
CONTINUOUS
 62
3
 10
-7.499999046325684
 20
6.500000000000000
 11
-7.499999046325684
 21
-6.500000000000000
  0
ENDBLK
  8
0
  0
BLOCK
  8
0
  2
SYM2
 70
64
 10
0.000000000000000
 20
0.000000000000000
  0
ARC
  8
0
  6
CONTINUOUS
 62
3
 10
4.250000000000000
 20
-0.000017508195015
 40
9.750000000000000
 50
157.379852817599810
 51
202.619583464422590
  0
ARC
  8
0
  6
CONTINUOUS
 62
3
 10
-2.779975891113281
 20
5.625011444091797
 40
2.720000267028809
 50
179.999745461767870
 51
223.599738934167330
  0
ARC
  8
0
  6
CONTINUOUS
 62
3
 10
-2.780022621154785
 20
-5.624988555908203
 40
2.720000267028809
 50
136.399751989368410
 51
179.999745461767870
  0
LINE
  8
0
  6
CONTINUOUS
 62
3
 10
-4.749979019169359
 20
3.750014305102241
 11
0.000017610677105
 21
3.749996185290124
  0
LINE
  8
0
  6
CONTINUOUS
 62
3
 10
-4.750011996199395
 20
-3.749974250803856
 11
-0.000011530566302
 21
-3.749994277972148
  0
LINE
  8
0
  6
CONTINUOUS
 62
3
 10
0.000030896794669
 20
7.500000000000000
 11
-0.000030896794669
 21
-7.500000000000000
  0
LINE
  8
0
  6
CONTINUOUS
 62
3
 10
-4.749964714019825
 20
7.500017166133830
 11
0.000031348552056
 21
7.499999046315238
  0
LINE
  8
0
  6
CONTINUOUS
 62
3
 10
-5.499983083855739
 20
6.300024529816085
 11
-4.749977372865317
 21
7.500023360260684
  0
LINE
  8
0
  6
CONTINUOUS
 62
3
 10
-5.500023365026398
 20
-6.299976341312318
 11
-5.499970912939614
 21
6.300019271785827
  0
LINE
  8
0
  6
CONTINUOUS
 62
3
 10
-4.750049139977591
 20
-7.499993996888350
 11
-5.500046248261697
 21
-6.299990408291990
  0
LINE
  8
0
  6
CONTINUOUS
 62
3
 10
-0.000030423851130
 20
-7.499999046330735
 11
-4.750025899805295
 21
-7.499979019174840
  0
POINT
  8
0
  6
CONTINUOUS
 62
3
 10
0.000000000000000
 20
0.000000000000000
  0
ENDBLK
  8
0
  0
BLOCK
  8
0
  2
SYM3
 70
64
 10
0.000000000000000
 20
0.000000000000000
  0
POINT
  8
0
  6
CONTINUOUS
 62
3
 10
0.000000000000000
 20
0.000000000000000
  0
LINE
  8
0
  6
CONTINUOUS
 62
3
 10
0.000000000000000
 20
8.000000000000000
 11
0.000000000000000
 21
-8.000000000000000
  0
LINE
  8
0
  6
CONTINUOUS
 62
3
 10
-10.000000476827037
 20
6.960612565696465
 11
-9.999999523152582
 21
-6.960911482155097
  0
LINE
  8
0
  6
CONTINUOUS
 62
3
 10
0.000000000000000
 20
8.000000000000000
 11
-9.399999618530273
 21
8.000000000000000
  0
LINE
  8
0
  6
CONTINUOUS
 62
3
 10
-0.000000000000000
 20
-8.000000000000000
 11
-9.399999618530273
 21
-8.000000000000000
  0
POINT
  8
0
  6
CONTINUOUS
 62
3
 10
0.000000000000000
 20
0.000000000000000
  0
LINE
  8
0
  6
CONTINUOUS
 62
3
 10
-9.399995837072993
 20
7.999998091430371
 11
-9.999996234594676
 21
6.960609445139085
  0
LINE
  8
0
  6
CONTINUOUS
 62
3
 10
-9.399998831389837
 20
-7.999998896492343
 11
-9.999998372115272
 21
-6.960910396167719
  0
LINE
  8
0
  6
CONTINUOUS
 62
3
 10
-9.399999618530273
 20
8.000000000000000
 11
-9.399999618530273
 21
-8.000000000000000
  0
ENDBLK
  8
0
  0
BLOCK
  8
0
  2
SYM4
 70
64
 10
0.000000000000000
 20
0.000000000000000
  0
CIRCLE
  8
0
  6
CONTINUOUS
 62
3
 10
0.000000000000000
 20
0.000000000000000
 40
5.633955001831055
  0
CIRCLE
  8
0
  6
CONTINUOUS
 62
3
 10
0.000000000000000
 20
0.000000000000000
 40
6.500000000000000
  0
POINT
  8
0
  6
CONTINUOUS
 62
3
 10
0.000000000000000
 20
0.000000000000000
  0
LINE
  8
0
  6
CONTINUOUS
 62
3
 10
-2.999996662140960
 20
-1.732045999551255
 11
-2.999997615815242
 21
1.732051977133316
  0
LINE
  8
0
  6
CONTINUOUS
 62
3
 10
2.999996662140697
 20
1.732046953225571
 11
2.999997615814979
 21
-1.732051023458999
  0
LINE
  8
0
  6
CONTINUOUS
 62
3
 10
0.000006701720849
 20
3.464096999935236
 11
-2.999997939551520
 21
1.732051821705568
  0
LINE
  8
0
  6
CONTINUOUS
 62
3
 10
2.999998112093635
 20
-1.732051392778772
 11
-0.000004464412200
 21
-3.464098365415111
  0
LINE
  8
0
  6
CONTINUOUS
 62
3
 10
0.000006618601731
 20
3.464096896385627
 11
2.999997425948948
 21
1.732046782136365
  0
LINE
  8
0
  6
CONTINUOUS
 62
3
 10
-0.000004704988612
 20
-3.464098175748802
 11
-2.999997577100373
 21
-1.732046218032735
  0
POINT
  8
0
  6
CONTINUOUS
 62
3
 10
0.500000119209290
 20
6.500000000000000
  0
POINT
  8
0
  6
CONTINUOUS
 62
3
 10
0.000000000000000
 20
5.633955001831055
  0
ENDBLK
  8
0
  0
BLOCK
  8
0
  2
SYM5
 70
64
 10
0.000000000000000
 20
0.000000000000000
  0
CIRCLE
  8
0
  6
CONTINUOUS
 62
3
 10
0.000000000000000
 20
0.000000000000000
 40
6.960738182067871
  0
CIRCLE
  8
0
  6
CONTINUOUS
 62
3
 10
0.000000000000000
 20
0.000000000000000
 40
8.000000000000000
  0
POINT
  8
0
  6
CONTINUOUS
 62
3
 10
0.000000000000000
 20
0.000000000000000
  0
LINE
  8
0
  6
CONTINUOUS
 62
3
 10
-3.999997139938404
 20
-2.309395532903077
 11
-3.999999047287009
 21
2.314052838984130
  0
LINE
  8
0
  6
CONTINUOUS
 62
3
 10
3.999998569010026
 20
2.314043870120289
 11
3.999999522684329
 21
-2.309402594418285
  0
LINE
  8
0
  6
CONTINUOUS
 62
3
 10
3.999998221725946
 20
2.314044355750525
 11
0.000007450274552
 21
4.623449687881021
  0
LINE
  8
0
  6
CONTINUOUS
 62
3
 10
-0.000006538738603
 20
-4.618798907292330
 11
-3.999997310189656
 21
-2.309395428508765
  0
LINE
  8
0
  6
CONTINUOUS
 62
3
 10
-3.999998875528718
 20
2.314052870410592
 11
0.000007037532896
 21
4.623449279581905
  0
LINE
  8
0
  6
CONTINUOUS
 62
3
 10
3.999999097720604
 20
-2.309402025869701
 11
-0.000006540038783
 21
-4.618798985645469
  0
ENDBLK
  8
0
  0
BLOCK
  8
0
  2
SYM6
 70
64
 10
0.000000000000000
 20
0.000000000000000
  0
POINT
  8
0
  6
CONTINUOUS
 62
3
 10
0.000000000000000
 20
0.000000000000000
  0
LINE
  8
0
  6
CONTINUOUS
 62
3
 10
0.002401208367701
 20
-7.504162813807056
 11
-6.495187652077846
 21
-3.749994904254493
  0
LINE
  8
0
  6
CONTINUOUS
 62
3
 10
-6.495189094719432
 20
-3.749993872743451
 11
-6.497592351816327
 21
3.754165100950397
  0
LINE
  8
0
  6
CONTINUOUS
 62
3
 10
-6.497593715787616
 20
3.754167812298078
 11
-0.002401379516073
 21
7.504164176415429
  0
LINE
  8
0
  6
CONTINUOUS
 62
3
 10
-0.002401208367701
 20
7.504162813807056
 11
6.495187652077846
 21
3.749994904254493
  0
LINE
  8
0
  6
CONTINUOUS
 62
3
 10
6.495189094719432
 20
3.749993872743451
 11
6.497592351816327
 21
-3.754165100950397
  0
LINE
  8
0
  6
CONTINUOUS
 62
3
 10
6.497593715787616
 20
-3.754167812298078
 11
0.002401379516073
 21
-7.504164176415429
  0
CIRCLE
  8
0
  6
CONTINUOUS
 62
3
 10
0.000000000000000
 20
0.000000000000000
 40
6.500000000000000
  0
ENDBLK
  8
0
  0
BLOCK
  8
0
  2
SYM7
 70
64
 10
0.000000000000000
 20
0.000000000000000
  0
POINT
  8
0
  6
CONTINUOUS
 62
3
 10
0.000000000000000
 20
0.000000000000000
  0
LINE
  8
0
  6
CONTINUOUS
 62
3
 10
0.002401208367701
 20
-7.504162813807056
 11
-6.495187652077846
 21
-3.749994904254493
  0
LINE
  8
0
  6
CONTINUOUS
 62
3
 10
-6.495189094719432
 20
-3.749993872743451
 11
-6.497592351816327
 21
3.754165100950397
  0
LINE
  8
0
  6
CONTINUOUS
 62
3
 10
-6.497593715787616
 20
3.754167812298078
 11
-0.002401379516073
 21
7.504164176415429
  0
LINE
  8
0
  6
CONTINUOUS
 62
3
 10
-0.002401208367701
 20
7.504162813807056
 11
6.495187652077846
 21
3.749994904254493
  0
LINE
  8
0
  6
CONTINUOUS
 62
3
 10
6.495189094719432
 20
3.749993872743451
 11
6.497592351816327
 21
-3.754165100950397
  0
LINE
  8
0
  6
CONTINUOUS
 62
3
 10
6.497593715787616
 20
-3.754167812298078
 11
0.002401379516073
 21
-7.504164176415429
  0
CIRCLE
  8
0
  6
CONTINUOUS
 62
3
 10
0.000000000000000
 20
0.000000000000000
 40
6.500000000000000
  0
ENDBLK
  8
0
  0
ENDSEC
  0
SECTION
  2
ENTITIES
  0
ARC
  8
0
  6
CONTINUOUS
 62
3
 10
-496.189642491100070
 20
-141.447984484832770
 40
6.099999427795406
 50
84.601927898108471
 51
185.398089404735120
  0
POINT
  8
0
  6
CONTINUOUS
 62
3
 10
-498.452384056027090
 20
-139.185242919905730
  0
LINE
  8
0
  6
CONTINUOUS
 62
3
 10
-501.775785792733930
 20
-142.508644656612600
 11
-495.128982319320240
 21
-135.861841183198860
  0
LINE
  8
0
  6
CONTINUOUS
 62
3
 10
-502.088924401702740
 20
-142.256097705762220
 11
-495.411825099229820
 21
-135.578998403289290
  0
LINE
  8
0
  6
CONTINUOUS
 62
3
 10
-495.128982319320240
 20
-135.861841183198860
 11
-495.615785711025860
 21
-135.375037791493270
  0
LINE
  8
0
  6
CONTINUOUS
 62
3
 10
-501.775785792733930
 20
-142.508644656612600
 11
-502.262589184439550
 21
-142.021841264906980
  0
ARC
  8
0
  6
CONTINUOUS
 62
3
 10
-496.189642491100070
 20
-240.301512764452070
 40
6.099999427795398
 50
174.601910595264880
 51
275.398072101891500
  0
POINT
  8
0
  6
CONTINUOUS
 62
3
 10
-498.452384056027090
 20
-242.564254329379110
  0
LINE
  8
0
  6
CONTINUOUS
 62
3
 10
-501.775785792733930
 20
-239.240852592672240
 11
-495.128982319320240
 21
-245.887656066085980
  0
LINE
  8
0
  6
CONTINUOUS
 62
3
 10
-502.088924401702740
 20
-239.493399543522630
 11
-495.411825099229820
 21
-246.170498845995550
  0
LINE
  8
0
  6
CONTINUOUS
 62
3
 10
-495.128982319320240
 20
-245.887656066085980
 11
-495.615785711025860
 21
-246.374459457791570
  0
LINE
  8
0
  6
CONTINUOUS
 62
3
 10
-501.775785792733930
 20
-239.240852592672240
 11
-502.262589184439550
 21
-239.727655984377860
  0
ARC
  8
0
  6
CONTINUOUS
 62
3
 10
-397.336114211480950
 20
-240.301512764452070
 40
6.099999427795406
 50
264.601927898108500
 51
5.398089404735109
  0
POINT
  8
0
  6
CONTINUOUS
 62
3
 10
-395.073372646553930
 20
-242.564254329379110
  0
LINE
  8
0
  6
CONTINUOUS
 62
3
 10
-391.749970909847090
 20
-239.240852592672240
 11
-398.396774383260780
 21
-245.887656066085980
  0
LINE
  8
0
  6
CONTINUOUS
 62
3
 10
-391.436832300878280
 20
-239.493399543522630
 11
-398.113931603351200
 21
-246.170498845995550
  0
LINE
  8
0
  6
CONTINUOUS
 62
3
 10
-398.396774383260780
 20
-245.887656066085980
 11
-397.909970991555160
 21
-246.374459457791570
  0
LINE
  8
0
  6
CONTINUOUS
 62
3
 10
-391.749970909847090
 20
-239.240852592672240
 11
-391.263167518141470
 21
-239.727655984377860
  0
ARC
  8
0
  6
CONTINUOUS
 62
3
 10
-397.336114211480950
 20
-141.447984484832770
 40
6.099999427795398
 50
354.601910595264880
 51
95.398072101891529
  0
POINT
  8
0
  6
CONTINUOUS
 62
3
 10
-395.073372646553930
 20
-139.185242919905730
  0
LINE
  8
0
  6
CONTINUOUS
 62
3
 10
-391.749970909847090
 20
-142.508644656612600
 11
-398.396774383260780
 21
-135.861841183198860
  0
LINE
  8
0
  6
CONTINUOUS
 62
3
 10
-391.436832300878280
 20
-142.256097705762220
 11
-398.113931603351200
 21
-135.578998403289290
  0
LINE
  8
0
  6
CONTINUOUS
 62
3
 10
-398.396774383260780
 20
-135.861841183198860
 11
-397.909970991555160
 21
-135.375037791493270
  0
LINE
  8
0
  6
CONTINUOUS
 62
3
 10
-391.749970909847090
 20
-142.508644656612600
 11
-391.263167518141470
 21
-142.021841264906980
  0
ARC
  8
0
  6
CONTINUOUS
 62
3
 10
-12.211673529779773
 20
-323.018527223572730
 40
5.000000000000000
 50
0.000000000000000
 51
27.575223151408750
  0
ARC
  8
0
  6
CONTINUOUS
 62
3
 10
-40.029424795781779
 20
-265.431517976774220
 40
2.999999999999671
 50
27.575223151409268
 51
90.000000000000000
  0
LINE
  8
0
  6
CONTINUOUS
 62
3
 10
-30.123504956351098
 20
-262.431517976774100
 11
-37.370213266832934
 21
-262.431517976774220
  0
LINE
  8
0
  6
CONTINUOUS
 62
3
 10
-41.211673529780910
 20
-261.744464425799830
 11
-41.211673529780228
 21
-215.859813557128180
  0
LINE
  8
0
  6
CONTINUOUS
 62
3
 10
-33.018951928344677
 20
-272.374748624642390
 11
-36.211673529779773
 21
-272.374748624642390
  0
LINE
  8
0
  6
CONTINUOUS
 62
3
 10
-27.921948478742934
 20
-263.997640523894920
 11
-12.711655674794429
 21
-296.616218704939120
  0
LINE
  8
0
  6
CONTINUOUS
 62
3
 10
-41.211673529779773
 20
-261.744464425799720
 11
-41.211673529779773
 21
-267.374748624642390
  0
ARC
  8
0
  6
CONTINUOUS
 62
3
 10
-36.211673529779773
 20
-267.374748624642390
 40
5.000000000000000
 50
180.000000000000000
 51
270.000000000000000
  0
ARC
  8
0
  6
CONTINUOUS
 62
3
 10
-46.211673529780683
 20
-261.744464425799720
 40
5.000000000000909
 50
0.000000000000000
 51
87.999999999998934
  0
ARC
  8
0
  6
CONTINUOUS
 62
3
 10
-59.711673529781137
 20
-252.850535676183770
 40
3.000000000000000
 50
0.000000000000000
 51
86.999999999998678
  0
LINE
  8
0
  6
CONTINUOUS
 62
3
 10
-46.037176046268087
 20
-256.747510290704330
 11
-53.816372019888604
 21
-256.475854781278370
  0
LINE
  8
0
  6
CONTINUOUS
 62
3
 10
-56.711673529781137
 20
-253.477682300221090
 11
-56.711673529781137
 21
-252.850535676183770
  0
LINE
  8
0
  6
CONTINUOUS
 62
3
 10
-44.054665661051786
 20
-250.666967650808490
 11
-68.711673529783411
 21
-249.374748624642170
  0
ARC
  8
0
  6
CONTINUOUS
 62
3
 10
-53.711673529781137
 20
-253.477682300221090
 40
3.000000000000000
 50
180.000000000000000
 51
268.000000000000680
  0
ARC
  8
0
  6
CONTINUOUS
 62
3
 10
-44.211673529780683
 20
-253.662856255072140
 40
3.000000000000000
 50
359.999999999997780
 51
86.999999999998678
  0
LINE
  8
0
  6
CONTINUOUS
 62
3
 10
-10.893916929207990
 20
-300.514372024527460
 11
-7.211673529779773
 21
-308.410968477602070
  0
LINE
  8
0
  6
CONTINUOUS
 62
3
 10
-37.370213266832934
 20
-264.042779684545050
 11
-7.779654314864644
 21
-320.703963403190640
  0
LINE
  8
0
  6
CONTINUOUS
 62
3
 10
-165.711673529780570
 20
268.625251375357440
 11
-68.711673529780683
 21
268.625251375357440
  0
LINE
  8
0
  6
CONTINUOUS
 62
3
 10
-165.843882008988770
 20
149.625251375357660
 11
-68.711673529780683
 21
149.625251375357660
  0
LINE
  8
0
  6
CONTINUOUS
 62
4
 10
-165.711673529780570
 20
152.125251375357660
 11
-68.711673529780683
 21
152.125251375357660
  0
LINE
  8
0
  6
CONTINUOUS
 62
4
 10
-165.711673529780570
 20
153.125251375357660
 11
-68.711673529780683
 21
153.125251375357660
  0
LINE
  8
0
  6
CONTINUOUS
 62
4
 10
-165.711673529780570
 20
154.125251375357660
 11
-68.711673529780683
 21
154.125251375357660
  0
LINE
  8
0
  6
CONTINUOUS
 62
4
 10
-165.711673529780570
 20
158.809717188581940
 11
-68.711673529780683
 21
158.809717188581940
  0
LINE
  8
0
  6
CONTINUOUS
 62
4
 10
-165.711673529780570
 20
163.759464656887700
 11
-68.711673529780683
 21
163.759464656887700
  0
LINE
  8
0
  6
CONTINUOUS
 62
4
 10
-165.711673529780570
 20
171.806066319621720
 11
-68.711673529780683
 21
171.806066319621720
  0
LINE
  8
0
  6
CONTINUOUS
 62
4
 10
-165.711673529780570
 20
173.410714235183780
 11
-68.711673529780683
 21
173.410714235183780
  0
LINE
  8
0
  6
CONTINUOUS
 62
4
 10
-165.711673529780570
 20
177.374459658983310
 11
-68.711673529780683
 21
177.374459658983310
  0
LINE
  8
0
  6
CONTINUOUS
 62
4
 10
-165.711673529780570
 20
178.842817048787940
 11
-68.711673529780683
 21
178.842817048787940
  0
LINE
  8
0
  6
CONTINUOUS
 62
4
 10
-165.711673529780570
 20
182.933317582877810
 11
-68.711673529780683
 21
182.933317582877810
  0
LINE
  8
0
  6
CONTINUOUS
 62
4
 10
-165.711673529780570
 20
184.295197918227070
 11
-68.711673529780683
 21
184.295197918227070
  0
LINE
  8
0
  6
CONTINUOUS
 62
4
 10
-165.711673529780570
 20
188.485751649769270
 11
-68.711673529780683
 21
188.485751649769270
  0
LINE
  8
0
  6
CONTINUOUS
 62
4
 10
-165.711673529780570
 20
189.751989565856490
 11
-68.711673529780683
 21
189.751989565856490
  0
LINE
  8
0
  6
CONTINUOUS
 62
4
 10
-165.711673529780570
 20
246.444436431093610
 11
-68.711673529780683
 21
246.444436431093610
  0
LINE
  8
0
  6
CONTINUOUS
 62
4
 10
-165.711673529780570
 20
244.839788515531550
 11
-68.711673529780683
 21
244.839788515531550
  0
LINE
  8
0
  6
CONTINUOUS
 62
4
 10
-165.711673529780570
 20
240.876043091732020
 11
-68.711673529780683
 21
240.876043091732020
  0
LINE
  8
0
  6
CONTINUOUS
 62
4
 10
-165.711673529780570
 20
239.407685701927390
 11
-68.711673529780683
 21
239.407685701927390
  0
LINE
  8
0
  6
CONTINUOUS
 62
4
 10
-165.711673529780570
 20
235.317185167837520
 11
-68.711673529780683
 21
235.317185167837520
  0
LINE
  8
0
  6
CONTINUOUS
 62
4
 10
-165.711673529780570
 20
233.955304832488250
 11
-68.711673529780683
 21
233.955304832488250
  0
LINE
  8
0
  6
CONTINUOUS
 62
4
 10
-165.711673529780570
 20
229.764751100946060
 11
-68.711673529780683
 21
229.764751100946060
  0
LINE
  8
0
  6
CONTINUOUS
 62
4
 10
-165.711673529780570
 20
228.498513184858840
 11
-68.711673529780683
 21
228.498513184858840
  0
LINE
  8
0
  6
CONTINUOUS
 62
4
 10
-165.711673529780570
 20
254.491038093827630
 11
-68.711673529780683
 21
254.491038093827630
  0
LINE
  8
0
  6
CONTINUOUS
 62
4
 10
-165.711673529780570
 20
259.440785562133390
 11
-68.711673529780683
 21
259.440785562133390
  0
LINE
  8
0
  6
CONTINUOUS
 62
4
 10
-165.711673529780570
 20
264.125251375357660
 11
-68.711673529780683
 21
264.125251375357660
  0
LINE
  8
0
  6
CONTINUOUS
 62
4
 10
-165.711673529780570
 20
265.125251375357660
 11
-68.711673529780683
 21
265.125251375357660
  0
LINE
  8
0
  6
CONTINUOUS
 62
4
 10
-165.711673529780570
 20
266.125251375357660
 11
-68.711673529780683
 21
266.125251375357660
  0
LINE
  8
0
  6
CONTINUOUS
 62
3
 10
-98.711673529780569
 20
268.625251375357660
 11
-68.711673529780683
 21
268.625251375357660
  0
ARC
  8
0
  6
CONTINUOUS
 62
3
 10
-22.711673529780455
 20
114.296807501322060
 40
5.000000000000153
 50
92.000000000003595
 51
180.000000000000000
  0
LINE
  8
0
  6
CONTINUOUS
 62
3
 10
-27.711673529780910
 20
63.923803068498955
 11
-27.711673529780910
 21
114.296807501322060
  0
LINE
  8
0
  6
CONTINUOUS
 62
3
 10
-22.886171013293279
 20
119.293761636417680
 11
-7.211673529781365
 21
119.841127149938640
  0
LINE
  8
0
  6
CONTINUOUS
 62
3
 10
7.601385470957666
 20
280.267361461402000
 11
28.288326470219090
 21
280.267361461402000
  0
ARC
  8
0
  6
CONTINUOUS
 62
3
 10
3.901754425853596
 20
283.267361461402000
 40
3.000000000000000
 50
270.000000000000000
 51
334.328072254076120
  0
LINE
  8
0
  6
CONTINUOUS
 62
3
 10
2.788326470219090
 20
209.125251375357440
 11
2.788326470219090
 21
309.020435816791580
  0
INSERT
  8
0
  2
SYM1
 10
12.788326470217271
 20
219.625251375357440
 41
-1.000000000000000
 50
180.000000000000030
  0
LINE
  8
0
  6
CONTINUOUS
 62
3
 10
7.601385470957666
 20
137.983141289313150
 11
28.288326470219090
 21
137.983141289313150
  0
LINE
  8
0
  6
CONTINUOUS
 62
3
 10
17.521607013261928
 20
108.457928419108830
 11
2.788326470219090
 21
109.230066933923580
  0
LINE
  8
0
  6
CONTINUOUS
 62
3
 10
6.605622583382683
 20
131.168137117797870
 11
27.992194627748177
 21
86.674347519889352
  0
ARC
  8
0
  6
CONTINUOUS
 62
3
 10
3.901754425853596
 20
129.868484477012770
 40
2.999999999999903
 50
25.671927745923867
 51
90.000000000000000
  0
ARC
  8
0
  6
CONTINUOUS
 62
3
 10
3.901754425853596
 20
134.983141289313150
 40
2.999999999999903
 50
25.671927745923867
 51
90.000000000000000
  0
LINE
  8
0
  6
CONTINUOUS
 62
3
 10
6.605622583382683
 20
136.282793930098250
 11
27.992194627748177
 21
91.789004332189734
  0
LINE
  8
0
  6
CONTINUOUS
 62
3
 10
2.788326470219090
 20
209.125251375357660
 11
2.788326470219090
 21
109.230066933923580
  0
INSERT
  8
0
  2
SYM1
 10
12.788326470217271
 20
198.625251375357660
  0
INSERT
  8
0
  2
SYM2
 10
-7.211673529781137
 20
272.764861682146770
  0
LINE
  8
0
  6
CONTINUOUS
 62
3
 10
-7.211673529781137
 20
304.125251375358570
 11
-7.211673529781137
 21
209.125251375357660
  0
LINE
  8
0
  6
CONTINUOUS
 62
3
 10
-7.211673529781137
 20
219.061743048461440
 11
2.788326470218863
 21
219.061743048461440
  0
LINE
  8
0
  6
CONTINUOUS
 62
3
 10
-68.711673529780683
 20
268.625251375357660
 11
-68.711673529780683
 21
209.125251375357660
  0
LINE
  8
0
  6
CONTINUOUS
 62
3
 10
-12.711687901494329
 20
268.625251375357660
 11
-68.711673529780683
 21
268.625251375357660
  0
LINE
  8
0
  6
CONTINUOUS
 62
3
 10
-7.211673529781137
 20
199.188759702253890
 11
2.788326470218863
 21
199.188759702253890
  0
ARC
  8
0
  6
CONTINUOUS
 62
3
 10
-4.211673529781137
 20
114.125251375356810
 40
3.000000000000000
 50
180.000000000000000
 51
270.000000000000000
  0
LINE
  8
0
  6
CONTINUOUS
 62
3
 10
-4.211673529781137
 20
111.125251375356810
 11
2.788326470218863
 21
111.125251375356810
  0
LINE
  8
0
  6
CONTINUOUS
 62
3
 10
-12.712183282486379
 20
149.625251375357720
 11
-68.711673529780683
 21
149.625251375357720
  0
LINE
  8
0
  6
CONTINUOUS
 62
3
 10
-68.711673529780683
 20
149.625251375357720
 11
-68.711673529780683
 21
209.125251375357660
  0
LINE
  8
0
  6
CONTINUOUS
 62
3
 10
-7.211673529781137
 20
114.125251375356810
 11
-7.211673529781137
 21
209.125251375357660
  0
INSERT
  8
0
  2
SYM2
 10
-7.211673529781137
 20
145.485641068568610
 41
-1.000000000000000
 50
180.000000000000000
  0
LINE
  8
0
  6
DASHDOT
 62
4
 10
314.695217311513260
 20
209.125251375357660
 11
-290.221226836623830
 21
209.125251375357660
  0
LINE
  8
0
  6
CONTINUOUS
 62
3
 10
-68.711673529780683
 20
268.625251375357440
 11
-68.711673529780683
 21
209.125251375357660
  0
LINE
  8
0
  6
CONTINUOUS
 62
3
 10
-68.711673529780683
 20
149.625251375357720
 11
-68.711673529780683
 21
209.125251375357660
  0
ARC
  8
0
  6
CONTINUOUS
 62
3
 10
-52.711673529779006
 20
265.625251375357720
 40
3.000000000000000
 50
0.000000000000000
 51
90.000000000000000
  0
LINE
  8
0
  6
CONTINUOUS
 62
3
 10
-49.711673529779006
 20
227.125251375357720
 11
-49.711673529779006
 21
265.625251375357720
  0
ARC
  8
0
  6
CONTINUOUS
 62
3
 10
-46.711673529779006
 20
227.125251375357720
 40
3.000000000000000
 50
180.000000000000000
 51
270.000000000000000
  0
ARC
  8
0
  6
CONTINUOUS
 62
3
 10
-46.711673529779020
 20
191.125251375357720
 40
3.000000000000000
 50
90.000000000000000
 51
180.000000000000000
  0
LINE
  8
0
  6
CONTINUOUS
 62
3
 10
-49.711673529779006
 20
152.625251375357720
 11
-49.711673529779006
 21
191.125251375357720
  0
ARC
  8
0
  6
CONTINUOUS
 62
3
 10
-52.711673529779020
 20
152.625251375357720
 40
3.000000000000000
 50
270.000000000000000
 51
0.000000000000000
  0
CIRCLE
  8
0
  6
CONTINUOUS
 62
3
 10
-27.211673529779773
 20
209.125251375357720
 40
10.500000000000000
  0
ARC
  8
0
  6
CONTINUOUS
 62
3
 10
-10.211673529779773
 20
227.125251375357720
 40
3.000000000000000
 50
270.000000000000000
 51
0.000000000000000
  0
LINE
  8
0
  6
CONTINUOUS
 62
3
 10
-46.711673529779006
 20
224.125251375357720
 11
-10.211673529779773
 21
224.125251375357720
  0
ARC
  8
0
  6
CONTINUOUS
 62
3
 10
-10.211673529779773
 20
191.125251375357720
 40
3.000000000000000
 50
0.000000000000000
 51
90.000000000000000
  0
LINE
  8
0
  6
CONTINUOUS
 62
3
 10
-46.711673529779020
 20
194.125251375357720
 11
-10.211673529779773
 21
194.125251375357720
  0
LINE
  8
0
  6
DASHDOT
 62
4
 10
-27.211673529779773
 20
224.928875974534320
 11
-27.211673529779773
 21
195.412529178284100
  0
LINE
  8
0
  6
CONTINUOUS
 62
4
 10
-165.711673529780570
 20
224.125251375357660
 11
-46.711673529779006
 21
224.125251375357660
  0
LINE
  8
0
  6
CONTINUOUS
 62
4
 10
-165.711673529780570
 20
194.125251375357660
 11
-46.711673529779020
 21
194.125251375357690
  0
LINE
  8
0
  6
CONTINUOUS
 62
3
 10
-68.711673529779659
 20
-249.374748624642340
 11
-68.711673529779659
 21
-190.874748624642340
  0
LINE
  8
0
  6
CONTINUOUS
 62
3
 10
-68.711673529779659
 20
-249.374748624642340
 11
-97.272119751689502
 21
-249.374748624642340
  0
LINE
  8
0
  6
CONTINUOUS
 62
4
 10
-93.261673529780978
 20
-222.625540341016690
 11
-68.711673529779659
 21
-222.625540341016690
  0
LINE
  8
0
  6
CONTINUOUS
 62
4
 10
-93.261673529780978
 20
-226.589285764816220
 11
-68.711673529779659
 21
-226.589285764816220
  0
LINE
  8
0
  6
CONTINUOUS
 62
4
 10
-93.261673529780978
 20
-228.193933680378280
 11
-68.711673529779659
 21
-228.193933680378280
  0
LINE
  8
0
  6
CONTINUOUS
 62
4
 10
-93.261673529780978
 20
-236.240535343112070
 11
-68.711673529779659
 21
-236.240535343112070
  0
LINE
  8
0
  6
CONTINUOUS
 62
4
 10
-93.261673529780978
 20
-241.190282811417830
 11
-68.711673529779659
 21
-241.190282811417830
  0
LINE
  8
0
  6
CONTINUOUS
 62
4
 10
-94.460598082500496
 20
-245.874748624642340
 11
-68.711673529779659
 21
-245.874748624642340
  0
LINE
  8
0
  6
CONTINUOUS
 62
4
 10
-95.038154495346021
 20
-246.874748624642340
 11
-68.711673529779659
 21
-246.874748624642340
  0
LINE
  8
0
  6
CONTINUOUS
 62
4
 10
-96.209242930171058
 20
-248.374748624642340
 11
-68.711673529779659
 21
-248.374748624642340
  0
LINE
  8
0
  6
CONTINUOUS
 62
4
 10
-95.771353934271929
 20
-247.874748624642340
 11
-68.711673529779659
 21
-247.874748624642340
  0
LINE
  8
0
  6
CONTINUOUS
 62
4
 10
-93.261673529780978
 20
-210.874748624642340
 11
-68.711673529779659
 21
-210.874748624642340
  0
LINE
  8
0
  6
CONTINUOUS
 62
4
 10
-93.261673529780978
 20
-217.066682417121970
 11
-68.711673529779659
 21
-217.066682417121970
  0
LINE
  8
0
  6
CONTINUOUS
 62
4
 10
-93.261673529780978
 20
-215.704802081772700
 11
-68.711673529779659
 21
-215.704802081772700
  0
LINE
  8
0
  6
CONTINUOUS
 62
4
 10
-93.261673529780978
 20
-221.157182951211610
 11
-68.711673529779659
 21
-221.157182951211610
  0
LINE
  8
0
  6
CONTINUOUS
 62
3
 10
-68.711673529779659
 20
-132.374748624642340
 11
-68.711673529779659
 21
-190.874748624642340
  0
LINE
  8
0
  6
CONTINUOUS
 62
3
 10
-68.711673529779659
 20
-132.374748624642340
 11
-165.711673529779550
 21
-132.374748624642340
  0
LINE
  8
0
  6
CONTINUOUS
 62
4
 10
-93.261673529780978
 20
-159.123956908267980
 11
-68.711673529779659
 21
-159.123956908267980
  0
LINE
  8
0
  6
CONTINUOUS
 62
4
 10
-94.061543303328449
 20
-155.160211484468450
 11
-68.711673529779659
 21
-155.160211484468450
  0
LINE
  8
0
  6
CONTINUOUS
 62
4
 10
-94.867414233389013
 20
-153.555563568906390
 11
-68.711673529779659
 21
-153.555563568906390
  0
LINE
  8
0
  6
CONTINUOUS
 62
4
 10
-165.711673529779550
 20
-145.508961906172600
 11
-68.711673529779659
 21
-145.508961906172600
  0
LINE
  8
0
  6
CONTINUOUS
 62
4
 10
-165.711673529779550
 20
-140.559214437866840
 11
-68.711673529779659
 21
-140.559214437866840
  0
LINE
  8
0
  6
CONTINUOUS
 62
4
 10
-165.711673529779550
 20
-135.874748624642340
 11
-68.711673529779659
 21
-135.874748624642340
  0
LINE
  8
0
  6
CONTINUOUS
 62
4
 10
-165.711673529779550
 20
-134.874748624642340
 11
-68.711673529779659
 21
-134.874748624642340
  0
LINE
  8
0
  6
CONTINUOUS
 62
4
 10
-165.711673529779550
 20
-133.374748624642340
 11
-68.711673529779659
 21
-133.374748624642340
  0
LINE
  8
0
  6
CONTINUOUS
 62
4
 10
-165.711673529779550
 20
-133.874748624642340
 11
-68.711673529779659
 21
-133.874748624642340
  0
LINE
  8
0
  6
CONTINUOUS
 62
4
 10
-93.261673529780978
 20
-170.874748624642340
 11
-68.711673529779659
 21
-170.874748624642340
  0
LINE
  8
0
  6
CONTINUOUS
 62
4
 10
-93.261673529780978
 20
-164.682814832162710
 11
-68.711673529779659
 21
-164.682814832162710
  0
LINE
  8
0
  6
CONTINUOUS
 62
4
 10
-93.261673529780978
 20
-166.044695167511970
 11
-68.711673529779659
 21
-166.044695167511970
  0
LINE
  8
0
  6
CONTINUOUS
 62
4
 10
-93.261673529780978
 20
-160.592314298073060
 11
-68.711673529779659
 21
-160.592314298073060
  0
LINE
  8
0
  6
CONTINUOUS
 62
3
 10
-131.224199312386300
 20
-240.450703394195050
 11
-104.661673529780500
 21
-240.450703394195050
  0
ARC
  8
0
  6
CONTINUOUS
 62
3
 10
-104.261673529780860
 20
-239.660650423064960
 40
11.000000000000000
 50
270.000000000000000
 51
0.000000000000000
  0
ARC
  8
0
  6
CONTINUOUS
 62
3
 10
-104.261673529780860
 20
-240.880860352292130
 40
11.000000000000000
 50
270.000000000000000
 51
0.000000000000000
  0
LINE
  8
0
  6
CONTINUOUS
 62
3
 10
-104.261673529780860
 20
-251.880860352292130
 11
-139.711673529779660
 21
-251.880860352292130
  0
LINE
  8
0
  6
CONTINUOUS
 62
3
 10
-104.261673529780860
 20
-250.660650423064960
 11
-139.711673529779660
 21
-250.660650423064960
  0
ARC
  8
0
  6
CONTINUOUS
 62
3
 10
-104.661673529780500
 20
-235.450703394195050
 40
5.000000000000000
 50
270.000000000000000
 51
0.000000000000000
  0
LINE
  8
0
  6
CONTINUOUS
 62
3
 10
-99.661673529780501
 20
-159.372959187534950
 11
-99.661673529780501
 21
-235.450703394195050
  0
LINE
  8
0
  6
CONTINUOUS
 62
3
 10
-93.261673529780865
 20
-159.278140984036380
 11
-93.261673529780865
 21
-240.880860352292130
  0
LINE
  8
0
  6
CONTINUOUS
 62
3
 10
-139.711673529779660
 20
-154.372959187534950
 11
-104.661673529780500
 21
-154.372959187534950
  0
ARC
  8
0
  6
CONTINUOUS
 62
3
 10
-104.661673529780500
 20
-159.372959187534950
 40
5.000000000000000
 50
0.000000000000000
 51
90.000000000000000
  0
LINE
  8
0
  6
CONTINUOUS
 62
4
 10
-139.711673529779660
 20
-160.874748624642110
 11
-104.661673529780500
 21
-160.874748624642110
  0
ARC
  8
0
  6
CONTINUOUS
 62
4
 10
-104.661673529780500
 20
-165.874748624642110
 40
5.000000000000000
 50
0.000000000000000
 51
90.000000000000000
  0
ARC
  8
0
  6
CONTINUOUS
 62
3
 10
-104.261673529780860
 20
-159.278140984036380
 40
11.000000000000000
 50
0.000000000000000
 51
90.000000000000000
  0
LINE
  8
0
  6
CONTINUOUS
 62
3
 10
-104.261673529780860
 20
-148.278140984036380
 11
-139.711673529779660
 21
-148.278140984036380
  0
ARC
  8
0
  6
CONTINUOUS
 62
3
 10
23.288326470219999
 20
-126.293527419351440
 40
5.000000000000066
 50
273.000000000005570
 51
0.000000000000000
  0
LINE
  8
0
  6
CONTINUOUS
 62
3
 10
-27.711673529780910
 20
-353.374748624642960
 11
-27.711673529780910
 21
-374.374748624642960
  0
ARC
  8
0
  6
CONTINUOUS
 62
3
 10
-23.711673529780910
 20
-353.374748624642960
 40
4.000000000000000
 50
90.000000000000000
 51
180.000000000000000
  0
ARC
  8
0
  6
CONTINUOUS
 62
3
 10
17.101767021146316
 20
-341.806171531238760
 40
5.999999999999986
 50
271.999999999999320
 51
324.808447381648880
  0
LINE
  8
0
  6
CONTINUOUS
 62
3
 10
22.005146274355411
 20
-345.264042537970450
 11
43.422786221288789
 21
-314.893097189215950
  0
LINE
  8
0
  6
CONTINUOUS
 62
3
 10
17.288326470219090
 20
-347.803313997514120
 11
-23.714110221704686
 21
-349.235150637832700
  0
LINE
  8
0
  6
DASHDOT
 62
4
 10
-7.711673529780910
 20
-345.447787069161680
 11
-7.711673529780910
 21
-382.786011098703060
  0
LINE
  8
0
  6
CONTINUOUS
 62
3
 10
-27.711673529780910
 20
-374.374748624642960
 11
212.288326470219090
 21
-374.374748624642960
  0
LINE
  8
0
  6
CONTINUOUS
 62
3
 10
40.893024960326329
 20
-346.979019762618920
 11
17.288326470219090
 21
-347.803313997514120
  0
LINE
  8
0
  6
CONTINUOUS
 62
3
 10
23.550006251435207
 20
-131.286675093124360
 11
2.788326470219999
 21
-132.374748624643870
  0
LINE
  8
0
  6
CONTINUOUS
 62
3
 10
20.288326470219999
 20
-123.817605212181660
 11
20.288326470219999
 21
-92.619746623041465
  0
ARC
  8
0
  6
CONTINUOUS
 62
3
 10
15.288326470219999
 20
-123.817605212181660
 40
5.000000000000066
 50
273.000000000005570
 51
0.000000000000000
  0
ARC
  8
0
  6
CONTINUOUS
 62
3
 10
23.288326470219999
 20
-123.398342977917300
 40
5.000000000000066
 50
273.000000000005570
 51
0.000000000000000
  0
LINE
  8
0
  6
CONTINUOUS
 62
3
 10
23.550006251435207
 20
-128.391490651690220
 11
2.788326470219999
 21
-129.479564183209730
  0
LINE
  8
0
  6
CONTINUOUS
 62
3
 10
23.550006251435207
 20
-330.358006597596610
 11
2.788326470219999
 21
-329.269933066077100
  0
ARC
  8
0
  6
CONTINUOUS
 62
3
 10
23.288326470219999
 20
-335.351154271369520
 40
5.000000000000000
 50
0.000000000000000
 51
86.999999999994429
  0
ARC
  8
0
  6
CONTINUOUS
 62
3
 10
25.288326470219999
 20
-239.374748624642960
 40
3.000000000000000
 50
180.000000000000000
 51
270.000000000000000
  0
ARC
  8
0
  6
CONTINUOUS
 62
3
 10
25.288326470219999
 20
-219.374748624642960
 40
3.000000000000000
 50
90.000000000000000
 51
180.000000000000000
  0
LINE
  8
0
  6
CONTINUOUS
 62
3
 10
22.288326470219999
 20
-239.374748624642960
 11
22.288326470219999
 21
-219.374748624642960
  0
LINE
  8
0
  6
CONTINUOUS
 62
3
 10
-68.711673529779773
 20
-132.374748624642730
 11
-68.711673529779773
 21
-249.374748624642850
  0
INSERT
  8
0
  2
SYM3
 10
28.288325509691731
 20
-259.288928228872460
  0
INSERT
  8
0
  2
SYM3
 10
28.288325509691731
 20
-159.288928228872460
  0
INSERT
  8
0
  2
SYM2
 10
-7.211673529779773
 20
-165.735138317853850
  0
INSERT
  8
0
  2
SYM2
 10
-7.211673529779773
 20
-293.014358931432070
 41
-1.000000000000000
 50
180.000000000000000
  0
POINT
  8
0
  6
CONTINUOUS
 62
3
 10
-7.211673529779773
 20
-324.374748624641880
  0
LINE
  8
0
  6
DASHDOT
 62
4
 10
-27.211673529779773
 20
-157.118860616361020
 11
-27.211673529779773
 21
-128.478958355545560
  0
LINE
  8
0
  6
CONTINUOUS
 62
3
 10
2.788326470220227
 20
-329.374748624641880
 11
2.788326470220227
 21
-310.374748624641650
  0
ARC
  8
0
  6
CONTINUOUS
 62
3
 10
-4.211673529779773
 20
-326.374748624641880
 40
3.000000000000000
 50
180.000000000000000
 51
270.000000000000000
  0
LINE
  8
0
  6
CONTINUOUS
 62
3
 10
-4.211673529779773
 20
-329.374748624641880
 11
2.788326470220227
 21
-329.374748624641880
  0
LINE
  8
0
  6
CONTINUOUS
 62
3
 10
-7.211673529779773
 20
-308.410968477601560
 11
-7.211673529779773
 21
-326.374748624641880
  0
LINE
  8
0
  6
CONTINUOUS
 62
3
 10
2.788326470220227
 20
-158.374748624642110
 11
2.788326470220227
 21
-312.874748624641880
  0
LINE
  8
0
  6
CONTINUOUS
 62
3
 10
2.788326470220227
 20
-145.874748624641880
 11
2.788326470220227
 21
-158.374748624642110
  0
ARC
  8
0
  6
CONTINUOUS
 62
3
 10
-4.211673529779773
 20
-132.374748624641880
 40
3.000000000000000
 50
90.000000000000000
 51
149.999999999998380
  0
LINE
  8
0
  6
CONTINUOUS
 62
3
 10
-44.711673529781422
 20
-179.374748624641880
 11
-10.211673529779773
 21
-179.374748624641880
  0
LINE
  8
0
  6
CONTINUOUS
 62
3
 10
-4.211673529779773
 20
-129.374748624641880
 11
2.788326470220227
 21
-129.374748624641880
  0
LINE
  8
0
  6
CONTINUOUS
 62
3
 10
2.788326470220227
 20
-129.374748624641880
 11
2.788326470220227
 21
-176.657469052735510
  0
ARC
  8
0
  6
CONTINUOUS
 62
3
 10
-46.211673529779773
 20
-215.859813557127670
 40
4.999999999999545
 50
359.999999999998690
 51
90.000000000000000
  0
LINE
  8
0
  6
CONTINUOUS
 62
3
 10
-68.711673529779318
 20
-210.859813557127670
 11
-46.211673529779773
 21
-210.859813557127670
  0
LINE
  8
0
  6
CONTINUOUS
 62
3
 10
-49.711673529781223
 20
-170.874748624646320
 11
-68.711673529779318
 21
-170.874748624646320
  0
LINE
  8
0
  6
CONTINUOUS
 62
3
 10
-9.407825952486291
 20
-132.374748624641880
 11
-68.711673529779773
 21
-132.374748624641880
  0
ARC
  8
0
  6
CONTINUOUS
 62
3
 10
-10.211673529779773
 20
-176.374748624641880
 40
3.000000000000000
 50
270.000000000000000
 51
0.000000000000000
  0
ARC
  8
0
  6
CONTINUOUS
 62
3
 10
-44.711673529781422
 20
-174.374748624641880
 40
5.000000000000000
 50
179.999999999997410
 51
270.000000000000000
  0
ARC
  8
0
  6
CONTINUOUS
 62
3
 10
-9.407825952486291
 20
-129.374748624641880
 40
3.000000000000000
 50
270.000000000000000
 51
330.000000000000570
  0
ARC
  8
0
  6
CONTINUOUS
 62
3
 10
-12.211673529779773
 20
-141.374748624642110
 40
5.000000000000000
 50
270.000000000000000
 51
0.000000000000000
  0
LINE
  8
0
  6
CONTINUOUS
 62
3
 10
-49.711673529781422
 20
-174.374748624641650
 11
-49.711673529779318
 21
-137.374748624642110
  0
ARC
  8
0
  6
CONTINUOUS
 62
3
 10
-44.711673529780228
 20
-141.374748624642110
 40
5.000000000000000
 50
179.999999999997410
 51
270.000000000000000
  0
ARC
  8
0
  6
CONTINUOUS
 62
3
 10
-54.711673529779318
 20
-137.374748624641880
 40
5.000000000000000
 50
359.999999999997390
 51
90.000000000000000
  0
LINE
  8
0
  6
CONTINUOUS
 62
3
 10
-12.211673529779773
 20
-146.374748624642110
 11
-45.211673529780228
 21
-146.374748624642110
  0
LINE
  8
0
  6
CONTINUOUS
 62
3
 10
-4.211673529779773
 20
-132.374748624641880
 11
2.788326470220227
 21
-132.374748624641880
  0
ARC
  8
0
  6
CONTINUOUS
 62
3
 10
-4.211673529779773
 20
-135.374748624641880
 40
3.000000000000000
 50
90.000000000000000
 51
180.000000000000000
  0
LINE
  8
0
  6
CONTINUOUS
 62
3
 10
-7.211673529779773
 20
-131.418498740541570
 11
-7.211673529779773
 21
-135.374748624641880
  0
LINE
  8
0
  6
CONTINUOUS
 62
3
 10
-7.211673529779773
 20
-135.374748624641880
 11
-7.211673529779773
 21
-308.410968477601560
  0
ARC
  8
0
  6
CONTINUOUS
 62
3
 10
-4.211673529779773
 20
-323.374748624641880
 40
3.000000000000000
 50
180.000000000000000
 51
270.000000000000000
  0
LINE
  8
0
  6
CONTINUOUS
 62
3
 10
-4.211673529779773
 20
-326.374748624641880
 11
2.788326470220227
 21
-326.374748624641880
  0
LINE
  8
0
  6
DASHDOT
 62
4
 10
-57.457344024707709
 20
-190.874748624642340
 11
-285.694318717363790
 21
-190.874748624642340
  0
LINE
  8
0
  6
DASHDOT
 62
4
 10
22.210954784801288
 20
-77.374748624642962
 11
-4.952485408703069
 21
-77.374748624642962
  0
ARC
  8
0
  6
CONTINUOUS
 62
3
 10
-427.262878351290510
 20
-271.037081732615210
 40
3.000000000000000
 50
0.000000000000000
 51
115.081881985707550
  0
ARC
  8
0
  6
CONTINUOUS
 62
3
 10
-416.262878351290510
 20
-263.809469474385650
 40
2.999999999999987
 50
131.532400882507740
 51
180.000000000000000
  0
ARC
  8
0
  6
CONTINUOUS
 62
3
 10
-466.262878351290510
 20
-271.037081732615210
 40
3.000000000000187
 50
64.918118014292446
 51
180.000000000000000
  0
ARC
  8
0
  6
CONTINUOUS
 62
3
 10
-477.262878351290510
 20
-263.809469474385650
 40
3.000000000000000
 50
0.000000000000000
 51
48.467599117492242
  0
ARC
  8
0
  6
CONTINUOUS
 62
3
 10
-446.762878351290510
 20
-229.374748624638640
 40
43.000000000000085
 50
206.245931860254070
 51
333.754068139745930
  0
INSERT
  8
0
  2
SYM4
 10
-457.262878351290510
 20
-77.374748624638670
 41
-1.000000000000000
  0
INSERT
  8
0
  2
SYM5
 10
-506.762878351290510
 20
-83.874748624638670
 41
-1.000000000000000
  0
INSERT
  8
0
  2
SYM5
 10
-578.762878351290510
 20
-159.374748624638670
 41
-1.000000000000000
  0
INSERT
  8
0
  2
SYM5
 10
-581.762878351290510
 20
-259.374748624639100
 41
-1.000000000000000
  0
INSERT
  8
0
  2
SYM5
 10
-522.762878351290510
 20
-360.374748624638410
 41
-1.000000000000000
  0
INSERT
  8
0
  2
SYM5
 10
-370.762878351290510
 20
-360.374748624638410
  0
INSERT
  8
0
  2
SYM5
 10
-311.762878351290510
 20
-259.374748624639100
  0
INSERT
  8
0
  2
SYM5
 10
-314.762878351290510
 20
-159.374748624638670
  0
INSERT
  8
0
  2
SYM5
 10
-386.762878351290510
 20
-83.874748624638670
  0
INSERT
  8
0
  2
SYM4
 10
-436.262878351290510
 20
-77.374748624638670
  0
INSERT
  8
0
  2
SYM6
 10
-383.123268044500950
 20
-293.014358931427750
  0
INSERT
  8
0
  2
SYM7
 10
-510.402488658080070
 20
-293.014358931427750
 41
-1.000000000000000
  0
LINE
  8
0
  6
DASHDOT
 62
4
 10
-366.762878351290510
 20
-78.374748624638670
 11
-366.762878351290510
 21
-137.374748624638670
  0
LINE
  8
0
  6
DASHDOT
 62
4
 10
-337.262878351290510
 20
-107.874748624638670
 11
-396.262878351290510
 21
-107.874748624638670
  0
LINE
  8
0
  6
CONTINUOUS
 62
3
 10
-298.762878351290510
 20
-185.192111209633850
 11
-298.762878351290510
 21
-328.374748624638640
  0
LINE
  8
0
  6
CONTINUOUS
 62
3
 10
-308.612780387665680
 20
-314.374748624638640
 11
-306.762878351290510
 21
-314.374748624638640
  0
ARC
  8
0
  6
CONTINUOUS
 62
3
 10
-308.612780387665680
 20
-322.374748624638640
 40
8.000000000000000
 50
90.000000000000000
 51
152.680796053209090
  0
ARC
  8
0
  6
CONTINUOUS
 62
3
 10
-306.762878351290510
 20
-322.374748624638640
 40
8.000000000000000
 50
0.000000000000000
 51
90.000000000000000
  0
LINE
  8
0
  6
CONTINUOUS
 62
3
 10
-584.912976314915800
 20
-314.374748624638640
 11
-586.762878351290510
 21
-314.374748624638640
  0
ARC
  8
0
  6
CONTINUOUS
 62
3
 10
-584.912976314915800
 20
-322.374748624638640
 40
8.000000000000039
 50
27.319203946790914
 51
90.000000000000000
  0
ARC
  8
0
  6
CONTINUOUS
 62
3
 10
-586.762878351290510
 20
-322.374748624638640
 40
8.000000000000000
 50
90.000000000000000
 51
180.000000000000000
  0
ARC
  8
0
  6
CONTINUOUS
 62
3
 10
-295.762878351290510
 20
-328.374748624638640
 40
3.000000000000000
 50
180.000000000000000
 51
228.189685104220470
  0
ARC
  8
0
  6
CONTINUOUS
 62
3
 10
-299.762878351290510
 20
-332.846884579638300
 40
3.000000000000000
 50
0.000000000000000
 51
48.189685104223358
  0
ARC
  8
0
  6
CONTINUOUS
 62
3
 10
-593.762878351290510
 20
-332.846884579638300
 40
3.000000000000114
 50
131.810314895776630
 51
180.000000000000000
  0
ARC
  8
0
  6
CONTINUOUS
 62
3
 10
-597.762878351290510
 20
-328.374748624638640
 40
2.999999999999944
 50
311.810314895779530
 51
0.000000000000000
  0
LINE
  8
0
  6
CONTINUOUS
 62
3
 10
-354.005664467169030
 20
-358.737811650820280
 11
-356.762878351290510
 21
-374.374748624638640
  0
LINE
  8
0
  6
CONTINUOUS
 62
3
 10
-594.762878351290510
 20
-185.192111209633850
 11
-594.762878351290510
 21
-328.374748624638640
  0
ARC
  8
0
  6
CONTINUOUS
 62
3
 10
-593.762878351290510
 20
-352.374748624638640
 40
3.000000000000000
 50
90.000000000000000
 51
180.000000000000000
  0
LINE
  8
0
  6
CONTINUOUS
 62
3
 10
-552.936421688724750
 20
-349.374748624638640
 11
-593.762878351290510
 21
-349.374748624638640
  0
LINE
  8
0
  6
DASHDOT
 62
4
 10
-576.762878351290510
 20
-341.640846860929970
 11
-576.762878351290510
 21
-379.006686834172340
  0
LINE
  8
0
  6
CONTINUOUS
 62
3
 10
-536.762878351290510
 20
-374.374748624638640
 11
-596.762878351290510
 21
-374.374748624638640
  0
LINE
  8
0
  6
CONTINUOUS
 62
3
 10
-446.762878351290510
 20
-371.374748624638640
 11
-533.762878351290510
 21
-371.374748624638640
  0
ARC
  8
0
  6
CONTINUOUS
 62
3
 10
-533.762878351290510
 20
-374.374748624638640
 40
3.000000000000000
 50
90.000000000000000
 51
180.000000000000000
  0
LINE
  8
0
  6
CONTINUOUS
 62
3
 10
-596.762878351290510
 20
-332.846884579638300
 11
-596.762878351290510
 21
-374.374748624638640
  0
ARC
  8
0
  6
CONTINUOUS
 62
3
 10
-500.508947975031790
 20
-278.774748624638510
 40
86.999999999999716
 50
207.319203946790420
 51
241.474076196917140
  0
ARC
  8
0
  6
CONTINUOUS
 62
3
 10
-552.936421688724750
 20
-354.374748624638640
 40
4.999999999999954
 50
55.259268222247194
 51
90.000000000000000
  0
ARC
  8
0
  6
CONTINUOUS
 62
3
 10
-544.444131000473590
 20
-359.606052539154920
 40
4.999999999999649
 50
10.000000000000568
 51
61.474076196920521
  0
ARC
  8
0
  6
CONTINUOUS
 62
3
 10
-474.762878351290510
 20
-185.192111209633850
 40
120.000000000000050
 50
93.344152204455668
 51
180.000000000000000
  0
ARC
  8
0
  6
CONTINUOUS
 62
3
 10
-393.016808727550140
 20
-278.774748624638510
 40
87.000000000000071
 50
298.525923803082890
 51
332.680796053209750
  0
ARC
  8
0
  6
CONTINUOUS
 62
3
 10
-418.762878351290510
 20
-185.192111209633850
 40
120.000000000000000
 50
0.000000000000000
 51
86.655847795544332
  0
ARC
  8
0
  6
CONTINUOUS
 62
3
 10
-299.762878351290510
 20
-352.374748624638640
 40
3.000000000000000
 50
0.000000000000000
 51
90.000000000000000
  0
ARC
  8
0
  6
CONTINUOUS
 62
3
 10
-349.081625702107430
 20
-359.606052539154920
 40
5.000000000000283
 50
118.525923803088630
 51
170.000000000001220
  0
LINE
  8
0
  6
CONTINUOUS
 62
3
 10
-539.520092235412900
 20
-358.737811650820280
 11
-536.762878351290510
 21
-374.374748624638640
  0
ARC
  8
0
  6
CONTINUOUS
 62
3
 10
-340.589335013856730
 20
-354.374748624638640
 40
5.000000000000000
 50
90.000000000000000
 51
124.740731777757070
  0
LINE
  8
0
  6
CONTINUOUS
 62
3
 10
-340.589335013856730
 20
-349.374748624638640
 11
-299.762878351290510
 21
-349.374748624638640
  0
LINE
  8
0
  6
DASHDOT
 62
4
 10
-316.762878351290510
 20
-341.640846860929970
 11
-316.762878351290510
 21
-379.006686834172340
  0
LINE
  8
0
  6
CONTINUOUS
 62
3
 10
-356.762878351290510
 20
-374.374748624638640
 11
-296.762878351290510
 21
-374.374748624638640
  0
LINE
  8
0
  6
CONTINUOUS
 62
3
 10
-446.762878351290510
 20
-371.374748624638640
 11
-359.762878351290510
 21
-371.374748624638640
  0
ARC
  8
0
  6
CONTINUOUS
 62
3
 10
-359.762878351290510
 20
-374.374748624638640
 40
3.000000000000000
 50
0.000000000000000
 51
90.000000000000000
  0
LINE
  8
0
  6
CONTINUOUS
 62
3
 10
-296.762878351290510
 20
-332.846884579638300
 11
-296.762878351290510
 21
-374.374748624638640
  0
ARC
  8
0
  6
CONTINUOUS
 62
3
 10
-446.762878351290960
 20
-664.374748624638640
 40
600.000000000000110
 50
86.655847795544304
 51
88.042013127606623
  0
ARC
  8
0
  6
CONTINUOUS
 62
3
 10
-446.762878351290960
 20
-664.374748624638640
 40
600.000000000000000
 50
91.957986872393278
 51
93.344152204455611
  0
LINE
  8
0
  6
CONTINUOUS
 62
3
 10
-467.262878351290510
 20
-64.725059222567808
 11
-467.262878351290510
 21
-86.374748624638670
  0
LINE
  8
0
  6
CONTINUOUS
 62
3
 10
-426.262878351290510
 20
-64.725059222567808
 11
-426.262878351290510
 21
-86.374748624638670
  0
CIRCLE
  8
0
  6
CONTINUOUS
 62
3
 10
-446.762878351290510
 20
-49.374755585502527
 40
10.000000000000000
  0
LINE
  8
0
  6
CONTINUOUS
 62
3
 10
-436.262878351290510
 20
-29.374755585502527
 11
-457.262878351290510
 21
-29.374755585502527
  0
LINE
  8
0
  6
CONTINUOUS
 62
3
 10
-467.262878351290510
 20
-39.374755585502527
 11
-467.262878351290510
 21
-64.725059222566443
  0
LINE
  8
0
  6
DASHDOT
 62
4
 10
-423.594965352408960
 20
-49.374755585502527
 11
-470.617479253943660
 21
-49.374755585502527
  0
ARC
  8
0
  6
CONTINUOUS
 62
3
 10
-457.262878351290510
 20
-39.374755585502527
 40
10.000000000000000
 50
90.000000000000000
 51
180.000000000000000
  0
ARC
  8
0
  6
CONTINUOUS
 62
3
 10
-436.262878351290510
 20
-39.374755585502527
 40
10.000000000000000
 50
0.000000000000000
 51
90.000000000000000
  0
LINE
  8
0
  6
CONTINUOUS
 62
3
 10
-426.262878351290510
 20
-39.374755585502527
 11
-426.262878351290510
 21
-64.725059222566443
  0
LINE
  8
0
  6
DASHDOT
 62
4
 10
-488.504641256795820
 20
-179.374748624638670
 11
-397.093097275718260
 21
-179.374748624638670
  0
ARC
  8
0
  6
CONTINUOUS
 62
3
 10
-592.762878351290510
 20
-244.374748624638670
 40
2.000000000000000
 50
90.000000000000000
 51
180.000000000000000
  0
ARC
  8
0
  6
CONTINUOUS
 62
3
 10
-581.762878351290510
 20
-229.374748624638670
 40
13.000000000000000
 50
270.000000000000000
 51
90.000000000000000
  0
ARC
  8
0
  6
CONTINUOUS
 62
3
 10
-592.762878351290510
 20
-214.374748624638670
 40
2.000000000000000
 50
180.000000000000000
 51
270.000000000000000
  0
CIRCLE
  8
0
  6
CONTINUOUS
 62
3
 10
-366.762878351290510
 20
-107.874748624638670
 40
17.500000000000000
  0
ARC
  8
0
  6
CONTINUOUS
 62
3
 10
-500.508947975031330
 20
-278.774748624638730
 40
82.000000000000028
 50
210.000000000000000
 51
242.076948146074220
  0
ARC
  8
0
  6
CONTINUOUS
 62
3
 10
-393.016808727549690
 20
-278.774748624638730
 40
81.999999999999872
 50
297.923051853925760
 51
330.000000000000060
  0
ARC
  8
0
  6
CONTINUOUS
 62
3
 10
-584.762878351290510
 20
-276.842660475586850
 40
10.000000000000000
 50
180.000000000000000
 51
209.999999999999890
  0
ARC
  8
0
  6
CONTINUOUS
 62
3
 10
-522.762878351290510
 20
-360.374748624638640
 40
11.999999999999956
 50
174.036080546870270
 51
246.443535690898870
  0
ARC
  8
0
  6
CONTINUOUS
 62
3
 10
-542.654628797113670
 20
-358.296705265827540
 40
8.000000000000169
 50
354.036080546867080
 51
62.076948146072816
  0
ARC
  8
0
  6
CONTINUOUS
 62
3
 10
-350.871127905467570
 20
-358.296705265827540
 40
7.999999999999761
 50
117.923051853925750
 51
185.963919453133060
  0
ARC
  8
0
  6
CONTINUOUS
 62
3
 10
-370.762878351290510
 20
-360.374748624638640
 40
11.999999999999991
 50
293.556464309101160
 51
5.963919453129750
  0
ARC
  8
0
  6
CONTINUOUS
 62
3
 10
-455.762878351290510
 20
-94.374748624638670
 40
5.000000000000000
 50
0.000000000000000
 51
90.000000000000000
  0
ARC
  8
0
  6
CONTINUOUS
 62
3
 10
-437.762878351290510
 20
-94.374748624638670
 40
5.000000000000000
 50
90.000000000000000
 51
180.000000000000000
  0
ARC
  8
0
  6
CONTINUOUS
 62
3
 10
-569.240310570462500
 20
-119.625238466824860
 40
4.999999999999879
 50
45.000000000003688
 51
145.239542416001110
  0
ARC
  8
0
  6
CONTINUOUS
 62
3
 10
-557.789167358460420
 20
-105.620537556111480
 40
4.999999999999830
 50
136.217179784904200
 51
225.000000000003690
  0
ARC
  8
0
  6
CONTINUOUS
 62
3
 10
-347.780021906199640
 20
-341.085527131087470
 40
5.000000000000025
 50
305.979144815324450
 51
45.000000000000000
  0
ARC
  8
0
  6
CONTINUOUS
 62
3
 10
-558.985564181427890
 20
-328.869512393417840
 40
5.000000000000148
 50
220.585447346047000
 51
315.000000000000000
  0
ARC
  8
0
  6
CONTINUOUS
 62
3
 10
-545.745734796381380
 20
-341.085527131087250
 40
5.000000000000041
 50
135.000000000001820
 51
234.020855184674960
  0
ARC
  8
0
  6
CONTINUOUS
 62
3
 10
-530.444177679747100
 20
-158.421371357540490
 40
5.000000000000294
 50
320.598880246799980
 51
44.999999999998167
  0
ARC
  8
0
  6
CONTINUOUS
 62
3
 10
-517.609770931738240
 20
-145.799933982833660
 40
5.000000000000041
 50
224.999999999998180
 51
308.442443111783120
  0
ARC
  8
0
  6
CONTINUOUS
 62
3
 10
-455.762878351290510
 20
-124.446545394363310
 40
4.999999999999934
 50
278.213210701739000
 51
0.000000000000000
  0
ARC
  8
0
  6
CONTINUOUS
 62
3
 10
-437.762878351290510
 20
-124.446545394363310
 40
5.000000000000000
 50
180.000000000000000
 51
261.786789298255770
  0
ARC
  8
0
  6
CONTINUOUS
 62
3
 10
-412.393998127412940
 20
-287.021300228286010
 40
48.000000000000206
 50
242.620744204633890
 51
349.431241352001790
  0
ARC
  8
0
  6
CONTINUOUS
 62
3
 10
-500.508947975031790
 20
-278.774748624638730
 40
38.000000000000213
 50
179.474123357936550
 51
264.903782261258130
  0
ARC
  8
0
  6
CONTINUOUS
 62
3
 10
-360.293116354056340
 20
-296.742314498345420
 40
4.999999999999986
 50
143.661143755957770
 51
169.431241352002160
  0
ARC
  8
0
  6
CONTINUOUS
 62
3
 10
-436.767548924219680
 20
-334.084343282847390
 40
4.999999999999948
 50
62.620744204631244
 51
106.561661668955390
  0
ARC
  8
0
  6
CONTINUOUS
 62
3
 10
-504.328575414395350
 20
-321.604766675352270
 40
5.000000000000101
 50
62.258787150593506
 51
84.903782261257945
  0
ARC
  8
0
  6
CONTINUOUS
 62
3
 10
-543.507136810484100
 20
-278.380088174655160
 40
4.999999999999752
 50
359.474123357936660
 51
22.119118468601268
  0
ARC
  8
0
  6
CONTINUOUS
 62
3
 10
-534.815254606986400
 20
-304.699202818976350
 40
5.000000000000201
 50
315.000000000000000
 51
37.077467885865147
  0
ARC
  8
0
  6
CONTINUOUS
 62
3
 10
-521.154476046364380
 20
-316.494268381070010
 40
4.999999999999874
 50
61.306201207327504
 51
134.999999999998150
  0
ARC
  8
0
  6
CONTINUOUS
 62
3
 10
-370.015542814452600
 20
-318.850006222834280
 40
5.000000000000041
 50
44.999999999998167
 51
143.091301640803810
  0
ARC
  8
0
  6
CONTINUOUS
 62
3
 10
-361.521773206193530
 20
-301.887931708377440
 40
5.000000000000076
 50
163.709803389738140
 51
225.000000000000000
  0
CIRCLE
  8
0
  6
CONTINUOUS
 62
4
 10
-366.762878351290510
 20
-107.874748624638670
 40
10.500000000000000
  0
CIRCLE
  8
0
  6
CONTINUOUS
 62
3
 10
-366.762878351290510
 20
-107.874748624638670
 40
9.350000000000023
  0
LINE
  8
0
  6
CONTINUOUS
 62
3
 10
-338.075726427086010
 20
-332.405046299350720
 11
-365.057307112126180
 21
-305.423465614310090
  0
LINE
  8
0
  6
CONTINUOUS
 62
3
 10
-344.244488000266760
 20
-337.549993225154590
 11
-366.480008908519720
 21
-315.314472316901630
  0
LINE
  8
0
  6
CONTINUOUS
 62
3
 10
-555.450030275495010
 20
-332.405046299350720
 11
-531.279720701053520
 21
-308.234736724909230
  0
LINE
  8
0
  6
CONTINUOUS
 62
3
 10
-549.281268702314260
 20
-337.549993225154590
 11
-524.690009952296800
 21
-312.958734475137360
  0
LINE
  8
0
  6
CONTINUOUS
 62
3
 10
-327.820980038050950
 20
-116.089704560891980
 11
-366.617112928767030
 21
-154.885837451608070
  0
LINE
  8
0
  6
CONTINUOUS
 62
3
 10
-332.201055438188180
 20
-109.156071462044360
 11
-372.380451864910360
 21
-149.335467888766540
  0
LINE
  8
0
  6
CONTINUOUS
 62
3
 10
-593.423132389134930
 20
-281.842660475586850
 11
-571.523031085355340
 21
-319.774748624638730
  0
LINE
  8
0
  6
CONTINUOUS
 62
3
 10
-450.762878351290510
 20
-94.374748624638670
 11
-450.762878351290510
 21
-124.446545394363310
  0
LINE
  8
0
  6
CONTINUOUS
 62
3
 10
-442.762878351290510
 20
-94.374748624638670
 11
-442.762878351290510
 21
-124.446545394363310
  0
LINE
  8
0
  6
CONTINUOUS
 62
3
 10
-561.324701264392840
 20
-109.156071462044360
 11
-521.145304837671120
 21
-149.335467888766320
  0
LINE
  8
0
  6
CONTINUOUS
 62
3
 10
-565.704776664530070
 20
-116.089704560891980
 11
-526.908643773814220
 21
-154.885837451607840
  0
LINE
  8
0
  6
CONTINUOUS
 62
3
 10
-581.762878351290510
 20
-216.374748624638670
 11
-592.762878351290510
 21
-216.374748624638670
  0
LINE
  8
0
  6
CONTINUOUS
 62
3
 10
-581.762878351290510
 20
-242.374748624638670
 11
-592.762878351290510
 21
-242.374748624638670
  0
ARC
  8
0
  6
CONTINUOUS
 62
3
 10
-311.762878351290510
 20
-229.374748624638670
 40
13.000000000000000
 50
90.000000000000000
 51
270.000000000000000
  0
ARC
  8
0
  6
CONTINUOUS
 62
3
 10
-464.262878351290510
 20
-86.374748624638670
 40
3.000000000000000
 50
180.000000000000000
 51
270.000000000000000
  0
ARC
  8
0
  6
CONTINUOUS
 62
3
 10
-429.262878351290510
 20
-86.374748624638670
 40
3.000000000000000
 50
270.000000000000000
 51
0.000000000000000
  0
ARC
  8
0
  6
CONTINUOUS
 62
3
 10
-308.762878351290510
 20
-276.842660475586850
 40
10.000000000000032
 50
330.000000000000110
 51
0.000000000000000
  0
ARC
  8
0
  6
CONTINUOUS
 62
3
 10
-301.762878351290510
 20
-245.374748624638670
 40
3.000000000000000
 50
0.000000000000000
 51
90.000000000000000
  0
ARC
  8
0
  6
CONTINUOUS
 62
3
 10
-301.762878351290510
 20
-213.374748624638670
 40
3.000000000000000
 50
270.000000000000000
 51
0.000000000000000
  0
ARC
  8
0
  6
CONTINUOUS
 62
3
 10
-335.736589344120830
 20
-105.620537556111480
 40
5.000000000000041
 50
314.999999999998120
 51
43.782820215094013
  0
ARC
  8
0
  6
CONTINUOUS
 62
3
 10
-324.285446132118300
 20
-119.625238466824860
 40
4.999999999999977
 50
34.760457584000342
 51
134.999999999998150
  0
ARC
  8
0
  6
CONTINUOUS
 62
3
 10
-334.540192521153130
 20
-328.869512393417840
 40
5.000000000000201
 50
225.000000000000000
 51
319.414552653951260
  0
LINE
  8
0
  6
CONTINUOUS
 62
3
 10
-300.102624313446090
 20
-281.842660475586850
 11
-322.002725617225680
 21
-319.774748624638730
  0
LINE
  8
0
  6
CONTINUOUS
 62
3
 10
-464.262878351290510
 20
-89.374748624638670
 11
-446.762878351290510
 21
-89.374748624638670
  0
LINE
  8
0
  6
CONTINUOUS
 62
3
 10
-429.262878351290510
 20
-89.374748624638670
 11
-446.762878351290510
 21
-89.374748624638670
  0
LINE
  8
0
  6
CONTINUOUS
 62
3
 10
-311.762878351290510
 20
-216.374748624638670
 11
-301.762878351290510
 21
-216.374748624638670
  0
LINE
  8
0
  6
CONTINUOUS
 62
3
 10
-311.762878351290510
 20
-242.374748624638670
 11
-301.762878351290510
 21
-242.374748624638670
  0
LINE
  8
0
  6
CONTINUOUS
 62
3
 10
-446.762878351290510
 20
-329.374748624638640
 11
-438.762878351290960
 21
-329.374748624638640
  0
LINE
  8
0
  6
CONTINUOUS
 62
3
 10
-446.762878351290510
 20
-329.374748624638640
 11
-454.762878351290510
 21
-329.374748624638640
  0
ARC
  8
0
  6
CONTINUOUS
 62
3
 10
-454.762878351290510
 20
-327.374748624638640
 40
2.000000000000063
 50
194.477512185929440
 51
270.000000000000000
  0
ARC
  8
0
  6
CONTINUOUS
 62
3
 10
-438.762878351290960
 20
-327.374748624638640
 40
2.000000000000000
 50
270.000000000000000
 51
345.522487814070530
  0
ARC
  8
0
  6
CONTINUOUS
 62
3
 10
-428.762878351290060
 20
-246.374748624638670
 40
80.000000000000014
 50
279.172054809625250
 51
323.661143755958900
  0
ARC
  8
0
  6
CONTINUOUS
 62
3
 10
-458.635861697498060
 20
-328.374748624638640
 40
2.000000000000063
 50
14.477512185929456
 51
90.000000000000000
  0
ARC
  8
0
  6
CONTINUOUS
 62
3
 10
-464.762878351291420
 20
-246.374748624638670
 40
80.000000000000000
 50
180.000000000000000
 51
202.119118468599960
  0
ARC
  8
0
  6
CONTINUOUS
 62
3
 10
-434.889895005083420
 20
-328.374748624638640
 40
2.000000000000000
 50
90.000000000000000
 51
165.522487814070560
  0
ARC
  8
0
  6
CONTINUOUS
 62
3
 10
-428.762878351290060
 20
-246.374748624638670
 40
79.999999999999972
 50
270.000000000000000
 51
279.172054809625250
  0
ARC
  8
0
  6
CONTINUOUS
 62
3
 10
-438.762878351290960
 20
-131.374748624638670
 40
2.000000000000063
 50
14.477512185929456
 51
90.000000000000000
  0
ARC
  8
0
  6
CONTINUOUS
 62
3
 10
-454.762878351290510
 20
-131.374748624638670
 40
2.000000000000000
 50
90.000000000000000
 51
165.522487814070560
  0
ARC
  8
0
  6
CONTINUOUS
 62
3
 10
-428.762878351290060
 20
-246.374748624638670
 40
80.000000000000000
 50
323.661143755958900
 51
0.000000000000000
  0
ARC
  8
0
  6
CONTINUOUS
 62
3
 10
-464.762878351291420
 20
-246.374748624638670
 40
79.999999999999929
 50
242.258787150595110
 51
270.000000000000000
  0
ARC
  8
0
  6
CONTINUOUS
 62
3
 10
-464.762878351291420
 20
-246.374748624638670
 40
79.999999999999972
 50
202.119118468599960
 51
242.258787150595110
  0
LINE
  8
0
  6
CONTINUOUS
 62
3
 10
-544.762878351291420
 20
-229.374748624638670
 11
-544.762878351291420
 21
-212.374748624638670
  0
LINE
  8
0
  6
CONTINUOUS
 62
3
 10
-544.762878351291420
 20
-229.374748624638670
 11
-544.762878351291420
 21
-246.374748624638670
  0
LINE
  8
0
  6
CONTINUOUS
 62
3
 10
-434.889895005083420
 20
-326.374748624638640
 11
-428.762878351290060
 21
-326.374748624638640
  0
LINE
  8
0
  6
CONTINUOUS
 62
3
 10
-458.635861697498060
 20
-326.374748624638640
 11
-464.762878351291420
 21
-326.374748624638640
  0
LINE
  8
0
  6
DIVIDE
 62
4
 10
-348.762878351290060
 20
-239.229167352980110
 11
-348.762878351290060
 21
-246.374748624638670
  0
LINE
  8
0
  6
CONTINUOUS
 62
3
 10
-446.762878351290510
 20
-129.374748624638670
 11
-438.762878351290960
 21
-129.374748624638670
  0
LINE
  8
0
  6
CONTINUOUS
 62
3
 10
-446.762878351290510
 20
-129.374748624638670
 11
-454.762878351290510
 21
-129.374748624638670
  0
ARC
  8
0
  6
CONTINUOUS
 62
3
 10
-516.693118434888220
 20
-175.954139101249920
 40
2.000000000000040
 50
58.384308452260875
 51
142.623325274950420
  0
ARC
  8
0
  6
CONTINUOUS
 62
3
 10
-516.693118434888220
 20
-175.954139101249920
 40
2.000000000000040
 50
58.384308452260875
 51
142.623325274950420
  0
ARC
  8
0
  6
CONTINUOUS
 62
3
 10
-500.183487874679940
 20
-299.304988708235900
 40
1.999999999999921
 50
148.384308452266400
 51
232.623325274950420
  0
ARC
  8
0
  6
CONTINUOUS
 62
3
 10
-516.693118434888220
 20
-282.795358148027390
 40
1.999999999999958
 50
217.376674725049580
 51
301.615691547739120
  0
ARC
  8
0
  6
CONTINUOUS
 62
3
 10
-510.402488658080070
 20
-293.014358931427520
 40
10.000000000000108
 50
328.384308452266620
 51
121.615691547731100
  0
ARC
  8
0
  6
CONTINUOUS
 62
3
 10
-393.342268827901080
 20
-299.304988708235900
 40
1.999999999999958
 50
307.376674725049550
 51
31.615691547733597
  0
ARC
  8
0
  6
CONTINUOUS
 62
3
 10
-376.832638267692800
 20
-282.795358148027390
 40
2.000000000000040
 50
238.384308452260910
 51
322.623325274950450
  0
ARC
  8
0
  6
CONTINUOUS
 62
3
 10
-383.123268044500950
 20
-293.014358931427520
 40
9.999999999999870
 50
58.384308452268890
 51
211.615691547733350
  0
ARC
  8
0
  6
CONTINUOUS
 62
3
 10
-479.262878351290510
 20
-317.770649049326040
 40
5.000000000000106
 50
262.722986123431950
 51
0.000000000000000
  0
ARC
  8
0
  6
CONTINUOUS
 62
3
 10
-464.262878351290510
 20
-318.374748624638640
 40
5.000000000000000
 50
180.000000000000000
 51
270.000000000000000
  0
ARC
  8
0
  6
CONTINUOUS
 62
3
 10
-429.262878351290510
 20
-318.374748624638640
 40
5.000000000000000
 50
270.000000000000000
 51
0.000000000000000
  0
ARC
  8
0
  6
CONTINUOUS
 62
3
 10
-414.262878351290510
 20
-317.770649049326040
 40
5.000000000000000
 50
180.000000000000000
 51
277.277013876567990
  0
LINE
  8
0
  6
CONTINUOUS
 62
3
 10
-474.262878351290510
 20
-317.770649049326040
 11
-474.262878351290510
 21
-263.809469474385650
  0
LINE
  8
0
  6
CONTINUOUS
 62
3
 10
-469.262878351290510
 20
-318.374748624638640
 11
-469.262878351290510
 21
-271.037081732615210
  0
LINE
  8
0
  6
CONTINUOUS
 62
3
 10
-424.262878351290510
 20
-318.374748624638640
 11
-424.262878351290510
 21
-271.037081732615210
  0
LINE
  8
0
  6
CONTINUOUS
 62
3
 10
-419.262878351290510
 20
-317.770649049326040
 11
-419.262878351290510
 21
-263.809469474385650
  0
LINE
  8
0
  6
CONTINUOUS
 62
3
 10
-510.400087449712370
 20
-158.230975504042390
 11
-516.897676310157750
 21
-161.985143413595130
  0
LINE
  8
0
  6
CONTINUOUS
 62
3
 10
-516.897677752799610
 20
-161.985144445106040
 11
-516.900081009896440
 21
-169.489303418799890
  0
ARC
  8
0
  6
CONTINUOUS
 62
4
 10
-211.162878351290370
 20
-190.874748624642310
 40
289.397000000000160
 50
180.000000000000000
 51
186.051985358668500
  0
ARC
  8
0
  6
CONTINUOUS
 62
4
 10
-483.635779276500900
 20
-219.762778349780580
 40
15.397000000000052
 50
186.051985358668840
 51
225.000000000000000
  0
LINE
  8
0
  6
CONTINUOUS
 62
4
 10
-489.947036993791700
 20
-235.226166852348600
 11
-494.523102386430310
 21
-230.650101459709990
  0
ARC
  8
0
  6
CONTINUOUS
 62
4
 10
-485.704396306672610
 20
-230.983526165229050
 40
6.000000000000049
 50
225.000000000003070
 51
262.102011327574360
  0
ARC
  8
0
  6
CONTINUOUS
 62
4
 10
-446.762878351290280
 20
49.725251375357601
 40
289.396999999999820
 50
262.102011327572200
 51
270.000000000000000
  0
ARC
  8
0
  6
CONTINUOUS
 62
4
 10
-682.362878351290420
 20
-190.874748624642310
 40
289.397000000000160
 50
353.948014641331500
 51
0.000000000000000
  0
ARC
  8
0
  6
CONTINUOUS
 62
4
 10
-409.889977426079890
 20
-219.762778349780580
 40
15.396999999999876
 50
315.000000000000000
 51
353.948014641331160
  0
LINE
  8
0
  6
CONTINUOUS
 62
4
 10
-403.578719708789090
 20
-235.226166852348600
 11
-399.002654316150480
 21
-230.650101459709990
  0
ARC
  8
0
  6
CONTINUOUS
 62
4
 10
-407.821360395908190
 20
-230.983526165229050
 40
5.999999999999923
 50
277.897988672425640
 51
314.999999999996870
  0
ARC
  8
0
  6
CONTINUOUS
 62
4
 10
-446.762878351290510
 20
49.725251375357601
 40
289.396999999999930
 50
270.000000000000000
 51
277.897988672427800
  0
ARC
  8
0
  6
CONTINUOUS
 62
4
 10
-682.362878351290420
 20
-190.874748624642310
 40
289.397000000000160
 50
0.000000000000000
 51
6.051985358668508
  0
ARC
  8
0
  6
CONTINUOUS
 62
4
 10
-409.889977426079890
 20
-161.986718899504040
 40
15.397000000000052
 50
6.051985358668849
 51
45.000000000000000
  0
LINE
  8
0
  6
CONTINUOUS
 62
4
 10
-403.578719708789090
 20
-146.523330396936020
 11
-399.002654316150480
 21
-151.099395789574630
  0
ARC
  8
0
  6
CONTINUOUS
 62
4
 10
-407.821360395908190
 20
-150.765971084055560
 40
6.000000000000049
 50
45.000000000003077
 51
82.102011327574374
  0
ARC
  8
0
  6
CONTINUOUS
 62
4
 10
-446.762878351290510
 20
-431.474748624642190
 40
289.396999999999820
 50
82.102011327572214
 51
90.000000000000000
  0
LINE
  8
0
  6
CONTINUOUS
 62
4
 10
-489.947036993791700
 20
-146.523330396936020
 11
-494.523102386430310
 21
-151.099395789574630
  0
ARC
  8
0
  6
CONTINUOUS
 62
4
 10
-483.635779276500900
 20
-161.986718899504040
 40
15.396999999999876
 50
135.000000000000000
 51
173.948014641331160
  0
ARC
  8
0
  6
CONTINUOUS
 62
3
 10
-409.889977426079890
 20
-219.762778349780580
 40
26.599999999999955
 50
315.000000000001020
 51
353.948014641331380
  0
LINE
  8
0
  6
CONTINUOUS
 62
3
 10
-398.147386165176840
 20
-245.638267848002020
 11
-391.080937046517420
 21
-238.571818729342370
  0
ARC
  8
0
  6
CONTINUOUS
 62
3
 10
-682.362878351290420
 20
-190.874748624642310
 40
300.600000000000080
 50
353.948014641331500
 51
6.051985358668499
  0
ARC
  8
0
  6
CONTINUOUS
 62
3
 10
-483.635779276500900
 20
-219.762778349780580
 40
26.599999999999969
 50
186.051985358668590
 51
224.999999999998980
  0
ARC
  8
0
  6
CONTINUOUS
 62
3
 10
-211.162878351290490
 20
-190.874748624642310
 40
300.599999999999970
 50
173.948014641331500
 51
186.051985358668500
  0
LINE
  8
0
  6
CONTINUOUS
 62
3
 10
-495.378370537404180
 20
-245.638267848002020
 11
-502.444819656063370
 21
-238.571818729342370
  0
ARC
  8
0
  6
CONTINUOUS
 62
3
 10
-483.635779276500900
 20
-161.986718899504040
 40
26.600000000000119
 50
135.000000000000000
 51
173.948014641331410
  0
LINE
  8
0
  6
CONTINUOUS
 62
3
 10
-495.378370537404180
 20
-136.111229401282830
 11
-502.444819656063150
 21
-143.177678519941790
  0
ARC
  8
0
  6
CONTINUOUS
 62
3
 10
-409.889977426080120
 20
-161.986718899504040
 40
26.600000000000193
 50
6.051985358668552
 51
45.000000000000000
  0
LINE
  8
0
  6
CONTINUOUS
 62
3
 10
-398.147386165176840
 20
-136.111229401282830
 11
-391.080937046517870
 21
-143.177678519941790
  0
ARC
  8
0
  6
CONTINUOUS
 62
3
 10
-490.711465781573000
 20
-240.971363092170830
 40
6.599999999999957
 50
225.000000000000000
 51
261.402917762751090
  0
ARC
  8
0
  6
CONTINUOUS
 62
3
 10
-446.762878351290510
 20
49.725251375357828
 40
300.600000000000020
 50
261.402917762750920
 51
270.000000000000000
  0
ARC
  8
0
  6
CONTINUOUS
 62
3
 10
-402.814290921008020
 20
-240.971363092170830
 40
6.599999999999747
 50
278.597082237248910
 51
315.000000000000000
  0
ARC
  8
0
  6
CONTINUOUS
 62
3
 10
-446.762878351290510
 20
-431.474748624642190
 40
300.599999999999800
 50
81.402917762750931
 51
90.000000000000000
  0
ARC
  8
0
  6
CONTINUOUS
 62
3
 10
-402.814290921008020
 20
-140.778134157114010
 40
6.600000000000118
 50
45.000000000001400
 51
81.402917762751386
  0
ARC
  8
0
  6
CONTINUOUS
 62
3
 10
-446.762878351290510
 20
49.725251375357828
 40
300.600000000000140
 50
270.000000000000000
 51
278.597082237249080
  0
ARC
  8
0
  6
CONTINUOUS
 62
3
 10
-446.762878351290510
 20
-431.474748624642190
 40
300.599999999999910
 50
90.000000000000000
 51
98.597082237249069
  0
ARC
  8
0
  6
CONTINUOUS
 62
3
 10
-442.762878351290510
 20
-149.567969519996750
 40
1.500000000000203
 50
84.468928475159132
 51
180.000000000000000
  0
ARC
  8
0
  6
CONTINUOUS
 62
3
 10
-450.762878351290510
 20
-149.567969519996520
 40
1.500000000000000
 50
0.000000000000000
 51
95.531071524841693
  0
ARC
  8
0
  6
CONTINUOUS
 62
3
 10
-446.762878351290280
 20
-190.874748624641850
 40
17.999999999999922
 50
41.837004155893325
 51
78.162995844107314
  0
ARC
  8
0
  6
CONTINUOUS
 62
3
 10
-446.762878351290740
 20
-190.874748624641850
 40
27.499999999999815
 50
97.928141766201691
 51
142.071858233797880
  0
LINE
  8
0
  6
CONTINUOUS
 62
3
 10
-444.262878351290510
 20
-149.567969519996750
 11
-444.262878351290510
 21
-152.583104627550740
  0
LINE
  8
0
  6
CONTINUOUS
 62
3
 10
-414.851341897139720
 20
-169.563863116635530
 11
-412.240158298155620
 21
-168.056295562858420
  0
LINE
  8
0
  6
CONTINUOUS
 62
3
 10
-444.262878351290510
 20
-159.125732891867330
 11
-444.262878351290510
 21
-162.151935391951870
  0
ARC
  8
0
  6
CONTINUOUS
 62
3
 10
-442.762878351290510
 20
-159.125732891867330
 40
1.499999999999998
 50
82.819244218541712
 51
180.000000000000000
  0
ARC
  8
0
  6
CONTINUOUS
 62
3
 10
-442.762878351290510
 20
-152.583104627550740
 40
1.500000000000000
 50
180.000000000000000
 51
264.036429881682580
  0
ARC
  8
0
  6
CONTINUOUS
 62
3
 10
-412.990158298155620
 20
-166.757257457181620
 40
1.500000000000123
 50
299.999999999997270
 51
35.531071524839192
  0
ARC
  8
0
  6
CONTINUOUS
 62
3
 10
-446.762878351290960
 20
-190.874748624642310
 40
42.999999999999908
 50
35.531071524839248
 51
84.468928475160212
  0
ARC
  8
0
  6
CONTINUOUS
 62
3
 10
-408.990158298155170
 20
-173.685460687457660
 40
1.500000000000034
 50
24.468928475159590
 51
119.999999999997270
  0
LINE
  8
0
  6
CONTINUOUS
 62
3
 10
-412.351341897139490
 20
-173.893990135557970
 11
-409.740158298155170
 21
-172.386422581780860
  0
ARC
  8
0
  6
CONTINUOUS
 62
3
 10
-411.601341897139490
 20
-175.193028241234770
 40
1.500000000000123
 50
119.999999999997270
 51
204.036429881680680
  0
ARC
  8
0
  6
CONTINUOUS
 62
3
 10
-446.762878351290740
 20
-190.874748624642760
 40
36.999999999999972
 50
335.963570118321740
 51
24.036429881678870
  0
ARC
  8
0
  6
CONTINUOUS
 62
3
 10
-446.762878351290740
 20
-190.874748624642760
 40
42.999999999999936
 50
335.531071524839770
 51
24.468928475160769
  0
ARC
  8
0
  6
CONTINUOUS
 62
3
 10
-408.990158298155170
 20
-208.064036561827180
 40
1.500000000000320
 50
240.000000000007050
 51
335.531071524832500
  0
LINE
  8
0
  6
CONTINUOUS
 62
3
 10
-409.740158298155170
 20
-209.363074667504210
 11
-412.351341897139260
 21
-207.855507113726870
  0
ARC
  8
0
  6
CONTINUOUS
 62
3
 10
-411.601341897139260
 20
-206.556469008050300
 40
1.500000000000063
 50
155.963570118322880
 51
239.999999999998410
  0
ARC
  8
0
  6
CONTINUOUS
 62
3
 10
-412.990158298155170
 20
-214.992239792102990
 40
1.499999999999844
 50
324.468928475167900
 51
59.999999999998380
  0
LINE
  8
0
  6
CONTINUOUS
 62
3
 10
-412.240158298155170
 20
-213.693201686426420
 11
-414.851341897139260
 21
-212.185634132649080
  0
LINE
  8
0
  6
CONTINUOUS
 62
3
 10
-449.262878351290510
 20
-149.567969519996520
 11
-449.262878351290510
 21
-152.583104627550740
  0
ARC
  8
0
  6
CONTINUOUS
 62
3
 10
-450.762878351290510
 20
-152.583104627550740
 40
1.499999999999933
 50
275.963570118318330
 51
0.000000000000000
  0
LINE
  8
0
  6
CONTINUOUS
 62
3
 10
-449.262878351290510
 20
-159.125732891867330
 11
-449.262878351290510
 21
-162.151935391951870
  0
ARC
  8
0
  6
CONTINUOUS
 62
3
 10
-450.762878351290510
 20
-159.125732891867330
 40
1.500000000000000
 50
0.000000000000000
 51
97.180755781458288
  0
ARC
  8
0
  6
CONTINUOUS
 62
3
 10
-446.762878351290960
 20
-190.874748624641850
 40
23.999999999999901
 50
100.240348321185670
 51
139.759651678813550
  0
ARC
  8
0
  6
CONTINUOUS
 62
3
 10
-463.938057620335480
 20
-176.339852096761920
 40
1.499999999999802
 50
139.759651678811420
 51
239.999999999998410
  0
LINE
  8
0
  6
CONTINUOUS
 62
3
 10
-462.041263027356310
 20
-179.167017773184650
 11
-464.688057620335480
 21
-177.638890202438490
  0
ARC
  8
0
  6
CONTINUOUS
 62
3
 10
-461.291263027356310
 20
-177.867979667508080
 40
1.499999999999926
 50
239.999999999998410
 51
318.162995844106720
  0
ARC
  8
0
  6
CONTINUOUS
 62
3
 10
-446.762878351290960
 20
-190.874748624641850
 40
17.999999999999829
 50
101.837004155891980
 51
138.162995844106210
  0
ARC
  8
0
  6
CONTINUOUS
 62
3
 10
-450.762878351290510
 20
-171.789413940649670
 40
1.499999999999954
 50
281.837004155896690
 51
0.000000000000000
  0
LINE
  8
0
  6
CONTINUOUS
 62
3
 10
-449.262878351290510
 20
-168.733158799157340
 11
-449.262878351290510
 21
-171.789413940649670
  0
ARC
  8
0
  6
CONTINUOUS
 62
3
 10
-450.762878351290510
 20
-168.733158799157340
 40
1.500000000000000
 50
0.000000000000000
 51
100.240348321194510
  0
ARC
  8
0
  6
CONTINUOUS
 62
3
 10
-446.762878351290960
 20
-190.874748624641850
 40
14.499999999999980
 50
107.920213139390830
 51
132.079786860607560
  0
ARC
  8
0
  6
CONTINUOUS
 62
3
 10
-455.475020994105080
 20
-181.225988571077580
 40
1.499999999999792
 50
132.079786860611680
 51
239.999999999998410
  0
LINE
  8
0
  6
CONTINUOUS
 62
3
 10
-453.450132284484430
 20
-184.127109420225030
 11
-456.225020994105080
 21
-182.525026676754150
  0
ARC
  8
0
  6
CONTINUOUS
 62
3
 10
-452.700132284484430
 20
-182.828071314548450
 40
1.499999999999926
 50
239.999999999998410
 51
306.421821521797600
  0
ARC
  8
0
  6
CONTINUOUS
 62
3
 10
-446.762878351290960
 20
-190.874748624641850
 40
8.499999999999879
 50
113.578178478199500
 51
126.421821521797340
  0
ARC
  8
0
  6
CONTINUOUS
 62
3
 10
-450.762878351290510
 20
-181.709597234729960
 40
1.500000000000139
 50
293.578178478195700
 51
0.000000000000000
  0
LINE
  8
0
  6
CONTINUOUS
 62
3
 10
-449.262878351290510
 20
-178.505431747788890
 11
-449.262878351290510
 21
-181.709597234729960
  0
ARC
  8
0
  6
CONTINUOUS
 62
3
 10
-450.762878351290510
 20
-178.505431747788890
 40
1.500000000000000
 50
0.000000000000000
 51
107.920213139394770
  0
ARC
  8
0
  6
CONTINUOUS
 62
3
 10
-446.762878351290510
 20
-190.874748624642310
 40
23.999999999999716
 50
280.240348321186270
 51
319.759651678814690
  0
ARC
  8
0
  6
CONTINUOUS
 62
3
 10
-442.762878351290510
 20
-213.016338450126820
 40
1.500000000000000
 50
180.000000000000000
 51
280.240348321187530
  0
LINE
  8
0
  6
CONTINUOUS
 62
3
 10
-444.262878351290510
 20
-209.960083308634490
 11
-444.262878351290510
 21
-213.016338450126820
  0
ARC
  8
0
  6
CONTINUOUS
 62
3
 10
-442.762878351290510
 20
-209.960083308634490
 40
1.499999999999731
 50
101.837004155898450
 51
180.000000000000000
  0
ARC
  8
0
  6
CONTINUOUS
 62
3
 10
-446.762878351290510
 20
-190.874748624642310
 40
18.000000000000146
 50
281.837004155893230
 51
318.162995844107680
  0
ARC
  8
0
  6
CONTINUOUS
 62
3
 10
-432.234493675224710
 20
-203.881517581776080
 40
1.499999999999926
 50
59.999999999998380
 51
138.162995844100240
  0
LINE
  8
0
  6
CONTINUOUS
 62
3
 10
-428.837699082245760
 20
-204.110607046845670
 11
-431.484493675224710
 21
-202.582479476099510
  0
ARC
  8
0
  6
CONTINUOUS
 62
3
 10
-429.587699082245760
 20
-205.409645152522240
 40
1.499999999999828
 50
319.759651678823670
 51
59.999999999998380
  0
ARC
  8
0
  6
CONTINUOUS
 62
3
 10
-446.762878351290510
 20
-190.874748624642310
 40
14.500000000000121
 50
287.920213139392560
 51
312.079786860608860
  0
ARC
  8
0
  6
CONTINUOUS
 62
3
 10
-442.762878351290510
 20
-203.244065501495040
 40
1.500000000000000
 50
180.000000000000000
 51
287.920213139392100
  0
LINE
  8
0
  6
CONTINUOUS
 62
3
 10
-444.262878351290510
 20
-200.039900014553750
 11
-444.262878351290510
 21
-203.244065501495040
  0
ARC
  8
0
  6
CONTINUOUS
 62
3
 10
-442.762878351290510
 20
-200.039900014554210
 40
1.500000000000139
 50
113.578178478195690
 51
179.999999999982630
  0
ARC
  8
0
  6
CONTINUOUS
 62
3
 10
-446.762878351290510
 20
-190.874748624642310
 40
8.500000000000060
 50
293.578178478202350
 51
306.421821521799190
  0
ARC
  8
0
  6
CONTINUOUS
 62
3
 10
-440.825624418096600
 20
-198.921425934735710
 40
1.499999999999926
 50
59.999999999998380
 51
126.421821521801260
  0
LINE
  8
0
  6
CONTINUOUS
 62
3
 10
-437.300735708476170
 20
-199.224470572529550
 11
-440.075624418096600
 21
-197.622387829059140
  0
ARC
  8
0
  6
CONTINUOUS
 62
3
 10
-438.050735708476170
 20
-200.523508678206580
 40
1.499999999999944
 50
312.079786860618130
 51
60.000000000007070
  0
ARC
  8
0
  6
CONTINUOUS
 62
3
 10
-446.762878351290510
 20
-190.874748624642310
 40
23.999999999999844
 50
220.240348321185340
 51
259.759651678813730
  0
ARC
  8
0
  6
CONTINUOUS
 62
3
 10
-450.762878351290510
 20
-213.016338450126820
 40
1.499999999999728
 50
259.759651678812470
 51
0.000000000000000
  0
LINE
  8
0
  6
CONTINUOUS
 62
3
 10
-449.262878351290510
 20
-209.960083308634490
 11
-449.262878351290510
 21
-213.016338450126820
  0
ARC
  8
0
  6
CONTINUOUS
 62
3
 10
-450.762878351290510
 20
-209.960083308634490
 40
1.500000000000000
 50
0.000000000000000
 51
78.162995844101530
  0
ARC
  8
0
  6
CONTINUOUS
 62
3
 10
-446.762878351290510
 20
-190.874748624642310
 40
17.999999999999940
 50
221.837004155892320
 51
258.162995844106770
  0
ARC
  8
0
  6
CONTINUOUS
 62
3
 10
-461.291263027356310
 20
-203.881517581776080
 40
1.500000000000118
 50
41.837004155899741
 51
120.000000000001620
  0
LINE
  8
0
  6
CONTINUOUS
 62
3
 10
-464.688057620335260
 20
-204.110607046845670
 11
-462.041263027356310
 21
-202.582479476099510
  0
ARC
  8
0
  6
CONTINUOUS
 62
3
 10
-463.938057620335260
 20
-205.409645152522240
 40
1.499999999999926
 50
120.000000000001620
 51
220.240348321176330
  0
ARC
  8
0
  6
CONTINUOUS
 62
3
 10
-446.762878351290510
 20
-190.874748624642310
 40
14.500000000000011
 50
227.920213139391080
 51
252.079786860607410
  0
ARC
  8
0
  6
CONTINUOUS
 62
3
 10
-450.762878351290510
 20
-203.244065501495040
 40
1.500000000000355
 50
252.079786860607900
 51
0.000000000000000
  0
LINE
  8
0
  6
CONTINUOUS
 62
3
 10
-449.262878351290510
 20
-200.039900014553750
 11
-449.262878351290510
 21
-203.244065501495040
  0
ARC
  8
0
  6
CONTINUOUS
 62
3
 10
-450.762878351290510
 20
-200.039900014554210
 40
1.500000000000000
 50
0.000000000017370
 51
66.421821521804304
  0
ARC
  8
0
  6
CONTINUOUS
 62
3
 10
-446.762878351290510
 20
-190.874748624642310
 40
8.499999999999870
 50
233.578178478199590
 51
246.421821521797680
  0
ARC
  8
0
  6
CONTINUOUS
 62
3
 10
-452.700132284484430
 20
-198.921425934735710
 40
1.500000000000059
 50
53.578178478205707
 51
120.000000000001620
  0
LINE
  8
0
  6
CONTINUOUS
 62
3
 10
-456.225020994104850
 20
-199.224470572529550
 11
-453.450132284484430
 21
-197.622387829059140
  0
ARC
  8
0
  6
CONTINUOUS
 62
3
 10
-455.475020994104850
 20
-200.523508678206580
 40
1.500000000000320
 50
119.999999999992930
 51
227.920213139381870
  0
ARC
  8
0
  6
CONTINUOUS
 62
3
 10
-446.762878351290960
 20
-190.874748624641850
 40
23.999999999999925
 50
160.240348321185910
 51
199.759651678814090
  0
ARC
  8
0
  6
CONTINUOUS
 62
3
 10
-467.938057620335480
 20
-183.268055327037270
 40
1.499999999999926
 50
59.999999999998380
 51
160.240348321185250
  0
LINE
  8
0
  6
CONTINUOUS
 62
3
 10
-464.541263027356310
 20
-183.497144792106870
 11
-467.188057620335480
 21
-181.969017221360700
  0
ARC
  8
0
  6
CONTINUOUS
 62
3
 10
-465.291263027356310
 20
-184.796182897783440
 40
1.500000000000038
 50
341.837004155895390
 51
59.999999999998380
  0
ARC
  8
0
  6
CONTINUOUS
 62
3
 10
-446.762878351290960
 20
-190.874748624641850
 40
17.999999999999726
 50
161.837004155893140
 51
198.162995844106860
  0
ARC
  8
0
  6
CONTINUOUS
 62
3
 10
-465.291263027356310
 20
-196.953314351500270
 40
1.500000000000320
 50
299.999999999992950
 51
18.162995844104589
  0
LINE
  8
0
  6
CONTINUOUS
 62
3
 10
-467.188057620335260
 20
-199.780480027923010
 11
-464.541263027356310
 21
-198.252352457177300
  0
ARC
  8
0
  6
CONTINUOUS
 62
3
 10
-467.938057620335260
 20
-198.481441922246430
 40
1.500000000000246
 50
199.759651678811820
 51
300.000000000001590
  0
ARC
  8
0
  6
CONTINUOUS
 62
3
 10
-446.762878351290960
 20
-190.874748624641850
 40
14.499999999999851
 50
167.920213139392840
 51
192.079786860608920
  0
ARC
  8
0
  6
CONTINUOUS
 62
3
 10
-459.475020994105080
 20
-188.154191801352940
 40
1.499999999999926
 50
59.999999999998380
 51
167.920213139405550
  0
LINE
  8
0
  6
CONTINUOUS
 62
3
 10
-455.950132284484430
 20
-188.457236439147240
 11
-458.725020994105080
 21
-186.855153695676360
  0
ARC
  8
0
  6
CONTINUOUS
 62
3
 10
-456.700132284484430
 20
-189.756274544823810
 40
1.499999999999873
 50
353.578178478198030
 51
59.999999999998380
  0
ARC
  8
0
  6
CONTINUOUS
 62
3
 10
-446.762878351290960
 20
-190.874748624641850
 40
8.499999999999813
 50
173.578178478202550
 51
186.421821521800500
  0
ARC
  8
0
  6
CONTINUOUS
 62
3
 10
-456.700132284484430
 20
-191.993222704460350
 40
1.499999999999926
 50
300.000000000001590
 51
6.421821521801967
  0
LINE
  8
0
  6
CONTINUOUS
 62
3
 10
-458.725020994104850
 20
-194.894343553607340
 11
-455.950132284484430
 21
-193.292260810136920
  0
ARC
  8
0
  6
CONTINUOUS
 62
3
 10
-459.475020994104850
 20
-193.595305447930770
 40
1.500000000000287
 50
192.079786860609600
 51
300.000000000001590
  0
ARC
  8
0
  6
CONTINUOUS
 62
3
 10
-446.762878351290280
 20
-190.874748624641850
 40
24.000000000000139
 50
340.240348321186050
 51
19.759651678813924
  0
ARC
  8
0
  6
CONTINUOUS
 62
3
 10
-425.587699082245760
 20
-183.268055327037270
 40
1.500000000000246
 50
19.759651678811824
 51
120.000000000001620
  0
LINE
  8
0
  6
CONTINUOUS
 62
3
 10
-428.984493675224710
 20
-183.497144792106870
 11
-426.337699082245760
 21
-181.969017221360700
  0
ARC
  8
0
  6
CONTINUOUS
 62
3
 10
-428.234493675224710
 20
-184.796182897783440
 40
1.499999999999926
 50
120.000000000001620
 51
198.162995844104590
  0
ARC
  8
0
  6
CONTINUOUS
 62
3
 10
-446.762878351290280
 20
-190.874748624641850
 40
17.999999999999943
 50
341.837004155893340
 51
18.162995844106646
  0
ARC
  8
0
  6
CONTINUOUS
 62
3
 10
-428.234493675224710
 20
-196.953314351500270
 40
1.500000000000038
 50
161.837004155895410
 51
240.000000000007050
  0
LINE
  8
0
  6
CONTINUOUS
 62
3
 10
-426.337699082245760
 20
-199.780480027923010
 11
-428.984493675224710
 21
-198.252352457177300
  0
ARC
  8
0
  6
CONTINUOUS
 62
3
 10
-425.587699082245760
 20
-198.481441922246430
 40
1.499999999999926
 50
239.999999999998410
 51
340.240348321188210
  0
ARC
  8
0
  6
CONTINUOUS
 62
3
 10
-446.762878351290280
 20
-190.874748624641850
 40
14.500000000000169
 50
347.920213139391310
 51
12.079786860606980
  0
ARC
  8
0
  6
CONTINUOUS
 62
3
 10
-434.050735708476170
 20
-188.154191801352940
 40
1.500000000000192
 50
12.079786860592611
 51
120.000000000001620
  0
LINE
  8
0
  6
CONTINUOUS
 62
3
 10
-437.575624418096600
 20
-188.457236439147240
 11
-434.800735708476170
 21
-186.855153695676360
  0
ARC
  8
0
  6
CONTINUOUS
 62
3
 10
-436.825624418096600
 20
-189.756274544823810
 40
1.499999999999926
 50
120.000000000001620
 51
186.421821521801010
  0
ARC
  8
0
  6
CONTINUOUS
 62
3
 10
-446.762878351290280
 20
-190.874748624641850
 40
8.499999999999865
 50
353.578178478199500
 51
6.421821521797448
  0
ARC
  8
0
  6
CONTINUOUS
 62
3
 10
-436.825624418096600
 20
-191.993222704460350
 40
1.500000000000099
 50
173.578178478198990
 51
239.999999999998410
  0
LINE
  8
0
  6
CONTINUOUS
 62
3
 10
-434.800735708476170
 20
-194.894343553607340
 11
-437.575624418096600
 21
-193.292260810136920
  0
ARC
  8
0
  6
CONTINUOUS
 62
3
 10
-434.050735708476170
 20
-193.595305447930770
 40
1.499999999999926
 50
239.999999999998410
 51
347.920213139390400
  0
ARC
  8
0
  6
CONTINUOUS
 62
3
 10
-446.762878351290280
 20
-190.874748624641850
 40
8.500000000000101
 50
53.578178478202659
 51
66.421821521799089
  0
ARC
  8
0
  6
CONTINUOUS
 62
3
 10
-446.762878351290280
 20
-190.874748624641850
 40
23.999999999999819
 50
40.240348321186090
 51
79.759651678814322
  0
LINE
  8
0
  6
CONTINUOUS
 62
3
 10
-440.075624418096600
 20
-184.127109420225030
 11
-437.300735708476170
 21
-182.525026676754150
  0
LINE
  8
0
  6
CONTINUOUS
 62
3
 10
-444.262878351290510
 20
-168.733158799157340
 11
-444.262878351290510
 21
-171.789413940649670
  0
LINE
  8
0
  6
CONTINUOUS
 62
3
 10
-444.262878351290510
 20
-178.505431747788890
 11
-444.262878351290510
 21
-181.709597234729960
  0
ARC
  8
0
  6
CONTINUOUS
 62
3
 10
-446.762878351290280
 20
-190.874748624641850
 40
14.499999999999860
 50
47.920213139391755
 51
72.079786860608309
  0
LINE
  8
0
  6
CONTINUOUS
 62
3
 10
-431.484493675224710
 20
-179.167017773184650
 11
-428.837699082245760
 21
-177.638890202438490
  0
ARC
  8
0
  6
CONTINUOUS
 62
3
 10
-438.050735708476170
 20
-181.225988571077580
 40
1.499999999999926
 50
300.000000000001590
 51
47.920213139381872
  0
ARC
  8
0
  6
CONTINUOUS
 62
3
 10
-442.762878351290510
 20
-168.733158799157340
 40
1.499999999999952
 50
79.759651678814024
 51
180.000000000000000
  0
ARC
  8
0
  6
CONTINUOUS
 62
3
 10
-432.234493675224710
 20
-177.867979667508080
 40
1.499999999999967
 50
221.837004155893280
 51
300.000000000001590
  0
ARC
  8
0
  6
CONTINUOUS
 62
3
 10
-442.762878351290510
 20
-171.789413940649670
 40
1.500000000000000
 50
180.000000000000000
 51
258.162995844103310
  0
ARC
  8
0
  6
CONTINUOUS
 62
3
 10
-442.762878351290510
 20
-178.505431747788890
 40
1.500000000000138
 50
72.079786860605225
 51
180.000000000000000
  0
ARC
  8
0
  6
CONTINUOUS
 62
3
 10
-429.587699082245760
 20
-176.339852096761920
 40
1.499999999999926
 50
300.000000000001590
 51
40.240348321182964
  0
ARC
  8
0
  6
CONTINUOUS
 62
3
 10
-442.762878351290510
 20
-181.709597234729960
 40
1.500000000000000
 50
180.000000000000000
 51
246.421821521804280
  0
ARC
  8
0
  6
CONTINUOUS
 62
3
 10
-440.825624418096600
 20
-182.828071314548450
 40
1.499999999999693
 50
233.578178478195410
 51
300.000000000001590
  0
CIRCLE
  8
0
  6
CONTINUOUS
 62
3
 10
-446.762878351290510
 20
-190.874748624641850
 40
5.000000000000000
  0
ARC
  8
0
  6
CONTINUOUS
 62
3
 10
-423.888192423624790
 20
-173.049240393159180
 40
1.499999999999843
 50
217.928141766204990
 51
300.000000000001590
  0
LINE
  8
0
  6
CONTINUOUS
 62
3
 10
-423.138192423624790
 20
-174.348278498835750
 11
-420.517424181555950
 21
-172.835177248793600
  0
ARC
  8
0
  6
CONTINUOUS
 62
3
 10
-442.762878351290510
 20
-162.151935391951870
 40
1.500000000000000
 50
180.000000000000000
 51
262.071858233795980
  0
ARC
  8
0
  6
CONTINUOUS
 62
3
 10
-446.762878351290280
 20
-190.874748624641850
 40
27.500000000000060
 50
37.928141766201819
 51
82.071858233798309
  0
ARC
  8
0
  6
CONTINUOUS
 62
3
 10
-421.267424181555950
 20
-171.536139143117030
 40
1.499999999999926
 50
300.000000000001590
 51
37.180755781457485
  0
ARC
  8
0
  6
CONTINUOUS
 62
3
 10
-415.601341897139720
 20
-168.264825010958730
 40
1.500000000000102
 50
215.963570118316280
 51
299.999999999997270
  0
ARC
  8
0
  6
CONTINUOUS
 62
3
 10
-446.762878351290960
 20
-190.874748624642310
 40
36.999999999999943
 50
35.963570118321194
 51
84.036429881678174
  0
ARC
  8
0
  6
CONTINUOUS
 62
3
 10
-446.762878351290960
 20
-190.874748624642310
 40
33.500000000000071
 50
37.180755781458259
 51
82.819244218540931
  0
LINE
  8
0
  6
CONTINUOUS
 62
3
 10
-420.638192423624560
 20
-178.678405517758420
 11
-418.017424181555730
 21
-177.165304267716270
  0
ARC
  8
0
  6
CONTINUOUS
 62
3
 10
-417.267424181555730
 20
-178.464342373393070
 40
1.499999999999948
 50
22.819244218550043
 51
119.999999999997270
  0
ARC
  8
0
  6
CONTINUOUS
 62
3
 10
-419.888192423624560
 20
-179.977443623434990
 40
1.499999999999926
 50
120.000000000001620
 51
202.071858233797370
  0
ARC
  8
0
  6
CONTINUOUS
 62
3
 10
-446.762878351290060
 20
-190.874748624642310
 40
27.499999999999886
 50
337.928141766202200
 51
22.071858233797812
  0
ARC
  8
0
  6
CONTINUOUS
 62
3
 10
-446.762878351290740
 20
-190.874748624642760
 40
33.500000000000128
 50
337.180755781459030
 51
22.819244218541968
  0
ARC
  8
0
  6
CONTINUOUS
 62
3
 10
-419.888192423624790
 20
-201.772053625849620
 40
1.499999999999899
 50
157.928141766199360
 51
240.000000000007050
  0
LINE
  8
0
  6
CONTINUOUS
 62
3
 10
-418.017424181555500
 20
-204.584192981568580
 11
-420.638192423624790
 21
-203.071091731526650
  0
ARC
  8
0
  6
CONTINUOUS
 62
3
 10
-417.267424181555500
 20
-203.285154875892000
 40
1.499999999999926
 50
239.999999999998410
 51
337.180755781453340
  0
ARC
  8
0
  6
CONTINUOUS
 62
3
 10
-442.762878351290280
 20
-232.181527729287410
 40
1.500000000000000
 50
180.000000000000000
 51
275.531071524831360
  0
LINE
  8
0
  6
CONTINUOUS
 62
3
 10
-444.262878351290280
 20
-229.166392621733190
 11
-444.262878351290280
 21
-232.181527729287410
  0
LINE
  8
0
  6
CONTINUOUS
 62
3
 10
-444.262878351290280
 20
-219.597561857332750
 11
-444.262878351290280
 21
-222.623764357417060
  0
ARC
  8
0
  6
CONTINUOUS
 62
3
 10
-442.762878351290280
 20
-229.166392621733650
 40
1.500000000000182
 50
95.963570118326047
 51
179.999999999982630
  0
ARC
  8
0
  6
CONTINUOUS
 62
3
 10
-442.762878351290280
 20
-222.623764357417060
 40
1.500000000000000
 50
180.000000000000000
 51
277.180755781458290
  0
ARC
  8
0
  6
CONTINUOUS
 62
3
 10
-442.762878351290280
 20
-219.597561857332750
 40
1.499999999999967
 50
97.928141766195438
 51
180.000000000000000
  0
ARC
  8
0
  6
CONTINUOUS
 62
3
 10
-446.762878351290280
 20
-190.874748624642760
 40
27.499999999999879
 50
277.928141766202600
 51
322.071858233798930
  0
ARC
  8
0
  6
CONTINUOUS
 62
3
 10
-446.762878351290280
 20
-190.874748624641850
 40
37.000000000000028
 50
275.963570118320770
 51
324.036429881678030
  0
ARC
  8
0
  6
CONTINUOUS
 62
3
 10
-446.762878351290280
 20
-190.874748624641850
 40
43.000000000000199
 50
275.531071524838860
 51
324.468928475160340
  0
ARC
  8
0
  6
CONTINUOUS
 62
3
 10
-446.762878351290280
 20
-190.874748624641850
 40
33.500000000000114
 50
277.180755781458230
 51
322.819244218540860
  0
ARC
  8
0
  6
CONTINUOUS
 62
3
 10
-423.888192423624790
 20
-208.700256856125430
 40
1.500000000000320
 50
60.000000000007070
 51
142.071858233781280
  0
ARC
  8
0
  6
CONTINUOUS
 62
3
 10
-415.601341897139260
 20
-213.484672238325660
 40
1.499999999999926
 50
59.999999999998380
 51
144.036429881690740
  0
LINE
  8
0
  6
CONTINUOUS
 62
3
 10
-420.517424181555500
 20
-208.914320000490790
 11
-423.138192423624790
 21
-207.401218750448410
  0
ARC
  8
0
  6
CONTINUOUS
 62
3
 10
-421.267424181555500
 20
-210.213358106167360
 40
1.500000000000240
 50
322.819244218535570
 51
59.999999999998380
  0
ARC
  8
0
  6
CONTINUOUS
 62
3
 10
-450.762878351290740
 20
-232.181527729287410
 40
1.500000000000430
 50
264.468928475160000
 51
0.000000000000000
  0
LINE
  8
0
  6
CONTINUOUS
 62
3
 10
-449.262878351290740
 20
-229.166392621733190
 11
-449.262878351290740
 21
-232.181527729287410
  0
LINE
  8
0
  6
CONTINUOUS
 62
3
 10
-449.262878351290740
 20
-219.597561857332750
 11
-449.262878351290740
 21
-222.623764357417060
  0
ARC
  8
0
  6
CONTINUOUS
 62
3
 10
-450.762878351290740
 20
-229.166392621733650
 40
1.500000000000000
 50
0.000000000017370
 51
84.036429881682594
  0
ARC
  8
0
  6
CONTINUOUS
 62
3
 10
-450.762878351290740
 20
-222.623764357417060
 40
1.499999999999998
 50
262.819244218541710
 51
0.000000000000000
  0
ARC
  8
0
  6
CONTINUOUS
 62
3
 10
-450.762878351290740
 20
-219.597561857332750
 40
1.500000000000000
 50
0.000000000000000
 51
82.071858233804562
  0
ARC
  8
0
  6
CONTINUOUS
 62
3
 10
-446.762878351290740
 20
-190.874748624642760
 40
27.499999999999780
 50
217.928141766201070
 51
262.071858233797400
  0
ARC
  8
0
  6
CONTINUOUS
 62
3
 10
-446.762878351290740
 20
-190.874748624641850
 40
37.000000000000021
 50
215.963570118321970
 51
264.036429881678940
  0
ARC
  8
0
  6
CONTINUOUS
 62
3
 10
-446.762878351290740
 20
-190.874748624641850
 40
42.999999999999858
 50
215.531071524839690
 51
264.468928475160850
  0
ARC
  8
0
  6
CONTINUOUS
 62
3
 10
-446.762878351290740
 20
-190.874748624641850
 40
33.500000000000163
 50
217.180755781459110
 51
262.819244218541770
  0
ARC
  8
0
  6
CONTINUOUS
 62
3
 10
-469.637564278956230
 20
-208.700256856125430
 40
1.500000000000122
 50
37.928141766218701
 51
119.999999999992930
  0
ARC
  8
0
  6
CONTINUOUS
 62
3
 10
-480.535598404425850
 20
-214.992239792102990
 40
1.499999999999926
 50
120.000000000001620
 51
215.531071524832130
  0
LINE
  8
0
  6
CONTINUOUS
 62
3
 10
-481.285598404425850
 20
-213.693201686426420
 11
-478.674414805441760
 21
-212.185634132649080
  0
ARC
  8
0
  6
CONTINUOUS
 62
3
 10
-477.924414805441760
 20
-213.484672238325660
 40
1.499999999999968
 50
35.963570118309242
 51
120.000000000001620
  0
LINE
  8
0
  6
CONTINUOUS
 62
3
 10
-473.008332521025520
 20
-208.914320000490790
 11
-470.387564278956230
 21
-207.401218750448410
  0
ARC
  8
0
  6
CONTINUOUS
 62
3
 10
-472.258332521025520
 20
-210.213358106167360
 40
1.499999999999926
 50
120.000000000001620
 51
217.180755781464400
  0
ARC
  8
0
  6
CONTINUOUS
 62
3
 10
-484.535598404425850
 20
-173.685460687457660
 40
1.499999999999926
 50
59.999999999998380
 51
155.531071524840400
  0
LINE
  8
0
  6
CONTINUOUS
 62
3
 10
-481.174414805441300
 20
-173.893990135558200
 11
-483.785598404425850
 21
-172.386422581781090
  0
LINE
  8
0
  6
CONTINUOUS
 62
3
 10
-472.887564278956460
 20
-178.678405517758420
 11
-475.508332521025300
 21
-177.165304267716270
  0
ARC
  8
0
  6
CONTINUOUS
 62
3
 10
-481.924414805441530
 20
-175.193028241234770
 40
1.499999999999855
 50
335.963570118319300
 51
59.999999999990862
  0
ARC
  8
0
  6
CONTINUOUS
 62
3
 10
-476.258332521025300
 20
-178.464342373393070
 40
1.500000000000123
 50
60.000000000002721
 51
157.180755781457980
  0
ARC
  8
0
  6
CONTINUOUS
 62
3
 10
-473.637564278956460
 20
-179.977443623434990
 40
1.500000000000110
 50
337.928141766202600
 51
59.999999999998380
  0
ARC
  8
0
  6
CONTINUOUS
 62
3
 10
-446.762878351290960
 20
-190.874748624642310
 40
27.499999999999886
 50
157.928141766202200
 51
202.071858233798680
  0
ARC
  8
0
  6
CONTINUOUS
 62
3
 10
-446.762878351290280
 20
-190.874748624642760
 40
37.000000000000156
 50
155.963570118321120
 51
204.036429881678230
  0
ARC
  8
0
  6
CONTINUOUS
 62
3
 10
-446.762878351290280
 20
-190.874748624642760
 40
43.000000000000121
 50
155.531071524839230
 51
204.468928475160200
  0
ARC
  8
0
  6
CONTINUOUS
 62
3
 10
-446.762878351290280
 20
-190.874748624642760
 40
33.499999999999794
 50
157.180755781458400
 51
202.819244218540940
  0
ARC
  8
0
  6
CONTINUOUS
 62
3
 10
-473.637564278956230
 20
-201.772053625849620
 40
1.500000000000320
 50
299.999999999992950
 51
22.071858233784546
  0
ARC
  8
0
  6
CONTINUOUS
 62
3
 10
-484.535598404425850
 20
-208.064036561827180
 40
1.500000000000128
 50
204.468928475167470
 51
299.999999999992950
  0
LINE
  8
0
  6
CONTINUOUS
 62
3
 10
-483.785598404425850
 20
-209.363074667504210
 11
-481.174414805441760
 21
-207.855507113726870
  0
ARC
  8
0
  6
CONTINUOUS
 62
3
 10
-481.924414805441760
 20
-206.556469008050300
 40
1.499999999999926
 50
300.000000000001590
 51
24.036429881677126
  0
LINE
  8
0
  6
CONTINUOUS
 62
3
 10
-475.508332521025520
 20
-204.584192981568580
 11
-472.887564278956230
 21
-203.071091731526650
  0
ARC
  8
0
  6
CONTINUOUS
 62
3
 10
-476.258332521025520
 20
-203.285154875892000
 40
1.500000000000157
 50
202.819244218546660
 51
300.000000000001590
  0
ARC
  8
0
  6
CONTINUOUS
 62
3
 10
-480.535598404425400
 20
-166.757257457181620
 40
1.499999999999976
 50
144.468928475160790
 51
240.000000000002730
  0
LINE
  8
0
  6
CONTINUOUS
 62
3
 10
-478.674414805441300
 20
-169.563863116635530
 11
-481.285598404425400
 21
-168.056295562858420
  0
LINE
  8
0
  6
CONTINUOUS
 62
3
 10
-470.387564278956230
 20
-174.348278498835750
 11
-473.008332521025070
 21
-172.835177248793600
  0
ARC
  8
0
  6
CONTINUOUS
 62
3
 10
-477.924414805441300
 20
-168.264825010958730
 40
1.500000000000123
 50
240.000000000002730
 51
324.036429881683720
  0
ARC
  8
0
  6
CONTINUOUS
 62
3
 10
-472.258332521025070
 20
-171.536139143117030
 40
1.500000000000103
 50
142.819244218542510
 51
239.999999999998410
  0
ARC
  8
0
  6
CONTINUOUS
 62
3
 10
-469.637564278956230
 20
-173.049240393159180
 40
1.499999999999926
 50
239.999999999998410
 51
322.071858233800300
  0
ARC
  8
0
  6
CONTINUOUS
 62
3
 10
-446.762878351290060
 20
-190.874748624642310
 40
37.000000000000099
 50
95.963570118321798
 51
144.036429881678830
  0
ARC
  8
0
  6
CONTINUOUS
 62
3
 10
-446.762878351290060
 20
-190.874748624642310
 40
43.000000000000043
 50
95.531071524839788
 51
144.468928475160770
  0
ARC
  8
0
  6
CONTINUOUS
 62
3
 10
-446.762878351290060
 20
-190.874748624642310
 40
33.499999999999950
 50
97.180755781459069
 51
142.819244218541740
  0
ARC
  8
0
  6
CONTINUOUS
 62
3
 10
-450.762878351290510
 20
-162.151935391951870
 40
1.499999999999998
 50
277.928141766204020
 51
0.000000000000000
  0
ARC
  8
0
  6
CONTINUOUS
 62
3
 10
-490.711465781573000
 20
-140.778134157114010
 40
6.599999999999971
 50
98.597082237248614
 51
134.999999999998610
  0
ARC
  8
0
  6
CONTINUOUS
 62
4
 10
-485.704396306672610
 20
-150.765971084055560
 40
5.999999999999923
 50
97.897988672425626
 51
134.999999999996930
  0
ARC
  8
0
  6
CONTINUOUS
 62
4
 10
-446.762878351290510
 20
-431.474748624642190
 40
289.396999999999930
 50
90.000000000000000
 51
97.897988672427743
  0
LINE
  8
0
  6
CONTINUOUS
 62
3
 10
-383.262878351290510
 20
-223.479492310919030
 11
-380.236701402982590
 21
-223.400249078696130
  0
ARC
  8
0
  6
CONTINUOUS
 62
3
 10
-380.262878351290510
 20
-222.400591753720650
 40
0.999999999999931
 50
271.500000000002790
 51
0.000000000000000
  0
ARC
  8
0
  6
CONTINUOUS
 62
3
 10
-380.262878351290510
 20
-159.348905495563970
 40
1.000000000000000
 50
0.000000000000000
 51
88.499999999997186
  0
LINE
  8
0
  6
CONTINUOUS
 62
3
 10
-379.262878351290510
 20
-222.400591753720650
 11
-379.262878351290510
 21
-159.348905495563970
  0
LINE
  8
0
  6
CONTINUOUS
 62
3
 10
-383.262878351290510
 20
-158.270004938365590
 11
-380.236701402982590
 21
-158.349248170588480
  0
LINE
  8
0
  6
CONTINUOUS
 62
3
 10
-383.262878351290510
 20
-160.882249562375510
 11
-383.262878351290510
 21
-158.270004938365590
  0
LINE
  8
0
  6
CONTINUOUS
 62
3
 10
-383.262878351290510
 20
-220.867247686909110
 11
-383.262878351290510
 21
-223.479492310919030
  0
LINE
  8
0
  6
CONTINUOUS
 62
3
 10
-379.262878351290510
 20
-190.874748624642310
 11
-379.262878351290510
 21
-159.874748624642310
  0
LINE
  8
0
  6
CONTINUOUS
 62
3
 10
-379.262878351290510
 20
-190.874748624642310
 11
-379.262878351290510
 21
-221.874748624642310
  0
ARC
  8
0
  6
CONTINUOUS
 62
3
 10
-373.992778367075060
 20
-149.298423084754890
 40
1.000000000000041
 50
24.000000000003585
 51
113.999999999979760
  0
LINE
  8
0
  6
CONTINUOUS
 62
4
 10
-333.334937321670400
 20
-247.501490559893710
 11
-337.171828243769370
 21
-249.209784460812020
  0
LINE
  8
0
  6
CONTINUOUS
 62
4
 10
-334.677168243820920
 20
-244.486790549673090
 11
-338.514059165919660
 21
-246.195084450591390
  0
LINE
  8
0
  6
CONTINUOUS
 62
3
 10
-338.336676080821230
 20
-245.732985715339990
 11
-338.514059165919660
 21
-246.195084450591390
  0
LINE
  8
0
  6
CONTINUOUS
 62
3
 10
-336.709729508518190
 20
-249.387167545909990
 11
-337.171828243769600
 21
-249.209784460811560
  0
LINE
  8
0
  6
CONTINUOUS
 62
3
 10
-338.514059165919660
 20
-246.195084450591390
 11
-337.171828243769600
 21
-249.209784460811560
  0
POINT
  8
0
  6
CONTINUOUS
 62
3
 10
-330.534580043703730
 20
-244.448541311095170
  0
LINE
  8
0
  6
CONTINUOUS
 62
3
 10
-331.958158294469290
 20
-241.251132209346030
 11
-329.111001792938400
 21
-247.645950412844310
  0
LINE
  8
0
  6
CONTINUOUS
 62
3
 10
-331.958158294469290
 20
-241.251132209346030
 11
-329.111001792938400
 21
-247.645950412844310
  0
LINE
  8
0
  6
CONTINUOUS
 62
3
 10
-329.111001792938400
 20
-247.645950412844310
 11
-328.216617673261910
 21
-247.247744947079840
  0
LINE
  8
0
  6
CONTINUOUS
 62
3
 10
-331.958158294469290
 20
-241.251132209346030
 11
-331.063774174792800
 21
-240.852926743581780
  0
ARC
  8
0
  6
CONTINUOUS
 62
3
 10
-330.535016849109750
 20
-242.040535141537280
 40
1.299999237060495
 50
40.601531107483851
 51
114.000000683246080
  0
LINE
  8
0
  6
CONTINUOUS
 62
3
 10
-376.203449352137800
 20
-151.217236096921200
 11
-376.628281511883870
 21
-152.218077945536630
  0
LINE
  8
0
  6
CONTINUOUS
 62
3
 10
-375.758535606927810
 20
-152.216528729878550
 11
-375.891877629121840
 21
-152.530662848327920
  0
LINE
  8
0
  6
CONTINUOUS
 62
3
 10
-376.628281511883870
 20
-152.218077945536630
 11
-375.891877629121840
 21
-152.530662848327920
  0
LINE
  8
0
  6
CONTINUOUS
 62
3
 10
-373.079232909432450
 20
-148.891686441679010
 11
-354.387169328483650
 21
-190.874748624642310
  0
ARC
  8
0
  6
CONTINUOUS
 62
3
 10
-368.556317087637130
 20
-151.674541695981390
 40
3.000000000000030
 50
203.999999999999630
 51
260.681876880317470
  0
LINE
  8
0
  6
CONTINUOUS
 62
3
 10
-369.042064978075810
 20
-154.634955347303530
 11
-343.086427884539720
 21
-158.893784500296560
  0
ARC
  8
0
  6
CONTINUOUS
 62
3
 10
-345.515167336731340
 20
-173.695852756907500
 40
15.000000000000393
 50
1.682768801133086
 51
80.681876880324481
  0
ARC
  8
0
  6
CONTINUOUS
 62
3
 10
-930.262878351290510
 20
-190.874748624642540
 40
600.000000000000910
 50
355.284875165908370
 51
1.682768801133149
  0
ARC
  8
0
  6
CONTINUOUS
 62
3
 10
-331.296829358978810
 20
-240.277907982528890
 40
0.999999999999983
 50
175.284875165916760
 51
204.000000000003580
  0
LINE
  8
0
  6
CONTINUOUS
 62
3
 10
-374.399515010150480
 20
-148.384877627112270
 11
-376.957442291549800
 21
-149.523740227724400
  0
LINE
  8
0
  6
CONTINUOUS
 62
3
 10
-374.679717090330090
 20
-154.639594790525310
 11
-376.483088280516770
 21
-155.442507374655430
  0
ARC
  8
0
  6
CONTINUOUS
 62
3
 10
-375.262878351290510
 20
-158.183143747583270
 40
2.999999999999567
 50
113.999999999979760
 51
180.000000000000000
  0
LINE
  8
0
  6
CONTINUOUS
 62
3
 10
-379.262878351290510
 20
-159.874748624642310
 11
-378.262878351290510
 21
-159.874748624642310
  0
ARC
  8
0
  6
CONTINUOUS
 62
3
 10
-373.262878351290510
 20
-232.374748624642310
 40
5.000000000000000
 50
180.000000000000000
 51
270.000000000000000
  0
LINE
  8
0
  6
CONTINUOUS
 62
3
 10
-373.262878351290510
 20
-237.374748624642310
 11
-337.843653319961730
 21
-237.374748624642310
  0
LINE
  8
0
  6
CONTINUOUS
 62
3
 10
-328.682316328430260
 20
-251.067387066140580
 11
-331.240243609830030
 21
-252.206249666752710
  0
ARC
  8
0
  6
CONTINUOUS
 62
3
 10
-329.089052971506590
 20
-250.153841608497970
 40
1.000000000000226
 50
294.000000000027340
 51
23.999999999991683
  0
LINE
  8
0
  6
CONTINUOUS
 62
3
 10
-354.387169328486830
 20
-190.874748624642310
 11
-328.175507513863980
 21
-249.747104965422320
  0
ARC
  8
0
  6
CONTINUOUS
 62
3
 10
-332.468191087592000
 20
-237.646986464521010
 40
0.999999999999856
 50
113.999999999979760
 51
204.000000000003580
  0
ARC
  8
0
  6
CONTINUOUS
 62
3
 10
-333.892864754871430
 20
-234.997383212879440
 40
2.000000000000451
 50
294.000000000027340
 51
355.768661925113970
  0
LINE
  8
0
  6
CONTINUOUS
 62
3
 10
-334.819526068897400
 20
-244.167049639498170
 11
-338.336676080821230
 21
-245.732985715339990
  0
LINE
  8
0
  6
CONTINUOUS
 62
3
 10
-333.192579496594130
 20
-247.821231470068170
 11
-336.709729508518190
 21
-249.387167545909990
  0
LINE
  8
0
  6
CONTINUOUS
 62
3
 10
-379.262878351290510
 20
-221.874748624642310
 11
-378.262878351290510
 21
-221.874748624642310
  0
LINE
  8
0
  6
CONTINUOUS
 62
3
 10
-378.262878351290510
 20
-158.183143747583270
 11
-378.262878351290510
 21
-232.374748624642310
  0
ARC
  8
0
  6
CONTINUOUS
 62
3
 10
-930.262878351290510
 20
-190.874748624642540
 40
600.799999999999950
 50
357.158610984636650
 51
0.587807867706885
  0
ARC
  8
0
  6
CONTINUOUS
 62
3
 10
-331.200279122505890
 20
-220.607595868936220
 40
1.000000000000147
 50
303.952126946381380
 51
357.158610984632960
  0
ARC
  8
0
  6
CONTINUOUS
 62
3
 10
-330.083279097893410
 20
-222.266604893931370
 40
0.999999999999769
 50
123.952126946395960
 51
177.005923909151190
  0
ARC
  8
0
  6
CONTINUOUS
 62
3
 10
-329.313070681740330
 20
-183.107595868936220
 40
0.999999999999967
 50
180.740494943192910
 51
233.794291905968890
  0
ARC
  8
0
  6
CONTINUOUS
 62
3
 10
-330.494442798016730
 20
-184.721398806994360
 40
1.000000000000077
 50
0.587807867721716
 51
53.794291905958382
  0
LINE
  8
0
  6
CONTINUOUS
 62
3
 10
-376.957442291555030
 20
-149.523740227726680
 11
-331.240243609830030
 21
-252.206249666752710
  0
LINE
  8
0
  6
DASHDOT
 62
4
 10
-354.262878351290510
 20
-222.992224844936600
 11
-354.262878351290510
 21
-245.860734020700220
  0
ARC
  8
0
  6
CONTINUOUS
 62
3
 10
-328.745374998945180
 20
-246.060136549124340
 40
1.299999237060559
 50
293.999982013920090
 51
7.398451589679256
  0
ARC
  8
0
  6
CONTINUOUS
 62
3
 10
-336.381270624126500
 20
-247.051655671622970
 40
9.000000000000234
 50
7.398451589678908
 51
40.601531107483503
  0
LINE
  8
0
  6
CONTINUOUS
 62
3
 10
-383.125669252868650
 20
-158.230975504042390
 11
-383.048397778247250
 21
-158.275621309829400
  0
LINE
  8
0
  6
CONTINUOUS
 62
3
 10
-383.196292844244340
 20
-158.271748541230890
 11
-383.125669424016910
 21
-158.230974141434250
  0
LINE
  8
0
  6
CONTINUOUS
 62
3
 10
-383.524630451774670
 20
-158.461314110762290
 11
-383.262878351290400
 21
-158.310191653674370
  0
ARC
  8
0
  6
CONTINUOUS
 62
3
 10
-383.123268044500950
 20
-165.735138317849560
 40
6.499999999999951
 50
91.230722540682038
 51
92.721659224705874
  0
LINE
  8
0
  6
CONTINUOUS
 62
3
 10
-510.001126250806350
 20
-158.461314110762290
 11
-510.400087278564110
 21
-158.230974141434250
  0
LINE
  8
0
  6
CONTINUOUS
 62
3
 10
-516.900082373867460
 20
-169.489306130147750
 11
-511.217189643639130
 21
-172.770321683300300
  0
ARC
  8
0
  6
CONTINUOUS
 62
3
 10
-510.402488658080070
 20
-165.735138317849560
 40
6.499999999999942
 50
87.278340775294126
 51
263.116633603636160
  0
ARC
  8
0
  6
CONTINUOUS
 62
3
 10
-510.402488658080070
 20
-165.735138317849790
 40
9.999999999999870
 50
238.384308452268900
 51
264.396233075981170
  0
ARC
  8
0
  6
CONTINUOUS
 62
3
 10
-446.762878351290510
 20
-229.374748624638670
 40
27.000000000000050
 50
231.132316163394140
 51
270.000000000000000
  0
ARC
  8
0
  6
CONTINUOUS
 62
3
 10
-446.762878351290510
 20
-229.374748624638670
 40
26.999999999999972
 50
270.000000000000000
 51
308.867683836605860
  0
ARC
  8
0
  6
CONTINUOUS
 62
3
 10
-375.915985770843010
 20
-145.799933982833660
 40
5.000000000000147
 50
231.557556888216450
 51
264.448527036887810
  0
ARC
  8
0
  6
CONTINUOUS
 62
3
 10
-375.915985770843010
 20
-145.799933982833660
 40
4.999999999999956
 50
309.473623557052750
 51
314.999999999998120
  0
ARC
  8
0
  6
CONTINUOUS
 62
3
 10
-428.762878351290060
 20
-212.374748624638670
 40
79.999999999999972
 50
48.337970458517752
 51
48.574982614211550
  0
ARC
  8
0
  6
CONTINUOUS
 62
3
 10
-363.081579022834380
 20
-158.421371357540720
 40
4.999999999999879
 50
135.000000000000000
 51
137.021362958701640
  0
LINE
  8
0
  6
CONTINUOUS
 62
3
 10
-348.762878351290060
 20
-237.374748624642310
 11
-348.762878351290060
 21
-246.374748624638670
  0
ARC
  8
0
  6
CONTINUOUS
 62
3
 10
-428.762878351290060
 20
-212.374748624638670
 40
80.000000000000043
 50
49.177852779626662
 51
62.030006033939010
  0
ARC
  8
0
  6
CONTINUOUS
 62
3
 10
-464.762878351291420
 20
-212.374748624638670
 40
79.999999999999972
 50
118.010332697852930
 51
180.000000000000000
  0
ARC
  8
0
  6
CONTINUOUS
 62
3
 10
-434.889895005083420
 20
-130.374748624638670
 40
2.000000000000063
 50
194.477512185929440
 51
199.449486945496740
  0
ARC
  8
0
  6
CONTINUOUS
 62
3
 10
-458.635861697498060
 20
-130.374748624638670
 40
2.000000000000049
 50
340.550513054509790
 51
345.522487814070530
  0
LINE
  8
0
  6
DASHDOT
 62
4
 10
-602.043163612554050
 20
-190.874748624642310
 11
-292.424859344911970
 21
-190.874748624642310
  0
LINE
  8
0
  6
DASHDOT
 62
4
 10
-446.762878351290510
 20
-393.504758076028570
 11
-446.762878351290510
 21
-7.372745994335929
  0
ARC
  8
0
  6
CONTINUOUS
 62
3
 10
-436.262878351290510
 20
-77.374748624642933
 40
10.000000000000000
 50
270.000000000000000
 51
0.000000000000000
  0
ARC
  8
0
  6
CONTINUOUS
 62
3
 10
-457.262878351290510
 20
-77.374748624642933
 40
10.000000000000000
 50
180.000000000000000
 51
270.000000000000000
  0
LINE
  8
0
  6
CONTINUOUS
 62
3
 10
-436.262878351290510
 20
-87.374748624642933
 11
-457.262878351290510
 21
-87.374748624642933
  0
LINE
  8
0
  6
DASHDOT
 62
4
 10
80.788326470219090
 20
-50.210228958487278
 11
80.788326470219090
 21
-72.174000951006747
  0
ARC
  8
0
  6
CONTINUOUS
 62
3
 10
20.288326470219999
 20
-87.374748624642962
 40
3.000000000000000
 50
180.000000000000000
 51
228.189670711320420
  0
TEXT
  8
0
  6
CONTINUOUS
 62
3
 10
-518.828247070312500
 20
220.017730712890620
 40
16.000000000000000
  1
Ｄ０３５
 50
0.000002504478167
 41
0.833333333333333
  7
STANDARD1
  0
TEXT
  8
0
  6
CONTINUOUS
 62
3
 10
-518.828247070312500
 20
198.817733764648440
 40
16.000000000000000
  1
三菱ギヤードモートル
 50
0.000002504478167
 41
0.833333333333333
  7
STANDARD1
  0
TEXT
  8
0
  6
CONTINUOUS
 62
3
 10
-518.828247070312500
 20
177.617736816406250
 40
16.000000000000000
  1
ＧＭーＤＢ
 50
0.000002504478167
 41
0.833333333333333
  7
STANDARD1
  0
TEXT
  8
0
  6
CONTINUOUS
 62
3
 10
-518.828247070312500
 20
156.417724609375000
 40
16.000000000000000
  1
０．４（kＷ）
 50
0.000002504478167
 41
0.804878051688032
  7
STANDARD1
  0
TEXT
  8
0
  6
CONTINUOUS
 62
3
 10
-518.828247070312500
 20
135.217727661132810
 40
16.000000000000000
  1
１／１２００
 50
0.000002504478167
 41
0.833333333333333
  7
STANDARD1
  0
TEXT
  8
0
  6
CONTINUOUS
 62
3
 10
-518.828247070312500
 20
114.017730712890620
 40
16.000000000000000
  1
ＳＣＡＬＥ　１／１
 50
0.000002504478167
 41
0.833333333333333
  7
STANDARD1
  0
ARC
  8
0
  6
CONTINUOUS
 62
3
 10
-4.211673529781137
 20
304.125251375358570
 40
3.000000000000000
 50
90.000000000000000
 51
180.000000000000000
  0
LINE
  8
0
  6
CONTINUOUS
 62
3
 10
-4.211673529781137
 20
307.125251375358570
 11
2.788326470218863
 21
307.125251375358570
  0
INSERT
  8
0
  2
SYM3
 10
28.288326470219090
 20
149.037082097680240
  0
LINE
  8
0
  6
CONTINUOUS
 62
3
 10
40.288326470219090
 20
209.125251375357660
 11
40.288326470219090
 21
61.125251375357720
  0
ARC
  8
0
  6
CONTINUOUS
 62
3
 10
31.288326470219090
 20
64.125251375357720
 40
3.000000000000000
 50
180.000000000000000
 51
270.000000000000000
  0
LINE
  8
0
  6
CONTINUOUS
 62
3
 10
25.288326470219090
 20
61.125251375357720
 11
40.788326470219090
 21
61.125251375357720
  0
ARC
  8
0
  6
CONTINUOUS
 62
3
 10
25.288326470219090
 20
64.125251375357720
 40
3.000000000000000
 50
180.000000000000000
 51
270.000000000000000
  0
ARC
  8
0
  6
CONTINUOUS
 62
3
 10
25.288326470219090
 20
84.125251375357720
 40
3.000000000000000
 50
90.000000000000000
 51
160.528779365505360
  0
LINE
  8
0
  6
CONTINUOUS
 62
3
 10
22.288326470219090
 20
69.125251375357720
 11
22.288326470219090
 21
64.125251375357720
  0
LINE
  8
0
  6
CONTINUOUS
 62
3
 10
18.288325993391936
 20
84.085863769795424
 11
18.288326947066253
 21
70.164339721943861
  0
LINE
  8
0
  6
CONTINUOUS
 62
3
 10
28.288326470219090
 20
85.125251375357948
 11
18.888326851688817
 21
85.125251375357948
  0
LINE
  8
0
  6
CONTINUOUS
 62
3
 10
28.288326470219090
 20
69.125251375357948
 11
18.888326851688817
 21
69.125251375357948
  0
LINE
  8
0
  6
CONTINUOUS
 62
3
 10
18.888330392825083
 20
85.125249899698929
 11
18.288329995303229
 21
84.085861253407757
  0
LINE
  8
0
  6
CONTINUOUS
 62
3
 10
18.888327157500044
 20
69.125252296036706
 11
18.288327735996518
 21
70.164340589891935
  0
LINE
  8
0
  6
CONTINUOUS
 62
3
 10
18.888326851688817
 20
85.125251375357948
 11
18.888326851688817
 21
69.125251375357948
  0
LINE
  8
0
  6
CONTINUOUS
 62
3
 10
28.288326470219090
 20
64.125251375357720
 11
28.288326470219090
 21
185.625251375357890
  0
ARC
  8
0
  6
CONTINUOUS
 62
3
 10
25.288326470219090
 20
185.625251375357890
 40
3.000000000000000
 50
0.000000000000000
 51
90.000000000000000
  0
ARC
  8
0
  6
CONTINUOUS
 62
3
 10
20.288326470219090
 20
191.625251375357660
 40
3.000000000000000
 50
180.000000000000000
 51
270.000000000000000
  0
LINE
  8
0
  6
CONTINUOUS
 62
3
 10
17.288326470219090
 20
209.125251375357660
 11
17.288326470219090
 21
188.625251375357660
  0
LINE
  8
0
  6
CONTINUOUS
 62
3
 10
12.788326470217271
 20
188.625251375357660
 11
17.288326470219090
 21
188.625251375357660
  0
LINE
  8
0
  6
CONTINUOUS
 62
3
 10
20.288326470219090
 20
188.625251375357660
 11
25.288326470219090
 21
188.625251375357660
  0
LINE
  8
0
  6
CONTINUOUS
 62
3
 10
12.788326470217271
 20
209.125251375357660
 11
12.788326470217271
 21
188.625251375357660
  0
ARC
  8
0
  6
CONTINUOUS
 62
3
 10
25.288326470219090
 20
90.489351691404636
 40
3.000000000000000
 50
0.000000000000000
 51
25.671927745923867
  0
ARC
  8
0
  6
CONTINUOUS
 62
3
 10
25.288326470219090
 20
85.374694879104254
 40
3.000000000000000
 50
0.000000000000000
 51
25.671927745923867
  0
ARC
  8
0
  6
CONTINUOUS
 62
3
 10
25.288326470219090
 20
90.125251375357720
 40
3.000000000000000
 50
270.000000000000000
 51
313.971891542170510
  0
INSERT
  8
0
  2
SYM3
 10
28.288326470219090
 20
269.213420653034920
 41
-1.000000000000000
 50
180.000000000000030
  0
LINE
  8
0
  6
CONTINUOUS
 62
3
 10
40.288326470219090
 20
209.125251375357440
 11
40.288326470219090
 21
357.125251375357490
  0
ARC
  8
0
  6
CONTINUOUS
 62
3
 10
31.288326470219090
 20
354.125251375357490
 40
3.000000000000000
 50
90.000000000000000
 51
180.000000000000000
  0
LINE
  8
0
  6
CONTINUOUS
 62
3
 10
25.288326470219090
 20
357.125251375357490
 11
40.788326470219090
 21
357.125251375357490
  0
ARC
  8
0
  6
CONTINUOUS
 62
3
 10
25.288326470219090
 20
354.125251375357490
 40
3.000000000000000
 50
90.000000000000000
 51
180.000000000000000
  0
ARC
  8
0
  6
CONTINUOUS
 62
3
 10
25.288326470219090
 20
334.125251375357440
 40
3.000000000000097
 50
199.471220634494640
 51
270.000000000000000
  0
LINE
  8
0
  6
CONTINUOUS
 62
3
 10
22.288326470219090
 20
349.125251375357440
 11
22.288326470219090
 21
354.125251375357490
  0
LINE
  8
0
  6
CONTINUOUS
 62
3
 10
18.288325993391936
 20
334.164638980919730
 11
18.288326947066253
 21
348.086163028771300
  0
LINE
  8
0
  6
CONTINUOUS
 62
3
 10
28.288326470219090
 20
333.125251375357210
 11
18.888326851688817
 21
333.125251375357210
  0
LINE
  8
0
  6
CONTINUOUS
 62
3
 10
28.288326470219090
 20
349.125251375357210
 11
18.888326851688817
 21
349.125251375357210
  0
LINE
  8
0
  6
CONTINUOUS
 62
3
 10
18.888330392825083
 20
333.125252851016230
 11
18.288329995303229
 21
334.164641497307400
  0
LINE
  8
0
  6
CONTINUOUS
 62
3
 10
18.888327157500044
 20
349.125250454678450
 11
18.288327735996518
 21
348.086162160823220
  0
LINE
  8
0
  6
CONTINUOUS
 62
3
 10
18.888326851688817
 20
333.125251375357210
 11
18.888326851688817
 21
349.125251375357210
  0
LINE
  8
0
  6
CONTINUOUS
 62
3
 10
28.288326470219090
 20
354.125251375357490
 11
28.288326470219090
 21
232.625251375357210
  0
ARC
  8
0
  6
CONTINUOUS
 62
3
 10
25.288326470219090
 20
232.625251375357210
 40
2.999999999999773
 50
270.000000000000000
 51
0.000000000000000
  0
ARC
  8
0
  6
CONTINUOUS
 62
3
 10
20.288326470219090
 20
226.625251375357440
 40
3.000000000000000
 50
90.000000000000000
 51
180.000000000000000
  0
LINE
  8
0
  6
CONTINUOUS
 62
3
 10
17.288326470219090
 20
209.125251375357440
 11
17.288326470219090
 21
229.625251375357440
  0
LINE
  8
0
  6
CONTINUOUS
 62
3
 10
12.788326470217271
 20
229.625251375357440
 11
17.288326470219090
 21
229.625251375357440
  0
LINE
  8
0
  6
CONTINUOUS
 62
3
 10
20.288326470219090
 20
229.625251375357440
 11
25.288326470219090
 21
229.625251375357440
  0
LINE
  8
0
  6
CONTINUOUS
 62
3
 10
12.788326470217271
 20
209.125251375357440
 11
12.788326470217271
 21
229.625251375357440
  0
ARC
  8
0
  6
CONTINUOUS
 62
3
 10
25.288326470219090
 20
327.761151059310520
 40
2.999999999999903
 50
334.328072254076120
 51
0.000000000000000
  0
LINE
  8
0
  6
CONTINUOUS
 62
3
 10
6.605622583382683
 20
281.967708820616910
 11
27.992194627748177
 21
326.461498418525420
  0
ARC
  8
0
  6
CONTINUOUS
 62
3
 10
3.901754425853596
 20
288.382018273702390
 40
3.000000000000000
 50
270.000000000000000
 51
334.328072254076120
  0
ARC
  8
0
  6
CONTINUOUS
 62
3
 10
25.288326470219090
 20
332.875807871610900
 40
2.999999999999903
 50
334.328072254076120
 51
0.000000000000000
  0
LINE
  8
0
  6
CONTINUOUS
 62
3
 10
6.605622583382683
 20
287.082365632917290
 11
27.992194627748177
 21
331.576155230825800
  0
ARC
  8
0
  6
CONTINUOUS
 62
3
 10
25.288326470219090
 20
328.125251375357440
 40
2.999999999999964
 50
46.028108457829475
 51
90.000000000000000
  0
LINE
  8
0
  6
CONTINUOUS
 62
3
 10
17.521607013261928
 20
309.792574331606320
 11
2.788326470219090
 21
309.020435816791580
  0
LINE
  8
0
  6
CONTINUOUS
 62
3
 10
299.288326470219090
 20
209.125251375357660
 11
299.288326470219090
 21
235.825251375358390
  0
ARC
  8
0
  6
CONTINUOUS
 62
3
 10
298.488326470219360
 20
235.825251375358390
 40
0.799999999999727
 50
0.000000000000000
 51
90.000000000000000
  0
LINE
  8
0
  6
CONTINUOUS
 62
3
 10
299.288326470219090
 20
177.625251375357660
 11
299.288326470219090
 21
182.425251375356940
  0
ARC
  8
0
  6
CONTINUOUS
 62
3
 10
298.488326470219360
 20
182.425251375357850
 40
0.800000000000182
 50
270.000000000000000
 51
0.000000000000000
  0
LINE
  8
0
  6
CONTINUOUS
 62
3
 10
299.288326470219090
 20
209.125251375357660
 11
299.288326470219090
 21
182.425251375357850
  0
ARC
  8
0
  6
CONTINUOUS
 62
3
 10
192.503604680770420
 20
339.125251375357660
 40
25.000000000000000
 50
180.000000000000000
 51
270.000000000000000
  0
LINE
  8
0
  6
CONTINUOUS
 62
3
 10
167.397744273491750
 20
345.189990046582980
 11
167.518834005293230
 21
338.252763957793550
  0
LINE
  8
0
  6
CONTINUOUS
 62
3
 10
192.503604680770420
 20
314.125251375357660
 11
203.505785642194500
 21
313.933207592324550
  0
LINE
  8
0
  6
CONTINUOUS
 62
3
 10
167.397744273491750
 20
73.060512704131497
 11
167.518834005293230
 21
79.997738792921837
  0
LINE
  8
0
  6
CONTINUOUS
 62
3
 10
-27.711673529780910
 20
354.338985963796180
 11
-27.711673529780910
 21
303.953695249392410
  0
LINE
  8
0
  6
CONTINUOUS
 62
3
 10
210.288326470219090
 20
303.960231514495430
 11
210.288326470219090
 21
209.125251375357660
  0
LINE
  8
0
  6
CONTINUOUS
 62
3
 10
212.288326470219090
 20
354.211765059779050
 11
212.288326470219090
 21
209.125251375357660
  0
CIRCLE
  8
0
  6
CONTINUOUS
 62
3
 10
-7.711673529780910
 20
339.125251375357660
 40
9.500000000000000
  0
CIRCLE
  8
0
  6
CONTINUOUS
 62
3
 10
192.288604680770420
 20
339.125251375357660
 40
9.500000000000000
  0
ARC
  8
0
  6
CONTINUOUS
 62
3
 10
211.288326470219090
 20
260.965530604684940
 40
1.000000000000000
 50
180.000000000000000
 51
270.000000000000000
  0
LINE
  8
0
  6
DASHDOT
 62
4
 10
8.184155652300888
 20
339.125251375357660
 11
-24.038059132965373
 21
339.125251375357660
  0
LINE
  8
0
  6
DASHDOT
 62
4
 10
-7.711673529780910
 20
355.532747336907730
 11
-7.711673529780910
 21
322.462579530970000
  0
LINE
  8
0
  6
CONTINUOUS
 62
3
 10
40.788326470219090
 20
357.125251375356810
 11
40.788326470219090
 21
209.125251375357660
  0
LINE
  8
0
  6
DASHDOT
 62
4
 10
208.184433862852220
 20
339.125251375357660
 11
175.962219077585960
 21
339.125251375357660
  0
LINE
  8
0
  6
DASHDOT
 62
4
 10
192.288604680770420
 20
355.532747336907730
 11
192.288604680770420
 21
314.125251375357660
  0
LINE
  8
0
  6
CONTINUOUS
 62
3
 10
-22.886171013293279
 20
298.956741114297700
 11
-7.211673529781137
 21
298.409375600776970
  0
LINE
  8
0
  6
CONTINUOUS
 62
3
 10
40.788326470219090
 20
357.125251375356810
 11
130.788326470220000
 21
355.554295531817620
  0
LINE
  8
0
  6
CONTINUOUS
 62
3
 10
40.788326470219090
 20
61.125251375357720
 11
40.788326470219090
 21
209.125251375357660
  0
CIRCLE
  8
0
  6
CONTINUOUS
 62
3
 10
-7.711673529780910
 20
79.125251375357720
 40
9.500000000000000
  0
LINE
  8
0
  6
DASHDOT
 62
4
 10
8.184155652300888
 20
79.125251375357720
 11
-24.038059132965373
 21
79.125251375357720
  0
LINE
  8
0
  6
DASHDOT
 62
4
 10
-7.711673529780910
 20
62.717755413807708
 11
-7.711673529780910
 21
95.787923219745380
  0
LINE
  8
0
  6
CONTINUOUS
 62
3
 10
40.788326470219090
 20
61.125251375357720
 11
130.788326470219540
 21
62.696207218897825
  0
CIRCLE
  8
0
  6
CONTINUOUS
 62
3
 10
192.288604680770420
 20
79.125251375357720
 40
9.500000000000000
  0
LINE
  8
0
  6
DASHDOT
 62
4
 10
208.184433862852220
 20
79.125251375357720
 11
175.962219077585960
 21
79.125251375357720
  0
ARC
  8
0
  6
CONTINUOUS
 62
3
 10
164.398201188022540
 20
345.137632827271490
 40
3.000000000000033
 50
0.999999999993078
 51
66.148056913058383
  0
ARC
  8
0
  6
CONTINUOUS
 62
3
 10
129.217609890864420
 20
265.568002967742980
 40
89.999999999999957
 50
66.148056913057857
 51
89.000000000000540
  0
ARC
  8
0
  6
CONTINUOUS
 62
3
 10
203.453428422882550
 20
310.933664506854880
 40
3.000000000000215
 50
31.429187981382050
 51
88.999999999998394
  0
ARC
  8
0
  6
CONTINUOUS
 62
3
 10
129.217609890864420
 20
265.568002967742980
 40
90.000000000000085
 50
26.186216145153860
 51
31.429187981374334
  0
ARC
  8
0
  6
CONTINUOUS
 62
3
 10
207.288326470219090
 20
303.960231514495430
 40
3.000000000000000
 50
0.000000000000000
 51
26.186216145151025
  0
ARC
  8
0
  6
CONTINUOUS
 62
3
 10
164.398201188022540
 20
73.112869923443895
 40
2.999999999999688
 50
293.851943086941620
 51
358.999999999989600
  0
ARC
  8
0
  6
CONTINUOUS
 62
3
 10
129.217609890864420
 20
152.682499782972400
 40
90.000000000000256
 50
270.999999999999430
 51
293.851943086942130
  0
ARC
  8
0
  6
CONTINUOUS
 62
3
 10
-22.711673529780455
 20
303.953695249392410
 40
5.000000000000455
 50
180.000000000000000
 51
267.999999999996080
  0
LINE
  8
0
  6
CONTINUOUS
 62
3
 10
43.788326470219090
 20
357.125251375356810
 11
43.788326470219090
 21
362.118795010546590
  0
ARC
  8
0
  6
CONTINUOUS
 62
3
 10
100.716284869700300
 20
358.072291621536120
 40
3.000000000000163
 50
8.663969410591202
 51
88.999999999998394
  0
ARC
  8
0
  6
CONTINUOUS
 62
3
 10
106.647817742193630
 20
358.976126663197420
 40
3.000000000000163
 50
188.663969410591190
 51
268.999999999998410
  0
LINE
  8
0
  6
CONTINUOUS
 62
3
 10
43.788326470219090
 20
61.125251375357720
 11
43.788326470219090
 21
56.131707740168849
  0
ARC
  8
0
  6
CONTINUOUS
 62
3
 10
106.647817742193630
 20
59.274376087518021
 40
3.000000000000496
 50
91.000000000001606
 51
171.336030589408810
  0
ARC
  8
0
  6
CONTINUOUS
 62
3
 10
100.716284869700300
 20
60.178211129178408
 40
2.999999999999587
 50
271.000000000001930
 51
351.336030589425950
  0
LINE
  8
0
  6
CONTINUOUS
 62
3
 10
211.288326470219090
 20
259.965530604684940
 11
212.288326470219090
 21
259.965530604684940
  0
LINE
  8
0
  6
DASHDOT
 62
4
 10
80.788326470219090
 20
184.354722048738670
 11
80.788326470219090
 21
234.168696005640130
  0
LINE
  8
0
  6
CONTINUOUS
 62
3
 10
207.375588502405660
 20
359.211003535560620
 11
40.788326470219090
 21
362.118795010546590
  0
LINE
  8
0
  6
CONTINUOUS
 62
3
 10
-22.929972009646008
 20
359.334218268072390
 11
40.788326470219090
 21
362.118795010546590
  0
LINE
  8
0
  6
CONTINUOUS
 62
3
 10
207.375588502405660
 20
59.039499215154819
 11
43.788326470219090
 21
56.184072934953065
  0
LINE
  8
0
  6
CONTINUOUS
 62
3
 10
-22.917176549597116
 20
58.928028002620295
 11
43.788326470219090
 21
56.184072934953065
  0
ARC
  8
0
  6
CONTINUOUS
 62
3
 10
207.288326470219090
 20
64.038737690936387
 40
4.999999999999614
 50
271.000000000001880
 51
0.000000000000000
  0
ARC
  8
0
  6
CONTINUOUS
 62
3
 10
207.288326470219090
 20
354.211765059779050
 40
5.000000000000000
 50
0.000000000000000
 51
88.999999999998138
  0
ARC
  8
0
  6
CONTINUOUS
 62
3
 10
-22.711673529780910
 20
63.923803068498955
 40
5.000000000000000
 50
180.000000000000000
 51
267.644445349204200
  0
ARC
  8
0
  6
CONTINUOUS
 62
3
 10
-22.711673529780910
 20
354.338985963796180
 40
4.999999999999607
 50
92.502311715374148
 51
180.000000000000000
  0
LINE
  8
0
  6
CONTINUOUS
 62
3
 10
217.288326470219090
 20
209.125251375357660
 11
217.288326470219090
 21
237.325251375358390
  0
LINE
  8
0
  6
CONTINUOUS
 62
3
 10
217.288326470219090
 20
237.325251375358390
 11
217.288326470219090
 21
209.125251375357660
  0
LINE
  8
0
  6
CONTINUOUS
 62
3
 10
298.488326470219360
 20
236.625251375357660
 11
219.848134091354500
 21
236.625251375357660
  0
LINE
  8
0
  6
CONTINUOUS
 62
3
 10
219.288326470218640
 20
236.475251375358030
 11
218.088326470219270
 21
236.475251375358030
  0
LINE
  8
0
  6
CONTINUOUS
 62
3
 10
219.288326470219090
 20
236.475251375358030
 11
219.848134091354500
 21
236.625251375357660
  0
ARC
  8
0
  6
CONTINUOUS
 62
3
 10
218.088326470219270
 20
237.275251375358210
 40
0.800000000000182
 50
180.000000000000000
 51
270.000000000000000
  0
LINE
  8
0
  6
CONTINUOUS
 62
3
 10
216.488326470219360
 20
238.125251375357660
 11
217.288326470219090
 21
237.325251375358390
  0
LINE
  8
0
  6
CONTINUOUS
 62
3
 10
216.488326470219360
 20
238.125251375357660
 11
212.288326470219090
 21
238.125251375357660
  0
LINE
  8
0
  6
CONTINUOUS
 62
3
 10
299.288326470219090
 20
177.625251375357660
 11
228.288326470219090
 21
177.625251375357660
  0
LINE
  8
0
  6
CONTINUOUS
 62
3
 10
228.288326470219090
 20
181.625251375357660
 11
228.288326470219090
 21
177.625251375357660
  0
LINE
  8
0
  6
CONTINUOUS
 62
3
 10
216.488326470219360
 20
180.125251375357660
 11
217.288326470219090
 21
180.925251375357850
  0
ARC
  8
0
  6
CONTINUOUS
 62
3
 10
218.088326470219270
 20
180.975251375358030
 40
0.800000000000182
 50
90.000000000000000
 51
180.000000000000000
  0
LINE
  8
0
  6
CONTINUOUS
 62
3
 10
219.288326470219090
 20
181.775251375358210
 11
219.848134091354500
 21
181.625251375357660
  0
LINE
  8
0
  6
CONTINUOUS
 62
3
 10
219.288326470218640
 20
181.775251375358210
 11
218.088326470219270
 21
181.775251375358210
  0
LINE
  8
0
  6
CONTINUOUS
 62
3
 10
217.288326470219090
 20
180.925251375358760
 11
217.288326470219090
 21
209.125251375357660
  0
LINE
  8
0
  6
CONTINUOUS
 62
3
 10
216.488326470219360
 20
180.125251375357660
 11
212.288326470219090
 21
180.125251375357660
  0
LINE
  8
0
  6
CONTINUOUS
 62
3
 10
217.288326470219090
 20
209.125251375357660
 11
217.288326470219090
 21
180.925251375358760
  0
LINE
  8
0
  6
CONTINUOUS
 62
3
 10
235.288326470219090
 20
181.625251375357660
 11
227.288326470219090
 21
181.625251375357660
  0
LINE
  8
0
  6
CONTINUOUS
 62
3
 10
227.288326470219090
 20
181.625251375357660
 11
219.848134091354500
 21
181.625251375357660
  0
LINE
  8
0
  6
CONTINUOUS
 62
3
 10
298.488326470219360
 20
181.625251375357660
 11
235.288326470219090
 21
181.625251375357660
  0
LINE
  8
0
  6
CONTINUOUS
 62
3
 10
211.288326470219090
 20
159.965530604685000
 11
212.288326470219090
 21
159.965530604685000
  0
ARC
  8
0
  6
CONTINUOUS
 62
3
 10
207.288326470219090
 20
114.290271236219950
 40
3.000000000000099
 50
333.813783854849020
 51
0.000000000000000
  0
ARC
  8
0
  6
CONTINUOUS
 62
3
 10
129.217609890864420
 20
152.682499782972400
 40
90.000000000000114
 50
328.570812018625650
 51
333.813783854846180
  0
ARC
  8
0
  6
CONTINUOUS
 62
3
 10
203.453428422882550
 20
107.316838243859590
 40
2.999999999999587
 50
271.000000000001930
 51
328.570812018632810
  0
ARC
  8
0
  6
CONTINUOUS
 62
3
 10
211.288326470219090
 20
158.965530604685000
 40
1.000000000000000
 50
90.000000000000000
 51
180.000000000000000
  0
LINE
  8
0
  6
DASHDOT
 62
4
 10
192.288604680770420
 20
62.717755413807708
 11
192.288604680770420
 21
104.125251375357720
  0
LINE
  8
0
  6
CONTINUOUS
 62
3
 10
210.288326470219090
 20
114.290271236219950
 11
210.288326470219090
 21
209.125251375357660
  0
LINE
  8
0
  6
CONTINUOUS
 62
3
 10
212.288326470219090
 20
64.038737690936387
 11
212.288326470219090
 21
209.125251375357660
  0
LINE
  8
0
  6
CONTINUOUS
 62
3
 10
192.503604680770420
 20
104.125251375356810
 11
203.505785642194500
 21
104.317295158390830
  0
ARC
  8
0
  6
CONTINUOUS
 62
3
 10
192.503604680770420
 20
79.125251375356811
 40
25.000000000000000
 50
90.000000000000000
 51
180.000000000000000
  0
CIRCLE
  8
0
  6
CONTINUOUS
 62
3
 10
80.788326470219090
 20
209.125251375357660
 40
16.000581886004753
  0
ARC
  8
0
  6
CONTINUOUS
 62
3
 10
-172.711673529780460
 20
144.506030458484870
 40
3.000000000000000
 50
90.000000000000000
 51
180.000000000000000
  0
ARC
  8
0
  6
CONTINUOUS
 62
3
 10
-168.711673529780570
 20
150.506030458484870
 40
3.000000000000000
 50
270.000000000000000
 51
0.000000000000000
  0
LINE
  8
0
  6
CONTINUOUS
 62
3
 10
-175.711673529780460
 20
144.125251375357660
 11
-175.711673529780460
 21
144.506030458484870
  0
LINE
  8
0
  6
CONTINUOUS
 62
3
 10
-172.711673529780460
 20
147.506030458484870
 11
-168.711673529780570
 21
147.506030458484870
  0
ARC
  8
0
  6
CONTINUOUS
 62
3
 10
-246.405697752200920
 20
164.125251375357660
 40
20.000000000000007
 50
234.999999999999740
 51
270.000000000000000
  0
LINE
  8
0
  6
CONTINUOUS
 62
3
 10
-175.711673529780460
 20
144.125251375357660
 11
-246.405697752200920
 21
144.125251375357660
  0
ARC
  8
0
  6
CONTINUOUS
 62
3
 10
-266.111673529730300
 20
156.682046318112210
 40
2.600000000000136
 50
180.000000000000000
 51
234.999999999998610
  0
LINE
  8
0
  6
CONTINUOUS
 62
3
 10
-257.877226479221920
 20
147.742210489577870
 11
-267.602972264242910
 21
154.552251002961100
  0
LINE
  8
0
  6
CONTINUOUS
 62
3
 10
-268.711673529730430
 20
209.125251375357660
 11
-268.711673529730430
 21
156.682046318112210
  0
LINE
  8
0
  6
CONTINUOUS
 62
3
 10
-165.711673529780570
 20
209.125251375357660
 11
-165.711673529780570
 21
150.506030458484870
  0
ARC
  8
0
  6
CONTINUOUS
 62
3
 10
-266.111673529730300
 20
261.568456432603110
 40
2.599999999999721
 50
125.000000000001370
 51
180.000000000000000
  0
LINE
  8
0
  6
CONTINUOUS
 62
3
 10
-257.877226479221920
 20
270.508292261137460
 11
-267.602972264242910
 21
263.698251747754230
  0
ARC
  8
0
  6
CONTINUOUS
 62
3
 10
-246.405697752200920
 20
254.125251375357660
 40
20.000000000000000
 50
90.000000000000000
 51
125.000000000000240
  0
LINE
  8
0
  6
CONTINUOUS
 62
3
 10
-268.711673529730430
 20
209.125251375357660
 11
-268.711673529730430
 21
261.568456432603110
  0
LINE
  8
0
  6
CONTINUOUS
 62
3
 10
-165.711673529780570
 20
274.125251375357660
 11
-246.405697752200920
 21
274.125251375357660
  0
LINE
  8
0
  6
CONTINUOUS
 62
3
 10
-165.711673529780570
 20
209.125251375357660
 11
-165.711673529780570
 21
274.125251375357660
  0
LINE
  8
0
  6
CONTINUOUS
 62
3
 10
-176.711673529780000
 20
262.865366475795270
 11
-178.711673529780000
 21
261.212724836671840
  0
LINE
  8
0
  6
CONTINUOUS
 62
3
 10
-174.711673529780000
 20
264.041151961418050
 11
-176.711673529780000
 21
262.865366475795270
  0
LINE
  8
0
  6
CONTINUOUS
 62
3
 10
-176.711673529780000
 20
262.865366475795270
 11
-174.711673529780000
 21
261.212724836671840
  0
LINE
  8
0
  6
CONTINUOUS
 62
3
 10
-178.711673529780000
 20
264.041151961418050
 11
-176.711673529780000
 21
262.865366475795270
  0
POLYLINE
  8
0
  6
CONTINUOUS
 62
3
 66
1
 70
1
  0
VERTEX
  8
0
  6
CONTINUOUS
 62
3
 10
-172.011673529780010
 20
261.048776407417730
  0
VERTEX
  8
0
  6
CONTINUOUS
 62
3
 10
-172.101982711884830
 20
261.751733373618090
  0
VERTEX
  8
0
  6
CONTINUOUS
 62
3
 10
-172.369439726976960
 20
262.427676097830210
  0
VERTEX
  8
0
  6
CONTINUOUS
 62
3
 10
-172.803766351958050
 20
263.050628480235620
  0
VERTEX
  8
0
  6
CONTINUOUS
 62
3
 10
-173.388271658203220
 20
263.596650810134180
  0
VERTEX
  8
0
  6
CONTINUOUS
 62
3
 10
-174.100493434587890
 20
264.044759755600810
  0
VERTEX
  8
0
  6
CONTINUOUS
 62
3
 10
-174.913061397664080
 20
264.377734741163580
  0
VERTEX
  8
0
  6
CONTINUOUS
 62
3
 10
-175.794749016304190
 20
264.582779724861840
  0
VERTEX
  8
0
  6
CONTINUOUS
 62
3
 10
-176.711673529780000
 20
264.652014942962580
  0
VERTEX
  8
0
  6
CONTINUOUS
 62
3
 10
-177.628598043255810
 20
264.582779724861840
  0
VERTEX
  8
0
  6
CONTINUOUS
 62
3
 10
-178.510285661895920
 20
264.377734741163580
  0
VERTEX
  8
0
  6
CONTINUOUS
 62
3
 10
-179.322853624972110
 20
264.044759755600810
  0
VERTEX
  8
0
  6
CONTINUOUS
 62
3
 10
-180.035075401356780
 20
263.596650810134180
  0
VERTEX
  8
0
  6
CONTINUOUS
 62
3
 10
-180.619580707601950
 20
263.050628480235620
  0
VERTEX
  8
0
  6
CONTINUOUS
 62
3
 10
-181.053907332583040
 20
262.427676097830210
  0
VERTEX
  8
0
  6
CONTINUOUS
 62
3
 10
-181.321364347675170
 20
261.751733373618090
  0
VERTEX
  8
0
  6
CONTINUOUS
 62
3
 10
-181.411673529779990
 20
261.048776407417730
  0
VERTEX
  8
0
  6
CONTINUOUS
 62
3
 10
-181.321364347675170
 20
260.345819441217370
  0
VERTEX
  8
0
  6
CONTINUOUS
 62
3
 10
-181.053907332583040
 20
259.669876717005250
  0
VERTEX
  8
0
  6
CONTINUOUS
 62
3
 10
-180.619580707601950
 20
259.046924334599850
  0
VERTEX
  8
0
  6
CONTINUOUS
 62
3
 10
-180.035075401356750
 20
258.500902004701290
  0
VERTEX
  8
0
  6
CONTINUOUS
 62
3
 10
-179.322853624972110
 20
258.052793059234660
  0
VERTEX
  8
0
  6
CONTINUOUS
 62
3
 10
-178.510285661895920
 20
257.719818073671890
  0
VERTEX
  8
0
  6
CONTINUOUS
 62
3
 10
-177.628598043255810
 20
257.514773089973690
  0
VERTEX
  8
0
  6
CONTINUOUS
 62
3
 10
-176.711673529780000
 20
257.445537871872890
  0
VERTEX
  8
0
  6
CONTINUOUS
 62
3
 10
-175.794749016304190
 20
257.514773089973690
  0
VERTEX
  8
0
  6
CONTINUOUS
 62
3
 10
-174.913061397664080
 20
257.719818073671890
  0
VERTEX
  8
0
  6
CONTINUOUS
 62
3
 10
-174.100493434587890
 20
258.052793059234660
  0
VERTEX
  8
0
  6
CONTINUOUS
 62
3
 10
-173.388271658203250
 20
258.500902004701290
  0
VERTEX
  8
0
  6
CONTINUOUS
 62
3
 10
-172.803766351958050
 20
259.046924334599850
  0
VERTEX
  8
0
  6
CONTINUOUS
 62
3
 10
-172.369439726976960
 20
259.669876717005250
  0
VERTEX
  8
0
  6
CONTINUOUS
 62
3
 10
-172.101982711884830
 20
260.345819441217370
  0
SEQEND
  8
0
  6
CONTINUOUS
 62
3
  0
LINE
  8
0
  6
CONTINUOUS
 62
3
 10
-176.711673529780000
 20
155.385136274919830
 11
-178.711673529780000
 21
157.037777914043260
  0
LINE
  8
0
  6
CONTINUOUS
 62
3
 10
-174.711673529780000
 20
154.209350789297500
 11
-176.711673529780000
 21
155.385136274919830
  0
LINE
  8
0
  6
CONTINUOUS
 62
3
 10
-176.711673529780000
 20
155.385136274919830
 11
-174.711673529780000
 21
157.037777914043260
  0
LINE
  8
0
  6
CONTINUOUS
 62
3
 10
-178.711673529780000
 20
154.209350789297500
 11
-176.711673529780000
 21
155.385136274919830
  0
POLYLINE
  8
0
  6
CONTINUOUS
 62
3
 66
1
 70
1
  0
VERTEX
  8
0
  6
CONTINUOUS
 62
3
 10
-172.011673529780010
 20
157.201726343297820
  0
VERTEX
  8
0
  6
CONTINUOUS
 62
3
 10
-172.101982711884830
 20
157.904683309498180
  0
VERTEX
  8
0
  6
CONTINUOUS
 62
3
 10
-172.369439726976960
 20
158.580626033710270
  0
VERTEX
  8
0
  6
CONTINUOUS
 62
3
 10
-172.803766351958050
 20
159.203578416115680
  0
VERTEX
  8
0
  6
CONTINUOUS
 62
3
 10
-173.388271658203220
 20
159.749600746014270
  0
VERTEX
  8
0
  6
CONTINUOUS
 62
3
 10
-174.100493434587890
 20
160.197709691480900
  0
VERTEX
  8
0
  6
CONTINUOUS
 62
3
 10
-174.913061397664080
 20
160.530684677043640
  0
VERTEX
  8
0
  6
CONTINUOUS
 62
3
 10
-175.794749016304190
 20
160.735729660741900
  0
VERTEX
  8
0
  6
CONTINUOUS
 62
3
 10
-176.711673529780000
 20
160.804964878842670
  0
VERTEX
  8
0
  6
CONTINUOUS
 62
3
 10
-177.628598043255810
 20
160.735729660741900
  0
VERTEX
  8
0
  6
CONTINUOUS
 62
3
 10
-178.510285661895920
 20
160.530684677043640
  0
VERTEX
  8
0
  6
CONTINUOUS
 62
3
 10
-179.322853624972110
 20
160.197709691480900
  0
VERTEX
  8
0
  6
CONTINUOUS
 62
3
 10
-180.035075401356780
 20
159.749600746014270
  0
VERTEX
  8
0
  6
CONTINUOUS
 62
3
 10
-180.619580707601950
 20
159.203578416115680
  0
VERTEX
  8
0
  6
CONTINUOUS
 62
3
 10
-181.053907332583040
 20
158.580626033710270
  0
VERTEX
  8
0
  6
CONTINUOUS
 62
3
 10
-181.321364347675170
 20
157.904683309498180
  0
VERTEX
  8
0
  6
CONTINUOUS
 62
3
 10
-181.411673529779990
 20
157.201726343297820
  0
VERTEX
  8
0
  6
CONTINUOUS
 62
3
 10
-181.321364347675170
 20
156.498769377097460
  0
VERTEX
  8
0
  6
CONTINUOUS
 62
3
 10
-181.053907332583040
 20
155.822826652885370
  0
VERTEX
  8
0
  6
CONTINUOUS
 62
3
 10
-180.619580707601950
 20
155.199874270479970
  0
VERTEX
  8
0
  6
CONTINUOUS
 62
3
 10
-180.035075401356750
 20
154.653851940581380
  0
VERTEX
  8
0
  6
CONTINUOUS
 62
3
 10
-179.322853624972110
 20
154.205742995114750
  0
VERTEX
  8
0
  6
CONTINUOUS
 62
3
 10
-178.510285661895920
 20
153.872768009552000
  0
VERTEX
  8
0
  6
CONTINUOUS
 62
3
 10
-177.628598043255810
 20
153.667723025853750
  0
VERTEX
  8
0
  6
CONTINUOUS
 62
3
 10
-176.711673529780000
 20
153.598487807752970
  0
VERTEX
  8
0
  6
CONTINUOUS
 62
3
 10
-175.794749016304190
 20
153.667723025853750
  0
VERTEX
  8
0
  6
CONTINUOUS
 62
3
 10
-174.913061397664080
 20
153.872768009552000
  0
VERTEX
  8
0
  6
CONTINUOUS
 62
3
 10
-174.100493434587890
 20
154.205742995114750
  0
VERTEX
  8
0
  6
CONTINUOUS
 62
3
 10
-173.388271658203250
 20
154.653851940581380
  0
VERTEX
  8
0
  6
CONTINUOUS
 62
3
 10
-172.803766351958050
 20
155.199874270479970
  0
VERTEX
  8
0
  6
CONTINUOUS
 62
3
 10
-172.369439726976960
 20
155.822826652885370
  0
VERTEX
  8
0
  6
CONTINUOUS
 62
3
 10
-172.101982711884830
 20
156.498769377097460
  0
SEQEND
  8
0
  6
CONTINUOUS
 62
3
  0
LINE
  8
0
  6
CONTINUOUS
 62
3
 10
-166.374437974584790
 20
148.625251375357660
 11
-102.961673529780680
 21
148.625251375357660
  0
LINE
  8
0
  6
CONTINUOUS
 62
3
 10
-102.961673529780680
 20
148.625251375357660
 11
-102.961673529780680
 21
149.625251375357660
  0
LINE
  8
0
  6
CONTINUOUS
 62
3
 10
-172.211673529780680
 20
141.625251375357660
 11
-172.211673529780680
 21
147.464070350034660
  0
LINE
  8
0
  6
CONTINUOUS
 62
3
 10
-107.211673529780560
 20
141.625251375357660
 11
-107.211673529780680
 21
148.625251375357660
  0
LINE
  8
0
  6
CONTINUOUS
 62
3
 10
-172.211673529780680
 20
141.625251375357660
 11
-107.211673529780560
 21
141.625251375357660
  0
LINE
  8
0
  6
CONTINUOUS
 62
3
 10
-167.874349294960670
 20
147.625251375357660
 11
-107.211673529780560
 21
147.625251375357660
  0
LINE
  8
0
  6
CONTINUOUS
 62
3
 10
-172.211673529780680
 20
145.625251375357660
 11
-107.211673529780560
 21
145.625251375357660
  0
LINE
  8
0
  6
DASHDOT
 62
4
 10
-139.711673529780680
 20
147.458964711510420
 11
-139.711673529780680
 21
85.396551194874235
  0
LINE
  8
0
  6
CONTINUOUS
 62
3
 10
-175.161673529779590
 20
90.451425995573743
 11
-142.768929735676920
 21
90.451425995573743
  0
LINE
  8
0
  6
CONTINUOUS
 62
3
 10
-175.161673529779590
 20
139.319815315622070
 11
-104.261673529781880
 21
139.319815315621950
  0
LINE
  8
0
  6
CONTINUOUS
 62
3
 10
-175.161673529779590
 20
135.848342576575250
 11
-104.261673529781880
 21
135.848342576575250
  0
LINE
  8
0
  6
CONTINUOUS
 62
3
 10
-93.261673529781888
 20
128.319815315621950
 11
-93.261673529781888
 21
101.451425995573740
  0
LINE
  8
0
  6
CONTINUOUS
 62
3
 10
-186.161673529779590
 20
128.319815315622180
 11
-186.161673529779590
 21
101.451425995573740
  0
LINE
  8
0
  6
CONTINUOUS
 62
3
 10
-99.661673529781524
 20
98.425251375357618
 11
-99.661673529781524
 21
128.001186075044360
  0
LINE
  8
0
  6
CONTINUOUS
 62
3
 10
-179.761673529779960
 20
98.425251375357618
 11
-179.761673529779960
 21
128.001186075044590
  0
LINE
  8
0
  6
CONTINUOUS
 62
3
 10
-174.761673529779960
 20
133.001186075044470
 11
-104.661673529781520
 21
133.001186075044360
  0
ARC
  8
0
  6
CONTINUOUS
 62
3
 10
-104.661673529781520
 20
128.001186075044360
 40
5.000000000000000
 50
0.000000000000000
 51
90.000000000000000
  0
ARC
  8
0
  6
CONTINUOUS
 62
3
 10
-174.761673529779960
 20
128.001186075044590
 40
4.999999999999886
 50
90.000000000000000
 51
180.000000000000000
  0
ARC
  8
0
  6
CONTINUOUS
 62
3
 10
-104.261673529781880
 20
101.451425995573740
 40
11.000000000000000
 50
270.000000000000000
 51
0.000000000000000
  0
ARC
  8
0
  6
CONTINUOUS
 62
3
 10
-175.161673529779590
 20
101.451425995573740
 40
11.000000000000000
 50
180.000000000000000
 51
270.000000000000000
  0
LINE
  8
0
  6
CONTINUOUS
 62
3
 10
-173.961673529780230
 20
92.625251375357664
 11
-105.461673529781470
 21
92.625251375357664
  0
ARC
  8
0
  6
CONTINUOUS
 62
3
 10
-105.461673529781470
 20
98.425251375357618
 40
5.799999999999955
 50
270.000000000000000
 51
0.000000000000000
  0
ARC
  8
0
  6
CONTINUOUS
 62
3
 10
-173.961673529780230
 20
98.425251375357618
 40
5.799999999999727
 50
180.000000000000000
 51
270.000000000000000
  0
ARC
  8
0
  6
CONTINUOUS
 62
3
 10
-104.261673529781880
 20
124.848342576575240
 40
11.000000000000000
 50
0.000000000000000
 51
90.000000000000000
  0
ARC
  8
0
  6
CONTINUOUS
 62
3
 10
-104.261673529781880
 20
128.319815315621950
 40
11.000000000000000
 50
0.000000000000000
 51
90.000000000000000
  0
ARC
  8
0
  6
CONTINUOUS
 62
3
 10
-175.161673529779590
 20
124.848342576575240
 40
11.000000000000000
 50
90.000000000000000
 51
180.000000000000000
  0
ARC
  8
0
  6
CONTINUOUS
 62
3
 10
-175.161673529779590
 20
128.319815315622180
 40
10.999999999999886
 50
90.000000000000000
 51
180.000000000000000
  0
LINE
  8
0
  6
CONTINUOUS
 62
3
 10
-160.762308624390930
 20
91.825251375357709
 11
-119.061038435170530
 21
91.825251375357709
  0
ARC
  8
0
  6
CONTINUOUS
 62
3
 10
-119.061038435170530
 20
92.825251375357709
 40
1.000000000000000
 50
270.000000000000000
 51
323.130102354140380
  0
ARC
  8
0
  6
CONTINUOUS
 62
3
 10
-117.461038435170620
 20
91.625251375357664
 40
1.000000000000000
 50
90.000000000000000
 51
143.130102354166380
  0
ARC
  8
0
  6
CONTINUOUS
 62
3
 10
-162.362308624390830
 20
91.625251375357664
 40
0.999999999999727
 50
36.869897645849235
 51
90.000000000000000
  0
ARC
  8
0
  6
CONTINUOUS
 62
3
 10
-160.762308624390930
 20
92.825251375357709
 40
1.000000000000227
 50
216.869897645844020
 51
270.000000000000000
  0
LINE
  8
0
  6
CONTINUOUS
 62
3
 10
-173.511673529780860
 20
140.625251375357660
 11
-105.911673529780840
 21
140.625251375357550
  0
ARC
  8
0
  6
CONTINUOUS
 62
3
 10
-105.911673529780840
 20
135.625251375357550
 40
5.000000000000008
 50
44.925956400534659
 51
90.000000000000000
  0
ARC
  8
0
  6
CONTINUOUS
 62
3
 10
-173.511673529780860
 20
135.625251375357660
 40
5.000000000000000
 50
90.000000000000000
 51
135.074043599465310
  0
LINE
  8
0
  6
CONTINUOUS
 62
3
 10
-108.711673529780790
 20
141.625251375357550
 11
-108.711673529780790
 21
140.625251375357550
  0
LINE
  8
0
  6
CONTINUOUS
 62
3
 10
-170.711673529780680
 20
141.625251375357660
 11
-170.711673529780680
 21
140.625251375357660
  0
LINE
  8
0
  6
DASHDOT
 62
4
 10
-162.535305161092540
 20
116.625251375357660
 11
-118.247587122694080
 21
116.625251375357660
  0
CIRCLE
  8
0
  6
DASHED
 62
4
 10
-139.711673529780680
 20
116.625251375357430
 40
13.500000000000000
  0
ARC
  8
0
  6
CONTINUOUS
 62
3
 10
-141.911674292720140
 20
91.428723863103812
 40
1.299999237060699
 50
162.240552086452960
 51
253.398468892505180
  0
ARC
  8
0
  6
CONTINUOUS
 62
3
 10
-139.711673529780680
 20
98.807748785951560
 40
8.999999999999858
 50
253.398468892518050
 51
286.601548410325050
  0
ARC
  8
0
  6
CONTINUOUS
 62
3
 10
-137.511672766841230
 20
91.428723863103812
 40
1.299999237060351
 50
286.601548410324710
 51
17.759447913550098
  0
LINE
  8
0
  6
CONTINUOUS
 62
3
 10
-136.654417323884670
 20
90.451425995573743
 11
-104.261673529781880
 21
90.451425995573743
  0
INSERT
  8
0
  2
SYM3
 10
28.288325509691731
 20
-83.788928228872464
  0
INSERT
  8
0
  2
SYM1
 10
12.788326470217271
 20
-77.374748624642962
  0
LINE
  8
0
  6
CONTINUOUS
 62
3
 10
40.288326470219999
 20
-229.374748624642960
 11
40.288326470219999
 21
-319.337868229977180
  0
ARC
  8
0
  6
CONTINUOUS
 62
3
 10
25.288326470219999
 20
-213.374748624642960
 40
3.000000000000000
 50
270.000000000000000
 51
0.000000000000000
  0
ARC
  8
0
  6
CONTINUOUS
 62
3
 10
25.288326470219999
 20
-245.374748624642960
 40
3.000000000000000
 50
0.000000000000000
 51
90.000000000000000
  0
ARC
  8
0
  6
CONTINUOUS
 62
3
 10
31.288326470219999
 20
-67.374748624642962
 40
3.000000000000000
 50
90.000000000000000
 51
180.000000000000000
  0
LINE
  8
0
  6
CONTINUOUS
 62
3
 10
40.288326470219999
 20
-229.374748624642960
 11
40.288326470219999
 21
-64.374748624642962
  0
LINE
  8
0
  6
CONTINUOUS
 62
3
 10
40.288326470219999
 20
-64.374748624642962
 11
20.288326470219999
 21
-64.374748624642962
  0
LINE
  8
0
  6
DASHDOT
 62
4
 10
7.058079069402538
 20
-49.374748624642962
 11
25.157345084694043
 21
-49.374748624642962
  0
LINE
  8
0
  6
CONTINUOUS
 62
3
 10
12.788326470216361
 20
-87.374748624642962
 11
12.788326470219999
 21
-29.374748624642962
  0
LINE
  8
0
  6
CONTINUOUS
 62
3
 10
12.788326470219999
 20
-29.374748624642962
 11
17.288326470219999
 21
-29.374748624642962
  0
LINE
  8
0
  6
CONTINUOUS
 62
3
 10
17.288326470219999
 20
-29.374748624642962
 11
17.288326470219999
 21
-75.788928228872464
  0
LINE
  8
0
  6
CONTINUOUS
 62
3
 10
12.788326470216361
 20
-87.374748624642962
 11
17.288326470219999
 21
-87.374748624642947
  0
LINE
  8
0
  6
CONTINUOUS
 62
3
 10
28.288326470219999
 20
-336.354278305413120
 11
28.288326470219999
 21
-245.374748624642960
  0
LINE
  8
0
  6
CONTINUOUS
 62
3
 10
28.288326470219999
 20
-213.374748624642960
 11
28.288326470219999
 21
-67.374748624642962
  0
ARC
  8
0
  6
CONTINUOUS
 62
3
 10
15.288326470219999
 20
-92.619746623041465
 40
5.000000000000000
 50
0.000000000000000
 51
9.564841603927883
  0
LINE
  8
0
  6
CONTINUOUS
 62
3
 10
17.288326470219999
 20
-87.374748624642947
 11
17.288326470219999
 21
-67.374748624642962
  0
ARC
  8
0
  6
CONTINUOUS
 62
3
 10
20.288326470219999
 20
-67.374748624642962
 40
3.000000000000000
 50
90.000000000000000
 51
180.000000000000000
  0
LINE
  8
0
  6
CONTINUOUS
 62
3
 10
212.288326470219090
 20
-353.315915699577090
 11
212.288326470219090
 21
-374.374748624642960
  0
ARC
  8
0
  6
CONTINUOUS
 62
3
 10
85.788326470219090
 20
-349.374748624642960
 40
17.999999999999947
 50
16.541483843759224
 51
90.000000000000000
  0
LINE
  8
0
  6
DASHDOT
 62
4
 10
85.788326470219090
 20
-326.501920178634460
 11
85.788326470219090
 21
-367.374748624642960
  0
CIRCLE
  8
0
  6
CONTINUOUS
 62
3
 10
85.788326470219090
 20
-349.374748624642960
 40
9.000000000000000
  0
CIRCLE
  8
0
  6
CONTINUOUS
 62
4
 10
85.788326470219090
 20
-349.374748624642960
 40
10.500000000000000
  0
LINE
  8
0
  6
DASHDOT
 62
4
 10
103.788326470219090
 20
-349.374748624642960
 11
67.788326470219090
 21
-349.374748624642960
  0
LINE
  8
0
  6
CONTINUOUS
 62
3
 10
40.788326470219090
 20
-297.374748624642960
 11
41.788326470219090
 21
-297.374748624642960
  0
ARC
  8
0
  6
CONTINUOUS
 62
3
 10
41.788326470219090
 20
-313.740473520305390
 40
1.999999999999918
 50
324.808447381648880
 51
0.000000000000000
  0
LINE
  8
0
  6
CONTINUOUS
 62
3
 10
43.788326470219090
 20
-299.374748624642960
 11
43.788326470219090
 21
-313.740473520305390
  0
ARC
  8
0
  6
CONTINUOUS
 62
3
 10
41.788326470219090
 20
-299.374748624642960
 40
2.000000000000000
 50
0.000000000000000
 51
90.000000000000000
  0
LINE
  8
0
  6
CONTINUOUS
 62
3
 10
107.762363047935650
 20
-347.825881646412200
 11
167.288326470219090
 21
-348.707938085534810
  0
ARC
  8
0
  6
CONTINUOUS
 62
3
 10
213.288326470219090
 20
-348.416936214010090
 40
3.000000000000000
 50
180.000000000000000
 51
224.415308597188780
  0
ARC
  8
0
  6
CONTINUOUS
 62
3
 10
208.288326470219090
 20
-353.315915699577090
 40
4.000000000000000
 50
0.000000000000000
 51
89.151052584577101
  0
ARC
  8
0
  6
CONTINUOUS
 62
3
 10
170.763094305950290
 20
-345.759097894812840
 40
3.000000000000000
 50
180.000000000000000
 51
269.151052584572430
  0
ARC
  8
0
  6
CONTINUOUS
 62
3
 10
207.321211781768400
 20
-346.300816517541530
 40
3.000000000000000
 50
180.000000000000000
 51
269.151052584572710
  0
LINE
  8
0
  6
CONTINUOUS
 62
3
 10
167.288326470219090
 20
-348.707938085534810
 11
208.347592011925830
 21
-349.316354774228780
  0
ARC
  8
0
  6
CONTINUOUS
 62
3
 10
107.836444975069750
 20
-342.826430489727500
 40
5.000000000000074
 50
196.541483843753500
 51
269.151052584569130
  0
LINE
  8
0
  6
CONTINUOUS
 62
3
 10
85.788326470219090
 20
-331.374748624642960
 11
43.788326470219090
 21
-330.641635897657580
  0
LINE
  8
0
  6
CONTINUOUS
 62
3
 10
43.788326470219090
 20
-330.641635897657580
 11
43.788326470219090
 21
-343.980847281562090
  0
ARC
  8
0
  6
CONTINUOUS
 62
3
 10
40.788326470219090
 20
-343.980847281562090
 40
2.999999999999531
 50
271.999999999995280
 51
0.000000000000000
  0
ARC
  8
0
  6
CONTINUOUS
 62
3
 10
236.288326470219090
 20
-179.374748624642960
 40
8.000000000000000
 50
90.000000000000000
 51
270.000000000000000
  0
LINE
  8
0
  6
CONTINUOUS
 62
3
 10
236.288326470219090
 20
-187.374748624642960
 11
299.288326470219090
 21
-187.374748624643870
  0
LINE
  8
0
  6
CONTINUOUS
 62
3
 10
236.288326470219090
 20
-171.374748624642960
 11
299.288326470219090
 21
-171.374748624642960
  0
ARC
  8
0
  6
CONTINUOUS
 62
3
 10
298.488326470219360
 20
-152.674748624643140
 40
0.799999999999727
 50
0.000000000000000
 51
90.000000000000000
  0
LINE
  8
0
  6
CONTINUOUS
 62
3
 10
299.288326470219090
 20
-179.374748624643870
 11
299.288326470219090
 21
-152.674748624643140
  0
LINE
  8
0
  6
CONTINUOUS
 62
3
 10
216.488326470219360
 20
-150.374748624643870
 11
212.288326470219090
 21
-150.374748624643870
  0
LINE
  8
0
  6
CONTINUOUS
 62
3
 10
216.488326470219360
 20
-150.374748624643870
 11
217.288326470219090
 21
-151.174748624643140
  0
ARC
  8
0
  6
CONTINUOUS
 62
3
 10
218.088326470219270
 20
-151.224748624643330
 40
0.800000000000182
 50
180.000000000000000
 51
270.000000000000000
  0
LINE
  8
0
  6
CONTINUOUS
 62
3
 10
219.288326470219090
 20
-152.024748624643510
 11
219.848134091354500
 21
-151.874748624643870
  0
LINE
  8
0
  6
CONTINUOUS
 62
3
 10
219.288326470218640
 20
-152.024748624643510
 11
218.088326470219270
 21
-152.024748624643510
  0
LINE
  8
0
  6
CONTINUOUS
 62
3
 10
298.488326470219360
 20
-151.874748624643870
 11
219.848134091354500
 21
-151.874748624643870
  0
LINE
  8
0
  6
CONTINUOUS
 62
3
 10
217.288326470219090
 20
-151.174748624643140
 11
217.288326470219090
 21
-179.374748624643870
  0
LINE
  8
0
  6
CONTINUOUS
 62
3
 10
217.288326470219090
 20
-179.374748624643870
 11
217.288326470219090
 21
-151.174748624643140
  0
LINE
  8
0
  6
CONTINUOUS
 62
3
 10
216.488326470219360
 20
-208.374748624643870
 11
217.288326470219090
 21
-207.574748624643690
  0
ARC
  8
0
  6
CONTINUOUS
 62
3
 10
218.088326470219270
 20
-207.524748624643510
 40
0.800000000000182
 50
90.000000000000000
 51
180.000000000000000
  0
LINE
  8
0
  6
CONTINUOUS
 62
3
 10
219.288326470219090
 20
-206.724748624643330
 11
219.848134091354500
 21
-206.874748624643870
  0
LINE
  8
0
  6
CONTINUOUS
 62
3
 10
219.288326470218640
 20
-206.724748624643330
 11
218.088326470219270
 21
-206.724748624643330
  0
LINE
  8
0
  6
CONTINUOUS
 62
3
 10
217.288326470219090
 20
-207.574748624642780
 11
217.288326470219090
 21
-179.374748624643870
  0
LINE
  8
0
  6
CONTINUOUS
 62
3
 10
216.488326470219360
 20
-208.374748624643870
 11
212.288326470219090
 21
-208.374748624643870
  0
LINE
  8
0
  6
CONTINUOUS
 62
3
 10
217.288326470219090
 20
-179.374748624643870
 11
217.288326470219090
 21
-207.574748624642780
  0
LINE
  8
0
  6
CONTINUOUS
 62
3
 10
235.288326470219090
 20
-206.874748624643870
 11
227.288326470219090
 21
-206.874748624643870
  0
LINE
  8
0
  6
CONTINUOUS
 62
3
 10
227.288326470219090
 20
-206.874748624643870
 11
219.848134091354500
 21
-206.874748624643870
  0
ARC
  8
0
  6
CONTINUOUS
 62
3
 10
298.488326470219360
 20
-206.074748624643690
 40
0.800000000000182
 50
270.000000000000000
 51
0.000000000000000
  0
LINE
  8
0
  6
CONTINUOUS
 62
3
 10
299.288326470219090
 20
-179.374748624643870
 11
299.288326470219090
 21
-206.074748624643690
  0
LINE
  8
0
  6
CONTINUOUS
 62
3
 10
298.488326470219360
 20
-206.874748624643870
 11
235.288326470219090
 21
-206.874748624643870
  0
LINE
  8
0
  6
CONTINUOUS
 62
3
 10
211.288326470219090
 20
-229.374748624642960
 11
212.288326470219090
 21
-229.374748624642960
  0
LINE
  8
0
  6
CONTINUOUS
 62
3
 10
211.288326470219090
 20
-129.374748624642960
 11
212.288326470219090
 21
-129.374748624642960
  0
ARC
  8
0
  6
CONTINUOUS
 62
3
 10
207.288326470235460
 20
-117.539768485505190
 40
3.000000000000000
 50
0.000000000000000
 51
26.186216145151025
  0
ARC
  8
0
  6
CONTINUOUS
 62
3
 10
129.217609890880790
 20
-155.931997032257640
 40
90.000000000000085
 50
26.186216145153860
 51
89.000000000000540
  0
POLYLINE
  8
0
  6
CONTINUOUS
 62
3
 66
1
  0
VERTEX
  8
0
  6
CONTINUOUS
 62
3
 10
204.321211781768400
 20
-185.192111209637910
  0
VERTEX
  8
0
  6
CONTINUOUS
 62
3
 10
203.969984793626590
 20
-178.363949939073420
  0
VERTEX
  8
0
  6
CONTINUOUS
 62
3
 10
202.929801285385110
 20
-171.798191076859750
  0
VERTEX
  8
0
  6
CONTINUOUS
 62
3
 10
201.240634925924040
 20
-165.747153053951820
  0
VERTEX
  8
0
  6
CONTINUOUS
 62
3
 10
198.967399431142040
 20
-160.443373868108720
  0
VERTEX
  8
0
  6
CONTINUOUS
 62
3
 10
196.197453966258480
 20
-156.090674779048780
  0
VERTEX
  8
0
  6
CONTINUOUS
 62
3
 10
193.037245982085470
 20
-152.856327571742840
  0
VERTEX
  8
0
  6
CONTINUOUS
 62
3
 10
189.608220499189740
 20
-150.864626395524790
  0
VERTEX
  8
0
  6
CONTINUOUS
 62
3
 10
186.042153043859340
 20
-150.192111209637860
  0
VERTEX
  8
0
  6
CONTINUOUS
 62
3
 10
182.476085588528950
 20
-150.864626395524790
  0
VERTEX
  8
0
  6
CONTINUOUS
 62
3
 10
179.047060105633220
 20
-152.856327571742840
  0
VERTEX
  8
0
  6
CONTINUOUS
 62
3
 10
175.886852121460210
 20
-156.090674779048810
  0
VERTEX
  8
0
  6
CONTINUOUS
 62
3
 10
173.116906656576650
 20
-160.443373868108720
  0
VERTEX
  8
0
  6
CONTINUOUS
 62
3
 10
170.843671161794670
 20
-165.747153053951820
  0
VERTEX
  8
0
  6
CONTINUOUS
 62
3
 10
169.154504802333580
 20
-171.798191076859750
  0
VERTEX
  8
0
  6
CONTINUOUS
 62
3
 10
168.114321294092120
 20
-178.363949939073420
  0
VERTEX
  8
0
  6
CONTINUOUS
 62
3
 10
167.763094305950290
 20
-185.192111209637910
  0
SEQEND
  8
0
  6
CONTINUOUS
 62
3
  0
LINE
  8
0
  6
CONTINUOUS
 62
3
 10
204.321211781768400
 20
-185.192111209637910
 11
204.321211781768400
 21
-346.300816517541530
  0
LINE
  8
0
  6
CONTINUOUS
 62
3
 10
167.763094305950290
 20
-185.192111209637910
 11
167.763094305950290
 21
-345.759097894812840
  0
LINE
  8
0
  6
DASHDOT
 62
4
 10
41.788326470219090
 20
-287.374748624642960
 11
88.746659912831547
 21
-287.374748624642960
  0
LINE
  8
0
  6
DASHDOT
 62
4
 10
65.788326470219090
 20
-263.374748624642960
 11
65.788326470219090
 21
-311.374748624642960
  0
CIRCLE
  8
0
  6
CONTINUOUS
 62
3
 10
65.788326470219090
 20
-287.374748624642960
 40
15.000000000000000
  0
LINE
  8
0
  6
CONTINUOUS
 62
3
 10
40.788326470219090
 20
-64.374748624643871
 11
130.788326470235460
 21
-65.945704468183067
  0
LINE
  8
0
  6
CONTINUOUS
 62
3
 10
210.288326470219090
 20
-179.374748624642960
 11
210.288326470219090
 21
-117.539768485505190
  0
LINE
  8
0
  6
CONTINUOUS
 62
3
 10
40.788326470219090
 20
-64.374748624643871
 11
40.788326470219090
 21
-318.628851143502290
  0
LINE
  8
0
  6
CONTINUOUS
 62
3
 10
212.288326470219090
 20
-179.374748624642960
 11
212.288326470219090
 21
-229.374748624642960
  0
LINE
  8
0
  6
DASHDOT
 62
4
 10
306.237015235710710
 20
-179.374748624642960
 11
137.929866184578260
 21
-179.374748624642960
  0
LINE
  8
0
  6
CONTINUOUS
 62
3
 10
212.288326470219090
 20
-179.374748624642960
 11
212.288326470219090
 21
-129.374748624642960
  0
ARC
  8
0
  6
CONTINUOUS
 62
3
 10
211.288326470219090
 20
-128.374748624642960
 40
1.000000000000000
 50
180.000000000000000
 51
270.000000000000000
  0
ARC
  8
0
  6
CONTINUOUS
 62
3
 10
211.288326470219090
 20
-230.374748624642960
 40
1.000000000000000
 50
90.000000000000000
 51
180.000000000000000
  0
LINE
  8
0
  6
CONTINUOUS
 62
3
 10
210.288326470219090
 20
-179.374748624642960
 11
210.288326470219090
 21
-348.416936214010090
  0
LINE
  8
0
  6
DASHDOT
 62
4
 10
192.288326470219090
 20
-345.447787069161680
 11
192.288326470219090
 21
-382.786011098703060
  0
ARC
  8
0
  6
CONTINUOUS
 62
3
 10
65.288326470218180
 20
-64.293670182921232
 40
0.499999999999091
 50
180.000000000000000
 51
270.000000000000000
  0
ARC
  8
0
  6
CONTINUOUS
 62
3
 10
96.288326470219090
 20
-64.293670182921232
 40
0.500000000000000
 50
270.000000000000000
 51
0.000000000000000
  0
LINE
  8
0
  6
CONTINUOUS
 62
3
 10
80.788326470219090
 20
-64.793670182921232
 11
96.288326470219090
 21
-64.793670182921232
  0
LINE
  8
0
  6
CONTINUOUS
 62
3
 10
64.788326470219090
 20
-56.293670182921232
 11
64.788326470219090
 21
-64.293670182921232
  0
ARC
  8
0
  6
CONTINUOUS
 62
3
 10
65.288326470219090
 20
-56.293670182921232
 40
0.500000000000000
 50
90.000000000000000
 51
180.000000000000000
  0
LINE
  8
0
  6
CONTINUOUS
 62
3
 10
80.788326470219090
 20
-55.793670182921232
 11
65.288326470219090
 21
-55.793670182921232
  0
LINE
  8
0
  6
CONTINUOUS
 62
3
 10
96.788326470219090
 20
-56.293670182921232
 11
96.788326470219090
 21
-64.293670182921232
  0
ARC
  8
0
  6
CONTINUOUS
 62
3
 10
96.288326470219090
 20
-56.293670182921232
 40
0.500000000000000
 50
0.000000000000000
 51
90.000000000000000
  0
LINE
  8
0
  6
CONTINUOUS
 62
3
 10
80.788326470219090
 20
-55.793670182921232
 11
96.288326470219090
 21
-55.793670182921232
  0
LINE
  8
0
  6
CONTINUOUS
 62
3
 10
80.788326470219090
 20
-64.793670182921232
 11
65.288326470219090
 21
-64.793670182921232
  0
ARC
  8
0
  6
CONTINUOUS
 62
3
 10
-130.451455349166390
 20
-236.450703407045300
 40
4.000000000000156
 50
221.178434371117250
 51
270.000000000000000
  0
POLYLINE
  8
0
  6
CONTINUOUS
 62
3
 66
1
  0
VERTEX
  8
0
  6
CONTINUOUS
 62
3
 10
-133.462106471278620
 20
-239.084328251423270
  0
VERTEX
  8
0
  6
CONTINUOUS
 62
3
 10
-134.453075606364990
 20
-238.139199984902860
  0
VERTEX
  8
0
  6
CONTINUOUS
 62
3
 10
-135.612677985936670
 20
-237.370691182117180
  0
VERTEX
  8
0
  6
CONTINUOUS
 62
3
 10
-136.903727364833230
 20
-236.803446460265860
  0
VERTEX
  8
0
  6
CONTINUOUS
 62
3
 10
-138.284822242364840
 20
-236.455656279858740
  0
VERTEX
  8
0
  6
CONTINUOUS
 62
3
 10
-139.711673529779660
 20
-236.338473611207750
  0
SEQEND
  8
0
  6
CONTINUOUS
 62
3
  0
ARC
  8
0
  6
CONTINUOUS
 62
3
 10
-131.224199314059550
 20
-236.450703400418720
 40
3.999999999999828
 50
226.698420851470790
 51
270.000000000000000
  0
POLYLINE
  8
0
  6
CONTINUOUS
 62
3
 66
1
  0
VERTEX
  8
0
  6
CONTINUOUS
 62
3
 10
-133.967552958300190
 20
-239.361718821647290
  0
VERTEX
  8
0
  6
CONTINUOUS
 62
3
 10
-134.929253558874730
 20
-238.589839659720670
  0
VERTEX
  8
0
  6
CONTINUOUS
 62
3
 10
-136.013411726766660
 20
-237.967977091115100
  0
VERTEX
  8
0
  6
CONTINUOUS
 62
3
 10
-137.192266752411540
 20
-237.512054388529380
  0
VERTEX
  8
0
  6
CONTINUOUS
 62
3
 10
-138.435633139859930
 20
-237.233745805873300
  0
VERTEX
  8
0
  6
CONTINUOUS
 62
3
 10
-139.711673529779660
 20
-237.140177649954470
  0
SEQEND
  8
0
  6
CONTINUOUS
 62
3
  0
POLYLINE
  8
0
  6
CONTINUOUS
 62
3
 66
1
 70
1
  0
VERTEX
  8
0
  6
CONTINUOUS
 62
3
 10
-136.211673529779660
 20
-244.193243158660660
  0
VERTEX
  8
0
  6
CONTINUOUS
 62
3
 10
-136.278925048368360
 20
-243.519653388614530
  0
VERTEX
  8
0
  6
CONTINUOUS
 62
3
 10
-136.478095165990170
 20
-242.871949295677780
  0
VERTEX
  8
0
  6
CONTINUOUS
 62
3
 10
-136.801529886720740
 20
-242.275021784905310
  0
VERTEX
  8
0
  6
CONTINUOUS
 62
3
 10
-137.236799795626750
 20
-241.751810445775330
  0
VERTEX
  8
0
  6
CONTINUOUS
 62
3
 10
-137.767177714211040
 20
-241.322421996630280
  0
VERTEX
  8
0
  6
CONTINUOUS
 62
3
 10
-138.372281516501860
 20
-241.003357594767010
  0
VERTEX
  8
0
  6
CONTINUOUS
 62
3
 10
-139.028857402723220
 20
-240.806878706215740
  0
VERTEX
  8
0
  6
CONTINUOUS
 62
3
 10
-139.711673529779660
 20
-240.740535904476870
  0
VERTEX
  8
0
  6
CONTINUOUS
 62
3
 10
-140.394489656836100
 20
-240.806878706215740
  0
VERTEX
  8
0
  6
CONTINUOUS
 62
3
 10
-141.051065543057460
 20
-241.003357594767010
  0
VERTEX
  8
0
  6
CONTINUOUS
 62
3
 10
-141.656169345348270
 20
-241.322421996630280
  0
VERTEX
  8
0
  6
CONTINUOUS
 62
3
 10
-142.186547263932570
 20
-241.751810445775330
  0
VERTEX
  8
0
  6
CONTINUOUS
 62
3
 10
-142.621817172838580
 20
-242.275021784905310
  0
VERTEX
  8
0
  6
CONTINUOUS
 62
3
 10
-142.945251893569150
 20
-242.871949295677780
  0
VERTEX
  8
0
  6
CONTINUOUS
 62
3
 10
-143.144422011190950
 20
-243.519653388614530
  0
VERTEX
  8
0
  6
CONTINUOUS
 62
3
 10
-143.211673529779660
 20
-244.193243158660660
  0
VERTEX
  8
0
  6
CONTINUOUS
 62
3
 10
-143.144422011190950
 20
-244.866832928706800
  0
VERTEX
  8
0
  6
CONTINUOUS
 62
3
 10
-142.945251893569150
 20
-245.514537021643550
  0
VERTEX
  8
0
  6
CONTINUOUS
 62
3
 10
-142.621817172838580
 20
-246.111464532416020
  0
VERTEX
  8
0
  6
CONTINUOUS
 62
3
 10
-142.186547263932570
 20
-246.634675871545990
  0
VERTEX
  8
0
  6
CONTINUOUS
 62
3
 10
-141.656169345348270
 20
-247.064064320691050
  0
VERTEX
  8
0
  6
CONTINUOUS
 62
3
 10
-141.051065543057460
 20
-247.383128722554320
  0
VERTEX
  8
0
  6
CONTINUOUS
 62
3
 10
-140.394489656836100
 20
-247.579607611105590
  0
VERTEX
  8
0
  6
CONTINUOUS
 62
3
 10
-139.711673529779660
 20
-247.645950412844460
  0
VERTEX
  8
0
  6
CONTINUOUS
 62
3
 10
-139.028857402723220
 20
-247.579607611105590
  0
VERTEX
  8
0
  6
CONTINUOUS
 62
3
 10
-138.372281516501860
 20
-247.383128722554320
  0
VERTEX
  8
0
  6
CONTINUOUS
 62
3
 10
-137.767177714211040
 20
-247.064064320691050
  0
VERTEX
  8
0
  6
CONTINUOUS
 62
3
 10
-137.236799795626750
 20
-246.634675871545990
  0
VERTEX
  8
0
  6
CONTINUOUS
 62
3
 10
-136.801529886720740
 20
-246.111464532416020
  0
VERTEX
  8
0
  6
CONTINUOUS
 62
3
 10
-136.478095165990170
 20
-245.514537021643550
  0
VERTEX
  8
0
  6
CONTINUOUS
 62
3
 10
-136.278925048368360
 20
-244.866832928706800
  0
SEQEND
  8
0
  6
CONTINUOUS
 62
3
  0
LINE
  8
0
  6
CONTINUOUS
 62
3
 10
-141.711673529779660
 20
-245.309647028870190
 11
-137.711673529779660
 21
-241.655465198299740
  0
LINE
  8
0
  6
CONTINUOUS
 62
3
 10
-137.711673529779660
 20
-245.309647028870190
 11
-141.711673529779660
 21
-241.655465198299740
  0
POLYLINE
  8
0
  6
CONTINUOUS
 62
3
 66
1
  0
VERTEX
  8
0
  6
CONTINUOUS
 62
3
 10
-139.711673529779660
 20
-237.140177649954470
  0
VERTEX
  8
0
  6
CONTINUOUS
 62
3
 10
-140.987713919699390
 20
-237.233745805873300
  0
VERTEX
  8
0
  6
CONTINUOUS
 62
3
 10
-142.231080307147780
 20
-237.512054388529380
  0
VERTEX
  8
0
  6
CONTINUOUS
 62
3
 10
-143.409935332792660
 20
-237.967977091115100
  0
VERTEX
  8
0
  6
CONTINUOUS
 62
3
 10
-144.494093500684580
 20
-238.589839659720670
  0
VERTEX
  8
0
  6
CONTINUOUS
 62
3
 10
-145.455794101259130
 20
-239.361718821647290
  0
SEQEND
  8
0
  6
CONTINUOUS
 62
3
  0
ARC
  8
0
  6
CONTINUOUS
 62
3
 10
-148.199147745500000
 20
-236.450703400418720
 40
3.999999993776328
 50
270.000000000000000
 51
313.301579148531630
  0
POLYLINE
  8
0
  6
CONTINUOUS
 62
3
 66
1
  0
VERTEX
  8
0
  6
CONTINUOUS
 62
3
 10
-139.711673529779660
 20
-236.338473611207750
  0
VERTEX
  8
0
  6
CONTINUOUS
 62
3
 10
-141.138524817194540
 20
-236.455656279858740
  0
VERTEX
  8
0
  6
CONTINUOUS
 62
3
 10
-142.519619694726200
 20
-236.803446460265920
  0
VERTEX
  8
0
  6
CONTINUOUS
 62
3
 10
-143.810669073622850
 20
-237.370691182117270
  0
VERTEX
  8
0
  6
CONTINUOUS
 62
3
 10
-144.970271453194560
 20
-238.139199984903030
  0
VERTEX
  8
0
  6
CONTINUOUS
 62
3
 10
-145.961240588280930
 20
-239.084328251423560
  0
SEQEND
  8
0
  6
CONTINUOUS
 62
3
  0
ARC
  8
0
  6
CONTINUOUS
 62
3
 10
-148.971891710392920
 20
-236.450703407045300
 40
3.999999987149749
 50
270.000000000000000
 51
318.821565628880590
  0
LINE
  8
0
  6
CONTINUOUS
 62
3
 10
-175.161673529778570
 20
-251.880860352292130
 11
-139.711673529779660
 21
-251.880860352292130
  0
LINE
  8
0
  6
CONTINUOUS
 62
3
 10
-175.161673529778570
 20
-250.660650423064960
 11
-139.711673529779660
 21
-250.660650423064960
  0
ARC
  8
0
  6
CONTINUOUS
 62
3
 10
-175.161673529778570
 20
-239.660650423064960
 40
11.000000000000000
 50
180.000000000000000
 51
270.000000000000000
  0
ARC
  8
0
  6
CONTINUOUS
 62
3
 10
-175.161673529778570
 20
-240.880860352292130
 40
11.000000000000000
 50
180.000000000000000
 51
270.000000000000000
  0
LINE
  8
0
  6
CONTINUOUS
 62
3
 10
-148.199147747173240
 20
-240.450703394195050
 11
-174.761673529778930
 21
-240.450703394195050
  0
ARC
  8
0
  6
CONTINUOUS
 62
3
 10
-174.761673529778930
 20
-235.450703394195050
 40
5.000000000000000
 50
180.000000000000000
 51
270.000000000000000
  0
LINE
  8
0
  6
DASHDOT
 62
4
 10
-139.711673529779660
 20
-145.375148791850340
 11
-139.711673529779660
 21
-258.028868217086990
  0
LINE
  8
0
  6
CONTINUOUS
 62
4
 10
-139.711673529779660
 20
-209.107595868936240
 11
-132.494795164910220
 21
-221.607595868936240
  0
LINE
  8
0
  6
CONTINUOUS
 62
4
 10
-125.277916800039860
 20
-209.107595868936240
 11
-139.711673529779660
 21
-209.107595868936240
  0
LINE
  8
0
  6
CONTINUOUS
 62
4
 10
-132.494795164909310
 20
-196.607595868936470
 11
-139.711673529779660
 21
-209.107595868936240
  0
LINE
  8
0
  6
CONTINUOUS
 62
4
 10
-139.711673529779660
 20
-184.107595868936240
 11
-132.494795164909310
 21
-196.607595868936240
  0
LINE
  8
0
  6
CONTINUOUS
 62
4
 10
-118.061038435169500
 20
-221.607595868936240
 11
-132.494795164910220
 21
-221.607595868936240
  0
LINE
  8
0
  6
CONTINUOUS
 62
4
 10
-125.277916800039860
 20
-209.107595868936240
 11
-118.061038435169500
 21
-221.607595868936240
  0
LINE
  8
0
  6
CONTINUOUS
 62
4
 10
-139.711673529779660
 20
-184.107595868936240
 11
-146.928551894650010
 21
-196.607595868936240
  0
LINE
  8
0
  6
CONTINUOUS
 62
4
 10
-146.928551894650010
 20
-196.607595868936470
 11
-139.711673529779660
 21
-209.107595868936240
  0
LINE
  8
0
  6
CONTINUOUS
 62
4
 10
-154.145430259519460
 20
-209.107595868936240
 11
-139.711673529779660
 21
-209.107595868936240
  0
LINE
  8
0
  6
CONTINUOUS
 62
4
 10
-154.145430259519460
 20
-209.107595868936240
 11
-161.362308624389810
 21
-221.607595868936240
  0
LINE
  8
0
  6
CONTINUOUS
 62
4
 10
-139.711673529779660
 20
-209.107595868936240
 11
-146.928551894649100
 21
-221.607595868936240
  0
LINE
  8
0
  6
CONTINUOUS
 62
4
 10
-161.362308624389810
 20
-221.607595868936240
 11
-146.928551894649100
 21
-221.607595868936240
  0
LINE
  8
0
  6
CONTINUOUS
 62
3
 10
-175.161673529778570
 20
-148.278140984036380
 11
-139.711673529779660
 21
-148.278140984036380
  0
ARC
  8
0
  6
CONTINUOUS
 62
3
 10
-175.161673529778570
 20
-159.278140984036380
 40
11.000000000000000
 50
90.000000000000000
 51
180.000000000000000
  0
LINE
  8
0
  6
CONTINUOUS
 62
3
 10
-139.711673529779660
 20
-154.372959187534950
 11
-174.761673529778930
 21
-154.372959187534950
  0
ARC
  8
0
  6
CONTINUOUS
 62
3
 10
-174.761673529778930
 20
-159.372959187534950
 40
5.000000000000000
 50
90.000000000000000
 51
180.000000000000000
  0
LINE
  8
0
  6
CONTINUOUS
 62
4
 10
-139.711673529779660
 20
-160.874748624642110
 11
-174.761673529778930
 21
-160.874748624642110
  0
ARC
  8
0
  6
CONTINUOUS
 62
4
 10
-174.761673529778930
 20
-165.874748624642110
 40
5.000000000000000
 50
90.000000000000000
 51
180.000000000000000
  0
LINE
  8
0
  6
CONTINUOUS
 62
3
 10
-179.761673529778930
 20
-159.372959187534950
 11
-179.761673529778930
 21
-235.450703394195050
  0
LINE
  8
0
  6
CONTINUOUS
 62
3
 10
-186.161673529778570
 20
-159.278140984036380
 11
-186.161673529778570
 21
-240.880860352292130
  0
LINE
  8
0
  6
CONTINUOUS
 62
3
 10
-165.711673529779550
 20
-148.278140984036380
 11
-165.711673529779550
 21
-130.874748624642340
  0
LINE
  8
0
  6
CONTINUOUS
 62
3
 10
-165.711673529779550
 20
-130.874748624642340
 11
-246.405697752199900
 21
-130.874748624642340
  0
LINE
  8
0
  6
CONTINUOUS
 62
3
 10
-268.711673529729410
 20
-190.874748624642340
 11
-268.711673529729410
 21
-143.431543567396890
  0
ARC
  8
0
  6
CONTINUOUS
 62
3
 10
-246.405697752199900
 20
-150.874748624642340
 40
20.000000000000000
 50
90.000000000000000
 51
125.000000000000240
  0
LINE
  8
0
  6
CONTINUOUS
 62
3
 10
-257.877226479220890
 20
-134.491707738862540
 11
-267.602972264241880
 21
-141.301748252245770
  0
ARC
  8
0
  6
CONTINUOUS
 62
3
 10
-266.111673529729270
 20
-143.431543567396890
 40
2.599999999999721
 50
125.000000000001370
 51
180.000000000000000
  0
LINE
  8
0
  6
CONTINUOUS
 62
3
 10
-179.757562692909120
 20
-250.874748624642340
 11
-246.405697752199900
 21
-250.874748624642340
  0
LINE
  8
0
  6
CONTINUOUS
 62
3
 10
-268.711673529729410
 20
-190.874748624642340
 11
-268.711673529729410
 21
-238.317953681887790
  0
ARC
  8
0
  6
CONTINUOUS
 62
3
 10
-246.405697752199900
 20
-230.874748624642340
 40
20.000000000000007
 50
234.999999999999740
 51
270.000000000000000
  0
LINE
  8
0
  6
CONTINUOUS
 62
3
 10
-257.877226479220890
 20
-247.257789510422130
 11
-267.602972264241880
 21
-240.447748997038900
  0
ARC
  8
0
  6
CONTINUOUS
 62
3
 10
-266.111673529729270
 20
-238.317953681887790
 40
2.600000000000136
 50
180.000000000000000
 51
234.999999999998610
  0
POLYLINE
  8
0
  6
CONTINUOUS
 62
3
 66
1
 70
1
  0
VERTEX
  8
0
  6
CONTINUOUS
 62
3
 10
-172.011673529778990
 20
-138.951223592582270
  0
VERTEX
  8
0
  6
CONTINUOUS
 62
3
 10
-172.101982711883810
 20
-138.248266626381910
  0
VERTEX
  8
0
  6
CONTINUOUS
 62
3
 10
-172.369439726975940
 20
-137.572323902169810
  0
VERTEX
  8
0
  6
CONTINUOUS
 62
3
 10
-172.803766351957020
 20
-136.949371519764410
  0
VERTEX
  8
0
  6
CONTINUOUS
 62
3
 10
-173.388271658202200
 20
-136.403349189865820
  0
VERTEX
  8
0
  6
CONTINUOUS
 62
3
 10
-174.100493434586870
 20
-135.955240244399190
  0
VERTEX
  8
0
  6
CONTINUOUS
 62
3
 10
-174.913061397663060
 20
-135.622265258836450
  0
VERTEX
  8
0
  6
CONTINUOUS
 62
3
 10
-175.794749016303170
 20
-135.417220275138190
  0
VERTEX
  8
0
  6
CONTINUOUS
 62
3
 10
-176.711673529778980
 20
-135.347985057037420
  0
VERTEX
  8
0
  6
CONTINUOUS
 62
3
 10
-177.628598043254780
 20
-135.417220275138190
  0
VERTEX
  8
0
  6
CONTINUOUS
 62
3
 10
-178.510285661894900
 20
-135.622265258836450
  0
VERTEX
  8
0
  6
CONTINUOUS
 62
3
 10
-179.322853624971090
 20
-135.955240244399190
  0
VERTEX
  8
0
  6
CONTINUOUS
 62
3
 10
-180.035075401355750
 20
-136.403349189865820
  0
VERTEX
  8
0
  6
CONTINUOUS
 62
3
 10
-180.619580707600930
 20
-136.949371519764410
  0
VERTEX
  8
0
  6
CONTINUOUS
 62
3
 10
-181.053907332582010
 20
-137.572323902169810
  0
VERTEX
  8
0
  6
CONTINUOUS
 62
3
 10
-181.321364347674150
 20
-138.248266626381910
  0
VERTEX
  8
0
  6
CONTINUOUS
 62
3
 10
-181.411673529778970
 20
-138.951223592582270
  0
VERTEX
  8
0
  6
CONTINUOUS
 62
3
 10
-181.321364347674150
 20
-139.654180558782630
  0
VERTEX
  8
0
  6
CONTINUOUS
 62
3
 10
-181.053907332582010
 20
-140.330123282994720
  0
VERTEX
  8
0
  6
CONTINUOUS
 62
3
 10
-180.619580707600930
 20
-140.953075665400120
  0
VERTEX
  8
0
  6
CONTINUOUS
 62
3
 10
-180.035075401355730
 20
-141.499097995298710
  0
VERTEX
  8
0
  6
CONTINUOUS
 62
3
 10
-179.322853624971090
 20
-141.947206940765340
  0
VERTEX
  8
0
  6
CONTINUOUS
 62
3
 10
-178.510285661894900
 20
-142.280181926328080
  0
VERTEX
  8
0
  6
CONTINUOUS
 62
3
 10
-177.628598043254780
 20
-142.485226910026340
  0
VERTEX
  8
0
  6
CONTINUOUS
 62
3
 10
-176.711673529778980
 20
-142.554462128127110
  0
VERTEX
  8
0
  6
CONTINUOUS
 62
3
 10
-175.794749016303170
 20
-142.485226910026340
  0
VERTEX
  8
0
  6
CONTINUOUS
 62
3
 10
-174.913061397663060
 20
-142.280181926328080
  0
VERTEX
  8
0
  6
CONTINUOUS
 62
3
 10
-174.100493434586870
 20
-141.947206940765340
  0
VERTEX
  8
0
  6
CONTINUOUS
 62
3
 10
-173.388271658202230
 20
-141.499097995298710
  0
VERTEX
  8
0
  6
CONTINUOUS
 62
3
 10
-172.803766351957020
 20
-140.953075665400120
  0
VERTEX
  8
0
  6
CONTINUOUS
 62
3
 10
-172.369439726975940
 20
-140.330123282994720
  0
VERTEX
  8
0
  6
CONTINUOUS
 62
3
 10
-172.101982711883810
 20
-139.654180558782630
  0
SEQEND
  8
0
  6
CONTINUOUS
 62
3
  0
LINE
  8
0
  6
CONTINUOUS
 62
3
 10
-178.711673529778980
 20
-135.958848038581950
 11
-176.711673529778980
 21
-137.134633524204730
  0
LINE
  8
0
  6
CONTINUOUS
 62
3
 10
-176.711673529778980
 20
-137.134633524204730
 11
-174.711673529778980
 21
-138.787275163328160
  0
LINE
  8
0
  6
CONTINUOUS
 62
3
 10
-174.711673529778980
 20
-135.958848038581950
 11
-176.711673529778980
 21
-137.134633524204730
  0
LINE
  8
0
  6
CONTINUOUS
 62
3
 10
-176.711673529778980
 20
-137.134633524204730
 11
-178.711673529778980
 21
-138.787275163328160
  0
POINT
  8
0
  6
CONTINUOUS
 62
4
 10
-153.211673529779660
 20
-251.880860352292130
  0
POINT
  8
0
  6
CONTINUOUS
 62
4
 10
-126.211673529779650
 20
-251.880860352292130
  0
LINE
  8
0
  6
CONTINUOUS
 62
3
 10
327.868448810383600
 20
-352.374748624642960
 11
327.868448810383600
 21
-374.374748624642960
  0
LINE
  8
0
  6
CONTINUOUS
 62
3
 10
327.868448810383600
 20
-332.846884579642390
 11
327.868448810383600
 21
-374.374748624642960
  0
ARC
  8
0
  6
CONTINUOUS
 62
3
 10
539.795825631948450
 20
-182.374748624642960
 40
3.000000000000000
 50
90.000000000000000
 51
177.226540597909410
  0
ARC
  8
0
  6
CONTINUOUS
 62
3
 10
415.941071988819660
 20
-182.374748624642960
 40
3.000000000000233
 50
2.773459402090611
 51
90.000000000000000
  0
ARC
  8
0
  6
CONTINUOUS
 62
3
 10
477.868448810384050
 20
-179.374748624642960
 40
59.000000000000014
 50
182.773459402084340
 51
357.226540597915630
  0
ARC
  8
0
  6
CONTINUOUS
 62
3
 10
339.275797088684610
 20
-344.374748624642960
 40
5.000000000000000
 50
270.000000000000000
 51
0.000000000000000
  0
ARC
  8
0
  6
CONTINUOUS
 62
3
 10
368.074725909628340
 20
-344.374748624642960
 40
5.000000000000000
 50
270.000000000000000
 51
0.000000000000000
  0
ARC
  8
0
  6
CONTINUOUS
 62
3
 10
377.341954903451100
 20
-344.374748624642960
 40
5.000000000000000
 50
270.000000000000000
 51
0.000000000000000
  0
ARC
  8
0
  6
CONTINUOUS
 62
3
 10
578.394942717317010
 20
-344.374748624642960
 40
5.000000000000000
 50
180.000000000000000
 51
270.000000000000000
  0
ARC
  8
0
  6
CONTINUOUS
 62
3
 10
587.662171711139760
 20
-344.374748624642960
 40
5.000000000000000
 50
180.000000000000000
 51
270.000000000000000
  0
ARC
  8
0
  6
CONTINUOUS
 62
3
 10
616.461100532082580
 20
-344.374748624642960
 40
5.000000000000000
 50
180.000000000000000
 51
270.000000000000000
  0
ARC
  8
0
  6
CONTINUOUS
 62
3
 10
555.368448810384050
 20
-331.374748624642960
 40
9.000000000000000
 50
270.000000000000000
 51
0.000000000000000
  0
ARC
  8
0
  6
CONTINUOUS
 62
3
 10
400.368448810383140
 20
-331.374748624642960
 40
9.000000000000000
 50
180.000000000000000
 51
270.000000000000000
  0
LINE
  8
0
  6
CONTINUOUS
 62
3
 10
573.394942717317010
 20
-185.192111209637910
 11
573.394942717317010
 21
-344.374748624642960
  0
ARC
  8
0
  6
CONTINUOUS
 62
3
 10
505.868448810384050
 20
-185.192111209637910
 40
67.526493906932956
 50
0.000000000000000
 51
86.655847795544631
  0
ARC
  8
0
  6
CONTINUOUS
 62
3
 10
477.868448810384050
 20
-664.374748624642050
 40
547.526493906932050
 50
86.655847795544375
 51
90.000000000000000
  0
ARC
  8
0
  6
CONTINUOUS
 62
3
 10
477.868448810384050
 20
-664.374748624642050
 40
547.526493906932050
 50
90.000000000000000
 51
93.344152204455725
  0
ARC
  8
0
  6
CONTINUOUS
 62
3
 10
449.868448810384050
 20
-185.192111209637910
 40
67.526493906932785
 50
93.344152204456151
 51
180.000000000000000
  0
LINE
  8
0
  6
CONTINUOUS
 62
3
 10
382.341954903451100
 20
-185.192111209637910
 11
382.341954903451100
 21
-344.374748624642960
  0
ARC
  8
0
  6
CONTINUOUS
 62
3
 10
628.868448810384050
 20
-328.374748624642960
 40
3.000000000000000
 50
180.000000000000000
 51
228.189685104226240
  0
ARC
  8
0
  6
CONTINUOUS
 62
3
 10
624.868448810384050
 20
-332.846884579642390
 40
3.000000000000000
 50
0.000000000000000
 51
48.189685104214675
  0
ARC
  8
0
  6
CONTINUOUS
 62
3
 10
326.868448810383600
 20
-328.374748624642960
 40
3.000000000000284
 50
311.810314895773730
 51
0.000000000000000
  0
ARC
  8
0
  6
CONTINUOUS
 62
3
 10
330.868448810383600
 20
-332.846884579642390
 40
2.999999999999606
 50
131.810314895785330
 51
180.000000000000000
  0
LINE
  8
0
  6
CONTINUOUS
 62
3
 10
477.868448810384050
 20
-340.374748624642960
 11
555.368448810384050
 21
-340.374748624642960
  0
LINE
  8
0
  6
CONTINUOUS
 62
3
 10
564.368448810384050
 20
-184.374748624642960
 11
564.368448810384050
 21
-331.374748624642960
  0
ARC
  8
0
  6
CONTINUOUS
 62
3
 10
559.368448810384050
 20
-184.374748624642960
 40
5.000000000000000
 50
0.000000000000000
 51
90.000000000000000
  0
LINE
  8
0
  6
CONTINUOUS
 62
3
 10
539.795825631948450
 20
-179.374748624642960
 11
559.368448810384050
 21
-179.374748624642960
  0
ARC
  8
0
  6
CONTINUOUS
 62
3
 10
396.368448810383140
 20
-184.374748624642960
 40
5.000000000000000
 50
90.000000000000000
 51
180.000000000000000
  0
LINE
  8
0
  6
CONTINUOUS
 62
3
 10
415.941071988819660
 20
-179.374748624642960
 11
396.368448810383140
 21
-179.374748624642960
  0
LINE
  8
0
  6
CONTINUOUS
 62
3
 10
391.368448810383140
 20
-184.374748624642960
 11
391.368448810383140
 21
-331.374748624642960
  0
LINE
  8
0
  6
CONTINUOUS
 62
3
 10
477.868448810384050
 20
-340.374748624642960
 11
400.368448810383140
 21
-340.374748624642960
  0
LINE
  8
0
  6
CONTINUOUS
 62
3
 10
582.662171711139760
 20
-179.374748624642960
 11
582.662171711139760
 21
-344.374748624642960
  0
LINE
  8
0
  6
CONTINUOUS
 62
3
 10
611.461100532082580
 20
-179.374748624642960
 11
611.461100532082580
 21
-344.374748624642960
  0
POLYLINE
  8
0
  6
CONTINUOUS
 62
3
 66
1
  0
VERTEX
  8
0
  6
CONTINUOUS
 62
3
 10
611.260808569324580
 20
-179.374748624642960
  0
VERTEX
  8
0
  6
CONTINUOUS
 62
3
 10
610.567442307079200
 20
-173.054015625648250
  0
VERTEX
  8
0
  6
CONTINUOUS
 62
3
 10
609.402287962037460
 20
-167.157293512470320
  0
VERTEX
  8
0
  6
CONTINUOUS
 62
3
 10
607.806046987119660
 20
-161.890568005795250
  0
VERTEX
  8
0
  6
CONTINUOUS
 62
3
 10
605.834479657491560
 20
-157.437817632731080
  0
VERTEX
  8
0
  6
CONTINUOUS
 62
3
 10
603.556457239168250
 20
-153.954586944475320
  0
VERTEX
  8
0
  6
CONTINUOUS
 62
3
 10
601.051556161320490
 20
-151.562552996494560
  0
VERTEX
  8
0
  6
CONTINUOUS
 62
3
 10
598.407278233235390
 20
-150.345274896242560
  0
VERTEX
  8
0
  6
CONTINUOUS
 62
3
 10
595.715994009986960
 20
-150.345274896242560
  0
VERTEX
  8
0
  6
CONTINUOUS
 62
3
 10
593.071716081901850
 20
-151.562552996494560
  0
VERTEX
  8
0
  6
CONTINUOUS
 62
3
 10
590.566815004054090
 20
-153.954586944475320
  0
VERTEX
  8
0
  6
CONTINUOUS
 62
3
 10
588.288792585730790
 20
-157.437817632731080
  0
VERTEX
  8
0
  6
CONTINUOUS
 62
3
 10
586.317225256102690
 20
-161.890568005795250
  0
VERTEX
  8
0
  6
CONTINUOUS
 62
3
 10
584.720984281184880
 20
-167.157293512470320
  0
VERTEX
  8
0
  6
CONTINUOUS
 62
3
 10
583.555829936143140
 20
-173.054015625648220
  0
VERTEX
  8
0
  6
CONTINUOUS
 62
3
 10
582.862463673897760
 20
-179.374748624642930
  0
SEQEND
  8
0
  6
CONTINUOUS
 62
3
  0
POLYLINE
  8
0
  6
CONTINUOUS
 62
3
 66
1
  0
VERTEX
  8
0
  6
CONTINUOUS
 62
3
 10
372.874433946870280
 20
-179.374748624642960
  0
VERTEX
  8
0
  6
CONTINUOUS
 62
3
 10
372.181067684624960
 20
-173.054015625648250
  0
VERTEX
  8
0
  6
CONTINUOUS
 62
3
 10
371.015913339583220
 20
-167.157293512470320
  0
VERTEX
  8
0
  6
CONTINUOUS
 62
3
 10
369.419672364665420
 20
-161.890568005795250
  0
VERTEX
  8
0
  6
CONTINUOUS
 62
3
 10
367.448105035037260
 20
-157.437817632731080
  0
VERTEX
  8
0
  6
CONTINUOUS
 62
3
 10
365.170082616714070
 20
-153.954586944475320
  0
VERTEX
  8
0
  6
CONTINUOUS
 62
3
 10
362.665181538866250
 20
-151.562552996494560
  0
VERTEX
  8
0
  6
CONTINUOUS
 62
3
 10
360.020903610781150
 20
-150.345274896242560
  0
VERTEX
  8
0
  6
CONTINUOUS
 62
3
 10
357.329619387532720
 20
-150.345274896242560
  0
VERTEX
  8
0
  6
CONTINUOUS
 62
3
 10
354.685341459447610
 20
-151.562552996494560
  0
VERTEX
  8
0
  6
CONTINUOUS
 62
3
 10
352.180440381599790
 20
-153.954586944475320
  0
VERTEX
  8
0
  6
CONTINUOUS
 62
3
 10
349.902417963276600
 20
-157.437817632731080
  0
VERTEX
  8
0
  6
CONTINUOUS
 62
3
 10
347.930850633648450
 20
-161.890568005795250
  0
VERTEX
  8
0
  6
CONTINUOUS
 62
3
 10
346.334609658730640
 20
-167.157293512470320
  0
VERTEX
  8
0
  6
CONTINUOUS
 62
3
 10
345.169455313688840
 20
-173.054015625648220
  0
VERTEX
  8
0
  6
CONTINUOUS
 62
3
 10
344.476089051443580
 20
-179.374748624642930
  0
SEQEND
  8
0
  6
CONTINUOUS
 62
3
  0
LINE
  8
0
  6
CONTINUOUS
 62
3
 10
373.074725909628340
 20
-179.374748624642960
 11
373.074725909628340
 21
-344.374748624642960
  0
LINE
  8
0
  6
CONTINUOUS
 62
3
 10
344.275797088685070
 20
-179.374748624642960
 11
344.275797088685070
 21
-344.374748624642960
  0
LINE
  8
0
  6
DASHDOT
 62
4
 10
515.594138129016300
 20
-190.874748624659110
 11
439.094328129579030
 21
-190.874748624659110
  0
ARC
  8
0
  6
CONTINUOUS
 62
3
 10
390.868448810383140
 20
-374.374748624642960
 40
3.000000000000000
 50
90.000000000000000
 51
180.000000000000000
  0
LINE
  8
0
  6
CONTINUOUS
 62
3
 10
477.868448810384050
 20
-371.374748624642960
 11
390.868448810383140
 21
-371.374748624642960
  0
LINE
  8
0
  6
CONTINUOUS
 62
3
 10
387.868448810383140
 20
-374.374748624642960
 11
327.868448810383600
 21
-374.374748624642960
  0
LINE
  8
0
  6
DASHDOT
 62
4
 10
347.868448810383600
 20
-341.640846860934290
 11
347.868448810383600
 21
-379.006686834176430
  0
LINE
  8
0
  6
CONTINUOUS
 62
3
 10
477.868448810384050
 20
-349.374748624642960
 11
330.868448810383600
 21
-349.374748624642960
  0
ARC
  8
0
  6
CONTINUOUS
 62
3
 10
326.868448810383600
 20
-347.902612669643530
 40
2.999999999999606
 50
311.810314895785330
 51
0.000000000000000
  0
ARC
  8
0
  6
CONTINUOUS
 62
3
 10
330.868448810383600
 20
-352.374748624642960
 40
3.000000000000000
 50
90.000000000000000
 51
180.000000000000000
  0
ARC
  8
0
  6
CONTINUOUS
 62
3
 10
477.868448810384050
 20
-664.374748624642050
 40
600.000000000000000
 50
91.519080938704334
 51
93.344152204455753
  0
LINE
  8
0
  6
CONTINUOUS
 62
3
 10
329.868448810383600
 20
-185.192111209637910
 11
329.868448810383600
 21
-347.902612669643530
  0
ARC
  8
0
  6
CONTINUOUS
 62
3
 10
449.868448810383140
 20
-185.192111209637910
 40
119.999999999999820
 50
93.344152204455668
 51
180.000000000000000
  0
ARC
  8
0
  6
CONTINUOUS
 62
3
 10
505.868448810384050
 20
-185.192111209637910
 40
120.000000000000000
 50
0.000000000000000
 51
86.655847795544332
  0
ARC
  8
0
  6
CONTINUOUS
 62
3
 10
628.868448810384050
 20
-347.902612669643530
 40
3.000000000000000
 50
180.000000000000000
 51
228.189685104214670
  0
LINE
  8
0
  6
CONTINUOUS
 62
3
 10
627.868448810384050
 20
-352.374748624642960
 11
627.868448810384050
 21
-374.374748624642960
  0
ARC
  8
0
  6
CONTINUOUS
 62
3
 10
564.868448810384050
 20
-374.374748624642960
 40
3.000000000000000
 50
0.000000000000000
 51
90.000000000000000
  0
LINE
  8
0
  6
DASHDOT
 62
4
 10
477.868448810384050
 20
-21.374667012364625
 11
477.868448810384050
 21
-64.374748624642962
  0
LINE
  8
0
  6
CONTINUOUS
 62
3
 10
477.868448810384050
 20
-371.374748624642960
 11
564.868448810384050
 21
-371.374748624642960
  0
LINE
  8
0
  6
CONTINUOUS
 62
3
 10
567.868448810384050
 20
-374.374748624642960
 11
627.868448810384050
 21
-374.374748624642960
  0
LINE
  8
0
  6
DASHDOT
 62
4
 10
607.868448810384050
 20
-341.640846860934290
 11
607.868448810384050
 21
-379.006686834176430
  0
LINE
  8
0
  6
CONTINUOUS
 62
3
 10
477.868448810384050
 20
-349.374748624642960
 11
624.868448810384050
 21
-349.374748624642960
  0
LINE
  8
0
  6
DASHDOT
 62
4
 10
636.153383325568480
 20
-179.374748624642960
 11
321.585344848092970
 21
-179.374748624642960
  0
ARC
  8
0
  6
CONTINUOUS
 62
3
 10
624.868448810384050
 20
-352.374748624642960
 40
3.000000000000000
 50
0.000000000000000
 51
90.000000000000000
  0
ARC
  8
0
  6
CONTINUOUS
 62
3
 10
477.868448810384050
 20
-664.374748624642050
 40
599.999999999999090
 50
86.655847795544332
 51
88.480919061295666
  0
LINE
  8
0
  6
CONTINUOUS
 62
3
 10
625.868448810384050
 20
-185.192111209637910
 11
625.868448810384050
 21
-347.902612669643530
  0
LINE
  8
0
  6
CONTINUOUS
 62
3
 10
627.868448810384050
 20
-332.846884579642390
 11
627.868448810384050
 21
-374.374748624642960
  0
CIRCLE
  8
0
  6
CONTINUOUS
 62
3
 10
477.868448810384050
 20
-179.374748624642960
 40
50.000000000000000
  0
CIRCLE
  8
0
  6
CONTINUOUS
 62
3
 10
477.868448810384050
 20
-179.374748624642960
 40
39.999999999999886
  0
ARC
  8
0
  6
CONTINUOUS
 62
3
 10
477.868448810384050
 20
-179.374748624642960
 40
27.500000000000906
 50
196.912389803425270
 51
163.087610196574700
  0
LINE
  8
0
  6
CONTINUOUS
 62
3
 10
446.368448810384050
 20
-171.374748624642960
 11
456.368448810384050
 21
-171.374748624642960
  0
LINE
  8
0
  6
CONTINUOUS
 62
3
 10
456.368448810384050
 20
-171.374748624642960
 11
456.368448810384050
 21
-187.374748624642960
  0
LINE
  8
0
  6
CONTINUOUS
 62
3
 10
446.368448810384050
 20
-187.374748624642960
 11
456.368448810384050
 21
-187.374748624642960
  0
LINE
  8
0
  6
CONTINUOUS
 62
3
 10
446.368448810384050
 20
-171.374748624642960
 11
446.368448810384050
 21
-187.374748624642960
  0
LINE
  8
0
  6
CONTINUOUS
 62
3
 10
477.868448810384050
 20
-64.793670182921232
 11
462.368448810383140
 21
-64.793670182921232
  0
LINE
  8
0
  6
CONTINUOUS
 62
3
 10
477.868448810384050
 20
-64.793670182921232
 11
493.368448810384960
 21
-64.793670182921232
  0
LINE
  8
0
  6
CONTINUOUS
 62
3
 10
477.868448810384050
 20
-55.793670182921232
 11
462.368448810384050
 21
-55.793670182921232
  0
LINE
  8
0
  6
CONTINUOUS
 62
3
 10
477.868448810384050
 20
-55.793670182921232
 11
493.368448810384050
 21
-55.793670182921232
  0
LINE
  8
0
  6
CONTINUOUS
 62
3
 10
461.868448810384050
 20
-56.293670182921232
 11
461.868448810384050
 21
-64.293670182921232
  0
LINE
  8
0
  6
CONTINUOUS
 62
3
 10
493.868448810384050
 20
-56.293670182921232
 11
493.868448810384050
 21
-64.293670182921232
  0
ARC
  8
0
  6
CONTINUOUS
 62
3
 10
462.368448810384050
 20
-56.293670182921232
 40
0.500000000000000
 50
90.000000000000000
 51
180.000000000000000
  0
ARC
  8
0
  6
CONTINUOUS
 62
3
 10
493.368448810384050
 20
-56.293670182921232
 40
0.500000000000000
 50
0.000000000000000
 51
90.000000000000000
  0
ARC
  8
0
  6
CONTINUOUS
 62
3
 10
462.368448810383140
 20
-64.293670182921232
 40
0.499999999999091
 50
180.000000000000000
 51
270.000000000000000
  0
ARC
  8
0
  6
CONTINUOUS
 62
3
 10
493.368448810384960
 20
-64.293670182921232
 40
0.500000000000000
 50
270.000000000000000
 51
0.000000000000000
  0
LINE
  8
0
  6
DASHDOT
 62
4
 10
477.868448810384050
 20
-64.374748624642962
 11
477.868448810384050
 21
-378.650049933805350
  0
LINE
  8
0
  6
CONTINUOUS
 62
3
 10
488.368448810384050
 20
-29.374755585507046
 11
467.368448810384050
 21
-29.374755585507046
  0
LINE
  8
0
  6
CONTINUOUS
 62
3
 10
457.368448810384050
 20
-39.374755585507046
 11
457.368448810384050
 21
-64.725059222570962
  0
ARC
  8
0
  6
CONTINUOUS
 62
3
 10
477.868448810384050
 20
-49.374755585507046
 40
9.999999999999803
 50
322.123365558860430
 51
217.876634441139570
  0
LINE
  8
0
  6
DASHDOT
 62
4
 10
501.036361809265600
 20
-49.374755585507046
 11
454.013847907730910
 21
-49.374755585507046
  0
ARC
  8
0
  6
CONTINUOUS
 62
3
 10
467.368448810384050
 20
-39.374755585507046
 40
10.000000000000000
 50
90.000000000000000
 51
180.000000000000000
  0
LINE
  8
0
  6
CONTINUOUS
 62
3
 10
498.368448810384050
 20
-39.374755585507046
 11
498.368448810384050
 21
-64.725059222570962
  0
ARC
  8
0
  6
CONTINUOUS
 62
3
 10
488.368448810384050
 20
-39.374755585507046
 40
10.000000000000000
 50
0.000000000000000
 51
90.000000000000000
  0
CIRCLE
  8
0
  6
CONTINUOUS
 62
4
 10
477.868448810384050
 20
-179.374748624642960
 40
5.000000000000000
  0
CIRCLE
  8
0
  6
CONTINUOUS
 62
3
 10
477.868448810384050
 20
-179.374748624642960
 40
4.187999999999988
  0
LINE
  8
0
  6
DASHED
 62
3
 10
364.440507780763940
 20
-257.001490559958480
 11
368.277398702862910
 21
-258.709784460876790
  0
LINE
  8
0
  6
DASHED
 62
3
 10
365.782738702914460
 20
-253.986790549737860
 11
369.619629625013200
 21
-255.695084450656170
  0
LINE
  8
0
  6
DASHED
 62
3
 10
369.442246539914780
 20
-255.232985715404770
 11
369.619629625013200
 21
-255.695084450656170
  0
LINE
  8
0
  6
DASHED
 62
3
 10
367.815299967611740
 20
-258.887167545974760
 11
368.277398702863140
 21
-258.709784460876340
  0
LINE
  8
0
  6
DASHED
 62
3
 10
369.619629625013200
 20
-255.695084450656170
 11
368.277398702863140
 21
-258.709784460876340
  0
LINE
  8
0
  6
DASHED
 62
3
 10
363.063728753562830
 20
-250.751132209410800
 11
360.216572252031940
 21
-257.145950412909090
  0
LINE
  8
0
  6
DASHED
 62
3
 10
363.063728753562830
 20
-250.751132209410800
 11
360.216572252031940
 21
-257.145950412909090
  0
LINE
  8
0
  6
DASHED
 62
3
 10
360.216572252031940
 20
-257.145950412909090
 11
359.322188132355450
 21
-256.747744947144610
  0
LINE
  8
0
  6
DASHED
 62
3
 10
363.063728753562830
 20
-250.751132209410800
 11
362.169344633886340
 21
-250.352926743646550
  0
LINE
  8
0
  6
DASHED
 62
3
 10
404.368448810384050
 20
-246.874748624707080
 11
368.949223779055270
 21
-246.874748624707080
  0
LINE
  8
0
  6
DASHED
 62
3
 10
359.787886787523800
 20
-260.567387066205360
 11
362.345814068923570
 21
-261.706249666817480
  0
LINE
  8
0
  6
DASHED
 62
3
 10
385.492739787580380
 20
-200.374748624707080
 11
359.281077972957520
 21
-259.247104965487100
  0
LINE
  8
0
  6
DASHED
 62
3
 10
365.925096527990950
 20
-253.667049639562950
 11
369.442246539914780
 21
-255.232985715404770
  0
LINE
  8
0
  6
DASHED
 62
3
 10
364.298149955687680
 20
-257.321231470132940
 11
367.815299967611740
 21
-258.887167545974760
  0
LINE
  8
0
  6
DASHED
 62
3
 10
409.368448810384050
 20
-167.683143747648050
 11
409.368448810384050
 21
-241.874748624707080
  0
LINE
  8
0
  6
DASHED
 62
3
 10
408.063012750648570
 20
-159.023740227791450
 11
362.345814068923570
 21
-261.706249666817480
  0
LINE
  8
0
  6
DASHDOT
 62
4
 10
385.368448810384050
 20
-232.492224845001370
 11
385.368448810384050
 21
-255.360734020764990
  0
ARC
  8
0
  6
DASHED
 62
3
 10
361.640587308203290
 20
-251.540535141602050
 40
1.299999237060620
 50
65.999999316753915
 51
139.398468892516150
  0
ARC
  8
0
  6
DASHED
 62
3
 10
961.368448810384050
 20
-200.374748624707310
 40
600.000000000001140
 50
178.317231198866840
 51
184.715124834091600
  0
ARC
  8
0
  6
DASHED
 62
3
 10
362.402399818072350
 20
-249.777907982593660
 40
1.000000000000041
 50
335.999999999996420
 51
4.715124834083239
  0
ARC
  8
0
  6
DASHED
 62
3
 10
404.368448810384050
 20
-241.874748624707080
 40
5.000000000000000
 50
270.000000000000000
 51
0.000000000000000
  0
ARC
  8
0
  6
DASHED
 62
3
 10
360.194623430600130
 20
-259.653841608562740
 40
0.999999999999948
 50
156.000000000008300
 51
245.999999999972630
  0
ARC
  8
0
  6
DASHED
 62
3
 10
363.573761546685550
 20
-247.146986464585780
 40
1.000000000000041
 50
335.999999999996420
 51
66.000000000020236
  0
ARC
  8
0
  6
DASHED
 62
3
 10
364.998435213964970
 20
-244.497383212944210
 40
2.000000000000632
 50
184.231338074886000
 51
245.999999999972630
  0
ARC
  8
0
  6
DASHED
 62
3
 10
961.368448810384050
 20
-200.374748624707310
 40
600.799999999999950
 50
179.412192132293110
 51
182.841389015363350
  0
ARC
  8
0
  6
DASHED
 62
3
 10
362.305849581599430
 20
-230.107595869000990
 40
0.999999999999988
 50
182.841389015366990
 51
236.047873053618590
  0
ARC
  8
0
  6
DASHED
 62
3
 10
361.188849556986950
 20
-231.766604893996150
 40
1.000000000000008
 50
2.994076090848812
 51
56.047873053604029
  0
ARC
  8
0
  6
DASHED
 62
3
 10
359.850945458038720
 20
-255.560136549189110
 40
1.299999237060687
 50
172.601548410320760
 51
246.000017986079880
  0
ARC
  8
0
  6
DASHED
 62
3
 10
367.486841083220040
 20
-256.551655671687740
 40
9.000000000000075
 50
139.398468892516490
 51
172.601548410321070
  0
POINT
  8
0
  6
DASHED
 62
3
 10
361.640150502797270
 20
-253.948541311159940
  0
LINE
  8
0
  6
DASHED
 62
3
 10
407.309019811231340
 20
-160.717236096985970
 11
407.733851970977410
 21
-161.718077945601410
  0
LINE
  8
0
  6
DASHED
 62
3
 10
406.864106066021350
 20
-161.716528729943320
 11
406.997448088215380
 21
-162.030662848392690
  0
LINE
  8
0
  6
DASHED
 62
3
 10
407.733851970977410
 20
-161.718077945601410
 11
406.997448088215380
 21
-162.030662848392690
  0
LINE
  8
0
  6
DASHED
 62
3
 10
404.184803368525990
 20
-158.391686441743790
 11
385.492739787577190
 21
-200.374748624707080
  0
LINE
  8
0
  6
DASHED
 62
3
 10
400.147635437169360
 20
-164.134955347368300
 11
374.191998343633260
 21
-168.393784500361330
  0
LINE
  8
0
  6
DASHED
 62
3
 10
405.505085469244020
 20
-157.884877627177050
 11
408.063012750643340
 21
-159.023740227789180
  0
LINE
  8
0
  6
DASHED
 62
3
 10
405.785287549423630
 20
-164.139594790590080
 11
407.588658739610310
 21
-164.942507374720210
  0
ARC
  8
0
  6
DASHED
 62
3
 10
405.098348826168600
 20
-158.798423084819660
 40
0.999999999999856
 50
66.000000000020236
 51
155.999999999996390
  0
ARC
  8
0
  6
DASHED
 62
3
 10
399.661887546730670
 20
-161.174541696046160
 40
3.000000000000022
 50
279.318123119682530
 51
336.000000000000400
  0
ARC
  8
0
  6
DASHED
 62
3
 10
376.620737795824880
 20
-183.195852756972270
 40
15.000000000000041
 50
99.318123119675519
 51
178.317231198866920
  0
ARC
  8
0
  6
DASHED
 62
3
 10
406.368448810384050
 20
-167.683143747648050
 40
3.000000000000000
 50
0.000000000000000
 51
66.000000000020236
  0
ENDSEC
  0
EOF
