  0
SECTION
  2
HEADER
  9
$FILLMODE
 70
1
  9
$TEXTSTYLE
  7
STANDARD1
  9
$ACADVER
  1
AC1009
  9
$DIMASZ
 40
1.931851648807023
  9
$DIMEXE
 40
2.000000000000000
  9
$DIMEXO
 40
1.000000000000000
  9
$DIMLFAC
 40
1.000000000000000
  9
$DIMSCALE
 40
1.000000000000000
  9
$DIMTAD
 70
1
  9
$DIMTFAC
 40
0.714285731315613
  9
$DIMTXT
 40
3.200000047683716
  9
$LUPREC
 70
3
  9
$TEXTSIZE
 40
3.299999952316284
  9
$REGENMODE
 70
1
  0
ENDSEC
  0
SECTION
  2
TABLES
  0
TABLE
  2
LTYPE
 70
4
  0
LTYPE
  2
CONTINUOUS
 70
64
  3
Solid line
 72
65
 73
0
 40
0.0
  0
LTYPE
  2
DASHED
 70
64
  3
-- -- -- -- -- -- -- -- -- -- -- -- -- -- --
 72
65
 73
2
 40
0.75
 49
0.5
 49
-0.25
  0
LTYPE
  2
DASHDOT
 70
64
  3
__ . __ . __ . __ . __ . __ . __ . __ . __ . __
 72
65
 73
4
 40
1.0
 49
0.5
 49
-0.25
 49
0.0
 49
-0.25
  0
LTYPE
  2
DIVIDE
 70
64
  3
__ . . __ . . __ . . __ . . __ . . __ . . __
 72
65
 73
6
 40
1.25
 49
0.5
 49
-0.25
 49
0.0
 49
-0.25
 49
0.0
 49
-0.25
  0
ENDTAB
  0
TABLE
  2
LAYER
 70
1
  0
LAYER
  2
0
 70
64
 62
2
  6
CONTINUOUS
  0
ENDTAB
  0
TABLE
  2
STYLE
 70
4
  0
STYLE
  2
STANDARD1
 70
64
 40
0.0
 41
1.0
 50
0.0
 71
0
 42
3.299999952316284
  3
MONOTXT
  4
BIGFONT
  0
STYLE
  2
STANDARD2
 70
68
 40
0.0
 41
1.0
 50
0.0
 71
0
 42
3.299999952316284
  3
MONOTXT
  4
BIGFONT
  0
STYLE
  2
STANDARD3
 70
64
 40
0.0
 41
1.0
 50
0.0
 71
0
 42
3.299999952316284
  3
MONOTXT
  4

  0
STYLE
  2
STANDARD4
 70
68
 40
0.0
 41
1.0
 50
0.0
 71
0
 42
3.299999952316284
  3
MONOTXT
  4

  0
ENDTAB
  0
TABLE
  2
VIEW
 70
0
  0
ENDTAB
  0
ENDSEC
  0
SECTION
  2
BLOCKS
  0
BLOCK
  8
0
  2
SYM1
 70
64
 10
0.000000000000000
 20
0.000000000000000
  0
LINE
  8
0
  6
CONTINUOUS
 62
3
 10
-0.000000000000000
 20
-5.000000000000000
 11
-6.000000000000000
 21
-5.000000000000000
  0
LINE
  8
0
  6
CONTINUOUS
 62
3
 10
0.000000000000000
 20
5.000000000000000
 11
-6.000000000000000
 21
5.000000000000000
  0
LINE
  8
0
  6
CONTINUOUS
 62
3
 10
-6.000000000000000
 20
-5.000000000000000
 11
-6.000000000000000
 21
5.000000000000000
  0
LINE
  8
0
  6
CONTINUOUS
 62
3
 10
0.000000000000000
 20
5.000000000000000
 11
0.000000000000000
 21
-5.000000000000000
  0
POINT
  8
0
  6
CONTINUOUS
 62
3
 10
0.000000000000000
 20
0.000000000000000
  0
ENDBLK
  8
0
  0
ENDSEC
  0
SECTION
  2
ENTITIES
  0
LINE
  8
0
  6
CONTINUOUS
 62
3
 10
-249.400641467687340
 20
-162.839042006227520
 11
-248.913838075981740
 21
-163.325845397933140
  0
LINE
  8
0
  6
CONTINUOUS
 62
3
 10
-256.047444941101050
 20
-169.485845479641260
 11
-255.560641549395460
 21
-169.972648871346850
  0
LINE
  8
0
  6
CONTINUOUS
 62
3
 10
-249.087502858718580
 20
-163.091588957077900
 11
-255.764602161191480
 21
-169.768688259550830
  0
LINE
  8
0
  6
CONTINUOUS
 62
3
 10
-249.400641467687340
 20
-162.839042006227520
 11
-256.047444941101050
 21
-169.485845479641260
  0
POINT
  8
0
  6
CONTINUOUS
 62
3
 10
-252.724043204394210
 20
-166.162443742934390
  0
ARC
  8
0
  6
CONTINUOUS
 62
3
 10
-254.986784769321250
 20
-163.899702178007350
 40
6.099999427795399
 50
264.601927898109010
 51
5.398089404735109
  0
LINE
  8
0
  6
CONTINUOUS
 62
3
 10
-359.426456350574200
 20
-162.839042006227520
 11
-359.913259742279820
 21
-163.325845397933140
  0
LINE
  8
0
  6
CONTINUOUS
 62
3
 10
-352.779652877160520
 20
-169.485845479641260
 11
-353.266456268866140
 21
-169.972648871346850
  0
LINE
  8
0
  6
CONTINUOUS
 62
3
 10
-359.739594959543010
 20
-163.091588957077900
 11
-353.062495657070090
 21
-169.768688259550830
  0
LINE
  8
0
  6
CONTINUOUS
 62
3
 10
-359.426456350574200
 20
-162.839042006227520
 11
-352.779652877160520
 21
-169.485845479641260
  0
POINT
  8
0
  6
CONTINUOUS
 62
3
 10
-356.103054613867360
 20
-166.162443742934390
  0
ARC
  8
0
  6
CONTINUOUS
 62
3
 10
-353.840313048940350
 20
-163.899702178007350
 40
6.099999427795398
 50
174.601910595264880
 51
275.398072101891500
  0
LINE
  8
0
  6
CONTINUOUS
 62
3
 10
-359.426456350574200
 20
-66.106834070167864
 11
-359.913259742279820
 21
-65.620030678462243
  0
LINE
  8
0
  6
CONTINUOUS
 62
3
 10
-352.779652877160520
 20
-59.460030596754152
 11
-353.266456268866140
 21
-58.973227205048531
  0
LINE
  8
0
  6
CONTINUOUS
 62
3
 10
-359.739594959543010
 20
-65.854287119317490
 11
-353.062495657070090
 21
-59.177187816844572
  0
LINE
  8
0
  6
CONTINUOUS
 62
3
 10
-359.426456350574200
 20
-66.106834070167864
 11
-352.779652877160520
 21
-59.460030596754152
  0
POINT
  8
0
  6
CONTINUOUS
 62
3
 10
-356.103054613867360
 20
-62.783432333461008
  0
ARC
  8
0
  6
CONTINUOUS
 62
3
 10
-353.840313048940350
 20
-65.046173898388048
 40
6.099999427795413
 50
84.601927898108485
 51
185.398089404735120
  0
LINE
  8
0
  6
CONTINUOUS
 62
3
 10
-249.400641467687340
 20
-66.106834070167864
 11
-248.913838075981740
 21
-65.620030678462243
  0
LINE
  8
0
  6
CONTINUOUS
 62
3
 10
-256.047444941101050
 20
-59.460030596754152
 11
-255.560641549395460
 21
-58.973227205048531
  0
LINE
  8
0
  6
CONTINUOUS
 62
3
 10
-249.087502858718580
 20
-65.854287119317490
 11
-255.764602161191480
 21
-59.177187816844572
  0
LINE
  8
0
  6
CONTINUOUS
 62
3
 10
-249.400641467687340
 20
-66.106834070167864
 11
-256.047444941101050
 21
-59.460030596754152
  0
POINT
  8
0
  6
CONTINUOUS
 62
3
 10
-252.724043204394210
 20
-62.783432333461008
  0
ARC
  8
0
  6
CONTINUOUS
 62
3
 10
-254.986784769321250
 20
-65.046173898388048
 40
6.099999427795398
 50
354.601910595264880
 51
95.398072101890989
  0
ARC
  8
0
  6
DASHDOT
 62
4
 10
278.666102517447140
 20
-94.472938038197753
 40
112.500000000000000
 50
218.531804371306490
 51
230.602616278690820
  0
ARC
  8
0
  6
DASHDOT
 62
4
 10
278.666102517447140
 20
-94.472938038197753
 40
112.500000000000000
 50
39.283511001299495
 51
50.602616278690810
  0
LINE
  8
0
  6
CONTINUOUS
 62
3
 10
-211.913548909130780
 20
-160.972938038197580
 11
-211.913548909130780
 21
-178.972938038197580
  0
LINE
  8
0
  6
CONTINUOUS
 62
3
 10
-251.163548909130780
 20
-49.213921510834041
 11
-251.163548909130780
 21
-50.472938038197583
  0
LINE
  8
0
  6
CONTINUOUS
 62
3
 10
-263.663548909130780
 20
-40.744603639967409
 11
-263.663548909130780
 21
-50.472938038197583
  0
LINE
  8
0
  6
CONTINUOUS
 62
3
 10
-237.862634458109710
 20
-172.754596032219640
 11
-231.060491043760980
 21
-160.972938038197580
  0
LINE
  8
0
  6
DASHDOT
 62
4
 10
-173.901822543605250
 20
-114.472938038197580
 11
-402.608203419135290
 21
-114.472938038197580
  0
ARC
  8
0
  6
CONTINUOUS
 62
3
 10
-264.663548909130780
 20
-40.744603639967409
 40
1.000000000000000
 50
0.000000000000000
 51
67.249516112926315
  0
ARC
  8
0
  6
CONTINUOUS
 62
3
 10
-257.413548909130780
 20
-50.472938038197583
 40
6.250000000000000
 50
180.000000000000000
 51
0.000000000000000
  0
ARC
  8
0
  6
CONTINUOUS
 62
3
 10
-250.163548909131010
 20
-49.213921510834041
 40
1.000000000000016
 50
52.172861259904892
 51
180.000000000000000
  0
ARC
  8
0
  6
CONTINUOUS
 62
3
 10
-273.292666274836960
 20
-143.416688038197490
 40
45.999999999999943
 50
298.241217900780210
 51
320.373476553111230
  0
ARC
  8
0
  6
CONTINUOUS
 62
3
 10
-289.413548909131010
 20
-99.765256804770672
 40
65.000000000000057
 50
20.221019215724056
 51
87.767131757208730
  0
ARC
  8
0
  6
CONTINUOUS
 62
3
 10
-304.413548909130780
 20
-484.472938038197580
 40
450.000000000000110
 50
87.767131757208588
 51
90.000000000000000
  0
LINE
  8
0
  6
CONTINUOUS
 62
3
 10
-383.413548909130780
 20
-115.222938038197520
 11
-376.413548909130780
 21
-115.222938038197520
  0
LINE
  8
0
  6
CONTINUOUS
 62
3
 10
-383.413548909130780
 20
-102.722938038197520
 11
-376.413548909130780
 21
-102.722938038197520
  0
LINE
  8
0
  6
CONTINUOUS
 62
3
 10
-345.163548909131010
 20
-40.744603639967409
 11
-345.163548909131010
 21
-50.472938038197583
  0
LINE
  8
0
  6
CONTINUOUS
 62
3
 10
-357.663548909131010
 20
-49.213921510834041
 11
-357.663548909131010
 21
-50.472938038197583
  0
LINE
  8
0
  6
CONTINUOUS
 62
3
 10
-370.964463360152080
 20
-172.754596032219640
 11
-383.609701331837530
 21
-150.852401391461290
  0
LINE
  8
0
  6
CONTINUOUS
 62
3
 10
-375.413548909130780
 20
-83.972938038197583
 11
-367.862223876935900
 21
-83.972938038197583
  0
LINE
  8
0
  6
CONTINUOUS
 62
3
 10
-375.413548909130780
 20
-99.972938038197583
 11
-369.063628009869720
 21
-99.972938038197583
  0
LINE
  8
0
  6
DASHDOT
 62
4
 10
-291.950857539827780
 20
-94.472938038197526
 11
-315.342264310579030
 21
-94.472938038197526
  0
LINE
  8
0
  6
DASHDOT
 62
4
 10
-304.413548909131010
 20
6.151484536469468
 11
-304.413548909130780
 21
-198.467065531352380
  0
LINE
  8
0
  6
CONTINUOUS
 62
3
 10
-384.413548909130780
 20
-99.765256804770672
 11
-384.413548909130780
 21
-147.852401391461290
  0
ARC
  8
0
  6
CONTINUOUS
 62
3
 10
-378.413548909130780
 20
-147.852401391461290
 40
6.000000000000000
 50
180.000000000000000
 51
209.999999999999460
  0
ARC
  8
0
  6
CONTINUOUS
 62
3
 10
-383.413548909130780
 20
-101.722938038197520
 40
1.000000000000000
 50
180.000000000000000
 51
270.000000000000000
  0
ARC
  8
0
  6
CONTINUOUS
 62
3
 10
-383.413548909130780
 20
-116.222938038197520
 40
1.000000000000000
 50
90.000000000000000
 51
180.000000000000000
  0
ARC
  8
0
  6
CONTINUOUS
 62
3
 10
-376.413548909130780
 20
-108.972938038197520
 40
6.250000000000000
 50
270.000000000000000
 51
90.000000000000000
  0
ARC
  8
0
  6
CONTINUOUS
 62
3
 10
-358.663548909131010
 20
-49.213921510834041
 40
1.000000000000000
 50
0.000000000000000
 51
127.827138740095090
  0
ARC
  8
0
  6
CONTINUOUS
 62
3
 10
-344.163548909131010
 20
-40.744603639967409
 40
1.000000000000006
 50
112.750483887073680
 51
180.000000000000000
  0
ARC
  8
0
  6
CONTINUOUS
 62
3
 10
-351.413548909131010
 20
-50.472938038197583
 40
6.250000000000000
 50
180.000000000000000
 51
0.000000000000000
  0
ARC
  8
0
  6
CONTINUOUS
 62
3
 10
-375.413548909130780
 20
-91.972938038197583
 40
8.000000000000000
 50
90.000000000000000
 51
270.000000000000000
  0
ARC
  8
0
  6
CONTINUOUS
 62
3
 10
-335.534431543425060
 20
-143.416688038197610
 40
45.999999999999908
 50
219.626523446889820
 51
241.473514688826810
  0
ARC
  8
0
  6
CONTINUOUS
 62
3
 10
-319.413548909131010
 20
-99.765256804770672
 40
65.000000000000142
 50
92.232868242791668
 51
180.000000000000000
  0
ARC
  8
0
  6
CONTINUOUS
 62
3
 10
-304.413548909130780
 20
-484.472938038197580
 40
450.000000000000000
 50
90.000000000000000
 51
92.232868242791525
  0
LINE
  8
0
  6
CONTINUOUS
 62
3
 10
-268.663548909131010
 20
-187.972938038197580
 11
-268.663548909131010
 21
-191.472938038197580
  0
LINE
  8
0
  6
CONTINUOUS
 62
3
 10
-256.604073889819920
 20
-193.472938038197580
 11
-268.223023928442100
 21
-193.472938038197580
  0
LINE
  8
0
  6
CONTINUOUS
 62
3
 10
-269.027927186792450
 20
-192.472938038197580
 11
-304.413548909130780
 21
-192.472938038197580
  0
ARC
  8
0
  6
CONTINUOUS
 62
3
 10
-255.056549484166340
 20
-185.536329850353350
 40
1.499999999999832
 50
198.324659916297660
 51
331.598332663995220
  0
ARC
  8
0
  6
CONTINUOUS
 62
3
 10
-262.413548909131010
 20
-187.972938038197580
 40
6.250000000000168
 50
18.324659916294014
 51
180.000000000000000
  0
ARC
  8
0
  6
CONTINUOUS
 62
3
 10
-248.459288997238100
 20
-189.103703403489870
 40
6.000000000000011
 50
118.526485311173740
 51
175.367233369122230
  0
ARC
  8
0
  6
CONTINUOUS
 62
3
 10
-269.663548909131010
 20
-191.472938038197580
 40
1.000000000000000
 50
270.000000000000000
 51
0.000000000000000
  0
ARC
  8
0
  6
CONTINUOUS
 62
3
 10
-262.413548909130780
 20
-187.972938038197580
 40
8.000000000000162
 50
214.228866327811770
 51
223.432536557788810
  0
ARC
  8
0
  6
CONTINUOUS
 62
3
 10
-262.413548909130780
 20
-187.972938038197580
 40
7.999999999999812
 50
316.567463442208920
 51
355.367233369121610
  0
LINE
  8
0
  6
CONTINUOUS
 62
3
 10
-340.163548909130780
 20
-187.972938038197580
 11
-340.163548909130780
 21
-191.472938038197580
  0
LINE
  8
0
  6
CONTINUOUS
 62
3
 10
-352.223023928442100
 20
-193.472938038197580
 11
-340.604073889820140
 21
-193.472938038197580
  0
LINE
  8
0
  6
CONTINUOUS
 62
3
 10
-339.799170631469790
 20
-192.472938038197580
 11
-304.413548909130780
 21
-192.472938038197580
  0
ARC
  8
0
  6
CONTINUOUS
 62
3
 10
-353.770548334095450
 20
-185.536329850353300
 40
1.500000000000089
 50
208.401667336006680
 51
341.675340083702340
  0
ARC
  8
0
  6
CONTINUOUS
 62
3
 10
-346.413548909130780
 20
-187.972938038197580
 40
6.250000000000000
 50
0.000000000000000
 51
161.675340083705490
  0
ARC
  8
0
  6
CONTINUOUS
 62
3
 10
-339.163548909130780
 20
-191.472938038197580
 40
1.000000000000000
 50
180.000000000000000
 51
270.000000000000000
  0
ARC
  8
0
  6
CONTINUOUS
 62
3
 10
-360.367808821023460
 20
-189.103703403489870
 40
5.999999999999603
 50
4.632766630878128
 51
61.473514688830072
  0
ARC
  8
0
  6
CONTINUOUS
 62
3
 10
-346.413548909130780
 20
-187.972938038197580
 40
8.000000000000384
 50
184.632766630878140
 51
223.432536557788810
  0
ARC
  8
0
  6
CONTINUOUS
 62
3
 10
-346.413548909130780
 20
-187.972938038197580
 40
7.999999999999647
 50
316.567463442207780
 51
325.771133672185440
  0
LINE
  8
0
  6
DASHDOT
 62
4
 10
-232.961631622930890
 20
-165.924855324397750
 11
-215.913548909130780
 21
-182.972938038197640
  0
ARC
  8
0
  6
CONTINUOUS
 62
3
 10
-374.355733753326040
 20
-32.308927787054870
 40
2.999999999999944
 50
45.000000000001542
 51
129.162307773119210
  0
ARC
  8
0
  6
CONTINUOUS
 62
3
 10
-365.274143909996500
 20
-25.834168444280351
 40
2.999999999999948
 50
121.811965669336070
 51
224.999999999998470
  0
ARC
  8
0
  6
CONTINUOUS
 62
3
 10
-234.471364064935530
 20
-32.308927787054756
 40
3.000000000000059
 50
50.837692226880797
 51
135.000000000000000
  0
ARC
  8
0
  6
CONTINUOUS
 62
3
 10
-243.552953908265070
 20
-25.834168444280351
 40
2.999999999999944
 50
314.999999999998470
 51
58.188034330663932
  0
ARC
  8
0
  6
CONTINUOUS
 62
3
 10
-309.913548909130780
 20
-12.504983617560754
 40
3.000000000000000
 50
0.000000000000000
 51
90.667656608409501
  0
ARC
  8
0
  6
CONTINUOUS
 62
3
 10
-298.913548909130780
 20
-12.504983617560754
 40
2.999999999999922
 50
89.332343391590499
 51
180.000000000000000
  0
LINE
  8
0
  6
CONTINUOUS
 62
3
 10
-367.395464253556270
 20
-27.955488787840011
 11
-353.488880564683650
 21
-41.862072476712569
  0
ARC
  8
0
  6
CONTINUOUS
 62
3
 10
-351.367560221123880
 20
-39.740752133152967
 40
3.000000000000064
 50
224.999999999997700
 51
298.028579941921070
  0
LINE
  8
0
  6
CONTINUOUS
 62
3
 10
-372.234413409766490
 20
-30.187607443495210
 11
-358.709563123268590
 21
-43.712457729993105
  0
ARC
  8
0
  6
CONTINUOUS
 62
3
 10
-360.830883466828140
 20
-45.833778073552764
 40
3.000000000000070
 50
307.522898643399230
 51
45.000000000001542
  0
ARC
  8
0
  6
CONTINUOUS
 62
3
 10
-247.996214351433420
 20
-45.833778073552764
 40
3.000000000000105
 50
135.000000000001530
 51
232.477101356600140
  0
ARC
  8
0
  6
CONTINUOUS
 62
3
 10
-257.459537597137680
 20
-39.740752133152967
 40
2.999999999999992
 50
241.971420058078930
 51
315.000000000003070
  0
LINE
  8
0
  6
CONTINUOUS
 62
3
 10
-241.431633564705520
 20
-27.955488787840011
 11
-255.338217253577910
 21
-41.862072476712513
  0
LINE
  8
0
  6
CONTINUOUS
 62
3
 10
-236.592684408495070
 20
-30.187607443495210
 11
-250.117534694993200
 21
-43.712457729993105
  0
ARC
  8
0
  6
CONTINUOUS
 62
3
 10
-298.913548909130780
 20
-31.506327789715385
 40
3.000000000000000
 50
180.000000000000000
 51
269.304338785846990
  0
ARC
  8
0
  6
CONTINUOUS
 62
3
 10
-309.913548909130780
 20
-31.506327789715385
 40
3.000000000000050
 50
270.695661214153010
 51
0.000000000000000
  0
LINE
  8
0
  6
CONTINUOUS
 62
3
 10
-306.913548909130780
 20
-12.504983617560754
 11
-306.913548909130780
 21
-31.506327789715385
  0
LINE
  8
0
  6
CONTINUOUS
 62
3
 10
-301.913548909130780
 20
-12.504983617560754
 11
-301.913548909130780
 21
-31.506327789715385
  0
LINE
  8
0
  6
CONTINUOUS
 62
3
 10
-219.913548909130780
 20
-186.972938038197580
 11
-254.068196106298840
 21
-186.972938038197580
  0
ARC
  8
0
  6
DASHDOT
 62
4
 10
-304.413548909130780
 20
-94.472938038197583
 40
112.500000000000020
 50
219.397383721309180
 51
230.602616278690560
  0
ARC
  8
0
  6
CONTINUOUS
 62
3
 10
-388.913548909130780
 20
-178.972938038197580
 40
8.000000000000000
 50
180.000000000000000
 51
270.000000000000000
  0
CIRCLE
  8
0
  6
CONTINUOUS
 62
3
 10
-383.963061792617400
 20
-174.022450921684200
 40
6.000000000000000
  0
LINE
  8
0
  6
CONTINUOUS
 62
3
 10
-388.913548909130780
 20
-186.972938038197580
 11
-354.758901711962720
 21
-186.972938038197580
  0
LINE
  8
0
  6
CONTINUOUS
 62
3
 10
-396.913548909130780
 20
-9.972938038197583
 11
-396.913548909130780
 21
-178.972938038197580
  0
ARC
  8
0
  6
CONTINUOUS
 62
3
 10
-219.913548909130780
 20
-178.972938038197580
 40
8.000000000000000
 50
270.000000000000000
 51
0.000000000000000
  0
ARC
  8
0
  6
DASHDOT
 62
4
 10
-304.413548909130780
 20
-94.472938038197583
 40
112.500000000000020
 50
309.397383721309210
 51
320.602616278690560
  0
CIRCLE
  8
0
  6
CONTINUOUS
 62
3
 10
-224.864036025644170
 20
-174.022450921684200
 40
6.000000000000000
  0
LINE
  8
0
  6
CONTINUOUS
 62
3
 10
-211.913548909130780
 20
-9.972938038197583
 11
-211.913548909130780
 21
-80.658129770352332
  0
ARC
  8
0
  6
CONTINUOUS
 62
3
 10
-388.913548909130780
 20
-9.972938038197583
 40
8.000000000000000
 50
90.000000000000000
 51
180.000000000000000
  0
ARC
  8
0
  6
DASHDOT
 62
4
 10
-304.413548909130780
 20
-94.472938038197583
 40
112.500000000000020
 50
129.397383721309180
 51
140.602616278690590
  0
CIRCLE
  8
0
  6
CONTINUOUS
 62
3
 10
-383.963061792617400
 20
-14.923425154710969
 40
6.000000000000000
  0
LINE
  8
0
  6
CONTINUOUS
 62
3
 10
-388.913548909130780
 20
-1.972938038197583
 11
-219.913548909130780
 21
-1.972938038197583
  0
ARC
  8
0
  6
DASHDOT
 62
4
 10
-304.413548909130780
 20
-94.472938038197583
 40
112.500000000000020
 50
39.397383721309190
 51
50.602616278690533
  0
CIRCLE
  8
0
  6
CONTINUOUS
 62
3
 10
-224.864036025644170
 20
-14.923425154710969
 40
6.000000000000000
  0
LINE
  8
0
  6
DASHDOT
 62
4
 10
-234.023758546350110
 20
-24.083147675416910
 11
-212.657741934929960
 21
-2.717131063996646
  0
ARC
  8
0
  6
CONTINUOUS
 62
3
 10
-219.913548909130780
 20
-9.972938038197583
 40
8.000000000000000
 50
0.000000000000000
 51
90.000000000000000
  0
ARC
  8
0
  6
CONTINUOUS
 62
3
 10
-248.459288997238100
 20
-189.103703403489480
 40
6.000000000000011
 50
118.526485311173740
 51
175.367233369122230
  0
ARC
  8
0
  6
CONTINUOUS
 62
3
 10
-262.413548909130780
 20
-187.972938038197190
 40
7.999999999999812
 50
316.567463442208920
 51
355.367233369121610
  0
ARC
  8
0
  6
CONTINUOUS
 62
3
 10
-262.413548909130780
 20
-187.972938038197190
 40
8.000000000000162
 50
214.228866327811770
 51
223.432536557788810
  0
ARC
  8
0
  6
CONTINUOUS
 62
3
 10
-346.413548909130780
 20
-187.972938038197190
 40
7.999999999999812
 50
316.567463442208920
 51
325.771133672186410
  0
ARC
  8
0
  6
CONTINUOUS
 62
3
 10
-360.367808821023460
 20
-189.103703403489480
 40
5.999999999999830
 50
4.632766630877953
 51
61.473514688828168
  0
ARC
  8
0
  6
CONTINUOUS
 62
3
 10
-346.413548909130780
 20
-187.972938038197190
 40
8.000000000000156
 50
184.632766630878280
 51
223.432536557788810
  0
LINE
  8
0
  6
CONTINUOUS
 62
3
 10
-254.913549557186680
 20
-51.916312012873448
 11
-257.413553906693210
 21
-53.359685589569324
  0
LINE
  8
0
  6
CONTINUOUS
 62
3
 10
-257.413544126694090
 20
-47.586189777984089
 11
-259.913548854740950
 21
-49.029560813077239
  0
LINE
  8
0
  6
CONTINUOUS
 62
3
 10
-257.413554421256210
 20
-53.359684975919549
 11
-259.913546726299840
 21
-51.916309629175430
  0
LINE
  8
0
  6
CONTINUOUS
 62
3
 10
-257.413544187923550
 20
-47.586189297841372
 11
-254.913550403132260
 21
-49.029565942388842
  0
LINE
  8
0
  6
CONTINUOUS
 62
3
 10
-254.913551293315890
 20
-49.029566393198422
 11
-254.913550339641570
 21
-51.916311846079282
  0
LINE
  8
0
  6
CONTINUOUS
 62
3
 10
-259.913546524946240
 20
-51.916309683195379
 11
-259.913547478620560
 21
-49.029560415617254
  0
CIRCLE
  8
0
  6
CONTINUOUS
 62
3
 10
-257.413548909130780
 20
-50.472938038197469
 40
5.000000000000000
  0
LINE
  8
0
  6
CONTINUOUS
 62
3
 10
-353.913548261075330
 20
-51.916312012873448
 11
-351.413543911568810
 21
-53.359685589569324
  0
LINE
  8
0
  6
CONTINUOUS
 62
3
 10
-351.413553691567930
 20
-47.586189777984089
 11
-348.913548963521070
 21
-49.029560813077239
  0
LINE
  8
0
  6
CONTINUOUS
 62
3
 10
-351.413543397005700
 20
-53.359684975919549
 11
-348.913551091962180
 21
-51.916309629175430
  0
LINE
  8
0
  6
CONTINUOUS
 62
3
 10
-351.413553630338470
 20
-47.586189297841372
 11
-353.913547415129760
 21
-49.029565942388842
  0
LINE
  8
0
  6
CONTINUOUS
 62
3
 10
-353.913546524946130
 20
-49.029566393198422
 11
-353.913547478620440
 21
-51.916311846079282
  0
LINE
  8
0
  6
CONTINUOUS
 62
3
 10
-348.913551293315780
 20
-51.916309683195379
 11
-348.913550339641460
 21
-49.029560415617254
  0
CIRCLE
  8
0
  6
CONTINUOUS
 62
3
 10
-351.413548909131240
 20
-50.472938038197469
 40
5.000000000000000
  0
LINE
  8
0
  6
CONTINUOUS
 62
3
 10
-378.913548261075110
 20
-110.416312012873500
 11
-376.413543911568580
 21
-111.859685589569380
  0
LINE
  8
0
  6
CONTINUOUS
 62
3
 10
-376.413553691567700
 20
-106.086189777984140
 11
-373.913548963520840
 21
-107.529560813077290
  0
LINE
  8
0
  6
CONTINUOUS
 62
3
 10
-376.413543397005360
 20
-111.859684975919600
 11
-373.913551091961950
 21
-110.416309629175480
  0
LINE
  8
0
  6
CONTINUOUS
 62
3
 10
-376.413553630338240
 20
-106.086189297841420
 11
-378.913547415129530
 21
-107.529565942388890
  0
LINE
  8
0
  6
CONTINUOUS
 62
3
 10
-378.913546524945900
 20
-107.529566393198470
 11
-378.913547478620220
 21
-110.416311846079330
  0
LINE
  8
0
  6
CONTINUOUS
 62
3
 10
-373.913551293315440
 20
-110.416309683195430
 11
-373.913550339641120
 21
-107.529560415617310
  0
CIRCLE
  8
0
  6
CONTINUOUS
 62
3
 10
-376.413548909131010
 20
-108.972938038197520
 40
5.000000000000000
  0
LINE
  8
0
  6
CONTINUOUS
 62
3
 10
-259.913549557186680
 20
-189.416312012873560
 11
-262.413553906693210
 21
-190.859685589569440
  0
LINE
  8
0
  6
CONTINUOUS
 62
3
 10
-262.413544126694090
 20
-185.086189777984200
 11
-264.913548854740950
 21
-186.529560813077350
  0
LINE
  8
0
  6
CONTINUOUS
 62
3
 10
-262.413554421256210
 20
-190.859684975919660
 11
-264.913546726299840
 21
-189.416309629175540
  0
LINE
  8
0
  6
CONTINUOUS
 62
3
 10
-262.413544187923550
 20
-185.086189297841490
 11
-259.913550403132260
 21
-186.529565942388960
  0
LINE
  8
0
  6
CONTINUOUS
 62
3
 10
-259.913551293315890
 20
-186.529566393198540
 11
-259.913550339641570
 21
-189.416311846079400
  0
LINE
  8
0
  6
CONTINUOUS
 62
3
 10
-264.913546524946240
 20
-189.416309683195490
 11
-264.913547478620560
 21
-186.529560415617370
  0
CIRCLE
  8
0
  6
CONTINUOUS
 62
3
 10
-262.413548909130780
 20
-187.972938038197580
 40
5.000000000000000
  0
LINE
  8
0
  6
CONTINUOUS
 62
3
 10
-348.913548261075330
 20
-189.416312012873560
 11
-346.413543911568810
 21
-190.859685589569440
  0
LINE
  8
0
  6
CONTINUOUS
 62
3
 10
-346.413553691567930
 20
-185.086189777984200
 11
-343.913548963521070
 21
-186.529560813077350
  0
LINE
  8
0
  6
CONTINUOUS
 62
3
 10
-346.413543397005700
 20
-190.859684975919660
 11
-343.913551091962180
 21
-189.416309629175540
  0
LINE
  8
0
  6
CONTINUOUS
 62
3
 10
-346.413553630338470
 20
-185.086189297841490
 11
-348.913547415129760
 21
-186.529565942388960
  0
LINE
  8
0
  6
CONTINUOUS
 62
3
 10
-348.913546524946130
 20
-186.529566393198540
 11
-348.913547478620440
 21
-189.416311846079400
  0
LINE
  8
0
  6
CONTINUOUS
 62
3
 10
-343.913551293315780
 20
-189.416309683195490
 11
-343.913550339641460
 21
-186.529560415617370
  0
CIRCLE
  8
0
  6
CONTINUOUS
 62
3
 10
-346.413548909131240
 20
-187.972938038197580
 40
5.000000000000000
  0
LINE
  8
0
  6
DASHDOT
 62
4
 10
-374.803339271911800
 20
-24.083147675416910
 11
-396.169355883332060
 21
-2.717131063996646
  0
LINE
  8
0
  6
DASHDOT
 62
4
 10
-375.865466195331120
 20
-165.924855324397750
 11
-392.913548909131240
 21
-182.972938038197640
  0
ARC
  8
0
  6
CONTINUOUS
 62
3
 10
12.393594675167890
 20
75.293116258176411
 40
1.000000000000000
 50
0.000000000000000
 51
87.999999999997854
  0
ARC
  8
0
  6
CONTINUOUS
 62
3
 10
13.893594675167890
 20
56.027061961802389
 40
0.500000000000000
 50
180.000000000000000
 51
270.000000000000000
  0
ARC
  8
0
  6
CONTINUOUS
 62
3
 10
12.893594675167890
 20
56.027061961803298
 40
0.500000000000000
 50
0.000000000000000
 51
90.000000000000000
  0
ARC
  8
0
  6
CONTINUOUS
 62
3
 10
12.893594675167890
 20
57.027061961803298
 40
0.500000000000000
 50
180.000000000000000
 51
270.000000000000000
  0
LINE
  8
0
  6
CONTINUOUS
 62
3
 10
12.393594675167890
 20
57.027061961803298
 11
12.393594675167890
 21
75.328037027669012
  0
ARC
  8
0
  6
CONTINUOUS
 62
3
 10
11.393594675167890
 20
75.328037027669012
 40
1.000000000000000
 50
0.000000000000000
 51
87.999999999996049
  0
ARC
  8
0
  6
CONTINUOUS
 62
3
 10
16.243594675168254
 20
82.677061961803844
 40
0.400000000001455
 50
270.000000000000000
 51
0.000000000000000
  0
LINE
  8
0
  6
CONTINUOUS
 62
3
 10
14.393594675167890
 20
82.277061961802389
 11
16.243594675168254
 21
82.277061961802389
  0
ARC
  8
0
  6
CONTINUOUS
 62
3
 10
14.393594675167890
 20
81.277061961802389
 40
1.000000000000000
 50
90.000000000000000
 51
180.000000000000000
  0
LINE
  8
0
  6
CONTINUOUS
 62
3
 10
14.393594675167890
 20
94.777061961802389
 11
16.243594675168254
 21
94.777061961802389
  0
LINE
  8
0
  6
CONTINUOUS
 62
3
 10
16.643594675167890
 20
94.377061961802752
 11
16.643594675167890
 21
82.677061961803844
  0
ARC
  8
0
  6
CONTINUOUS
 62
3
 10
16.243594675168254
 20
94.377061961802752
 40
0.399999999999636
 50
0.000000000000000
 51
90.000000000000000
  0
ARC
  8
0
  6
CONTINUOUS
 62
3
 10
14.393594675167890
 20
95.777061961802389
 40
1.000000000000000
 50
180.000000000000000
 51
270.000000000000000
  0
LINE
  8
0
  6
CONTINUOUS
 62
3
 10
13.393594675167890
 20
93.527061961802389
 11
13.393594675167890
 21
135.527061961802390
  0
LINE
  8
0
  6
CONTINUOUS
 62
3
 10
10.643594675167890
 20
58.527061961802389
 11
10.643594675167890
 21
68.527061961802389
  0
LINE
  8
0
  6
CONTINUOUS
 62
3
 10
12.393594675167890
 20
58.527061961802389
 11
10.643594675167890
 21
58.527061961802389
  0
LINE
  8
0
  6
CONTINUOUS
 62
3
 10
12.393594675167890
 20
68.527061961802389
 11
10.643594675167890
 21
68.527061961802389
  0
ARC
  8
0
  6
CONTINUOUS
 62
3
 10
130.993594675168250
 20
124.927061961802020
 40
0.399999999999636
 50
270.000000000000000
 51
0.000000000000000
  0
LINE
  8
0
  6
CONTINUOUS
 62
3
 10
95.393594675167890
 20
147.127061961802750
 11
94.993594675168254
 21
147.527061961802390
  0
LINE
  8
0
  6
CONTINUOUS
 62
3
 10
97.953402296303295
 20
146.527061961802390
 11
97.393594675167890
 21
146.377061961802750
  0
LINE
  8
0
  6
CONTINUOUS
 62
3
 10
97.393594675167890
 20
146.377061961802750
 11
96.193594675168981
 21
146.377061961802750
  0
LINE
  8
0
  6
CONTINUOUS
 62
3
 10
93.393594675167890
 20
147.527061961802390
 11
94.993594675168254
 21
147.527061961802390
  0
LINE
  8
0
  6
CONTINUOUS
 62
3
 10
95.393594675167890
 20
123.927061961802020
 11
94.993594675168254
 21
123.527061961802380
  0
LINE
  8
0
  6
CONTINUOUS
 62
3
 10
97.953402296303295
 20
124.527061961802380
 11
97.393594675167890
 21
124.677061961802020
  0
LINE
  8
0
  6
CONTINUOUS
 62
3
 10
97.393594675167890
 20
124.677061961802020
 11
96.193594675168981
 21
124.677061961802020
  0
LINE
  8
0
  6
CONTINUOUS
 62
3
 10
93.393594675167890
 20
123.527061961802380
 11
94.993594675168254
 21
123.527061961802380
  0
LINE
  8
0
  6
CONTINUOUS
 62
3
 10
70.959710090659257
 20
183.004107221746490
 11
58.876091585841834
 21
183.004107221746490
  0
ARC
  8
0
  6
CONTINUOUS
 62
3
 10
54.683278463189083
 20
192.085697065075810
 40
3.000000000000000
 50
270.000000000000000
 51
313.942114163130160
  0
LINE
  8
0
  6
CONTINUOUS
 62
3
 10
56.765072267734979
 20
189.925573328954780
 11
71.975388479713558
 21
204.584336401547380
  0
ARC
  8
0
  6
CONTINUOUS
 62
3
 10
69.893594675167890
 20
206.744460137668400
 40
2.999999999999696
 50
313.942114163127030
 51
0.000000000000000
  0
ARC
  8
0
  6
CONTINUOUS
 62
3
 10
54.683278463189083
 20
186.004107221746490
 40
3.000000000000000
 50
270.000000000000000
 51
313.942114163130160
  0
LINE
  8
0
  6
CONTINUOUS
 62
3
 10
56.765072267734979
 20
183.843983485625470
 11
71.975388479713558
 21
198.502746558218060
  0
ARC
  8
0
  6
CONTINUOUS
 62
3
 10
69.893594675167890
 20
200.662870294339090
 40
2.999999999999696
 50
313.942114163127030
 51
0.000000000000000
  0
LINE
  8
0
  6
CONTINUOUS
 62
3
 10
70.959710090659257
 20
88.050016701858254
 11
58.876091585841834
 21
88.050016701858254
  0
ARC
  8
0
  6
CONTINUOUS
 62
3
 10
54.683278463189083
 20
78.968426858528943
 40
2.999999999999853
 50
46.057885836869829
 51
90.000000000000000
  0
ARC
  8
0
  6
CONTINUOUS
 62
3
 10
69.893594675167890
 20
64.309663785936351
 40
3.000000000000000
 50
0.000000000000000
 51
46.057885836872963
  0
ARC
  8
0
  6
CONTINUOUS
 62
3
 10
54.683278463189083
 20
85.050016701858254
 40
2.999999999999853
 50
46.057885836869829
 51
90.000000000000000
  0
LINE
  8
0
  6
CONTINUOUS
 62
3
 10
56.765072267734979
 20
87.210140437979277
 11
71.975388479713558
 21
72.551377365386685
  0
ARC
  8
0
  6
CONTINUOUS
 62
3
 10
69.893594675167890
 20
70.391253629265663
 40
3.000000000000000
 50
0.000000000000000
 51
46.057885836872963
  0
ARC
  8
0
  6
CONTINUOUS
 62
3
 10
58.893594675166526
 20
130.027061961802390
 40
3.000000000000000
 50
90.000000000000000
 51
180.000000000000000
  0
LINE
  8
0
  6
CONTINUOUS
 62
3
 10
58.893594675166526
 20
133.027061961802390
 11
69.893594675167890
 21
133.027061961802390
  0
ARC
  8
0
  6
CONTINUOUS
 62
3
 10
58.893594675166526
 20
141.027061961802390
 40
3.000000000000000
 50
180.000000000000000
 51
270.000000000000000
  0
LINE
  8
0
  6
CONTINUOUS
 62
3
 10
58.893594675166526
 20
138.027061961802390
 11
69.893594675167890
 21
138.027061961802390
  0
ARC
  8
0
  6
CONTINUOUS
 62
3
 10
69.893594675167890
 20
141.027061961802390
 40
3.000000000000000
 50
270.000000000000000
 51
0.000000000000000
  0
ARC
  8
0
  6
CONTINUOUS
 62
3
 10
69.893594675167890
 20
130.027061961802390
 40
3.000000000000000
 50
0.000000000000000
 51
90.000000000000000
  0
LINE
  8
0
  6
DASHDOT
 62
4
 10
96.000634749421636
 20
55.977549078316002
 11
65.045192106537627
 21
55.977549078316002
  0
LINE
  8
0
  6
DASHDOT
 62
4
 10
96.000634749421636
 20
215.076574845288750
 11
65.045192106537627
 21
215.076574845288750
  0
LINE
  8
0
  6
DASHDOT
 62
4
 10
150.092580997266680
 20
135.527061961802390
 11
-165.790715947179880
 21
135.527061961802390
  0
LINE
  8
0
  6
CONTINUOUS
 62
3
 10
22.893594675167890
 20
135.527061961801480
 11
22.893594675167890
 21
55.561982731294080
  0
ARC
  8
0
  6
CONTINUOUS
 62
3
 10
67.893594675167890
 20
222.101544310425310
 40
5.000000000000137
 50
271.999999999998410
 51
0.000000000000000
  0
LINE
  8
0
  6
CONTINUOUS
 62
3
 10
22.893594675167890
 20
215.527061961802360
 11
68.068092158680258
 21
217.104590175329690
  0
LINE
  8
0
  6
CONTINUOUS
 62
3
 10
77.893594675167890
 20
135.527061961802390
 11
77.893594675167890
 21
64.826051835025424
  0
LINE
  8
0
  6
CONTINUOUS
 62
3
 10
84.893594675167890
 20
83.993666684783562
 11
79.893594675167890
 21
83.993666684783562
  0
LINE
  8
0
  6
CONTINUOUS
 62
3
 10
84.893594675167890
 20
62.826051835025424
 11
79.893594675167890
 21
62.826051835025424
  0
ARC
  8
0
  6
CONTINUOUS
 62
3
 10
79.893594675167890
 20
64.826051835025424
 40
2.000000000000000
 50
180.000000000000000
 51
270.000000000000000
  0
ARC
  8
0
  6
CONTINUOUS
 62
3
 10
79.893594675167890
 20
85.993666684783562
 40
2.000000000000000
 50
180.000000000000000
 51
270.000000000000000
  0
LINE
  8
0
  6
CONTINUOUS
 62
3
 10
84.893594675167890
 20
187.060457238821190
 11
79.893594675167890
 21
187.060457238821190
  0
LINE
  8
0
  6
CONTINUOUS
 62
3
 10
84.893594675167890
 20
208.228072088579320
 11
79.893594675167890
 21
208.228072088579320
  0
ARC
  8
0
  6
CONTINUOUS
 62
3
 10
79.893594675167890
 20
206.228072088579320
 40
2.000000000000000
 50
90.000000000000000
 51
180.000000000000000
  0
ARC
  8
0
  6
CONTINUOUS
 62
3
 10
79.893594675167890
 20
185.060457238821190
 40
2.000000000000000
 50
90.000000000000000
 51
180.000000000000000
  0
LINE
  8
0
  6
CONTINUOUS
 62
3
 10
89.284794333076718
 20
104.870990744262740
 11
87.893594675167890
 21
104.438173072912970
  0
LINE
  8
0
  6
CONTINUOUS
 62
3
 10
89.284794333076718
 20
166.183133179342040
 11
87.893594675167662
 21
166.615950850690890
  0
LINE
  8
0
  6
CONTINUOUS
 62
3
 10
91.393594675167890
 20
135.527061961802390
 11
91.393594675167890
 21
107.763708728246590
  0
LINE
  8
0
  6
CONTINUOUS
 62
3
 10
91.393594675167890
 20
135.527061961802390
 11
91.393594675167890
 21
163.318562850348970
  0
LINE
  8
0
  6
CONTINUOUS
 62
3
 10
87.893594675167662
 20
135.527061961802390
 11
87.893594675167890
 21
220.127061961802720
  0
LINE
  8
0
  6
CONTINUOUS
 62
3
 10
87.893594675167890
 20
135.527061961802390
 11
87.893594675167890
 21
50.927061961802025
  0
LINE
  8
0
  6
CONTINUOUS
 62
3
 10
84.893594675167890
 20
135.527061961802390
 11
84.893594675167890
 21
43.527061961802389
  0
LINE
  8
0
  6
CONTINUOUS
 62
3
 10
84.893594675167890
 20
135.527061961802390
 11
84.893594675167890
 21
227.527061961802360
  0
LINE
  8
0
  6
CONTINUOUS
 62
3
 10
87.493594675167799
 20
220.527061961802360
 11
87.893594675167890
 21
220.127061961802720
  0
LINE
  8
0
  6
CONTINUOUS
 62
3
 10
92.393594675167890
 20
113.527061961802380
 11
93.393594675167890
 21
113.527061961802380
  0
LINE
  8
0
  6
CONTINUOUS
 62
3
 10
92.393594675167890
 20
157.527061961802390
 11
93.393594675167890
 21
157.527061961802390
  0
LINE
  8
0
  6
CONTINUOUS
 62
3
 10
87.893594675167890
 20
50.927061961802025
 11
87.493594675167799
 21
50.527061961802389
  0
LINE
  8
0
  6
CONTINUOUS
 62
3
 10
87.493594675167799
 20
220.527061961802360
 11
84.893594675167890
 21
220.527061961802360
  0
LINE
  8
0
  6
CONTINUOUS
 62
3
 10
87.493594675167799
 20
50.527061961802389
 11
84.893594675167890
 21
50.527061961802389
  0
LINE
  8
0
  6
CONTINUOUS
 62
3
 10
84.393594675167890
 20
43.027061961802389
 11
84.893594675167890
 21
43.527061961802389
  0
ARC
  8
0
  6
CONTINUOUS
 62
3
 10
88.393594675167890
 20
107.735561073254900
 40
2.999999999999842
 50
287.281498371819450
 51
0.000000000000000
  0
ARC
  8
0
  6
CONTINUOUS
 62
3
 10
88.393594675167890
 20
163.318562850348970
 40
3.000000000000000
 50
0.000000000000000
 51
72.718501628185663
  0
ARC
  8
0
  6
CONTINUOUS
 62
3
 10
92.393594675167890
 20
112.527061961802380
 40
1.000000000000000
 50
90.000000000000000
 51
180.000000000000000
  0
LINE
  8
0
  6
CONTINUOUS
 62
3
 10
72.893594675167890
 20
225.527061961802360
 11
72.893594675167890
 21
226.027061961802360
  0
LINE
  8
0
  6
CONTINUOUS
 62
3
 10
93.393594675167890
 20
135.527061961802390
 11
93.393594675167890
 21
113.527061961802380
  0
ARC
  8
0
  6
CONTINUOUS
 62
3
 10
92.393594675167890
 20
158.527061961802390
 40
1.000000000000000
 50
180.000000000000000
 51
270.000000000000000
  0
ARC
  8
0
  6
CONTINUOUS
 62
3
 10
74.893594675167890
 20
226.027061961802360
 40
2.000000000000000
 50
90.000000000000000
 51
180.000000000000000
  0
LINE
  8
0
  6
CONTINUOUS
 62
3
 10
84.393594675167890
 20
228.027061961802360
 11
84.893594675167890
 21
227.527061961802360
  0
LINE
  8
0
  6
CONTINUOUS
 62
3
 10
84.393594675167890
 20
228.027061961802360
 11
74.893594675167890
 21
228.027061961802360
  0
LINE
  8
0
  6
CONTINUOUS
 62
3
 10
93.393594675167890
 20
135.527061961802390
 11
93.393594675167890
 21
157.527061961802390
  0
ARC
  8
0
  6
CONTINUOUS
 62
3
 10
130.993594675168250
 20
146.127061961802750
 40
0.399999999999636
 50
0.000000000000000
 51
90.000000000000000
  0
LINE
  8
0
  6
CONTINUOUS
 62
3
 10
99.393594675167890
 20
124.527061961802380
 11
99.393594675167890
 21
122.027061961802380
  0
LINE
  8
0
  6
CONTINUOUS
 62
3
 10
93.393594675167890
 20
123.527061961802380
 11
94.993594675168254
 21
123.527061961802380
  0
LINE
  8
0
  6
CONTINUOUS
 62
3
 10
97.393594675167890
 20
124.677061961802020
 11
96.193594675168981
 21
124.677061961802020
  0
LINE
  8
0
  6
CONTINUOUS
 62
3
 10
97.953402296303295
 20
124.527061961802380
 11
97.393594675167890
 21
124.677061961802020
  0
LINE
  8
0
  6
CONTINUOUS
 62
3
 10
95.393594675167890
 20
123.927061961802020
 11
94.993594675168254
 21
123.527061961802380
  0
LINE
  8
0
  6
CONTINUOUS
 62
3
 10
130.993594675168250
 20
146.527061961802390
 11
97.953402296303295
 21
146.527061961802390
  0
ARC
  8
0
  6
CONTINUOUS
 62
3
 10
96.193594675168981
 20
123.877061961802750
 40
0.799999999999272
 50
90.000000000000000
 51
176.296803365719710
  0
LINE
  8
0
  6
CONTINUOUS
 62
3
 10
97.393594675167890
 20
124.677061961802020
 11
96.193594675168981
 21
124.677061961802020
  0
LINE
  8
0
  6
CONTINUOUS
 62
3
 10
97.953402296303295
 20
124.527061961802380
 11
97.393594675167890
 21
124.677061961802020
  0
LINE
  8
0
  6
CONTINUOUS
 62
3
 10
95.393594675167890
 20
123.927061961802020
 11
94.993594675168254
 21
123.527061961802380
  0
LINE
  8
0
  6
CONTINUOUS
 62
3
 10
130.993594675168250
 20
146.527061961802390
 11
97.953402296303295
 21
146.527061961802390
  0
LINE
  8
0
  6
CONTINUOUS
 62
3
 10
93.393594675167890
 20
123.527061961802380
 11
94.993594675168254
 21
123.527061961802380
  0
LINE
  8
0
  6
CONTINUOUS
 62
3
 10
95.393594675167890
 20
135.527061961802390
 11
95.393594675167890
 21
123.927061961802020
  0
LINE
  8
0
  6
CONTINUOUS
 62
3
 10
93.393594675167890
 20
147.527061961802390
 11
94.993594675168254
 21
147.527061961802390
  0
LINE
  8
0
  6
CONTINUOUS
 62
3
 10
95.393594675167890
 20
135.527061961802390
 11
95.393594675167890
 21
147.127061961802750
  0
LINE
  8
0
  6
CONTINUOUS
 62
3
 10
97.393594675167890
 20
146.377061961802750
 11
96.193594675168981
 21
146.377061961802750
  0
LINE
  8
0
  6
CONTINUOUS
 62
3
 10
97.953402296303295
 20
146.527061961802390
 11
97.393594675167890
 21
146.377061961802750
  0
LINE
  8
0
  6
CONTINUOUS
 62
3
 10
95.393594675167890
 20
147.127061961802750
 11
94.993594675168254
 21
147.527061961802390
  0
ARC
  8
0
  6
CONTINUOUS
 62
3
 10
96.193594675168981
 20
147.177061961802020
 40
0.800000000000237
 50
183.703196634280290
 51
270.000000000000000
  0
LINE
  8
0
  6
CONTINUOUS
 62
3
 10
97.393594675167890
 20
146.377061961802750
 11
96.193594675168981
 21
146.377061961802750
  0
LINE
  8
0
  6
CONTINUOUS
 62
3
 10
97.953402296303295
 20
146.527061961802390
 11
97.393594675167890
 21
146.377061961802750
  0
LINE
  8
0
  6
CONTINUOUS
 62
3
 10
95.393594675167890
 20
147.127061961802750
 11
94.993594675168254
 21
147.527061961802390
  0
LINE
  8
0
  6
CONTINUOUS
 62
3
 10
93.393594675167890
 20
147.527061961802390
 11
94.993594675168254
 21
147.527061961802390
  0
ARC
  8
0
  6
CONTINUOUS
 62
3
 10
130.993594675168250
 20
124.927061961802020
 40
0.399999999999636
 50
270.000000000000000
 51
0.000000000000000
  0
LINE
  8
0
  6
CONTINUOUS
 62
3
 10
130.993594675168250
 20
124.527061961802380
 11
97.953402296303295
 21
124.527061961802380
  0
LINE
  8
0
  6
CONTINUOUS
 62
3
 10
130.993594675168250
 20
124.527061961802380
 11
97.953402296303295
 21
124.527061961802380
  0
LINE
  8
0
  6
CONTINUOUS
 62
3
 10
12.393594675167890
 20
68.527061961802389
 11
10.643594675167890
 21
68.527061961802389
  0
LINE
  8
0
  6
CONTINUOUS
 62
3
 10
12.393594675167890
 20
58.527061961802389
 11
10.643594675167890
 21
58.527061961802389
  0
LINE
  8
0
  6
CONTINUOUS
 62
3
 10
10.643594675167890
 20
58.527061961802389
 11
10.643594675167890
 21
68.527061961802389
  0
LINE
  8
0
  6
CONTINUOUS
 62
3
 10
13.393594675167890
 20
93.527061961802389
 11
13.393594675167890
 21
135.527061961802390
  0
LINE
  8
0
  6
CONTINUOUS
 62
3
 10
13.393594675167890
 20
56.027061961802389
 11
13.393594675167890
 21
83.527061961802389
  0
ARC
  8
0
  6
CONTINUOUS
 62
3
 10
14.393594675167890
 20
95.777061961802389
 40
1.000000000000000
 50
180.000000000000000
 51
270.000000000000000
  0
ARC
  8
0
  6
CONTINUOUS
 62
3
 10
16.243594675168254
 20
94.377061961802752
 40
0.399999999999636
 50
0.000000000000000
 51
90.000000000000000
  0
LINE
  8
0
  6
CONTINUOUS
 62
3
 10
16.643594675167890
 20
94.377061961802752
 11
16.643594675167890
 21
82.677061961803844
  0
LINE
  8
0
  6
CONTINUOUS
 62
3
 10
14.393594675167890
 20
94.777061961802389
 11
16.243594675168254
 21
94.777061961802389
  0
ARC
  8
0
  6
CONTINUOUS
 62
3
 10
14.393594675167890
 20
81.277061961802389
 40
1.000000000000000
 50
90.000000000000000
 51
180.000000000000000
  0
LINE
  8
0
  6
CONTINUOUS
 62
3
 10
14.393594675167890
 20
82.277061961802389
 11
16.243594675168254
 21
82.277061961802389
  0
ARC
  8
0
  6
CONTINUOUS
 62
3
 10
16.243594675168254
 20
82.677061961803844
 40
0.400000000001455
 50
270.000000000000000
 51
0.000000000000000
  0
ARC
  8
0
  6
CONTINUOUS
 62
3
 10
11.393594675167890
 20
75.328037027669012
 40
1.000000000000000
 50
0.000000000000000
 51
87.999999999996049
  0
LINE
  8
0
  6
CONTINUOUS
 62
3
 10
12.393594675167890
 20
57.027061961803298
 11
12.393594675167890
 21
75.328037027669012
  0
ARC
  8
0
  6
CONTINUOUS
 62
3
 10
12.893594675167890
 20
57.027061961803298
 40
0.500000000000000
 50
180.000000000000000
 51
270.000000000000000
  0
ARC
  8
0
  6
CONTINUOUS
 62
3
 10
12.893594675167890
 20
56.027061961803298
 40
0.500000000000000
 50
0.000000000000000
 51
90.000000000000000
  0
LINE
  8
0
  6
CONTINUOUS
 62
3
 10
22.393594675167890
 20
55.527061961802389
 11
22.393594675167890
 21
135.527061961802390
  0
LINE
  8
0
  6
CONTINUOUS
 62
3
 10
22.393594675167890
 20
55.527061961802389
 11
13.893594675167890
 21
55.527061961802389
  0
LINE
  8
0
  6
CONTINUOUS
 62
3
 10
-9.106405324832110
 20
77.044522346548689
 11
-9.106405324832110
 21
135.527061961802390
  0
LINE
  8
0
  6
CONTINUOUS
 62
3
 10
12.428494171870454
 20
76.292507085196263
 11
-9.106405324832110
 21
77.044522346548689
  0
ARC
  8
0
  6
CONTINUOUS
 62
3
 10
13.893594675167890
 20
56.027061961802389
 40
0.500000000000000
 50
180.000000000000000
 51
270.000000000000000
  0
ARC
  8
0
  6
CONTINUOUS
 62
3
 10
12.393594675167890
 20
75.293116258176411
 40
1.000000000000000
 50
0.000000000000000
 51
87.999999999997854
  0
LINE
  8
0
  6
CONTINUOUS
 62
3
 10
-9.106405324832110
 20
194.009601577056060
 11
-9.106405324832110
 21
135.527061961802390
  0
LINE
  8
0
  6
CONTINUOUS
 62
3
 10
72.893594675167890
 20
45.027061961802389
 11
72.893594675167890
 21
226.027061961802360
  0
LINE
  8
0
  6
CONTINUOUS
 62
3
 10
77.893594675167890
 20
135.527061961802390
 11
77.893594675167890
 21
206.228072088579320
  0
ARC
  8
0
  6
CONTINUOUS
 62
3
 10
12.393594675167890
 20
195.761007665428340
 40
1.000000000000758
 50
272.000000000002100
 51
0.000000000000000
  0
ARC
  8
0
  6
CONTINUOUS
 62
3
 10
13.893594675167890
 20
215.027061961802360
 40
0.500000000000000
 50
90.000000000000000
 51
180.000000000000000
  0
LINE
  8
0
  6
CONTINUOUS
 62
3
 10
12.428494171870454
 20
194.761616838408490
 11
-9.106405324832110
 21
194.009601577056060
  0
LINE
  8
0
  6
CONTINUOUS
 62
3
 10
22.393594675167890
 20
215.527061961802360
 11
13.893594675167890
 21
215.527061961802360
  0
LINE
  8
0
  6
CONTINUOUS
 62
3
 10
22.393594675167890
 20
215.527061961802360
 11
22.393594675167890
 21
135.527061961802390
  0
ARC
  8
0
  6
CONTINUOUS
 62
3
 10
12.893594675167890
 20
215.027061961801450
 40
0.500000000000000
 50
270.000000000000000
 51
0.000000000000000
  0
ARC
  8
0
  6
CONTINUOUS
 62
3
 10
12.893594675167890
 20
214.027061961801450
 40
0.500000000000000
 50
90.000000000000000
 51
180.000000000000000
  0
LINE
  8
0
  6
CONTINUOUS
 62
3
 10
12.393594675167890
 20
214.027061961801450
 11
12.393594675167890
 21
195.726086895935740
  0
ARC
  8
0
  6
CONTINUOUS
 62
3
 10
11.393594675167890
 20
195.726086895935740
 40
0.999999999999849
 50
272.000000000003920
 51
0.000000000000000
  0
ARC
  8
0
  6
CONTINUOUS
 62
3
 10
16.243594675168254
 20
188.377061961800910
 40
0.399999999999636
 50
0.000000000000000
 51
90.000000000000000
  0
LINE
  8
0
  6
CONTINUOUS
 62
3
 10
14.393594675167890
 20
188.777061961802360
 11
16.243594675168254
 21
188.777061961802360
  0
ARC
  8
0
  6
CONTINUOUS
 62
3
 10
14.393594675167890
 20
189.777061961802360
 40
1.000000000000000
 50
180.000000000000000
 51
270.000000000000000
  0
LINE
  8
0
  6
CONTINUOUS
 62
3
 10
14.393594675167890
 20
176.277061961802390
 11
16.243594675168254
 21
176.277061961802390
  0
LINE
  8
0
  6
CONTINUOUS
 62
3
 10
16.643594675167890
 20
176.677061961802020
 11
16.643594675167890
 21
188.377061961800910
  0
ARC
  8
0
  6
CONTINUOUS
 62
3
 10
16.243594675168254
 20
176.677061961802020
 40
0.399999999999636
 50
270.000000000000000
 51
0.000000000000000
  0
ARC
  8
0
  6
CONTINUOUS
 62
3
 10
14.393594675167890
 20
175.277061961802390
 40
1.000000000000000
 50
90.000000000000000
 51
180.000000000000000
  0
LINE
  8
0
  6
CONTINUOUS
 62
3
 10
13.393594675167890
 20
215.027061961802360
 11
13.393594675167890
 21
187.527061961802360
  0
LINE
  8
0
  6
CONTINUOUS
 62
3
 10
13.393594675167890
 20
177.527061961802390
 11
13.393594675167890
 21
135.527061961802390
  0
LINE
  8
0
  6
CONTINUOUS
 62
3
 10
10.643594675167890
 20
212.527061961802360
 11
10.643594675167890
 21
202.527061961802360
  0
LINE
  8
0
  6
CONTINUOUS
 62
3
 10
12.393594675167890
 20
212.527061961802360
 11
10.643594675167890
 21
212.527061961802360
  0
LINE
  8
0
  6
CONTINUOUS
 62
3
 10
12.393594675167890
 20
202.527061961802360
 11
10.643594675167890
 21
202.527061961802360
  0
LINE
  8
0
  6
CONTINUOUS
 62
3
 10
22.893594675167890
 20
135.527061961803300
 11
22.893594675167890
 21
215.492141192310670
  0
LINE
  8
0
  6
CONTINUOUS
 62
3
 10
12.393594675167890
 20
202.527061961802360
 11
10.643594675167890
 21
202.527061961802360
  0
LINE
  8
0
  6
CONTINUOUS
 62
3
 10
12.393594675167890
 20
212.527061961802360
 11
10.643594675167890
 21
212.527061961802360
  0
LINE
  8
0
  6
CONTINUOUS
 62
3
 10
10.643594675167890
 20
212.527061961802360
 11
10.643594675167890
 21
202.527061961802360
  0
LINE
  8
0
  6
CONTINUOUS
 62
3
 10
13.393594675167890
 20
177.527061961802390
 11
13.393594675167890
 21
135.527061961802390
  0
ARC
  8
0
  6
CONTINUOUS
 62
3
 10
14.393594675167890
 20
175.277061961802390
 40
1.000000000000000
 50
90.000000000000000
 51
180.000000000000000
  0
ARC
  8
0
  6
CONTINUOUS
 62
3
 10
16.243594675168254
 20
176.677061961802020
 40
0.399999999999636
 50
270.000000000000000
 51
0.000000000000000
  0
LINE
  8
0
  6
CONTINUOUS
 62
3
 10
16.643594675167890
 20
176.677061961802020
 11
16.643594675167890
 21
188.377061961800910
  0
LINE
  8
0
  6
CONTINUOUS
 62
3
 10
14.393594675167890
 20
176.277061961802390
 11
16.243594675168254
 21
176.277061961802390
  0
ARC
  8
0
  6
CONTINUOUS
 62
3
 10
14.393594675167890
 20
189.777061961802360
 40
1.000000000000000
 50
180.000000000000000
 51
270.000000000000000
  0
LINE
  8
0
  6
CONTINUOUS
 62
3
 10
14.393594675167890
 20
188.777061961802360
 11
16.243594675168254
 21
188.777061961802360
  0
ARC
  8
0
  6
CONTINUOUS
 62
3
 10
16.243594675168254
 20
188.377061961800910
 40
0.399999999999636
 50
0.000000000000000
 51
90.000000000000000
  0
ARC
  8
0
  6
CONTINUOUS
 62
3
 10
11.393594675167890
 20
195.726086895935740
 40
0.999999999999849
 50
272.000000000003920
 51
0.000000000000000
  0
LINE
  8
0
  6
CONTINUOUS
 62
3
 10
12.393594675167890
 20
214.027061961801450
 11
12.393594675167890
 21
195.726086895935740
  0
ARC
  8
0
  6
CONTINUOUS
 62
3
 10
12.893594675167890
 20
214.027061961801450
 40
0.500000000000000
 50
90.000000000000000
 51
180.000000000000000
  0
ARC
  8
0
  6
CONTINUOUS
 62
3
 10
12.893594675167890
 20
215.027061961801450
 40
0.500000000000000
 50
270.000000000000000
 51
0.000000000000000
  0
ARC
  8
0
  6
CONTINUOUS
 62
3
 10
13.893594675167890
 20
215.027061961802360
 40
0.500000000000000
 50
90.000000000000000
 51
180.000000000000000
  0
ARC
  8
0
  6
CONTINUOUS
 62
3
 10
12.393594675167890
 20
195.761007665428340
 40
1.000000000000758
 50
272.000000000002100
 51
0.000000000000000
  0
LINE
  8
0
  6
CONTINUOUS
 62
3
 10
22.893594675167890
 20
55.527061961802389
 11
68.068092158680258
 21
53.949533748275059
  0
ARC
  8
0
  6
CONTINUOUS
 62
3
 10
67.893594675167890
 20
48.952579613179438
 40
5.000000000000000
 50
0.000000000000000
 51
88.000000000001606
  0
LINE
  8
0
  6
CONTINUOUS
 62
3
 10
84.393594675167890
 20
43.027061961802389
 11
74.893594675167890
 21
43.027061961802389
  0
ARC
  8
0
  6
CONTINUOUS
 62
3
 10
74.893594675167890
 20
45.027061961802389
 40
2.000000000000000
 50
180.000000000000000
 51
270.000000000000000
  0
LINE
  8
0
  6
CONTINUOUS
 62
3
 10
56.765072267734979
 20
81.128550594649965
 11
71.975388479713558
 21
66.469787522057374
  0
LINE
  8
0
  6
CONTINUOUS
 62
3
 10
131.393594675167890
 20
122.027061961802380
 11
131.393594675167890
 21
146.127061961802750
  0
LINE
  8
0
  6
CONTINUOUS
 62
3
 10
99.393594675167890
 20
122.027061961802380
 11
131.393594675167890
 21
122.027061961802380
  0
LINE
  8
0
  6
CONTINUOUS
 62
3
 10
16.643594675167890
 20
83.527061961802389
 11
10.643594675167890
 21
83.527061961802389
  0
LINE
  8
0
  6
CONTINUOUS
 62
3
 10
16.643594675167890
 20
93.527061961802389
 11
10.643594675167890
 21
93.527061961802389
  0
LINE
  8
0
  6
CONTINUOUS
 62
3
 10
10.643594675167890
 20
83.527061961802389
 11
10.643594675167890
 21
93.527061961802389
  0
LINE
  8
0
  6
CONTINUOUS
 62
3
 10
16.643594675167890
 20
187.527061961802360
 11
10.643594675167890
 21
187.527061961802360
  0
LINE
  8
0
  6
CONTINUOUS
 62
3
 10
16.643594675167890
 20
177.527061961802390
 11
10.643594675167890
 21
177.527061961802390
  0
LINE
  8
0
  6
CONTINUOUS
 62
3
 10
10.643594675167890
 20
187.527061961802360
 11
10.643594675167890
 21
177.527061961802390
  0
LINE
  8
0
  6
CONTINUOUS
 62
3
 10
16.643594675167890
 20
187.527061961802360
 11
10.643594675167890
 21
187.527061961802360
  0
LINE
  8
0
  6
CONTINUOUS
 62
3
 10
16.643594675167890
 20
177.527061961802390
 11
10.643594675167890
 21
177.527061961802390
  0
LINE
  8
0
  6
CONTINUOUS
 62
3
 10
10.643594675167890
 20
187.527061961802360
 11
10.643594675167890
 21
177.527061961802390
  0
LINE
  8
0
  6
CONTINUOUS
 62
3
 10
16.643594675167890
 20
83.527061961802389
 11
10.643594675167890
 21
83.527061961802389
  0
LINE
  8
0
  6
CONTINUOUS
 62
3
 10
16.643594675167890
 20
93.527061961802389
 11
10.643594675167890
 21
93.527061961802389
  0
LINE
  8
0
  6
CONTINUOUS
 62
3
 10
10.643594675167890
 20
83.527061961802389
 11
10.643594675167890
 21
93.527061961802389
  0
ARC
  8
0
  6
CONTINUOUS
 62
4
 10
-68.813548909130674
 20
-114.472938038197580
 40
289.397000000000160
 50
180.000000000000000
 51
186.051985358668500
  0
ARC
  8
0
  6
CONTINUOUS
 62
4
 10
-341.286449834341170
 20
-143.360967763335850
 40
15.397000000000052
 50
186.051985358668840
 51
225.000000000000000
  0
LINE
  8
0
  6
CONTINUOUS
 62
4
 10
-347.597707551631970
 20
-158.824356265903870
 11
-352.173772944270580
 21
-154.248290873265260
  0
ARC
  8
0
  6
CONTINUOUS
 62
4
 10
-343.355066864512880
 20
-154.581715578784330
 40
6.000000000000049
 50
225.000000000003070
 51
262.102011327574360
  0
ARC
  8
0
  6
CONTINUOUS
 62
4
 10
-304.413548909130550
 20
126.127061961802320
 40
289.396999999999820
 50
262.102011327572200
 51
270.000000000000000
  0
ARC
  8
0
  6
CONTINUOUS
 62
4
 10
-540.013548909130690
 20
-114.472938038197580
 40
289.397000000000160
 50
353.948014641331500
 51
0.000000000000000
  0
ARC
  8
0
  6
CONTINUOUS
 62
4
 10
-267.540647983920170
 20
-143.360967763335850
 40
15.396999999999876
 50
315.000000000000000
 51
353.948014641331160
  0
LINE
  8
0
  6
CONTINUOUS
 62
4
 10
-261.229390266629370
 20
-158.824356265903870
 11
-256.653324873990750
 21
-154.248290873265260
  0
ARC
  8
0
  6
CONTINUOUS
 62
4
 10
-265.472030953748460
 20
-154.581715578784330
 40
5.999999999999923
 50
277.897988672425640
 51
314.999999999996870
  0
ARC
  8
0
  6
CONTINUOUS
 62
4
 10
-304.413548909130780
 20
126.127061961802320
 40
289.396999999999930
 50
270.000000000000000
 51
277.897988672427800
  0
ARC
  8
0
  6
CONTINUOUS
 62
4
 10
-540.013548909130690
 20
-114.472938038197580
 40
289.397000000000160
 50
0.000000000000000
 51
6.051985358668508
  0
ARC
  8
0
  6
CONTINUOUS
 62
4
 10
-267.540647983920170
 20
-85.584908313059316
 40
15.397000000000052
 50
6.051985358668849
 51
45.000000000000000
  0
LINE
  8
0
  6
CONTINUOUS
 62
4
 10
-261.229390266629370
 20
-70.121519810491293
 11
-256.653324873990750
 21
-74.697585203129904
  0
ARC
  8
0
  6
CONTINUOUS
 62
4
 10
-265.472030953748460
 20
-74.364160497610840
 40
6.000000000000049
 50
45.000000000003077
 51
82.102011327574374
  0
ARC
  8
0
  6
CONTINUOUS
 62
4
 10
-304.413548909130780
 20
-355.072938038197490
 40
289.396999999999820
 50
82.102011327572214
 51
90.000000000000000
  0
ARC
  8
0
  6
CONTINUOUS
 62
4
 10
-68.813548909130901
 20
-114.472938038197580
 40
289.396999999999930
 50
173.948014641331470
 51
180.000000000000000
  0
LINE
  8
0
  6
CONTINUOUS
 62
4
 10
-347.597707551631970
 20
-70.121519810491293
 11
-352.173772944270580
 21
-74.697585203129904
  0
ARC
  8
0
  6
CONTINUOUS
 62
4
 10
-341.286449834341170
 20
-85.584908313059316
 40
15.396999999999876
 50
135.000000000000000
 51
173.948014641331160
  0
ARC
  8
0
  6
CONTINUOUS
 62
3
 10
-267.540647983920170
 20
-143.360967763335850
 40
26.599999999999955
 50
315.000000000001020
 51
353.948014641331380
  0
LINE
  8
0
  6
CONTINUOUS
 62
3
 10
-255.798056723017110
 20
-169.236457261557290
 11
-248.731607604357690
 21
-162.170008142897640
  0
ARC
  8
0
  6
CONTINUOUS
 62
3
 10
-540.013548909130690
 20
-114.472938038197580
 40
300.600000000000080
 50
353.948014641331500
 51
6.051985358668499
  0
ARC
  8
0
  6
CONTINUOUS
 62
3
 10
-341.286449834341170
 20
-143.360967763335850
 40
26.599999999999969
 50
186.051985358668590
 51
224.999999999998980
  0
ARC
  8
0
  6
CONTINUOUS
 62
3
 10
-68.813548909130787
 20
-114.472938038197580
 40
300.599999999999970
 50
173.948014641331500
 51
186.051985358668500
  0
LINE
  8
0
  6
CONTINUOUS
 62
3
 10
-353.029041095244450
 20
-169.236457261557290
 11
-360.095490213903640
 21
-162.170008142897640
  0
ARC
  8
0
  6
CONTINUOUS
 62
3
 10
-341.286449834341170
 20
-85.584908313059316
 40
26.600000000000119
 50
135.000000000000000
 51
173.948014641331410
  0
LINE
  8
0
  6
CONTINUOUS
 62
3
 10
-353.029041095244450
 20
-59.709418814838102
 11
-360.095490213903420
 21
-66.775867933497068
  0
ARC
  8
0
  6
CONTINUOUS
 62
3
 10
-267.540647983920390
 20
-85.584908313059316
 40
26.600000000000193
 50
6.051985358668552
 51
45.000000000000000
  0
LINE
  8
0
  6
CONTINUOUS
 62
3
 10
-255.798056723017110
 20
-59.709418814838102
 11
-248.731607604358150
 21
-66.775867933497068
  0
ARC
  8
0
  6
CONTINUOUS
 62
3
 10
-348.362136339413270
 20
-164.569552505726110
 40
6.599999999999957
 50
225.000000000000000
 51
261.402917762751090
  0
ARC
  8
0
  6
CONTINUOUS
 62
3
 10
-304.413548909130780
 20
126.127061961802550
 40
300.600000000000020
 50
261.402917762750920
 51
270.000000000000000
  0
ARC
  8
0
  6
CONTINUOUS
 62
3
 10
-260.464961478848290
 20
-164.569552505726110
 40
6.599999999999747
 50
278.597082237248910
 51
315.000000000000000
  0
ARC
  8
0
  6
CONTINUOUS
 62
3
 10
-304.413548909130780
 20
-355.072938038197490
 40
300.599999999999800
 50
81.402917762750931
 51
90.000000000000000
  0
ARC
  8
0
  6
CONTINUOUS
 62
3
 10
-260.464961478848290
 20
-64.376323570669285
 40
6.600000000000118
 50
45.000000000001400
 51
81.402917762751386
  0
ARC
  8
0
  6
CONTINUOUS
 62
3
 10
-304.413548909130780
 20
126.127061961802550
 40
300.600000000000140
 50
270.000000000000000
 51
278.597082237249080
  0
ARC
  8
0
  6
CONTINUOUS
 62
3
 10
-304.413548909130780
 20
-355.072938038197490
 40
300.599999999999910
 50
90.000000000000000
 51
98.597082237249069
  0
ARC
  8
0
  6
CONTINUOUS
 62
3
 10
-300.413548909130780
 20
-73.166158933552026
 40
1.500000000000203
 50
84.468928475159132
 51
180.000000000000000
  0
ARC
  8
0
  6
CONTINUOUS
 62
3
 10
-308.413548909130780
 20
-73.166158933551799
 40
1.500000000000000
 50
0.000000000000000
 51
95.531071524841693
  0
ARC
  8
0
  6
CONTINUOUS
 62
3
 10
-304.413548909130550
 20
-114.472938038197120
 40
17.999999999999922
 50
41.837004155893325
 51
78.162995844107314
  0
ARC
  8
0
  6
CONTINUOUS
 62
3
 10
-304.413548909131010
 20
-114.472938038197120
 40
27.499999999999815
 50
97.928141766201691
 51
142.071858233797880
  0
LINE
  8
0
  6
CONTINUOUS
 62
3
 10
-301.913548909130780
 20
-73.166158933552026
 11
-301.913548909130780
 21
-76.181294041106014
  0
LINE
  8
0
  6
CONTINUOUS
 62
3
 10
-272.502012454979990
 20
-93.162052530190806
 11
-269.890828855995890
 21
-91.654484976413698
  0
LINE
  8
0
  6
CONTINUOUS
 62
3
 10
-301.913548909130780
 20
-82.723922305422604
 11
-301.913548909130780
 21
-85.750124805507141
  0
ARC
  8
0
  6
CONTINUOUS
 62
3
 10
-300.413548909130780
 20
-82.723922305422604
 40
1.499999999999998
 50
82.819244218541712
 51
180.000000000000000
  0
ARC
  8
0
  6
CONTINUOUS
 62
3
 10
-300.413548909130780
 20
-76.181294041106014
 40
1.500000000000000
 50
180.000000000000000
 51
264.036429881682580
  0
ARC
  8
0
  6
CONTINUOUS
 62
3
 10
-270.640828855995890
 20
-90.355446870736898
 40
1.500000000000123
 50
299.999999999997270
 51
35.531071524839192
  0
ARC
  8
0
  6
CONTINUOUS
 62
3
 10
-304.413548909131240
 20
-114.472938038197580
 40
42.999999999999908
 50
35.531071524839248
 51
84.468928475160212
  0
ARC
  8
0
  6
CONTINUOUS
 62
3
 10
-266.640828855995440
 20
-97.283650101012938
 40
1.500000000000034
 50
24.468928475159590
 51
119.999999999997270
  0
LINE
  8
0
  6
CONTINUOUS
 62
3
 10
-270.002012454979760
 20
-97.492179549113246
 11
-267.390828855995440
 21
-95.984611995336138
  0
ARC
  8
0
  6
CONTINUOUS
 62
3
 10
-269.252012454979760
 20
-98.791217654790046
 40
1.500000000000123
 50
119.999999999997270
 51
204.036429881680680
  0
ARC
  8
0
  6
CONTINUOUS
 62
3
 10
-304.413548909131010
 20
-114.472938038198030
 40
36.999999999999972
 50
335.963570118321740
 51
24.036429881678870
  0
ARC
  8
0
  6
CONTINUOUS
 62
3
 10
-304.413548909131010
 20
-114.472938038198030
 40
42.999999999999936
 50
335.531071524839770
 51
24.468928475160769
  0
ARC
  8
0
  6
CONTINUOUS
 62
3
 10
-266.640828855995440
 20
-131.662225975382460
 40
1.500000000000320
 50
240.000000000007050
 51
335.531071524832500
  0
LINE
  8
0
  6
CONTINUOUS
 62
3
 10
-267.390828855995440
 20
-132.961264081059480
 11
-270.002012454979540
 21
-131.453696527282150
  0
ARC
  8
0
  6
CONTINUOUS
 62
3
 10
-269.252012454979540
 20
-130.154658421605570
 40
1.500000000000063
 50
155.963570118322880
 51
239.999999999998410
  0
ARC
  8
0
  6
CONTINUOUS
 62
3
 10
-270.640828855995440
 20
-138.590429205658270
 40
1.499999999999844
 50
324.468928475167900
 51
59.999999999998380
  0
LINE
  8
0
  6
CONTINUOUS
 62
3
 10
-269.890828855995440
 20
-137.291391099981690
 11
-272.502012454979540
 21
-135.783823546204360
  0
LINE
  8
0
  6
CONTINUOUS
 62
3
 10
-306.913548909130780
 20
-73.166158933551799
 11
-306.913548909130780
 21
-76.181294041106014
  0
ARC
  8
0
  6
CONTINUOUS
 62
3
 10
-308.413548909130780
 20
-76.181294041106014
 40
1.499999999999933
 50
275.963570118318330
 51
0.000000000000000
  0
LINE
  8
0
  6
CONTINUOUS
 62
3
 10
-306.913548909130780
 20
-82.723922305422604
 11
-306.913548909130780
 21
-85.750124805507141
  0
ARC
  8
0
  6
CONTINUOUS
 62
3
 10
-308.413548909130780
 20
-82.723922305422604
 40
1.500000000000000
 50
0.000000000000000
 51
97.180755781458288
  0
ARC
  8
0
  6
CONTINUOUS
 62
3
 10
-304.413548909131240
 20
-114.472938038197120
 40
23.999999999999901
 50
100.240348321185670
 51
139.759651678813550
  0
ARC
  8
0
  6
CONTINUOUS
 62
3
 10
-321.588728178175760
 20
-99.938041510317191
 40
1.499999999999802
 50
139.759651678811420
 51
239.999999999998410
  0
LINE
  8
0
  6
CONTINUOUS
 62
3
 10
-319.691933585196580
 20
-102.765207186739920
 11
-322.338728178175760
 21
-101.237079615993760
  0
ARC
  8
0
  6
CONTINUOUS
 62
3
 10
-318.941933585196580
 20
-101.466169081063350
 40
1.499999999999926
 50
239.999999999998410
 51
318.162995844106720
  0
ARC
  8
0
  6
CONTINUOUS
 62
3
 10
-304.413548909131240
 20
-114.472938038197120
 40
17.999999999999829
 50
101.837004155891980
 51
138.162995844106210
  0
ARC
  8
0
  6
CONTINUOUS
 62
3
 10
-308.413548909130780
 20
-95.387603354204941
 40
1.499999999999954
 50
281.837004155896690
 51
0.000000000000000
  0
LINE
  8
0
  6
CONTINUOUS
 62
3
 10
-306.913548909130780
 20
-92.331348212712612
 11
-306.913548909130780
 21
-95.387603354204941
  0
ARC
  8
0
  6
CONTINUOUS
 62
3
 10
-308.413548909130780
 20
-92.331348212712612
 40
1.500000000000000
 50
0.000000000000000
 51
100.240348321194510
  0
ARC
  8
0
  6
CONTINUOUS
 62
3
 10
-304.413548909131240
 20
-114.472938038197120
 40
14.499999999999980
 50
107.920213139390830
 51
132.079786860607560
  0
ARC
  8
0
  6
CONTINUOUS
 62
3
 10
-313.125691551945350
 20
-104.824177984632850
 40
1.499999999999792
 50
132.079786860611680
 51
239.999999999998410
  0
LINE
  8
0
  6
CONTINUOUS
 62
3
 10
-311.100802842324700
 20
-107.725298833780300
 11
-313.875691551945350
 21
-106.123216090309420
  0
ARC
  8
0
  6
CONTINUOUS
 62
3
 10
-310.350802842324700
 20
-106.426260728103720
 40
1.499999999999926
 50
239.999999999998410
 51
306.421821521797600
  0
ARC
  8
0
  6
CONTINUOUS
 62
3
 10
-304.413548909131240
 20
-114.472938038197120
 40
8.499999999999879
 50
113.578178478199500
 51
126.421821521797340
  0
ARC
  8
0
  6
CONTINUOUS
 62
3
 10
-308.413548909130780
 20
-105.307786648285230
 40
1.500000000000139
 50
293.578178478195700
 51
0.000000000000000
  0
LINE
  8
0
  6
CONTINUOUS
 62
3
 10
-306.913548909130780
 20
-102.103621161344160
 11
-306.913548909130780
 21
-105.307786648285230
  0
ARC
  8
0
  6
CONTINUOUS
 62
3
 10
-308.413548909130780
 20
-102.103621161344160
 40
1.500000000000000
 50
0.000000000000000
 51
107.920213139394770
  0
ARC
  8
0
  6
CONTINUOUS
 62
3
 10
-304.413548909130780
 20
-114.472938038197580
 40
23.999999999999716
 50
280.240348321186270
 51
319.759651678814690
  0
ARC
  8
0
  6
CONTINUOUS
 62
3
 10
-300.413548909130780
 20
-136.614527863682100
 40
1.500000000000000
 50
180.000000000000000
 51
280.240348321187530
  0
LINE
  8
0
  6
CONTINUOUS
 62
3
 10
-301.913548909130780
 20
-133.558272722189770
 11
-301.913548909130780
 21
-136.614527863682100
  0
ARC
  8
0
  6
CONTINUOUS
 62
3
 10
-300.413548909130780
 20
-133.558272722189770
 40
1.499999999999731
 50
101.837004155898450
 51
180.000000000000000
  0
ARC
  8
0
  6
CONTINUOUS
 62
3
 10
-304.413548909130780
 20
-114.472938038197580
 40
18.000000000000146
 50
281.837004155893230
 51
318.162995844107680
  0
ARC
  8
0
  6
CONTINUOUS
 62
3
 10
-289.885164233064980
 20
-127.479706995331350
 40
1.499999999999926
 50
59.999999999998380
 51
138.162995844100240
  0
LINE
  8
0
  6
CONTINUOUS
 62
3
 10
-286.488369640086030
 20
-127.708796460400940
 11
-289.135164233064980
 21
-126.180668889654780
  0
ARC
  8
0
  6
CONTINUOUS
 62
3
 10
-287.238369640086030
 20
-129.007834566077520
 40
1.499999999999828
 50
319.759651678823670
 51
59.999999999998380
  0
ARC
  8
0
  6
CONTINUOUS
 62
3
 10
-304.413548909130780
 20
-114.472938038197580
 40
14.500000000000121
 50
287.920213139392560
 51
312.079786860608860
  0
ARC
  8
0
  6
CONTINUOUS
 62
3
 10
-300.413548909130780
 20
-126.842254915050310
 40
1.500000000000000
 50
180.000000000000000
 51
287.920213139392100
  0
LINE
  8
0
  6
CONTINUOUS
 62
3
 10
-301.913548909130780
 20
-123.638089428109020
 11
-301.913548909130780
 21
-126.842254915050310
  0
ARC
  8
0
  6
CONTINUOUS
 62
3
 10
-300.413548909130780
 20
-123.638089428109480
 40
1.500000000000139
 50
113.578178478195690
 51
179.999999999982630
  0
ARC
  8
0
  6
CONTINUOUS
 62
3
 10
-304.413548909130780
 20
-114.472938038197580
 40
8.500000000000060
 50
293.578178478202350
 51
306.421821521799190
  0
ARC
  8
0
  6
CONTINUOUS
 62
3
 10
-298.476294975936870
 20
-122.519615348290980
 40
1.499999999999926
 50
59.999999999998380
 51
126.421821521801260
  0
LINE
  8
0
  6
CONTINUOUS
 62
3
 10
-294.951406266316440
 20
-122.822659986084830
 11
-297.726294975936870
 21
-121.220577242614410
  0
ARC
  8
0
  6
CONTINUOUS
 62
3
 10
-295.701406266316440
 20
-124.121698091761850
 40
1.499999999999944
 50
312.079786860618130
 51
60.000000000007070
  0
ARC
  8
0
  6
CONTINUOUS
 62
3
 10
-304.413548909130780
 20
-114.472938038197580
 40
23.999999999999844
 50
220.240348321185340
 51
259.759651678813730
  0
ARC
  8
0
  6
CONTINUOUS
 62
3
 10
-308.413548909130780
 20
-136.614527863682100
 40
1.499999999999728
 50
259.759651678812470
 51
0.000000000000000
  0
LINE
  8
0
  6
CONTINUOUS
 62
3
 10
-306.913548909130780
 20
-133.558272722189770
 11
-306.913548909130780
 21
-136.614527863682100
  0
ARC
  8
0
  6
CONTINUOUS
 62
3
 10
-308.413548909130780
 20
-133.558272722189770
 40
1.500000000000000
 50
0.000000000000000
 51
78.162995844101530
  0
ARC
  8
0
  6
CONTINUOUS
 62
3
 10
-304.413548909130780
 20
-114.472938038197580
 40
17.999999999999940
 50
221.837004155892320
 51
258.162995844106770
  0
ARC
  8
0
  6
CONTINUOUS
 62
3
 10
-318.941933585196580
 20
-127.479706995331350
 40
1.500000000000118
 50
41.837004155899741
 51
120.000000000001620
  0
LINE
  8
0
  6
CONTINUOUS
 62
3
 10
-322.338728178175530
 20
-127.708796460400940
 11
-319.691933585196580
 21
-126.180668889654780
  0
ARC
  8
0
  6
CONTINUOUS
 62
3
 10
-321.588728178175530
 20
-129.007834566077520
 40
1.499999999999926
 50
120.000000000001620
 51
220.240348321176330
  0
ARC
  8
0
  6
CONTINUOUS
 62
3
 10
-304.413548909130780
 20
-114.472938038197580
 40
14.500000000000011
 50
227.920213139391080
 51
252.079786860607410
  0
ARC
  8
0
  6
CONTINUOUS
 62
3
 10
-308.413548909130780
 20
-126.842254915050310
 40
1.500000000000355
 50
252.079786860607900
 51
0.000000000000000
  0
LINE
  8
0
  6
CONTINUOUS
 62
3
 10
-306.913548909130780
 20
-123.638089428109020
 11
-306.913548909130780
 21
-126.842254915050310
  0
ARC
  8
0
  6
CONTINUOUS
 62
3
 10
-308.413548909130780
 20
-123.638089428109480
 40
1.500000000000000
 50
0.000000000017370
 51
66.421821521804304
  0
ARC
  8
0
  6
CONTINUOUS
 62
3
 10
-304.413548909130780
 20
-114.472938038197580
 40
8.499999999999870
 50
233.578178478199590
 51
246.421821521797680
  0
ARC
  8
0
  6
CONTINUOUS
 62
3
 10
-310.350802842324700
 20
-122.519615348290980
 40
1.500000000000059
 50
53.578178478205707
 51
120.000000000001620
  0
LINE
  8
0
  6
CONTINUOUS
 62
3
 10
-313.875691551945120
 20
-122.822659986084830
 11
-311.100802842324700
 21
-121.220577242614410
  0
ARC
  8
0
  6
CONTINUOUS
 62
3
 10
-313.125691551945120
 20
-124.121698091761850
 40
1.500000000000320
 50
119.999999999992930
 51
227.920213139381870
  0
ARC
  8
0
  6
CONTINUOUS
 62
3
 10
-304.413548909131240
 20
-114.472938038197120
 40
23.999999999999925
 50
160.240348321185910
 51
199.759651678814090
  0
ARC
  8
0
  6
CONTINUOUS
 62
3
 10
-325.588728178175760
 20
-106.866244740592540
 40
1.499999999999926
 50
59.999999999998380
 51
160.240348321185250
  0
LINE
  8
0
  6
CONTINUOUS
 62
3
 10
-322.191933585196580
 20
-107.095334205662140
 11
-324.838728178175760
 21
-105.567206634915970
  0
ARC
  8
0
  6
CONTINUOUS
 62
3
 10
-322.941933585196580
 20
-108.394372311338710
 40
1.500000000000038
 50
341.837004155895390
 51
59.999999999998380
  0
ARC
  8
0
  6
CONTINUOUS
 62
3
 10
-304.413548909131240
 20
-114.472938038197120
 40
17.999999999999726
 50
161.837004155893140
 51
198.162995844106860
  0
ARC
  8
0
  6
CONTINUOUS
 62
3
 10
-322.941933585196580
 20
-120.551503765055540
 40
1.500000000000320
 50
299.999999999992950
 51
18.162995844104589
  0
LINE
  8
0
  6
CONTINUOUS
 62
3
 10
-324.838728178175530
 20
-123.378669441478280
 11
-322.191933585196580
 21
-121.850541870732570
  0
ARC
  8
0
  6
CONTINUOUS
 62
3
 10
-325.588728178175530
 20
-122.079631335801700
 40
1.500000000000246
 50
199.759651678811820
 51
300.000000000001590
  0
ARC
  8
0
  6
CONTINUOUS
 62
3
 10
-304.413548909131240
 20
-114.472938038197120
 40
14.499999999999851
 50
167.920213139392840
 51
192.079786860608920
  0
ARC
  8
0
  6
CONTINUOUS
 62
3
 10
-317.125691551945350
 20
-111.752381214908210
 40
1.499999999999926
 50
59.999999999998380
 51
167.920213139405550
  0
LINE
  8
0
  6
CONTINUOUS
 62
3
 10
-313.600802842324700
 20
-112.055425852702510
 11
-316.375691551945350
 21
-110.453343109231630
  0
ARC
  8
0
  6
CONTINUOUS
 62
3
 10
-314.350802842324700
 20
-113.354463958379080
 40
1.499999999999873
 50
353.578178478198030
 51
59.999999999998380
  0
ARC
  8
0
  6
CONTINUOUS
 62
3
 10
-304.413548909131240
 20
-114.472938038197120
 40
8.499999999999813
 50
173.578178478202550
 51
186.421821521800500
  0
ARC
  8
0
  6
CONTINUOUS
 62
3
 10
-314.350802842324700
 20
-115.591412118015620
 40
1.499999999999926
 50
300.000000000001590
 51
6.421821521801967
  0
LINE
  8
0
  6
CONTINUOUS
 62
3
 10
-316.375691551945120
 20
-118.492532967162610
 11
-313.600802842324700
 21
-116.890450223692190
  0
ARC
  8
0
  6
CONTINUOUS
 62
3
 10
-317.125691551945120
 20
-117.193494861486040
 40
1.500000000000287
 50
192.079786860609600
 51
300.000000000001590
  0
ARC
  8
0
  6
CONTINUOUS
 62
3
 10
-304.413548909130550
 20
-114.472938038197120
 40
24.000000000000139
 50
340.240348321186050
 51
19.759651678813924
  0
ARC
  8
0
  6
CONTINUOUS
 62
3
 10
-283.238369640086030
 20
-106.866244740592540
 40
1.500000000000246
 50
19.759651678811824
 51
120.000000000001620
  0
LINE
  8
0
  6
CONTINUOUS
 62
3
 10
-286.635164233064980
 20
-107.095334205662140
 11
-283.988369640086030
 21
-105.567206634915970
  0
ARC
  8
0
  6
CONTINUOUS
 62
3
 10
-285.885164233064980
 20
-108.394372311338710
 40
1.499999999999926
 50
120.000000000001620
 51
198.162995844104590
  0
ARC
  8
0
  6
CONTINUOUS
 62
3
 10
-304.413548909130550
 20
-114.472938038197120
 40
17.999999999999943
 50
341.837004155893340
 51
18.162995844106646
  0
ARC
  8
0
  6
CONTINUOUS
 62
3
 10
-285.885164233064980
 20
-120.551503765055540
 40
1.500000000000038
 50
161.837004155895410
 51
240.000000000007050
  0
LINE
  8
0
  6
CONTINUOUS
 62
3
 10
-283.988369640086030
 20
-123.378669441478280
 11
-286.635164233064980
 21
-121.850541870732570
  0
ARC
  8
0
  6
CONTINUOUS
 62
3
 10
-283.238369640086030
 20
-122.079631335801700
 40
1.499999999999926
 50
239.999999999998410
 51
340.240348321188210
  0
ARC
  8
0
  6
CONTINUOUS
 62
3
 10
-304.413548909130550
 20
-114.472938038197120
 40
14.500000000000169
 50
347.920213139391310
 51
12.079786860606980
  0
ARC
  8
0
  6
CONTINUOUS
 62
3
 10
-291.701406266316440
 20
-111.752381214908210
 40
1.500000000000192
 50
12.079786860592611
 51
120.000000000001620
  0
LINE
  8
0
  6
CONTINUOUS
 62
3
 10
-295.226294975936870
 20
-112.055425852702510
 11
-292.451406266316440
 21
-110.453343109231630
  0
ARC
  8
0
  6
CONTINUOUS
 62
3
 10
-294.476294975936870
 20
-113.354463958379080
 40
1.499999999999926
 50
120.000000000001620
 51
186.421821521801010
  0
ARC
  8
0
  6
CONTINUOUS
 62
3
 10
-304.413548909130550
 20
-114.472938038197120
 40
8.499999999999865
 50
353.578178478199500
 51
6.421821521797448
  0
ARC
  8
0
  6
CONTINUOUS
 62
3
 10
-294.476294975936870
 20
-115.591412118015620
 40
1.500000000000099
 50
173.578178478198990
 51
239.999999999998410
  0
LINE
  8
0
  6
CONTINUOUS
 62
3
 10
-292.451406266316440
 20
-118.492532967162610
 11
-295.226294975936870
 21
-116.890450223692190
  0
ARC
  8
0
  6
CONTINUOUS
 62
3
 10
-291.701406266316440
 20
-117.193494861486040
 40
1.499999999999926
 50
239.999999999998410
 51
347.920213139390400
  0
ARC
  8
0
  6
CONTINUOUS
 62
3
 10
-304.413548909130550
 20
-114.472938038197120
 40
8.500000000000101
 50
53.578178478202659
 51
66.421821521799089
  0
ARC
  8
0
  6
CONTINUOUS
 62
3
 10
-304.413548909130550
 20
-114.472938038197120
 40
23.999999999999819
 50
40.240348321186090
 51
79.759651678814322
  0
LINE
  8
0
  6
CONTINUOUS
 62
3
 10
-297.726294975936870
 20
-107.725298833780300
 11
-294.951406266316440
 21
-106.123216090309420
  0
LINE
  8
0
  6
CONTINUOUS
 62
3
 10
-301.913548909130780
 20
-92.331348212712612
 11
-301.913548909130780
 21
-95.387603354204941
  0
LINE
  8
0
  6
CONTINUOUS
 62
3
 10
-301.913548909130780
 20
-102.103621161344160
 11
-301.913548909130780
 21
-105.307786648285230
  0
ARC
  8
0
  6
CONTINUOUS
 62
3
 10
-304.413548909130550
 20
-114.472938038197120
 40
14.499999999999860
 50
47.920213139391755
 51
72.079786860608309
  0
LINE
  8
0
  6
CONTINUOUS
 62
3
 10
-289.135164233064980
 20
-102.765207186739920
 11
-286.488369640086030
 21
-101.237079615993760
  0
ARC
  8
0
  6
CONTINUOUS
 62
3
 10
-295.701406266316440
 20
-104.824177984632850
 40
1.499999999999926
 50
300.000000000001590
 51
47.920213139381872
  0
ARC
  8
0
  6
CONTINUOUS
 62
3
 10
-300.413548909130780
 20
-92.331348212712612
 40
1.499999999999952
 50
79.759651678814024
 51
180.000000000000000
  0
ARC
  8
0
  6
CONTINUOUS
 62
3
 10
-289.885164233064980
 20
-101.466169081063350
 40
1.499999999999967
 50
221.837004155893280
 51
300.000000000001590
  0
ARC
  8
0
  6
CONTINUOUS
 62
3
 10
-300.413548909130780
 20
-95.387603354204941
 40
1.500000000000000
 50
180.000000000000000
 51
258.162995844103310
  0
ARC
  8
0
  6
CONTINUOUS
 62
3
 10
-300.413548909130780
 20
-102.103621161344160
 40
1.500000000000138
 50
72.079786860605225
 51
180.000000000000000
  0
ARC
  8
0
  6
CONTINUOUS
 62
3
 10
-287.238369640086030
 20
-99.938041510317191
 40
1.499999999999926
 50
300.000000000001590
 51
40.240348321182964
  0
ARC
  8
0
  6
CONTINUOUS
 62
3
 10
-300.413548909130780
 20
-105.307786648285230
 40
1.500000000000000
 50
180.000000000000000
 51
246.421821521804280
  0
ARC
  8
0
  6
CONTINUOUS
 62
3
 10
-298.476294975936870
 20
-106.426260728103720
 40
1.499999999999693
 50
233.578178478195410
 51
300.000000000001590
  0
CIRCLE
  8
0
  6
CONTINUOUS
 62
3
 10
-304.413548909130780
 20
-114.472938038197120
 40
5.000000000000000
  0
ARC
  8
0
  6
CONTINUOUS
 62
3
 10
-281.538862981465060
 20
-96.647429806714456
 40
1.499999999999843
 50
217.928141766204990
 51
300.000000000001590
  0
LINE
  8
0
  6
CONTINUOUS
 62
3
 10
-280.788862981465060
 20
-97.946467912391029
 11
-278.168094739396220
 21
-96.433366662348874
  0
ARC
  8
0
  6
CONTINUOUS
 62
3
 10
-300.413548909130780
 20
-85.750124805507141
 40
1.500000000000000
 50
180.000000000000000
 51
262.071858233795980
  0
ARC
  8
0
  6
CONTINUOUS
 62
3
 10
-304.413548909130550
 20
-114.472938038197120
 40
27.500000000000060
 50
37.928141766201819
 51
82.071858233798309
  0
ARC
  8
0
  6
CONTINUOUS
 62
3
 10
-278.918094739396220
 20
-95.134328556672301
 40
1.499999999999926
 50
300.000000000001590
 51
37.180755781457485
  0
ARC
  8
0
  6
CONTINUOUS
 62
3
 10
-273.252012454979990
 20
-91.863014424514006
 40
1.500000000000102
 50
215.963570118316280
 51
299.999999999997270
  0
ARC
  8
0
  6
CONTINUOUS
 62
3
 10
-304.413548909131240
 20
-114.472938038197580
 40
36.999999999999943
 50
35.963570118321194
 51
84.036429881678174
  0
ARC
  8
0
  6
CONTINUOUS
 62
3
 10
-304.413548909131240
 20
-114.472938038197580
 40
33.500000000000071
 50
37.180755781458259
 51
82.819244218540931
  0
LINE
  8
0
  6
CONTINUOUS
 62
3
 10
-278.288862981464830
 20
-102.276594931313690
 11
-275.668094739396000
 21
-100.763493681271540
  0
ARC
  8
0
  6
CONTINUOUS
 62
3
 10
-274.918094739396000
 20
-102.062531786948340
 40
1.499999999999948
 50
22.819244218550043
 51
119.999999999997270
  0
ARC
  8
0
  6
CONTINUOUS
 62
3
 10
-277.538862981464830
 20
-103.575633036990260
 40
1.499999999999926
 50
120.000000000001620
 51
202.071858233797370
  0
ARC
  8
0
  6
CONTINUOUS
 62
3
 10
-304.413548909130330
 20
-114.472938038197580
 40
27.499999999999886
 50
337.928141766202200
 51
22.071858233797812
  0
ARC
  8
0
  6
CONTINUOUS
 62
3
 10
-304.413548909131010
 20
-114.472938038198030
 40
33.500000000000128
 50
337.180755781459030
 51
22.819244218541968
  0
ARC
  8
0
  6
CONTINUOUS
 62
3
 10
-277.538862981465060
 20
-125.370243039404890
 40
1.499999999999899
 50
157.928141766199360
 51
240.000000000007050
  0
LINE
  8
0
  6
CONTINUOUS
 62
3
 10
-275.668094739395770
 20
-128.182382395123850
 11
-278.288862981465060
 21
-126.669281145081920
  0
ARC
  8
0
  6
CONTINUOUS
 62
3
 10
-274.918094739395770
 20
-126.883344289447280
 40
1.499999999999926
 50
239.999999999998410
 51
337.180755781453340
  0
ARC
  8
0
  6
CONTINUOUS
 62
3
 10
-300.413548909130550
 20
-155.779717142842690
 40
1.500000000000000
 50
180.000000000000000
 51
275.531071524831360
  0
LINE
  8
0
  6
CONTINUOUS
 62
3
 10
-301.913548909130550
 20
-152.764582035288470
 11
-301.913548909130550
 21
-155.779717142842690
  0
LINE
  8
0
  6
CONTINUOUS
 62
3
 10
-301.913548909130550
 20
-143.195751270888020
 11
-301.913548909130550
 21
-146.221953770972330
  0
ARC
  8
0
  6
CONTINUOUS
 62
3
 10
-300.413548909130550
 20
-152.764582035288920
 40
1.500000000000182
 50
95.963570118326047
 51
179.999999999982630
  0
ARC
  8
0
  6
CONTINUOUS
 62
3
 10
-300.413548909130550
 20
-146.221953770972330
 40
1.500000000000000
 50
180.000000000000000
 51
277.180755781458290
  0
ARC
  8
0
  6
CONTINUOUS
 62
3
 10
-300.413548909130550
 20
-143.195751270888020
 40
1.499999999999967
 50
97.928141766195438
 51
180.000000000000000
  0
ARC
  8
0
  6
CONTINUOUS
 62
3
 10
-304.413548909130550
 20
-114.472938038198030
 40
27.499999999999879
 50
277.928141766202600
 51
322.071858233798930
  0
ARC
  8
0
  6
CONTINUOUS
 62
3
 10
-304.413548909130550
 20
-114.472938038197120
 40
37.000000000000028
 50
275.963570118320770
 51
324.036429881678030
  0
ARC
  8
0
  6
CONTINUOUS
 62
3
 10
-304.413548909130550
 20
-114.472938038197120
 40
43.000000000000199
 50
275.531071524838860
 51
324.468928475160340
  0
ARC
  8
0
  6
CONTINUOUS
 62
3
 10
-304.413548909130550
 20
-114.472938038197120
 40
33.500000000000114
 50
277.180755781458230
 51
322.819244218540860
  0
ARC
  8
0
  6
CONTINUOUS
 62
3
 10
-281.538862981465060
 20
-132.298446269680710
 40
1.500000000000320
 50
60.000000000007070
 51
142.071858233781280
  0
ARC
  8
0
  6
CONTINUOUS
 62
3
 10
-273.252012454979540
 20
-137.082861651880930
 40
1.499999999999926
 50
59.999999999998380
 51
144.036429881690740
  0
LINE
  8
0
  6
CONTINUOUS
 62
3
 10
-278.168094739395770
 20
-132.512509414046060
 11
-280.788862981465060
 21
-130.999408164003680
  0
ARC
  8
0
  6
CONTINUOUS
 62
3
 10
-278.918094739395770
 20
-133.811547519722640
 40
1.500000000000240
 50
322.819244218535570
 51
59.999999999998380
  0
ARC
  8
0
  6
CONTINUOUS
 62
3
 10
-308.413548909131010
 20
-155.779717142842690
 40
1.500000000000430
 50
264.468928475160000
 51
0.000000000000000
  0
LINE
  8
0
  6
CONTINUOUS
 62
3
 10
-306.913548909131010
 20
-152.764582035288470
 11
-306.913548909131010
 21
-155.779717142842690
  0
LINE
  8
0
  6
CONTINUOUS
 62
3
 10
-306.913548909131010
 20
-143.195751270888020
 11
-306.913548909131010
 21
-146.221953770972330
  0
ARC
  8
0
  6
CONTINUOUS
 62
3
 10
-308.413548909131010
 20
-152.764582035288920
 40
1.500000000000000
 50
0.000000000017370
 51
84.036429881682594
  0
ARC
  8
0
  6
CONTINUOUS
 62
3
 10
-308.413548909131010
 20
-146.221953770972330
 40
1.499999999999998
 50
262.819244218541710
 51
0.000000000000000
  0
ARC
  8
0
  6
CONTINUOUS
 62
3
 10
-308.413548909131010
 20
-143.195751270888020
 40
1.500000000000000
 50
0.000000000000000
 51
82.071858233804562
  0
ARC
  8
0
  6
CONTINUOUS
 62
3
 10
-304.413548909131010
 20
-114.472938038198030
 40
27.499999999999780
 50
217.928141766201070
 51
262.071858233797400
  0
ARC
  8
0
  6
CONTINUOUS
 62
3
 10
-304.413548909131010
 20
-114.472938038197120
 40
37.000000000000021
 50
215.963570118321970
 51
264.036429881678940
  0
ARC
  8
0
  6
CONTINUOUS
 62
3
 10
-304.413548909131010
 20
-114.472938038197120
 40
42.999999999999858
 50
215.531071524839690
 51
264.468928475160850
  0
ARC
  8
0
  6
CONTINUOUS
 62
3
 10
-304.413548909131010
 20
-114.472938038197120
 40
33.500000000000163
 50
217.180755781459110
 51
262.819244218541770
  0
ARC
  8
0
  6
CONTINUOUS
 62
3
 10
-327.288234836796510
 20
-132.298446269680710
 40
1.500000000000122
 50
37.928141766218701
 51
119.999999999992930
  0
ARC
  8
0
  6
CONTINUOUS
 62
3
 10
-338.186268962266130
 20
-138.590429205658270
 40
1.499999999999926
 50
120.000000000001620
 51
215.531071524832130
  0
LINE
  8
0
  6
CONTINUOUS
 62
3
 10
-338.936268962266130
 20
-137.291391099981690
 11
-336.325085363282030
 21
-135.783823546204360
  0
ARC
  8
0
  6
CONTINUOUS
 62
3
 10
-335.575085363282030
 20
-137.082861651880930
 40
1.499999999999968
 50
35.963570118309242
 51
120.000000000001620
  0
LINE
  8
0
  6
CONTINUOUS
 62
3
 10
-330.659003078865790
 20
-132.512509414046060
 11
-328.038234836796510
 21
-130.999408164003680
  0
ARC
  8
0
  6
CONTINUOUS
 62
3
 10
-329.909003078865790
 20
-133.811547519722640
 40
1.499999999999926
 50
120.000000000001620
 51
217.180755781464400
  0
ARC
  8
0
  6
CONTINUOUS
 62
3
 10
-342.186268962266130
 20
-97.283650101012938
 40
1.499999999999926
 50
59.999999999998380
 51
155.531071524840400
  0
LINE
  8
0
  6
CONTINUOUS
 62
3
 10
-338.825085363281570
 20
-97.492179549113473
 11
-341.436268962266130
 21
-95.984611995336365
  0
LINE
  8
0
  6
CONTINUOUS
 62
3
 10
-330.538234836796730
 20
-102.276594931313690
 11
-333.159003078865570
 21
-100.763493681271540
  0
ARC
  8
0
  6
CONTINUOUS
 62
3
 10
-339.575085363281800
 20
-98.791217654790046
 40
1.499999999999855
 50
335.963570118319300
 51
59.999999999990862
  0
ARC
  8
0
  6
CONTINUOUS
 62
3
 10
-333.909003078865570
 20
-102.062531786948340
 40
1.500000000000123
 50
60.000000000002721
 51
157.180755781457980
  0
ARC
  8
0
  6
CONTINUOUS
 62
3
 10
-331.288234836796730
 20
-103.575633036990260
 40
1.500000000000110
 50
337.928141766202600
 51
59.999999999998380
  0
ARC
  8
0
  6
CONTINUOUS
 62
3
 10
-304.413548909131240
 20
-114.472938038197580
 40
27.499999999999886
 50
157.928141766202200
 51
202.071858233798680
  0
ARC
  8
0
  6
CONTINUOUS
 62
3
 10
-304.413548909130550
 20
-114.472938038198030
 40
37.000000000000156
 50
155.963570118321120
 51
204.036429881678230
  0
ARC
  8
0
  6
CONTINUOUS
 62
3
 10
-304.413548909130550
 20
-114.472938038198030
 40
43.000000000000121
 50
155.531071524839230
 51
204.468928475160200
  0
ARC
  8
0
  6
CONTINUOUS
 62
3
 10
-304.413548909130550
 20
-114.472938038198030
 40
33.499999999999794
 50
157.180755781458400
 51
202.819244218540940
  0
ARC
  8
0
  6
CONTINUOUS
 62
3
 10
-331.288234836796510
 20
-125.370243039404890
 40
1.500000000000320
 50
299.999999999992950
 51
22.071858233784546
  0
ARC
  8
0
  6
CONTINUOUS
 62
3
 10
-342.186268962266130
 20
-131.662225975382460
 40
1.500000000000128
 50
204.468928475167470
 51
299.999999999992950
  0
LINE
  8
0
  6
CONTINUOUS
 62
3
 10
-341.436268962266130
 20
-132.961264081059480
 11
-338.825085363282030
 21
-131.453696527282150
  0
ARC
  8
0
  6
CONTINUOUS
 62
3
 10
-339.575085363282030
 20
-130.154658421605570
 40
1.499999999999926
 50
300.000000000001590
 51
24.036429881677126
  0
LINE
  8
0
  6
CONTINUOUS
 62
3
 10
-333.159003078865790
 20
-128.182382395123850
 11
-330.538234836796510
 21
-126.669281145081920
  0
ARC
  8
0
  6
CONTINUOUS
 62
3
 10
-333.909003078865790
 20
-126.883344289447280
 40
1.500000000000157
 50
202.819244218546660
 51
300.000000000001590
  0
ARC
  8
0
  6
CONTINUOUS
 62
3
 10
-338.186268962265670
 20
-90.355446870736898
 40
1.499999999999976
 50
144.468928475160790
 51
240.000000000002730
  0
LINE
  8
0
  6
CONTINUOUS
 62
3
 10
-336.325085363281570
 20
-93.162052530190806
 11
-338.936268962265670
 21
-91.654484976413698
  0
LINE
  8
0
  6
CONTINUOUS
 62
3
 10
-328.038234836796510
 20
-97.946467912391029
 11
-330.659003078865340
 21
-96.433366662348874
  0
ARC
  8
0
  6
CONTINUOUS
 62
3
 10
-335.575085363281570
 20
-91.863014424514006
 40
1.500000000000123
 50
240.000000000002730
 51
324.036429881683720
  0
ARC
  8
0
  6
CONTINUOUS
 62
3
 10
-329.909003078865340
 20
-95.134328556672301
 40
1.500000000000103
 50
142.819244218542510
 51
239.999999999998410
  0
ARC
  8
0
  6
CONTINUOUS
 62
3
 10
-327.288234836796510
 20
-96.647429806714456
 40
1.499999999999926
 50
239.999999999998410
 51
322.071858233800300
  0
ARC
  8
0
  6
CONTINUOUS
 62
3
 10
-304.413548909130330
 20
-114.472938038197580
 40
37.000000000000099
 50
95.963570118321798
 51
144.036429881678830
  0
ARC
  8
0
  6
CONTINUOUS
 62
3
 10
-304.413548909130330
 20
-114.472938038197580
 40
43.000000000000043
 50
95.531071524839788
 51
144.468928475160770
  0
ARC
  8
0
  6
CONTINUOUS
 62
3
 10
-304.413548909130330
 20
-114.472938038197580
 40
33.499999999999950
 50
97.180755781459069
 51
142.819244218541740
  0
ARC
  8
0
  6
CONTINUOUS
 62
3
 10
-308.413548909130780
 20
-85.750124805507141
 40
1.499999999999998
 50
277.928141766204020
 51
0.000000000000000
  0
ARC
  8
0
  6
CONTINUOUS
 62
3
 10
-348.362136339413270
 20
-64.376323570669285
 40
6.599999999999971
 50
98.597082237248614
 51
134.999999999998610
  0
ARC
  8
0
  6
CONTINUOUS
 62
4
 10
-343.355066864512880
 20
-74.364160497610840
 40
5.999999999999923
 50
97.897988672425626
 51
134.999999999996930
  0
ARC
  8
0
  6
CONTINUOUS
 62
4
 10
-304.413548909130780
 20
-355.072938038197490
 40
289.396999999999930
 50
90.000000000000000
 51
97.897988672427743
  0
LINE
  8
0
  6
CONTINUOUS
 62
3
 10
-240.913548909130780
 20
-147.077681724474300
 11
-237.887371960822860
 21
-146.998438492251470
  0
ARC
  8
0
  6
CONTINUOUS
 62
3
 10
-237.913548909130780
 20
-145.998781167275920
 40
0.999999999999988
 50
271.500000000002730
 51
0.000000000000000
  0
ARC
  8
0
  6
CONTINUOUS
 62
3
 10
-237.913548909130780
 20
-82.947094909119244
 40
1.000000000000000
 50
0.000000000000000
 51
88.499999999997257
  0
LINE
  8
0
  6
CONTINUOUS
 62
3
 10
-236.913548909130780
 20
-145.998781167275920
 11
-236.913548909130780
 21
-82.947094909119244
  0
LINE
  8
0
  6
CONTINUOUS
 62
3
 10
-240.913548909130780
 20
-81.868194351920863
 11
-237.887371960822860
 21
-81.947437584143699
  0
LINE
  8
0
  6
CONTINUOUS
 62
3
 10
-240.913548909130780
 20
-84.480438975930781
 11
-240.913548909130780
 21
-81.868194351920863
  0
LINE
  8
0
  6
CONTINUOUS
 62
3
 10
-240.913548909130780
 20
-144.465437100464380
 11
-240.913548909130780
 21
-147.077681724474300
  0
LINE
  8
0
  6
CONTINUOUS
 62
3
 10
-236.913548909130780
 20
-114.472938038197580
 11
-236.913548909130780
 21
-83.472938038197583
  0
LINE
  8
0
  6
CONTINUOUS
 62
3
 10
-236.913548909130780
 20
-114.472938038197580
 11
-236.913548909130780
 21
-145.472938038197580
  0
ARC
  8
0
  6
CONTINUOUS
 62
3
 10
-231.643448924915330
 20
-72.896612498310162
 40
1.000000000000041
 50
24.000000000003585
 51
113.999999999979760
  0
LINE
  8
0
  6
CONTINUOUS
 62
4
 10
-190.985607879510670
 20
-171.099679973448990
 11
-194.822498801609640
 21
-172.807973874367290
  0
LINE
  8
0
  6
CONTINUOUS
 62
4
 10
-192.327838801661190
 20
-168.084979963228360
 11
-196.164729723759930
 21
-169.793273864146670
  0
LINE
  8
0
  6
CONTINUOUS
 62
3
 10
-195.987346638661510
 20
-169.331175128895270
 11
-196.164729723759930
 21
-169.793273864146670
  0
LINE
  8
0
  6
CONTINUOUS
 62
3
 10
-194.360400066358470
 20
-172.985356959465260
 11
-194.822498801609870
 21
-172.807973874366840
  0
LINE
  8
0
  6
CONTINUOUS
 62
3
 10
-196.164729723759930
 20
-169.793273864146670
 11
-194.822498801609870
 21
-172.807973874366840
  0
LINE
  8
0
  6
CONTINUOUS
 62
3
 10
-189.608828852309560
 20
-164.849321622901300
 11
-186.761672350778670
 21
-171.244139826399590
  0
LINE
  8
0
  6
CONTINUOUS
 62
3
 10
-189.608828852309560
 20
-164.849321622901300
 11
-186.761672350778670
 21
-171.244139826399590
  0
LINE
  8
0
  6
CONTINUOUS
 62
3
 10
-186.761672350778670
 20
-171.244139826399590
 11
-185.867288231102180
 21
-170.845934360635110
  0
LINE
  8
0
  6
CONTINUOUS
 62
3
 10
-189.608828852309560
 20
-164.849321622901300
 11
-188.714444732633070
 21
-164.451116157137050
  0
ARC
  8
0
  6
CONTINUOUS
 62
3
 10
-188.185687406950020
 20
-165.638724555092550
 40
1.299999237060495
 50
40.601531107483851
 51
114.000000683246080
  0
LINE
  8
0
  6
CONTINUOUS
 62
3
 10
-233.854119909978070
 20
-74.815425510476473
 11
-234.278952069724140
 21
-75.816267359091910
  0
LINE
  8
0
  6
CONTINUOUS
 62
3
 10
-233.409206164768080
 20
-75.814718143433822
 11
-233.542548186962110
 21
-76.128852261883196
  0
LINE
  8
0
  6
CONTINUOUS
 62
3
 10
-234.278952069724140
 20
-75.816267359091910
 11
-233.542548186962110
 21
-76.128852261883196
  0
LINE
  8
0
  6
CONTINUOUS
 62
3
 10
-230.729903467272720
 20
-72.489875855234288
 11
-212.037839886323920
 21
-114.472938038197580
  0
ARC
  8
0
  6
CONTINUOUS
 62
3
 10
-226.206987645477400
 20
-75.272731109536664
 40
3.000000000000030
 50
203.999999999999630
 51
260.681876880317470
  0
LINE
  8
0
  6
CONTINUOUS
 62
3
 10
-226.692735535916090
 20
-78.233144760858806
 11
-200.737098442379990
 21
-82.491973913851837
  0
ARC
  8
0
  6
CONTINUOUS
 62
3
 10
-203.165837894571610
 20
-97.294042170462774
 40
15.000000000000393
 50
1.682768801133086
 51
80.681876880324481
  0
ARC
  8
0
  6
CONTINUOUS
 62
3
 10
-787.913548909130780
 20
-114.472938038197810
 40
600.000000000000910
 50
355.284875165908370
 51
1.682768801133149
  0
ARC
  8
0
  6
CONTINUOUS
 62
3
 10
-188.947499916819080
 20
-163.876097396084160
 40
0.999999999999983
 50
175.284875165916760
 51
204.000000000003580
  0
LINE
  8
0
  6
CONTINUOUS
 62
3
 10
-232.050185567990750
 20
-71.983067040667549
 11
-234.608112849390070
 21
-73.121929641279678
  0
LINE
  8
0
  6
CONTINUOUS
 62
3
 10
-232.330387648170360
 20
-78.237784204080583
 11
-234.133758838357040
 21
-79.040696788210710
  0
ARC
  8
0
  6
CONTINUOUS
 62
3
 10
-232.913548909130780
 20
-81.781333161138548
 40
2.999999999999567
 50
113.999999999979760
 51
180.000000000000000
  0
LINE
  8
0
  6
CONTINUOUS
 62
3
 10
-236.913548909130780
 20
-83.472938038197583
 11
-235.913548909130780
 21
-83.472938038197583
  0
ARC
  8
0
  6
CONTINUOUS
 62
3
 10
-230.913548909130780
 20
-155.972938038197580
 40
5.000000000000000
 50
180.000000000000000
 51
270.000000000000000
  0
LINE
  8
0
  6
CONTINUOUS
 62
3
 10
-230.913548909130780
 20
-160.972938038197580
 11
-195.494323877802000
 21
-160.972938038197580
  0
LINE
  8
0
  6
CONTINUOUS
 62
3
 10
-186.332986886270530
 20
-174.665576479695860
 11
-188.890914167670300
 21
-175.804439080307990
  0
ARC
  8
0
  6
CONTINUOUS
 62
3
 10
-186.739723529346860
 20
-173.752031022053250
 40
1.000000000000226
 50
294.000000000027340
 51
23.999999999991683
  0
LINE
  8
0
  6
CONTINUOUS
 62
3
 10
-212.037839886327110
 20
-114.472938038197580
 11
-185.826178071704250
 21
-173.345294378977600
  0
ARC
  8
0
  6
CONTINUOUS
 62
3
 10
-190.118861645432280
 20
-161.245175878076280
 40
0.999999999999856
 50
113.999999999979760
 51
204.000000000003580
  0
ARC
  8
0
  6
CONTINUOUS
 62
3
 10
-191.543535312711700
 20
-158.595572626434720
 40
2.000000000000451
 50
294.000000000027340
 51
355.768661925113970
  0
LINE
  8
0
  6
CONTINUOUS
 62
3
 10
-192.470196626737670
 20
-167.765239053053450
 11
-195.987346638661510
 21
-169.331175128895270
  0
LINE
  8
0
  6
CONTINUOUS
 62
3
 10
-190.843250054434410
 20
-171.419420883623450
 11
-194.360400066358470
 21
-172.985356959465260
  0
LINE
  8
0
  6
CONTINUOUS
 62
3
 10
-236.913548909130780
 20
-145.472938038197580
 11
-235.913548909130780
 21
-145.472938038197580
  0
LINE
  8
0
  6
CONTINUOUS
 62
3
 10
-235.913548909130780
 20
-81.781333161138548
 11
-235.913548909130780
 21
-155.972938038197580
  0
ARC
  8
0
  6
CONTINUOUS
 62
3
 10
-787.913548909130780
 20
-114.472938038197810
 40
600.799999999999950
 50
357.158610984636650
 51
0.587807867706885
  0
ARC
  8
0
  6
CONTINUOUS
 62
3
 10
-188.850949680346160
 20
-144.205785282491490
 40
1.000000000000147
 50
303.952126946381380
 51
357.158610984632960
  0
ARC
  8
0
  6
CONTINUOUS
 62
3
 10
-187.733949655733680
 20
-145.864794307486650
 40
0.999999999999769
 50
123.952126946395960
 51
177.005923909151190
  0
ARC
  8
0
  6
CONTINUOUS
 62
3
 10
-186.963741239580600
 20
-106.705785282491490
 40
0.999999999999967
 50
180.740494943192910
 51
233.794291905968890
  0
ARC
  8
0
  6
CONTINUOUS
 62
3
 10
-188.145113355857010
 20
-108.319588220549630
 40
1.000000000000077
 50
0.587807867721716
 51
53.794291905958382
  0
LINE
  8
0
  6
CONTINUOUS
 62
3
 10
-234.608112849395300
 20
-73.121929641281952
 11
-188.890914167670300
 21
-175.804439080307990
  0
LINE
  8
0
  6
DASHDOT
 62
4
 10
-211.913548909130780
 20
-146.590414258491880
 11
-211.913548909130780
 21
-169.458923434255500
  0
ARC
  8
0
  6
CONTINUOUS
 62
3
 10
-186.396045556785450
 20
-169.658325962679610
 40
1.299999237060559
 50
293.999982013920090
 51
7.398451589679256
  0
ARC
  8
0
  6
CONTINUOUS
 62
3
 10
-194.031941181966770
 20
-170.649845085178240
 40
9.000000000000234
 50
7.398451589678908
 51
40.601531107483503
  0
LINE
  8
0
  6
CONTINUOUS
 62
3
 10
-39.106405324831996
 20
195.027061961802360
 11
-9.106405324832110
 21
195.027061961802360
  0
LINE
  8
0
  6
CONTINUOUS
 62
4
 10
-106.106405324831990
 20
192.527061961802360
 11
13.393594675167890
 21
192.527061961802360
  0
LINE
  8
0
  6
CONTINUOUS
 62
4
 10
-106.106405324831990
 20
191.527061961802360
 11
13.393594675167890
 21
191.527061961802360
  0
LINE
  8
0
  6
CONTINUOUS
 62
4
 10
-106.106405324831990
 20
190.527061961802360
 11
13.393594675167890
 21
190.527061961802360
  0
LINE
  8
0
  6
CONTINUOUS
 62
4
 10
-106.106405324831990
 20
185.842596148578080
 11
10.643594675167890
 21
185.842596148578050
  0
LINE
  8
0
  6
CONTINUOUS
 62
4
 10
-106.106405324831990
 20
180.892848680272320
 11
10.643594675167890
 21
180.892848680272320
  0
LINE
  8
0
  6
CONTINUOUS
 62
4
 10
-106.106405324831990
 20
150.527061961802330
 11
13.393594675167890
 21
150.527061961802330
  0
LINE
  8
0
  6
CONTINUOUS
 62
4
 10
-106.106405324831990
 20
154.900323771303500
 11
13.393594675167890
 21
154.900323771303500
  0
LINE
  8
0
  6
CONTINUOUS
 62
4
 10
-106.106405324831990
 20
156.166561687390730
 11
13.393594675167890
 21
156.166561687390730
  0
LINE
  8
0
  6
CONTINUOUS
 62
4
 10
-106.106405324831990
 20
160.357115418932920
 11
13.393594675167890
 21
160.357115418932920
  0
LINE
  8
0
  6
CONTINUOUS
 62
4
 10
-106.106405324831990
 20
161.718995754282190
 11
13.393594675167890
 21
161.718995754282190
  0
LINE
  8
0
  6
CONTINUOUS
 62
4
 10
-106.106405324831990
 20
165.809496288372060
 11
13.393594675167890
 21
165.809496288372060
  0
LINE
  8
0
  6
CONTINUOUS
 62
4
 10
-106.106405324831990
 20
167.277853678176680
 11
13.393594675167890
 21
167.277853678176680
  0
LINE
  8
0
  6
CONTINUOUS
 62
4
 10
-106.106405324831990
 20
171.241599101976220
 11
13.393594675167890
 21
171.241599101976220
  0
LINE
  8
0
  6
CONTINUOUS
 62
4
 10
-106.106405324831990
 20
172.846247017538270
 11
13.393594675167890
 21
172.846247017538270
  0
LINE
  8
0
  6
CONTINUOUS
 62
4
 10
-106.106405324831990
 20
120.527061961802330
 11
13.393594675167890
 21
120.527061961802330
  0
LINE
  8
0
  6
CONTINUOUS
 62
4
 10
-106.106405324831990
 20
116.153800152301150
 11
13.393594675167890
 21
116.153800152301150
  0
LINE
  8
0
  6
CONTINUOUS
 62
4
 10
-106.106405324831990
 20
114.887562236213930
 11
13.393594675167890
 21
114.887562236213930
  0
LINE
  8
0
  6
CONTINUOUS
 62
4
 10
-106.106405324831990
 20
110.697008504671740
 11
13.393594675167890
 21
110.697008504671740
  0
LINE
  8
0
  6
CONTINUOUS
 62
4
 10
-106.106405324831990
 20
109.335128169322470
 11
13.393594675167890
 21
109.335128169322470
  0
LINE
  8
0
  6
CONTINUOUS
 62
4
 10
-106.106405324831990
 20
105.244627635232600
 11
13.393594675167890
 21
105.244627635232600
  0
LINE
  8
0
  6
CONTINUOUS
 62
4
 10
-106.106405324831990
 20
103.776270245427980
 11
13.393594675167890
 21
103.776270245427980
  0
LINE
  8
0
  6
CONTINUOUS
 62
4
 10
-106.106405324831990
 20
99.812524821628443
 11
13.393594675167890
 21
99.812524821628443
  0
LINE
  8
0
  6
CONTINUOUS
 62
4
 10
-106.106405324831990
 20
98.207876906066389
 11
13.393594675167890
 21
98.207876906066375
  0
LINE
  8
0
  6
CONTINUOUS
 62
4
 10
-106.106405324831990
 20
90.161275243332369
 11
10.643594675167890
 21
90.161275243332369
  0
LINE
  8
0
  6
CONTINUOUS
 62
4
 10
-106.106405324831990
 20
85.211527775026610
 11
10.643594675167890
 21
85.211527775026610
  0
LINE
  8
0
  6
CONTINUOUS
 62
4
 10
-106.106405324831990
 20
80.527061961802332
 11
13.393594675167890
 21
80.527061961802332
  0
LINE
  8
0
  6
CONTINUOUS
 62
4
 10
-106.106405324831990
 20
79.527061961802332
 11
13.393594675167890
 21
79.527061961802332
  0
LINE
  8
0
  6
CONTINUOUS
 62
4
 10
-106.106405324831990
 20
78.527061961802332
 11
13.393594675167890
 21
78.527061961802332
  0
LINE
  8
0
  6
CONTINUOUS
 62
3
 10
-106.238613804040190
 20
76.027061961802332
 11
-9.106405324832110
 21
76.027061961802332
  0
LINE
  8
0
  6
CONTINUOUS
 62
3
 10
-106.106405324831990
 20
195.027061961802130
 11
-9.106405324832110
 21
195.027061961802130
  0
ARC
  8
0
  6
CONTINUOUS
 62
3
 10
-113.106405324831880
 20
70.907841044929540
 40
3.000000000000000
 50
90.000000000000000
 51
180.000000000000000
  0
ARC
  8
0
  6
CONTINUOUS
 62
3
 10
-109.106405324831990
 20
76.907841044929540
 40
3.000000000000000
 50
270.000000000000000
 51
0.000000000000000
  0
LINE
  8
0
  6
CONTINUOUS
 62
3
 10
-116.106405324831880
 20
70.527061961802332
 11
-116.106405324831880
 21
70.907841044929540
  0
LINE
  8
0
  6
CONTINUOUS
 62
3
 10
-113.106405324831880
 20
73.907841044929540
 11
-109.106405324831990
 21
73.907841044929540
  0
ARC
  8
0
  6
CONTINUOUS
 62
3
 10
-134.800429547252350
 20
90.527061961802332
 40
20.000000000000007
 50
234.999999999999740
 51
270.000000000000000
  0
LINE
  8
0
  6
CONTINUOUS
 62
3
 10
-116.106405324831880
 20
70.527061961802332
 11
-134.800429547252350
 21
70.527061961802332
  0
ARC
  8
0
  6
CONTINUOUS
 62
3
 10
-154.506405324781720
 20
83.083856904556882
 40
2.600000000000136
 50
180.000000000000000
 51
234.999999999998610
  0
LINE
  8
0
  6
CONTINUOUS
 62
3
 10
-146.271958274273350
 20
74.144021076022540
 11
-155.997704059294340
 21
80.954061589405768
  0
LINE
  8
0
  6
CONTINUOUS
 62
3
 10
-157.106405324781860
 20
135.527061961802330
 11
-157.106405324781860
 21
83.083856904556882
  0
LINE
  8
0
  6
CONTINUOUS
 62
3
 10
-9.106405324832110
 20
76.027061961802332
 11
-9.106405324832110
 21
135.527061961802330
  0
LINE
  8
0
  6
CONTINUOUS
 62
3
 10
-106.106405324831990
 20
135.527061961802330
 11
-106.106405324831990
 21
76.907841044929540
  0
ARC
  8
0
  6
CONTINUOUS
 62
3
 10
-154.506405324781720
 20
187.970267019047810
 40
2.599999999999721
 50
125.000000000001370
 51
180.000000000000000
  0
LINE
  8
0
  6
CONTINUOUS
 62
3
 10
-146.271958274273350
 20
196.910102847582150
 11
-155.997704059294340
 21
190.100062334198920
  0
ARC
  8
0
  6
CONTINUOUS
 62
3
 10
-134.800429547252350
 20
180.527061961802360
 40
20.000000000000000
 50
90.000000000000000
 51
125.000000000000240
  0
LINE
  8
0
  6
CONTINUOUS
 62
3
 10
-157.106405324781860
 20
135.527061961802330
 11
-157.106405324781860
 21
187.970267019047810
  0
LINE
  8
0
  6
CONTINUOUS
 62
3
 10
-106.106405324831990
 20
200.527061961802360
 11
-134.800429547252350
 21
200.527061961802360
  0
LINE
  8
0
  6
CONTINUOUS
 62
3
 10
-9.106405324832110
 20
195.027061961802130
 11
-9.106405324832110
 21
135.527061961802330
  0
LINE
  8
0
  6
CONTINUOUS
 62
3
 10
-106.106405324831990
 20
135.527061961802330
 11
-106.106405324831990
 21
200.527061961802360
  0
LINE
  8
0
  6
CONTINUOUS
 62
3
 10
-117.106405324831420
 20
189.267177062239970
 11
-119.106405324831420
 21
187.614535423116540
  0
LINE
  8
0
  6
CONTINUOUS
 62
3
 10
-115.106405324831420
 20
190.442962547862750
 11
-117.106405324831420
 21
189.267177062239970
  0
LINE
  8
0
  6
CONTINUOUS
 62
3
 10
-117.106405324831420
 20
189.267177062239970
 11
-115.106405324831420
 21
187.614535423116540
  0
LINE
  8
0
  6
CONTINUOUS
 62
3
 10
-119.106405324831420
 20
190.442962547862750
 11
-117.106405324831420
 21
189.267177062239970
  0
POLYLINE
  8
0
  6
CONTINUOUS
 62
3
 66
1
 70
1
  0
VERTEX
  8
0
  6
CONTINUOUS
 62
3
 10
-112.406405324831430
 20
187.450586993862430
  0
VERTEX
  8
0
  6
CONTINUOUS
 62
3
 10
-112.496714506936250
 20
188.153543960062790
  0
VERTEX
  8
0
  6
CONTINUOUS
 62
3
 10
-112.764171522028390
 20
188.829486684274880
  0
VERTEX
  8
0
  6
CONTINUOUS
 62
3
 10
-113.198498147009470
 20
189.452439066680280
  0
VERTEX
  8
0
  6
CONTINUOUS
 62
3
 10
-113.783003453254660
 20
189.998461396578880
  0
VERTEX
  8
0
  6
CONTINUOUS
 62
3
 10
-114.495225229639300
 20
190.446570342045500
  0
VERTEX
  8
0
  6
CONTINUOUS
 62
3
 10
-115.307793192715500
 20
190.779545327608250
  0
VERTEX
  8
0
  6
CONTINUOUS
 62
3
 10
-116.189480811355620
 20
190.984590311306500
  0
VERTEX
  8
0
  6
CONTINUOUS
 62
3
 10
-117.106405324831420
 20
191.053825529407280
  0
VERTEX
  8
0
  6
CONTINUOUS
 62
3
 10
-118.023329838307230
 20
190.984590311306500
  0
VERTEX
  8
0
  6
CONTINUOUS
 62
3
 10
-118.905017456947340
 20
190.779545327608250
  0
VERTEX
  8
0
  6
CONTINUOUS
 62
3
 10
-119.717585420023550
 20
190.446570342045500
  0
VERTEX
  8
0
  6
CONTINUOUS
 62
3
 10
-120.429807196408190
 20
189.998461396578880
  0
VERTEX
  8
0
  6
CONTINUOUS
 62
3
 10
-121.014312502653380
 20
189.452439066680280
  0
VERTEX
  8
0
  6
CONTINUOUS
 62
3
 10
-121.448639127634460
 20
188.829486684274880
  0
VERTEX
  8
0
  6
CONTINUOUS
 62
3
 10
-121.716096142726590
 20
188.153543960062790
  0
VERTEX
  8
0
  6
CONTINUOUS
 62
3
 10
-121.806405324831410
 20
187.450586993862430
  0
VERTEX
  8
0
  6
CONTINUOUS
 62
3
 10
-121.716096142726590
 20
186.747630027662070
  0
VERTEX
  8
0
  6
CONTINUOUS
 62
3
 10
-121.448639127634460
 20
186.071687303449980
  0
VERTEX
  8
0
  6
CONTINUOUS
 62
3
 10
-121.014312502653380
 20
185.448734921044580
  0
VERTEX
  8
0
  6
CONTINUOUS
 62
3
 10
-120.429807196408190
 20
184.902712591145980
  0
VERTEX
  8
0
  6
CONTINUOUS
 62
3
 10
-119.717585420023550
 20
184.454603645679360
  0
VERTEX
  8
0
  6
CONTINUOUS
 62
3
 10
-118.905017456947340
 20
184.121628660116610
  0
VERTEX
  8
0
  6
CONTINUOUS
 62
3
 10
-118.023329838307230
 20
183.916583676418360
  0
VERTEX
  8
0
  6
CONTINUOUS
 62
3
 10
-117.106405324831420
 20
183.847348458317580
  0
VERTEX
  8
0
  6
CONTINUOUS
 62
3
 10
-116.189480811355620
 20
183.916583676418360
  0
VERTEX
  8
0
  6
CONTINUOUS
 62
3
 10
-115.307793192715500
 20
184.121628660116610
  0
VERTEX
  8
0
  6
CONTINUOUS
 62
3
 10
-114.495225229639300
 20
184.454603645679360
  0
VERTEX
  8
0
  6
CONTINUOUS
 62
3
 10
-113.783003453254660
 20
184.902712591145980
  0
VERTEX
  8
0
  6
CONTINUOUS
 62
3
 10
-113.198498147009470
 20
185.448734921044580
  0
VERTEX
  8
0
  6
CONTINUOUS
 62
3
 10
-112.764171522028390
 20
186.071687303449980
  0
VERTEX
  8
0
  6
CONTINUOUS
 62
3
 10
-112.496714506936250
 20
186.747630027662070
  0
SEQEND
  8
0
  6
CONTINUOUS
 62
3
  0
LINE
  8
0
  6
CONTINUOUS
 62
3
 10
-117.106405324831420
 20
81.786946861364498
 11
-119.106405324831420
 21
83.439588500487929
  0
LINE
  8
0
  6
CONTINUOUS
 62
3
 10
-115.106405324831420
 20
80.611161375742171
 11
-117.106405324831420
 21
81.786946861364498
  0
LINE
  8
0
  6
CONTINUOUS
 62
3
 10
-117.106405324831420
 20
81.786946861364498
 11
-115.106405324831420
 21
83.439588500487929
  0
LINE
  8
0
  6
CONTINUOUS
 62
3
 10
-119.106405324831420
 20
80.611161375742171
 11
-117.106405324831420
 21
81.786946861364498
  0
POLYLINE
  8
0
  6
CONTINUOUS
 62
3
 66
1
 70
1
  0
VERTEX
  8
0
  6
CONTINUOUS
 62
3
 10
-112.406405324831430
 20
83.603536929742489
  0
VERTEX
  8
0
  6
CONTINUOUS
 62
3
 10
-112.496714506936250
 20
84.306493895942850
  0
VERTEX
  8
0
  6
CONTINUOUS
 62
3
 10
-112.764171522028390
 20
84.982436620154942
  0
VERTEX
  8
0
  6
CONTINUOUS
 62
3
 10
-113.198498147009470
 20
85.605389002560344
  0
VERTEX
  8
0
  6
CONTINUOUS
 62
3
 10
-113.783003453254660
 20
86.151411332458920
  0
VERTEX
  8
0
  6
CONTINUOUS
 62
3
 10
-114.495225229639300
 20
86.599520277925535
  0
VERTEX
  8
0
  6
CONTINUOUS
 62
3
 10
-115.307793192715500
 20
86.932495263488306
  0
VERTEX
  8
0
  6
CONTINUOUS
 62
3
 10
-116.189480811355620
 20
87.137540247186550
  0
VERTEX
  8
0
  6
CONTINUOUS
 62
3
 10
-117.106405324831420
 20
87.206775465287322
  0
VERTEX
  8
0
  6
CONTINUOUS
 62
3
 10
-118.023329838307230
 20
87.137540247186550
  0
VERTEX
  8
0
  6
CONTINUOUS
 62
3
 10
-118.905017456947340
 20
86.932495263488306
  0
VERTEX
  8
0
  6
CONTINUOUS
 62
3
 10
-119.717585420023550
 20
86.599520277925535
  0
VERTEX
  8
0
  6
CONTINUOUS
 62
3
 10
-120.429807196408190
 20
86.151411332458920
  0
VERTEX
  8
0
  6
CONTINUOUS
 62
3
 10
-121.014312502653380
 20
85.605389002560344
  0
VERTEX
  8
0
  6
CONTINUOUS
 62
3
 10
-121.448639127634460
 20
84.982436620154942
  0
VERTEX
  8
0
  6
CONTINUOUS
 62
3
 10
-121.716096142726590
 20
84.306493895942850
  0
VERTEX
  8
0
  6
CONTINUOUS
 62
3
 10
-121.806405324831410
 20
83.603536929742489
  0
VERTEX
  8
0
  6
CONTINUOUS
 62
3
 10
-121.716096142726590
 20
82.900579963542128
  0
VERTEX
  8
0
  6
CONTINUOUS
 62
3
 10
-121.448639127634460
 20
82.224637239330036
  0
VERTEX
  8
0
  6
CONTINUOUS
 62
3
 10
-121.014312502653380
 20
81.601684856924635
  0
VERTEX
  8
0
  6
CONTINUOUS
 62
3
 10
-120.429807196408190
 20
81.055662527026058
  0
VERTEX
  8
0
  6
CONTINUOUS
 62
3
 10
-119.717585420023550
 20
80.607553581559444
  0
VERTEX
  8
0
  6
CONTINUOUS
 62
3
 10
-118.905017456947340
 20
80.274578595996672
  0
VERTEX
  8
0
  6
CONTINUOUS
 62
3
 10
-118.023329838307230
 20
80.069533612298429
  0
VERTEX
  8
0
  6
CONTINUOUS
 62
3
 10
-117.106405324831420
 20
80.000298394197657
  0
VERTEX
  8
0
  6
CONTINUOUS
 62
3
 10
-116.189480811355620
 20
80.069533612298429
  0
VERTEX
  8
0
  6
CONTINUOUS
 62
3
 10
-115.307793192715500
 20
80.274578595996672
  0
VERTEX
  8
0
  6
CONTINUOUS
 62
3
 10
-114.495225229639300
 20
80.607553581559444
  0
VERTEX
  8
0
  6
CONTINUOUS
 62
3
 10
-113.783003453254660
 20
81.055662527026058
  0
VERTEX
  8
0
  6
CONTINUOUS
 62
3
 10
-113.198498147009470
 20
81.601684856924635
  0
VERTEX
  8
0
  6
CONTINUOUS
 62
3
 10
-112.764171522028390
 20
82.224637239330036
  0
VERTEX
  8
0
  6
CONTINUOUS
 62
3
 10
-112.496714506936250
 20
82.900579963542128
  0
SEQEND
  8
0
  6
CONTINUOUS
 62
3
  0
LINE
  8
0
  6
CONTINUOUS
 62
3
 10
-106.769169769636220
 20
75.027061961802332
 11
-43.356405324832110
 21
75.027061961802332
  0
LINE
  8
0
  6
CONTINUOUS
 62
3
 10
-43.356405324832110
 20
75.027061961802332
 11
-43.356405324832110
 21
76.027061961802332
  0
LINE
  8
0
  6
CONTINUOUS
 62
3
 10
-112.606405324832110
 20
68.027061961802332
 11
-112.606405324832110
 21
73.865880936479385
  0
LINE
  8
0
  6
CONTINUOUS
 62
3
 10
-47.606405324831996
 20
68.027061961802332
 11
-47.606405324832110
 21
75.027061961802332
  0
LINE
  8
0
  6
CONTINUOUS
 62
3
 10
-112.606405324832110
 20
68.027061961802332
 11
-47.606405324831996
 21
68.027061961802332
  0
LINE
  8
0
  6
CONTINUOUS
 62
3
 10
-108.269081090012090
 20
74.027061961802332
 11
-47.606405324831996
 21
74.027061961802332
  0
LINE
  8
0
  6
CONTINUOUS
 62
3
 10
-112.606405324832110
 20
72.027061961802332
 11
-47.606405324831996
 21
72.027061961802332
  0
LINE
  8
0
  6
DASHDOT
 62
4
 10
-80.106405324832110
 20
73.860775297955087
 11
-80.106405324832110
 21
11.798361781318903
  0
LINE
  8
0
  6
CONTINUOUS
 62
3
 10
-115.556405324831010
 20
16.853236582018411
 11
-83.163661530728348
 21
16.853236582018411
  0
LINE
  8
0
  6
CONTINUOUS
 62
3
 10
-115.556405324831010
 20
65.721625902066734
 11
-44.656405324833315
 21
65.721625902066620
  0
LINE
  8
0
  6
CONTINUOUS
 62
3
 10
-115.556405324831010
 20
62.250153163019917
 11
-44.656405324833315
 21
62.250153163019917
  0
LINE
  8
0
  6
CONTINUOUS
 62
3
 10
-33.656405324833315
 20
54.721625902066620
 11
-33.656405324833315
 21
27.853236582018411
  0
LINE
  8
0
  6
CONTINUOUS
 62
3
 10
-126.556405324831010
 20
54.721625902066847
 11
-126.556405324831010
 21
27.853236582018411
  0
LINE
  8
0
  6
CONTINUOUS
 62
3
 10
-40.056405324832951
 20
24.827061961802286
 11
-40.056405324832951
 21
54.402996661489027
  0
LINE
  8
0
  6
CONTINUOUS
 62
3
 10
-120.156405324831380
 20
24.827061961802286
 11
-120.156405324831380
 21
54.402996661489254
  0
LINE
  8
0
  6
CONTINUOUS
 62
3
 10
-115.156405324831380
 20
59.402996661489141
 11
-45.056405324832951
 21
59.402996661489027
  0
ARC
  8
0
  6
CONTINUOUS
 62
3
 10
-45.056405324832951
 20
54.402996661489027
 40
5.000000000000000
 50
0.000000000000000
 51
90.000000000000000
  0
ARC
  8
0
  6
CONTINUOUS
 62
3
 10
-115.156405324831380
 20
54.402996661489254
 40
4.999999999999886
 50
90.000000000000000
 51
180.000000000000000
  0
ARC
  8
0
  6
CONTINUOUS
 62
3
 10
-44.656405324833315
 20
27.853236582018411
 40
11.000000000000000
 50
270.000000000000000
 51
0.000000000000000
  0
ARC
  8
0
  6
CONTINUOUS
 62
3
 10
-115.556405324831010
 20
27.853236582018411
 40
11.000000000000000
 50
180.000000000000000
 51
270.000000000000000
  0
LINE
  8
0
  6
CONTINUOUS
 62
3
 10
-114.356405324831650
 20
19.027061961802332
 11
-45.856405324832906
 21
19.027061961802332
  0
ARC
  8
0
  6
CONTINUOUS
 62
3
 10
-45.856405324832906
 20
24.827061961802286
 40
5.799999999999955
 50
270.000000000000000
 51
0.000000000000000
  0
ARC
  8
0
  6
CONTINUOUS
 62
3
 10
-114.356405324831650
 20
24.827061961802286
 40
5.799999999999727
 50
180.000000000000000
 51
270.000000000000000
  0
ARC
  8
0
  6
CONTINUOUS
 62
3
 10
-44.656405324833315
 20
51.250153163019917
 40
11.000000000000000
 50
0.000000000000000
 51
90.000000000000000
  0
ARC
  8
0
  6
CONTINUOUS
 62
3
 10
-44.656405324833315
 20
54.721625902066620
 40
11.000000000000000
 50
0.000000000000000
 51
90.000000000000000
  0
ARC
  8
0
  6
CONTINUOUS
 62
3
 10
-115.556405324831010
 20
51.250153163019917
 40
11.000000000000000
 50
90.000000000000000
 51
180.000000000000000
  0
ARC
  8
0
  6
CONTINUOUS
 62
3
 10
-115.556405324831010
 20
54.721625902066847
 40
10.999999999999886
 50
90.000000000000000
 51
180.000000000000000
  0
LINE
  8
0
  6
CONTINUOUS
 62
3
 10
-101.157040419442350
 20
18.227061961802377
 11
-59.455770230221958
 21
18.227061961802377
  0
ARC
  8
0
  6
CONTINUOUS
 62
3
 10
-59.455770230221958
 20
19.227061961802377
 40
1.000000000000000
 50
270.000000000000000
 51
323.130102354140380
  0
ARC
  8
0
  6
CONTINUOUS
 62
3
 10
-57.855770230222049
 20
18.027061961802332
 40
1.000000000000000
 50
90.000000000000000
 51
143.130102354166380
  0
ARC
  8
0
  6
CONTINUOUS
 62
3
 10
-102.757040419442260
 20
18.027061961802332
 40
0.999999999999727
 50
36.869897645849235
 51
90.000000000000000
  0
ARC
  8
0
  6
CONTINUOUS
 62
3
 10
-101.157040419442350
 20
19.227061961802377
 40
1.000000000000227
 50
216.869897645844020
 51
270.000000000000000
  0
LINE
  8
0
  6
CONTINUOUS
 62
3
 10
-113.906405324832290
 20
67.027061961802332
 11
-46.306405324832269
 21
67.027061961802218
  0
ARC
  8
0
  6
CONTINUOUS
 62
3
 10
-46.306405324832269
 20
62.027061961802218
 40
5.000000000000008
 50
44.925956400534659
 51
90.000000000000000
  0
ARC
  8
0
  6
CONTINUOUS
 62
3
 10
-113.906405324832290
 20
62.027061961802332
 40
5.000000000000000
 50
90.000000000000000
 51
135.074043599465310
  0
LINE
  8
0
  6
CONTINUOUS
 62
3
 10
-49.106405324832224
 20
68.027061961802218
 11
-49.106405324832224
 21
67.027061961802218
  0
LINE
  8
0
  6
CONTINUOUS
 62
3
 10
-111.106405324832110
 20
68.027061961802332
 11
-111.106405324832110
 21
67.027061961802332
  0
LINE
  8
0
  6
DASHDOT
 62
4
 10
-102.930036956143960
 20
43.027061961802332
 11
-58.642318917745513
 21
43.027061961802332
  0
CIRCLE
  8
0
  6
DASHED
 62
4
 10
-80.106405324832110
 20
43.027061961802104
 40
13.500000000000000
  0
ARC
  8
0
  6
CONTINUOUS
 62
3
 10
-82.306406087771563
 20
17.830534449548480
 40
1.299999237060699
 50
162.240552086452960
 51
253.398468892505180
  0
ARC
  8
0
  6
CONTINUOUS
 62
3
 10
-80.106405324832110
 20
25.209559372396228
 40
8.999999999999858
 50
253.398468892518050
 51
286.601548410325050
  0
ARC
  8
0
  6
CONTINUOUS
 62
3
 10
-77.906404561892657
 20
17.830534449548480
 40
1.299999237060351
 50
286.601548410324710
 51
17.759447913550098
  0
LINE
  8
0
  6
CONTINUOUS
 62
3
 10
-77.049149118936100
 20
16.853236582018411
 11
-44.656405324833315
 21
16.853236582018411
  0
TEXT
  8
0
  6
CONTINUOUS
 62
3
 10
-369.911315917968750
 20
150.413879394531250
 40
13.600000381469727
  1
Ｄ０５９
 50
0.000002504478167
 41
0.833333333333333
  7
STANDARD1
  0
TEXT
  8
0
  6
CONTINUOUS
 62
3
 10
-369.911315917968750
 20
132.393875122070310
 40
13.600000381469727
  1
三菱ギヤードモートル
 50
0.000002504478167
 41
0.833333333333333
  7
STANDARD1
  0
TEXT
  8
0
  6
CONTINUOUS
 62
3
 10
-369.911315917968750
 20
114.373870849609370
 40
13.600000381469727
  1
ＧＭ－ＤＦ
 50
0.000002504478167
 41
0.833333333333333
  7
STANDARD1
  0
TEXT
  8
0
  6
CONTINUOUS
 62
3
 10
-369.911315917968750
 20
96.353866577148438
 40
13.600000381469727
  1
０．４（kＷ）
 50
0.000002504478167
 41
0.804878051688032
  7
STANDARD1
  0
TEXT
  8
0
  6
CONTINUOUS
 62
3
 10
-369.911315917968750
 20
78.333869934082031
 40
13.600000381469727
  1
１／３～１／５０
 50
0.000002504478167
 41
0.833333333333333
  7
STANDARD1
  0
TEXT
  8
0
  6
CONTINUOUS
 62
3
 10
-369.911315917968750
 20
60.313869476318359
 40
13.600000381469727
  1
ＳＣＡＬＥ　１／１
 50
0.000002504478167
 41
0.833333333333333
  7
STANDARD1
  0
LINE
  8
0
  6
CONTINUOUS
 62
3
 10
10.643594675167833
 20
-192.972938038197580
 11
10.643594675167833
 21
-182.972938038197580
  0
LINE
  8
0
  6
CONTINUOUS
 62
3
 10
13.393594675167833
 20
-182.972938038197580
 11
10.643594675167833
 21
-182.972938038197580
  0
LINE
  8
0
  6
CONTINUOUS
 62
3
 10
16.777569271383413
 20
-192.972938038197580
 11
10.643594675167833
 21
-192.972938038197580
  0
LINE
  8
0
  6
CONTINUOUS
 62
3
 10
12.860771784789335
 20
-55.472938038197469
 11
10.643594675167833
 21
-55.472938038197469
  0
INSERT
  8
0
  2
SYM1
 10
16.643594675167378
 20
-108.972938038197460
  0
LINE
  8
0
  6
CONTINUOUS
 62
3
 10
10.643594675167833
 20
-55.472938038197469
 11
10.643594675167833
 21
-45.472938038197469
  0
LINE
  8
0
  6
CONTINUOUS
 62
3
 10
16.643594675167833
 20
-45.472938038197469
 11
10.643594675167833
 21
-45.472938038197469
  0
ARC
  8
0
  6
CONTINUOUS
 62
3
 10
328.656665544248880
 20
-52.260935958478825
 40
3.000000000000017
 50
53.625515111983994
 51
134.999759915014640
  0
ARC
  8
0
  6
CONTINUOUS
 62
3
 10
351.670692495182380
 20
-88.973243947346077
 40
3.000000000000005
 50
269.999759915016680
 51
10.539624083275873
  0
ARC
  8
0
  6
CONTINUOUS
 62
3
 10
293.666102517447140
 20
-99.765256804770431
 40
62.000000000000007
 50
10.539624083276292
 51
53.625515111984811
  0
LINE
  8
0
  6
CONTINUOUS
 62
4
 10
-9.106405324832167
 20
-56.972938038197583
 11
13.393594675167833
 21
-56.972938038197583
  0
LINE
  8
0
  6
CONTINUOUS
 62
4
 10
-9.106405324832167
 20
-57.472938038197583
 11
13.393594675167833
 21
-57.472938038197583
  0
LINE
  8
0
  6
CONTINUOUS
 62
4
 10
-9.106405324832167
 20
-58.472938038197583
 11
13.393594675167833
 21
-58.472938038197583
  0
LINE
  8
0
  6
CONTINUOUS
 62
4
 10
-9.106405324832167
 20
-59.472938038197583
 11
13.393594675167833
 21
-59.472938038197583
  0
LINE
  8
0
  6
CONTINUOUS
 62
4
 10
-9.106405324832167
 20
-64.157403851422089
 11
13.393594675167833
 21
-64.157403851422089
  0
LINE
  8
0
  6
CONTINUOUS
 62
4
 10
-9.106405324832167
 20
-69.107151319727848
 11
13.393594675167833
 21
-69.107151319727848
  0
LINE
  8
0
  6
CONTINUOUS
 62
4
 10
-9.106405324832167
 20
-77.153752982461640
 11
13.393594675167833
 21
-77.153752982461640
  0
LINE
  8
0
  6
CONTINUOUS
 62
4
 10
-9.106405324832167
 20
-78.758400898023694
 11
13.393594675167833
 21
-78.758400898023694
  0
LINE
  8
0
  6
CONTINUOUS
 62
4
 10
-9.106405324832167
 20
-84.190503711628310
 11
12.481004259409847
 21
-84.190503711628310
  0
LINE
  8
0
  6
CONTINUOUS
 62
4
 10
-9.106405324832167
 20
-89.642884581067221
 11
12.393594675167833
 21
-89.642884581067221
  0
LINE
  8
0
  6
CONTINUOUS
 62
4
 10
-9.106405324832167
 20
-88.281004245717952
 11
12.393594675167833
 21
-88.281004245717952
  0
LINE
  8
0
  6
CONTINUOUS
 62
4
 10
-9.106405324832167
 20
-94.472938038197583
 11
12.393594675167833
 21
-94.472938038197597
  0
LINE
  8
0
  6
CONTINUOUS
 62
4
 10
-9.106405324832167
 20
-134.472938038197580
 11
13.393594675167833
 21
-134.472938038197580
  0
LINE
  8
0
  6
CONTINUOUS
 62
4
 10
-9.106405324832167
 20
-139.302991495327940
 11
13.393594675167833
 21
-139.302991495327920
  0
LINE
  8
0
  6
CONTINUOUS
 62
4
 10
-9.106405324832167
 20
-140.664871830677210
 11
13.393594675167833
 21
-140.664871830677210
  0
LINE
  8
0
  6
CONTINUOUS
 62
4
 10
-9.106405324832167
 20
-144.755372364766860
 11
13.393594675167833
 21
-144.755372364766860
  0
LINE
  8
0
  6
CONTINUOUS
 62
4
 10
-9.106405324832167
 20
-146.223729754571930
 11
13.393594675167833
 21
-146.223729754571930
  0
LINE
  8
0
  6
CONTINUOUS
 62
4
 10
-9.106405324832167
 20
-150.187475178371470
 11
13.393594675167833
 21
-150.187475178371470
  0
LINE
  8
0
  6
CONTINUOUS
 62
4
 10
-9.106405324832167
 20
-151.792123093933530
 11
13.393594675167833
 21
-151.792123093933530
  0
LINE
  8
0
  6
CONTINUOUS
 62
4
 10
-9.106405324832167
 20
-159.838724756667320
 11
13.393594675167833
 21
-159.838724756667320
  0
LINE
  8
0
  6
CONTINUOUS
 62
4
 10
-9.106405324832167
 20
-164.788472224973080
 11
13.393594675167833
 21
-164.788472224973080
  0
LINE
  8
0
  6
CONTINUOUS
 62
4
 10
-9.106405324832167
 20
-169.472938038197580
 11
13.393594675167833
 21
-169.472938038197580
  0
ARC
  8
0
  6
CONTINUOUS
 62
3
 10
16.243594675168197
 20
-40.483287165690683
 40
0.399999999999636
 50
0.000000000000000
 51
90.000000000000000
  0
ARC
  8
0
  6
CONTINUOUS
 62
3
 10
14.393594675167833
 20
-49.213921510834382
 40
1.000000000000000
 50
90.000000000000000
 51
180.000000000000000
  0
LINE
  8
0
  6
CONTINUOUS
 62
3
 10
12.860771784789677
 20
-55.472938038197583
 11
10.643594675167833
 21
-55.472938038197583
  0
ARC
  8
0
  6
CONTINUOUS
 62
3
 10
17.643594675167833
 20
-192.472938038197580
 40
1.000000000000000
 50
180.000000000000000
 51
270.000000000000000
  0
LINE
  8
0
  6
CONTINUOUS
 62
3
 10
22.393594675167833
 20
-34.472938038197583
 11
22.393594675167833
 21
-94.472938038197583
  0
ARC
  8
0
  6
CONTINUOUS
 62
3
 10
12.393594675167833
 20
-54.588774281732924
 40
0.999999999999551
 50
270.999999999976180
 51
0.000000000000000
  0
LINE
  8
0
  6
CONTINUOUS
 62
3
 10
22.893594675167833
 20
-34.472938038197583
 11
14.393594675167833
 21
-34.472938038197583
  0
ARC
  8
0
  6
CONTINUOUS
 62
3
 10
16.243594675168197
 20
-103.122938038197210
 40
0.399999999999636
 50
0.000000000000000
 51
90.000000000000000
  0
ARC
  8
0
  6
CONTINUOUS
 62
3
 10
16.243594675168197
 20
-114.822938038197030
 40
0.400000000000546
 50
270.000000000000000
 51
0.000000000000000
  0
ARC
  8
0
  6
CONTINUOUS
 62
3
 10
12.893594675167833
 20
-84.472938038197583
 40
0.500000000000000
 50
90.000000000000000
 51
180.000000000000000
  0
ARC
  8
0
  6
CONTINUOUS
 62
3
 10
12.893594675167833
 20
-83.472938038197583
 40
0.500000000000000
 50
270.000000000000000
 51
0.000000000000000
  0
LINE
  8
0
  6
CONTINUOUS
 62
3
 10
95.393594675167833
 20
-106.072938038197940
 11
94.993594675168197
 21
-106.472938038197580
  0
LINE
  8
0
  6
CONTINUOUS
 62
3
 10
93.393594675167833
 20
-106.472938038197580
 11
94.993594675168197
 21
-106.472938038197580
  0
LINE
  8
0
  6
DASHDOT
 62
4
 10
141.277104843597040
 20
-94.472938038197583
 11
66.443559161432404
 21
-94.472938038197583
  0
LINE
  8
0
  6
CONTINUOUS
 62
3
 10
72.893594675167833
 20
-4.472938038197583
 11
72.893594675167833
 21
-3.972938038197583
  0
ARC
  8
0
  6
CONTINUOUS
 62
3
 10
88.393594675167833
 20
-66.681437149651003
 40
3.000000000000000
 50
0.000000000000000
 51
72.718501628185663
  0
ARC
  8
0
  6
CONTINUOUS
 62
3
 10
88.393594675167833
 20
-122.264438926745070
 40
2.999999999999842
 50
287.281498371819450
 51
0.000000000000000
  0
LINE
  8
0
  6
CONTINUOUS
 62
3
 10
84.393594675167833
 20
-186.972938038197580
 11
84.893594675167833
 21
-186.472938038197580
  0
LINE
  8
0
  6
CONTINUOUS
 62
3
 10
22.893594675167833
 20
-40.472938038197583
 11
22.893594675167833
 21
-34.472938038197583
  0
LINE
  8
0
  6
CONTINUOUS
 62
3
 10
87.493594675167742
 20
-179.472938038197580
 11
84.893594675167833
 21
-179.472938038197580
  0
LINE
  8
0
  6
CONTINUOUS
 62
3
 10
87.893594675167833
 20
-179.072938038197950
 11
87.493594675167742
 21
-179.472938038197580
  0
LINE
  8
0
  6
CONTINUOUS
 62
3
 10
87.493594675167742
 20
-9.472938038197583
 11
87.893594675167833
 21
-9.872938038197219
  0
ARC
  8
0
  6
CONTINUOUS
 62
3
 10
74.893594675167833
 20
-184.972938038197580
 40
2.000000000000000
 50
180.000000000000000
 51
270.000000000000000
  0
LINE
  8
0
  6
CONTINUOUS
 62
3
 10
87.893594675167833
 20
-94.472938038197583
 11
87.893594675167833
 21
-179.072938038197950
  0
LINE
  8
0
  6
CONTINUOUS
 62
3
 10
87.893594675167606
 20
-94.472938038197583
 11
87.893594675167833
 21
-9.872938038197219
  0
LINE
  8
0
  6
CONTINUOUS
 62
3
 10
91.393594675167833
 20
-94.472938038197583
 11
91.393594675167833
 21
-66.681437149651003
  0
LINE
  8
0
  6
CONTINUOUS
 62
3
 10
91.393594675167833
 20
-94.472938038197583
 11
91.393594675167833
 21
-122.236291271753370
  0
LINE
  8
0
  6
CONTINUOUS
 62
3
 10
89.284794333076661
 20
-63.816866820657935
 11
87.893594675167606
 21
-63.384049149309078
  0
LINE
  8
0
  6
CONTINUOUS
 62
3
 10
89.284794333076661
 20
-125.129009255737230
 11
87.893594675167833
 21
-125.561826927086990
  0
ARC
  8
0
  6
CONTINUOUS
 62
3
 10
79.893594675167833
 20
-87.472938038197583
 40
2.000000000000000
 50
180.000000000000000
 51
270.000000000000000
  0
LINE
  8
0
  6
CONTINUOUS
 62
3
 10
84.893594675167833
 20
-89.472938038197583
 11
79.893594675167833
 21
-89.472938038197583
  0
ARC
  8
0
  6
CONTINUOUS
 62
3
 10
79.893594675167833
 20
-144.006333315216410
 40
2.000000000000000
 50
180.000000000000000
 51
270.000000000000000
  0
ARC
  8
0
  6
CONTINUOUS
 62
3
 10
79.893594675167833
 20
-165.173948164974550
 40
2.000000000000000
 50
180.000000000000000
 51
270.000000000000000
  0
LINE
  8
0
  6
CONTINUOUS
 62
3
 10
84.893594675167833
 20
-167.173948164974550
 11
79.893594675167833
 21
-167.173948164974550
  0
LINE
  8
0
  6
CONTINUOUS
 62
3
 10
84.893594675167833
 20
-146.006333315216410
 11
79.893594675167833
 21
-146.006333315216410
  0
LINE
  8
0
  6
DASHDOT
 62
4
 10
96.000634749421579
 20
-174.022450921683970
 11
65.045192106537570
 21
-174.022450921683970
  0
LINE
  8
0
  6
DASHDOT
 62
4
 10
96.000634749421579
 20
-14.923425154711197
 11
65.045192106537570
 21
-14.923425154711197
  0
LINE
  8
0
  6
DASHDOT
 62
4
 10
96.000634749421579
 20
-14.923425154711197
 11
65.045192106537570
 21
-14.923425154711197
  0
LINE
  8
0
  6
DASHDOT
 62
4
 10
96.000634749421579
 20
-174.022450921683970
 11
65.045192106537570
 21
-174.022450921683970
  0
LINE
  8
0
  6
CONTINUOUS
 62
3
 10
22.893594675167833
 20
-34.438017268705892
 11
66.526613812327241
 21
-32.914318665187977
  0
ARC
  8
0
  6
CONTINUOUS
 62
3
 10
54.556784155314972
 20
-41.738348674802921
 40
3.000000000000000
 50
270.000000000000000
 51
318.035840720391380
  0
LINE
  8
0
  6
CONTINUOUS
 62
3
 10
56.787473896500160
 20
-43.744345503955458
 11
72.124284416353476
 21
-26.689649608151569
  0
ARC
  8
0
  6
CONTINUOUS
 62
3
 10
69.893594675167833
 20
-24.683652778999033
 40
3.000000000000150
 50
318.035840720397180
 51
0.000000000000000
  0
LINE
  8
0
  6
CONTINUOUS
 62
3
 10
58.893594675166469
 20
-48.213108017577554
 11
69.893594675167833
 21
-48.213108017577554
  0
ARC
  8
0
  6
CONTINUOUS
 62
3
 10
69.893594675167833
 20
-28.158412121773665
 40
3.000000000000150
 50
318.035840720397180
 51
0.000000000000000
  0
LINE
  8
0
  6
CONTINUOUS
 62
3
 10
56.787473896500160
 20
-47.219104846730090
 11
72.124284416353476
 21
-30.164408950926202
  0
ARC
  8
0
  6
CONTINUOUS
 62
3
 10
54.556784155314972
 20
-45.213108017577554
 40
3.000000000000000
 50
270.000000000000000
 51
318.035840720391380
  0
LINE
  8
0
  6
CONTINUOUS
 62
3
 10
77.893594675167833
 20
-186.972938038197580
 11
77.893594675167833
 21
-194.459365844593610
  0
LINE
  8
0
  6
CONTINUOUS
 62
3
 10
84.893594675167833
 20
-99.472938038197583
 11
79.893594675167833
 21
-99.472938038197583
  0
ARC
  8
0
  6
CONTINUOUS
 62
3
 10
79.893594675167833
 20
-101.472938038197580
 40
2.000000000000000
 50
90.000000000000000
 51
180.000000000000000
  0
LINE
  8
0
  6
CONTINUOUS
 62
3
 10
77.893594675167833
 20
-101.472938038197580
 11
77.893594675167833
 21
-165.173948164974550
  0
LINE
  8
0
  6
CONTINUOUS
 62
3
 10
84.893594675167833
 20
-146.006333315216410
 11
79.893594675167833
 21
-146.006333315216410
  0
LINE
  8
0
  6
CONTINUOUS
 62
3
 10
84.893594675167833
 20
-167.173948164974550
 11
79.893594675167833
 21
-167.173948164974550
  0
ARC
  8
0
  6
CONTINUOUS
 62
3
 10
79.893594675167833
 20
-165.173948164974550
 40
2.000000000000000
 50
180.000000000000000
 51
270.000000000000000
  0
ARC
  8
0
  6
CONTINUOUS
 62
3
 10
79.893594675167833
 20
-144.006333315216410
 40
2.000000000000000
 50
180.000000000000000
 51
270.000000000000000
  0
LINE
  8
0
  6
CONTINUOUS
 62
3
 10
84.893594675167833
 20
-89.472938038197583
 11
79.893594675167833
 21
-89.472938038197583
  0
ARC
  8
0
  6
CONTINUOUS
 62
3
 10
79.893594675167833
 20
-87.472938038197583
 40
2.000000000000000
 50
180.000000000000000
 51
270.000000000000000
  0
LINE
  8
0
  6
CONTINUOUS
 62
3
 10
77.893594675167833
 20
-87.472938038197583
 11
77.893594675167833
 21
-23.771927911420619
  0
LINE
  8
0
  6
CONTINUOUS
 62
3
 10
84.893594675167833
 20
-42.939542761178757
 11
79.893594675167833
 21
-42.939542761178757
  0
LINE
  8
0
  6
CONTINUOUS
 62
3
 10
84.893594675167833
 20
-21.771927911420619
 11
79.893594675167833
 21
-21.771927911420619
  0
ARC
  8
0
  6
CONTINUOUS
 62
3
 10
79.893594675167833
 20
-23.771927911420619
 40
2.000000000000000
 50
90.000000000000000
 51
180.000000000000000
  0
ARC
  8
0
  6
CONTINUOUS
 62
3
 10
79.893594675167833
 20
-44.939542761178757
 40
2.000000000000000
 50
90.000000000000000
 51
180.000000000000000
  0
LINE
  8
0
  6
CONTINUOUS
 62
3
 10
89.284794333076661
 20
-125.129009255737230
 11
87.893594675167833
 21
-125.561826927086990
  0
LINE
  8
0
  6
CONTINUOUS
 62
3
 10
89.284794333076661
 20
-63.816866820657935
 11
87.893594675167606
 21
-63.384049149309078
  0
LINE
  8
0
  6
CONTINUOUS
 62
3
 10
91.393594675167833
 20
-94.472938038197583
 11
91.393594675167833
 21
-122.236291271753370
  0
LINE
  8
0
  6
CONTINUOUS
 62
3
 10
91.393594675167833
 20
-94.472938038197583
 11
91.393594675167833
 21
-66.681437149651003
  0
LINE
  8
0
  6
CONTINUOUS
 62
3
 10
87.893594675167606
 20
-94.472938038197583
 11
87.893594675167833
 21
-9.872938038197219
  0
LINE
  8
0
  6
CONTINUOUS
 62
3
 10
87.893594675167833
 20
-94.472938038197583
 11
87.893594675167833
 21
-179.072938038197950
  0
LINE
  8
0
  6
CONTINUOUS
 62
3
 10
84.893594675167833
 20
-94.472938038197583
 11
84.893594675167833
 21
-186.472938038197580
  0
LINE
  8
0
  6
CONTINUOUS
 62
3
 10
84.893594675167833
 20
-94.472938038197583
 11
84.893594675167833
 21
-2.472938038197583
  0
LINE
  8
0
  6
CONTINUOUS
 62
3
 10
72.893594675167833
 20
-184.972938038197580
 11
72.893594675167833
 21
-4.472938038197583
  0
LINE
  8
0
  6
CONTINUOUS
 62
3
 10
84.393594675167833
 20
-186.972938038197580
 11
74.893594675167833
 21
-186.972938038197580
  0
ARC
  8
0
  6
CONTINUOUS
 62
3
 10
74.893594675167833
 20
-184.972938038197580
 40
2.000000000000000
 50
180.000000000000000
 51
270.000000000000000
  0
LINE
  8
0
  6
CONTINUOUS
 62
3
 10
87.493594675167742
 20
-9.472938038197583
 11
87.893594675167833
 21
-9.872938038197219
  0
LINE
  8
0
  6
CONTINUOUS
 62
3
 10
92.393594675167833
 20
-116.472938038197580
 11
93.393594675167833
 21
-116.472938038197580
  0
LINE
  8
0
  6
CONTINUOUS
 62
3
 10
87.893594675167833
 20
-179.072938038197950
 11
87.493594675167742
 21
-179.472938038197580
  0
LINE
  8
0
  6
CONTINUOUS
 62
3
 10
87.493594675167742
 20
-9.472938038197583
 11
84.893594675167833
 21
-9.472938038197583
  0
LINE
  8
0
  6
CONTINUOUS
 62
3
 10
87.493594675167742
 20
-179.472938038197580
 11
84.893594675167833
 21
-179.472938038197580
  0
LINE
  8
0
  6
CONTINUOUS
 62
3
 10
22.893594675167833
 20
-40.472938038197583
 11
22.893594675167833
 21
-34.472938038197583
  0
LINE
  8
0
  6
CONTINUOUS
 62
3
 10
22.893594675167833
 20
-40.472938038197583
 11
22.893594675167833
 21
-193.499723752482910
  0
LINE
  8
0
  6
CONTINUOUS
 62
3
 10
84.393594675167833
 20
-186.972938038197580
 11
84.893594675167833
 21
-186.472938038197580
  0
LINE
  8
0
  6
CONTINUOUS
 62
3
 10
22.893594675167833
 20
-193.499723752482910
 11
77.380206619957789
 21
-194.959186572433110
  0
ARC
  8
0
  6
CONTINUOUS
 62
3
 10
77.393594675167833
 20
-194.459365844593610
 40
0.500000000000320
 50
268.465658500292700
 51
0.000000000000000
  0
ARC
  8
0
  6
CONTINUOUS
 62
3
 10
54.311116641621084
 20
-30.339064593216619
 40
3.000000000000455
 50
272.000000000003350
 51
324.476770668235820
  0
ARC
  8
0
  6
CONTINUOUS
 62
3
 10
69.893594675167833
 20
-8.511959967393352
 40
2.999999999999886
 50
324.476770668235820
 51
0.000000000000000
  0
LINE
  8
0
  6
CONTINUOUS
 62
3
 10
72.335234729253898
 20
-10.255058887788266
 11
56.752756695707149
 21
-32.082163513611533
  0
ARC
  8
0
  6
CONTINUOUS
 62
3
 10
88.393594675167833
 20
-122.264438926745070
 40
2.999999999999842
 50
287.281498371819450
 51
0.000000000000000
  0
ARC
  8
0
  6
CONTINUOUS
 62
3
 10
88.393594675167833
 20
-66.681437149651003
 40
3.000000000000000
 50
0.000000000000000
 51
72.718501628185663
  0
ARC
  8
0
  6
CONTINUOUS
 62
3
 10
92.393594675167833
 20
-117.472938038197580
 40
1.000000000000000
 50
90.000000000000000
 51
180.000000000000000
  0
LINE
  8
0
  6
CONTINUOUS
 62
3
 10
72.893594675167833
 20
-4.472938038197583
 11
72.893594675167833
 21
-3.972938038197583
  0
LINE
  8
0
  6
CONTINUOUS
 62
3
 10
93.393594675167833
 20
-94.472938038197583
 11
93.393594675167833
 21
-116.472938038197580
  0
ARC
  8
0
  6
CONTINUOUS
 62
3
 10
74.893594675167833
 20
-3.972938038197583
 40
2.000000000000000
 50
90.000000000000000
 51
180.000000000000000
  0
LINE
  8
0
  6
CONTINUOUS
 62
3
 10
84.393594675167833
 20
-1.972938038197583
 11
84.893594675167833
 21
-2.472938038197583
  0
LINE
  8
0
  6
CONTINUOUS
 62
3
 10
84.393594675167833
 20
-1.972938038197583
 11
74.893594675167833
 21
-1.972938038197583
  0
ARC
  8
0
  6
CONTINUOUS
 62
3
 10
130.993594675168200
 20
-105.072938038197940
 40
0.399999999999636
 50
270.000000000000000
 51
0.000000000000000
  0
LINE
  8
0
  6
CONTINUOUS
 62
3
 10
130.993594675168200
 20
-105.472938038197580
 11
97.953402296303238
 21
-105.472938038197580
  0
LINE
  8
0
  6
CONTINUOUS
 62
3
 10
131.393594675167830
 20
-97.472938038197583
 11
102.393594675168740
 21
-97.472938038197583
  0
ARC
  8
0
  6
CONTINUOUS
 62
3
 10
102.393594675168740
 20
-94.472938038197583
 40
3.000000000000000
 50
90.000000000000000
 51
270.000000000000000
  0
LINE
  8
0
  6
CONTINUOUS
 62
3
 10
131.393594675167830
 20
-105.072938038197940
 11
131.393594675167830
 21
-83.872938038198129
  0
LINE
  8
0
  6
CONTINUOUS
 62
3
 10
93.393594675167833
 20
-106.472938038197580
 11
94.993594675168197
 21
-106.472938038197580
  0
LINE
  8
0
  6
CONTINUOUS
 62
3
 10
97.393594675167833
 20
-105.322938038197940
 11
96.193594675168924
 21
-105.322938038197940
  0
LINE
  8
0
  6
CONTINUOUS
 62
3
 10
97.953402296303238
 20
-105.472938038197580
 11
97.393594675167833
 21
-105.322938038197940
  0
LINE
  8
0
  6
CONTINUOUS
 62
3
 10
95.393594675167833
 20
-106.072938038197940
 11
94.993594675168197
 21
-106.472938038197580
  0
ARC
  8
0
  6
CONTINUOUS
 62
3
 10
96.193594675168924
 20
-106.122938038198120
 40
0.800000000000182
 50
90.000000000000000
 51
176.296803365719710
  0
LINE
  8
0
  6
CONTINUOUS
 62
3
 10
97.393594675167833
 20
-105.322938038197940
 11
96.193594675168924
 21
-105.322938038197940
  0
LINE
  8
0
  6
CONTINUOUS
 62
3
 10
97.953402296303238
 20
-105.472938038197580
 11
97.393594675167833
 21
-105.322938038197940
  0
LINE
  8
0
  6
CONTINUOUS
 62
3
 10
95.393594675167833
 20
-106.072938038197940
 11
94.993594675168197
 21
-106.472938038197580
  0
LINE
  8
0
  6
CONTINUOUS
 62
3
 10
93.393594675167833
 20
-106.472938038197580
 11
94.993594675168197
 21
-106.472938038197580
  0
LINE
  8
0
  6
CONTINUOUS
 62
3
 10
95.393594675167833
 20
-94.472938038197583
 11
95.393594675167833
 21
-106.072938038197940
  0
ARC
  8
0
  6
CONTINUOUS
 62
3
 10
12.893594675167833
 20
-83.472938038197583
 40
0.500000000000000
 50
270.000000000000000
 51
0.000000000000000
  0
ARC
  8
0
  6
CONTINUOUS
 62
3
 10
12.893594675167833
 20
-84.472938038197583
 40
0.500000000000000
 50
90.000000000000000
 51
180.000000000000000
  0
LINE
  8
0
  6
CONTINUOUS
 62
3
 10
12.393594675167833
 20
-84.472938038197583
 11
12.393594675167833
 21
-99.472938038197583
  0
ARC
  8
0
  6
CONTINUOUS
 62
3
 10
12.893594675167833
 20
-100.472938038197580
 40
0.500000000000000
 50
0.000000000000000
 51
90.000000000000000
  0
ARC
  8
0
  6
CONTINUOUS
 62
3
 10
12.893594675167833
 20
-99.472938038197583
 40
0.500000000000000
 50
180.000000000000000
 51
270.000000000000000
  0
ARC
  8
0
  6
CONTINUOUS
 62
3
 10
16.243594675168197
 20
-114.822938038197030
 40
0.400000000000546
 50
270.000000000000000
 51
0.000000000000000
  0
LINE
  8
0
  6
CONTINUOUS
 62
3
 10
14.393594675167833
 20
-115.222938038197580
 11
16.243594675168197
 21
-115.222938038197580
  0
ARC
  8
0
  6
CONTINUOUS
 62
3
 10
14.393594675167833
 20
-116.222938038197580
 40
1.000000000000000
 50
90.000000000000000
 51
180.000000000000000
  0
LINE
  8
0
  6
CONTINUOUS
 62
3
 10
14.393594675167833
 20
-102.722938038197580
 11
16.243594675168197
 21
-102.722938038197580
  0
LINE
  8
0
  6
CONTINUOUS
 62
3
 10
16.643594675167833
 20
-103.122938038197210
 11
16.643594675167833
 21
-114.822938038197030
  0
ARC
  8
0
  6
CONTINUOUS
 62
3
 10
16.243594675168197
 20
-103.122938038197210
 40
0.399999999999636
 50
0.000000000000000
 51
90.000000000000000
  0
ARC
  8
0
  6
CONTINUOUS
 62
3
 10
14.393594675167833
 20
-101.722938038197580
 40
1.000000000000000
 50
180.000000000000000
 51
270.000000000000000
  0
LINE
  8
0
  6
CONTINUOUS
 62
3
 10
13.393594675167833
 20
-186.036329850353300
 11
13.393594675167833
 21
-113.972938038197580
  0
LINE
  8
0
  6
CONTINUOUS
 62
3
 10
22.393594675167833
 20
-193.472938038197580
 11
17.643594675167833
 21
-193.472938038197580
  0
LINE
  8
0
  6
CONTINUOUS
 62
3
 10
13.393594675167833
 20
-35.472938038197583
 11
13.393594675167833
 21
-45.472938038197583
  0
LINE
  8
0
  6
CONTINUOUS
 62
3
 10
-9.106405324832167
 20
-172.981665570661620
 11
12.411047081604693
 21
-173.357254099506290
  0
LINE
  8
0
  6
CONTINUOUS
 62
3
 10
-9.106405324832167
 20
-55.964210505733547
 11
12.411047081604693
 21
-55.588621976888874
  0
ARC
  8
0
  6
CONTINUOUS
 62
3
 10
14.393594675167833
 20
-35.472938038197583
 40
1.000000000000000
 50
90.000000000000000
 51
180.000000000000000
  0
ARC
  8
0
  6
CONTINUOUS
 62
3
 10
12.393594675167833
 20
-174.357101794662240
 40
1.000000000000000
 50
0.000000000000000
 51
89.000000000023846
  0
ARC
  8
0
  6
CONTINUOUS
 62
3
 10
12.393594675167833
 20
-54.588774281732924
 40
0.999999999999551
 50
270.999999999976180
 51
0.000000000000000
  0
LINE
  8
0
  6
CONTINUOUS
 62
3
 10
22.393594675167833
 20
-193.472938038197580
 11
22.393594675167833
 21
-94.472938038197583
  0
LINE
  8
0
  6
CONTINUOUS
 62
3
 10
22.393594675167833
 20
-34.472938038197583
 11
22.393594675167833
 21
-94.472938038197583
  0
LINE
  8
0
  6
CONTINUOUS
 62
3
 10
-9.106405324832167
 20
-55.964210505733575
 11
-9.106405324832167
 21
-172.972938038197580
  0
LINE
  8
0
  6
CONTINUOUS
 62
3
 10
13.393594675167833
 20
-49.213921510834382
 11
13.393594675167833
 21
-103.972938038197580
  0
ARC
  8
0
  6
CONTINUOUS
 62
3
 10
17.643594675167833
 20
-192.472938038197580
 40
1.000000000000000
 50
180.000000000000000
 51
270.000000000000000
  0
LINE
  8
0
  6
CONTINUOUS
 62
3
 10
14.393594675167833
 20
-187.036329850353300
 11
16.243594675168197
 21
-187.036329850353300
  0
LINE
  8
0
  6
CONTINUOUS
 62
3
 10
12.860771784789677
 20
-55.472938038197583
 11
10.643594675167833
 21
-55.472938038197583
  0
ARC
  8
0
  6
CONTINUOUS
 62
3
 10
14.393594675167833
 20
-41.083287165691047
 40
1.000000000000000
 50
90.000000000000000
 51
180.000000000000000
  0
LINE
  8
0
  6
CONTINUOUS
 62
3
 10
14.393594675167833
 20
-40.083287165691047
 11
16.243594675168197
 21
-40.083287165691047
  0
LINE
  8
0
  6
CONTINUOUS
 62
3
 10
16.643594675167833
 20
-40.483287165690683
 11
16.643594675167833
 21
-47.813921510833836
  0
ARC
  8
0
  6
CONTINUOUS
 62
3
 10
14.393594675167833
 20
-49.213921510834382
 40
1.000000000000000
 50
90.000000000000000
 51
180.000000000000000
  0
ARC
  8
0
  6
CONTINUOUS
 62
3
 10
16.243594675168197
 20
-47.813921510833836
 40
0.400000000000546
 50
270.000000000000000
 51
0.000000000000000
  0
LINE
  8
0
  6
CONTINUOUS
 62
3
 10
14.393594675167833
 20
-48.213921510834382
 11
16.243594675168197
 21
-48.213921510834382
  0
ARC
  8
0
  6
CONTINUOUS
 62
3
 10
14.393594675167833
 20
-186.036329850353300
 40
1.000000000000000
 50
180.000000000000000
 51
270.000000000000000
  0
LINE
  8
0
  6
CONTINUOUS
 62
3
 10
16.643594675167833
 20
-187.436329850352930
 11
16.643594675167833
 21
-192.472938038197580
  0
ARC
  8
0
  6
CONTINUOUS
 62
3
 10
16.243594675168197
 20
-187.436329850352930
 40
0.399999999999636
 50
0.000000000000000
 51
90.000000000000000
  0
ARC
  8
0
  6
CONTINUOUS
 62
3
 10
16.243594675168197
 20
-40.483287165690683
 40
0.399999999999636
 50
0.000000000000000
 51
90.000000000000000
  0
ARC
  8
0
  6
CONTINUOUS
 62
3
 10
130.993594675168200
 20
-83.872938038197219
 40
0.399999999999636
 50
0.000000000000000
 51
90.000000000000000
  0
LINE
  8
0
  6
CONTINUOUS
 62
3
 10
131.393594675167830
 20
-83.872938038197219
 11
131.393594675167830
 21
-105.072938038197030
  0
LINE
  8
0
  6
CONTINUOUS
 62
3
 10
130.993594675168200
 20
-83.472938038197583
 11
97.953402296303238
 21
-83.472938038197583
  0
LINE
  8
0
  6
CONTINUOUS
 62
3
 10
95.393594675167833
 20
-94.472938038197583
 11
95.393594675167833
 21
-82.872938038197219
  0
LINE
  8
0
  6
CONTINUOUS
 62
3
 10
93.393594675167833
 20
-82.472938038197583
 11
94.993594675168197
 21
-82.472938038197583
  0
LINE
  8
0
  6
CONTINUOUS
 62
3
 10
95.393594675167833
 20
-82.872938038197219
 11
94.993594675168197
 21
-82.472938038197583
  0
LINE
  8
0
  6
CONTINUOUS
 62
3
 10
97.953402296303238
 20
-83.472938038197583
 11
97.393594675167833
 21
-83.622938038197219
  0
LINE
  8
0
  6
CONTINUOUS
 62
3
 10
97.393594675167833
 20
-83.622938038197219
 11
96.193594675168924
 21
-83.622938038197219
  0
ARC
  8
0
  6
CONTINUOUS
 62
3
 10
96.193594675168924
 20
-82.822938038197037
 40
0.800000000000237
 50
183.703196634280290
 51
270.000000000000000
  0
LINE
  8
0
  6
CONTINUOUS
 62
3
 10
95.393594675167833
 20
-82.872938038197219
 11
94.993594675168197
 21
-82.472938038197583
  0
LINE
  8
0
  6
CONTINUOUS
 62
3
 10
97.953402296303238
 20
-83.472938038197583
 11
97.393594675167833
 21
-83.622938038197219
  0
LINE
  8
0
  6
CONTINUOUS
 62
3
 10
97.393594675167833
 20
-83.622938038197219
 11
96.193594675168924
 21
-83.622938038197219
  0
LINE
  8
0
  6
CONTINUOUS
 62
3
 10
93.393594675167833
 20
-82.472938038197583
 11
94.993594675168197
 21
-82.472938038197583
  0
LINE
  8
0
  6
CONTINUOUS
 62
3
 10
93.393594675167833
 20
-94.472938038197583
 11
93.393594675167833
 21
-72.472938038197583
  0
ARC
  8
0
  6
CONTINUOUS
 62
3
 10
92.393594675167833
 20
-71.472938038197583
 40
1.000000000000000
 50
180.000000000000000
 51
270.000000000000000
  0
LINE
  8
0
  6
CONTINUOUS
 62
3
 10
92.393594675167833
 20
-72.472938038197583
 11
93.393594675167833
 21
-72.472938038197583
  0
LINE
  8
0
  6
CONTINUOUS
 62
3
 10
93.393594675167833
 20
-82.472938038197583
 11
94.993594675168197
 21
-82.472938038197583
  0
LINE
  8
0
  6
CONTINUOUS
 62
3
 10
95.393594675167833
 20
-82.872938038197219
 11
94.993594675168197
 21
-82.472938038197583
  0
LINE
  8
0
  6
CONTINUOUS
 62
3
 10
131.393594675167830
 20
-91.472938038197583
 11
102.393594675168740
 21
-91.472938038197583
  0
ARC
  8
0
  6
CONTINUOUS
 62
3
 10
363.166102517447140
 20
-178.972938038197750
 40
8.000000000000000
 50
270.000000000000000
 51
0.000000000000000
  0
ARC
  8
0
  6
CONTINUOUS
 62
3
 10
194.166102517447140
 20
-178.972938038197750
 40
8.000000000000000
 50
180.000000000000000
 51
270.000000000000000
  0
LINE
  8
0
  6
CONTINUOUS
 62
3
 10
363.166102517447140
 20
-1.972938038197782
 11
194.166102517447140
 21
-1.972938038197782
  0
CIRCLE
  8
0
  6
CONTINUOUS
 62
3
 10
278.666102517447140
 20
-94.472938038197753
 40
85.000000000000227
  0
ARC
  8
0
  6
CONTINUOUS
 62
3
 10
278.666102517447140
 20
-94.472938038197753
 40
88.000000000000000
 50
149.175803515866960
 51
174.956497631052540
  0
ARC
  8
0
  6
CONTINUOUS
 62
3
 10
278.666102517447140
 20
-94.472938038197753
 40
87.999999999999957
 50
185.043502368947460
 51
210.824196484133010
  0
LINE
  8
0
  6
CONTINUOUS
 62
3
 10
201.666102517447140
 20
-99.973248118482843
 11
201.666102517447140
 21
-115.756734691990400
  0
ARC
  8
0
  6
CONTINUOUS
 62
3
 10
263.666102517447140
 20
-99.765256804770445
 40
62.000000000000021
 50
126.374484888015180
 51
169.460375916723710
  0
LINE
  8
0
  6
CONTINUOUS
 62
3
 10
201.862771801708620
 20
-91.973259865134963
 11
239.046021370796320
 21
-91.973104057150721
  0
LINE
  8
0
  6
CONTINUOUS
 62
3
 10
201.862792753075950
 20
-96.973259865091052
 11
239.046042322163660
 21
-96.973104057106866
  0
ARC
  8
0
  6
CONTINUOUS
 62
3
 10
201.862805323896400
 20
-99.973259865064733
 40
3.000000000000019
 50
90.000240084985506
 51
184.096283843137060
  0
ARC
  8
0
  6
CONTINUOUS
 62
3
 10
201.862759230888170
 20
-88.973259865161367
 40
3.000000000000122
 50
175.904196326832020
 51
270.000240084985530
  0
ARC
  8
0
  6
CONTINUOUS
 62
3
 10
204.666102517447140
 20
-99.973248118482843
 40
2.999999999999991
 50
90.000240084985506
 51
180.000000000000000
  0
ARC
  8
0
  6
CONTINUOUS
 62
3
 10
205.661512539711910
 20
-88.973243947346077
 40
3.000000000000045
 50
169.460375916724130
 51
270.000240084983320
  0
ARC
  8
0
  6
CONTINUOUS
 62
3
 10
188.018432939018340
 20
-86.472938038197753
 40
3.000000000000000
 50
271.692414817539090
 51
354.956497631052510
  0
ARC
  8
0
  6
CONTINUOUS
 62
3
 10
188.166102517447140
 20
-91.470756932036011
 40
2.000000000000000
 50
91.692414817539131
 51
180.000000000000000
  0
ARC
  8
0
  6
CONTINUOUS
 62
3
 10
188.166102517447140
 20
-97.475119144359496
 40
2.000000000000000
 50
180.000000000000000
 51
268.307585182460910
  0
ARC
  8
0
  6
CONTINUOUS
 62
3
 10
188.018432939018340
 20
-102.472938038197750
 40
2.999999999999967
 50
5.043502368947482
 51
88.307585182460869
  0
LINE
  8
0
  6
CONTINUOUS
 62
3
 10
186.166102517447140
 20
-9.972938038197782
 11
186.166102517447140
 21
-178.972938038197750
  0
CIRCLE
  8
0
  6
CONTINUOUS
 62
3
 10
278.666102517447140
 20
-94.472938038197753
 40
80.000000000000000
  0
ARC
  8
0
  6
CONTINUOUS
 62
3
 10
278.666102517447140
 20
-94.472938038197753
 40
88.000000000000000
 50
329.175803515866960
 51
354.956497631052570
  0
ARC
  8
0
  6
CONTINUOUS
 62
3
 10
278.666102517447140
 20
-94.472938038197753
 40
88.000000000000071
 50
5.043502368947440
 51
30.824196484132976
  0
ARC
  8
0
  6
CONTINUOUS
 62
3
 10
355.469445804006110
 20
-99.972616211234140
 40
3.000000000000122
 50
355.904196326831990
 51
90.000240084985506
  0
ARC
  8
0
  6
CONTINUOUS
 62
3
 10
355.469399710997890
 20
-88.972616211330774
 40
3.000000000000019
 50
270.000240084985530
 51
4.096283843137061
  0
ARC
  8
0
  6
CONTINUOUS
 62
3
 10
369.313772095875950
 20
-102.472938038197720
 40
3.000000000000000
 50
91.692414817539131
 51
174.956497631052540
  0
ARC
  8
0
  6
CONTINUOUS
 62
3
 10
369.313772095875950
 20
-86.472938038197753
 40
2.999999999999967
 50
185.043502368947460
 51
268.307585182460910
  0
ARC
  8
0
  6
CONTINUOUS
 62
3
 10
369.166102517447140
 20
-97.475119144359468
 40
2.000000000000000
 50
271.692414817539090
 51
359.999999999999200
  0
ARC
  8
0
  6
CONTINUOUS
 62
3
 10
369.166102517447140
 20
-91.470756932036011
 40
2.000000000000000
 50
0.000000000000000
 51
88.307585182460869
  0
LINE
  8
0
  6
CONTINUOUS
 62
3
 10
371.166102517447140
 20
-9.972938038197782
 11
371.166102517447140
 21
-178.972938038197750
  0
LINE
  8
0
  6
CONTINUOUS
 62
3
 10
363.166102517447140
 20
-186.972938038197750
 11
194.166102517447140
 21
-186.972938038197750
  0
ARC
  8
0
  6
DASHDOT
 62
4
 10
278.666102517447140
 20
-94.472938038197753
 40
112.500000000000140
 50
309.397383721309440
 51
320.602616278690790
  0
ARC
  8
0
  6
CONTINUOUS
 62
3
 10
353.438180456089190
 20
-181.972938038197750
 40
4.999999999999879
 50
225.000000000000000
 51
270.000000000000000
  0
LINE
  8
0
  6
CONTINUOUS
 62
3
 10
335.952915709798840
 20
-171.558741103772720
 11
349.902646550156530
 21
-185.508471944130410
  0
ARC
  8
0
  6
CONTINUOUS
 62
3
 10
328.881847897933310
 20
-178.629808915638250
 40
10.000000000000082
 50
45.000000000000000
 51
120.824196484132790
  0
ARC
  8
0
  6
CONTINUOUS
 62
3
 10
278.666102517447140
 20
-94.472938038197753
 40
88.000000000000099
 50
239.175803515867050
 51
300.824196484132930
  0
ARC
  8
0
  6
CONTINUOUS
 62
3
 10
228.450357136960970
 20
-178.629808915638250
 40
9.999999999999950
 50
59.175803515867180
 51
135.000000000000000
  0
ARC
  8
0
  6
CONTINUOUS
 62
3
 10
203.894024578805100
 20
-181.972938038197750
 40
5.000000000000000
 50
270.000000000000000
 51
315.000000000000000
  0
LINE
  8
0
  6
CONTINUOUS
 62
3
 10
221.379289325095440
 20
-171.558741103772720
 11
207.429558484737750
 21
-185.508471944130410
  0
LINE
  8
0
  6
DASHDOT
 62
4
 10
208.993827459431600
 20
-164.145213096213580
 11
191.700908311626450
 21
-181.438132244018560
  0
ARC
  8
0
  6
CONTINUOUS
 62
3
 10
299.038330001118880
 20
-168.729064703635460
 40
3.000000000000016
 50
285.341664101623510
 51
66.991966642062195
  0
LINE
  8
0
  6
DASHDOT
 62
4
 10
278.666102517447140
 20
9.963598534250195
 11
278.666102517447140
 21
-202.317673198722330
  0
ARC
  8
0
  6
CONTINUOUS
 62
3
 10
334.620362429339820
 20
-189.103703403489820
 40
4.500000000000040
 50
151.738047852171460
 51
175.367233369122230
  0
ARC
  8
0
  6
CONTINUOUS
 62
3
 10
320.666102517447140
 20
-187.972938038197750
 40
9.500000000000030
 50
312.536898362986390
 51
355.367233369123200
  0
LINE
  8
0
  6
CONTINUOUS
 62
3
 10
327.088718806779750
 20
-194.972938038197750
 11
314.243486228114530
 21
-194.972938038197750
  0
ARC
  8
0
  6
CONTINUOUS
 62
3
 10
320.666102517447140
 20
-187.972938038197750
 40
9.500000000000011
 50
219.166710716120120
 51
227.463101637013610
  0
LINE
  8
0
  6
CONTINUOUS
 62
3
 10
313.300642586119010
 20
-193.972938038197750
 11
244.031562448775280
 21
-193.972938038197750
  0
ARC
  8
0
  6
CONTINUOUS
 62
3
 10
236.666102517447140
 20
-187.972938038197750
 40
9.500000000000030
 50
312.536898362986390
 51
320.833289283879880
  0
LINE
  8
0
  6
CONTINUOUS
 62
3
 10
230.243486228114530
 20
-194.972938038197750
 11
243.088718806779750
 21
-194.972938038197750
  0
ARC
  8
0
  6
CONTINUOUS
 62
3
 10
236.666102517447140
 20
-187.972938038197750
 40
9.500000000000037
 50
184.632766630876720
 51
227.463101637013610
  0
ARC
  8
0
  6
CONTINUOUS
 62
3
 10
222.711842605554470
 20
-189.103703403489820
 40
4.500000000000043
 50
4.632766630877777
 51
28.261952147828559
  0
ARC
  8
0
  6
CONTINUOUS
 62
3
 10
235.784294229673830
 20
-145.133312886419650
 40
3.000000000000064
 50
13.587067531240857
 51
135.000240084983430
  0
ARC
  8
0
  6
CONTINUOUS
 62
3
 10
237.035643654507680
 20
-128.325538602678360
 40
2.999999999999974
 50
315.000240084985310
 51
337.897229129195860
  0
ARC
  8
0
  6
CONTINUOUS
 62
3
 10
220.469077931225230
 20
-144.892243163424180
 40
3.000000000000004
 50
220.904196326832190
 51
315.000240084984970
  0
LINE
  8
0
  6
CONTINUOUS
 62
3
 10
222.590407163678610
 20
-147.013554618052840
 11
239.156972886961060
 21
-130.446850057306990
  0
ARC
  8
0
  6
CONTINUOUS
 62
3
 10
228.247285116887720
 20
-152.670385163729260
 40
3.000000000000095
 50
135.000240084986100
 51
229.096283843136040
  0
LINE
  8
0
  6
CONTINUOUS
 62
3
 10
226.125955884434230
 20
-150.549073709100580
 11
233.662964997220570
 21
-143.012001431790990
  0
ARC
  8
0
  6
CONTINUOUS
 62
3
 10
352.666102517447140
 20
-99.972627958009241
 40
3.000000000000000
 50
0.000000000000000
 51
90.000240084985506
  0
ARC
  8
0
  6
CONTINUOUS
 62
3
 10
318.286150141910180
 20
-88.972772019315016
 40
3.000000000000033
 50
187.903447818468810
 51
270.000240084985530
  0
LINE
  8
0
  6
CONTINUOUS
 62
3
 10
355.469412281818340
 20
-91.972616211304455
 11
318.286162712730630
 21
-91.972772019288641
  0
LINE
  8
0
  6
CONTINUOUS
 62
3
 10
355.469433233185670
 20
-96.972616211260572
 11
318.286183664097960
 21
-96.972772019244786
  0
ARC
  8
0
  6
CONTINUOUS
 62
3
 10
318.286196234918410
 20
-99.972772019218439
 40
2.999999999999991
 50
90.000240084985506
 51
172.097032351499560
  0
ARC
  8
0
  6
CONTINUOUS
 62
3
 10
228.675539490645410
 20
-52.260935958478825
 40
3.000000000000014
 50
45.000240084985357
 51
126.374484888016080
  0
ARC
  8
0
  6
CONTINUOUS
 62
3
 10
238.413544774785690
 20
-46.442575631994174
 40
2.999999999999957
 50
115.341301222794340
 51
225.000240084985360
  0
ARC
  8
0
  6
CONTINUOUS
 62
3
 10
239.046054892984100
 20
-99.973104057080491
 40
3.000000000000033
 50
7.903447818468803
 51
90.000240084985506
  0
ARC
  8
0
  6
CONTINUOUS
 62
3
 10
239.046008799975880
 20
-88.973104057177068
 40
2.999999999999991
 50
270.000240084985530
 51
352.097032351499590
  0
ARC
  8
0
  6
CONTINUOUS
 62
3
 10
228.246797392220740
 20
-36.275913451975924
 40
3.000000000000140
 50
130.904196326833560
 51
225.000240084984570
  0
ARC
  8
0
  6
CONTINUOUS
 62
3
 10
220.468655391915720
 20
-44.054120637638277
 40
2.999999999999914
 50
45.000240084986508
 51
139.096283843137910
  0
ARC
  8
0
  6
CONTINUOUS
 62
3
 10
246.761293481651590
 20
-70.346538381609719
 40
3.000000000000016
 50
322.903447818468750
 51
45.000240084986508
  0
LINE
  8
0
  6
CONTINUOUS
 62
3
 10
222.589966846544260
 20
-41.932791405184901
 11
248.882604936280130
 21
-68.225209149156342
  0
LINE
  8
0
  6
CONTINUOUS
 62
3
 10
226.125485937592090
 20
-38.397242684429273
 11
252.418124027327960
 21
-64.689660428400714
  0
ARC
  8
0
  6
CONTINUOUS
 62
3
 10
254.539435481956620
 20
-62.568331195947337
 40
2.999999999999994
 50
225.000240084984970
 51
307.097032351499310
  0
ARC
  8
0
  6
CONTINUOUS
 62
3
 10
204.666102517447140
 20
-115.756734691990400
 40
3.000000000000000
 50
180.000000000000000
 51
196.046234080500770
  0
ARC
  8
0
  6
CONTINUOUS
 62
3
 10
273.165876385391580
 20
-40.507007461879198
 40
3.000000000000076
 50
0.000240084984964
 51
90.709792352509837
  0
ARC
  8
0
  6
CONTINUOUS
 62
3
 10
284.165876385464800
 20
-40.507001859079480
 40
3.000000000000117
 50
89.290266014178883
 51
180.000240084984430
  0
ARC
  8
0
  6
CONTINUOUS
 62
3
 10
318.918158176122460
 20
-46.442337857931420
 40
3.000000000000015
 50
315.000240084984570
 51
64.659238270505398
  0
ARC
  8
0
  6
CONTINUOUS
 62
3
 10
293.666102517447140
 20
-99.765256804770445
 40
61.999999999999964
 50
64.659238270504105
 51
87.767131757208375
  0
ARC
  8
0
  6
CONTINUOUS
 62
3
 10
352.666102517447140
 20
-115.756734691990710
 40
2.999999999999950
 50
343.953765919498100
 51
0.000000000000000
  0
LINE
  8
0
  6
CONTINUOUS
 62
3
 10
355.666102517447140
 20
-99.972627958009241
 11
355.666102517447140
 21
-115.756734691990710
  0
ARC
  8
0
  6
CONTINUOUS
 62
3
 10
278.666102517447140
 20
-484.472938038197410
 40
447.000000000000060
 50
90.709792352509865
 51
92.232868242791440
  0
ARC
  8
0
  6
CONTINUOUS
 62
3
 10
263.666102517447140
 20
-99.765256804770445
 40
61.999999999999993
 50
92.232868242791213
 51
115.341301222795840
  0
ARC
  8
0
  6
CONTINUOUS
 62
3
 10
278.666102517447140
 20
-484.472938038197410
 40
446.999999999999940
 50
87.767131757208503
 51
89.290266014176979
  0
ARC
  8
0
  6
CONTINUOUS
 62
3
 10
312.355779919615090
 20
-116.036927384741540
 40
3.000000000000031
 50
147.377625176142090
 51
264.640146069233940
  0
ARC
  8
0
  6
CONTINUOUS
 62
3
 10
245.603868388107680
 20
-116.987126328623360
 40
2.999999999999988
 50
307.947460937502630
 51
34.253450584158024
  0
ARC
  8
0
  6
CONTINUOUS
 62
3
 10
284.767455387382030
 20
-154.830413563649220
 40
2.999999999999971
 50
24.522122957053270
 51
144.017044019298770
  0
ARC
  8
0
  6
CONTINUOUS
 62
3
 10
337.268665410799710
 20
-144.420306560780090
 40
2.999999999999940
 50
177.908513527907530
 51
319.558816068347820
  0
ARC
  8
0
  6
CONTINUOUS
 62
3
 10
309.786985151741190
 20
-143.416688038197660
 40
24.500000000000011
 50
357.908513527907190
 51
84.640146069234163
  0
ARC
  8
0
  6
CONTINUOUS
 62
3
 10
262.514680624570250
 20
-138.672938038197570
 40
24.499999999999972
 50
127.947460937503260
 51
324.017044019299080
  0
ARC
  8
0
  6
CONTINUOUS
 62
3
 10
309.786985151741190
 20
-143.416688038197660
 40
24.500000000000000
 50
204.522122957052860
 51
246.991966642062640
  0
ARC
  8
0
  6
CONTINUOUS
 62
3
 10
273.165780690580160
 20
-17.669640844647034
 40
3.000000000000076
 50
0.000240084985506
 51
94.096283843136902
  0
ARC
  8
0
  6
CONTINUOUS
 62
3
 10
273.165936498564410
 20
-54.852890413734627
 40
3.000000000000009
 50
277.903447818469430
 51
0.000240084985506
  0
LINE
  8
0
  6
CONTINUOUS
 62
3
 10
276.165780690553900
 20
-17.669628273826589
 11
276.165936498538030
 21
-54.852877842914182
  0
ARC
  8
0
  6
CONTINUOUS
 62
3
 10
284.165936498467770
 20
-54.852844320726433
 40
2.999999999999962
 50
180.000240084984970
 51
262.097032351500220
  0
LINE
  8
0
  6
CONTINUOUS
 62
3
 10
281.165780690510020
 20
-17.669607322459257
 11
281.165936498494150
 21
-54.852856891546850
  0
ARC
  8
0
  6
CONTINUOUS
 62
3
 10
284.165780690483640
 20
-17.669594751638812
 40
3.000000000000114
 50
85.904196326834182
 51
180.000240084985510
  0
LINE
  8
0
  6
CONTINUOUS
 62
3
 10
355.751905583022560
 20
-151.759751230549280
 11
369.701636423380020
 21
-165.709482070907140
  0
CIRCLE
  8
0
  6
CONTINUOUS
 62
3
 10
278.666102517447140
 20
-94.472938038197753
 40
28.500000000000000
  0
LINE
  8
0
  6
DASHDOT
 62
4
 10
293.307371249346030
 20
-114.472938038197750
 11
264.394123946425680
 21
-114.472938038197750
  0
CIRCLE
  8
0
  6
CONTINUOUS
 62
3
 10
278.666102517447140
 20
-94.472938038197753
 40
22.500000000000000
  0
LINE
  8
0
  6
CONTINUOUS
 62
3
 10
201.580299451872180
 20
-37.186124845846052
 11
187.630568611514490
 21
-23.236394005488393
  0
ARC
  8
0
  6
CONTINUOUS
 62
3
 10
191.166102517447140
 20
-19.700860099555740
 40
5.000000000000000
 50
180.000000000000000
 51
225.000000000000000
  0
ARC
  8
0
  6
DASHDOT
 62
4
 10
278.666102517447140
 20
-94.472938038197753
 40
112.499999999999950
 50
129.397383721309410
 51
140.602616278690820
  0
LINE
  8
0
  6
CONTINUOUS
 62
3
 10
221.379289325095560
 20
-17.387134972622817
 11
207.429558484737870
 21
-3.437404132265129
  0
ARC
  8
0
  6
CONTINUOUS
 62
3
 10
203.894024578805220
 20
-6.972938038197782
 40
4.999999999999879
 50
45.000000000000000
 51
90.000000000000000
  0
ARC
  8
0
  6
CONTINUOUS
 62
3
 10
194.166102517447140
 20
-9.972938038197782
 40
8.000000000000000
 50
90.000000000000000
 51
180.000000000000000
  0
ARC
  8
0
  6
CONTINUOUS
 62
3
 10
363.166102517447140
 20
-9.972938038197782
 40
8.000000000000000
 50
0.000000000000000
 51
90.000000000000000
  0
ARC
  8
0
  6
CONTINUOUS
 62
3
 10
366.166102517447140
 20
-19.700860099555854
 40
4.999999999999879
 50
315.000000000000000
 51
0.000000000000000
  0
LINE
  8
0
  6
CONTINUOUS
 62
3
 10
355.751905583022110
 20
-37.186124845846166
 11
369.701636423379800
 21
-23.236394005488506
  0
ARC
  8
0
  6
CONTINUOUS
 62
3
 10
353.438180456089190
 20
-6.972938038197782
 40
5.000000000000000
 50
90.000000000000000
 51
135.000000000000000
  0
LINE
  8
0
  6
CONTINUOUS
 62
3
 10
335.952915709798840
 20
-17.387134972622817
 11
349.902646550156530
 21
-3.437404132265129
  0
ARC
  8
0
  6
CONTINUOUS
 62
3
 10
362.822973394887640
 20
-44.257192657711585
 40
10.000000000000000
 50
135.000000000000450
 51
210.824196484133070
  0
ARC
  8
0
  6
CONTINUOUS
 62
3
 10
328.881847897933430
 20
-10.316067160757399
 40
10.000000000000009
 50
239.175803515866650
 51
315.000000000000000
  0
ARC
  8
0
  6
CONTINUOUS
 62
3
 10
278.666102517447140
 20
-94.472938038197753
 40
87.999999999999986
 50
59.175803515866967
 51
120.824196484133040
  0
ARC
  8
0
  6
CONTINUOUS
 62
3
 10
228.450357136960970
 20
-10.316067160757285
 40
10.000000000000000
 50
225.000000000000450
 51
300.824196484133040
  0
ARC
  8
0
  6
CONTINUOUS
 62
3
 10
194.509231640006760
 20
-44.257192657711585
 40
9.999999999999950
 50
329.175803515867190
 51
45.000000000000462
  0
ARC
  8
0
  6
CONTINUOUS
 62
3
 10
194.509231640006650
 20
-144.688683418683920
 40
10.000000000000082
 50
315.000000000000000
 51
30.824196484132493
  0
LINE
  8
0
  6
CONTINUOUS
 62
3
 10
201.580299451872180
 20
-151.759751230549450
 11
187.630568611514490
 21
-165.709482070907140
  0
ARC
  8
0
  6
CONTINUOUS
 62
3
 10
191.166102517447140
 20
-169.245015976839800
 40
4.999999999999879
 50
135.000000000000000
 51
180.000000000000000
  0
ARC
  8
0
  6
CONTINUOUS
 62
3
 10
366.166102517447140
 20
-169.245015976839800
 40
5.000000000000000
 50
0.000000000000000
 51
45.000000000000000
  0
ARC
  8
0
  6
CONTINUOUS
 62
3
 10
362.822973394887640
 20
-144.688683418683920
 40
9.999999999999950
 50
149.175803515867160
 51
225.000000000000000
  0
CIRCLE
  8
0
  6
CONTINUOUS
 62
3
 10
278.666102517447140
 20
-94.472938038197753
 40
37.000000000000000
  0
ARC
  8
0
  6
CONTINUOUS
 62
3
 10
310.570709359697500
 20
-70.346271002707169
 40
2.999999999999914
 50
135.000240084983430
 51
217.097032351500560
  0
ARC
  8
0
  6
CONTINUOUS
 62
3
 10
302.792502174035230
 20
-62.568129002402088
 40
3.000000000000062
 50
232.903447818469460
 51
315.000240084984570
  0
ARC
  8
0
  6
CONTINUOUS
 62
3
 10
329.084919918006560
 20
-36.275490912666271
 40
3.000000000000034
 50
315.000240084987240
 51
49.096283843136405
  0
ARC
  8
0
  6
CONTINUOUS
 62
3
 10
336.863127103669060
 20
-44.053632912971352
 40
3.000000000000023
 50
40.904196326832619
 51
135.000240084986500
  0
LINE
  8
0
  6
CONTINUOUS
 62
3
 10
331.206249150460050
 20
-38.396802367294868
 11
304.913831406488610
 21
-64.689440457030770
  0
LINE
  8
0
  6
CONTINUOUS
 62
3
 10
334.741797871215570
 20
-41.932321458342699
 11
308.449380127244240
 21
-68.224959548078516
  0
ARC
  8
0
  6
CONTINUOUS
 62
3
 10
278.666102517447140
 20
-94.472938038197753
 40
10.999999999999600
 50
195.826620131872940
 51
164.173379868127060
  0
LINE
  8
0
  6
CONTINUOUS
 62
3
 10
265.166102517447140
 20
-91.472938038197753
 11
271.166102517447140
 21
-91.472938038197753
  0
CIRCLE
  8
0
  6
CONTINUOUS
 62
3
 10
278.666102517447140
 20
-94.472938038197753
 40
3.323500000000024
  0
CIRCLE
  8
0
  6
CONTINUOUS
 62
4
 10
278.666102517447140
 20
-94.472938038197753
 40
4.000000000000000
  0
CIRCLE
  8
0
  6
CONTINUOUS
 62
4
 10
278.666102517447140
 20
-94.472938038197753
 40
4.000000000000000
  0
LINE
  8
0
  6
CONTINUOUS
 62
3
 10
265.166102517447140
 20
-97.472938038197753
 11
271.166102517447140
 21
-97.472938038197753
  0
LINE
  8
0
  6
CONTINUOUS
 62
3
 10
271.166102517447140
 20
-91.472938038197753
 11
271.166102517447140
 21
-97.472938038197753
  0
LINE
  8
0
  6
CONTINUOUS
 62
3
 10
265.166102517447140
 20
-97.472938038197753
 11
265.166102517447140
 21
-91.472938038197753
  0
CIRCLE
  8
0
  6
CONTINUOUS
 62
3
 10
278.666102517447140
 20
-94.472938038197753
 40
19.000000000000000
  0
CIRCLE
  8
0
  6
CONTINUOUS
 62
3
 10
199.116589633960530
 20
-14.923425154711168
 40
6.000000000000000
  0
CIRCLE
  8
0
  6
CONTINUOUS
 62
3
 10
199.116589633960640
 20
-174.022450921684450
 40
6.000000000000000
  0
CIRCLE
  8
0
  6
CONTINUOUS
 62
3
 10
358.215615400933870
 20
-174.022450921684310
 40
6.000000000000000
  0
CIRCLE
  8
0
  6
CONTINUOUS
 62
3
 10
358.215615400933760
 20
-14.923425154711055
 40
6.000000000000000
  0
LINE
  8
0
  6
DASHDOT
 62
4
 10
348.338377575462690
 20
-164.145213096213580
 11
365.631296723267840
 21
-181.438132244018560
  0
LINE
  8
0
  6
DASHDOT
 62
4
 10
348.338377575462690
 20
-24.800662980181897
 11
365.631296723267840
 21
-7.507743832376974
  0
LINE
  8
0
  6
DASHDOT
 62
4
 10
208.993827459431600
 20
-24.800662980181897
 11
191.700908311626450
 21
-7.507743832376974
  0
LINE
  8
0
  6
DASHDOT
 62
4
 10
186.166102517447140
 20
-146.590414258492020
 11
186.166102517447140
 21
-169.458923434255640
  0
LINE
  8
0
  6
CONTINUOUS
 62
3
 10
186.166102517447140
 20
-124.094754818830020
 11
163.143467775986660
 21
-175.804439080308130
  0
LINE
  8
0
  6
CONTINUOUS
 62
3
 10
165.095803662750770
 20
-171.419420883623590
 11
168.612953674674830
 21
-172.985356959465410
  0
LINE
  8
0
  6
CONTINUOUS
 62
3
 10
166.722750235054040
 20
-167.765239053053590
 11
170.239900246977870
 21
-169.331175128895410
  0
LINE
  8
0
  6
CONTINUOUS
 62
3
 10
186.290393494643470
 20
-114.472938038197730
 11
160.078731680020610
 21
-173.345294378977740
  0
LINE
  8
0
  6
CONTINUOUS
 62
3
 10
186.166102517447140
 20
-160.972938038197730
 11
169.746877486118360
 21
-160.972938038197730
  0
LINE
  8
0
  6
CONTINUOUS
 62
3
 10
163.861382460625920
 20
-164.849321622901440
 11
162.966998340949430
 21
-164.451116157137190
  0
LINE
  8
0
  6
CONTINUOUS
 62
3
 10
161.014225959095030
 20
-171.244139826399730
 11
160.119841839418540
 21
-170.845934360635250
  0
LINE
  8
0
  6
CONTINUOUS
 62
3
 10
163.861382460625920
 20
-164.849321622901440
 11
161.014225959095030
 21
-171.244139826399730
  0
LINE
  8
0
  6
CONTINUOUS
 62
3
 10
163.861382460625920
 20
-164.849321622901440
 11
161.014225959095030
 21
-171.244139826399730
  0
LINE
  8
0
  6
CONTINUOUS
 62
3
 10
170.417283332076290
 20
-169.793273864146810
 11
169.075052409926230
 21
-172.807973874366980
  0
LINE
  8
0
  6
CONTINUOUS
 62
3
 10
168.612953674674830
 20
-172.985356959465410
 11
169.075052409926230
 21
-172.807973874366980
  0
LINE
  8
0
  6
CONTINUOUS
 62
3
 10
170.239900246977870
 20
-169.331175128895410
 11
170.417283332076290
 21
-169.793273864146810
  0
LINE
  8
0
  6
CONTINUOUS
 62
4
 10
166.580392409977550
 20
-168.084979963228510
 11
170.417283332076290
 21
-169.793273864146810
  0
LINE
  8
0
  6
CONTINUOUS
 62
4
 10
165.238161487827030
 20
-171.099679973449130
 11
169.075052409926000
 21
-172.807973874367430
  0
LINE
  8
0
  6
CONTINUOUS
 62
3
 10
160.585540494586890
 20
-174.665576479696000
 11
163.143467775986660
 21
-175.804439080308130
  0
ARC
  8
0
  6
CONTINUOUS
 62
3
 10
168.284494790283130
 20
-170.649845085178380
 40
9.000000000000075
 50
139.398468892516490
 51
172.601548410321070
  0
ARC
  8
0
  6
CONTINUOUS
 62
3
 10
160.648599165101810
 20
-169.658325962679750
 40
1.299999237060687
 50
172.601548410320760
 51
246.000017986079880
  0
ARC
  8
0
  6
CONTINUOUS
 62
3
 10
161.986503264050040
 20
-145.864794307486790
 40
1.000000000000008
 50
2.994076090848812
 51
56.047873053604029
  0
ARC
  8
0
  6
CONTINUOUS
 62
3
 10
163.103503288662520
 20
-144.205785282491630
 40
0.999999999999988
 50
182.841389015366990
 51
236.047873053618590
  0
ARC
  8
0
  6
CONTINUOUS
 62
3
 10
762.166102517447140
 20
-114.472938038198030
 40
600.799999999999950
 50
179.412192132293110
 51
182.841389015363320
  0
ARC
  8
0
  6
CONTINUOUS
 62
3
 10
165.796088921028060
 20
-158.595572626434860
 40
2.000000000000632
 50
184.231338074886000
 51
245.999999999972630
  0
ARC
  8
0
  6
CONTINUOUS
 62
3
 10
164.371415253748640
 20
-161.245175878076420
 40
1.000000000000041
 50
335.999999999996420
 51
66.000000000020236
  0
ARC
  8
0
  6
CONTINUOUS
 62
3
 10
160.992277137663220
 20
-173.752031022053390
 40
0.999999999999948
 50
156.000000000008300
 51
245.999999999972630
  0
ARC
  8
0
  6
CONTINUOUS
 62
3
 10
163.200053525135440
 20
-163.876097396084300
 40
1.000000000000041
 50
335.999999999996420
 51
4.715124834083239
  0
ARC
  8
0
  6
CONTINUOUS
 62
3
 10
762.166102517447140
 20
-114.472938038198030
 40
600.000000000001140
 50
178.317231198866840
 51
184.715124834091600
  0
ARC
  8
0
  6
CONTINUOUS
 62
3
 10
162.438241015266390
 20
-165.638724555092690
 40
1.299999237060620
 50
65.999999316753915
 51
139.398468892516150
  0
ARC
  8
0
  6
CONTINUOUS
 62
3
 10
162.397666964173370
 20
-108.319588220549790
 40
1.000000000000128
 50
126.205708094041610
 51
179.412192132278280
  0
ARC
  8
0
  6
CONTINUOUS
 62
3
 10
161.216294847896960
 20
-106.705785282491640
 40
0.999999999999994
 50
306.205708094031080
 51
359.259505056807090
  0
ARC
  8
0
  6
CONTINUOUS
 62
3
 10
177.418391502887970
 20
-97.294042170462930
 40
15.000000000000041
 50
99.318123119675519
 51
178.317231198866920
  0
LINE
  8
0
  6
DASHDOT
 62
4
 10
381.362869139145910
 20
-94.472938038197753
 11
154.692820065218260
 21
-94.472938038197753
  0
LINE
  8
0
  6
CONTINUOUS
 62
3
 10
186.166102517447140
 20
-80.658129770352446
 11
174.989652050696350
 21
-82.491973913851993
  0
LINE
  8
0
  6
CONTINUOUS
 62
3
 10
-117.106405324831480
 20
-60.732822937759977
 11
-119.106405324831480
 21
-62.385464576883408
  0
LINE
  8
0
  6
CONTINUOUS
 62
3
 10
-115.106405324831480
 20
-59.557037452137195
 11
-117.106405324831480
 21
-60.732822937759977
  0
LINE
  8
0
  6
CONTINUOUS
 62
3
 10
-117.106405324831480
 20
-60.732822937759977
 11
-115.106405324831480
 21
-62.385464576883408
  0
LINE
  8
0
  6
CONTINUOUS
 62
3
 10
-119.106405324831480
 20
-59.557037452137195
 11
-117.106405324831480
 21
-60.732822937759977
  0
POLYLINE
  8
0
  6
CONTINUOUS
 62
3
 66
1
 70
1
  0
VERTEX
  8
0
  6
CONTINUOUS
 62
3
 10
-112.406405324831490
 20
-62.549413006137513
  0
VERTEX
  8
0
  6
CONTINUOUS
 62
3
 10
-112.496714506936310
 20
-61.846456039937152
  0
VERTEX
  8
0
  6
CONTINUOUS
 62
3
 10
-112.764171522028440
 20
-61.170513315725060
  0
VERTEX
  8
0
  6
CONTINUOUS
 62
3
 10
-113.198498147009530
 20
-60.547560933319659
  0
VERTEX
  8
0
  6
CONTINUOUS
 62
3
 10
-113.783003453254720
 20
-60.001538603421075
  0
VERTEX
  8
0
  6
CONTINUOUS
 62
3
 10
-114.495225229639360
 20
-59.553429657954460
  0
VERTEX
  8
0
  6
CONTINUOUS
 62
3
 10
-115.307793192715560
 20
-59.220454672391703
  0
VERTEX
  8
0
  6
CONTINUOUS
 62
3
 10
-116.189480811355670
 20
-59.015409688693452
  0
VERTEX
  8
0
  6
CONTINUOUS
 62
3
 10
-117.106405324831480
 20
-58.946174470592680
  0
VERTEX
  8
0
  6
CONTINUOUS
 62
3
 10
-118.023329838307290
 20
-59.015409688693452
  0
VERTEX
  8
0
  6
CONTINUOUS
 62
3
 10
-118.905017456947400
 20
-59.220454672391703
  0
VERTEX
  8
0
  6
CONTINUOUS
 62
3
 10
-119.717585420023610
 20
-59.553429657954460
  0
VERTEX
  8
0
  6
CONTINUOUS
 62
3
 10
-120.429807196408240
 20
-60.001538603421075
  0
VERTEX
  8
0
  6
CONTINUOUS
 62
3
 10
-121.014312502653430
 20
-60.547560933319659
  0
VERTEX
  8
0
  6
CONTINUOUS
 62
3
 10
-121.448639127634520
 20
-61.170513315725060
  0
VERTEX
  8
0
  6
CONTINUOUS
 62
3
 10
-121.716096142726650
 20
-61.846456039937152
  0
VERTEX
  8
0
  6
CONTINUOUS
 62
3
 10
-121.806405324831470
 20
-62.549413006137513
  0
VERTEX
  8
0
  6
CONTINUOUS
 62
3
 10
-121.716096142726650
 20
-63.252369972337874
  0
VERTEX
  8
0
  6
CONTINUOUS
 62
3
 10
-121.448639127634520
 20
-63.928312696549966
  0
VERTEX
  8
0
  6
CONTINUOUS
 62
3
 10
-121.014312502653430
 20
-64.551265078955367
  0
VERTEX
  8
0
  6
CONTINUOUS
 62
3
 10
-120.429807196408240
 20
-65.097287408853944
  0
VERTEX
  8
0
  6
CONTINUOUS
 62
3
 10
-119.717585420023610
 20
-65.545396354320559
  0
VERTEX
  8
0
  6
CONTINUOUS
 62
3
 10
-118.905017456947400
 20
-65.878371339883330
  0
VERTEX
  8
0
  6
CONTINUOUS
 62
3
 10
-118.023329838307290
 20
-66.083416323581574
  0
VERTEX
  8
0
  6
CONTINUOUS
 62
3
 10
-117.106405324831480
 20
-66.152651541682346
  0
VERTEX
  8
0
  6
CONTINUOUS
 62
3
 10
-116.189480811355670
 20
-66.083416323581574
  0
VERTEX
  8
0
  6
CONTINUOUS
 62
3
 10
-115.307793192715560
 20
-65.878371339883330
  0
VERTEX
  8
0
  6
CONTINUOUS
 62
3
 10
-114.495225229639360
 20
-65.545396354320559
  0
VERTEX
  8
0
  6
CONTINUOUS
 62
3
 10
-113.783003453254720
 20
-65.097287408853944
  0
VERTEX
  8
0
  6
CONTINUOUS
 62
3
 10
-113.198498147009530
 20
-64.551265078955367
  0
VERTEX
  8
0
  6
CONTINUOUS
 62
3
 10
-112.764171522028440
 20
-63.928312696549966
  0
VERTEX
  8
0
  6
CONTINUOUS
 62
3
 10
-112.496714506936310
 20
-63.252369972337874
  0
SEQEND
  8
0
  6
CONTINUOUS
 62
3
  0
ARC
  8
0
  6
CONTINUOUS
 62
3
 10
-154.506405324781780
 20
-161.916143095443030
 40
2.600000000000136
 50
180.000000000000000
 51
234.999999999998610
  0
LINE
  8
0
  6
CONTINUOUS
 62
3
 10
-146.271958274273400
 20
-170.855978923977370
 11
-155.997704059294390
 21
-164.045938410594150
  0
ARC
  8
0
  6
CONTINUOUS
 62
3
 10
-134.800429547252410
 20
-154.472938038197580
 40
20.000000000000007
 50
234.999999999999740
 51
270.000000000000000
  0
LINE
  8
0
  6
CONTINUOUS
 62
3
 10
-157.106405324781920
 20
-114.472938038197580
 11
-157.106405324781920
 21
-161.916143095443030
  0
LINE
  8
0
  6
CONTINUOUS
 62
3
 10
-120.152294487961620
 20
-174.472938038197580
 11
-134.800429547252410
 21
-174.472938038197580
  0
LINE
  8
0
  6
CONTINUOUS
 62
3
 10
-9.106405324832167
 20
-172.972938038197580
 11
-9.106405324832167
 21
-114.472938038197580
  0
LINE
  8
0
  6
CONTINUOUS
 62
3
 10
-9.106405324832167
 20
-172.972938038197580
 11
-37.666851546742009
 21
-172.972938038197580
  0
LINE
  8
0
  6
DASHDOT
 62
4
 10
36.909806772022421
 20
-114.472938038197580
 11
-167.035617863178690
 21
-114.472938038197580
  0
LINE
  8
0
  6
CONTINUOUS
 62
4
 10
-33.656405324833486
 20
-146.223729754571930
 11
-9.106405324832167
 21
-146.223729754571930
  0
LINE
  8
0
  6
CONTINUOUS
 62
4
 10
-33.656405324833486
 20
-150.187475178371470
 11
-9.106405324832167
 21
-150.187475178371470
  0
LINE
  8
0
  6
CONTINUOUS
 62
4
 10
-33.656405324833486
 20
-151.792123093933530
 11
-9.106405324832167
 21
-151.792123093933530
  0
LINE
  8
0
  6
CONTINUOUS
 62
4
 10
-33.656405324833486
 20
-159.838724756667320
 11
-9.106405324832167
 21
-159.838724756667320
  0
LINE
  8
0
  6
CONTINUOUS
 62
4
 10
-33.656405324833486
 20
-164.788472224973080
 11
-9.106405324832167
 21
-164.788472224973080
  0
LINE
  8
0
  6
CONTINUOUS
 62
4
 10
-34.855329877553004
 20
-169.472938038197580
 11
-9.106405324832167
 21
-169.472938038197580
  0
LINE
  8
0
  6
CONTINUOUS
 62
4
 10
-35.432886290398528
 20
-170.472938038197580
 11
13.393594675167833
 21
-170.472938038197580
  0
LINE
  8
0
  6
CONTINUOUS
 62
4
 10
-36.603974725223566
 20
-171.972938038197580
 11
13.393594675167833
 21
-171.972938038197580
  0
LINE
  8
0
  6
CONTINUOUS
 62
4
 10
-36.166085729324436
 20
-171.472938038197580
 11
13.393594675167833
 21
-171.472938038197580
  0
LINE
  8
0
  6
CONTINUOUS
 62
4
 10
-33.656405324833486
 20
-134.472938038197580
 11
-9.106405324832167
 21
-134.472938038197580
  0
LINE
  8
0
  6
CONTINUOUS
 62
4
 10
-33.656405324833486
 20
-140.664871830677210
 11
-9.106405324832167
 21
-140.664871830677210
  0
LINE
  8
0
  6
CONTINUOUS
 62
4
 10
-33.656405324833486
 20
-139.302991495327940
 11
-9.106405324832167
 21
-139.302991495327940
  0
LINE
  8
0
  6
CONTINUOUS
 62
4
 10
-33.656405324833486
 20
-144.755372364766860
 11
-9.106405324832167
 21
-144.755372364766860
  0
ARC
  8
0
  6
CONTINUOUS
 62
3
 10
-154.506405324781780
 20
-67.029732980952133
 40
2.599999999999721
 50
125.000000000001370
 51
180.000000000000000
  0
LINE
  8
0
  6
CONTINUOUS
 62
3
 10
-146.271958274273400
 20
-58.089897152417791
 11
-155.997704059294390
 21
-64.899937665801019
  0
ARC
  8
0
  6
CONTINUOUS
 62
3
 10
-134.800429547252410
 20
-74.472938038197583
 40
20.000000000000000
 50
90.000000000000000
 51
125.000000000000240
  0
LINE
  8
0
  6
CONTINUOUS
 62
3
 10
-157.106405324781920
 20
-114.472938038197580
 11
-157.106405324781920
 21
-67.029732980952133
  0
LINE
  8
0
  6
CONTINUOUS
 62
3
 10
-106.106405324832050
 20
-54.472938038197583
 11
-134.800429547252410
 21
-54.472938038197583
  0
LINE
  8
0
  6
CONTINUOUS
 62
3
 10
-9.106405324832167
 20
-55.972938038197583
 11
-9.106405324832167
 21
-114.472938038197580
  0
LINE
  8
0
  6
CONTINUOUS
 62
3
 10
-9.106405324832167
 20
-55.972938038197583
 11
-106.106405324832050
 21
-55.972938038197583
  0
LINE
  8
0
  6
CONTINUOUS
 62
3
 10
-106.106405324832050
 20
-71.876330397591630
 11
-106.106405324832050
 21
-54.472938038197583
  0
LINE
  8
0
  6
CONTINUOUS
 62
4
 10
-33.656405324833486
 20
-82.722146321823232
 11
13.393594675167833
 21
-82.722146321823232
  0
LINE
  8
0
  6
CONTINUOUS
 62
4
 10
-34.456275098380956
 20
-78.758400898023694
 11
-9.106405324832167
 21
-78.758400898023694
  0
LINE
  8
0
  6
CONTINUOUS
 62
4
 10
-35.262146028441521
 20
-77.153752982461640
 11
-9.106405324832167
 21
-77.153752982461640
  0
LINE
  8
0
  6
CONTINUOUS
 62
4
 10
-106.106405324832050
 20
-69.107151319727848
 11
-9.106405324832167
 21
-69.107151319727848
  0
LINE
  8
0
  6
CONTINUOUS
 62
4
 10
-106.106405324832050
 20
-64.157403851422089
 11
-9.106405324832167
 21
-64.157403851422089
  0
LINE
  8
0
  6
CONTINUOUS
 62
4
 10
-106.106405324832050
 20
-59.472938038197583
 11
-9.106405324832167
 21
-59.472938038197583
  0
LINE
  8
0
  6
CONTINUOUS
 62
4
 10
-106.106405324832050
 20
-58.472938038197583
 11
-9.106405324832167
 21
-58.472938038197583
  0
LINE
  8
0
  6
CONTINUOUS
 62
4
 10
-106.106405324832050
 20
-56.972938038197583
 11
-9.106405324832167
 21
-56.972938038197583
  0
LINE
  8
0
  6
CONTINUOUS
 62
4
 10
-106.106405324832050
 20
-57.472938038197583
 11
-9.106405324832167
 21
-57.472938038197583
  0
LINE
  8
0
  6
CONTINUOUS
 62
4
 10
-33.656405324833486
 20
-94.472938038197583
 11
-9.106405324832167
 21
-94.472938038197583
  0
LINE
  8
0
  6
CONTINUOUS
 62
4
 10
-33.656405324833486
 20
-88.281004245717952
 11
-9.106405324832167
 21
-88.281004245717952
  0
LINE
  8
0
  6
CONTINUOUS
 62
4
 10
-33.656405324833486
 20
-89.642884581067221
 11
-9.106405324832167
 21
-89.642884581067221
  0
LINE
  8
0
  6
CONTINUOUS
 62
4
 10
-33.656405324833486
 20
-84.190503711628310
 11
-9.106405324832167
 21
-84.190503711628310
  0
LINE
  8
0
  6
CONTINUOUS
 62
3
 10
-126.556405324831070
 20
-82.876330397591630
 11
-126.556405324831070
 21
-164.479049765847380
  0
LINE
  8
0
  6
CONTINUOUS
 62
3
 10
-120.156405324831430
 20
-82.971148601090192
 11
-120.156405324831430
 21
-159.048892807750290
  0
ARC
  8
0
  6
CONTINUOUS
 62
4
 10
-115.156405324831430
 20
-89.472938038197356
 40
5.000000000000000
 50
90.000000000000000
 51
180.000000000000000
  0
LINE
  8
0
  6
CONTINUOUS
 62
4
 10
-80.106405324832167
 20
-84.472938038197356
 11
-115.156405324831430
 21
-84.472938038197356
  0
ARC
  8
0
  6
CONTINUOUS
 62
3
 10
-115.156405324831430
 20
-82.971148601090192
 40
5.000000000000000
 50
90.000000000000000
 51
180.000000000000000
  0
LINE
  8
0
  6
CONTINUOUS
 62
3
 10
-80.106405324832167
 20
-77.971148601090192
 11
-115.156405324831430
 21
-77.971148601090192
  0
ARC
  8
0
  6
CONTINUOUS
 62
3
 10
-115.556405324831070
 20
-82.876330397591630
 40
11.000000000000000
 50
90.000000000000000
 51
180.000000000000000
  0
LINE
  8
0
  6
CONTINUOUS
 62
3
 10
-115.556405324831070
 20
-71.876330397591630
 11
-80.106405324832167
 21
-71.876330397591630
  0
LINE
  8
0
  6
CONTINUOUS
 62
4
 10
-101.757040419442310
 20
-145.205785282491490
 11
-87.323283689701611
 21
-145.205785282491490
  0
LINE
  8
0
  6
CONTINUOUS
 62
4
 10
-80.106405324832167
 20
-132.705785282491490
 11
-87.323283689701611
 21
-145.205785282491490
  0
LINE
  8
0
  6
CONTINUOUS
 62
4
 10
-94.540162054571965
 20
-132.705785282491490
 11
-101.757040419442310
 21
-145.205785282491490
  0
LINE
  8
0
  6
CONTINUOUS
 62
4
 10
-94.540162054571965
 20
-132.705785282491490
 11
-80.106405324832167
 21
-132.705785282491490
  0
LINE
  8
0
  6
CONTINUOUS
 62
4
 10
-87.323283689702521
 20
-120.205785282491710
 11
-80.106405324832167
 21
-132.705785282491490
  0
LINE
  8
0
  6
CONTINUOUS
 62
4
 10
-80.106405324832167
 20
-107.705785282491490
 11
-87.323283689702521
 21
-120.205785282491490
  0
LINE
  8
0
  6
CONTINUOUS
 62
4
 10
-65.672648595092369
 20
-132.705785282491490
 11
-58.455770230222015
 21
-145.205785282491490
  0
LINE
  8
0
  6
CONTINUOUS
 62
4
 10
-58.455770230222015
 20
-145.205785282491490
 11
-72.889526959962723
 21
-145.205785282491490
  0
LINE
  8
0
  6
CONTINUOUS
 62
4
 10
-80.106405324832167
 20
-107.705785282491490
 11
-72.889526959961813
 21
-120.205785282491490
  0
LINE
  8
0
  6
CONTINUOUS
 62
4
 10
-72.889526959961813
 20
-120.205785282491710
 11
-80.106405324832167
 21
-132.705785282491490
  0
LINE
  8
0
  6
CONTINUOUS
 62
4
 10
-65.672648595092369
 20
-132.705785282491490
 11
-80.106405324832167
 21
-132.705785282491490
  0
LINE
  8
0
  6
CONTINUOUS
 62
4
 10
-80.106405324832167
 20
-132.705785282491490
 11
-72.889526959962723
 21
-145.205785282491490
  0
LINE
  8
0
  6
DASHDOT
 62
4
 10
-80.106405324832167
 20
-68.973338205405582
 11
-80.106405324832167
 21
-181.627057630642240
  0
ARC
  8
0
  6
CONTINUOUS
 62
3
 10
-115.156405324831430
 20
-159.048892807750290
 40
5.000000000000000
 50
180.000000000000000
 51
270.000000000000000
  0
LINE
  8
0
  6
CONTINUOUS
 62
3
 10
-88.593879542225750
 20
-164.048892807750290
 11
-115.156405324831430
 21
-164.048892807750290
  0
ARC
  8
0
  6
CONTINUOUS
 62
3
 10
-115.556405324831070
 20
-164.479049765847380
 40
11.000000000000000
 50
180.000000000000000
 51
270.000000000000000
  0
ARC
  8
0
  6
CONTINUOUS
 62
3
 10
-115.556405324831070
 20
-163.258839836620210
 40
11.000000000000000
 50
180.000000000000000
 51
270.000000000000000
  0
LINE
  8
0
  6
CONTINUOUS
 62
3
 10
-115.556405324831070
 20
-174.258839836620210
 11
-80.106405324832167
 21
-174.258839836620210
  0
LINE
  8
0
  6
CONTINUOUS
 62
3
 10
-115.556405324831070
 20
-175.479049765847380
 11
-80.106405324832167
 21
-175.479049765847380
  0
ARC
  8
0
  6
CONTINUOUS
 62
3
 10
-89.366623505445432
 20
-160.048892820600540
 40
3.999999987149749
 50
270.000000000000000
 51
318.821565628880590
  0
POLYLINE
  8
0
  6
CONTINUOUS
 62
3
 66
1
  0
VERTEX
  8
0
  6
CONTINUOUS
 62
3
 10
-80.106405324832167
 20
-159.936663024762990
  0
VERTEX
  8
0
  6
CONTINUOUS
 62
3
 10
-81.533256612247058
 20
-160.053845693413990
  0
VERTEX
  8
0
  6
CONTINUOUS
 62
3
 10
-82.914351489778724
 20
-160.401635873821160
  0
VERTEX
  8
0
  6
CONTINUOUS
 62
3
 10
-84.205400868675355
 20
-160.968880595672520
  0
VERTEX
  8
0
  6
CONTINUOUS
 62
3
 10
-85.365003248247049
 20
-161.737389398458280
  0
VERTEX
  8
0
  6
CONTINUOUS
 62
3
 10
-86.355972383333437
 20
-162.682517664978800
  0
SEQEND
  8
0
  6
CONTINUOUS
 62
3
  0
ARC
  8
0
  6
CONTINUOUS
 62
3
 10
-88.593879540552507
 20
-160.048892813973960
 40
3.999999993776328
 50
270.000000000000000
 51
313.301579148531630
  0
POLYLINE
  8
0
  6
CONTINUOUS
 62
3
 66
1
  0
VERTEX
  8
0
  6
CONTINUOUS
 62
3
 10
-80.106405324832167
 20
-160.738367063509710
  0
VERTEX
  8
0
  6
CONTINUOUS
 62
3
 10
-81.382445714751881
 20
-160.831935219428540
  0
VERTEX
  8
0
  6
CONTINUOUS
 62
3
 10
-82.625812102200285
 20
-161.110243802084630
  0
VERTEX
  8
0
  6
CONTINUOUS
 62
3
 10
-83.804667127845164
 20
-161.566166504670350
  0
VERTEX
  8
0
  6
CONTINUOUS
 62
3
 10
-84.888825295737078
 20
-162.188029073275910
  0
VERTEX
  8
0
  6
CONTINUOUS
 62
3
 10
-85.850525896311638
 20
-162.959908235202530
  0
SEQEND
  8
0
  6
CONTINUOUS
 62
3
  0
LINE
  8
0
  6
CONTINUOUS
 62
3
 10
-78.106405324832167
 20
-168.907836442425430
 11
-82.106405324832167
 21
-165.253654611854980
  0
LINE
  8
0
  6
CONTINUOUS
 62
3
 10
-82.106405324832167
 20
-168.907836442425430
 11
-78.106405324832167
 21
-165.253654611854980
  0
POLYLINE
  8
0
  6
CONTINUOUS
 62
3
 66
1
 70
1
  0
VERTEX
  8
0
  6
CONTINUOUS
 62
3
 10
-76.606405324832167
 20
-167.791432572215910
  0
VERTEX
  8
0
  6
CONTINUOUS
 62
3
 10
-76.673656843420858
 20
-167.117842802169780
  0
VERTEX
  8
0
  6
CONTINUOUS
 62
3
 10
-76.872826961042662
 20
-166.470138709233030
  0
VERTEX
  8
0
  6
CONTINUOUS
 62
3
 10
-77.196261681773265
 20
-165.873211198460550
  0
VERTEX
  8
0
  6
CONTINUOUS
 62
3
 10
-77.631531590679245
 20
-165.349999859330580
  0
VERTEX
  8
0
  6
CONTINUOUS
 62
3
 10
-78.161909509263566
 20
-164.920611410185530
  0
VERTEX
  8
0
  6
CONTINUOUS
 62
3
 10
-78.767013311554351
 20
-164.601547008322260
  0
VERTEX
  8
0
  6
CONTINUOUS
 62
3
 10
-79.423589197775712
 20
-164.405068119770990
  0
VERTEX
  8
0
  6
CONTINUOUS
 62
3
 10
-80.106405324832167
 20
-164.338725318032120
  0
VERTEX
  8
0
  6
CONTINUOUS
 62
3
 10
-80.789221451888622
 20
-164.405068119770990
  0
VERTEX
  8
0
  6
CONTINUOUS
 62
3
 10
-81.445797338109983
 20
-164.601547008322260
  0
VERTEX
  8
0
  6
CONTINUOUS
 62
3
 10
-82.050901140400768
 20
-164.920611410185530
  0
VERTEX
  8
0
  6
CONTINUOUS
 62
3
 10
-82.581279058985089
 20
-165.349999859330580
  0
VERTEX
  8
0
  6
CONTINUOUS
 62
3
 10
-83.016548967891069
 20
-165.873211198460550
  0
VERTEX
  8
0
  6
CONTINUOUS
 62
3
 10
-83.339983688621672
 20
-166.470138709233030
  0
VERTEX
  8
0
  6
CONTINUOUS
 62
3
 10
-83.539153806243476
 20
-167.117842802169780
  0
VERTEX
  8
0
  6
CONTINUOUS
 62
3
 10
-83.606405324832167
 20
-167.791432572215910
  0
VERTEX
  8
0
  6
CONTINUOUS
 62
3
 10
-83.539153806243476
 20
-168.465022342262050
  0
VERTEX
  8
0
  6
CONTINUOUS
 62
3
 10
-83.339983688621672
 20
-169.112726435198790
  0
VERTEX
  8
0
  6
CONTINUOUS
 62
3
 10
-83.016548967891069
 20
-169.709653945971270
  0
VERTEX
  8
0
  6
CONTINUOUS
 62
3
 10
-82.581279058985075
 20
-170.232865285101240
  0
VERTEX
  8
0
  6
CONTINUOUS
 62
3
 10
-82.050901140400768
 20
-170.662253734246290
  0
VERTEX
  8
0
  6
CONTINUOUS
 62
3
 10
-81.445797338109983
 20
-170.981318136109560
  0
VERTEX
  8
0
  6
CONTINUOUS
 62
3
 10
-80.789221451888622
 20
-171.177797024660830
  0
VERTEX
  8
0
  6
CONTINUOUS
 62
3
 10
-80.106405324832167
 20
-171.244139826399700
  0
VERTEX
  8
0
  6
CONTINUOUS
 62
3
 10
-79.423589197775726
 20
-171.177797024660830
  0
VERTEX
  8
0
  6
CONTINUOUS
 62
3
 10
-78.767013311554351
 20
-170.981318136109560
  0
VERTEX
  8
0
  6
CONTINUOUS
 62
3
 10
-78.161909509263566
 20
-170.662253734246290
  0
VERTEX
  8
0
  6
CONTINUOUS
 62
3
 10
-77.631531590679259
 20
-170.232865285101240
  0
VERTEX
  8
0
  6
CONTINUOUS
 62
3
 10
-77.196261681773265
 20
-169.709653945971270
  0
VERTEX
  8
0
  6
CONTINUOUS
 62
3
 10
-76.872826961042662
 20
-169.112726435198790
  0
VERTEX
  8
0
  6
CONTINUOUS
 62
3
 10
-76.673656843420872
 20
-168.465022342262050
  0
SEQEND
  8
0
  6
CONTINUOUS
 62
3
  0
LINE
  8
0
  6
CONTINUOUS
 62
3
 10
-71.618931107438812
 20
-164.048892807750290
 11
-45.056405324833008
 21
-164.048892807750290
  0
POLYLINE
  8
0
  6
CONTINUOUS
 62
3
 66
1
  0
VERTEX
  8
0
  6
CONTINUOUS
 62
3
 10
-74.362284753352696
 20
-162.959908235202530
  0
VERTEX
  8
0
  6
CONTINUOUS
 62
3
 10
-75.323985353927256
 20
-162.188029073275910
  0
VERTEX
  8
0
  6
CONTINUOUS
 62
3
 10
-76.408143521819170
 20
-161.566166504670350
  0
VERTEX
  8
0
  6
CONTINUOUS
 62
3
 10
-77.586998547464049
 20
-161.110243802084630
  0
VERTEX
  8
0
  6
CONTINUOUS
 62
3
 10
-78.830364934912453
 20
-160.831935219428540
  0
VERTEX
  8
0
  6
CONTINUOUS
 62
3
 10
-80.106405324832167
 20
-160.738367063509710
  0
SEQEND
  8
0
  6
CONTINUOUS
 62
3
  0
ARC
  8
0
  6
CONTINUOUS
 62
3
 10
-71.618931109112054
 20
-160.048892813973960
 40
3.999999999999828
 50
226.698420851470790
 51
270.000000000000000
  0
POLYLINE
  8
0
  6
CONTINUOUS
 62
3
 66
1
  0
VERTEX
  8
0
  6
CONTINUOUS
 62
3
 10
-73.856838266331124
 20
-162.682517664978520
  0
VERTEX
  8
0
  6
CONTINUOUS
 62
3
 10
-74.847807401417498
 20
-161.737389398458110
  0
VERTEX
  8
0
  6
CONTINUOUS
 62
3
 10
-76.007409780989178
 20
-160.968880595672430
  0
VERTEX
  8
0
  6
CONTINUOUS
 62
3
 10
-77.298459159885752
 20
-160.401635873821110
  0
VERTEX
  8
0
  6
CONTINUOUS
 62
3
 10
-78.679554037417347
 20
-160.053845693413990
  0
VERTEX
  8
0
  6
CONTINUOUS
 62
3
 10
-80.106405324832167
 20
-159.936663024762990
  0
SEQEND
  8
0
  6
CONTINUOUS
 62
3
  0
ARC
  8
0
  6
CONTINUOUS
 62
3
 10
-70.846187144218902
 20
-160.048892820600540
 40
4.000000000000156
 50
221.178434371117250
 51
270.000000000000000
  0
ARC
  8
0
  6
CONTINUOUS
 62
3
 10
-44.656405324833372
 20
-163.258839836620210
 40
11.000000000000000
 50
270.000000000000000
 51
0.000000000000000
  0
ARC
  8
0
  6
CONTINUOUS
 62
3
 10
-44.656405324833372
 20
-164.479049765847380
 40
11.000000000000000
 50
270.000000000000000
 51
0.000000000000000
  0
LINE
  8
0
  6
CONTINUOUS
 62
3
 10
-44.656405324833372
 20
-175.479049765847380
 11
-80.106405324832167
 21
-175.479049765847380
  0
LINE
  8
0
  6
CONTINUOUS
 62
3
 10
-44.656405324833372
 20
-174.258839836620210
 11
-80.106405324832167
 21
-174.258839836620210
  0
ARC
  8
0
  6
CONTINUOUS
 62
3
 10
-45.056405324833008
 20
-159.048892807750290
 40
5.000000000000000
 50
270.000000000000000
 51
0.000000000000000
  0
LINE
  8
0
  6
CONTINUOUS
 62
3
 10
-40.056405324833008
 20
-82.971148601090192
 11
-40.056405324833008
 21
-159.048892807750290
  0
LINE
  8
0
  6
CONTINUOUS
 62
3
 10
-33.656405324833372
 20
-82.876330397591630
 11
-33.656405324833372
 21
-164.479049765847380
  0
LINE
  8
0
  6
CONTINUOUS
 62
3
 10
-80.106405324832167
 20
-77.971148601090192
 11
-45.056405324833008
 21
-77.971148601090192
  0
ARC
  8
0
  6
CONTINUOUS
 62
3
 10
-45.056405324833008
 20
-82.971148601090192
 40
5.000000000000000
 50
0.000000000000000
 51
90.000000000000000
  0
LINE
  8
0
  6
CONTINUOUS
 62
4
 10
-80.106405324832167
 20
-84.472938038197356
 11
-45.056405324833008
 21
-84.472938038197356
  0
ARC
  8
0
  6
CONTINUOUS
 62
4
 10
-45.056405324833008
 20
-89.472938038197356
 40
5.000000000000000
 50
0.000000000000000
 51
90.000000000000000
  0
ARC
  8
0
  6
CONTINUOUS
 62
3
 10
-44.656405324833372
 20
-82.876330397591630
 40
11.000000000000000
 50
0.000000000000000
 51
90.000000000000000
  0
LINE
  8
0
  6
CONTINUOUS
 62
3
 10
-44.656405324833372
 20
-71.876330397591630
 11
-80.106405324832167
 21
-71.876330397591630
  0
LINE
  8
0
  6
CONTINUOUS
 62
3
 10
-9.106405324832167
 20
-114.472938038197580
 11
-9.106405324832167
 21
-172.972938038197700
  0
LINE
  8
0
  6
CONTINUOUS
 62
3
 10
-9.106405324832167
 20
-114.472938038197580
 11
-9.106405324832167
 21
-55.972938038197697
  0
ENDSEC
  0
EOF
