  0
SECTION
  2
HEADER
  9
$FILLMODE
 70
1
  9
$TEXTSTYLE
  7
STANDARD1
  9
$ACADVER
  1
AC1009
  9
$DIMASZ
 40
1.931851648807023
  9
$DIMEXE
 40
2.000000000000000
  9
$DIMEXO
 40
1.000000000000000
  9
$DIMLFAC
 40
1.000000000000000
  9
$DIMSCALE
 40
1.000000000000000
  9
$DIMTAD
 70
1
  9
$DIMTFAC
 40
0.714285731315613
  9
$DIMTXT
 40
3.200000047683716
  9
$LUPREC
 70
3
  9
$TEXTSIZE
 40
3.299999952316284
  9
$REGENMODE
 70
1
  0
ENDSEC
  0
SECTION
  2
TABLES
  0
TABLE
  2
LTYPE
 70
4
  0
LTYPE
  2
CONTINUOUS
 70
64
  3
Solid line
 72
65
 73
0
 40
0.0
  0
LTYPE
  2
DASHED
 70
64
  3
-- -- -- -- -- -- -- -- -- -- -- -- -- -- --
 72
65
 73
2
 40
0.75
 49
0.5
 49
-0.25
  0
LTYPE
  2
DASHDOT
 70
64
  3
__ . __ . __ . __ . __ . __ . __ . __ . __ . __
 72
65
 73
4
 40
1.0
 49
0.5
 49
-0.25
 49
0.0
 49
-0.25
  0
LTYPE
  2
DIVIDE
 70
64
  3
__ . . __ . . __ . . __ . . __ . . __ . . __
 72
65
 73
6
 40
1.25
 49
0.5
 49
-0.25
 49
0.0
 49
-0.25
 49
0.0
 49
-0.25
  0
ENDTAB
  0
TABLE
  2
LAYER
 70
1
  0
LAYER
  2
0
 70
64
 62
2
  6
CONTINUOUS
  0
ENDTAB
  0
TABLE
  2
STYLE
 70
4
  0
STYLE
  2
STANDARD1
 70
64
 40
0.0
 41
1.0
 50
0.0
 71
0
 42
3.299999952316284
  3
MONOTXT
  4
BIGFONT
  0
STYLE
  2
STANDARD2
 70
68
 40
0.0
 41
1.0
 50
0.0
 71
0
 42
3.299999952316284
  3
MONOTXT
  4
BIGFONT
  0
STYLE
  2
STANDARD3
 70
64
 40
0.0
 41
1.0
 50
0.0
 71
0
 42
3.299999952316284
  3
MONOTXT
  4

  0
STYLE
  2
STANDARD4
 70
68
 40
0.0
 41
1.0
 50
0.0
 71
0
 42
3.299999952316284
  3
MONOTXT
  4

  0
ENDTAB
  0
TABLE
  2
VIEW
 70
0
  0
ENDTAB
  0
ENDSEC
  0
SECTION
  2
BLOCKS
  0
BLOCK
  8
0
  2
SYM1
 70
64
 10
0.000000000000000
 20
0.000000000000000
  0
POINT
  8
0
  6
CONTINUOUS
 62
3
 10
0.000000000000000
 20
0.000000000000000
  0
LINE
  8
0
  6
CONTINUOUS
 62
3
 10
0.000000000000000
 20
-6.500000000000000
 11
-0.000000000000000
 21
6.500000000000000
  0
LINE
  8
0
  6
CONTINUOUS
 62
3
 10
-7.999999046325684
 20
5.633875846862793
 11
-7.999999046325684
 21
-5.634070396423340
  0
LINE
  8
0
  6
CONTINUOUS
 62
3
 10
0.000000000000000
 20
6.500000000000000
 11
-7.499999046325684
 21
6.500000000000000
  0
LINE
  8
0
  6
CONTINUOUS
 62
3
 10
-0.000000000000000
 20
-6.500000000000000
 11
-7.499998092651367
 21
-6.500000000000000
  0
LINE
  8
0
  6
CONTINUOUS
 62
3
 10
-7.499999203818277
 20
6.499999909101064
 11
-7.999999021366804
 21
5.633876130311293
  0
LINE
  8
0
  6
CONTINUOUS
 62
3
 10
-7.499997911632022
 20
-6.499999445138201
 11
-7.999998623386432
 21
-5.634070287011241
  0
LINE
  8
0
  6
CONTINUOUS
 62
3
 10
-7.499999046325684
 20
6.500000000000000
 11
-7.499999046325684
 21
-6.500000000000000
  0
ENDBLK
  8
0
  0
ENDSEC
  0
SECTION
  2
ENTITIES
  0
ARC
  8
0
  6
CONTINUOUS
 62
3
 10
-271.181073359690860
 20
-216.618495426268140
 40
6.099999427795406
 50
264.601927898108500
 51
5.398089404735109
  0
POINT
  8
0
  6
CONTINUOUS
 62
3
 10
-268.918331794763840
 20
-218.881236991195180
  0
LINE
  8
0
  6
CONTINUOUS
 62
3
 10
-265.594930058057000
 20
-215.557835254488310
 11
-272.241733531470690
 21
-222.204638727902050
  0
LINE
  8
0
  6
CONTINUOUS
 62
3
 10
-265.281791449088190
 20
-215.810382205338700
 11
-271.958890751561110
 21
-222.487481507811620
  0
LINE
  8
0
  6
CONTINUOUS
 62
3
 10
-272.241733531470690
 20
-222.204638727902050
 11
-271.754930139765070
 21
-222.691442119607640
  0
LINE
  8
0
  6
CONTINUOUS
 62
3
 10
-265.594930058057000
 20
-215.557835254488310
 11
-265.108126666351380
 21
-216.044638646193930
  0
ARC
  8
0
  6
CONTINUOUS
 62
3
 10
-370.034601639309980
 20
-216.618495426268140
 40
6.099999427795398
 50
174.601910595264880
 51
275.398072101891500
  0
POINT
  8
0
  6
CONTINUOUS
 62
3
 10
-372.297343204237000
 20
-218.881236991195180
  0
LINE
  8
0
  6
CONTINUOUS
 62
3
 10
-375.620744940943840
 20
-215.557835254488310
 11
-368.973941467530150
 21
-222.204638727902050
  0
LINE
  8
0
  6
CONTINUOUS
 62
3
 10
-375.933883549912650
 20
-215.810382205338700
 11
-369.256784247439730
 21
-222.487481507811620
  0
LINE
  8
0
  6
CONTINUOUS
 62
3
 10
-368.973941467530150
 20
-222.204638727902050
 11
-369.460744859235770
 21
-222.691442119607640
  0
LINE
  8
0
  6
CONTINUOUS
 62
3
 10
-375.620744940943840
 20
-215.557835254488310
 11
-376.107548332649460
 21
-216.044638646193930
  0
ARC
  8
0
  6
CONTINUOUS
 62
3
 10
-370.034601639309980
 20
-117.764967146648840
 40
6.099999427795419
 50
84.601927898108485
 51
185.398089404735120
  0
POINT
  8
0
  6
CONTINUOUS
 62
3
 10
-372.297343204237000
 20
-115.502225581721800
  0
LINE
  8
0
  6
CONTINUOUS
 62
3
 10
-375.620744940943840
 20
-118.825627318428650
 11
-368.973941467530150
 21
-112.178823845014940
  0
LINE
  8
0
  6
CONTINUOUS
 62
3
 10
-375.933883549912650
 20
-118.573080367578280
 11
-369.256784247439730
 21
-111.895981065105370
  0
LINE
  8
0
  6
CONTINUOUS
 62
3
 10
-368.973941467530150
 20
-112.178823845014940
 11
-369.460744859235770
 21
-111.692020453309320
  0
LINE
  8
0
  6
CONTINUOUS
 62
3
 10
-375.620744940943840
 20
-118.825627318428650
 11
-376.107548332649460
 21
-118.338823926723030
  0
ARC
  8
0
  6
CONTINUOUS
 62
3
 10
-271.181073359690860
 20
-117.764967146648840
 40
6.099999427795398
 50
354.601910595264880
 51
95.398072101891515
  0
POINT
  8
0
  6
CONTINUOUS
 62
3
 10
-268.918331794763840
 20
-115.502225581721800
  0
LINE
  8
0
  6
CONTINUOUS
 62
3
 10
-265.594930058057000
 20
-118.825627318428650
 11
-272.241733531470690
 21
-112.178823845014940
  0
LINE
  8
0
  6
CONTINUOUS
 62
3
 10
-265.281791449088190
 20
-118.573080367578280
 11
-271.958890751561110
 21
-111.895981065105370
  0
LINE
  8
0
  6
CONTINUOUS
 62
3
 10
-272.241733531470690
 20
-112.178823845014940
 11
-271.754930139765070
 21
-111.692020453309320
  0
LINE
  8
0
  6
CONTINUOUS
 62
3
 10
-265.594930058057000
 20
-118.825627318428650
 11
-265.108126666351380
 21
-118.338823926723030
  0
LINE
  8
0
  6
DASHDOT
 62
4
 10
-30.701695146552083
 20
-76.191731286469690
 11
-6.483113809652423
 21
-76.191731286469690
  0
ARC
  8
0
  6
CONTINUOUS
 62
3
 10
-336.107837499500420
 20
-81.191731286467984
 40
5.000000000000000
 50
180.000000000000000
 51
270.000000000000000
  0
ARC
  8
0
  6
CONTINUOUS
 62
3
 10
-305.107837499500650
 20
-81.191731286467927
 40
5.000000000000000
 50
270.000000000000000
 51
0.000000000000000
  0
LINE
  8
0
  6
CONTINUOUS
 62
3
 10
-305.107837499500650
 20
-86.191731286467927
 11
-336.107837499500420
 21
-86.191731286467927
  0
CIRCLE
  8
0
  6
CONTINUOUS
 62
3
 10
-310.107837499500420
 20
-76.191731286467871
 40
5.633955001831055
  0
CIRCLE
  8
0
  6
CONTINUOUS
 62
3
 10
-310.107837499500420
 20
-76.191731286467871
 40
6.500000000000000
  0
LINE
  8
0
  6
CONTINUOUS
 62
3
 10
-313.107834161641450
 20
-77.923777286019117
 11
-313.107835115315770
 21
-74.459679309334547
  0
LINE
  8
0
  6
CONTINUOUS
 62
3
 10
-307.107840837359620
 20
-74.459684333242308
 11
-307.107839883685530
 21
-77.923782309926878
  0
LINE
  8
0
  6
CONTINUOUS
 62
3
 10
-307.107839387406780
 20
-77.923782679246642
 11
-310.107841963912510
 21
-79.655829651882982
  0
LINE
  8
0
  6
CONTINUOUS
 62
3
 10
-310.107842204489090
 20
-79.655829462216673
 11
-313.107835076600850
 21
-77.923777504500606
  0
CIRCLE
  8
0
  6
CONTINUOUS
 62
3
 10
-331.107837499500420
 20
-76.191731286467871
 40
5.633955001831055
  0
CIRCLE
  8
0
  6
CONTINUOUS
 62
3
 10
-331.107837499500420
 20
-76.191731286467871
 40
6.500000000000000
  0
LINE
  8
0
  6
CONTINUOUS
 62
3
 10
-328.107840837359390
 20
-77.923777286019117
 11
-328.107839883685070
 21
-74.459679309334547
  0
LINE
  8
0
  6
CONTINUOUS
 62
3
 10
-334.107834161641220
 20
-74.459684333242308
 11
-334.107835115315310
 21
-77.923782309926878
  0
LINE
  8
0
  6
CONTINUOUS
 62
3
 10
-334.107835611594060
 20
-77.923782679246642
 11
-331.107833035088110
 21
-79.655829651882982
  0
LINE
  8
0
  6
CONTINUOUS
 62
3
 10
-331.107832794511750
 20
-79.655829462216673
 11
-328.107839922399990
 21
-77.923777504500606
  0
LINE
  8
0
  6
CONTINUOUS
 62
3
 10
-300.107837499500420
 20
-42.191731286458378
 11
-300.107837499500420
 21
-81.191731286467927
  0
LINE
  8
0
  6
CONTINUOUS
 62
3
 10
-341.107837499500420
 20
-42.191731286458378
 11
-341.107837499500420
 21
-81.191731286467984
  0
LINE
  8
0
  6
DASHDOT
 62
4
 10
-320.607837499500420
 20
-11.183602555426376
 11
-320.607837499500420
 21
-261.948113707584010
  0
LINE
  8
0
  6
CONTINUOUS
 62
3
 10
-323.607837499500420
 20
-89.191731286467927
 11
-323.607837499500420
 21
-105.691731286458370
  0
LINE
  8
0
  6
CONTINUOUS
 62
3
 10
-317.607837499500420
 20
-89.191731286467927
 11
-317.607837499500420
 21
-105.691731286458370
  0
ARC
  8
0
  6
CONTINUOUS
 62
3
 10
-326.607837499500420
 20
-89.191731286467927
 40
3.000000000000000
 50
0.000000000000000
 51
90.000000000000000
  0
ARC
  8
0
  6
CONTINUOUS
 62
3
 10
-314.607837499500420
 20
-89.191731286467927
 40
3.000000000000000
 50
90.000000000000000
 51
180.000000000000000
  0
ARC
  8
0
  6
CONTINUOUS
 62
3
 10
-331.107837499500420
 20
-76.191731286467927
 40
10.000000000000000
 50
180.000000000000000
 51
270.000000000000000
  0
ARC
  8
0
  6
CONTINUOUS
 62
3
 10
-310.107837499500420
 20
-76.191731286467927
 40
10.000000000000000
 50
270.000000000000000
 51
0.000000000000000
  0
LINE
  8
0
  6
CONTINUOUS
 62
3
 10
-208.107837499500420
 20
-224.614741883847900
 11
-208.107837499500420
 21
-241.691731286458380
  0
LINE
  8
0
  6
CONTINUOUS
 62
3
 10
9.733655993892171
 20
38.808268713526218
 11
9.733655993892171
 21
226.808268713524850
  0
LINE
  8
0
  6
CONTINUOUS
 62
3
 10
9.733655993892171
 20
38.808268713526218
 11
90.838354483999638
 21
35.976030232856033
  0
ARC
  8
0
  6
CONTINUOUS
 62
3
 10
90.733655993892171
 20
32.977857751798751
 40
3.000000000000000
 50
0.000000000000000
 51
88.000000000000682
  0
LINE
  8
0
  6
CONTINUOUS
 62
3
 10
9.733655993892171
 20
226.808268713524400
 11
90.838354483999638
 21
229.640507194194580
  0
ARC
  8
0
  6
CONTINUOUS
 62
3
 10
90.733655993892171
 20
232.638679675251860
 40
2.999999999999993
 50
271.999999999999320
 51
0.000000000000000
  0
LINE
  8
0
  6
CONTINUOUS
 62
3
 10
9.233655993892171
 20
132.808268713524850
 11
9.233655993892171
 21
38.808268713526218
  0
ARC
  8
0
  6
CONTINUOUS
 62
3
 10
-0.766344006107829
 20
40.808268713526218
 40
2.000000000000000
 50
180.000000000000000
 51
270.000000000000000
  0
ARC
  8
0
  6
CONTINUOUS
 62
3
 10
-10.766344006101917
 20
115.308268713526210
 40
3.000000000000000
 50
180.000000000000000
 51
270.000000000000000
  0
LINE
  8
0
  6
CONTINUOUS
 62
3
 10
-5.766344006107829
 20
112.308268713526210
 11
-10.766344006101917
 21
112.308268713526210
  0
ARC
  8
0
  6
CONTINUOUS
 62
3
 10
-5.766344006107829
 20
109.308268713526210
 40
3.000000000000000
 50
0.000000000000000
 51
90.000000000000000
  0
LINE
  8
0
  6
CONTINUOUS
 62
3
 10
-18.266344006102827
 20
132.808268713526220
 11
-18.266344006102827
 21
112.308268713526210
  0
LINE
  8
0
  6
CONTINUOUS
 62
3
 10
-13.766344006101917
 20
132.808268713525760
 11
-13.766344006101917
 21
112.308268713526210
  0
LINE
  8
0
  6
CONTINUOUS
 62
3
 10
-13.766344006101917
 20
112.308268713526210
 11
-18.266344006102827
 21
112.308268713526210
  0
LINE
  8
0
  6
CONTINUOUS
 62
3
 10
-25.266344006106010
 20
132.808268713526220
 11
-25.266344006106010
 21
128.808268713526220
  0
ARC
  8
0
  6
CONTINUOUS
 62
3
 10
-4.766344006107829
 20
57.540319521095284
 40
2.000000000000164
 50
299.999999999997270
 51
0.000000000000000
  0
ARC
  8
0
  6
CONTINUOUS
 62
3
 10
-2.766344006107829
 20
54.076217905957151
 40
2.000000000000164
 50
119.999999999997270
 51
180.000000000000000
  0
LINE
  8
0
  6
CONTINUOUS
 62
3
 10
9.733655993892171
 20
38.808268713526218
 11
-2.766344006107829
 21
38.808268713526218
  0
ARC
  8
0
  6
CONTINUOUS
 62
3
 10
-2.766344006107829
 20
40.808268713526218
 40
2.000000000000000
 50
180.000000000000000
 51
270.000000000000000
  0
LINE
  8
0
  6
CONTINUOUS
 62
3
 10
-4.766344006107829
 20
54.076217905957151
 11
-4.766344006107829
 21
40.808268713526218
  0
LINE
  8
0
  6
CONTINUOUS
 62
3
 10
-2.766344006107829
 20
109.308268713526210
 11
-2.766344006107829
 21
40.808268713526218
  0
ARC
  8
0
  6
CONTINUOUS
 62
3
 10
-5.766344006107829
 20
69.282199979513393
 40
3.000000000000000
 50
0.000000000000000
 51
86.999999999994344
  0
LINE
  8
0
  6
CONTINUOUS
 62
3
 10
-25.266344006106010
 20
73.308268713526218
 11
-5.609336137378705
 21
72.278088583777048
  0
LINE
  8
0
  6
CONTINUOUS
 62
3
 10
-25.266344006106010
 20
115.808268713526210
 11
-25.266344006106010
 21
73.308268713526218
  0
LINE
  8
0
  6
CONTINUOUS
 62
3
 10
9.233655993892171
 20
132.808268713525310
 11
9.233655993898083
 21
226.808268713523940
  0
ARC
  8
0
  6
CONTINUOUS
 62
3
 10
-0.766344006101917
 20
224.808268713524850
 40
2.000000000000000
 50
90.000000000000000
 51
180.000000000000000
  0
ARC
  8
0
  6
CONTINUOUS
 62
3
 10
-10.766344006100780
 20
150.308268713525310
 40
3.000000000000000
 50
90.000000000000000
 51
179.999999999991330
  0
LINE
  8
0
  6
CONTINUOUS
 62
3
 10
-5.766344006106692
 20
153.308268713525310
 11
-10.766344006100780
 21
153.308268713525310
  0
ARC
  8
0
  6
CONTINUOUS
 62
3
 10
-5.766344006106465
 20
156.308268713525310
 40
3.000000000000000
 50
270.000000000000000
 51
359.999999999991300
  0
LINE
  8
0
  6
CONTINUOUS
 62
3
 10
-18.266344006102827
 20
132.808268713525760
 11
-18.266344006101690
 21
153.308268713525760
  0
LINE
  8
0
  6
CONTINUOUS
 62
3
 10
-13.766344006101917
 20
132.808268713526220
 11
-13.766344006100780
 21
153.308268713525760
  0
LINE
  8
0
  6
CONTINUOUS
 62
3
 10
-13.766344006100780
 20
153.308268713525760
 11
-18.266344006101690
 21
153.308268713525760
  0
LINE
  8
0
  6
CONTINUOUS
 62
3
 10
-25.266344006106010
 20
132.808268713526220
 11
-25.266344006105783
 21
136.808268713526220
  0
ARC
  8
0
  6
CONTINUOUS
 62
3
 10
-4.766344006103054
 20
208.076217905955790
 40
2.000000000000000
 50
0.000000000000000
 51
60.000000000002721
  0
ARC
  8
0
  6
CONTINUOUS
 62
3
 10
-2.766344006102827
 20
211.540319521093920
 40
2.000000000000000
 50
180.000000000000000
 51
239.999999999997070
  0
LINE
  8
0
  6
CONTINUOUS
 62
3
 10
9.733655993892171
 20
226.808268713523940
 11
-2.766344006101917
 21
226.808268713524850
  0
ARC
  8
0
  6
CONTINUOUS
 62
3
 10
-2.766344006101917
 20
224.808268713524850
 40
2.000000000000000
 50
90.000000000000000
 51
180.000000000000000
  0
LINE
  8
0
  6
CONTINUOUS
 62
3
 10
-4.766344006102827
 20
211.540319521094030
 11
-4.766344006101917
 21
224.808268713524850
  0
LINE
  8
0
  6
CONTINUOUS
 62
3
 10
-2.766344006106465
 20
156.308268713525310
 11
-2.766344006101917
 21
224.808268713524850
  0
ARC
  8
0
  6
CONTINUOUS
 62
3
 10
-5.766344006103736
 20
196.334337447538130
 40
2.999999999999937
 50
273.000000000001360
 51
359.999999999991300
  0
LINE
  8
0
  6
CONTINUOUS
 62
3
 10
-25.266344006102372
 20
192.308268713526220
 11
-5.609336137374839
 21
193.338448843274480
  0
LINE
  8
0
  6
CONTINUOUS
 62
3
 10
-25.266344006105101
 20
149.808268713526220
 11
-25.266344006102372
 21
192.308268713526220
  0
ARC
  8
0
  6
CONTINUOUS
 62
3
 10
70.442820277306055
 20
75.298879054771646
 40
2.999999999999982
 50
38.406432913588930
 51
90.000000000000000
  0
LINE
  8
0
  6
CONTINUOUS
 62
3
 10
72.793691415390413
 20
77.162586352638414
 11
93.084527131976301
 21
51.567826859915499
  0
ARC
  8
0
  6
CONTINUOUS
 62
3
 10
90.733655993892171
 20
49.704119562048731
 40
3.000000000000000
 50
0.000000000000000
 51
38.406432913591630
  0
ARC
  8
0
  6
CONTINUOUS
 62
3
 10
70.442820277306055
 20
69.813597680533007
 40
2.999999999999982
 50
38.406432913588930
 51
90.000000000000000
  0
LINE
  8
0
  6
CONTINUOUS
 62
3
 10
72.793691415390413
 20
71.677304978399775
 11
93.084527131976301
 21
46.082545485676860
  0
ARC
  8
0
  6
CONTINUOUS
 62
3
 10
90.733655993892171
 20
44.218838187810093
 40
3.000000000000000
 50
0.000000000000000
 51
38.406432913591630
  0
LINE
  8
0
  6
CONTINUOUS
 62
3
 10
90.478355143475710
 20
78.298879054771646
 11
75.495640204388110
 21
78.298879054771646
  0
ARC
  8
0
  6
CONTINUOUS
 62
3
 10
70.442820277306055
 20
195.802939746517610
 40
3.000000000000000
 50
270.000000000000000
 51
321.593567086411040
  0
LINE
  8
0
  6
CONTINUOUS
 62
3
 10
72.793691415390413
 20
193.939232448650840
 11
93.084527131976301
 21
219.533991941373760
  0
ARC
  8
0
  6
CONTINUOUS
 62
3
 10
90.733655993892171
 20
221.397699239240520
 40
2.999999999999804
 50
321.593567086408370
 51
0.000000000000000
  0
ARC
  8
0
  6
CONTINUOUS
 62
3
 10
90.733655993892171
 20
215.912417865001880
 40
2.999999999999804
 50
321.593567086408370
 51
0.000000000000000
  0
ARC
  8
0
  6
CONTINUOUS
 62
3
 10
70.442820277306055
 20
190.317658372278970
 40
3.000000000000000
 50
270.000000000000000
 51
321.593567086411040
  0
LINE
  8
0
  6
CONTINUOUS
 62
3
 10
72.793691415390413
 20
188.453951074412200
 11
93.084527131976301
 21
214.048710567135120
  0
LINE
  8
0
  6
CONTINUOUS
 62
3
 10
90.478355143475710
 20
187.317658372278970
 11
75.495640204388110
 21
187.317658372278970
  0
ARC
  8
0
  6
CONTINUOUS
 62
3
 10
74.892869176701424
 20
138.808268713525760
 40
3.000000000000000
 50
180.000000000000000
 51
270.000000000000000
  0
ARC
  8
0
  6
CONTINUOUS
 62
3
 10
74.892869176701424
 20
126.808268713525300
 40
3.000000000000000
 50
90.000000000000000
 51
180.000000000000000
  0
ARC
  8
0
  6
CONTINUOUS
 62
3
 10
90.733655993892171
 20
126.808268713525300
 40
3.000000000000000
 50
0.000000000000000
 51
90.000000000000000
  0
ARC
  8
0
  6
CONTINUOUS
 62
3
 10
90.733655993892171
 20
138.808268713525310
 40
3.000000000000000
 50
270.000000000000000
 51
0.000000000000000
  0
LINE
  8
0
  6
CONTINUOUS
 62
3
 10
74.892869176701424
 20
129.808268713525310
 11
90.733655993892171
 21
129.808268713525310
  0
LINE
  8
0
  6
CONTINUOUS
 62
3
 10
74.892869176701424
 20
135.808268713525310
 11
90.733655993892171
 21
135.808268713525310
  0
LINE
  8
0
  6
CONTINUOUS
 62
3
 10
169.733655993913540
 20
132.808268713525310
 11
169.733655993913540
 21
113.808268713525300
  0
ARC
  8
0
  6
CONTINUOUS
 62
3
 10
169.333655993913450
 20
148.408268713524760
 40
0.400000000000091
 50
0.000000000000000
 51
90.000000000000000
  0
LINE
  8
0
  6
CONTINUOUS
 62
3
 10
169.733655993913540
 20
113.808268713525300
 11
124.733655993913540
 21
113.808268713525300
  0
LINE
  8
0
  6
CONTINUOUS
 62
3
 10
169.333655993913450
 20
148.808268713524850
 11
122.293463615048950
 21
148.808268713524850
  0
LINE
  8
0
  6
CONTINUOUS
 62
3
 10
124.733655993913540
 20
116.808268713525300
 11
124.733655993913540
 21
113.808268713525300
  0
LINE
  8
0
  6
CONTINUOUS
 62
3
 10
121.733655993913540
 20
148.658268713524760
 11
122.293463615048950
 21
148.808268713524850
  0
LINE
  8
0
  6
CONTINUOUS
 62
3
 10
121.733655993913540
 20
148.658268713524760
 11
120.533655993913720
 21
148.658268713524760
  0
LINE
  8
0
  6
CONTINUOUS
 62
3
 10
117.733655993891260
 20
149.808268713525310
 11
119.533655993913720
 21
149.808268713524850
  0
LINE
  8
0
  6
CONTINUOUS
 62
3
 10
119.733655993913540
 20
149.608268713525040
 11
119.733655993913540
 21
132.808268713524850
  0
ARC
  8
0
  6
CONTINUOUS
 62
3
 10
120.533655993913720
 20
149.458268713524940
 40
0.800000000000237
 50
183.703196634280290
 51
270.000000000000000
  0
LINE
  8
0
  6
CONTINUOUS
 62
3
 10
119.733655993913540
 20
149.608268713525040
 11
119.533655993913720
 21
149.808268713524850
  0
LINE
  8
0
  6
CONTINUOUS
 62
3
 10
121.733655993913540
 20
116.958268713524940
 11
122.293463615048950
 21
116.808268713524850
  0
LINE
  8
0
  6
CONTINUOUS
 62
3
 10
117.733655993891260
 20
115.808268713524390
 11
119.533655993913720
 21
115.808268713524850
  0
LINE
  8
0
  6
CONTINUOUS
 62
3
 10
169.333655993913450
 20
116.808268713524850
 11
122.293463615048950
 21
116.808268713524850
  0
LINE
  8
0
  6
CONTINUOUS
 62
3
 10
121.733655993913540
 20
116.958268713524940
 11
120.533655993913720
 21
116.958268713524940
  0
LINE
  8
0
  6
CONTINUOUS
 62
3
 10
119.733655993913540
 20
116.008268713525120
 11
119.733655993913540
 21
132.808268713524850
  0
ARC
  8
0
  6
CONTINUOUS
 62
3
 10
120.533655993913720
 20
116.158268713524760
 40
0.800000000000182
 50
90.000000000000000
 51
176.296803365719710
  0
LINE
  8
0
  6
CONTINUOUS
 62
3
 10
119.733655993913540
 20
116.008268713525120
 11
119.533655993913720
 21
115.808268713524850
  0
LINE
  8
0
  6
CONTINUOUS
 62
3
 10
169.733655993913540
 20
132.808268713525310
 11
169.733655993913540
 21
148.408268713525220
  0
ARC
  8
0
  6
CONTINUOUS
 62
3
 10
169.333655993913450
 20
117.208268713524940
 40
0.400000000000091
 50
270.000000000000000
 51
0.000000000000000
  0
LINE
  8
0
  6
CONTINUOUS
 62
3
 10
102.687616593706020
 20
20.630838046187478
 11
102.687616593706020
 21
20.308268713525308
  0
LINE
  8
0
  6
CONTINUOUS
 62
3
 10
113.733655993892170
 20
28.808268713525308
 11
112.733655993892170
 21
27.808268713525308
  0
LINE
  8
0
  6
CONTINUOUS
 62
3
 10
112.733655993892170
 20
27.808268713525308
 11
109.733655993892170
 21
27.808268713525308
  0
LINE
  8
0
  6
CONTINUOUS
 62
3
 10
112.733655993892170
 20
237.808268713525310
 11
113.733655993892170
 21
236.808268713525310
  0
LINE
  8
0
  6
CONTINUOUS
 62
3
 10
109.733655993892170
 20
237.808268713525310
 11
112.733655993892170
 21
237.808268713525310
  0
LINE
  8
0
  6
CONTINUOUS
 62
3
 10
116.733655993892170
 20
166.308268713525310
 11
117.733655993892170
 21
166.308268713525310
  0
LINE
  8
0
  6
CONTINUOUS
 62
3
 10
116.733655993892170
 20
99.308268713525308
 11
117.733655993892170
 21
99.308268713525308
  0
LINE
  8
0
  6
DASHDOT
 62
4
 10
-179.520488832924460
 20
132.808268713525310
 11
190.893482080800820
 21
132.808268713525310
  0
LINE
  8
0
  6
CONTINUOUS
 62
3
 10
117.733655993892170
 20
99.308268713525308
 11
117.733655993892170
 21
166.308268713525310
  0
ARC
  8
0
  6
CONTINUOUS
 62
3
 10
112.733639010382600
 20
87.655162413669700
 40
2.999999999999871
 50
300.000187270167030
 51
0.000000000000000
  0
ARC
  8
0
  6
CONTINUOUS
 62
3
 10
116.733655993892170
 20
98.308268713525308
 40
1.000000000000000
 50
90.000000000000000
 51
180.000000000000000
  0
ARC
  8
0
  6
CONTINUOUS
 62
3
 10
116.733655993892170
 20
167.308268713525310
 40
1.000000000000000
 50
180.000000000000000
 51
270.000000000000000
  0
LINE
  8
0
  6
CONTINUOUS
 62
3
 10
95.733655993892171
 20
245.308268713525310
 11
109.733655993892170
 21
245.308268713525310
  0
ARC
  8
0
  6
CONTINUOUS
 62
3
 10
95.733655993892171
 20
243.308268713525310
 40
2.000000000000000
 50
90.000000000000000
 51
180.000000000000000
  0
LINE
  8
0
  6
CONTINUOUS
 62
3
 10
115.733655993892170
 20
132.808268713525310
 11
115.733655993892170
 21
177.961375013380460
  0
LINE
  8
0
  6
CONTINUOUS
 62
3
 10
109.733655993892390
 20
132.808268713525310
 11
109.733655993892170
 21
245.308268713525310
  0
LINE
  8
0
  6
CONTINUOUS
 62
3
 10
115.733655993892170
 20
132.808268713525310
 11
115.733655993892170
 21
87.655162413669700
  0
LINE
  8
0
  6
CONTINUOUS
 62
3
 10
113.733655993892170
 20
132.808268713525310
 11
113.733655993892170
 21
28.808268713525308
  0
LINE
  8
0
  6
CONTINUOUS
 62
3
 10
109.733655993892170
 20
132.808268713525310
 11
109.733655993892170
 21
20.308268713524853
  0
ARC
  8
0
  6
CONTINUOUS
 62
3
 10
115.733655993892170
 20
82.459019796434063
 40
2.999999999999984
 50
120.000187270170780
 51
131.810314895779530
  0
ARC
  8
0
  6
CONTINUOUS
 62
3
 10
112.733655993892170
 20
177.961375013380460
 40
3.000000000000000
 50
0.000000000000000
 51
70.528779365509465
  0
LINE
  8
0
  6
CONTINUOUS
 62
3
 10
113.733655993892170
 20
132.808268713525310
 11
113.733655993892170
 21
236.808268713525310
  0
ARC
  8
0
  6
CONTINUOUS
 62
3
 10
95.733655993892171
 20
22.308268713525308
 40
2.000000000000000
 50
180.000000000000000
 51
270.000000000000000
  0
LINE
  8
0
  6
CONTINUOUS
 62
3
 10
93.733655993892171
 20
22.308268713525308
 11
93.733655993892171
 21
243.308268713525310
  0
LINE
  8
0
  6
CONTINUOUS
 62
3
 10
109.733655993892170
 20
20.308268713525308
 11
95.733655993892171
 21
20.308268713525308
  0
ARC
  8
0
  6
CONTINUOUS
 62
3
 10
105.733655993892170
 20
196.256842032839020
 40
3.000000000000000
 50
90.000000000000000
 51
180.000000000000000
  0
LINE
  8
0
  6
CONTINUOUS
 62
3
 10
102.733655993892170
 20
132.808268713525310
 11
102.733655993892170
 21
221.095065277928480
  0
ARC
  8
0
  6
CONTINUOUS
 62
3
 10
105.733655993892170
 20
221.095065277928480
 40
3.000000000000000
 50
90.000000000000000
 51
180.000000000000000
  0
LINE
  8
0
  6
CONTINUOUS
 62
3
 10
109.733655993892390
 20
224.095065277928480
 11
105.733655993892170
 21
224.095065277928480
  0
LINE
  8
0
  6
CONTINUOUS
 62
3
 10
109.733655993892390
 20
199.256842032839020
 11
105.733655993892170
 21
199.256842032839020
  0
ARC
  8
0
  6
CONTINUOUS
 62
3
 10
105.733655993892170
 20
69.359695394211599
 40
3.000000000000000
 50
180.000000000000000
 51
270.000000000000000
  0
LINE
  8
0
  6
CONTINUOUS
 62
3
 10
102.733655993892170
 20
132.808268713525310
 11
102.733655993892170
 21
44.521472149122133
  0
ARC
  8
0
  6
CONTINUOUS
 62
3
 10
105.733655993892170
 20
44.521472149122133
 40
3.000000000000000
 50
180.000000000000000
 51
270.000000000000000
  0
LINE
  8
0
  6
CONTINUOUS
 62
3
 10
109.733655993892390
 20
41.521472149122133
 11
105.733655993892170
 21
41.521472149122133
  0
LINE
  8
0
  6
CONTINUOUS
 62
3
 10
109.733655993892390
 20
66.359695394211599
 11
105.733655993892170
 21
66.359695394211599
  0
LINE
  8
0
  6
DASHDOT
 62
4
 10
125.370165353733680
 20
33.813319347408310
 11
86.374173164551394
 21
33.813319347408310
  0
LINE
  8
0
  6
DASHDOT
 62
4
 10
125.370165353733680
 20
231.803218079641850
 11
86.374173164551394
 21
231.803218079641850
  0
LINE
  8
0
  6
CONTINUOUS
 62
3
 10
-2.766344006105101
 20
175.108268904259720
 11
-2.766344006104191
 21
190.508268522789990
  0
LINE
  8
0
  6
CONTINUOUS
 62
3
 10
-18.266344006102145
 20
135.608268904260630
 11
-18.266344006101235
 21
151.008268522790900
  0
LINE
  8
0
  6
CONTINUOUS
 62
3
 10
-18.266344006102372
 20
130.008268522791350
 11
-18.266344006102372
 21
114.608268904261080
  0
LINE
  8
0
  6
CONTINUOUS
 62
3
 10
-2.766344006107829
 20
90.508268522791354
 11
-2.766344006107829
 21
75.108268904261081
  0
LINE
  8
0
  6
CONTINUOUS
 62
3
 10
-4.341796578403546
 20
210.308268713525310
 11
-10.266343052428738
 21
210.308268713525650
  0
LINE
  8
0
  6
CONTINUOUS
 62
3
 10
-4.766344006102145
 20
223.308268713525190
 11
-10.266342098753967
 21
223.308268713525650
  0
LINE
  8
0
  6
CONTINUOUS
 62
3
 10
-10.766343052428738
 20
211.174392866663310
 11
-10.766343052428283
 21
222.442339109949440
  0
LINE
  8
0
  6
CONTINUOUS
 62
3
 10
-10.266342414571000
 20
210.308268689457690
 11
-10.766342440718063
 21
211.174392829591850
  0
LINE
  8
0
  6
CONTINUOUS
 62
3
 10
-10.266341787943247
 20
223.308268690824660
 11
-10.766342738136473
 21
222.442339119756530
  0
LINE
  8
0
  6
CONTINUOUS
 62
3
 10
-10.266343052428738
 20
210.308268713525650
 11
-10.266343052428283
 21
223.308268713525650
  0
LINE
  8
0
  6
CONTINUOUS
 62
3
 10
-10.266343052431012
 20
176.308268713525760
 11
-10.266343052430102
 21
189.308268713525760
  0
LINE
  8
0
  6
CONTINUOUS
 62
3
 10
-10.266341787945521
 20
189.308268690824780
 11
-10.766342738138292
 21
188.442339119756410
  0
LINE
  8
0
  6
CONTINUOUS
 62
3
 10
-10.266342414573273
 20
176.308268689457690
 11
-10.766342440720337
 21
177.174392829591740
  0
LINE
  8
0
  6
CONTINUOUS
 62
3
 10
-2.766344006104418
 20
189.308268713525310
 11
-10.266342098755786
 21
189.308268713525760
  0
LINE
  8
0
  6
CONTINUOUS
 62
3
 10
-2.766344006105328
 20
176.308268713525310
 11
-10.266343052431012
 21
176.308268713525760
  0
LINE
  8
0
  6
CONTINUOUS
 62
3
 10
-10.766343052431012
 20
177.174392866663080
 11
-10.766343052430102
 21
188.442339109949220
  0
LINE
  8
0
  6
CONTINUOUS
 62
3
 10
-10.266343052433740
 20
89.308268713526559
 11
-10.266343052433740
 21
76.308268713526559
  0
LINE
  8
0
  6
CONTINUOUS
 62
3
 10
-10.266341787948704
 20
76.308268736227546
 11
-10.766342738141930
 21
77.174198307295910
  0
LINE
  8
0
  6
CONTINUOUS
 62
3
 10
-10.266342414576002
 20
89.308268737594744
 11
-10.766342440723065
 21
88.442144597460697
  0
LINE
  8
0
  6
CONTINUOUS
 62
3
 10
-2.766344006108056
 20
76.308268713526559
 11
-10.266342098759424
 21
76.308268713526559
  0
LINE
  8
0
  6
CONTINUOUS
 62
3
 10
-2.766344006108056
 20
89.308268713526559
 11
-10.266343052433740
 21
89.308268713526559
  0
LINE
  8
0
  6
CONTINUOUS
 62
3
 10
-10.766343052433740
 20
88.442144560389352
 11
-10.766343052433740
 21
77.174198317103219
  0
LINE
  8
0
  6
CONTINUOUS
 62
3
 10
-4.341796578409003
 20
55.308268713526559
 11
-10.266343052433740
 21
55.308268713526559
  0
LINE
  8
0
  6
CONTINUOUS
 62
3
 10
-4.766344006108056
 20
42.308268713526559
 11
-10.266342098759424
 21
42.308268713526559
  0
LINE
  8
0
  6
CONTINUOUS
 62
3
 10
-10.766343052433740
 20
54.442144560389352
 11
-10.766343052433740
 21
43.174198317103219
  0
LINE
  8
0
  6
CONTINUOUS
 62
3
 10
-10.266342414576002
 20
55.308268737594517
 11
-10.766342440723065
 21
54.442144597460810
  0
LINE
  8
0
  6
CONTINUOUS
 62
3
 10
-10.266341787948704
 20
42.308268736227546
 11
-10.766342738141930
 21
43.174198307296138
  0
LINE
  8
0
  6
CONTINUOUS
 62
3
 10
-10.266343052433740
 20
55.308268713526559
 11
-10.266343052433740
 21
42.308268713526559
  0
LINE
  8
0
  6
CONTINUOUS
 62
3
 10
-25.766343052428283
 20
136.808268713526790
 11
-25.766343052427374
 21
149.808268713526790
  0
LINE
  8
0
  6
CONTINUOUS
 62
3
 10
-26.266343052428283
 20
137.674392866664110
 11
-26.266343052427374
 21
148.942339109950240
  0
LINE
  8
0
  6
CONTINUOUS
 62
3
 10
-18.266344006101690
 20
149.808268713526330
 11
-25.766342098753057
 21
149.808268713526790
  0
LINE
  8
0
  6
CONTINUOUS
 62
3
 10
-18.266344006102599
 20
136.808268713526330
 11
-25.766343052428283
 21
136.808268713526790
  0
LINE
  8
0
  6
CONTINUOUS
 62
3
 10
-25.766342414570545
 20
136.808268689458710
 11
-26.266342440717608
 21
137.674392829592760
  0
LINE
  8
0
  6
CONTINUOUS
 62
3
 10
-25.766341787942793
 20
149.808268690825800
 11
-26.266342738135563
 21
148.942339119757430
  0
LINE
  8
0
  6
CONTINUOUS
 62
3
 10
-25.766341787943247
 20
115.808268736227660
 11
-26.266342738136473
 21
116.674198307296020
  0
LINE
  8
0
  6
CONTINUOUS
 62
3
 10
-25.766342414570545
 20
128.808268737594860
 11
-26.266342440717608
 21
127.942144597460810
  0
LINE
  8
0
  6
CONTINUOUS
 62
3
 10
-26.266343052428283
 20
127.942144560389460
 11
-26.266343052428283
 21
116.674198317103330
  0
LINE
  8
0
  6
CONTINUOUS
 62
3
 10
-18.266344006102599
 20
115.808268713526670
 11
-25.766342098753967
 21
115.808268713526670
  0
LINE
  8
0
  6
CONTINUOUS
 62
3
 10
-18.266344006102599
 20
128.808268713526670
 11
-25.766343052428283
 21
128.808268713526670
  0
LINE
  8
0
  6
CONTINUOUS
 62
3
 10
-25.766343052428283
 20
128.808268713526670
 11
-25.766343052428283
 21
115.808268713526670
  0
LINE
  8
0
  6
DASHDOT
 62
4
 10
-304.311097696816430
 20
-137.191731286458380
 11
-337.510490504122570
 21
-137.191731286458380
  0
ARC
  8
0
  6
CONTINUOUS
 62
3
 10
-314.607837499500420
 20
-105.691731286458370
 40
3.000000000000000
 50
180.000000000000000
 51
210.428285803702490
  0
ARC
  8
0
  6
CONTINUOUS
 62
3
 10
-326.607837499500420
 20
-105.691731286458370
 40
2.999999999999970
 50
329.571714196297530
 51
0.000000000000000
  0
ARC
  8
0
  6
CONTINUOUS
 62
3
 10
-359.402109699859470
 20
-195.458397953124800
 40
27.000000000000085
 50
161.248570830536150
 51
231.704372189437830
  0
ARC
  8
0
  6
CONTINUOUS
 62
3
 10
-306.388460780111930
 20
-205.732298293976730
 40
26.999999999999947
 50
232.608236715358740
 51
313.223998195751050
  0
ARC
  8
0
  6
CONTINUOUS
 62
3
 10
-320.607837499500420
 20
-167.191731286458380
 40
101.000000000000050
 50
309.950233661982400
 51
332.587333833727940
  0
ARC
  8
0
  6
CONTINUOUS
 62
3
 10
-320.607837499500870
 20
-167.191731286458380
 40
100.999999999999880
 50
202.015369540396900
 51
230.049766338017580
  0
ARC
  8
0
  6
CONTINUOUS
 62
3
 10
-409.607837499500870
 20
-203.177839717351560
 40
5.000000000000000
 50
180.000000000000000
 51
202.015369540398010
  0
ARC
  8
0
  6
CONTINUOUS
 62
3
 10
-390.599134569711620
 20
-250.751400591868500
 40
8.000000000000107
 50
1.781769897912753
 51
50.049766338017157
  0
ARC
  8
0
  6
CONTINUOUS
 62
3
 10
-372.607837499500420
 20
-250.191731286458380
 40
10.000000000000128
 50
181.781769897911770
 51
270.000000000000000
  0
ARC
  8
0
  6
CONTINUOUS
 62
3
 10
-268.607837499500650
 20
-250.191731286458380
 40
10.000000000000000
 50
270.000000000000000
 51
358.218230102088230
  0
ARC
  8
0
  6
CONTINUOUS
 62
3
 10
-250.616540429289670
 20
-250.751400591868500
 40
7.999999999999901
 50
129.950233661982820
 51
178.218230102087230
  0
ARC
  8
0
  6
CONTINUOUS
 62
3
 10
-334.607837499500870
 20
-147.425129470639770
 40
80.000000000000028
 50
94.660419384114462
 51
180.000000000000000
  0
ARC
  8
0
  6
CONTINUOUS
 62
3
 10
-306.607837499500420
 20
-147.425129470639770
 40
80.000000000000000
 50
10.082140083407035
 51
85.339580615885211
  0
ARC
  8
0
  6
CONTINUOUS
 62
3
 10
-230.109840272369180
 20
-132.191731286458380
 40
1.999999999999976
 50
325.676823592027290
 51
11.262247925638780
  0
ARC
  8
0
  6
CONTINUOUS
 62
3
 10
-411.105834726632110
 20
-132.191731286458380
 40
1.999999999999699
 50
168.737752074358670
 51
270.000000000000000
  0
ARC
  8
0
  6
CONTINUOUS
 62
3
 10
-405.607837499500420
 20
-142.191731286458380
 40
8.000000000000000
 50
270.000000000000000
 51
90.000000000000000
  0
ARC
  8
0
  6
CONTINUOUS
 62
3
 10
-412.607837499500420
 20
-152.191731286458380
 40
2.000000000000000
 50
90.000000000000000
 51
180.000000000000000
  0
LINE
  8
0
  6
CONTINUOUS
 62
4
 10
-320.607837499500420
 20
-167.191731286458380
 11
-320.224432271475510
 21
-166.808326058433240
  0
LINE
  8
0
  6
CONTINUOUS
 62
3
 10
-268.607837499500650
 20
-260.191731286458380
 11
-320.607837499500650
 21
-260.191731286458380
  0
LINE
  8
0
  6
CONTINUOUS
 62
3
 10
-372.607837499500420
 20
-260.191731286458380
 11
-320.607837499500870
 21
-260.191731286458380
  0
LINE
  8
0
  6
CONTINUOUS
 62
3
 10
-414.607837499500870
 20
-147.425129470639770
 11
-414.607837499500870
 21
-203.177839717351560
  0
LINE
  8
0
  6
CONTINUOUS
 62
3
 10
-411.105834726632110
 20
-134.191731286458380
 11
-405.607837499500420
 21
-134.191731286458380
  0
LINE
  8
0
  6
CONTINUOUS
 62
3
 10
-412.607837499500420
 20
-150.191731286458380
 11
-405.607837499500420
 21
-150.191731286458380
  0
ARC
  8
0
  6
CONTINUOUS
 62
3
 10
-266.603430047104670
 20
-74.702042459823758
 40
3.000000000000092
 50
241.185147882958400
 51
315.000000000000000
  0
LINE
  8
0
  6
DASHDOT
 62
4
 10
-197.597448155505840
 20
-167.191731286458380
 11
-440.635238718135950
 21
-167.191731286458380
  0
LINE
  8
0
  6
CONTINUOUS
 62
3
 10
-323.607837499500420
 20
-30.191731286458378
 11
-323.607837499500420
 21
-32.191731286458378
  0
LINE
  8
0
  6
CONTINUOUS
 62
3
 10
-317.607837499500420
 20
-30.191731286458378
 11
-317.607837499500420
 21
-32.191731286458378
  0
ARC
  8
0
  6
CONTINUOUS
 62
3
 10
-216.107837499500420
 20
-241.691731286458380
 40
8.000000000000000
 50
270.000000000000000
 51
0.000000000000000
  0
ARC
  8
0
  6
CONTINUOUS
 62
3
 10
-425.107837499500420
 20
-241.691731286458380
 40
8.000000000000000
 50
180.000000000000000
 51
270.000000000000000
  0
ARC
  8
0
  6
CONTINUOUS
 62
3
 10
-425.107837499500420
 20
-32.691731286458378
 40
8.000000000000000
 50
90.000000000000000
 51
180.000000000000000
  0
ARC
  8
0
  6
CONTINUOUS
 62
3
 10
-216.107837499500420
 20
-32.691731286458378
 40
8.000000000000000
 50
0.000000000000000
 51
90.000000000000000
  0
CIRCLE
  8
0
  6
CONTINUOUS
 62
3
 10
-221.612888133383650
 20
-236.186680652574920
 40
7.500000000000000
  0
CIRCLE
  8
0
  6
CONTINUOUS
 62
3
 10
-419.602786865616960
 20
-236.186680652574920
 40
7.500000000000000
  0
CIRCLE
  8
0
  6
CONTINUOUS
 62
3
 10
-419.602786865616960
 20
-38.196781920341834
 40
7.500000000000000
  0
CIRCLE
  8
0
  6
CONTINUOUS
 62
3
 10
-221.612888133383650
 20
-38.196781920341834
 40
7.500000000000000
  0
ARC
  8
0
  6
CONTINUOUS
 62
3
 10
-326.607837499500420
 20
-30.191731286458378
 40
3.000000000000000
 50
0.000000000000000
 51
90.000000000000000
  0
ARC
  8
0
  6
CONTINUOUS
 62
3
 10
-314.607837499500420
 20
-30.191731286458378
 40
3.000000000000000
 50
90.000000000000000
 51
180.000000000000000
  0
ARC
  8
0
  6
CONTINUOUS
 62
3
 10
-384.893036347653380
 20
-81.391813812543830
 40
3.000000000000132
 50
307.289727379809220
 51
45.000000000000000
  0
ARC
  8
0
  6
CONTINUOUS
 62
3
 10
-408.152368652886710
 20
-58.132481507310729
 40
3.000000000000185
 50
44.999999999993868
 51
135.000000000000000
  0
ARC
  8
0
  6
CONTINUOUS
 62
3
 10
-399.667087278648070
 20
-49.647200133072317
 40
3.000000000000024
 50
134.999999999996930
 51
225.000000000000000
  0
ARC
  8
0
  6
CONTINUOUS
 62
3
 10
-241.548587720352770
 20
-49.647200133072090
 40
3.000000000000024
 50
314.999999999996870
 51
45.000000000000000
  0
ARC
  8
0
  6
CONTINUOUS
 62
3
 10
-233.063306346114130
 20
-58.132481507310729
 40
2.999999999999864
 50
45.000000000000000
 51
135.000000000003040
  0
ARC
  8
0
  6
CONTINUOUS
 62
3
 10
-256.322638651347460
 20
-81.391813812543830
 40
2.999999999999864
 50
135.000000000000000
 51
232.710272620194250
  0
LINE
  8
0
  6
CONTINUOUS
 62
3
 10
-258.546048671492830
 20
-249.691731286458380
 11
-216.107837499500420
 21
-249.691731286458380
  0
LINE
  8
0
  6
CONTINUOUS
 62
3
 10
-425.107837499500420
 20
-249.691731286458380
 11
-382.669626327508010
 21
-249.691731286458380
  0
LINE
  8
0
  6
CONTINUOUS
 62
3
 10
-433.107837499500420
 20
-32.691731286458378
 11
-433.107837499500420
 21
-241.691731286458380
  0
LINE
  8
0
  6
CONTINUOUS
 62
3
 10
-425.107837499500420
 20
-24.691731286458378
 11
-216.107837499500420
 21
-24.691731286458378
  0
LINE
  8
0
  6
CONTINUOUS
 62
3
 10
-208.107837499500420
 20
-32.691731286458378
 11
-208.107837499500420
 21
-140.093864071445240
  0
LINE
  8
0
  6
CONTINUOUS
 62
3
 10
-401.788407622207610
 20
-51.768520476631863
 11
-376.733565295455720
 21
-76.823362803383532
  0
LINE
  8
0
  6
CONTINUOUS
 62
3
 10
-406.031048309326710
 20
-56.011161163751183
 11
-382.771716004093830
 21
-79.270493468984284
  0
LINE
  8
0
  6
CONTINUOUS
 62
3
 10
-239.427267376793220
 20
-51.768520476631863
 11
-264.482109703544890
 21
-76.823362803383532
  0
LINE
  8
0
  6
CONTINUOUS
 62
3
 10
-235.184626689673910
 20
-56.011161163751183
 11
-258.443958994907010
 21
-79.270493468984284
  0
ARC
  8
0
  6
CONTINUOUS
 62
3
 10
-374.612244951896630
 20
-74.702042459823758
 40
3.000000000000024
 50
225.000000000003070
 51
298.814852117041600
  0
ARC
  8
0
  6
CONTINUOUS
 62
3
 10
-310.107837499500420
 20
-42.191731286458378
 40
10.000000000000000
 50
0.000000000000000
 51
90.000000000000000
  0
LINE
  8
0
  6
CONTINUOUS
 62
3
 10
-310.107837499500420
 20
-32.191731286458378
 11
-331.107837499500420
 21
-32.191731286458378
  0
ARC
  8
0
  6
CONTINUOUS
 62
3
 10
-331.107837499500420
 20
-42.191731286458378
 40
10.000000000000000
 50
90.000000000000000
 51
180.000000000000000
  0
LINE
  8
0
  6
DASHDOT
 62
4
 10
-297.439924500618870
 20
-52.191731286458378
 11
-344.462438402153570
 21
-52.191731286458378
  0
CIRCLE
  8
0
  6
CONTINUOUS
 62
3
 10
-320.607837499500420
 20
-52.191731286458378
 40
10.000000000000000
  0
LINE
  8
0
  6
CONTINUOUS
 62
3
 10
-317.607837499500420
 20
-42.652339272288998
 11
-317.607837499500420
 21
-61.731123300627758
  0
LINE
  8
0
  6
CONTINUOUS
 62
3
 10
-323.607837499500420
 20
-42.652339272288998
 11
-323.607837499500420
 21
-61.731123300627758
  0
LINE
  8
0
  6
CONTINUOUS
 62
3
 10
-372.607832794511750
 20
-253.655829462207460
 11
-369.607839922399990
 21
-251.923777504491280
  0
LINE
  8
0
  6
CONTINUOUS
 62
3
 10
-372.607844118102090
 20
-246.727634390072980
 11
-375.607834925449420
 21
-248.459684504322300
  0
LINE
  8
0
  6
CONTINUOUS
 62
3
 10
-375.607835611594060
 20
-251.923782679237380
 11
-372.607833035088110
 21
-253.655829651873720
  0
LINE
  8
0
  6
CONTINUOUS
 62
3
 10
-372.607844201221270
 20
-246.727634286523370
 11
-369.607839559948840
 21
-248.459679464753040
  0
LINE
  8
0
  6
CONTINUOUS
 62
3
 10
-375.607834161641220
 20
-248.459684333233040
 11
-375.607835115315310
 21
-251.923782309917610
  0
LINE
  8
0
  6
CONTINUOUS
 62
3
 10
-369.607840837359390
 20
-251.923777286009850
 11
-369.607839883685070
 21
-248.459679309325280
  0
CIRCLE
  8
0
  6
CONTINUOUS
 62
3
 10
-372.607837499500420
 20
-250.191731286458610
 40
6.500000000000000
  0
CIRCLE
  8
0
  6
CONTINUOUS
 62
3
 10
-372.607837499500420
 20
-250.191731286458610
 40
5.633955001831055
  0
LINE
  8
0
  6
CONTINUOUS
 62
3
 10
-268.607842204489320
 20
-253.655829462207240
 11
-271.607835076601080
 21
-251.923777504491170
  0
LINE
  8
0
  6
CONTINUOUS
 62
3
 10
-268.607830880898970
 20
-246.727634390072750
 11
-265.607840073551640
 21
-248.459684504321960
  0
LINE
  8
0
  6
CONTINUOUS
 62
3
 10
-265.607839387407010
 20
-251.923782679237150
 11
-268.607841963912960
 21
-253.655829651873490
  0
LINE
  8
0
  6
CONTINUOUS
 62
3
 10
-268.607830797779800
 20
-246.727634286523140
 11
-271.607835439052220
 21
-248.459679464752810
  0
LINE
  8
0
  6
CONTINUOUS
 62
3
 10
-265.607840837359840
 20
-248.459684333232810
 11
-265.607839883685760
 21
-251.923782309917390
  0
LINE
  8
0
  6
CONTINUOUS
 62
3
 10
-271.607834161641680
 20
-251.923777286009620
 11
-271.607835115315990
 21
-248.459679309325050
  0
CIRCLE
  8
0
  6
CONTINUOUS
 62
3
 10
-268.607837499500650
 20
-250.191731286458380
 40
6.500000000000000
  0
CIRCLE
  8
0
  6
CONTINUOUS
 62
3
 10
-268.607837499500650
 20
-250.191731286458380
 40
5.633955001831055
  0
LINE
  8
0
  6
CONTINUOUS
 62
3
 10
-404.607832794511750
 20
-165.655829462207460
 11
-401.607839922399990
 21
-163.923777504491280
  0
LINE
  8
0
  6
CONTINUOUS
 62
3
 10
-404.607844118102090
 20
-158.727634390072980
 11
-407.607834925449420
 21
-160.459684504322300
  0
LINE
  8
0
  6
CONTINUOUS
 62
3
 10
-407.607835611594060
 20
-163.923782679237380
 11
-404.607833035088110
 21
-165.655829651873720
  0
LINE
  8
0
  6
CONTINUOUS
 62
3
 10
-404.607844201221270
 20
-158.727634286523370
 11
-401.607839559948840
 21
-160.459679464753040
  0
LINE
  8
0
  6
CONTINUOUS
 62
3
 10
-407.607834161641220
 20
-160.459684333233040
 11
-407.607835115315310
 21
-163.923782309917610
  0
LINE
  8
0
  6
CONTINUOUS
 62
3
 10
-401.607840837359390
 20
-163.923777286009850
 11
-401.607839883685070
 21
-160.459679309325280
  0
CIRCLE
  8
0
  6
CONTINUOUS
 62
3
 10
-404.607837499500420
 20
-162.191731286458610
 40
6.500000000000000
  0
CIRCLE
  8
0
  6
CONTINUOUS
 62
3
 10
-404.607837499500420
 20
-162.191731286458610
 40
5.633955001831055
  0
LINE
  8
0
  6
CONTINUOUS
 62
3
 10
-370.607832794511750
 20
-89.655829462207407
 11
-367.607839922399990
 21
-87.923777504491341
  0
LINE
  8
0
  6
CONTINUOUS
 62
3
 10
-370.607844118102090
 20
-82.727634390072978
 11
-373.607834925449420
 21
-84.459684504322240
  0
LINE
  8
0
  6
CONTINUOUS
 62
3
 10
-373.607835611594060
 20
-87.923782679237377
 11
-370.607833035088110
 21
-89.655829651873717
  0
LINE
  8
0
  6
CONTINUOUS
 62
3
 10
-370.607844201221270
 20
-82.727634286523369
 11
-367.607839559948840
 21
-84.459679464753037
  0
LINE
  8
0
  6
CONTINUOUS
 62
3
 10
-373.607834161641220
 20
-84.459684333233042
 11
-373.607835115315310
 21
-87.923782309917613
  0
LINE
  8
0
  6
CONTINUOUS
 62
3
 10
-367.607840837359390
 20
-87.923777286009852
 11
-367.607839883685070
 21
-84.459679309325281
  0
CIRCLE
  8
0
  6
CONTINUOUS
 62
3
 10
-370.607837499500420
 20
-86.191731286458605
 40
6.500000000000000
  0
CIRCLE
  8
0
  6
CONTINUOUS
 62
3
 10
-370.607837499500420
 20
-86.191731286458605
 40
5.633955001831055
  0
LINE
  8
0
  6
CONTINUOUS
 62
3
 10
-331.107844118102090
 20
-72.727634390082301
 11
-334.107834925449420
 21
-74.459684504331506
  0
LINE
  8
0
  6
CONTINUOUS
 62
3
 10
-331.107844201221270
 20
-72.727634286532691
 11
-328.107839559948840
 21
-74.459679464762303
  0
LINE
  8
0
  6
CONTINUOUS
 62
3
 10
-310.107830880898750
 20
-72.727634390082301
 11
-307.107840073551420
 21
-74.459684504331506
  0
LINE
  8
0
  6
CONTINUOUS
 62
3
 10
-310.107830797779570
 20
-72.727634286532691
 11
-313.107835439052000
 21
-74.459679464762303
  0
LINE
  8
0
  6
CONTINUOUS
 62
3
 10
-270.607842204489090
 20
-89.655829462207180
 11
-273.607835076600850
 21
-87.923777504491113
  0
LINE
  8
0
  6
CONTINUOUS
 62
3
 10
-270.607830880898750
 20
-82.727634390072751
 11
-267.607840073551420
 21
-84.459684504322013
  0
LINE
  8
0
  6
CONTINUOUS
 62
3
 10
-267.607839387406780
 20
-87.923782679237149
 11
-270.607841963912510
 21
-89.655829651873489
  0
LINE
  8
0
  6
CONTINUOUS
 62
3
 10
-270.607830797779570
 20
-82.727634286523141
 11
-273.607835439052000
 21
-84.459679464752810
  0
LINE
  8
0
  6
CONTINUOUS
 62
3
 10
-267.607840837359620
 20
-84.459684333232815
 11
-267.607839883685530
 21
-87.923782309917385
  0
LINE
  8
0
  6
CONTINUOUS
 62
3
 10
-273.607834161641450
 20
-87.923777286009624
 11
-273.607835115315770
 21
-84.459679309325054
  0
CIRCLE
  8
0
  6
CONTINUOUS
 62
3
 10
-270.607837499500420
 20
-86.191731286458378
 40
6.500000000000000
  0
CIRCLE
  8
0
  6
CONTINUOUS
 62
3
 10
-270.607837499500420
 20
-86.191731286458378
 40
5.633955001831055
  0
LINE
  8
0
  6
DASHDOT
 62
4
 10
-237.522790710080930
 20
-54.106684497039112
 11
-205.702985556686370
 21
-22.286879343644557
  0
ARC
  8
0
  6
DASHDOT
 62
4
 10
-320.607837499500420
 20
-137.191731286458380
 40
139.999999999999890
 50
35.791382564525314
 51
54.208617435478523
  0
LINE
  8
0
  6
DASHDOT
 62
4
 10
-235.783056798090340
 20
-222.016511987868230
 11
-205.702985556686370
 21
-252.096583229272200
  0
ARC
  8
0
  6
DASHDOT
 62
4
 10
-320.607837499500420
 20
-137.191731286458380
 40
140.000000000000030
 50
305.791382564521480
 51
321.289118789874350
  0
LINE
  8
0
  6
DASHDOT
 62
4
 10
-403.692884288919690
 20
-220.276778075877640
 11
-435.512689442314240
 21
-252.096583229272200
  0
ARC
  8
0
  6
DASHDOT
 62
4
 10
-320.607837499500420
 20
-137.191731286458380
 40
139.999999999999890
 50
215.791382564525320
 51
234.208617435478490
  0
LINE
  8
0
  6
DASHDOT
 62
4
 10
-403.692884288919690
 20
-54.106684497039112
 11
-435.512689442314240
 21
-22.286879343644557
  0
ARC
  8
0
  6
DASHDOT
 62
4
 10
-320.607837499500420
 20
-137.191731286458380
 40
139.999999999999910
 50
125.791382564521510
 51
144.208617435474680
  0
LINE
  8
0
  6
CONTINUOUS
 62
3
 10
-93.209087800210000
 20
14.134443333741388
 11
-60.816344006107215
 21
14.134443333741388
  0
ARC
  8
0
  6
CONTINUOUS
 62
3
 10
-94.066343243166557
 20
15.111741201271457
 40
1.299999237060351
 50
286.601548410324710
 51
17.759447913550098
  0
ARC
  8
0
  6
CONTINUOUS
 62
3
 10
-96.266344006106010
 20
22.490766124119205
 40
8.999999999999858
 50
253.398468892518050
 51
286.601548410325050
  0
ARC
  8
0
  6
CONTINUOUS
 62
3
 10
-98.466344769045463
 20
15.111741201271457
 40
1.299999237060699
 50
162.240552086452960
 51
253.398468892505180
  0
CIRCLE
  8
0
  6
DASHED
 62
4
 10
-96.266344006106010
 20
40.308268713525081
 40
13.500000000000000
  0
LINE
  8
0
  6
DASHDOT
 62
4
 10
-119.089975637417860
 20
40.308268713525308
 11
-74.802257599019413
 21
40.308268713525308
  0
LINE
  8
0
  6
CONTINUOUS
 62
3
 10
-127.266344006106010
 20
65.308268713525308
 11
-127.266344006106010
 21
64.308268713525308
  0
LINE
  8
0
  6
CONTINUOUS
 62
3
 10
-65.266344006106124
 20
65.308268713525194
 11
-65.266344006106124
 21
64.308268713525194
  0
ARC
  8
0
  6
CONTINUOUS
 62
3
 10
-130.066344006106190
 20
59.308268713525308
 40
5.000000000000000
 50
90.000000000000000
 51
135.074043599465310
  0
ARC
  8
0
  6
CONTINUOUS
 62
3
 10
-62.466344006106169
 20
59.308268713525194
 40
5.000000000000008
 50
44.925956400534659
 51
90.000000000000000
  0
LINE
  8
0
  6
CONTINUOUS
 62
3
 10
-130.066344006106190
 20
64.308268713525308
 11
-62.466344006106169
 21
64.308268713525194
  0
ARC
  8
0
  6
CONTINUOUS
 62
3
 10
-117.316979100716250
 20
16.508268713525354
 40
1.000000000000227
 50
216.869897645844020
 51
270.000000000000000
  0
ARC
  8
0
  6
CONTINUOUS
 62
3
 10
-118.916979100716160
 20
15.308268713525308
 40
0.999999999999727
 50
36.869897645849235
 51
90.000000000000000
  0
ARC
  8
0
  6
CONTINUOUS
 62
3
 10
-74.015708911495949
 20
15.308268713525308
 40
1.000000000000000
 50
90.000000000000000
 51
143.130102354166380
  0
ARC
  8
0
  6
CONTINUOUS
 62
3
 10
-75.615708911495858
 20
16.508268713525354
 40
1.000000000000000
 50
270.000000000000000
 51
323.130102354140380
  0
LINE
  8
0
  6
CONTINUOUS
 62
3
 10
-117.316979100716250
 20
15.508268713525354
 11
-75.615708911495858
 21
15.508268713525354
  0
ARC
  8
0
  6
CONTINUOUS
 62
3
 10
-131.716344006104920
 20
52.002832653789824
 40
10.999999999999886
 50
90.000000000000000
 51
180.000000000000000
  0
ARC
  8
0
  6
CONTINUOUS
 62
3
 10
-131.716344006104920
 20
48.531359914742893
 40
11.000000000000000
 50
90.000000000000000
 51
180.000000000000000
  0
ARC
  8
0
  6
CONTINUOUS
 62
3
 10
-60.816344006107215
 20
52.002832653789596
 40
11.000000000000000
 50
0.000000000000000
 51
90.000000000000000
  0
ARC
  8
0
  6
CONTINUOUS
 62
3
 10
-60.816344006107215
 20
48.531359914742893
 40
11.000000000000000
 50
0.000000000000000
 51
90.000000000000000
  0
ARC
  8
0
  6
CONTINUOUS
 62
3
 10
-130.516344006105560
 20
22.108268713525263
 40
5.799999999999727
 50
180.000000000000000
 51
270.000000000000000
  0
ARC
  8
0
  6
CONTINUOUS
 62
3
 10
-62.016344006106806
 20
22.108268713525263
 40
5.799999999999955
 50
270.000000000000000
 51
0.000000000000000
  0
LINE
  8
0
  6
CONTINUOUS
 62
3
 10
-130.516344006105560
 20
16.308268713525308
 11
-62.016344006106806
 21
16.308268713525308
  0
ARC
  8
0
  6
CONTINUOUS
 62
3
 10
-131.716344006104920
 20
25.134443333741388
 40
11.000000000000000
 50
180.000000000000000
 51
270.000000000000000
  0
ARC
  8
0
  6
CONTINUOUS
 62
3
 10
-60.816344006107215
 20
25.134443333741388
 40
11.000000000000000
 50
270.000000000000000
 51
0.000000000000000
  0
ARC
  8
0
  6
CONTINUOUS
 62
3
 10
-131.316344006105280
 20
51.684203413212231
 40
4.999999999999886
 50
90.000000000000000
 51
180.000000000000000
  0
ARC
  8
0
  6
CONTINUOUS
 62
3
 10
-61.216344006106851
 20
51.684203413212003
 40
5.000000000000000
 50
0.000000000000000
 51
90.000000000000000
  0
LINE
  8
0
  6
CONTINUOUS
 62
3
 10
-131.316344006105280
 20
56.684203413212117
 11
-61.216344006106851
 21
56.684203413212003
  0
LINE
  8
0
  6
CONTINUOUS
 62
3
 10
-136.316344006105280
 20
22.108268713525263
 11
-136.316344006105280
 21
51.684203413212231
  0
LINE
  8
0
  6
CONTINUOUS
 62
3
 10
-56.216344006106851
 20
22.108268713525263
 11
-56.216344006106851
 21
51.684203413212003
  0
LINE
  8
0
  6
CONTINUOUS
 62
3
 10
-142.716344006104920
 20
52.002832653789824
 11
-142.716344006104920
 21
25.134443333741388
  0
LINE
  8
0
  6
CONTINUOUS
 62
3
 10
-49.816344006107215
 20
52.002832653789596
 11
-49.816344006107215
 21
25.134443333741388
  0
LINE
  8
0
  6
CONTINUOUS
 62
3
 10
-131.716344006104920
 20
59.531359914742893
 11
-60.816344006107215
 21
59.531359914742893
  0
LINE
  8
0
  6
CONTINUOUS
 62
3
 10
-131.716344006104920
 20
63.002832653789710
 11
-60.816344006107215
 21
63.002832653789596
  0
LINE
  8
0
  6
CONTINUOUS
 62
3
 10
-131.716344006104920
 20
14.134443333741388
 11
-99.323600212002248
 21
14.134443333741388
  0
LINE
  8
0
  6
DASHDOT
 62
4
 10
-96.266344006106010
 20
71.141982049678063
 11
-96.266344006106010
 21
9.079568533041879
  0
LINE
  8
0
  6
CONTINUOUS
 62
3
 10
-128.766344006106010
 20
69.308268713525308
 11
-63.766344006105896
 21
69.308268713525308
  0
LINE
  8
0
  6
CONTINUOUS
 62
3
 10
-124.429019771285990
 20
71.308268713525308
 11
-63.766344006105896
 21
71.308268713525308
  0
LINE
  8
0
  6
CONTINUOUS
 62
3
 10
-128.766344006106010
 20
65.308268713525308
 11
-63.766344006105896
 21
65.308268713525308
  0
LINE
  8
0
  6
CONTINUOUS
 62
3
 10
-63.766344006105896
 20
65.308268713525308
 11
-63.766344006106010
 21
72.308268713525308
  0
LINE
  8
0
  6
CONTINUOUS
 62
3
 10
-128.766344006106010
 20
65.308268713525308
 11
-128.766344006106010
 21
71.147087688202362
  0
LINE
  8
0
  6
CONTINUOUS
 62
3
 10
-59.516344006106010
 20
72.308268713525308
 11
-59.516344006106010
 21
73.308268713525308
  0
LINE
  8
0
  6
CONTINUOUS
 62
3
 10
-122.929108450910120
 20
72.308268713525308
 11
-59.516344006106010
 21
72.308268713525308
  0
POLYLINE
  8
0
  6
CONTINUOUS
 62
3
 66
1
 70
1
  0
VERTEX
  8
0
  6
CONTINUOUS
 62
3
 10
-128.566344006105340
 20
80.884743681465466
  0
VERTEX
  8
0
  6
CONTINUOUS
 62
3
 10
-128.656653188210160
 20
81.587700647665827
  0
VERTEX
  8
0
  6
CONTINUOUS
 62
3
 10
-128.924110203302290
 20
82.263643371877919
  0
VERTEX
  8
0
  6
CONTINUOUS
 62
3
 10
-129.358436828283370
 20
82.886595754283320
  0
VERTEX
  8
0
  6
CONTINUOUS
 62
3
 10
-129.942942134528550
 20
83.432618084181897
  0
VERTEX
  8
0
  6
CONTINUOUS
 62
3
 10
-130.655163910913220
 20
83.880727029648511
  0
VERTEX
  8
0
  6
CONTINUOUS
 62
3
 10
-131.467731873989410
 20
84.213702015211283
  0
VERTEX
  8
0
  6
CONTINUOUS
 62
3
 10
-132.349419492629520
 20
84.418746998909526
  0
VERTEX
  8
0
  6
CONTINUOUS
 62
3
 10
-133.266344006105330
 20
84.487982217010298
  0
VERTEX
  8
0
  6
CONTINUOUS
 62
3
 10
-134.183268519581130
 20
84.418746998909526
  0
VERTEX
  8
0
  6
CONTINUOUS
 62
3
 10
-135.064956138221250
 20
84.213702015211283
  0
VERTEX
  8
0
  6
CONTINUOUS
 62
3
 10
-135.877524101297440
 20
83.880727029648511
  0
VERTEX
  8
0
  6
CONTINUOUS
 62
3
 10
-136.589745877682110
 20
83.432618084181897
  0
VERTEX
  8
0
  6
CONTINUOUS
 62
3
 10
-137.174251183927280
 20
82.886595754283320
  0
VERTEX
  8
0
  6
CONTINUOUS
 62
3
 10
-137.608577808908360
 20
82.263643371877919
  0
VERTEX
  8
0
  6
CONTINUOUS
 62
3
 10
-137.876034824000500
 20
81.587700647665827
  0
VERTEX
  8
0
  6
CONTINUOUS
 62
3
 10
-137.966344006105320
 20
80.884743681465466
  0
VERTEX
  8
0
  6
CONTINUOUS
 62
3
 10
-137.876034824000500
 20
80.181786715265105
  0
VERTEX
  8
0
  6
CONTINUOUS
 62
3
 10
-137.608577808908360
 20
79.505843991053013
  0
VERTEX
  8
0
  6
CONTINUOUS
 62
3
 10
-137.174251183927280
 20
78.882891608647611
  0
VERTEX
  8
0
  6
CONTINUOUS
 62
3
 10
-136.589745877682080
 20
78.336869278749035
  0
VERTEX
  8
0
  6
CONTINUOUS
 62
3
 10
-135.877524101297440
 20
77.888760333282420
  0
VERTEX
  8
0
  6
CONTINUOUS
 62
3
 10
-135.064956138221250
 20
77.555785347719649
  0
VERTEX
  8
0
  6
CONTINUOUS
 62
3
 10
-134.183268519581130
 20
77.350740364021405
  0
VERTEX
  8
0
  6
CONTINUOUS
 62
3
 10
-133.266344006105330
 20
77.281505145920633
  0
VERTEX
  8
0
  6
CONTINUOUS
 62
3
 10
-132.349419492629520
 20
77.350740364021405
  0
VERTEX
  8
0
  6
CONTINUOUS
 62
3
 10
-131.467731873989410
 20
77.555785347719649
  0
VERTEX
  8
0
  6
CONTINUOUS
 62
3
 10
-130.655163910913220
 20
77.888760333282420
  0
VERTEX
  8
0
  6
CONTINUOUS
 62
3
 10
-129.942942134528580
 20
78.336869278749035
  0
VERTEX
  8
0
  6
CONTINUOUS
 62
3
 10
-129.358436828283370
 20
78.882891608647611
  0
VERTEX
  8
0
  6
CONTINUOUS
 62
3
 10
-128.924110203302290
 20
79.505843991053013
  0
VERTEX
  8
0
  6
CONTINUOUS
 62
3
 10
-128.656653188210160
 20
80.181786715265105
  0
SEQEND
  8
0
  6
CONTINUOUS
 62
3
  0
LINE
  8
0
  6
CONTINUOUS
 62
3
 10
-135.266344006105330
 20
77.892368127465147
 11
-133.266344006105330
 21
79.068153613087475
  0
LINE
  8
0
  6
CONTINUOUS
 62
3
 10
-133.266344006105330
 20
79.068153613087475
 11
-131.266344006105330
 21
80.720795252210905
  0
LINE
  8
0
  6
CONTINUOUS
 62
3
 10
-131.266344006105330
 20
77.892368127465147
 11
-133.266344006105330
 21
79.068153613087475
  0
LINE
  8
0
  6
CONTINUOUS
 62
3
 10
-133.266344006105330
 20
79.068153613087475
 11
-135.266344006105330
 21
80.720795252210905
  0
POLYLINE
  8
0
  6
CONTINUOUS
 62
3
 66
1
 70
1
  0
VERTEX
  8
0
  6
CONTINUOUS
 62
3
 10
-128.566344006105340
 20
184.731793745585380
  0
VERTEX
  8
0
  6
CONTINUOUS
 62
3
 10
-128.656653188210160
 20
185.434750711785740
  0
VERTEX
  8
0
  6
CONTINUOUS
 62
3
 10
-128.924110203302290
 20
186.110693435997830
  0
VERTEX
  8
0
  6
CONTINUOUS
 62
3
 10
-129.358436828283370
 20
186.733645818403230
  0
VERTEX
  8
0
  6
CONTINUOUS
 62
3
 10
-129.942942134528550
 20
187.279668148301820
  0
VERTEX
  8
0
  6
CONTINUOUS
 62
3
 10
-130.655163910913220
 20
187.727777093768450
  0
VERTEX
  8
0
  6
CONTINUOUS
 62
3
 10
-131.467731873989410
 20
188.060752079331190
  0
VERTEX
  8
0
  6
CONTINUOUS
 62
3
 10
-132.349419492629520
 20
188.265797063029450
  0
VERTEX
  8
0
  6
CONTINUOUS
 62
3
 10
-133.266344006105330
 20
188.335032281130220
  0
VERTEX
  8
0
  6
CONTINUOUS
 62
3
 10
-134.183268519581130
 20
188.265797063029450
  0
VERTEX
  8
0
  6
CONTINUOUS
 62
3
 10
-135.064956138221250
 20
188.060752079331190
  0
VERTEX
  8
0
  6
CONTINUOUS
 62
3
 10
-135.877524101297440
 20
187.727777093768450
  0
VERTEX
  8
0
  6
CONTINUOUS
 62
3
 10
-136.589745877682110
 20
187.279668148301820
  0
VERTEX
  8
0
  6
CONTINUOUS
 62
3
 10
-137.174251183927280
 20
186.733645818403230
  0
VERTEX
  8
0
  6
CONTINUOUS
 62
3
 10
-137.608577808908360
 20
186.110693435997830
  0
VERTEX
  8
0
  6
CONTINUOUS
 62
3
 10
-137.876034824000500
 20
185.434750711785740
  0
VERTEX
  8
0
  6
CONTINUOUS
 62
3
 10
-137.966344006105320
 20
184.731793745585380
  0
VERTEX
  8
0
  6
CONTINUOUS
 62
3
 10
-137.876034824000500
 20
184.028836779385020
  0
VERTEX
  8
0
  6
CONTINUOUS
 62
3
 10
-137.608577808908360
 20
183.352894055172920
  0
VERTEX
  8
0
  6
CONTINUOUS
 62
3
 10
-137.174251183927280
 20
182.729941672767520
  0
VERTEX
  8
0
  6
CONTINUOUS
 62
3
 10
-136.589745877682080
 20
182.183919342868930
  0
VERTEX
  8
0
  6
CONTINUOUS
 62
3
 10
-135.877524101297440
 20
181.735810397402300
  0
VERTEX
  8
0
  6
CONTINUOUS
 62
3
 10
-135.064956138221250
 20
181.402835411839560
  0
VERTEX
  8
0
  6
CONTINUOUS
 62
3
 10
-134.183268519581130
 20
181.197790428141300
  0
VERTEX
  8
0
  6
CONTINUOUS
 62
3
 10
-133.266344006105330
 20
181.128555210040530
  0
VERTEX
  8
0
  6
CONTINUOUS
 62
3
 10
-132.349419492629520
 20
181.197790428141300
  0
VERTEX
  8
0
  6
CONTINUOUS
 62
3
 10
-131.467731873989410
 20
181.402835411839560
  0
VERTEX
  8
0
  6
CONTINUOUS
 62
3
 10
-130.655163910913220
 20
181.735810397402300
  0
VERTEX
  8
0
  6
CONTINUOUS
 62
3
 10
-129.942942134528580
 20
182.183919342868930
  0
VERTEX
  8
0
  6
CONTINUOUS
 62
3
 10
-129.358436828283370
 20
182.729941672767520
  0
VERTEX
  8
0
  6
CONTINUOUS
 62
3
 10
-128.924110203302290
 20
183.352894055172920
  0
VERTEX
  8
0
  6
CONTINUOUS
 62
3
 10
-128.656653188210160
 20
184.028836779385020
  0
SEQEND
  8
0
  6
CONTINUOUS
 62
3
  0
LINE
  8
0
  6
CONTINUOUS
 62
3
 10
-135.266344006105330
 20
187.724169299585700
 11
-133.266344006105330
 21
186.548383813962910
  0
LINE
  8
0
  6
CONTINUOUS
 62
3
 10
-133.266344006105330
 20
186.548383813962910
 11
-131.266344006105330
 21
184.895742174839480
  0
LINE
  8
0
  6
CONTINUOUS
 62
3
 10
-131.266344006105330
 20
187.724169299585700
 11
-133.266344006105330
 21
186.548383813962910
  0
LINE
  8
0
  6
CONTINUOUS
 62
3
 10
-133.266344006105330
 20
186.548383813962910
 11
-135.266344006105330
 21
184.895742174839480
  0
LINE
  8
0
  6
CONTINUOUS
 62
3
 10
-122.266344006105890
 20
132.808268713525310
 11
-122.266344006105890
 21
197.808268713525310
  0
LINE
  8
0
  6
CONTINUOUS
 62
3
 10
-122.266344006105890
 20
197.808268713525310
 11
-150.960368228526250
 21
197.808268713525310
  0
LINE
  8
0
  6
CONTINUOUS
 62
3
 10
-173.266344006055760
 20
132.808268713525310
 11
-173.266344006055760
 21
185.251473770770760
  0
ARC
  8
0
  6
CONTINUOUS
 62
3
 10
-150.960368228526250
 20
177.808268713525310
 40
20.000000000000000
 50
90.000000000000000
 51
125.000000000000240
  0
LINE
  8
0
  6
CONTINUOUS
 62
3
 10
-162.431896955547240
 20
194.191309599305100
 11
-172.157642740568240
 21
187.381269085921870
  0
ARC
  8
0
  6
CONTINUOUS
 62
3
 10
-170.666344006055620
 20
185.251473770770760
 40
2.599999999999721
 50
125.000000000001370
 51
180.000000000000000
  0
LINE
  8
0
  6
CONTINUOUS
 62
3
 10
-122.266344006105890
 20
132.808268713525310
 11
-122.266344006105890
 21
74.189047796652517
  0
LINE
  8
0
  6
CONTINUOUS
 62
3
 10
-173.266344006055760
 20
132.808268713525310
 11
-173.266344006055760
 21
80.365063656279858
  0
LINE
  8
0
  6
CONTINUOUS
 62
3
 10
-162.431896955547240
 20
71.425227827745516
 11
-172.157642740568240
 21
78.235268341128744
  0
ARC
  8
0
  6
CONTINUOUS
 62
3
 10
-170.666344006055620
 20
80.365063656279858
 40
2.600000000000136
 50
180.000000000000000
 51
234.999999999998610
  0
LINE
  8
0
  6
CONTINUOUS
 62
3
 10
-132.266344006105780
 20
67.808268713525308
 11
-150.960368228526250
 21
67.808268713525308
  0
ARC
  8
0
  6
CONTINUOUS
 62
3
 10
-150.960368228526250
 20
87.808268713525308
 40
20.000000000000007
 50
234.999999999999740
 51
270.000000000000000
  0
LINE
  8
0
  6
CONTINUOUS
 62
3
 10
-129.266344006105780
 20
71.189047796652517
 11
-125.266344006105890
 21
71.189047796652517
  0
LINE
  8
0
  6
CONTINUOUS
 62
3
 10
-132.266344006105780
 20
67.808268713525308
 11
-132.266344006105780
 21
68.189047796652517
  0
ARC
  8
0
  6
CONTINUOUS
 62
3
 10
-125.266344006105890
 20
74.189047796652517
 40
3.000000000000000
 50
270.000000000000000
 51
0.000000000000000
  0
ARC
  8
0
  6
CONTINUOUS
 62
3
 10
-129.266344006105780
 20
68.189047796652517
 40
3.000000000000000
 50
90.000000000000000
 51
180.000000000000000
  0
LINE
  8
0
  6
CONTINUOUS
 62
3
 10
-122.266344006105890
 20
192.308268713525080
 11
-25.266344006106010
 21
192.308268713525080
  0
LINE
  8
0
  6
CONTINUOUS
 62
3
 10
-122.398552485314090
 20
73.308268713525308
 11
-25.266344006106010
 21
73.308268713525308
  0
LINE
  8
0
  6
CONTINUOUS
 62
4
 10
-122.266344006105890
 20
75.808268713525308
 11
-25.266344006106010
 21
75.808268713525308
  0
LINE
  8
0
  6
CONTINUOUS
 62
4
 10
-122.266344006105890
 20
76.808268713525308
 11
-25.266344006106010
 21
76.808268713525308
  0
LINE
  8
0
  6
CONTINUOUS
 62
4
 10
-122.266344006105890
 20
77.808268713525308
 11
-25.266344006106010
 21
77.808268713525308
  0
LINE
  8
0
  6
CONTINUOUS
 62
4
 10
-122.266344006105890
 20
82.492734526749587
 11
-25.266344006106010
 21
82.492734526749587
  0
LINE
  8
0
  6
CONTINUOUS
 62
4
 10
-122.266344006105890
 20
87.442481995055346
 11
-25.266344006106010
 21
87.442481995055346
  0
LINE
  8
0
  6
CONTINUOUS
 62
4
 10
-122.266344006105890
 20
95.489083657789365
 11
-25.266344006106010
 21
95.489083657789365
  0
LINE
  8
0
  6
CONTINUOUS
 62
4
 10
-122.266344006105890
 20
97.093731573351420
 11
-25.266344006106010
 21
97.093731573351420
  0
LINE
  8
0
  6
CONTINUOUS
 62
4
 10
-122.266344006105890
 20
101.057476997150950
 11
-25.266344006106010
 21
101.057476997150950
  0
LINE
  8
0
  6
CONTINUOUS
 62
4
 10
-122.266344006105890
 20
102.525834386955580
 11
-25.266344006106010
 21
102.525834386955580
  0
LINE
  8
0
  6
CONTINUOUS
 62
4
 10
-122.266344006105890
 20
106.616334921045450
 11
-25.266344006106010
 21
106.616334921045450
  0
LINE
  8
0
  6
CONTINUOUS
 62
4
 10
-122.266344006105890
 20
107.978215256394710
 11
-25.266344006106010
 21
107.978215256394710
  0
LINE
  8
0
  6
CONTINUOUS
 62
4
 10
-122.266344006105890
 20
112.168768987936910
 11
-25.266344006106010
 21
112.168768987936910
  0
LINE
  8
0
  6
CONTINUOUS
 62
4
 10
-122.266344006105890
 20
113.435006904024130
 11
-25.266344006106010
 21
113.435006904024130
  0
LINE
  8
0
  6
CONTINUOUS
 62
4
 10
-122.266344006105890
 20
117.808268713525300
 11
-26.266343052429889
 21
117.808268713525300
  0
LINE
  8
0
  6
CONTINUOUS
 62
4
 10
-122.266344006105890
 20
170.127453769261250
 11
-25.266344006106010
 21
170.127453769261250
  0
LINE
  8
0
  6
CONTINUOUS
 62
4
 10
-122.266344006105890
 20
168.522805853699200
 11
-25.266344006106010
 21
168.522805853699200
  0
LINE
  8
0
  6
CONTINUOUS
 62
4
 10
-122.266344006105890
 20
164.559060429899660
 11
-25.266344006106010
 21
164.559060429899660
  0
LINE
  8
0
  6
CONTINUOUS
 62
4
 10
-122.266344006105890
 20
163.090703040095040
 11
-25.266344006106010
 21
163.090703040095040
  0
LINE
  8
0
  6
CONTINUOUS
 62
4
 10
-122.266344006105890
 20
159.000202506005170
 11
-25.266344006106010
 21
159.000202506005170
  0
LINE
  8
0
  6
CONTINUOUS
 62
4
 10
-122.266344006105890
 20
157.638322170655900
 11
-25.266344006106010
 21
157.638322170655900
  0
LINE
  8
0
  6
CONTINUOUS
 62
4
 10
-122.266344006105890
 20
153.447768439113700
 11
-25.266344006106010
 21
153.447768439113700
  0
LINE
  8
0
  6
CONTINUOUS
 62
4
 10
-122.266344006105890
 20
152.181530523026480
 11
-25.266344006106010
 21
152.181530523026480
  0
LINE
  8
0
  6
CONTINUOUS
 62
4
 10
-122.266344006105890
 20
147.808268713525310
 11
-26.266343052427469
 21
147.808268713525310
  0
LINE
  8
0
  6
CONTINUOUS
 62
4
 10
-122.266344006105890
 20
178.174055431995270
 11
-25.266344006106010
 21
178.174055431995270
  0
LINE
  8
0
  6
CONTINUOUS
 62
4
 10
-122.266344006105890
 20
183.123802900301030
 11
-25.266344006106010
 21
183.123802900301030
  0
LINE
  8
0
  6
CONTINUOUS
 62
4
 10
-122.266344006105890
 20
187.808268713525310
 11
-25.266344006106010
 21
187.808268713525310
  0
LINE
  8
0
  6
CONTINUOUS
 62
4
 10
-122.266344006105890
 20
188.808268713525310
 11
-25.266344006106010
 21
188.808268713525310
  0
LINE
  8
0
  6
CONTINUOUS
 62
4
 10
-122.266344006105890
 20
189.808268713525310
 11
-25.266344006106010
 21
189.808268713525310
  0
LINE
  8
0
  6
CONTINUOUS
 62
3
 10
-55.266344006105896
 20
192.308268713525310
 11
-25.266344006106010
 21
192.308268713525310
  0
ARC
  8
0
  6
CONTINUOUS
 62
3
 10
-210.226229772336410
 20
-223.368638333439040
 40
9.000000000000234
 50
7.398451589678908
 51
40.601531107483503
  0
ARC
  8
0
  6
CONTINUOUS
 62
3
 10
-202.590334147155090
 20
-222.377119210940410
 40
1.299999237060559
 50
293.999982013920090
 51
7.398451589679256
  0
LINE
  8
0
  6
DASHDOT
 62
4
 10
-228.107837499500420
 20
-199.309207506752670
 11
-228.107837499500420
 21
-222.177716682516290
  0
LINE
  8
0
  6
CONTINUOUS
 62
3
 10
-250.802401439764940
 20
-125.840722889542740
 11
-205.085202758039940
 21
-228.523232328568780
  0
ARC
  8
0
  6
CONTINUOUS
 62
3
 10
-204.339401946226640
 20
-161.038381468810430
 40
1.000000000000077
 50
0.587807867721716
 51
53.794291905958382
  0
ARC
  8
0
  6
CONTINUOUS
 62
3
 10
-203.158029829950240
 20
-159.424578530752290
 40
0.999999999999967
 50
180.740494943192910
 51
233.794291905968890
  0
ARC
  8
0
  6
CONTINUOUS
 62
3
 10
-203.928238246103320
 20
-198.583587555747440
 40
0.999999999999769
 50
123.952126946395960
 51
177.005923909151190
  0
ARC
  8
0
  6
CONTINUOUS
 62
3
 10
-205.045238270715800
 20
-196.924578530752290
 40
1.000000000000147
 50
303.952126946381380
 51
357.158610984632960
  0
ARC
  8
0
  6
CONTINUOUS
 62
3
 10
-804.107837499500420
 20
-167.191731286458610
 40
600.799999999999950
 50
357.158610984636650
 51
0.587807867706885
  0
LINE
  8
0
  6
CONTINUOUS
 62
3
 10
-252.107837499500420
 20
-134.500126409399340
 11
-252.107837499500420
 21
-208.691731286458380
  0
LINE
  8
0
  6
CONTINUOUS
 62
3
 10
-253.107837499500420
 20
-198.191731286458380
 11
-252.107837499500420
 21
-198.191731286458380
  0
LINE
  8
0
  6
CONTINUOUS
 62
3
 10
-207.037538644804040
 20
-224.138214131884240
 11
-210.554688656728100
 21
-225.704150207726060
  0
LINE
  8
0
  6
CONTINUOUS
 62
3
 10
-208.664485217107310
 20
-220.484032301314240
 11
-212.181635229031140
 21
-222.049968377156060
  0
ARC
  8
0
  6
CONTINUOUS
 62
3
 10
-207.737823903081330
 20
-211.314365874695510
 40
2.000000000000451
 50
294.000000000027340
 51
355.768661925113970
  0
ARC
  8
0
  6
CONTINUOUS
 62
3
 10
-206.313150235801910
 20
-213.963969126337080
 40
0.999999999999856
 50
113.999999999979760
 51
204.000000000003580
  0
LINE
  8
0
  6
CONTINUOUS
 62
3
 10
-228.232128476696740
 20
-167.191731286458380
 11
-202.020466662073890
 21
-226.064087627238390
  0
ARC
  8
0
  6
CONTINUOUS
 62
3
 10
-202.934012119716500
 20
-226.470824270314040
 40
1.000000000000226
 50
294.000000000027340
 51
23.999999999991683
  0
LINE
  8
0
  6
CONTINUOUS
 62
3
 10
-202.527275476640170
 20
-227.384369727956650
 11
-205.085202758039940
 21
-228.523232328568780
  0
LINE
  8
0
  6
CONTINUOUS
 62
3
 10
-247.107837499500420
 20
-213.691731286458380
 11
-211.688612468171640
 21
-213.691731286458380
  0
ARC
  8
0
  6
CONTINUOUS
 62
3
 10
-247.107837499500420
 20
-208.691731286458380
 40
5.000000000000000
 50
180.000000000000000
 51
270.000000000000000
  0
LINE
  8
0
  6
CONTINUOUS
 62
3
 10
-253.107837499500420
 20
-136.191731286458380
 11
-252.107837499500420
 21
-136.191731286458380
  0
ARC
  8
0
  6
CONTINUOUS
 62
3
 10
-249.107837499500420
 20
-134.500126409399340
 40
2.999999999999567
 50
113.999999999979760
 51
180.000000000000000
  0
LINE
  8
0
  6
CONTINUOUS
 62
3
 10
-248.524676238540000
 20
-130.956577452341380
 11
-250.328047428726680
 21
-131.759490036471500
  0
LINE
  8
0
  6
CONTINUOUS
 62
3
 10
-248.244474158360390
 20
-124.701860288928340
 11
-250.802401439759710
 21
-125.840722889540470
  0
ARC
  8
0
  6
CONTINUOUS
 62
3
 10
-205.141788507188720
 20
-216.594890644344960
 40
0.999999999999983
 50
175.284875165916760
 51
204.000000000003580
  0
ARC
  8
0
  6
CONTINUOUS
 62
3
 10
-804.107837499500420
 20
-167.191731286458610
 40
600.000000000000910
 50
355.284875165908370
 51
1.682768801133149
  0
ARC
  8
0
  6
CONTINUOUS
 62
3
 10
-219.360126484941250
 20
-150.012835418723570
 40
15.000000000000393
 50
1.682768801133086
 51
80.681876880324481
  0
LINE
  8
0
  6
CONTINUOUS
 62
3
 10
-242.887024126285720
 20
-130.951938009119600
 11
-216.931387032749630
 21
-135.210767162112630
  0
ARC
  8
0
  6
CONTINUOUS
 62
3
 10
-242.401276235847040
 20
-127.991524357797450
 40
3.000000000000030
 50
203.999999999999630
 51
260.681876880317470
  0
LINE
  8
0
  6
CONTINUOUS
 62
3
 10
-246.924192057642360
 20
-125.208669103495080
 11
-228.232128476693560
 21
-167.191731286458380
  0
LINE
  8
0
  6
CONTINUOUS
 62
3
 10
-250.473240660093780
 20
-128.535060607352700
 11
-249.736836777331750
 21
-128.847645510143990
  0
LINE
  8
0
  6
CONTINUOUS
 62
3
 10
-249.603494755137720
 20
-128.533511391694620
 11
-249.736836777331750
 21
-128.847645510143990
  0
LINE
  8
0
  6
CONTINUOUS
 62
3
 10
-250.048408500347700
 20
-127.534218758737260
 11
-250.473240660093780
 21
-128.535060607352700
  0
ARC
  8
0
  6
CONTINUOUS
 62
3
 10
-204.379975997319660
 20
-218.357517803353350
 40
1.299999237060495
 50
40.601531107483851
 51
114.000000683246080
  0
LINE
  8
0
  6
CONTINUOUS
 62
3
 10
-205.803117442679190
 20
-217.568114871162090
 11
-204.908733323002710
 21
-217.169909405397850
  0
LINE
  8
0
  6
CONTINUOUS
 62
3
 10
-202.955960941148310
 20
-223.962933074660380
 11
-202.061576821471820
 21
-223.564727608895910
  0
LINE
  8
0
  6
CONTINUOUS
 62
3
 10
-205.803117442679190
 20
-217.568114871162090
 11
-202.955960941148310
 21
-223.962933074660380
  0
LINE
  8
0
  6
CONTINUOUS
 62
3
 10
-205.803117442679190
 20
-217.568114871162090
 11
-202.955960941148310
 21
-223.962933074660380
  0
POINT
  8
0
  6
CONTINUOUS
 62
3
 10
-204.379539191913640
 20
-220.765523972911240
  0
LINE
  8
0
  6
CONTINUOUS
 62
3
 10
-212.359018314129570
 20
-222.512067112407460
 11
-211.016787391979510
 21
-225.526767122627630
  0
LINE
  8
0
  6
CONTINUOUS
 62
3
 10
-210.554688656728100
 20
-225.704150207726060
 11
-211.016787391979510
 21
-225.526767122627630
  0
LINE
  8
0
  6
CONTINUOUS
 62
3
 10
-212.181635229031140
 20
-222.049968377156060
 11
-212.359018314129570
 21
-222.512067112407460
  0
LINE
  8
0
  6
CONTINUOUS
 62
4
 10
-208.522127392030820
 20
-220.803773211489160
 11
-212.359018314129570
 21
-222.512067112407460
  0
LINE
  8
0
  6
CONTINUOUS
 62
4
 10
-207.179896469880300
 20
-223.818473221709780
 11
-211.016787391979280
 21
-225.526767122628090
  0
ARC
  8
0
  6
CONTINUOUS
 62
3
 10
-247.837737515284970
 20
-125.615405746570950
 40
1.000000000000041
 50
24.000000000003585
 51
113.999999999979760
  0
LINE
  8
0
  6
CONTINUOUS
 62
3
 10
-253.107837499500420
 20
-167.191731286458380
 11
-253.107837499500420
 21
-198.191731286458380
  0
LINE
  8
0
  6
CONTINUOUS
 62
3
 10
-253.107837499500420
 20
-167.191731286458380
 11
-253.107837499500420
 21
-136.191731286458380
  0
LINE
  8
0
  6
CONTINUOUS
 62
3
 10
-257.107837499500420
 20
-197.184230348725180
 11
-257.107837499500420
 21
-199.796474972735100
  0
LINE
  8
0
  6
CONTINUOUS
 62
3
 10
-257.107837499500420
 20
-137.199232224191580
 11
-257.107837499500420
 21
-134.586987600181660
  0
LINE
  8
0
  6
CONTINUOUS
 62
3
 10
-257.107837499500420
 20
-134.586987600181660
 11
-254.081660551192500
 21
-134.666230832404490
  0
LINE
  8
0
  6
CONTINUOUS
 62
3
 10
-253.107837499500420
 20
-198.717574415536720
 11
-253.107837499500420
 21
-135.665888157380040
  0
ARC
  8
0
  6
CONTINUOUS
 62
3
 10
-254.107837499500420
 20
-135.665888157380040
 40
1.000000000000000
 50
0.000000000000000
 51
88.499999999997257
  0
ARC
  8
0
  6
CONTINUOUS
 62
3
 10
-254.107837499500420
 20
-198.717574415536720
 40
0.999999999999988
 50
271.500000000002730
 51
0.000000000000000
  0
LINE
  8
0
  6
CONTINUOUS
 62
3
 10
-257.107837499500420
 20
-199.796474972735100
 11
-254.081660551192500
 21
-199.717231740512260
  0
ARC
  8
0
  6
CONTINUOUS
 62
4
 10
-320.607837499500420
 20
-407.791731286458290
 40
289.396999999999930
 50
90.000000000000000
 51
97.897988672427743
  0
ARC
  8
0
  6
CONTINUOUS
 62
4
 10
-359.549355454882520
 20
-127.082953745871630
 40
5.999999999999923
 50
97.897988672425626
 51
134.999999999996930
  0
ARC
  8
0
  6
CONTINUOUS
 62
3
 10
-364.556424929782910
 20
-117.095116818930080
 40
6.599999999999971
 50
98.597082237248614
 51
134.999999999998610
  0
ARC
  8
0
  6
CONTINUOUS
 62
3
 10
-324.607837499500420
 20
-138.468918053767940
 40
1.499999999999998
 50
277.928141766204020
 51
0.000000000000000
  0
ARC
  8
0
  6
CONTINUOUS
 62
3
 10
-320.607837499499960
 20
-167.191731286458380
 40
33.499999999999950
 50
97.180755781459069
 51
142.819244218541740
  0
ARC
  8
0
  6
CONTINUOUS
 62
3
 10
-320.607837499499960
 20
-167.191731286458380
 40
43.000000000000043
 50
95.531071524839788
 51
144.468928475160770
  0
ARC
  8
0
  6
CONTINUOUS
 62
3
 10
-320.607837499499960
 20
-167.191731286458380
 40
37.000000000000099
 50
95.963570118321798
 51
144.036429881678830
  0
ARC
  8
0
  6
CONTINUOUS
 62
3
 10
-343.482523427166140
 20
-149.366223054975250
 40
1.499999999999926
 50
239.999999999998410
 51
322.071858233800300
  0
ARC
  8
0
  6
CONTINUOUS
 62
3
 10
-346.103291669234980
 20
-147.853121804933100
 40
1.500000000000103
 50
142.819244218542510
 51
239.999999999998410
  0
ARC
  8
0
  6
CONTINUOUS
 62
3
 10
-351.769373953651210
 20
-144.581807672774800
 40
1.500000000000123
 50
240.000000000002730
 51
324.036429881683720
  0
LINE
  8
0
  6
CONTINUOUS
 62
3
 10
-344.232523427166140
 20
-150.665261160651820
 11
-346.853291669234980
 21
-149.152159910609670
  0
LINE
  8
0
  6
CONTINUOUS
 62
3
 10
-352.519373953651210
 20
-145.880845778451600
 11
-355.130557552635310
 21
-144.373278224674490
  0
ARC
  8
0
  6
CONTINUOUS
 62
3
 10
-354.380557552635310
 20
-143.074240118997690
 40
1.499999999999976
 50
144.468928475160790
 51
240.000000000002730
  0
ARC
  8
0
  6
CONTINUOUS
 62
3
 10
-350.103291669235430
 20
-179.602137537708070
 40
1.500000000000157
 50
202.819244218546660
 51
300.000000000001590
  0
LINE
  8
0
  6
CONTINUOUS
 62
3
 10
-349.353291669235430
 20
-180.901175643384650
 11
-346.732523427166140
 21
-179.388074393342720
  0
ARC
  8
0
  6
CONTINUOUS
 62
3
 10
-355.769373953651670
 20
-182.873451669866370
 40
1.499999999999926
 50
300.000000000001590
 51
24.036429881677126
  0
LINE
  8
0
  6
CONTINUOUS
 62
3
 10
-357.630557552635760
 20
-185.680057329320280
 11
-355.019373953651670
 21
-184.172489775542940
  0
ARC
  8
0
  6
CONTINUOUS
 62
3
 10
-358.380557552635760
 20
-184.381019223643250
 40
1.500000000000128
 50
204.468928475167470
 51
299.999999999992950
  0
ARC
  8
0
  6
CONTINUOUS
 62
3
 10
-347.482523427166140
 20
-178.089036287665690
 40
1.500000000000320
 50
299.999999999992950
 51
22.071858233784546
  0
ARC
  8
0
  6
CONTINUOUS
 62
3
 10
-320.607837499500190
 20
-167.191731286458830
 40
33.499999999999794
 50
157.180755781458400
 51
202.819244218540940
  0
ARC
  8
0
  6
CONTINUOUS
 62
3
 10
-320.607837499500190
 20
-167.191731286458830
 40
43.000000000000121
 50
155.531071524839230
 51
204.468928475160200
  0
ARC
  8
0
  6
CONTINUOUS
 62
3
 10
-320.607837499500190
 20
-167.191731286458830
 40
37.000000000000156
 50
155.963570118321120
 51
204.036429881678230
  0
ARC
  8
0
  6
CONTINUOUS
 62
3
 10
-320.607837499500870
 20
-167.191731286458380
 40
27.499999999999886
 50
157.928141766202200
 51
202.071858233798680
  0
ARC
  8
0
  6
CONTINUOUS
 62
3
 10
-347.482523427166370
 20
-156.294426285251060
 40
1.500000000000110
 50
337.928141766202600
 51
59.999999999998380
  0
ARC
  8
0
  6
CONTINUOUS
 62
3
 10
-350.103291669235200
 20
-154.781325035209140
 40
1.500000000000123
 50
60.000000000002721
 51
157.180755781457980
  0
ARC
  8
0
  6
CONTINUOUS
 62
3
 10
-355.769373953651440
 20
-151.510010903050840
 40
1.499999999999855
 50
335.963570118319300
 51
59.999999999990862
  0
LINE
  8
0
  6
CONTINUOUS
 62
3
 10
-346.732523427166370
 20
-154.995388179574490
 11
-349.353291669235200
 21
-153.482286929532340
  0
LINE
  8
0
  6
CONTINUOUS
 62
3
 10
-355.019373953651210
 20
-150.210972797374270
 11
-357.630557552635760
 21
-148.703405243597160
  0
ARC
  8
0
  6
CONTINUOUS
 62
3
 10
-358.380557552635760
 20
-150.002443349273730
 40
1.499999999999926
 50
59.999999999998380
 51
155.531071524840400
  0
ARC
  8
0
  6
CONTINUOUS
 62
3
 10
-346.103291669235430
 20
-186.530340767983430
 40
1.499999999999926
 50
120.000000000001620
 51
217.180755781464400
  0
LINE
  8
0
  6
CONTINUOUS
 62
3
 10
-346.853291669235430
 20
-185.231302662306860
 11
-344.232523427166140
 21
-183.718201412264480
  0
ARC
  8
0
  6
CONTINUOUS
 62
3
 10
-351.769373953651670
 20
-189.801654900141730
 40
1.499999999999968
 50
35.963570118309242
 51
120.000000000001620
  0
LINE
  8
0
  6
CONTINUOUS
 62
3
 10
-355.130557552635760
 20
-190.010184348242490
 11
-352.519373953651670
 21
-188.502616794465150
  0
ARC
  8
0
  6
CONTINUOUS
 62
3
 10
-354.380557552635760
 20
-191.309222453919060
 40
1.499999999999926
 50
120.000000000001620
 51
215.531071524832130
  0
ARC
  8
0
  6
CONTINUOUS
 62
3
 10
-343.482523427166140
 20
-185.017239517941500
 40
1.500000000000122
 50
37.928141766218701
 51
119.999999999992930
  0
ARC
  8
0
  6
CONTINUOUS
 62
3
 10
-320.607837499500650
 20
-167.191731286457920
 40
33.500000000000163
 50
217.180755781459110
 51
262.819244218541770
  0
ARC
  8
0
  6
CONTINUOUS
 62
3
 10
-320.607837499500650
 20
-167.191731286457920
 40
42.999999999999858
 50
215.531071524839690
 51
264.468928475160850
  0
ARC
  8
0
  6
CONTINUOUS
 62
3
 10
-320.607837499500650
 20
-167.191731286457920
 40
37.000000000000021
 50
215.963570118321970
 51
264.036429881678940
  0
ARC
  8
0
  6
CONTINUOUS
 62
3
 10
-320.607837499500650
 20
-167.191731286458830
 40
27.499999999999780
 50
217.928141766201070
 51
262.071858233797400
  0
ARC
  8
0
  6
CONTINUOUS
 62
3
 10
-324.607837499500650
 20
-195.914544519148820
 40
1.500000000000000
 50
0.000000000000000
 51
82.071858233804562
  0
ARC
  8
0
  6
CONTINUOUS
 62
3
 10
-324.607837499500650
 20
-198.940747019233130
 40
1.499999999999998
 50
262.819244218541710
 51
0.000000000000000
  0
ARC
  8
0
  6
CONTINUOUS
 62
3
 10
-324.607837499500650
 20
-205.483375283549720
 40
1.500000000000000
 50
0.000000000017370
 51
84.036429881682594
  0
LINE
  8
0
  6
CONTINUOUS
 62
3
 10
-323.107837499500650
 20
-195.914544519148820
 11
-323.107837499500650
 21
-198.940747019233130
  0
LINE
  8
0
  6
CONTINUOUS
 62
3
 10
-323.107837499500650
 20
-205.483375283549260
 11
-323.107837499500650
 21
-208.498510391103480
  0
ARC
  8
0
  6
CONTINUOUS
 62
3
 10
-324.607837499500650
 20
-208.498510391103480
 40
1.500000000000430
 50
264.468928475160000
 51
0.000000000000000
  0
ARC
  8
0
  6
CONTINUOUS
 62
3
 10
-295.112383329765410
 20
-186.530340767983430
 40
1.500000000000240
 50
322.819244218535570
 51
59.999999999998380
  0
LINE
  8
0
  6
CONTINUOUS
 62
3
 10
-294.362383329765410
 20
-185.231302662306860
 11
-296.983151571834700
 21
-183.718201412264480
  0
ARC
  8
0
  6
CONTINUOUS
 62
3
 10
-289.446301045349170
 20
-189.801654900141730
 40
1.499999999999926
 50
59.999999999998380
 51
144.036429881690740
  0
ARC
  8
0
  6
CONTINUOUS
 62
3
 10
-297.733151571834700
 20
-185.017239517941500
 40
1.500000000000320
 50
60.000000000007070
 51
142.071858233781280
  0
ARC
  8
0
  6
CONTINUOUS
 62
3
 10
-320.607837499500190
 20
-167.191731286457920
 40
33.500000000000114
 50
277.180755781458230
 51
322.819244218540860
  0
ARC
  8
0
  6
CONTINUOUS
 62
3
 10
-320.607837499500190
 20
-167.191731286457920
 40
43.000000000000199
 50
275.531071524838860
 51
324.468928475160340
  0
ARC
  8
0
  6
CONTINUOUS
 62
3
 10
-320.607837499500190
 20
-167.191731286457920
 40
37.000000000000028
 50
275.963570118320770
 51
324.036429881678030
  0
ARC
  8
0
  6
CONTINUOUS
 62
3
 10
-320.607837499500190
 20
-167.191731286458830
 40
27.499999999999879
 50
277.928141766202600
 51
322.071858233798930
  0
ARC
  8
0
  6
CONTINUOUS
 62
3
 10
-316.607837499500190
 20
-195.914544519148820
 40
1.499999999999967
 50
97.928141766195438
 51
180.000000000000000
  0
ARC
  8
0
  6
CONTINUOUS
 62
3
 10
-316.607837499500190
 20
-198.940747019233130
 40
1.500000000000000
 50
180.000000000000000
 51
277.180755781458290
  0
ARC
  8
0
  6
CONTINUOUS
 62
3
 10
-316.607837499500190
 20
-205.483375283549720
 40
1.500000000000182
 50
95.963570118326047
 51
179.999999999982630
  0
LINE
  8
0
  6
CONTINUOUS
 62
3
 10
-318.107837499500190
 20
-195.914544519148820
 11
-318.107837499500190
 21
-198.940747019233130
  0
LINE
  8
0
  6
CONTINUOUS
 62
3
 10
-318.107837499500190
 20
-205.483375283549260
 11
-318.107837499500190
 21
-208.498510391103480
  0
ARC
  8
0
  6
CONTINUOUS
 62
3
 10
-316.607837499500190
 20
-208.498510391103480
 40
1.500000000000000
 50
180.000000000000000
 51
275.531071524831360
  0
ARC
  8
0
  6
CONTINUOUS
 62
3
 10
-291.112383329765410
 20
-179.602137537708070
 40
1.499999999999926
 50
239.999999999998410
 51
337.180755781453340
  0
LINE
  8
0
  6
CONTINUOUS
 62
3
 10
-291.862383329765410
 20
-180.901175643384650
 11
-294.483151571834700
 21
-179.388074393342720
  0
ARC
  8
0
  6
CONTINUOUS
 62
3
 10
-293.733151571834700
 20
-178.089036287665690
 40
1.499999999999899
 50
157.928141766199360
 51
240.000000000007050
  0
ARC
  8
0
  6
CONTINUOUS
 62
3
 10
-320.607837499500650
 20
-167.191731286458830
 40
33.500000000000128
 50
337.180755781459030
 51
22.819244218541968
  0
ARC
  8
0
  6
CONTINUOUS
 62
3
 10
-320.607837499499960
 20
-167.191731286458380
 40
27.499999999999886
 50
337.928141766202200
 51
22.071858233797812
  0
ARC
  8
0
  6
CONTINUOUS
 62
3
 10
-293.733151571834470
 20
-156.294426285251060
 40
1.499999999999926
 50
120.000000000001620
 51
202.071858233797370
  0
ARC
  8
0
  6
CONTINUOUS
 62
3
 10
-291.112383329765630
 20
-154.781325035209140
 40
1.499999999999948
 50
22.819244218550043
 51
119.999999999997270
  0
LINE
  8
0
  6
CONTINUOUS
 62
3
 10
-294.483151571834470
 20
-154.995388179574490
 11
-291.862383329765630
 21
-153.482286929532340
  0
ARC
  8
0
  6
CONTINUOUS
 62
3
 10
-320.607837499500870
 20
-167.191731286458380
 40
33.500000000000071
 50
37.180755781458259
 51
82.819244218540931
  0
ARC
  8
0
  6
CONTINUOUS
 62
3
 10
-320.607837499500870
 20
-167.191731286458380
 40
36.999999999999943
 50
35.963570118321194
 51
84.036429881678174
  0
ARC
  8
0
  6
CONTINUOUS
 62
3
 10
-289.446301045349630
 20
-144.581807672774800
 40
1.500000000000102
 50
215.963570118316280
 51
299.999999999997270
  0
ARC
  8
0
  6
CONTINUOUS
 62
3
 10
-295.112383329765860
 20
-147.853121804933100
 40
1.499999999999926
 50
300.000000000001590
 51
37.180755781457485
  0
ARC
  8
0
  6
CONTINUOUS
 62
3
 10
-320.607837499500190
 20
-167.191731286457920
 40
27.500000000000060
 50
37.928141766201819
 51
82.071858233798309
  0
ARC
  8
0
  6
CONTINUOUS
 62
3
 10
-316.607837499500420
 20
-138.468918053767940
 40
1.500000000000000
 50
180.000000000000000
 51
262.071858233795980
  0
LINE
  8
0
  6
CONTINUOUS
 62
3
 10
-296.983151571834700
 20
-150.665261160651820
 11
-294.362383329765860
 21
-149.152159910609670
  0
ARC
  8
0
  6
CONTINUOUS
 62
3
 10
-297.733151571834700
 20
-149.366223054975250
 40
1.499999999999843
 50
217.928141766204990
 51
300.000000000001590
  0
CIRCLE
  8
0
  6
CONTINUOUS
 62
3
 10
-320.607837499500420
 20
-167.191731286457920
 40
5.000000000000000
  0
ARC
  8
0
  6
CONTINUOUS
 62
3
 10
-314.670583566306500
 20
-159.145053976364520
 40
1.499999999999693
 50
233.578178478195410
 51
300.000000000001590
  0
ARC
  8
0
  6
CONTINUOUS
 62
3
 10
-316.607837499500420
 20
-158.026579896546020
 40
1.500000000000000
 50
180.000000000000000
 51
246.421821521804280
  0
ARC
  8
0
  6
CONTINUOUS
 62
3
 10
-303.432658230455670
 20
-152.656834758577990
 40
1.499999999999926
 50
300.000000000001590
 51
40.240348321182964
  0
ARC
  8
0
  6
CONTINUOUS
 62
3
 10
-316.607837499500420
 20
-154.822414409604960
 40
1.500000000000138
 50
72.079786860605225
 51
180.000000000000000
  0
ARC
  8
0
  6
CONTINUOUS
 62
3
 10
-316.607837499500420
 20
-148.106396602465740
 40
1.500000000000000
 50
180.000000000000000
 51
258.162995844103310
  0
ARC
  8
0
  6
CONTINUOUS
 62
3
 10
-306.079452823434620
 20
-154.184962329324150
 40
1.499999999999967
 50
221.837004155893280
 51
300.000000000001590
  0
ARC
  8
0
  6
CONTINUOUS
 62
3
 10
-316.607837499500420
 20
-145.050141460973410
 40
1.499999999999952
 50
79.759651678814024
 51
180.000000000000000
  0
ARC
  8
0
  6
CONTINUOUS
 62
3
 10
-311.895694856686080
 20
-157.542971232893650
 40
1.499999999999926
 50
300.000000000001590
 51
47.920213139381872
  0
LINE
  8
0
  6
CONTINUOUS
 62
3
 10
-305.329452823434620
 20
-155.484000435000720
 11
-302.682658230455670
 21
-153.955872864254560
  0
ARC
  8
0
  6
CONTINUOUS
 62
3
 10
-320.607837499500190
 20
-167.191731286457920
 40
14.499999999999860
 50
47.920213139391755
 51
72.079786860608309
  0
LINE
  8
0
  6
CONTINUOUS
 62
3
 10
-318.107837499500420
 20
-154.822414409604960
 11
-318.107837499500420
 21
-158.026579896546020
  0
LINE
  8
0
  6
CONTINUOUS
 62
3
 10
-318.107837499500420
 20
-145.050141460973410
 11
-318.107837499500420
 21
-148.106396602465740
  0
LINE
  8
0
  6
CONTINUOUS
 62
3
 10
-313.920583566306500
 20
-160.444092082041100
 11
-311.145694856686080
 21
-158.842009338570220
  0
ARC
  8
0
  6
CONTINUOUS
 62
3
 10
-320.607837499500190
 20
-167.191731286457920
 40
23.999999999999819
 50
40.240348321186090
 51
79.759651678814322
  0
ARC
  8
0
  6
CONTINUOUS
 62
3
 10
-320.607837499500190
 20
-167.191731286457920
 40
8.500000000000101
 50
53.578178478202659
 51
66.421821521799089
  0
ARC
  8
0
  6
CONTINUOUS
 62
3
 10
-307.895694856686080
 20
-169.912288109746840
 40
1.499999999999926
 50
239.999999999998410
 51
347.920213139390400
  0
LINE
  8
0
  6
CONTINUOUS
 62
3
 10
-308.645694856686080
 20
-171.211326215423410
 11
-311.420583566306500
 21
-169.609243471952990
  0
ARC
  8
0
  6
CONTINUOUS
 62
3
 10
-310.670583566306500
 20
-168.310205366276420
 40
1.500000000000099
 50
173.578178478198990
 51
239.999999999998410
  0
ARC
  8
0
  6
CONTINUOUS
 62
3
 10
-320.607837499500190
 20
-167.191731286457920
 40
8.499999999999865
 50
353.578178478199500
 51
6.421821521797448
  0
ARC
  8
0
  6
CONTINUOUS
 62
3
 10
-310.670583566306500
 20
-166.073257206639880
 40
1.499999999999926
 50
120.000000000001620
 51
186.421821521801010
  0
LINE
  8
0
  6
CONTINUOUS
 62
3
 10
-311.420583566306500
 20
-164.774219100963310
 11
-308.645694856686080
 21
-163.172136357492430
  0
ARC
  8
0
  6
CONTINUOUS
 62
3
 10
-307.895694856686080
 20
-164.471174463169010
 40
1.500000000000192
 50
12.079786860592611
 51
120.000000000001620
  0
ARC
  8
0
  6
CONTINUOUS
 62
3
 10
-320.607837499500190
 20
-167.191731286457920
 40
14.500000000000169
 50
347.920213139391310
 51
12.079786860606980
  0
ARC
  8
0
  6
CONTINUOUS
 62
3
 10
-299.432658230455670
 20
-174.798424584062500
 40
1.499999999999926
 50
239.999999999998410
 51
340.240348321188210
  0
LINE
  8
0
  6
CONTINUOUS
 62
3
 10
-300.182658230455670
 20
-176.097462689739070
 11
-302.829452823434620
 21
-174.569335118993370
  0
ARC
  8
0
  6
CONTINUOUS
 62
3
 10
-302.079452823434620
 20
-173.270297013316340
 40
1.500000000000038
 50
161.837004155895410
 51
240.000000000007050
  0
ARC
  8
0
  6
CONTINUOUS
 62
3
 10
-320.607837499500190
 20
-167.191731286457920
 40
17.999999999999943
 50
341.837004155893340
 51
18.162995844106646
  0
ARC
  8
0
  6
CONTINUOUS
 62
3
 10
-302.079452823434620
 20
-161.113165559599510
 40
1.499999999999926
 50
120.000000000001620
 51
198.162995844104590
  0
LINE
  8
0
  6
CONTINUOUS
 62
3
 10
-302.829452823434620
 20
-159.814127453922940
 11
-300.182658230455670
 21
-158.285999883176770
  0
ARC
  8
0
  6
CONTINUOUS
 62
3
 10
-299.432658230455670
 20
-159.585037988853340
 40
1.500000000000246
 50
19.759651678811824
 51
120.000000000001620
  0
ARC
  8
0
  6
CONTINUOUS
 62
3
 10
-320.607837499500190
 20
-167.191731286457920
 40
24.000000000000139
 50
340.240348321186050
 51
19.759651678813924
  0
ARC
  8
0
  6
CONTINUOUS
 62
3
 10
-333.319980142314760
 20
-169.912288109746840
 40
1.500000000000287
 50
192.079786860609600
 51
300.000000000001590
  0
LINE
  8
0
  6
CONTINUOUS
 62
3
 10
-332.569980142314760
 20
-171.211326215423410
 11
-329.795091432694330
 21
-169.609243471952990
  0
ARC
  8
0
  6
CONTINUOUS
 62
3
 10
-330.545091432694330
 20
-168.310205366276420
 40
1.499999999999926
 50
300.000000000001590
 51
6.421821521801967
  0
ARC
  8
0
  6
CONTINUOUS
 62
3
 10
-320.607837499500870
 20
-167.191731286457920
 40
8.499999999999813
 50
173.578178478202550
 51
186.421821521800500
  0
ARC
  8
0
  6
CONTINUOUS
 62
3
 10
-330.545091432694330
 20
-166.073257206639880
 40
1.499999999999873
 50
353.578178478198030
 51
59.999999999998380
  0
LINE
  8
0
  6
CONTINUOUS
 62
3
 10
-329.795091432694330
 20
-164.774219100963310
 11
-332.569980142314990
 21
-163.172136357492430
  0
ARC
  8
0
  6
CONTINUOUS
 62
3
 10
-333.319980142314990
 20
-164.471174463169010
 40
1.499999999999926
 50
59.999999999998380
 51
167.920213139405550
  0
ARC
  8
0
  6
CONTINUOUS
 62
3
 10
-320.607837499500870
 20
-167.191731286457920
 40
14.499999999999851
 50
167.920213139392840
 51
192.079786860608920
  0
ARC
  8
0
  6
CONTINUOUS
 62
3
 10
-341.783016768545170
 20
-174.798424584062500
 40
1.500000000000246
 50
199.759651678811820
 51
300.000000000001590
  0
LINE
  8
0
  6
CONTINUOUS
 62
3
 10
-341.033016768545170
 20
-176.097462689739070
 11
-338.386222175566220
 21
-174.569335118993370
  0
ARC
  8
0
  6
CONTINUOUS
 62
3
 10
-339.136222175566220
 20
-173.270297013316340
 40
1.500000000000320
 50
299.999999999992950
 51
18.162995844104589
  0
ARC
  8
0
  6
CONTINUOUS
 62
3
 10
-320.607837499500870
 20
-167.191731286457920
 40
17.999999999999726
 50
161.837004155893140
 51
198.162995844106860
  0
ARC
  8
0
  6
CONTINUOUS
 62
3
 10
-339.136222175566220
 20
-161.113165559599510
 40
1.500000000000038
 50
341.837004155895390
 51
59.999999999998380
  0
LINE
  8
0
  6
CONTINUOUS
 62
3
 10
-338.386222175566220
 20
-159.814127453922940
 11
-341.033016768545390
 21
-158.285999883176770
  0
ARC
  8
0
  6
CONTINUOUS
 62
3
 10
-341.783016768545390
 20
-159.585037988853340
 40
1.499999999999926
 50
59.999999999998380
 51
160.240348321185250
  0
ARC
  8
0
  6
CONTINUOUS
 62
3
 10
-320.607837499500870
 20
-167.191731286457920
 40
23.999999999999925
 50
160.240348321185910
 51
199.759651678814090
  0
ARC
  8
0
  6
CONTINUOUS
 62
3
 10
-329.319980142314760
 20
-176.840491340022650
 40
1.500000000000320
 50
119.999999999992930
 51
227.920213139381870
  0
LINE
  8
0
  6
CONTINUOUS
 62
3
 10
-330.069980142314760
 20
-175.541453234345620
 11
-327.295091432694330
 21
-173.939370490875210
  0
ARC
  8
0
  6
CONTINUOUS
 62
3
 10
-326.545091432694330
 20
-175.238408596551780
 40
1.500000000000059
 50
53.578178478205707
 51
120.000000000001620
  0
ARC
  8
0
  6
CONTINUOUS
 62
3
 10
-320.607837499500420
 20
-167.191731286458380
 40
8.499999999999870
 50
233.578178478199590
 51
246.421821521797680
  0
ARC
  8
0
  6
CONTINUOUS
 62
3
 10
-324.607837499500420
 20
-176.356882676370280
 40
1.500000000000000
 50
0.000000000017370
 51
66.421821521804304
  0
LINE
  8
0
  6
CONTINUOUS
 62
3
 10
-323.107837499500420
 20
-176.356882676369820
 11
-323.107837499500420
 21
-179.561048163311110
  0
ARC
  8
0
  6
CONTINUOUS
 62
3
 10
-324.607837499500420
 20
-179.561048163311110
 40
1.500000000000355
 50
252.079786860607900
 51
0.000000000000000
  0
ARC
  8
0
  6
CONTINUOUS
 62
3
 10
-320.607837499500420
 20
-167.191731286458380
 40
14.500000000000011
 50
227.920213139391080
 51
252.079786860607410
  0
ARC
  8
0
  6
CONTINUOUS
 62
3
 10
-337.783016768545170
 20
-181.726627814338310
 40
1.499999999999926
 50
120.000000000001620
 51
220.240348321176330
  0
LINE
  8
0
  6
CONTINUOUS
 62
3
 10
-338.533016768545170
 20
-180.427589708661740
 11
-335.886222175566220
 21
-178.899462137915580
  0
ARC
  8
0
  6
CONTINUOUS
 62
3
 10
-335.136222175566220
 20
-180.198500243592150
 40
1.500000000000118
 50
41.837004155899741
 51
120.000000000001620
  0
ARC
  8
0
  6
CONTINUOUS
 62
3
 10
-320.607837499500420
 20
-167.191731286458380
 40
17.999999999999940
 50
221.837004155892320
 51
258.162995844106770
  0
ARC
  8
0
  6
CONTINUOUS
 62
3
 10
-324.607837499500420
 20
-186.277065970450560
 40
1.500000000000000
 50
0.000000000000000
 51
78.162995844101530
  0
LINE
  8
0
  6
CONTINUOUS
 62
3
 10
-323.107837499500420
 20
-186.277065970450560
 11
-323.107837499500420
 21
-189.333321111942890
  0
ARC
  8
0
  6
CONTINUOUS
 62
3
 10
-324.607837499500420
 20
-189.333321111942890
 40
1.499999999999728
 50
259.759651678812470
 51
0.000000000000000
  0
ARC
  8
0
  6
CONTINUOUS
 62
3
 10
-320.607837499500420
 20
-167.191731286458380
 40
23.999999999999844
 50
220.240348321185340
 51
259.759651678813730
  0
ARC
  8
0
  6
CONTINUOUS
 62
3
 10
-311.895694856686080
 20
-176.840491340022650
 40
1.499999999999944
 50
312.079786860618130
 51
60.000000000007070
  0
LINE
  8
0
  6
CONTINUOUS
 62
3
 10
-311.145694856686080
 20
-175.541453234345620
 11
-313.920583566306500
 21
-173.939370490875210
  0
ARC
  8
0
  6
CONTINUOUS
 62
3
 10
-314.670583566306500
 20
-175.238408596551780
 40
1.499999999999926
 50
59.999999999998380
 51
126.421821521801260
  0
ARC
  8
0
  6
CONTINUOUS
 62
3
 10
-320.607837499500420
 20
-167.191731286458380
 40
8.500000000000060
 50
293.578178478202350
 51
306.421821521799190
  0
ARC
  8
0
  6
CONTINUOUS
 62
3
 10
-316.607837499500420
 20
-176.356882676370280
 40
1.500000000000139
 50
113.578178478195690
 51
179.999999999982630
  0
LINE
  8
0
  6
CONTINUOUS
 62
3
 10
-318.107837499500420
 20
-176.356882676369820
 11
-318.107837499500420
 21
-179.561048163311110
  0
ARC
  8
0
  6
CONTINUOUS
 62
3
 10
-316.607837499500420
 20
-179.561048163311110
 40
1.500000000000000
 50
180.000000000000000
 51
287.920213139392100
  0
ARC
  8
0
  6
CONTINUOUS
 62
3
 10
-320.607837499500420
 20
-167.191731286458380
 40
14.500000000000121
 50
287.920213139392560
 51
312.079786860608860
  0
ARC
  8
0
  6
CONTINUOUS
 62
3
 10
-303.432658230455670
 20
-181.726627814338310
 40
1.499999999999828
 50
319.759651678823670
 51
59.999999999998380
  0
LINE
  8
0
  6
CONTINUOUS
 62
3
 10
-302.682658230455670
 20
-180.427589708661740
 11
-305.329452823434620
 21
-178.899462137915580
  0
ARC
  8
0
  6
CONTINUOUS
 62
3
 10
-306.079452823434620
 20
-180.198500243592150
 40
1.499999999999926
 50
59.999999999998380
 51
138.162995844100240
  0
ARC
  8
0
  6
CONTINUOUS
 62
3
 10
-320.607837499500420
 20
-167.191731286458380
 40
18.000000000000146
 50
281.837004155893230
 51
318.162995844107680
  0
ARC
  8
0
  6
CONTINUOUS
 62
3
 10
-316.607837499500420
 20
-186.277065970450560
 40
1.499999999999731
 50
101.837004155898450
 51
180.000000000000000
  0
LINE
  8
0
  6
CONTINUOUS
 62
3
 10
-318.107837499500420
 20
-186.277065970450560
 11
-318.107837499500420
 21
-189.333321111942890
  0
ARC
  8
0
  6
CONTINUOUS
 62
3
 10
-316.607837499500420
 20
-189.333321111942890
 40
1.500000000000000
 50
180.000000000000000
 51
280.240348321187530
  0
ARC
  8
0
  6
CONTINUOUS
 62
3
 10
-320.607837499500420
 20
-167.191731286458380
 40
23.999999999999716
 50
280.240348321186270
 51
319.759651678814690
  0
ARC
  8
0
  6
CONTINUOUS
 62
3
 10
-324.607837499500420
 20
-154.822414409604960
 40
1.500000000000000
 50
0.000000000000000
 51
107.920213139394770
  0
LINE
  8
0
  6
CONTINUOUS
 62
3
 10
-323.107837499500420
 20
-154.822414409604960
 11
-323.107837499500420
 21
-158.026579896546020
  0
ARC
  8
0
  6
CONTINUOUS
 62
3
 10
-324.607837499500420
 20
-158.026579896546020
 40
1.500000000000139
 50
293.578178478195700
 51
0.000000000000000
  0
ARC
  8
0
  6
CONTINUOUS
 62
3
 10
-320.607837499500870
 20
-167.191731286457920
 40
8.499999999999879
 50
113.578178478199500
 51
126.421821521797340
  0
ARC
  8
0
  6
CONTINUOUS
 62
3
 10
-326.545091432694330
 20
-159.145053976364520
 40
1.499999999999926
 50
239.999999999998410
 51
306.421821521797600
  0
LINE
  8
0
  6
CONTINUOUS
 62
3
 10
-327.295091432694330
 20
-160.444092082041100
 11
-330.069980142314990
 21
-158.842009338570220
  0
ARC
  8
0
  6
CONTINUOUS
 62
3
 10
-329.319980142314990
 20
-157.542971232893650
 40
1.499999999999792
 50
132.079786860611680
 51
239.999999999998410
  0
ARC
  8
0
  6
CONTINUOUS
 62
3
 10
-320.607837499500870
 20
-167.191731286457920
 40
14.499999999999980
 50
107.920213139390830
 51
132.079786860607560
  0
ARC
  8
0
  6
CONTINUOUS
 62
3
 10
-324.607837499500420
 20
-145.050141460973410
 40
1.500000000000000
 50
0.000000000000000
 51
100.240348321194510
  0
LINE
  8
0
  6
CONTINUOUS
 62
3
 10
-323.107837499500420
 20
-145.050141460973410
 11
-323.107837499500420
 21
-148.106396602465740
  0
ARC
  8
0
  6
CONTINUOUS
 62
3
 10
-324.607837499500420
 20
-148.106396602465740
 40
1.499999999999954
 50
281.837004155896690
 51
0.000000000000000
  0
ARC
  8
0
  6
CONTINUOUS
 62
3
 10
-320.607837499500870
 20
-167.191731286457920
 40
17.999999999999829
 50
101.837004155891980
 51
138.162995844106210
  0
ARC
  8
0
  6
CONTINUOUS
 62
3
 10
-335.136222175566220
 20
-154.184962329324150
 40
1.499999999999926
 50
239.999999999998410
 51
318.162995844106720
  0
LINE
  8
0
  6
CONTINUOUS
 62
3
 10
-335.886222175566220
 20
-155.484000435000720
 11
-338.533016768545390
 21
-153.955872864254560
  0
ARC
  8
0
  6
CONTINUOUS
 62
3
 10
-337.783016768545390
 20
-152.656834758577990
 40
1.499999999999802
 50
139.759651678811420
 51
239.999999999998410
  0
ARC
  8
0
  6
CONTINUOUS
 62
3
 10
-320.607837499500870
 20
-167.191731286457920
 40
23.999999999999901
 50
100.240348321185670
 51
139.759651678813550
  0
ARC
  8
0
  6
CONTINUOUS
 62
3
 10
-324.607837499500420
 20
-135.442715553683400
 40
1.500000000000000
 50
0.000000000000000
 51
97.180755781458288
  0
LINE
  8
0
  6
CONTINUOUS
 62
3
 10
-323.107837499500420
 20
-135.442715553683400
 11
-323.107837499500420
 21
-138.468918053767940
  0
ARC
  8
0
  6
CONTINUOUS
 62
3
 10
-324.607837499500420
 20
-128.900087289366810
 40
1.499999999999933
 50
275.963570118318330
 51
0.000000000000000
  0
LINE
  8
0
  6
CONTINUOUS
 62
3
 10
-323.107837499500420
 20
-125.884952181812590
 11
-323.107837499500420
 21
-128.900087289366810
  0
LINE
  8
0
  6
CONTINUOUS
 62
3
 10
-286.085117446365080
 20
-190.010184348242490
 11
-288.696301045349170
 21
-188.502616794465150
  0
ARC
  8
0
  6
CONTINUOUS
 62
3
 10
-286.835117446365080
 20
-191.309222453919060
 40
1.499999999999844
 50
324.468928475167900
 51
59.999999999998380
  0
ARC
  8
0
  6
CONTINUOUS
 62
3
 10
-285.446301045349170
 20
-182.873451669866370
 40
1.500000000000063
 50
155.963570118322880
 51
239.999999999998410
  0
LINE
  8
0
  6
CONTINUOUS
 62
3
 10
-283.585117446365080
 20
-185.680057329320280
 11
-286.196301045349170
 21
-184.172489775542940
  0
ARC
  8
0
  6
CONTINUOUS
 62
3
 10
-282.835117446365080
 20
-184.381019223643250
 40
1.500000000000320
 50
240.000000000007050
 51
335.531071524832500
  0
ARC
  8
0
  6
CONTINUOUS
 62
3
 10
-320.607837499500650
 20
-167.191731286458830
 40
42.999999999999936
 50
335.531071524839770
 51
24.468928475160769
  0
ARC
  8
0
  6
CONTINUOUS
 62
3
 10
-320.607837499500650
 20
-167.191731286458830
 40
36.999999999999972
 50
335.963570118321740
 51
24.036429881678870
  0
ARC
  8
0
  6
CONTINUOUS
 62
3
 10
-285.446301045349400
 20
-151.510010903050840
 40
1.500000000000123
 50
119.999999999997270
 51
204.036429881680680
  0
LINE
  8
0
  6
CONTINUOUS
 62
3
 10
-286.196301045349400
 20
-150.210972797374040
 11
-283.585117446365080
 21
-148.703405243596930
  0
ARC
  8
0
  6
CONTINUOUS
 62
3
 10
-282.835117446365080
 20
-150.002443349273730
 40
1.500000000000034
 50
24.468928475159590
 51
119.999999999997270
  0
ARC
  8
0
  6
CONTINUOUS
 62
3
 10
-320.607837499500870
 20
-167.191731286458380
 40
42.999999999999908
 50
35.531071524839248
 51
84.468928475160212
  0
ARC
  8
0
  6
CONTINUOUS
 62
3
 10
-286.835117446365530
 20
-143.074240118997690
 40
1.500000000000123
 50
299.999999999997270
 51
35.531071524839192
  0
ARC
  8
0
  6
CONTINUOUS
 62
3
 10
-316.607837499500420
 20
-128.900087289366810
 40
1.500000000000000
 50
180.000000000000000
 51
264.036429881682580
  0
ARC
  8
0
  6
CONTINUOUS
 62
3
 10
-316.607837499500420
 20
-135.442715553683400
 40
1.499999999999998
 50
82.819244218541712
 51
180.000000000000000
  0
LINE
  8
0
  6
CONTINUOUS
 62
3
 10
-318.107837499500420
 20
-135.442715553683400
 11
-318.107837499500420
 21
-138.468918053767940
  0
LINE
  8
0
  6
CONTINUOUS
 62
3
 10
-288.696301045349630
 20
-145.880845778451600
 11
-286.085117446365530
 21
-144.373278224674490
  0
LINE
  8
0
  6
CONTINUOUS
 62
3
 10
-318.107837499500420
 20
-125.884952181812820
 11
-318.107837499500420
 21
-128.900087289366810
  0
ARC
  8
0
  6
CONTINUOUS
 62
3
 10
-320.607837499500650
 20
-167.191731286457920
 40
27.499999999999815
 50
97.928141766201691
 51
142.071858233797880
  0
ARC
  8
0
  6
CONTINUOUS
 62
3
 10
-320.607837499500190
 20
-167.191731286457920
 40
17.999999999999922
 50
41.837004155893325
 51
78.162995844107314
  0
ARC
  8
0
  6
CONTINUOUS
 62
3
 10
-324.607837499500420
 20
-125.884952181812590
 40
1.500000000000000
 50
0.000000000000000
 51
95.531071524841693
  0
ARC
  8
0
  6
CONTINUOUS
 62
3
 10
-316.607837499500420
 20
-125.884952181812820
 40
1.500000000000203
 50
84.468928475159132
 51
180.000000000000000
  0
ARC
  8
0
  6
CONTINUOUS
 62
3
 10
-320.607837499500420
 20
-407.791731286458290
 40
300.599999999999910
 50
90.000000000000000
 51
98.597082237249069
  0
ARC
  8
0
  6
CONTINUOUS
 62
3
 10
-320.607837499500420
 20
73.408268713541759
 40
300.600000000000140
 50
270.000000000000000
 51
278.597082237249080
  0
ARC
  8
0
  6
CONTINUOUS
 62
3
 10
-276.659250069217930
 20
-117.095116818930080
 40
6.600000000000118
 50
45.000000000001400
 51
81.402917762751386
  0
ARC
  8
0
  6
CONTINUOUS
 62
3
 10
-320.607837499500420
 20
-407.791731286458290
 40
300.599999999999800
 50
81.402917762750931
 51
90.000000000000000
  0
ARC
  8
0
  6
CONTINUOUS
 62
3
 10
-276.659250069217930
 20
-217.288345753986900
 40
6.599999999999747
 50
278.597082237248910
 51
315.000000000000000
  0
ARC
  8
0
  6
CONTINUOUS
 62
3
 10
-320.607837499500420
 20
73.408268713541759
 40
300.600000000000020
 50
261.402917762750920
 51
270.000000000000000
  0
ARC
  8
0
  6
CONTINUOUS
 62
3
 10
-364.556424929782910
 20
-217.288345753986900
 40
6.599999999999957
 50
225.000000000000000
 51
261.402917762751090
  0
LINE
  8
0
  6
CONTINUOUS
 62
3
 10
-271.992345313386750
 20
-112.428212063098890
 11
-264.925896194727780
 21
-119.494661181757860
  0
ARC
  8
0
  6
CONTINUOUS
 62
3
 10
-283.734936574290030
 20
-138.303701561320110
 40
26.600000000000193
 50
6.051985358668552
 51
45.000000000000000
  0
LINE
  8
0
  6
CONTINUOUS
 62
3
 10
-369.223329685614090
 20
-112.428212063098890
 11
-376.289778804273060
 21
-119.494661181757860
  0
ARC
  8
0
  6
CONTINUOUS
 62
3
 10
-357.480738424710810
 20
-138.303701561320110
 40
26.600000000000119
 50
135.000000000000000
 51
173.948014641331410
  0
LINE
  8
0
  6
CONTINUOUS
 62
3
 10
-369.223329685614090
 20
-221.955250509818090
 11
-376.289778804273280
 21
-214.888801391158440
  0
ARC
  8
0
  6
CONTINUOUS
 62
3
 10
-85.007837499500397
 20
-167.191731286458380
 40
300.599999999999970
 50
173.948014641331500
 51
186.051985358668500
  0
ARC
  8
0
  6
CONTINUOUS
 62
3
 10
-357.480738424710810
 20
-196.079761011596640
 40
26.599999999999969
 50
186.051985358668590
 51
224.999999999998980
  0
ARC
  8
0
  6
CONTINUOUS
 62
3
 10
-556.207837499500330
 20
-167.191731286458380
 40
300.600000000000080
 50
353.948014641331500
 51
6.051985358668499
  0
LINE
  8
0
  6
CONTINUOUS
 62
3
 10
-271.992345313386750
 20
-221.955250509818090
 11
-264.925896194727330
 21
-214.888801391158440
  0
ARC
  8
0
  6
CONTINUOUS
 62
3
 10
-283.734936574289800
 20
-196.079761011596640
 40
26.599999999999955
 50
315.000000000001020
 51
353.948014641331380
  0
ARC
  8
0
  6
CONTINUOUS
 62
4
 10
-357.480738424710810
 20
-138.303701561320110
 40
15.396999999999876
 50
135.000000000000000
 51
173.948014641331160
  0
LINE
  8
0
  6
CONTINUOUS
 62
4
 10
-363.791996142001610
 20
-122.840313058752080
 11
-368.368061534640220
 21
-127.416378451390690
  0
ARC
  8
0
  6
CONTINUOUS
 62
4
 10
-85.007837499500511
 20
-167.191731286458380
 40
289.396999999999930
 50
173.948014641331470
 51
180.000000000000000
  0
ARC
  8
0
  6
CONTINUOUS
 62
4
 10
-320.607837499500420
 20
-407.791731286458290
 40
289.396999999999820
 50
82.102011327572214
 51
90.000000000000000
  0
ARC
  8
0
  6
CONTINUOUS
 62
4
 10
-281.666319544118100
 20
-127.082953745871630
 40
6.000000000000049
 50
45.000000000003077
 51
82.102011327574374
  0
LINE
  8
0
  6
CONTINUOUS
 62
4
 10
-277.423678856999000
 20
-122.840313058752080
 11
-272.847613464360390
 21
-127.416378451390690
  0
ARC
  8
0
  6
CONTINUOUS
 62
4
 10
-283.734936574289800
 20
-138.303701561320110
 40
15.397000000000052
 50
6.051985358668849
 51
45.000000000000000
  0
ARC
  8
0
  6
CONTINUOUS
 62
4
 10
-556.207837499500330
 20
-167.191731286458380
 40
289.397000000000160
 50
0.000000000000000
 51
6.051985358668508
  0
ARC
  8
0
  6
CONTINUOUS
 62
4
 10
-320.607837499500420
 20
73.408268713541531
 40
289.396999999999930
 50
270.000000000000000
 51
277.897988672427800
  0
ARC
  8
0
  6
CONTINUOUS
 62
4
 10
-281.666319544118100
 20
-207.300508827045120
 40
5.999999999999923
 50
277.897988672425640
 51
314.999999999996870
  0
LINE
  8
0
  6
CONTINUOUS
 62
4
 10
-277.423678856999000
 20
-211.543149514164670
 11
-272.847613464360390
 21
-206.967084121526060
  0
ARC
  8
0
  6
CONTINUOUS
 62
4
 10
-283.734936574289800
 20
-196.079761011596640
 40
15.396999999999876
 50
315.000000000000000
 51
353.948014641331160
  0
ARC
  8
0
  6
CONTINUOUS
 62
4
 10
-556.207837499500330
 20
-167.191731286458380
 40
289.397000000000160
 50
353.948014641331500
 51
0.000000000000000
  0
ARC
  8
0
  6
CONTINUOUS
 62
4
 10
-320.607837499500190
 20
73.408268713541531
 40
289.396999999999820
 50
262.102011327572200
 51
270.000000000000000
  0
ARC
  8
0
  6
CONTINUOUS
 62
4
 10
-359.549355454882520
 20
-207.300508827045120
 40
6.000000000000049
 50
225.000000000003070
 51
262.102011327574360
  0
LINE
  8
0
  6
CONTINUOUS
 62
4
 10
-363.791996142001610
 20
-211.543149514164670
 11
-368.368061534640220
 21
-206.967084121526060
  0
ARC
  8
0
  6
CONTINUOUS
 62
4
 10
-357.480738424710810
 20
-196.079761011596640
 40
15.397000000000052
 50
186.051985358668840
 51
225.000000000000000
  0
ARC
  8
0
  6
CONTINUOUS
 62
4
 10
-85.007837499500283
 20
-167.191731286458380
 40
289.397000000000160
 50
180.000000000000000
 51
186.051985358668500
  0
TEXT
  8
0
  6
CONTINUOUS
 62
3
 10
-387.311035156250000
 20
162.175689697265620
 40
13.600000381469727
  1
Ｄ０６０
 50
0.000002504478167
 41
0.833333333333333
  7
STANDARD1
  0
TEXT
  8
0
  6
CONTINUOUS
 62
3
 10
-387.311035156250000
 20
144.155685424804690
 40
13.600000381469727
  1
三菱ギヤードモートル
 50
0.000002504478167
 41
0.833333333333333
  7
STANDARD1
  0
TEXT
  8
0
  6
CONTINUOUS
 62
3
 10
-387.311035156250000
 20
126.135688781738280
 40
13.600000381469727
  1
ＧＭ－ＤＦ
 50
0.000002504478167
 41
0.833333333333333
  7
STANDARD1
  0
TEXT
  8
0
  6
CONTINUOUS
 62
3
 10
-387.311035156250000
 20
108.115692138671870
 40
13.600000381469727
  1
０．４（kＷ）
 50
0.000002504478167
 41
0.804878051688032
  7
STANDARD1
  0
TEXT
  8
0
  6
CONTINUOUS
 62
3
 10
-387.311035156250000
 20
90.095687866210938
 40
13.600000381469727
  1
１／６０～１／１００
 50
0.000002504478167
 41
0.833333333333333
  7
STANDARD1
  0
TEXT
  8
0
  6
CONTINUOUS
 62
3
 10
-387.311035156250000
 20
72.075691223144531
 40
13.600000381469727
  1
ＳＣＡＬＥ　１／１
 50
0.000002504478167
 41
0.833333333333333
  7
STANDARD1
  0
ARC
  8
0
  6
CONTINUOUS
 62
3
 10
-13.766344006106806
 20
-90.387883709175867
 40
3.000000000002046
 50
359.999999999991300
 51
59.999999999991253
  0
ARC
  8
0
  6
CONTINUOUS
 62
3
 10
321.775944547297510
 20
-147.425129470651430
 40
77.139211988464197
 50
14.640477209921752
 51
88.089786828289931
  0
LINE
  8
0
  6
DASHDOT
 62
4
 10
343.618927397116980
 20
-167.191731286466850
 11
278.029043575613510
 21
-167.191731286466850
  0
ARC
  8
0
  6
CONTINUOUS
 62
3
 10
70.473781399335621
 20
-73.265995916281895
 40
3.000000000000000
 50
270.000000000000000
 51
320.631038306637150
  0
LINE
  8
0
  6
CONTINUOUS
 62
3
 10
72.793013319495458
 20
-75.168931359357316
 11
93.052887914051098
 21
-50.476896729853593
  0
ARC
  8
0
  6
CONTINUOUS
 62
3
 10
90.733655993891716
 20
-48.573961286778626
 40
2.999999999999515
 50
320.631038306638350
 51
0.000000000000000
  0
ARC
  8
0
  6
CONTINUOUS
 62
3
 10
90.733655993891716
 20
-54.059242661016810
 40
2.999999999999515
 50
320.631038306638350
 51
0.000000000000000
  0
ARC
  8
0
  6
CONTINUOUS
 62
3
 10
70.473781399335621
 20
-78.751277290520079
 40
3.000000000000000
 50
270.000000000000000
 51
320.631038306637150
  0
LINE
  8
0
  6
CONTINUOUS
 62
3
 10
72.793013319495458
 20
-80.654212733595500
 11
93.052887914051098
 21
-55.962178104091777
  0
LINE
  8
0
  6
CONTINUOUS
 62
3
 10
90.752640715583311
 20
-81.751277290520079
 11
74.003201832181276
 21
-81.751277290520079
  0
LINE
  8
0
  6
CONTINUOUS
 62
3
 10
169.733655993913540
 20
-137.191731286469690
 11
169.733655993913540
 21
-121.591731286469320
  0
ARC
  8
0
  6
CONTINUOUS
 62
3
 10
169.333655993913450
 20
-121.591731286469320
 40
0.400000000000091
 50
0.000000000000000
 51
90.000000000000000
  0
LINE
  8
0
  6
CONTINUOUS
 62
3
 10
169.333655993913450
 20
-121.191731286469690
 11
122.293463615048950
 21
-121.191731286469690
  0
LINE
  8
0
  6
CONTINUOUS
 62
3
 10
121.733655993913540
 20
-121.341731286469320
 11
122.293463615048950
 21
-121.191731286469690
  0
LINE
  8
0
  6
CONTINUOUS
 62
3
 10
121.733655993913540
 20
-121.341731286469320
 11
120.533655993913720
 21
-121.341731286469320
  0
LINE
  8
0
  6
CONTINUOUS
 62
3
 10
117.733655993891710
 20
-120.191731286469690
 11
119.533655993913720
 21
-120.191731286469690
  0
LINE
  8
0
  6
CONTINUOUS
 62
3
 10
119.733655993913540
 20
-120.391731286469500
 11
119.733655993913540
 21
-137.191731286469690
  0
ARC
  8
0
  6
CONTINUOUS
 62
3
 10
120.533655993913720
 20
-120.541731286469590
 40
0.800000000000237
 50
183.703196634280290
 51
270.000000000000000
  0
LINE
  8
0
  6
CONTINUOUS
 62
3
 10
119.733655993913540
 20
-120.391731286469500
 11
119.533655993913720
 21
-120.191731286469690
  0
LINE
  8
0
  6
CONTINUOUS
 62
3
 10
121.733655993913540
 20
-153.041731286469600
 11
122.293463615048950
 21
-153.191731286469690
  0
LINE
  8
0
  6
CONTINUOUS
 62
3
 10
117.733655993891710
 20
-154.191731286469690
 11
119.533655993913720
 21
-154.191731286469690
  0
LINE
  8
0
  6
CONTINUOUS
 62
3
 10
169.333655993913450
 20
-153.191731286469690
 11
122.293463615048950
 21
-153.191731286469690
  0
LINE
  8
0
  6
CONTINUOUS
 62
3
 10
121.733655993913540
 20
-153.041731286469600
 11
120.533655993913720
 21
-153.041731286469600
  0
LINE
  8
0
  6
CONTINUOUS
 62
3
 10
119.733655993913540
 20
-153.991731286469420
 11
119.733655993913540
 21
-137.191731286469690
  0
ARC
  8
0
  6
CONTINUOUS
 62
3
 10
120.533655993913720
 20
-153.841731286469330
 40
0.799999999999727
 50
90.000000000000000
 51
176.296803365752200
  0
LINE
  8
0
  6
CONTINUOUS
 62
3
 10
119.733655993913540
 20
-153.991731286469420
 11
119.533655993913720
 21
-154.191731286469690
  0
LINE
  8
0
  6
CONTINUOUS
 62
3
 10
169.733655993913540
 20
-137.191731286469690
 11
169.733655993913540
 21
-152.791731286469600
  0
ARC
  8
0
  6
CONTINUOUS
 62
3
 10
169.333655993913450
 20
-152.791731286469600
 40
0.400000000000091
 50
270.000000000000000
 51
0.000000000000000
  0
LINE
  8
0
  6
CONTINUOUS
 62
3
 10
169.733655993913540
 20
-132.191731286469690
 11
129.733655993914450
 21
-132.191731286469690
  0
LINE
  8
0
  6
CONTINUOUS
 62
3
 10
169.733655993913540
 20
-142.191731286469690
 11
129.733655993914450
 21
-142.191731286469690
  0
ARC
  8
0
  6
CONTINUOUS
 62
3
 10
129.733655993914450
 20
-137.191731286469690
 40
5.000000000000000
 50
90.000000000000000
 51
270.000000000000000
  0
LINE
  8
0
  6
DASHDOT
 62
4
 10
125.370165353733220
 20
-236.186680652586690
 11
86.374173164550939
 21
-236.186680652586690
  0
LINE
  8
0
  6
DASHDOT
 62
4
 10
125.370165353733220
 20
-38.196781920353146
 11
86.374173164550939
 21
-38.196781920353146
  0
ARC
  8
0
  6
CONTINUOUS
 62
3
 10
105.733655993891710
 20
-145.191731286469690
 40
3.000000000000000
 50
90.000000000000000
 51
180.000000000000000
  0
ARC
  8
0
  6
CONTINUOUS
 62
3
 10
105.733655993891710
 20
-200.640304605783400
 40
3.000000000000000
 50
180.000000000000000
 51
270.000000000000000
  0
LINE
  8
0
  6
CONTINUOUS
 62
3
 10
102.733655993891710
 20
-145.191731286469690
 11
102.733655993891710
 21
-225.478527850872870
  0
ARC
  8
0
  6
CONTINUOUS
 62
3
 10
105.733655993891710
 20
-225.478527850872870
 40
3.000000000000000
 50
180.000000000000000
 51
270.000000000000000
  0
LINE
  8
0
  6
CONTINUOUS
 62
3
 10
109.733655993891940
 20
-228.478527850872870
 11
105.733655993891710
 21
-228.478527850872870
  0
LINE
  8
0
  6
CONTINUOUS
 62
3
 10
109.733655993891940
 20
-203.640304605783400
 11
105.733655993891710
 21
-203.640304605783400
  0
LINE
  8
0
  6
CONTINUOUS
 62
3
 10
105.733655993891710
 20
-142.191731286469690
 11
109.733655993891940
 21
-142.191731286469690
  0
ARC
  8
0
  6
CONTINUOUS
 62
3
 10
105.733655993891710
 20
-48.904934722066514
 40
3.000000000000000
 50
90.000000000000000
 51
180.000000000000000
  0
ARC
  8
0
  6
CONTINUOUS
 62
3
 10
105.733655993891710
 20
-73.743157967155980
 40
3.000000000000000
 50
90.000000000000000
 51
180.000000000000000
  0
ARC
  8
0
  6
CONTINUOUS
 62
3
 10
105.733655993891710
 20
-129.191731286469690
 40
3.000000000000000
 50
180.000000000000000
 51
270.000000000000000
  0
LINE
  8
0
  6
CONTINUOUS
 62
3
 10
105.733655993891710
 20
-132.191731286469690
 11
109.733655993891940
 21
-132.191731286469690
  0
LINE
  8
0
  6
CONTINUOUS
 62
3
 10
109.733655993891940
 20
-70.743157967155980
 11
105.733655993891710
 21
-70.743157967155980
  0
LINE
  8
0
  6
CONTINUOUS
 62
3
 10
109.733655993891940
 20
-45.904934722066514
 11
105.733655993891710
 21
-45.904934722066514
  0
LINE
  8
0
  6
CONTINUOUS
 62
3
 10
102.733655993891710
 20
-129.191731286469690
 11
102.733655993891710
 21
-48.904934722066514
  0
ARC
  8
0
  6
CONTINUOUS
 62
3
 10
95.733655993891716
 20
-247.691731286469690
 40
2.000000000000000
 50
180.000000000000000
 51
270.000000000000000
  0
ARC
  8
0
  6
CONTINUOUS
 62
3
 10
90.744022444162965
 20
-26.369928490611869
 40
3.000000000000246
 50
330.000000000002730
 51
356.309860996867310
  0
LINE
  8
0
  6
CONTINUOUS
 62
3
 10
113.733655993891710
 20
-137.191731286469690
 11
113.733655993891710
 21
-241.191731286469690
  0
LINE
  8
0
  6
CONTINUOUS
 62
3
 10
102.687616593705570
 20
-249.369161953807520
 11
102.687616593705570
 21
-249.691731286469690
  0
LINE
  8
0
  6
CONTINUOUS
 62
3
 10
113.733655993891710
 20
-241.191731286469690
 11
112.733655993891710
 21
-242.191731286469690
  0
LINE
  8
0
  6
CONTINUOUS
 62
3
 10
112.733655993891710
 20
-242.191731286469690
 11
109.733655993891710
 21
-242.191731286469690
  0
LINE
  8
0
  6
CONTINUOUS
 62
3
 10
112.733655993891710
 20
-32.191731286469690
 11
113.733655993891710
 21
-33.191731286469690
  0
LINE
  8
0
  6
CONTINUOUS
 62
3
 10
109.733655993891710
 20
-32.191731286469690
 11
112.733655993891710
 21
-32.191731286469690
  0
LINE
  8
0
  6
CONTINUOUS
 62
3
 10
113.733655993891710
 20
-137.191731286469690
 11
113.733655993891710
 21
-33.191731286469690
  0
LINE
  8
0
  6
CONTINUOUS
 62
3
 10
9.733655993891716
 20
-67.191731286469690
 11
81.391507492245182
 21
-64.689383972022256
  0
LINE
  8
0
  6
CONTINUOUS
 62
3
 10
72.724332753880162
 20
-63.580946570807441
 11
93.342098655516565
 21
-27.869928490611869
  0
LINE
  8
0
  6
CONTINUOUS
 62
3
 10
93.733655993891716
 20
-247.691731286469690
 11
93.733655993891716
 21
-26.691731286469690
  0
LINE
  8
0
  6
CONTINUOUS
 62
3
 10
9.733655993891716
 20
-260.191731286469690
 11
95.648384631234194
 21
-262.634740348098030
  0
LINE
  8
0
  6
CONTINUOUS
 62
3
 10
98.733655993891716
 20
-252.691731286469690
 11
98.733655993891716
 21
-259.635952460515800
  0
LINE
  8
0
  6
CONTINUOUS
 62
3
 10
95.733655993891716
 20
-24.691731286469690
 11
109.733655993891710
 21
-24.691731286469690
  0
LINE
  8
0
  6
CONTINUOUS
 62
3
 10
116.733655993891710
 20
-103.691731286469690
 11
117.733655993891710
 21
-103.691731286469690
  0
LINE
  8
0
  6
CONTINUOUS
 62
3
 10
116.733655993891710
 20
-170.691731286469690
 11
117.733655993891710
 21
-170.691731286469690
  0
LINE
  8
0
  6
DASHDOT
 62
4
 10
50.092335109638952
 20
-137.191731286469690
 11
175.652607740992150
 21
-137.191731286469690
  0
LINE
  8
0
  6
CONTINUOUS
 62
3
 10
117.733655993891710
 20
-170.691731286469690
 11
117.733655993891710
 21
-103.691731286469690
  0
LINE
  8
0
  6
CONTINUOUS
 62
3
 10
109.733655993891940
 20
-137.191731286469690
 11
109.733655993891710
 21
-24.691731286469690
  0
LINE
  8
0
  6
CONTINUOUS
 62
3
 10
9.733655993891716
 20
-260.191731286469690
 11
9.733655993891716
 21
-67.191731286469690
  0
LINE
  8
0
  6
CONTINUOUS
 62
3
 10
109.733655993891710
 20
-249.691731286469690
 11
95.733655993891716
 21
-249.691731286469690
  0
LINE
  8
0
  6
CONTINUOUS
 62
3
 10
115.733655993891710
 20
-137.191731286469690
 11
115.733655993891710
 21
-182.344837586325300
  0
LINE
  8
0
  6
CONTINUOUS
 62
3
 10
115.733655993891710
 20
-137.191731286469690
 11
115.733655993891710
 21
-92.038624986614536
  0
LINE
  8
0
  6
CONTINUOUS
 62
3
 10
109.733655993891710
 20
-137.191731286469690
 11
109.733655993891710
 21
-249.691731286470140
  0
ARC
  8
0
  6
CONTINUOUS
 62
3
 10
115.733655993891710
 20
-187.540980203560930
 40
2.999999999999984
 50
120.000187270170780
 51
131.810314895779530
  0
ARC
  8
0
  6
CONTINUOUS
 62
3
 10
112.733639010382140
 20
-182.344837586325300
 40
2.999999999999871
 50
300.000187270167030
 51
0.000000000000000
  0
ARC
  8
0
  6
CONTINUOUS
 62
3
 10
70.126256542526789
 20
-62.080946570807441
 40
3.000000000000001
 50
272.000000000003640
 51
330.000000000000570
  0
ARC
  8
0
  6
CONTINUOUS
 62
3
 10
101.733655993891710
 20
-252.691731286469690
 40
3.000000000000000
 50
90.000000000000000
 51
180.000000000000000
  0
ARC
  8
0
  6
CONTINUOUS
 62
3
 10
95.733655993891716
 20
-259.635952460515800
 40
2.999999999999903
 50
268.371217566509590
 51
0.000000000000000
  0
ARC
  8
0
  6
CONTINUOUS
 62
3
 10
95.733655993891716
 20
-26.691731286469690
 40
2.000000000000000
 50
90.000000000000000
 51
180.000000000000000
  0
ARC
  8
0
  6
CONTINUOUS
 62
3
 10
116.733655993891710
 20
-171.691731286469690
 40
1.000000000000000
 50
90.000000000000000
 51
180.000000000000000
  0
ARC
  8
0
  6
CONTINUOUS
 62
3
 10
112.733655993891710
 20
-92.038624986614536
 40
3.000000000000000
 50
0.000000000000000
 51
70.528779365509465
  0
ARC
  8
0
  6
CONTINUOUS
 62
3
 10
116.733655993891710
 20
-102.691731286469690
 40
1.000000000000000
 50
180.000000000000000
 51
270.000000000000000
  0
LINE
  8
0
  6
CONTINUOUS
 62
3
 10
-18.266344006105101
 20
-32.191731286469690
 11
-13.766344006105101
 21
-32.191731286469690
  0
LINE
  8
0
  6
DASHDOT
 62
4
 10
-23.996591406921652
 20
-52.191731286469690
 11
-5.897325391630147
 21
-52.191731286469690
  0
LINE
  8
0
  6
CONTINUOUS
 62
3
 10
-13.766344006105101
 20
-32.191731286469690
 11
-13.766344006105101
 21
-86.191731286469690
  0
LINE
  8
0
  6
CONTINUOUS
 62
3
 10
-18.266344006108739
 20
-86.191731286469690
 11
-18.266344006105101
 21
-32.191731286469690
  0
INSERT
  8
0
  2
SYM1
 10
-18.266344006107829
 20
-76.191731286469690
  0
LINE
  8
0
  6
CONTINUOUS
 62
3
 10
-18.266344006108739
 20
-86.191731286469690
 11
-13.766344006108739
 21
-86.191731286469690
  0
LINE
  8
0
  6
CONTINUOUS
 62
3
 10
-10.766344006106920
 20
-105.084924786719850
 11
-10.766344006104760
 21
-90.387883709176322
  0
ARC
  8
0
  6
CONTINUOUS
 62
3
 10
-10.766344006106010
 20
-85.191731286469690
 40
3.000000000000000
 50
180.000000000000000
 51
239.999999999991270
  0
INSERT
  8
0
  2
SYM1
 10
-2.766344006111467
 20
-250.191731286469690
  0
INSERT
  8
0
  2
SYM1
 10
-2.766344006111467
 20
-162.191731286469690
  0
INSERT
  8
0
  2
SYM1
 10
-2.766344006111467
 20
-86.191731286469690
  0
LINE
  8
0
  6
CONTINUOUS
 62
3
 10
-25.266344006109648
 20
-187.191731286469690
 11
-2.766344006111467
 21
-187.191731286469690
  0
LINE
  8
0
  6
CONTINUOUS
 62
3
 10
-25.266344006109648
 20
-147.191731286469690
 11
-4.766344006111467
 21
-147.191731286469690
  0
ARC
  8
0
  6
CONTINUOUS
 62
3
 10
-4.766344006111467
 20
-132.727629671332010
 40
1.999999999999770
 50
300.000000000003810
 51
0.000000000000000
  0
ARC
  8
0
  6
CONTINUOUS
 62
3
 10
-2.766344006111467
 20
-136.191731286469690
 40
2.000000000000164
 50
119.999999999997270
 51
180.000000000000000
  0
ARC
  8
0
  6
CONTINUOUS
 62
3
 10
-4.766344006111467
 20
-151.655832901607370
 40
2.000000000000000
 50
0.000000000000000
 51
59.999999999996206
  0
ARC
  8
0
  6
CONTINUOUS
 62
3
 10
-2.766344006111467
 20
-148.191731286469690
 40
2.000000000000000
 50
180.000000000000000
 51
240.000000000002730
  0
LINE
  8
0
  6
CONTINUOUS
 62
3
 10
-4.766344006111467
 20
-136.191731286469690
 11
-4.766344006111467
 21
-148.191731286469690
  0
ARC
  8
0
  6
CONTINUOUS
 62
3
 10
-5.766344006106920
 20
-104.665662552455500
 40
2.999999999999901
 50
272.999999999988290
 51
0.000000000000000
  0
LINE
  8
0
  6
CONTINUOUS
 62
3
 10
-2.766344006111467
 20
-70.191731286468780
 11
-2.766344006111467
 21
-132.727629671332010
  0
LINE
  8
0
  6
CONTINUOUS
 62
3
 10
9.233655993890352
 20
-167.191731286469690
 11
9.233655993894899
 21
-67.191731286469690
  0
LINE
  8
0
  6
CONTINUOUS
 62
3
 10
9.233655993888533
 20
-167.191731286469690
 11
9.233655993888533
 21
-260.191731286469690
  0
LINE
  8
0
  6
CONTINUOUS
 62
3
 10
-25.266344006109648
 20
-167.191731286468330
 11
-25.266344006109648
 21
-228.684625533553910
  0
LINE
  8
0
  6
CONTINUOUS
 62
3
 10
-25.266344006109648
 20
-167.191731286468330
 11
-25.266344006109648
 21
-108.691731286468320
  0
LINE
  8
0
  6
CONTINUOUS
 62
3
 10
-5.609336137377795
 20
-107.661551156719150
 11
-25.266344006109648
 21
-108.691731286468780
  0
ARC
  8
0
  6
CONTINUOUS
 62
3
 10
-0.766344006111467
 20
-258.191731286469690
 40
2.000000000000000
 50
180.000000000000000
 51
270.000000000000000
  0
ARC
  8
0
  6
CONTINUOUS
 62
3
 10
-5.766344006111467
 20
-232.710694267566740
 40
3.000000000000000
 50
0.000000000000000
 51
86.999999999994344
  0
ARC
  8
0
  6
CONTINUOUS
 62
3
 10
-13.766344006106920
 20
-105.084924786719850
 40
2.999999999999901
 50
272.999999999988290
 51
0.000000000000000
  0
ARC
  8
0
  6
CONTINUOUS
 62
3
 10
-10.766344006105101
 20
-70.191731286468325
 40
3.000000000000000
 50
90.000000000000000
 51
179.999999999991330
  0
ARC
  8
0
  6
CONTINUOUS
 62
3
 10
0.233655993894899
 20
-70.191731286468780
 40
3.000000000000000
 50
90.000000000000000
 51
180.000000000000000
  0
LINE
  8
0
  6
CONTINUOUS
 62
3
 10
-25.266344006109648
 20
-228.684625533553910
 11
-5.609336137382343
 21
-229.714805663303080
  0
LINE
  8
0
  6
CONTINUOUS
 62
3
 10
9.733655993891716
 20
-260.191731286469690
 11
-0.766344006111467
 21
-260.191731286469690
  0
LINE
  8
0
  6
CONTINUOUS
 62
3
 10
9.733655993891716
 20
-67.191731286469690
 11
-10.766344006105101
 21
-67.191731286468325
  0
LINE
  8
0
  6
CONTINUOUS
 62
3
 10
-13.766344006106010
 20
-85.191731286469690
 11
-13.766344006105101
 21
-70.191731286467871
  0
LINE
  8
0
  6
CONTINUOUS
 62
3
 10
-2.766344006111467
 20
-151.655832901607370
 11
-2.766344006111467
 21
-258.191731286469690
  0
ARC
  8
0
  6
DASHDOT
 62
4
 10
307.775944547297510
 20
-137.191731286469800
 40
140.000000000000200
 50
218.434014657962710
 51
230.976920363566340
  0
LINE
  8
0
  6
DASHDOT
 62
4
 10
199.275944547297510
 20
-245.691731286469800
 11
218.201112529758570
 21
-226.766563304008290
  0
ARC
  8
0
  6
DASHDOT
 62
4
 10
307.775944547297510
 20
-137.191731286469800
 40
139.999999999999970
 50
309.023079636433580
 51
321.565985342037210
  0
LINE
  8
0
  6
DASHDOT
 62
4
 10
416.275944547297510
 20
-245.691731286469800
 11
397.350776564836000
 21
-226.766563304008290
  0
ARC
  8
0
  6
DASHDOT
 62
4
 10
307.775944547297510
 20
-137.191731286469800
 40
139.999999999999860
 50
38.434014657962834
 51
50.976920363566450
  0
LINE
  8
0
  6
DASHDOT
 62
4
 10
416.275944547297510
 20
-28.691731286469803
 11
397.350776564836000
 21
-47.616899268931093
  0
CIRCLE
  8
0
  6
CONTINUOUS
 62
3
 10
307.775944547297510
 20
-137.191731286469800
 40
23.500000000000000
  0
CIRCLE
  8
0
  6
CONTINUOUS
 62
3
 10
307.775944547297510
 20
-137.191731286469800
 40
48.000000000000000
  0
ARC
  8
0
  6
CONTINUOUS
 62
3
 10
399.891168236446900
 20
-247.691731286469800
 40
1.999999999999695
 50
225.000000000018420
 51
270.000000000000000
  0
CIRCLE
  8
0
  6
CONTINUOUS
 62
3
 10
406.770893913414510
 20
-236.186680652586350
 40
7.500000000000000
  0
ARC
  8
0
  6
CONTINUOUS
 62
3
 10
418.275944547297510
 20
-229.306954975619650
 40
2.000000000000000
 50
0.000000000000000
 51
44.999999999990798
  0
ARC
  8
0
  6
CONTINUOUS
 62
3
 10
373.089238381123320
 20
-237.860364179622590
 40
9.999999999999437
 50
45.000000000001855
 51
122.975300819435740
  0
ARC
  8
0
  6
CONTINUOUS
 62
3
 10
307.775944547297510
 20
-137.191731286469800
 40
110.000000000000000
 50
270.000000000000000
 51
302.975300819434150
  0
ARC
  8
0
  6
CONTINUOUS
 62
3
 10
408.444577440450300
 20
-202.505025120295610
 40
9.999999999999902
 50
147.024699180564230
 51
224.999999999998180
  0
ARC
  8
0
  6
CONTINUOUS
 62
3
 10
215.660720858147670
 20
-247.691731286469800
 40
2.000000000000000
 50
270.000000000000000
 51
314.999999999990790
  0
CIRCLE
  8
0
  6
CONTINUOUS
 62
3
 10
208.780995181180510
 20
-236.186680652586350
 40
7.500000000000000
  0
ARC
  8
0
  6
CONTINUOUS
 62
3
 10
197.275944547297510
 20
-229.306954975619650
 40
2.000000000000016
 50
135.000000000009210
 51
180.000000000000000
  0
ARC
  8
0
  6
CONTINUOUS
 62
3
 10
242.462650713471700
 20
-237.860364179622590
 40
9.999999999999902
 50
57.024699180564248
 51
134.999999999998150
  0
ARC
  8
0
  6
CONTINUOUS
 62
3
 10
307.775944547297510
 20
-137.191731286469800
 40
110.000000000000220
 50
237.024699180565850
 51
270.000000000000000
  0
ARC
  8
0
  6
CONTINUOUS
 62
3
 10
207.107311654144720
 20
-202.505025120295610
 40
9.999999999999758
 50
315.000000000000000
 51
32.975300819435773
  0
ARC
  8
0
  6
CONTINUOUS
 62
3
 10
215.660720858147670
 20
-26.691731286469803
 40
1.999999999999694
 50
45.000000000000000
 51
90.000000000000000
  0
CIRCLE
  8
0
  6
CONTINUOUS
 62
3
 10
208.780995181180510
 20
-38.196781920353260
 40
7.500000000000000
  0
ARC
  8
0
  6
DASHDOT
 62
4
 10
307.775944547297510
 20
-137.191731286469800
 40
140.000000000000260
 50
129.023079636433660
 51
141.565985342037290
  0
ARC
  8
0
  6
CONTINUOUS
 62
3
 10
197.275944547297510
 20
-45.076507597320415
 40
2.000000000000000
 50
180.000000000000000
 51
224.999999999990790
  0
ARC
  8
0
  6
CONTINUOUS
 62
3
 10
242.462650713471700
 20
-36.523098393317014
 40
9.999999999999758
 50
225.000000000003690
 51
302.975300819434380
  0
ARC
  8
0
  6
CONTINUOUS
 62
3
 10
307.775944547297510
 20
-137.191731286469800
 40
110.000000000000000
 50
90.000000000000000
 51
122.975300819434320
  0
ARC
  8
0
  6
CONTINUOUS
 62
3
 10
207.107311654144720
 20
-71.878437452644448
 40
9.999999999999902
 50
327.024699180564200
 51
45.000000000000000
  0
ARC
  8
0
  6
CONTINUOUS
 62
3
 10
203.275944547297510
 20
-32.691731286469803
 40
8.000000000000000
 50
90.000000000000000
 51
180.000000000000000
  0
ARC
  8
0
  6
CONTINUOUS
 62
3
 10
412.275944547297510
 20
-241.691731286469800
 40
8.000000000000000
 50
270.000000000000000
 51
0.000000000000000
  0
ARC
  8
0
  6
CONTINUOUS
 62
3
 10
203.275944547297510
 20
-241.691731286469800
 40
8.000000000000000
 50
180.000000000000000
 51
270.000000000000000
  0
CIRCLE
  8
0
  6
CONTINUOUS
 62
3
 10
307.775944547297510
 20
-137.191731286469800
 40
99.000000000000000
  0
ARC
  8
0
  6
CONTINUOUS
 62
3
 10
418.275944547297510
 20
-45.076507597320415
 40
2.000000000000016
 50
315.000000000009210
 51
0.000000000000000
  0
ARC
  8
0
  6
CONTINUOUS
 62
3
 10
399.891168236446900
 20
-26.691731286469803
 40
2.000000000000000
 50
90.000000000000000
 51
134.999999999990790
  0
CIRCLE
  8
0
  6
CONTINUOUS
 62
3
 10
406.770893913414510
 20
-38.196781920353260
 40
7.500000000000000
  0
ARC
  8
0
  6
CONTINUOUS
 62
3
 10
412.275944547297510
 20
-32.691731286469803
 40
8.000000000000000
 50
0.000000000000000
 51
90.000000000000000
  0
CIRCLE
  8
0
  6
CONTINUOUS
 62
3
 10
307.775944547297510
 20
-137.191731286469800
 40
105.000000000000000
  0
ARC
  8
0
  6
CONTINUOUS
 62
3
 10
408.444577440450300
 20
-71.878437452644448
 40
10.000000000000082
 50
135.000000000001820
 51
212.975300819435770
  0
ARC
  8
0
  6
CONTINUOUS
 62
3
 10
373.089238381123320
 20
-36.523098393317014
 40
10.000000000000284
 50
237.024699180565620
 51
314.999999999996310
  0
ARC
  8
0
  6
CONTINUOUS
 62
3
 10
307.775944547297510
 20
-137.191731286469800
 40
109.999999999999850
 50
57.024699180565683
 51
90.000000000000000
  0
ARC
  8
0
  6
CONTINUOUS
 62
3
 10
359.775944547297510
 20
-250.191731286469800
 40
12.566440900597172
 50
270.000000000000000
 51
358.218230102087600
  0
ARC
  8
0
  6
CONTINUOUS
 62
3
 10
255.775944547297510
 20
-250.191731286469800
 40
12.530739605809545
 50
181.781769897913250
 51
270.000000000000000
  0
ARC
  8
0
  6
CONTINUOUS
 62
3
 10
377.767241617508260
 20
-250.751400591880160
 40
5.433559099403096
 50
168.753929484950930
 51
178.218230102085670
  0
ARC
  8
0
  6
CONTINUOUS
 62
3
 10
237.784647477086760
 20
-250.751400591880160
 40
5.469260394190242
 50
1.781769897912350
 51
11.246070515048753
  0
CIRCLE
  8
0
  6
CONTINUOUS
 62
3
 10
307.775944547297510
 20
-137.191731286469800
 40
33.500000000000000
  0
ARC
  8
0
  6
CONTINUOUS
 62
3
 10
393.915156535761530
 20
-174.821987171945690
 40
5.000000000000556
 50
336.401698263640920
 51
0.000000000000000
  0
ARC
  8
0
  6
CONTINUOUS
 62
3
 10
221.636732558832590
 20
-174.821987171945690
 40
5.000000000000000
 50
180.000000000000000
 51
203.598301736363200
  0
ARC
  8
0
  6
CONTINUOUS
 62
3
 10
272.218768461034870
 20
-176.494240478257320
 40
4.999999999999588
 50
307.256131004966900
 51
47.864198486307934
  0
ARC
  8
0
  6
CONTINUOUS
 62
3
 10
294.617797445607720
 20
-205.943917905153280
 40
31.999999999999872
 50
127.256131004967170
 51
198.872128672720810
  0
ARC
  8
0
  6
CONTINUOUS
 62
3
 10
259.606813277428050
 20
-217.911832826954650
 40
4.999999999999471
 50
239.173668330597560
 51
18.872128672723658
  0
ARC
  8
0
  6
CONTINUOUS
 62
3
 10
346.570216747656560
 20
-195.458397953136230
 40
27.000000000000107
 50
353.114296223340200
 51
77.708022749951752
  0
ARC
  8
0
  6
CONTINUOUS
 62
3
 10
353.382811145802410
 20
-164.191985342055890
 40
4.999999999999936
 50
149.373547225007940
 51
257.708022749950660
  0
ARC
  8
0
  6
CONTINUOUS
 62
3
 10
378.339409935147160
 20
-199.294849988011260
 40
4.999999999999885
 50
173.114296223340180
 51
318.648896542797160
  0
ARC
  8
0
  6
CONTINUOUS
 62
3
 10
356.214392352755570
 20
-158.702583761392360
 40
4.999999999999789
 50
156.054647304130040
 51
255.297858639474210
  0
ARC
  8
0
  6
CONTINUOUS
 62
3
 10
346.570216747656560
 20
-195.458397953136230
 40
32.999999999999922
 50
5.724045726881045
 51
75.297858639474498
  0
ARC
  8
0
  6
CONTINUOUS
 62
3
 10
384.380741151775510
 20
-191.668378918153390
 40
5.000000000000169
 50
185.724045726879550
 51
324.581888853420930
  0
ARC
  8
0
  6
CONTINUOUS
 62
3
 10
267.976229074739420
 20
-172.191483404212250
 40
4.999999999999686
 50
308.284839477501690
 51
41.328301793388754
  0
ARC
  8
0
  6
CONTINUOUS
 62
3
 10
294.617797445607720
 20
-205.943917905153280
 40
37.999999999999908
 50
128.284839477505610
 51
189.449699705365930
  0
ARC
  8
0
  6
CONTINUOUS
 62
3
 10
252.201302385042250
 20
-213.003729997342360
 40
4.999999999999974
 50
233.756397618482510
 51
9.449699705361347
  0
ARC
  8
0
  6
CONTINUOUS
 62
3
 10
257.130115498895070
 20
-131.191731286469800
 40
3.000000000000000
 50
270.000000000000000
 51
353.243672969409600
  0
ARC
  8
0
  6
CONTINUOUS
 62
3
 10
257.130115498895070
 20
-143.191731286469800
 40
2.999999999999939
 50
6.756327030581794
 51
90.000000000000000
  0
ARC
  8
0
  6
CONTINUOUS
 62
3
 10
211.963628011269520
 20
-143.191731286469800
 40
3.000000000000000
 50
90.000000000000000
 51
183.583321698471880
  0
ARC
  8
0
  6
CONTINUOUS
 62
3
 10
211.963628011269520
 20
-131.191731286469800
 40
3.000000000000075
 50
176.416678301528120
 51
270.000000000000000
  0
ARC
  8
0
  6
CONTINUOUS
 62
3
 10
293.775944547297060
 20
-147.425129470651430
 40
77.139211988464069
 50
91.910213171709728
 51
165.359522790078270
  0
ARC
  8
0
  6
CONTINUOUS
 62
3
 10
223.979031313446280
 20
-129.191731286469800
 40
4.999999999999463
 50
165.359522790078730
 51
270.000000000000000
  0
ARC
  8
0
  6
CONTINUOUS
 62
3
 10
293.775944547297060
 20
-147.425129470651430
 40
77.139211988464439
 50
178.225864444680160
 51
180.000000000000000
  0
ARC
  8
0
  6
CONTINUOUS
 62
3
 10
221.671313358534460
 20
-145.191731286469800
 40
5.000000000000000
 50
90.000000000000000
 51
178.225864444682000
  0
ARC
  8
0
  6
CONTINUOUS
 62
3
 10
393.880575736060560
 20
-145.191731286469800
 40
4.999999999999758
 50
1.774135555318164
 51
90.000000000000000
  0
ARC
  8
0
  6
CONTINUOUS
 62
3
 10
391.572857781148290
 20
-129.191731286469800
 40
5.000000000000000
 50
270.000000000000000
 51
14.640477209919958
  0
ARC
  8
0
  6
CONTINUOUS
 62
3
 10
403.588261083325050
 20
-143.191731286469800
 40
3.000000000000075
 50
356.416678301528120
 51
90.000000000000000
  0
ARC
  8
0
  6
CONTINUOUS
 62
3
 10
403.588261083325050
 20
-131.191731286469800
 40
3.000000000000000
 50
270.000000000000000
 51
3.583321698471884
  0
ARC
  8
0
  6
CONTINUOUS
 62
3
 10
358.421773595699960
 20
-131.191731286469800
 40
3.000000000000444
 50
186.756327030589400
 51
270.000000000000000
  0
ARC
  8
0
  6
CONTINUOUS
 62
3
 10
358.421773595699960
 20
-143.191731286469800
 40
3.000000000000000
 50
90.000000000000000
 51
173.243672969419240
  0
ARC
  8
0
  6
CONTINUOUS
 62
3
 10
321.775944547297510
 20
-147.425129470651430
 40
77.139211988464012
 50
0.000000000000000
 51
1.774135555319836
  0
ARC
  8
0
  6
CONTINUOUS
 62
3
 10
301.775944547297510
 20
-86.545902238067356
 40
3.000000000000390
 50
276.756327030580790
 51
0.000000000000000
  0
ARC
  8
0
  6
CONTINUOUS
 62
3
 10
313.775944547297510
 20
-86.545902238067356
 40
3.000000000000000
 50
180.000000000000000
 51
263.243672969410620
  0
ARC
  8
0
  6
CONTINUOUS
 62
3
 10
313.775944547297510
 20
-41.379414750442265
 40
3.000000000000075
 50
86.416678301528108
 51
180.000000000000000
  0
ARC
  8
0
  6
CONTINUOUS
 62
3
 10
301.775944547297510
 20
-41.379414750442265
 40
3.000000000000000
 50
0.000000000000000
 51
93.583321698471892
  0
ARC
  8
0
  6
CONTINUOUS
 62
3
 10
307.775944547297510
 20
-567.191731286469800
 40
497.139211988463840
 50
88.089786828290045
 51
89.304278800861709
  0
ARC
  8
0
  6
CONTINUOUS
 62
3
 10
313.775944547297510
 20
-73.088947622402429
 40
2.999999999999993
 50
89.304278800860644
 51
180.000000000000000
  0
ARC
  8
0
  6
CONTINUOUS
 62
3
 10
307.775944547297510
 20
-567.191731286469800
 40
497.139211988464010
 50
90.695721199138291
 51
91.910213171709955
  0
ARC
  8
0
  6
CONTINUOUS
 62
3
 10
301.775944547297510
 20
-73.088947622402429
 40
3.000000000000000
 50
0.000000000000000
 51
90.695721199139356
  0
ARC
  8
0
  6
CONTINUOUS
 62
3
 10
418.275944547297510
 20
-134.191731286469800
 40
2.000000000000000
 50
0.000000000000000
 51
63.214562179985727
  0
ARC
  8
0
  6
CONTINUOUS
 62
3
 10
420.529197888869930
 20
-129.728229367719000
 40
3.000000000000164
 50
183.787068033871800
 51
243.214562179987690
  0
ARC
  8
0
  6
CONTINUOUS
 62
3
 10
417.275944547297510
 20
-139.191731286469800
 40
3.000000000000028
 50
303.156214469688900
 51
0.000000000000000
  0
ARC
  8
0
  6
CONTINUOUS
 62
3
 10
420.557486189180960
 20
-144.214826393332260
 40
3.000000000000028
 50
123.156214469688900
 51
176.436697168475770
  0
ARC
  8
0
  6
CONTINUOUS
 62
3
 10
198.275944547297510
 20
-139.191731286470260
 40
3.000000000000000
 50
180.000000000000000
 51
236.843785530306350
  0
ARC
  8
0
  6
CONTINUOUS
 62
3
 10
194.994402905413610
 20
-144.214826393332260
 40
3.000000000000222
 50
3.563302831523683
 51
56.843785530303819
  0
ARC
  8
0
  6
CONTINUOUS
 62
3
 10
197.275944547297510
 20
-134.191731286470260
 40
2.000000000000302
 50
116.785437820020030
 51
180.000000000000000
  0
ARC
  8
0
  6
CONTINUOUS
 62
3
 10
195.022691205725100
 20
-129.728229367719000
 40
3.000000000000044
 50
296.785437820004520
 51
356.212931966127600
  0
ARC
  8
0
  6
CONTINUOUS
 62
3
 10
307.775944547297510
 20
-137.191731286469800
 40
109.999999999999870
 50
3.787068033865315
 51
32.975300819434004
  0
ARC
  8
0
  6
CONTINUOUS
 62
3
 10
307.775944547297510
 20
-137.191731286469800
 40
110.000000000000220
 50
327.024699180565790
 51
356.436697168476600
  0
ARC
  8
0
  6
CONTINUOUS
 62
3
 10
307.775944547297510
 20
-137.191731286469800
 40
109.999999999999980
 50
147.024699180565990
 51
176.212931966134700
  0
ARC
  8
0
  6
CONTINUOUS
 62
3
 10
307.775944547297510
 20
-137.191731286469800
 40
109.999999999999900
 50
183.563302831523370
 51
212.975300819434210
  0
LINE
  8
0
  6
DASHDOT
 62
4
 10
439.503236717533580
 20
-137.191731286469800
 11
181.940873027717320
 21
-137.191731286469800
  0
LINE
  8
0
  6
DASHDOT
 62
4
 10
307.775944547297510
 20
-9.789953910563781
 11
307.775944547297510
 21
-278.118590037578540
  0
LINE
  8
0
  6
CONTINUOUS
 62
3
 10
398.476954674074480
 20
-249.105944848843140
 11
380.160306192988170
 21
-230.789296367757290
  0
LINE
  8
0
  6
CONTINUOUS
 62
3
 10
419.690158109670850
 20
-227.892741413246770
 11
401.373509628584540
 21
-209.576092932160920
  0
LINE
  8
0
  6
CONTINUOUS
 62
3
 10
217.074934420520550
 20
-249.105944848843140
 11
235.391582901606850
 21
-230.789296367757290
  0
LINE
  8
0
  6
CONTINUOUS
 62
3
 10
195.861730984924180
 20
-227.892741413246770
 11
214.178379466010030
 21
-209.576092932160920
  0
LINE
  8
0
  6
CONTINUOUS
 62
3
 10
217.074934420520550
 20
-25.277517724096924
 11
235.391582901606850
 21
-43.594166205182773
  0
LINE
  8
0
  6
CONTINUOUS
 62
3
 10
195.861730984924180
 20
-46.490721159693294
 11
214.178379466010030
 21
-64.807369640779143
  0
LINE
  8
0
  6
DASHDOT
 62
4
 10
199.275944547297510
 20
-28.691731286469803
 11
218.201112529758570
 21
-47.616899268931093
  0
LINE
  8
0
  6
CONTINUOUS
 62
3
 10
195.275944547297510
 20
-32.691731286469803
 11
195.275944547297510
 21
-241.691731286469800
  0
LINE
  8
0
  6
CONTINUOUS
 62
3
 10
203.275944547297510
 20
-24.691731286469803
 11
412.275944547297510
 21
-24.691731286469803
  0
LINE
  8
0
  6
CONTINUOUS
 62
3
 10
203.275944547297510
 20
-249.691731286469800
 11
412.275944547297510
 21
-249.691731286469800
  0
LINE
  8
0
  6
CONTINUOUS
 62
3
 10
419.690158109670850
 20
-46.490721159693294
 11
401.373509628584540
 21
-64.807369640779143
  0
LINE
  8
0
  6
CONTINUOUS
 62
3
 10
398.476954674074480
 20
-25.277517724096924
 11
380.160306192988170
 21
-43.594166205182773
  0
LINE
  8
0
  6
CONTINUOUS
 62
3
 10
359.775944547297510
 20
-262.691731286469800
 11
307.775944547297510
 21
-262.691731286469800
  0
LINE
  8
0
  6
CONTINUOUS
 62
3
 10
255.775944547297510
 20
-262.691731286469800
 11
307.775944547297510
 21
-262.691731286469800
  0
LINE
  8
0
  6
CONTINUOUS
 62
3
 10
398.915156535761530
 20
-147.425129470651430
 11
398.915156535761530
 21
-174.821987171945690
  0
LINE
  8
0
  6
CONTINUOUS
 62
3
 10
216.636732558832590
 20
-147.425129470651430
 11
216.636732558832590
 21
-174.821987171945690
  0
LINE
  8
0
  6
CONTINUOUS
 62
3
 10
211.963628011269520
 20
-140.191731286469800
 11
257.130115498895070
 21
-140.191731286469800
  0
LINE
  8
0
  6
CONTINUOUS
 62
3
 10
211.963628011269520
 20
-134.191731286469800
 11
257.130115498895070
 21
-134.191731286469800
  0
LINE
  8
0
  6
CONTINUOUS
 62
3
 10
403.588261083325050
 20
-140.191731286469800
 11
358.421773595699960
 21
-140.191731286469800
  0
LINE
  8
0
  6
CONTINUOUS
 62
3
 10
403.588261083325050
 20
-134.191731286469800
 11
358.421773595699960
 21
-134.191731286469800
  0
LINE
  8
0
  6
CONTINUOUS
 62
3
 10
310.775944547297510
 20
-41.379414750442265
 11
310.775944547297510
 21
-86.545902238067356
  0
LINE
  8
0
  6
CONTINUOUS
 62
3
 10
304.775944547297510
 20
-41.379414750442265
 11
304.775944547297510
 21
-86.545902238067356
  0
LINE
  8
0
  6
CONTINUOUS
 62
3
 10
420.275944547297510
 20
-32.691731286469803
 11
420.275944547297510
 21
-132.191731286469800
  0
LINE
  8
0
  6
CONTINUOUS
 62
3
 10
420.275944547297510
 20
-132.191731286469800
 11
420.275944547297510
 21
-142.191731286469800
  0
LINE
  8
0
  6
CONTINUOUS
 62
3
 10
420.275944547297510
 20
-142.191731286469800
 11
420.275944547297510
 21
-241.691731286469800
  0
CIRCLE
  8
0
  6
CONTINUOUS
 62
4
 10
307.775944547297510
 20
-137.191731286469800
 40
4.000000000000000
  0
CIRCLE
  8
0
  6
CONTINUOUS
 62
3
 10
307.775944547297510
 20
-137.191731286469800
 40
3.323500000000024
  0
LINE
  8
0
  6
CONTINUOUS
 62
3
 10
288.775944547296600
 20
-132.191731286469800
 11
296.775944547296600
 21
-132.191731286469800
  0
LINE
  8
0
  6
CONTINUOUS
 62
3
 10
288.775944547296600
 20
-142.191731286469800
 11
288.775944547296600
 21
-132.191731286469800
  0
ARC
  8
0
  6
CONTINUOUS
 62
3
 10
307.775944547296600
 20
-137.191731286469800
 40
16.000000000000192
 50
198.209956864282790
 51
161.790043135717210
  0
LINE
  8
0
  6
CONTINUOUS
 62
3
 10
296.775944547296600
 20
-142.191731286469800
 11
296.775944547296600
 21
-132.191731286469800
  0
LINE
  8
0
  6
CONTINUOUS
 62
3
 10
288.775944547296600
 20
-142.191731286469800
 11
296.775944547296600
 21
-142.191731286469800
  0
LINE
  8
0
  6
CONTINUOUS
 62
4
 10
194.348003517677400
 20
-223.818473221721180
 11
195.275944547297510
 21
-224.231619186382770
  0
LINE
  8
0
  6
CONTINUOUS
 62
3
 10
192.971224490476290
 20
-217.568114871173490
 11
190.124067988945400
 21
-223.962933074671780
  0
LINE
  8
0
  6
CONTINUOUS
 62
3
 10
192.971224490476290
 20
-217.568114871173490
 11
190.124067988945400
 21
-223.962933074671780
  0
LINE
  8
0
  6
CONTINUOUS
 62
3
 10
190.124067988945400
 20
-223.962933074671780
 11
189.229683869268910
 21
-223.564727608907300
  0
LINE
  8
0
  6
CONTINUOUS
 62
3
 10
192.971224490476290
 20
-217.568114871173490
 11
192.076840370799800
 21
-217.169909405409240
  0
ARC
  8
0
  6
CONTINUOUS
 62
3
 10
191.548083045116750
 20
-218.357517803364740
 40
1.299999237060620
 50
65.999999316753915
 51
139.398468892516150
  0
ARC
  8
0
  6
CONTINUOUS
 62
3
 10
206.528233532738340
 20
-150.012835418734990
 40
15.000000000000030
 50
138.603598217667300
 51
178.317231198866920
  0
ARC
  8
0
  6
CONTINUOUS
 62
3
 10
791.275944547297510
 20
-167.191731286470090
 40
600.000000000001140
 50
178.317231198866840
 51
184.715124834091600
  0
ARC
  8
0
  6
CONTINUOUS
 62
3
 10
192.309895554985810
 20
-216.594890644356350
 40
1.000000000000041
 50
335.999999999996420
 51
4.715124834083239
  0
LINE
  8
0
  6
CONTINUOUS
 62
3
 10
189.695382524437260
 20
-227.384369727968050
 11
192.253309805837030
 21
-228.523232328580180
  0
ARC
  8
0
  6
CONTINUOUS
 62
3
 10
190.102119167513590
 20
-226.470824270325440
 40
0.999999999999948
 50
156.000000000008300
 51
245.999999999972630
  0
LINE
  8
0
  6
CONTINUOUS
 62
3
 10
195.275944547297510
 20
-212.391628869998640
 11
189.188573709870980
 21
-226.064087627249790
  0
ARC
  8
0
  6
CONTINUOUS
 62
3
 10
193.481257283599010
 20
-213.963969126348470
 40
1.000000000000041
 50
335.999999999996420
 51
66.000000000020236
  0
ARC
  8
0
  6
CONTINUOUS
 62
3
 10
194.905930950878430
 20
-211.314365874706910
 40
2.000000000000632
 50
184.231338074886000
 51
245.999999999972630
  0
LINE
  8
0
  6
CONTINUOUS
 62
3
 10
194.205645692601140
 20
-224.138214131895640
 11
195.275944547297510
 21
-224.614741883859320
  0
ARC
  8
0
  6
CONTINUOUS
 62
3
 10
791.275944547297510
 20
-167.191731286470090
 40
600.799999999999950
 50
179.412192132293110
 51
182.841389015363320
  0
ARC
  8
0
  6
CONTINUOUS
 62
3
 10
192.213345318512890
 20
-196.924578530763680
 40
0.999999999999988
 50
182.841389015366990
 51
236.047873053618590
  0
ARC
  8
0
  6
CONTINUOUS
 62
3
 10
191.096345293900410
 20
-198.583587555758840
 40
1.000000000000008
 50
2.994076090848812
 51
56.047873053604029
  0
ARC
  8
0
  6
CONTINUOUS
 62
3
 10
190.326136877747330
 20
-159.424578530763710
 40
0.999999999999994
 50
306.205708094031080
 51
359.259505056807090
  0
ARC
  8
0
  6
CONTINUOUS
 62
3
 10
191.507508994023740
 20
-161.038381468821850
 40
1.000000000000128
 50
126.205708094041610
 51
179.412192132278280
  0
LINE
  8
0
  6
CONTINUOUS
 62
3
 10
195.275944547297510
 20
-221.734283545180380
 11
192.253309805837030
 21
-228.523232328580180
  0
ARC
  8
0
  6
CONTINUOUS
 62
3
 10
189.758441194952180
 20
-222.377119210951800
 40
1.299999237060687
 50
172.601548410320760
 51
246.000017986079880
  0
ARC
  8
0
  6
CONTINUOUS
 62
3
 10
197.394336820133500
 20
-223.368638333450430
 40
9.000000000000075
 50
139.398468892516490
 51
172.601548410321070
  0
LINE
  8
0
  6
CONTINUOUS
 62
3
 10
-133.266344006108970
 20
-113.451616186030830
 11
-135.266344006108970
 21
-115.104257825154260
  0
LINE
  8
0
  6
CONTINUOUS
 62
3
 10
-131.266344006108970
 20
-112.275830700408050
 11
-133.266344006108970
 21
-113.451616186030830
  0
LINE
  8
0
  6
CONTINUOUS
 62
3
 10
-133.266344006108970
 20
-113.451616186030830
 11
-131.266344006108970
 21
-115.104257825154260
  0
LINE
  8
0
  6
CONTINUOUS
 62
3
 10
-135.266344006108970
 20
-112.275830700408050
 11
-133.266344006108970
 21
-113.451616186030830
  0
POLYLINE
  8
0
  6
CONTINUOUS
 62
3
 66
1
 70
1
  0
VERTEX
  8
0
  6
CONTINUOUS
 62
3
 10
-128.566344006108980
 20
-115.268206254408360
  0
VERTEX
  8
0
  6
CONTINUOUS
 62
3
 10
-128.656653188213800
 20
-114.565249288208000
  0
VERTEX
  8
0
  6
CONTINUOUS
 62
3
 10
-128.924110203305930
 20
-113.889306563995910
  0
VERTEX
  8
0
  6
CONTINUOUS
 62
3
 10
-129.358436828287010
 20
-113.266354181590510
  0
VERTEX
  8
0
  6
CONTINUOUS
 62
3
 10
-129.942942134532190
 20
-112.720331851691930
  0
VERTEX
  8
0
  6
CONTINUOUS
 62
3
 10
-130.655163910916850
 20
-112.272222906225320
  0
VERTEX
  8
0
  6
CONTINUOUS
 62
3
 10
-131.467731873993050
 20
-111.939247920662550
  0
VERTEX
  8
0
  6
CONTINUOUS
 62
3
 10
-132.349419492633160
 20
-111.734202936964300
  0
VERTEX
  8
0
  6
CONTINUOUS
 62
3
 10
-133.266344006108970
 20
-111.664967718863530
  0
VERTEX
  8
0
  6
CONTINUOUS
 62
3
 10
-134.183268519584770
 20
-111.734202936964300
  0
VERTEX
  8
0
  6
CONTINUOUS
 62
3
 10
-135.064956138224890
 20
-111.939247920662550
  0
VERTEX
  8
0
  6
CONTINUOUS
 62
3
 10
-135.877524101301080
 20
-112.272222906225320
  0
VERTEX
  8
0
  6
CONTINUOUS
 62
3
 10
-136.589745877685740
 20
-112.720331851691930
  0
VERTEX
  8
0
  6
CONTINUOUS
 62
3
 10
-137.174251183930920
 20
-113.266354181590510
  0
VERTEX
  8
0
  6
CONTINUOUS
 62
3
 10
-137.608577808912000
 20
-113.889306563995910
  0
VERTEX
  8
0
  6
CONTINUOUS
 62
3
 10
-137.876034824004140
 20
-114.565249288208000
  0
VERTEX
  8
0
  6
CONTINUOUS
 62
3
 10
-137.966344006108950
 20
-115.268206254408360
  0
VERTEX
  8
0
  6
CONTINUOUS
 62
3
 10
-137.876034824004140
 20
-115.971163220608730
  0
VERTEX
  8
0
  6
CONTINUOUS
 62
3
 10
-137.608577808912000
 20
-116.647105944820820
  0
VERTEX
  8
0
  6
CONTINUOUS
 62
3
 10
-137.174251183930920
 20
-117.270058327226220
  0
VERTEX
  8
0
  6
CONTINUOUS
 62
3
 10
-136.589745877685710
 20
-117.816080657124800
  0
VERTEX
  8
0
  6
CONTINUOUS
 62
3
 10
-135.877524101301080
 20
-118.264189602591410
  0
VERTEX
  8
0
  6
CONTINUOUS
 62
3
 10
-135.064956138224890
 20
-118.597164588154180
  0
VERTEX
  8
0
  6
CONTINUOUS
 62
3
 10
-134.183268519584770
 20
-118.802209571852430
  0
VERTEX
  8
0
  6
CONTINUOUS
 62
3
 10
-133.266344006108970
 20
-118.871444789953200
  0
VERTEX
  8
0
  6
CONTINUOUS
 62
3
 10
-132.349419492633160
 20
-118.802209571852430
  0
VERTEX
  8
0
  6
CONTINUOUS
 62
3
 10
-131.467731873993050
 20
-118.597164588154180
  0
VERTEX
  8
0
  6
CONTINUOUS
 62
3
 10
-130.655163910916850
 20
-118.264189602591410
  0
VERTEX
  8
0
  6
CONTINUOUS
 62
3
 10
-129.942942134532220
 20
-117.816080657124800
  0
VERTEX
  8
0
  6
CONTINUOUS
 62
3
 10
-129.358436828287010
 20
-117.270058327226220
  0
VERTEX
  8
0
  6
CONTINUOUS
 62
3
 10
-128.924110203305930
 20
-116.647105944820820
  0
VERTEX
  8
0
  6
CONTINUOUS
 62
3
 10
-128.656653188213800
 20
-115.971163220608730
  0
SEQEND
  8
0
  6
CONTINUOUS
 62
3
  0
ARC
  8
0
  6
CONTINUOUS
 62
3
 10
-170.666344006059260
 20
-214.634936343713890
 40
2.600000000000136
 50
180.000000000000000
 51
234.999999999998610
  0
LINE
  8
0
  6
CONTINUOUS
 62
3
 10
-162.431896955550880
 20
-223.574772172248230
 11
-172.157642740571870
 21
-216.764731658865000
  0
ARC
  8
0
  6
CONTINUOUS
 62
3
 10
-150.960368228529890
 20
-207.191731286468440
 40
20.000000000000007
 50
234.999999999999740
 51
270.000000000000000
  0
LINE
  8
0
  6
CONTINUOUS
 62
3
 10
-173.266344006059400
 20
-167.191731286468440
 11
-173.266344006059400
 21
-214.634936343713890
  0
LINE
  8
0
  6
CONTINUOUS
 62
3
 10
-136.312233169239110
 20
-227.191731286468440
 11
-150.960368228529890
 21
-227.191731286468440
  0
LINE
  8
0
  6
CONTINUOUS
 62
3
 10
-25.266344006109648
 20
-225.691731286468440
 11
-25.266344006109648
 21
-167.191731286468440
  0
LINE
  8
0
  6
CONTINUOUS
 62
3
 10
-25.266344006109648
 20
-225.691731286468440
 11
-53.826790228019490
 21
-225.691731286468440
  0
LINE
  8
0
  6
CONTINUOUS
 62
4
 10
-49.816344006110967
 20
-198.942523002842790
 11
-25.266344006109648
 21
-198.942523002842790
  0
LINE
  8
0
  6
CONTINUOUS
 62
4
 10
-49.816344006110967
 20
-202.906268426642330
 11
-25.266344006109648
 21
-202.906268426642330
  0
LINE
  8
0
  6
CONTINUOUS
 62
4
 10
-49.816344006110967
 20
-204.510916342204380
 11
-25.266344006109648
 21
-204.510916342204380
  0
LINE
  8
0
  6
CONTINUOUS
 62
4
 10
-49.816344006110967
 20
-212.557518004938170
 11
-25.266344006109648
 21
-212.557518004938170
  0
LINE
  8
0
  6
CONTINUOUS
 62
4
 10
-49.816344006110967
 20
-217.507265473243930
 11
-25.266344006109648
 21
-217.507265473243930
  0
LINE
  8
0
  6
CONTINUOUS
 62
4
 10
-51.015268558830485
 20
-222.191731286468440
 11
-25.266344006109648
 21
-222.191731286468440
  0
LINE
  8
0
  6
CONTINUOUS
 62
4
 10
-51.592824971676009
 20
-223.191731286468440
 11
-25.266344006109648
 21
-223.191731286468440
  0
LINE
  8
0
  6
CONTINUOUS
 62
4
 10
-52.763913406501160
 20
-224.691731286468440
 11
-25.266344006109648
 21
-224.691731286468440
  0
LINE
  8
0
  6
CONTINUOUS
 62
4
 10
-52.326024410601804
 20
-224.191731286468440
 11
-25.266344006109648
 21
-224.191731286468440
  0
LINE
  8
0
  6
CONTINUOUS
 62
4
 10
-49.816344006110967
 20
-187.191731286468440
 11
-25.266344006109648
 21
-187.191731286468440
  0
LINE
  8
0
  6
CONTINUOUS
 62
4
 10
-49.816344006110967
 20
-193.383665078948070
 11
-25.266344006109648
 21
-193.383665078948070
  0
LINE
  8
0
  6
CONTINUOUS
 62
4
 10
-49.816344006110967
 20
-192.021784743598800
 11
-25.266344006109648
 21
-192.021784743598800
  0
LINE
  8
0
  6
CONTINUOUS
 62
4
 10
-49.816344006110967
 20
-197.474165613037710
 11
-25.266344006109648
 21
-197.474165613037710
  0
ARC
  8
0
  6
CONTINUOUS
 62
3
 10
-170.666344006059260
 20
-119.748526229222980
 40
2.599999999999721
 50
125.000000000001370
 51
180.000000000000000
  0
LINE
  8
0
  6
CONTINUOUS
 62
3
 10
-162.431896955550880
 20
-110.808690400688640
 11
-172.157642740571870
 21
-117.618730914071870
  0
ARC
  8
0
  6
CONTINUOUS
 62
3
 10
-150.960368228529890
 20
-127.191731286468430
 40
20.000000000000000
 50
90.000000000000000
 51
125.000000000000240
  0
LINE
  8
0
  6
CONTINUOUS
 62
3
 10
-173.266344006059400
 20
-167.191731286468440
 11
-173.266344006059400
 21
-119.748526229222980
  0
LINE
  8
0
  6
CONTINUOUS
 62
3
 10
-122.266344006109640
 20
-107.191731286468430
 11
-150.960368228529890
 21
-107.191731286468430
  0
LINE
  8
0
  6
CONTINUOUS
 62
3
 10
-25.266344006109648
 20
-108.691731286468430
 11
-25.266344006109648
 21
-167.191731286468440
  0
LINE
  8
0
  6
CONTINUOUS
 62
3
 10
-25.266344006109648
 20
-108.691731286468430
 11
-122.266344006109640
 21
-108.691731286468430
  0
LINE
  8
0
  6
CONTINUOUS
 62
3
 10
-122.266344006109640
 20
-124.595123645862480
 11
-122.266344006109640
 21
-107.191731286468430
  0
LINE
  8
0
  6
CONTINUOUS
 62
4
 10
-49.816344006110967
 20
-135.440939570094090
 11
-25.266344006109648
 21
-135.440939570094090
  0
LINE
  8
0
  6
CONTINUOUS
 62
4
 10
-50.616213779658437
 20
-131.477194146294550
 11
-25.266344006109648
 21
-131.477194146294550
  0
LINE
  8
0
  6
CONTINUOUS
 62
4
 10
-51.422084709719002
 20
-129.872546230732500
 11
-25.266344006109648
 21
-129.872546230732500
  0
LINE
  8
0
  6
CONTINUOUS
 62
4
 10
-122.266344006109640
 20
-121.825944567998700
 11
-25.266344006109648
 21
-121.825944567998700
  0
LINE
  8
0
  6
CONTINUOUS
 62
4
 10
-122.266344006109640
 20
-116.876197099692940
 11
-25.266344006109648
 21
-116.876197099692940
  0
LINE
  8
0
  6
CONTINUOUS
 62
4
 10
-122.266344006109640
 20
-112.191731286468430
 11
-25.266344006109648
 21
-112.191731286468430
  0
LINE
  8
0
  6
CONTINUOUS
 62
4
 10
-122.266344006109640
 20
-111.191731286468430
 11
-25.266344006109648
 21
-111.191731286468430
  0
LINE
  8
0
  6
CONTINUOUS
 62
4
 10
-122.266344006109640
 20
-109.691731286468430
 11
-25.266344006109648
 21
-109.691731286468430
  0
LINE
  8
0
  6
CONTINUOUS
 62
4
 10
-122.266344006109640
 20
-110.191731286468430
 11
-25.266344006109648
 21
-110.191731286468430
  0
LINE
  8
0
  6
CONTINUOUS
 62
4
 10
-49.816344006110967
 20
-147.191731286468440
 11
-25.266344006109648
 21
-147.191731286468440
  0
LINE
  8
0
  6
CONTINUOUS
 62
4
 10
-49.816344006110967
 20
-140.999797493988810
 11
-25.266344006109648
 21
-140.999797493988810
  0
LINE
  8
0
  6
CONTINUOUS
 62
4
 10
-49.816344006110967
 20
-142.361677829338080
 11
-25.266344006109648
 21
-142.361677829338080
  0
LINE
  8
0
  6
CONTINUOUS
 62
4
 10
-49.816344006110967
 20
-136.909296959899170
 11
-25.266344006109648
 21
-136.909296959899170
  0
LINE
  8
0
  6
CONTINUOUS
 62
3
 10
-142.716344006108560
 20
-135.595123645862490
 11
-142.716344006108560
 21
-217.197843014118230
  0
LINE
  8
0
  6
CONTINUOUS
 62
3
 10
-136.316344006108920
 20
-135.689941849361050
 11
-136.316344006108920
 21
-211.767686056021150
  0
ARC
  8
0
  6
CONTINUOUS
 62
4
 10
-131.316344006108920
 20
-142.191731286468210
 40
5.000000000000000
 50
90.000000000000000
 51
180.000000000000000
  0
LINE
  8
0
  6
CONTINUOUS
 62
4
 10
-96.266344006109648
 20
-137.191731286468210
 11
-131.316344006108920
 21
-137.191731286468210
  0
ARC
  8
0
  6
CONTINUOUS
 62
3
 10
-131.316344006108920
 20
-135.689941849361050
 40
5.000000000000000
 50
90.000000000000000
 51
180.000000000000000
  0
LINE
  8
0
  6
CONTINUOUS
 62
3
 10
-96.266344006109648
 20
-130.689941849361050
 11
-131.316344006108920
 21
-130.689941849361050
  0
ARC
  8
0
  6
CONTINUOUS
 62
3
 10
-131.716344006108560
 20
-135.595123645862490
 40
11.000000000000000
 50
90.000000000000000
 51
180.000000000000000
  0
LINE
  8
0
  6
CONTINUOUS
 62
3
 10
-131.716344006108560
 20
-124.595123645862480
 11
-96.266344006109648
 21
-124.595123645862480
  0
LINE
  8
0
  6
CONTINUOUS
 62
4
 10
-117.916979100719800
 20
-197.924578530762350
 11
-103.483222370979090
 21
-197.924578530762350
  0
LINE
  8
0
  6
CONTINUOUS
 62
4
 10
-96.266344006109648
 20
-185.424578530762350
 11
-103.483222370979090
 21
-197.924578530762350
  0
LINE
  8
0
  6
CONTINUOUS
 62
4
 10
-110.700100735849440
 20
-185.424578530762350
 11
-117.916979100719800
 21
-197.924578530762350
  0
LINE
  8
0
  6
CONTINUOUS
 62
4
 10
-110.700100735849440
 20
-185.424578530762350
 11
-96.266344006109648
 21
-185.424578530762350
  0
LINE
  8
0
  6
CONTINUOUS
 62
4
 10
-103.483222370980000
 20
-172.924578530762570
 11
-96.266344006109648
 21
-185.424578530762350
  0
LINE
  8
0
  6
CONTINUOUS
 62
4
 10
-96.266344006109648
 20
-160.424578530762350
 11
-103.483222370980000
 21
-172.924578530762350
  0
LINE
  8
0
  6
CONTINUOUS
 62
4
 10
-81.832587276369850
 20
-185.424578530762350
 11
-74.615708911499496
 21
-197.924578530762350
  0
LINE
  8
0
  6
CONTINUOUS
 62
4
 10
-74.615708911499496
 20
-197.924578530762350
 11
-89.049465641240204
 21
-197.924578530762350
  0
LINE
  8
0
  6
CONTINUOUS
 62
4
 10
-96.266344006109648
 20
-160.424578530762350
 11
-89.049465641239294
 21
-172.924578530762350
  0
LINE
  8
0
  6
CONTINUOUS
 62
4
 10
-89.049465641239294
 20
-172.924578530762570
 11
-96.266344006109648
 21
-185.424578530762350
  0
LINE
  8
0
  6
CONTINUOUS
 62
4
 10
-81.832587276369850
 20
-185.424578530762350
 11
-96.266344006109648
 21
-185.424578530762350
  0
LINE
  8
0
  6
CONTINUOUS
 62
4
 10
-96.266344006109648
 20
-185.424578530762350
 11
-89.049465641240204
 21
-197.924578530762350
  0
LINE
  8
0
  6
DASHDOT
 62
4
 10
-96.266344006109648
 20
-121.692131453676430
 11
-96.266344006109648
 21
-234.345850878913100
  0
ARC
  8
0
  6
CONTINUOUS
 62
3
 10
-131.316344006108920
 20
-211.767686056021150
 40
5.000000000000000
 50
180.000000000000000
 51
270.000000000000000
  0
LINE
  8
0
  6
CONTINUOUS
 62
3
 10
-104.753818223503230
 20
-216.767686056021150
 11
-131.316344006108920
 21
-216.767686056021150
  0
ARC
  8
0
  6
CONTINUOUS
 62
3
 10
-131.716344006108560
 20
-217.197843014118230
 40
11.000000000000000
 50
180.000000000000000
 51
270.000000000000000
  0
ARC
  8
0
  6
CONTINUOUS
 62
3
 10
-131.716344006108560
 20
-215.977633084891070
 40
11.000000000000000
 50
180.000000000000000
 51
270.000000000000000
  0
LINE
  8
0
  6
CONTINUOUS
 62
3
 10
-131.716344006108560
 20
-226.977633084891070
 11
-96.266344006109648
 21
-226.977633084891070
  0
LINE
  8
0
  6
CONTINUOUS
 62
3
 10
-131.716344006108560
 20
-228.197843014118230
 11
-96.266344006109648
 21
-228.197843014118230
  0
ARC
  8
0
  6
CONTINUOUS
 62
3
 10
-105.526562186722910
 20
-212.767686068871400
 40
3.999999987149749
 50
270.000000000000000
 51
318.821565628880590
  0
POLYLINE
  8
0
  6
CONTINUOUS
 62
3
 66
1
  0
VERTEX
  8
0
  6
CONTINUOUS
 62
3
 10
-96.266344006109648
 20
-212.655456273033850
  0
VERTEX
  8
0
  6
CONTINUOUS
 62
3
 10
-97.693195293524539
 20
-212.772638941684850
  0
VERTEX
  8
0
  6
CONTINUOUS
 62
3
 10
-99.074290171056205
 20
-213.120429122092020
  0
VERTEX
  8
0
  6
CONTINUOUS
 62
3
 10
-100.365339549952830
 20
-213.687673843943370
  0
VERTEX
  8
0
  6
CONTINUOUS
 62
3
 10
-101.524941929524530
 20
-214.456182646729130
  0
VERTEX
  8
0
  6
CONTINUOUS
 62
3
 10
-102.515911064610910
 20
-215.401310913249660
  0
SEQEND
  8
0
  6
CONTINUOUS
 62
3
  0
ARC
  8
0
  6
CONTINUOUS
 62
3
 10
-104.753818221829980
 20
-212.767686062244820
 40
3.999999993776328
 50
270.000000000000000
 51
313.301579148531630
  0
POLYLINE
  8
0
  6
CONTINUOUS
 62
3
 66
1
  0
VERTEX
  8
0
  6
CONTINUOUS
 62
3
 10
-96.266344006109648
 20
-213.457160311780570
  0
VERTEX
  8
0
  6
CONTINUOUS
 62
3
 10
-97.542384396029362
 20
-213.550728467699400
  0
VERTEX
  8
0
  6
CONTINUOUS
 62
3
 10
-98.785750783477766
 20
-213.829037050355480
  0
VERTEX
  8
0
  6
CONTINUOUS
 62
3
 10
-99.964605809122645
 20
-214.284959752941210
  0
VERTEX
  8
0
  6
CONTINUOUS
 62
3
 10
-101.048763977014550
 20
-214.906822321546770
  0
VERTEX
  8
0
  6
CONTINUOUS
 62
3
 10
-102.010464577589110
 20
-215.678701483473390
  0
SEQEND
  8
0
  6
CONTINUOUS
 62
3
  0
LINE
  8
0
  6
CONTINUOUS
 62
3
 10
-94.266344006109648
 20
-221.626629690696290
 11
-98.266344006109648
 21
-217.972447860125840
  0
LINE
  8
0
  6
CONTINUOUS
 62
3
 10
-98.266344006109648
 20
-221.626629690696290
 11
-94.266344006109648
 21
-217.972447860125840
  0
POLYLINE
  8
0
  6
CONTINUOUS
 62
3
 66
1
 70
1
  0
VERTEX
  8
0
  6
CONTINUOUS
 62
3
 10
-92.766344006109648
 20
-220.510225820486770
  0
VERTEX
  8
0
  6
CONTINUOUS
 62
3
 10
-92.833595524698339
 20
-219.836636050440630
  0
VERTEX
  8
0
  6
CONTINUOUS
 62
3
 10
-93.032765642320143
 20
-219.188931957503880
  0
VERTEX
  8
0
  6
CONTINUOUS
 62
3
 10
-93.356200363050746
 20
-218.592004446731410
  0
VERTEX
  8
0
  6
CONTINUOUS
 62
3
 10
-93.791470271956726
 20
-218.068793107601440
  0
VERTEX
  8
0
  6
CONTINUOUS
 62
3
 10
-94.321848190541047
 20
-217.639404658456390
  0
VERTEX
  8
0
  6
CONTINUOUS
 62
3
 10
-94.926951992831832
 20
-217.320340256593110
  0
VERTEX
  8
0
  6
CONTINUOUS
 62
3
 10
-95.583527879053193
 20
-217.123861368041840
  0
VERTEX
  8
0
  6
CONTINUOUS
 62
3
 10
-96.266344006109648
 20
-217.057518566302970
  0
VERTEX
  8
0
  6
CONTINUOUS
 62
3
 10
-96.949160133166103
 20
-217.123861368041840
  0
VERTEX
  8
0
  6
CONTINUOUS
 62
3
 10
-97.605736019387464
 20
-217.320340256593110
  0
VERTEX
  8
0
  6
CONTINUOUS
 62
3
 10
-98.210839821678249
 20
-217.639404658456390
  0
VERTEX
  8
0
  6
CONTINUOUS
 62
3
 10
-98.741217740262570
 20
-218.068793107601440
  0
VERTEX
  8
0
  6
CONTINUOUS
 62
3
 10
-99.176487649168550
 20
-218.592004446731410
  0
VERTEX
  8
0
  6
CONTINUOUS
 62
3
 10
-99.499922369899153
 20
-219.188931957503880
  0
VERTEX
  8
0
  6
CONTINUOUS
 62
3
 10
-99.699092487520957
 20
-219.836636050440630
  0
VERTEX
  8
0
  6
CONTINUOUS
 62
3
 10
-99.766344006109648
 20
-220.510225820486770
  0
VERTEX
  8
0
  6
CONTINUOUS
 62
3
 10
-99.699092487520957
 20
-221.183815590532900
  0
VERTEX
  8
0
  6
CONTINUOUS
 62
3
 10
-99.499922369899153
 20
-221.831519683469650
  0
VERTEX
  8
0
  6
CONTINUOUS
 62
3
 10
-99.176487649168550
 20
-222.428447194242120
  0
VERTEX
  8
0
  6
CONTINUOUS
 62
3
 10
-98.741217740262556
 20
-222.951658533372100
  0
VERTEX
  8
0
  6
CONTINUOUS
 62
3
 10
-98.210839821678249
 20
-223.381046982517150
  0
VERTEX
  8
0
  6
CONTINUOUS
 62
3
 10
-97.605736019387464
 20
-223.700111384380420
  0
VERTEX
  8
0
  6
CONTINUOUS
 62
3
 10
-96.949160133166103
 20
-223.896590272931690
  0
VERTEX
  8
0
  6
CONTINUOUS
 62
3
 10
-96.266344006109648
 20
-223.962933074670560
  0
VERTEX
  8
0
  6
CONTINUOUS
 62
3
 10
-95.583527879053207
 20
-223.896590272931690
  0
VERTEX
  8
0
  6
CONTINUOUS
 62
3
 10
-94.926951992831832
 20
-223.700111384380420
  0
VERTEX
  8
0
  6
CONTINUOUS
 62
3
 10
-94.321848190541047
 20
-223.381046982517150
  0
VERTEX
  8
0
  6
CONTINUOUS
 62
3
 10
-93.791470271956740
 20
-222.951658533372100
  0
VERTEX
  8
0
  6
CONTINUOUS
 62
3
 10
-93.356200363050746
 20
-222.428447194242120
  0
VERTEX
  8
0
  6
CONTINUOUS
 62
3
 10
-93.032765642320143
 20
-221.831519683469650
  0
VERTEX
  8
0
  6
CONTINUOUS
 62
3
 10
-92.833595524698353
 20
-221.183815590532900
  0
SEQEND
  8
0
  6
CONTINUOUS
 62
3
  0
LINE
  8
0
  6
CONTINUOUS
 62
3
 10
-87.778869788716293
 20
-216.767686056021150
 11
-61.216344006110376
 21
-216.767686056021150
  0
POLYLINE
  8
0
  6
CONTINUOUS
 62
3
 66
1
  0
VERTEX
  8
0
  6
CONTINUOUS
 62
3
 10
-90.522223434630178
 20
-215.678701483473390
  0
VERTEX
  8
0
  6
CONTINUOUS
 62
3
 10
-91.483924035204737
 20
-214.906822321546770
  0
VERTEX
  8
0
  6
CONTINUOUS
 62
3
 10
-92.568082203096651
 20
-214.284959752941210
  0
VERTEX
  8
0
  6
CONTINUOUS
 62
3
 10
-93.746937228741530
 20
-213.829037050355480
  0
VERTEX
  8
0
  6
CONTINUOUS
 62
3
 10
-94.990303616189934
 20
-213.550728467699400
  0
VERTEX
  8
0
  6
CONTINUOUS
 62
3
 10
-96.266344006109648
 20
-213.457160311780570
  0
SEQEND
  8
0
  6
CONTINUOUS
 62
3
  0
ARC
  8
0
  6
CONTINUOUS
 62
3
 10
-87.778869790389535
 20
-212.767686062244820
 40
3.999999999999828
 50
226.698420851470790
 51
270.000000000000000
  0
POLYLINE
  8
0
  6
CONTINUOUS
 62
3
 66
1
  0
VERTEX
  8
0
  6
CONTINUOUS
 62
3
 10
-90.016776947608605
 20
-215.401310913249380
  0
VERTEX
  8
0
  6
CONTINUOUS
 62
3
 10
-91.007746082694979
 20
-214.456182646728960
  0
VERTEX
  8
0
  6
CONTINUOUS
 62
3
 10
-92.167348462266659
 20
-213.687673843943290
  0
VERTEX
  8
0
  6
CONTINUOUS
 62
3
 10
-93.458397841163233
 20
-213.120429122091960
  0
VERTEX
  8
0
  6
CONTINUOUS
 62
3
 10
-94.839492718694828
 20
-212.772638941684850
  0
VERTEX
  8
0
  6
CONTINUOUS
 62
3
 10
-96.266344006109648
 20
-212.655456273033850
  0
SEQEND
  8
0
  6
CONTINUOUS
 62
3
  0
ARC
  8
0
  6
CONTINUOUS
 62
3
 10
-87.006125825496383
 20
-212.767686068871400
 40
4.000000000000156
 50
221.178434371117250
 51
270.000000000000000
  0
ARC
  8
0
  6
CONTINUOUS
 62
3
 10
-60.816344006110739
 20
-215.977633084891070
 40
11.000000000000000
 50
270.000000000000000
 51
0.000000000000000
  0
ARC
  8
0
  6
CONTINUOUS
 62
3
 10
-60.816344006110739
 20
-217.197843014118230
 40
11.000000000000000
 50
270.000000000000000
 51
0.000000000000000
  0
LINE
  8
0
  6
CONTINUOUS
 62
3
 10
-60.816344006110739
 20
-228.197843014118230
 11
-96.266344006109648
 21
-228.197843014118230
  0
LINE
  8
0
  6
CONTINUOUS
 62
3
 10
-60.816344006110739
 20
-226.977633084891070
 11
-96.266344006109648
 21
-226.977633084891070
  0
ARC
  8
0
  6
CONTINUOUS
 62
3
 10
-61.216344006110376
 20
-211.767686056021150
 40
5.000000000000000
 50
270.000000000000000
 51
0.000000000000000
  0
LINE
  8
0
  6
CONTINUOUS
 62
3
 10
-56.216344006110376
 20
-135.689941849361050
 11
-56.216344006110376
 21
-211.767686056021150
  0
LINE
  8
0
  6
CONTINUOUS
 62
3
 10
-49.816344006110739
 20
-135.595123645862490
 11
-49.816344006110739
 21
-217.197843014118230
  0
LINE
  8
0
  6
CONTINUOUS
 62
3
 10
-96.266344006109648
 20
-130.689941849361050
 11
-61.216344006110376
 21
-130.689941849361050
  0
ARC
  8
0
  6
CONTINUOUS
 62
3
 10
-61.216344006110376
 20
-135.689941849361050
 40
5.000000000000000
 50
0.000000000000000
 51
90.000000000000000
  0
LINE
  8
0
  6
CONTINUOUS
 62
4
 10
-96.266344006109648
 20
-137.191731286468210
 11
-61.216344006110376
 21
-137.191731286468210
  0
ARC
  8
0
  6
CONTINUOUS
 62
4
 10
-61.216344006110376
 20
-142.191731286468210
 40
5.000000000000000
 50
0.000000000000000
 51
90.000000000000000
  0
ARC
  8
0
  6
CONTINUOUS
 62
3
 10
-60.816344006110739
 20
-135.595123645862490
 40
11.000000000000000
 50
0.000000000000000
 51
90.000000000000000
  0
LINE
  8
0
  6
CONTINUOUS
 62
3
 10
-60.816344006110739
 20
-124.595123645862480
 11
-96.266344006109648
 21
-124.595123645862480
  0
LINE
  8
0
  6
CONTINUOUS
 62
3
 10
-25.266344006109648
 20
-167.191731286468440
 11
-25.266344006109648
 21
-228.684625533554030
  0
LINE
  8
0
  6
CONTINUOUS
 62
3
 10
-25.266344006109648
 20
-167.191731286468440
 11
-25.266344006109648
 21
-108.691731286468430
  0
LINE
  8
0
  6
DASHDOT
 62
4
 10
18.315735368836613
 20
-167.191731286469800
 11
-181.846331339918830
 21
-167.191731286463320
  0
ENDSEC
  0
EOF
