  0
SECTION
  2
HEADER
  9
$FILLMODE
 70
1
  9
$TEXTSTYLE
  7
STANDARD1
  9
$ACADVER
  1
AC1009
  9
$DIMASZ
 40
1.931851648807023
  9
$DIMEXE
 40
2.000000000000000
  9
$DIMEXO
 40
1.000000000000000
  9
$DIMLFAC
 40
1.000000000000000
  9
$DIMSCALE
 40
1.000000000000000
  9
$DIMTAD
 70
1
  9
$DIMTFAC
 40
0.714285731315613
  9
$DIMTXT
 40
3.200000047683716
  9
$LUPREC
 70
3
  9
$TEXTSIZE
 40
3.299999952316284
  9
$REGENMODE
 70
1
  0
ENDSEC
  0
SECTION
  2
TABLES
  0
TABLE
  2
LTYPE
 70
4
  0
LTYPE
  2
CONTINUOUS
 70
64
  3
Solid line
 72
65
 73
0
 40
0.0
  0
LTYPE
  2
DASHED
 70
64
  3
-- -- -- -- -- -- -- -- -- -- -- -- -- -- --
 72
65
 73
2
 40
0.75
 49
0.5
 49
-0.25
  0
LTYPE
  2
DASHDOT
 70
64
  3
__ . __ . __ . __ . __ . __ . __ . __ . __ . __
 72
65
 73
4
 40
1.0
 49
0.5
 49
-0.25
 49
0.0
 49
-0.25
  0
LTYPE
  2
DIVIDE
 70
64
  3
__ . . __ . . __ . . __ . . __ . . __ . . __
 72
65
 73
6
 40
1.25
 49
0.5
 49
-0.25
 49
0.0
 49
-0.25
 49
0.0
 49
-0.25
  0
ENDTAB
  0
TABLE
  2
LAYER
 70
1
  0
LAYER
  2
0
 70
64
 62
2
  6
CONTINUOUS
  0
ENDTAB
  0
TABLE
  2
STYLE
 70
4
  0
STYLE
  2
STANDARD1
 70
64
 40
0.0
 41
1.0
 50
0.0
 71
0
 42
3.299999952316284
  3
MONOTXT
  4
BIGFONT
  0
STYLE
  2
STANDARD2
 70
68
 40
0.0
 41
1.0
 50
0.0
 71
0
 42
3.299999952316284
  3
MONOTXT
  4
BIGFONT
  0
STYLE
  2
STANDARD3
 70
64
 40
0.0
 41
1.0
 50
0.0
 71
0
 42
3.299999952316284
  3
MONOTXT
  4

  0
STYLE
  2
STANDARD4
 70
68
 40
0.0
 41
1.0
 50
0.0
 71
0
 42
3.299999952316284
  3
MONOTXT
  4

  0
ENDTAB
  0
TABLE
  2
VIEW
 70
0
  0
ENDTAB
  0
ENDSEC
  0
SECTION
  2
BLOCKS
  0
BLOCK
  8
0
  2
SYM1
 70
64
 10
0.000000000000000
 20
0.000000000000000
  0
POINT
  8
0
  6
CONTINUOUS
 62
3
 10
0.000000000000000
 20
0.000000000000000
  0
LINE
  8
0
  6
CONTINUOUS
 62
3
 10
0.000000000000000
 20
-6.500000000000000
 11
-0.000000000000000
 21
6.500000000000000
  0
LINE
  8
0
  6
CONTINUOUS
 62
3
 10
-7.999999046325684
 20
5.633875846862793
 11
-7.999999046325684
 21
-5.634070396423340
  0
LINE
  8
0
  6
CONTINUOUS
 62
3
 10
0.000000000000000
 20
6.500000000000000
 11
-7.499999046325684
 21
6.500000000000000
  0
LINE
  8
0
  6
CONTINUOUS
 62
3
 10
-0.000000000000000
 20
-6.500000000000000
 11
-7.499998092651367
 21
-6.500000000000000
  0
LINE
  8
0
  6
CONTINUOUS
 62
3
 10
-7.499999203818277
 20
6.499999909101064
 11
-7.999999021366804
 21
5.633876130311293
  0
LINE
  8
0
  6
CONTINUOUS
 62
3
 10
-7.499997911632022
 20
-6.499999445138201
 11
-7.999998623386432
 21
-5.634070287011241
  0
LINE
  8
0
  6
CONTINUOUS
 62
3
 10
-7.499999046325684
 20
6.500000000000000
 11
-7.499999046325684
 21
-6.500000000000000
  0
ENDBLK
  8
0
  0
ENDSEC
  0
SECTION
  2
ENTITIES
  0
LINE
  8
0
  6
CONTINUOUS
 62
3
 10
301.895686014973990
 20
-295.842850450280820
 11
288.339960363313930
 21
-295.842850450280820
  0
LINE
  8
0
  6
CONTINUOUS
 62
3
 10
422.339960363313990
 20
-295.842850450280820
 11
435.895686014974050
 21
-295.842850450280820
  0
LINE
  8
0
  6
CONTINUOUS
 62
3
 10
339.117823189144020
 20
-155.842850450280820
 11
347.117823189144020
 21
-155.842850450280820
  0
LINE
  8
0
  6
CONTINUOUS
 62
3
 10
339.117823189144020
 20
-143.842850450280820
 11
347.117823189144020
 21
-143.842850450280820
  0
LINE
  8
0
  6
CONTINUOUS
 62
3
 10
142.738408127252110
 20
-155.842850450280820
 11
191.738408127252110
 21
-155.842850450280820
  0
ARC
  8
0
  6
CONTINUOUS
 62
3
 10
142.738408127252110
 20
-149.842850450280820
 40
6.000000000000000
 50
180.000000000000000
 51
270.000000000000000
  0
ARC
  8
0
  6
CONTINUOUS
 62
3
 10
142.738408127252110
 20
-149.842850450280820
 40
6.000000000000000
 50
90.000000000000000
 51
180.000000000000000
  0
LINE
  8
0
  6
CONTINUOUS
 62
3
 10
136.738408127252110
 20
-149.842864114868010
 11
136.738408127252110
 21
-149.842850450280820
  0
LINE
  8
0
  6
CONTINUOUS
 62
3
 10
142.738408127252110
 20
-143.842850450280820
 11
191.738408127252110
 21
-143.842850450280820
  0
ARC
  8
0
  6
CONTINUOUS
 62
3
 10
-300.879052035353370
 20
-231.269614590090580
 40
6.099999427795406
 50
264.601927898108500
 51
5.398089404735109
  0
POINT
  8
0
  6
CONTINUOUS
 62
3
 10
-298.616310470426360
 20
-233.532356155017620
  0
LINE
  8
0
  6
CONTINUOUS
 62
3
 10
-295.292908733719510
 20
-230.208954418310750
 11
-301.939712207133200
 21
-236.855757891724490
  0
LINE
  8
0
  6
CONTINUOUS
 62
3
 10
-294.979770124750700
 20
-230.461501369161140
 11
-301.656869427223630
 21
-237.138600671634070
  0
LINE
  8
0
  6
CONTINUOUS
 62
3
 10
-301.939712207133200
 20
-236.855757891724490
 11
-301.452908815427580
 21
-237.342561283430090
  0
LINE
  8
0
  6
CONTINUOUS
 62
3
 10
-295.292908733719510
 20
-230.208954418310750
 11
-294.806105342013890
 21
-230.695757810016370
  0
ARC
  8
0
  6
CONTINUOUS
 62
3
 10
-399.732580314972490
 20
-231.269614590090580
 40
6.099999427795398
 50
174.601910595264880
 51
275.398072101891500
  0
POINT
  8
0
  6
CONTINUOUS
 62
3
 10
-401.995321879899510
 20
-233.532356155017620
  0
LINE
  8
0
  6
CONTINUOUS
 62
3
 10
-405.318723616606350
 20
-230.208954418310750
 11
-398.671920143192660
 21
-236.855757891724490
  0
LINE
  8
0
  6
CONTINUOUS
 62
3
 10
-405.631862225575160
 20
-230.461501369161140
 11
-398.954762923102240
 21
-237.138600671634070
  0
LINE
  8
0
  6
CONTINUOUS
 62
3
 10
-398.671920143192660
 20
-236.855757891724490
 11
-399.158723534898290
 21
-237.342561283430090
  0
LINE
  8
0
  6
CONTINUOUS
 62
3
 10
-405.318723616606350
 20
-230.208954418310750
 11
-405.805527008311970
 21
-230.695757810016370
  0
ARC
  8
0
  6
CONTINUOUS
 62
3
 10
-399.732580314972490
 20
-132.416086310471290
 40
6.099999427795419
 50
84.601927898108485
 51
185.398089404735120
  0
POINT
  8
0
  6
CONTINUOUS
 62
3
 10
-401.995321879899510
 20
-130.153344745544250
  0
LINE
  8
0
  6
CONTINUOUS
 62
3
 10
-405.318723616606350
 20
-133.476746482251120
 11
-398.671920143192660
 21
-126.829943008837390
  0
LINE
  8
0
  6
CONTINUOUS
 62
3
 10
-405.631862225575160
 20
-133.224199531400730
 11
-398.954762923102240
 21
-126.547100228927810
  0
LINE
  8
0
  6
CONTINUOUS
 62
3
 10
-398.671920143192660
 20
-126.829943008837390
 11
-399.158723534898290
 21
-126.343139617131760
  0
LINE
  8
0
  6
CONTINUOUS
 62
3
 10
-405.318723616606350
 20
-133.476746482251120
 11
-405.805527008311970
 21
-132.989943090545490
  0
ARC
  8
0
  6
CONTINUOUS
 62
3
 10
-300.879052035353370
 20
-132.416086310471290
 40
6.099999427795398
 50
354.601910595264880
 51
95.398072101891515
  0
POINT
  8
0
  6
CONTINUOUS
 62
3
 10
-298.616310470426360
 20
-130.153344745544250
  0
LINE
  8
0
  6
CONTINUOUS
 62
3
 10
-295.292908733719510
 20
-133.476746482251120
 11
-301.939712207133200
 21
-126.829943008837390
  0
LINE
  8
0
  6
CONTINUOUS
 62
3
 10
-294.979770124750700
 20
-133.224199531400730
 11
-301.656869427223630
 21
-126.547100228927810
  0
LINE
  8
0
  6
CONTINUOUS
 62
3
 10
-301.939712207133200
 20
-126.829943008837390
 11
-301.452908815427580
 21
-126.343139617131760
  0
LINE
  8
0
  6
CONTINUOUS
 62
3
 10
-295.292908733719510
 20
-133.476746482251120
 11
-294.806105342013890
 21
-132.989943090545490
  0
LINE
  8
0
  6
CONTINUOUS
 62
3
 10
-20.761597923953104
 20
-87.842838440390096
 11
-19.761596970278788
 21
-87.842838440390096
  0
ARC
  8
0
  6
CONTINUOUS
 62
3
 10
113.238408127253030
 20
90.893247230962913
 40
3.000000000000000
 50
180.000000000000000
 51
270.000000000000000
  0
LINE
  8
0
  6
CONTINUOUS
 62
3
 10
117.238408127254370
 20
87.893247230962913
 11
113.238408127253030
 21
87.893247230962913
  0
ARC
  8
0
  6
CONTINUOUS
 62
3
 10
113.238408127253030
 20
57.370352985335103
 40
3.000000000000000
 50
180.000000000000000
 51
270.000000000000000
  0
LINE
  8
0
  6
CONTINUOUS
 62
3
 10
110.238408127253030
 20
57.370352985335103
 11
110.238408127253030
 21
168.157149549719180
  0
LINE
  8
0
  6
CONTINUOUS
 62
3
 10
117.238408127253620
 20
54.370352985335103
 11
113.238408127253030
 21
54.370352985335103
  0
LINE
  8
0
  6
CONTINUOUS
 62
3
 10
117.238408127254370
 20
248.421051868475440
 11
113.238408127253030
 21
248.421051868475440
  0
ARC
  8
0
  6
CONTINUOUS
 62
3
 10
113.238408127253030
 20
245.421051868475440
 40
3.000000000000000
 50
90.000000000000000
 51
180.000000000000000
  0
LINE
  8
0
  6
CONTINUOUS
 62
3
 10
110.238408127253030
 20
278.943946114103260
 11
110.238408127253030
 21
168.157149549719180
  0
LINE
  8
0
  6
CONTINUOUS
 62
3
 10
117.238408127253620
 20
281.943946114103260
 11
113.238408127253030
 21
281.943946114103260
  0
ARC
  8
0
  6
CONTINUOUS
 62
3
 10
113.238408127253030
 20
278.943946114103260
 40
3.000000000000000
 50
90.000000000000000
 51
180.000000000000000
  0
ARC
  8
0
  6
CONTINUOUS
 62
3
 10
113.238408127253020
 20
-260.629647014664900
 40
3.000000000000000
 50
180.000000000000000
 51
270.000000000000000
  0
ARC
  8
0
  6
CONTINUOUS
 62
3
 10
113.238408127253020
 20
-227.106752769037090
 40
3.000000000000000
 50
180.000000000000000
 51
270.000000000000000
  0
LINE
  8
0
  6
CONTINUOUS
 62
3
 10
110.238408127253020
 20
-260.629647014664900
 11
110.238408127253020
 21
-157.842850450280820
  0
ARC
  8
0
  6
CONTINUOUS
 62
3
 10
113.238408127253020
 20
-157.842850450280820
 40
3.000000000000000
 50
90.000000000000000
 51
180.000000000000000
  0
LINE
  8
0
  6
CONTINUOUS
 62
3
 10
117.238408127253600
 20
-263.629647014664900
 11
113.238408127253020
 21
-263.629647014664900
  0
LINE
  8
0
  6
CONTINUOUS
 62
3
 10
117.238408127254360
 20
-230.106752769037090
 11
113.238408127253020
 21
-230.106752769037090
  0
LINE
  8
0
  6
CONTINUOUS
 62
3
 10
117.238408127256070
 20
-154.842850450280820
 11
113.238408127253020
 21
-154.842850450280820
  0
ARC
  8
0
  6
CONTINUOUS
 62
3
 10
113.238408127253020
 20
-141.842850450280820
 40
3.000000000000000
 50
180.000000000000000
 51
270.000000000000000
  0
ARC
  8
0
  6
CONTINUOUS
 62
3
 10
113.238408127253020
 20
-72.578948131524541
 40
3.000000000000000
 50
90.000000000000000
 51
180.000000000000000
  0
ARC
  8
0
  6
CONTINUOUS
 62
3
 10
113.238408127253020
 20
-39.056053885896745
 40
3.000000000000000
 50
90.000000000000000
 51
180.000000000000000
  0
LINE
  8
0
  6
CONTINUOUS
 62
3
 10
117.238408127256070
 20
-144.842850450280820
 11
113.238408127253020
 21
-144.842850450280820
  0
LINE
  8
0
  6
CONTINUOUS
 62
3
 10
117.238408127253600
 20
-36.056053885896745
 11
113.238408127253020
 21
-36.056053885896745
  0
LINE
  8
0
  6
CONTINUOUS
 62
3
 10
117.238408127254360
 20
-69.578948131524541
 11
113.238408127253020
 21
-69.578948131524541
  0
LINE
  8
0
  6
DASHDOT
 62
4
 10
-40.088177158075268
 20
-77.842838440389642
 11
-14.436546987715701
 21
-77.842838440389642
  0
CIRCLE
  8
0
  6
CONTINUOUS
 62
3
 10
-360.805816175162930
 20
-77.842849653180110
 40
5.633955001831055
  0
CIRCLE
  8
0
  6
CONTINUOUS
 62
3
 10
-360.805816175162930
 20
-77.842849653180110
 40
6.500000000000000
  0
LINE
  8
0
  6
CONTINUOUS
 62
3
 10
-357.805819513021900
 20
-79.574895652731357
 11
-357.805818559347700
 21
-76.110797676046786
  0
LINE
  8
0
  6
CONTINUOUS
 62
3
 10
-363.805812837303620
 20
-76.110802699954547
 11
-363.805813790977940
 21
-79.574900676639118
  0
LINE
  8
0
  6
CONTINUOUS
 62
3
 10
-363.805814287256570
 20
-79.574901045958768
 11
-360.805811710750730
 21
-81.306948018595222
  0
LINE
  8
0
  6
CONTINUOUS
 62
3
 10
-360.805811470174260
 20
-81.306947828928969
 11
-357.805818598062500
 21
-79.574895871212902
  0
CIRCLE
  8
0
  6
CONTINUOUS
 62
3
 10
-339.805816175162930
 20
-77.842849653180110
 40
5.633955001831055
  0
CIRCLE
  8
0
  6
CONTINUOUS
 62
3
 10
-339.805816175162930
 20
-77.842849653180110
 40
6.500000000000000
  0
LINE
  8
0
  6
CONTINUOUS
 62
3
 10
-342.805812837303960
 20
-79.574895652731357
 11
-342.805813790978160
 21
-76.110797676046786
  0
LINE
  8
0
  6
CONTINUOUS
 62
3
 10
-336.805819513022240
 20
-76.110802699954547
 11
-336.805818559347930
 21
-79.574900676639118
  0
LINE
  8
0
  6
CONTINUOUS
 62
3
 10
-336.805818063069300
 20
-79.574901045958995
 11
-339.805820639575130
 21
-81.306948018595222
  0
LINE
  8
0
  6
CONTINUOUS
 62
3
 10
-339.805820880151600
 20
-81.306947828928969
 11
-342.805813752263360
 21
-79.574895871212902
  0
LINE
  8
0
  6
CONTINUOUS
 62
3
 10
-370.805816175162930
 20
-65.263276411839570
 11
-370.805816175162930
 21
-84.842849653180110
  0
LINE
  8
0
  6
CONTINUOUS
 62
3
 10
-329.805816175162930
 20
-65.263276411839570
 11
-329.805816175162930
 21
-84.842849653180110
  0
LINE
  8
0
  6
DASHDOT
 62
4
 10
-350.305816175162930
 20
-301.639738626596230
 11
-350.305816175162930
 21
-0.755429913282569
  0
LINE
  8
0
  6
CONTINUOUS
 62
3
 10
-350.305816175162930
 20
-87.842849653180110
 11
-367.805816175162930
 21
-87.842849653180110
  0
LINE
  8
0
  6
CONTINUOUS
 62
3
 10
-350.305816175162930
 20
-87.842849653180110
 11
-332.805816175162930
 21
-87.842849653180110
  0
ARC
  8
0
  6
CONTINUOUS
 62
3
 10
-344.055816175162930
 20
-90.842849653180110
 40
3.000000000000000
 50
90.000000000000000
 51
180.000000000000000
  0
ARC
  8
0
  6
CONTINUOUS
 62
3
 10
-356.555816175162930
 20
-90.842849653180110
 40
3.000000000000000
 50
0.000000000000000
 51
90.000000000000000
  0
ARC
  8
0
  6
CONTINUOUS
 62
3
 10
-367.805816175162930
 20
-84.842849653180110
 40
3.000000000000000
 50
180.000000000000000
 51
270.000000000000000
  0
ARC
  8
0
  6
CONTINUOUS
 62
3
 10
-332.805816175162930
 20
-84.842849653180110
 40
3.000000000000000
 50
270.000000000000000
 51
0.000000000000000
  0
ARC
  8
0
  6
CONTINUOUS
 62
3
 10
-360.805816175162930
 20
-77.842849653180110
 40
10.000000000000000
 50
180.000000000000000
 51
270.000000000000000
  0
ARC
  8
0
  6
CONTINUOUS
 62
3
 10
-339.805816175162930
 20
-77.842849653180110
 40
10.000000000000000
 50
270.000000000000000
 51
0.000000000000000
  0
LINE
  8
0
  6
CONTINUOUS
 62
3
 10
-405.684624642939410
 20
-131.060236060217220
 11
-441.844121642047980
 21
-94.900739061109107
  0
LINE
  8
0
  6
CONTINUOUS
 62
3
 10
-401.100644576383160
 20
-126.451827971348560
 11
-437.153472584730140
 21
-90.398999963001643
  0
ARC
  8
0
  6
CONTINUOUS
 62
3
 10
-350.305816175162930
 20
-181.842850450280820
 40
125.000000000000020
 50
336.463102608948360
 51
338.871302745698980
  0
LINE
  8
0
  6
CONTINUOUS
 62
3
 10
-233.305816175162930
 20
-175.007728339058080
 11
-233.305816175162930
 21
-151.078423922789400
  0
LINE
  8
0
  6
DASHDOT
 62
4
 10
-336.945742798374000
 20
-149.842850450280110
 11
-367.095475674266370
 21
-149.842850450280110
  0
ARC
  8
0
  6
CONTINUOUS
 62
3
 10
-236.305816175162930
 20
-150.842849653179880
 40
3.000000000000000
 50
0.000000000000000
 51
90.000000000000000
  0
ARC
  8
0
  6
CONTINUOUS
 62
3
 10
-242.907754187413620
 20
-118.842849653179880
 40
3.000000000000000
 50
270.000000000000000
 51
23.148572820069919
  0
ARC
  8
0
  6
CONTINUOUS
 62
3
 10
-248.305816175162930
 20
-134.842849653179880
 40
13.000000000000000
 50
90.000000000000000
 51
270.000000000000000
  0
ARC
  8
0
  6
CONTINUOUS
 62
3
 10
-318.305816175162930
 20
-151.078423922789400
 40
85.000000000000000
 50
0.000000000000000
 51
85.577622414021803
  0
ARC
  8
0
  6
CONTINUOUS
 62
3
 10
-417.305816175162930
 20
-284.842849653180110
 40
10.000000000000053
 50
306.869864344412290
 51
315.572968020398260
  0
ARC
  8
0
  6
CONTINUOUS
 62
3
 10
-417.305816175162930
 20
-284.842849653180110
 40
10.000000000000156
 50
177.786725011996540
 51
233.130135655587680
  0
ARC
  8
0
  6
CONTINUOUS
 62
3
 10
-382.305816175162930
 20
-151.078423922789400
 40
84.999999999999972
 50
94.422377585978197
 51
180.000000000000000
  0
ARC
  8
0
  6
CONTINUOUS
 62
3
 10
-283.305816175162930
 20
-284.842849653180110
 40
10.000000000000158
 50
224.427031979599950
 51
233.130135655587680
  0
ARC
  8
0
  6
CONTINUOUS
 62
3
 10
-283.305816175162930
 20
-284.842849653180110
 40
10.000000000000053
 50
306.869864344412290
 51
2.213274988003464
  0
ARC
  8
0
  6
CONTINUOUS
 62
3
 10
-312.029737452527680
 20
-224.615450233998440
 40
37.999999999999943
 50
206.904793340023020
 51
354.370835208503820
  0
ARC
  8
0
  6
CONTINUOUS
 62
3
 10
-378.897225562224430
 20
-228.827223482827320
 40
29.499999999999911
 50
176.174628045369390
 51
333.835129630832680
  0
ARC
  8
0
  6
CONTINUOUS
 62
3
 10
-350.305816175162930
 20
-181.842850450280820
 40
124.999999999999970
 50
309.717052624579760
 51
332.211641912804960
  0
ARC
  8
0
  6
CONTINUOUS
 62
3
 10
-239.305816175162930
 20
-224.738071629335310
 40
6.000000000000148
 50
338.871302745699890
 51
0.000000000000000
  0
ARC
  8
0
  6
CONTINUOUS
 62
3
 10
-265.319244257386460
 20
-284.147701721687550
 40
8.000000000000190
 50
129.717052624580360
 51
182.213274988003520
  0
ARC
  8
0
  6
CONTINUOUS
 62
3
 10
-268.571482913743810
 20
-272.416018476530780
 40
2.999999999999736
 50
312.063479972927270
 51
45.000000000003077
  0
ARC
  8
0
  6
CONTINUOUS
 62
3
 10
-285.290929276326210
 20
-255.696572113948600
 40
2.999999999999864
 50
45.000000000000000
 51
130.705112768220120
  0
ARC
  8
0
  6
CONTINUOUS
 62
3
 10
-259.732648148912290
 20
-263.577183711699040
 40
2.999999999999864
 50
225.000000000000000
 51
317.936520027075630
  0
ARC
  8
0
  6
CONTINUOUS
 62
3
 10
-277.147842002146380
 20
-246.161989858464720
 40
3.000000000000064
 50
148.296383256602130
 51
224.999999999996960
  0
ARC
  8
0
  6
CONTINUOUS
 62
3
 10
-411.026155011914970
 20
-233.724354522200660
 40
2.999999999999864
 50
315.000000000000000
 51
8.666390951558663
  0
ARC
  8
0
  6
CONTINUOUS
 62
3
 10
-406.153272526966360
 20
-246.529141566915540
 40
2.999999999999769
 50
33.002416253121815
 51
134.999999999996930
  0
ARC
  8
0
  6
CONTINUOUS
 62
3
 10
-265.579480109155270
 20
-88.277679619442097
 40
2.999999999999864
 50
315.000000000000000
 51
49.983805954128798
  0
ARC
  8
0
  6
CONTINUOUS
 62
3
 10
-256.646190364718340
 20
-97.022059404668653
 40
3.000000000000097
 50
41.240714208219508
 51
135.000000000000000
  0
ARC
  8
0
  6
CONTINUOUS
 62
3
 10
-356.555816175162930
 20
-120.342850450280820
 40
2.999999999999680
 50
329.506039658948280
 51
0.000000000000000
  0
ARC
  8
0
  6
CONTINUOUS
 62
3
 10
-344.055816175162930
 20
-120.342850450280820
 40
3.000000000000000
 50
180.000000000000000
 51
210.493960341051750
  0
LINE
  8
0
  6
CONTINUOUS
 62
3
 10
-248.305816175162930
 20
-147.842849653179880
 11
-236.305816175162930
 21
-147.842849653179880
  0
LINE
  8
0
  6
CONTINUOUS
 62
3
 10
-248.305816175162930
 20
-121.842849653179880
 11
-242.907754187413620
 21
-121.842849653179880
  0
LINE
  8
0
  6
DASHDOT
 62
4
 10
-196.822324581568980
 20
-181.842850450280820
 11
-498.523144308995260
 21
-181.842850450280820
  0
LINE
  8
0
  6
CONTINUOUS
 62
3
 10
-233.305816175162930
 20
-224.738071629335310
 11
-233.305816175162930
 21
-200.826791031728870
  0
LINE
  8
0
  6
CONTINUOUS
 62
4
 10
-350.305816175162930
 20
-181.842850450280820
 11
-349.922410947137560
 21
-181.459445222255680
  0
LINE
  8
0
  6
CONTINUOUS
 62
3
 10
-411.305820824920940
 20
-292.842853140496570
 11
-423.305811525404920
 21
-292.842853140496570
  0
LINE
  8
0
  6
CONTINUOUS
 62
3
 10
-289.305811525404920
 20
-292.842853140496570
 11
-277.305820824920940
 21
-292.842853140496570
  0
LINE
  8
0
  6
CONTINUOUS
 62
3
 10
-350.305816175162930
 20
-291.842853140496570
 11
-410.164391164875840
 21
-291.842853140496570
  0
LINE
  8
0
  6
CONTINUOUS
 62
3
 10
-350.305816175162930
 20
-291.842853140496570
 11
-290.447241185450480
 21
-291.842853140496570
  0
LINE
  8
0
  6
CONTINUOUS
 62
3
 10
-283.169608932766660
 20
-253.575251770389060
 11
-266.450162570184260
 21
-270.294698132971010
  0
LINE
  8
0
  6
CONTINUOUS
 62
3
 10
-279.269162345706380
 20
-248.283310202024500
 11
-261.853968492471840
 21
-265.698504055258580
  0
LINE
  8
0
  6
CONTINUOUS
 62
3
 10
-408.904834668355420
 20
-235.845674865760200
 11
-438.757663857854480
 21
-265.698504055258580
  0
LINE
  8
0
  6
CONTINUOUS
 62
3
 10
-408.274592870525910
 20
-244.407821223355770
 11
-434.161469780142060
 21
-270.294698132971010
  0
LINE
  8
0
  6
CONTINUOUS
 62
3
 10
-299.526978323470080
 20
-126.467818520875820
 11
-263.458159765595720
 21
-90.398999963001643
  0
LINE
  8
0
  6
CONTINUOUS
 62
3
 10
-294.930784245757880
 20
-131.064012598588650
 11
-258.767510708277880
 21
-94.900739061109107
  0
LINE
  8
0
  6
CONTINUOUS
 62
3
 10
-353.555816175162930
 20
-120.342850450280820
 11
-353.555816175162930
 21
-90.842849653180110
  0
LINE
  8
0
  6
CONTINUOUS
 62
3
 10
-347.055816175162930
 20
-120.342850450280820
 11
-347.055816175162930
 21
-90.842849653180110
  0
ARC
  8
0
  6
CONTINUOUS
 62
3
 10
-464.305816175162930
 20
-150.842849653179880
 40
3.000000000000000
 50
90.000000000000000
 51
180.000000000000000
  0
ARC
  8
0
  6
CONTINUOUS
 62
3
 10
-457.703878162912250
 20
-118.842849653179880
 40
3.000000000000109
 50
156.851427179930060
 51
270.000000000000000
  0
ARC
  8
0
  6
CONTINUOUS
 62
3
 10
-350.305816175162930
 20
-181.842850450280820
 40
125.000000000000250
 50
201.128697254301100
 51
230.282947375420260
  0
ARC
  8
0
  6
CONTINUOUS
 62
3
 10
-461.305816175162930
 20
-224.738071629335540
 40
6.000000000000000
 50
180.000000000000000
 51
201.128697254300160
  0
LINE
  8
0
  6
CONTINUOUS
 62
3
 10
-452.305816175162930
 20
-147.842849653179880
 11
-464.305816175162930
 21
-147.842849653179880
  0
ARC
  8
0
  6
CONTINUOUS
 62
3
 10
-452.305816175162930
 20
-134.842849653179880
 40
13.000000000000000
 50
270.000000000000000
 51
90.000000000000000
  0
ARC
  8
0
  6
CONTINUOUS
 62
3
 10
-440.878984201414030
 20
-263.577183711698810
 40
3.000000000000057
 50
222.063479972927580
 51
314.999999999996870
  0
ARC
  8
0
  6
CONTINUOUS
 62
3
 10
-435.292388092939400
 20
-284.147701721687550
 40
7.999999999999943
 50
357.786725011996450
 51
50.282947375418615
  0
ARC
  8
0
  6
CONTINUOUS
 62
3
 10
-432.040149436582060
 20
-272.416018476530780
 40
3.000000000000024
 50
134.999999999996930
 51
227.936520027066310
  0
ARC
  8
0
  6
CONTINUOUS
 62
3
 10
-435.032152241170590
 20
-88.277679619442097
 40
3.000000000000087
 50
130.016194045871200
 51
225.000000000000000
  0
ARC
  8
0
  6
CONTINUOUS
 62
3
 10
-443.965441985607530
 20
-97.022059404668653
 40
2.999999999999864
 50
45.000000000000000
 51
138.759285791780480
  0
LINE
  8
0
  6
CONTINUOUS
 62
3
 10
-452.305816175162930
 20
-121.842849653179880
 11
-457.703878162912250
 21
-121.842849653179880
  0
LINE
  8
0
  6
CONTINUOUS
 62
3
 10
-467.305816175162930
 20
-224.738071629335540
 11
-467.305816175162930
 21
-151.078423922789400
  0
ARC
  8
0
  6
CONTINUOUS
 62
3
 10
-350.305816175162930
 20
-564.842849653180110
 40
499.999999999999940
 50
85.577622414021945
 51
87.650214394539574
  0
ARC
  8
0
  6
CONTINUOUS
 62
3
 10
-350.305816175162930
 20
-564.842849653180110
 40
499.999999999999940
 50
92.349785605460426
 51
94.422377585978055
  0
LINE
  8
0
  6
CONTINUOUS
 62
3
 10
-347.055816175162930
 20
-59.299989812868944
 11
-347.055816175162930
 21
-40.385709493491277
  0
LINE
  8
0
  6
CONTINUOUS
 62
3
 10
-353.555816175162930
 20
-59.299989812868944
 11
-353.555816175162930
 21
-40.385709493491277
  0
ARC
  8
0
  6
CONTINUOUS
 62
3
 10
-344.055816175162930
 20
-27.842884227432705
 40
3.000000000000000
 50
90.000000000000000
 51
180.000000000000000
  0
ARC
  8
0
  6
CONTINUOUS
 62
3
 10
-269.486157645870780
 20
-77.862025888720154
 40
3.000000000000024
 50
134.999999999996930
 51
236.305204991196890
  0
ARC
  8
0
  6
CONTINUOUS
 62
3
 10
-431.125474704455090
 20
-77.862025888720154
 40
2.999999999999801
 50
303.694795008803110
 51
45.000000000003077
  0
ARC
  8
0
  6
CONTINUOUS
 62
3
 10
-246.589701097637430
 20
-54.965569340486581
 40
3.000000000000009
 50
42.451607436421085
 51
134.999999999996930
  0
ARC
  8
0
  6
CONTINUOUS
 62
3
 10
-280.781633873929080
 20
-71.479832587114743
 40
3.000000000000066
 50
244.759981864147700
 51
315.000000000000000
  0
ARC
  8
0
  6
CONTINUOUS
 62
3
 10
-255.428535862469400
 20
-46.126734575654382
 40
3.000000000000346
 50
315.000000000003070
 51
47.548392563578922
  0
ARC
  8
0
  6
CONTINUOUS
 62
3
 10
-454.021931252688430
 20
-54.965569340486354
 40
2.999999999999864
 50
45.000000000000000
 51
137.548392563582130
  0
ARC
  8
0
  6
CONTINUOUS
 62
3
 10
-445.183096487856460
 20
-46.126734575654382
 40
3.000000000000009
 50
132.451607436421090
 51
224.999999999996960
  0
CIRCLE
  8
0
  6
CONTINUOUS
 62
3
 10
-230.097663373459110
 20
-29.634696851457875
 40
9.500000000000000
  0
ARC
  8
0
  6
CONTINUOUS
 62
3
 10
-220.305816175162930
 20
-19.842849653180338
 40
10.000000000000000
 50
0.000000000000000
 51
90.000000000000000
  0
ARC
  8
0
  6
CONTINUOUS
 62
3
 10
-417.305816175162930
 20
-284.842849653180340
 40
10.000000000000053
 50
306.869864344412290
 51
315.572968020400030
  0
ARC
  8
0
  6
CONTINUOUS
 62
3
 10
-419.829998476396780
 20
-71.479832587114743
 40
2.999999999999864
 50
225.000000000000000
 51
295.240018135852320
  0
ARC
  8
0
  6
CONTINUOUS
 62
3
 10
-283.305816175162930
 20
-284.842849653180340
 40
10.000000000000158
 50
224.427031979599950
 51
233.130135655587680
  0
CIRCLE
  8
0
  6
CONTINUOUS
 62
3
 10
-470.513968976885390
 20
-29.634696851476974
 40
9.500000000000000
  0
ARC
  8
0
  6
CONTINUOUS
 62
3
 10
-480.305816175162930
 20
-19.842849653180338
 40
10.000000000000000
 50
90.000000000000000
 51
180.000000000000000
  0
CIRCLE
  8
0
  6
CONTINUOUS
 62
3
 10
-230.097663373440010
 20
-270.051002454884160
 40
9.500000000000000
  0
ARC
  8
0
  6
CONTINUOUS
 62
3
 10
-220.305816175162930
 20
-279.842849653180340
 40
10.000000000000000
 50
270.000000000000000
 51
0.000000000000000
  0
CIRCLE
  8
0
  6
CONTINUOUS
 62
3
 10
-470.513968976866290
 20
-270.051002454903260
 40
9.500000000000000
  0
ARC
  8
0
  6
CONTINUOUS
 62
3
 10
-480.305816175162930
 20
-279.842849653180340
 40
10.000000000000000
 50
180.000000000000000
 51
270.000000000000000
  0
ARC
  8
0
  6
CONTINUOUS
 62
3
 10
-356.555816175162930
 20
-27.842884227432705
 40
3.000000000000000
 50
0.000000000000000
 51
90.000000000000000
  0
LINE
  8
0
  6
CONTINUOUS
 62
3
 10
-271.607477989430320
 20
-75.740705545160381
 11
-248.711021441196980
 21
-52.844248996926808
  0
LINE
  8
0
  6
CONTINUOUS
 62
3
 10
-278.660313530369540
 20
-73.601152930674289
 11
-253.307215518909400
 21
-48.248054919214155
  0
LINE
  8
0
  6
CONTINUOUS
 62
3
 10
-480.305816175162930
 20
-9.842849653180338
 11
-220.305816175162930
 21
-9.842849653180338
  0
LINE
  8
0
  6
CONTINUOUS
 62
3
 10
-411.305820824920940
 20
-292.842853140496800
 11
-423.305811525404920
 21
-292.842853140496800
  0
LINE
  8
0
  6
CONTINUOUS
 62
3
 10
-210.305816175162930
 20
-279.842849653180340
 11
-210.305816175162930
 21
-19.842849653180338
  0
LINE
  8
0
  6
CONTINUOUS
 62
3
 10
-274.645562137318510
 20
-289.842849653180340
 11
-220.305816175162930
 21
-289.842849653180340
  0
LINE
  8
0
  6
CONTINUOUS
 62
3
 10
-490.305816175162930
 20
-279.842849653180340
 11
-490.305816175162930
 21
-19.842849653180338
  0
LINE
  8
0
  6
CONTINUOUS
 62
3
 10
-480.305816175162930
 20
-289.842849653180340
 11
-425.966070213007360
 21
-289.842849653180340
  0
LINE
  8
0
  6
CONTINUOUS
 62
3
 10
-421.951318819956330
 20
-73.601152930674289
 11
-447.304416831416460
 21
-48.248054919214155
  0
LINE
  8
0
  6
CONTINUOUS
 62
3
 10
-429.004154360895540
 20
-75.740705545160381
 11
-451.900610909128890
 21
-52.844248996926808
  0
LINE
  8
0
  6
CONTINUOUS
 62
3
 10
-370.805816175162930
 20
-39.842849653180110
 11
-370.805816175162930
 21
-65.263276411839342
  0
CIRCLE
  8
0
  6
CONTINUOUS
 62
3
 10
-350.305816175162930
 20
-49.842849653180110
 40
10.000000000000000
  0
LINE
  8
0
  6
DASHDOT
 62
4
 10
-327.137903176281380
 20
-49.842849653180110
 11
-374.160417077816080
 21
-49.842849653180110
  0
ARC
  8
0
  6
CONTINUOUS
 62
3
 10
-360.805816175162930
 20
-39.842849653180110
 40
10.000000000000000
 50
90.000000000000000
 51
180.000000000000000
  0
LINE
  8
0
  6
CONTINUOUS
 62
3
 10
-339.805816175162930
 20
-29.842849653180110
 11
-360.805816175162930
 21
-29.842849653180110
  0
ARC
  8
0
  6
CONTINUOUS
 62
3
 10
-339.805816175162930
 20
-39.842849653180110
 40
10.000000000000000
 50
0.000000000000000
 51
90.000000000000000
  0
LINE
  8
0
  6
CONTINUOUS
 62
3
 10
-329.805816175162930
 20
-39.842849653180110
 11
-329.805816175162930
 21
-65.263276411839342
  0
LINE
  8
0
  6
CONTINUOUS
 62
3
 10
-347.055816175162930
 20
-29.842849653180110
 11
-347.055816175162930
 21
-27.842884227432705
  0
LINE
  8
0
  6
CONTINUOUS
 62
3
 10
-353.555816175162930
 20
-29.842849653180110
 11
-353.555816175162930
 21
-27.842884227432705
  0
LINE
  8
0
  6
CONTINUOUS
 62
3
 10
-417.305811470174260
 20
-288.306947828928970
 11
-414.305818598062500
 21
-286.574895871212900
  0
LINE
  8
0
  6
CONTINUOUS
 62
3
 10
-417.305822793764610
 20
-281.378752756794480
 11
-420.305813601111940
 21
-283.110802871043690
  0
LINE
  8
0
  6
CONTINUOUS
 62
3
 10
-420.305814287256570
 20
-286.574901045958770
 11
-417.305811710750850
 21
-288.306948018595220
  0
LINE
  8
0
  6
CONTINUOUS
 62
3
 10
-417.305822876883780
 20
-281.378752653244870
 11
-414.305818235611350
 21
-283.110797831474660
  0
LINE
  8
0
  6
CONTINUOUS
 62
3
 10
-420.305812837303730
 20
-283.110802699954550
 11
-420.305813790978050
 21
-286.574900676639120
  0
LINE
  8
0
  6
CONTINUOUS
 62
3
 10
-414.305819513021900
 20
-286.574895652731360
 11
-414.305818559347810
 21
-283.110797676046790
  0
CIRCLE
  8
0
  6
CONTINUOUS
 62
3
 10
-417.305816175162930
 20
-284.842849653180110
 40
6.500000000000000
  0
CIRCLE
  8
0
  6
CONTINUOUS
 62
3
 10
-417.305816175162930
 20
-284.842849653180110
 40
5.633955001831055
  0
LINE
  8
0
  6
CONTINUOUS
 62
3
 10
-283.305820880151600
 20
-288.306947828928970
 11
-286.305813752263360
 21
-286.574895871212900
  0
LINE
  8
0
  6
CONTINUOUS
 62
3
 10
-283.305809556561260
 20
-281.378752756794480
 11
-280.305818749213930
 21
-283.110802871043690
  0
LINE
  8
0
  6
CONTINUOUS
 62
3
 10
-280.305818063069300
 20
-286.574901045959000
 11
-283.305820639575130
 21
-288.306948018595220
  0
LINE
  8
0
  6
CONTINUOUS
 62
3
 10
-283.305809473442080
 20
-281.378752653244870
 11
-286.305814114714510
 21
-283.110797831474430
  0
LINE
  8
0
  6
CONTINUOUS
 62
3
 10
-280.305819513022240
 20
-283.110802699954550
 11
-280.305818559347930
 21
-286.574900676639120
  0
LINE
  8
0
  6
CONTINUOUS
 62
3
 10
-286.305812837303960
 20
-286.574895652731360
 11
-286.305813790978160
 21
-283.110797676046790
  0
CIRCLE
  8
0
  6
CONTINUOUS
 62
3
 10
-283.305816175162930
 20
-284.842849653180110
 40
6.500000000000000
  0
CIRCLE
  8
0
  6
CONTINUOUS
 62
3
 10
-283.305816175162930
 20
-284.842849653180110
 40
5.633955001831055
  0
LINE
  8
0
  6
CONTINUOUS
 62
3
 10
-243.305820880151600
 20
-230.306947828928970
 11
-246.305813752263360
 21
-228.574895871212900
  0
LINE
  8
0
  6
CONTINUOUS
 62
3
 10
-241.083397202594030
 20
-229.023835191931480
 11
-243.305820639575130
 21
-230.306948018595220
  0
LINE
  8
0
  6
CONTINUOUS
 62
3
 10
-246.305812837303960
 20
-228.574895652731360
 11
-246.305812901186530
 21
-228.342850450280820
  0
ARC
  8
0
  6
CONTINUOUS
 62
3
 10
-243.305816175162930
 20
-226.842849653180110
 40
6.499999999999966
 50
193.342371018229530
 51
304.129640101466980
  0
ARC
  8
0
  6
CONTINUOUS
 62
3
 10
-243.305816175162930
 20
-226.842849653180110
 40
5.633955001831093
 50
195.440822143987110
 51
305.707265004868020
  0
LINE
  8
0
  6
CONTINUOUS
 62
3
 10
-283.305820880151600
 20
-88.306947828928514
 11
-286.305813752263360
 21
-86.574895871212448
  0
LINE
  8
0
  6
CONTINUOUS
 62
3
 10
-283.305809556561260
 20
-81.378752756794029
 11
-280.305818749213930
 21
-83.110802871043234
  0
LINE
  8
0
  6
CONTINUOUS
 62
3
 10
-280.305818063069300
 20
-86.574901045958541
 11
-283.305820639575130
 21
-88.306948018594767
  0
LINE
  8
0
  6
CONTINUOUS
 62
3
 10
-283.305809473442080
 20
-81.378752653244419
 11
-286.305814114714510
 21
-83.110797831473974
  0
LINE
  8
0
  6
CONTINUOUS
 62
3
 10
-280.305819513022240
 20
-83.110802699954093
 11
-280.305818559347930
 21
-86.574900676638663
  0
LINE
  8
0
  6
CONTINUOUS
 62
3
 10
-286.305812837303960
 20
-86.574895652730902
 11
-286.305813790978160
 21
-83.110797676046332
  0
CIRCLE
  8
0
  6
CONTINUOUS
 62
3
 10
-283.305816175162930
 20
-84.842849653179655
 40
6.500000000000000
  0
CIRCLE
  8
0
  6
CONTINUOUS
 62
3
 10
-283.305816175162930
 20
-84.842849653179655
 40
5.633955001831055
  0
LINE
  8
0
  6
CONTINUOUS
 62
3
 10
-339.805809556561260
 20
-74.378752756794484
 11
-336.805818749213930
 21
-76.110802871043688
  0
LINE
  8
0
  6
CONTINUOUS
 62
3
 10
-339.805809473442080
 20
-74.378752653244874
 11
-342.805814114714510
 21
-76.110797831474429
  0
LINE
  8
0
  6
CONTINUOUS
 62
3
 10
-360.805822793764610
 20
-74.378752756794484
 11
-363.805813601111940
 21
-76.110802871043688
  0
LINE
  8
0
  6
CONTINUOUS
 62
3
 10
-360.805822876883780
 20
-74.378752653244874
 11
-357.805818235611350
 21
-76.110797831474656
  0
LINE
  8
0
  6
CONTINUOUS
 62
3
 10
-417.305811470174260
 20
-88.306947828928514
 11
-414.305818598062500
 21
-86.574895871212448
  0
LINE
  8
0
  6
CONTINUOUS
 62
3
 10
-417.305822793764610
 20
-81.378752756794029
 11
-420.305813601111940
 21
-83.110802871043234
  0
LINE
  8
0
  6
CONTINUOUS
 62
3
 10
-420.305814287256570
 20
-86.574901045958313
 11
-417.305811710750850
 21
-88.306948018594767
  0
LINE
  8
0
  6
CONTINUOUS
 62
3
 10
-417.305822876883780
 20
-81.378752653244419
 11
-414.305818235611350
 21
-83.110797831474201
  0
LINE
  8
0
  6
CONTINUOUS
 62
3
 10
-420.305812837303730
 20
-83.110802699954093
 11
-420.305813790978050
 21
-86.574900676638663
  0
LINE
  8
0
  6
CONTINUOUS
 62
3
 10
-414.305819513021900
 20
-86.574895652730902
 11
-414.305818559347810
 21
-83.110797676046332
  0
CIRCLE
  8
0
  6
CONTINUOUS
 62
3
 10
-417.305816175162930
 20
-84.842849653179655
 40
6.500000000000000
  0
CIRCLE
  8
0
  6
CONTINUOUS
 62
3
 10
-417.305816175162930
 20
-84.842849653179655
 40
5.633955001831055
  0
LINE
  8
0
  6
CONTINUOUS
 62
3
 10
-456.305811470174490
 20
-164.306947828928510
 11
-453.305818598062500
 21
-162.574895871212450
  0
LINE
  8
0
  6
CONTINUOUS
 62
3
 10
-456.305822793764610
 20
-157.378752756794030
 11
-459.305813601111940
 21
-159.110802871043230
  0
LINE
  8
0
  6
CONTINUOUS
 62
3
 10
-459.305814287256570
 20
-162.574901045958310
 11
-456.305811710750850
 21
-164.306948018594770
  0
LINE
  8
0
  6
CONTINUOUS
 62
3
 10
-456.305822876883780
 20
-157.378752653244420
 11
-453.305818235611350
 21
-159.110797831474200
  0
LINE
  8
0
  6
CONTINUOUS
 62
3
 10
-459.305812837303730
 20
-159.110802699954090
 11
-459.305813790978050
 21
-162.574900676638660
  0
LINE
  8
0
  6
CONTINUOUS
 62
3
 10
-453.305819513022130
 20
-162.574895652730900
 11
-453.305818559347810
 21
-159.110797676046330
  0
CIRCLE
  8
0
  6
CONTINUOUS
 62
3
 10
-456.305816175162930
 20
-160.842849653179660
 40
6.500000000000000
  0
CIRCLE
  8
0
  6
CONTINUOUS
 62
3
 10
-456.305816175162930
 20
-160.842849653179660
 40
5.633955001831055
  0
LINE
  8
0
  6
CONTINUOUS
 62
3
 10
-457.305811470174490
 20
-230.306947828928970
 11
-454.305818598062500
 21
-228.574895871212900
  0
LINE
  8
0
  6
CONTINUOUS
 62
3
 10
-457.305822793764610
 20
-223.378752756794480
 11
-460.305813601111940
 21
-225.110802871043690
  0
LINE
  8
0
  6
CONTINUOUS
 62
3
 10
-460.305814287256570
 20
-228.574901045958770
 11
-457.305811710750850
 21
-230.306948018595220
  0
LINE
  8
0
  6
CONTINUOUS
 62
3
 10
-457.305822876883780
 20
-223.378752653244870
 11
-454.305818235611350
 21
-225.110797831474660
  0
LINE
  8
0
  6
CONTINUOUS
 62
3
 10
-460.305812837303730
 20
-225.110802699954550
 11
-460.305813790978050
 21
-228.574900676639120
  0
LINE
  8
0
  6
CONTINUOUS
 62
3
 10
-454.305819513022130
 20
-228.574895652731360
 11
-454.305818559347810
 21
-225.110797676046790
  0
CIRCLE
  8
0
  6
CONTINUOUS
 62
3
 10
-457.305816175162930
 20
-226.842849653180110
 40
6.500000000000000
  0
CIRCLE
  8
0
  6
CONTINUOUS
 62
3
 10
-457.305816175162930
 20
-226.842849653180110
 40
5.633955001831055
  0
LINE
  8
0
  6
DASHDOT
 62
4
 10
-249.543099856087680
 20
-49.080133334089396
 11
-210.652226890830550
 21
-10.189260368826353
  0
ARC
  8
0
  6
DASHDOT
 62
4
 10
-350.305816175162930
 20
-149.842849653180110
 40
170.000000000000000
 50
35.731148316814739
 51
54.268851683185268
  0
LINE
  8
0
  6
DASHDOT
 62
4
 10
-451.068532494253870
 20
-49.080133334105540
 11
-489.959405459516920
 21
-10.189260368848409
  0
ARC
  8
0
  6
DASHDOT
 62
4
 10
-350.305816175162930
 20
-149.842849653180110
 40
169.999999999999550
 50
125.731148316820040
 51
144.268851683189010
  0
LINE
  8
0
  6
DASHDOT
 62
4
 10
-451.068532494237960
 20
-250.605565972271510
 11
-489.959405459494630
 21
-289.496438937535000
  0
ARC
  8
0
  6
DASHDOT
 62
4
 10
-350.305816175162930
 20
-149.842849653180110
 40
170.000000000000310
 50
215.731148316814770
 51
234.268851683185320
  0
LINE
  8
0
  6
DASHDOT
 62
4
 10
-249.543099856071540
 20
-250.605565972255590
 11
-210.652226890808490
 21
-289.496438937512720
  0
ARC
  8
0
  6
DASHDOT
 62
4
 10
-350.305816175162930
 20
-149.842849653180110
 40
170.000000000000630
 50
305.731148316820000
 51
324.268851683189040
  0
LINE
  8
0
  6
CONTINUOUS
 62
3
 10
-0.761597923953104
 20
51.157149549719179
 11
-0.761597923953104
 21
168.157149549719180
  0
ARC
  8
0
  6
CONTINUOUS
 62
3
 10
-16.761597923952877
 20
77.157149549719179
 40
2.000000000000000
 50
90.000000000000000
 51
180.000000000000000
  0
LINE
  8
0
  6
CONTINUOUS
 62
3
 10
-13.761597923952877
 20
79.157149549718724
 11
-16.761597923952877
 21
79.157149549719179
  0
ARC
  8
0
  6
CONTINUOUS
 62
3
 10
-13.761597923952877
 20
81.157149549718724
 40
2.000000000000000
 50
270.000000000000000
 51
0.000000000000000
  0
LINE
  8
0
  6
CONTINUOUS
 62
3
 10
-18.761597923952877
 20
77.157149549719179
 11
-18.761597923952877
 21
54.157149549719179
  0
LINE
  8
0
  6
CONTINUOUS
 62
3
 10
-0.261597923953104
 20
51.157149549719179
 11
-15.761597923953104
 21
51.157149549719179
  0
ARC
  8
0
  6
CONTINUOUS
 62
3
 10
-15.761597923953104
 20
54.157149549719179
 40
2.999999999999773
 50
180.000000000000000
 51
270.000000000000000
  0
ARC
  8
0
  6
CONTINUOUS
 62
3
 10
-8.761597923953104
 20
54.157149549719179
 40
3.000000000000000
 50
180.000000000000000
 51
270.000000000000000
  0
LINE
  8
0
  6
CONTINUOUS
 62
3
 10
-16.499918142738807
 20
107.831114914615680
 11
-32.261597923952195
 21
108.657149549719170
  0
ARC
  8
0
  6
CONTINUOUS
 62
3
 10
-14.761597923953104
 20
144.657149549719180
 40
3.000000000000000
 50
0.000000000000000
 51
90.000000000000000
  0
ARC
  8
0
  6
CONTINUOUS
 62
3
 10
-20.761597923952877
 20
150.657149549719180
 40
3.000000000000000
 50
180.000000000000000
 51
270.000000000000000
  0
LINE
  8
0
  6
CONTINUOUS
 62
3
 10
-23.761597923952650
 20
168.157149549719180
 11
-23.761597923952877
 21
147.657149549719180
  0
LINE
  8
0
  6
CONTINUOUS
 62
3
 10
-28.261597923963791
 20
147.657149549719180
 11
-28.261597923962427
 21
168.157149549719180
  0
LINE
  8
0
  6
CONTINUOUS
 62
3
 10
-28.261597923963791
 20
147.657149549719180
 11
-23.761597923953104
 21
147.657149549719180
  0
LINE
  8
0
  6
CONTINUOUS
 62
3
 10
-20.761597923952877
 20
147.657149549719180
 11
-14.761597923953104
 21
147.657149549719180
  0
LINE
  8
0
  6
CONTINUOUS
 62
3
 10
-11.761597923953104
 20
54.157149549719179
 11
-11.761597923953104
 21
144.657149549719180
  0
LINE
  8
0
  6
CONTINUOUS
 62
3
 10
-32.261597923952195
 20
151.157149549719180
 11
-32.261597923952195
 21
108.657149549719170
  0
ARC
  8
0
  6
CONTINUOUS
 62
3
 10
-16.761597923953104
 20
102.837967240842770
 40
4.999999999999811
 50
74.544229700534345
 51
87.000000000004846
  0
LINE
  8
0
  6
CONTINUOUS
 62
3
 10
-0.761597923953104
 20
285.157149549719180
 11
-0.761597923953104
 21
168.157149549719180
  0
ARC
  8
0
  6
CONTINUOUS
 62
3
 10
-16.761597923952877
 20
259.157149549719180
 40
2.000000000000000
 50
180.000000000000000
 51
270.000000000000000
  0
LINE
  8
0
  6
CONTINUOUS
 62
3
 10
-13.761597923952877
 20
257.157149549719630
 11
-16.761597923952877
 21
257.157149549719180
  0
ARC
  8
0
  6
CONTINUOUS
 62
3
 10
-13.761597923952877
 20
255.157149549719630
 40
2.000000000000000
 50
0.000000000000000
 51
90.000000000000000
  0
LINE
  8
0
  6
CONTINUOUS
 62
3
 10
-18.761597923952877
 20
259.157149549719180
 11
-18.761597923952877
 21
282.157149549719180
  0
LINE
  8
0
  6
CONTINUOUS
 62
3
 10
-0.261597923953104
 20
285.157149549719180
 11
-15.761597923953104
 21
285.157149549719180
  0
ARC
  8
0
  6
CONTINUOUS
 62
3
 10
-15.761597923953104
 20
282.157149549719180
 40
3.000000000000000
 50
90.000000000000000
 51
180.000000000000000
  0
ARC
  8
0
  6
CONTINUOUS
 62
3
 10
-8.761597923953104
 20
282.157149549719180
 40
3.000000000000000
 50
90.000000000000000
 51
180.000000000000000
  0
LINE
  8
0
  6
CONTINUOUS
 62
3
 10
-16.499918142738807
 20
228.483184184822680
 11
-32.261597923952195
 21
227.657149549719180
  0
ARC
  8
0
  6
CONTINUOUS
 62
3
 10
-14.761597923953104
 20
191.657149549719180
 40
3.000000000000000
 50
270.000000000000000
 51
0.000000000000000
  0
ARC
  8
0
  6
CONTINUOUS
 62
3
 10
-20.761597923952877
 20
185.657149549719180
 40
3.000000000000000
 50
90.000000000000000
 51
180.000000000000000
  0
LINE
  8
0
  6
CONTINUOUS
 62
3
 10
-23.761597923952650
 20
168.157149549719180
 11
-23.761597923952877
 21
188.657149549719180
  0
LINE
  8
0
  6
CONTINUOUS
 62
3
 10
-28.261597923963791
 20
188.657149549719180
 11
-28.261597923962427
 21
168.157149549719180
  0
LINE
  8
0
  6
CONTINUOUS
 62
3
 10
-28.261597923963791
 20
188.657149549719180
 11
-23.761597923953104
 21
188.657149549719180
  0
LINE
  8
0
  6
CONTINUOUS
 62
3
 10
-20.761597923952877
 20
188.657149549719180
 11
-14.761597923953104
 21
188.657149549719180
  0
LINE
  8
0
  6
CONTINUOUS
 62
3
 10
-11.761597923953104
 20
282.157149549719180
 11
-11.761597923953104
 21
191.657149549719180
  0
LINE
  8
0
  6
CONTINUOUS
 62
3
 10
-32.261597923952195
 20
185.157149549719180
 11
-32.261597923952195
 21
227.657149549719180
  0
ARC
  8
0
  6
CONTINUOUS
 62
3
 10
-16.761597923953104
 20
233.476331858595590
 40
5.000000000000018
 50
272.999999999995110
 51
285.455770299465660
  0
LINE
  8
0
  6
DASHDOT
 62
4
 10
135.931337916305670
 20
288.365302351422540
 11
81.999778522322913
 21
288.365302351422540
  0
LINE
  8
0
  6
DASHDOT
 62
4
 10
135.931337916305670
 20
47.948996747996716
 11
81.999778522322913
 21
47.948996747996716
  0
LINE
  8
0
  6
CONTINUOUS
 62
3
 10
136.738408127252110
 20
148.157135885131990
 11
136.738408127252110
 21
145.157135885131990
  0
ARC
  8
0
  6
CONTINUOUS
 62
3
 10
133.338408127252020
 20
189.607135885131810
 40
1.599999999999909
 50
180.000000000000000
 51
270.000000000000000
  0
LINE
  8
0
  6
CONTINUOUS
 62
3
 10
134.238415253120820
 20
188.007135885131450
 11
133.338408127252020
 21
188.007135885131450
  0
LINE
  8
0
  6
CONTINUOUS
 62
3
 10
131.338408127252020
 20
190.657135885131990
 11
131.738408127252110
 21
190.257135885131450
  0
LINE
  8
0
  6
CONTINUOUS
 62
3
 10
131.338408127252020
 20
190.657135885131990
 11
129.738408127253020
 21
190.657135885131990
  0
LINE
  8
0
  6
CONTINUOUS
 62
3
 10
131.738408127252110
 20
168.157135885131990
 11
131.738408127252110
 21
190.257135885131450
  0
LINE
  8
0
  6
CONTINUOUS
 62
3
 10
134.798222874256230
 20
188.157135885131080
 11
134.238415253120820
 21
188.007135885131450
  0
LINE
  8
0
  6
CONTINUOUS
 62
3
 10
131.338408127252020
 20
145.657135885131990
 11
129.738408127253020
 21
145.657135885131990
  0
ARC
  8
0
  6
CONTINUOUS
 62
3
 10
133.338408127252020
 20
146.707135885132170
 40
1.599999999999454
 50
90.000000000000000
 51
180.000000000000000
  0
LINE
  8
0
  6
CONTINUOUS
 62
3
 10
134.238415253120820
 20
148.307135885131630
 11
133.338408127252020
 21
148.307135885131630
  0
LINE
  8
0
  6
CONTINUOUS
 62
3
 10
131.338408127252020
 20
145.657135885131990
 11
131.738408127252110
 21
146.057135885131630
  0
LINE
  8
0
  6
CONTINUOUS
 62
3
 10
131.738408127252110
 20
168.157135885131990
 11
131.738408127252110
 21
146.057135885131630
  0
LINE
  8
0
  6
CONTINUOUS
 62
3
 10
134.798222874256230
 20
148.157135885131990
 11
134.238415253120820
 21
148.307135885131630
  0
LINE
  8
0
  6
CONTINUOUS
 62
3
 10
191.738415253120820
 20
145.157135885131990
 11
136.738415253120820
 21
145.157135885131990
  0
ARC
  8
0
  6
CONTINUOUS
 62
3
 10
191.338408127252020
 20
187.757135885131450
 40
0.400000000000091
 50
0.000000000000000
 51
90.000000000000000
  0
LINE
  8
0
  6
CONTINUOUS
 62
3
 10
191.338408127252020
 20
188.157135885131990
 11
134.798222874256680
 21
188.157135885131080
  0
LINE
  8
0
  6
CONTINUOUS
 62
3
 10
191.738408127252110
 20
168.157135885131990
 11
191.738408127252110
 21
187.757135885131450
  0
LINE
  8
0
  6
CONTINUOUS
 62
3
 10
191.338408127252020
 20
148.157135885131990
 11
134.798222874256680
 21
148.157135885131990
  0
LINE
  8
0
  6
CONTINUOUS
 62
3
 10
191.738408127252110
 20
168.157135885131990
 11
191.738408127252110
 21
145.157135885131990
  0
ARC
  8
0
  6
CONTINUOUS
 62
3
 10
191.338408127252020
 20
148.557135885131630
 40
0.399999999999636
 50
270.000000000000000
 51
0.000000000000000
  0
ARC
  8
0
  6
CONTINUOUS
 62
3
 10
96.238408127253024
 20
69.270232273367583
 40
3.000000000000000
 50
0.000000000000000
 51
37.200872172621111
  0
LINE
  8
0
  6
CONTINUOUS
 62
3
 10
78.616932784336313
 20
97.446800967876243
 11
98.627970270910509
 21
71.084065992758042
  0
ARC
  8
0
  6
CONTINUOUS
 62
3
 10
76.227370640678600
 20
95.632967248485329
 40
3.000000000000254
 50
37.200872172625409
 51
90.000000000000000
  0
ARC
  8
0
  6
CONTINUOUS
 62
3
 10
76.227370640678600
 20
89.794132483652902
 40
3.000000000000254
 50
37.200872172625409
 51
90.000000000000000
  0
ARC
  8
0
  6
CONTINUOUS
 62
3
 10
96.238408127253024
 20
63.431397508535156
 40
3.000000000000000
 50
0.000000000000000
 51
37.200872172621111
  0
LINE
  8
0
  6
CONTINUOUS
 62
3
 10
78.616932784336313
 20
91.607966203043816
 11
98.627970270910509
 21
65.245231227925615
  0
LINE
  8
0
  6
CONTINUOUS
 62
3
 10
96.206425974620970
 20
98.632967248485329
 11
80.609604171956335
 21
98.632967248485329
  0
ARC
  8
0
  6
CONTINUOUS
 62
3
 10
76.227370640678600
 20
246.520166615785460
 40
3.000000000000000
 50
270.000000000000000
 51
322.799127827374600
  0
ARC
  8
0
  6
CONTINUOUS
 62
3
 10
96.238408127253024
 20
272.882901590903200
 40
2.999999999999797
 50
322.799127827378920
 51
0.000000000000000
  0
LINE
  8
0
  6
CONTINUOUS
 62
3
 10
78.616932784336313
 20
244.706332896394540
 11
98.627970270910509
 21
271.069067871512740
  0
ARC
  8
0
  6
CONTINUOUS
 62
3
 10
76.227370640678600
 20
240.681331850953030
 40
3.000000000000000
 50
270.000000000000000
 51
322.799127827374600
  0
ARC
  8
0
  6
CONTINUOUS
 62
3
 10
96.238408127253024
 20
267.044066826070780
 40
2.999999999999797
 50
322.799127827378920
 51
0.000000000000000
  0
LINE
  8
0
  6
CONTINUOUS
 62
3
 10
78.616932784336313
 20
238.867498131562120
 11
98.627970270910509
 21
265.230233106680320
  0
LINE
  8
0
  6
CONTINUOUS
 62
3
 10
96.206425974620970
 20
237.681331850953030
 11
80.609604171956335
 21
237.681331850953030
  0
ARC
  8
0
  6
CONTINUOUS
 62
3
 10
80.716555113772756
 20
174.407149549719180
 40
3.000000000000000
 50
180.000000000000000
 51
270.000000000000000
  0
ARC
  8
0
  6
CONTINUOUS
 62
3
 10
80.716555113772756
 20
161.907149549719180
 40
3.000000000000000
 50
90.000000000000000
 51
180.000000000000000
  0
ARC
  8
0
  6
CONTINUOUS
 62
3
 10
96.238408127253024
 20
161.907149549719180
 40
3.000000000000000
 50
0.000000000000000
 51
90.000000000000000
  0
ARC
  8
0
  6
CONTINUOUS
 62
3
 10
96.238408127253024
 20
174.407149549719180
 40
3.000000000000000
 50
270.000000000000000
 51
0.000000000000000
  0
LINE
  8
0
  6
CONTINUOUS
 62
3
 10
80.716555113772756
 20
164.907149549719180
 11
96.238408127253024
 21
164.907149549719180
  0
LINE
  8
0
  6
CONTINUOUS
 62
3
 10
80.716555113772756
 20
171.407149549719180
 11
96.238408127253024
 21
171.407149549719180
  0
LINE
  8
0
  6
CONTINUOUS
 62
3
 10
-0.261597923953104
 20
51.157149549719179
 11
93.447805107467957
 21
47.884745087249939
  0
ARC
  8
0
  6
CONTINUOUS
 62
3
 10
93.238408127253024
 20
41.888400125135377
 40
6.000000000000000
 50
0.000000000000000
 51
88.000000000000682
  0
LINE
  8
0
  6
CONTINUOUS
 62
3
 10
-0.261597923953104
 20
285.157149549719180
 11
93.447805107467957
 21
288.429554012188420
  0
LINE
  8
0
  6
DASHDOT
 62
4
 10
-191.780728984047070
 20
168.157149549719180
 11
208.684459377497430
 21
168.157149549719180
  0
LINE
  8
0
  6
CONTINUOUS
 62
3
 10
-0.261597923953104
 20
285.157149549719630
 11
-0.261597923953104
 21
51.157149549719179
  0
LINE
  8
0
  6
CONTINUOUS
 62
3
 10
117.238408127253020
 20
308.157135885131990
 11
102.238408127252790
 21
308.157135885131990
  0
LINE
  8
0
  6
CONTINUOUS
 62
3
 10
120.238408127253020
 20
298.157135885131990
 11
117.238408127253250
 21
298.157135885131990
  0
LINE
  8
0
  6
CONTINUOUS
 62
3
 10
129.738408127253020
 20
209.157135885131990
 11
129.738408127253020
 21
127.157135885131990
  0
LINE
  8
0
  6
CONTINUOUS
 62
3
 10
120.238408127253250
 20
38.157149549719179
 11
117.238408127252790
 21
38.157149549719179
  0
LINE
  8
0
  6
CONTINUOUS
 62
3
 10
120.238408127253020
 20
298.157135885131990
 11
121.238408127253020
 21
297.157135885131990
  0
LINE
  8
0
  6
CONTINUOUS
 62
3
 10
128.738408102343560
 20
127.157135885131990
 11
129.738408127253020
 21
127.157135885131990
  0
LINE
  8
0
  6
CONTINUOUS
 62
3
 10
121.238408127253250
 20
39.157149549719179
 11
120.238408127253250
 21
38.157149549719179
  0
LINE
  8
0
  6
CONTINUOUS
 62
3
 10
128.738408102343560
 20
209.157135885131990
 11
129.738408127253020
 21
209.157135885131990
  0
ARC
  8
0
  6
CONTINUOUS
 62
3
 10
102.238408127252790
 20
305.157135885131990
 40
3.000000000000000
 50
90.000000000000000
 51
180.000000000000000
  0
ARC
  8
0
  6
CONTINUOUS
 62
3
 10
93.238408127253024
 20
294.425898974302980
 40
5.999999999999986
 50
271.999999999999320
 51
0.000000000000000
  0
ARC
  8
0
  6
CONTINUOUS
 62
3
 10
128.738408102343560
 20
210.157135910041230
 40
1.000000024909241
 50
180.000000000000000
 51
270.000000000000000
  0
ARC
  8
0
  6
CONTINUOUS
 62
3
 10
128.738408102343560
 20
126.157135860222750
 40
1.000000024909241
 50
90.000000000000000
 51
180.000000000000000
  0
ARC
  8
0
  6
CONTINUOUS
 62
3
 10
124.738408077433400
 20
118.004015920689190
 40
2.999999999999937
 50
273.000000000001360
 51
0.000000000000000
  0
ARC
  8
0
  6
CONTINUOUS
 62
3
 10
124.738408077433400
 20
218.310481551865910
 40
3.000000000000000
 50
0.000000000000000
 51
86.999999999998678
  0
LINE
  8
0
  6
CONTINUOUS
 62
3
 10
124.895415946162300
 20
115.008127316425540
 11
121.238408127253250
 21
114.816471657815780
  0
ARC
  8
0
  6
CONTINUOUS
 62
3
 10
102.238408127252790
 20
31.157163214306365
 40
2.999999999999773
 50
180.000000000000000
 51
270.000000000000000
  0
LINE
  8
0
  6
CONTINUOUS
 62
3
 10
117.238408127252790
 20
28.157149549719179
 11
102.238408127252790
 21
28.157149549719179
  0
LINE
  8
0
  6
CONTINUOUS
 62
3
 10
99.238408127253024
 20
305.157135885131990
 11
99.238408127253024
 21
31.157163214306365
  0
LINE
  8
0
  6
CONTINUOUS
 62
3
 10
121.238408127253250
 20
221.498025814739320
 11
124.895415946162300
 21
221.306370156129560
  0
LINE
  8
0
  6
CONTINUOUS
 62
3
 10
121.238408127253020
 20
297.157135885131990
 11
121.238408127253250
 21
168.157149549719180
  0
LINE
  8
0
  6
CONTINUOUS
 62
3
 10
117.238408127253020
 20
308.157135885131990
 11
117.238408127256200
 21
168.157149549719180
  0
LINE
  8
0
  6
CONTINUOUS
 62
3
 10
127.738408077433400
 20
218.310481551865910
 11
127.738408077433400
 21
168.157149549719180
  0
LINE
  8
0
  6
CONTINUOUS
 62
3
 10
127.738408077433400
 20
118.004015920689190
 11
127.738408077433400
 21
168.157149549719180
  0
LINE
  8
0
  6
CONTINUOUS
 62
3
 10
121.238408127253250
 20
39.157149549719179
 11
121.238408127253250
 21
168.157149549719180
  0
LINE
  8
0
  6
CONTINUOUS
 62
3
 10
117.238408127252790
 20
28.157149549719179
 11
117.238408127252790
 21
168.157149549719180
  0
LINE
  8
0
  6
CONTINUOUS
 62
3
 10
-18.761597923952650
 20
267.657149549719180
 11
-19.261596970278788
 21
267.657149549719180
  0
LINE
  8
0
  6
CONTINUOUS
 62
3
 10
-18.761597923952650
 20
280.657149549719180
 11
-19.261596016604472
 21
280.657149549719180
  0
LINE
  8
0
  6
CONTINUOUS
 62
3
 10
-19.261596970278788
 20
267.657149549719180
 11
-19.261596970278788
 21
280.657149549719180
  0
LINE
  8
0
  6
CONTINUOUS
 62
3
 10
-19.261595705793752
 20
280.657149527018190
 11
-19.761596655986978
 21
279.791219955949600
  0
LINE
  8
0
  6
CONTINUOUS
 62
3
 10
-19.261596332421050
 20
267.657149525651220
 11
-19.761596358568113
 21
268.523273665784930
  0
LINE
  8
0
  6
CONTINUOUS
 62
3
 10
-19.761596970278788
 20
268.523273702856390
 11
-19.761596970278788
 21
279.791219946142520
  0
LINE
  8
0
  6
CONTINUOUS
 62
3
 10
-19.261596970278333
 20
228.657149549719180
 11
-19.261596970278333
 21
241.657149549719180
  0
LINE
  8
0
  6
CONTINUOUS
 62
3
 10
-19.261596332420595
 20
228.657149525650990
 11
-19.761596358567658
 21
229.523273665784930
  0
LINE
  8
0
  6
CONTINUOUS
 62
3
 10
-11.761597923952650
 20
228.657149549719180
 11
-19.261596970278333
 21
228.657149549719180
  0
LINE
  8
0
  6
CONTINUOUS
 62
3
 10
-19.761596970278333
 20
229.523273702856390
 11
-19.761596970278333
 21
240.791219946142520
  0
LINE
  8
0
  6
CONTINUOUS
 62
3
 10
-19.261595705793297
 20
241.657149527018190
 11
-19.761596655986523
 21
240.791219955949830
  0
LINE
  8
0
  6
CONTINUOUS
 62
3
 10
-11.761597923952650
 20
241.657149549719180
 11
-19.261596016604017
 21
241.657149549719180
  0
LINE
  8
0
  6
CONTINUOUS
 62
3
 10
-28.261597923963109
 20
151.157149549719180
 11
-35.761596016614476
 21
151.157149549719180
  0
LINE
  8
0
  6
CONTINUOUS
 62
3
 10
-28.261597923963109
 20
164.157149549719180
 11
-35.761596970288792
 21
164.157149549719180
  0
LINE
  8
0
  6
CONTINUOUS
 62
3
 10
-35.761596970288792
 20
164.157149549719180
 11
-35.761596970288792
 21
151.157149549719180
  0
LINE
  8
0
  6
CONTINUOUS
 62
3
 10
-35.761596332431054
 20
164.157149573787360
 11
-36.261596358578117
 21
163.291025433653320
  0
LINE
  8
0
  6
CONTINUOUS
 62
3
 10
-36.261596970288792
 20
163.291025396581970
 11
-36.261596970288792
 21
152.023079153295840
  0
LINE
  8
0
  6
CONTINUOUS
 62
3
 10
-35.761595705803757
 20
151.157149572420170
 11
-36.261596655996982
 21
152.023079143488530
  0
LINE
  8
0
  6
CONTINUOUS
 62
3
 10
-35.761596970288792
 20
172.157149549719180
 11
-35.761596970288792
 21
185.157149549719180
  0
LINE
  8
0
  6
CONTINUOUS
 62
3
 10
-35.761595705803757
 20
185.157149527018190
 11
-36.261596655996982
 21
184.291219955949830
  0
LINE
  8
0
  6
CONTINUOUS
 62
3
 10
-35.761596332431054
 20
172.157149525650990
 11
-36.261596358578117
 21
173.023273665784930
  0
LINE
  8
0
  6
CONTINUOUS
 62
3
 10
-28.261597923963109
 20
185.157149549719180
 11
-35.761596016614476
 21
185.157149549719180
  0
LINE
  8
0
  6
CONTINUOUS
 62
3
 10
-28.261597923963109
 20
172.157149549719180
 11
-35.761596970288792
 21
172.157149549719180
  0
LINE
  8
0
  6
CONTINUOUS
 62
3
 10
-36.261596970288792
 20
173.023273702856390
 11
-36.261596970288792
 21
184.291219946142520
  0
LINE
  8
0
  6
CONTINUOUS
 62
3
 10
-19.261596970278333
 20
107.657149549719170
 11
-19.261596970278333
 21
94.657149549719179
  0
LINE
  8
0
  6
CONTINUOUS
 62
3
 10
-19.261596332420595
 20
107.657149573787360
 11
-19.761596358567658
 21
106.791025433653310
  0
LINE
  8
0
  6
CONTINUOUS
 62
3
 10
-11.761597923952650
 20
107.657149549719170
 11
-19.261596970278333
 21
107.657149549719170
  0
LINE
  8
0
  6
CONTINUOUS
 62
3
 10
-19.761596970278333
 20
106.791025396581970
 11
-19.761596970278333
 21
95.523079153295839
  0
LINE
  8
0
  6
CONTINUOUS
 62
3
 10
-19.261595705793297
 20
94.657149572420167
 11
-19.761596655986523
 21
95.523079143488530
  0
LINE
  8
0
  6
CONTINUOUS
 62
3
 10
-11.761597923952650
 20
94.657149549719179
 11
-19.261596016604017
 21
94.657149549719179
  0
LINE
  8
0
  6
CONTINUOUS
 62
3
 10
-19.261595705793297
 20
55.657149572420167
 11
-19.761596655986978
 21
56.523079143488758
  0
LINE
  8
0
  6
CONTINUOUS
 62
3
 10
-19.261596332420595
 20
68.657149573787592
 11
-19.761596358567658
 21
67.791025433653886
  0
LINE
  8
0
  6
CONTINUOUS
 62
3
 10
-19.761596970278333
 20
67.791025396581972
 11
-19.761596970278333
 21
56.523079153295839
  0
LINE
  8
0
  6
CONTINUOUS
 62
3
 10
-18.761597923952650
 20
55.657149549719179
 11
-19.261596016604017
 21
55.657149549719179
  0
LINE
  8
0
  6
CONTINUOUS
 62
3
 10
-18.761597923952650
 20
68.657149549719065
 11
-19.261596970278333
 21
68.657149549719179
  0
LINE
  8
0
  6
CONTINUOUS
 62
3
 10
-19.261596970278333
 20
68.657149549719179
 11
-19.261596970278333
 21
55.657149549719179
  0
LINE
  8
0
  6
CONTINUOUS
 62
3
 10
-32.261597923952195
 20
172.157149549719180
 11
-32.261597923952195
 21
164.157149549719180
  0
LINE
  8
0
  6
CONTINUOUS
 62
3
 10
-100.204341718056180
 20
49.483324169935258
 11
-67.811597923953400
 21
49.483324169935258
  0
ARC
  8
0
  6
CONTINUOUS
 62
3
 10
-101.061597161012740
 20
50.460622037465328
 40
1.299999237060351
 50
286.601548410324710
 51
17.759447913550098
  0
ARC
  8
0
  6
CONTINUOUS
 62
3
 10
-103.261597923952190
 20
57.839646960313075
 40
8.999999999999858
 50
253.398468892518050
 51
286.601548410325050
  0
ARC
  8
0
  6
CONTINUOUS
 62
3
 10
-105.461598686891640
 20
50.460622037465328
 40
1.299999237060699
 50
162.240552086452960
 51
253.398468892505180
  0
CIRCLE
  8
0
  6
DASHED
 62
4
 10
-103.261597923952190
 20
75.657149549718952
 40
13.500000000000000
  0
LINE
  8
0
  6
DASHDOT
 62
4
 10
-126.085229555264050
 20
75.657149549719179
 11
-81.797511516865598
 21
75.657149549719179
  0
LINE
  8
0
  6
CONTINUOUS
 62
3
 10
-134.261597923952190
 20
100.657149549719170
 11
-134.261597923952190
 21
99.657149549719179
  0
LINE
  8
0
  6
CONTINUOUS
 62
3
 10
-72.261597923952309
 20
100.657149549719060
 11
-72.261597923952309
 21
99.657149549719065
  0
ARC
  8
0
  6
CONTINUOUS
 62
3
 10
-137.061597923952380
 20
94.657149549719179
 40
5.000000000000000
 50
90.000000000000000
 51
135.074043599465310
  0
ARC
  8
0
  6
CONTINUOUS
 62
3
 10
-69.461597923952354
 20
94.657149549719065
 40
5.000000000000008
 50
44.925956400534659
 51
90.000000000000000
  0
LINE
  8
0
  6
CONTINUOUS
 62
3
 10
-137.061597923952380
 20
99.657149549719179
 11
-69.461597923952354
 21
99.657149549719065
  0
ARC
  8
0
  6
CONTINUOUS
 62
3
 10
-124.312233018562430
 20
51.857149549719225
 40
1.000000000000227
 50
216.869897645844020
 51
270.000000000000000
  0
ARC
  8
0
  6
CONTINUOUS
 62
3
 10
-125.912233018562340
 20
50.657149549719179
 40
0.999999999999727
 50
36.869897645849235
 51
90.000000000000000
  0
ARC
  8
0
  6
CONTINUOUS
 62
3
 10
-81.010962829342134
 20
50.657149549719179
 40
1.000000000000000
 50
90.000000000000000
 51
143.130102354166380
  0
ARC
  8
0
  6
CONTINUOUS
 62
3
 10
-82.610962829342043
 20
51.857149549719225
 40
1.000000000000000
 50
270.000000000000000
 51
323.130102354140380
  0
LINE
  8
0
  6
CONTINUOUS
 62
3
 10
-124.312233018562430
 20
50.857149549719225
 11
-82.610962829342043
 21
50.857149549719225
  0
ARC
  8
0
  6
CONTINUOUS
 62
3
 10
-138.711597923951100
 20
87.351713489983695
 40
10.999999999999886
 50
90.000000000000000
 51
180.000000000000000
  0
ARC
  8
0
  6
CONTINUOUS
 62
3
 10
-138.711597923951100
 20
83.880240750936764
 40
11.000000000000000
 50
90.000000000000000
 51
180.000000000000000
  0
ARC
  8
0
  6
CONTINUOUS
 62
3
 10
-67.811597923953400
 20
87.351713489983467
 40
11.000000000000000
 50
0.000000000000000
 51
90.000000000000000
  0
ARC
  8
0
  6
CONTINUOUS
 62
3
 10
-67.811597923953400
 20
83.880240750936764
 40
11.000000000000000
 50
0.000000000000000
 51
90.000000000000000
  0
ARC
  8
0
  6
CONTINUOUS
 62
3
 10
-137.511597923951740
 20
57.457149549719134
 40
5.799999999999727
 50
180.000000000000000
 51
270.000000000000000
  0
ARC
  8
0
  6
CONTINUOUS
 62
3
 10
-69.011597923952991
 20
57.457149549719134
 40
5.799999999999955
 50
270.000000000000000
 51
0.000000000000000
  0
LINE
  8
0
  6
CONTINUOUS
 62
3
 10
-137.511597923951740
 20
51.657149549719179
 11
-69.011597923952991
 21
51.657149549719179
  0
ARC
  8
0
  6
CONTINUOUS
 62
3
 10
-138.711597923951100
 20
60.483324169935258
 40
11.000000000000000
 50
180.000000000000000
 51
270.000000000000000
  0
ARC
  8
0
  6
CONTINUOUS
 62
3
 10
-67.811597923953400
 20
60.483324169935258
 40
11.000000000000000
 50
270.000000000000000
 51
0.000000000000000
  0
ARC
  8
0
  6
CONTINUOUS
 62
3
 10
-138.311597923951470
 20
87.033084249406102
 40
4.999999999999886
 50
90.000000000000000
 51
180.000000000000000
  0
ARC
  8
0
  6
CONTINUOUS
 62
3
 10
-68.211597923953036
 20
87.033084249405874
 40
5.000000000000000
 50
0.000000000000000
 51
90.000000000000000
  0
LINE
  8
0
  6
CONTINUOUS
 62
3
 10
-138.311597923951470
 20
92.033084249405988
 11
-68.211597923953036
 21
92.033084249405874
  0
LINE
  8
0
  6
CONTINUOUS
 62
3
 10
-143.311597923951470
 20
57.457149549719134
 11
-143.311597923951470
 21
87.033084249406102
  0
LINE
  8
0
  6
CONTINUOUS
 62
3
 10
-63.211597923953036
 20
57.457149549719134
 11
-63.211597923953036
 21
87.033084249405874
  0
LINE
  8
0
  6
CONTINUOUS
 62
3
 10
-149.711597923951100
 20
87.351713489983695
 11
-149.711597923951100
 21
60.483324169935258
  0
LINE
  8
0
  6
CONTINUOUS
 62
3
 10
-56.811597923953400
 20
87.351713489983467
 11
-56.811597923953400
 21
60.483324169935258
  0
LINE
  8
0
  6
CONTINUOUS
 62
3
 10
-138.711597923951100
 20
94.880240750936764
 11
-67.811597923953400
 21
94.880240750936764
  0
LINE
  8
0
  6
CONTINUOUS
 62
3
 10
-138.711597923951100
 20
98.351713489983581
 11
-67.811597923953400
 21
98.351713489983467
  0
LINE
  8
0
  6
CONTINUOUS
 62
3
 10
-138.711597923951100
 20
49.483324169935258
 11
-106.318854129848430
 21
49.483324169935258
  0
LINE
  8
0
  6
DASHDOT
 62
4
 10
-103.261597923952190
 20
106.490862885871930
 11
-103.261597923952190
 21
44.428449369235750
  0
LINE
  8
0
  6
CONTINUOUS
 62
3
 10
-135.761597923952190
 20
104.657149549719170
 11
-70.761597923952081
 21
104.657149549719170
  0
LINE
  8
0
  6
CONTINUOUS
 62
3
 10
-131.424273689132180
 20
106.657149549719170
 11
-70.761597923952081
 21
106.657149549719170
  0
LINE
  8
0
  6
CONTINUOUS
 62
3
 10
-135.761597923952190
 20
100.657149549719170
 11
-70.761597923952081
 21
100.657149549719170
  0
LINE
  8
0
  6
CONTINUOUS
 62
3
 10
-70.761597923952081
 20
100.657149549719170
 11
-70.761597923952195
 21
107.657149549719170
  0
LINE
  8
0
  6
CONTINUOUS
 62
3
 10
-135.761597923952190
 20
100.657149549719170
 11
-135.761597923952190
 21
106.495968524396230
  0
LINE
  8
0
  6
CONTINUOUS
 62
3
 10
-66.511597923952195
 20
107.657149549719170
 11
-66.511597923952195
 21
108.657149549719170
  0
LINE
  8
0
  6
CONTINUOUS
 62
3
 10
-129.924362368756310
 20
107.657149549719170
 11
-66.511597923952195
 21
107.657149549719170
  0
POLYLINE
  8
0
  6
CONTINUOUS
 62
3
 66
1
 70
1
  0
VERTEX
  8
0
  6
CONTINUOUS
 62
3
 10
-135.561597923951520
 20
116.233624517659330
  0
VERTEX
  8
0
  6
CONTINUOUS
 62
3
 10
-135.651907106056340
 20
116.936581483859690
  0
VERTEX
  8
0
  6
CONTINUOUS
 62
3
 10
-135.919364121148480
 20
117.612524208071790
  0
VERTEX
  8
0
  6
CONTINUOUS
 62
3
 10
-136.353690746129560
 20
118.235476590477190
  0
VERTEX
  8
0
  6
CONTINUOUS
 62
3
 10
-136.938196052374740
 20
118.781498920375760
  0
VERTEX
  8
0
  6
CONTINUOUS
 62
3
 10
-137.650417828759400
 20
119.229607865842380
  0
VERTEX
  8
0
  6
CONTINUOUS
 62
3
 10
-138.462985791835590
 20
119.562582851405150
  0
VERTEX
  8
0
  6
CONTINUOUS
 62
3
 10
-139.344673410475710
 20
119.767627835103390
  0
VERTEX
  8
0
  6
CONTINUOUS
 62
3
 10
-140.261597923951510
 20
119.836863053204160
  0
VERTEX
  8
0
  6
CONTINUOUS
 62
3
 10
-141.178522437427320
 20
119.767627835103390
  0
VERTEX
  8
0
  6
CONTINUOUS
 62
3
 10
-142.060210056067430
 20
119.562582851405150
  0
VERTEX
  8
0
  6
CONTINUOUS
 62
3
 10
-142.872778019143620
 20
119.229607865842380
  0
VERTEX
  8
0
  6
CONTINUOUS
 62
3
 10
-143.584999795528290
 20
118.781498920375760
  0
VERTEX
  8
0
  6
CONTINUOUS
 62
3
 10
-144.169505101773470
 20
118.235476590477190
  0
VERTEX
  8
0
  6
CONTINUOUS
 62
3
 10
-144.603831726754550
 20
117.612524208071790
  0
VERTEX
  8
0
  6
CONTINUOUS
 62
3
 10
-144.871288741846680
 20
116.936581483859690
  0
VERTEX
  8
0
  6
CONTINUOUS
 62
3
 10
-144.961597923951500
 20
116.233624517659330
  0
VERTEX
  8
0
  6
CONTINUOUS
 62
3
 10
-144.871288741846680
 20
115.530667551458970
  0
VERTEX
  8
0
  6
CONTINUOUS
 62
3
 10
-144.603831726754550
 20
114.854724827246880
  0
VERTEX
  8
0
  6
CONTINUOUS
 62
3
 10
-144.169505101773470
 20
114.231772444841480
  0
VERTEX
  8
0
  6
CONTINUOUS
 62
3
 10
-143.584999795528260
 20
113.685750114942900
  0
VERTEX
  8
0
  6
CONTINUOUS
 62
3
 10
-142.872778019143620
 20
113.237641169476290
  0
VERTEX
  8
0
  6
CONTINUOUS
 62
3
 10
-142.060210056067430
 20
112.904666183913520
  0
VERTEX
  8
0
  6
CONTINUOUS
 62
3
 10
-141.178522437427320
 20
112.699621200215270
  0
VERTEX
  8
0
  6
CONTINUOUS
 62
3
 10
-140.261597923951510
 20
112.630385982114500
  0
VERTEX
  8
0
  6
CONTINUOUS
 62
3
 10
-139.344673410475710
 20
112.699621200215270
  0
VERTEX
  8
0
  6
CONTINUOUS
 62
3
 10
-138.462985791835590
 20
112.904666183913520
  0
VERTEX
  8
0
  6
CONTINUOUS
 62
3
 10
-137.650417828759400
 20
113.237641169476290
  0
VERTEX
  8
0
  6
CONTINUOUS
 62
3
 10
-136.938196052374760
 20
113.685750114942900
  0
VERTEX
  8
0
  6
CONTINUOUS
 62
3
 10
-136.353690746129560
 20
114.231772444841480
  0
VERTEX
  8
0
  6
CONTINUOUS
 62
3
 10
-135.919364121148480
 20
114.854724827246880
  0
VERTEX
  8
0
  6
CONTINUOUS
 62
3
 10
-135.651907106056340
 20
115.530667551458970
  0
SEQEND
  8
0
  6
CONTINUOUS
 62
3
  0
LINE
  8
0
  6
CONTINUOUS
 62
3
 10
-142.261597923951510
 20
113.241248963659010
 11
-140.261597923951510
 21
114.417034449281340
  0
LINE
  8
0
  6
CONTINUOUS
 62
3
 10
-140.261597923951510
 20
114.417034449281340
 11
-138.261597923951510
 21
116.069676088404770
  0
LINE
  8
0
  6
CONTINUOUS
 62
3
 10
-138.261597923951510
 20
113.241248963659010
 11
-140.261597923951510
 21
114.417034449281340
  0
LINE
  8
0
  6
CONTINUOUS
 62
3
 10
-140.261597923951510
 20
114.417034449281340
 11
-142.261597923951510
 21
116.069676088404770
  0
POLYLINE
  8
0
  6
CONTINUOUS
 62
3
 66
1
 70
1
  0
VERTEX
  8
0
  6
CONTINUOUS
 62
3
 10
-135.561597923951520
 20
220.080674581779250
  0
VERTEX
  8
0
  6
CONTINUOUS
 62
3
 10
-135.651907106056340
 20
220.783631547979610
  0
VERTEX
  8
0
  6
CONTINUOUS
 62
3
 10
-135.919364121148480
 20
221.459574272191700
  0
VERTEX
  8
0
  6
CONTINUOUS
 62
3
 10
-136.353690746129560
 20
222.082526654597100
  0
VERTEX
  8
0
  6
CONTINUOUS
 62
3
 10
-136.938196052374740
 20
222.628548984495690
  0
VERTEX
  8
0
  6
CONTINUOUS
 62
3
 10
-137.650417828759400
 20
223.076657929962320
  0
VERTEX
  8
0
  6
CONTINUOUS
 62
3
 10
-138.462985791835590
 20
223.409632915525070
  0
VERTEX
  8
0
  6
CONTINUOUS
 62
3
 10
-139.344673410475710
 20
223.614677899223320
  0
VERTEX
  8
0
  6
CONTINUOUS
 62
3
 10
-140.261597923951510
 20
223.683913117324100
  0
VERTEX
  8
0
  6
CONTINUOUS
 62
3
 10
-141.178522437427320
 20
223.614677899223320
  0
VERTEX
  8
0
  6
CONTINUOUS
 62
3
 10
-142.060210056067430
 20
223.409632915525070
  0
VERTEX
  8
0
  6
CONTINUOUS
 62
3
 10
-142.872778019143620
 20
223.076657929962320
  0
VERTEX
  8
0
  6
CONTINUOUS
 62
3
 10
-143.584999795528290
 20
222.628548984495690
  0
VERTEX
  8
0
  6
CONTINUOUS
 62
3
 10
-144.169505101773470
 20
222.082526654597100
  0
VERTEX
  8
0
  6
CONTINUOUS
 62
3
 10
-144.603831726754550
 20
221.459574272191700
  0
VERTEX
  8
0
  6
CONTINUOUS
 62
3
 10
-144.871288741846680
 20
220.783631547979610
  0
VERTEX
  8
0
  6
CONTINUOUS
 62
3
 10
-144.961597923951500
 20
220.080674581779250
  0
VERTEX
  8
0
  6
CONTINUOUS
 62
3
 10
-144.871288741846680
 20
219.377717615578890
  0
VERTEX
  8
0
  6
CONTINUOUS
 62
3
 10
-144.603831726754550
 20
218.701774891366800
  0
VERTEX
  8
0
  6
CONTINUOUS
 62
3
 10
-144.169505101773470
 20
218.078822508961390
  0
VERTEX
  8
0
  6
CONTINUOUS
 62
3
 10
-143.584999795528260
 20
217.532800179062800
  0
VERTEX
  8
0
  6
CONTINUOUS
 62
3
 10
-142.872778019143620
 20
217.084691233596170
  0
VERTEX
  8
0
  6
CONTINUOUS
 62
3
 10
-142.060210056067430
 20
216.751716248033430
  0
VERTEX
  8
0
  6
CONTINUOUS
 62
3
 10
-141.178522437427320
 20
216.546671264335170
  0
VERTEX
  8
0
  6
CONTINUOUS
 62
3
 10
-140.261597923951510
 20
216.477436046234400
  0
VERTEX
  8
0
  6
CONTINUOUS
 62
3
 10
-139.344673410475710
 20
216.546671264335170
  0
VERTEX
  8
0
  6
CONTINUOUS
 62
3
 10
-138.462985791835590
 20
216.751716248033430
  0
VERTEX
  8
0
  6
CONTINUOUS
 62
3
 10
-137.650417828759400
 20
217.084691233596170
  0
VERTEX
  8
0
  6
CONTINUOUS
 62
3
 10
-136.938196052374760
 20
217.532800179062800
  0
VERTEX
  8
0
  6
CONTINUOUS
 62
3
 10
-136.353690746129560
 20
218.078822508961390
  0
VERTEX
  8
0
  6
CONTINUOUS
 62
3
 10
-135.919364121148480
 20
218.701774891366800
  0
VERTEX
  8
0
  6
CONTINUOUS
 62
3
 10
-135.651907106056340
 20
219.377717615578890
  0
SEQEND
  8
0
  6
CONTINUOUS
 62
3
  0
LINE
  8
0
  6
CONTINUOUS
 62
3
 10
-142.261597923951510
 20
223.073050135779570
 11
-140.261597923951510
 21
221.897264650156790
  0
LINE
  8
0
  6
CONTINUOUS
 62
3
 10
-140.261597923951510
 20
221.897264650156790
 11
-138.261597923951510
 21
220.244623011033350
  0
LINE
  8
0
  6
CONTINUOUS
 62
3
 10
-138.261597923951510
 20
223.073050135779570
 11
-140.261597923951510
 21
221.897264650156790
  0
LINE
  8
0
  6
CONTINUOUS
 62
3
 10
-140.261597923951510
 20
221.897264650156790
 11
-142.261597923951510
 21
220.244623011033350
  0
LINE
  8
0
  6
CONTINUOUS
 62
3
 10
-129.261597923952080
 20
168.157149549719180
 11
-129.261597923952080
 21
233.157149549719180
  0
LINE
  8
0
  6
CONTINUOUS
 62
3
 10
-129.261597923952080
 20
233.157149549719180
 11
-157.955622146372430
 21
233.157149549719180
  0
LINE
  8
0
  6
CONTINUOUS
 62
3
 10
-180.261597923901950
 20
168.157149549719180
 11
-180.261597923901950
 21
220.600354606964630
  0
ARC
  8
0
  6
CONTINUOUS
 62
3
 10
-157.955622146372430
 20
213.157149549719180
 40
20.000000000000000
 50
90.000000000000000
 51
125.000000000000240
  0
LINE
  8
0
  6
CONTINUOUS
 62
3
 10
-169.427150873393430
 20
229.540190435498970
 11
-179.152896658414420
 21
222.730149922115740
  0
ARC
  8
0
  6
CONTINUOUS
 62
3
 10
-177.661597923901810
 20
220.600354606964630
 40
2.599999999999721
 50
125.000000000001370
 51
180.000000000000000
  0
LINE
  8
0
  6
CONTINUOUS
 62
3
 10
-129.261597923952080
 20
168.157149549719180
 11
-129.261597923952080
 21
109.537928632846380
  0
LINE
  8
0
  6
CONTINUOUS
 62
3
 10
-180.261597923901950
 20
168.157149549719180
 11
-180.261597923901950
 21
115.713944492473720
  0
LINE
  8
0
  6
CONTINUOUS
 62
3
 10
-169.427150873393430
 20
106.774108663939380
 11
-179.152896658414420
 21
113.584149177322610
  0
ARC
  8
0
  6
CONTINUOUS
 62
3
 10
-177.661597923901810
 20
115.713944492473720
 40
2.600000000000136
 50
180.000000000000000
 51
234.999999999998610
  0
LINE
  8
0
  6
CONTINUOUS
 62
3
 10
-139.261597923951970
 20
103.157149549719170
 11
-157.955622146372430
 21
103.157149549719170
  0
ARC
  8
0
  6
CONTINUOUS
 62
3
 10
-157.955622146372430
 20
123.157149549719170
 40
20.000000000000007
 50
234.999999999999740
 51
270.000000000000000
  0
LINE
  8
0
  6
CONTINUOUS
 62
3
 10
-136.261597923951970
 20
106.537928632846380
 11
-132.261597923952080
 21
106.537928632846380
  0
LINE
  8
0
  6
CONTINUOUS
 62
3
 10
-139.261597923951970
 20
103.157149549719170
 11
-139.261597923951970
 21
103.537928632846380
  0
ARC
  8
0
  6
CONTINUOUS
 62
3
 10
-132.261597923952080
 20
109.537928632846380
 40
3.000000000000000
 50
270.000000000000000
 51
0.000000000000000
  0
ARC
  8
0
  6
CONTINUOUS
 62
3
 10
-136.261597923951970
 20
103.537928632846380
 40
3.000000000000000
 50
90.000000000000000
 51
180.000000000000000
  0
LINE
  8
0
  6
CONTINUOUS
 62
3
 10
-129.261597923952080
 20
227.657149549718950
 11
-32.261597923952195
 21
227.657149549718950
  0
LINE
  8
0
  6
CONTINUOUS
 62
3
 10
-129.393806403160280
 20
108.657149549719170
 11
-32.261597923952195
 21
108.657149549719170
  0
LINE
  8
0
  6
CONTINUOUS
 62
4
 10
-129.261597923952080
 20
111.157149549719170
 11
-32.261597923952195
 21
111.157149549719170
  0
LINE
  8
0
  6
CONTINUOUS
 62
4
 10
-129.261597923952080
 20
112.157149549719170
 11
-32.261597923952195
 21
112.157149549719170
  0
LINE
  8
0
  6
CONTINUOUS
 62
4
 10
-129.261597923952080
 20
113.157149549719170
 11
-32.261597923952195
 21
113.157149549719170
  0
LINE
  8
0
  6
CONTINUOUS
 62
4
 10
-129.261597923952080
 20
117.841615362943450
 11
-32.261597923952195
 21
117.841615362943450
  0
LINE
  8
0
  6
CONTINUOUS
 62
4
 10
-129.261597923952080
 20
122.791362831249210
 11
-32.261597923952195
 21
122.791362831249210
  0
LINE
  8
0
  6
CONTINUOUS
 62
4
 10
-129.261597923952080
 20
130.837964493983240
 11
-32.261597923952195
 21
130.837964493983240
  0
LINE
  8
0
  6
CONTINUOUS
 62
4
 10
-129.261597923952080
 20
132.442612409545290
 11
-32.261597923952195
 21
132.442612409545290
  0
LINE
  8
0
  6
CONTINUOUS
 62
4
 10
-129.261597923952080
 20
136.406357833344830
 11
-32.261597923952195
 21
136.406357833344830
  0
LINE
  8
0
  6
CONTINUOUS
 62
4
 10
-129.261597923952080
 20
137.874715223149450
 11
-32.261597923952195
 21
137.874715223149450
  0
LINE
  8
0
  6
CONTINUOUS
 62
4
 10
-129.261597923952080
 20
141.965215757239320
 11
-32.261597923952195
 21
141.965215757239320
  0
LINE
  8
0
  6
CONTINUOUS
 62
4
 10
-129.261597923952080
 20
143.327096092588590
 11
-32.261597923952195
 21
143.327096092588590
  0
LINE
  8
0
  6
CONTINUOUS
 62
4
 10
-129.261597923952080
 20
147.517649824130790
 11
-32.261597923952195
 21
147.517649824130790
  0
LINE
  8
0
  6
CONTINUOUS
 62
4
 10
-129.261597923952080
 20
148.783887740218010
 11
-32.261597923952195
 21
148.783887740218010
  0
LINE
  8
0
  6
CONTINUOUS
 62
4
 10
-129.261597923952080
 20
153.157149549719180
 11
-36.261596970288792
 21
153.157149549719180
  0
LINE
  8
0
  6
CONTINUOUS
 62
4
 10
-129.261597923952080
 20
205.476334605455120
 11
-32.261597923952195
 21
205.476334605455120
  0
LINE
  8
0
  6
CONTINUOUS
 62
4
 10
-129.261597923952080
 20
203.871686689893070
 11
-32.261597923952195
 21
203.871686689893070
  0
LINE
  8
0
  6
CONTINUOUS
 62
4
 10
-129.261597923952080
 20
199.907941266093530
 11
-32.261597923952195
 21
199.907941266093530
  0
LINE
  8
0
  6
CONTINUOUS
 62
4
 10
-129.261597923952080
 20
198.439583876288910
 11
-32.261597923952195
 21
198.439583876288910
  0
LINE
  8
0
  6
CONTINUOUS
 62
4
 10
-129.261597923952080
 20
194.349083342199040
 11
-32.261597923952195
 21
194.349083342199040
  0
LINE
  8
0
  6
CONTINUOUS
 62
4
 10
-129.261597923952080
 20
192.987203006849770
 11
-32.261597923952195
 21
192.987203006849770
  0
LINE
  8
0
  6
CONTINUOUS
 62
4
 10
-129.261597923952080
 20
188.796649275307570
 11
-32.261597923952195
 21
188.796649275307570
  0
LINE
  8
0
  6
CONTINUOUS
 62
4
 10
-129.261597923952080
 20
187.530411359220350
 11
-32.261597923952195
 21
187.530411359220350
  0
LINE
  8
0
  6
CONTINUOUS
 62
4
 10
-129.261597923952080
 20
183.157149549719180
 11
-36.261596970288792
 21
183.157149549719240
  0
LINE
  8
0
  6
CONTINUOUS
 62
4
 10
-129.261597923952080
 20
213.522936268189140
 11
-32.261597923952195
 21
213.522936268189140
  0
LINE
  8
0
  6
CONTINUOUS
 62
4
 10
-129.261597923952080
 20
218.472683736494900
 11
-32.261597923952195
 21
218.472683736494900
  0
LINE
  8
0
  6
CONTINUOUS
 62
4
 10
-129.261597923952080
 20
223.157149549719180
 11
-32.261597923952195
 21
223.157149549719180
  0
LINE
  8
0
  6
CONTINUOUS
 62
4
 10
-129.261597923952080
 20
224.157149549719180
 11
-32.261597923952195
 21
224.157149549719180
  0
LINE
  8
0
  6
CONTINUOUS
 62
4
 10
-129.261597923952080
 20
225.157149549719180
 11
-32.261597923952195
 21
225.157149549719180
  0
LINE
  8
0
  6
CONTINUOUS
 62
3
 10
-62.261597923952081
 20
227.657149549719180
 11
-32.261597923952195
 21
227.657149549719180
  0
ARC
  8
0
  6
CONTINUOUS
 62
3
 10
-239.924208447998920
 20
-238.019757497261480
 40
9.000000000000234
 50
7.398451589678908
 51
40.601531107483503
  0
ARC
  8
0
  6
CONTINUOUS
 62
3
 10
-232.288312822817600
 20
-237.028238374762850
 40
1.299999237060559
 50
293.999982013920090
 51
7.398451589679256
  0
LINE
  8
0
  6
DASHDOT
 62
4
 10
-257.805816175162930
 20
-213.960326670575110
 11
-257.805816175162930
 21
-236.828835846338730
  0
LINE
  8
0
  6
CONTINUOUS
 62
3
 10
-280.500380115427450
 20
-140.491842053365190
 11
-234.783181433702450
 21
-243.174351492391220
  0
ARC
  8
0
  6
CONTINUOUS
 62
3
 10
-234.037380621889160
 20
-175.689500632632870
 40
1.000000000000077
 50
0.587807867721716
 51
53.794291905958382
  0
ARC
  8
0
  6
CONTINUOUS
 62
3
 10
-232.856008505612750
 20
-174.075697694574730
 40
0.999999999999967
 50
180.740494943192910
 51
233.794291905968890
  0
ARC
  8
0
  6
CONTINUOUS
 62
3
 10
-233.626216921765830
 20
-213.234706719569890
 40
0.999999999999769
 50
123.952126946395960
 51
177.005923909151190
  0
ARC
  8
0
  6
CONTINUOUS
 62
3
 10
-234.743216946378310
 20
-211.575697694574730
 40
1.000000000000147
 50
303.952126946381380
 51
357.158610984632960
  0
ARC
  8
0
  6
CONTINUOUS
 62
3
 10
-833.805816175162930
 20
-181.842850450281050
 40
600.799999999999950
 50
357.158610984636650
 51
0.587807867706885
  0
LINE
  8
0
  6
CONTINUOUS
 62
3
 10
-281.805816175162930
 20
-149.151245573221790
 11
-281.805816175162930
 21
-223.342850450280820
  0
LINE
  8
0
  6
CONTINUOUS
 62
3
 10
-282.805816175162930
 20
-212.842850450280820
 11
-281.805816175162930
 21
-212.842850450280820
  0
LINE
  8
0
  6
CONTINUOUS
 62
3
 10
-236.735517320466560
 20
-238.789333295706680
 11
-240.252667332390620
 21
-240.355269371548500
  0
LINE
  8
0
  6
CONTINUOUS
 62
3
 10
-238.362463892769820
 20
-235.135151465136690
 11
-241.879613904693660
 21
-236.701087540978510
  0
ARC
  8
0
  6
CONTINUOUS
 62
3
 10
-237.435802578743850
 20
-225.965485038517950
 40
2.000000000000451
 50
294.000000000027340
 51
355.768661925113970
  0
ARC
  8
0
  6
CONTINUOUS
 62
3
 10
-236.011128911464430
 20
-228.615088290159520
 40
0.999999999999856
 50
113.999999999979760
 51
204.000000000003580
  0
LINE
  8
0
  6
CONTINUOUS
 62
3
 10
-257.930107152359260
 20
-181.842850450280820
 11
-231.718445337736400
 21
-240.715206791060840
  0
ARC
  8
0
  6
CONTINUOUS
 62
3
 10
-232.631990795379010
 20
-241.121943434136480
 40
1.000000000000226
 50
294.000000000027340
 51
23.999999999991683
  0
LINE
  8
0
  6
CONTINUOUS
 62
3
 10
-232.225254152302680
 20
-242.035488891779100
 11
-234.783181433702450
 21
-243.174351492391220
  0
LINE
  8
0
  6
CONTINUOUS
 62
3
 10
-276.805816175162930
 20
-228.342850450280820
 11
-241.386591143834150
 21
-228.342850450280820
  0
ARC
  8
0
  6
CONTINUOUS
 62
3
 10
-276.805816175162930
 20
-223.342850450280820
 40
5.000000000000000
 50
180.000000000000000
 51
270.000000000000000
  0
LINE
  8
0
  6
CONTINUOUS
 62
3
 10
-282.805816175162930
 20
-150.842850450280820
 11
-281.805816175162930
 21
-150.842850450280820
  0
ARC
  8
0
  6
CONTINUOUS
 62
3
 10
-278.805816175162930
 20
-149.151245573221790
 40
2.999999999999567
 50
113.999999999979760
 51
180.000000000000000
  0
LINE
  8
0
  6
CONTINUOUS
 62
3
 10
-278.222654914202510
 20
-145.607696616163820
 11
-280.026026104389190
 21
-146.410609200293950
  0
LINE
  8
0
  6
CONTINUOUS
 62
3
 10
-277.942452834022900
 20
-139.352979452750790
 11
-280.500380115422220
 21
-140.491842053362920
  0
ARC
  8
0
  6
CONTINUOUS
 62
3
 10
-234.839767182851230
 20
-231.246009808167400
 40
0.999999999999983
 50
175.284875165916760
 51
204.000000000003580
  0
ARC
  8
0
  6
CONTINUOUS
 62
3
 10
-833.805816175162930
 20
-181.842850450281050
 40
600.000000000000910
 50
355.284875165908370
 51
1.682768801133149
  0
ARC
  8
0
  6
CONTINUOUS
 62
3
 10
-249.058105160603760
 20
-164.663954582546010
 40
15.000000000000393
 50
1.682768801133086
 51
80.681876880324481
  0
LINE
  8
0
  6
CONTINUOUS
 62
3
 10
-272.585002801948240
 20
-145.603057172942040
 11
-246.629365708412140
 21
-149.861886325935070
  0
ARC
  8
0
  6
CONTINUOUS
 62
3
 10
-272.099254911509550
 20
-142.642643521619900
 40
3.000000000000030
 50
203.999999999999630
 51
260.681876880317470
  0
LINE
  8
0
  6
CONTINUOUS
 62
3
 10
-276.622170733304870
 20
-139.859788267317530
 11
-257.930107152356070
 21
-181.842850450280820
  0
LINE
  8
0
  6
CONTINUOUS
 62
3
 10
-280.171219335756290
 20
-143.186179771175150
 11
-279.434815452994260
 21
-143.498764673966430
  0
LINE
  8
0
  6
CONTINUOUS
 62
3
 10
-279.301473430800230
 20
-143.184630555517060
 11
-279.434815452994260
 21
-143.498764673966430
  0
LINE
  8
0
  6
CONTINUOUS
 62
3
 10
-279.746387176010220
 20
-142.185337922559710
 11
-280.171219335756290
 21
-143.186179771175150
  0
ARC
  8
0
  6
CONTINUOUS
 62
3
 10
-234.077954672982170
 20
-233.008636967175790
 40
1.299999237060495
 50
40.601531107483851
 51
114.000000683246080
  0
LINE
  8
0
  6
CONTINUOUS
 62
3
 10
-235.501096118341710
 20
-232.219234034984540
 11
-234.606711998665220
 21
-231.821028569220290
  0
LINE
  8
0
  6
CONTINUOUS
 62
3
 10
-232.653939616810820
 20
-238.614052238482830
 11
-231.759555497134330
 21
-238.215846772718350
  0
LINE
  8
0
  6
CONTINUOUS
 62
3
 10
-235.501096118341710
 20
-232.219234034984540
 11
-232.653939616810820
 21
-238.614052238482830
  0
LINE
  8
0
  6
CONTINUOUS
 62
3
 10
-235.501096118341710
 20
-232.219234034984540
 11
-232.653939616810820
 21
-238.614052238482830
  0
POINT
  8
0
  6
CONTINUOUS
 62
3
 10
-234.077517867576150
 20
-235.416643136733680
  0
LINE
  8
0
  6
CONTINUOUS
 62
3
 10
-242.056996989792080
 20
-237.163186276229910
 11
-240.714766067642020
 21
-240.177886286450080
  0
LINE
  8
0
  6
CONTINUOUS
 62
3
 10
-240.252667332390620
 20
-240.355269371548500
 11
-240.714766067642020
 21
-240.177886286450080
  0
LINE
  8
0
  6
CONTINUOUS
 62
3
 10
-241.879613904693660
 20
-236.701087540978510
 11
-242.056996989792080
 21
-237.163186276229910
  0
LINE
  8
0
  6
CONTINUOUS
 62
4
 10
-238.220106067693340
 20
-235.454892375311600
 11
-242.056996989792080
 21
-237.163186276229910
  0
LINE
  8
0
  6
CONTINUOUS
 62
4
 10
-236.877875145542820
 20
-238.469592385532220
 11
-240.714766067641790
 21
-240.177886286450530
  0
ARC
  8
0
  6
CONTINUOUS
 62
3
 10
-277.535716190947480
 20
-140.266524910393400
 40
1.000000000000041
 50
24.000000000003585
 51
113.999999999979760
  0
LINE
  8
0
  6
CONTINUOUS
 62
3
 10
-282.805816175162930
 20
-181.842850450280820
 11
-282.805816175162930
 21
-212.842850450280820
  0
LINE
  8
0
  6
CONTINUOUS
 62
3
 10
-282.805816175162930
 20
-181.842850450280820
 11
-282.805816175162930
 21
-150.842850450280820
  0
LINE
  8
0
  6
CONTINUOUS
 62
3
 10
-286.805816175162930
 20
-211.835349512547620
 11
-286.805816175162930
 21
-214.447594136557540
  0
LINE
  8
0
  6
CONTINUOUS
 62
3
 10
-286.805816175162930
 20
-151.850351388014020
 11
-286.805816175162930
 21
-149.238106764004100
  0
LINE
  8
0
  6
CONTINUOUS
 62
3
 10
-286.805816175162930
 20
-149.238106764004100
 11
-283.779639226855010
 21
-149.317349996226940
  0
LINE
  8
0
  6
CONTINUOUS
 62
3
 10
-282.805816175162930
 20
-213.368693579359160
 11
-282.805816175162930
 21
-150.317007321202480
  0
ARC
  8
0
  6
CONTINUOUS
 62
3
 10
-283.805816175162930
 20
-150.317007321202480
 40
1.000000000000000
 50
0.000000000000000
 51
88.499999999997257
  0
ARC
  8
0
  6
CONTINUOUS
 62
3
 10
-283.805816175162930
 20
-213.368693579359160
 40
0.999999999999988
 50
271.500000000002730
 51
0.000000000000000
  0
LINE
  8
0
  6
CONTINUOUS
 62
3
 10
-286.805816175162930
 20
-214.447594136557540
 11
-283.779639226855010
 21
-214.368350904334700
  0
ARC
  8
0
  6
CONTINUOUS
 62
4
 10
-350.305816175162930
 20
-422.442850450280730
 40
289.396999999999930
 50
90.000000000000000
 51
97.897988672427743
  0
ARC
  8
0
  6
CONTINUOUS
 62
4
 10
-389.247334130545030
 20
-141.734072909694080
 40
5.999999999999923
 50
97.897988672425626
 51
134.999999999996930
  0
ARC
  8
0
  6
CONTINUOUS
 62
3
 10
-394.254403605445420
 20
-131.746235982752520
 40
6.599999999999971
 50
98.597082237248614
 51
134.999999999998610
  0
ARC
  8
0
  6
CONTINUOUS
 62
3
 10
-354.305816175162930
 20
-153.120037217590380
 40
1.499999999999998
 50
277.928141766204020
 51
0.000000000000000
  0
ARC
  8
0
  6
CONTINUOUS
 62
3
 10
-350.305816175162480
 20
-181.842850450280820
 40
33.499999999999950
 50
97.180755781459069
 51
142.819244218541740
  0
ARC
  8
0
  6
CONTINUOUS
 62
3
 10
-350.305816175162480
 20
-181.842850450280820
 40
43.000000000000043
 50
95.531071524839788
 51
144.468928475160770
  0
ARC
  8
0
  6
CONTINUOUS
 62
3
 10
-350.305816175162480
 20
-181.842850450280820
 40
37.000000000000099
 50
95.963570118321798
 51
144.036429881678830
  0
ARC
  8
0
  6
CONTINUOUS
 62
3
 10
-373.180502102828650
 20
-164.017342218797690
 40
1.499999999999926
 50
239.999999999998410
 51
322.071858233800300
  0
ARC
  8
0
  6
CONTINUOUS
 62
3
 10
-375.801270344897490
 20
-162.504240968755540
 40
1.500000000000103
 50
142.819244218542510
 51
239.999999999998410
  0
ARC
  8
0
  6
CONTINUOUS
 62
3
 10
-381.467352629313720
 20
-159.232926836597240
 40
1.500000000000123
 50
240.000000000002730
 51
324.036429881683720
  0
LINE
  8
0
  6
CONTINUOUS
 62
3
 10
-373.930502102828650
 20
-165.316380324474270
 11
-376.551270344897490
 21
-163.803279074432110
  0
LINE
  8
0
  6
CONTINUOUS
 62
3
 10
-382.217352629313720
 20
-160.531964942274040
 11
-384.828536228297820
 21
-159.024397388496940
  0
ARC
  8
0
  6
CONTINUOUS
 62
3
 10
-384.078536228297820
 20
-157.725359282820140
 40
1.499999999999976
 50
144.468928475160790
 51
240.000000000002730
  0
ARC
  8
0
  6
CONTINUOUS
 62
3
 10
-379.801270344897940
 20
-194.253256701530520
 40
1.500000000000157
 50
202.819244218546660
 51
300.000000000001590
  0
LINE
  8
0
  6
CONTINUOUS
 62
3
 10
-379.051270344897940
 20
-195.552294807207090
 11
-376.430502102828650
 21
-194.039193557165160
  0
ARC
  8
0
  6
CONTINUOUS
 62
3
 10
-385.467352629314180
 20
-197.524570833688810
 40
1.499999999999926
 50
300.000000000001590
 51
24.036429881677126
  0
LINE
  8
0
  6
CONTINUOUS
 62
3
 10
-387.328536228298280
 20
-200.331176493142720
 11
-384.717352629314180
 21
-198.823608939365390
  0
ARC
  8
0
  6
CONTINUOUS
 62
3
 10
-388.078536228298280
 20
-199.032138387465690
 40
1.500000000000128
 50
204.468928475167470
 51
299.999999999992950
  0
ARC
  8
0
  6
CONTINUOUS
 62
3
 10
-377.180502102828650
 20
-192.740155451488140
 40
1.500000000000320
 50
299.999999999992950
 51
22.071858233784546
  0
ARC
  8
0
  6
CONTINUOUS
 62
3
 10
-350.305816175162700
 20
-181.842850450281280
 40
33.499999999999794
 50
157.180755781458400
 51
202.819244218540940
  0
ARC
  8
0
  6
CONTINUOUS
 62
3
 10
-350.305816175162700
 20
-181.842850450281280
 40
43.000000000000121
 50
155.531071524839230
 51
204.468928475160200
  0
ARC
  8
0
  6
CONTINUOUS
 62
3
 10
-350.305816175162700
 20
-181.842850450281280
 40
37.000000000000156
 50
155.963570118321120
 51
204.036429881678230
  0
ARC
  8
0
  6
CONTINUOUS
 62
3
 10
-350.305816175163390
 20
-181.842850450280820
 40
27.499999999999886
 50
157.928141766202200
 51
202.071858233798680
  0
ARC
  8
0
  6
CONTINUOUS
 62
3
 10
-377.180502102828880
 20
-170.945545449073510
 40
1.500000000000110
 50
337.928141766202600
 51
59.999999999998380
  0
ARC
  8
0
  6
CONTINUOUS
 62
3
 10
-379.801270344897720
 20
-169.432444199031580
 40
1.500000000000123
 50
60.000000000002721
 51
157.180755781457980
  0
ARC
  8
0
  6
CONTINUOUS
 62
3
 10
-385.467352629313950
 20
-166.161130066873280
 40
1.499999999999855
 50
335.963570118319300
 51
59.999999999990862
  0
LINE
  8
0
  6
CONTINUOUS
 62
3
 10
-376.430502102828880
 20
-169.646507343396930
 11
-379.051270344897720
 21
-168.133406093354780
  0
LINE
  8
0
  6
CONTINUOUS
 62
3
 10
-384.717352629313720
 20
-164.862091961196710
 11
-387.328536228298280
 21
-163.354524407419600
  0
ARC
  8
0
  6
CONTINUOUS
 62
3
 10
-388.078536228298280
 20
-164.653562513096180
 40
1.499999999999926
 50
59.999999999998380
 51
155.531071524840400
  0
ARC
  8
0
  6
CONTINUOUS
 62
3
 10
-375.801270344897940
 20
-201.181459931805880
 40
1.499999999999926
 50
120.000000000001620
 51
217.180755781464400
  0
LINE
  8
0
  6
CONTINUOUS
 62
3
 10
-376.551270344897940
 20
-199.882421826129300
 11
-373.930502102828650
 21
-198.369320576086920
  0
ARC
  8
0
  6
CONTINUOUS
 62
3
 10
-381.467352629314180
 20
-204.452774063964170
 40
1.499999999999968
 50
35.963570118309242
 51
120.000000000001620
  0
LINE
  8
0
  6
CONTINUOUS
 62
3
 10
-384.828536228298280
 20
-204.661303512064930
 11
-382.217352629314180
 21
-203.153735958287600
  0
ARC
  8
0
  6
CONTINUOUS
 62
3
 10
-384.078536228298280
 20
-205.960341617741510
 40
1.499999999999926
 50
120.000000000001620
 51
215.531071524832130
  0
ARC
  8
0
  6
CONTINUOUS
 62
3
 10
-373.180502102828650
 20
-199.668358681763950
 40
1.500000000000122
 50
37.928141766218701
 51
119.999999999992930
  0
ARC
  8
0
  6
CONTINUOUS
 62
3
 10
-350.305816175163160
 20
-181.842850450280370
 40
33.500000000000163
 50
217.180755781459110
 51
262.819244218541770
  0
ARC
  8
0
  6
CONTINUOUS
 62
3
 10
-350.305816175163160
 20
-181.842850450280370
 40
42.999999999999858
 50
215.531071524839690
 51
264.468928475160850
  0
ARC
  8
0
  6
CONTINUOUS
 62
3
 10
-350.305816175163160
 20
-181.842850450280370
 40
37.000000000000021
 50
215.963570118321970
 51
264.036429881678940
  0
ARC
  8
0
  6
CONTINUOUS
 62
3
 10
-350.305816175163160
 20
-181.842850450281280
 40
27.499999999999780
 50
217.928141766201070
 51
262.071858233797400
  0
ARC
  8
0
  6
CONTINUOUS
 62
3
 10
-354.305816175163160
 20
-210.565663682971260
 40
1.500000000000000
 50
0.000000000000000
 51
82.071858233804562
  0
ARC
  8
0
  6
CONTINUOUS
 62
3
 10
-354.305816175163160
 20
-213.591866183055570
 40
1.499999999999998
 50
262.819244218541710
 51
0.000000000000000
  0
ARC
  8
0
  6
CONTINUOUS
 62
3
 10
-354.305816175163160
 20
-220.134494447372160
 40
1.500000000000000
 50
0.000000000017370
 51
84.036429881682594
  0
LINE
  8
0
  6
CONTINUOUS
 62
3
 10
-352.805816175163160
 20
-210.565663682971260
 11
-352.805816175163160
 21
-213.591866183055570
  0
LINE
  8
0
  6
CONTINUOUS
 62
3
 10
-352.805816175163160
 20
-220.134494447371710
 11
-352.805816175163160
 21
-223.149629554925920
  0
ARC
  8
0
  6
CONTINUOUS
 62
3
 10
-354.305816175163160
 20
-223.149629554925920
 40
1.500000000000430
 50
264.468928475160000
 51
0.000000000000000
  0
ARC
  8
0
  6
CONTINUOUS
 62
3
 10
-324.810362005427920
 20
-201.181459931805880
 40
1.500000000000240
 50
322.819244218535570
 51
59.999999999998380
  0
LINE
  8
0
  6
CONTINUOUS
 62
3
 10
-324.060362005427920
 20
-199.882421826129300
 11
-326.681130247497210
 21
-198.369320576086920
  0
ARC
  8
0
  6
CONTINUOUS
 62
3
 10
-319.144279721011690
 20
-204.452774063964170
 40
1.499999999999926
 50
59.999999999998380
 51
144.036429881690740
  0
ARC
  8
0
  6
CONTINUOUS
 62
3
 10
-327.431130247497210
 20
-199.668358681763950
 40
1.500000000000320
 50
60.000000000007070
 51
142.071858233781280
  0
ARC
  8
0
  6
CONTINUOUS
 62
3
 10
-350.305816175162700
 20
-181.842850450280370
 40
33.500000000000114
 50
277.180755781458230
 51
322.819244218540860
  0
ARC
  8
0
  6
CONTINUOUS
 62
3
 10
-350.305816175162700
 20
-181.842850450280370
 40
43.000000000000199
 50
275.531071524838860
 51
324.468928475160340
  0
ARC
  8
0
  6
CONTINUOUS
 62
3
 10
-350.305816175162700
 20
-181.842850450280370
 40
37.000000000000028
 50
275.963570118320770
 51
324.036429881678030
  0
ARC
  8
0
  6
CONTINUOUS
 62
3
 10
-350.305816175162700
 20
-181.842850450281280
 40
27.499999999999879
 50
277.928141766202600
 51
322.071858233798930
  0
ARC
  8
0
  6
CONTINUOUS
 62
3
 10
-346.305816175162700
 20
-210.565663682971260
 40
1.499999999999967
 50
97.928141766195438
 51
180.000000000000000
  0
ARC
  8
0
  6
CONTINUOUS
 62
3
 10
-346.305816175162700
 20
-213.591866183055570
 40
1.500000000000000
 50
180.000000000000000
 51
277.180755781458290
  0
ARC
  8
0
  6
CONTINUOUS
 62
3
 10
-346.305816175162700
 20
-220.134494447372160
 40
1.500000000000182
 50
95.963570118326047
 51
179.999999999982630
  0
LINE
  8
0
  6
CONTINUOUS
 62
3
 10
-347.805816175162700
 20
-210.565663682971260
 11
-347.805816175162700
 21
-213.591866183055570
  0
LINE
  8
0
  6
CONTINUOUS
 62
3
 10
-347.805816175162700
 20
-220.134494447371710
 11
-347.805816175162700
 21
-223.149629554925920
  0
ARC
  8
0
  6
CONTINUOUS
 62
3
 10
-346.305816175162700
 20
-223.149629554925920
 40
1.500000000000000
 50
180.000000000000000
 51
275.531071524831360
  0
ARC
  8
0
  6
CONTINUOUS
 62
3
 10
-320.810362005427920
 20
-194.253256701530520
 40
1.499999999999926
 50
239.999999999998410
 51
337.180755781453340
  0
LINE
  8
0
  6
CONTINUOUS
 62
3
 10
-321.560362005427920
 20
-195.552294807207090
 11
-324.181130247497210
 21
-194.039193557165160
  0
ARC
  8
0
  6
CONTINUOUS
 62
3
 10
-323.431130247497210
 20
-192.740155451488140
 40
1.499999999999899
 50
157.928141766199360
 51
240.000000000007050
  0
ARC
  8
0
  6
CONTINUOUS
 62
3
 10
-350.305816175163160
 20
-181.842850450281280
 40
33.500000000000128
 50
337.180755781459030
 51
22.819244218541968
  0
ARC
  8
0
  6
CONTINUOUS
 62
3
 10
-350.305816175162480
 20
-181.842850450280820
 40
27.499999999999886
 50
337.928141766202200
 51
22.071858233797812
  0
ARC
  8
0
  6
CONTINUOUS
 62
3
 10
-323.431130247496980
 20
-170.945545449073510
 40
1.499999999999926
 50
120.000000000001620
 51
202.071858233797370
  0
ARC
  8
0
  6
CONTINUOUS
 62
3
 10
-320.810362005428150
 20
-169.432444199031580
 40
1.499999999999948
 50
22.819244218550043
 51
119.999999999997270
  0
LINE
  8
0
  6
CONTINUOUS
 62
3
 10
-324.181130247496980
 20
-169.646507343396930
 11
-321.560362005428150
 21
-168.133406093354780
  0
ARC
  8
0
  6
CONTINUOUS
 62
3
 10
-350.305816175163390
 20
-181.842850450280820
 40
33.500000000000071
 50
37.180755781458259
 51
82.819244218540931
  0
ARC
  8
0
  6
CONTINUOUS
 62
3
 10
-350.305816175163390
 20
-181.842850450280820
 40
36.999999999999943
 50
35.963570118321194
 51
84.036429881678174
  0
ARC
  8
0
  6
CONTINUOUS
 62
3
 10
-319.144279721012140
 20
-159.232926836597240
 40
1.500000000000102
 50
215.963570118316280
 51
299.999999999997270
  0
ARC
  8
0
  6
CONTINUOUS
 62
3
 10
-324.810362005428370
 20
-162.504240968755540
 40
1.499999999999926
 50
300.000000000001590
 51
37.180755781457485
  0
ARC
  8
0
  6
CONTINUOUS
 62
3
 10
-350.305816175162700
 20
-181.842850450280370
 40
27.500000000000060
 50
37.928141766201819
 51
82.071858233798309
  0
ARC
  8
0
  6
CONTINUOUS
 62
3
 10
-346.305816175162930
 20
-153.120037217590380
 40
1.500000000000000
 50
180.000000000000000
 51
262.071858233795980
  0
LINE
  8
0
  6
CONTINUOUS
 62
3
 10
-326.681130247497210
 20
-165.316380324474270
 11
-324.060362005428370
 21
-163.803279074432110
  0
ARC
  8
0
  6
CONTINUOUS
 62
3
 10
-327.431130247497210
 20
-164.017342218797690
 40
1.499999999999843
 50
217.928141766204990
 51
300.000000000001590
  0
CIRCLE
  8
0
  6
CONTINUOUS
 62
3
 10
-350.305816175162930
 20
-181.842850450280370
 40
5.000000000000000
  0
ARC
  8
0
  6
CONTINUOUS
 62
3
 10
-344.368562241969020
 20
-173.796173140186970
 40
1.499999999999693
 50
233.578178478195410
 51
300.000000000001590
  0
ARC
  8
0
  6
CONTINUOUS
 62
3
 10
-346.305816175162930
 20
-172.677699060368470
 40
1.500000000000000
 50
180.000000000000000
 51
246.421821521804280
  0
ARC
  8
0
  6
CONTINUOUS
 62
3
 10
-333.130636906118180
 20
-167.307953922400430
 40
1.499999999999926
 50
300.000000000001590
 51
40.240348321182964
  0
ARC
  8
0
  6
CONTINUOUS
 62
3
 10
-346.305816175162930
 20
-169.473533573427400
 40
1.500000000000138
 50
72.079786860605225
 51
180.000000000000000
  0
ARC
  8
0
  6
CONTINUOUS
 62
3
 10
-346.305816175162930
 20
-162.757515766288180
 40
1.500000000000000
 50
180.000000000000000
 51
258.162995844103310
  0
ARC
  8
0
  6
CONTINUOUS
 62
3
 10
-335.777431499097130
 20
-168.836081493146590
 40
1.499999999999967
 50
221.837004155893280
 51
300.000000000001590
  0
ARC
  8
0
  6
CONTINUOUS
 62
3
 10
-346.305816175162930
 20
-159.701260624795850
 40
1.499999999999952
 50
79.759651678814024
 51
180.000000000000000
  0
ARC
  8
0
  6
CONTINUOUS
 62
3
 10
-341.593673532348590
 20
-172.194090396716090
 40
1.499999999999926
 50
300.000000000001590
 51
47.920213139381872
  0
LINE
  8
0
  6
CONTINUOUS
 62
3
 10
-335.027431499097130
 20
-170.135119598823170
 11
-332.380636906118180
 21
-168.606992028077000
  0
ARC
  8
0
  6
CONTINUOUS
 62
3
 10
-350.305816175162700
 20
-181.842850450280370
 40
14.499999999999860
 50
47.920213139391755
 51
72.079786860608309
  0
LINE
  8
0
  6
CONTINUOUS
 62
3
 10
-347.805816175162930
 20
-169.473533573427400
 11
-347.805816175162930
 21
-172.677699060368470
  0
LINE
  8
0
  6
CONTINUOUS
 62
3
 10
-347.805816175162930
 20
-159.701260624795850
 11
-347.805816175162930
 21
-162.757515766288180
  0
LINE
  8
0
  6
CONTINUOUS
 62
3
 10
-343.618562241969020
 20
-175.095211245863540
 11
-340.843673532348590
 21
-173.493128502392660
  0
ARC
  8
0
  6
CONTINUOUS
 62
3
 10
-350.305816175162700
 20
-181.842850450280370
 40
23.999999999999819
 50
40.240348321186090
 51
79.759651678814322
  0
ARC
  8
0
  6
CONTINUOUS
 62
3
 10
-350.305816175162700
 20
-181.842850450280370
 40
8.500000000000101
 50
53.578178478202659
 51
66.421821521799089
  0
ARC
  8
0
  6
CONTINUOUS
 62
3
 10
-337.593673532348590
 20
-184.563407273569280
 40
1.499999999999926
 50
239.999999999998410
 51
347.920213139390400
  0
LINE
  8
0
  6
CONTINUOUS
 62
3
 10
-338.343673532348590
 20
-185.862445379245860
 11
-341.118562241969020
 21
-184.260362635775440
  0
ARC
  8
0
  6
CONTINUOUS
 62
3
 10
-340.368562241969020
 20
-182.961324530098860
 40
1.500000000000099
 50
173.578178478198990
 51
239.999999999998410
  0
ARC
  8
0
  6
CONTINUOUS
 62
3
 10
-350.305816175162700
 20
-181.842850450280370
 40
8.499999999999865
 50
353.578178478199500
 51
6.421821521797448
  0
ARC
  8
0
  6
CONTINUOUS
 62
3
 10
-340.368562241969020
 20
-180.724376370462320
 40
1.499999999999926
 50
120.000000000001620
 51
186.421821521801010
  0
LINE
  8
0
  6
CONTINUOUS
 62
3
 10
-341.118562241969020
 20
-179.425338264785750
 11
-338.343673532348590
 21
-177.823255521314880
  0
ARC
  8
0
  6
CONTINUOUS
 62
3
 10
-337.593673532348590
 20
-179.122293626991450
 40
1.500000000000192
 50
12.079786860592611
 51
120.000000000001620
  0
ARC
  8
0
  6
CONTINUOUS
 62
3
 10
-350.305816175162700
 20
-181.842850450280370
 40
14.500000000000169
 50
347.920213139391310
 51
12.079786860606980
  0
ARC
  8
0
  6
CONTINUOUS
 62
3
 10
-329.130636906118180
 20
-189.449543747884950
 40
1.499999999999926
 50
239.999999999998410
 51
340.240348321188210
  0
LINE
  8
0
  6
CONTINUOUS
 62
3
 10
-329.880636906118180
 20
-190.748581853561520
 11
-332.527431499097130
 21
-189.220454282815810
  0
ARC
  8
0
  6
CONTINUOUS
 62
3
 10
-331.777431499097130
 20
-187.921416177138780
 40
1.500000000000038
 50
161.837004155895410
 51
240.000000000007050
  0
ARC
  8
0
  6
CONTINUOUS
 62
3
 10
-350.305816175162700
 20
-181.842850450280370
 40
17.999999999999943
 50
341.837004155893340
 51
18.162995844106646
  0
ARC
  8
0
  6
CONTINUOUS
 62
3
 10
-331.777431499097130
 20
-175.764284723421950
 40
1.499999999999926
 50
120.000000000001620
 51
198.162995844104590
  0
LINE
  8
0
  6
CONTINUOUS
 62
3
 10
-332.527431499097130
 20
-174.465246617745380
 11
-329.880636906118180
 21
-172.937119046999210
  0
ARC
  8
0
  6
CONTINUOUS
 62
3
 10
-329.130636906118180
 20
-174.236157152675790
 40
1.500000000000246
 50
19.759651678811824
 51
120.000000000001620
  0
ARC
  8
0
  6
CONTINUOUS
 62
3
 10
-350.305816175162700
 20
-181.842850450280370
 40
24.000000000000139
 50
340.240348321186050
 51
19.759651678813924
  0
ARC
  8
0
  6
CONTINUOUS
 62
3
 10
-363.017958817977270
 20
-184.563407273569280
 40
1.500000000000287
 50
192.079786860609600
 51
300.000000000001590
  0
LINE
  8
0
  6
CONTINUOUS
 62
3
 10
-362.267958817977270
 20
-185.862445379245860
 11
-359.493070108356850
 21
-184.260362635775440
  0
ARC
  8
0
  6
CONTINUOUS
 62
3
 10
-360.243070108356850
 20
-182.961324530098860
 40
1.499999999999926
 50
300.000000000001590
 51
6.421821521801967
  0
ARC
  8
0
  6
CONTINUOUS
 62
3
 10
-350.305816175163390
 20
-181.842850450280370
 40
8.499999999999813
 50
173.578178478202550
 51
186.421821521800500
  0
ARC
  8
0
  6
CONTINUOUS
 62
3
 10
-360.243070108356850
 20
-180.724376370462320
 40
1.499999999999873
 50
353.578178478198030
 51
59.999999999998380
  0
LINE
  8
0
  6
CONTINUOUS
 62
3
 10
-359.493070108356850
 20
-179.425338264785750
 11
-362.267958817977500
 21
-177.823255521314880
  0
ARC
  8
0
  6
CONTINUOUS
 62
3
 10
-363.017958817977500
 20
-179.122293626991450
 40
1.499999999999926
 50
59.999999999998380
 51
167.920213139405550
  0
ARC
  8
0
  6
CONTINUOUS
 62
3
 10
-350.305816175163390
 20
-181.842850450280370
 40
14.499999999999851
 50
167.920213139392840
 51
192.079786860608920
  0
ARC
  8
0
  6
CONTINUOUS
 62
3
 10
-371.480995444207680
 20
-189.449543747884950
 40
1.500000000000246
 50
199.759651678811820
 51
300.000000000001590
  0
LINE
  8
0
  6
CONTINUOUS
 62
3
 10
-370.730995444207680
 20
-190.748581853561520
 11
-368.084200851228730
 21
-189.220454282815810
  0
ARC
  8
0
  6
CONTINUOUS
 62
3
 10
-368.834200851228730
 20
-187.921416177138780
 40
1.500000000000320
 50
299.999999999992950
 51
18.162995844104589
  0
ARC
  8
0
  6
CONTINUOUS
 62
3
 10
-350.305816175163390
 20
-181.842850450280370
 40
17.999999999999726
 50
161.837004155893140
 51
198.162995844106860
  0
ARC
  8
0
  6
CONTINUOUS
 62
3
 10
-368.834200851228730
 20
-175.764284723421950
 40
1.500000000000038
 50
341.837004155895390
 51
59.999999999998380
  0
LINE
  8
0
  6
CONTINUOUS
 62
3
 10
-368.084200851228730
 20
-174.465246617745380
 11
-370.730995444207910
 21
-172.937119046999210
  0
ARC
  8
0
  6
CONTINUOUS
 62
3
 10
-371.480995444207910
 20
-174.236157152675790
 40
1.499999999999926
 50
59.999999999998380
 51
160.240348321185250
  0
ARC
  8
0
  6
CONTINUOUS
 62
3
 10
-350.305816175163390
 20
-181.842850450280370
 40
23.999999999999925
 50
160.240348321185910
 51
199.759651678814090
  0
ARC
  8
0
  6
CONTINUOUS
 62
3
 10
-359.017958817977270
 20
-191.491610503845100
 40
1.500000000000320
 50
119.999999999992930
 51
227.920213139381870
  0
LINE
  8
0
  6
CONTINUOUS
 62
3
 10
-359.767958817977270
 20
-190.192572398168070
 11
-356.993070108356850
 21
-188.590489654697650
  0
ARC
  8
0
  6
CONTINUOUS
 62
3
 10
-356.243070108356850
 20
-189.889527760374220
 40
1.500000000000059
 50
53.578178478205707
 51
120.000000000001620
  0
ARC
  8
0
  6
CONTINUOUS
 62
3
 10
-350.305816175162930
 20
-181.842850450280820
 40
8.499999999999870
 50
233.578178478199590
 51
246.421821521797680
  0
ARC
  8
0
  6
CONTINUOUS
 62
3
 10
-354.305816175162930
 20
-191.008001840192720
 40
1.500000000000000
 50
0.000000000017370
 51
66.421821521804304
  0
LINE
  8
0
  6
CONTINUOUS
 62
3
 10
-352.805816175162930
 20
-191.008001840192260
 11
-352.805816175162930
 21
-194.212167327133560
  0
ARC
  8
0
  6
CONTINUOUS
 62
3
 10
-354.305816175162930
 20
-194.212167327133560
 40
1.500000000000355
 50
252.079786860607900
 51
0.000000000000000
  0
ARC
  8
0
  6
CONTINUOUS
 62
3
 10
-350.305816175162930
 20
-181.842850450280820
 40
14.500000000000011
 50
227.920213139391080
 51
252.079786860607410
  0
ARC
  8
0
  6
CONTINUOUS
 62
3
 10
-367.480995444207680
 20
-196.377746978160760
 40
1.499999999999926
 50
120.000000000001620
 51
220.240348321176330
  0
LINE
  8
0
  6
CONTINUOUS
 62
3
 10
-368.230995444207680
 20
-195.078708872484190
 11
-365.584200851228730
 21
-193.550581301738020
  0
ARC
  8
0
  6
CONTINUOUS
 62
3
 10
-364.834200851228730
 20
-194.849619407414590
 40
1.500000000000118
 50
41.837004155899741
 51
120.000000000001620
  0
ARC
  8
0
  6
CONTINUOUS
 62
3
 10
-350.305816175162930
 20
-181.842850450280820
 40
17.999999999999940
 50
221.837004155892320
 51
258.162995844106770
  0
ARC
  8
0
  6
CONTINUOUS
 62
3
 10
-354.305816175162930
 20
-200.928185134273010
 40
1.500000000000000
 50
0.000000000000000
 51
78.162995844101530
  0
LINE
  8
0
  6
CONTINUOUS
 62
3
 10
-352.805816175162930
 20
-200.928185134273010
 11
-352.805816175162930
 21
-203.984440275765340
  0
ARC
  8
0
  6
CONTINUOUS
 62
3
 10
-354.305816175162930
 20
-203.984440275765340
 40
1.499999999999728
 50
259.759651678812470
 51
0.000000000000000
  0
ARC
  8
0
  6
CONTINUOUS
 62
3
 10
-350.305816175162930
 20
-181.842850450280820
 40
23.999999999999844
 50
220.240348321185340
 51
259.759651678813730
  0
ARC
  8
0
  6
CONTINUOUS
 62
3
 10
-341.593673532348590
 20
-191.491610503845100
 40
1.499999999999944
 50
312.079786860618130
 51
60.000000000007070
  0
LINE
  8
0
  6
CONTINUOUS
 62
3
 10
-340.843673532348590
 20
-190.192572398168070
 11
-343.618562241969020
 21
-188.590489654697650
  0
ARC
  8
0
  6
CONTINUOUS
 62
3
 10
-344.368562241969020
 20
-189.889527760374220
 40
1.499999999999926
 50
59.999999999998380
 51
126.421821521801260
  0
ARC
  8
0
  6
CONTINUOUS
 62
3
 10
-350.305816175162930
 20
-181.842850450280820
 40
8.500000000000060
 50
293.578178478202350
 51
306.421821521799190
  0
ARC
  8
0
  6
CONTINUOUS
 62
3
 10
-346.305816175162930
 20
-191.008001840192720
 40
1.500000000000139
 50
113.578178478195690
 51
179.999999999982630
  0
LINE
  8
0
  6
CONTINUOUS
 62
3
 10
-347.805816175162930
 20
-191.008001840192260
 11
-347.805816175162930
 21
-194.212167327133560
  0
ARC
  8
0
  6
CONTINUOUS
 62
3
 10
-346.305816175162930
 20
-194.212167327133560
 40
1.500000000000000
 50
180.000000000000000
 51
287.920213139392100
  0
ARC
  8
0
  6
CONTINUOUS
 62
3
 10
-350.305816175162930
 20
-181.842850450280820
 40
14.500000000000121
 50
287.920213139392560
 51
312.079786860608860
  0
ARC
  8
0
  6
CONTINUOUS
 62
3
 10
-333.130636906118180
 20
-196.377746978160760
 40
1.499999999999828
 50
319.759651678823670
 51
59.999999999998380
  0
LINE
  8
0
  6
CONTINUOUS
 62
3
 10
-332.380636906118180
 20
-195.078708872484190
 11
-335.027431499097130
 21
-193.550581301738020
  0
ARC
  8
0
  6
CONTINUOUS
 62
3
 10
-335.777431499097130
 20
-194.849619407414590
 40
1.499999999999926
 50
59.999999999998380
 51
138.162995844100240
  0
ARC
  8
0
  6
CONTINUOUS
 62
3
 10
-350.305816175162930
 20
-181.842850450280820
 40
18.000000000000146
 50
281.837004155893230
 51
318.162995844107680
  0
ARC
  8
0
  6
CONTINUOUS
 62
3
 10
-346.305816175162930
 20
-200.928185134273010
 40
1.499999999999731
 50
101.837004155898450
 51
180.000000000000000
  0
LINE
  8
0
  6
CONTINUOUS
 62
3
 10
-347.805816175162930
 20
-200.928185134273010
 11
-347.805816175162930
 21
-203.984440275765340
  0
ARC
  8
0
  6
CONTINUOUS
 62
3
 10
-346.305816175162930
 20
-203.984440275765340
 40
1.500000000000000
 50
180.000000000000000
 51
280.240348321187530
  0
ARC
  8
0
  6
CONTINUOUS
 62
3
 10
-350.305816175162930
 20
-181.842850450280820
 40
23.999999999999716
 50
280.240348321186270
 51
319.759651678814690
  0
ARC
  8
0
  6
CONTINUOUS
 62
3
 10
-354.305816175162930
 20
-169.473533573427400
 40
1.500000000000000
 50
0.000000000000000
 51
107.920213139394770
  0
LINE
  8
0
  6
CONTINUOUS
 62
3
 10
-352.805816175162930
 20
-169.473533573427400
 11
-352.805816175162930
 21
-172.677699060368470
  0
ARC
  8
0
  6
CONTINUOUS
 62
3
 10
-354.305816175162930
 20
-172.677699060368470
 40
1.500000000000139
 50
293.578178478195700
 51
0.000000000000000
  0
ARC
  8
0
  6
CONTINUOUS
 62
3
 10
-350.305816175163390
 20
-181.842850450280370
 40
8.499999999999879
 50
113.578178478199500
 51
126.421821521797340
  0
ARC
  8
0
  6
CONTINUOUS
 62
3
 10
-356.243070108356850
 20
-173.796173140186970
 40
1.499999999999926
 50
239.999999999998410
 51
306.421821521797600
  0
LINE
  8
0
  6
CONTINUOUS
 62
3
 10
-356.993070108356850
 20
-175.095211245863540
 11
-359.767958817977500
 21
-173.493128502392660
  0
ARC
  8
0
  6
CONTINUOUS
 62
3
 10
-359.017958817977500
 20
-172.194090396716090
 40
1.499999999999792
 50
132.079786860611680
 51
239.999999999998410
  0
ARC
  8
0
  6
CONTINUOUS
 62
3
 10
-350.305816175163390
 20
-181.842850450280370
 40
14.499999999999980
 50
107.920213139390830
 51
132.079786860607560
  0
ARC
  8
0
  6
CONTINUOUS
 62
3
 10
-354.305816175162930
 20
-159.701260624795850
 40
1.500000000000000
 50
0.000000000000000
 51
100.240348321194510
  0
LINE
  8
0
  6
CONTINUOUS
 62
3
 10
-352.805816175162930
 20
-159.701260624795850
 11
-352.805816175162930
 21
-162.757515766288180
  0
ARC
  8
0
  6
CONTINUOUS
 62
3
 10
-354.305816175162930
 20
-162.757515766288180
 40
1.499999999999954
 50
281.837004155896690
 51
0.000000000000000
  0
ARC
  8
0
  6
CONTINUOUS
 62
3
 10
-350.305816175163390
 20
-181.842850450280370
 40
17.999999999999829
 50
101.837004155891980
 51
138.162995844106210
  0
ARC
  8
0
  6
CONTINUOUS
 62
3
 10
-364.834200851228730
 20
-168.836081493146590
 40
1.499999999999926
 50
239.999999999998410
 51
318.162995844106720
  0
LINE
  8
0
  6
CONTINUOUS
 62
3
 10
-365.584200851228730
 20
-170.135119598823170
 11
-368.230995444207910
 21
-168.606992028077000
  0
ARC
  8
0
  6
CONTINUOUS
 62
3
 10
-367.480995444207910
 20
-167.307953922400430
 40
1.499999999999802
 50
139.759651678811420
 51
239.999999999998410
  0
ARC
  8
0
  6
CONTINUOUS
 62
3
 10
-350.305816175163390
 20
-181.842850450280370
 40
23.999999999999901
 50
100.240348321185670
 51
139.759651678813550
  0
ARC
  8
0
  6
CONTINUOUS
 62
3
 10
-354.305816175162930
 20
-150.093834717505840
 40
1.500000000000000
 50
0.000000000000000
 51
97.180755781458288
  0
LINE
  8
0
  6
CONTINUOUS
 62
3
 10
-352.805816175162930
 20
-150.093834717505840
 11
-352.805816175162930
 21
-153.120037217590380
  0
ARC
  8
0
  6
CONTINUOUS
 62
3
 10
-354.305816175162930
 20
-143.551206453189250
 40
1.499999999999933
 50
275.963570118318330
 51
0.000000000000000
  0
LINE
  8
0
  6
CONTINUOUS
 62
3
 10
-352.805816175162930
 20
-140.536071345635040
 11
-352.805816175162930
 21
-143.551206453189250
  0
LINE
  8
0
  6
CONTINUOUS
 62
3
 10
-315.783096122027590
 20
-204.661303512064930
 11
-318.394279721011690
 21
-203.153735958287600
  0
ARC
  8
0
  6
CONTINUOUS
 62
3
 10
-316.533096122027590
 20
-205.960341617741510
 40
1.499999999999844
 50
324.468928475167900
 51
59.999999999998380
  0
ARC
  8
0
  6
CONTINUOUS
 62
3
 10
-315.144279721011690
 20
-197.524570833688810
 40
1.500000000000063
 50
155.963570118322880
 51
239.999999999998410
  0
LINE
  8
0
  6
CONTINUOUS
 62
3
 10
-313.283096122027590
 20
-200.331176493142720
 11
-315.894279721011690
 21
-198.823608939365390
  0
ARC
  8
0
  6
CONTINUOUS
 62
3
 10
-312.533096122027590
 20
-199.032138387465690
 40
1.500000000000320
 50
240.000000000007050
 51
335.531071524832500
  0
ARC
  8
0
  6
CONTINUOUS
 62
3
 10
-350.305816175163160
 20
-181.842850450281280
 40
42.999999999999936
 50
335.531071524839770
 51
24.468928475160769
  0
ARC
  8
0
  6
CONTINUOUS
 62
3
 10
-350.305816175163160
 20
-181.842850450281280
 40
36.999999999999972
 50
335.963570118321740
 51
24.036429881678870
  0
ARC
  8
0
  6
CONTINUOUS
 62
3
 10
-315.144279721011910
 20
-166.161130066873280
 40
1.500000000000123
 50
119.999999999997270
 51
204.036429881680680
  0
LINE
  8
0
  6
CONTINUOUS
 62
3
 10
-315.894279721011910
 20
-164.862091961196480
 11
-313.283096122027590
 21
-163.354524407419380
  0
ARC
  8
0
  6
CONTINUOUS
 62
3
 10
-312.533096122027590
 20
-164.653562513096180
 40
1.500000000000034
 50
24.468928475159590
 51
119.999999999997270
  0
ARC
  8
0
  6
CONTINUOUS
 62
3
 10
-350.305816175163390
 20
-181.842850450280820
 40
42.999999999999908
 50
35.531071524839248
 51
84.468928475160212
  0
ARC
  8
0
  6
CONTINUOUS
 62
3
 10
-316.533096122028040
 20
-157.725359282820140
 40
1.500000000000123
 50
299.999999999997270
 51
35.531071524839192
  0
ARC
  8
0
  6
CONTINUOUS
 62
3
 10
-346.305816175162930
 20
-143.551206453189250
 40
1.500000000000000
 50
180.000000000000000
 51
264.036429881682580
  0
ARC
  8
0
  6
CONTINUOUS
 62
3
 10
-346.305816175162930
 20
-150.093834717505840
 40
1.499999999999998
 50
82.819244218541712
 51
180.000000000000000
  0
LINE
  8
0
  6
CONTINUOUS
 62
3
 10
-347.805816175162930
 20
-150.093834717505840
 11
-347.805816175162930
 21
-153.120037217590380
  0
LINE
  8
0
  6
CONTINUOUS
 62
3
 10
-318.394279721012140
 20
-160.531964942274040
 11
-315.783096122028040
 21
-159.024397388496940
  0
LINE
  8
0
  6
CONTINUOUS
 62
3
 10
-347.805816175162930
 20
-140.536071345635260
 11
-347.805816175162930
 21
-143.551206453189250
  0
ARC
  8
0
  6
CONTINUOUS
 62
3
 10
-350.305816175163160
 20
-181.842850450280370
 40
27.499999999999815
 50
97.928141766201691
 51
142.071858233797880
  0
ARC
  8
0
  6
CONTINUOUS
 62
3
 10
-350.305816175162700
 20
-181.842850450280370
 40
17.999999999999922
 50
41.837004155893325
 51
78.162995844107314
  0
ARC
  8
0
  6
CONTINUOUS
 62
3
 10
-354.305816175162930
 20
-140.536071345635040
 40
1.500000000000000
 50
0.000000000000000
 51
95.531071524841693
  0
ARC
  8
0
  6
CONTINUOUS
 62
3
 10
-346.305816175162930
 20
-140.536071345635260
 40
1.500000000000203
 50
84.468928475159132
 51
180.000000000000000
  0
ARC
  8
0
  6
CONTINUOUS
 62
3
 10
-350.305816175162930
 20
-422.442850450280730
 40
300.599999999999910
 50
90.000000000000000
 51
98.597082237249069
  0
ARC
  8
0
  6
CONTINUOUS
 62
3
 10
-350.305816175162930
 20
58.757149549719315
 40
300.600000000000140
 50
270.000000000000000
 51
278.597082237249080
  0
ARC
  8
0
  6
CONTINUOUS
 62
3
 10
-306.357228744880440
 20
-131.746235982752520
 40
6.600000000000118
 50
45.000000000001400
 51
81.402917762751386
  0
ARC
  8
0
  6
CONTINUOUS
 62
3
 10
-350.305816175162930
 20
-422.442850450280730
 40
300.599999999999800
 50
81.402917762750931
 51
90.000000000000000
  0
ARC
  8
0
  6
CONTINUOUS
 62
3
 10
-306.357228744880440
 20
-231.939464917809350
 40
6.599999999999747
 50
278.597082237248910
 51
315.000000000000000
  0
ARC
  8
0
  6
CONTINUOUS
 62
3
 10
-350.305816175162930
 20
58.757149549719315
 40
300.600000000000020
 50
261.402917762750920
 51
270.000000000000000
  0
ARC
  8
0
  6
CONTINUOUS
 62
3
 10
-394.254403605445420
 20
-231.939464917809350
 40
6.599999999999957
 50
225.000000000000000
 51
261.402917762751090
  0
LINE
  8
0
  6
CONTINUOUS
 62
3
 10
-301.690323989049260
 20
-127.079331226921340
 11
-294.623874870390300
 21
-134.145780345580310
  0
ARC
  8
0
  6
CONTINUOUS
 62
3
 10
-313.432915249952540
 20
-152.954820725142550
 40
26.600000000000193
 50
6.051985358668552
 51
45.000000000000000
  0
LINE
  8
0
  6
CONTINUOUS
 62
3
 10
-398.921308361276600
 20
-127.079331226921340
 11
-405.987757479935570
 21
-134.145780345580310
  0
ARC
  8
0
  6
CONTINUOUS
 62
3
 10
-387.178717100373320
 20
-152.954820725142550
 40
26.600000000000119
 50
135.000000000000000
 51
173.948014641331410
  0
LINE
  8
0
  6
CONTINUOUS
 62
3
 10
-398.921308361276600
 20
-236.606369673640530
 11
-405.987757479935790
 21
-229.539920554980880
  0
ARC
  8
0
  6
CONTINUOUS
 62
3
 10
-114.705816175162900
 20
-181.842850450280820
 40
300.599999999999970
 50
173.948014641331500
 51
186.051985358668500
  0
ARC
  8
0
  6
CONTINUOUS
 62
3
 10
-387.178717100373320
 20
-210.730880175419090
 40
26.599999999999969
 50
186.051985358668590
 51
224.999999999998980
  0
ARC
  8
0
  6
CONTINUOUS
 62
3
 10
-585.905816175162840
 20
-181.842850450280820
 40
300.600000000000080
 50
353.948014641331500
 51
6.051985358668499
  0
LINE
  8
0
  6
CONTINUOUS
 62
3
 10
-301.690323989049260
 20
-236.606369673640530
 11
-294.623874870389840
 21
-229.539920554980880
  0
ARC
  8
0
  6
CONTINUOUS
 62
3
 10
-313.432915249952320
 20
-210.730880175419090
 40
26.599999999999955
 50
315.000000000001020
 51
353.948014641331380
  0
ARC
  8
0
  6
CONTINUOUS
 62
4
 10
-387.178717100373320
 20
-152.954820725142550
 40
15.396999999999876
 50
135.000000000000000
 51
173.948014641331160
  0
LINE
  8
0
  6
CONTINUOUS
 62
4
 10
-393.489974817664120
 20
-137.491432222574530
 11
-398.066040210302730
 21
-142.067497615213140
  0
ARC
  8
0
  6
CONTINUOUS
 62
4
 10
-114.705816175163020
 20
-181.842850450280820
 40
289.396999999999930
 50
173.948014641331470
 51
180.000000000000000
  0
ARC
  8
0
  6
CONTINUOUS
 62
4
 10
-350.305816175162930
 20
-422.442850450280730
 40
289.396999999999820
 50
82.102011327572214
 51
90.000000000000000
  0
ARC
  8
0
  6
CONTINUOUS
 62
4
 10
-311.364298219780610
 20
-141.734072909694080
 40
6.000000000000049
 50
45.000000000003077
 51
82.102011327574374
  0
LINE
  8
0
  6
CONTINUOUS
 62
4
 10
-307.121657532661520
 20
-137.491432222574530
 11
-302.545592140022900
 21
-142.067497615213140
  0
ARC
  8
0
  6
CONTINUOUS
 62
4
 10
-313.432915249952320
 20
-152.954820725142550
 40
15.397000000000052
 50
6.051985358668849
 51
45.000000000000000
  0
ARC
  8
0
  6
CONTINUOUS
 62
4
 10
-585.905816175162840
 20
-181.842850450280820
 40
289.397000000000160
 50
0.000000000000000
 51
6.051985358668508
  0
ARC
  8
0
  6
CONTINUOUS
 62
4
 10
-350.305816175162930
 20
58.757149549719088
 40
289.396999999999930
 50
270.000000000000000
 51
277.897988672427800
  0
ARC
  8
0
  6
CONTINUOUS
 62
4
 10
-311.364298219780610
 20
-221.951627990867560
 40
5.999999999999923
 50
277.897988672425640
 51
314.999999999996870
  0
LINE
  8
0
  6
CONTINUOUS
 62
4
 10
-307.121657532661520
 20
-226.194268677987110
 11
-302.545592140022900
 21
-221.618203285348500
  0
ARC
  8
0
  6
CONTINUOUS
 62
4
 10
-313.432915249952320
 20
-210.730880175419090
 40
15.396999999999876
 50
315.000000000000000
 51
353.948014641331160
  0
ARC
  8
0
  6
CONTINUOUS
 62
4
 10
-585.905816175162840
 20
-181.842850450280820
 40
289.397000000000160
 50
353.948014641331500
 51
0.000000000000000
  0
ARC
  8
0
  6
CONTINUOUS
 62
4
 10
-350.305816175162700
 20
58.757149549719088
 40
289.396999999999820
 50
262.102011327572200
 51
270.000000000000000
  0
ARC
  8
0
  6
CONTINUOUS
 62
4
 10
-389.247334130545030
 20
-221.951627990867560
 40
6.000000000000049
 50
225.000000000003070
 51
262.102011327574360
  0
LINE
  8
0
  6
CONTINUOUS
 62
4
 10
-393.489974817664120
 20
-226.194268677987110
 11
-398.066040210302730
 21
-221.618203285348500
  0
ARC
  8
0
  6
CONTINUOUS
 62
4
 10
-387.178717100373320
 20
-210.730880175419090
 40
15.397000000000052
 50
186.051985358668840
 51
225.000000000000000
  0
ARC
  8
0
  6
CONTINUOUS
 62
4
 10
-114.705816175162790
 20
-181.842850450280820
 40
289.397000000000160
 50
180.000000000000000
 51
186.051985358668500
  0
TEXT
  8
0
  6
CONTINUOUS
 62
3
 10
-433.089141845703120
 20
210.955017089843750
 40
17.100000381469727
  1
Ｄ０６１
 50
0.000002504478167
 41
0.833333333333333
  7
STANDARD1
  0
TEXT
  8
0
  6
CONTINUOUS
 62
3
 10
-433.089141845703120
 20
188.297515869140620
 40
17.100000381469727
  1
三菱ギヤードモートル
 50
0.000002504478167
 41
0.833333333333333
  7
STANDARD1
  0
TEXT
  8
0
  6
CONTINUOUS
 62
3
 10
-433.089141845703120
 20
165.640014648437500
 40
17.100000381469727
  1
ＧＭ－ＤＦ
 50
0.000002504478167
 41
0.833333333333333
  7
STANDARD1
  0
TEXT
  8
0
  6
CONTINUOUS
 62
3
 10
-433.089141845703120
 20
142.982513427734380
 40
17.100000381469727
  1
０．４（kＷ）
 50
0.000002504478167
 41
0.804878051688032
  7
STANDARD1
  0
TEXT
  8
0
  6
CONTINUOUS
 62
3
 10
-433.089141845703120
 20
120.325012207031250
 40
17.100000381469727
  1
１／１２０～１／２００
 50
0.000002504478167
 41
0.833333333333333
  7
STANDARD1
  0
TEXT
  8
0
  6
CONTINUOUS
 62
3
 10
-433.089141845703120
 20
97.667510986328125
 40
17.100000381469727
  1
ＳＣＡＬＥ　１／１
 50
0.000002504478167
 41
0.833333333333333
  7
STANDARD1
  0
LINE
  8
0
  6
DASHDOT
 62
4
 10
135.931337916305670
 20
-270.051003252003510
 11
81.999778522322913
 21
-270.051003252003510
  0
LINE
  8
0
  6
DASHDOT
 62
4
 10
135.931337916305670
 20
-29.634697648577458
 11
81.999778522322913
 21
-29.634697648577458
  0
CIRCLE
  8
0
  6
CONTINUOUS
 62
3
 10
362.117823189144020
 20
-149.842850450280820
 40
3.324999999999989
  0
CIRCLE
  8
0
  6
CONTINUOUS
 62
4
 10
362.117823189144020
 20
-149.842850450280820
 40
4.000000000000000
  0
LINE
  8
0
  6
CONTINUOUS
 62
3
 10
339.117823189144020
 20
-143.842850450280820
 11
339.117823189144020
 21
-155.842850450280820
  0
ARC
  8
0
  6
CONTINUOUS
 62
3
 10
362.117823189144020
 20
-149.842850450280820
 40
31.000000000000256
 50
70.008590721901967
 51
180.000000000000000
  0
CIRCLE
  8
0
  6
CONTINUOUS
 62
3
 10
362.117823189144020
 20
-149.842850450280820
 40
31.000000000000057
  0
LINE
  8
0
  6
CONTINUOUS
 62
3
 10
347.117823189144020
 20
-143.842850450280820
 11
347.117823189144020
 21
-155.842850450280820
  0
ARC
  8
0
  6
CONTINUOUS
 62
3
 10
362.117823189144020
 20
-149.842850450280820
 40
20.000000000000014
 50
197.457603123722070
 51
162.542396876277930
  0
ARC
  8
0
  6
CONTINUOUS
 62
3
 10
191.338408127252020
 20
-169.442864114868370
 40
0.399999999999636
 50
270.000000000000000
 51
0.000000000000000
  0
LINE
  8
0
  6
CONTINUOUS
 62
3
 10
191.738408127252110
 20
-149.842864114868010
 11
191.738408127252110
 21
-169.442864114868370
  0
LINE
  8
0
  6
CONTINUOUS
 62
3
 10
134.798222874256230
 20
-169.842864114868010
 11
134.238415253120820
 21
-169.692864114868370
  0
LINE
  8
0
  6
CONTINUOUS
 62
3
 10
191.338408127252020
 20
-169.842864114868010
 11
134.798222874256680
 21
-169.842864114868010
  0
LINE
  8
0
  6
CONTINUOUS
 62
3
 10
131.738408127252110
 20
-149.842864114868010
 11
131.738408127252110
 21
-171.942864114868370
  0
LINE
  8
0
  6
CONTINUOUS
 62
3
 10
131.338408127252020
 20
-172.342864114868010
 11
131.738408127252110
 21
-171.942864114868370
  0
LINE
  8
0
  6
CONTINUOUS
 62
3
 10
134.238415253120820
 20
-169.692864114868370
 11
133.338408127252020
 21
-169.692864114868370
  0
ARC
  8
0
  6
CONTINUOUS
 62
3
 10
133.338408127252020
 20
-171.292864114867830
 40
1.599999999999454
 50
90.000000000000000
 51
180.000000000000000
  0
LINE
  8
0
  6
CONTINUOUS
 62
3
 10
134.798222874256230
 20
-129.842864114868010
 11
134.238415253120820
 21
-129.992864114868550
  0
LINE
  8
0
  6
CONTINUOUS
 62
3
 10
131.738408127252110
 20
-149.842864114868010
 11
131.738408127252110
 21
-127.742864114868550
  0
LINE
  8
0
  6
CONTINUOUS
 62
3
 10
131.338408127252020
 20
-127.342864114868000
 11
131.738408127252110
 21
-127.742864114868550
  0
LINE
  8
0
  6
CONTINUOUS
 62
3
 10
134.238415253120820
 20
-129.992864114868550
 11
133.338408127252020
 21
-129.992864114868550
  0
ARC
  8
0
  6
CONTINUOUS
 62
3
 10
133.338408127252020
 20
-128.392864114868190
 40
1.599999999999909
 50
180.000000000000000
 51
270.000000000000000
  0
LINE
  8
0
  6
CONTINUOUS
 62
3
 10
191.338408127252020
 20
-129.842864114868010
 11
134.798222874256680
 21
-129.842864114868010
  0
ARC
  8
0
  6
CONTINUOUS
 62
3
 10
191.338408127252020
 20
-130.242864114868550
 40
0.400000000000091
 50
0.000000000000000
 51
90.000000000000000
  0
LINE
  8
0
  6
CONTINUOUS
 62
3
 10
131.338408127252020
 20
-127.342864114868000
 11
129.738408127253020
 21
-127.342864114868000
  0
LINE
  8
0
  6
CONTINUOUS
 62
3
 10
131.338408127252020
 20
-172.342864114868010
 11
129.738408127253020
 21
-172.342864114868010
  0
LINE
  8
0
  6
CONTINUOUS
 62
3
 10
191.738408127252110
 20
-149.842864114868010
 11
191.738408127252110
 21
-130.242864114868550
  0
ARC
  8
0
  6
CONTINUOUS
 62
3
 10
76.308987188007450
 20
-69.023191920988438
 40
3.000000000000227
 50
270.000000000000000
 51
320.270935214703170
  0
ARC
  8
0
  6
CONTINUOUS
 62
3
 10
96.238408127253024
 20
-45.042850494934100
 40
2.999999999999973
 50
320.270935214704250
 51
0.000000000000000
  0
LINE
  8
0
  6
CONTINUOUS
 62
3
 10
78.616213461073812
 20
-70.940666021172319
 11
98.545634400318932
 21
-46.960324595117527
  0
ARC
  8
0
  6
CONTINUOUS
 62
3
 10
76.308987188007450
 20
-74.862026685820410
 40
3.000000000000227
 50
270.000000000000000
 51
320.270935214703170
  0
ARC
  8
0
  6
CONTINUOUS
 62
3
 10
96.238408127253024
 20
-50.881685259766073
 40
2.999999999999973
 50
320.270935214704250
 51
0.000000000000000
  0
LINE
  8
0
  6
CONTINUOUS
 62
3
 10
78.616213461073812
 20
-76.779500786004292
 11
98.545634400318932
 21
-52.799159359949499
  0
LINE
  8
0
  6
CONTINUOUS
 62
3
 10
95.935283974182994
 20
-77.862026685820638
 11
80.764522876105502
 21
-77.862026685820638
  0
ARC
  8
0
  6
CONTINUOUS
 62
3
 10
102.238408127252790
 20
-286.842836785693630
 40
2.999999999999773
 50
180.000000000000000
 51
270.000000000000000
  0
LINE
  8
0
  6
CONTINUOUS
 62
3
 10
241.780017408915680
 20
-146.592850450280820
 11
306.467674667922890
 21
-146.592850450280820
  0
LINE
  8
0
  6
CONTINUOUS
 62
3
 10
241.780017408915680
 20
-153.092850450280820
 11
306.467674667922890
 21
-153.092850450280820
  0
LINE
  8
0
  6
CONTINUOUS
 62
3
 10
365.367823189144020
 20
-29.505044670052484
 11
365.367823189144020
 21
-94.192701929059922
  0
LINE
  8
0
  6
CONTINUOUS
 62
3
 10
358.867823189144020
 20
-29.505044670052484
 11
358.867823189144020
 21
-94.192701929059922
  0
LINE
  8
0
  6
CONTINUOUS
 62
3
 10
482.455628969372130
 20
-153.092850450280820
 11
417.767971710364920
 21
-153.092850450280820
  0
LINE
  8
0
  6
CONTINUOUS
 62
3
 10
482.455628969372130
 20
-146.592850450280820
 11
417.767971710364920
 21
-146.592850450280820
  0
LINE
  8
0
  6
CONTINUOUS
 62
3
 10
476.306141404845680
 20
-158.092850450281050
 11
476.306141404845680
 21
-195.888058292428700
  0
LINE
  8
0
  6
DASHDOT
 62
4
 10
362.117823189144020
 20
-302.904799384279610
 11
362.117823189144020
 21
13.190961261958364
  0
LINE
  8
0
  6
CONTINUOUS
 62
3
 10
247.663674326724960
 20
-236.012728065253670
 11
223.582289283210680
 21
-260.094113108771350
  0
LINE
  8
0
  6
CONTINUOUS
 62
3
 10
275.947945574189360
 20
-264.296999312713070
 11
251.866560530692820
 21
-288.378384356213470
  0
LINE
  8
0
  6
DASHDOT
 62
4
 10
254.476551799356060
 20
-257.484121840085780
 11
228.198605880701480
 21
-283.762067758744590
  0
LINE
  8
0
  6
CONTINUOUS
 62
3
 10
232.117823189144020
 20
-289.842850450280820
 11
362.117823189144020
 21
-289.842850450280820
  0
LINE
  8
0
  6
CONTINUOUS
 62
3
 10
222.117823189144020
 20
-279.842850450280820
 11
222.117823189144020
 21
-19.842850450280821
  0
LINE
  8
0
  6
CONTINUOUS
 62
3
 10
362.117823189143790
 20
-294.930658810462320
 11
421.044685820436370
 21
-294.930658810462320
  0
LINE
  8
0
  6
CONTINUOUS
 62
3
 10
448.287700804116410
 20
-264.296999312699880
 11
472.369085847634320
 21
-288.378384356214160
  0
LINE
  8
0
  6
DASHDOT
 62
4
 10
470.627371886304450
 20
-258.352399147424530
 11
496.154519350171090
 21
-283.879546611287200
  0
LINE
  8
0
  6
CONTINUOUS
 62
3
 10
362.117823189144020
 20
-289.842850450280820
 11
492.117823189144020
 21
-289.842850450280820
  0
LINE
  8
0
  6
CONTINUOUS
 62
3
 10
502.117823189144020
 20
-279.842850450280820
 11
502.117823189144020
 21
-19.842850450280821
  0
LINE
  8
0
  6
CONTINUOUS
 62
3
 10
476.571972051576270
 20
-236.012728065235480
 11
500.653357095076220
 21
-260.094113108732240
  0
LINE
  8
0
  6
CONTINUOUS
 62
3
 10
275.947945574171170
 20
-35.388701587862215
 11
251.866560530653490
 21
-11.307316544347941
  0
LINE
  8
0
  6
CONTINUOUS
 62
3
 10
247.663674326711770
 20
-63.672972835326618
 11
223.582289283211370
 21
-39.591587791829625
  0
LINE
  8
0
  6
CONTINUOUS
 62
3
 10
232.117823189144020
 20
-9.842850450280821
 11
492.117823189144020
 21
-9.842850450280821
  0
LINE
  8
0
  6
CONTINUOUS
 62
3
 10
448.287700804098680
 20
-35.388701587849027
 11
472.369085847595220
 21
-11.307316544348396
  0
LINE
  8
0
  6
CONTINUOUS
 62
3
 10
476.571972051562620
 20
-63.672972835308428
 11
500.653357095076900
 21
-39.591587791790516
  0
LINE
  8
0
  6
DASHDOT
 62
4
 10
331.273246368738460
 20
-181.842851247381530
 11
397.416670671620070
 21
-181.842851247381530
  0
LINE
  8
0
  6
DASHDOT
 62
4
 10
209.849724558391240
 20
-149.842850450280820
 11
519.600009510149900
 21
-149.842850450280820
  0
LINE
  8
0
  6
CONTINUOUS
 62
3
 10
-0.261597923953104
 20
-292.842853937597060
 11
102.150640838512110
 21
-295.840285139053780
  0
LINE
  8
0
  6
CONTINUOUS
 62
3
 10
-0.261597923953104
 20
-64.842885024533189
 11
86.192976609989501
 21
-61.823824755726491
  0
LINE
  8
0
  6
DASHDOT
 62
4
 10
57.655829201845336
 20
-149.842850450280820
 11
203.144830150463120
 21
-149.842850450280820
  0
LINE
  8
0
  6
CONTINUOUS
 62
3
 10
-0.261597923953104
 20
-64.842885024533189
 11
-0.261597923953104
 21
-292.842853937597060
  0
LINE
  8
0
  6
CONTINUOUS
 62
3
 10
117.238408127252790
 20
-289.842850450280820
 11
102.238408127252790
 21
-289.842850450280820
  0
LINE
  8
0
  6
CONTINUOUS
 62
3
 10
121.238408127253020
 20
-20.842864114868007
 11
121.238408127253250
 21
-149.842850450280820
  0
LINE
  8
0
  6
CONTINUOUS
 62
3
 10
99.238408127253024
 20
-12.842864114868007
 11
99.238408127253024
 21
-286.842836785693630
  0
LINE
  8
0
  6
CONTINUOUS
 62
3
 10
110.238408127253020
 20
-39.056053885896745
 11
110.238408127253020
 21
-141.842850450280820
  0
LINE
  8
0
  6
CONTINUOUS
 62
3
 10
117.238408127253020
 20
-9.842864114868007
 11
117.238408127256200
 21
-149.842850450280820
  0
LINE
  8
0
  6
CONTINUOUS
 62
3
 10
117.238408127253020
 20
-9.842864114868007
 11
102.238408127252790
 21
-9.842864114868007
  0
LINE
  8
0
  6
CONTINUOUS
 62
3
 10
120.238408127253020
 20
-19.842864114868007
 11
117.238408127253250
 21
-19.842864114868007
  0
LINE
  8
0
  6
CONTINUOUS
 62
3
 10
121.238408127253250
 20
-96.501974185260678
 11
124.895415946162300
 21
-96.693629843870212
  0
LINE
  8
0
  6
CONTINUOUS
 62
3
 10
127.738408077433400
 20
-99.689518448134095
 11
127.738408077433400
 21
-149.842850450280820
  0
LINE
  8
0
  6
CONTINUOUS
 62
3
 10
129.738408127253020
 20
-108.842864114868000
 11
129.738408127253020
 21
-190.842864114868010
  0
LINE
  8
0
  6
CONTINUOUS
 62
3
 10
127.738408077433400
 20
-199.995984079310570
 11
127.738408077433400
 21
-149.842850450280820
  0
LINE
  8
0
  6
CONTINUOUS
 62
3
 10
121.238408127253250
 20
-278.842850450280820
 11
121.238408127253250
 21
-149.842850450280820
  0
LINE
  8
0
  6
CONTINUOUS
 62
3
 10
124.895415946162300
 20
-202.991872683574460
 11
121.238408127253250
 21
-203.183528342183990
  0
LINE
  8
0
  6
CONTINUOUS
 62
3
 10
117.238408127252790
 20
-289.842850450280820
 11
117.238408127252790
 21
-149.842850450280820
  0
LINE
  8
0
  6
CONTINUOUS
 62
3
 10
120.238408127253250
 20
-279.842850450280820
 11
117.238408127252790
 21
-279.842850450280820
  0
LINE
  8
0
  6
CONTINUOUS
 62
3
 10
247.929504973441910
 20
-158.092850450280820
 11
247.929504973441910
 21
-195.888058292428700
  0
LINE
  8
0
  6
CONTINUOUS
 62
3
 10
120.238408127253020
 20
-19.842864114868007
 11
121.238408127253020
 21
-20.842864114868007
  0
LINE
  8
0
  6
CONTINUOUS
 62
3
 10
128.738408102343560
 20
-190.842864114868010
 11
129.738408127253020
 21
-190.842864114868010
  0
LINE
  8
0
  6
CONTINUOUS
 62
3
 10
121.238408127253250
 20
-278.842850450280820
 11
120.238408127253250
 21
-279.842850450280820
  0
LINE
  8
0
  6
CONTINUOUS
 62
3
 10
224.117823189144020
 20
-144.842850450280820
 11
224.349902394787930
 21
-144.842850450280820
  0
LINE
  8
0
  6
CONTINUOUS
 62
3
 10
128.738408102343560
 20
-108.842864114868000
 11
129.738408127253020
 21
-108.842864114868000
  0
LINE
  8
0
  6
CONTINUOUS
 62
3
 10
362.117823189144020
 20
-294.930658810462320
 11
303.190960557851440
 21
-294.930658810462320
  0
LINE
  8
0
  6
CONTINUOUS
 62
3
 10
98.836484338606397
 20
-25.539037447239934
 11
78.548018690951722
 21
-60.679690756593573
  0
LINE
  8
0
  6
CONTINUOUS
 62
3
 10
224.117823189144020
 20
-154.842850450280820
 11
224.349902394787930
 21
-154.842850450280820
  0
LINE
  8
0
  6
CONTINUOUS
 62
3
 10
500.117823189144020
 20
-154.842850450281050
 11
499.885743983499880
 21
-154.842850450281050
  0
LINE
  8
0
  6
CONTINUOUS
 62
3
 10
500.117823189144020
 20
-144.842850450280820
 11
499.885743983499880
 21
-144.842850450280820
  0
ARC
  8
0
  6
CONTINUOUS
 62
3
 10
306.467674667922890
 20
-156.092850450280820
 40
3.000000000000179
 50
6.407967039624588
 51
90.000000000000000
  0
ARC
  8
0
  6
CONTINUOUS
 62
3
 10
253.505199398906370
 20
-141.592850450280820
 40
5.000000000000173
 50
172.942004709554080
 51
270.000000000000000
  0
ARC
  8
0
  6
CONTINUOUS
 62
3
 10
241.780017408915680
 20
-143.592850450280820
 40
3.000000000000144
 50
177.026893139963730
 51
270.000000000000000
  0
ARC
  8
0
  6
CONTINUOUS
 62
3
 10
355.867823189144020
 20
-94.192701929059922
 40
2.999999999999952
 50
276.407967039625080
 51
0.000000000000000
  0
ARC
  8
0
  6
CONTINUOUS
 62
3
 10
241.780017408915680
 20
-156.092850450280820
 40
3.000000000000000
 50
90.000000000000000
 51
182.973106860036270
  0
ARC
  8
0
  6
CONTINUOUS
 62
3
 10
252.929504973441910
 20
-158.092850450280820
 40
5.000000000000000
 50
90.000000000000000
 51
180.000000000000000
  0
ARC
  8
0
  6
CONTINUOUS
 62
3
 10
368.367823189144020
 20
-94.192701929059922
 40
3.000000000000000
 50
180.000000000000000
 51
263.592032960370600
  0
ARC
  8
0
  6
CONTINUOUS
 62
3
 10
252.929504973442140
 20
-195.888058292428700
 40
5.000000000000227
 50
180.000000000000000
 51
202.865372927123560
  0
ARC
  8
0
  6
CONTINUOUS
 62
3
 10
368.367823189144020
 20
-29.505044670052484
 40
2.999999999999690
 50
87.026893139963278
 51
180.000000000000000
  0
ARC
  8
0
  6
CONTINUOUS
 62
3
 10
355.867823189144020
 20
-29.505044670052484
 40
3.000000000000000
 50
0.000000000000000
 51
92.973106860036722
  0
ARC
  8
0
  6
CONTINUOUS
 62
3
 10
417.767971710364920
 20
-143.592850450280820
 40
2.999999999999978
 50
186.407967039629400
 51
270.000000000000000
  0
ARC
  8
0
  6
CONTINUOUS
 62
3
 10
306.467674667922890
 20
-143.592850450280820
 40
3.000000000000000
 50
270.000000000000000
 51
353.592032960371110
  0
ARC
  8
0
  6
CONTINUOUS
 62
3
 10
417.767971710364920
 20
-156.092850450281050
 40
3.000000000000227
 50
90.000000000000000
 51
173.592032960374920
  0
ARC
  8
0
  6
CONTINUOUS
 62
3
 10
482.455628969372130
 20
-156.092850450280820
 40
2.999999999999917
 50
357.026893139963530
 51
90.000000000000000
  0
ARC
  8
0
  6
CONTINUOUS
 62
3
 10
482.455628969372130
 20
-143.592850450280820
 40
3.000000000000000
 50
270.000000000000000
 51
2.973106860036494
  0
ARC
  8
0
  6
CONTINUOUS
 62
3
 10
353.867823189144020
 20
-72.714391579631410
 40
5.000000000000000
 50
0.000000000000000
 51
90.960411656889562
  0
ARC
  8
0
  6
CONTINUOUS
 62
3
 10
471.306141404845680
 20
-158.092850450281050
 40
5.000000000000000
 50
0.000000000000000
 51
90.000000000000000
  0
ARC
  8
0
  6
CONTINUOUS
 62
3
 10
323.841744466508320
 20
-224.615451031099380
 40
50.500000000000078
 50
111.298869871463080
 51
165.196482760921950
  0
ARC
  8
0
  6
CONTINUOUS
 62
3
 10
410.885950948718800
 20
-189.726072945008580
 40
10.000000000000023
 50
140.723243944674460
 51
242.705659254349090
  0
ARC
  8
0
  6
CONTINUOUS
 62
3
 10
390.709232576205070
 20
-228.827224279928030
 40
40.499999999999986
 50
357.185211996778430
 51
61.540294027493751
  0
ARC
  8
0
  6
CONTINUOUS
 62
3
 10
433.770789759035780
 20
-237.866156351240990
 40
10.000000000000044
 50
168.145311946518550
 51
309.146370585137730
  0
ARC
  8
0
  6
CONTINUOUS
 62
3
 10
441.148304123198610
 20
-231.307156028442480
 40
10.000000000000245
 50
177.185211996777720
 51
314.131204225173580
  0
CIRCLE
  8
0
  6
CONTINUOUS
 62
3
 10
362.117823189144020
 20
-149.842850450280820
 40
53.000013664587186
  0
ARC
  8
0
  6
CONTINUOUS
 62
3
 10
232.117823189144020
 20
-279.842850450280820
 40
10.000000000000000
 50
180.000000000000000
 51
270.000000000000000
  0
CIRCLE
  8
0
  6
CONTINUOUS
 62
3
 10
241.909670387440660
 20
-270.051003252003740
 40
9.500000000000000
  0
ARC
  8
0
  6
CONTINUOUS
 62
3
 10
240.592606514858740
 20
-228.941660253388360
 40
10.000000000000401
 50
315.000000000003640
 51
33.059456039395712
  0
ARC
  8
0
  6
CONTINUOUS
 62
3
 10
390.709232576205070
 20
-228.827224279928030
 40
34.000000000000107
 50
348.145311946518920
 51
62.705659254348859
  0
ARC
  8
0
  6
CONTINUOUS
 62
3
 10
283.019013386055120
 20
-271.368067124578370
 40
10.000000000000053
 50
56.940543960613702
 51
135.000000000001820
  0
ARC
  8
0
  6
DASHDOT
 62
4
 10
362.117823189143560
 20
-149.842850450280820
 40
169.999999999999940
 50
214.560321779998080
 51
233.396922433370720
  0
ARC
  8
0
  6
CONTINUOUS
 62
3
 10
429.117823189144020
 20
-284.842850450280820
 40
12.920504033735240
 50
301.640102641906310
 51
337.233171499442110
  0
ARC
  8
0
  6
CONTINUOUS
 62
3
 10
429.117823189144020
 20
-284.842850450280820
 40
12.920504033735355
 50
231.330182039103220
 51
238.359897358093660
  0
CIRCLE
  8
0
  6
CONTINUOUS
 62
3
 10
362.117823189144020
 20
-149.842850450280820
 40
130.000000000000000
  0
CIRCLE
  8
0
  6
CONTINUOUS
 62
3
 10
362.117823189144020
 20
-149.842850450280820
 40
123.500000000000000
  0
ARC
  8
0
  6
CONTINUOUS
 62
3
 10
362.117823189144020
 20
-149.842850450280820
 40
135.000000000000000
 50
236.940543960613270
 51
303.059456039395570
  0
ARC
  8
0
  6
CONTINUOUS
 62
3
 10
441.216632992251110
 20
-271.368067124566100
 40
10.000000000000401
 50
45.000000000003688
 51
123.059456039393490
  0
ARC
  8
0
  6
CONTINUOUS
 62
3
 10
492.117823189144020
 20
-279.842850450280820
 40
10.000000000000000
 50
270.000000000000000
 51
0.000000000000000
  0
CIRCLE
  8
0
  6
CONTINUOUS
 62
3
 10
482.325975990866940
 20
-270.051003251984640
 40
9.500000000000000
  0
ARC
  8
0
  6
CONTINUOUS
 62
3
 10
304.084023672532340
 20
-174.359780017498450
 40
9.999999999999874
 50
291.461978362654920
 51
22.902088473504499
  0
ARC
  8
0
  6
CONTINUOUS
 62
3
 10
414.774532995420710
 20
-184.430024866756870
 40
9.999999999999941
 50
146.701382572444940
 51
241.540294027493160
  0
ARC
  8
0
  6
DASHDOT
 62
4
 10
362.117823189143560
 20
-149.842850450281280
 40
169.999999999999860
 50
306.402795608367910
 51
323.597204391640670
  0
ARC
  8
0
  6
CONTINUOUS
 62
3
 10
483.643039863441120
 20
-228.941660253369720
 40
10.000000000000053
 50
146.940543960613670
 51
225.000000000003690
  0
ARC
  8
0
  6
CONTINUOUS
 62
3
 10
471.306141404845680
 20
-195.888058292428700
 40
5.000000000000118
 50
337.134627072876410
 51
0.000000000000000
  0
ARC
  8
0
  6
CONTINUOUS
 62
3
 10
362.117823189144020
 20
-149.842850450280820
 40
134.999999999999740
 50
146.940543960613410
 51
176.676642326013510
  0
ARC
  8
0
  6
CONTINUOUS
 62
3
 10
470.730446979381670
 20
-141.592850450281050
 40
5.000000000000000
 50
270.000000000000000
 51
7.057995290449153
  0
ARC
  8
0
  6
CONTINUOUS
 62
3
 10
232.117823189144020
 20
-19.842850450280821
 40
10.000000000000000
 50
90.000000000000000
 51
180.000000000000000
  0
CIRCLE
  8
0
  6
CONTINUOUS
 62
3
 10
241.909670387421560
 20
-29.634697648577458
 40
9.500000000000000
  0
ARC
  8
0
  6
CONTINUOUS
 62
3
 10
283.019013386036480
 20
-28.317633775996001
 40
10.000000000000401
 50
225.000000000003690
 51
303.059456039395680
  0
ARC
  8
0
  6
CONTINUOUS
 62
3
 10
270.420612070399330
 20
-216.729855713219190
 40
10.000000000000107
 50
216.108259096316600
 51
351.603097720444510
  0
ARC
  8
0
  6
CONTINUOUS
 62
3
 10
240.592606514846470
 20
-70.744040647192378
 40
10.000000000000053
 50
326.940543960613700
 51
45.000000000001855
  0
ARC
  8
0
  6
DASHDOT
 62
4
 10
362.117823189144020
 20
-149.842850450280820
 40
169.999999999999860
 50
126.402795608367910
 51
143.597204391640700
  0
ARC
  8
0
  6
CONTINUOUS
 62
3
 10
394.117823189143790
 20
-151.078424719890340
 40
82.197605165243033
 50
7.057995290447003
 51
85.577622414021747
  0
ARC
  8
0
  6
CONTINUOUS
 62
3
 10
362.117823189144020
 20
-149.842850450280820
 40
135.000000000000000
 50
56.940543960613276
 51
123.059456039395760
  0
ARC
  8
0
  6
CONTINUOUS
 62
3
 10
370.367823189144020
 20
-72.714391579631410
 40
4.999999999999934
 50
89.039588343113039
 51
180.000000000000000
  0
ARC
  8
0
  6
CONTINUOUS
 62
3
 10
362.117823189143790
 20
-564.842850450280820
 40
497.197605165242980
 50
85.577622414021931
 51
89.039588343112683
  0
ARC
  8
0
  6
CONTINUOUS
 62
3
 10
492.117823189144020
 20
-19.842850450280821
 40
10.000000000000000
 50
0.000000000000000
 51
90.000000000000000
  0
CIRCLE
  8
0
  6
CONTINUOUS
 62
3
 10
482.325975990847840
 20
-29.634697648558358
 40
9.500000000000000
  0
ARC
  8
0
  6
CONTINUOUS
 62
3
 10
441.216632992232460
 20
-28.317633775983722
 40
10.000000000000053
 50
236.940543960613670
 51
315.000000000003640
  0
ARC
  8
0
  6
CONTINUOUS
 62
3
 10
483.643039863428840
 20
-70.744040647173279
 40
10.000000000000082
 50
135.000000000005510
 51
213.059456039395710
  0
ARC
  8
0
  6
CONTINUOUS
 62
3
 10
362.117823189144020
 20
-149.842850450280820
 40
135.000000000000260
 50
326.940543960613130
 51
356.676642326013450
  0
ARC
  8
0
  6
DASHDOT
 62
4
 10
362.117823189144020
 20
-149.842850450280820
 40
169.999999999999940
 50
34.560321779997807
 51
53.716050824320895
  0
ARC
  8
0
  6
CONTINUOUS
 62
3
 10
362.117823189144020
 20
-149.842850450280820
 40
31.000000000000000
 50
180.000000000000000
 51
0.000000000000000
  0
ARC
  8
0
  6
CONTINUOUS
 62
3
 10
362.117823189144020
 20
-149.842850450280820
 40
31.000000000000000
 50
0.000000000000000
 51
180.000000000000000
  0
ARC
  8
0
  6
CONTINUOUS
 62
3
 10
301.866156842324240
 20
-168.247698294522930
 40
10.000000000000039
 50
291.298869871463920
 51
16.986140903216128
  0
ARC
  8
0
  6
CONTINUOUS
 62
3
 10
102.238408127252790
 20
-12.842864114868007
 40
3.000000000000000
 50
90.000000000000000
 51
180.000000000000000
  0
ARC
  8
0
  6
CONTINUOUS
 62
3
 10
362.117823189144020
 20
-564.842850450280820
 40
497.197605165242980
 50
90.960411656887317
 51
94.422377585978097
  0
ARC
  8
0
  6
CONTINUOUS
 62
3
 10
330.117823189144020
 20
-151.078424719890340
 40
82.197605165243203
 50
94.422377585978424
 51
172.942004709553000
  0
ARC
  8
0
  6
CONTINUOUS
 62
3
 10
475.904619753528100
 20
-14.842850450280821
 40
5.000000000000000
 50
90.000000000000000
 51
135.000000000003670
  0
ARC
  8
0
  6
CONTINUOUS
 62
3
 10
128.738408102343560
 20
-107.842864089958760
 40
1.000000024909241
 50
180.000000000000000
 51
270.000000000000000
  0
ARC
  8
0
  6
CONTINUOUS
 62
3
 10
128.738408102343560
 20
-191.842864139777250
 40
1.000000024909241
 50
90.000000000000000
 51
180.000000000000000
  0
ARC
  8
0
  6
CONTINUOUS
 62
3
 10
124.738408077433400
 20
-199.995984079310570
 40
3.000000000000164
 50
273.000000000001080
 51
0.000000000000000
  0
ARC
  8
0
  6
CONTINUOUS
 62
3
 10
323.841744466508320
 20
-224.615451031099380
 40
44.000000000000121
 50
111.461978362654540
 51
171.603097720444280
  0
ARC
  8
0
  6
CONTINUOUS
 62
3
 10
102.238408127252790
 20
-292.841569263378460
 40
3.000000000000011
 50
268.323529052110760
 51
0.000000000000000
  0
ARC
  8
0
  6
CONTINUOUS
 62
3
 10
108.238408127252790
 20
-292.842850450280820
 40
3.000000000000000
 50
90.000000000000000
 51
180.000000000000000
  0
ARC
  8
0
  6
CONTINUOUS
 62
3
 10
124.738408077433400
 20
-99.689518448134095
 40
3.000000000000000
 50
0.000000000000000
 51
86.999999999998920
  0
ARC
  8
0
  6
CONTINUOUS
 62
3
 10
497.117823189144020
 20
-36.056053885858091
 40
4.999999999999879
 50
315.000000000003640
 51
0.000000000000000
  0
ARC
  8
0
  6
CONTINUOUS
 62
3
 10
96.238408127253024
 20
-24.039037447239934
 40
3.000000000000049
 50
330.000000000000570
 51
0.000000000000000
  0
ARC
  8
0
  6
CONTINUOUS
 62
3
 10
362.117823189144020
 20
-149.842850450280820
 40
41.000000000000000
 50
0.000000000000000
 51
180.000000000000000
  0
ARC
  8
0
  6
CONTINUOUS
 62
3
 10
248.331026624720830
 20
-14.842850450280821
 40
4.999999999999879
 50
45.000000000003688
 51
90.000000000000000
  0
ARC
  8
0
  6
CONTINUOUS
 62
3
 10
362.117823189144020
 20
-149.842850450280820
 40
41.000000000000000
 50
180.000000000000000
 51
0.000000000000000
  0
ARC
  8
0
  6
CONTINUOUS
 62
3
 10
265.349878275819720
 20
-209.157391983127810
 40
10.000000000000037
 50
211.506485838553940
 51
345.196482760921980
  0
ARC
  8
0
  6
CONTINUOUS
 62
3
 10
295.117823189143790
 20
-284.842850450280820
 40
12.920504033735121
 50
301.640102641905460
 51
308.669817960896750
  0
ARC
  8
0
  6
CONTINUOUS
 62
3
 10
295.117823189143790
 20
-284.842850450280820
 40
12.920504033734950
 50
202.766828500557860
 51
238.359897358094540
  0
ARC
  8
0
  6
CONTINUOUS
 62
3
 10
224.117823189144020
 20
-146.842850450280820
 40
2.000000000000000
 50
90.000000000000000
 51
180.000000000000000
  0
ARC
  8
0
  6
CONTINUOUS
 62
3
 10
75.949942479598349
 20
-59.179690756593573
 40
2.999999999999993
 50
271.999999999999320
 51
330.000000000000570
  0
ARC
  8
0
  6
CONTINUOUS
 62
3
 10
227.117823189144020
 20
-36.056053885896745
 40
5.000000000000000
 50
180.000000000000000
 51
225.000000000003690
  0
ARC
  8
0
  6
CONTINUOUS
 62
3
 10
224.349902394787930
 20
-141.842850450280820
 40
3.000000000000000
 50
270.000000000000000
 51
356.676642326013850
  0
ARC
  8
0
  6
CONTINUOUS
 62
3
 10
224.349902394787930
 20
-157.842850450281050
 40
3.000000000000096
 50
3.323357673986185
 51
90.000000000000000
  0
ARC
  8
0
  6
CONTINUOUS
 62
3
 10
224.117823189144020
 20
-152.842850450280820
 40
2.000000000000000
 50
180.000000000000000
 51
270.000000000000000
  0
ARC
  8
0
  6
CONTINUOUS
 62
3
 10
499.885743983499880
 20
-157.842850450281050
 40
3.000000000000000
 50
90.000000000000000
 51
176.676642326013820
  0
ARC
  8
0
  6
CONTINUOUS
 62
3
 10
227.117823189144020
 20
-263.629647014704010
 40
5.000000000000041
 50
135.000000000005510
 51
180.000000000000000
  0
ARC
  8
0
  6
CONTINUOUS
 62
3
 10
248.331026624759720
 20
-284.842850450280820
 40
5.000000000000000
 50
270.000000000000000
 51
315.000000000003640
  0
ARC
  8
0
  6
CONTINUOUS
 62
3
 10
475.904619753566750
 20
-284.842850450280820
 40
5.000000000000041
 50
225.000000000005540
 51
270.000000000000000
  0
ARC
  8
0
  6
CONTINUOUS
 62
3
 10
497.117823189144020
 20
-263.629647014665120
 40
5.000000000000000
 50
0.000000000000000
 51
45.000000000003688
  0
ARC
  8
0
  6
CONTINUOUS
 62
3
 10
497.117823189144020
 20
-36.056053885858091
 40
4.999999999999879
 50
315.000000000003640
 51
0.000000000000000
  0
ARC
  8
0
  6
CONTINUOUS
 62
3
 10
475.904619753528100
 20
-14.842850450280821
 40
5.000000000000000
 50
90.000000000000000
 51
135.000000000003670
  0
ARC
  8
0
  6
CONTINUOUS
 62
3
 10
500.117823189144020
 20
-152.842850450281050
 40
2.000000000000000
 50
270.000000000000000
 51
0.000000000000000
  0
ARC
  8
0
  6
CONTINUOUS
 62
3
 10
499.885743983499880
 20
-141.842850450280820
 40
3.000000000000096
 50
183.323357673986180
 51
270.000000000000000
  0
ARC
  8
0
  6
CONTINUOUS
 62
3
 10
500.117823189144020
 20
-146.842850450280820
 40
2.000000000000000
 50
0.000000000000000
 51
90.000000000000000
  0
ARC
  8
0
  6
CONTINUOUS
 62
3
 10
362.117823189144020
 20
-149.842850450280820
 40
135.000000000000030
 50
3.323357673986484
 51
33.059456039395677
  0
ARC
  8
0
  6
CONTINUOUS
 62
3
 10
362.117823189144020
 20
-149.842850450280820
 40
134.999999999999830
 50
183.323357673986610
 51
213.059456039395680
  0
LINE
  8
0
  6
CONTINUOUS
 62
3
 10
-18.071159402682952
 20
-122.599149867538470
 11
-32.261597923952195
 21
-123.342839237490800
  0
ARC
  8
0
  6
CONTINUOUS
 62
3
 10
-16.761597923953104
 20
-117.523656928613940
 40
5.000000000000056
 50
293.447344693371690
 51
0.000000000000000
  0
LINE
  8
0
  6
CONTINUOUS
 62
3
 10
-28.261597923956742
 20
-87.842838440389642
 11
-28.261597923953104
 21
-29.842838440389642
  0
LINE
  8
0
  6
CONTINUOUS
 62
3
 10
-23.761597923953104
 20
-29.842838440389642
 11
-23.761597923953104
 21
-87.842838440389642
  0
LINE
  8
0
  6
CONTINUOUS
 62
3
 10
-28.261597923953104
 20
-29.842838440389642
 11
-23.761597923953104
 21
-29.842838440389642
  0
LINE
  8
0
  6
DASHDOT
 62
4
 10
-33.991845324769656
 20
-49.842849653189646
 11
-15.892579309478151
 21
-49.842849653189646
  0
LINE
  8
0
  6
CONTINUOUS
 62
3
 10
-28.261597923956742
 20
-87.842838440389642
 11
-23.761597923956742
 21
-87.842838440389642
  0
ARC
  8
0
  6
CONTINUOUS
 62
3
 10
-20.761597923953104
 20
-84.842838440390096
 40
3.000000000000000
 50
180.000000000000000
 51
270.000000000000000
  0
ARC
  8
0
  6
CONTINUOUS
 62
3
 10
-23.761597923953104
 20
-90.038990863096842
 40
3.000000000000000
 50
0.000000000000000
 51
59.999999999998380
  0
LINE
  8
0
  6
CONTINUOUS
 62
3
 10
-20.761597923953104
 20
-90.038990863096842
 11
-20.761597923953104
 21
-119.893256075591120
  0
ARC
  8
0
  6
CONTINUOUS
 62
3
 10
-20.761597923953104
 20
-67.842850450280821
 40
3.000000000000000
 50
90.000000000000000
 51
180.000000000000000
  0
LINE
  8
0
  6
CONTINUOUS
 62
3
 10
-23.761597923953104
 20
-67.842850450280821
 11
-23.761597923953104
 21
-84.842838440390096
  0
LINE
  8
0
  6
CONTINUOUS
 62
3
 10
-0.261597923953104
 20
-64.842850450280821
 11
-20.761597923953104
 21
-64.842850450280821
  0
LINE
  8
0
  6
CONTINUOUS
 62
3
 10
-11.761597923953104
 20
-201.827915382762060
 11
-32.261597923952195
 21
-201.827915382762060
  0
LINE
  8
0
  6
CONTINUOUS
 62
3
 10
-32.261597923952195
 20
-161.857785517799580
 11
-19.761596970278788
 21
-161.857785517799580
  0
LINE
  8
0
  6
CONTINUOUS
 62
3
 10
-32.261597923952195
 20
-181.842850450280820
 11
-32.261597923952195
 21
-240.395247016773740
  0
LINE
  8
0
  6
CONTINUOUS
 62
3
 10
-32.261597923952195
 20
-181.842850450280820
 11
-32.261597923952195
 21
-123.342839237490350
  0
ARC
  8
0
  6
CONTINUOUS
 62
3
 10
-16.761597923953104
 20
-246.214429325650600
 40
5.000000000000000
 50
0.000000000000000
 51
87.000000000004846
  0
LINE
  8
0
  6
CONTINUOUS
 62
3
 10
-16.499918142738807
 20
-241.221281651877690
 11
-32.261597923952195
 21
-240.395247016773740
  0
ARC
  8
0
  6
CONTINUOUS
 62
3
 10
-23.761597923953104
 20
-119.893256075591120
 40
2.999999999999949
 50
273.000000000005680
 51
0.000000000000000
  0
LINE
  8
0
  6
CONTINUOUS
 62
3
 10
-11.761597923953104
 20
-149.574889247958710
 11
-11.761597923953104
 21
-181.842850450280820
  0
LINE
  8
0
  6
CONTINUOUS
 62
3
 10
-11.761597923953104
 20
-67.842850450280821
 11
-11.761597923953104
 21
-120.110787632820570
  0
ARC
  8
0
  6
CONTINUOUS
 62
3
 10
-16.761597923953104
 20
-124.110787632820570
 40
2.000000000000000
 50
90.000000000000000
 51
180.000000000000000
  0
LINE
  8
0
  6
CONTINUOUS
 62
3
 10
-13.761597923953104
 20
-122.110787632820570
 11
-16.761597923953104
 21
-122.110787632820570
  0
LINE
  8
0
  6
CONTINUOUS
 62
3
 10
-18.761597923953104
 20
-124.110787632820570
 11
-18.761597923953104
 21
-145.574889247958710
  0
ARC
  8
0
  6
CONTINUOUS
 62
3
 10
-16.761597923953104
 20
-145.574889247958710
 40
2.000000000000000
 50
180.000000000000000
 51
270.000000000000000
  0
LINE
  8
0
  6
CONTINUOUS
 62
3
 10
-13.761597923953104
 20
-147.574889247958710
 11
-16.761597923953104
 21
-147.574889247958710
  0
ARC
  8
0
  6
CONTINUOUS
 62
3
 10
-13.761597923953104
 20
-149.574889247958710
 40
2.000000000000000
 50
0.000000000000000
 51
90.000000000000000
  0
ARC
  8
0
  6
CONTINUOUS
 62
3
 10
-13.761597923953104
 20
-120.110787632820570
 40
2.000000000000000
 50
270.000000000000000
 51
0.000000000000000
  0
ARC
  8
0
  6
CONTINUOUS
 62
3
 10
-8.761597923953104
 20
-67.842850450280821
 40
3.000000000000000
 50
90.000000000000000
 51
180.000000000000000
  0
ARC
  8
0
  6
CONTINUOUS
 62
3
 10
-8.761597923953104
 20
-289.842853140496120
 40
3.000000000000000
 50
180.000000000000000
 51
270.000000000000000
  0
LINE
  8
0
  6
CONTINUOUS
 62
3
 10
-11.761597923953104
 20
-288.842853140496120
 11
-11.761597923953104
 21
-181.842850450280820
  0
LINE
  8
0
  6
CONTINUOUS
 62
3
 10
-0.761597923953104
 20
-64.842871359946002
 11
-0.761597923953104
 21
-181.842850450280820
  0
LINE
  8
0
  6
CONTINUOUS
 62
3
 10
-0.261597923953104
 20
-292.842853140496120
 11
-8.761597923953104
 21
-292.842853140496120
  0
LINE
  8
0
  6
CONTINUOUS
 62
3
 10
-0.761597923953104
 20
-292.842853140496120
 11
-0.761597923953104
 21
-181.842850450280820
  0
INSERT
  8
0
  2
SYM1
 10
-28.261597923955833
 20
-77.842838440389642
  0
INSERT
  8
0
  2
SYM1
 10
-11.761597923953104
 20
-85.335397949052094
  0
INSERT
  8
0
  2
SYM1
 10
-11.761597923953104
 20
-284.842838440389640
  0
INSERT
  8
0
  2
SYM1
 10
-11.761597923953104
 20
-226.842838440389640
  0
INSERT
  8
0
  2
SYM1
 10
-11.761597923953104
 20
-160.842838440389640
  0
LINE
  8
0
  6
DASHDOT
 62
4
 10
470.627371886304450
 20
-41.333301753137107
 11
496.154519350171090
 21
-15.806154289274446
  0
LINE
  8
0
  6
DASHDOT
 62
4
 10
253.608274491983590
 20
-41.333301753137107
 11
228.081127028116920
 21
-15.806154289274446
  0
ARC
  8
0
  6
DASHED
 62
3
 10
251.736215461980010
 20
-238.019758294362620
 40
9.000000000000075
 50
139.398468892516490
 51
172.601548410321070
  0
ARC
  8
0
  6
DASHED
 62
3
 10
244.100319836798690
 20
-237.028239171863990
 40
1.299999237060687
 50
172.601548410320760
 51
246.000017986079880
  0
LINE
  8
0
  6
DASHED
 62
3
 10
292.312387129408530
 20
-140.491842850466360
 11
246.595188447683540
 21
-243.174352289492360
  0
ARC
  8
0
  6
DASHED
 62
3
 10
245.849387635870240
 20
-175.689501429734010
 40
1.000000000000128
 50
126.205708094041610
 51
179.412192132278280
  0
ARC
  8
0
  6
DASHED
 62
3
 10
244.668015519593840
 20
-174.075698491675870
 40
0.999999999999994
 50
306.205708094031080
 51
359.259505056807090
  0
ARC
  8
0
  6
DASHED
 62
3
 10
245.438223935746920
 20
-213.234707516671020
 40
1.000000000000008
 50
2.994076090848812
 51
56.047873053604029
  0
ARC
  8
0
  6
DASHED
 62
3
 10
246.555223960359400
 20
-211.575698491675870
 40
0.999999999999988
 50
182.841389015366990
 51
236.047873053618590
  0
ARC
  8
0
  6
DASHED
 62
3
 10
845.617823189144020
 20
-181.842851247382270
 40
600.799999999999950
 50
179.412192132293110
 51
182.841389015363320
  0
LINE
  8
0
  6
DASHED
 62
3
 10
293.617823189144020
 20
-149.151246370322950
 11
293.617823189144020
 21
-223.342851247381960
  0
LINE
  8
0
  6
DASHED
 62
3
 10
248.547524334447640
 20
-238.789334092807820
 11
252.064674346371700
 21
-240.355270168649640
  0
LINE
  8
0
  6
DASHED
 62
3
 10
250.174470906750910
 20
-235.135152262237820
 11
253.691620918674740
 21
-236.701088338079640
  0
ARC
  8
0
  6
DASHED
 62
3
 10
249.247809592724930
 20
-225.965485835619090
 40
2.000000000000632
 50
184.231338074886000
 51
245.999999999972630
  0
ARC
  8
0
  6
DASHED
 62
3
 10
247.823135925445510
 20
-228.615089087260660
 40
1.000000000000041
 50
335.999999999996420
 51
66.000000000020236
  0
LINE
  8
0
  6
DASHED
 62
3
 10
269.742114166340340
 20
-181.842851247381960
 11
243.530452351717490
 21
-240.715207588161970
  0
ARC
  8
0
  6
DASHED
 62
3
 10
244.443997809360100
 20
-241.121944231237620
 40
0.999999999999948
 50
156.000000000008300
 51
245.999999999972630
  0
LINE
  8
0
  6
DASHED
 62
3
 10
244.037261166283770
 20
-242.035489688880230
 11
246.595188447683540
 21
-243.174352289492360
  0
LINE
  8
0
  6
DASHED
 62
3
 10
288.617823189144020
 20
-228.342851247381960
 11
253.198598157815240
 21
-228.342851247381960
  0
ARC
  8
0
  6
DASHED
 62
3
 10
288.617823189144020
 20
-223.342851247381960
 40
5.000000000000000
 50
270.000000000000000
 51
0.000000000000000
  0
ARC
  8
0
  6
DASHED
 62
3
 10
290.617823189144020
 20
-149.151246370322950
 40
3.000000000000000
 50
0.000000000000000
 51
66.000000000020236
  0
LINE
  8
0
  6
DASHED
 62
3
 10
290.034661928183600
 20
-145.607697413264990
 11
291.838033118370280
 21
-146.410609997395110
  0
LINE
  8
0
  6
DASHED
 62
3
 10
289.754459848003990
 20
-139.352980249851950
 11
292.312387129403310
 21
-140.491842850464080
  0
ARC
  8
0
  6
DASHED
 62
3
 10
246.651774196832320
 20
-231.246010605268540
 40
1.000000000000041
 50
335.999999999996420
 51
4.715124834083239
  0
ARC
  8
0
  6
DASHED
 62
3
 10
845.617823189144020
 20
-181.842851247382270
 40
600.000000000001140
 50
178.317231198866840
 51
184.715124834091600
  0
ARC
  8
0
  6
DASHED
 62
3
 10
260.870112174584850
 20
-164.663955379647180
 40
15.000000000000041
 50
99.318123119675519
 51
178.317231198866920
  0
LINE
  8
0
  6
DASHED
 62
3
 10
284.397009815929320
 20
-145.603057970043210
 11
258.441372722393230
 21
-149.861887123036240
  0
ARC
  8
0
  6
DASHED
 62
3
 10
283.911261925490630
 20
-142.642644318721070
 40
3.000000000000022
 50
279.318123119682530
 51
336.000000000000400
  0
LINE
  8
0
  6
DASHED
 62
3
 10
288.434177747285960
 20
-139.859789064418690
 11
269.742114166337160
 21
-181.842851247381960
  0
LINE
  8
0
  6
DASHED
 62
3
 10
291.983226349737380
 20
-143.186180568276310
 11
291.246822466975350
 21
-143.498765471067600
  0
LINE
  8
0
  6
DASHED
 62
3
 10
291.113480444781320
 20
-143.184631352618230
 11
291.246822466975350
 21
-143.498765471067600
  0
LINE
  8
0
  6
DASHED
 62
3
 10
291.558394189991300
 20
-142.185338719660880
 11
291.983226349737380
 21
-143.186180568276310
  0
ARC
  8
0
  6
DASHED
 62
3
 10
245.889961686963260
 20
-233.008637764276930
 40
1.299999237060620
 50
65.999999316753915
 51
139.398468892516150
  0
LINE
  8
0
  6
DASHED
 62
3
 10
247.313103132322790
 20
-232.219234832085680
 11
246.418719012646310
 21
-231.821029366321430
  0
LINE
  8
0
  6
DASHED
 62
3
 10
244.465946630791900
 20
-238.614053035583960
 11
243.571562511115420
 21
-238.215847569819490
  0
LINE
  8
0
  6
DASHED
 62
3
 10
247.313103132322790
 20
-232.219234832085680
 11
244.465946630791900
 21
-238.614053035583960
  0
LINE
  8
0
  6
DASHED
 62
3
 10
247.313103132322790
 20
-232.219234832085680
 11
244.465946630791900
 21
-238.614053035583960
  0
POINT
  8
0
  6
DASHED
 62
3
 10
245.889524881557240
 20
-235.416643933834820
  0
LINE
  8
0
  6
DASHED
 62
3
 10
253.869004003773170
 20
-237.163187073331040
 11
252.526773081623110
 21
-240.177887083551210
  0
LINE
  8
0
  6
DASHED
 62
3
 10
252.064674346371700
 20
-240.355270168649640
 11
252.526773081623110
 21
-240.177887083551210
  0
LINE
  8
0
  6
DASHED
 62
3
 10
253.691620918674740
 20
-236.701088338079640
 11
253.869004003773170
 21
-237.163187073331040
  0
LINE
  8
0
  6
DASHED
 62
3
 10
250.032113081674420
 20
-235.454893172412740
 11
253.869004003773170
 21
-237.163187073331040
  0
LINE
  8
0
  6
DASHED
 62
3
 10
248.689882159523900
 20
-238.469593182633360
 11
252.526773081622880
 21
-240.177887083551670
  0
ARC
  8
0
  6
DASHED
 62
3
 10
289.347723204928570
 20
-140.266525707494570
 40
0.999999999999856
 50
66.000000000020236
 51
155.999999999996390
  0
LINE
  8
0
  6
CONTINUOUS
 62
3
 10
-32.261597923952195
 20
-181.842850450280820
 11
-32.261597923952195
 21
-123.342839237490350
  0
LINE
  8
0
  6
CONTINUOUS
 62
3
 10
-32.261597923952195
 20
-181.842850450280820
 11
-32.261597923952195
 21
-240.342839237491260
  0
LINE
  8
0
  6
CONTINUOUS
 62
3
 10
-67.811597923953286
 20
-139.246242809674870
 11
-103.261597923952190
 21
-139.246242809674870
  0
ARC
  8
0
  6
CONTINUOUS
 62
3
 10
-67.811597923953286
 20
-150.246242809674870
 40
11.000000000000000
 50
0.000000000000000
 51
90.000000000000000
  0
ARC
  8
0
  6
CONTINUOUS
 62
4
 10
-68.211597923952922
 20
-156.842850450280590
 40
5.000000000000000
 50
0.000000000000000
 51
90.000000000000000
  0
LINE
  8
0
  6
CONTINUOUS
 62
4
 10
-103.261597923952190
 20
-151.842850450280590
 11
-68.211597923952922
 21
-151.842850450280590
  0
ARC
  8
0
  6
CONTINUOUS
 62
3
 10
-68.211597923952922
 20
-150.341061013173430
 40
5.000000000000000
 50
0.000000000000000
 51
90.000000000000000
  0
LINE
  8
0
  6
CONTINUOUS
 62
3
 10
-103.261597923952190
 20
-145.341061013173430
 11
-68.211597923952922
 21
-145.341061013173430
  0
LINE
  8
0
  6
CONTINUOUS
 62
3
 10
-56.811597923953286
 20
-150.246242809674870
 11
-56.811597923953286
 21
-231.848962177930620
  0
LINE
  8
0
  6
CONTINUOUS
 62
3
 10
-63.211597923952922
 20
-150.341061013173430
 11
-63.211597923952922
 21
-226.418805219833530
  0
ARC
  8
0
  6
CONTINUOUS
 62
3
 10
-68.211597923952922
 20
-226.418805219833530
 40
5.000000000000000
 50
270.000000000000000
 51
0.000000000000000
  0
LINE
  8
0
  6
CONTINUOUS
 62
3
 10
-67.811597923953286
 20
-241.628752248703450
 11
-103.261597923952190
 21
-241.628752248703450
  0
LINE
  8
0
  6
CONTINUOUS
 62
3
 10
-67.811597923953286
 20
-242.848962177930620
 11
-103.261597923952190
 21
-242.848962177930620
  0
ARC
  8
0
  6
CONTINUOUS
 62
3
 10
-67.811597923953286
 20
-231.848962177930620
 40
11.000000000000000
 50
270.000000000000000
 51
0.000000000000000
  0
ARC
  8
0
  6
CONTINUOUS
 62
3
 10
-67.811597923953286
 20
-230.628752248703450
 40
11.000000000000000
 50
270.000000000000000
 51
0.000000000000000
  0
ARC
  8
0
  6
CONTINUOUS
 62
3
 10
-94.001379743338930
 20
-227.418805232683780
 40
4.000000000000156
 50
221.178434371117250
 51
270.000000000000000
  0
POLYLINE
  8
0
  6
CONTINUOUS
 62
3
 66
1
  0
VERTEX
  8
0
  6
CONTINUOUS
 62
3
 10
-97.012030865451152
 20
-230.052430077061760
  0
VERTEX
  8
0
  6
CONTINUOUS
 62
3
 10
-98.003000000537526
 20
-229.107301810541340
  0
VERTEX
  8
0
  6
CONTINUOUS
 62
3
 10
-99.162602380109206
 20
-228.338793007755670
  0
VERTEX
  8
0
  6
CONTINUOUS
 62
3
 10
-100.453651759005780
 20
-227.771548285904340
  0
VERTEX
  8
0
  6
CONTINUOUS
 62
3
 10
-101.834746636537370
 20
-227.423758105497230
  0
VERTEX
  8
0
  6
CONTINUOUS
 62
3
 10
-103.261597923952190
 20
-227.306575436846230
  0
SEQEND
  8
0
  6
CONTINUOUS
 62
3
  0
ARC
  8
0
  6
CONTINUOUS
 62
3
 10
-94.774123708232082
 20
-227.418805226057200
 40
3.999999999999828
 50
226.698420851470790
 51
270.000000000000000
  0
POLYLINE
  8
0
  6
CONTINUOUS
 62
3
 66
1
  0
VERTEX
  8
0
  6
CONTINUOUS
 62
3
 10
-97.517477352472724
 20
-230.329820647285770
  0
VERTEX
  8
0
  6
CONTINUOUS
 62
3
 10
-98.479177953047284
 20
-229.557941485359150
  0
VERTEX
  8
0
  6
CONTINUOUS
 62
3
 10
-99.563336120939198
 20
-228.936078916753590
  0
VERTEX
  8
0
  6
CONTINUOUS
 62
3
 10
-100.742191146584070
 20
-228.480156214167860
  0
VERTEX
  8
0
  6
CONTINUOUS
 62
3
 10
-101.985557534032480
 20
-228.201847631511780
  0
VERTEX
  8
0
  6
CONTINUOUS
 62
3
 10
-103.261597923952190
 20
-228.108279475592950
  0
SEQEND
  8
0
  6
CONTINUOUS
 62
3
  0
LINE
  8
0
  6
CONTINUOUS
 62
3
 10
-94.774123706558839
 20
-231.418805219833530
 11
-68.211597923952922
 21
-231.418805219833530
  0
POLYLINE
  8
0
  6
CONTINUOUS
 62
3
 66
1
 70
1
  0
VERTEX
  8
0
  6
CONTINUOUS
 62
3
 10
-99.761597923952195
 20
-235.161344984299150
  0
VERTEX
  8
0
  6
CONTINUOUS
 62
3
 10
-99.828849442540886
 20
-234.487755214253010
  0
VERTEX
  8
0
  6
CONTINUOUS
 62
3
 10
-100.028019560162690
 20
-233.840051121316260
  0
VERTEX
  8
0
  6
CONTINUOUS
 62
3
 10
-100.351454280893290
 20
-233.243123610543790
  0
VERTEX
  8
0
  6
CONTINUOUS
 62
3
 10
-100.786724189799270
 20
-232.719912271413820
  0
VERTEX
  8
0
  6
CONTINUOUS
 62
3
 10
-101.317102108383590
 20
-232.290523822268770
  0
VERTEX
  8
0
  6
CONTINUOUS
 62
3
 10
-101.922205910674370
 20
-231.971459420405490
  0
VERTEX
  8
0
  6
CONTINUOUS
 62
3
 10
-102.578781796895740
 20
-231.774980531854230
  0
VERTEX
  8
0
  6
CONTINUOUS
 62
3
 10
-103.261597923952190
 20
-231.708637730115360
  0
VERTEX
  8
0
  6
CONTINUOUS
 62
3
 10
-103.944414051008650
 20
-231.774980531854230
  0
VERTEX
  8
0
  6
CONTINUOUS
 62
3
 10
-104.600989937230010
 20
-231.971459420405490
  0
VERTEX
  8
0
  6
CONTINUOUS
 62
3
 10
-105.206093739520790
 20
-232.290523822268770
  0
VERTEX
  8
0
  6
CONTINUOUS
 62
3
 10
-105.736471658105110
 20
-232.719912271413820
  0
VERTEX
  8
0
  6
CONTINUOUS
 62
3
 10
-106.171741567011090
 20
-233.243123610543790
  0
VERTEX
  8
0
  6
CONTINUOUS
 62
3
 10
-106.495176287741700
 20
-233.840051121316260
  0
VERTEX
  8
0
  6
CONTINUOUS
 62
3
 10
-106.694346405363500
 20
-234.487755214253010
  0
VERTEX
  8
0
  6
CONTINUOUS
 62
3
 10
-106.761597923952190
 20
-235.161344984299150
  0
VERTEX
  8
0
  6
CONTINUOUS
 62
3
 10
-106.694346405363500
 20
-235.834934754345280
  0
VERTEX
  8
0
  6
CONTINUOUS
 62
3
 10
-106.495176287741700
 20
-236.482638847282030
  0
VERTEX
  8
0
  6
CONTINUOUS
 62
3
 10
-106.171741567011090
 20
-237.079566358054510
  0
VERTEX
  8
0
  6
CONTINUOUS
 62
3
 10
-105.736471658105100
 20
-237.602777697184480
  0
VERTEX
  8
0
  6
CONTINUOUS
 62
3
 10
-105.206093739520790
 20
-238.032166146329530
  0
VERTEX
  8
0
  6
CONTINUOUS
 62
3
 10
-104.600989937230010
 20
-238.351230548192800
  0
VERTEX
  8
0
  6
CONTINUOUS
 62
3
 10
-103.944414051008650
 20
-238.547709436744070
  0
VERTEX
  8
0
  6
CONTINUOUS
 62
3
 10
-103.261597923952190
 20
-238.614052238482940
  0
VERTEX
  8
0
  6
CONTINUOUS
 62
3
 10
-102.578781796895750
 20
-238.547709436744070
  0
VERTEX
  8
0
  6
CONTINUOUS
 62
3
 10
-101.922205910674370
 20
-238.351230548192800
  0
VERTEX
  8
0
  6
CONTINUOUS
 62
3
 10
-101.317102108383590
 20
-238.032166146329530
  0
VERTEX
  8
0
  6
CONTINUOUS
 62
3
 10
-100.786724189799280
 20
-237.602777697184480
  0
VERTEX
  8
0
  6
CONTINUOUS
 62
3
 10
-100.351454280893290
 20
-237.079566358054510
  0
VERTEX
  8
0
  6
CONTINUOUS
 62
3
 10
-100.028019560162690
 20
-236.482638847282030
  0
VERTEX
  8
0
  6
CONTINUOUS
 62
3
 10
-99.828849442540900
 20
-235.834934754345280
  0
SEQEND
  8
0
  6
CONTINUOUS
 62
3
  0
LINE
  8
0
  6
CONTINUOUS
 62
3
 10
-105.261597923952190
 20
-236.277748854508670
 11
-101.261597923952190
 21
-232.623567023938220
  0
LINE
  8
0
  6
CONTINUOUS
 62
3
 10
-101.261597923952190
 20
-236.277748854508670
 11
-105.261597923952190
 21
-232.623567023938220
  0
POLYLINE
  8
0
  6
CONTINUOUS
 62
3
 66
1
  0
VERTEX
  8
0
  6
CONTINUOUS
 62
3
 10
-103.261597923952190
 20
-228.108279475592950
  0
VERTEX
  8
0
  6
CONTINUOUS
 62
3
 10
-104.537638313871900
 20
-228.201847631511780
  0
VERTEX
  8
0
  6
CONTINUOUS
 62
3
 10
-105.781004701320310
 20
-228.480156214167860
  0
VERTEX
  8
0
  6
CONTINUOUS
 62
3
 10
-106.959859726965190
 20
-228.936078916753590
  0
VERTEX
  8
0
  6
CONTINUOUS
 62
3
 10
-108.044017894857100
 20
-229.557941485359150
  0
VERTEX
  8
0
  6
CONTINUOUS
 62
3
 10
-109.005718495431660
 20
-230.329820647285770
  0
SEQEND
  8
0
  6
CONTINUOUS
 62
3
  0
ARC
  8
0
  6
CONTINUOUS
 62
3
 10
-111.749072139672530
 20
-227.418805226057200
 40
3.999999993776328
 50
270.000000000000000
 51
313.301579148531630
  0
POLYLINE
  8
0
  6
CONTINUOUS
 62
3
 66
1
  0
VERTEX
  8
0
  6
CONTINUOUS
 62
3
 10
-103.261597923952190
 20
-227.306575436846230
  0
VERTEX
  8
0
  6
CONTINUOUS
 62
3
 10
-104.688449211367080
 20
-227.423758105497230
  0
VERTEX
  8
0
  6
CONTINUOUS
 62
3
 10
-106.069544088898750
 20
-227.771548285904400
  0
VERTEX
  8
0
  6
CONTINUOUS
 62
3
 10
-107.360593467795380
 20
-228.338793007755750
  0
VERTEX
  8
0
  6
CONTINUOUS
 62
3
 10
-108.520195847367070
 20
-229.107301810541510
  0
VERTEX
  8
0
  6
CONTINUOUS
 62
3
 10
-109.511164982453460
 20
-230.052430077062040
  0
SEQEND
  8
0
  6
CONTINUOUS
 62
3
  0
ARC
  8
0
  6
CONTINUOUS
 62
3
 10
-112.521816104565460
 20
-227.418805232683780
 40
3.999999987149749
 50
270.000000000000000
 51
318.821565628880590
  0
LINE
  8
0
  6
CONTINUOUS
 62
3
 10
-138.711597923951100
 20
-242.848962177930620
 11
-103.261597923952190
 21
-242.848962177930620
  0
LINE
  8
0
  6
CONTINUOUS
 62
3
 10
-138.711597923951100
 20
-241.628752248703450
 11
-103.261597923952190
 21
-241.628752248703450
  0
ARC
  8
0
  6
CONTINUOUS
 62
3
 10
-138.711597923951100
 20
-230.628752248703450
 40
11.000000000000000
 50
180.000000000000000
 51
270.000000000000000
  0
ARC
  8
0
  6
CONTINUOUS
 62
3
 10
-138.711597923951100
 20
-231.848962177930620
 40
11.000000000000000
 50
180.000000000000000
 51
270.000000000000000
  0
LINE
  8
0
  6
CONTINUOUS
 62
3
 10
-111.749072141345770
 20
-231.418805219833530
 11
-138.311597923951470
 21
-231.418805219833530
  0
ARC
  8
0
  6
CONTINUOUS
 62
3
 10
-138.311597923951470
 20
-226.418805219833530
 40
5.000000000000000
 50
180.000000000000000
 51
270.000000000000000
  0
LINE
  8
0
  6
DASHDOT
 62
4
 10
-103.261597923952190
 20
-136.343250617488820
 11
-103.261597923952190
 21
-248.996970042725480
  0
LINE
  8
0
  6
CONTINUOUS
 62
4
 10
-103.261597923952190
 20
-200.075697694574730
 11
-96.044719559082750
 21
-212.575697694574730
  0
LINE
  8
0
  6
CONTINUOUS
 62
4
 10
-88.827841194212397
 20
-200.075697694574730
 11
-103.261597923952190
 21
-200.075697694574730
  0
LINE
  8
0
  6
CONTINUOUS
 62
4
 10
-96.044719559081841
 20
-187.575697694574960
 11
-103.261597923952190
 21
-200.075697694574730
  0
LINE
  8
0
  6
CONTINUOUS
 62
4
 10
-103.261597923952190
 20
-175.075697694574730
 11
-96.044719559081841
 21
-187.575697694574730
  0
LINE
  8
0
  6
CONTINUOUS
 62
4
 10
-81.610962829342043
 20
-212.575697694574730
 11
-96.044719559082750
 21
-212.575697694574730
  0
LINE
  8
0
  6
CONTINUOUS
 62
4
 10
-88.827841194212397
 20
-200.075697694574730
 11
-81.610962829342043
 21
-212.575697694574730
  0
LINE
  8
0
  6
CONTINUOUS
 62
4
 10
-103.261597923952190
 20
-175.075697694574730
 11
-110.478476288822540
 21
-187.575697694574730
  0
LINE
  8
0
  6
CONTINUOUS
 62
4
 10
-110.478476288822540
 20
-187.575697694574960
 11
-103.261597923952190
 21
-200.075697694574730
  0
LINE
  8
0
  6
CONTINUOUS
 62
4
 10
-117.695354653691990
 20
-200.075697694574730
 11
-103.261597923952190
 21
-200.075697694574730
  0
LINE
  8
0
  6
CONTINUOUS
 62
4
 10
-117.695354653691990
 20
-200.075697694574730
 11
-124.912233018562340
 21
-212.575697694574730
  0
LINE
  8
0
  6
CONTINUOUS
 62
4
 10
-103.261597923952190
 20
-200.075697694574730
 11
-110.478476288821630
 21
-212.575697694574730
  0
LINE
  8
0
  6
CONTINUOUS
 62
4
 10
-124.912233018562340
 20
-212.575697694574730
 11
-110.478476288821630
 21
-212.575697694574730
  0
LINE
  8
0
  6
CONTINUOUS
 62
3
 10
-138.711597923951100
 20
-139.246242809674870
 11
-103.261597923952190
 21
-139.246242809674870
  0
ARC
  8
0
  6
CONTINUOUS
 62
3
 10
-138.711597923951100
 20
-150.246242809674870
 40
11.000000000000000
 50
90.000000000000000
 51
180.000000000000000
  0
LINE
  8
0
  6
CONTINUOUS
 62
3
 10
-103.261597923952190
 20
-145.341061013173430
 11
-138.311597923951470
 21
-145.341061013173430
  0
ARC
  8
0
  6
CONTINUOUS
 62
3
 10
-138.311597923951470
 20
-150.341061013173430
 40
5.000000000000000
 50
90.000000000000000
 51
180.000000000000000
  0
LINE
  8
0
  6
CONTINUOUS
 62
4
 10
-103.261597923952190
 20
-151.842850450280590
 11
-138.311597923951470
 21
-151.842850450280590
  0
ARC
  8
0
  6
CONTINUOUS
 62
4
 10
-138.311597923951470
 20
-156.842850450280590
 40
5.000000000000000
 50
90.000000000000000
 51
180.000000000000000
  0
LINE
  8
0
  6
CONTINUOUS
 62
3
 10
-143.311597923951470
 20
-150.341061013173430
 11
-143.311597923951470
 21
-226.418805219833530
  0
LINE
  8
0
  6
CONTINUOUS
 62
3
 10
-149.711597923951100
 20
-150.246242809674870
 11
-149.711597923951100
 21
-231.848962177930620
  0
LINE
  8
0
  6
CONTINUOUS
 62
4
 10
-56.811597923953514
 20
-151.560416123711550
 11
-32.261597923952195
 21
-151.560416123711550
  0
LINE
  8
0
  6
CONTINUOUS
 62
4
 10
-56.811597923953514
 20
-157.012796993150460
 11
-32.261597923952195
 21
-157.012796993150460
  0
LINE
  8
0
  6
CONTINUOUS
 62
4
 10
-56.811597923953514
 20
-155.650916657801190
 11
-32.261597923952195
 21
-155.650916657801190
  0
LINE
  8
0
  6
CONTINUOUS
 62
4
 10
-56.811597923953514
 20
-161.842850450280820
 11
-32.261597923952195
 21
-161.842850450280820
  0
LINE
  8
0
  6
CONTINUOUS
 62
4
 10
-129.261597923952080
 20
-124.842850450280820
 11
-32.261597923952195
 21
-124.842850450280820
  0
LINE
  8
0
  6
CONTINUOUS
 62
4
 10
-129.261597923952080
 20
-124.342850450280820
 11
-32.261597923952195
 21
-124.342850450280820
  0
LINE
  8
0
  6
CONTINUOUS
 62
4
 10
-129.261597923952080
 20
-125.842850450280820
 11
-32.261597923952195
 21
-125.842850450280820
  0
LINE
  8
0
  6
CONTINUOUS
 62
4
 10
-129.261597923952080
 20
-126.842850450280820
 11
-32.261597923952195
 21
-126.842850450280820
  0
LINE
  8
0
  6
CONTINUOUS
 62
4
 10
-129.261597923952080
 20
-131.527316263505330
 11
-32.261597923952195
 21
-131.527316263505330
  0
LINE
  8
0
  6
CONTINUOUS
 62
4
 10
-129.261597923952080
 20
-136.477063731811090
 11
-32.261597923952195
 21
-136.477063731811090
  0
LINE
  8
0
  6
CONTINUOUS
 62
4
 10
-58.417338627561548
 20
-144.523665394544880
 11
-32.261597923952195
 21
-144.523665394544880
  0
LINE
  8
0
  6
CONTINUOUS
 62
4
 10
-57.611467697500984
 20
-146.128313310106930
 11
-32.261597923952195
 21
-146.128313310106930
  0
LINE
  8
0
  6
CONTINUOUS
 62
4
 10
-56.811597923953514
 20
-150.092058733906470
 11
-32.261597923952195
 21
-150.092058733906470
  0
LINE
  8
0
  6
CONTINUOUS
 62
3
 10
-129.261597923952080
 20
-139.246242809674870
 11
-129.261597923952080
 21
-121.842850450280820
  0
LINE
  8
0
  6
CONTINUOUS
 62
3
 10
-32.261597923952195
 20
-123.342850450280820
 11
-129.261597923952080
 21
-123.342850450280820
  0
LINE
  8
0
  6
CONTINUOUS
 62
3
 10
-32.261597923952195
 20
-123.342850450280820
 11
-32.261597923952195
 21
-181.842850450280820
  0
LINE
  8
0
  6
CONTINUOUS
 62
3
 10
-129.261597923952080
 20
-121.842850450280820
 11
-157.955622146372430
 21
-121.842850450280820
  0
LINE
  8
0
  6
CONTINUOUS
 62
3
 10
-180.261597923901950
 20
-181.842850450280820
 11
-180.261597923901950
 21
-134.399645393035370
  0
ARC
  8
0
  6
CONTINUOUS
 62
3
 10
-157.955622146372430
 20
-141.842850450280820
 40
20.000000000000000
 50
90.000000000000000
 51
125.000000000000240
  0
LINE
  8
0
  6
CONTINUOUS
 62
3
 10
-169.427150873393430
 20
-125.459809564501020
 11
-179.152896658414420
 21
-132.269850077884260
  0
ARC
  8
0
  6
CONTINUOUS
 62
3
 10
-177.661597923901810
 20
-134.399645393035370
 40
2.599999999999721
 50
125.000000000001370
 51
180.000000000000000
  0
LINE
  8
0
  6
CONTINUOUS
 62
4
 10
-56.811597923953514
 20
-212.125284776850090
 11
-32.261597923952195
 21
-212.125284776850090
  0
LINE
  8
0
  6
CONTINUOUS
 62
4
 10
-56.811597923953514
 20
-206.672903907411180
 11
-32.261597923952195
 21
-206.672903907411180
  0
LINE
  8
0
  6
CONTINUOUS
 62
4
 10
-56.811597923953514
 20
-208.034784242760450
 11
-32.261597923952195
 21
-208.034784242760450
  0
LINE
  8
0
  6
CONTINUOUS
 62
4
 10
-56.811597923953514
 20
-201.842850450280820
 11
-32.261597923952195
 21
-201.842850450280820
  0
LINE
  8
0
  6
CONTINUOUS
 62
4
 10
-59.321278328444350
 20
-238.842850450280820
 11
-32.261597923952195
 21
-238.842850450280820
  0
LINE
  8
0
  6
CONTINUOUS
 62
4
 10
-59.759167324343707
 20
-239.342850450280820
 11
-32.261597923952195
 21
-239.342850450280820
  0
LINE
  8
0
  6
CONTINUOUS
 62
4
 10
-58.588078889518556
 20
-237.842850450280820
 11
-32.261597923952195
 21
-237.842850450280820
  0
LINE
  8
0
  6
CONTINUOUS
 62
4
 10
-58.010522476673032
 20
-236.842850450280820
 11
-32.261597923952195
 21
-236.842850450280820
  0
LINE
  8
0
  6
CONTINUOUS
 62
4
 10
-56.811597923953514
 20
-232.158384637056320
 11
-32.261597923952195
 21
-232.158384637056320
  0
LINE
  8
0
  6
CONTINUOUS
 62
4
 10
-56.811597923953514
 20
-227.208637168750560
 11
-32.261597923952195
 21
-227.208637168750560
  0
LINE
  8
0
  6
CONTINUOUS
 62
4
 10
-56.811597923953514
 20
-219.162035506016760
 11
-32.261597923952195
 21
-219.162035506016760
  0
LINE
  8
0
  6
CONTINUOUS
 62
4
 10
-56.811597923953514
 20
-217.557387590454710
 11
-32.261597923952195
 21
-217.557387590454710
  0
LINE
  8
0
  6
CONTINUOUS
 62
4
 10
-56.811597923953514
 20
-213.593642166655170
 11
-32.261597923952195
 21
-213.593642166655170
  0
LINE
  8
0
  6
CONTINUOUS
 62
3
 10
-32.261597923952195
 20
-240.342850450280820
 11
-60.822044145862037
 21
-240.342850450280820
  0
LINE
  8
0
  6
CONTINUOUS
 62
3
 10
-32.261597923952195
 20
-240.342850450280820
 11
-32.261597923952195
 21
-181.842850450280820
  0
LINE
  8
0
  6
CONTINUOUS
 62
3
 10
-143.307487087081650
 20
-241.842850450280820
 11
-157.955622146372430
 21
-241.842850450280820
  0
LINE
  8
0
  6
CONTINUOUS
 62
3
 10
-180.261597923901950
 20
-181.842850450280820
 11
-180.261597923901950
 21
-229.286055507526270
  0
ARC
  8
0
  6
CONTINUOUS
 62
3
 10
-157.955622146372430
 20
-221.842850450280820
 40
20.000000000000007
 50
234.999999999999740
 51
270.000000000000000
  0
LINE
  8
0
  6
CONTINUOUS
 62
3
 10
-169.427150873393430
 20
-238.225891336060610
 11
-179.152896658414420
 21
-231.415850822677380
  0
ARC
  8
0
  6
CONTINUOUS
 62
3
 10
-177.661597923901810
 20
-229.286055507526270
 40
2.600000000000136
 50
180.000000000000000
 51
234.999999999998610
  0
POLYLINE
  8
0
  6
CONTINUOUS
 62
3
 66
1
 70
1
  0
VERTEX
  8
0
  6
CONTINUOUS
 62
3
 10
-135.561597923951520
 20
-129.919325418220750
  0
VERTEX
  8
0
  6
CONTINUOUS
 62
3
 10
-135.651907106056340
 20
-129.216368452020390
  0
VERTEX
  8
0
  6
CONTINUOUS
 62
3
 10
-135.919364121148480
 20
-128.540425727808300
  0
VERTEX
  8
0
  6
CONTINUOUS
 62
3
 10
-136.353690746129560
 20
-127.917473345402890
  0
VERTEX
  8
0
  6
CONTINUOUS
 62
3
 10
-136.938196052374740
 20
-127.371451015504320
  0
VERTEX
  8
0
  6
CONTINUOUS
 62
3
 10
-137.650417828759400
 20
-126.923342070037700
  0
VERTEX
  8
0
  6
CONTINUOUS
 62
3
 10
-138.462985791835590
 20
-126.590367084474930
  0
VERTEX
  8
0
  6
CONTINUOUS
 62
3
 10
-139.344673410475710
 20
-126.385322100776690
  0
VERTEX
  8
0
  6
CONTINUOUS
 62
3
 10
-140.261597923951510
 20
-126.316086882675910
  0
VERTEX
  8
0
  6
CONTINUOUS
 62
3
 10
-141.178522437427320
 20
-126.385322100776690
  0
VERTEX
  8
0
  6
CONTINUOUS
 62
3
 10
-142.060210056067430
 20
-126.590367084474930
  0
VERTEX
  8
0
  6
CONTINUOUS
 62
3
 10
-142.872778019143620
 20
-126.923342070037700
  0
VERTEX
  8
0
  6
CONTINUOUS
 62
3
 10
-143.584999795528290
 20
-127.371451015504320
  0
VERTEX
  8
0
  6
CONTINUOUS
 62
3
 10
-144.169505101773470
 20
-127.917473345402890
  0
VERTEX
  8
0
  6
CONTINUOUS
 62
3
 10
-144.603831726754550
 20
-128.540425727808300
  0
VERTEX
  8
0
  6
CONTINUOUS
 62
3
 10
-144.871288741846680
 20
-129.216368452020390
  0
VERTEX
  8
0
  6
CONTINUOUS
 62
3
 10
-144.961597923951500
 20
-129.919325418220750
  0
VERTEX
  8
0
  6
CONTINUOUS
 62
3
 10
-144.871288741846680
 20
-130.622282384421110
  0
VERTEX
  8
0
  6
CONTINUOUS
 62
3
 10
-144.603831726754550
 20
-131.298225108633200
  0
VERTEX
  8
0
  6
CONTINUOUS
 62
3
 10
-144.169505101773470
 20
-131.921177491038610
  0
VERTEX
  8
0
  6
CONTINUOUS
 62
3
 10
-143.584999795528260
 20
-132.467199820937200
  0
VERTEX
  8
0
  6
CONTINUOUS
 62
3
 10
-142.872778019143620
 20
-132.915308766403800
  0
VERTEX
  8
0
  6
CONTINUOUS
 62
3
 10
-142.060210056067430
 20
-133.248283751966570
  0
VERTEX
  8
0
  6
CONTINUOUS
 62
3
 10
-141.178522437427320
 20
-133.453328735664830
  0
VERTEX
  8
0
  6
CONTINUOUS
 62
3
 10
-140.261597923951510
 20
-133.522563953765570
  0
VERTEX
  8
0
  6
CONTINUOUS
 62
3
 10
-139.344673410475710
 20
-133.453328735664830
  0
VERTEX
  8
0
  6
CONTINUOUS
 62
3
 10
-138.462985791835590
 20
-133.248283751966570
  0
VERTEX
  8
0
  6
CONTINUOUS
 62
3
 10
-137.650417828759400
 20
-132.915308766403800
  0
VERTEX
  8
0
  6
CONTINUOUS
 62
3
 10
-136.938196052374760
 20
-132.467199820937200
  0
VERTEX
  8
0
  6
CONTINUOUS
 62
3
 10
-136.353690746129560
 20
-131.921177491038610
  0
VERTEX
  8
0
  6
CONTINUOUS
 62
3
 10
-135.919364121148480
 20
-131.298225108633200
  0
VERTEX
  8
0
  6
CONTINUOUS
 62
3
 10
-135.651907106056340
 20
-130.622282384421110
  0
SEQEND
  8
0
  6
CONTINUOUS
 62
3
  0
LINE
  8
0
  6
CONTINUOUS
 62
3
 10
-142.261597923951510
 20
-126.926949864220430
 11
-140.261597923951510
 21
-128.102735349843210
  0
LINE
  8
0
  6
CONTINUOUS
 62
3
 10
-140.261597923951510
 20
-128.102735349843210
 11
-138.261597923951510
 21
-129.755376988966650
  0
LINE
  8
0
  6
CONTINUOUS
 62
3
 10
-138.261597923951510
 20
-126.926949864220430
 11
-140.261597923951510
 21
-128.102735349843210
  0
LINE
  8
0
  6
CONTINUOUS
 62
3
 10
-140.261597923951510
 20
-128.102735349843210
 11
-142.261597923951510
 21
-129.755376988966650
  0
LINE
  8
0
  6
DASHDOT
 62
4
 10
18.351348299227539
 20
-181.842850450280820
 11
-190.190810462298710
 21
-181.842850450280820
  0
ENDSEC
  0
EOF
