  0
SECTION
  2
HEADER
  9
$FILLMODE
 70
1
  9
$TEXTSTYLE
  7
STANDARD1
  9
$ACADVER
  1
AC1009
  9
$DIMASZ
 40
1.931851648807023
  9
$DIMEXE
 40
2.000000000000000
  9
$DIMEXO
 40
1.000000000000000
  9
$DIMLFAC
 40
1.000000000000000
  9
$DIMSCALE
 40
1.000000000000000
  9
$DIMTAD
 70
1
  9
$DIMTFAC
 40
0.714285731315613
  9
$DIMTXT
 40
3.200000047683716
  9
$LUPREC
 70
3
  9
$TEXTSIZE
 40
3.299999952316284
  9
$REGENMODE
 70
1
  0
ENDSEC
  0
SECTION
  2
TABLES
  0
TABLE
  2
LTYPE
 70
4
  0
LTYPE
  2
CONTINUOUS
 70
64
  3
Solid line
 72
65
 73
0
 40
0.0
  0
LTYPE
  2
DASHED
 70
64
  3
-- -- -- -- -- -- -- -- -- -- -- -- -- -- --
 72
65
 73
2
 40
0.75
 49
0.5
 49
-0.25
  0
LTYPE
  2
DASHDOT
 70
64
  3
__ . __ . __ . __ . __ . __ . __ . __ . __ . __
 72
65
 73
4
 40
1.0
 49
0.5
 49
-0.25
 49
0.0
 49
-0.25
  0
LTYPE
  2
DIVIDE
 70
64
  3
__ . . __ . . __ . . __ . . __ . . __ . . __
 72
65
 73
6
 40
1.25
 49
0.5
 49
-0.25
 49
0.0
 49
-0.25
 49
0.0
 49
-0.25
  0
ENDTAB
  0
TABLE
  2
LAYER
 70
1
  0
LAYER
  2
0
 70
64
 62
2
  6
CONTINUOUS
  0
ENDTAB
  0
TABLE
  2
STYLE
 70
4
  0
STYLE
  2
STANDARD1
 70
64
 40
0.0
 41
1.0
 50
0.0
 71
0
 42
3.299999952316284
  3
MONOTXT
  4
BIGFONT
  0
STYLE
  2
STANDARD2
 70
68
 40
0.0
 41
1.0
 50
0.0
 71
0
 42
3.299999952316284
  3
MONOTXT
  4
BIGFONT
  0
STYLE
  2
STANDARD3
 70
64
 40
0.0
 41
1.0
 50
0.0
 71
0
 42
3.299999952316284
  3
MONOTXT
  4

  0
STYLE
  2
STANDARD4
 70
68
 40
0.0
 41
1.0
 50
0.0
 71
0
 42
3.299999952316284
  3
MONOTXT
  4

  0
ENDTAB
  0
TABLE
  2
VIEW
 70
0
  0
ENDTAB
  0
ENDSEC
  0
SECTION
  2
BLOCKS
  0
BLOCK
  8
0
  2
SYM1
 70
64
 10
0.000000000000000
 20
0.000000000000000
  0
ARC
  8
0
  6
CONTINUOUS
 62
3
 10
4.250000000000000
 20
-0.000017508195015
 40
9.750000000000000
 50
157.379852817599810
 51
202.619583464422590
  0
ARC
  8
0
  6
CONTINUOUS
 62
3
 10
-2.779975891113281
 20
5.625011444091797
 40
2.720000267028809
 50
179.999745461767870
 51
223.599738934167330
  0
ARC
  8
0
  6
CONTINUOUS
 62
3
 10
-2.780022621154785
 20
-5.624988555908203
 40
2.720000267028809
 50
136.399751989368410
 51
179.999745461767870
  0
LINE
  8
0
  6
CONTINUOUS
 62
3
 10
-4.749979019169359
 20
3.750014305102241
 11
0.000017610677105
 21
3.749996185290124
  0
LINE
  8
0
  6
CONTINUOUS
 62
3
 10
-4.750011996199395
 20
-3.749974250803856
 11
-0.000011530566302
 21
-3.749994277972148
  0
LINE
  8
0
  6
CONTINUOUS
 62
3
 10
0.000030896794669
 20
7.500000000000000
 11
-0.000030896794669
 21
-7.500000000000000
  0
LINE
  8
0
  6
CONTINUOUS
 62
3
 10
-4.749964714019825
 20
7.500017166133830
 11
0.000031348552056
 21
7.499999046315238
  0
LINE
  8
0
  6
CONTINUOUS
 62
3
 10
-5.499983083855739
 20
6.300024529816085
 11
-4.749977372865317
 21
7.500023360260684
  0
LINE
  8
0
  6
CONTINUOUS
 62
3
 10
-5.500023365026398
 20
-6.299976341312318
 11
-5.499970912939614
 21
6.300019271785827
  0
LINE
  8
0
  6
CONTINUOUS
 62
3
 10
-4.750049139977591
 20
-7.499993996888350
 11
-5.500046248261697
 21
-6.299990408291990
  0
LINE
  8
0
  6
CONTINUOUS
 62
3
 10
-0.000030423851130
 20
-7.499999046330735
 11
-4.750025899805295
 21
-7.499979019174840
  0
POINT
  8
0
  6
CONTINUOUS
 62
3
 10
0.000000000000000
 20
0.000000000000000
  0
ENDBLK
  8
0
  0
BLOCK
  8
0
  2
SYM2
 70
64
 10
0.000000000000000
 20
0.000000000000000
  0
POINT
  8
0
  6
CONTINUOUS
 62
3
 10
0.000000000000000
 20
0.000000000000000
  0
LINE
  8
0
  6
CONTINUOUS
 62
3
 10
0.000000000000000
 20
-6.500000000000000
 11
-0.000000000000000
 21
6.500000000000000
  0
LINE
  8
0
  6
CONTINUOUS
 62
3
 10
-7.999999046325684
 20
5.633875846862793
 11
-7.999999046325684
 21
-5.634070396423340
  0
LINE
  8
0
  6
CONTINUOUS
 62
3
 10
0.000000000000000
 20
6.500000000000000
 11
-7.499999046325684
 21
6.500000000000000
  0
LINE
  8
0
  6
CONTINUOUS
 62
3
 10
-0.000000000000000
 20
-6.500000000000000
 11
-7.499998092651367
 21
-6.500000000000000
  0
LINE
  8
0
  6
CONTINUOUS
 62
3
 10
-7.499999203818277
 20
6.499999909101064
 11
-7.999999021366804
 21
5.633876130311293
  0
LINE
  8
0
  6
CONTINUOUS
 62
3
 10
-7.499997911632022
 20
-6.499999445138201
 11
-7.999998623386432
 21
-5.634070287011241
  0
LINE
  8
0
  6
CONTINUOUS
 62
3
 10
-7.499999046325684
 20
6.500000000000000
 11
-7.499999046325684
 21
-6.500000000000000
  0
ENDBLK
  8
0
  0
BLOCK
  8
0
  2
SYM3
 70
64
 10
0.000000000000000
 20
0.000000000000000
  0
POINT
  8
0
  6
CONTINUOUS
 62
3
 10
0.000000000000000
 20
5.633955001831055
  0
POINT
  8
0
  6
CONTINUOUS
 62
3
 10
0.500000119209290
 20
6.500000000000000
  0
LINE
  8
0
  6
CONTINUOUS
 62
3
 10
-0.000004704988612
 20
-3.464098175748802
 11
-2.999997577100373
 21
-1.732046218032735
  0
LINE
  8
0
  6
CONTINUOUS
 62
3
 10
0.000006618601731
 20
3.464096896385627
 11
2.999997425948948
 21
1.732046782136365
  0
LINE
  8
0
  6
CONTINUOUS
 62
3
 10
2.999998112093635
 20
-1.732051392778772
 11
-0.000004464412200
 21
-3.464098365415111
  0
LINE
  8
0
  6
CONTINUOUS
 62
3
 10
0.000006701720849
 20
3.464096999935236
 11
-2.999997939551520
 21
1.732051821705568
  0
LINE
  8
0
  6
CONTINUOUS
 62
3
 10
2.999996662140697
 20
1.732046953225571
 11
2.999997615814979
 21
-1.732051023458999
  0
LINE
  8
0
  6
CONTINUOUS
 62
3
 10
-2.999996662140960
 20
-1.732045999551255
 11
-2.999997615815242
 21
1.732051977133316
  0
POINT
  8
0
  6
CONTINUOUS
 62
3
 10
0.000000000000000
 20
0.000000000000000
  0
CIRCLE
  8
0
  6
CONTINUOUS
 62
3
 10
0.000000000000000
 20
0.000000000000000
 40
6.500000000000000
  0
CIRCLE
  8
0
  6
CONTINUOUS
 62
3
 10
0.000000000000000
 20
0.000000000000000
 40
5.633955001831055
  0
ENDBLK
  8
0
  0
BLOCK
  8
0
  2
SYM4
 70
64
 10
0.000000000000000
 20
0.000000000000000
  0
CIRCLE
  8
0
  6
CONTINUOUS
 62
3
 10
0.000000000000000
 20
0.000000000000000
 40
6.500000000000000
  0
LINE
  8
0
  6
CONTINUOUS
 62
3
 10
6.497593715787616
 20
-3.754167812298078
 11
0.002401379516073
 21
-7.504164176415429
  0
LINE
  8
0
  6
CONTINUOUS
 62
3
 10
6.495189094719432
 20
3.749993872743451
 11
6.497592351816327
 21
-3.754165100950397
  0
LINE
  8
0
  6
CONTINUOUS
 62
3
 10
-0.002401208367701
 20
7.504162813807056
 11
6.495187652077846
 21
3.749994904254493
  0
LINE
  8
0
  6
CONTINUOUS
 62
3
 10
-6.497593715787616
 20
3.754167812298078
 11
-0.002401379516073
 21
7.504164176415429
  0
LINE
  8
0
  6
CONTINUOUS
 62
3
 10
-6.495189094719432
 20
-3.749993872743451
 11
-6.497592351816327
 21
3.754165100950397
  0
LINE
  8
0
  6
CONTINUOUS
 62
3
 10
0.002401208367701
 20
-7.504162813807056
 11
-6.495187652077846
 21
-3.749994904254493
  0
POINT
  8
0
  6
CONTINUOUS
 62
3
 10
0.000000000000000
 20
0.000000000000000
  0
ENDBLK
  8
0
  0
BLOCK
  8
0
  2
SYM5
 70
64
 10
0.000000000000000
 20
0.000000000000000
  0
CIRCLE
  8
0
  6
CONTINUOUS
 62
3
 10
0.000000000000000
 20
0.000000000000000
 40
6.500000000000000
  0
LINE
  8
0
  6
CONTINUOUS
 62
3
 10
6.497593715787616
 20
-3.754167812298078
 11
0.002401379516073
 21
-7.504164176415429
  0
LINE
  8
0
  6
CONTINUOUS
 62
3
 10
6.495189094719432
 20
3.749993872743451
 11
6.497592351816327
 21
-3.754165100950397
  0
LINE
  8
0
  6
CONTINUOUS
 62
3
 10
-0.002401208367701
 20
7.504162813807056
 11
6.495187652077846
 21
3.749994904254493
  0
LINE
  8
0
  6
CONTINUOUS
 62
3
 10
-6.497593715787616
 20
3.754167812298078
 11
-0.002401379516073
 21
7.504164176415429
  0
LINE
  8
0
  6
CONTINUOUS
 62
3
 10
-6.495189094719432
 20
-3.749993872743451
 11
-6.497592351816327
 21
3.754165100950397
  0
LINE
  8
0
  6
CONTINUOUS
 62
3
 10
0.002401208367701
 20
-7.504162813807056
 11
-6.495187652077846
 21
-3.749994904254493
  0
POINT
  8
0
  6
CONTINUOUS
 62
3
 10
0.000000000000000
 20
0.000000000000000
  0
ENDBLK
  8
0
  0
ENDSEC
  0
SECTION
  2
ENTITIES
  0
ARC
  8
0
  6
CONTINUOUS
 62
3
 10
-375.029463176618440
 20
-217.234199770361930
 40
6.099999427795406
 50
264.601927898108500
 51
5.398089404735109
  0
POINT
  8
0
  6
CONTINUOUS
 62
3
 10
-372.766721611691420
 20
-219.496941335288970
  0
LINE
  8
0
  6
CONTINUOUS
 62
3
 10
-369.443319874984580
 20
-216.173539598582100
 11
-376.090123348398270
 21
-222.820343071995840
  0
LINE
  8
0
  6
CONTINUOUS
 62
3
 10
-369.130181266015770
 20
-216.426086549432480
 11
-375.807280568488690
 21
-223.103185851905410
  0
LINE
  8
0
  6
CONTINUOUS
 62
3
 10
-376.090123348398270
 20
-222.820343071995840
 11
-375.603319956692640
 21
-223.307146463701430
  0
LINE
  8
0
  6
CONTINUOUS
 62
3
 10
-369.443319874984580
 20
-216.173539598582100
 11
-368.956516483278960
 21
-216.660342990287720
  0
ARC
  8
0
  6
CONTINUOUS
 62
3
 10
-473.882991456237560
 20
-217.234199770361930
 40
6.099999427795398
 50
174.601910595264880
 51
275.398072101891500
  0
POINT
  8
0
  6
CONTINUOUS
 62
3
 10
-476.145733021164570
 20
-219.496941335288970
  0
LINE
  8
0
  6
CONTINUOUS
 62
3
 10
-479.469134757871420
 20
-216.173539598582100
 11
-472.822331284457730
 21
-222.820343071995840
  0
LINE
  8
0
  6
CONTINUOUS
 62
3
 10
-479.782273366840230
 20
-216.426086549432480
 11
-473.105174064367300
 21
-223.103185851905410
  0
LINE
  8
0
  6
CONTINUOUS
 62
3
 10
-472.822331284457730
 20
-222.820343071995840
 11
-473.309134676163350
 21
-223.307146463701430
  0
LINE
  8
0
  6
CONTINUOUS
 62
3
 10
-479.469134757871420
 20
-216.173539598582100
 11
-479.955938149577040
 21
-216.660342990287720
  0
ARC
  8
0
  6
CONTINUOUS
 62
3
 10
-473.882991456237560
 20
-118.380671490742620
 40
6.099999427795419
 50
84.601927898108485
 51
185.398089404735120
  0
POINT
  8
0
  6
CONTINUOUS
 62
3
 10
-476.145733021164570
 20
-116.117929925815580
  0
LINE
  8
0
  6
CONTINUOUS
 62
3
 10
-479.469134757871420
 20
-119.441331662522440
 11
-472.822331284457730
 21
-112.794528189108730
  0
LINE
  8
0
  6
CONTINUOUS
 62
3
 10
-479.782273366840230
 20
-119.188784711672070
 11
-473.105174064367300
 21
-112.511685409199160
  0
LINE
  8
0
  6
CONTINUOUS
 62
3
 10
-472.822331284457730
 20
-112.794528189108730
 11
-473.309134676163350
 21
-112.307724797403110
  0
LINE
  8
0
  6
CONTINUOUS
 62
3
 10
-479.469134757871420
 20
-119.441331662522440
 11
-479.955938149577040
 21
-118.954528270816820
  0
ARC
  8
0
  6
CONTINUOUS
 62
3
 10
-375.029463176618440
 20
-118.380671490742620
 40
6.099999427795398
 50
354.601910595264880
 51
95.398072101891515
  0
POINT
  8
0
  6
CONTINUOUS
 62
3
 10
-372.766721611691420
 20
-116.117929925815580
  0
LINE
  8
0
  6
CONTINUOUS
 62
3
 10
-369.443319874984580
 20
-119.441331662522440
 11
-376.090123348398270
 21
-112.794528189108730
  0
LINE
  8
0
  6
CONTINUOUS
 62
3
 10
-369.130181266015770
 20
-119.188784711672070
 11
-375.807280568488690
 21
-112.511685409199160
  0
LINE
  8
0
  6
CONTINUOUS
 62
3
 10
-376.090123348398270
 20
-112.794528189108730
 11
-375.603319956692640
 21
-112.307724797403110
  0
LINE
  8
0
  6
CONTINUOUS
 62
3
 10
-369.443319874984580
 20
-119.441331662522440
 11
-368.956516483278960
 21
-118.954528270816820
  0
ARC
  8
0
  6
CONTINUOUS
 62
3
 10
-32.404690581791670
 20
-291.586771131788620
 40
5.000000000000000
 50
0.000000000000000
 51
28.704380115585796
  0
LINE
  8
0
  6
CONTINUOUS
 62
3
 10
-27.404690581791670
 20
-277.343655483512410
 11
-31.086947770844404
 21
-269.447029458492920
  0
LINE
  8
0
  6
CONTINUOUS
 62
3
 10
-62.641660200110778
 20
-224.398344721415010
 11
-53.043795509386996
 21
-224.398344721415010
  0
ARC
  8
0
  6
CONTINUOUS
 62
3
 10
-65.272988547969248
 20
-227.398344721415010
 40
2.999999999999923
 50
28.704380115585955
 51
90.000000000000000
  0
ARC
  8
0
  6
CONTINUOUS
 62
3
 10
-57.259007228083078
 20
-228.449158361887040
 40
4.999999999999964
 50
203.855500852148960
 51
253.883837153531400
  0
ARC
  8
0
  6
CONTINUOUS
 62
3
 10
-66.404690581792579
 20
-232.493472394412150
 40
4.999999999999964
 50
23.855500852148985
 51
86.999999999997044
  0
LINE
  8
0
  6
CONTINUOUS
 62
3
 10
-66.143010800577599
 20
-227.500324720639240
 11
-88.904690581795535
 21
-226.307435630552500
  0
LINE
  8
0
  6
CONTINUOUS
 62
3
 10
-32.904702714654036
 20
-265.548841401702590
 11
-51.514596457011635
 21
-225.639795481269400
  0
LINE
  8
0
  6
CONTINUOUS
 62
3
 10
-28.019143335360717
 20
-289.185318373701880
 11
-62.641660200110778
 21
-225.957473066563010
  0
INSERT
  8
0
  2
SYM1
 10
-27.404690581791812
 20
-261.947045937341040
  0
INSERT
  8
0
  2
SYM1
 10
-27.404690581791812
 20
-134.667825323667330
 41
-1.000000000000000
 50
180.000000000000000
  0
LINE
  8
0
  6
CONTINUOUS
 62
3
 10
-88.904690581791783
 20
-226.307435630503960
 11
-88.904690581791783
 21
-109.307435630503730
  0
INSERT
  8
0
  2
SYM2
 10
2.595309418208075
 20
-226.307435630503280
  0
INSERT
  8
0
  2
SYM2
 10
2.595309418208075
 20
-136.307436443396910
  0
INSERT
  8
0
  2
SYM2
 10
2.595309418208075
 20
-67.307436443396909
  0
INSERT
  8
0
  2
SYM2
 10
-13.904690581795563
 20
-66.307435630505097
  0
LINE
  8
0
  6
CONTINUOUS
 62
3
 10
14.095309418208075
 20
-326.307435630504190
 11
14.095309418208075
 21
-53.289975245758114
  0
LINE
  8
0
  6
CONTINUOUS
 62
3
 10
119.808493174807460
 20
-49.598389523556079
 11
14.095004831717546
 21
-53.289985882152905
  0
ARC
  8
0
  6
CONTINUOUS
 62
3
 10
-2.404690581791925
 20
-304.100414049739580
 40
5.000000000000000
 50
0.000000000000000
 51
86.999999999999645
  0
ARC
  8
0
  6
CONTINUOUS
 62
3
 10
-8.404690581791925
 20
-80.964289879995704
 40
3.000000000000322
 50
67.582369538516275
 51
70.528779365506566
  0
ARC
  8
0
  6
CONTINUOUS
 62
3
 10
-6.404690581791925
 20
-56.307435630504187
 40
3.000000000000000
 50
90.000000000000000
 51
180.000000000000000
  0
ARC
  8
0
  6
CONTINUOUS
 62
3
 10
-6.404690581791925
 20
-75.307435630504187
 40
3.000000000000000
 50
180.000000000000000
 51
270.000000000000000
  0
LINE
  8
0
  6
CONTINUOUS
 62
3
 10
-9.404690581791925
 20
-70.307435630504187
 11
-9.404690581791925
 21
-56.307435630504187
  0
ARC
  8
0
  6
CONTINUOUS
 62
3
 10
-2.404690581791925
 20
-83.307435630504187
 40
5.000000000000000
 50
0.000000000000000
 51
90.000000000000000
  0
ARC
  8
0
  6
CONTINUOUS
 62
3
 10
-8.404690581791925
 20
-80.964289879995704
 40
3.000000000000000
 50
0.000000000000000
 51
70.528779365506566
  0
ARC
  8
0
  6
CONTINUOUS
 62
3
 10
-8.404690581791925
 20
-94.936464137528674
 40
3.000000000000403
 50
273.000000000005230
 51
0.000000000000000
  0
LINE
  8
0
  6
CONTINUOUS
 62
3
 10
-5.404690581791925
 20
-94.936464137528674
 11
-5.404690581791925
 21
-80.964289879995704
  0
LINE
  8
0
  6
CONTINUOUS
 62
3
 10
-2.143010800577628
 20
-97.612420443608244
 11
-17.404689813439887
 21
-98.412251148802170
  0
ARC
  8
0
  6
CONTINUOUS
 62
3
 10
-2.404690581791925
 20
-92.619272769834424
 40
5.000000000000018
 50
272.999999999995110
 51
0.000000000000000
  0
ARC
  8
0
  6
CONTINUOUS
 62
3
 10
-2.404690581791925
 20
-304.100414049738900
 40
5.000000000000356
 50
74.028040356722741
 51
87.000000000004846
  0
LINE
  8
0
  6
CONTINUOUS
 62
3
 10
-2.143010800577628
 20
-299.107266375965990
 11
-17.404690581791925
 21
-298.307435630504190
  0
LINE
  8
0
  6
CONTINUOUS
 62
3
 10
13.595309418208075
 20
-198.307435630504190
 11
13.595309418208075
 21
-326.307435630504190
  0
LINE
  8
0
  6
CONTINUOUS
 62
3
 10
-2.404690581791925
 20
-209.307435630502370
 11
-2.404690581791925
 21
-202.307435630502370
  0
LINE
  8
0
  6
CONTINUOUS
 62
3
 10
-2.404690581791925
 20
-195.307435630502370
 11
-2.404690581791925
 21
-202.307435630502370
  0
ARC
  8
0
  6
CONTINUOUS
 62
3
 10
-0.404690581791925
 20
-215.223515413601490
 40
3.000000000000000
 50
0.000000000000000
 51
80.405931773138747
  0
ARC
  8
0
  6
CONTINUOUS
 62
3
 10
-0.404690581791925
 20
-189.391355847402340
 40
3.000000000000653
 50
279.594068226858330
 51
0.000000000000000
  0
ARC
  8
0
  6
CONTINUOUS
 62
3
 10
0.595309418208075
 20
-209.307435630502370
 40
3.000000000000000
 50
180.000000000000000
 51
260.405931773138780
  0
ARC
  8
0
  6
CONTINUOUS
 62
3
 10
0.595309418208075
 20
-195.307435630502370
 40
2.999999999999756
 50
99.594068226861253
 51
180.000000000000000
  0
ARC
  8
0
  6
CONTINUOUS
 62
3
 10
4.595309418208075
 20
-55.307435630504187
 40
2.000000000000000
 50
90.000000000000000
 51
180.000000000000000
  0
LINE
  8
0
  6
CONTINUOUS
 62
3
 10
13.595309418208075
 20
-198.307435630504190
 11
13.595309418208075
 21
-53.307435630504187
  0
LINE
  8
0
  6
CONTINUOUS
 62
3
 10
-13.904690581795563
 20
-76.307435630505097
 11
-13.904690581791925
 21
-18.307435630505097
  0
LINE
  8
0
  6
CONTINUOUS
 62
3
 10
-9.404690581791925
 20
-18.307435630505097
 11
-9.404690581791925
 21
-76.307435630505097
  0
LINE
  8
0
  6
CONTINUOUS
 62
3
 10
-13.904690581795563
 20
-76.307435630505097
 11
-9.404690581795563
 21
-76.307435630505097
  0
LINE
  8
0
  6
CONTINUOUS
 62
3
 10
-6.404690581791925
 20
-78.307435630504187
 11
-2.404690581791925
 21
-78.307435630504187
  0
LINE
  8
0
  6
CONTINUOUS
 62
3
 10
-6.404690581791925
 20
-53.307435630504187
 11
14.095309418208075
 21
-53.307435630504187
  0
ARC
  8
0
  6
CONTINUOUS
 62
3
 10
-124.454690581792870
 20
-136.210827989946210
 40
11.000000000000000
 50
0.000000000000000
 51
90.000000000000000
  0
ARC
  8
0
  6
CONTINUOUS
 62
4
 10
-124.854690581792510
 20
-142.807435630551940
 40
5.000000000000000
 50
0.000000000000000
 51
90.000000000000000
  0
ARC
  8
0
  6
CONTINUOUS
 62
3
 10
-124.854690581792510
 20
-136.305646193444770
 40
5.000000000000000
 50
0.000000000000000
 51
90.000000000000000
  0
ARC
  8
0
  6
CONTINUOUS
 62
3
 10
-124.854690581792510
 20
-212.383390400104870
 40
5.000000000000000
 50
270.000000000000000
 51
0.000000000000000
  0
ARC
  8
0
  6
CONTINUOUS
 62
3
 10
-124.454690581792870
 20
-217.813547358201960
 40
11.000000000000000
 50
270.000000000000000
 51
0.000000000000000
  0
ARC
  8
0
  6
CONTINUOUS
 62
3
 10
-124.454690581792870
 20
-216.593337428974790
 40
11.000000000000000
 50
270.000000000000000
 51
0.000000000000000
  0
LINE
  8
0
  6
CONTINUOUS
 62
3
 10
-88.904690581791783
 20
-226.307435630503960
 11
-88.904690581791783
 21
-109.307435630503730
  0
LINE
  8
0
  6
CONTINUOUS
 62
3
 10
-124.454690581792870
 20
-125.210827989946210
 11
-159.904690581791670
 21
-125.210827989946210
  0
LINE
  8
0
  6
CONTINUOUS
 62
3
 10
-113.454690581792870
 20
-136.210827989946210
 11
-113.454690581792870
 21
-217.813547358201960
  0
LINE
  8
0
  6
CONTINUOUS
 62
3
 10
-119.854690581792510
 20
-136.305646193444770
 11
-119.854690581792510
 21
-212.383390400104870
  0
LINE
  8
0
  6
CONTINUOUS
 62
3
 10
-124.454690581792870
 20
-227.593337428974790
 11
-159.904690581791670
 21
-227.593337428974790
  0
LINE
  8
0
  6
CONTINUOUS
 62
3
 10
-124.454690581792870
 20
-228.813547358201960
 11
-159.904690581791670
 21
-228.813547358201960
  0
LINE
  8
0
  6
CONTINUOUS
 62
4
 10
-113.454690581792980
 20
-137.525001303982890
 11
-88.904690581791670
 21
-137.525001303982890
  0
LINE
  8
0
  6
CONTINUOUS
 62
4
 10
-113.454690581792980
 20
-142.977382173421800
 11
-88.904690581791670
 21
-142.977382173421800
  0
LINE
  8
0
  6
CONTINUOUS
 62
4
 10
-113.454690581792980
 20
-141.615501838072530
 11
-88.904690581791670
 21
-141.615501838072530
  0
LINE
  8
0
  6
CONTINUOUS
 62
4
 10
-113.454690581792980
 20
-147.807435630552160
 11
-88.904690581791670
 21
-147.807435630552160
  0
LINE
  8
0
  6
CONTINUOUS
 62
4
 10
-185.904690581791560
 20
-110.807435630552160
 11
-88.904690581791670
 21
-110.807435630552160
  0
LINE
  8
0
  6
CONTINUOUS
 62
4
 10
-185.904690581791560
 20
-110.307435630552160
 11
-88.904690581791670
 21
-110.307435630552160
  0
LINE
  8
0
  6
CONTINUOUS
 62
4
 10
-185.904690581791560
 20
-111.807435630552160
 11
-88.904690581791670
 21
-111.807435630552160
  0
LINE
  8
0
  6
CONTINUOUS
 62
4
 10
-185.904690581791560
 20
-112.807435630552160
 11
-88.904690581791670
 21
-112.807435630552160
  0
LINE
  8
0
  6
CONTINUOUS
 62
4
 10
-185.904690581791560
 20
-117.491901443776660
 11
-88.904690581791670
 21
-117.491901443776660
  0
LINE
  8
0
  6
CONTINUOUS
 62
4
 10
-185.904690581791560
 20
-122.441648912082420
 11
-88.904690581791670
 21
-122.441648912082420
  0
LINE
  8
0
  6
CONTINUOUS
 62
4
 10
-115.060431285401020
 20
-130.488250574816220
 11
-88.904690581791670
 21
-130.488250574816220
  0
LINE
  8
0
  6
CONTINUOUS
 62
4
 10
-114.254560355340450
 20
-132.092898490378270
 11
-88.904690581791670
 21
-132.092898490378270
  0
LINE
  8
0
  6
CONTINUOUS
 62
4
 10
-113.454690581792980
 20
-136.056643914177810
 11
-88.904690581791670
 21
-136.056643914177810
  0
LINE
  8
0
  6
CONTINUOUS
 62
3
 10
-88.904690581791670
 20
-109.307435630552160
 11
-185.904690581791560
 21
-109.307435630552160
  0
LINE
  8
0
  6
CONTINUOUS
 62
3
 10
-88.904690581791670
 20
-109.307435630552160
 11
-88.904690581791670
 21
-167.807435630552160
  0
LINE
  8
0
  6
CONTINUOUS
 62
4
 10
-113.454690581792980
 20
-198.089869957121440
 11
-88.904690581791670
 21
-198.089869957121440
  0
LINE
  8
0
  6
CONTINUOUS
 62
4
 10
-113.454690581792980
 20
-192.637489087682520
 11
-88.904690581791670
 21
-192.637489087682520
  0
LINE
  8
0
  6
CONTINUOUS
 62
4
 10
-113.454690581792980
 20
-193.999369423031790
 11
-88.904690581791670
 21
-193.999369423031790
  0
LINE
  8
0
  6
CONTINUOUS
 62
4
 10
-113.454690581792980
 20
-187.807435630552160
 11
-88.904690581791670
 21
-187.807435630552160
  0
LINE
  8
0
  6
CONTINUOUS
 62
4
 10
-115.964370986283930
 20
-224.807435630552160
 11
-88.904690581791670
 21
-224.807435630552160
  0
LINE
  8
0
  6
CONTINUOUS
 62
4
 10
-116.402259982183060
 20
-225.307435630552160
 11
-88.904690581791670
 21
-225.307435630552160
  0
LINE
  8
0
  6
CONTINUOUS
 62
4
 10
-115.231171547358030
 20
-223.807435630552160
 11
-88.904690581791670
 21
-223.807435630552160
  0
LINE
  8
0
  6
CONTINUOUS
 62
4
 10
-114.653615134512500
 20
-222.807435630552160
 11
-88.904690581791670
 21
-222.807435630552160
  0
LINE
  8
0
  6
CONTINUOUS
 62
4
 10
-113.454690581792980
 20
-218.122969817327660
 11
-88.904690581791670
 21
-218.122969817327660
  0
LINE
  8
0
  6
CONTINUOUS
 62
4
 10
-113.454690581792980
 20
-213.173222349021900
 11
-88.904690581791670
 21
-213.173222349021900
  0
LINE
  8
0
  6
CONTINUOUS
 62
4
 10
-113.454690581792980
 20
-205.126620686288110
 11
-88.904690581791670
 21
-205.126620686288110
  0
LINE
  8
0
  6
CONTINUOUS
 62
4
 10
-113.454690581792980
 20
-203.521972770726050
 11
-88.904690581791670
 21
-203.521972770726050
  0
LINE
  8
0
  6
CONTINUOUS
 62
4
 10
-113.454690581792980
 20
-199.558227346926510
 11
-88.904690581791670
 21
-199.558227346926510
  0
LINE
  8
0
  6
DASHDOT
 62
4
 10
-10.685099419281784
 20
-167.807435630552160
 11
-246.833903120138190
 21
-167.807435630552160
  0
LINE
  8
0
  6
CONTINUOUS
 62
3
 10
-88.904690581791670
 20
-226.307435630552160
 11
-117.465136803701510
 21
-226.307435630552160
  0
LINE
  8
0
  6
CONTINUOUS
 62
3
 10
-88.904690581791670
 20
-226.307435630552160
 11
-88.904690581791670
 21
-167.807435630552160
  0
LINE
  8
0
  6
CONTINUOUS
 62
3
 10
-88.904690581791783
 20
-187.807435630554890
 11
-30.404690581791812
 21
-187.807435630554660
  0
ARC
  8
0
  6
CONTINUOUS
 62
3
 10
-30.404690581791812
 20
-190.807435630554660
 40
3.000000000000000
 50
0.000000000000000
 51
90.000000000000000
  0
LINE
  8
0
  6
CONTINUOUS
 62
3
 10
-88.904690581791783
 20
-147.807435630554890
 11
-69.879627767324720
 21
-147.807435630554890
  0
ARC
  8
0
  6
CONTINUOUS
 62
3
 10
-64.904690581791897
 20
-147.307435630552160
 40
5.000000000000000
 50
180.000000000000000
 51
270.000000000000000
  0
ARC
  8
0
  6
CONTINUOUS
 62
3
 10
-32.404690581791670
 20
-147.307435630552160
 40
5.000000000000000
 50
270.000000000000000
 51
0.000000000000000
  0
LINE
  8
0
  6
CONTINUOUS
 62
3
 10
-17.404690581791670
 20
-98.307435630552732
 11
-17.404690581791670
 21
-198.307435630552730
  0
LINE
  8
0
  6
CONTINUOUS
 62
3
 10
-17.404690581791670
 20
-298.307435630552730
 11
-17.404690581791670
 21
-198.307435630552730
  0
LINE
  8
0
  6
CONTINUOUS
 62
3
 10
-27.404690581791670
 20
-277.343655483512410
 11
-27.404690581791670
 21
-295.307435630552730
  0
LINE
  8
0
  6
CONTINUOUS
 62
3
 10
-24.404690581791670
 20
-98.307435630552732
 11
-17.404690581791670
 21
-98.307435630552732
  0
LINE
  8
0
  6
CONTINUOUS
 62
3
 10
-27.404690581791670
 20
-101.307435630552730
 11
-27.404690581791670
 21
-104.307435630552160
  0
LINE
  8
0
  6
CONTINUOUS
 62
3
 10
-24.404690581791670
 20
-298.307435630552730
 11
-17.404690581791670
 21
-298.307435630552730
  0
ARC
  8
0
  6
CONTINUOUS
 62
3
 10
-24.404690581791670
 20
-101.307435630552730
 40
3.000000000000000
 50
90.000000000000000
 51
180.000000000000000
  0
ARC
  8
0
  6
CONTINUOUS
 62
3
 10
-24.404690581791670
 20
-295.307435630552730
 40
3.000000000000000
 50
180.000000000000000
 51
270.000000000000000
  0
LINE
  8
0
  6
CONTINUOUS
 62
3
 10
-88.904690581791670
 20
-109.307435630552160
 11
-31.904690581791670
 21
-109.307435630552160
  0
ARC
  8
0
  6
CONTINUOUS
 62
3
 10
-32.404690581791670
 20
-104.307435630552160
 40
5.000000000000000
 50
270.000000000000000
 51
0.000000000000000
  0
LINE
  8
0
  6
CONTINUOUS
 62
3
 10
-32.404690581791670
 20
-152.307435630552160
 11
-64.904690581791897
 21
-152.307435630552160
  0
ARC
  8
0
  6
CONTINUOUS
 62
3
 10
-24.404690581791670
 20
-104.307435630600480
 40
3.000000000000000
 50
90.000000000000000
 51
180.000000000000000
  0
LINE
  8
0
  6
CONTINUOUS
 62
3
 10
-24.404690581791670
 20
-101.307435630600480
 11
-17.404690581791670
 21
-101.307435630600480
  0
ARC
  8
0
  6
CONTINUOUS
 62
3
 10
-32.404690581791897
 20
-115.307435630552390
 40
5.000000000000000
 50
270.000000000000000
 51
0.000000000000000
  0
LINE
  8
0
  6
CONTINUOUS
 62
3
 10
-69.904690581791897
 20
-147.307435630552160
 11
-69.904690581791897
 21
-114.307435630552390
  0
ARC
  8
0
  6
CONTINUOUS
 62
3
 10
-64.904690581791897
 20
-115.307435630552390
 40
5.000000000000000
 50
179.999999999997410
 51
270.000000000000000
  0
ARC
  8
0
  6
CONTINUOUS
 62
3
 10
-74.904690581791897
 20
-114.307435630552160
 40
5.000000000000000
 50
359.999999999997390
 51
90.000000000000000
  0
LINE
  8
0
  6
CONTINUOUS
 62
3
 10
-32.404690581791897
 20
-120.307435630552390
 11
-64.904690581792352
 21
-120.307435630552390
  0
LINE
  8
0
  6
CONTINUOUS
 62
3
 10
-27.404690581791670
 20
-104.307435630552160
 11
-27.404690581791670
 21
-277.343655483512410
  0
LINE
  8
0
  6
DASHDOT
 62
4
 10
-47.404690581791670
 20
-143.503104017804960
 11
-47.404690581791670
 21
-100.348849461426080
  0
LINE
  8
0
  6
CONTINUOUS
 62
3
 10
-24.404690581791670
 20
-295.307435630600480
 11
-17.404690581791670
 21
-295.307435630600480
  0
ARC
  8
0
  6
CONTINUOUS
 62
3
 10
-24.404690581791670
 20
-292.307435630600480
 40
3.000000000000000
 50
180.000000000000000
 51
270.000000000000000
  0
LINE
  8
0
  6
CONTINUOUS
 62
3
 10
2.595309418208075
 20
-189.391355847402340
 11
2.595309418208075
 21
-55.307435630504187
  0
LINE
  8
0
  6
CONTINUOUS
 62
3
 10
2.595309418208075
 20
-215.223515413601490
 11
2.595309418208075
 21
-324.307435630504190
  0
LINE
  8
0
  6
DASHDOT
 62
4
 10
-6.639717675487191
 20
-66.307435630505097
 11
-31.794887042018672
 21
-66.307435630505097
  0
LINE
  8
0
  6
CONTINUOUS
 62
3
 10
-118.904690581791670
 20
241.692564369447840
 11
-88.904690581791783
 21
241.692564369447840
  0
LINE
  8
0
  6
CONTINUOUS
 62
4
 10
-185.904690581791670
 20
239.192564369447840
 11
-88.904690581791783
 21
239.192564369447840
  0
LINE
  8
0
  6
CONTINUOUS
 62
4
 10
-185.904690581791670
 20
238.192564369447840
 11
-88.904690581791783
 21
238.192564369447840
  0
LINE
  8
0
  6
CONTINUOUS
 62
4
 10
-185.904690581791670
 20
237.192564369447840
 11
-88.904690581791783
 21
237.192564369447840
  0
LINE
  8
0
  6
CONTINUOUS
 62
4
 10
-185.904690581791670
 20
232.508098556223560
 11
-88.904690581791783
 21
232.508098556223560
  0
LINE
  8
0
  6
CONTINUOUS
 62
4
 10
-185.904690581791670
 20
227.558351087917800
 11
-88.904690581791783
 21
227.558351087917800
  0
LINE
  8
0
  6
CONTINUOUS
 62
4
 10
-185.904690581791670
 20
201.565826178949010
 11
-88.904690581791783
 21
201.565826178949010
  0
LINE
  8
0
  6
CONTINUOUS
 62
4
 10
-185.904690581791670
 20
202.832064095036230
 11
-88.904690581791783
 21
202.832064095036230
  0
LINE
  8
0
  6
CONTINUOUS
 62
4
 10
-185.904690581791670
 20
207.022617826578430
 11
-88.904690581791783
 21
207.022617826578430
  0
LINE
  8
0
  6
CONTINUOUS
 62
4
 10
-185.904690581791670
 20
208.384498161927700
 11
-88.904690581791783
 21
208.384498161927700
  0
LINE
  8
0
  6
CONTINUOUS
 62
4
 10
-185.904690581791670
 20
212.474998696017560
 11
-88.904690581791783
 21
212.474998696017560
  0
LINE
  8
0
  6
CONTINUOUS
 62
4
 10
-185.904690581791670
 20
213.943356085822190
 11
-88.904690581791783
 21
213.943356085822190
  0
LINE
  8
0
  6
CONTINUOUS
 62
4
 10
-185.904690581791670
 20
217.907101509621730
 11
-88.904690581791783
 21
217.907101509621730
  0
LINE
  8
0
  6
CONTINUOUS
 62
4
 10
-185.904690581791670
 20
219.511749425183780
 11
-88.904690581791783
 21
219.511749425183780
  0
LINE
  8
0
  6
CONTINUOUS
 62
4
 10
-185.904690581791670
 20
162.819302559946660
 11
-88.904690581791783
 21
162.819302559946660
  0
LINE
  8
0
  6
CONTINUOUS
 62
4
 10
-185.904690581791670
 20
161.553064643859440
 11
-88.904690581791783
 21
161.553064643859440
  0
LINE
  8
0
  6
CONTINUOUS
 62
4
 10
-185.904690581791670
 20
157.362510912317250
 11
-88.904690581791783
 21
157.362510912317250
  0
LINE
  8
0
  6
CONTINUOUS
 62
4
 10
-185.904690581791670
 20
156.000630576967980
 11
-88.904690581791783
 21
156.000630576967980
  0
LINE
  8
0
  6
CONTINUOUS
 62
4
 10
-185.904690581791670
 20
151.910130042878110
 11
-88.904690581791783
 21
151.910130042878110
  0
LINE
  8
0
  6
CONTINUOUS
 62
4
 10
-185.904690581791670
 20
150.441772653073490
 11
-88.904690581791783
 21
150.441772653073490
  0
LINE
  8
0
  6
CONTINUOUS
 62
4
 10
-185.904690581791670
 20
146.478027229273950
 11
-88.904690581791783
 21
146.478027229273950
  0
LINE
  8
0
  6
CONTINUOUS
 62
4
 10
-185.904690581791670
 20
144.873379313711890
 11
-88.904690581791783
 21
144.873379313711890
  0
LINE
  8
0
  6
CONTINUOUS
 62
4
 10
-185.904690581791670
 20
136.826777650977870
 11
-88.904690581791783
 21
136.826777650977870
  0
LINE
  8
0
  6
CONTINUOUS
 62
4
 10
-185.904690581791670
 20
131.877030182672120
 11
-88.904690581791783
 21
131.877030182672120
  0
LINE
  8
0
  6
CONTINUOUS
 62
4
 10
-185.904690581791670
 20
127.192564369447830
 11
-88.904690581791783
 21
127.192564369447830
  0
LINE
  8
0
  6
CONTINUOUS
 62
4
 10
-185.904690581791670
 20
126.192564369447830
 11
-88.904690581791783
 21
126.192564369447830
  0
LINE
  8
0
  6
CONTINUOUS
 62
4
 10
-185.904690581791670
 20
125.192564369447830
 11
-88.904690581791783
 21
125.192564369447830
  0
LINE
  8
0
  6
CONTINUOUS
 62
3
 10
-186.036899060999870
 20
122.692564369447830
 11
-88.904690581791783
 21
122.692564369447830
  0
LINE
  8
0
  6
CONTINUOUS
 62
3
 10
-185.904690581791670
 20
241.692564369447610
 11
-88.904690581791783
 21
241.692564369447610
  0
LINE
  8
0
  6
CONTINUOUS
 62
3
 10
-88.904690581791783
 20
122.692564369447830
 11
-88.904690581791783
 21
182.192564369447840
  0
LINE
  8
0
  6
CONTINUOUS
 62
3
 10
-88.904690581791783
 20
241.692564369447610
 11
-88.904690581791783
 21
182.192564369447840
  0
INSERT
  8
0
  2
SYM1
 10
-27.404690581791812
 20
118.552954062610970
  0
INSERT
  8
0
  2
SYM1
 10
-27.404690581791812
 20
245.832174676284690
 41
-1.000000000000000
 50
180.000000000000000
  0
LINE
  8
0
  6
CONTINUOUS
 62
3
 10
-88.904690581791783
 20
122.692564369399170
 11
-88.904690581791783
 21
182.192564369447840
  0
LINE
  8
0
  6
CONTINUOUS
 62
3
 10
-27.404690581791812
 20
182.192564369447840
 11
-27.404690581791812
 21
87.192564369398724
  0
LINE
  8
0
  6
CONTINUOUS
 62
3
 10
-27.404690581791812
 20
172.256072696295860
 11
-21.904689628121929
 21
172.256072696295830
  0
LINE
  8
0
  6
CONTINUOUS
 62
3
 10
-88.904690581791783
 20
241.692564369496490
 11
-88.904690581791783
 21
182.192564369447840
  0
LINE
  8
0
  6
CONTINUOUS
 62
3
 10
-27.404690581791812
 20
182.192564369447840
 11
-27.404690581791812
 21
277.192564369496950
  0
LINE
  8
0
  6
CONTINUOUS
 62
3
 10
-27.404690581791812
 20
192.129056042599810
 11
-21.904689628121929
 21
192.129056042599840
  0
LINE
  8
0
  6
CONTINUOUS
 62
3
 10
-32.904175107231225
 20
122.692564369399170
 11
-88.904690581791783
 21
122.692564369399170
  0
LINE
  8
0
  6
CONTINUOUS
 62
3
 10
-32.904670488223324
 20
241.692564369496490
 11
-88.904690581791783
 21
241.692564369496490
  0
INSERT
  8
0
  2
SYM2
 10
-13.904690581796245
 20
171.692564369446930
  0
INSERT
  8
0
  2
SYM2
 10
2.595309418208075
 20
132.192564369448060
  0
INSERT
  8
0
  2
SYM2
 10
-13.904690581796245
 20
192.692564369449200
 41
-1.000000000000000
 50
180.000000000000030
  0
INSERT
  8
0
  2
SYM2
 10
2.595309418208075
 20
232.192564369448060
 41
-1.000000000000000
 50
180.000000000000030
  0
LINE
  8
0
  6
CONTINUOUS
 62
3
 10
13.595309418208075
 20
182.192564369448060
 11
13.595309418208075
 21
47.192564369448064
  0
LINE
  8
0
  6
CONTINUOUS
 62
3
 10
2.595309418208075
 20
182.192564369448060
 11
2.595309418208075
 21
49.192564369448064
  0
LINE
  8
0
  6
CONTINUOUS
 62
3
 10
-2.230193098279329
 20
161.337263088131520
 11
-6.509389071899619
 21
161.486695904336560
  0
LINE
  8
0
  6
CONTINUOUS
 62
3
 10
-9.404690581791925
 20
182.192564369448060
 11
-9.404690581791925
 21
161.692564369448060
  0
ARC
  8
0
  6
CONTINUOUS
 62
3
 10
-2.404690581791925
 20
156.340308953036130
 40
5.000000000000000
 50
0.000000000000000
 51
87.999999999998934
  0
ARC
  8
0
  6
CONTINUOUS
 62
3
 10
-6.404690581791925
 20
164.484868385393840
 40
3.000000000000000
 50
180.000000000000000
 51
267.999999999996360
  0
LINE
  8
0
  6
CONTINUOUS
 62
3
 10
-13.904690581795563
 20
182.192564369448060
 11
-13.904690581795563
 21
161.692564369448060
  0
LINE
  8
0
  6
CONTINUOUS
 62
3
 10
-9.404690581791925
 20
161.692564369448060
 11
-13.904690581795563
 21
161.692564369448060
  0
ARC
  8
0
  6
CONTINUOUS
 62
3
 10
-16.245009304723368
 20
107.677172338020450
 40
3.000000000000161
 50
26.946799452615107
 51
90.000000000000000
  0
LINE
  8
0
  6
CONTINUOUS
 62
3
 10
-13.570726260423413
 20
109.036661285739680
 11
2.269592462507802
 21
77.876793566246988
  0
LINE
  8
0
  6
CONTINUOUS
 62
3
 10
0.734568706574322
 20
110.677172338020450
 11
-13.570726260423413
 21
110.677172338020450
  0
ARC
  8
0
  6
CONTINUOUS
 62
3
 10
-16.245009304723368
 20
103.025994377875800
 40
3.000000000000161
 50
26.946799452615107
 51
90.000000000000000
  0
LINE
  8
0
  6
CONTINUOUS
 62
3
 10
-13.570726260423413
 20
104.385483325595030
 11
2.269592462507802
 21
73.225615606102338
  0
LINE
  8
0
  6
CONTINUOUS
 62
3
 10
-17.404690581791925
 20
182.192564369448060
 11
-17.404690581791925
 21
178.192564369446930
  0
LINE
  8
0
  6
CONTINUOUS
 62
3
 10
-17.404690581791925
 20
165.192564369446930
 11
-17.404690581791925
 21
84.192564369447382
  0
LINE
  8
0
  6
CONTINUOUS
 62
3
 10
13.595309418208075
 20
182.192564369448060
 11
13.595309418207847
 21
317.192564369448060
  0
LINE
  8
0
  6
CONTINUOUS
 62
3
 10
2.595309418208075
 20
182.192564369448060
 11
2.595309418207847
 21
315.192564369448060
  0
LINE
  8
0
  6
CONTINUOUS
 62
3
 10
-2.230193098279329
 20
203.047865650764610
 11
-6.509389071899619
 21
202.898432834559570
  0
LINE
  8
0
  6
CONTINUOUS
 62
3
 10
-9.404690581791925
 20
182.192564369448060
 11
-9.404690581791925
 21
202.692564369448060
  0
ARC
  8
0
  6
CONTINUOUS
 62
3
 10
-2.404690581791925
 20
208.044819785860000
 40
4.999999999999918
 50
272.000000000001080
 51
0.000000000000000
  0
ARC
  8
0
  6
CONTINUOUS
 62
3
 10
-6.404690581791925
 20
199.900260353502290
 40
3.000000000000001
 50
92.000000000003652
 51
180.000000000000000
  0
LINE
  8
0
  6
CONTINUOUS
 62
3
 10
-13.904690581795563
 20
182.192564369448060
 11
-13.904690581795563
 21
202.692564369448060
  0
LINE
  8
0
  6
CONTINUOUS
 62
3
 10
-9.404690581791925
 20
202.692564369448060
 11
-13.904690581795563
 21
202.692564369448060
  0
ARC
  8
0
  6
CONTINUOUS
 62
3
 10
-16.245009304723368
 20
256.707956400875670
 40
3.000000000000000
 50
270.000000000000000
 51
333.053200547384900
  0
LINE
  8
0
  6
CONTINUOUS
 62
3
 10
-13.570726260423413
 20
255.348467453156450
 11
2.269592462507802
 21
286.508335172649140
  0
LINE
  8
0
  6
CONTINUOUS
 62
3
 10
0.734568706574322
 20
253.707956400875670
 11
-13.570726260423413
 21
253.707956400875670
  0
ARC
  8
0
  6
CONTINUOUS
 62
3
 10
-16.245009304723368
 20
261.359134361020320
 40
3.000000000000000
 50
270.000000000000000
 51
333.053200547384900
  0
LINE
  8
0
  6
CONTINUOUS
 62
3
 10
-13.570726260423413
 20
259.999645413301100
 11
2.269592462507802
 21
291.159513132793790
  0
LINE
  8
0
  6
CONTINUOUS
 62
3
 10
-17.404690581791925
 20
182.192564369448060
 11
-17.404690581791925
 21
186.192564369449200
  0
LINE
  8
0
  6
CONTINUOUS
 62
3
 10
-17.404690581791925
 20
199.192564369449200
 11
-17.404690581792153
 21
280.192564369448750
  0
LINE
  8
0
  6
DASHDOT
 62
4
 10
259.194469930602620
 20
182.192564369447840
 11
-251.583906030427560
 21
182.192564369447840
  0
LINE
  8
0
  6
CONTINUOUS
 62
3
 10
14.095309418208075
 20
47.192564369447382
 11
14.095309418208075
 21
287.210024754193910
  0
LINE
  8
0
  6
CONTINUOUS
 62
3
 10
14.095309418208075
 20
47.192564369447382
 11
14.095309418208075
 21
317.192564369448520
  0
ARC
  8
0
  6
CONTINUOUS
 62
3
 10
-74.904690581790533
 20
236.692564369496610
 40
5.000000000000000
 50
0.000000000000000
 51
90.000000000000000
  0
ARC
  8
0
  6
CONTINUOUS
 62
3
 10
-66.904690581790533
 20
200.192564369447950
 40
3.000000000000000
 50
180.000000000000000
 51
270.000000000000000
  0
LINE
  8
0
  6
CONTINUOUS
 62
3
 10
-69.904690581790533
 20
200.192564369447950
 11
-69.904690581790533
 21
236.692564369496610
  0
ARC
  8
0
  6
CONTINUOUS
 62
3
 10
-66.904690581790533
 20
164.192564369447720
 40
3.000000000000000
 50
90.000000000000000
 51
180.000000000000000
  0
ARC
  8
0
  6
CONTINUOUS
 62
3
 10
-74.904690581790533
 20
127.692564369399060
 40
5.000000000000000
 50
270.000000000000000
 51
0.000000000000000
  0
LINE
  8
0
  6
CONTINUOUS
 62
3
 10
-69.904690581790533
 20
164.192564369447720
 11
-69.904690581790533
 21
127.692564369399060
  0
CIRCLE
  8
0
  6
CONTINUOUS
 62
3
 10
-47.404690581791670
 20
182.192564369447950
 40
10.500000000000000
  0
ARC
  8
0
  6
CONTINUOUS
 62
3
 10
-30.404690581791677
 20
200.192564369447840
 40
3.000000000000000
 50
270.000000000000000
 51
0.000000000000000
  0
LINE
  8
0
  6
CONTINUOUS
 62
3
 10
-66.904690581790533
 20
197.192564369447840
 11
-30.404690581791677
 21
197.192564369447840
  0
ARC
  8
0
  6
CONTINUOUS
 62
3
 10
-30.404690581791677
 20
164.192564369447840
 40
3.000000000000007
 50
0.000000000000000
 51
90.000000000000000
  0
LINE
  8
0
  6
CONTINUOUS
 62
3
 10
-66.904690581790533
 20
167.192564369447840
 11
-30.404690581791677
 21
167.192564369447840
  0
LINE
  8
0
  6
DASHDOT
 62
4
 10
-47.404690581791670
 20
168.694533189031060
 11
-47.404690581791670
 21
195.929501829654330
  0
LINE
  8
0
  6
CONTINUOUS
 62
4
 10
-185.904690581791670
 20
197.192564369447840
 11
-66.904690581790533
 21
197.192564369447840
  0
LINE
  8
0
  6
CONTINUOUS
 62
4
 10
-185.904690581791670
 20
167.192564369447840
 11
-66.904690581790533
 21
167.192564369447840
  0
ARC
  8
0
  6
CONTINUOUS
 62
3
 10
-413.956227316428000
 20
-66.307435630505097
 40
10.000000000000000
 50
270.000000000000000
 51
0.000000000000000
  0
ARC
  8
0
  6
CONTINUOUS
 62
3
 10
-434.956227316428000
 20
-66.307435630505097
 40
10.000000000000000
 50
180.000000000000000
 51
270.000000000000000
  0
LINE
  8
0
  6
CONTINUOUS
 62
3
 10
-413.956227316428000
 20
-76.307435630505097
 11
-434.956227316428000
 21
-76.307435630505097
  0
LINE
  8
0
  6
CONTINUOUS
 62
3
 10
-302.456232021416610
 20
-229.771533806298460
 11
-305.456224893528370
 21
-228.039481848582400
  0
LINE
  8
0
  6
CONTINUOUS
 62
3
 10
-302.456220697826270
 20
-222.843338734164040
 11
-299.456229890479050
 21
-224.575388848413300
  0
LINE
  8
0
  6
CONTINUOUS
 62
3
 10
-299.456229204334360
 20
-228.039487023328430
 11
-302.456231780840200
 21
-229.771533995964770
  0
LINE
  8
0
  6
CONTINUOUS
 62
3
 10
-302.456220614707150
 20
-222.843338630614430
 11
-305.456225255979520
 21
-224.575383808844090
  0
LINE
  8
0
  6
CONTINUOUS
 62
3
 10
-299.456230654287310
 20
-224.575388677324100
 11
-299.456229700612990
 21
-228.039486654008670
  0
LINE
  8
0
  6
CONTINUOUS
 62
3
 10
-305.456223978568970
 20
-228.039481630100910
 11
-305.456224932243230
 21
-224.575383653416340
  0
ARC
  8
0
  6
CONTINUOUS
 62
3
 10
-302.456227316428000
 20
-226.307435630549660
 40
6.499999999999984
 50
203.577974107225970
 51
119.980245938812910
  0
ARC
  8
0
  6
CONTINUOUS
 62
3
 10
-302.456227316428000
 20
-226.307435630549660
 40
5.633955001831049
 50
203.513099321098140
 51
121.736370180361370
  0
ARC
  8
0
  6
CONTINUOUS
 62
3
 10
-302.456227316428000
 20
-202.307435630549660
 40
12.999999999999950
 50
236.296430203431580
 51
270.000000000000000
  0
ARC
  8
0
  6
CONTINUOUS
 62
3
 10
-442.456227316428910
 20
-215.307435630550340
 40
79.999999999999943
 50
242.258787150595110
 51
270.000000000000000
  0
LINE
  8
0
  6
CONTINUOUS
 62
3
 10
-446.956227316428000
 20
-252.931148430029450
 11
-446.956227316428000
 21
-291.292631557125560
  0
LINE
  8
0
  6
CONTINUOUS
 62
3
 10
-451.956227316428000
 20
-247.640487431548760
 11
-451.956227316428000
 21
-290.272427460070280
  0
ARC
  8
0
  6
CONTINUOUS
 62
3
 10
-442.456227316428910
 20
-215.307435630550340
 40
79.999999999999943
 50
242.258787150595110
 51
270.000000000000000
  0
LINE
  8
0
  6
CONTINUOUS
 62
3
 10
-446.956227316428000
 20
-230.922616145151320
 11
-446.956227316428000
 21
-291.292631557125560
  0
LINE
  8
0
  6
CONTINUOUS
 62
3
 10
-451.956227316428000
 20
-226.902073781687930
 11
-451.956227316428000
 21
-290.272427460070280
  0
ARC
  8
0
  6
CONTINUOUS
 62
3
 10
-454.956227316428000
 20
-290.272427460070280
 40
3.000000000000273
 50
260.533338912426300
 51
0.000000000000000
  0
ARC
  8
0
  6
CONTINUOUS
 62
3
 10
-443.956227316428000
 20
-291.292631557125560
 40
3.000000000000000
 50
180.000000000000000
 51
268.869088815268640
  0
ARC
  8
0
  6
CONTINUOUS
 62
3
 10
-387.667904126864980
 20
-298.204956170820650
 40
4.999999999999787
 50
78.506801628095019
 51
102.770071443539460
  0
LINE
  8
0
  6
CONTINUOUS
 62
3
 10
-412.583243970220910
 20
-295.307435630550340
 11
-406.456227316427540
 21
-295.307435630550340
  0
ARC
  8
0
  6
CONTINUOUS
 62
3
 10
-406.456227316427540
 20
-215.307435630550340
 40
80.000000000000000
 50
270.000000000000000
 51
279.172054809625190
  0
LINE
  8
0
  6
CONTINUOUS
 62
3
 10
-396.956227316428000
 20
-226.902073781687930
 11
-396.956227316428000
 21
-290.272427460070280
  0
LINE
  8
0
  6
CONTINUOUS
 62
3
 10
-401.956227316428000
 20
-230.922616145151320
 11
-401.956227316428000
 21
-291.292631557125110
  0
ARC
  8
0
  6
CONTINUOUS
 62
3
 10
-406.456227316427540
 20
-215.307435630550340
 40
80.000000000000043
 50
279.172054809625190
 51
323.661143755958900
  0
ARC
  8
0
  6
CONTINUOUS
 62
3
 10
-406.456227316427540
 20
-215.307435630550340
 40
80.000000000000043
 50
279.172054809625190
 51
323.661143755958900
  0
ARC
  8
0
  6
CONTINUOUS
 62
3
 10
-406.456227316427540
 20
-215.307435630550340
 40
80.000000000000000
 50
270.000000000000000
 51
279.172054809625190
  0
LINE
  8
0
  6
CONTINUOUS
 62
3
 10
-412.583243970220910
 20
-295.307435630550340
 11
-406.456227316427540
 21
-295.307435630550340
  0
LINE
  8
0
  6
CONTINUOUS
 62
3
 10
-396.956227316428000
 20
-247.640487431548760
 11
-396.956227316428000
 21
-290.272427460070280
  0
LINE
  8
0
  6
CONTINUOUS
 62
3
 10
-401.956227316428000
 20
-252.931148430029450
 11
-401.956227316428000
 21
-291.292631557125110
  0
ARC
  8
0
  6
CONTINUOUS
 62
3
 10
-404.956227316428000
 20
-291.292631557125110
 40
3.000000000000115
 50
271.130911184731190
 51
0.000000000000000
  0
ARC
  8
0
  6
CONTINUOUS
 62
3
 10
-393.956227316428000
 20
-290.272427460070280
 40
3.000000000000000
 50
180.000000000000000
 51
279.466661087573700
  0
ARC
  8
0
  6
CONTINUOUS
 62
3
 10
-360.816617009638430
 20
-134.667825323761240
 40
6.499999999999965
 50
18.226699476753051
 51
110.356064027260700
  0
LINE
  8
0
  6
CONTINUOUS
 62
3
 10
-354.321427914919010
 20
-130.917831451017720
 11
-354.320940580330330
 21
-132.439531410285780
  0
LINE
  8
0
  6
CONTINUOUS
 62
3
 10
-360.819018218006140
 20
-127.163662509954170
 11
-354.321429357560590
 21
-130.917830419506800
  0
LINE
  8
0
  6
CONTINUOUS
 62
3
 10
-363.113807039191440
 20
-128.488556338824540
 11
-360.819018389154510
 21
-127.163661147345800
  0
ARC
  8
0
  6
CONTINUOUS
 62
3
 10
-488.095837623217560
 20
-134.667825323761240
 40
6.499999999999977
 50
69.643935972739300
 51
268.435835376533870
  0
LINE
  8
0
  6
CONTINUOUS
 62
3
 10
-488.098238831585260
 20
-127.163662509954170
 11
-485.799933756846030
 21
-128.491574038871140
  0
LINE
  8
0
  6
CONTINUOUS
 62
3
 10
-494.593431339005180
 20
-130.913657511463160
 11
-488.098239002733640
 21
-127.163661147345800
  0
LINE
  8
0
  6
CONTINUOUS
 62
3
 10
-494.591026717936980
 20
-138.417819196504750
 11
-494.593429975033930
 21
-130.913660222810900
  0
LINE
  8
0
  6
CONTINUOUS
 62
3
 10
-488.348476001425980
 20
-142.024631717801870
 11
-494.591025275295460
 21
-138.417820228015670
  0
LINE
  8
0
  6
CONTINUOUS
 62
3
 10
-427.956227316428000
 20
-28.939938632952590
 11
-427.956227316428000
 21
-47.674932628147189
  0
LINE
  8
0
  6
CONTINUOUS
 62
3
 10
-420.956227316428000
 20
-28.939938632951907
 11
-420.956227316428000
 21
-47.674932628147872
  0
ARC
  8
0
  6
CONTINUOUS
 62
3
 10
-425.956227316428000
 20
-29.930357964882887
 40
1.999999999999613
 50
146.321129221016430
 51
180.000000000000000
  0
ARC
  8
0
  6
CONTINUOUS
 62
3
 10
-422.956227316428000
 20
-29.930357964882887
 40
2.000000000000000
 50
0.000000000000000
 51
33.678870778999830
  0
LINE
  8
0
  6
CONTINUOUS
 62
3
 10
-427.956227316428000
 20
-18.289975245804044
 11
-427.956227316428000
 21
-18.307435630549890
  0
LINE
  8
0
  6
CONTINUOUS
 62
3
 10
-420.956227316428000
 20
-18.289975245804044
 11
-420.956227316428000
 21
-18.307435630549890
  0
CIRCLE
  8
0
  6
CONTINUOUS
 62
3
 10
-558.806515741871980
 20
-23.957147205105912
 40
12.000000000000000
  0
ARC
  8
0
  6
DASHDOT
 62
4
 10
-424.456227316428000
 20
-158.307435630549890
 40
189.999999999999970
 50
129.119041968700490
 51
140.880958031302610
  0
CIRCLE
  8
0
  6
CONTINUOUS
 62
3
 10
-290.105938890984020
 20
-23.957147205105912
 40
12.000000000000000
  0
ARC
  8
0
  6
DASHDOT
 62
4
 10
-424.456227316428000
 20
-158.307435630549890
 40
189.999999999999690
 50
39.119041968700387
 51
50.880958031302640
  0
CIRCLE
  8
0
  6
CONTINUOUS
 62
3
 10
-290.105938890984020
 20
-292.657724055994320
 40
12.000000000000000
  0
ARC
  8
0
  6
DASHDOT
 62
4
 10
-424.456227316428000
 20
-158.307435630549890
 40
190.000000000000310
 50
309.119041968700400
 51
320.880958031302500
  0
ARC
  8
0
  6
DASHDOT
 62
4
 10
-424.456227316428000
 20
-158.307435630549890
 40
190.000000000000260
 50
219.119041968700600
 51
230.880958031302730
  0
ARC
  8
0
  6
CONTINUOUS
 62
3
 10
-281.956227316428000
 20
-15.807435630549890
 40
15.000000000000000
 50
0.000000000000000
 51
90.000000000000000
  0
ARC
  8
0
  6
CONTINUOUS
 62
3
 10
-281.956227316428000
 20
-300.807435630550340
 40
15.000000000000000
 50
270.000000000000000
 51
0.000000000000000
  0
ARC
  8
0
  6
CONTINUOUS
 62
3
 10
-566.956227316428000
 20
-300.807435630550340
 40
15.000000000000000
 50
180.000000000000000
 51
270.000000000000000
  0
ARC
  8
0
  6
CONTINUOUS
 62
3
 10
-566.956227316428000
 20
-15.807435630549890
 40
15.000000000000000
 50
90.000000000000000
 51
180.000000000000000
  0
CIRCLE
  8
0
  6
CONTINUOUS
 62
3
 10
-558.806515741871980
 20
-292.657724055994320
 40
12.000000000000000
  0
ARC
  8
0
  6
CONTINUOUS
 62
3
 10
-432.956227316428000
 20
-18.289975245804044
 40
5.000000000000000
 50
0.000000000000000
 51
90.000000000000000
  0
ARC
  8
0
  6
CONTINUOUS
 62
3
 10
-415.956227316428000
 20
-18.289975245804044
 40
5.000000000000000
 50
90.000000000000000
 51
180.000000000000000
  0
ARC
  8
0
  6
CONTINUOUS
 62
3
 10
-528.414085132851710
 20
-42.328762533955341
 40
4.999999999999676
 50
122.993026125687060
 51
225.000000000001850
  0
ARC
  8
0
  6
CONTINUOUS
 62
3
 10
-506.596809713391510
 20
-64.146037953414634
 40
5.000000000000361
 50
224.999999999994490
 51
299.793441674209420
  0
ARC
  8
0
  6
CONTINUOUS
 62
3
 10
-520.930273759123910
 20
-73.854204468025500
 40
4.999999999999912
 50
308.426738841191540
 51
44.999999999996326
  0
ARC
  8
0
  6
CONTINUOUS
 62
3
 10
-542.254594035598190
 20
-52.529884191550991
 40
4.999999999999718
 50
45.000000000001855
 51
129.790979576180970
  0
ARC
  8
0
  6
CONTINUOUS
 62
3
 10
-327.982180873733000
 20
-73.854204468025500
 40
4.999999999999879
 50
134.999999999996310
 51
231.573261158808440
  0
ARC
  8
0
  6
CONTINUOUS
 62
3
 10
-342.315644919464490
 20
-64.146037953414634
 40
4.999999999999973
 50
240.206558325790580
 51
315.000000000005570
  0
ARC
  8
0
  6
CONTINUOUS
 62
3
 10
-306.657860597258720
 20
-52.529884191550991
 40
5.000000000000658
 50
50.209020423811033
 51
134.999999999998150
  0
ARC
  8
0
  6
CONTINUOUS
 62
3
 10
-320.498369500005200
 20
-42.328762533955341
 40
4.999999999999718
 50
314.999999999998120
 51
57.006973874312941
  0
LINE
  8
0
  6
DASHDOT
 62
4
 10
-545.017933508733790
 20
-37.745729438243643
 11
-572.595097975009250
 21
-10.168564971968181
  0
LINE
  8
0
  6
DASHDOT
 62
4
 10
-303.894521124121300
 20
-37.745729438243643
 11
-276.317356657845830
 21
-10.168564971968635
  0
LINE
  8
0
  6
DASHDOT
 62
4
 10
-303.894521124122210
 20
-278.869141822856590
 11
-276.317356657845830
 21
-306.446306289132050
  0
LINE
  8
0
  6
DASHDOT
 62
4
 10
-545.017933508734700
 20
-278.869141822856590
 11
-572.595097975010160
 21
-306.446306289132050
  0
LINE
  8
0
  6
CONTINUOUS
 62
3
 10
-281.956227316428000
 20
-0.807435630549890
 11
-566.956227316428000
 21
-0.807435630549890
  0
LINE
  8
0
  6
CONTINUOUS
 62
3
 10
-581.956227316428000
 20
-15.807435630549890
 11
-581.956227316428000
 21
-300.807435630550340
  0
LINE
  8
0
  6
CONTINUOUS
 62
3
 10
-266.956227316428000
 20
-15.807435630549890
 11
-266.956227316428000
 21
-300.807435630550340
  0
LINE
  8
0
  6
CONTINUOUS
 62
3
 10
-512.850681864959940
 20
-315.807435630550340
 11
-566.956227316428000
 21
-315.807435630550340
  0
LINE
  8
0
  6
CONTINUOUS
 62
3
 10
-281.956227316428000
 20
-315.807435630550340
 11
-335.990719533706060
 21
-315.807435630550340
  0
LINE
  8
0
  6
CONTINUOUS
 62
3
 10
-531.949619038784140
 20
-45.864296439887994
 11
-510.132343619324840
 21
-67.681571859347287
  0
LINE
  8
0
  6
CONTINUOUS
 62
3
 10
-538.719060129665760
 20
-48.994350285618339
 11
-517.394739853190570
 21
-70.318670562092620
  0
LINE
  8
0
  6
CONTINUOUS
 62
3
 10
-316.962835594072770
 20
-45.864296439887994
 11
-338.780111013531150
 21
-67.681571859347287
  0
LINE
  8
0
  6
CONTINUOUS
 62
3
 10
-310.193394503191140
 20
-48.994350285618339
 11
-331.517714779665430
 21
-70.318670562092620
  0
LINE
  8
0
  6
DASHDOT
 62
4
 10
-424.456227316428000
 20
4.373496077128948
 11
-424.456227316428000
 21
-336.257225677575660
  0
CIRCLE
  8
0
  6
CONTINUOUS
 62
3
 10
-424.456227316427090
 20
-38.307435630549890
 40
10.000000000000000
  0
LINE
  8
0
  6
DASHDOT
 62
4
 10
-401.288314317545540
 20
-38.307435630549890
 11
-448.310828219080240
 21
-38.307435630549890
  0
LINE
  8
0
  6
CONTINUOUS
 62
3
 10
-413.956227316427090
 20
-18.307435630549890
 11
-434.956227316427090
 21
-18.307435630549890
  0
LINE
  8
0
  6
CONTINUOUS
 62
3
 10
-444.956227316427090
 20
-28.307435630549890
 11
-444.956227316427090
 21
-53.657746228478800
  0
ARC
  8
0
  6
CONTINUOUS
 62
3
 10
-434.956227316427090
 20
-28.307435630549890
 40
10.000000000000000
 50
90.000000000000000
 51
180.000000000000000
  0
LINE
  8
0
  6
CONTINUOUS
 62
3
 10
-403.956227316427090
 20
-28.307435630549890
 11
-403.956227316427090
 21
-53.657746228478800
  0
ARC
  8
0
  6
CONTINUOUS
 62
3
 10
-413.956227316427090
 20
-28.307435630549890
 40
10.000000000000000
 50
0.000000000000000
 51
90.000000000000000
  0
ARC
  8
0
  6
CONTINUOUS
 62
3
 10
-424.456227316428000
 20
-653.307436443443750
 40
600.000000000000000
 50
91.957986872393320
 51
92.924523789728269
  0
LINE
  8
0
  6
CONTINUOUS
 62
3
 10
-444.956227316428000
 20
-53.657747041372886
 11
-444.956227316428000
 21
-75.307435630550117
  0
ARC
  8
0
  6
CONTINUOUS
 62
3
 10
-424.456227316428000
 20
-653.307436443443750
 40
600.000000000000000
 50
87.075476210271731
 51
88.042013127606680
  0
LINE
  8
0
  6
CONTINUOUS
 62
3
 10
-403.956227316428000
 20
-53.657747041372886
 11
-403.956227316428000
 21
-75.307435630550117
  0
ARC
  8
0
  6
CONTINUOUS
 62
3
 10
-432.956227316428000
 20
-93.325315608665733
 40
4.999999999999828
 50
274.096043758155470
 51
0.000000000000000
  0
ARC
  8
0
  6
CONTINUOUS
 62
3
 10
-415.956227316428000
 20
-93.325315608665733
 40
5.000000000000000
 50
180.000000000000000
 51
265.903956241844530
  0
ARC
  8
0
  6
CONTINUOUS
 62
3
 10
-495.696255594082340
 20
-281.568279188375300
 40
4.999999999999805
 50
51.218416769281426
 51
135.000000000005510
  0
ARC
  8
0
  6
CONTINUOUS
 62
3
 10
-507.817578204219560
 20
-269.647971238170160
 40
4.999999999999718
 50
314.999999999998120
 51
39.739673259822290
  0
ARC
  8
0
  6
CONTINUOUS
 62
3
 10
-377.904575464100730
 20
-250.187486293464190
 40
44.000000000000071
 50
319.912288498426220
 51
0.098433614225121
  0
ARC
  8
0
  6
CONTINUOUS
 62
3
 10
-346.764512655919700
 20
-288.019965571229020
 40
5.000000000000361
 50
44.999999999994479
 51
129.457930749405760
  0
ARC
  8
0
  6
CONTINUOUS
 62
3
 10
-335.685204406907930
 20
-275.057643259897990
 40
4.999999999999973
 50
149.498945295270290
 51
225.000000000003690
  0
ARC
  8
0
  6
CONTINUOUS
 62
3
 10
-507.817578204219560
 20
-126.966900022930070
 40
4.999999999999747
 50
320.260326740179720
 51
45.000000000001855
  0
ARC
  8
0
  6
CONTINUOUS
 62
3
 10
-495.696255594082340
 20
-115.046592072724930
 40
5.000000000000361
 50
224.999999999994490
 51
308.781583230718580
  0
ARC
  8
0
  6
CONTINUOUS
 62
3
 10
-353.216199038773650
 20
-115.046592072724930
 40
4.999999999999628
 50
231.218416769279800
 51
315.000000000005570
  0
ARC
  8
0
  6
CONTINUOUS
 62
3
 10
-341.094876428636440
 20
-126.966900022930070
 40
4.999999999999718
 50
134.999999999998150
 51
219.739673259820310
  0
ARC
  8
0
  6
CONTINUOUS
 62
3
 10
-328.904647775635230
 20
-250.103304792394060
 40
4.999999999999396
 50
155.835163798773490
 51
180.098433614223640
  0
ARC
  8
0
  6
CONTINUOUS
 62
3
 10
-377.904575464100730
 20
-250.187486293464190
 40
44.000000000000099
 50
258.506801628087090
 51
319.912288498426220
  0
ARC
  8
0
  6
CONTINUOUS
 62
3
 10
-309.456227316428000
 20
-213.714681450672290
 40
19.999999999999925
 50
345.029598694534740
 51
0.000000000000000
  0
ARC
  8
0
  6
CONTINUOUS
 62
3
 10
-399.456227316428000
 20
-163.945607118761020
 40
110.000000000000000
 50
0.000000000000000
 51
87.075476210271603
  0
ARC
  8
0
  6
CONTINUOUS
 62
3
 10
-449.456227316428000
 20
-163.945607118761020
 40
110.000000000000070
 50
92.924523789728397
 51
180.000000000000000
  0
ARC
  8
0
  6
CONTINUOUS
 62
3
 10
-377.904575464100730
 20
-250.187486293464190
 40
77.000000000000085
 50
305.114466930115950
 51
340.000000000000340
  0
ARC
  8
0
  6
CONTINUOUS
 62
3
 10
-329.011571368849790
 20
-319.717869224538160
 40
7.999999999999969
 50
125.114466930115760
 51
175.505843472000290
  0
ARC
  8
0
  6
CONTINUOUS
 62
3
 10
-346.956227316428000
 20
-318.307435630549660
 40
10.000000000000000
 50
306.869897645843990
 51
355.505843472000610
  0
ARC
  8
0
  6
CONTINUOUS
 62
3
 10
-293.087047922453730
 20
-218.307435630549660
 40
2.999999999999482
 50
345.029598694533890
 51
90.000000000000000
  0
ARC
  8
0
  6
CONTINUOUS
 62
3
 10
-302.456227316428000
 20
-202.307435630549660
 40
13.000000000000000
 50
90.000000000000000
 51
113.210423839731860
  0
ARC
  8
0
  6
CONTINUOUS
 62
3
 10
-292.456227316428000
 20
-186.307435630549660
 40
3.000000000000000
 50
270.000000000000000
 51
0.000000000000000
  0
ARC
  8
0
  6
CONTINUOUS
 62
3
 10
-330.449180471735990
 20
-304.335297755411830
 40
4.999999999999698
 50
311.231476075715020
 51
45.000000000001855
  0
ARC
  8
0
  6
CONTINUOUS
 62
3
 10
-319.062736158925530
 20
-291.680111507879700
 40
4.999999999999718
 50
225.000000000001850
 51
324.810226266867350
  0
ARC
  8
0
  6
CONTINUOUS
 62
3
 10
-326.551412949138130
 20
-88.381805983090544
 40
4.999999999999879
 50
314.999999999996310
 51
46.026024481656137
  0
ARC
  8
0
  6
CONTINUOUS
 62
3
 10
-315.292491303878360
 20
-101.164514898173130
 40
4.999999999999919
 50
36.720727734713748
 51
135.000000000003670
  0
ARC
  8
0
  6
CONTINUOUS
 62
3
 10
-415.956227316428000
 20
-83.307435630550117
 40
5.000000000000000
 50
90.000000000000000
 51
180.000000000000000
  0
ARC
  8
0
  6
CONTINUOUS
 62
3
 10
-432.956227316428000
 20
-83.307435630550117
 40
5.000000000000000
 50
0.000000000000000
 51
90.000000000000000
  0
ARC
  8
0
  6
CONTINUOUS
 62
3
 10
-406.956227316428000
 20
-75.307435630550117
 40
3.000000000000000
 50
270.000000000000000
 51
0.000000000000000
  0
ARC
  8
0
  6
CONTINUOUS
 62
3
 10
-441.956227316428000
 20
-75.307435630550117
 40
3.000000000000000
 50
180.000000000000000
 51
270.000000000000000
  0
LINE
  8
0
  6
CONTINUOUS
 62
3
 10
-290.135039277728200
 20
-218.881081819710740
 11
-305.548243663586280
 21
-276.523037329540330
  0
LINE
  8
0
  6
CONTINUOUS
 62
3
 10
-289.456227316428000
 20
-163.945607118761020
 11
-289.456227316428000
 21
-213.714681450672290
  0
LINE
  8
0
  6
CONTINUOUS
 62
3
 10
-424.456227316428000
 20
-326.307435630549660
 11
-340.956227316428000
 21
-326.307435630549660
  0
LINE
  8
0
  6
CONTINUOUS
 62
3
 10
-424.456227316428000
 20
-326.307435630549660
 11
-507.956227316428000
 21
-326.307435630549660
  0
LINE
  8
0
  6
CONTINUOUS
 62
3
 10
-302.456227316428000
 20
-215.307435630549660
 11
-293.087047922453730
 21
-215.307435630549660
  0
LINE
  8
0
  6
CONTINUOUS
 62
3
 10
-302.456227316428000
 20
-189.307435630549660
 11
-292.456227316428000
 21
-189.307435630549660
  0
LINE
  8
0
  6
CONTINUOUS
 62
3
 10
-504.282044298287130
 20
-273.183505144102810
 11
-526.314184567998040
 21
-295.215645413812580
  0
LINE
  8
0
  6
CONTINUOUS
 62
3
 10
-499.231789500015680
 20
-278.032745282442650
 11
-521.998808067052440
 21
-300.799763849479400
  0
LINE
  8
0
  6
CONTINUOUS
 62
3
 10
-504.282044298287130
 20
-123.431366116997420
 11
-530.084429423044300
 21
-97.628980992240258
  0
LINE
  8
0
  6
CONTINUOUS
 62
3
 10
-499.231789500015680
 20
-118.582125978657580
 11
-525.896575589650300
 21
-91.917339889023424
  0
LINE
  8
0
  6
CONTINUOUS
 62
3
 10
-349.680665132840320
 20
-118.582125978657580
 11
-323.015879043205700
 21
-91.917339889023424
  0
LINE
  8
0
  6
CONTINUOUS
 62
3
 10
-344.630410334568860
 20
-123.431366116997420
 11
-318.828025209811700
 21
-97.628980992240258
  0
LINE
  8
0
  6
CONTINUOUS
 62
3
 10
-427.956227316428000
 20
-83.307435630550117
 11
-427.956227316428000
 21
-93.325315608665733
  0
LINE
  8
0
  6
CONTINUOUS
 62
3
 10
-420.956227316428000
 20
-83.307435630550117
 11
-420.956227316428000
 21
-93.325315608665733
  0
LINE
  8
0
  6
CONTINUOUS
 62
3
 10
-424.456227316428000
 20
-78.307435630550117
 11
-406.956227316428000
 21
-78.307435630550117
  0
LINE
  8
0
  6
CONTINUOUS
 62
3
 10
-441.956227316428000
 20
-78.307435630550117
 11
-424.456227316428000
 21
-78.307435630550117
  0
LINE
  8
0
  6
CONTINUOUS
 62
3
 10
-339.220738312840350
 20
-278.593177165830870
 11
-322.598270064857960
 21
-295.215645413812350
  0
LINE
  8
0
  6
CONTINUOUS
 62
3
 10
-343.228978749986370
 20
-284.484431665296370
 11
-326.913646565803560
 21
-300.799763849479180
  0
ARC
  8
0
  6
CONTINUOUS
 62
3
 10
-539.456227316428000
 20
-213.714681450672290
 40
20.000000000000000
 50
180.000000000000000
 51
194.970401305464610
  0
ARC
  8
0
  6
CONTINUOUS
 62
3
 10
-501.956227316428000
 20
-318.307435630549660
 40
9.999999999999778
 50
184.494156527999370
 51
233.130102354155980
  0
ARC
  8
0
  6
CONTINUOUS
 62
3
 10
-519.900883264006210
 20
-319.717869224538160
 40
8.000000000000373
 50
4.494156527999717
 51
54.885533069884232
  0
ARC
  8
0
  6
CONTINUOUS
 62
3
 10
-471.007879168755270
 20
-250.187486293464190
 40
77.000000000000270
 50
199.999999999999660
 51
234.885533069884020
  0
ARC
  8
0
  6
CONTINUOUS
 62
3
 10
-555.825406710402260
 20
-218.307435630549660
 40
3.000000000000000
 50
90.000000000000000
 51
194.970401305466080
  0
ARC
  8
0
  6
CONTINUOUS
 62
3
 10
-546.456227316428000
 20
-202.307435630549660
 40
13.000000000000000
 50
270.000000000000000
 51
90.000000000000000
  0
ARC
  8
0
  6
CONTINUOUS
 62
3
 10
-556.456227316428000
 20
-186.307435630549660
 40
3.000000000000000
 50
180.000000000000000
 51
270.000000000000000
  0
ARC
  8
0
  6
CONTINUOUS
 62
3
 10
-529.849718473930470
 20
-291.680111507879930
 40
5.000000000000420
 50
215.189773733126660
 51
314.999999999998120
  0
ARC
  8
0
  6
CONTINUOUS
 62
3
 10
-518.463274161120010
 20
-304.335297755412060
 40
4.999999999999718
 50
134.999999999998150
 51
228.768523924275400
  0
LINE
  8
0
  6
CONTINUOUS
 62
3
 10
-558.777415355128710
 20
-218.881081819710740
 11
-543.364210969270630
 21
-276.523037329540330
  0
LINE
  8
0
  6
CONTINUOUS
 62
3
 10
-559.456227316428000
 20
-163.945607118761020
 11
-559.456227316428000
 21
-213.714681450672290
  0
LINE
  8
0
  6
CONTINUOUS
 62
3
 10
-546.456227316428000
 20
-215.307435630549660
 11
-555.825406710402260
 21
-215.307435630549660
  0
LINE
  8
0
  6
CONTINUOUS
 62
3
 10
-546.456227316428000
 20
-189.307435630549660
 11
-556.456227316428000
 21
-189.307435630549660
  0
ARC
  8
0
  6
CONTINUOUS
 62
3
 10
-533.619963328977630
 20
-101.164514898173130
 40
5.000000000000522
 50
44.999999999996326
 51
143.279272265286270
  0
ARC
  8
0
  6
CONTINUOUS
 62
3
 10
-522.361041683717870
 20
-88.381805983090544
 40
4.999999999999291
 50
133.973975518343850
 51
225.000000000003690
  0
INSERT
  8
0
  2
SYM3
 10
-546.456227316428000
 20
-226.307435630549660
 41
-1.000000000000000
  0
INSERT
  8
0
  2
SYM3
 10
-545.456227316428000
 20
-136.307436443443070
 41
-1.000000000000000
  0
INSERT
  8
0
  2
SYM3
 10
-474.456227316428000
 20
-67.307436443443294
 41
-1.000000000000000
  0
INSERT
  8
0
  2
SYM3
 10
-434.956227316428000
 20
-66.307435630550117
 41
-1.000000000000000
  0
INSERT
  8
0
  2
SYM3
 10
-501.956227316428000
 20
-318.307435630549660
 41
-1.000000000000000
  0
INSERT
  8
0
  2
SYM3
 10
-416.956227316428000
 20
-318.307435630549660
  0
INSERT
  8
0
  2
SYM3
 10
-346.956227316428000
 20
-318.307435630549660
  0
INSERT
  8
0
  2
SYM3
 10
-303.456227316428000
 20
-136.307436443443070
  0
INSERT
  8
0
  2
SYM3
 10
-374.456227316428000
 20
-67.307436443443294
  0
INSERT
  8
0
  2
SYM3
 10
-413.956227316428000
 20
-66.307435630550117
  0
INSERT
  8
0
  2
SYM4
 10
-488.095837623217560
 20
-261.947045937339450
  0
INSERT
  8
0
  2
SYM5
 10
-360.816617009638430
 20
-261.947045937339450
  0
ARC
  8
0
  6
CONTINUOUS
 62
3
 10
-494.386467400025710
 20
-144.886826107161370
 40
2.000000000000040
 50
58.384308452260875
 51
142.623325274950420
  0
ARC
  8
0
  6
CONTINUOUS
 62
3
 10
-488.095837623217560
 20
-134.667825323761240
 40
9.999999999999870
 50
238.384308452268900
 51
267.319870332125790
  0
ARC
  8
0
  6
CONTINUOUS
 62
3
 10
-477.876836839817430
 20
-268.237675714147600
 40
1.999999999999801
 50
148.384308452271940
 51
232.623325274950420
  0
ARC
  8
0
  6
CONTINUOUS
 62
3
 10
-494.386467400025710
 20
-251.728045153939320
 40
1.999999999999958
 50
217.376674725049580
 51
301.615691547739120
  0
ARC
  8
0
  6
CONTINUOUS
 62
3
 10
-488.095837623217560
 20
-261.947045937339450
 40
10.000000000000108
 50
328.384308452266620
 51
121.615691547731100
  0
ARC
  8
0
  6
CONTINUOUS
 62
3
 10
-371.035617793038570
 20
-268.237675714147600
 40
1.999999999999958
 50
307.376674725049550
 51
31.615691547728044
  0
ARC
  8
0
  6
CONTINUOUS
 62
3
 10
-354.525987232830290
 20
-251.728045153939320
 40
2.000000000000040
 50
238.384308452260910
 51
322.623325274950450
  0
ARC
  8
0
  6
CONTINUOUS
 62
3
 10
-360.816617009638430
 20
-261.947045937339450
 40
9.999999999999870
 50
58.384308452268890
 51
211.615691547733350
  0
ARC
  8
0
  6
CONTINUOUS
 62
3
 10
-454.956227316428000
 20
-226.902073781687930
 40
3.000000000000000
 50
0.000000000000000
 51
6.837139023201846
  0
ARC
  8
0
  6
CONTINUOUS
 62
3
 10
-443.956227316428000
 20
-230.922616145151320
 40
3.000000000000172
 50
59.125594592431149
 51
180.000000000000000
  0
ARC
  8
0
  6
CONTINUOUS
 62
3
 10
-404.956227316428000
 20
-230.922616145151320
 40
3.000000000000000
 50
0.000000000000000
 51
120.874405407568840
  0
ARC
  8
0
  6
CONTINUOUS
 62
3
 10
-393.956227316428000
 20
-226.902073781687930
 40
2.999999999999919
 50
173.162860976797870
 51
180.000000000000000
  0
ARC
  8
0
  6
CONTINUOUS
 62
3
 10
-424.456227316428000
 20
-198.307435630550340
 40
35.000000000000028
 50
235.503770534084960
 51
304.496229465915120
  0
LINE
  8
0
  6
CONTINUOUS
 62
3
 10
-436.329210662635550
 20
-295.307435630550340
 11
-442.456227316428910
 21
-295.307435630550340
  0
ARC
  8
0
  6
CONTINUOUS
 62
3
 10
-406.456227316427540
 20
-215.307435630550340
 40
79.999999999999687
 50
323.661143755958900
 51
0.000000000000000
  0
ARC
  8
0
  6
CONTINUOUS
 62
3
 10
-436.329210662635550
 20
-297.307435630550340
 40
2.000000000000063
 50
14.477512185929456
 51
90.000000000000000
  0
ARC
  8
0
  6
CONTINUOUS
 62
3
 10
-432.456227316428000
 20
-296.307435630550340
 40
2.000000000000063
 50
194.477512185929440
 51
270.000000000000000
  0
ARC
  8
0
  6
CONTINUOUS
 62
3
 10
-442.456227316428910
 20
-215.307435630550340
 40
80.000000000000000
 50
180.000000000000000
 51
202.119118468599990
  0
ARC
  8
0
  6
CONTINUOUS
 62
3
 10
-412.583243970220910
 20
-297.307435630550340
 40
2.000000000000000
 50
90.000000000000000
 51
165.522487814070560
  0
ARC
  8
0
  6
CONTINUOUS
 62
3
 10
-416.456227316428450
 20
-296.307435630550340
 40
2.000000000000000
 50
270.000000000000000
 51
345.522487814070530
  0
ARC
  8
0
  6
CONTINUOUS
 62
3
 10
-412.583243970220910
 20
-99.307435630550344
 40
2.000000000000063
 50
194.477512185929440
 51
270.000000000000000
  0
ARC
  8
0
  6
CONTINUOUS
 62
3
 10
-416.456227316428450
 20
-100.307435630550340
 40
2.000000000000063
 50
14.477512185929456
 51
90.000000000000000
  0
ARC
  8
0
  6
CONTINUOUS
 62
3
 10
-406.456227316427540
 20
-181.307435630550340
 40
80.000000000000014
 50
37.939692129195016
 51
90.000000000000000
  0
ARC
  8
0
  6
CONTINUOUS
 62
3
 10
-436.329210662635550
 20
-99.307435630550344
 40
2.000000000000000
 50
270.000000000000000
 51
345.522487814070530
  0
ARC
  8
0
  6
CONTINUOUS
 62
3
 10
-432.456227316428000
 20
-100.307435630550340
 40
2.000000000000000
 50
90.000000000000000
 51
165.522487814070560
  0
ARC
  8
0
  6
CONTINUOUS
 62
3
 10
-442.456227316428910
 20
-181.307435630550340
 40
80.000000000000000
 50
90.000000000000000
 51
180.000000000000000
  0
ARC
  8
0
  6
CONTINUOUS
 62
3
 10
-442.456227316428910
 20
-215.307435630550340
 40
79.999999999999986
 50
202.119118468599990
 51
242.258787150595110
  0
LINE
  8
0
  6
CONTINUOUS
 62
3
 10
-326.456227316427540
 20
-214.307435630552160
 11
-326.456227316427540
 21
-215.307435630550340
  0
LINE
  8
0
  6
CONTINUOUS
 62
3
 10
-522.456227316428910
 20
-198.307435630550340
 11
-522.456227316428910
 21
-181.307435630550340
  0
LINE
  8
0
  6
CONTINUOUS
 62
3
 10
-522.456227316428910
 20
-198.307435630550340
 11
-522.456227316428910
 21
-215.307435630550340
  0
LINE
  8
0
  6
CONTINUOUS
 62
3
 10
-424.456227316428000
 20
-298.307435630550340
 11
-416.456227316428450
 21
-298.307435630550340
  0
LINE
  8
0
  6
CONTINUOUS
 62
3
 10
-424.456227316428000
 20
-298.307435630550340
 11
-432.456227316428000
 21
-298.307435630550340
  0
LINE
  8
0
  6
CONTINUOUS
 62
3
 10
-436.329210662635550
 20
-295.307435630550340
 11
-442.456227316428910
 21
-295.307435630550340
  0
LINE
  8
0
  6
CONTINUOUS
 62
3
 10
-412.583243970220910
 20
-101.307435630550340
 11
-406.456227316427540
 21
-101.307435630550340
  0
LINE
  8
0
  6
CONTINUOUS
 62
3
 10
-424.456227316428000
 20
-98.307435630550344
 11
-416.456227316428450
 21
-98.307435630550344
  0
LINE
  8
0
  6
CONTINUOUS
 62
3
 10
-436.329210662635550
 20
-101.307435630550340
 11
-442.456227316428910
 21
-101.307435630550340
  0
LINE
  8
0
  6
CONTINUOUS
 62
3
 10
-424.456227316428000
 20
-98.307435630550344
 11
-432.456227316428000
 21
-98.307435630550344
  0
LINE
  8
0
  6
DASHDOT
 62
4
 10
-590.722127664994330
 20
-167.807435630552160
 11
-259.671036895037100
 21
-167.807435630552160
  0
LINE
  8
0
  6
DASHDOT
 62
4
 10
-447.040014241789320
 20
-158.307435630550120
 11
-401.228382716337360
 21
-158.307435630550120
  0
ARC
  8
0
  6
DASHDOT
 62
4
 10
424.104813114076250
 20
-158.307435630504190
 40
189.999999999999970
 50
217.942757404990000
 51
231.759041488419460
  0
ARC
  8
0
  6
DASHDOT
 62
4
 10
424.104813114076250
 20
-158.307435630504190
 40
189.999999999999970
 50
38.312863295436159
 51
51.697379200818425
  0
LINE
  8
0
  6
CONTINUOUS
 62
3
 10
-0.404690581791925
 20
47.192564369448064
 11
14.095309418208075
 21
47.192564369448064
  0
LINE
  8
0
  6
CONTINUOUS
 62
3
 10
-0.404690581792153
 20
317.192564369448060
 11
14.095309418208075
 21
317.192564369448060
  0
ARC
  8
0
  6
CONTINUOUS
 62
3
 10
236.195309418208470
 20
158.592564369448380
 40
0.400000000000546
 50
270.000000000000000
 51
0.000000000000000
  0
LINE
  8
0
  6
CONTINUOUS
 62
3
 10
236.195309418208470
 20
158.192564369447840
 11
164.155117039343480
 21
158.192564369447840
  0
LINE
  8
0
  6
CONTINUOUS
 62
3
 10
236.595309418208100
 20
182.192564369447840
 11
236.595309418208100
 21
154.692564369447840
  0
LINE
  8
0
  6
CONTINUOUS
 62
3
 10
236.595309418208100
 20
154.692564369447840
 11
166.595309418208070
 21
154.692564369447840
  0
ARC
  8
0
  6
CONTINUOUS
 62
3
 10
236.195309418208470
 20
205.792564369447290
 40
0.399999999999636
 50
0.000000000000000
 51
90.000000000000000
  0
LINE
  8
0
  6
CONTINUOUS
 62
3
 10
236.595309418208100
 20
182.192564369447840
 11
236.595309418208100
 21
205.792564369447290
  0
LINE
  8
0
  6
CONTINUOUS
 62
3
 10
236.195309418208470
 20
206.192564369447840
 11
164.155117039343480
 21
206.192564369447840
  0
LINE
  8
0
  6
CONTINUOUS
 62
3
 10
161.595309418208070
 20
157.392564369447650
 11
161.395309418208260
 21
157.192564369447840
  0
ARC
  8
0
  6
CONTINUOUS
 62
3
 10
162.395309418208260
 20
157.542564369447290
 40
0.800000000001091
 50
90.000000000000000
 51
180.000000000000000
  0
LINE
  8
0
  6
CONTINUOUS
 62
3
 10
161.595309418208070
 20
157.542564369447290
 11
161.595309418208070
 21
157.392564369447650
  0
LINE
  8
0
  6
CONTINUOUS
 62
3
 10
163.595309418208070
 20
158.342564369448380
 11
162.395309418208260
 21
158.342564369448380
  0
LINE
  8
0
  6
CONTINUOUS
 62
3
 10
163.595309418208070
 20
158.342564369448380
 11
164.155117039343480
 21
158.192564369447840
  0
LINE
  8
0
  6
CONTINUOUS
 62
3
 10
161.395309418208260
 20
157.192564369447840
 11
159.595309418208070
 21
157.192564369447840
  0
LINE
  8
0
  6
CONTINUOUS
 62
3
 10
161.595309418208070
 20
182.192564369447840
 11
161.595309418208070
 21
157.542564369447290
  0
LINE
  8
0
  6
CONTINUOUS
 62
3
 10
161.595309418208070
 20
206.992564369448020
 11
161.395309418208260
 21
207.192564369447840
  0
ARC
  8
0
  6
CONTINUOUS
 62
3
 10
162.395309418208260
 20
206.842564369448380
 40
0.800000000000182
 50
180.000000000000000
 51
270.000000000000000
  0
LINE
  8
0
  6
CONTINUOUS
 62
3
 10
161.595309418208070
 20
206.842564369448380
 11
161.595309418208070
 21
206.992564369448020
  0
LINE
  8
0
  6
CONTINUOUS
 62
3
 10
163.595309418208070
 20
206.042564369447290
 11
162.395309418208260
 21
206.042564369447290
  0
LINE
  8
0
  6
CONTINUOUS
 62
3
 10
163.595309418208070
 20
206.042564369447290
 11
164.155117039343480
 21
206.192564369447840
  0
LINE
  8
0
  6
CONTINUOUS
 62
3
 10
161.395309418208260
 20
207.192564369447840
 11
159.595309418208070
 21
207.192564369447840
  0
LINE
  8
0
  6
CONTINUOUS
 62
3
 10
161.595309418208070
 20
182.192564369447840
 11
161.595309418208070
 21
206.842564369448380
  0
LINE
  8
0
  6
CONTINUOUS
 62
3
 10
166.595309418208070
 20
154.692564369447840
 11
166.595309418208070
 21
158.192564369447840
  0
LINE
  8
0
  6
CONTINUOUS
 62
3
 10
143.095309418208070
 20
182.192564369447840
 11
143.095309418208070
 21
62.047903428775271
  0
LINE
  8
0
  6
CONTINUOUS
 62
3
 10
143.095309418208070
 20
182.192564369447840
 11
143.095309418208070
 21
302.337225310120400
  0
LINE
  8
0
  6
CONTINUOUS
 62
3
 10
150.095309418208070
 20
269.097398156543700
 11
145.095309418208070
 21
269.097398156543700
  0
LINE
  8
0
  6
CONTINUOUS
 62
3
 10
150.095309418208070
 20
304.337225310120400
 11
145.095309418208070
 21
304.337225310120400
  0
ARC
  8
0
  6
CONTINUOUS
 62
3
 10
145.095309418208070
 20
302.337225310120400
 40
2.000000000000000
 50
90.000000000000000
 51
180.000000000000000
  0
ARC
  8
0
  6
CONTINUOUS
 62
3
 10
145.095309418208070
 20
267.097398156543700
 40
2.000000000000000
 50
90.000000000000000
 51
180.000000000000000
  0
LINE
  8
0
  6
CONTINUOUS
 62
3
 10
150.095309418208070
 20
95.287730582351969
 11
145.095309418208070
 21
95.287730582351969
  0
LINE
  8
0
  6
CONTINUOUS
 62
3
 10
150.095309418208070
 20
60.047903428775271
 11
145.095309418208070
 21
60.047903428775271
  0
ARC
  8
0
  6
CONTINUOUS
 62
3
 10
145.095309418208070
 20
62.047903428775271
 40
2.000000000000000
 50
180.000000000000000
 51
270.000000000000000
  0
ARC
  8
0
  6
CONTINUOUS
 62
3
 10
145.095309418208070
 20
97.287730582351969
 40
2.000000000000000
 50
180.000000000000000
 51
270.000000000000000
  0
LINE
  8
0
  6
CONTINUOUS
 62
3
 10
125.269806901720440
 20
43.310265369465469
 11
14.095004831717546
 21
47.192575005841945
  0
ARC
  8
0
  6
CONTINUOUS
 62
3
 10
125.095309418208070
 20
38.313311234369849
 40
5.000000000000000
 50
0.000000000000000
 51
88.000000000001606
  0
LINE
  8
0
  6
CONTINUOUS
 62
3
 10
125.269806901720440
 20
321.074863369430200
 11
14.095004831717546
 21
317.192553733053730
  0
ARC
  8
0
  6
CONTINUOUS
 62
3
 10
125.095309418208070
 20
326.071817504525820
 40
5.000000000000137
 50
271.999999999998410
 51
0.000000000000000
  0
LINE
  8
0
  6
DASHDOT
 62
4
 10
168.233179049190170
 20
47.842275944003859
 11
116.078133927507530
 21
47.842275944003859
  0
LINE
  8
0
  6
DASHDOT
 62
4
 10
168.233179049190170
 20
316.542852794892040
 11
116.078133927507530
 21
316.542852794892040
  0
LINE
  8
0
  6
CONTINUOUS
 62
3
 10
130.095309418208070
 20
27.692564369447837
 11
130.095309418208070
 21
336.692564369447840
  0
ARC
  8
0
  6
CONTINUOUS
 62
3
 10
158.095309418208070
 20
108.840917825202720
 40
5.000000000000034
 50
123.367012969231490
 51
143.130102354155980
  0
LINE
  8
0
  6
CONTINUOUS
 62
3
 10
150.095309418208070
 20
182.192564369447840
 11
150.095309418208070
 21
24.692564369448291
  0
LINE
  8
0
  6
CONTINUOUS
 62
3
 10
154.095309418208070
 20
182.192564369447840
 11
154.095309418208070
 21
38.192564369448291
  0
LINE
  8
0
  6
CONTINUOUS
 62
3
 10
157.595309418208070
 20
182.192564369447840
 11
157.595309418208070
 21
117.192564369447830
  0
LINE
  8
0
  6
CONTINUOUS
 62
3
 10
150.095309418208070
 20
24.692564369448064
 11
133.095309418208070
 21
24.692564369448064
  0
ARC
  8
0
  6
CONTINUOUS
 62
3
 10
133.095309418208070
 20
27.692564369447837
 40
3.000000000000000
 50
180.000000000000000
 51
270.000000000000000
  0
ARC
  8
0
  6
CONTINUOUS
 62
3
 10
152.595309418208070
 20
247.447741535873320
 40
5.000000000000000
 50
0.000000000000000
 51
72.542396876278175
  0
LINE
  8
0
  6
CONTINUOUS
 62
3
 10
154.095309418208070
 20
182.192564369447840
 11
154.095309418208070
 21
326.192564369447840
  0
LINE
  8
0
  6
CONTINUOUS
 62
3
 10
157.595309418208300
 20
182.192564369447840
 11
157.595309418208070
 21
247.447741535873320
  0
LINE
  8
0
  6
CONTINUOUS
 62
3
 10
150.095309418208070
 20
182.192564369447840
 11
150.095309418208070
 21
339.692564369447840
  0
ARC
  8
0
  6
CONTINUOUS
 62
3
 10
158.595309418208070
 20
137.192564369447840
 40
1.000000000000000
 50
90.000000000000000
 51
180.000000000000000
  0
ARC
  8
0
  6
CONTINUOUS
 62
3
 10
158.595309418208070
 20
227.192564369447840
 40
1.000000000000000
 50
180.000000000000000
 51
270.000000000000000
  0
ARC
  8
0
  6
CONTINUOUS
 62
3
 10
133.095309418208070
 20
336.692564369447840
 40
3.000000000000000
 50
90.000000000000000
 51
180.000000000000000
  0
ARC
  8
0
  6
CONTINUOUS
 62
3
 10
152.595309418208070
 20
117.192564369447830
 40
5.000000000000034
 50
303.367012969231500
 51
0.000000000000000
  0
LINE
  8
0
  6
CONTINUOUS
 62
3
 10
153.095309418208070
 20
37.192564369448291
 11
150.095309418208070
 21
37.192564369448291
  0
LINE
  8
0
  6
CONTINUOUS
 62
3
 10
150.095309418208070
 20
339.692564369447840
 11
133.095309418208070
 21
339.692564369447840
  0
LINE
  8
0
  6
CONTINUOUS
 62
3
 10
153.095309418208070
 20
327.192564369447840
 11
150.095309418208070
 21
327.192564369447840
  0
LINE
  8
0
  6
CONTINUOUS
 62
3
 10
159.595309418208070
 20
138.192564369447840
 11
159.595309418208070
 21
226.192564369447610
  0
LINE
  8
0
  6
CONTINUOUS
 62
3
 10
154.095309418208070
 20
38.192564369448291
 11
153.095309418208070
 21
37.192564369448291
  0
LINE
  8
0
  6
CONTINUOUS
 62
3
 10
154.095309418208070
 20
326.192564369447840
 11
153.095309418208070
 21
327.192564369447840
  0
LINE
  8
0
  6
CONTINUOUS
 62
3
 10
158.595309418208070
 20
226.192564369447840
 11
159.595309418208070
 21
226.192564369447610
  0
LINE
  8
0
  6
CONTINUOUS
 62
3
 10
158.595309418208070
 20
138.192564369447840
 11
159.595309418208070
 21
138.192564369447840
  0
LINE
  8
0
  6
CONTINUOUS
 62
3
 10
125.345705329886490
 20
264.333146766411350
 11
97.873326697076067
 21
264.333146766411350
  0
LINE
  8
0
  6
CONTINUOUS
 62
3
 10
94.154058566797488
 20
274.115844046709530
 11
128.016638710964660
 21
298.494439335902710
  0
ARC
  8
0
  6
CONTINUOUS
 62
3
 10
125.095309418208070
 20
302.552250958351810
 40
5.000000000000062
 50
305.751143201121580
 51
0.000000000000000
  0
ARC
  8
0
  6
CONTINUOUS
 62
3
 10
91.232729274040906
 20
278.173655669158510
 40
5.000000000000000
 50
270.000000000000000
 51
305.751143201122320
  0
ARC
  8
0
  6
CONTINUOUS
 62
3
 10
125.095309418208070
 20
293.711742055604650
 40
5.000000000000062
 50
305.751143201121580
 51
0.000000000000000
  0
LINE
  8
0
  6
CONTINUOUS
 62
3
 10
94.154058566797488
 20
265.275335143962370
 11
128.016638710964660
 21
289.653930433155550
  0
ARC
  8
0
  6
CONTINUOUS
 62
3
 10
91.232729274040906
 20
269.333146766411350
 40
5.000000000000000
 50
270.000000000000000
 51
305.751143201122320
  0
ARC
  8
0
  6
CONTINUOUS
 62
3
 10
125.095309418208070
 20
173.692564369447840
 40
5.000000000000000
 50
0.000000000000000
 51
90.000000000000000
  0
LINE
  8
0
  6
CONTINUOUS
 62
3
 10
125.095309418208070
 20
178.692564369447840
 11
97.845331420411497
 21
178.692564369447840
  0
ARC
  8
0
  6
CONTINUOUS
 62
3
 10
125.095309418208070
 20
190.692564369447840
 40
5.000000000000000
 50
270.000000000000000
 51
0.000000000000000
  0
LINE
  8
0
  6
CONTINUOUS
 62
3
 10
125.095309418208070
 20
185.692564369447840
 11
97.845331420411497
 21
185.692564369447840
  0
ARC
  8
0
  6
CONTINUOUS
 62
3
 10
97.845331420411497
 20
190.692564369447840
 40
5.000000000000000
 50
180.000000000000000
 51
270.000000000000000
  0
ARC
  8
0
  6
CONTINUOUS
 62
3
 10
97.845331420411497
 20
173.692564369447840
 40
5.000000000000000
 50
90.000000000000000
 51
180.000000000000000
  0
LINE
  8
0
  6
CONTINUOUS
 62
3
 10
125.345705329886490
 20
100.051981972484320
 11
97.873326697076067
 21
100.051981972484320
  0
LINE
  8
0
  6
CONTINUOUS
 62
3
 10
94.154058566797488
 20
90.269284692186147
 11
128.016638710964660
 21
65.890689402992962
  0
ARC
  8
0
  6
CONTINUOUS
 62
3
 10
125.095309418208070
 20
61.832877780543868
 40
5.000000000000000
 50
0.000000000000000
 51
54.248856798878435
  0
ARC
  8
0
  6
CONTINUOUS
 62
3
 10
91.232729274040906
 20
86.211473069737167
 40
4.999999999999970
 50
54.248856798877661
 51
90.000000000000000
  0
ARC
  8
0
  6
CONTINUOUS
 62
3
 10
125.095309418208070
 20
70.673386683291028
 40
5.000000000000000
 50
0.000000000000000
 51
54.248856798878435
  0
LINE
  8
0
  6
CONTINUOUS
 62
3
 10
94.154058566797488
 20
99.109793594933308
 11
128.016638710964660
 21
74.731198305740122
  0
ARC
  8
0
  6
CONTINUOUS
 62
3
 10
91.232729274040906
 20
95.051981972484327
 40
4.999999999999970
 50
54.248856798877661
 51
90.000000000000000
  0
ARC
  8
0
  6
CONTINUOUS
 62
3
 10
-0.404690581792153
 20
288.234524477898050
 40
3.000000000000124
 50
42.393848252412582
 51
80.405931773141646
  0
LINE
  8
0
  6
CONTINUOUS
 62
3
 10
-2.919617452235030
 20
280.951694884920470
 11
-17.404690581792153
 21
280.192564369448750
  0
ARC
  8
0
  6
CONTINUOUS
 62
3
 10
-0.404690581792153
 20
292.519002080513020
 40
3.000000000000161
 50
333.053200547384900
 51
0.000000000000000
  0
ARC
  8
0
  6
CONTINUOUS
 62
3
 10
-0.404690581792153
 20
287.867824120368370
 40
3.000000000000161
 50
333.053200547384900
 51
0.000000000000000
  0
LINE
  8
0
  6
CONTINUOUS
 62
3
 10
-2.404690581792153
 20
296.692564369448060
 11
-2.404690581792153
 21
294.150604260998080
  0
ARC
  8
0
  6
CONTINUOUS
 62
3
 10
-0.404690581792153
 20
315.192564369448060
 40
2.000000000000000
 50
90.000000000000000
 51
180.000000000000000
  0
ARC
  8
0
  6
CONTINUOUS
 62
3
 10
0.595309418207847
 20
294.150604260998080
 40
3.000000000000000
 50
180.000000000000000
 51
260.405931773138780
  0
LINE
  8
0
  6
CONTINUOUS
 62
3
 10
-2.404690581792153
 20
315.192564369448060
 11
-2.404690581792153
 21
309.692564369448060
  0
ARC
  8
0
  6
CONTINUOUS
 62
3
 10
4.595309418207847
 20
315.192564369448060
 40
2.000000000000000
 50
90.000000000000000
 51
180.000000000000000
  0
ARC
  8
0
  6
CONTINUOUS
 62
3
 10
-0.404690581791925
 20
76.150604260998080
 40
3.000000000000653
 50
279.594068226858330
 51
317.606151747584480
  0
LINE
  8
0
  6
CONTINUOUS
 62
3
 10
-2.919617452235030
 20
83.433433853975657
 11
-17.404690581791925
 21
84.192564369447382
  0
ARC
  8
0
  6
CONTINUOUS
 62
3
 10
-0.404690581791925
 20
71.866126658383109
 40
3.000000000000000
 50
0.000000000000000
 51
26.946799452617075
  0
ARC
  8
0
  6
CONTINUOUS
 62
3
 10
-0.404690581791925
 20
76.517304618527760
 40
3.000000000000000
 50
0.000000000000000
 51
26.946799452617075
  0
LINE
  8
0
  6
CONTINUOUS
 62
3
 10
-2.404690581791925
 20
67.692564369448064
 11
-2.404690581791925
 21
70.234524477898049
  0
ARC
  8
0
  6
CONTINUOUS
 62
3
 10
-0.404690581791925
 20
49.192564369448064
 40
2.000000000000000
 50
180.000000000000000
 51
270.000000000000000
  0
ARC
  8
0
  6
CONTINUOUS
 62
3
 10
0.595309418208075
 20
70.234524477898049
 40
2.999999999999756
 50
99.594068226861253
 51
180.000000000000000
  0
LINE
  8
0
  6
CONTINUOUS
 62
3
 10
-2.404690581791925
 20
49.192564369448064
 11
-2.404690581791925
 21
54.692564369448064
  0
ARC
  8
0
  6
CONTINUOUS
 62
3
 10
4.595309418208075
 20
49.192564369448064
 40
2.000000000000000
 50
180.000000000000000
 51
270.000000000000000
  0
INSERT
  8
0
  2
SYM2
 10
2.595309418207847
 20
303.192564369448060
 41
-1.000000000000000
 50
180.000000000000030
  0
INSERT
  8
0
  2
SYM2
 10
2.595309418208075
 20
61.192564369448064
  0
LINE
  8
0
  6
CONTINUOUS
 62
3
 10
-17.404690581791812
 20
280.192564369496950
 11
-24.404690581791812
 21
280.192564369496950
  0
ARC
  8
0
  6
CONTINUOUS
 62
3
 10
-24.404690581791812
 20
277.192564369496950
 40
3.000000000000000
 50
90.000000000000000
 51
180.000000000000000
  0
LINE
  8
0
  6
CONTINUOUS
 62
3
 10
-17.404690581791812
 20
84.192564369398724
 11
-24.404690581791812
 21
84.192564369398724
  0
ARC
  8
0
  6
CONTINUOUS
 62
3
 10
-24.404690581791812
 20
87.192564369398724
 40
3.000000000000000
 50
180.000000000000000
 51
270.000000000000000
  0
LINE
  8
0
  6
CONTINUOUS
 62
3
 10
-156.847434375895770
 20
63.518738989663916
 11
-124.454690581792980
 21
63.518738989663916
  0
ARC
  8
0
  6
CONTINUOUS
 62
3
 10
-157.704689818852330
 20
64.496036857193985
 40
1.299999237060351
 50
286.601548410324710
 51
17.759447913550098
  0
ARC
  8
0
  6
CONTINUOUS
 62
3
 10
-159.904690581791780
 20
71.875061780041733
 40
8.999999999999858
 50
253.398468892518050
 51
286.601548410325050
  0
ARC
  8
0
  6
CONTINUOUS
 62
3
 10
-162.104691344731240
 20
64.496036857193985
 40
1.299999237060699
 50
162.240552086452960
 51
253.398468892505180
  0
CIRCLE
  8
0
  6
DASHED
 62
4
 10
-159.904690581791780
 20
89.692564369447609
 40
13.500000000000000
  0
LINE
  8
0
  6
DASHDOT
 62
4
 10
-182.728322213103640
 20
89.692564369447837
 11
-138.440604174705190
 21
89.692564369447837
  0
LINE
  8
0
  6
CONTINUOUS
 62
3
 10
-190.904690581791780
 20
114.692564369447830
 11
-190.904690581791780
 21
113.692564369447830
  0
LINE
  8
0
  6
CONTINUOUS
 62
3
 10
-128.904690581791900
 20
114.692564369447720
 11
-128.904690581791900
 21
113.692564369447720
  0
ARC
  8
0
  6
CONTINUOUS
 62
3
 10
-193.704690581791970
 20
108.692564369447830
 40
5.000000000000000
 50
90.000000000000000
 51
135.074043599465310
  0
ARC
  8
0
  6
CONTINUOUS
 62
3
 10
-126.104690581791940
 20
108.692564369447720
 40
5.000000000000008
 50
44.925956400534659
 51
90.000000000000000
  0
LINE
  8
0
  6
CONTINUOUS
 62
3
 10
-193.704690581791970
 20
113.692564369447830
 11
-126.104690581791940
 21
113.692564369447720
  0
ARC
  8
0
  6
CONTINUOUS
 62
3
 10
-180.955325676402030
 20
65.892564369447882
 40
1.000000000000227
 50
216.869897645844020
 51
270.000000000000000
  0
ARC
  8
0
  6
CONTINUOUS
 62
3
 10
-182.555325676401940
 20
64.692564369447837
 40
0.999999999999727
 50
36.869897645849235
 51
90.000000000000000
  0
ARC
  8
0
  6
CONTINUOUS
 62
3
 10
-137.654055487181720
 20
64.692564369447837
 40
1.000000000000000
 50
90.000000000000000
 51
143.130102354166380
  0
ARC
  8
0
  6
CONTINUOUS
 62
3
 10
-139.254055487181630
 20
65.892564369447882
 40
1.000000000000000
 50
270.000000000000000
 51
323.130102354140380
  0
LINE
  8
0
  6
CONTINUOUS
 62
3
 10
-180.955325676402030
 20
64.892564369447882
 11
-139.254055487181630
 21
64.892564369447882
  0
ARC
  8
0
  6
CONTINUOUS
 62
3
 10
-195.354690581790690
 20
101.387128309712350
 40
10.999999999999886
 50
90.000000000000000
 51
180.000000000000000
  0
ARC
  8
0
  6
CONTINUOUS
 62
3
 10
-195.354690581790690
 20
97.915655570665422
 40
11.000000000000000
 50
90.000000000000000
 51
180.000000000000000
  0
ARC
  8
0
  6
CONTINUOUS
 62
3
 10
-124.454690581792980
 20
101.387128309712120
 40
11.000000000000000
 50
0.000000000000000
 51
90.000000000000000
  0
ARC
  8
0
  6
CONTINUOUS
 62
3
 10
-124.454690581792980
 20
97.915655570665422
 40
11.000000000000000
 50
0.000000000000000
 51
90.000000000000000
  0
ARC
  8
0
  6
CONTINUOUS
 62
3
 10
-194.154690581791330
 20
71.492564369447791
 40
5.799999999999727
 50
180.000000000000000
 51
270.000000000000000
  0
ARC
  8
0
  6
CONTINUOUS
 62
3
 10
-125.654690581792570
 20
71.492564369447791
 40
5.799999999999955
 50
270.000000000000000
 51
0.000000000000000
  0
LINE
  8
0
  6
CONTINUOUS
 62
3
 10
-194.154690581791330
 20
65.692564369447837
 11
-125.654690581792570
 21
65.692564369447837
  0
ARC
  8
0
  6
CONTINUOUS
 62
3
 10
-195.354690581790690
 20
74.518738989663916
 40
11.000000000000000
 50
180.000000000000000
 51
270.000000000000000
  0
ARC
  8
0
  6
CONTINUOUS
 62
3
 10
-124.454690581792980
 20
74.518738989663916
 40
11.000000000000000
 50
270.000000000000000
 51
0.000000000000000
  0
ARC
  8
0
  6
CONTINUOUS
 62
3
 10
-194.954690581791060
 20
101.068499069134750
 40
4.999999999999886
 50
90.000000000000000
 51
180.000000000000000
  0
ARC
  8
0
  6
CONTINUOUS
 62
3
 10
-124.854690581792620
 20
101.068499069134530
 40
5.000000000000000
 50
0.000000000000000
 51
90.000000000000000
  0
LINE
  8
0
  6
CONTINUOUS
 62
3
 10
-194.954690581791060
 20
106.068499069134640
 11
-124.854690581792620
 21
106.068499069134530
  0
LINE
  8
0
  6
CONTINUOUS
 62
3
 10
-199.954690581791060
 20
71.492564369447791
 11
-199.954690581791060
 21
101.068499069134750
  0
LINE
  8
0
  6
CONTINUOUS
 62
3
 10
-119.854690581792620
 20
71.492564369447791
 11
-119.854690581792620
 21
101.068499069134530
  0
LINE
  8
0
  6
CONTINUOUS
 62
3
 10
-206.354690581790690
 20
101.387128309712350
 11
-206.354690581790690
 21
74.518738989663916
  0
LINE
  8
0
  6
CONTINUOUS
 62
3
 10
-113.454690581792980
 20
101.387128309712120
 11
-113.454690581792980
 21
74.518738989663916
  0
LINE
  8
0
  6
CONTINUOUS
 62
3
 10
-195.354690581790690
 20
108.915655570665420
 11
-124.454690581792980
 21
108.915655570665420
  0
LINE
  8
0
  6
CONTINUOUS
 62
3
 10
-195.354690581790690
 20
112.387128309712230
 11
-124.454690581792980
 21
112.387128309712120
  0
LINE
  8
0
  6
CONTINUOUS
 62
3
 10
-195.354690581790690
 20
63.518738989663916
 11
-162.961946787688020
 21
63.518738989663916
  0
LINE
  8
0
  6
DASHDOT
 62
4
 10
-159.904690581791780
 20
120.526277705600590
 11
-159.904690581791780
 21
58.463864188964408
  0
LINE
  8
0
  6
CONTINUOUS
 62
3
 10
-192.404690581791780
 20
118.692564369447830
 11
-127.404690581791670
 21
118.692564369447830
  0
LINE
  8
0
  6
CONTINUOUS
 62
3
 10
-188.067366346971770
 20
120.692564369447830
 11
-127.404690581791670
 21
120.692564369447830
  0
LINE
  8
0
  6
CONTINUOUS
 62
3
 10
-192.404690581791780
 20
114.692564369447830
 11
-127.404690581791670
 21
114.692564369447830
  0
LINE
  8
0
  6
CONTINUOUS
 62
3
 10
-127.404690581791670
 20
114.692564369447830
 11
-127.404690581791780
 21
121.692564369447830
  0
LINE
  8
0
  6
CONTINUOUS
 62
3
 10
-192.404690581791780
 20
114.692564369447830
 11
-192.404690581791780
 21
120.531383344124890
  0
LINE
  8
0
  6
CONTINUOUS
 62
3
 10
-123.154690581791780
 20
121.692564369447830
 11
-123.154690581791780
 21
122.692564369447830
  0
LINE
  8
0
  6
CONTINUOUS
 62
3
 10
-186.567455026595890
 20
121.692564369447830
 11
-123.154690581791780
 21
121.692564369447830
  0
POLYLINE
  8
0
  6
CONTINUOUS
 62
3
 66
1
 70
1
  0
VERTEX
  8
0
  6
CONTINUOUS
 62
3
 10
-192.204690581791110
 20
130.269039337387990
  0
VERTEX
  8
0
  6
CONTINUOUS
 62
3
 10
-192.294999763895930
 20
130.971996303588360
  0
VERTEX
  8
0
  6
CONTINUOUS
 62
3
 10
-192.562456778988060
 20
131.647939027800450
  0
VERTEX
  8
0
  6
CONTINUOUS
 62
3
 10
-192.996783403969150
 20
132.270891410205850
  0
VERTEX
  8
0
  6
CONTINUOUS
 62
3
 10
-193.581288710214320
 20
132.816913740104440
  0
VERTEX
  8
0
  6
CONTINUOUS
 62
3
 10
-194.293510486598990
 20
133.265022685571070
  0
VERTEX
  8
0
  6
CONTINUOUS
 62
3
 10
-195.106078449675180
 20
133.597997671133810
  0
VERTEX
  8
0
  6
CONTINUOUS
 62
3
 10
-195.987766068315300
 20
133.803042654832070
  0
VERTEX
  8
0
  6
CONTINUOUS
 62
3
 10
-196.904690581791100
 20
133.872277872932840
  0
VERTEX
  8
0
  6
CONTINUOUS
 62
3
 10
-197.821615095266910
 20
133.803042654832070
  0
VERTEX
  8
0
  6
CONTINUOUS
 62
3
 10
-198.703302713907020
 20
133.597997671133810
  0
VERTEX
  8
0
  6
CONTINUOUS
 62
3
 10
-199.515870676983210
 20
133.265022685571070
  0
VERTEX
  8
0
  6
CONTINUOUS
 62
3
 10
-200.228092453367880
 20
132.816913740104440
  0
VERTEX
  8
0
  6
CONTINUOUS
 62
3
 10
-200.812597759613060
 20
132.270891410205850
  0
VERTEX
  8
0
  6
CONTINUOUS
 62
3
 10
-201.246924384594140
 20
131.647939027800450
  0
VERTEX
  8
0
  6
CONTINUOUS
 62
3
 10
-201.514381399686270
 20
130.971996303588360
  0
VERTEX
  8
0
  6
CONTINUOUS
 62
3
 10
-201.604690581791090
 20
130.269039337387990
  0
VERTEX
  8
0
  6
CONTINUOUS
 62
3
 10
-201.514381399686270
 20
129.566082371187630
  0
VERTEX
  8
0
  6
CONTINUOUS
 62
3
 10
-201.246924384594140
 20
128.890139646975540
  0
VERTEX
  8
0
  6
CONTINUOUS
 62
3
 10
-200.812597759613060
 20
128.267187264570140
  0
VERTEX
  8
0
  6
CONTINUOUS
 62
3
 10
-200.228092453367850
 20
127.721164934671540
  0
VERTEX
  8
0
  6
CONTINUOUS
 62
3
 10
-199.515870676983210
 20
127.273055989204930
  0
VERTEX
  8
0
  6
CONTINUOUS
 62
3
 10
-198.703302713907020
 20
126.940081003642170
  0
VERTEX
  8
0
  6
CONTINUOUS
 62
3
 10
-197.821615095266910
 20
126.735036019943910
  0
VERTEX
  8
0
  6
CONTINUOUS
 62
3
 10
-196.904690581791100
 20
126.665800801843140
  0
VERTEX
  8
0
  6
CONTINUOUS
 62
3
 10
-195.987766068315300
 20
126.735036019943910
  0
VERTEX
  8
0
  6
CONTINUOUS
 62
3
 10
-195.106078449675180
 20
126.940081003642170
  0
VERTEX
  8
0
  6
CONTINUOUS
 62
3
 10
-194.293510486598990
 20
127.273055989204930
  0
VERTEX
  8
0
  6
CONTINUOUS
 62
3
 10
-193.581288710214350
 20
127.721164934671540
  0
VERTEX
  8
0
  6
CONTINUOUS
 62
3
 10
-192.996783403969150
 20
128.267187264570140
  0
VERTEX
  8
0
  6
CONTINUOUS
 62
3
 10
-192.562456778988060
 20
128.890139646975540
  0
VERTEX
  8
0
  6
CONTINUOUS
 62
3
 10
-192.294999763895930
 20
129.566082371187630
  0
SEQEND
  8
0
  6
CONTINUOUS
 62
3
  0
LINE
  8
0
  6
CONTINUOUS
 62
3
 10
-198.904690581791100
 20
127.276663783387670
 11
-196.904690581791100
 21
128.452449269010000
  0
LINE
  8
0
  6
CONTINUOUS
 62
3
 10
-196.904690581791100
 20
128.452449269010000
 11
-194.904690581791100
 21
130.105090908133430
  0
LINE
  8
0
  6
CONTINUOUS
 62
3
 10
-194.904690581791100
 20
127.276663783387670
 11
-196.904690581791100
 21
128.452449269010000
  0
LINE
  8
0
  6
CONTINUOUS
 62
3
 10
-196.904690581791100
 20
128.452449269010000
 11
-198.904690581791100
 21
130.105090908133430
  0
POLYLINE
  8
0
  6
CONTINUOUS
 62
3
 66
1
 70
1
  0
VERTEX
  8
0
  6
CONTINUOUS
 62
3
 10
-192.204690581791110
 20
234.116089401507910
  0
VERTEX
  8
0
  6
CONTINUOUS
 62
3
 10
-192.294999763895930
 20
234.819046367708270
  0
VERTEX
  8
0
  6
CONTINUOUS
 62
3
 10
-192.562456778988060
 20
235.494989091920360
  0
VERTEX
  8
0
  6
CONTINUOUS
 62
3
 10
-192.996783403969150
 20
236.117941474325760
  0
VERTEX
  8
0
  6
CONTINUOUS
 62
3
 10
-193.581288710214320
 20
236.663963804224350
  0
VERTEX
  8
0
  6
CONTINUOUS
 62
3
 10
-194.293510486598990
 20
237.112072749690980
  0
VERTEX
  8
0
  6
CONTINUOUS
 62
3
 10
-195.106078449675180
 20
237.445047735253720
  0
VERTEX
  8
0
  6
CONTINUOUS
 62
3
 10
-195.987766068315300
 20
237.650092718951980
  0
VERTEX
  8
0
  6
CONTINUOUS
 62
3
 10
-196.904690581791100
 20
237.719327937052750
  0
VERTEX
  8
0
  6
CONTINUOUS
 62
3
 10
-197.821615095266910
 20
237.650092718951980
  0
VERTEX
  8
0
  6
CONTINUOUS
 62
3
 10
-198.703302713907020
 20
237.445047735253720
  0
VERTEX
  8
0
  6
CONTINUOUS
 62
3
 10
-199.515870676983210
 20
237.112072749690980
  0
VERTEX
  8
0
  6
CONTINUOUS
 62
3
 10
-200.228092453367880
 20
236.663963804224350
  0
VERTEX
  8
0
  6
CONTINUOUS
 62
3
 10
-200.812597759613060
 20
236.117941474325760
  0
VERTEX
  8
0
  6
CONTINUOUS
 62
3
 10
-201.246924384594140
 20
235.494989091920360
  0
VERTEX
  8
0
  6
CONTINUOUS
 62
3
 10
-201.514381399686270
 20
234.819046367708270
  0
VERTEX
  8
0
  6
CONTINUOUS
 62
3
 10
-201.604690581791090
 20
234.116089401507910
  0
VERTEX
  8
0
  6
CONTINUOUS
 62
3
 10
-201.514381399686270
 20
233.413132435307550
  0
VERTEX
  8
0
  6
CONTINUOUS
 62
3
 10
-201.246924384594140
 20
232.737189711095450
  0
VERTEX
  8
0
  6
CONTINUOUS
 62
3
 10
-200.812597759613060
 20
232.114237328690050
  0
VERTEX
  8
0
  6
CONTINUOUS
 62
3
 10
-200.228092453367850
 20
231.568214998791460
  0
VERTEX
  8
0
  6
CONTINUOUS
 62
3
 10
-199.515870676983210
 20
231.120106053324830
  0
VERTEX
  8
0
  6
CONTINUOUS
 62
3
 10
-198.703302713907020
 20
230.787131067762090
  0
VERTEX
  8
0
  6
CONTINUOUS
 62
3
 10
-197.821615095266910
 20
230.582086084063830
  0
VERTEX
  8
0
  6
CONTINUOUS
 62
3
 10
-196.904690581791100
 20
230.512850865963060
  0
VERTEX
  8
0
  6
CONTINUOUS
 62
3
 10
-195.987766068315300
 20
230.582086084063830
  0
VERTEX
  8
0
  6
CONTINUOUS
 62
3
 10
-195.106078449675180
 20
230.787131067762090
  0
VERTEX
  8
0
  6
CONTINUOUS
 62
3
 10
-194.293510486598990
 20
231.120106053324830
  0
VERTEX
  8
0
  6
CONTINUOUS
 62
3
 10
-193.581288710214350
 20
231.568214998791460
  0
VERTEX
  8
0
  6
CONTINUOUS
 62
3
 10
-192.996783403969150
 20
232.114237328690050
  0
VERTEX
  8
0
  6
CONTINUOUS
 62
3
 10
-192.562456778988060
 20
232.737189711095450
  0
VERTEX
  8
0
  6
CONTINUOUS
 62
3
 10
-192.294999763895930
 20
233.413132435307550
  0
SEQEND
  8
0
  6
CONTINUOUS
 62
3
  0
LINE
  8
0
  6
CONTINUOUS
 62
3
 10
-198.904690581791100
 20
237.108464955508230
 11
-196.904690581791100
 21
235.932679469885440
  0
LINE
  8
0
  6
CONTINUOUS
 62
3
 10
-196.904690581791100
 20
235.932679469885440
 11
-194.904690581791100
 21
234.280037830762010
  0
LINE
  8
0
  6
CONTINUOUS
 62
3
 10
-194.904690581791100
 20
237.108464955508230
 11
-196.904690581791100
 21
235.932679469885440
  0
LINE
  8
0
  6
CONTINUOUS
 62
3
 10
-196.904690581791100
 20
235.932679469885440
 11
-198.904690581791100
 21
234.280037830762010
  0
LINE
  8
0
  6
CONTINUOUS
 62
3
 10
-185.904690581791670
 20
182.192564369447840
 11
-185.904690581791670
 21
247.192564369447840
  0
LINE
  8
0
  6
CONTINUOUS
 62
3
 10
-185.904690581791670
 20
247.192564369447840
 11
-214.598714804212020
 21
247.192564369447840
  0
LINE
  8
0
  6
CONTINUOUS
 62
3
 10
-236.904690581741530
 20
182.192564369447840
 11
-236.904690581741530
 21
234.635769426693290
  0
ARC
  8
0
  6
CONTINUOUS
 62
3
 10
-214.598714804212020
 20
227.192564369447840
 40
20.000000000000000
 50
90.000000000000000
 51
125.000000000000240
  0
LINE
  8
0
  6
CONTINUOUS
 62
3
 10
-226.070243531233020
 20
243.575605255227630
 11
-235.795989316254010
 21
236.765564741844400
  0
ARC
  8
0
  6
CONTINUOUS
 62
3
 10
-234.304690581741400
 20
234.635769426693290
 40
2.599999999999721
 50
125.000000000001370
 51
180.000000000000000
  0
LINE
  8
0
  6
CONTINUOUS
 62
3
 10
-185.904690581791670
 20
182.192564369447840
 11
-185.904690581791670
 21
123.573343452575040
  0
LINE
  8
0
  6
CONTINUOUS
 62
3
 10
-236.904690581741530
 20
182.192564369447840
 11
-236.904690581741530
 21
129.749359312202390
  0
LINE
  8
0
  6
CONTINUOUS
 62
3
 10
-226.070243531233020
 20
120.809523483668040
 11
-235.795989316254010
 21
127.619563997051270
  0
ARC
  8
0
  6
CONTINUOUS
 62
3
 10
-234.304690581741400
 20
129.749359312202390
 40
2.600000000000136
 50
180.000000000000000
 51
234.999999999998610
  0
LINE
  8
0
  6
CONTINUOUS
 62
3
 10
-195.904690581791560
 20
117.192564369447830
 11
-214.598714804212020
 21
117.192564369447830
  0
ARC
  8
0
  6
CONTINUOUS
 62
3
 10
-214.598714804212020
 20
137.192564369447840
 40
20.000000000000007
 50
234.999999999999740
 51
270.000000000000000
  0
LINE
  8
0
  6
CONTINUOUS
 62
3
 10
-192.904690581791560
 20
120.573343452575040
 11
-188.904690581791670
 21
120.573343452575040
  0
LINE
  8
0
  6
CONTINUOUS
 62
3
 10
-195.904690581791560
 20
117.192564369447830
 11
-195.904690581791560
 21
117.573343452575040
  0
ARC
  8
0
  6
CONTINUOUS
 62
3
 10
-188.904690581791670
 20
123.573343452575040
 40
3.000000000000000
 50
270.000000000000000
 51
0.000000000000000
  0
ARC
  8
0
  6
CONTINUOUS
 62
3
 10
-192.904690581791560
 20
117.573343452575040
 40
3.000000000000000
 50
90.000000000000000
 51
180.000000000000000
  0
ARC
  8
0
  6
CONTINUOUS
 62
3
 10
-314.074619589263990
 20
-223.984342677532820
 40
9.000000000000234
 50
7.398451589678908
 51
40.601531107483503
  0
ARC
  8
0
  6
CONTINUOUS
 62
3
 10
-306.438723964082670
 20
-222.992823555034190
 40
1.299999237060559
 50
293.999982013920090
 51
7.398451589679256
  0
LINE
  8
0
  6
DASHDOT
 62
4
 10
-331.956227316428000
 20
-199.924911850846460
 11
-331.956227316428000
 21
-222.793421026610080
  0
LINE
  8
0
  6
CONTINUOUS
 62
3
 10
-354.650791256692510
 20
-126.456427233636530
 11
-308.933592574967520
 21
-229.138936672662570
  0
ARC
  8
0
  6
CONTINUOUS
 62
3
 10
-308.187791763154220
 20
-161.654085812904210
 40
1.000000000000077
 50
0.587807867721716
 51
53.794291905958382
  0
ARC
  8
0
  6
CONTINUOUS
 62
3
 10
-307.006419646877820
 20
-160.040282874846070
 40
0.999999999999967
 50
180.740494943192910
 51
233.794291905968890
  0
ARC
  8
0
  6
CONTINUOUS
 62
3
 10
-307.776628063030900
 20
-199.199291899841230
 40
0.999999999999769
 50
123.952126946395960
 51
177.005923909151190
  0
ARC
  8
0
  6
CONTINUOUS
 62
3
 10
-308.893628087643380
 20
-197.540282874846070
 40
1.000000000000147
 50
303.952126946381380
 51
357.158610984632960
  0
ARC
  8
0
  6
CONTINUOUS
 62
3
 10
-907.956227316428000
 20
-167.807435630552390
 40
600.799999999999950
 50
357.158610984636650
 51
0.587807867706885
  0
LINE
  8
0
  6
CONTINUOUS
 62
3
 10
-355.956227316428000
 20
-135.115830753493130
 11
-355.956227316428000
 21
-209.307435630552160
  0
LINE
  8
0
  6
CONTINUOUS
 62
3
 10
-356.956227316428000
 20
-198.807435630552160
 11
-355.956227316428000
 21
-198.807435630552160
  0
LINE
  8
0
  6
CONTINUOUS
 62
3
 10
-310.885928461731620
 20
-224.753918475978030
 11
-314.403078473655680
 21
-226.319854551819840
  0
LINE
  8
0
  6
CONTINUOUS
 62
3
 10
-312.512875034034890
 20
-221.099736645408030
 11
-316.030025045958720
 21
-222.665672721249850
  0
ARC
  8
0
  6
CONTINUOUS
 62
3
 10
-311.582896130959510
 20
-211.940022985937500
 40
1.999999999999991
 50
299.779785485285120
 51
352.117918512083290
  0
ARC
  8
0
  6
CONTINUOUS
 62
3
 10
-310.161540052729490
 20
-214.579673470430860
 40
1.000000000000011
 50
115.342003472277410
 51
204.000000000003580
  0
LINE
  8
0
  6
CONTINUOUS
 62
3
 10
-332.080518293624320
 20
-167.807435630552160
 11
-305.868856479001470
 21
-226.679791971332180
  0
ARC
  8
0
  6
CONTINUOUS
 62
3
 10
-306.782401936644080
 20
-227.086528614407830
 40
1.000000000000226
 50
294.000000000027340
 51
23.999999999991683
  0
LINE
  8
0
  6
CONTINUOUS
 62
3
 10
-306.375665293567750
 20
-228.000074072050440
 11
-308.933592574967520
 21
-229.138936672662570
  0
LINE
  8
0
  6
CONTINUOUS
 62
3
 10
-350.956227316428000
 20
-214.307435630552160
 11
-315.537002285099220
 21
-214.307435630552160
  0
ARC
  8
0
  6
CONTINUOUS
 62
3
 10
-350.956227316428000
 20
-209.307435630552160
 40
5.000000000000000
 50
180.000000000000000
 51
270.000000000000000
  0
LINE
  8
0
  6
CONTINUOUS
 62
3
 10
-356.956227316428000
 20
-136.807435630552160
 11
-355.956227316428000
 21
-136.807435630552160
  0
ARC
  8
0
  6
CONTINUOUS
 62
3
 10
-352.956227316428000
 20
-135.115830753493130
 40
2.999999999999567
 50
113.999999999979760
 51
180.000000000000000
  0
LINE
  8
0
  6
CONTINUOUS
 62
3
 10
-352.373066055467580
 20
-131.572281796435160
 11
-354.176437245654260
 21
-132.375194380565290
  0
LINE
  8
0
  6
CONTINUOUS
 62
3
 10
-352.092863975287970
 20
-125.317564633022130
 11
-354.650791256687280
 21
-126.456427233634250
  0
ARC
  8
0
  6
CONTINUOUS
 62
3
 10
-308.990178324116300
 20
-217.210594988438740
 40
0.999999999999983
 50
175.284875165916760
 51
204.000000000003580
  0
ARC
  8
0
  6
CONTINUOUS
 62
3
 10
-907.956227316428000
 20
-167.807435630552390
 40
600.000000000000910
 50
355.284875165908370
 51
1.682768801133149
  0
ARC
  8
0
  6
CONTINUOUS
 62
3
 10
-323.208516301868830
 20
-150.628539762817350
 40
15.000000000000393
 50
1.682768801133086
 51
80.681876880324481
  0
LINE
  8
0
  6
CONTINUOUS
 62
3
 10
-346.735413943213300
 20
-131.567642353213390
 11
-320.779776849677210
 21
-135.826471506206420
  0
ARC
  8
0
  6
CONTINUOUS
 62
3
 10
-346.249666052774610
 20
-128.607228701891240
 40
3.000000000000030
 50
203.999999999999630
 51
260.681876880317470
  0
LINE
  8
0
  6
CONTINUOUS
 62
3
 10
-350.772581874569940
 20
-125.824373447588860
 11
-332.080518293621140
 21
-167.807435630552160
  0
LINE
  8
0
  6
CONTINUOUS
 62
3
 10
-354.321630477021360
 20
-129.150764951446490
 11
-353.585226594259320
 21
-129.463349854237780
  0
LINE
  8
0
  6
CONTINUOUS
 62
3
 10
-353.451884572065300
 20
-129.149215735788400
 11
-353.585226594259320
 21
-129.463349854237780
  0
LINE
  8
0
  6
CONTINUOUS
 62
3
 10
-353.896798317275280
 20
-128.149923102831050
 11
-354.321630477021360
 21
-129.150764951446490
  0
ARC
  8
0
  6
CONTINUOUS
 62
3
 10
-308.228365814247240
 20
-218.973222147447130
 40
1.299999237060495
 50
40.601531107483851
 51
114.000000683246080
  0
LINE
  8
0
  6
CONTINUOUS
 62
3
 10
-309.651507259606770
 20
-218.183819215255880
 11
-308.757123139930290
 21
-217.785613749491630
  0
LINE
  8
0
  6
CONTINUOUS
 62
3
 10
-306.804350758075880
 20
-224.578637418754170
 11
-305.909966638399400
 21
-224.180431952989690
  0
LINE
  8
0
  6
CONTINUOUS
 62
3
 10
-309.651507259606770
 20
-218.183819215255880
 11
-306.804350758075880
 21
-224.578637418754170
  0
LINE
  8
0
  6
CONTINUOUS
 62
3
 10
-309.651507259606770
 20
-218.183819215255880
 11
-306.804350758075880
 21
-224.578637418754170
  0
POINT
  8
0
  6
CONTINUOUS
 62
3
 10
-308.227929008841220
 20
-221.381228317005030
  0
LINE
  8
0
  6
CONTINUOUS
 62
3
 10
-316.207408131057150
 20
-223.127771456501250
 11
-314.865177208907080
 21
-226.142471466721420
  0
LINE
  8
0
  6
CONTINUOUS
 62
3
 10
-314.403078473655680
 20
-226.319854551819840
 11
-314.865177208907080
 21
-226.142471466721420
  0
LINE
  8
0
  6
CONTINUOUS
 62
3
 10
-316.030025045958720
 20
-222.665672721249850
 11
-316.207408131057150
 21
-223.127771456501250
  0
LINE
  8
0
  6
CONTINUOUS
 62
4
 10
-312.370517208958400
 20
-221.419477555582940
 11
-316.207408131057150
 21
-223.127771456501250
  0
LINE
  8
0
  6
CONTINUOUS
 62
4
 10
-311.028286286807880
 20
-224.434177565803570
 11
-314.865177208906860
 21
-226.142471466721870
  0
ARC
  8
0
  6
CONTINUOUS
 62
3
 10
-351.686127332212550
 20
-126.231110090664740
 40
1.000000000000041
 50
24.000000000003585
 51
113.999999999979760
  0
LINE
  8
0
  6
CONTINUOUS
 62
3
 10
-356.956227316428000
 20
-167.807435630552160
 11
-356.956227316428000
 21
-198.807435630552160
  0
LINE
  8
0
  6
CONTINUOUS
 62
3
 10
-356.956227316428000
 20
-167.807435630552160
 11
-356.956227316428000
 21
-136.807435630552160
  0
LINE
  8
0
  6
CONTINUOUS
 62
3
 10
-360.956227316428000
 20
-197.799934692818970
 11
-360.956227316428000
 21
-200.412179316828880
  0
LINE
  8
0
  6
CONTINUOUS
 62
3
 10
-360.956227316428000
 20
-137.814936568285360
 11
-360.956227316428000
 21
-135.202691944275440
  0
LINE
  8
0
  6
CONTINUOUS
 62
3
 10
-360.956227316428000
 20
-135.202691944275440
 11
-357.930050368120080
 21
-135.281935176498340
  0
LINE
  8
0
  6
CONTINUOUS
 62
3
 10
-356.956227316428000
 20
-199.333278759630500
 11
-356.956227316428000
 21
-136.281592501473820
  0
ARC
  8
0
  6
CONTINUOUS
 62
3
 10
-357.956227316428000
 20
-136.281592501473820
 40
1.000000000000000
 50
0.000000000000000
 51
88.499999999997186
  0
ARC
  8
0
  6
CONTINUOUS
 62
3
 10
-357.956227316428000
 20
-199.333278759630500
 40
0.999999999999931
 50
271.500000000002790
 51
0.000000000000000
  0
LINE
  8
0
  6
CONTINUOUS
 62
3
 10
-360.956227316428000
 20
-200.412179316828880
 11
-357.930050368120080
 21
-200.332936084605990
  0
ARC
  8
0
  6
CONTINUOUS
 62
4
 10
-424.456227316428000
 20
-408.407435630552070
 40
289.396999999999930
 50
90.000000000000000
 51
97.897988672427743
  0
ARC
  8
0
  6
CONTINUOUS
 62
4
 10
-463.397745271810090
 20
-127.698658089965420
 40
5.999999999999923
 50
97.897988672425626
 51
134.999999999996930
  0
ARC
  8
0
  6
CONTINUOUS
 62
3
 10
-468.404814746710490
 20
-117.710821163023860
 40
6.599999999999971
 50
98.597082237248614
 51
134.999999999998610
  0
ARC
  8
0
  6
CONTINUOUS
 62
3
 10
-428.456227316428000
 20
-139.084622397861720
 40
1.499999999999998
 50
277.928141766204020
 51
0.000000000000000
  0
ARC
  8
0
  6
CONTINUOUS
 62
3
 10
-424.456227316427540
 20
-167.807435630552160
 40
33.499999999999950
 50
97.180755781459069
 51
142.819244218541740
  0
ARC
  8
0
  6
CONTINUOUS
 62
3
 10
-424.456227316427540
 20
-167.807435630552160
 40
43.000000000000043
 50
95.531071524839788
 51
144.468928475160770
  0
ARC
  8
0
  6
CONTINUOUS
 62
3
 10
-424.456227316427540
 20
-167.807435630552160
 40
37.000000000000099
 50
95.963570118321798
 51
144.036429881678830
  0
ARC
  8
0
  6
CONTINUOUS
 62
3
 10
-447.330913244093720
 20
-149.981927399069040
 40
1.499999999999926
 50
239.999999999998410
 51
322.071858233800300
  0
ARC
  8
0
  6
CONTINUOUS
 62
3
 10
-449.951681486162560
 20
-148.468826149026880
 40
1.500000000000103
 50
142.819244218542510
 51
239.999999999998410
  0
ARC
  8
0
  6
CONTINUOUS
 62
3
 10
-455.617763770578790
 20
-145.197512016868590
 40
1.500000000000123
 50
240.000000000002730
 51
324.036429881683720
  0
LINE
  8
0
  6
CONTINUOUS
 62
3
 10
-448.080913244093720
 20
-151.280965504745610
 11
-450.701681486162560
 21
-149.767864254703450
  0
LINE
  8
0
  6
CONTINUOUS
 62
3
 10
-456.367763770578790
 20
-146.496550122545390
 11
-458.978947369562890
 21
-144.988982568768280
  0
ARC
  8
0
  6
CONTINUOUS
 62
3
 10
-458.228947369562890
 20
-143.689944463091480
 40
1.499999999999976
 50
144.468928475160790
 51
240.000000000002730
  0
ARC
  8
0
  6
CONTINUOUS
 62
3
 10
-453.951681486163010
 20
-180.217841881801860
 40
1.500000000000157
 50
202.819244218546660
 51
300.000000000001590
  0
LINE
  8
0
  6
CONTINUOUS
 62
3
 10
-453.201681486163010
 20
-181.516879987478430
 11
-450.580913244093720
 21
-180.003778737436510
  0
ARC
  8
0
  6
CONTINUOUS
 62
3
 10
-459.617763770579240
 20
-183.489156013960160
 40
1.499999999999926
 50
300.000000000001590
 51
24.036429881677126
  0
LINE
  8
0
  6
CONTINUOUS
 62
3
 10
-461.478947369563340
 20
-186.295761673414060
 11
-458.867763770579240
 21
-184.788194119636730
  0
ARC
  8
0
  6
CONTINUOUS
 62
3
 10
-462.228947369563340
 20
-184.996723567737040
 40
1.500000000000128
 50
204.468928475167470
 51
299.999999999992950
  0
ARC
  8
0
  6
CONTINUOUS
 62
3
 10
-451.330913244093720
 20
-178.704740631759480
 40
1.500000000000320
 50
299.999999999992950
 51
22.071858233784546
  0
ARC
  8
0
  6
CONTINUOUS
 62
3
 10
-424.456227316427770
 20
-167.807435630552620
 40
33.499999999999794
 50
157.180755781458400
 51
202.819244218540940
  0
ARC
  8
0
  6
CONTINUOUS
 62
3
 10
-424.456227316427770
 20
-167.807435630552620
 40
43.000000000000121
 50
155.531071524839230
 51
204.468928475160200
  0
ARC
  8
0
  6
CONTINUOUS
 62
3
 10
-424.456227316427770
 20
-167.807435630552620
 40
37.000000000000156
 50
155.963570118321120
 51
204.036429881678230
  0
ARC
  8
0
  6
CONTINUOUS
 62
3
 10
-424.456227316428450
 20
-167.807435630552160
 40
27.499999999999886
 50
157.928141766202200
 51
202.071858233798680
  0
ARC
  8
0
  6
CONTINUOUS
 62
3
 10
-451.330913244093950
 20
-156.910130629344850
 40
1.500000000000110
 50
337.928141766202600
 51
59.999999999998380
  0
ARC
  8
0
  6
CONTINUOUS
 62
3
 10
-453.951681486162780
 20
-155.397029379302920
 40
1.500000000000123
 50
60.000000000002721
 51
157.180755781457980
  0
ARC
  8
0
  6
CONTINUOUS
 62
3
 10
-459.617763770579020
 20
-152.125715247144630
 40
1.499999999999855
 50
335.963570118319300
 51
59.999999999990862
  0
LINE
  8
0
  6
CONTINUOUS
 62
3
 10
-450.580913244093950
 20
-155.611092523668280
 11
-453.201681486162780
 21
-154.097991273626120
  0
LINE
  8
0
  6
CONTINUOUS
 62
3
 10
-458.867763770578790
 20
-150.826677141468050
 11
-461.478947369563340
 21
-149.319109587690950
  0
ARC
  8
0
  6
CONTINUOUS
 62
3
 10
-462.228947369563340
 20
-150.618147693367520
 40
1.499999999999926
 50
59.999999999998380
 51
155.531071524840400
  0
ARC
  8
0
  6
CONTINUOUS
 62
3
 10
-449.951681486163010
 20
-187.146045112077220
 40
1.499999999999926
 50
120.000000000001620
 51
217.180755781464400
  0
LINE
  8
0
  6
CONTINUOUS
 62
3
 10
-450.701681486163010
 20
-185.847007006400640
 11
-448.080913244093720
 21
-184.333905756358260
  0
ARC
  8
0
  6
CONTINUOUS
 62
3
 10
-455.617763770579240
 20
-190.417359244235510
 40
1.499999999999968
 50
35.963570118309242
 51
120.000000000001620
  0
LINE
  8
0
  6
CONTINUOUS
 62
3
 10
-458.978947369563340
 20
-190.625888692336280
 11
-456.367763770579240
 21
-189.118321138558940
  0
ARC
  8
0
  6
CONTINUOUS
 62
3
 10
-458.228947369563340
 20
-191.924926798012850
 40
1.499999999999926
 50
120.000000000001620
 51
215.531071524832130
  0
ARC
  8
0
  6
CONTINUOUS
 62
3
 10
-447.330913244093720
 20
-185.632943862035290
 40
1.500000000000122
 50
37.928141766218701
 51
119.999999999992930
  0
ARC
  8
0
  6
CONTINUOUS
 62
3
 10
-424.456227316428230
 20
-167.807435630551710
 40
33.500000000000163
 50
217.180755781459110
 51
262.819244218541770
  0
ARC
  8
0
  6
CONTINUOUS
 62
3
 10
-424.456227316428230
 20
-167.807435630551710
 40
42.999999999999858
 50
215.531071524839690
 51
264.468928475160850
  0
ARC
  8
0
  6
CONTINUOUS
 62
3
 10
-424.456227316428230
 20
-167.807435630551710
 40
37.000000000000021
 50
215.963570118321970
 51
264.036429881678940
  0
ARC
  8
0
  6
CONTINUOUS
 62
3
 10
-424.456227316428230
 20
-167.807435630552620
 40
27.499999999999780
 50
217.928141766201070
 51
262.071858233797400
  0
ARC
  8
0
  6
CONTINUOUS
 62
3
 10
-428.456227316428230
 20
-196.530248863242600
 40
1.500000000000000
 50
0.000000000000000
 51
82.071858233804562
  0
ARC
  8
0
  6
CONTINUOUS
 62
3
 10
-428.456227316428230
 20
-199.556451363326910
 40
1.499999999999998
 50
262.819244218541710
 51
0.000000000000000
  0
ARC
  8
0
  6
CONTINUOUS
 62
3
 10
-428.456227316428230
 20
-206.099079627643500
 40
1.500000000000000
 50
0.000000000017370
 51
84.036429881682594
  0
LINE
  8
0
  6
CONTINUOUS
 62
3
 10
-426.956227316428230
 20
-196.530248863242600
 11
-426.956227316428230
 21
-199.556451363326910
  0
LINE
  8
0
  6
CONTINUOUS
 62
3
 10
-426.956227316428230
 20
-206.099079627643050
 11
-426.956227316428230
 21
-209.114214735197270
  0
ARC
  8
0
  6
CONTINUOUS
 62
3
 10
-428.456227316428230
 20
-209.114214735197270
 40
1.500000000000430
 50
264.468928475160000
 51
0.000000000000000
  0
ARC
  8
0
  6
CONTINUOUS
 62
3
 10
-398.960773146692990
 20
-187.146045112077220
 40
1.500000000000240
 50
322.819244218535570
 51
59.999999999998380
  0
LINE
  8
0
  6
CONTINUOUS
 62
3
 10
-398.210773146692990
 20
-185.847007006400640
 11
-400.831541388762280
 21
-184.333905756358260
  0
ARC
  8
0
  6
CONTINUOUS
 62
3
 10
-393.294690862276750
 20
-190.417359244235510
 40
1.499999999999926
 50
59.999999999998380
 51
144.036429881690740
  0
ARC
  8
0
  6
CONTINUOUS
 62
3
 10
-401.581541388762280
 20
-185.632943862035290
 40
1.500000000000320
 50
60.000000000007070
 51
142.071858233781280
  0
ARC
  8
0
  6
CONTINUOUS
 62
3
 10
-424.456227316427770
 20
-167.807435630551710
 40
33.500000000000114
 50
277.180755781458230
 51
322.819244218540860
  0
ARC
  8
0
  6
CONTINUOUS
 62
3
 10
-424.456227316427770
 20
-167.807435630551710
 40
43.000000000000199
 50
275.531071524838860
 51
324.468928475160340
  0
ARC
  8
0
  6
CONTINUOUS
 62
3
 10
-424.456227316427770
 20
-167.807435630551710
 40
37.000000000000028
 50
275.963570118320770
 51
324.036429881678030
  0
ARC
  8
0
  6
CONTINUOUS
 62
3
 10
-424.456227316427770
 20
-167.807435630552620
 40
27.499999999999879
 50
277.928141766202600
 51
322.071858233798930
  0
ARC
  8
0
  6
CONTINUOUS
 62
3
 10
-420.456227316427770
 20
-196.530248863242600
 40
1.499999999999967
 50
97.928141766195438
 51
180.000000000000000
  0
ARC
  8
0
  6
CONTINUOUS
 62
3
 10
-420.456227316427770
 20
-199.556451363326910
 40
1.500000000000000
 50
180.000000000000000
 51
277.180755781458290
  0
ARC
  8
0
  6
CONTINUOUS
 62
3
 10
-420.456227316427770
 20
-206.099079627643500
 40
1.500000000000182
 50
95.963570118326047
 51
179.999999999982630
  0
LINE
  8
0
  6
CONTINUOUS
 62
3
 10
-421.956227316427770
 20
-196.530248863242600
 11
-421.956227316427770
 21
-199.556451363326910
  0
LINE
  8
0
  6
CONTINUOUS
 62
3
 10
-421.956227316427770
 20
-206.099079627643050
 11
-421.956227316427770
 21
-209.114214735197270
  0
ARC
  8
0
  6
CONTINUOUS
 62
3
 10
-420.456227316427770
 20
-209.114214735197270
 40
1.500000000000000
 50
180.000000000000000
 51
275.531071524831360
  0
ARC
  8
0
  6
CONTINUOUS
 62
3
 10
-394.960773146692990
 20
-180.217841881801860
 40
1.499999999999926
 50
239.999999999998410
 51
337.180755781453340
  0
LINE
  8
0
  6
CONTINUOUS
 62
3
 10
-395.710773146692990
 20
-181.516879987478430
 11
-398.331541388762280
 21
-180.003778737436510
  0
ARC
  8
0
  6
CONTINUOUS
 62
3
 10
-397.581541388762280
 20
-178.704740631759480
 40
1.499999999999899
 50
157.928141766199360
 51
240.000000000007050
  0
ARC
  8
0
  6
CONTINUOUS
 62
3
 10
-424.456227316428230
 20
-167.807435630552620
 40
33.500000000000128
 50
337.180755781459030
 51
22.819244218541968
  0
ARC
  8
0
  6
CONTINUOUS
 62
3
 10
-424.456227316427540
 20
-167.807435630552160
 40
27.499999999999886
 50
337.928141766202200
 51
22.071858233797812
  0
ARC
  8
0
  6
CONTINUOUS
 62
3
 10
-397.581541388762050
 20
-156.910130629344850
 40
1.499999999999926
 50
120.000000000001620
 51
202.071858233797370
  0
ARC
  8
0
  6
CONTINUOUS
 62
3
 10
-394.960773146693210
 20
-155.397029379302920
 40
1.499999999999948
 50
22.819244218550043
 51
119.999999999997270
  0
LINE
  8
0
  6
CONTINUOUS
 62
3
 10
-398.331541388762050
 20
-155.611092523668280
 11
-395.710773146693210
 21
-154.097991273626120
  0
ARC
  8
0
  6
CONTINUOUS
 62
3
 10
-424.456227316428450
 20
-167.807435630552160
 40
33.500000000000071
 50
37.180755781458259
 51
82.819244218540931
  0
ARC
  8
0
  6
CONTINUOUS
 62
3
 10
-424.456227316428450
 20
-167.807435630552160
 40
36.999999999999943
 50
35.963570118321194
 51
84.036429881678174
  0
ARC
  8
0
  6
CONTINUOUS
 62
3
 10
-393.294690862277210
 20
-145.197512016868590
 40
1.500000000000102
 50
215.963570118316280
 51
299.999999999997270
  0
ARC
  8
0
  6
CONTINUOUS
 62
3
 10
-398.960773146693440
 20
-148.468826149026880
 40
1.499999999999926
 50
300.000000000001590
 51
37.180755781457485
  0
ARC
  8
0
  6
CONTINUOUS
 62
3
 10
-424.456227316427770
 20
-167.807435630551710
 40
27.500000000000060
 50
37.928141766201819
 51
82.071858233798309
  0
ARC
  8
0
  6
CONTINUOUS
 62
3
 10
-420.456227316428000
 20
-139.084622397861720
 40
1.500000000000000
 50
180.000000000000000
 51
262.071858233795980
  0
LINE
  8
0
  6
CONTINUOUS
 62
3
 10
-400.831541388762280
 20
-151.280965504745610
 11
-398.210773146693440
 21
-149.767864254703450
  0
ARC
  8
0
  6
CONTINUOUS
 62
3
 10
-401.581541388762280
 20
-149.981927399069040
 40
1.499999999999843
 50
217.928141766204990
 51
300.000000000001590
  0
CIRCLE
  8
0
  6
CONTINUOUS
 62
3
 10
-424.456227316428000
 20
-167.807435630551710
 40
5.000000000000000
  0
ARC
  8
0
  6
CONTINUOUS
 62
3
 10
-418.518973383234080
 20
-159.760758320458310
 40
1.499999999999693
 50
233.578178478195410
 51
300.000000000001590
  0
ARC
  8
0
  6
CONTINUOUS
 62
3
 10
-420.456227316428000
 20
-158.642284240639810
 40
1.500000000000000
 50
180.000000000000000
 51
246.421821521804280
  0
ARC
  8
0
  6
CONTINUOUS
 62
3
 10
-407.281048047383250
 20
-153.272539102671770
 40
1.499999999999926
 50
300.000000000001590
 51
40.240348321182964
  0
ARC
  8
0
  6
CONTINUOUS
 62
3
 10
-420.456227316428000
 20
-155.438118753698750
 40
1.500000000000138
 50
72.079786860605225
 51
180.000000000000000
  0
ARC
  8
0
  6
CONTINUOUS
 62
3
 10
-420.456227316428000
 20
-148.722100946559520
 40
1.500000000000000
 50
180.000000000000000
 51
258.162995844103310
  0
ARC
  8
0
  6
CONTINUOUS
 62
3
 10
-409.927842640362200
 20
-154.800666673417940
 40
1.499999999999967
 50
221.837004155893280
 51
300.000000000001590
  0
ARC
  8
0
  6
CONTINUOUS
 62
3
 10
-420.456227316428000
 20
-145.665845805067190
 40
1.499999999999952
 50
79.759651678814024
 51
180.000000000000000
  0
ARC
  8
0
  6
CONTINUOUS
 62
3
 10
-415.744084673613660
 20
-158.158675576987430
 40
1.499999999999926
 50
300.000000000001590
 51
47.920213139381872
  0
LINE
  8
0
  6
CONTINUOUS
 62
3
 10
-409.177842640362200
 20
-156.099704779094510
 11
-406.531048047383250
 21
-154.571577208348340
  0
ARC
  8
0
  6
CONTINUOUS
 62
3
 10
-424.456227316427770
 20
-167.807435630551710
 40
14.499999999999860
 50
47.920213139391755
 51
72.079786860608309
  0
LINE
  8
0
  6
CONTINUOUS
 62
3
 10
-421.956227316428000
 20
-155.438118753698750
 11
-421.956227316428000
 21
-158.642284240639810
  0
LINE
  8
0
  6
CONTINUOUS
 62
3
 10
-421.956227316428000
 20
-145.665845805067190
 11
-421.956227316428000
 21
-148.722100946559520
  0
LINE
  8
0
  6
CONTINUOUS
 62
3
 10
-417.768973383234080
 20
-161.059796426134880
 11
-414.994084673613660
 21
-159.457713682664010
  0
ARC
  8
0
  6
CONTINUOUS
 62
3
 10
-424.456227316427770
 20
-167.807435630551710
 40
23.999999999999819
 50
40.240348321186090
 51
79.759651678814322
  0
ARC
  8
0
  6
CONTINUOUS
 62
3
 10
-424.456227316427770
 20
-167.807435630551710
 40
8.500000000000101
 50
53.578178478202659
 51
66.421821521799089
  0
ARC
  8
0
  6
CONTINUOUS
 62
3
 10
-411.744084673613660
 20
-170.527992453840620
 40
1.499999999999926
 50
239.999999999998410
 51
347.920213139390400
  0
LINE
  8
0
  6
CONTINUOUS
 62
3
 10
-412.494084673613660
 20
-171.827030559517200
 11
-415.268973383234080
 21
-170.224947816046780
  0
ARC
  8
0
  6
CONTINUOUS
 62
3
 10
-414.518973383234080
 20
-168.925909710370210
 40
1.500000000000099
 50
173.578178478198990
 51
239.999999999998410
  0
ARC
  8
0
  6
CONTINUOUS
 62
3
 10
-424.456227316427770
 20
-167.807435630551710
 40
8.499999999999865
 50
353.578178478199500
 51
6.421821521797448
  0
ARC
  8
0
  6
CONTINUOUS
 62
3
 10
-414.518973383234080
 20
-166.688961550733670
 40
1.499999999999926
 50
120.000000000001620
 51
186.421821521801010
  0
LINE
  8
0
  6
CONTINUOUS
 62
3
 10
-415.268973383234080
 20
-165.389923445057090
 11
-412.494084673613660
 21
-163.787840701586220
  0
ARC
  8
0
  6
CONTINUOUS
 62
3
 10
-411.744084673613660
 20
-165.086878807262790
 40
1.500000000000192
 50
12.079786860592611
 51
120.000000000001620
  0
ARC
  8
0
  6
CONTINUOUS
 62
3
 10
-424.456227316427770
 20
-167.807435630551710
 40
14.500000000000169
 50
347.920213139391310
 51
12.079786860606980
  0
ARC
  8
0
  6
CONTINUOUS
 62
3
 10
-403.281048047383250
 20
-175.414128928156290
 40
1.499999999999926
 50
239.999999999998410
 51
340.240348321188210
  0
LINE
  8
0
  6
CONTINUOUS
 62
3
 10
-404.031048047383250
 20
-176.713167033832860
 11
-406.677842640362200
 21
-175.185039463087150
  0
ARC
  8
0
  6
CONTINUOUS
 62
3
 10
-405.927842640362200
 20
-173.886001357410120
 40
1.500000000000038
 50
161.837004155895410
 51
240.000000000007050
  0
ARC
  8
0
  6
CONTINUOUS
 62
3
 10
-424.456227316427770
 20
-167.807435630551710
 40
17.999999999999943
 50
341.837004155893340
 51
18.162995844106646
  0
ARC
  8
0
  6
CONTINUOUS
 62
3
 10
-405.927842640362200
 20
-161.728869903693290
 40
1.499999999999926
 50
120.000000000001620
 51
198.162995844104590
  0
LINE
  8
0
  6
CONTINUOUS
 62
3
 10
-406.677842640362200
 20
-160.429831798016720
 11
-404.031048047383250
 21
-158.901704227270560
  0
ARC
  8
0
  6
CONTINUOUS
 62
3
 10
-403.281048047383250
 20
-160.200742332947130
 40
1.500000000000246
 50
19.759651678811824
 51
120.000000000001620
  0
ARC
  8
0
  6
CONTINUOUS
 62
3
 10
-424.456227316427770
 20
-167.807435630551710
 40
24.000000000000139
 50
340.240348321186050
 51
19.759651678813924
  0
ARC
  8
0
  6
CONTINUOUS
 62
3
 10
-437.168369959242340
 20
-170.527992453840620
 40
1.500000000000287
 50
192.079786860609600
 51
300.000000000001590
  0
LINE
  8
0
  6
CONTINUOUS
 62
3
 10
-436.418369959242340
 20
-171.827030559517200
 11
-433.643481249621910
 21
-170.224947816046780
  0
ARC
  8
0
  6
CONTINUOUS
 62
3
 10
-434.393481249621910
 20
-168.925909710370210
 40
1.499999999999926
 50
300.000000000001590
 51
6.421821521801967
  0
ARC
  8
0
  6
CONTINUOUS
 62
3
 10
-424.456227316428450
 20
-167.807435630551710
 40
8.499999999999813
 50
173.578178478202550
 51
186.421821521800500
  0
ARC
  8
0
  6
CONTINUOUS
 62
3
 10
-434.393481249621910
 20
-166.688961550733670
 40
1.499999999999873
 50
353.578178478198030
 51
59.999999999998380
  0
LINE
  8
0
  6
CONTINUOUS
 62
3
 10
-433.643481249621910
 20
-165.389923445057090
 11
-436.418369959242570
 21
-163.787840701586220
  0
ARC
  8
0
  6
CONTINUOUS
 62
3
 10
-437.168369959242570
 20
-165.086878807262790
 40
1.499999999999926
 50
59.999999999998380
 51
167.920213139405550
  0
ARC
  8
0
  6
CONTINUOUS
 62
3
 10
-424.456227316428450
 20
-167.807435630551710
 40
14.499999999999851
 50
167.920213139392840
 51
192.079786860608920
  0
ARC
  8
0
  6
CONTINUOUS
 62
3
 10
-445.631406585472750
 20
-175.414128928156290
 40
1.500000000000246
 50
199.759651678811820
 51
300.000000000001590
  0
LINE
  8
0
  6
CONTINUOUS
 62
3
 10
-444.881406585472750
 20
-176.713167033832860
 11
-442.234611992493800
 21
-175.185039463087150
  0
ARC
  8
0
  6
CONTINUOUS
 62
3
 10
-442.984611992493800
 20
-173.886001357410120
 40
1.500000000000320
 50
299.999999999992950
 51
18.162995844104589
  0
ARC
  8
0
  6
CONTINUOUS
 62
3
 10
-424.456227316428450
 20
-167.807435630551710
 40
17.999999999999726
 50
161.837004155893140
 51
198.162995844106860
  0
ARC
  8
0
  6
CONTINUOUS
 62
3
 10
-442.984611992493800
 20
-161.728869903693290
 40
1.500000000000038
 50
341.837004155895390
 51
59.999999999998380
  0
LINE
  8
0
  6
CONTINUOUS
 62
3
 10
-442.234611992493800
 20
-160.429831798016720
 11
-444.881406585472970
 21
-158.901704227270560
  0
ARC
  8
0
  6
CONTINUOUS
 62
3
 10
-445.631406585472970
 20
-160.200742332947130
 40
1.499999999999926
 50
59.999999999998380
 51
160.240348321185250
  0
ARC
  8
0
  6
CONTINUOUS
 62
3
 10
-424.456227316428450
 20
-167.807435630551710
 40
23.999999999999925
 50
160.240348321185910
 51
199.759651678814090
  0
ARC
  8
0
  6
CONTINUOUS
 62
3
 10
-433.168369959242340
 20
-177.456195684116440
 40
1.500000000000320
 50
119.999999999992930
 51
227.920213139381870
  0
LINE
  8
0
  6
CONTINUOUS
 62
3
 10
-433.918369959242340
 20
-176.157157578439410
 11
-431.143481249621910
 21
-174.555074834968990
  0
ARC
  8
0
  6
CONTINUOUS
 62
3
 10
-430.393481249621910
 20
-175.854112940645560
 40
1.500000000000059
 50
53.578178478205707
 51
120.000000000001620
  0
ARC
  8
0
  6
CONTINUOUS
 62
3
 10
-424.456227316428000
 20
-167.807435630552160
 40
8.499999999999870
 50
233.578178478199590
 51
246.421821521797680
  0
ARC
  8
0
  6
CONTINUOUS
 62
3
 10
-428.456227316428000
 20
-176.972587020464060
 40
1.500000000000000
 50
0.000000000017370
 51
66.421821521804304
  0
LINE
  8
0
  6
CONTINUOUS
 62
3
 10
-426.956227316428000
 20
-176.972587020463610
 11
-426.956227316428000
 21
-180.176752507404900
  0
ARC
  8
0
  6
CONTINUOUS
 62
3
 10
-428.456227316428000
 20
-180.176752507404900
 40
1.500000000000355
 50
252.079786860607900
 51
0.000000000000000
  0
ARC
  8
0
  6
CONTINUOUS
 62
3
 10
-424.456227316428000
 20
-167.807435630552160
 40
14.500000000000011
 50
227.920213139391080
 51
252.079786860607410
  0
ARC
  8
0
  6
CONTINUOUS
 62
3
 10
-441.631406585472750
 20
-182.342332158432100
 40
1.499999999999926
 50
120.000000000001620
 51
220.240348321176330
  0
LINE
  8
0
  6
CONTINUOUS
 62
3
 10
-442.381406585472750
 20
-181.043294052755530
 11
-439.734611992493800
 21
-179.515166482009360
  0
ARC
  8
0
  6
CONTINUOUS
 62
3
 10
-438.984611992493800
 20
-180.814204587685940
 40
1.500000000000118
 50
41.837004155899741
 51
120.000000000001620
  0
ARC
  8
0
  6
CONTINUOUS
 62
3
 10
-424.456227316428000
 20
-167.807435630552160
 40
17.999999999999940
 50
221.837004155892320
 51
258.162995844106770
  0
ARC
  8
0
  6
CONTINUOUS
 62
3
 10
-428.456227316428000
 20
-186.892770314544350
 40
1.500000000000000
 50
0.000000000000000
 51
78.162995844101530
  0
LINE
  8
0
  6
CONTINUOUS
 62
3
 10
-426.956227316428000
 20
-186.892770314544350
 11
-426.956227316428000
 21
-189.949025456036680
  0
ARC
  8
0
  6
CONTINUOUS
 62
3
 10
-428.456227316428000
 20
-189.949025456036680
 40
1.499999999999728
 50
259.759651678812470
 51
0.000000000000000
  0
ARC
  8
0
  6
CONTINUOUS
 62
3
 10
-424.456227316428000
 20
-167.807435630552160
 40
23.999999999999844
 50
220.240348321185340
 51
259.759651678813730
  0
ARC
  8
0
  6
CONTINUOUS
 62
3
 10
-415.744084673613660
 20
-177.456195684116440
 40
1.499999999999944
 50
312.079786860618130
 51
60.000000000007070
  0
LINE
  8
0
  6
CONTINUOUS
 62
3
 10
-414.994084673613660
 20
-176.157157578439410
 11
-417.768973383234080
 21
-174.555074834968990
  0
ARC
  8
0
  6
CONTINUOUS
 62
3
 10
-418.518973383234080
 20
-175.854112940645560
 40
1.499999999999926
 50
59.999999999998380
 51
126.421821521801260
  0
ARC
  8
0
  6
CONTINUOUS
 62
3
 10
-424.456227316428000
 20
-167.807435630552160
 40
8.500000000000060
 50
293.578178478202350
 51
306.421821521799190
  0
ARC
  8
0
  6
CONTINUOUS
 62
3
 10
-420.456227316428000
 20
-176.972587020464060
 40
1.500000000000139
 50
113.578178478195690
 51
179.999999999982630
  0
LINE
  8
0
  6
CONTINUOUS
 62
3
 10
-421.956227316428000
 20
-176.972587020463610
 11
-421.956227316428000
 21
-180.176752507404900
  0
ARC
  8
0
  6
CONTINUOUS
 62
3
 10
-420.456227316428000
 20
-180.176752507404900
 40
1.500000000000000
 50
180.000000000000000
 51
287.920213139392100
  0
ARC
  8
0
  6
CONTINUOUS
 62
3
 10
-424.456227316428000
 20
-167.807435630552160
 40
14.500000000000121
 50
287.920213139392560
 51
312.079786860608860
  0
ARC
  8
0
  6
CONTINUOUS
 62
3
 10
-407.281048047383250
 20
-182.342332158432100
 40
1.499999999999828
 50
319.759651678823670
 51
59.999999999998380
  0
LINE
  8
0
  6
CONTINUOUS
 62
3
 10
-406.531048047383250
 20
-181.043294052755530
 11
-409.177842640362200
 21
-179.515166482009360
  0
ARC
  8
0
  6
CONTINUOUS
 62
3
 10
-409.927842640362200
 20
-180.814204587685940
 40
1.499999999999926
 50
59.999999999998380
 51
138.162995844100240
  0
ARC
  8
0
  6
CONTINUOUS
 62
3
 10
-424.456227316428000
 20
-167.807435630552160
 40
18.000000000000146
 50
281.837004155893230
 51
318.162995844107680
  0
ARC
  8
0
  6
CONTINUOUS
 62
3
 10
-420.456227316428000
 20
-186.892770314544350
 40
1.499999999999731
 50
101.837004155898450
 51
180.000000000000000
  0
LINE
  8
0
  6
CONTINUOUS
 62
3
 10
-421.956227316428000
 20
-186.892770314544350
 11
-421.956227316428000
 21
-189.949025456036680
  0
ARC
  8
0
  6
CONTINUOUS
 62
3
 10
-420.456227316428000
 20
-189.949025456036680
 40
1.500000000000000
 50
180.000000000000000
 51
280.240348321187530
  0
ARC
  8
0
  6
CONTINUOUS
 62
3
 10
-424.456227316428000
 20
-167.807435630552160
 40
23.999999999999716
 50
280.240348321186270
 51
319.759651678814690
  0
ARC
  8
0
  6
CONTINUOUS
 62
3
 10
-428.456227316428000
 20
-155.438118753698750
 40
1.500000000000000
 50
0.000000000000000
 51
107.920213139394770
  0
LINE
  8
0
  6
CONTINUOUS
 62
3
 10
-426.956227316428000
 20
-155.438118753698750
 11
-426.956227316428000
 21
-158.642284240639810
  0
ARC
  8
0
  6
CONTINUOUS
 62
3
 10
-428.456227316428000
 20
-158.642284240639810
 40
1.500000000000139
 50
293.578178478195700
 51
0.000000000000000
  0
ARC
  8
0
  6
CONTINUOUS
 62
3
 10
-424.456227316428450
 20
-167.807435630551710
 40
8.499999999999879
 50
113.578178478199500
 51
126.421821521797340
  0
ARC
  8
0
  6
CONTINUOUS
 62
3
 10
-430.393481249621910
 20
-159.760758320458310
 40
1.499999999999926
 50
239.999999999998410
 51
306.421821521797600
  0
LINE
  8
0
  6
CONTINUOUS
 62
3
 10
-431.143481249621910
 20
-161.059796426134880
 11
-433.918369959242570
 21
-159.457713682664010
  0
ARC
  8
0
  6
CONTINUOUS
 62
3
 10
-433.168369959242570
 20
-158.158675576987430
 40
1.499999999999792
 50
132.079786860611680
 51
239.999999999998410
  0
ARC
  8
0
  6
CONTINUOUS
 62
3
 10
-424.456227316428450
 20
-167.807435630551710
 40
14.499999999999980
 50
107.920213139390830
 51
132.079786860607560
  0
ARC
  8
0
  6
CONTINUOUS
 62
3
 10
-428.456227316428000
 20
-145.665845805067190
 40
1.500000000000000
 50
0.000000000000000
 51
100.240348321194510
  0
LINE
  8
0
  6
CONTINUOUS
 62
3
 10
-426.956227316428000
 20
-145.665845805067190
 11
-426.956227316428000
 21
-148.722100946559520
  0
ARC
  8
0
  6
CONTINUOUS
 62
3
 10
-428.456227316428000
 20
-148.722100946559520
 40
1.499999999999954
 50
281.837004155896690
 51
0.000000000000000
  0
ARC
  8
0
  6
CONTINUOUS
 62
3
 10
-424.456227316428450
 20
-167.807435630551710
 40
17.999999999999829
 50
101.837004155891980
 51
138.162995844106210
  0
ARC
  8
0
  6
CONTINUOUS
 62
3
 10
-438.984611992493800
 20
-154.800666673417940
 40
1.499999999999926
 50
239.999999999998410
 51
318.162995844106720
  0
LINE
  8
0
  6
CONTINUOUS
 62
3
 10
-439.734611992493800
 20
-156.099704779094510
 11
-442.381406585472970
 21
-154.571577208348340
  0
ARC
  8
0
  6
CONTINUOUS
 62
3
 10
-441.631406585472970
 20
-153.272539102671770
 40
1.499999999999802
 50
139.759651678811420
 51
239.999999999998410
  0
ARC
  8
0
  6
CONTINUOUS
 62
3
 10
-424.456227316428450
 20
-167.807435630551710
 40
23.999999999999901
 50
100.240348321185670
 51
139.759651678813550
  0
ARC
  8
0
  6
CONTINUOUS
 62
3
 10
-428.456227316428000
 20
-136.058419897777180
 40
1.500000000000000
 50
0.000000000000000
 51
97.180755781458288
  0
LINE
  8
0
  6
CONTINUOUS
 62
3
 10
-426.956227316428000
 20
-136.058419897777180
 11
-426.956227316428000
 21
-139.084622397861720
  0
ARC
  8
0
  6
CONTINUOUS
 62
3
 10
-428.456227316428000
 20
-129.515791633460590
 40
1.499999999999933
 50
275.963570118318330
 51
0.000000000000000
  0
LINE
  8
0
  6
CONTINUOUS
 62
3
 10
-426.956227316428000
 20
-126.500656525906370
 11
-426.956227316428000
 21
-129.515791633460590
  0
LINE
  8
0
  6
CONTINUOUS
 62
3
 10
-389.933507263292650
 20
-190.625888692336280
 11
-392.544690862276750
 21
-189.118321138558940
  0
ARC
  8
0
  6
CONTINUOUS
 62
3
 10
-390.683507263292650
 20
-191.924926798012850
 40
1.499999999999844
 50
324.468928475167900
 51
59.999999999998380
  0
ARC
  8
0
  6
CONTINUOUS
 62
3
 10
-389.294690862276750
 20
-183.489156013960160
 40
1.500000000000063
 50
155.963570118322880
 51
239.999999999998410
  0
LINE
  8
0
  6
CONTINUOUS
 62
3
 10
-387.433507263292650
 20
-186.295761673414060
 11
-390.044690862276750
 21
-184.788194119636730
  0
ARC
  8
0
  6
CONTINUOUS
 62
3
 10
-386.683507263292650
 20
-184.996723567737040
 40
1.500000000000320
 50
240.000000000007050
 51
335.531071524832500
  0
ARC
  8
0
  6
CONTINUOUS
 62
3
 10
-424.456227316428230
 20
-167.807435630552620
 40
42.999999999999936
 50
335.531071524839770
 51
24.468928475160769
  0
ARC
  8
0
  6
CONTINUOUS
 62
3
 10
-424.456227316428230
 20
-167.807435630552620
 40
36.999999999999972
 50
335.963570118321740
 51
24.036429881678870
  0
ARC
  8
0
  6
CONTINUOUS
 62
3
 10
-389.294690862276980
 20
-152.125715247144630
 40
1.500000000000123
 50
119.999999999997270
 51
204.036429881680680
  0
LINE
  8
0
  6
CONTINUOUS
 62
3
 10
-390.044690862276980
 20
-150.826677141467830
 11
-387.433507263292650
 21
-149.319109587690720
  0
ARC
  8
0
  6
CONTINUOUS
 62
3
 10
-386.683507263292650
 20
-150.618147693367520
 40
1.500000000000034
 50
24.468928475159590
 51
119.999999999997270
  0
ARC
  8
0
  6
CONTINUOUS
 62
3
 10
-424.456227316428450
 20
-167.807435630552160
 40
42.999999999999908
 50
35.531071524839248
 51
84.468928475160212
  0
ARC
  8
0
  6
CONTINUOUS
 62
3
 10
-390.683507263293110
 20
-143.689944463091480
 40
1.500000000000123
 50
299.999999999997270
 51
35.531071524839192
  0
ARC
  8
0
  6
CONTINUOUS
 62
3
 10
-420.456227316428000
 20
-129.515791633460590
 40
1.500000000000000
 50
180.000000000000000
 51
264.036429881682580
  0
ARC
  8
0
  6
CONTINUOUS
 62
3
 10
-420.456227316428000
 20
-136.058419897777180
 40
1.499999999999998
 50
82.819244218541712
 51
180.000000000000000
  0
LINE
  8
0
  6
CONTINUOUS
 62
3
 10
-421.956227316428000
 20
-136.058419897777180
 11
-421.956227316428000
 21
-139.084622397861720
  0
LINE
  8
0
  6
CONTINUOUS
 62
3
 10
-392.544690862277210
 20
-146.496550122545390
 11
-389.933507263293110
 21
-144.988982568768280
  0
LINE
  8
0
  6
CONTINUOUS
 62
3
 10
-421.956227316428000
 20
-126.500656525906600
 11
-421.956227316428000
 21
-129.515791633460590
  0
ARC
  8
0
  6
CONTINUOUS
 62
3
 10
-424.456227316428230
 20
-167.807435630551710
 40
27.499999999999815
 50
97.928141766201691
 51
142.071858233797880
  0
ARC
  8
0
  6
CONTINUOUS
 62
3
 10
-424.456227316427770
 20
-167.807435630551710
 40
17.999999999999922
 50
41.837004155893325
 51
78.162995844107314
  0
ARC
  8
0
  6
CONTINUOUS
 62
3
 10
-428.456227316428000
 20
-126.500656525906370
 40
1.500000000000000
 50
0.000000000000000
 51
95.531071524841693
  0
ARC
  8
0
  6
CONTINUOUS
 62
3
 10
-420.456227316428000
 20
-126.500656525906600
 40
1.500000000000203
 50
84.468928475159132
 51
180.000000000000000
  0
ARC
  8
0
  6
CONTINUOUS
 62
3
 10
-424.456227316428000
 20
-408.407435630552070
 40
300.599999999999910
 50
90.000000000000000
 51
98.597082237249069
  0
ARC
  8
0
  6
CONTINUOUS
 62
3
 10
-424.456227316428000
 20
72.792564369447973
 40
300.600000000000140
 50
270.000000000000000
 51
278.597082237249080
  0
ARC
  8
0
  6
CONTINUOUS
 62
3
 10
-380.507639886145510
 20
-117.710821163023860
 40
6.600000000000118
 50
45.000000000001400
 51
81.402917762751386
  0
ARC
  8
0
  6
CONTINUOUS
 62
3
 10
-424.456227316428000
 20
-408.407435630552070
 40
300.599999999999800
 50
81.402917762750931
 51
90.000000000000000
  0
ARC
  8
0
  6
CONTINUOUS
 62
3
 10
-380.507639886145510
 20
-217.904050098080690
 40
6.599999999999747
 50
278.597082237248910
 51
315.000000000000000
  0
ARC
  8
0
  6
CONTINUOUS
 62
3
 10
-424.456227316428000
 20
72.792564369447973
 40
300.600000000000020
 50
261.402917762750920
 51
270.000000000000000
  0
ARC
  8
0
  6
CONTINUOUS
 62
3
 10
-468.404814746710490
 20
-217.904050098080690
 40
6.599999999999957
 50
225.000000000000000
 51
261.402917762751090
  0
LINE
  8
0
  6
CONTINUOUS
 62
3
 10
-375.840735130314330
 20
-113.043916407192680
 11
-368.774286011655360
 21
-120.110365525851640
  0
ARC
  8
0
  6
CONTINUOUS
 62
3
 10
-387.583326391217610
 20
-138.919405905413900
 40
26.600000000000193
 50
6.051985358668552
 51
45.000000000000000
  0
LINE
  8
0
  6
CONTINUOUS
 62
3
 10
-473.071719502541670
 20
-113.043916407192680
 11
-480.138168621200630
 21
-120.110365525851640
  0
ARC
  8
0
  6
CONTINUOUS
 62
3
 10
-461.329128241638390
 20
-138.919405905413900
 40
26.600000000000119
 50
135.000000000000000
 51
173.948014641331410
  0
LINE
  8
0
  6
CONTINUOUS
 62
3
 10
-473.071719502541670
 20
-222.570954853911870
 11
-480.138168621200860
 21
-215.504505735252220
  0
ARC
  8
0
  6
CONTINUOUS
 62
3
 10
-188.856227316427980
 20
-167.807435630552160
 40
300.599999999999970
 50
173.948014641331500
 51
186.051985358668500
  0
ARC
  8
0
  6
CONTINUOUS
 62
3
 10
-461.329128241638390
 20
-196.695465355690430
 40
26.599999999999969
 50
186.051985358668590
 51
224.999999999998980
  0
ARC
  8
0
  6
CONTINUOUS
 62
3
 10
-660.056227316427910
 20
-167.807435630552160
 40
300.600000000000080
 50
353.948014641331500
 51
6.051985358668499
  0
LINE
  8
0
  6
CONTINUOUS
 62
3
 10
-375.840735130314330
 20
-222.570954853911870
 11
-368.774286011654910
 21
-215.504505735252220
  0
ARC
  8
0
  6
CONTINUOUS
 62
3
 10
-387.583326391217380
 20
-196.695465355690430
 40
26.599999999999955
 50
315.000000000001020
 51
353.948014641331380
  0
ARC
  8
0
  6
CONTINUOUS
 62
4
 10
-461.329128241638390
 20
-138.919405905413900
 40
15.396999999999876
 50
135.000000000000000
 51
173.948014641331160
  0
LINE
  8
0
  6
CONTINUOUS
 62
4
 10
-467.640385958929190
 20
-123.456017402845870
 11
-472.216451351567800
 21
-128.032082795484480
  0
ARC
  8
0
  6
CONTINUOUS
 62
4
 10
-188.856227316428090
 20
-167.807435630552160
 40
289.396999999999930
 50
173.948014641331470
 51
180.000000000000000
  0
ARC
  8
0
  6
CONTINUOUS
 62
4
 10
-424.456227316428000
 20
-408.407435630552070
 40
289.396999999999820
 50
82.102011327572214
 51
90.000000000000000
  0
ARC
  8
0
  6
CONTINUOUS
 62
4
 10
-385.514709361045670
 20
-127.698658089965420
 40
6.000000000000049
 50
45.000000000003077
 51
82.102011327574374
  0
LINE
  8
0
  6
CONTINUOUS
 62
4
 10
-381.272068673926580
 20
-123.456017402845870
 11
-376.696003281287970
 21
-128.032082795484480
  0
ARC
  8
0
  6
CONTINUOUS
 62
4
 10
-387.583326391217380
 20
-138.919405905413900
 40
15.397000000000052
 50
6.051985358668849
 51
45.000000000000000
  0
ARC
  8
0
  6
CONTINUOUS
 62
4
 10
-660.056227316427910
 20
-167.807435630552160
 40
289.397000000000160
 50
0.000000000000000
 51
6.051985358668508
  0
ARC
  8
0
  6
CONTINUOUS
 62
4
 10
-424.456227316428000
 20
72.792564369447746
 40
289.396999999999930
 50
270.000000000000000
 51
277.897988672427800
  0
ARC
  8
0
  6
CONTINUOUS
 62
4
 10
-385.514709361045670
 20
-207.916213171138910
 40
5.999999999999923
 50
277.897988672425640
 51
314.999999999996870
  0
LINE
  8
0
  6
CONTINUOUS
 62
4
 10
-381.272068673926580
 20
-212.158853858258450
 11
-376.696003281287970
 21
-207.582788465619840
  0
ARC
  8
0
  6
CONTINUOUS
 62
4
 10
-387.583326391217380
 20
-196.695465355690430
 40
15.396999999999876
 50
315.000000000000000
 51
353.948014641331160
  0
ARC
  8
0
  6
CONTINUOUS
 62
4
 10
-660.056227316427910
 20
-167.807435630552160
 40
289.397000000000160
 50
353.948014641331500
 51
0.000000000000000
  0
ARC
  8
0
  6
CONTINUOUS
 62
4
 10
-424.456227316427770
 20
72.792564369447746
 40
289.396999999999820
 50
262.102011327572200
 51
270.000000000000000
  0
ARC
  8
0
  6
CONTINUOUS
 62
4
 10
-463.397745271810090
 20
-207.916213171138910
 40
6.000000000000049
 50
225.000000000003070
 51
262.102011327574360
  0
LINE
  8
0
  6
CONTINUOUS
 62
4
 10
-467.640385958929190
 20
-212.158853858258450
 11
-472.216451351567800
 21
-207.582788465619840
  0
ARC
  8
0
  6
CONTINUOUS
 62
4
 10
-461.329128241638390
 20
-196.695465355690430
 40
15.397000000000052
 50
186.051985358668840
 51
225.000000000000000
  0
ARC
  8
0
  6
CONTINUOUS
 62
4
 10
-188.856227316427860
 20
-167.807435630552160
 40
289.397000000000160
 50
180.000000000000000
 51
186.051985358668500
  0
TEXT
  8
0
  6
CONTINUOUS
 62
3
 10
-508.134002685546880
 20
179.367248535156250
 40
16.000000000000000
  1
Ｄ０６２
 50
0.000002504478167
 41
0.833333333333333
  7
STANDARD1
  0
TEXT
  8
0
  6
CONTINUOUS
 62
3
 10
-508.134002685546880
 20
158.167251586914060
 40
16.000000000000000
  1
三菱ギヤードモートル
 50
0.000002504478167
 41
0.833333333333333
  7
STANDARD1
  0
TEXT
  8
0
  6
CONTINUOUS
 62
3
 10
-508.134002685546880
 20
136.967254638671880
 40
16.000000000000000
  1
ＧＭ－ＤＦ
 50
0.000002504478167
 41
0.833333333333333
  7
STANDARD1
  0
TEXT
  8
0
  6
CONTINUOUS
 62
3
 10
-508.134002685546880
 20
115.767250061035150
 40
16.000000000000000
  1
０．４（kＷ）
 50
0.000002504478167
 41
0.804878051688032
  7
STANDARD1
  0
TEXT
  8
0
  6
CONTINUOUS
 62
3
 10
-508.134002685546880
 20
94.567245483398438
 40
16.000000000000000
  1
１／２７０～１／４５０
 50
0.000002504478167
 41
0.833333333333333
  7
STANDARD1
  0
TEXT
  8
0
  6
CONTINUOUS
 62
3
 10
-508.134002685546880
 20
73.367248535156250
 40
16.000000000000000
  1
ＳＣＡＬＥ　１／１
 50
0.000002504478167
 41
0.833333333333333
  7
STANDARD1
  0
LINE
  8
0
  6
DASHDOT
 62
4
 10
424.104813114076250
 20
11.284370531964669
 11
424.104813114076250
 21
-335.647594412868780
  0
LINE
  8
0
  6
DASHED
 62
3
 10
310.676872084456140
 20
-224.434177565803570
 11
314.513763006555110
 21
-226.142471466721870
  0
LINE
  8
0
  6
DASHED
 62
3
 10
312.019103006606660
 20
-221.419477555582940
 11
315.855993928705400
 21
-223.127771456501250
  0
LINE
  8
0
  6
DASHED
 62
3
 10
315.678610843606980
 20
-222.665672721249850
 11
315.855993928705400
 21
-223.127771456501250
  0
LINE
  8
0
  6
DASHED
 62
3
 10
314.051664271303930
 20
-226.319854551819840
 11
314.513763006555340
 21
-226.142471466721420
  0
LINE
  8
0
  6
DASHED
 62
3
 10
315.855993928705400
 20
-223.127771456501250
 11
314.513763006555340
 21
-226.142471466721420
  0
LINE
  8
0
  6
DASHED
 62
3
 10
309.300093057255030
 20
-218.183819215255880
 11
306.452936555724140
 21
-224.578637418754170
  0
LINE
  8
0
  6
DASHED
 62
3
 10
309.300093057255030
 20
-218.183819215255880
 11
306.452936555724140
 21
-224.578637418754170
  0
LINE
  8
0
  6
DASHED
 62
3
 10
306.452936555724140
 20
-224.578637418754170
 11
305.558552436047650
 21
-224.180431952989690
  0
LINE
  8
0
  6
DASHED
 62
3
 10
309.300093057255030
 20
-218.183819215255880
 11
308.405708937578540
 21
-217.785613749491630
  0
LINE
  8
0
  6
DASHED
 62
3
 10
353.545384114923540
 20
-128.149923102831050
 11
353.970216274669610
 21
-129.150764951446490
  0
LINE
  8
0
  6
DASHED
 62
3
 10
353.100470369713550
 20
-129.149215735788400
 11
353.233812391907580
 21
-129.463349854237780
  0
LINE
  8
0
  6
DASHED
 62
3
 10
353.970216274669610
 20
-129.150764951446490
 11
353.233812391907580
 21
-129.463349854237780
  0
LINE
  8
0
  6
DASHED
 62
3
 10
350.421167672218190
 20
-125.824373447588860
 11
331.729104091269390
 21
-167.807435630552160
  0
LINE
  8
0
  6
DASHED
 62
3
 10
346.383999740861550
 20
-131.567642353213390
 11
320.428362647325460
 21
-135.826471506206420
  0
LINE
  8
0
  6
DASHED
 62
3
 10
351.741449772936220
 20
-125.317564633022130
 11
354.299377054335540
 21
-126.456427233634250
  0
LINE
  8
0
  6
DASHED
 62
3
 10
352.021651853115830
 20
-131.572281796435160
 11
353.825023043302510
 21
-132.375194380565290
  0
LINE
  8
0
  6
DASHED
 62
3
 10
350.604813114076250
 20
-214.307435630552160
 11
315.185588082747470
 21
-214.307435630552160
  0
LINE
  8
0
  6
DASHED
 62
3
 10
306.024251091216000
 20
-228.000074072050440
 11
308.582178372615770
 21
-229.138936672662570
  0
LINE
  8
0
  6
DASHED
 62
3
 10
331.729104091272570
 20
-167.807435630552160
 11
305.517442276649720
 21
-226.679791971332180
  0
LINE
  8
0
  6
DASHED
 62
3
 10
312.161460831683140
 20
-221.099736645408030
 11
315.678610843606980
 21
-222.665672721249850
  0
LINE
  8
0
  6
DASHED
 62
3
 10
310.534514259379880
 20
-224.753918475978030
 11
314.051664271303930
 21
-226.319854551819840
  0
LINE
  8
0
  6
DASHED
 62
3
 10
355.604813114076250
 20
-135.115830753493130
 11
355.604813114076250
 21
-209.307435630552160
  0
LINE
  8
0
  6
DASHED
 62
3
 10
354.299377054340770
 20
-126.456427233636530
 11
308.582178372615770
 21
-229.138936672662570
  0
LINE
  8
0
  6
DASHDOT
 62
4
 10
331.604813114076250
 20
-199.924911850846460
 11
331.604813114076250
 21
-222.793421026610080
  0
LINE
  8
0
  6
DASHDOT
 62
4
 10
586.187313161401110
 20
-158.307435630504190
 11
284.497701023016590
 21
-158.307435630504190
  0
LINE
  8
0
  6
CONTINUOUS
 62
3
 10
-196.904690581790990
 20
-114.067320530114550
 11
-198.904690581790990
 21
-115.719962169237980
  0
LINE
  8
0
  6
CONTINUOUS
 62
3
 10
-194.904690581790990
 20
-112.891535044491770
 11
-196.904690581790990
 21
-114.067320530114550
  0
LINE
  8
0
  6
CONTINUOUS
 62
3
 10
-196.904690581790990
 20
-114.067320530114550
 11
-194.904690581790990
 21
-115.719962169237980
  0
LINE
  8
0
  6
CONTINUOUS
 62
3
 10
-198.904690581790990
 20
-112.891535044491770
 11
-196.904690581790990
 21
-114.067320530114550
  0
LINE
  8
0
  6
CONTINUOUS
 62
3
 10
-226.070243531232900
 20
-224.190476516331960
 11
-235.795989316253890
 21
-217.380436002948730
  0
LINE
  8
0
  6
CONTINUOUS
 62
3
 10
-236.904690581741420
 20
-167.807435630552160
 11
-236.904690581741420
 21
-215.250640687797610
  0
LINE
  8
0
  6
CONTINUOUS
 62
3
 10
-199.950579744921130
 20
-227.807435630552160
 11
-214.598714804211910
 21
-227.807435630552160
  0
LINE
  8
0
  6
CONTINUOUS
 62
3
 10
-226.070243531232900
 20
-111.424394744772370
 11
-235.795989316253890
 21
-118.234435258155600
  0
LINE
  8
0
  6
CONTINUOUS
 62
3
 10
-236.904690581741420
 20
-167.807435630552160
 11
-236.904690581741420
 21
-120.364230573306710
  0
LINE
  8
0
  6
CONTINUOUS
 62
3
 10
-185.904690581791560
 20
-107.807435630552160
 11
-214.598714804211910
 21
-107.807435630552160
  0
LINE
  8
0
  6
CONTINUOUS
 62
3
 10
-185.904690581791560
 20
-125.210827989946210
 11
-185.904690581791560
 21
-107.807435630552160
  0
LINE
  8
0
  6
CONTINUOUS
 62
3
 10
-206.354690581790580
 20
-136.210827989946210
 11
-206.354690581790580
 21
-217.813547358201960
  0
LINE
  8
0
  6
CONTINUOUS
 62
3
 10
-199.954690581790940
 20
-136.305646193444770
 11
-199.954690581790940
 21
-212.383390400104870
  0
LINE
  8
0
  6
CONTINUOUS
 62
4
 10
-159.904690581791670
 20
-137.807435630551940
 11
-194.954690581790940
 21
-137.807435630551940
  0
LINE
  8
0
  6
CONTINUOUS
 62
3
 10
-159.904690581791670
 20
-131.305646193444770
 11
-194.954690581790940
 21
-131.305646193444770
  0
LINE
  8
0
  6
CONTINUOUS
 62
3
 10
-195.354690581790580
 20
-125.210827989946210
 11
-159.904690581791670
 21
-125.210827989946210
  0
LINE
  8
0
  6
CONTINUOUS
 62
4
 10
-181.555325676401820
 20
-198.540282874846070
 11
-167.121568946661110
 21
-198.540282874846070
  0
LINE
  8
0
  6
CONTINUOUS
 62
4
 10
-159.904690581791670
 20
-186.040282874846070
 11
-167.121568946661110
 21
-198.540282874846070
  0
LINE
  8
0
  6
CONTINUOUS
 62
4
 10
-174.338447311531470
 20
-186.040282874846070
 11
-181.555325676401820
 21
-198.540282874846070
  0
LINE
  8
0
  6
CONTINUOUS
 62
4
 10
-174.338447311531470
 20
-186.040282874846070
 11
-159.904690581791670
 21
-186.040282874846070
  0
LINE
  8
0
  6
CONTINUOUS
 62
4
 10
-167.121568946662020
 20
-173.540282874846300
 11
-159.904690581791670
 21
-186.040282874846070
  0
LINE
  8
0
  6
CONTINUOUS
 62
4
 10
-159.904690581791670
 20
-161.040282874846070
 11
-167.121568946662020
 21
-173.540282874846070
  0
LINE
  8
0
  6
CONTINUOUS
 62
4
 10
-145.470933852051870
 20
-186.040282874846070
 11
-138.254055487181520
 21
-198.540282874846070
  0
LINE
  8
0
  6
CONTINUOUS
 62
4
 10
-138.254055487181520
 20
-198.540282874846070
 11
-152.687812216922230
 21
-198.540282874846070
  0
LINE
  8
0
  6
CONTINUOUS
 62
4
 10
-159.904690581791670
 20
-161.040282874846070
 11
-152.687812216921320
 21
-173.540282874846070
  0
LINE
  8
0
  6
CONTINUOUS
 62
4
 10
-152.687812216921320
 20
-173.540282874846300
 11
-159.904690581791670
 21
-186.040282874846070
  0
LINE
  8
0
  6
CONTINUOUS
 62
4
 10
-145.470933852051870
 20
-186.040282874846070
 11
-159.904690581791670
 21
-186.040282874846070
  0
LINE
  8
0
  6
CONTINUOUS
 62
4
 10
-159.904690581791670
 20
-186.040282874846070
 11
-152.687812216922230
 21
-198.540282874846070
  0
LINE
  8
0
  6
DASHDOT
 62
4
 10
-159.904690581791670
 20
-122.307835797760160
 11
-159.904690581791670
 21
-234.961555222996820
  0
LINE
  8
0
  6
CONTINUOUS
 62
3
 10
-168.392164799185250
 20
-217.383390400104870
 11
-194.954690581790940
 21
-217.383390400104870
  0
LINE
  8
0
  6
CONTINUOUS
 62
3
 10
-195.354690581790580
 20
-227.593337428974790
 11
-159.904690581791670
 21
-227.593337428974790
  0
LINE
  8
0
  6
CONTINUOUS
 62
3
 10
-195.354690581790580
 20
-228.813547358201960
 11
-159.904690581791670
 21
-228.813547358201960
  0
LINE
  8
0
  6
CONTINUOUS
 62
3
 10
-157.904690581791670
 20
-222.242334034780010
 11
-161.904690581791670
 21
-218.588152204209560
  0
LINE
  8
0
  6
CONTINUOUS
 62
3
 10
-161.904690581791670
 20
-222.242334034780010
 11
-157.904690581791670
 21
-218.588152204209560
  0
LINE
  8
0
  6
CONTINUOUS
 62
3
 10
-151.417216364398310
 20
-217.383390400104870
 11
-124.854690581792510
 21
-217.383390400104870
  0
LINE
  8
0
  6
CONTINUOUS
 62
3
 10
-159.904690581791670
 20
-131.305646193444770
 11
-124.854690581792510
 21
-131.305646193444770
  0
LINE
  8
0
  6
CONTINUOUS
 62
4
 10
-159.904690581791670
 20
-137.807435630551940
 11
-124.854690581792510
 21
-137.807435630551940
  0
ARC
  8
0
  6
DASHED
 62
3
 10
351.334713129860800
 20
-126.231110090664740
 40
0.999999999999856
 50
66.000000000020236
 51
155.999999999996390
  0
ARC
  8
0
  6
DASHED
 62
3
 10
307.876951611895490
 20
-218.973222147447130
 40
1.299999237060620
 50
65.999999316753915
 51
139.398468892516150
  0
ARC
  8
0
  6
DASHED
 62
3
 10
345.898251850422870
 20
-128.607228701891240
 40
3.000000000000022
 50
279.318123119682530
 51
336.000000000000400
  0
ARC
  8
0
  6
DASHED
 62
3
 10
322.857102099517080
 20
-150.628539762817350
 40
15.000000000000041
 50
99.318123119675519
 51
178.317231198866920
  0
ARC
  8
0
  6
DASHED
 62
3
 10
907.604813114076250
 20
-167.807435630552390
 40
600.000000000001140
 50
178.317231198866840
 51
184.715124834091600
  0
ARC
  8
0
  6
DASHED
 62
3
 10
308.638764121764550
 20
-217.210594988438740
 40
1.000000000000041
 50
335.999999999996420
 51
4.715124834083239
  0
ARC
  8
0
  6
DASHED
 62
3
 10
352.604813114076250
 20
-135.115830753493130
 40
3.000000000000000
 50
0.000000000000000
 51
66.000000000020236
  0
ARC
  8
0
  6
DASHED
 62
3
 10
350.604813114076250
 20
-209.307435630552160
 40
5.000000000000000
 50
270.000000000000000
 51
0.000000000000000
  0
ARC
  8
0
  6
DASHED
 62
3
 10
306.430987734292330
 20
-227.086528614407830
 40
0.999999999999948
 50
156.000000000008300
 51
245.999999999972630
  0
ARC
  8
0
  6
DASHED
 62
3
 10
309.810125850377740
 20
-214.579673470430860
 40
1.000000000000041
 50
335.999999999996420
 51
66.000000000020236
  0
ARC
  8
0
  6
DASHED
 62
3
 10
311.234799517657170
 20
-211.930070218789300
 40
2.000000000000632
 50
184.231338074886000
 51
245.999999999972630
  0
ARC
  8
0
  6
DASHED
 62
3
 10
907.604813114076250
 20
-167.807435630552390
 40
600.799999999999950
 50
179.412192132293110
 51
182.841389015363350
  0
ARC
  8
0
  6
DASHED
 62
3
 10
308.542213885291630
 20
-197.540282874846070
 40
0.999999999999988
 50
182.841389015366990
 51
236.047873053618590
  0
ARC
  8
0
  6
DASHED
 62
3
 10
307.425213860679150
 20
-199.199291899841230
 40
1.000000000000008
 50
2.994076090848812
 51
56.047873053604029
  0
ARC
  8
0
  6
DASHED
 62
3
 10
306.655005444526070
 20
-160.040282874846070
 40
0.999999999999994
 50
306.205708094031080
 51
359.259505056807090
  0
ARC
  8
0
  6
DASHED
 62
3
 10
307.836377560802480
 20
-161.654085812904210
 40
1.000000000000128
 50
126.205708094041610
 51
179.412192132278280
  0
ARC
  8
0
  6
DASHED
 62
3
 10
306.087309761730920
 20
-222.992823555034190
 40
1.299999237060687
 50
172.601548410320760
 51
246.000017986079880
  0
ARC
  8
0
  6
DASHED
 62
3
 10
313.723205386912240
 20
-223.984342677532820
 40
9.000000000000075
 50
139.398468892516490
 51
172.601548410321070
  0
ARC
  8
0
  6
CONTINUOUS
 62
3
 10
-234.304690581741280
 20
-215.250640687797610
 40
2.600000000000136
 50
180.000000000000000
 51
234.999999999998610
  0
ARC
  8
0
  6
CONTINUOUS
 62
3
 10
-214.598714804211910
 20
-207.807435630552160
 40
20.000000000000007
 50
234.999999999999740
 51
270.000000000000000
  0
ARC
  8
0
  6
CONTINUOUS
 62
3
 10
-234.304690581741280
 20
-120.364230573306710
 40
2.599999999999721
 50
125.000000000001370
 51
180.000000000000000
  0
ARC
  8
0
  6
CONTINUOUS
 62
3
 10
-214.598714804211910
 20
-127.807435630552160
 40
20.000000000000000
 50
90.000000000000000
 51
125.000000000000240
  0
ARC
  8
0
  6
CONTINUOUS
 62
4
 10
-194.954690581790940
 20
-142.807435630551940
 40
5.000000000000000
 50
90.000000000000000
 51
180.000000000000000
  0
ARC
  8
0
  6
CONTINUOUS
 62
3
 10
-194.954690581790940
 20
-136.305646193444770
 40
5.000000000000000
 50
90.000000000000000
 51
180.000000000000000
  0
ARC
  8
0
  6
CONTINUOUS
 62
3
 10
-195.354690581790580
 20
-136.210827989946210
 40
11.000000000000000
 50
90.000000000000000
 51
180.000000000000000
  0
ARC
  8
0
  6
CONTINUOUS
 62
3
 10
-194.954690581790940
 20
-212.383390400104870
 40
5.000000000000000
 50
180.000000000000000
 51
270.000000000000000
  0
ARC
  8
0
  6
CONTINUOUS
 62
3
 10
-195.354690581790580
 20
-217.813547358201960
 40
11.000000000000000
 50
180.000000000000000
 51
270.000000000000000
  0
ARC
  8
0
  6
CONTINUOUS
 62
3
 10
-195.354690581790580
 20
-216.593337428974790
 40
11.000000000000000
 50
180.000000000000000
 51
270.000000000000000
  0
ARC
  8
0
  6
CONTINUOUS
 62
3
 10
-169.164908762404930
 20
-213.383390412955120
 40
3.999999987149749
 50
270.000000000000000
 51
318.821565628880590
  0
ARC
  8
0
  6
CONTINUOUS
 62
3
 10
-168.392164797512010
 20
-213.383390406328540
 40
3.999999993776328
 50
270.000000000000000
 51
313.301579148531630
  0
ARC
  8
0
  6
CONTINUOUS
 62
3
 10
-151.417216366071560
 20
-213.383390406328540
 40
3.999999999999828
 50
226.698420851470790
 51
270.000000000000000
  0
ARC
  8
0
  6
CONTINUOUS
 62
3
 10
-150.644472401178400
 20
-213.383390412955120
 40
4.000000000000156
 50
221.178434371117250
 51
270.000000000000000
  0
POLYLINE
  8
0
  6
CONTINUOUS
 62
3
 66
1
 70
1
  0
VERTEX
  8
0
  6
CONTINUOUS
 62
3
 10
-192.204690581791000
 20
-115.883910598492090
  0
VERTEX
  8
0
  6
CONTINUOUS
 62
3
 10
-192.294999763895820
 20
-115.180953632291730
  0
VERTEX
  8
0
  6
CONTINUOUS
 62
3
 10
-192.562456778987950
 20
-114.505010908079640
  0
VERTEX
  8
0
  6
CONTINUOUS
 62
3
 10
-192.996783403969030
 20
-113.882058525674230
  0
VERTEX
  8
0
  6
CONTINUOUS
 62
3
 10
-193.581288710214210
 20
-113.336036195775660
  0
VERTEX
  8
0
  6
CONTINUOUS
 62
3
 10
-194.293510486598880
 20
-112.887927250309040
  0
VERTEX
  8
0
  6
CONTINUOUS
 62
3
 10
-195.106078449675070
 20
-112.554952264746270
  0
VERTEX
  8
0
  6
CONTINUOUS
 62
3
 10
-195.987766068315180
 20
-112.349907281048030
  0
VERTEX
  8
0
  6
CONTINUOUS
 62
3
 10
-196.904690581790990
 20
-112.280672062947260
  0
VERTEX
  8
0
  6
CONTINUOUS
 62
3
 10
-197.821615095266790
 20
-112.349907281048030
  0
VERTEX
  8
0
  6
CONTINUOUS
 62
3
 10
-198.703302713906910
 20
-112.554952264746270
  0
VERTEX
  8
0
  6
CONTINUOUS
 62
3
 10
-199.515870676983100
 20
-112.887927250309040
  0
VERTEX
  8
0
  6
CONTINUOUS
 62
3
 10
-200.228092453367760
 20
-113.336036195775660
  0
VERTEX
  8
0
  6
CONTINUOUS
 62
3
 10
-200.812597759612940
 20
-113.882058525674230
  0
VERTEX
  8
0
  6
CONTINUOUS
 62
3
 10
-201.246924384594020
 20
-114.505010908079640
  0
VERTEX
  8
0
  6
CONTINUOUS
 62
3
 10
-201.514381399686160
 20
-115.180953632291730
  0
VERTEX
  8
0
  6
CONTINUOUS
 62
3
 10
-201.604690581790980
 20
-115.883910598492090
  0
VERTEX
  8
0
  6
CONTINUOUS
 62
3
 10
-201.514381399686160
 20
-116.586867564692450
  0
VERTEX
  8
0
  6
CONTINUOUS
 62
3
 10
-201.246924384594020
 20
-117.262810288904540
  0
VERTEX
  8
0
  6
CONTINUOUS
 62
3
 10
-200.812597759612940
 20
-117.885762671309940
  0
VERTEX
  8
0
  6
CONTINUOUS
 62
3
 10
-200.228092453367740
 20
-118.431785001208520
  0
VERTEX
  8
0
  6
CONTINUOUS
 62
3
 10
-199.515870676983100
 20
-118.879893946675130
  0
VERTEX
  8
0
  6
CONTINUOUS
 62
3
 10
-198.703302713906910
 20
-119.212868932237910
  0
VERTEX
  8
0
  6
CONTINUOUS
 62
3
 10
-197.821615095266790
 20
-119.417913915936150
  0
VERTEX
  8
0
  6
CONTINUOUS
 62
3
 10
-196.904690581790990
 20
-119.487149134036920
  0
VERTEX
  8
0
  6
CONTINUOUS
 62
3
 10
-195.987766068315180
 20
-119.417913915936150
  0
VERTEX
  8
0
  6
CONTINUOUS
 62
3
 10
-195.106078449675070
 20
-119.212868932237910
  0
VERTEX
  8
0
  6
CONTINUOUS
 62
3
 10
-194.293510486598880
 20
-118.879893946675130
  0
VERTEX
  8
0
  6
CONTINUOUS
 62
3
 10
-193.581288710214240
 20
-118.431785001208520
  0
VERTEX
  8
0
  6
CONTINUOUS
 62
3
 10
-192.996783403969030
 20
-117.885762671309940
  0
VERTEX
  8
0
  6
CONTINUOUS
 62
3
 10
-192.562456778987950
 20
-117.262810288904540
  0
VERTEX
  8
0
  6
CONTINUOUS
 62
3
 10
-192.294999763895820
 20
-116.586867564692450
  0
SEQEND
  8
0
  6
CONTINUOUS
 62
3
  0
POLYLINE
  8
0
  6
CONTINUOUS
 62
3
 66
1
  0
VERTEX
  8
0
  6
CONTINUOUS
 62
3
 10
-159.904690581791670
 20
-213.271160617117570
  0
VERTEX
  8
0
  6
CONTINUOUS
 62
3
 10
-161.331541869206550
 20
-213.388343285768570
  0
VERTEX
  8
0
  6
CONTINUOUS
 62
3
 10
-162.712636746738210
 20
-213.736133466175740
  0
VERTEX
  8
0
  6
CONTINUOUS
 62
3
 10
-164.003686125634860
 20
-214.303378188027100
  0
VERTEX
  8
0
  6
CONTINUOUS
 62
3
 10
-165.163288505206570
 20
-215.071886990812860
  0
VERTEX
  8
0
  6
CONTINUOUS
 62
3
 10
-166.154257640292940
 20
-216.017015257333380
  0
SEQEND
  8
0
  6
CONTINUOUS
 62
3
  0
POLYLINE
  8
0
  6
CONTINUOUS
 62
3
 66
1
  0
VERTEX
  8
0
  6
CONTINUOUS
 62
3
 10
-159.904690581791670
 20
-214.072864655864290
  0
VERTEX
  8
0
  6
CONTINUOUS
 62
3
 10
-161.180730971711400
 20
-214.166432811783120
  0
VERTEX
  8
0
  6
CONTINUOUS
 62
3
 10
-162.424097359159790
 20
-214.444741394439210
  0
VERTEX
  8
0
  6
CONTINUOUS
 62
3
 10
-163.602952384804670
 20
-214.900664097024930
  0
VERTEX
  8
0
  6
CONTINUOUS
 62
3
 10
-164.687110552696590
 20
-215.522526665630490
  0
VERTEX
  8
0
  6
CONTINUOUS
 62
3
 10
-165.648811153271140
 20
-216.294405827557110
  0
SEQEND
  8
0
  6
CONTINUOUS
 62
3
  0
POLYLINE
  8
0
  6
CONTINUOUS
 62
3
 66
1
 70
1
  0
VERTEX
  8
0
  6
CONTINUOUS
 62
3
 10
-156.404690581791670
 20
-221.125930164570490
  0
VERTEX
  8
0
  6
CONTINUOUS
 62
3
 10
-156.471942100380370
 20
-220.452340394524360
  0
VERTEX
  8
0
  6
CONTINUOUS
 62
3
 10
-156.671112218002180
 20
-219.804636301587610
  0
VERTEX
  8
0
  6
CONTINUOUS
 62
3
 10
-156.994546938732750
 20
-219.207708790815130
  0
VERTEX
  8
0
  6
CONTINUOUS
 62
3
 10
-157.429816847638760
 20
-218.684497451685160
  0
VERTEX
  8
0
  6
CONTINUOUS
 62
3
 10
-157.960194766223050
 20
-218.255109002540110
  0
VERTEX
  8
0
  6
CONTINUOUS
 62
3
 10
-158.565298568513870
 20
-217.936044600676840
  0
VERTEX
  8
0
  6
CONTINUOUS
 62
3
 10
-159.221874454735230
 20
-217.739565712125570
  0
VERTEX
  8
0
  6
CONTINUOUS
 62
3
 10
-159.904690581791670
 20
-217.673222910386700
  0
VERTEX
  8
0
  6
CONTINUOUS
 62
3
 10
-160.587506708848110
 20
-217.739565712125570
  0
VERTEX
  8
0
  6
CONTINUOUS
 62
3
 10
-161.244082595069470
 20
-217.936044600676840
  0
VERTEX
  8
0
  6
CONTINUOUS
 62
3
 10
-161.849186397360280
 20
-218.255109002540110
  0
VERTEX
  8
0
  6
CONTINUOUS
 62
3
 10
-162.379564315944580
 20
-218.684497451685160
  0
VERTEX
  8
0
  6
CONTINUOUS
 62
3
 10
-162.814834224850590
 20
-219.207708790815130
  0
VERTEX
  8
0
  6
CONTINUOUS
 62
3
 10
-163.138268945581160
 20
-219.804636301587610
  0
VERTEX
  8
0
  6
CONTINUOUS
 62
3
 10
-163.337439063202960
 20
-220.452340394524360
  0
VERTEX
  8
0
  6
CONTINUOUS
 62
3
 10
-163.404690581791670
 20
-221.125930164570490
  0
VERTEX
  8
0
  6
CONTINUOUS
 62
3
 10
-163.337439063202960
 20
-221.799519934616630
  0
VERTEX
  8
0
  6
CONTINUOUS
 62
3
 10
-163.138268945581160
 20
-222.447224027553370
  0
VERTEX
  8
0
  6
CONTINUOUS
 62
3
 10
-162.814834224850590
 20
-223.044151538325850
  0
VERTEX
  8
0
  6
CONTINUOUS
 62
3
 10
-162.379564315944580
 20
-223.567362877455820
  0
VERTEX
  8
0
  6
CONTINUOUS
 62
3
 10
-161.849186397360280
 20
-223.996751326600870
  0
VERTEX
  8
0
  6
CONTINUOUS
 62
3
 10
-161.244082595069470
 20
-224.315815728464140
  0
VERTEX
  8
0
  6
CONTINUOUS
 62
3
 10
-160.587506708848110
 20
-224.512294617015410
  0
VERTEX
  8
0
  6
CONTINUOUS
 62
3
 10
-159.904690581791670
 20
-224.578637418754280
  0
VERTEX
  8
0
  6
CONTINUOUS
 62
3
 10
-159.221874454735230
 20
-224.512294617015410
  0
VERTEX
  8
0
  6
CONTINUOUS
 62
3
 10
-158.565298568513870
 20
-224.315815728464140
  0
VERTEX
  8
0
  6
CONTINUOUS
 62
3
 10
-157.960194766223050
 20
-223.996751326600870
  0
VERTEX
  8
0
  6
CONTINUOUS
 62
3
 10
-157.429816847638760
 20
-223.567362877455820
  0
VERTEX
  8
0
  6
CONTINUOUS
 62
3
 10
-156.994546938732750
 20
-223.044151538325850
  0
VERTEX
  8
0
  6
CONTINUOUS
 62
3
 10
-156.671112218002180
 20
-222.447224027553370
  0
VERTEX
  8
0
  6
CONTINUOUS
 62
3
 10
-156.471942100380370
 20
-221.799519934616630
  0
SEQEND
  8
0
  6
CONTINUOUS
 62
3
  0
POLYLINE
  8
0
  6
CONTINUOUS
 62
3
 66
1
  0
VERTEX
  8
0
  6
CONTINUOUS
 62
3
 10
-154.160570010312200
 20
-216.294405827557110
  0
VERTEX
  8
0
  6
CONTINUOUS
 62
3
 10
-155.122270610886740
 20
-215.522526665630490
  0
VERTEX
  8
0
  6
CONTINUOUS
 62
3
 10
-156.206428778778670
 20
-214.900664097024930
  0
VERTEX
  8
0
  6
CONTINUOUS
 62
3
 10
-157.385283804423550
 20
-214.444741394439210
  0
VERTEX
  8
0
  6
CONTINUOUS
 62
3
 10
-158.628650191871940
 20
-214.166432811783120
  0
VERTEX
  8
0
  6
CONTINUOUS
 62
3
 10
-159.904690581791670
 20
-214.072864655864290
  0
SEQEND
  8
0
  6
CONTINUOUS
 62
3
  0
POLYLINE
  8
0
  6
CONTINUOUS
 62
3
 66
1
  0
VERTEX
  8
0
  6
CONTINUOUS
 62
3
 10
-153.655123523290630
 20
-216.017015257333100
  0
VERTEX
  8
0
  6
CONTINUOUS
 62
3
 10
-154.646092658377000
 20
-215.071886990812690
  0
VERTEX
  8
0
  6
CONTINUOUS
 62
3
 10
-155.805695037948680
 20
-214.303378188027010
  0
VERTEX
  8
0
  6
CONTINUOUS
 62
3
 10
-157.096744416845240
 20
-213.736133466175690
  0
VERTEX
  8
0
  6
CONTINUOUS
 62
3
 10
-158.477839294376850
 20
-213.388343285768570
  0
VERTEX
  8
0
  6
CONTINUOUS
 62
3
 10
-159.904690581791670
 20
-213.271160617117570
  0
SEQEND
  8
0
  6
CONTINUOUS
 62
3
  0
LINE
  8
0
  6
CONTINUOUS
 62
3
 10
4.595309418208075
 20
-326.307435630504190
 11
14.095309418208075
 21
-326.307435630504190
  0
LINE
  8
0
  6
DASHDOT
 62
4
 10
242.045774393647780
 20
-158.307435630504190
 11
98.687458535652780
 21
-158.307435630504190
  0
LINE
  8
0
  6
DASHDOT
 62
4
 10
-19.634937982605749
 20
-38.307435630505097
 11
-1.535671967314244
 21
-38.307435630505097
  0
LINE
  8
0
  6
CONTINUOUS
 62
3
 10
-13.904690581791925
 20
-18.307435630505097
 11
-9.404690581791925
 21
-18.307435630505097
  0
ARC
  8
0
  6
CONTINUOUS
 62
3
 10
4.595309418208075
 20
-324.307435630504190
 40
2.000000000000000
 50
180.000000000000000
 51
270.000000000000000
  0
ARC
  8
0
  6
CONTINUOUS
 62
3
 10
173.594902039066570
 20
-158.338668181769210
 40
7.000000000000000
 50
90.000000000000000
 51
270.000000000000000
  0
LINE
  8
0
  6
CONTINUOUS
 62
3
 10
236.595309418207650
 20
-151.338668181769210
 11
173.594902039066570
 21
-151.338668181769210
  0
LINE
  8
0
  6
CONTINUOUS
 62
3
 10
236.595309418207650
 20
-165.338668181769210
 11
173.594902039066570
 21
-165.338668181769210
  0
LINE
  8
0
  6
CONTINUOUS
 62
3
 10
236.595309418208100
 20
-158.307435630504190
 11
236.595309418208100
 21
-134.707435630504730
  0
ARC
  8
0
  6
CONTINUOUS
 62
3
 10
236.195309418208470
 20
-134.707435630504730
 40
0.399999999999636
 50
0.000000000000000
 51
90.000000000000000
  0
LINE
  8
0
  6
CONTINUOUS
 62
3
 10
236.195309418208470
 20
-134.307435630504190
 11
164.155117039343480
 21
-134.307435630504190
  0
ARC
  8
0
  6
CONTINUOUS
 62
3
 10
236.195309418208470
 20
-181.907435630503640
 40
0.400000000000546
 50
270.000000000000000
 51
0.000000000000000
  0
LINE
  8
0
  6
CONTINUOUS
 62
3
 10
236.595309418208100
 20
-158.307435630504190
 11
236.595309418208100
 21
-181.907435630503640
  0
LINE
  8
0
  6
CONTINUOUS
 62
3
 10
236.195309418208470
 20
-182.307435630504190
 11
164.155117039343480
 21
-182.307435630504190
  0
LINE
  8
0
  6
CONTINUOUS
 62
3
 10
161.395309418208260
 20
-133.307435630504190
 11
159.595309418208070
 21
-133.307435630504190
  0
LINE
  8
0
  6
CONTINUOUS
 62
3
 10
161.395309418208260
 20
-183.307435630504190
 11
159.595309418208070
 21
-183.307435630504190
  0
LINE
  8
0
  6
CONTINUOUS
 62
3
 10
161.595309418208070
 20
-183.107435630504370
 11
161.395309418208260
 21
-183.307435630504190
  0
ARC
  8
0
  6
CONTINUOUS
 62
3
 10
162.395309418208260
 20
-182.957435630504730
 40
0.800000000001091
 50
90.000000000000000
 51
180.000000000000000
  0
LINE
  8
0
  6
CONTINUOUS
 62
3
 10
161.595309418208070
 20
-182.957435630504730
 11
161.595309418208070
 21
-183.107435630504370
  0
LINE
  8
0
  6
CONTINUOUS
 62
3
 10
163.595309418208070
 20
-182.157435630503640
 11
162.395309418208260
 21
-182.157435630503640
  0
LINE
  8
0
  6
CONTINUOUS
 62
3
 10
163.595309418208070
 20
-182.157435630503640
 11
164.155117039343480
 21
-182.307435630504190
  0
LINE
  8
0
  6
CONTINUOUS
 62
3
 10
161.595309418208070
 20
-158.307435630504190
 11
161.595309418208070
 21
-182.957435630504730
  0
LINE
  8
0
  6
CONTINUOUS
 62
3
 10
161.595309418208070
 20
-133.507435630504010
 11
161.395309418208260
 21
-133.307435630504190
  0
ARC
  8
0
  6
CONTINUOUS
 62
3
 10
162.395309418208260
 20
-133.657435630503640
 40
0.800000000000182
 50
180.000000000000000
 51
270.000000000000000
  0
LINE
  8
0
  6
CONTINUOUS
 62
3
 10
161.595309418208070
 20
-133.657435630503640
 11
161.595309418208070
 21
-133.507435630504010
  0
LINE
  8
0
  6
CONTINUOUS
 62
3
 10
163.595309418208070
 20
-134.457435630504730
 11
162.395309418208260
 21
-134.457435630504730
  0
LINE
  8
0
  6
CONTINUOUS
 62
3
 10
163.595309418208070
 20
-134.457435630504730
 11
164.155117039343480
 21
-134.307435630504190
  0
LINE
  8
0
  6
CONTINUOUS
 62
3
 10
161.595309418208070
 20
-158.307435630504190
 11
161.595309418208070
 21
-133.657435630503640
  0
LINE
  8
0
  6
CONTINUOUS
 62
3
 10
150.095309418208070
 20
-163.307435630504190
 11
145.095309418207850
 21
-163.307435630504190
  0
LINE
  8
0
  6
CONTINUOUS
 62
3
 10
150.095309418208070
 20
-245.212269417600060
 11
145.095309418208070
 21
-245.212269417600060
  0
LINE
  8
0
  6
CONTINUOUS
 62
3
 10
150.095309418208070
 20
-280.452096571176750
 11
145.095309418208070
 21
-280.452096571176750
  0
ARC
  8
0
  6
CONTINUOUS
 62
3
 10
145.095309418208070
 20
-278.452096571176750
 40
2.000000000000000
 50
180.000000000000000
 51
270.000000000000000
  0
LINE
  8
0
  6
CONTINUOUS
 62
3
 10
143.095309418208070
 20
-165.307435630504190
 11
143.095309418208070
 21
-278.452096571176750
  0
ARC
  8
0
  6
CONTINUOUS
 62
3
 10
145.095309418208070
 20
-243.212269417600060
 40
2.000000000000000
 50
180.000000000000000
 51
270.000000000000000
  0
ARC
  8
0
  6
CONTINUOUS
 62
3
 10
145.095309418207850
 20
-165.307435630504190
 40
2.000000000000000
 50
90.000000000000000
 51
180.000000000000000
  0
LINE
  8
0
  6
CONTINUOUS
 62
3
 10
150.095309418208070
 20
-153.307435630504190
 11
145.095309418207850
 21
-153.307435630504190
  0
LINE
  8
0
  6
CONTINUOUS
 62
3
 10
150.095309418208070
 20
-71.402601843408320
 11
145.095309418208070
 21
-71.402601843408320
  0
LINE
  8
0
  6
CONTINUOUS
 62
3
 10
150.095309418208070
 20
-36.162774689831622
 11
145.095309418208070
 21
-36.162774689831622
  0
ARC
  8
0
  6
CONTINUOUS
 62
3
 10
145.095309418208070
 20
-38.162774689831622
 40
2.000000000000000
 50
90.000000000000000
 51
180.000000000000000
  0
LINE
  8
0
  6
CONTINUOUS
 62
3
 10
143.095309418208070
 20
-151.307435630504190
 11
143.095309418208070
 21
-38.162774689831622
  0
ARC
  8
0
  6
CONTINUOUS
 62
3
 10
145.095309418208070
 20
-73.402601843408320
 40
2.000000000000000
 50
90.000000000000000
 51
180.000000000000000
  0
ARC
  8
0
  6
CONTINUOUS
 62
3
 10
145.095309418207850
 20
-151.307435630504190
 40
1.999999999999773
 50
180.000000000000000
 51
270.000000000000000
  0
LINE
  8
0
  6
DASHDOT
 62
4
 10
168.233179049190170
 20
-292.657724055948170
 11
116.078133927507530
 21
-292.657724055948170
  0
LINE
  8
0
  6
DASHDOT
 62
4
 10
168.233179049190170
 20
-23.957147205059982
 11
116.078133927507530
 21
-23.957147205059982
  0
LINE
  8
0
  6
CONTINUOUS
 62
3
 10
130.095309418208070
 20
-312.807435630504190
 11
130.095309418208070
 21
-3.807435630504187
  0
ARC
  8
0
  6
CONTINUOUS
 62
3
 10
158.095309418208070
 20
-231.659082174749300
 40
5.000000000000129
 50
123.367012969230780
 51
143.130102354155980
  0
LINE
  8
0
  6
CONTINUOUS
 62
3
 10
150.095309418208070
 20
-158.307435630504190
 11
150.095309418208070
 21
-315.807435630503730
  0
LINE
  8
0
  6
CONTINUOUS
 62
3
 10
154.095309418208070
 20
-158.307435630504190
 11
154.095309418208070
 21
-302.307435630503730
  0
LINE
  8
0
  6
CONTINUOUS
 62
3
 10
157.595309418208070
 20
-158.307435630504190
 11
157.595309418208070
 21
-223.307435630504190
  0
LINE
  8
0
  6
CONTINUOUS
 62
3
 10
150.095309418208070
 20
-315.807435630503960
 11
133.095309418208070
 21
-315.807435630503960
  0
ARC
  8
0
  6
CONTINUOUS
 62
3
 10
133.095309418208070
 20
-312.807435630504190
 40
3.000000000000000
 50
180.000000000000000
 51
270.000000000000000
  0
ARC
  8
0
  6
CONTINUOUS
 62
3
 10
152.595309418208070
 20
-93.052258464078704
 40
5.000000000000000
 50
0.000000000000000
 51
72.542396876278175
  0
LINE
  8
0
  6
CONTINUOUS
 62
3
 10
154.095309418208070
 20
-158.307435630504190
 11
154.095309418208070
 21
-14.307435630504187
  0
LINE
  8
0
  6
CONTINUOUS
 62
3
 10
157.595309418208300
 20
-158.307435630504190
 11
157.595309418208070
 21
-93.052258464078704
  0
LINE
  8
0
  6
CONTINUOUS
 62
3
 10
150.095309418208070
 20
-158.307435630504190
 11
150.095309418208070
 21
-0.807435630504187
  0
ARC
  8
0
  6
CONTINUOUS
 62
3
 10
158.595309418208070
 20
-203.307435630504190
 40
1.000000000000000
 50
90.000000000000000
 51
180.000000000000000
  0
ARC
  8
0
  6
CONTINUOUS
 62
3
 10
158.595309418208070
 20
-113.307435630504180
 40
1.000000000000000
 50
180.000000000000000
 51
270.000000000000000
  0
ARC
  8
0
  6
CONTINUOUS
 62
3
 10
133.095309418208070
 20
-3.807435630504187
 40
3.000000000000000
 50
90.000000000000000
 51
180.000000000000000
  0
ARC
  8
0
  6
CONTINUOUS
 62
3
 10
139.095309418208070
 20
-318.807435630503960
 40
3.000000000000000
 50
90.000000000000000
 51
180.000000000000000
  0
ARC
  8
0
  6
CONTINUOUS
 62
3
 10
133.095309418208070
 20
-327.207462938110670
 40
2.999999999999980
 50
268.122122552714020
 51
0.000000000000000
  0
ARC
  8
0
  6
CONTINUOUS
 62
3
 10
125.095309418208070
 20
-11.218918070287373
 40
5.000000000000041
 50
314.999999999998120
 51
0.000000000000000
  0
ARC
  8
0
  6
CONTINUOUS
 62
3
 10
90.702481356917446
 20
-45.611746131578457
 40
4.999999999999918
 50
272.000000000001080
 51
315.000000000000000
  0
ARC
  8
0
  6
CONTINUOUS
 62
3
 10
152.595309418208070
 20
-223.307435630504190
 40
4.999999999999939
 50
303.367012969232230
 51
0.000000000000000
  0
LINE
  8
0
  6
CONTINUOUS
 62
3
 10
153.095309418208070
 20
-303.307435630503730
 11
150.095309418208070
 21
-303.307435630503730
  0
LINE
  8
0
  6
CONTINUOUS
 62
3
 10
150.095309418208070
 20
-0.807435630504187
 11
133.095309418208070
 21
-0.807435630504187
  0
LINE
  8
0
  6
CONTINUOUS
 62
3
 10
153.095309418208070
 20
-13.307435630504187
 11
150.095309418208070
 21
-13.307435630504187
  0
LINE
  8
0
  6
CONTINUOUS
 62
3
 10
159.595309418208070
 20
-202.307435630504190
 11
159.595309418208070
 21
-114.307435630504410
  0
LINE
  8
0
  6
CONTINUOUS
 62
3
 10
136.095309418208070
 20
-327.207462938110670
 11
136.095309418208070
 21
-318.807435630503960
  0
LINE
  8
0
  6
CONTINUOUS
 62
3
 10
14.095309418208075
 20
-326.307435630504190
 11
132.997001587745760
 21
-330.205851767210330
  0
LINE
  8
0
  6
CONTINUOUS
 62
3
 10
154.095309418208070
 20
-302.307435630503730
 11
153.095309418208070
 21
-303.307435630503730
  0
LINE
  8
0
  6
CONTINUOUS
 62
3
 10
154.095309418208070
 20
-14.307435630504187
 11
153.095309418208070
 21
-13.307435630504187
  0
LINE
  8
0
  6
CONTINUOUS
 62
3
 10
158.595309418208070
 20
-114.307435630504180
 11
159.595309418208070
 21
-114.307435630504410
  0
LINE
  8
0
  6
CONTINUOUS
 62
3
 10
158.595309418208070
 20
-202.307435630504190
 11
159.595309418208070
 21
-202.307435630504190
  0
LINE
  8
0
  6
CONTINUOUS
 62
3
 10
128.630843324140730
 20
-14.754451976220253
 11
94.238015262850098
 21
-49.147280037511109
  0
LINE
  8
0
  6
CONTINUOUS
 62
3
 10
125.400629563914060
 20
-73.854204467979571
 11
97.557119453553554
 21
-73.854204467979571
  0
ARC
  8
0
  6
CONTINUOUS
 62
3
 10
91.256903548704344
 20
-63.653082810383921
 40
5.000000000000000
 50
270.000000000000000
 51
305.248603455044820
  0
LINE
  8
0
  6
CONTINUOUS
 62
3
 10
127.980935842174710
 20
-43.822976764127588
 11
94.142529972670985
 21
-67.736360922551512
  0
ARC
  8
0
  6
CONTINUOUS
 62
3
 10
91.256903548704344
 20
-68.854204467979571
 40
5.000000000000000
 50
270.000000000000000
 51
305.248603455044820
  0
LINE
  8
0
  6
CONTINUOUS
 62
3
 10
127.980935842174710
 20
-49.024098421723238
 11
94.142529972670985
 21
-72.937482580147162
  0
ARC
  8
0
  6
CONTINUOUS
 62
3
 10
125.095309418208070
 20
-39.739698651959998
 40
5.000000000000143
 50
305.248603455044820
 51
0.000000000000000
  0
ARC
  8
0
  6
CONTINUOUS
 62
3
 10
125.095309418208070
 20
-44.940820309555647
 40
5.000000000000143
 50
305.248603455044820
 51
0.000000000000000
  0
ARC
  8
0
  6
CONTINUOUS
 62
3
 10
321.612453460923010
 20
-234.984134912155010
 40
9.999999999999950
 50
216.800938413478920
 51
344.803706655300350
  0
ARC
  8
0
  6
CONTINUOUS
 62
3
 10
354.156103763498090
 20
-197.129826852430820
 40
10.000000000000089
 50
293.824470809970080
 51
29.030811683541202
  0
ARC
  8
0
  6
CONTINUOUS
 62
3
 10
482.310184908501700
 20
-213.190353685876520
 40
10.000000000000068
 50
136.682825299161440
 51
238.061807908989040
  0
ARC
  8
0
  6
CONTINUOUS
 62
3
 10
506.330931551811090
 20
-256.403640687904950
 40
10.000000000000052
 50
180.074478852622290
 51
309.970383425430270
  0
CIRCLE
  8
0
  6
CONTINUOUS
 62
3
 10
424.104813114076250
 20
-158.307435630504190
 40
70.000000000000000
  0
ARC
  8
0
  6
CONTINUOUS
 62
3
 10
377.584393813012180
 20
-250.187486293418710
 40
48.000000000000021
 50
113.824470809971230
 51
164.803706655299460
  0
ARC
  8
0
  6
CONTINUOUS
 62
3
 10
455.330974640254910
 20
-256.469935630503870
 40
40.999999999999964
 50
0.074478852621535
 51
58.061807908989444
  0
CIRCLE
  8
0
  6
CONTINUOUS
 62
3
 10
424.104813114076250
 20
-158.307435630504190
 40
138.000000000000000
  0
CIRCLE
  8
0
  6
CONTINUOUS
 62
3
 10
424.104813114076250
 20
-158.307435630504190
 40
145.000000000000000
  0
ARC
  8
0
  6
CONTINUOUS
 62
3
 10
271.604813114076250
 20
-34.091706877966089
 40
5.000000000000000
 50
180.000000000000000
 51
225.000000000000000
  0
CIRCLE
  8
0
  6
CONTINUOUS
 62
3
 10
289.754524688632270
 20
-23.957147205059982
 40
12.000000000000000
  0
ARC
  8
0
  6
DASHDOT
 62
4
 10
424.104813114076250
 20
-158.307435630504190
 40
190.000000000000000
 50
129.119041968700370
 51
140.880958031302580
  0
ARC
  8
0
  6
CONTINUOUS
 62
3
 10
299.889084361538150
 20
-5.807435630503960
 40
5.000000000000041
 50
44.999999999998167
 51
90.000000000000000
  0
ARC
  8
0
  6
CONTINUOUS
 62
3
 10
288.959064943448990
 20
-72.659162142935202
 40
10.000000000000107
 50
327.635625093020340
 51
45.000000000000000
  0
ARC
  8
0
  6
CONTINUOUS
 62
3
 10
424.104813114076250
 20
-158.307435630504190
 40
149.999999999999910
 50
147.635625093021160
 51
177.002775457334760
  0
ARC
  8
0
  6
CONTINUOUS
 62
3
 10
338.456539626507260
 20
-23.161687459876930
 40
9.999999999999758
 50
225.000000000000000
 51
302.364374906978530
  0
ARC
  8
0
  6
CONTINUOUS
 62
3
 10
548.320541866614580
 20
-5.807435630504187
 40
5.000000000000000
 50
90.000000000000000
 51
135.000000000001820
  0
CIRCLE
  8
0
  6
CONTINUOUS
 62
3
 10
558.455101539520230
 20
-23.957147205060210
 40
12.000000000000000
  0
ARC
  8
0
  6
CONTINUOUS
 62
3
 10
576.604813114076250
 20
-34.091706877966089
 40
5.000000000000201
 50
315.000000000000000
 51
0.000000000000000
  0
ARC
  8
0
  6
CONTINUOUS
 62
3
 10
509.753086601645240
 20
-23.161687459876930
 40
9.999999999999984
 50
237.635625093021450
 51
314.999999999999090
  0
ARC
  8
0
  6
CONTINUOUS
 62
3
 10
424.104813114076250
 20
-158.307435630504190
 40
150.000000000000060
 50
57.635625093021090
 51
122.364374906978950
  0
ARC
  8
0
  6
CONTINUOUS
 62
3
 10
559.250561284703280
 20
-72.659162142935202
 40
9.999999999999758
 50
135.000000000000000
 51
212.364374906979260
  0
ARC
  8
0
  6
CONTINUOUS
 62
3
 10
576.604813114076250
 20
-282.523164383042510
 40
5.000000000000000
 50
0.000000000002606
 51
45.000000000001855
  0
CIRCLE
  8
0
  6
CONTINUOUS
 62
3
 10
558.455101539520230
 20
-292.657724055948170
 40
12.000000000000000
  0
ARC
  8
0
  6
DASHDOT
 62
4
 10
424.104813114076250
 20
-158.307435630504190
 40
190.000000000000140
 50
309.119041968700400
 51
320.880958031302550
  0
ARC
  8
0
  6
CONTINUOUS
 62
3
 10
548.320541866614350
 20
-310.807435630504190
 40
5.000000000000041
 50
225.000000000001850
 51
270.000000000000000
  0
ARC
  8
0
  6
CONTINUOUS
 62
3
 10
559.250561284703510
 20
-243.955709118073170
 40
9.999999999999984
 50
147.635625093021420
 51
224.999999999999090
  0
ARC
  8
0
  6
CONTINUOUS
 62
3
 10
424.104813114076250
 20
-158.307435630504190
 40
150.000000000000060
 50
327.635625093021080
 51
357.002775457334740
  0
ARC
  8
0
  6
CONTINUOUS
 62
3
 10
509.753086601645240
 20
-293.453183801131220
 40
9.999999999999758
 50
45.000000000000000
 51
122.364374906979250
  0
ARC
  8
0
  6
CONTINUOUS
 62
3
 10
288.959064943449220
 20
-243.955709118073170
 40
9.999999999999758
 50
315.000000000000000
 51
32.364374906979279
  0
ARC
  8
0
  6
CONTINUOUS
 62
3
 10
338.456539626507260
 20
-293.453183801131440
 40
10.000000000000107
 50
57.635625093020330
 51
134.999999999999090
  0
ARC
  8
0
  6
CONTINUOUS
 62
3
 10
299.889084361538150
 20
-310.807435630504190
 40
5.000000000000000
 50
270.000000000000000
 51
315.000000000000000
  0
ARC
  8
0
  6
CONTINUOUS
 62
3
 10
271.604813114076250
 20
-282.523164383042290
 40
5.000000000000041
 50
135.000000000001820
 51
180.000000000000000
  0
ARC
  8
0
  6
CONTINUOUS
 62
3
 10
424.104813114076250
 20
-158.307435630504190
 40
149.999999999999910
 50
237.635625093021160
 51
302.364374906978870
  0
ARC
  8
0
  6
CONTINUOUS
 62
3
 10
566.604813114076250
 20
-15.807435630504187
 40
15.000000000000000
 50
0.000000000000000
 51
90.000000000000000
  0
ARC
  8
0
  6
CONTINUOUS
 62
3
 10
566.604813114076250
 20
-300.807435630504190
 40
15.000000000000000
 50
270.000000000000000
 51
0.000000000000000
  0
ARC
  8
0
  6
CONTINUOUS
 62
3
 10
281.604813114076250
 20
-300.807435630504190
 40
15.000000000000000
 50
180.000000000000000
 51
270.000000000000000
  0
ARC
  8
0
  6
CONTINUOUS
 62
3
 10
281.604813114076250
 20
-15.807435630504187
 40
15.000000000000000
 50
90.000000000000000
 51
180.000000000000000
  0
CIRCLE
  8
0
  6
CONTINUOUS
 62
3
 10
289.754524688632270
 20
-292.657724055948170
 40
12.000000000000000
  0
CIRCLE
  8
0
  6
CONTINUOUS
 62
3
 10
424.104813114076250
 20
-158.307435630504640
 40
34.000000000000000
  0
ARC
  8
0
  6
CONTINUOUS
 62
3
 10
424.104813114076250
 20
-158.307435630504190
 40
149.999999999999910
 50
182.997224542665240
 51
212.364374906978920
  0
ARC
  8
0
  6
CONTINUOUS
 62
3
 10
424.104813114076250
 20
-158.307435630504190
 40
149.999999999999910
 50
2.997224542665233
 51
32.364374906978924
  0
CIRCLE
  8
0
  6
CONTINUOUS
 62
3
 10
424.104813114076250
 20
-158.307435630504640
 40
44.000000000000000
  0
ARC
  8
0
  6
CONTINUOUS
 62
3
 10
344.604813114076250
 20
-318.307435630503730
 40
11.999999999999970
 50
177.134016017401560
 51
270.000000000000000
  0
ARC
  8
0
  6
CONTINUOUS
 62
3
 10
326.629219127479930
 20
-318.244463287005370
 40
5.999999999999909
 50
2.984000447292837
 51
23.964546172534565
  0
ARC
  8
0
  6
CONTINUOUS
 62
3
 10
503.604813114076250
 20
-318.307435630503730
 40
12.000000000000000
 50
270.000000000000000
 51
2.865983982598435
  0
ARC
  8
0
  6
CONTINUOUS
 62
3
 10
521.580407100672570
 20
-318.244463287005370
 40
5.999999999999934
 50
156.035453827466310
 51
177.015999552707170
  0
ARC
  8
0
  6
CONTINUOUS
 62
3
 10
271.314106590413530
 20
-166.307435630504190
 40
3.000000000000193
 50
2.997224542666690
 51
90.000000000000000
  0
ARC
  8
0
  6
CONTINUOUS
 62
3
 10
271.314106590413530
 20
-150.307435630504190
 40
3.000000000000000
 50
270.000000000000000
 51
357.002775457333310
  0
ARC
  8
0
  6
CONTINUOUS
 62
3
 10
576.895519637738970
 20
-150.307435630504190
 40
2.999999999999966
 50
182.997224542666910
 51
270.000000000000000
  0
ARC
  8
0
  6
CONTINUOUS
 62
3
 10
576.895519637738970
 20
-166.307435630504190
 40
3.000000000000000
 50
90.000000000000000
 51
177.002775457333090
  0
ARC
  8
0
  6
CONTINUOUS
 62
3
 10
551.444494704034010
 20
-196.695005136376270
 40
5.000000000000024
 50
343.224145321645440
 51
0.000000000000000
  0
ARC
  8
0
  6
CONTINUOUS
 62
3
 10
296.765131524118490
 20
-196.695005136376270
 40
5.000000000000000
 50
180.000000000000000
 51
196.775854678354560
  0
ARC
  8
0
  6
CONTINUOUS
 62
3
 10
579.604813114076250
 20
-155.307435630504190
 40
2.000000000000000
 50
0.000000000000000
 51
90.000000000000000
  0
ARC
  8
0
  6
CONTINUOUS
 62
3
 10
579.604813114076250
 20
-161.307435630504190
 40
2.000000000000000
 50
270.000000000000000
 51
0.000000000000000
  0
ARC
  8
0
  6
CONTINUOUS
 62
3
 10
268.604813114076250
 20
-155.307435630504190
 40
2.000000000000000
 50
90.000000000000000
 51
180.000000000000000
  0
ARC
  8
0
  6
CONTINUOUS
 62
3
 10
268.604813114076250
 20
-161.307435630504190
 40
2.000000000000000
 50
180.000000000000000
 51
270.000000000000000
  0
ARC
  8
0
  6
CONTINUOUS
 62
3
 10
558.948240836750070
 20
-151.807435630504190
 40
3.000000000000000
 50
270.000000000000000
 51
2.759752678235591
  0
ARC
  8
0
  6
CONTINUOUS
 62
3
 10
558.948240836750070
 20
-164.807435630504190
 40
3.000000000000145
 50
357.240247321764400
 51
90.000000000000000
  0
ARC
  8
0
  6
CONTINUOUS
 62
3
 10
496.814853686200880
 20
-151.807435630504190
 40
3.000000000000029
 50
185.108444450886450
 51
270.000000000000000
  0
ARC
  8
0
  6
CONTINUOUS
 62
3
 10
496.814853686200880
 20
-164.807435630504190
 40
3.000000000000000
 50
90.000000000000000
 51
174.891555549113520
  0
ARC
  8
0
  6
CONTINUOUS
 62
3
 10
449.136045665339680
 20
-163.945606305820770
 40
107.308449038694430
 50
7.943216783021247
 51
87.075476210271674
  0
ARC
  8
0
  6
CONTINUOUS
 62
3
 10
550.462897361515160
 20
-149.807435630504190
 40
5.000000000000000
 50
270.000000000000000
 51
7.943216783020048
  0
ARC
  8
0
  6
CONTINUOUS
 62
3
 10
551.444494704034010
 20
-166.807435630504190
 40
5.000000000000000
 50
0.000000000000000
 51
90.000000000000000
  0
ARC
  8
0
  6
CONTINUOUS
 62
3
 10
430.604813114076250
 20
-23.464007907830137
 40
2.999999999999929
 50
87.240247321759867
 51
180.000000000000000
  0
ARC
  8
0
  6
CONTINUOUS
 62
3
 10
417.604813114076250
 20
-23.464007907830137
 40
3.000000000000000
 50
0.000000000000000
 51
92.759752678235799
  0
ARC
  8
0
  6
CONTINUOUS
 62
3
 10
417.604813114076250
 20
-85.597395058379561
 40
3.000000000000029
 50
275.108444450886450
 51
0.000000000000000
  0
ARC
  8
0
  6
CONTINUOUS
 62
3
 10
430.604813114076250
 20
-85.597395058379561
 40
3.000000000000000
 50
180.000000000000000
 51
264.891555549113550
  0
ARC
  8
0
  6
CONTINUOUS
 62
3
 10
289.261385391402430
 20
-151.807435630504190
 40
3.000000000000145
 50
177.240247321764400
 51
270.000000000000000
  0
ARC
  8
0
  6
CONTINUOUS
 62
3
 10
289.261385391402430
 20
-164.807435630504190
 40
3.000000000000000
 50
90.000000000000000
 51
182.759752678235600
  0
ARC
  8
0
  6
CONTINUOUS
 62
3
 10
351.394772541951620
 20
-164.807435630504190
 40
3.000000000000029
 50
5.108444450886473
 51
90.000000000000000
  0
ARC
  8
0
  6
CONTINUOUS
 62
3
 10
351.394772541951620
 20
-151.807435630504190
 40
3.000000000000000
 50
270.000000000000000
 51
354.891555549113550
  0
ARC
  8
0
  6
CONTINUOUS
 62
3
 10
424.136045665339220
 20
-653.307435630503960
 40
597.308449038694450
 50
87.075476210271702
 51
89.180762713737593
  0
ARC
  8
0
  6
CONTINUOUS
 62
3
 10
432.604813114076250
 20
-61.059532484766123
 40
4.999999999999854
 50
89.180762713737522
 51
180.000000000000000
  0
ARC
  8
0
  6
CONTINUOUS
 62
3
 10
424.073580562813500
 20
-653.307435630503960
 40
597.308449038694680
 50
90.819237286262435
 51
92.924523789728312
  0
ARC
  8
0
  6
CONTINUOUS
 62
3
 10
415.604813114076250
 20
-61.059532484766123
 40
5.000000000000000
 50
0.000000000000000
 51
90.819237286262478
  0
ARC
  8
0
  6
CONTINUOUS
 62
3
 10
399.073580562812820
 20
-163.945606305820770
 40
107.308449038694130
 50
92.924523789728326
 51
172.056783216978630
  0
ARC
  8
0
  6
CONTINUOUS
 62
3
 10
297.746728866637340
 20
-149.807435630504190
 40
4.999999999999872
 50
172.056783216977010
 51
270.000000000000000
  0
ARC
  8
0
  6
CONTINUOUS
 62
3
 10
296.765131524118490
 20
-166.807435630504190
 40
5.000000000000000
 50
90.000000000000000
 51
180.000000000000000
  0
ARC
  8
0
  6
CONTINUOUS
 62
3
 10
486.930860721211270
 20
-207.834072322955080
 40
10.000000000000112
 50
141.750801860498630
 51
236.987251938307910
  0
ARC
  8
0
  6
CONTINUOUS
 62
3
 10
455.330974640254910
 20
-256.469935630503870
 40
48.000000000000185
 50
6.015134369631197
 51
56.987251938308155
  0
ARC
  8
0
  6
CONTINUOUS
 62
3
 10
513.011641142950110
 20
-250.392048513679360
 40
9.999999999999867
 50
186.015134369631200
 51
313.994123956684400
  0
ARC
  8
0
  6
CONTINUOUS
 62
3
 10
316.579634786014370
 20
-227.750477222289870
 40
10.000000000000092
 50
212.855608111867750
 51
339.806925700099780
  0
ARC
  8
0
  6
CONTINUOUS
 62
3
 10
377.584393813012180
 20
-250.187486293418710
 40
55.000000000000135
 50
114.115030123907000
 51
159.806925700100010
  0
ARC
  8
0
  6
CONTINUOUS
 62
3
 10
351.027349943109360
 20
-190.860229312398130
 40
9.999999999999854
 50
294.115030123906250
 51
24.010868112054702
  0
LINE
  8
0
  6
DASHDOT
 62
4
 10
303.543106921770000
 20
-37.745729438197714
 11
275.965942455494770
 21
-10.168564971922251
  0
LINE
  8
0
  6
CONTINUOUS
 62
3
 10
331.385471814641960
 20
-30.232755271742235
 11
303.424618267471030
 21
-2.271901724571308
  0
LINE
  8
0
  6
CONTINUOUS
 62
3
 10
296.030132755314530
 20
-65.588094331069669
 11
268.069279208143600
 21
-37.627240783898742
  0
LINE
  8
0
  6
DASHDOT
 62
4
 10
544.666519306382720
 20
-37.745729438197941
 11
572.243683772657960
 21
-10.168564971922706
  0
LINE
  8
0
  6
CONTINUOUS
 62
3
 10
552.179493472837980
 20
-65.588094331069897
 11
580.140347020009130
 21
-37.627240783898969
  0
LINE
  8
0
  6
CONTINUOUS
 62
3
 10
516.824154413510540
 20
-30.232755271742462
 11
544.785007960681700
 21
-2.271901724571535
  0
LINE
  8
0
  6
DASHDOT
 62
4
 10
544.666519306382500
 20
-278.869141822810660
 11
572.243683772657960
 21
-306.446306289085900
  0
LINE
  8
0
  6
CONTINUOUS
 62
3
 10
516.824154413510540
 20
-286.382115989265910
 11
544.785007960681700
 21
-314.342969536437070
  0
LINE
  8
0
  6
CONTINUOUS
 62
3
 10
552.179493472837980
 20
-251.026776929938480
 11
580.140347020008900
 21
-278.987630477109630
  0
LINE
  8
0
  6
CONTINUOUS
 62
3
 10
331.385471814641960
 20
-286.382115989265910
 11
303.424618267470810
 21
-314.342969536436840
  0
LINE
  8
0
  6
CONTINUOUS
 62
3
 10
296.030132755314530
 20
-251.026776929938480
 11
268.069279208143370
 21
-278.987630477109630
  0
LINE
  8
0
  6
DASHDOT
 62
4
 10
303.543106921769780
 20
-278.869141822810430
 11
275.965942455494540
 21
-306.446306289085900
  0
LINE
  8
0
  6
CONTINUOUS
 62
3
 10
566.604813114076250
 20
-315.807435630504190
 11
281.604813114076250
 21
-315.807435630504190
  0
LINE
  8
0
  6
CONTINUOUS
 62
3
 10
566.604813114076250
 20
-0.807435630504187
 11
281.604813114076250
 21
-0.807435630504187
  0
LINE
  8
0
  6
CONTINUOUS
 62
3
 10
266.604813114076250
 20
-15.807435630504187
 11
266.604813114076250
 21
-300.807435630504190
  0
LINE
  8
0
  6
CONTINUOUS
 62
3
 10
581.604813114076250
 20
-15.807435630504187
 11
581.604813114076250
 21
-300.807435630504190
  0
LINE
  8
0
  6
DASHDOT
 62
4
 10
472.504090764808320
 20
-167.807435630552160
 11
374.641274646445940
 21
-167.807435630552160
  0
LINE
  8
0
  6
CONTINUOUS
 62
3
 10
344.604813114076250
 20
-330.307435630504190
 11
424.104813114076250
 21
-330.307435630504190
  0
LINE
  8
0
  6
CONTINUOUS
 62
3
 10
503.604813114076250
 20
-330.307435630504190
 11
424.104813114076250
 21
-330.307435630504190
  0
LINE
  8
0
  6
CONTINUOUS
 62
3
 10
271.314106590413530
 20
-153.307435630504190
 11
268.604813114076250
 21
-153.307435630504190
  0
LINE
  8
0
  6
CONTINUOUS
 62
3
 10
271.314106590413530
 20
-163.307435630504190
 11
268.604813114076250
 21
-163.307435630504190
  0
LINE
  8
0
  6
CONTINUOUS
 62
3
 10
576.895519637738970
 20
-153.307435630504190
 11
579.604813114076250
 21
-153.307435630504190
  0
LINE
  8
0
  6
CONTINUOUS
 62
3
 10
576.895519637738970
 20
-163.307435630504190
 11
579.604813114076250
 21
-163.307435630504190
  0
LINE
  8
0
  6
CONTINUOUS
 62
3
 10
558.948240836750070
 20
-154.807435630504190
 11
496.814853686200880
 21
-154.807435630504190
  0
LINE
  8
0
  6
CONTINUOUS
 62
3
 10
558.948240836750070
 20
-161.807435630504190
 11
496.814853686200880
 21
-161.807435630504190
  0
LINE
  8
0
  6
CONTINUOUS
 62
3
 10
556.444494704034010
 20
-166.807435630504190
 11
556.444494704034010
 21
-196.695005136376270
  0
LINE
  8
0
  6
CONTINUOUS
 62
3
 10
420.604813114076250
 20
-23.464007907830137
 11
420.604813114076250
 21
-85.597395058379561
  0
LINE
  8
0
  6
CONTINUOUS
 62
3
 10
427.604813114076250
 20
-23.464007907830137
 11
427.604813114076250
 21
-85.597395058379561
  0
LINE
  8
0
  6
CONTINUOUS
 62
3
 10
289.261385391402430
 20
-161.807435630504190
 11
351.394772541951620
 21
-161.807435630504190
  0
LINE
  8
0
  6
CONTINUOUS
 62
3
 10
289.261385391402430
 20
-154.807435630504190
 11
351.394772541951620
 21
-154.807435630504190
  0
LINE
  8
0
  6
CONTINUOUS
 62
3
 10
291.765131524118490
 20
-166.807435630504190
 11
291.765131524118490
 21
-196.695005136376270
  0
LINE
  8
0
  6
CONTINUOUS
 62
3
 10
396.604813114076250
 20
-151.338668181768750
 11
396.604813114076250
 21
-165.338668181768750
  0
LINE
  8
0
  6
CONTINUOUS
 62
3
 10
405.604813114076250
 20
-151.338668181768750
 11
405.604813114076250
 21
-165.338668181768750
  0
ARC
  8
0
  6
CONTINUOUS
 62
3
 10
424.104813114076250
 20
-158.338668181768750
 40
23.999999999999723
 50
196.957763300004330
 51
163.042236699995670
  0
LINE
  8
0
  6
CONTINUOUS
 62
3
 10
396.604813114076250
 20
-151.338668181768750
 11
405.604813114076250
 21
-151.338668181768750
  0
LINE
  8
0
  6
CONTINUOUS
 62
3
 10
396.604813114076250
 20
-165.338668181768750
 11
405.604813114076250
 21
-165.338668181768750
  0
CIRCLE
  8
0
  6
CONTINUOUS
 62
4
 10
424.104813114076250
 20
-158.307435630504640
 40
4.000000000000000
  0
CIRCLE
  8
0
  6
CONTINUOUS
 62
3
 10
424.104813114076250
 20
-158.307435630504640
 40
3.324999999999989
  0
INSERT
  8
0
  2
SYM2
 10
2.595309418208075
 20
-318.307435630503730
  0
ENDSEC
  0
EOF
