  0
SECTION
  2
HEADER
  9
$FILLMODE
 70
1
  9
$TEXTSTYLE
  7
STANDARD1
  9
$ACADVER
  1
AC1009
  9
$DIMASZ
 40
1.931851648807023
  9
$DIMEXE
 40
2.000000000000000
  9
$DIMEXO
 40
1.000000000000000
  9
$DIMLFAC
 40
1.000000000000000
  9
$DIMSCALE
 40
1.000000000000000
  9
$DIMTAD
 70
1
  9
$DIMTFAC
 40
0.714285731315613
  9
$DIMTXT
 40
7.000000000000000
  9
$LUPREC
 70
3
  9
$TEXTSIZE
 40
3.299999952316284
  9
$REGENMODE
 70
1
  0
ENDSEC
  0
SECTION
  2
TABLES
  0
TABLE
  2
LTYPE
 70
4
  0
LTYPE
  2
CONTINUOUS
 70
64
  3
Solid line
 72
65
 73
0
 40
0.0
  0
LTYPE
  2
DASHED
 70
64
  3
-- -- -- -- -- -- -- -- -- -- -- -- -- -- --
 72
65
 73
2
 40
0.75
 49
0.5
 49
-0.25
  0
LTYPE
  2
DASHDOT
 70
64
  3
__ . __ . __ . __ . __ . __ . __ . __ . __ . __
 72
65
 73
4
 40
1.0
 49
0.5
 49
-0.25
 49
0.0
 49
-0.25
  0
LTYPE
  2
DIVIDE
 70
64
  3
__ . . __ . . __ . . __ . . __ . . __ . . __
 72
65
 73
6
 40
1.25
 49
0.5
 49
-0.25
 49
0.0
 49
-0.25
 49
0.0
 49
-0.25
  0
ENDTAB
  0
TABLE
  2
LAYER
 70
1
  0
LAYER
  2
0
 70
64
 62
2
  6
CONTINUOUS
  0
ENDTAB
  0
TABLE
  2
STYLE
 70
4
  0
STYLE
  2
STANDARD1
 70
64
 40
0.0
 41
1.0
 50
0.0
 71
0
 42
3.299999952316284
  3
MONOTXT
  4
BIGFONT
  0
STYLE
  2
STANDARD2
 70
68
 40
0.0
 41
1.0
 50
0.0
 71
0
 42
3.299999952316284
  3
MONOTXT
  4
BIGFONT
  0
STYLE
  2
STANDARD3
 70
64
 40
0.0
 41
1.0
 50
0.0
 71
0
 42
3.299999952316284
  3
MONOTXT
  4

  0
STYLE
  2
STANDARD4
 70
68
 40
0.0
 41
1.0
 50
0.0
 71
0
 42
3.299999952316284
  3
MONOTXT
  4

  0
ENDTAB
  0
TABLE
  2
VIEW
 70
0
  0
ENDTAB
  0
ENDSEC
  0
SECTION
  2
BLOCKS
  0
BLOCK
  8
0
  2
SYM1
 70
64
 10
0.000000000000000
 20
0.000000000000000
  0
ARC
  8
0
  6
CONTINUOUS
 62
3
 10
4.250000000000000
 20
-0.000017508195015
 40
9.750000000000000
 50
157.379852817599810
 51
202.619583464422590
  0
ARC
  8
0
  6
CONTINUOUS
 62
3
 10
-2.779975891113281
 20
5.625011444091797
 40
2.720000267028809
 50
179.999745461767870
 51
223.599738934167330
  0
ARC
  8
0
  6
CONTINUOUS
 62
3
 10
-2.780022621154785
 20
-5.624988555908203
 40
2.720000267028809
 50
136.399751989368410
 51
179.999745461767870
  0
LINE
  8
0
  6
CONTINUOUS
 62
3
 10
-4.749979019169359
 20
3.750014305102241
 11
0.000017610677105
 21
3.749996185290124
  0
LINE
  8
0
  6
CONTINUOUS
 62
3
 10
-4.750011996199395
 20
-3.749974250803856
 11
-0.000011530566302
 21
-3.749994277972148
  0
LINE
  8
0
  6
CONTINUOUS
 62
3
 10
0.000030896794669
 20
7.500000000000000
 11
-0.000030896794669
 21
-7.500000000000000
  0
LINE
  8
0
  6
CONTINUOUS
 62
3
 10
-4.749964714019825
 20
7.500017166133830
 11
0.000031348552056
 21
7.499999046315238
  0
LINE
  8
0
  6
CONTINUOUS
 62
3
 10
-5.499983083855739
 20
6.300024529816085
 11
-4.749977372865317
 21
7.500023360260684
  0
LINE
  8
0
  6
CONTINUOUS
 62
3
 10
-5.500023365026398
 20
-6.299976341312318
 11
-5.499970912939614
 21
6.300019271785827
  0
LINE
  8
0
  6
CONTINUOUS
 62
3
 10
-4.750049139977591
 20
-7.499993996888350
 11
-5.500046248261697
 21
-6.299990408291990
  0
LINE
  8
0
  6
CONTINUOUS
 62
3
 10
-0.000030423851130
 20
-7.499999046330735
 11
-4.750025899805295
 21
-7.499979019174840
  0
POINT
  8
0
  6
CONTINUOUS
 62
3
 10
0.000000000000000
 20
0.000000000000000
  0
ENDBLK
  8
0
  0
BLOCK
  8
0
  2
SYM2
 70
64
 10
0.000000000000000
 20
0.000000000000000
  0
POINT
  8
0
  6
CONTINUOUS
 62
3
 10
0.000000000000000
 20
0.000000000000000
  0
LINE
  8
0
  6
CONTINUOUS
 62
3
 10
0.000000000000000
 20
8.000000000000000
 11
0.000000000000000
 21
-8.000000000000000
  0
LINE
  8
0
  6
CONTINUOUS
 62
3
 10
-10.000000476827037
 20
6.960612565696465
 11
-9.999999523152582
 21
-6.960911482155097
  0
LINE
  8
0
  6
CONTINUOUS
 62
3
 10
0.000000000000000
 20
8.000000000000000
 11
-9.399999618530273
 21
8.000000000000000
  0
LINE
  8
0
  6
CONTINUOUS
 62
3
 10
-0.000000000000000
 20
-8.000000000000000
 11
-9.399999618530273
 21
-8.000000000000000
  0
POINT
  8
0
  6
CONTINUOUS
 62
3
 10
0.000000000000000
 20
0.000000000000000
  0
LINE
  8
0
  6
CONTINUOUS
 62
3
 10
-9.399995837072993
 20
7.999998091430371
 11
-9.999996234594676
 21
6.960609445139085
  0
LINE
  8
0
  6
CONTINUOUS
 62
3
 10
-9.399998831389837
 20
-7.999998896492343
 11
-9.999998372115272
 21
-6.960910396167719
  0
LINE
  8
0
  6
CONTINUOUS
 62
3
 10
-9.399999618530273
 20
8.000000000000000
 11
-9.399999618530273
 21
-8.000000000000000
  0
ENDBLK
  8
0
  0
BLOCK
  8
0
  2
SYM3
 70
64
 10
0.000000000000000
 20
0.000000000000000
  0
POINT
  8
0
  6
CONTINUOUS
 62
3
 10
0.000000000000000
 20
0.000000000000000
  0
LINE
  8
0
  6
CONTINUOUS
 62
3
 10
0.000000000000000
 20
-6.500000000000000
 11
-0.000000000000000
 21
6.500000000000000
  0
LINE
  8
0
  6
CONTINUOUS
 62
3
 10
-7.999999046325684
 20
5.633875846862793
 11
-7.999999046325684
 21
-5.634070396423340
  0
LINE
  8
0
  6
CONTINUOUS
 62
3
 10
0.000000000000000
 20
6.500000000000000
 11
-7.499999046325684
 21
6.500000000000000
  0
LINE
  8
0
  6
CONTINUOUS
 62
3
 10
-0.000000000000000
 20
-6.500000000000000
 11
-7.499998092651367
 21
-6.500000000000000
  0
LINE
  8
0
  6
CONTINUOUS
 62
3
 10
-7.499999203818277
 20
6.499999909101064
 11
-7.999999021366804
 21
5.633876130311293
  0
LINE
  8
0
  6
CONTINUOUS
 62
3
 10
-7.499997911632022
 20
-6.499999445138201
 11
-7.999998623386432
 21
-5.634070287011241
  0
LINE
  8
0
  6
CONTINUOUS
 62
3
 10
-7.499999046325684
 20
6.500000000000000
 11
-7.499999046325684
 21
-6.500000000000000
  0
ENDBLK
  8
0
  0
BLOCK
  8
0
  2
SYM4
 70
64
 10
0.000000000000000
 20
0.000000000000000
  0
POINT
  8
0
  6
CONTINUOUS
 62
3
 10
0.000000000000000
 20
5.633955001831055
  0
POINT
  8
0
  6
CONTINUOUS
 62
3
 10
0.500000119209290
 20
6.500000000000000
  0
LINE
  8
0
  6
CONTINUOUS
 62
3
 10
-0.000004704988612
 20
-3.464098175748802
 11
-2.999997577100373
 21
-1.732046218032735
  0
LINE
  8
0
  6
CONTINUOUS
 62
3
 10
0.000006618601731
 20
3.464096896385627
 11
2.999997425948948
 21
1.732046782136365
  0
LINE
  8
0
  6
CONTINUOUS
 62
3
 10
2.999998112093635
 20
-1.732051392778772
 11
-0.000004464412200
 21
-3.464098365415111
  0
LINE
  8
0
  6
CONTINUOUS
 62
3
 10
0.000006701720849
 20
3.464096999935236
 11
-2.999997939551520
 21
1.732051821705568
  0
LINE
  8
0
  6
CONTINUOUS
 62
3
 10
2.999996662140697
 20
1.732046953225571
 11
2.999997615814979
 21
-1.732051023458999
  0
LINE
  8
0
  6
CONTINUOUS
 62
3
 10
-2.999996662140960
 20
-1.732045999551255
 11
-2.999997615815242
 21
1.732051977133316
  0
POINT
  8
0
  6
CONTINUOUS
 62
3
 10
0.000000000000000
 20
0.000000000000000
  0
CIRCLE
  8
0
  6
CONTINUOUS
 62
3
 10
0.000000000000000
 20
0.000000000000000
 40
6.500000000000000
  0
CIRCLE
  8
0
  6
CONTINUOUS
 62
3
 10
0.000000000000000
 20
0.000000000000000
 40
5.633955001831055
  0
ENDBLK
  8
0
  0
BLOCK
  8
0
  2
SYM5
 70
64
 10
0.000000000000000
 20
0.000000000000000
  0
LINE
  8
0
  6
CONTINUOUS
 62
3
 10
3.999999097720604
 20
-2.309402025869701
 11
-0.000006540038783
 21
-4.618798985645469
  0
LINE
  8
0
  6
CONTINUOUS
 62
3
 10
-3.999998875528718
 20
2.314052870410592
 11
0.000007037532896
 21
4.623449279581905
  0
LINE
  8
0
  6
CONTINUOUS
 62
3
 10
-0.000006538738603
 20
-4.618798907292330
 11
-3.999997310189656
 21
-2.309395428508765
  0
LINE
  8
0
  6
CONTINUOUS
 62
3
 10
3.999998221725946
 20
2.314044355750525
 11
0.000007450274552
 21
4.623449687881021
  0
LINE
  8
0
  6
CONTINUOUS
 62
3
 10
3.999998569010026
 20
2.314043870120289
 11
3.999999522684329
 21
-2.309402594418285
  0
LINE
  8
0
  6
CONTINUOUS
 62
3
 10
-3.999997139938404
 20
-2.309395532903077
 11
-3.999999047287009
 21
2.314052838984130
  0
POINT
  8
0
  6
CONTINUOUS
 62
3
 10
0.000000000000000
 20
0.000000000000000
  0
CIRCLE
  8
0
  6
CONTINUOUS
 62
3
 10
0.000000000000000
 20
0.000000000000000
 40
8.000000000000000
  0
CIRCLE
  8
0
  6
CONTINUOUS
 62
3
 10
0.000000000000000
 20
0.000000000000000
 40
6.960738182067871
  0
ENDBLK
  8
0
  0
BLOCK
  8
0
  2
SYM6
 70
64
 10
0.000000000000000
 20
0.000000000000000
  0
CIRCLE
  8
0
  6
CONTINUOUS
 62
3
 10
0.000000000000000
 20
0.000000000000000
 40
6.500000000000000
  0
LINE
  8
0
  6
CONTINUOUS
 62
3
 10
6.497593715787616
 20
-3.754167812298078
 11
0.002401379516073
 21
-7.504164176415429
  0
LINE
  8
0
  6
CONTINUOUS
 62
3
 10
6.495189094719432
 20
3.749993872743451
 11
6.497592351816327
 21
-3.754165100950397
  0
LINE
  8
0
  6
CONTINUOUS
 62
3
 10
-0.002401208367701
 20
7.504162813807056
 11
6.495187652077846
 21
3.749994904254493
  0
LINE
  8
0
  6
CONTINUOUS
 62
3
 10
-6.497593715787616
 20
3.754167812298078
 11
-0.002401379516073
 21
7.504164176415429
  0
LINE
  8
0
  6
CONTINUOUS
 62
3
 10
-6.495189094719432
 20
-3.749993872743451
 11
-6.497592351816327
 21
3.754165100950397
  0
LINE
  8
0
  6
CONTINUOUS
 62
3
 10
0.002401208367701
 20
-7.504162813807056
 11
-6.495187652077846
 21
-3.749994904254493
  0
POINT
  8
0
  6
CONTINUOUS
 62
3
 10
0.000000000000000
 20
0.000000000000000
  0
ENDBLK
  8
0
  0
BLOCK
  8
0
  2
SYM7
 70
64
 10
0.000000000000000
 20
0.000000000000000
  0
CIRCLE
  8
0
  6
CONTINUOUS
 62
3
 10
0.000000000000000
 20
0.000000000000000
 40
6.500000000000000
  0
LINE
  8
0
  6
CONTINUOUS
 62
3
 10
6.497593715787616
 20
-3.754167812298078
 11
0.002401379516073
 21
-7.504164176415429
  0
LINE
  8
0
  6
CONTINUOUS
 62
3
 10
6.495189094719432
 20
3.749993872743451
 11
6.497592351816327
 21
-3.754165100950397
  0
LINE
  8
0
  6
CONTINUOUS
 62
3
 10
-0.002401208367701
 20
7.504162813807056
 11
6.495187652077846
 21
3.749994904254493
  0
LINE
  8
0
  6
CONTINUOUS
 62
3
 10
-6.497593715787616
 20
3.754167812298078
 11
-0.002401379516073
 21
7.504164176415429
  0
LINE
  8
0
  6
CONTINUOUS
 62
3
 10
-6.495189094719432
 20
-3.749993872743451
 11
-6.497592351816327
 21
3.754165100950397
  0
LINE
  8
0
  6
CONTINUOUS
 62
3
 10
0.002401208367701
 20
-7.504162813807056
 11
-6.495187652077846
 21
-3.749994904254493
  0
POINT
  8
0
  6
CONTINUOUS
 62
3
 10
0.000000000000000
 20
0.000000000000000
  0
ENDBLK
  8
0
  0
ENDSEC
  0
SECTION
  2
ENTITIES
  0
LINE
  8
0
  6
CONTINUOUS
 62
3
 10
439.856316146886000
 20
-198.155803016859860
 11
439.856316146886000
 21
-214.155803016859860
  0
ARC
  8
0
  6
CONTINUOUS
 62
3
 10
471.356316146886000
 20
-206.155803016859860
 40
27.499999999999982
 50
196.912389803425840
 51
163.087610196574160
  0
LINE
  8
0
  6
CONTINUOUS
 62
3
 10
449.856316146886000
 20
-198.155803016859860
 11
439.856316146886000
 21
-198.155803016859830
  0
LINE
  8
0
  6
CONTINUOUS
 62
3
 10
449.856316146886000
 20
-214.155803016859860
 11
439.856316146886000
 21
-214.155803016859830
  0
LINE
  8
0
  6
CONTINUOUS
 62
3
 10
449.856316146886000
 20
-198.155803016859860
 11
449.856316146886000
 21
-214.155803016859860
  0
LINE
  8
0
  6
CONTINUOUS
 62
3
 10
-530.258556261004290
 20
-169.289699048829590
 11
-530.745359652709910
 21
-168.802895657123970
  0
LINE
  8
0
  6
CONTINUOUS
 62
3
 10
-523.611752787590600
 20
-162.642895575415850
 11
-524.098556179296220
 21
-162.156092183710260
  0
LINE
  8
0
  6
CONTINUOUS
 62
3
 10
-530.571694869973040
 20
-169.037152097979200
 11
-523.894595567500120
 21
-162.360052795506280
  0
LINE
  8
0
  6
CONTINUOUS
 62
3
 10
-530.258556261004290
 20
-169.289699048829590
 11
-523.611752787590600
 21
-162.642895575415850
  0
POINT
  8
0
  6
CONTINUOUS
 62
3
 10
-526.935154524297450
 20
-165.966297312122720
  0
ARC
  8
0
  6
CONTINUOUS
 62
3
 10
-524.672412959370380
 20
-168.229038877049760
 40
6.099999427795394
 50
84.601927898109537
 51
185.398089404735120
  0
LINE
  8
0
  6
CONTINUOUS
 62
3
 10
-530.258556261004290
 20
-266.021906984889260
 11
-530.745359652709910
 21
-266.508710376594880
  0
LINE
  8
0
  6
CONTINUOUS
 62
3
 10
-523.611752787590600
 20
-272.668710458302940
 11
-524.098556179296220
 21
-273.155513850008560
  0
LINE
  8
0
  6
CONTINUOUS
 62
3
 10
-530.571694869973040
 20
-266.274453935739590
 11
-523.894595567500120
 21
-272.951553238212510
  0
LINE
  8
0
  6
CONTINUOUS
 62
3
 10
-530.258556261004290
 20
-266.021906984889260
 11
-523.611752787590600
 21
-272.668710458302940
  0
POINT
  8
0
  6
CONTINUOUS
 62
3
 10
-526.935154524297450
 20
-269.345308721596100
  0
ARC
  8
0
  6
CONTINUOUS
 62
3
 10
-524.672412959370380
 20
-267.082567156669090
 40
6.099999427795400
 50
174.601910595264630
 51
275.398072101890420
  0
LINE
  8
0
  6
CONTINUOUS
 62
3
 10
-420.232741378117450
 20
-266.021906984889260
 11
-419.745937986411830
 21
-266.508710376594880
  0
LINE
  8
0
  6
CONTINUOUS
 62
3
 10
-426.879544851531140
 20
-272.668710458302940
 11
-426.392741459825520
 21
-273.155513850008560
  0
LINE
  8
0
  6
CONTINUOUS
 62
3
 10
-419.919602769148640
 20
-266.274453935739590
 11
-426.596702071621560
 21
-272.951553238212510
  0
LINE
  8
0
  6
CONTINUOUS
 62
3
 10
-420.232741378117450
 20
-266.021906984889260
 11
-426.879544851531140
 21
-272.668710458302940
  0
POINT
  8
0
  6
CONTINUOUS
 62
3
 10
-423.556143114824290
 20
-269.345308721596100
  0
ARC
  8
0
  6
CONTINUOUS
 62
3
 10
-425.818884679751310
 20
-267.082567156669090
 40
6.099999427795406
 50
264.601927898108500
 51
5.398089404735375
  0
LINE
  8
0
  6
CONTINUOUS
 62
3
 10
-420.232741378117450
 20
-169.289699048829590
 11
-419.745937986411830
 21
-168.802895657123970
  0
LINE
  8
0
  6
CONTINUOUS
 62
3
 10
-426.879544851531140
 20
-162.642895575415850
 11
-426.392741459825520
 21
-162.156092183710260
  0
LINE
  8
0
  6
CONTINUOUS
 62
3
 10
-419.919602769148640
 20
-169.037152097979200
 11
-426.596702071621560
 21
-162.360052795506280
  0
LINE
  8
0
  6
CONTINUOUS
 62
3
 10
-420.232741378117450
 20
-169.289699048829590
 11
-426.879544851531140
 21
-162.642895575415850
  0
POINT
  8
0
  6
CONTINUOUS
 62
3
 10
-423.556143114824290
 20
-165.966297312122720
  0
ARC
  8
0
  6
CONTINUOUS
 62
3
 10
-425.818884679751310
 20
-168.229038877049760
 40
6.099999427795398
 50
354.601910595264880
 51
95.398072101891529
  0
ARC
  8
0
  6
CONTINUOUS
 62
3
 10
-55.723806193277824
 20
-349.799581615789630
 40
5.000000000000000
 50
0.000000000000000
 51
27.575223151408750
  0
ARC
  8
0
  6
CONTINUOUS
 62
3
 10
-83.541557459279829
 20
-292.212572368991120
 40
2.999999999999671
 50
27.575223151409268
 51
90.000000000000000
  0
LINE
  8
0
  6
CONTINUOUS
 62
3
 10
-73.635637619849149
 20
-289.212572368991000
 11
-80.882345930330985
 21
-289.212572368991120
  0
LINE
  8
0
  6
CONTINUOUS
 62
3
 10
-84.723806193278961
 20
-288.525518818016740
 11
-84.723806193278278
 21
-242.640867949345080
  0
LINE
  8
0
  6
CONTINUOUS
 62
3
 10
-76.531084591842728
 20
-299.155803016859290
 11
-79.723806193277824
 21
-299.155803016859290
  0
LINE
  8
0
  6
CONTINUOUS
 62
3
 10
-71.434081142240984
 20
-290.778694916111820
 11
-56.223788338292479
 21
-323.397273097156020
  0
LINE
  8
0
  6
CONTINUOUS
 62
3
 10
-84.723806193277824
 20
-288.525518818016620
 11
-84.723806193277824
 21
-294.155803016859290
  0
ARC
  8
0
  6
CONTINUOUS
 62
3
 10
-79.723806193277824
 20
-294.155803016859290
 40
5.000000000000000
 50
180.000000000000000
 51
270.000000000000000
  0
ARC
  8
0
  6
CONTINUOUS
 62
3
 10
-89.723806193278733
 20
-288.525518818016620
 40
5.000000000000909
 50
0.000000000000000
 51
87.999999999998934
  0
ARC
  8
0
  6
CONTINUOUS
 62
3
 10
-103.223806193279180
 20
-279.631590068400670
 40
3.000000000000000
 50
0.000000000000000
 51
86.999999999998678
  0
LINE
  8
0
  6
CONTINUOUS
 62
3
 10
-89.549308709766137
 20
-283.528564682921230
 11
-97.328504683386655
 21
-283.256909173495270
  0
LINE
  8
0
  6
CONTINUOUS
 62
3
 10
-100.223806193279180
 20
-280.258736692437990
 11
-100.223806193279180
 21
-279.631590068400670
  0
LINE
  8
0
  6
CONTINUOUS
 62
3
 10
-87.566798324549836
 20
-277.448022043025390
 11
-112.223806193281460
 21
-276.155803016859070
  0
ARC
  8
0
  6
CONTINUOUS
 62
3
 10
-97.223806193279188
 20
-280.258736692437990
 40
3.000000000000000
 50
180.000000000000000
 51
268.000000000000680
  0
ARC
  8
0
  6
CONTINUOUS
 62
3
 10
-87.723806193278733
 20
-280.443910647289040
 40
3.000000000000000
 50
359.999999999997780
 51
86.999999999998678
  0
LINE
  8
0
  6
CONTINUOUS
 62
3
 10
-54.406049592706040
 20
-327.295426416744360
 11
-50.723806193277824
 21
-335.192022869818970
  0
LINE
  8
0
  6
CONTINUOUS
 62
3
 10
-80.882345930330985
 20
-290.823834076761950
 11
-51.291786978362694
 21
-347.485017795407540
  0
LINE
  8
0
  6
DASHDOT
 62
4
 10
-648.115845358680640
 20
-379.025999555976340
 11
-617.672413237680080
 21
-348.582567434975890
  0
ARC
  8
0
  6
DASHDOT
 62
4
 10
-475.245648819560870
 20
-206.155803016855860
 40
225.000000000000090
 50
219.436144867208210
 51
231.090004682237150
  0
LINE
  8
0
  6
DASHDOT
 62
4
 10
-302.375452280441210
 20
-379.025999555976340
 11
-332.818884401441660
 21
-348.582567434975890
  0
ARC
  8
0
  6
DASHDOT
 62
4
 10
-475.245648819560870
 20
-206.155803016855860
 40
225.000000000000030
 50
308.909995317762820
 51
320.563855132791730
  0
LINE
  8
0
  6
DASHDOT
 62
4
 10
-302.375452280441210
 20
-33.285606477734937
 11
-332.818884401441660
 21
-63.729038598735393
  0
ARC
  8
0
  6
DASHDOT
 62
4
 10
-475.245648819560870
 20
-206.155803016855400
 40
225.000000000000000
 50
39.436144867208242
 51
51.090004682237179
  0
ARC
  8
0
  6
DASHDOT
 62
4
 10
-475.245648819560870
 20
-206.155803016855400
 40
225.000000000000030
 50
128.909995317762820
 51
140.563855132791760
  0
LINE
  8
0
  6
DASHDOT
 62
4
 10
-648.115845358680530
 20
-33.285606477734916
 11
-617.672413237680080
 21
-63.729038598735372
  0
LINE
  8
0
  6
DASHDOT
 62
4
 10
-20.846811911997065
 20
-104.155803016859860
 11
-48.025778263843677
 21
-104.155803016859860
  0
INSERT
  8
0
  2
SYM1
 10
-50.723806193277710
 20
-319.795413323648970
 41
-1.000000000000000
 50
180.000000000000000
  0
INSERT
  8
0
  2
SYM1
 10
-50.723806193277710
 20
-192.516192710070750
  0
INSERT
  8
0
  2
SYM2
 10
-15.223807153806206
 20
-110.569982621089360
  0
INSERT
  8
0
  2
SYM2
 10
-15.223807153806206
 20
-186.069982621089370
  0
INSERT
  8
0
  2
SYM2
 10
-15.223807153806206
 20
-286.069982621089370
  0
INSERT
  8
0
  2
SYM2
 10
-15.223807153806206
 20
-387.217046240455600
  0
INSERT
  8
0
  2
SYM3
 10
-30.723806193280666
 20
-104.155803016859860
  0
LINE
  8
0
  6
CONTINUOUS
 62
3
 10
-12.223806193277937
 20
-398.155803016859860
 11
-2.723806193277937
 21
-398.155803016859860
  0
LINE
  8
0
  6
CONTINUOUS
 62
3
 10
-2.723806193277937
 20
-91.155803016859863
 11
-23.223806193277937
 21
-91.155803016859863
  0
LINE
  8
0
  6
CONTINUOUS
 62
3
 10
147.776193806722060
 20
-403.155803016859860
 11
-2.723806193277937
 21
-398.155803016859860
  0
LINE
  8
0
  6
DASHDOT
 62
4
 10
41.276193806722063
 20
-314.155803016859860
 11
-6.723806193277937
 21
-314.155803016859860
  0
LINE
  8
0
  6
DASHDOT
 62
4
 10
17.276193806722063
 20
-290.155803016859860
 11
17.276193806722063
 21
-338.155803016859860
  0
LINE
  8
0
  6
CONTINUOUS
 62
3
 10
-2.723806193277937
 20
-91.155783307648562
 11
132.440987971799700
 21
-86.435724687210723
  0
LINE
  8
0
  6
CONTINUOUS
 62
3
 10
-2.723806193277937
 20
-91.155783307648562
 11
-2.723806193277937
 21
-398.155803016859860
  0
LINE
  8
0
  6
CONTINUOUS
 62
3
 10
5.758741400284748
 20
-89.007719888646079
 11
111.786318074841000
 21
-87.157001653610223
  0
LINE
  8
0
  6
CONTINUOUS
 62
3
 10
6.276193806722063
 20
-80.507719888646079
 11
6.276193806722063
 21
-88.507719888646079
  0
LINE
  8
0
  6
CONTINUOUS
 62
3
 10
22.276193806722063
 20
-80.007719888646079
 11
6.776193806722063
 21
-80.007719888646079
  0
LINE
  8
0
  6
CONTINUOUS
 62
3
 10
22.276193806722063
 20
-80.007719888646079
 11
37.776193806722063
 21
-80.007719888646079
  0
LINE
  8
0
  6
CONTINUOUS
 62
3
 10
-2.723806193277937
 20
-339.155803016859860
 11
140.950691290234890
 21
-344.173027025323790
  0
LINE
  8
0
  6
CONTINUOUS
 62
3
 10
38.276193806722063
 20
-80.507719888646079
 11
38.276193806722063
 21
-88.440125645591252
  0
LINE
  8
0
  6
DASHDOT
 62
4
 10
22.276193806722063
 20
-98.884048427368725
 11
22.276193806722063
 21
-66.715940193033930
  0
LINE
  8
0
  6
CONTINUOUS
 62
3
 10
-19.962126412062730
 20
-158.067729485341260
 11
-40.723806193277937
 21
-159.155803016860770
  0
LINE
  8
0
  6
CONTINUOUS
 62
3
 10
-30.723806193281575
 20
-114.155803016859860
 11
-26.223806193277937
 21
-114.155803016859860
  0
LINE
  8
0
  6
CONTINUOUS
 62
3
 10
-26.223806193277937
 20
-56.155803016859863
 11
-26.223806193277937
 21
-114.155803016859860
  0
LINE
  8
0
  6
CONTINUOUS
 62
3
 10
-30.723806193277937
 20
-56.155803016859863
 11
-26.223806193277937
 21
-56.155803016859863
  0
LINE
  8
0
  6
CONTINUOUS
 62
3
 10
-30.723806193281575
 20
-114.155803016859860
 11
-30.723806193277937
 21
-56.155803016859863
  0
LINE
  8
0
  6
DASHDOT
 62
4
 10
-36.454053594095399
 20
-76.155803016859863
 11
-18.354787578803894
 21
-76.155803016859863
  0
LINE
  8
0
  6
CONTINUOUS
 62
3
 10
-26.223806193277937
 20
-102.569982621089360
 11
-26.223806193277937
 21
-94.155803016859863
  0
LINE
  8
0
  6
CONTINUOUS
 62
3
 10
-19.962126412062730
 20
-155.172545043907120
 11
-40.723806193277937
 21
-156.260618575426630
  0
LINE
  8
0
  6
CONTINUOUS
 62
3
 10
-23.223806193277937
 20
-150.598659604398560
 11
-23.223806193277937
 21
-119.400801015258360
  0
LINE
  8
0
  6
CONTINUOUS
 62
3
 10
-19.962126412062730
 20
-357.139060989813520
 11
-40.723806193277937
 21
-356.050987458294000
  0
LINE
  8
0
  6
CONTINUOUS
 62
3
 10
-15.223806193277937
 20
-240.155803016859860
 11
-15.223806193277937
 21
-94.155803016859863
  0
LINE
  8
0
  6
CONTINUOUS
 62
3
 10
-15.223806193277937
 20
-395.155803016859860
 11
-15.223806193277937
 21
-272.155803016859860
  0
LINE
  8
0
  6
CONTINUOUS
 62
3
 10
-3.223806193277937
 20
-256.155803016859860
 11
-3.223806193277937
 21
-91.155803016859863
  0
LINE
  8
0
  6
CONTINUOUS
 62
3
 10
-21.223806193277937
 20
-266.155803016859860
 11
-21.223806193277937
 21
-246.155803016859860
  0
LINE
  8
0
  6
CONTINUOUS
 62
3
 10
-3.223806193277937
 20
-256.155803016859860
 11
-3.223806193277937
 21
-398.155803016859860
  0
LINE
  8
0
  6
CONTINUOUS
 62
3
 10
-112.223806193277710
 20
-159.155803016859640
 11
-112.223806193277710
 21
-276.155803016859860
  0
LINE
  8
0
  6
CONTINUOUS
 62
3
 10
-112.223806193277820
 20
-159.155803016859640
 11
-112.223806193277820
 21
-276.155803016859750
  0
LINE
  8
0
  6
CONTINUOUS
 62
3
 10
-112.223806193277820
 20
-276.155803016859240
 11
-140.784252415187670
 21
-276.155803016859240
  0
LINE
  8
0
  6
DASHDOT
 62
4
 10
-80.085920727631674
 20
-217.655803016859240
 11
-270.153018731624340
 21
-217.655803016859240
  0
LINE
  8
0
  6
CONTINUOUS
 62
4
 10
-136.773806193279140
 20
-249.406594733233590
 11
-112.223806193277820
 21
-249.406594733233590
  0
LINE
  8
0
  6
CONTINUOUS
 62
4
 10
-136.773806193279140
 20
-253.370340157033130
 11
-112.223806193277820
 21
-253.370340157033130
  0
LINE
  8
0
  6
CONTINUOUS
 62
4
 10
-136.773806193279140
 20
-254.974988072595180
 11
-112.223806193277820
 21
-254.974988072595180
  0
LINE
  8
0
  6
CONTINUOUS
 62
4
 10
-136.773806193279140
 20
-263.021589735328970
 11
-112.223806193277820
 21
-263.021589735328970
  0
LINE
  8
0
  6
CONTINUOUS
 62
4
 10
-136.773806193279140
 20
-267.971337203634730
 11
-112.223806193277820
 21
-267.971337203634730
  0
LINE
  8
0
  6
CONTINUOUS
 62
4
 10
-137.972730745998660
 20
-272.655803016859240
 11
-112.223806193277820
 21
-272.655803016859240
  0
LINE
  8
0
  6
CONTINUOUS
 62
4
 10
-138.550287158844180
 20
-273.655803016859240
 11
-112.223806193277820
 21
-273.655803016859240
  0
LINE
  8
0
  6
CONTINUOUS
 62
4
 10
-139.721375593669220
 20
-275.155803016859240
 11
-112.223806193277820
 21
-275.155803016859240
  0
LINE
  8
0
  6
CONTINUOUS
 62
4
 10
-139.283486597770090
 20
-274.655803016859240
 11
-112.223806193277820
 21
-274.655803016859240
  0
LINE
  8
0
  6
CONTINUOUS
 62
4
 10
-136.773806193279140
 20
-237.655803016859240
 11
-112.223806193277820
 21
-237.655803016859240
  0
LINE
  8
0
  6
CONTINUOUS
 62
4
 10
-136.773806193279140
 20
-243.847736809338870
 11
-112.223806193277820
 21
-243.847736809338870
  0
LINE
  8
0
  6
CONTINUOUS
 62
4
 10
-136.773806193279140
 20
-242.485856473989600
 11
-112.223806193277820
 21
-242.485856473989600
  0
LINE
  8
0
  6
CONTINUOUS
 62
4
 10
-136.773806193279140
 20
-247.938237343428510
 11
-112.223806193277820
 21
-247.938237343428510
  0
LINE
  8
0
  6
CONTINUOUS
 62
3
 10
-112.223806193277820
 20
-159.155803016859240
 11
-209.223806193277710
 21
-159.155803016859240
  0
LINE
  8
0
  6
CONTINUOUS
 62
4
 10
-136.773806193279140
 20
-185.905011300484890
 11
-112.223806193277820
 21
-185.905011300484890
  0
LINE
  8
0
  6
CONTINUOUS
 62
4
 10
-137.573675966826610
 20
-181.941265876685350
 11
-112.223806193277820
 21
-181.941265876685350
  0
LINE
  8
0
  6
CONTINUOUS
 62
4
 10
-138.379546896887180
 20
-180.336617961123300
 11
-112.223806193277820
 21
-180.336617961123300
  0
LINE
  8
0
  6
CONTINUOUS
 62
4
 10
-209.223806193277710
 20
-172.290016298389500
 11
-112.223806193277820
 21
-172.290016298389500
  0
LINE
  8
0
  6
CONTINUOUS
 62
4
 10
-209.223806193277710
 20
-167.340268830083740
 11
-112.223806193277820
 21
-167.340268830083740
  0
LINE
  8
0
  6
CONTINUOUS
 62
4
 10
-209.223806193277710
 20
-162.655803016859240
 11
-112.223806193277820
 21
-162.655803016859240
  0
LINE
  8
0
  6
CONTINUOUS
 62
4
 10
-209.223806193277710
 20
-161.655803016859240
 11
-112.223806193277820
 21
-161.655803016859240
  0
LINE
  8
0
  6
CONTINUOUS
 62
4
 10
-209.223806193277710
 20
-160.155803016859240
 11
-112.223806193277820
 21
-160.155803016859240
  0
LINE
  8
0
  6
CONTINUOUS
 62
4
 10
-209.223806193277710
 20
-160.655803016859240
 11
-112.223806193277820
 21
-160.655803016859240
  0
LINE
  8
0
  6
CONTINUOUS
 62
4
 10
-136.773806193279140
 20
-197.655803016859240
 11
-112.223806193277820
 21
-197.655803016859240
  0
LINE
  8
0
  6
CONTINUOUS
 62
4
 10
-136.773806193279140
 20
-191.463869224379610
 11
-112.223806193277820
 21
-191.463869224379610
  0
LINE
  8
0
  6
CONTINUOUS
 62
4
 10
-136.773806193279140
 20
-192.825749559728880
 11
-112.223806193277820
 21
-192.825749559728880
  0
LINE
  8
0
  6
CONTINUOUS
 62
4
 10
-136.773806193279140
 20
-187.373368690289960
 11
-112.223806193277820
 21
-187.373368690289960
  0
LINE
  8
0
  6
CONTINUOUS
 62
4
 10
-168.790049463538030
 20
-235.888650261153150
 11
-161.573171098667670
 21
-248.388650261153150
  0
LINE
  8
0
  6
CONTINUOUS
 62
4
 10
-161.573171098667670
 20
-248.388650261153150
 11
-176.006927828408380
 21
-248.388650261153150
  0
LINE
  8
0
  6
CONTINUOUS
 62
4
 10
-183.223806193277820
 20
-210.888650261153150
 11
-176.006927828407470
 21
-223.388650261153150
  0
LINE
  8
0
  6
CONTINUOUS
 62
4
 10
-176.006927828407470
 20
-223.388650261153370
 11
-183.223806193277820
 21
-235.888650261153150
  0
LINE
  8
0
  6
CONTINUOUS
 62
4
 10
-168.790049463538030
 20
-235.888650261153150
 11
-183.223806193277820
 21
-235.888650261153150
  0
LINE
  8
0
  6
CONTINUOUS
 62
4
 10
-183.223806193277820
 20
-235.888650261153150
 11
-176.006927828408380
 21
-248.388650261153150
  0
LINE
  8
0
  6
CONTINUOUS
 62
3
 10
-174.736331975884470
 20
-267.231757786411950
 11
-148.173806193278660
 21
-267.231757786411950
  0
LINE
  8
0
  6
CONTINUOUS
 62
3
 10
-147.773806193279030
 20
-278.661914744509030
 11
-183.223806193277820
 21
-278.661914744509030
  0
LINE
  8
0
  6
CONTINUOUS
 62
3
 10
-147.773806193279030
 20
-277.441704815281870
 11
-183.223806193277820
 21
-277.441704815281870
  0
LINE
  8
0
  6
CONTINUOUS
 62
3
 10
-143.173806193278660
 20
-186.154013579751850
 11
-143.173806193278660
 21
-262.231757786411950
  0
LINE
  8
0
  6
CONTINUOUS
 62
3
 10
-136.773806193279030
 20
-186.059195376253290
 11
-136.773806193279030
 21
-267.661914744509030
  0
LINE
  8
0
  6
CONTINUOUS
 62
3
 10
-183.223806193277820
 20
-181.154013579751850
 11
-148.173806193278660
 21
-181.154013579751850
  0
LINE
  8
0
  6
CONTINUOUS
 62
4
 10
-183.223806193277820
 20
-187.655803016859010
 11
-148.173806193278660
 21
-187.655803016859010
  0
LINE
  8
0
  6
CONTINUOUS
 62
3
 10
-147.773806193279030
 20
-175.059195376253290
 11
-183.223806193277820
 21
-175.059195376253290
  0
CIRCLE
  8
0
  6
CONTINUOUS
 62
3
 10
17.276193806722063
 20
-314.155803016859860
 40
15.000000000000000
  0
ARC
  8
0
  6
CONTINUOUS
 62
3
 10
5.776193806722063
 20
-90.007567583802484
 40
1.000000000000014
 50
91.000000000001762
 51
178.726075913068680
  0
ARC
  8
0
  6
CONTINUOUS
 62
3
 10
3.776688144660625
 20
-89.963102908119254
 40
0.999999999999934
 50
287.183957065598410
 51
358.726075913069280
  0
ARC
  8
0
  6
CONTINUOUS
 62
3
 10
6.776193806722063
 20
-80.507719888646079
 40
0.500000000000000
 50
90.000000000000000
 51
180.000000000000000
  0
ARC
  8
0
  6
CONTINUOUS
 62
3
 10
37.776193806722063
 20
-80.507719888646079
 40
0.500000000000000
 50
0.000000000000000
 51
90.000000000000000
  0
ARC
  8
0
  6
CONTINUOUS
 62
3
 10
6.776193806721608
 20
-88.507719888646079
 40
0.499999999999545
 50
180.000000000000000
 51
255.651500191095270
  0
ARC
  8
0
  6
CONTINUOUS
 62
3
 10
-20.223806193277937
 20
-153.074581811568350
 40
5.000000000000066
 50
273.000000000005570
 51
0.000000000000000
  0
ARC
  8
0
  6
CONTINUOUS
 62
3
 10
-20.223806193277937
 20
-150.179397370134210
 40
5.000000000000066
 50
273.000000000005570
 51
0.000000000000000
  0
ARC
  8
0
  6
CONTINUOUS
 62
3
 10
-28.223806193277937
 20
-119.400801015258360
 40
5.000000000000000
 50
0.000000000000000
 51
9.564841603927883
  0
ARC
  8
0
  6
CONTINUOUS
 62
3
 10
-23.223806193277937
 20
-94.155803016859863
 40
3.000000000000000
 50
90.000000000000000
 51
180.000000000000000
  0
ARC
  8
0
  6
CONTINUOUS
 62
3
 10
-28.223806193277937
 20
-150.598659604398560
 40
5.000000000000066
 50
273.000000000005570
 51
0.000000000000000
  0
ARC
  8
0
  6
CONTINUOUS
 62
3
 10
-20.223806193277937
 20
-362.132208663586430
 40
5.000000000000000
 50
0.000000000000000
 51
86.999999999994429
  0
ARC
  8
0
  6
CONTINUOUS
 62
3
 10
-12.223806193277937
 20
-94.155803016859863
 40
3.000000000000000
 50
90.000000000000000
 51
180.000000000000000
  0
ARC
  8
0
  6
CONTINUOUS
 62
3
 10
-18.223806193277937
 20
-272.155803016859860
 40
3.000000000000000
 50
0.000000000000000
 51
90.000000000000000
  0
ARC
  8
0
  6
CONTINUOUS
 62
3
 10
-18.223806193277937
 20
-240.155803016859860
 40
3.000000000000000
 50
270.000000000000000
 51
0.000000000000000
  0
ARC
  8
0
  6
CONTINUOUS
 62
3
 10
-18.223806193277937
 20
-266.155803016859860
 40
3.000000000000000
 50
180.000000000000000
 51
270.000000000000000
  0
ARC
  8
0
  6
CONTINUOUS
 62
3
 10
-18.223806193277937
 20
-246.155803016859860
 40
3.000000000000000
 50
90.000000000000000
 51
180.000000000000000
  0
ARC
  8
0
  6
CONTINUOUS
 62
3
 10
-12.223806193277937
 20
-395.155803016859860
 40
3.000000000000000
 50
180.000000000000000
 51
270.000000000000000
  0
ARC
  8
0
  6
CONTINUOUS
 62
3
 10
-174.736331977557710
 20
-263.231757792635620
 40
3.999999999999828
 50
226.698420851470790
 51
270.000000000000000
  0
ARC
  8
0
  6
CONTINUOUS
 62
3
 10
-173.963588012664560
 20
-263.231757799262200
 40
4.000000000000156
 50
221.178434371117250
 51
270.000000000000000
  0
ARC
  8
0
  6
CONTINUOUS
 62
3
 10
-147.773806193279030
 20
-266.441704815281870
 40
11.000000000000000
 50
270.000000000000000
 51
0.000000000000000
  0
ARC
  8
0
  6
CONTINUOUS
 62
3
 10
-147.773806193279030
 20
-267.661914744509030
 40
11.000000000000000
 50
270.000000000000000
 51
0.000000000000000
  0
ARC
  8
0
  6
CONTINUOUS
 62
3
 10
-148.173806193278660
 20
-262.231757786411950
 40
5.000000000000000
 50
270.000000000000000
 51
0.000000000000000
  0
ARC
  8
0
  6
CONTINUOUS
 62
3
 10
-148.173806193278660
 20
-186.154013579751850
 40
5.000000000000000
 50
0.000000000000000
 51
90.000000000000000
  0
ARC
  8
0
  6
CONTINUOUS
 62
4
 10
-148.173806193278660
 20
-192.655803016859010
 40
5.000000000000000
 50
0.000000000000000
 51
90.000000000000000
  0
ARC
  8
0
  6
CONTINUOUS
 62
3
 10
-147.773806193279030
 20
-186.059195376253290
 40
11.000000000000000
 50
0.000000000000000
 51
90.000000000000000
  0
POLYLINE
  8
0
  6
CONTINUOUS
 62
3
 66
1
  0
VERTEX
  8
0
  6
CONTINUOUS
 62
3
 10
-176.974239134776780
 20
-265.865382643640200
  0
VERTEX
  8
0
  6
CONTINUOUS
 62
3
 10
-177.965208269863150
 20
-264.920254377119760
  0
VERTEX
  8
0
  6
CONTINUOUS
 62
3
 10
-179.124810649434830
 20
-264.151745574334090
  0
VERTEX
  8
0
  6
CONTINUOUS
 62
3
 10
-180.415860028331390
 20
-263.584500852482730
  0
VERTEX
  8
0
  6
CONTINUOUS
 62
3
 10
-181.796954905863000
 20
-263.236710672075620
  0
VERTEX
  8
0
  6
CONTINUOUS
 62
3
 10
-183.223806193277820
 20
-263.119528003424650
  0
SEQEND
  8
0
  6
CONTINUOUS
 62
3
  0
ARC
  8
0
  6
CONTINUOUS
 62
3
 10
-23.223806193277937
 20
-114.155803016859860
 40
3.000000000000000
 50
180.000000000000000
 51
228.189670711319220
  0
POINT
  8
0
  6
CONTINUOUS
 62
3
 10
-50.723806193277824
 20
-351.155803016858780
  0
LINE
  8
0
  6
DASHDOT
 62
4
 10
-70.723806193277824
 20
-183.899915008577920
 11
-70.723806193277824
 21
-155.260012747762460
  0
LINE
  8
0
  6
CONTINUOUS
 62
3
 10
-40.723806193277824
 20
-356.155803016858780
 11
-40.723806193277824
 21
-337.155803016858560
  0
ARC
  8
0
  6
CONTINUOUS
 62
3
 10
-47.723806193277824
 20
-353.155803016858780
 40
3.000000000000000
 50
180.000000000000000
 51
270.000000000000000
  0
LINE
  8
0
  6
CONTINUOUS
 62
3
 10
-47.723806193277824
 20
-356.155803016858780
 11
-40.723806193277824
 21
-356.155803016858780
  0
LINE
  8
0
  6
CONTINUOUS
 62
3
 10
-50.723806193277824
 20
-335.192022869818460
 11
-50.723806193277824
 21
-353.155803016858780
  0
LINE
  8
0
  6
CONTINUOUS
 62
3
 10
-40.723806193277824
 20
-185.155803016859010
 11
-40.723806193277824
 21
-339.655803016858780
  0
LINE
  8
0
  6
CONTINUOUS
 62
3
 10
-40.723806193277824
 20
-172.655803016858780
 11
-40.723806193277824
 21
-185.155803016859010
  0
ARC
  8
0
  6
CONTINUOUS
 62
3
 10
-47.723806193277824
 20
-159.155803016858780
 40
3.000000000000000
 50
90.000000000000000
 51
149.999999999998380
  0
LINE
  8
0
  6
CONTINUOUS
 62
3
 10
-88.223806193279472
 20
-206.155803016858780
 11
-53.723806193277824
 21
-206.155803016858780
  0
LINE
  8
0
  6
CONTINUOUS
 62
3
 10
-47.723806193277824
 20
-156.155803016858780
 11
-40.723806193277824
 21
-156.155803016858780
  0
LINE
  8
0
  6
CONTINUOUS
 62
3
 10
-40.723806193277824
 20
-156.155803016858780
 11
-40.723806193277824
 21
-203.438523444952410
  0
ARC
  8
0
  6
CONTINUOUS
 62
3
 10
-89.723806193277838
 20
-242.640867949344570
 40
4.999999999999559
 50
359.999999999998690
 51
90.000000000000000
  0
LINE
  8
0
  6
CONTINUOUS
 62
3
 10
-112.223806193277380
 20
-237.640867949344570
 11
-89.723806193277838
 21
-237.640867949344570
  0
LINE
  8
0
  6
CONTINUOUS
 62
3
 10
-93.223806193279287
 20
-197.655803016863220
 11
-112.223806193277380
 21
-197.655803016863220
  0
LINE
  8
0
  6
CONTINUOUS
 62
3
 10
-52.919958615984342
 20
-159.155803016858780
 11
-112.223806193277830
 21
-159.155803016858780
  0
ARC
  8
0
  6
CONTINUOUS
 62
3
 10
-53.723806193277824
 20
-203.155803016858780
 40
3.000000000000000
 50
270.000000000000000
 51
0.000000000000000
  0
ARC
  8
0
  6
CONTINUOUS
 62
3
 10
-88.223806193279472
 20
-201.155803016858780
 40
5.000000000000014
 50
179.999999999997410
 51
270.000000000000000
  0
ARC
  8
0
  6
CONTINUOUS
 62
3
 10
-52.919958615984342
 20
-156.155803016858780
 40
3.000000000000000
 50
270.000000000000000
 51
330.000000000000570
  0
ARC
  8
0
  6
CONTINUOUS
 62
3
 10
-55.723806193277824
 20
-168.155803016859010
 40
5.000000000000000
 50
270.000000000000000
 51
0.000000000000000
  0
LINE
  8
0
  6
CONTINUOUS
 62
3
 10
-93.223806193279486
 20
-201.155803016858560
 11
-93.223806193277383
 21
-164.155803016859010
  0
ARC
  8
0
  6
CONTINUOUS
 62
3
 10
-88.223806193278278
 20
-168.155803016859010
 40
5.000000000000014
 50
179.999999999997410
 51
270.000000000000000
  0
ARC
  8
0
  6
CONTINUOUS
 62
3
 10
-98.223806193277383
 20
-164.155803016858780
 40
5.000000000000000
 50
359.999999999997390
 51
90.000000000000000
  0
LINE
  8
0
  6
CONTINUOUS
 62
3
 10
-55.723806193277824
 20
-173.155803016859010
 11
-88.723806193278293
 21
-173.155803016859010
  0
LINE
  8
0
  6
CONTINUOUS
 62
3
 10
-47.723806193277824
 20
-159.155803016858780
 11
-40.723806193277824
 21
-159.155803016858780
  0
ARC
  8
0
  6
CONTINUOUS
 62
3
 10
-47.723806193277824
 20
-162.155803016858780
 40
3.000000000000000
 50
90.000000000000000
 51
180.000000000000000
  0
LINE
  8
0
  6
CONTINUOUS
 62
3
 10
-50.723806193277824
 20
-158.199553132758470
 11
-50.723806193277824
 21
-162.155803016858780
  0
LINE
  8
0
  6
CONTINUOUS
 62
3
 10
-50.723806193277824
 20
-162.155803016858780
 11
-50.723806193277824
 21
-335.192022869818460
  0
ARC
  8
0
  6
CONTINUOUS
 62
3
 10
-47.723806193277824
 20
-350.155803016858780
 40
3.000000000000000
 50
180.000000000000000
 51
270.000000000000000
  0
LINE
  8
0
  6
CONTINUOUS
 62
3
 10
-47.723806193277824
 20
-353.155803016858780
 11
-40.723806193277824
 21
-353.155803016858780
  0
LINE
  8
0
  6
CONTINUOUS
 62
3
 10
-142.223806193277600
 20
291.844196983140820
 11
-112.223806193277710
 21
291.844196983140820
  0
LINE
  8
0
  6
CONTINUOUS
 62
4
 10
-209.223806193277600
 20
289.344196983140820
 11
-112.223806193277710
 21
289.344196983140820
  0
LINE
  8
0
  6
CONTINUOUS
 62
4
 10
-209.223806193277600
 20
288.344196983140820
 11
-112.223806193277710
 21
288.344196983140820
  0
LINE
  8
0
  6
CONTINUOUS
 62
4
 10
-209.223806193277600
 20
287.344196983140820
 11
-112.223806193277710
 21
287.344196983140820
  0
LINE
  8
0
  6
CONTINUOUS
 62
4
 10
-209.223806193277600
 20
282.659731169916540
 11
-112.223806193277710
 21
282.659731169916540
  0
LINE
  8
0
  6
CONTINUOUS
 62
4
 10
-209.223806193277600
 20
277.709983701610780
 11
-112.223806193277710
 21
277.709983701610780
  0
LINE
  8
0
  6
CONTINUOUS
 62
4
 10
-209.223806193277600
 20
247.344196983140820
 11
-90.223806193277056
 21
247.344196983140820
  0
LINE
  8
0
  6
CONTINUOUS
 62
4
 10
-209.223806193277600
 20
251.717458792641990
 11
-112.223806193277710
 21
251.717458792641990
  0
LINE
  8
0
  6
CONTINUOUS
 62
4
 10
-209.223806193277600
 20
252.983696708729210
 11
-112.223806193277710
 21
252.983696708729210
  0
LINE
  8
0
  6
CONTINUOUS
 62
4
 10
-209.223806193277600
 20
257.174250440271410
 11
-112.223806193277710
 21
257.174250440271410
  0
LINE
  8
0
  6
CONTINUOUS
 62
4
 10
-209.223806193277600
 20
258.536130775620680
 11
-112.223806193277710
 21
258.536130775620680
  0
LINE
  8
0
  6
CONTINUOUS
 62
4
 10
-209.223806193277600
 20
262.626631309710550
 11
-112.223806193277710
 21
262.626631309710550
  0
LINE
  8
0
  6
CONTINUOUS
 62
4
 10
-209.223806193277600
 20
264.094988699515170
 11
-112.223806193277710
 21
264.094988699515170
  0
LINE
  8
0
  6
CONTINUOUS
 62
4
 10
-209.223806193277600
 20
268.058734123314710
 11
-112.223806193277710
 21
268.058734123314710
  0
LINE
  8
0
  6
CONTINUOUS
 62
4
 10
-209.223806193277600
 20
269.663382038876760
 11
-112.223806193277710
 21
269.663382038876760
  0
LINE
  8
0
  6
CONTINUOUS
 62
4
 10
-209.223806193277600
 20
217.344196983140820
 11
-90.223806193277071
 21
217.344196983140820
  0
LINE
  8
0
  6
CONTINUOUS
 62
4
 10
-209.223806193277600
 20
212.970935173639650
 11
-112.223806193277710
 21
212.970935173639650
  0
LINE
  8
0
  6
CONTINUOUS
 62
4
 10
-209.223806193277600
 20
211.704697257552430
 11
-112.223806193277710
 21
211.704697257552430
  0
LINE
  8
0
  6
CONTINUOUS
 62
4
 10
-209.223806193277600
 20
207.514143526010230
 11
-112.223806193277710
 21
207.514143526010230
  0
LINE
  8
0
  6
CONTINUOUS
 62
4
 10
-209.223806193277600
 20
206.152263190660960
 11
-112.223806193277710
 21
206.152263190660960
  0
LINE
  8
0
  6
CONTINUOUS
 62
4
 10
-209.223806193277600
 20
202.061762656571090
 11
-112.223806193277710
 21
202.061762656571090
  0
LINE
  8
0
  6
CONTINUOUS
 62
4
 10
-209.223806193277600
 20
200.593405266766470
 11
-112.223806193277710
 21
200.593405266766470
  0
LINE
  8
0
  6
CONTINUOUS
 62
4
 10
-209.223806193277600
 20
196.629659842966930
 11
-112.223806193277710
 21
196.629659842966930
  0
LINE
  8
0
  6
CONTINUOUS
 62
4
 10
-209.223806193277600
 20
195.025011927404880
 11
-112.223806193277710
 21
195.025011927404880
  0
LINE
  8
0
  6
CONTINUOUS
 62
4
 10
-209.223806193277600
 20
186.978410264670860
 11
-112.223806193277710
 21
186.978410264670860
  0
LINE
  8
0
  6
CONTINUOUS
 62
4
 10
-209.223806193277600
 20
182.028662796365100
 11
-112.223806193277710
 21
182.028662796365100
  0
LINE
  8
0
  6
CONTINUOUS
 62
4
 10
-209.223806193277600
 20
177.344196983140820
 11
-112.223806193277710
 21
177.344196983140820
  0
LINE
  8
0
  6
CONTINUOUS
 62
4
 10
-209.223806193277600
 20
176.344196983140820
 11
-112.223806193277710
 21
176.344196983140820
  0
LINE
  8
0
  6
CONTINUOUS
 62
4
 10
-209.223806193277600
 20
175.344196983140820
 11
-112.223806193277710
 21
175.344196983140820
  0
LINE
  8
0
  6
CONTINUOUS
 62
3
 10
-209.356014672485800
 20
172.844196983140820
 11
-112.223806193277710
 21
172.844196983140820
  0
LINE
  8
0
  6
CONTINUOUS
 62
3
 10
-209.223806193277600
 20
291.844196983140590
 11
-112.223806193277710
 21
291.844196983140590
  0
LINE
  8
0
  6
CONTINUOUS
 62
3
 10
-209.886570638081820
 20
171.844196983140820
 11
-146.473806193277710
 21
171.844196983140820
  0
LINE
  8
0
  6
CONTINUOUS
 62
3
 10
-146.473806193277710
 20
171.844196983140820
 11
-146.473806193277710
 21
172.844196983140820
  0
LINE
  8
0
  6
CONTINUOUS
 62
3
 10
-150.723806193277600
 20
164.844196983140820
 11
-150.723806193277710
 21
171.844196983140820
  0
LINE
  8
0
  6
CONTINUOUS
 62
3
 10
-215.723806193277710
 20
164.844196983140820
 11
-150.723806193277600
 21
164.844196983140820
  0
LINE
  8
0
  6
CONTINUOUS
 62
3
 10
-211.386481958457690
 20
170.844196983140820
 11
-150.723806193277600
 21
170.844196983140820
  0
LINE
  8
0
  6
CONTINUOUS
 62
3
 10
-215.723806193277710
 20
168.844196983140820
 11
-150.723806193277600
 21
168.844196983140820
  0
LINE
  8
0
  6
CONTINUOUS
 62
3
 10
-218.673806193276620
 20
162.538760923405220
 11
-147.773806193278920
 21
162.538760923405110
  0
LINE
  8
0
  6
CONTINUOUS
 62
3
 10
-218.673806193276620
 20
159.067288184358400
 11
-147.773806193278920
 21
159.067288184358400
  0
LINE
  8
0
  6
CONTINUOUS
 62
3
 10
-136.773806193278920
 20
151.538760923405110
 11
-136.773806193278920
 21
124.670371603356890
  0
LINE
  8
0
  6
CONTINUOUS
 62
3
 10
-143.173806193278550
 20
121.644196983140770
 11
-143.173806193278550
 21
151.220131682827510
  0
LINE
  8
0
  6
CONTINUOUS
 62
3
 10
-218.273806193276980
 20
156.220131682827630
 11
-148.173806193278550
 21
156.220131682827510
  0
ARC
  8
0
  6
CONTINUOUS
 62
3
 10
-148.173806193278550
 20
151.220131682827510
 40
5.000000000000000
 50
0.000000000000000
 51
90.000000000000000
  0
ARC
  8
0
  6
CONTINUOUS
 62
3
 10
-147.773806193278920
 20
124.670371603356890
 40
11.000000000000000
 50
270.000000000000000
 51
0.000000000000000
  0
LINE
  8
0
  6
CONTINUOUS
 62
3
 10
-217.473806193277260
 20
115.844196983140810
 11
-148.973806193278510
 21
115.844196983140810
  0
ARC
  8
0
  6
CONTINUOUS
 62
3
 10
-148.973806193278510
 20
121.644196983140770
 40
5.799999999999955
 50
270.000000000000000
 51
0.000000000000000
  0
ARC
  8
0
  6
CONTINUOUS
 62
3
 10
-147.773806193278920
 20
148.067288184358400
 40
11.000000000000000
 50
0.000000000000000
 51
90.000000000000000
  0
ARC
  8
0
  6
CONTINUOUS
 62
3
 10
-147.773806193278920
 20
151.538760923405110
 40
11.000000000000000
 50
0.000000000000000
 51
90.000000000000000
  0
LINE
  8
0
  6
CONTINUOUS
 62
3
 10
-217.023806193277890
 20
163.844196983140820
 11
-149.423806193277870
 21
163.844196983140710
  0
ARC
  8
0
  6
CONTINUOUS
 62
3
 10
-149.423806193277870
 20
158.844196983140710
 40
5.000000000000008
 50
44.925956400534659
 51
90.000000000000000
  0
LINE
  8
0
  6
CONTINUOUS
 62
3
 10
-152.223806193277820
 20
164.844196983140710
 11
-152.223806193277820
 21
163.844196983140710
  0
LINE
  8
0
  6
CONTINUOUS
 62
3
 10
-180.166549987381700
 20
113.670371603356890
 11
-147.773806193278920
 21
113.670371603356890
  0
INSERT
  8
0
  2
SYM1
 10
-50.723806193278165
 20
168.704586676351710
 41
-1.000000000000000
 50
180.000000000000000
  0
LINE
  8
0
  6
CONTINUOUS
 62
3
 10
-50.723806193278165
 20
137.344196983139910
 11
-50.723806193278165
 21
232.344196983140820
  0
LINE
  8
0
  6
CONTINUOUS
 62
3
 10
-112.223806193277710
 20
172.844196983140820
 11
-112.223806193277710
 21
232.344196983140820
  0
LINE
  8
0
  6
CONTINUOUS
 62
3
 10
-56.224315945983477
 20
172.844196983140850
 11
-112.223806193277710
 21
172.844196983140820
  0
LINE
  8
0
  6
CONTINUOUS
 62
3
 10
-47.723806193278165
 20
134.344196983139910
 11
-40.723806193278165
 21
134.344196983139910
  0
ARC
  8
0
  6
CONTINUOUS
 62
3
 10
-47.723806193278165
 20
137.344196983139910
 40
3.000000000000000
 50
180.000000000000000
 51
270.000000000000000
  0
LINE
  8
0
  6
CONTINUOUS
 62
3
 10
-50.723806193278165
 20
222.407705310037040
 11
-40.723806193278165
 21
222.407705310037040
  0
LINE
  8
0
  6
CONTINUOUS
 62
3
 10
-56.223820564991378
 20
291.844196983140820
 11
-112.223806193277710
 21
291.844196983140820
  0
LINE
  8
0
  6
CONTINUOUS
 62
3
 10
-112.223806193277710
 20
291.844196983140820
 11
-112.223806193277710
 21
232.344196983140820
  0
LINE
  8
0
  6
CONTINUOUS
 62
3
 10
-50.723806193278165
 20
242.280688656244590
 11
-40.723806193278165
 21
242.280688656244590
  0
LINE
  8
0
  6
CONTINUOUS
 62
3
 10
-50.723806193278165
 20
327.344196983141730
 11
-50.723806193278165
 21
232.344196983140820
  0
ARC
  8
0
  6
CONTINUOUS
 62
3
 10
-47.723806193278165
 20
327.344196983141730
 40
3.000000000000000
 50
90.000000000000000
 51
180.000000000000000
  0
LINE
  8
0
  6
CONTINUOUS
 62
3
 10
-47.723806193278165
 20
330.344196983141730
 11
-40.723806193278165
 21
330.344196983141730
  0
INSERT
  8
0
  2
SYM1
 10
-50.723806193278165
 20
295.983807289929930
  0
INSERT
  8
0
  2
SYM3
 10
-30.723806193279756
 20
242.844196983140820
 41
-1.000000000000000
 50
180.000000000000030
  0
INSERT
  8
0
  2
SYM2
 10
-15.223806193277937
 20
292.432366260818300
 41
-1.000000000000000
 50
180.000000000000030
  0
INSERT
  8
0
  2
SYM3
 10
-30.723806193279756
 20
221.844196983141050
  0
INSERT
  8
0
  2
SYM2
 10
-15.223806193277937
 20
172.256027705463570
  0
LINE
  8
0
  6
DASHDOT
 62
4
 10
276.939765781370280
 20
232.344196983140820
 11
-274.788382507748220
 21
232.344196983140820
  0
CIRCLE
  8
0
  6
CONTINUOUS
 62
3
 10
22.276193806722517
 20
232.344196983140820
 40
16.000000000000227
  0
ARC
  8
0
  6
CONTINUOUS
 62
3
 10
22.276193806722517
 20
232.605161394878220
 40
17.500000000000000
 50
90.000000000000000
 51
270.000000000000000
  0
LINE
  8
0
  6
CONTINUOUS
 62
3
 10
-2.723806193277937
 20
380.344196983140820
 11
-2.723806193277937
 21
84.344196983140819
  0
LINE
  8
0
  6
CONTINUOUS
 62
3
 10
-2.723806193277937
 20
84.344196983140591
 11
140.950691290234430
 21
79.326972974676664
  0
LINE
  8
0
  6
CONTINUOUS
 62
3
 10
-35.910747192539361
 20
303.486307069185390
 11
-18.878236164340137
 21
303.486307069185390
  0
LINE
  8
0
  6
CONTINUOUS
 62
3
 10
-25.990525650235099
 20
333.011519939389700
 11
-40.723806193277937
 21
332.239381424574960
  0
LINE
  8
0
  6
CONTINUOUS
 62
3
 10
-36.906510080114344
 20
310.301311240700670
 11
-15.519938035748851
 21
354.795100838609190
  0
ARC
  8
0
  6
CONTINUOUS
 62
3
 10
-39.610378237643431
 20
311.600963881485770
 40
3.000000000000000
 50
270.000000000000000
 51
334.328072254076120
  0
ARC
  8
0
  6
CONTINUOUS
 62
3
 10
-39.610378237643431
 20
306.486307069185390
 40
3.000000000000000
 50
270.000000000000000
 51
334.328072254076120
  0
LINE
  8
0
  6
CONTINUOUS
 62
3
 10
-36.906510080114344
 20
305.186654428400290
 11
-15.519938035748851
 21
349.680444026308810
  0
LINE
  8
0
  6
CONTINUOUS
 62
3
 10
-40.723806193277937
 20
232.344196983140820
 11
-40.723806193277937
 21
332.239381424574960
  0
LINE
  8
0
  6
CONTINUOUS
 62
3
 10
-30.723806193279756
 20
232.344196983140820
 11
-30.723806193279756
 21
252.844196983140820
  0
LINE
  8
0
  6
CONTINUOUS
 62
3
 10
-23.223806193277937
 20
252.844196983140820
 11
-18.223806193277937
 21
252.844196983140820
  0
LINE
  8
0
  6
CONTINUOUS
 62
3
 10
-30.723806193279756
 20
252.844196983140820
 11
-26.223806193277937
 21
252.844196983140820
  0
LINE
  8
0
  6
CONTINUOUS
 62
3
 10
-26.223806193277937
 20
232.344196983140820
 11
-26.223806193277937
 21
252.844196983140820
  0
ARC
  8
0
  6
CONTINUOUS
 62
3
 10
-23.223806193277937
 20
249.844196983140820
 40
3.000000000000000
 50
90.000000000000000
 51
180.000000000000000
  0
ARC
  8
0
  6
CONTINUOUS
 62
3
 10
-18.223806193277937
 20
255.844196983140590
 40
2.999999999999773
 50
270.000000000000000
 51
0.000000000000000
  0
LINE
  8
0
  6
CONTINUOUS
 62
3
 10
-15.223806193277937
 20
377.344196983140820
 11
-15.223806193277937
 21
255.844196983140590
  0
LINE
  8
0
  6
CONTINUOUS
 62
3
 10
-3.223806193277937
 20
232.344196983140820
 11
-3.223806193277937
 21
380.344196983140820
  0
LINE
  8
0
  6
CONTINUOUS
 62
3
 10
-35.910747192539361
 20
161.202086897096480
 11
-18.878236164340137
 21
161.202086897096480
  0
LINE
  8
0
  6
CONTINUOUS
 62
3
 10
-25.990525650235099
 20
131.676874026892160
 11
-40.723806193277937
 21
132.449012541706910
  0
ARC
  8
0
  6
CONTINUOUS
 62
3
 10
-18.223806193277937
 20
113.344196983141040
 40
3.000000000000000
 50
270.000000000000000
 51
313.971891542170510
  0
LINE
  8
0
  6
CONTINUOUS
 62
3
 10
-36.906510080114344
 20
154.387082725581190
 11
-15.519938035748851
 21
109.893293127672670
  0
ARC
  8
0
  6
CONTINUOUS
 62
3
 10
-18.223806193277937
 20
108.593640486887580
 40
3.000000000000000
 50
0.000000000000000
 51
25.671927745923867
  0
ARC
  8
0
  6
CONTINUOUS
 62
3
 10
-39.610378237643431
 20
153.087430084796100
 40
2.999999999999903
 50
25.671927745923867
 51
90.000000000000000
  0
ARC
  8
0
  6
CONTINUOUS
 62
3
 10
-39.610378237643431
 20
158.202086897096480
 40
2.999999999999903
 50
25.671927745923867
 51
90.000000000000000
  0
LINE
  8
0
  6
CONTINUOUS
 62
3
 10
-36.906510080114344
 20
159.501739537881580
 11
-15.519938035748851
 21
115.007949939973050
  0
ARC
  8
0
  6
CONTINUOUS
 62
3
 10
-18.223806193277937
 20
113.708297299187960
 40
3.000000000000000
 50
0.000000000000000
 51
25.671927745923867
  0
LINE
  8
0
  6
CONTINUOUS
 62
3
 10
-40.723806193277937
 20
232.344196983141050
 11
-40.723806193277937
 21
132.449012541706910
  0
LINE
  8
0
  6
CONTINUOUS
 62
3
 10
-30.723806193279756
 20
232.344196983141050
 11
-30.723806193279756
 21
211.844196983141050
  0
LINE
  8
0
  6
CONTINUOUS
 62
3
 10
-23.223806193277937
 20
211.844196983141050
 11
-18.223806193277937
 21
211.844196983141050
  0
LINE
  8
0
  6
CONTINUOUS
 62
3
 10
-30.723806193279756
 20
211.844196983141050
 11
-26.223806193277937
 21
211.844196983141050
  0
LINE
  8
0
  6
CONTINUOUS
 62
3
 10
-26.223806193277937
 20
232.344196983141050
 11
-26.223806193277937
 21
211.844196983141050
  0
ARC
  8
0
  6
CONTINUOUS
 62
3
 10
-23.223806193277937
 20
214.844196983141050
 40
3.000000000000000
 50
180.000000000000000
 51
270.000000000000000
  0
ARC
  8
0
  6
CONTINUOUS
 62
3
 10
-18.223806193277937
 20
208.844196983141270
 40
3.000000000000000
 50
0.000000000000000
 51
90.000000000000000
  0
LINE
  8
0
  6
CONTINUOUS
 62
3
 10
-15.223806193277937
 20
87.344196983141046
 11
-15.223806193277937
 21
208.844196983141270
  0
LINE
  8
0
  6
CONTINUOUS
 62
3
 10
-24.623805811808211
 20
108.344196983141270
 11
-24.623805811808211
 21
92.344196983141273
  0
LINE
  8
0
  6
CONTINUOUS
 62
3
 10
-24.623805505996984
 20
92.344197903820032
 11
-25.223804927500510
 21
93.383286197675261
  0
LINE
  8
0
  6
CONTINUOUS
 62
3
 10
-24.623802270671945
 20
108.344195507482250
 11
-25.223802668193798
 21
107.304806861191080
  0
LINE
  8
0
  6
CONTINUOUS
 62
3
 10
-15.223806193277937
 20
92.344196983141273
 11
-24.623805811808211
 21
92.344196983141273
  0
LINE
  8
0
  6
CONTINUOUS
 62
3
 10
-15.223806193277937
 20
108.344196983141270
 11
-24.623805811808211
 21
108.344196983141270
  0
LINE
  8
0
  6
CONTINUOUS
 62
3
 10
-25.223806670105091
 20
107.304809377578740
 11
-25.223805716430775
 21
93.383285329727187
  0
LINE
  8
0
  6
CONTINUOUS
 62
3
 10
-21.223806193277937
 20
92.344196983141046
 11
-21.223806193277937
 21
87.344196983141046
  0
ARC
  8
0
  6
CONTINUOUS
 62
3
 10
-18.223806193277937
 20
107.344196983141040
 40
3.000000000000000
 50
90.000000000000000
 51
160.528779365505360
  0
ARC
  8
0
  6
CONTINUOUS
 62
3
 10
-18.223806193277937
 20
87.344196983141046
 40
3.000000000000000
 50
180.000000000000000
 51
270.000000000000000
  0
ARC
  8
0
  6
CONTINUOUS
 62
3
 10
-12.223806193277937
 20
87.344196983141046
 40
3.000000000000000
 50
180.000000000000000
 51
270.000000000000000
  0
LINE
  8
0
  6
CONTINUOUS
 62
3
 10
-3.223806193277937
 20
232.344196983141050
 11
-3.223806193277937
 21
84.344196983141046
  0
LINE
  8
0
  6
CONTINUOUS
 62
3
 10
-18.223806193277937
 20
84.344196983141046
 11
-2.723806193277937
 21
84.344196983141046
  0
ARC
  8
0
  6
CONTINUOUS
 62
3
 10
-96.223806193277056
 20
288.844196983140820
 40
3.000000000000000
 50
0.000000000000000
 51
90.000000000000000
  0
LINE
  8
0
  6
CONTINUOUS
 62
3
 10
-93.223806193277056
 20
250.344196983140820
 11
-93.223806193277056
 21
288.844196983140820
  0
ARC
  8
0
  6
CONTINUOUS
 62
3
 10
-90.223806193277056
 20
250.344196983140820
 40
3.000000000000000
 50
180.000000000000000
 51
270.000000000000000
  0
ARC
  8
0
  6
CONTINUOUS
 62
3
 10
-90.223806193277071
 20
214.344196983140820
 40
3.000000000000000
 50
90.000000000000000
 51
180.000000000000000
  0
LINE
  8
0
  6
CONTINUOUS
 62
3
 10
-93.223806193277056
 20
175.844196983140820
 11
-93.223806193277056
 21
214.344196983140820
  0
ARC
  8
0
  6
CONTINUOUS
 62
3
 10
-96.223806193277071
 20
175.844196983140820
 40
3.000000000000000
 50
270.000000000000000
 51
0.000000000000000
  0
CIRCLE
  8
0
  6
CONTINUOUS
 62
3
 10
-70.723806193277824
 20
232.344196983140820
 40
10.500000000000000
  0
ARC
  8
0
  6
CONTINUOUS
 62
3
 10
-53.723806193277824
 20
250.344196983140820
 40
3.000000000000000
 50
270.000000000000000
 51
0.000000000000000
  0
LINE
  8
0
  6
CONTINUOUS
 62
3
 10
-90.223806193277056
 20
247.344196983140820
 11
-53.723806193277824
 21
247.344196983140820
  0
ARC
  8
0
  6
CONTINUOUS
 62
3
 10
-53.723806193277824
 20
214.344196983140820
 40
3.000000000000000
 50
0.000000000000000
 51
90.000000000000000
  0
LINE
  8
0
  6
CONTINUOUS
 62
3
 10
-90.223806193277071
 20
217.344196983140820
 11
-53.723806193277824
 21
217.344196983140820
  0
LINE
  8
0
  6
DASHDOT
 62
4
 10
-70.723806193277824
 20
248.147821582317420
 11
-70.723806193277824
 21
218.631474786067200
  0
ARC
  8
0
  6
CONTINUOUS
 62
3
 10
-455.745648819560760
 20
-297.818136124832220
 40
3.000000000000000
 50
0.000000000000000
 51
115.081881985707550
  0
ARC
  8
0
  6
CONTINUOUS
 62
3
 10
-444.745648819560760
 20
-290.590523866602670
 40
2.999999999999987
 50
131.532400882507740
 51
180.000000000000000
  0
ARC
  8
0
  6
CONTINUOUS
 62
3
 10
-494.745648819560760
 20
-297.818136124832220
 40
3.000000000000187
 50
64.918118014292446
 51
180.000000000000000
  0
ARC
  8
0
  6
CONTINUOUS
 62
3
 10
-505.745648819560760
 20
-290.590523866602670
 40
3.000000000000000
 50
0.000000000000000
 51
48.467599117492242
  0
ARC
  8
0
  6
CONTINUOUS
 62
3
 10
-475.245648819560760
 20
-256.155803016855660
 40
43.000000000000071
 50
206.245931860254020
 51
333.754068139745930
  0
ARC
  8
0
  6
CONTINUOUS
 62
3
 10
-464.745648819560870
 20
-104.155803016859860
 40
10.000000000000000
 50
270.000000000000000
 51
0.000000000000000
  0
ARC
  8
0
  6
CONTINUOUS
 62
3
 10
-485.745648819560870
 20
-104.155803016859860
 40
10.000000000000000
 50
180.000000000000000
 51
270.000000000000000
  0
LINE
  8
0
  6
CONTINUOUS
 62
3
 10
-464.745648819560870
 20
-114.155803016859860
 11
-485.745648819560870
 21
-114.155803016859860
  0
LINE
  8
0
  6
DASHDOT
 62
4
 10
-475.245648819560870
 20
-412.831397877012930
 11
-475.245648819560870
 21
-3.692088582021825
  0
LINE
  8
0
  6
CONTINUOUS
 62
3
 10
-411.679063312514700
 20
-185.052802933447770
 11
-411.608439892287270
 21
-185.012028533651200
  0
ARC
  8
0
  6
CONTINUOUS
 62
3
 10
-457.245648819560420
 20
-239.155803016855630
 40
80.000000000000043
 50
49.177852779626662
 51
62.030006033939010
  0
ARC
  8
0
  6
CONTINUOUS
 62
3
 10
-404.398756239113600
 20
-172.580988375050620
 40
5.000000000000036
 50
309.473623557055420
 51
315.000000000000000
  0
ARC
  8
0
  6
CONTINUOUS
 62
3
 10
-493.245648819561780
 20
-239.155803016855630
 40
79.999999999999972
 50
117.992427283752490
 51
180.000000000000000
  0
ARC
  8
0
  6
CONTINUOUS
 62
3
 10
-484.245648819560870
 20
-84.155803016855401
 40
4.999999999999576
 50
347.176787679740470
 51
0.000000000000000
  0
ARC
  8
0
  6
CONTINUOUS
 62
3
 10
-466.245648819560870
 20
-84.155803016855401
 40
5.000000000000000
 50
180.000000000000000
 51
192.823212320258360
  0
LINE
  8
0
  6
CONTINUOUS
 62
3
 10
-479.245648819560870
 20
-66.990658587807815
 11
-479.245648819560870
 21
-84.155803016855401
  0
LINE
  8
0
  6
CONTINUOUS
 62
3
 10
-479.245648819560870
 20
-41.218113695794358
 11
-479.245648819560870
 21
-56.155809977719485
  0
LINE
  8
0
  6
CONTINUOUS
 62
3
 10
-471.245648819560870
 20
-66.990658587807815
 11
-471.245648819560870
 21
-84.155803016855401
  0
LINE
  8
0
  6
CONTINUOUS
 62
3
 10
-471.245648819560870
 20
-41.218113695794358
 11
-471.245648819560870
 21
-56.155809977719485
  0
ARC
  8
0
  6
CONTINUOUS
 62
3
 10
-551.245648819561100
 20
-387.155803016855430
 40
12.000000000000041
 50
196.601549599019710
 51
246.443535690898870
  0
ARC
  8
0
  6
CONTINUOUS
 62
3
 10
-399.245648819560870
 20
-387.155803016855430
 40
11.999999999999810
 50
293.556464309099170
 51
343.398450400978620
  0
LINE
  8
0
  6
CONTINUOUS
 62
3
 10
-358.245648819561320
 20
-357.737603406985160
 11
-358.245648819561320
 21
-387.155803016855430
  0
ARC
  8
0
  6
CONTINUOUS
 62
3
 10
-360.245648819561320
 20
-387.155803016855430
 40
2.000000000000000
 50
270.000000000000000
 51
0.000000000000000
  0
ARC
  8
0
  6
CONTINUOUS
 62
3
 10
-385.829240954562580
 20
-391.155803016855430
 40
2.000000000000000
 50
90.000000000000000
 51
163.398450400982800
  0
LINE
  8
0
  6
CONTINUOUS
 62
3
 10
-385.829240954562580
 20
-389.155803016855430
 11
-360.245648819561320
 21
-389.155803016855430
  0
CIRCLE
  8
0
  6
CONTINUOUS
 62
3
 10
-316.146623052588100
 20
-365.254828783828880
 40
12.000000000000000
  0
CIRCLE
  8
0
  6
CONTINUOUS
 62
3
 10
-634.344674586534320
 20
-47.056777249881947
 40
12.000000000000000
  0
ARC
  8
0
  6
CONTINUOUS
 62
3
 10
-640.245648819561100
 20
-41.155803016855401
 40
20.000000000000000
 50
90.000000000000000
 51
180.000000000000000
  0
CIRCLE
  8
0
  6
CONTINUOUS
 62
3
 10
-316.146623052588100
 20
-47.056777249881947
 40
12.000000000000000
  0
ARC
  8
0
  6
CONTINUOUS
 62
3
 10
-310.245648819561320
 20
-41.155803016855401
 40
20.000000000000000
 50
0.000000000000000
 51
90.000000000000000
  0
ARC
  8
0
  6
CONTINUOUS
 62
3
 10
-310.245648819561320
 20
-371.155803016855430
 40
20.000000000000000
 50
270.000000000000000
 51
0.000000000000000
  0
CIRCLE
  8
0
  6
CONTINUOUS
 62
3
 10
-634.344674586534320
 20
-365.254828783828880
 40
12.000000000000000
  0
ARC
  8
0
  6
CONTINUOUS
 62
3
 10
-640.245648819561100
 20
-371.155803016855430
 40
20.000000000000000
 50
180.000000000000000
 51
270.000000000000000
  0
ARC
  8
0
  6
CONTINUOUS
 62
3
 10
-466.245648819560870
 20
-41.218113695794358
 40
5.000000000000037
 50
89.206648471056738
 51
180.000000000000000
  0
ARC
  8
0
  6
CONTINUOUS
 62
3
 10
-484.245648819560870
 20
-41.218113695794358
 40
5.000000000000000
 50
0.000000000000000
 51
90.793351528948477
  0
ARC
  8
0
  6
CONTINUOUS
 62
3
 10
-384.279019272465690
 20
-397.155803016855430
 40
6.000000000000000
 50
90.000000000000000
 51
146.251011404110950
  0
ARC
  8
0
  6
CONTINUOUS
 62
3
 10
-598.479391832645320
 20
-70.194137942413221
 40
5.000000000000041
 50
135.000000000001820
 51
225.000000000000000
  0
ARC
  8
0
  6
CONTINUOUS
 62
3
 10
-565.242485908994580
 20
-103.431043866064180
 40
5.000000000000201
 50
225.000000000000000
 51
299.734043498263130
  0
ARC
  8
0
  6
CONTINUOUS
 62
3
 10
-580.458030119952240
 20
-113.671343777822210
 40
4.999999999999975
 50
308.148300951607780
 51
45.000000000000000
  0
ARC
  8
0
  6
CONTINUOUS
 62
3
 10
-611.207313894003280
 20
-82.922060003770952
 40
4.999999999999879
 50
45.000000000000000
 51
135.000000000000000
  0
ARC
  8
0
  6
CONTINUOUS
 62
3
 10
-339.283983745118920
 20
-82.922060003770952
 40
4.999999999999718
 50
45.000000000001855
 51
135.000000000001820
  0
ARC
  8
0
  6
CONTINUOUS
 62
3
 10
-352.011905806477100
 20
-70.194137942413221
 40
5.000000000000201
 50
315.000000000000000
 51
44.999999999998167
  0
ARC
  8
0
  6
CONTINUOUS
 62
3
 10
-385.248811730127840
 20
-103.431043866064180
 40
4.999999999999925
 50
240.265956501736890
 51
315.000000000000000
  0
ARC
  8
0
  6
CONTINUOUS
 62
3
 10
-370.033267519169950
 20
-113.671343777822210
 40
5.000000000000041
 50
135.000000000001820
 51
231.851699048390170
  0
ARC
  8
0
  6
CONTINUOUS
 62
3
 10
-564.662056684559840
 20
-391.155803016855430
 40
1.999999999999902
 50
16.601549599017194
 51
90.000000000000000
  0
ARC
  8
0
  6
CONTINUOUS
 62
3
 10
-590.245648819561100
 20
-387.155803016855430
 40
2.000000000000000
 50
180.000000000000000
 51
270.000000000000000
  0
LINE
  8
0
  6
CONTINUOUS
 62
3
 10
-562.559357318545950
 20
-391.155803016855430
 11
-640.245648819561100
 21
-391.155803016855430
  0
LINE
  8
0
  6
CONTINUOUS
 62
3
 10
-384.279019272465690
 20
-391.155803016855430
 11
-310.245648819561320
 21
-391.155803016855430
  0
LINE
  8
0
  6
CONTINUOUS
 62
3
 10
-475.245648819560870
 20
-398.155803016855430
 11
-394.449817296248630
 21
-398.155803016855430
  0
LINE
  8
0
  6
CONTINUOUS
 62
3
 10
-475.245648819560870
 20
-398.155803016855430
 11
-556.041480342873800
 21
-398.155803016855430
  0
LINE
  8
0
  6
CONTINUOUS
 62
3
 10
-640.245648819561100
 20
-21.155803016855401
 11
-310.245648819561320
 21
-21.155803016855401
  0
LINE
  8
0
  6
CONTINUOUS
 62
3
 10
-290.245648819561320
 20
-41.155803016855401
 11
-290.245648819561320
 21
-371.155803016855430
  0
LINE
  8
0
  6
CONTINUOUS
 62
3
 10
-660.245648819561100
 20
-41.155803016855401
 11
-660.245648819561100
 21
-371.155803016855430
  0
LINE
  8
0
  6
CONTINUOUS
 62
3
 10
-602.014925738578200
 20
-73.729671848346101
 11
-568.778019814927460
 21
-106.966577771997060
  0
LINE
  8
0
  6
CONTINUOUS
 62
3
 10
-607.671779988070630
 20
-79.386526097838299
 11
-576.922496214019590
 21
-110.135809871889560
  0
LINE
  8
0
  6
CONTINUOUS
 62
3
 10
-348.476371900544220
 20
-73.729671848346101
 11
-381.713277824194960
 21
-106.966577771997060
  0
LINE
  8
0
  6
CONTINUOUS
 62
3
 10
-342.819517651051800
 20
-79.386526097838299
 11
-373.568801425102830
 21
-110.135809871889560
  0
LINE
  8
0
  6
CONTINUOUS
 62
3
 10
-564.662056684559840
 20
-389.155803016855430
 11
-590.245648819561100
 21
-389.155803016855430
  0
LINE
  8
0
  6
CONTINUOUS
 62
3
 10
-592.245648819561100
 20
-357.737603406985160
 11
-592.245648819561100
 21
-387.155803016855430
  0
ARC
  8
0
  6
CONTINUOUS
 62
3
 10
-475.245648819561780
 20
-691.155803016855660
 40
600.000000000000110
 50
86.655847795544247
 51
88.042013127606594
  0
ARC
  8
0
  6
CONTINUOUS
 62
3
 10
-475.245648819561780
 20
-691.155803016855660
 40
600.000000000000000
 50
91.957986872393235
 51
93.344152204455597
  0
LINE
  8
0
  6
CONTINUOUS
 62
3
 10
-495.745648819560870
 20
-91.506113614784766
 11
-495.745648819560870
 21
-113.155803016855620
  0
LINE
  8
0
  6
CONTINUOUS
 62
3
 10
-454.745648819560870
 20
-91.506113614784766
 11
-454.745648819560870
 21
-113.155803016855620
  0
CIRCLE
  8
0
  6
CONTINUOUS
 62
3
 10
-475.245648819560870
 20
-76.155809977719485
 40
10.000000000000000
  0
LINE
  8
0
  6
CONTINUOUS
 62
3
 10
-464.745648819560870
 20
-56.155809977719485
 11
-485.745648819560870
 21
-56.155809977719485
  0
LINE
  8
0
  6
CONTINUOUS
 62
3
 10
-495.745648819560870
 20
-66.155809977719485
 11
-495.745648819560870
 21
-91.506113614783402
  0
LINE
  8
0
  6
DASHDOT
 62
4
 10
-452.077735820679320
 20
-76.155809977719485
 11
-499.100249722214020
 21
-76.155809977719485
  0
ARC
  8
0
  6
CONTINUOUS
 62
3
 10
-485.745648819560870
 20
-66.155809977719485
 40
10.000000000000000
 50
90.000000000000000
 51
180.000000000000000
  0
ARC
  8
0
  6
CONTINUOUS
 62
3
 10
-464.745648819560870
 20
-66.155809977719485
 40
10.000000000000000
 50
0.000000000000000
 51
90.000000000000000
  0
LINE
  8
0
  6
CONTINUOUS
 62
3
 10
-454.745648819560870
 20
-66.155809977719485
 11
-454.745648819560870
 21
-91.506113614783402
  0
LINE
  8
0
  6
DASHDOT
 62
4
 10
-523.397786447025280
 20
-206.155803016855630
 11
-425.575867743988620
 21
-206.155803016855630
  0
ARC
  8
0
  6
CONTINUOUS
 62
3
 10
-621.245648819561100
 20
-271.155803016855660
 40
2.000000000000000
 50
90.000000000000000
 51
180.000000000000000
  0
ARC
  8
0
  6
CONTINUOUS
 62
3
 10
-610.245648819561100
 20
-256.155803016855660
 40
13.000000000000000
 50
270.000000000000000
 51
90.000000000000000
  0
ARC
  8
0
  6
CONTINUOUS
 62
3
 10
-621.245648819561100
 20
-241.155803016855630
 40
2.000000000000000
 50
180.000000000000000
 51
270.000000000000000
  0
CIRCLE
  8
0
  6
CONTINUOUS
 62
3
 10
-395.245648819561320
 20
-134.655803016855630
 40
17.500000000000000
  0
ARC
  8
0
  6
CONTINUOUS
 62
3
 10
-528.991718443301920
 20
-305.555803016855750
 40
82.000000000000028
 50
210.000000000000000
 51
242.076948146074130
  0
ARC
  8
0
  6
CONTINUOUS
 62
3
 10
-421.499579195820500
 20
-305.555803016855750
 40
81.999999999999872
 50
297.923051853925760
 51
330.000000000000060
  0
ARC
  8
0
  6
CONTINUOUS
 62
3
 10
-613.245648819561100
 20
-303.623714867803870
 40
10.000000000000000
 50
180.000000000000000
 51
209.999999999999890
  0
ARC
  8
0
  6
CONTINUOUS
 62
3
 10
-551.245648819561100
 20
-387.155803016855660
 40
11.999999999999956
 50
174.036080546870270
 51
246.443535690898870
  0
ARC
  8
0
  6
CONTINUOUS
 62
3
 10
-571.137399265384260
 20
-385.077759658044560
 40
8.000000000000169
 50
354.036080546867080
 51
62.076948146072816
  0
ARC
  8
0
  6
CONTINUOUS
 62
3
 10
-503.245648819560870
 20
-211.973165601850810
 40
120.000000000000070
 50
93.344152204455767
 51
180.000000000000000
  0
ARC
  8
0
  6
CONTINUOUS
 62
3
 10
-447.245648819560870
 20
-211.973165601850810
 40
120.000000000000000
 50
359.999999999999890
 51
86.655847795544332
  0
ARC
  8
0
  6
CONTINUOUS
 62
3
 10
-379.353898373738160
 20
-385.077759658044560
 40
7.999999999999868
 50
117.923051853927200
 51
185.963919453132860
  0
ARC
  8
0
  6
CONTINUOUS
 62
3
 10
-399.245648819560870
 20
-387.155803016855660
 40
11.999999999999991
 50
293.556464309101160
 51
5.963919453129976
  0
ARC
  8
0
  6
CONTINUOUS
 62
3
 10
-484.245648819560870
 20
-121.155803016855620
 40
5.000000000000000
 50
0.000000000000000
 51
90.000000000000000
  0
ARC
  8
0
  6
CONTINUOUS
 62
3
 10
-466.245648819560870
 20
-121.155803016855620
 40
5.000000000000000
 50
90.000000000000000
 51
180.000000000000000
  0
ARC
  8
0
  6
CONTINUOUS
 62
3
 10
-597.723081038733310
 20
-146.406292859041830
 40
5.000000000000201
 50
45.000000000000000
 51
145.239542415999670
  0
ARC
  8
0
  6
CONTINUOUS
 62
3
 10
-586.271937826730780
 20
-132.401591948328440
 40
4.999999999999995
 50
136.217179784905970
 51
225.000000000001850
  0
ARC
  8
0
  6
CONTINUOUS
 62
3
 10
-376.262792374470000
 20
-367.866581523304490
 40
4.999999999999892
 50
305.979144815322340
 51
45.000000000003688
  0
ARC
  8
0
  6
CONTINUOUS
 62
3
 10
-587.468334649698480
 20
-355.650566785634850
 40
4.999999999999976
 50
220.585447346048710
 51
314.999999999998120
  0
ARC
  8
0
  6
CONTINUOUS
 62
3
 10
-574.228505264652200
 20
-367.866581523304260
 40
4.999999999999879
 50
135.000000000000000
 51
234.020855184679220
  0
ARC
  8
0
  6
CONTINUOUS
 62
3
 10
-391.564349491104740
 20
-185.202425749757680
 40
5.000000000000041
 50
135.000000000001820
 51
137.021362958702530
  0
ARC
  8
0
  6
CONTINUOUS
 62
3
 10
-404.398756239113600
 20
-172.580988375050620
 40
5.000000000000005
 50
231.557556888218500
 51
264.448527036889120
  0
ARC
  8
0
  6
CONTINUOUS
 62
3
 10
-558.926948148017460
 20
-185.202425749757450
 40
4.999999999999943
 50
320.598880246796680
 51
45.000000000000000
  0
ARC
  8
0
  6
CONTINUOUS
 62
3
 10
-546.092541400008830
 20
-172.580988375050620
 40
4.999999999999879
 50
225.000000000000000
 51
308.442443111785170
  0
ARC
  8
0
  6
CONTINUOUS
 62
3
 10
-484.245648819560870
 20
-151.227599786580270
 40
4.999999999999869
 50
278.213210701733890
 51
0.000000000000000
  0
ARC
  8
0
  6
CONTINUOUS
 62
3
 10
-466.245648819560870
 20
-151.227599786580270
 40
5.000000000000000
 50
180.000000000000000
 51
261.786789298255770
  0
ARC
  8
0
  6
CONTINUOUS
 62
3
 10
-440.876768595683760
 20
-313.802354620503020
 40
48.000000000000206
 50
242.620744204633890
 51
349.431241352001900
  0
ARC
  8
0
  6
CONTINUOUS
 62
3
 10
-528.991718443302600
 20
-305.555803016855750
 40
37.999999999999758
 50
179.474123357936550
 51
264.903782261258470
  0
ARC
  8
0
  6
CONTINUOUS
 62
3
 10
-388.775886822326920
 20
-323.523368890562440
 40
4.999999999999986
 50
143.661143755957770
 51
169.431241352001680
  0
ARC
  8
0
  6
CONTINUOUS
 62
3
 10
-465.250319392490040
 20
-360.865397675064400
 40
4.999999999999739
 50
62.620744204635855
 51
106.561661668955390
  0
ARC
  8
0
  6
CONTINUOUS
 62
3
 10
-532.811345882665930
 20
-348.385821067569280
 40
4.999999999999996
 50
62.258787150595815
 51
84.903782261257945
  0
ARC
  8
0
  6
CONTINUOUS
 62
3
 10
-571.989907278754910
 20
-305.161142566872170
 40
5.000000000000207
 50
359.474123357936720
 51
22.119118468600291
  0
ARC
  8
0
  6
CONTINUOUS
 62
3
 10
-563.298025075256990
 20
-331.480257211193360
 40
5.000000000000041
 50
314.999999999998120
 51
37.077467885865147
  0
ARC
  8
0
  6
CONTINUOUS
 62
3
 10
-549.637246514634970
 20
-343.275322773287030
 40
4.999999999999982
 50
61.306201207325230
 51
135.000000000000000
  0
ARC
  8
0
  6
CONTINUOUS
 62
3
 10
-398.498313282722960
 20
-345.631060615051300
 40
5.000000000000041
 50
44.999999999998167
 51
143.091301640805400
  0
ARC
  8
0
  6
CONTINUOUS
 62
3
 10
-390.004543674464120
 20
-328.668986100594450
 40
5.000000000000076
 50
163.709803389738140
 51
224.999999999998180
  0
CIRCLE
  8
0
  6
CONTINUOUS
 62
4
 10
-395.245648819561320
 20
-134.655803016855630
 40
10.500000000000000
  0
CIRCLE
  8
0
  6
CONTINUOUS
 62
3
 10
-395.245648819561320
 20
-134.655803016855630
 40
9.350000000000023
  0
LINE
  8
0
  6
CONTINUOUS
 62
3
 10
-366.558496895356370
 20
-359.186100691567730
 11
-393.540077580397000
 21
-332.204520006527100
  0
LINE
  8
0
  6
CONTINUOUS
 62
3
 10
-372.727258468537570
 20
-364.331047617371610
 11
-394.962779376790080
 21
-342.095526709118640
  0
LINE
  8
0
  6
CONTINUOUS
 62
3
 10
-583.932800743765820
 20
-359.186100691567730
 11
-559.762491169324330
 21
-335.015791117126240
  0
LINE
  8
0
  6
CONTINUOUS
 62
3
 10
-577.764039170584850
 20
-364.331047617371610
 11
-553.172780420567620
 21
-339.739788867354380
  0
LINE
  8
0
  6
CONTINUOUS
 62
3
 10
-356.303750506321760
 20
-142.870758953108950
 11
-395.099883397037620
 21
-181.666891843825030
  0
LINE
  8
0
  6
CONTINUOUS
 62
3
 10
-360.683825906458540
 20
-135.937125854261320
 11
-400.863222333180720
 21
-176.116522280983500
  0
LINE
  8
0
  6
CONTINUOUS
 62
3
 10
-475.245648819560870
 20
-398.155803016855660
 11
-556.041480342873800
 21
-398.155803016855660
  0
LINE
  8
0
  6
CONTINUOUS
 62
3
 10
-475.245648819560870
 20
-398.155803016855660
 11
-394.449817296248170
 21
-398.155803016855660
  0
LINE
  8
0
  6
CONTINUOUS
 62
3
 10
-621.905902857405520
 20
-308.623714867803870
 11
-600.005801553625930
 21
-346.555803016855750
  0
LINE
  8
0
  6
CONTINUOUS
 62
3
 10
-623.245648819561100
 20
-211.973165601850810
 11
-623.245648819561100
 21
-303.623714867803870
  0
LINE
  8
0
  6
CONTINUOUS
 62
3
 10
-479.245648819560870
 20
-121.155803016855620
 11
-479.245648819560870
 21
-151.227599786580270
  0
LINE
  8
0
  6
CONTINUOUS
 62
3
 10
-471.245648819560870
 20
-121.155803016855620
 11
-471.245648819560870
 21
-151.227599786580270
  0
LINE
  8
0
  6
CONTINUOUS
 62
3
 10
-589.807471732663430
 20
-135.937125854261320
 11
-549.628075305941480
 21
-176.116522280983280
  0
LINE
  8
0
  6
CONTINUOUS
 62
3
 10
-594.187547132800430
 20
-142.870758953108950
 11
-555.391414242084810
 21
-181.666891843824800
  0
LINE
  8
0
  6
CONTINUOUS
 62
3
 10
-610.245648819561100
 20
-243.155803016855630
 11
-621.245648819561100
 21
-243.155803016855630
  0
LINE
  8
0
  6
CONTINUOUS
 62
3
 10
-610.245648819561100
 20
-269.155803016855660
 11
-621.245648819561100
 21
-269.155803016855660
  0
ARC
  8
0
  6
CONTINUOUS
 62
3
 10
-340.245648819560870
 20
-256.155803016855660
 40
13.000000000000028
 50
90.000000000000000
 51
270.000000000000000
  0
ARC
  8
0
  6
CONTINUOUS
 62
3
 10
-492.745648819560870
 20
-113.155803016855620
 40
3.000000000000000
 50
180.000000000000000
 51
270.000000000000000
  0
ARC
  8
0
  6
CONTINUOUS
 62
3
 10
-457.745648819560870
 20
-113.155803016855620
 40
3.000000000000000
 50
270.000000000000000
 51
0.000000000000000
  0
ARC
  8
0
  6
CONTINUOUS
 62
3
 10
-337.245648819560870
 20
-303.623714867803870
 40
10.000000000000032
 50
330.000000000000110
 51
0.000000000000000
  0
ARC
  8
0
  6
CONTINUOUS
 62
3
 10
-330.245648819560870
 20
-272.155803016855660
 40
3.000000000000000
 50
0.000000000000000
 51
90.000000000000000
  0
ARC
  8
0
  6
CONTINUOUS
 62
3
 10
-330.245648819560870
 20
-240.155803016855630
 40
3.000000000000000
 50
270.000000000000000
 51
0.000000000000000
  0
ARC
  8
0
  6
CONTINUOUS
 62
3
 10
-364.219359812391420
 20
-132.401591948328440
 40
5.000000000000201
 50
315.000000000000000
 51
43.782820215092215
  0
ARC
  8
0
  6
CONTINUOUS
 62
3
 10
-352.768216600388880
 20
-146.406292859041830
 40
5.000000000000163
 50
34.760457583998857
 51
135.000000000000000
  0
ARC
  8
0
  6
CONTINUOUS
 62
3
 10
-363.022962989423490
 20
-355.650566785634850
 40
5.000000000000201
 50
225.000000000000000
 51
319.414552653949610
  0
LINE
  8
0
  6
CONTINUOUS
 62
3
 10
-328.585394781716450
 20
-308.623714867803870
 11
-350.485496085496490
 21
-346.555803016855750
  0
LINE
  8
0
  6
CONTINUOUS
 62
3
 10
-327.245648819560870
 20
-211.973165601851040
 11
-327.245648819560870
 21
-303.623714867803870
  0
LINE
  8
0
  6
CONTINUOUS
 62
3
 10
-492.745648819560870
 20
-116.155803016855620
 11
-475.245648819560870
 21
-116.155803016855620
  0
LINE
  8
0
  6
CONTINUOUS
 62
3
 10
-457.745648819560870
 20
-116.155803016855620
 11
-475.245648819560870
 21
-116.155803016855620
  0
LINE
  8
0
  6
CONTINUOUS
 62
3
 10
-340.245648819560870
 20
-243.155803016855630
 11
-330.245648819560870
 21
-243.155803016855630
  0
LINE
  8
0
  6
CONTINUOUS
 62
3
 10
-340.245648819560870
 20
-269.155803016855660
 11
-330.245648819560870
 21
-269.155803016855660
  0
INSERT
  8
0
  2
SYM4
 10
-485.745648819560870
 20
-104.155803016855620
 41
-1.000000000000000
  0
INSERT
  8
0
  2
SYM5
 10
-535.245648819561100
 20
-110.655803016855620
 41
-1.000000000000000
  0
INSERT
  8
0
  2
SYM5
 10
-607.245648819561100
 20
-186.155803016855630
 41
-1.000000000000000
  0
INSERT
  8
0
  2
SYM5
 10
-610.245648819560870
 20
-286.155803016856110
 41
-1.000000000000000
  0
INSERT
  8
0
  2
SYM5
 10
-551.245648819561100
 20
-387.155803016855430
 41
-1.000000000000000
  0
INSERT
  8
0
  2
SYM5
 10
-399.245648819560870
 20
-387.155803016855430
  0
INSERT
  8
0
  2
SYM5
 10
-340.245648819561320
 20
-286.155803016856110
  0
INSERT
  8
0
  2
SYM5
 10
-343.245648819560870
 20
-186.155803016855630
  0
INSERT
  8
0
  2
SYM5
 10
-415.245648819560870
 20
-110.655803016855620
  0
INSERT
  8
0
  2
SYM4
 10
-464.745648819560870
 20
-104.155803016855620
  0
LINE
  8
0
  6
DASHDOT
 62
4
 10
-395.245648819561320
 20
-105.155803016855400
 11
-395.245648819561320
 21
-164.155803016855400
  0
LINE
  8
0
  6
DASHDOT
 62
4
 10
-365.745648819561320
 20
-134.655803016855630
 11
-424.745648819561320
 21
-134.655803016855630
  0
LINE
  8
0
  6
DASHDOT
 62
4
 10
-670.505352968153600
 20
-217.655803016859270
 11
-279.321359255096470
 21
-217.655803016859270
  0
ARC
  8
0
  6
CONTINUOUS
 62
3
 10
-538.885259126350430
 20
-192.516192710066520
 40
6.499999999999999
 50
87.278340775294154
 51
263.116633603636160
  0
LINE
  8
0
  6
CONTINUOUS
 62
3
 10
-538.882857917982730
 20
-185.012029896259350
 11
-545.380446778428110
 21
-188.766197805812080
  0
LINE
  8
0
  6
CONTINUOUS
 62
3
 10
-538.483896719076710
 20
-185.242368502979190
 11
-538.882857746834470
 21
-185.012028533651200
  0
LINE
  8
0
  6
CONTINUOUS
 62
3
 10
-545.382852842137820
 20
-196.270360522364710
 11
-539.699960111909490
 21
-199.551376075517280
  0
LINE
  8
0
  6
CONTINUOUS
 62
3
 10
-545.380448221069970
 20
-188.766198837323000
 11
-545.382851478166800
 21
-196.270357811016850
  0
INSERT
  8
0
  2
SYM6
 10
-538.885259126350430
 20
-319.795413323644770
 41
-1.000000000000000
  0
ARC
  8
0
  6
CONTINUOUS
 62
3
 10
-411.606038512771310
 20
-192.516192710066520
 40
6.500000000000008
 50
91.230722540682024
 51
92.721659224705846
  0
LINE
  8
0
  6
CONTINUOUS
 62
3
 10
-411.608439721139010
 20
-185.012029896259350
 11
-411.531168246517610
 21
-185.056675702046420
  0
LINE
  8
0
  6
CONTINUOUS
 62
3
 10
-412.007400920045030
 20
-185.242368502979220
 11
-411.745648819560870
 21
-185.091246045891350
  0
INSERT
  8
0
  2
SYM7
 10
-411.606038512771310
 20
-319.795413323644770
  0
LINE
  8
0
  6
CONTINUOUS
 62
3
 10
-475.245648819560870
 20
-356.155803016855660
 11
-467.245648819561320
 21
-356.155803016855660
  0
LINE
  8
0
  6
CONTINUOUS
 62
3
 10
-475.245648819560870
 20
-356.155803016855660
 11
-483.245648819560870
 21
-356.155803016855660
  0
ARC
  8
0
  6
CONTINUOUS
 62
3
 10
-483.245648819560870
 20
-354.155803016855660
 40
2.000000000000063
 50
194.477512185929440
 51
270.000000000000000
  0
ARC
  8
0
  6
CONTINUOUS
 62
3
 10
-467.245648819561320
 20
-354.155803016855660
 40
2.000000000000000
 50
270.000000000000000
 51
345.522487814070530
  0
ARC
  8
0
  6
CONTINUOUS
 62
3
 10
-457.245648819560420
 20
-273.155803016855660
 40
80.000000000000043
 50
279.172054809625190
 51
323.661143755959020
  0
ARC
  8
0
  6
CONTINUOUS
 62
3
 10
-487.118632165768420
 20
-355.155803016855660
 40
2.000000000000063
 50
14.477512185929456
 51
90.000000000000000
  0
ARC
  8
0
  6
CONTINUOUS
 62
3
 10
-493.245648819561780
 20
-273.155803016855660
 40
80.000000000000000
 50
180.000000000000000
 51
202.119118468599990
  0
ARC
  8
0
  6
CONTINUOUS
 62
3
 10
-463.372665473353780
 20
-355.155803016855660
 40
2.000000000000000
 50
90.000000000000000
 51
165.522487814070560
  0
ARC
  8
0
  6
CONTINUOUS
 62
3
 10
-457.245648819560420
 20
-273.155803016855660
 40
80.000000000000000
 50
270.000000000000000
 51
279.172054809625190
  0
ARC
  8
0
  6
CONTINUOUS
 62
3
 10
-463.372665473353780
 20
-157.155803016855630
 40
2.000000000000063
 50
194.477512185929440
 51
199.449486945498250
  0
ARC
  8
0
  6
CONTINUOUS
 62
3
 10
-467.245648819561320
 20
-158.155803016855630
 40
2.000000000000063
 50
14.477512185929456
 51
90.000000000000000
  0
ARC
  8
0
  6
CONTINUOUS
 62
3
 10
-457.245648819560420
 20
-239.155803016855630
 40
80.000000000000014
 50
48.337970458517773
 51
48.574982614211528
  0
ARC
  8
0
  6
CONTINUOUS
 62
3
 10
-487.118632165768420
 20
-157.155803016855630
 40
2.000000000000059
 50
340.550513054509000
 51
345.522487814070530
  0
ARC
  8
0
  6
CONTINUOUS
 62
3
 10
-483.245648819560870
 20
-158.155803016855630
 40
2.000000000000000
 50
90.000000000000000
 51
165.522487814070560
  0
ARC
  8
0
  6
CONTINUOUS
 62
3
 10
-457.245648819560420
 20
-273.155803016855660
 40
80.000000000000199
 50
323.661143755959020
 51
0.000000000000000
  0
ARC
  8
0
  6
CONTINUOUS
 62
3
 10
-493.245648819561780
 20
-273.155803016855660
 40
79.999999999999943
 50
242.258787150595110
 51
270.000000000000000
  0
ARC
  8
0
  6
CONTINUOUS
 62
3
 10
-493.245648819561780
 20
-273.155803016855660
 40
79.999999999999986
 50
202.119118468599990
 51
242.258787150595110
  0
LINE
  8
0
  6
CONTINUOUS
 62
3
 10
-377.245648819560420
 20
-264.155803016859290
 11
-377.245648819560420
 21
-273.155803016855660
  0
LINE
  8
0
  6
CONTINUOUS
 62
3
 10
-573.245648819561780
 20
-256.155803016855660
 11
-573.245648819561780
 21
-239.155803016855630
  0
LINE
  8
0
  6
CONTINUOUS
 62
3
 10
-573.245648819561780
 20
-256.155803016855660
 11
-573.245648819561780
 21
-273.155803016855660
  0
LINE
  8
0
  6
CONTINUOUS
 62
3
 10
-463.372665473353780
 20
-353.155803016855660
 11
-457.245648819560420
 21
-353.155803016855660
  0
LINE
  8
0
  6
CONTINUOUS
 62
3
 10
-487.118632165768420
 20
-353.155803016855660
 11
-493.245648819561780
 21
-353.155803016855660
  0
LINE
  8
0
  6
DIVIDE
 62
4
 10
-377.245648819560420
 20
-266.010221745197100
 11
-377.245648819560420
 21
-273.155803016855660
  0
LINE
  8
0
  6
CONTINUOUS
 62
3
 10
-475.245648819560870
 20
-156.155803016855630
 11
-467.245648819561320
 21
-156.155803016855630
  0
LINE
  8
0
  6
CONTINUOUS
 62
3
 10
-475.245648819560870
 20
-156.155803016855630
 11
-483.245648819560870
 21
-156.155803016855630
  0
ARC
  8
0
  6
CONTINUOUS
 62
3
 10
-545.175888903158580
 20
-202.735193493466880
 40
2.000000000000040
 50
58.384308452260875
 51
142.623325274950420
  0
ARC
  8
0
  6
CONTINUOUS
 62
3
 10
-545.175888903158580
 20
-202.735193493466880
 40
2.000000000000040
 50
58.384308452260875
 51
142.623325274950420
  0
ARC
  8
0
  6
CONTINUOUS
 62
3
 10
-538.885259126350430
 20
-192.516192710066750
 40
9.999999999999870
 50
238.384308452268900
 51
264.396233075981170
  0
ARC
  8
0
  6
CONTINUOUS
 62
3
 10
-528.666258342950300
 20
-326.086043100452910
 40
1.999999999999921
 50
148.384308452266400
 51
232.623325274950420
  0
ARC
  8
0
  6
CONTINUOUS
 62
3
 10
-545.175888903158580
 20
-309.576412540244410
 40
1.999999999999958
 50
217.376674725049580
 51
301.615691547739120
  0
ARC
  8
0
  6
CONTINUOUS
 62
3
 10
-538.885259126350430
 20
-319.795413323644540
 40
10.000000000000108
 50
328.384308452266620
 51
121.615691547731100
  0
ARC
  8
0
  6
CONTINUOUS
 62
3
 10
-421.825039296171440
 20
-326.086043100452910
 40
1.999999999999958
 50
307.376674725049550
 51
31.615691547733597
  0
ARC
  8
0
  6
CONTINUOUS
 62
3
 10
-405.315408735963160
 20
-309.576412540244410
 40
2.000000000000040
 50
238.384308452260910
 51
322.623325274950450
  0
ARC
  8
0
  6
CONTINUOUS
 62
3
 10
-411.606038512771310
 20
-319.795413323644540
 40
9.999999999999870
 50
58.384308452268890
 51
211.615691547733350
  0
ARC
  8
0
  6
CONTINUOUS
 62
3
 10
-507.745648819560870
 20
-344.551703441543050
 40
5.000000000000106
 50
262.722986123431950
 51
0.000000000000000
  0
ARC
  8
0
  6
CONTINUOUS
 62
3
 10
-492.745648819560870
 20
-345.155803016855660
 40
5.000000000000000
 50
180.000000000000000
 51
270.000000000000000
  0
ARC
  8
0
  6
CONTINUOUS
 62
3
 10
-457.745648819560870
 20
-345.155803016855660
 40
5.000000000000000
 50
270.000000000000000
 51
0.000000000000000
  0
ARC
  8
0
  6
CONTINUOUS
 62
3
 10
-442.745648819560870
 20
-344.551703441543050
 40
5.000000000000000
 50
180.000000000000000
 51
277.277013876567990
  0
LINE
  8
0
  6
CONTINUOUS
 62
3
 10
-502.745648819560870
 20
-344.551703441543050
 11
-502.745648819560870
 21
-290.590523866602670
  0
LINE
  8
0
  6
CONTINUOUS
 62
3
 10
-497.745648819560870
 20
-345.155803016855660
 11
-497.745648819560870
 21
-297.818136124832220
  0
LINE
  8
0
  6
CONTINUOUS
 62
3
 10
-452.745648819560870
 20
-345.155803016855660
 11
-452.745648819560870
 21
-297.818136124832220
  0
LINE
  8
0
  6
CONTINUOUS
 62
3
 10
-447.745648819560870
 20
-344.551703441543050
 11
-447.745648819560870
 21
-290.590523866602670
  0
ARC
  8
0
  6
CONTINUOUS
 62
3
 10
-475.245648819560870
 20
-256.155803016855660
 40
27.000000000000050
 50
231.132316163394140
 51
270.000000000000000
  0
ARC
  8
0
  6
CONTINUOUS
 62
3
 10
-475.245648819560870
 20
-256.155803016855660
 40
27.000000000000000
 50
270.000000000000000
 51
308.867683836605860
  0
ARC
  8
0
  6
DASHDOT
 62
4
 10
471.356316146886000
 20
-206.155803016859860
 40
224.999999999999970
 50
38.202208902016849
 51
51.966541107885881
  0
ARC
  8
0
  6
DASHDOT
 62
4
 10
471.356316146886000
 20
-206.155803016859860
 40
225.000000000000000
 50
217.784730717730300
 51
232.064579898530240
  0
LINE
  8
0
  6
CONTINUOUS
 62
3
 10
255.776193806722060
 20
232.344196983140820
 11
255.776193806722060
 21
205.644196983141000
  0
ARC
  8
0
  6
CONTINUOUS
 62
3
 10
254.976193806722340
 20
205.644196983141000
 40
0.800000000000182
 50
270.000000000000000
 51
0.000000000000000
  0
LINE
  8
0
  6
CONTINUOUS
 62
3
 10
255.776193806722060
 20
200.844196983140820
 11
255.776193806722060
 21
205.644196983140090
  0
ARC
  8
0
  6
CONTINUOUS
 62
3
 10
254.976193806722340
 20
259.044196983141550
 40
0.799999999999727
 50
0.000000000000000
 51
90.000000000000000
  0
LINE
  8
0
  6
CONTINUOUS
 62
3
 10
255.776193806722060
 20
232.344196983140820
 11
255.776193806722060
 21
259.044196983141550
  0
LINE
  8
0
  6
CONTINUOUS
 62
3
 10
172.976193806722340
 20
203.344196983140820
 11
169.776193806722060
 21
203.344196983140820
  0
LINE
  8
0
  6
CONTINUOUS
 62
3
 10
172.976193806722340
 20
261.344196983140820
 11
169.776193806722060
 21
261.344196983140820
  0
LINE
  8
0
  6
CONTINUOUS
 62
3
 10
-18.223806193277937
 20
380.344196983140820
 11
-2.723806193277937
 21
380.344196983140820
  0
ARC
  8
0
  6
CONTINUOUS
 62
3
 10
-12.223806193277937
 20
377.344196983140820
 40
3.000000000000000
 50
90.000000000000000
 51
180.000000000000000
  0
ARC
  8
0
  6
CONTINUOUS
 62
3
 10
-18.223806193277937
 20
377.344196983140820
 40
3.000000000000000
 50
90.000000000000000
 51
180.000000000000000
  0
ARC
  8
0
  6
CONTINUOUS
 62
3
 10
-18.223806193277937
 20
357.344196983140820
 40
3.000000000000097
 50
199.471220634494640
 51
270.000000000000000
  0
LINE
  8
0
  6
CONTINUOUS
 62
3
 10
-21.223806193277937
 20
372.344196983140820
 11
-21.223806193277937
 21
377.344196983140820
  0
LINE
  8
0
  6
CONTINUOUS
 62
3
 10
-25.223806670105091
 20
357.383584588703120
 11
-25.223805716430775
 21
371.305108636554680
  0
LINE
  8
0
  6
CONTINUOUS
 62
3
 10
-15.223806193277937
 20
356.344196983140590
 11
-24.623805811808211
 21
356.344196983140590
  0
LINE
  8
0
  6
CONTINUOUS
 62
3
 10
-15.223806193277937
 20
372.344196983140590
 11
-24.623805811808211
 21
372.344196983140590
  0
LINE
  8
0
  6
CONTINUOUS
 62
3
 10
-24.623802270671945
 20
356.344198458799610
 11
-25.223802668193798
 21
357.383587105090780
  0
LINE
  8
0
  6
CONTINUOUS
 62
3
 10
-24.623805505996984
 20
372.344196062461830
 11
-25.223804927500510
 21
371.305107768606600
  0
LINE
  8
0
  6
CONTINUOUS
 62
3
 10
-24.623805811808211
 20
356.344196983140590
 11
-24.623805811808211
 21
372.344196983140590
  0
ARC
  8
0
  6
CONTINUOUS
 62
3
 10
-18.223806193277937
 20
350.980096667093900
 40
2.999999999999903
 50
334.328072254076120
 51
0.000000000000000
  0
ARC
  8
0
  6
CONTINUOUS
 62
3
 10
-18.223806193277937
 20
356.094753479394290
 40
2.999999999999903
 50
334.328072254076120
 51
0.000000000000000
  0
ARC
  8
0
  6
CONTINUOUS
 62
3
 10
-18.223806193277937
 20
351.344196983140820
 40
2.999999999999964
 50
46.028108457829475
 51
90.000000000000000
  0
ARC
  8
0
  6
CONTINUOUS
 62
3
 10
113.990412922719420
 20
328.132518291079350
 40
5.000000000000000
 50
270.000000000000000
 51
321.908433492670440
  0
LINE
  8
0
  6
CONTINUOUS
 62
3
 10
117.925542104285910
 20
325.047918102337230
 11
144.711322988288090
 21
359.219448141264590
  0
ARC
  8
0
  6
CONTINUOUS
 62
3
 10
140.776193806722060
 20
362.304048330006250
 40
4.999999999999759
 50
321.908433492671290
 51
0.000000000000000
  0
ARC
  8
0
  6
CONTINUOUS
 62
3
 10
113.990412922719420
 20
335.860440352436630
 40
5.000000000000000
 50
270.000000000000000
 51
321.908433492670440
  0
LINE
  8
0
  6
CONTINUOUS
 62
3
 10
117.925542104285910
 20
332.775840163694510
 11
144.711322988288090
 21
366.947370202621870
  0
ARC
  8
0
  6
CONTINUOUS
 62
3
 10
140.776193806722060
 20
370.031970391363530
 40
4.999999999999759
 50
321.908433492671290
 51
0.000000000000000
  0
LINE
  8
0
  6
CONTINUOUS
 62
3
 10
140.900737349837640
 20
323.132518291079350
 11
120.119882955702110
 21
323.132518291079350
  0
ARC
  8
0
  6
CONTINUOUS
 62
3
 10
121.424132024281440
 20
241.344196983140820
 40
5.000000000000000
 50
180.000000000000000
 51
270.000000000000000
  0
ARC
  8
0
  6
CONTINUOUS
 62
3
 10
121.424132024281440
 20
223.344196983140820
 40
5.000000000000000
 50
90.000000000000000
 51
180.000000000000000
  0
LINE
  8
0
  6
CONTINUOUS
 62
3
 10
140.776193806722060
 20
228.344196983140820
 11
121.424132024281440
 21
228.344196983140820
  0
ARC
  8
0
  6
CONTINUOUS
 62
3
 10
140.776193806722060
 20
223.344196983140820
 40
5.000000000000000
 50
0.000000000000000
 51
90.000000000000000
  0
LINE
  8
0
  6
CONTINUOUS
 62
3
 10
140.776193806722060
 20
236.344196983140820
 11
121.424132024281440
 21
236.344196983140820
  0
ARC
  8
0
  6
CONTINUOUS
 62
3
 10
140.776193806722060
 20
241.344196983140820
 40
5.000000000000000
 50
270.000000000000000
 51
0.000000000000000
  0
ARC
  8
0
  6
CONTINUOUS
 62
3
 10
113.990412922719420
 20
136.555875675202290
 40
5.000000000000397
 50
38.091566507329595
 51
90.000000000000000
  0
LINE
  8
0
  6
CONTINUOUS
 62
3
 10
117.925542104285910
 20
139.640475863944400
 11
144.711322988288090
 21
105.468945825017040
  0
ARC
  8
0
  6
CONTINUOUS
 62
3
 10
140.776193806722060
 20
102.384345636275380
 40
4.999999999999545
 50
0.000000000000000
 51
38.091566507328714
  0
ARC
  8
0
  6
CONTINUOUS
 62
3
 10
113.990412922719420
 20
128.827953613845010
 40
5.000000000000397
 50
38.091566507329595
 51
90.000000000000000
  0
LINE
  8
0
  6
CONTINUOUS
 62
3
 10
117.925542104285910
 20
131.912553802587130
 11
144.711322988288090
 21
97.741023763659769
  0
ARC
  8
0
  6
CONTINUOUS
 62
3
 10
140.776193806722060
 20
94.656423574918108
 40
4.999999999999545
 50
0.000000000000000
 51
38.091566507328714
  0
LINE
  8
0
  6
CONTINUOUS
 62
3
 10
140.900737349837640
 20
141.555875675202290
 11
120.119882955702110
 21
141.555875675202290
  0
LINE
  8
0
  6
DASHDOT
 62
4
 10
178.637821825496420
 20
73.245171216167591
 11
131.507677766693290
 21
73.245171216167591
  0
LINE
  8
0
  6
DASHDOT
 62
4
 10
178.637821825496420
 20
391.443222750114050
 11
131.507677766693290
 21
391.443222750114050
  0
LINE
  8
0
  6
CONTINUOUS
 62
3
 10
168.776193806722060
 20
62.344196983140819
 11
169.776193806722060
 21
63.344196983140819
  0
LINE
  8
0
  6
CONTINUOUS
 62
3
 10
165.776193806722060
 20
62.344196983140819
 11
168.776193806722060
 21
62.344196983140819
  0
ARC
  8
0
  6
CONTINUOUS
 62
3
 10
147.776193806722060
 20
49.344177273929972
 40
2.000000000000000
 50
180.000000000000000
 51
270.000000000000000
  0
LINE
  8
0
  6
CONTINUOUS
 62
3
 10
147.767314817200370
 20
47.344196983140819
 11
165.776193806722060
 21
47.344196983140819
  0
ARC
  8
0
  6
CONTINUOUS
 62
3
 10
140.776193806722060
 20
74.330018839580816
 40
5.000000000000000
 50
0.000000000000000
 51
87.999999999996319
  0
ARC
  8
0
  6
CONTINUOUS
 62
3
 10
160.776193806722060
 20
127.837002674288440
 40
2.000000000000000
 50
180.000000000000000
 51
270.000000000000000
  0
ARC
  8
0
  6
CONTINUOUS
 62
3
 10
160.776193806722060
 20
91.770603854333558
 40
2.000000000000000
 50
180.000000000000000
 51
270.000000000000000
  0
LINE
  8
0
  6
CONTINUOUS
 62
3
 10
165.776193806722520
 20
89.770603854333558
 11
160.776193806722060
 21
89.770603854333558
  0
LINE
  8
0
  6
CONTINUOUS
 62
3
 10
165.776193806722520
 20
125.837002674288440
 11
160.776193806722060
 21
125.837002674288440
  0
LINE
  8
0
  6
CONTINUOUS
 62
3
 10
168.776193806722060
 20
402.344216692351670
 11
169.776193806722060
 21
401.344216692351670
  0
LINE
  8
0
  6
CONTINUOUS
 62
3
 10
168.776193806722060
 20
402.344216692351670
 11
165.776193806722060
 21
402.344216692351670
  0
LINE
  8
0
  6
CONTINUOUS
 62
3
 10
165.776193806722060
 20
417.344196983151730
 11
147.776193806722060
 21
417.344196983151730
  0
ARC
  8
0
  6
CONTINUOUS
 62
3
 10
147.776193806722060
 20
415.344196983151730
 40
2.000000000000000
 50
90.000000000000000
 51
180.000000000000000
  0
ARC
  8
0
  6
CONTINUOUS
 62
3
 10
140.776193806722060
 20
390.358375126700590
 40
4.999999999999925
 50
272.000000000003690
 51
0.000000000000000
  0
LINE
  8
0
  6
CONTINUOUS
 62
3
 10
-2.723806193277937
 20
380.344196983140820
 11
140.950691290234430
 21
385.361420991604750
  0
ARC
  8
0
  6
CONTINUOUS
 62
3
 10
160.776193806722060
 20
336.851391291992740
 40
2.000000000000000
 50
90.000000000000000
 51
180.000000000000000
  0
ARC
  8
0
  6
CONTINUOUS
 62
3
 10
160.776193806722060
 20
372.917790111947620
 40
2.000000000000000
 50
90.000000000000000
 51
180.000000000000000
  0
LINE
  8
0
  6
CONTINUOUS
 62
3
 10
165.776193806722520
 20
374.917790111947620
 11
160.776193806722060
 21
374.917790111947620
  0
LINE
  8
0
  6
CONTINUOUS
 62
3
 10
165.776193806722520
 20
338.851391291992740
 11
160.776193806722060
 21
338.851391291992740
  0
LINE
  8
0
  6
CONTINUOUS
 62
3
 10
165.776193806722060
 20
232.344196983140820
 11
165.776193806722060
 21
417.344216692351670
  0
LINE
  8
0
  6
CONTINUOUS
 62
3
 10
169.776193806722060
 20
232.344196983140820
 11
169.776193806722060
 21
401.344216692351670
  0
LINE
  8
0
  6
CONTINUOUS
 62
3
 10
165.776193806722060
 20
232.344196983140820
 11
165.776193806722060
 21
47.344196983140819
  0
LINE
  8
0
  6
CONTINUOUS
 62
3
 10
169.776193806722060
 20
232.344196983140820
 11
169.776193806722060
 21
63.344196983140819
  0
LINE
  8
0
  6
CONTINUOUS
 62
3
 10
145.776193806721610
 20
49.344177273929972
 11
145.776193806722060
 21
415.344216692351670
  0
LINE
  8
0
  6
DASHDOT
 62
4
 10
22.276193806722517
 20
258.640204712848340
 11
22.276193806722517
 21
206.570118076908100
  0
ARC
  8
0
  6
CONTINUOUS
 62
3
 10
22.276193806722517
 20
232.344196983140820
 40
19.999999999999982
 50
300.463560013368920
 51
62.629002634512737
  0
LINE
  8
0
  6
CONTINUOUS
 62
3
 10
22.276193806722517
 20
215.105161394878220
 11
108.786318074875110
 21
215.105161394878220
  0
ARC
  8
0
  6
CONTINUOUS
 62
3
 10
108.786318074875110
 20
212.105161394878220
 40
3.000000000000000
 50
0.000000000000000
 51
90.000000000000000
  0
LINE
  8
0
  6
CONTINUOUS
 62
3
 10
22.276193806722517
 20
250.105161394878220
 11
108.786318074875110
 21
250.105161394878220
  0
ARC
  8
0
  6
CONTINUOUS
 62
3
 10
108.786318074875110
 20
253.105161394878220
 40
3.000000000000000
 50
270.000000000000000
 51
0.000000000000000
  0
LINE
  8
0
  6
CONTINUOUS
 62
3
 10
158.776193806722060
 20
232.344196983140820
 11
158.776193806722060
 21
372.917790111947620
  0
LINE
  8
0
  6
CONTINUOUS
 62
3
 10
158.776193806722060
 20
232.344196983140820
 11
158.776193806722060
 21
91.770603854333558
  0
LINE
  8
0
  6
CONTINUOUS
 62
3
 10
254.976193806722340
 20
204.844196983140820
 11
191.776193806722060
 21
204.844196983140820
  0
LINE
  8
0
  6
CONTINUOUS
 62
3
 10
183.776193806722060
 20
204.844196983140820
 11
176.336001427857470
 21
204.844196983140820
  0
LINE
  8
0
  6
CONTINUOUS
 62
3
 10
191.776193806722060
 20
204.844196983140820
 11
183.776193806722060
 21
204.844196983140820
  0
LINE
  8
0
  6
CONTINUOUS
 62
3
 10
173.776193806722060
 20
232.344196983140820
 11
173.776193806722060
 21
204.144196983141910
  0
LINE
  8
0
  6
CONTINUOUS
 62
3
 10
173.776193806722060
 20
204.144196983141910
 11
173.776193806722060
 21
232.344196983140820
  0
LINE
  8
0
  6
CONTINUOUS
 62
3
 10
175.776193806721610
 20
204.994196983141360
 11
174.576193806722240
 21
204.994196983141360
  0
LINE
  8
0
  6
CONTINUOUS
 62
3
 10
175.776193806722060
 20
204.994196983141360
 11
176.336001427857470
 21
204.844196983140820
  0
ARC
  8
0
  6
CONTINUOUS
 62
3
 10
174.576193806722240
 20
204.194196983141180
 40
0.800000000000182
 50
90.000000000000000
 51
180.000000000000000
  0
LINE
  8
0
  6
CONTINUOUS
 62
3
 10
172.976193806722340
 20
203.344196983140820
 11
173.776193806722060
 21
204.144196983141000
  0
LINE
  8
0
  6
CONTINUOUS
 62
3
 10
184.776193806722060
 20
204.844196983140820
 11
184.776193806722060
 21
200.844196983140820
  0
LINE
  8
0
  6
CONTINUOUS
 62
3
 10
255.776193806722060
 20
200.844196983140820
 11
184.776193806722060
 21
200.844196983140820
  0
LINE
  8
0
  6
CONTINUOUS
 62
3
 10
172.976193806722340
 20
261.344196983140820
 11
173.776193806722060
 21
260.544196983141550
  0
ARC
  8
0
  6
CONTINUOUS
 62
3
 10
174.576193806722240
 20
260.494196983141360
 40
0.800000000000182
 50
180.000000000000000
 51
270.000000000000000
  0
LINE
  8
0
  6
CONTINUOUS
 62
3
 10
175.776193806722060
 20
259.694196983141180
 11
176.336001427857470
 21
259.844196983140820
  0
LINE
  8
0
  6
CONTINUOUS
 62
3
 10
175.776193806721610
 20
259.694196983141180
 11
174.576193806722240
 21
259.694196983141180
  0
LINE
  8
0
  6
CONTINUOUS
 62
3
 10
254.976193806722340
 20
259.844196983140820
 11
176.336001427857470
 21
259.844196983140820
  0
LINE
  8
0
  6
CONTINUOUS
 62
3
 10
173.776193806722060
 20
260.544196983141550
 11
173.776193806722060
 21
232.344196983140820
  0
LINE
  8
0
  6
CONTINUOUS
 62
3
 10
173.776193806722060
 20
232.344196983140820
 11
173.776193806722060
 21
260.544196983141550
  0
ARC
  8
0
  6
CONTINUOUS
 62
3
 10
-181.023805430338260
 20
114.647669470886960
 40
1.299999237060351
 50
286.601548410324710
 51
17.759447913550098
  0
ARC
  8
0
  6
CONTINUOUS
 62
3
 10
-183.223806193277710
 20
122.026694393734710
 40
8.999999999999858
 50
253.398468892518050
 51
286.601548410325050
  0
ARC
  8
0
  6
CONTINUOUS
 62
3
 10
-185.423806956217160
 20
114.647669470886960
 40
1.299999237060699
 50
162.240552086452960
 51
253.398468892505180
  0
CIRCLE
  8
0
  6
DASHED
 62
4
 10
-183.223806193277710
 20
139.844196983140590
 40
13.500000000000000
  0
LINE
  8
0
  6
DASHDOT
 62
4
 10
-206.047437824589570
 20
139.844196983140820
 11
-161.759719786191110
 21
139.844196983140820
  0
LINE
  8
0
  6
CONTINUOUS
 62
3
 10
-214.223806193277710
 20
164.844196983140820
 11
-214.223806193277710
 21
163.844196983140820
  0
ARC
  8
0
  6
CONTINUOUS
 62
3
 10
-217.023806193277890
 20
158.844196983140820
 40
5.000000000000000
 50
90.000000000000000
 51
135.074043599465310
  0
ARC
  8
0
  6
CONTINUOUS
 62
3
 10
-204.274441287887950
 20
116.044196983140860
 40
1.000000000000227
 50
216.869897645844020
 51
270.000000000000000
  0
ARC
  8
0
  6
CONTINUOUS
 62
3
 10
-205.874441287887860
 20
114.844196983140810
 40
0.999999999999727
 50
36.869897645849235
 51
90.000000000000000
  0
ARC
  8
0
  6
CONTINUOUS
 62
3
 10
-160.973171098667650
 20
114.844196983140810
 40
1.000000000000000
 50
90.000000000000000
 51
143.130102354166380
  0
ARC
  8
0
  6
CONTINUOUS
 62
3
 10
-162.573171098667560
 20
116.044196983140860
 40
1.000000000000000
 50
270.000000000000000
 51
323.130102354140380
  0
LINE
  8
0
  6
CONTINUOUS
 62
3
 10
-204.274441287887950
 20
115.044196983140860
 11
-162.573171098667560
 21
115.044196983140860
  0
ARC
  8
0
  6
CONTINUOUS
 62
3
 10
-218.673806193276620
 20
151.538760923405330
 40
10.999999999999886
 50
90.000000000000000
 51
180.000000000000000
  0
ARC
  8
0
  6
CONTINUOUS
 62
3
 10
-218.673806193276620
 20
148.067288184358400
 40
11.000000000000000
 50
90.000000000000000
 51
180.000000000000000
  0
ARC
  8
0
  6
CONTINUOUS
 62
3
 10
-217.473806193277260
 20
121.644196983140770
 40
5.799999999999727
 50
180.000000000000000
 51
270.000000000000000
  0
ARC
  8
0
  6
CONTINUOUS
 62
3
 10
-218.673806193276620
 20
124.670371603356890
 40
11.000000000000000
 50
180.000000000000000
 51
270.000000000000000
  0
ARC
  8
0
  6
CONTINUOUS
 62
3
 10
-218.273806193276980
 20
151.220131682827740
 40
4.999999999999886
 50
90.000000000000000
 51
180.000000000000000
  0
LINE
  8
0
  6
CONTINUOUS
 62
3
 10
-223.273806193276980
 20
121.644196983140770
 11
-223.273806193276980
 21
151.220131682827740
  0
LINE
  8
0
  6
CONTINUOUS
 62
3
 10
-229.673806193276620
 20
151.538760923405330
 11
-229.673806193276620
 21
124.670371603356890
  0
LINE
  8
0
  6
CONTINUOUS
 62
3
 10
-218.673806193276620
 20
113.670371603356890
 11
-186.281062399173950
 21
113.670371603356890
  0
LINE
  8
0
  6
DASHDOT
 62
4
 10
-183.223806193277710
 20
170.677910319293570
 11
-183.223806193277710
 21
108.615496802657390
  0
LINE
  8
0
  6
CONTINUOUS
 62
3
 10
-215.723806193277710
 20
164.844196983140820
 11
-215.723806193277710
 21
170.683015957817820
  0
POLYLINE
  8
0
  6
CONTINUOUS
 62
3
 66
1
 70
1
  0
VERTEX
  8
0
  6
CONTINUOUS
 62
3
 10
-215.523806193277040
 20
180.420671951080980
  0
VERTEX
  8
0
  6
CONTINUOUS
 62
3
 10
-215.614115375381860
 20
181.123628917281340
  0
VERTEX
  8
0
  6
CONTINUOUS
 62
3
 10
-215.881572390473990
 20
181.799571641493430
  0
VERTEX
  8
0
  6
CONTINUOUS
 62
3
 10
-216.315899015455070
 20
182.422524023898830
  0
VERTEX
  8
0
  6
CONTINUOUS
 62
3
 10
-216.900404321700250
 20
182.968546353797420
  0
VERTEX
  8
0
  6
CONTINUOUS
 62
3
 10
-217.612626098084920
 20
183.416655299264050
  0
VERTEX
  8
0
  6
CONTINUOUS
 62
3
 10
-218.425194061161110
 20
183.749630284826790
  0
VERTEX
  8
0
  6
CONTINUOUS
 62
3
 10
-219.306881679801220
 20
183.954675268525050
  0
VERTEX
  8
0
  6
CONTINUOUS
 62
3
 10
-220.223806193277030
 20
184.023910486625820
  0
VERTEX
  8
0
  6
CONTINUOUS
 62
3
 10
-221.140730706752830
 20
183.954675268525050
  0
VERTEX
  8
0
  6
CONTINUOUS
 62
3
 10
-222.022418325392950
 20
183.749630284826790
  0
VERTEX
  8
0
  6
CONTINUOUS
 62
3
 10
-222.834986288469140
 20
183.416655299264050
  0
VERTEX
  8
0
  6
CONTINUOUS
 62
3
 10
-223.547208064853810
 20
182.968546353797420
  0
VERTEX
  8
0
  6
CONTINUOUS
 62
3
 10
-224.131713371098980
 20
182.422524023898830
  0
VERTEX
  8
0
  6
CONTINUOUS
 62
3
 10
-224.566039996080060
 20
181.799571641493430
  0
VERTEX
  8
0
  6
CONTINUOUS
 62
3
 10
-224.833497011172200
 20
181.123628917281340
  0
VERTEX
  8
0
  6
CONTINUOUS
 62
3
 10
-224.923806193277020
 20
180.420671951080980
  0
VERTEX
  8
0
  6
CONTINUOUS
 62
3
 10
-224.833497011172200
 20
179.717714984880620
  0
VERTEX
  8
0
  6
CONTINUOUS
 62
3
 10
-224.566039996080060
 20
179.041772260668520
  0
VERTEX
  8
0
  6
CONTINUOUS
 62
3
 10
-224.131713371098980
 20
178.418819878263120
  0
VERTEX
  8
0
  6
CONTINUOUS
 62
3
 10
-223.547208064853780
 20
177.872797548364530
  0
VERTEX
  8
0
  6
CONTINUOUS
 62
3
 10
-222.834986288469140
 20
177.424688602897900
  0
VERTEX
  8
0
  6
CONTINUOUS
 62
3
 10
-222.022418325392950
 20
177.091713617335160
  0
VERTEX
  8
0
  6
CONTINUOUS
 62
3
 10
-221.140730706752830
 20
176.886668633636900
  0
VERTEX
  8
0
  6
CONTINUOUS
 62
3
 10
-220.223806193277030
 20
176.817433415536130
  0
VERTEX
  8
0
  6
CONTINUOUS
 62
3
 10
-219.306881679801220
 20
176.886668633636900
  0
VERTEX
  8
0
  6
CONTINUOUS
 62
3
 10
-218.425194061161110
 20
177.091713617335160
  0
VERTEX
  8
0
  6
CONTINUOUS
 62
3
 10
-217.612626098084920
 20
177.424688602897900
  0
VERTEX
  8
0
  6
CONTINUOUS
 62
3
 10
-216.900404321700280
 20
177.872797548364530
  0
VERTEX
  8
0
  6
CONTINUOUS
 62
3
 10
-216.315899015455070
 20
178.418819878263120
  0
VERTEX
  8
0
  6
CONTINUOUS
 62
3
 10
-215.881572390473990
 20
179.041772260668520
  0
VERTEX
  8
0
  6
CONTINUOUS
 62
3
 10
-215.614115375381860
 20
179.717714984880620
  0
SEQEND
  8
0
  6
CONTINUOUS
 62
3
  0
LINE
  8
0
  6
CONTINUOUS
 62
3
 10
-222.223806193277030
 20
177.428296397080660
 11
-220.223806193277030
 21
178.604081882702990
  0
LINE
  8
0
  6
CONTINUOUS
 62
3
 10
-220.223806193277030
 20
178.604081882702990
 11
-218.223806193277030
 21
180.256723521826420
  0
LINE
  8
0
  6
CONTINUOUS
 62
3
 10
-218.223806193277030
 20
177.428296397080660
 11
-220.223806193277030
 21
178.604081882702990
  0
LINE
  8
0
  6
CONTINUOUS
 62
3
 10
-220.223806193277030
 20
178.604081882702990
 11
-222.223806193277030
 21
180.256723521826420
  0
POLYLINE
  8
0
  6
CONTINUOUS
 62
3
 66
1
 70
1
  0
VERTEX
  8
0
  6
CONTINUOUS
 62
3
 10
-215.523806193277040
 20
284.267722015200890
  0
VERTEX
  8
0
  6
CONTINUOUS
 62
3
 10
-215.614115375381860
 20
284.970678981401250
  0
VERTEX
  8
0
  6
CONTINUOUS
 62
3
 10
-215.881572390473990
 20
285.646621705613370
  0
VERTEX
  8
0
  6
CONTINUOUS
 62
3
 10
-216.315899015455070
 20
286.269574088018770
  0
VERTEX
  8
0
  6
CONTINUOUS
 62
3
 10
-216.900404321700250
 20
286.815596417917330
  0
VERTEX
  8
0
  6
CONTINUOUS
 62
3
 10
-217.612626098084920
 20
287.263705363383960
  0
VERTEX
  8
0
  6
CONTINUOUS
 62
3
 10
-218.425194061161110
 20
287.596680348946730
  0
VERTEX
  8
0
  6
CONTINUOUS
 62
3
 10
-219.306881679801220
 20
287.801725332644990
  0
VERTEX
  8
0
  6
CONTINUOUS
 62
3
 10
-220.223806193277030
 20
287.870960550745740
  0
VERTEX
  8
0
  6
CONTINUOUS
 62
3
 10
-221.140730706752830
 20
287.801725332644990
  0
VERTEX
  8
0
  6
CONTINUOUS
 62
3
 10
-222.022418325392950
 20
287.596680348946730
  0
VERTEX
  8
0
  6
CONTINUOUS
 62
3
 10
-222.834986288469140
 20
287.263705363383960
  0
VERTEX
  8
0
  6
CONTINUOUS
 62
3
 10
-223.547208064853810
 20
286.815596417917330
  0
VERTEX
  8
0
  6
CONTINUOUS
 62
3
 10
-224.131713371098980
 20
286.269574088018770
  0
VERTEX
  8
0
  6
CONTINUOUS
 62
3
 10
-224.566039996080060
 20
285.646621705613370
  0
VERTEX
  8
0
  6
CONTINUOUS
 62
3
 10
-224.833497011172200
 20
284.970678981401250
  0
VERTEX
  8
0
  6
CONTINUOUS
 62
3
 10
-224.923806193277020
 20
284.267722015200890
  0
VERTEX
  8
0
  6
CONTINUOUS
 62
3
 10
-224.833497011172200
 20
283.564765049000530
  0
VERTEX
  8
0
  6
CONTINUOUS
 62
3
 10
-224.566039996080060
 20
282.888822324788410
  0
VERTEX
  8
0
  6
CONTINUOUS
 62
3
 10
-224.131713371098980
 20
282.265869942383010
  0
VERTEX
  8
0
  6
CONTINUOUS
 62
3
 10
-223.547208064853780
 20
281.719847612484440
  0
VERTEX
  8
0
  6
CONTINUOUS
 62
3
 10
-222.834986288469140
 20
281.271738667017810
  0
VERTEX
  8
0
  6
CONTINUOUS
 62
3
 10
-222.022418325392950
 20
280.938763681455040
  0
VERTEX
  8
0
  6
CONTINUOUS
 62
3
 10
-221.140730706752830
 20
280.733718697756790
  0
VERTEX
  8
0
  6
CONTINUOUS
 62
3
 10
-220.223806193277030
 20
280.664483479656040
  0
VERTEX
  8
0
  6
CONTINUOUS
 62
3
 10
-219.306881679801220
 20
280.733718697756790
  0
VERTEX
  8
0
  6
CONTINUOUS
 62
3
 10
-218.425194061161110
 20
280.938763681455040
  0
VERTEX
  8
0
  6
CONTINUOUS
 62
3
 10
-217.612626098084920
 20
281.271738667017810
  0
VERTEX
  8
0
  6
CONTINUOUS
 62
3
 10
-216.900404321700280
 20
281.719847612484440
  0
VERTEX
  8
0
  6
CONTINUOUS
 62
3
 10
-216.315899015455070
 20
282.265869942383010
  0
VERTEX
  8
0
  6
CONTINUOUS
 62
3
 10
-215.881572390473990
 20
282.888822324788410
  0
VERTEX
  8
0
  6
CONTINUOUS
 62
3
 10
-215.614115375381860
 20
283.564765049000530
  0
SEQEND
  8
0
  6
CONTINUOUS
 62
3
  0
LINE
  8
0
  6
CONTINUOUS
 62
3
 10
-222.223806193277030
 20
287.260097569201210
 11
-220.223806193277030
 21
286.084312083578420
  0
LINE
  8
0
  6
CONTINUOUS
 62
3
 10
-220.223806193277030
 20
286.084312083578420
 11
-218.223806193277030
 21
284.431670444454990
  0
LINE
  8
0
  6
CONTINUOUS
 62
3
 10
-218.223806193277030
 20
287.260097569201210
 11
-220.223806193277030
 21
286.084312083578420
  0
LINE
  8
0
  6
CONTINUOUS
 62
3
 10
-220.223806193277030
 20
286.084312083578420
 11
-222.223806193277030
 21
284.431670444454990
  0
LINE
  8
0
  6
CONTINUOUS
 62
3
 10
-209.223806193277600
 20
232.344196983140820
 11
-209.223806193277600
 21
297.344196983140820
  0
LINE
  8
0
  6
CONTINUOUS
 62
3
 10
-209.223806193277600
 20
297.344196983140820
 11
-237.917830415697950
 21
297.344196983140820
  0
LINE
  8
0
  6
CONTINUOUS
 62
3
 10
-260.223806193227460
 20
232.344196983140820
 11
-260.223806193227460
 21
284.787402040386270
  0
ARC
  8
0
  6
CONTINUOUS
 62
3
 10
-237.917830415697950
 20
277.344196983140820
 40
20.000000000000000
 50
90.000000000000000
 51
125.000000000000240
  0
LINE
  8
0
  6
CONTINUOUS
 62
3
 10
-249.389359142718940
 20
293.727237868920610
 11
-259.115104927739940
 21
286.917197355537380
  0
ARC
  8
0
  6
CONTINUOUS
 62
3
 10
-257.623806193227320
 20
284.787402040386270
 40
2.599999999999721
 50
125.000000000001370
 51
180.000000000000000
  0
LINE
  8
0
  6
CONTINUOUS
 62
3
 10
-209.223806193277600
 20
232.344196983140820
 11
-209.223806193277600
 21
173.724976066268030
  0
LINE
  8
0
  6
CONTINUOUS
 62
3
 10
-260.223806193227460
 20
232.344196983140820
 11
-260.223806193227460
 21
179.900991925895370
  0
LINE
  8
0
  6
CONTINUOUS
 62
3
 10
-249.389359142718940
 20
170.961156097361030
 11
-259.115104927739940
 21
177.771196610744250
  0
ARC
  8
0
  6
CONTINUOUS
 62
3
 10
-257.623806193227320
 20
179.900991925895370
 40
2.600000000000136
 50
180.000000000000000
 51
234.999999999998610
  0
LINE
  8
0
  6
CONTINUOUS
 62
3
 10
-219.223806193277480
 20
167.344196983140820
 11
-237.917830415697950
 21
167.344196983140820
  0
ARC
  8
0
  6
CONTINUOUS
 62
3
 10
-237.917830415697950
 20
187.344196983140820
 40
20.000000000000007
 50
234.999999999999740
 51
270.000000000000000
  0
LINE
  8
0
  6
CONTINUOUS
 62
3
 10
-216.223806193277480
 20
170.724976066268030
 11
-212.223806193277600
 21
170.724976066268030
  0
LINE
  8
0
  6
CONTINUOUS
 62
3
 10
-219.223806193277480
 20
167.344196983140820
 11
-219.223806193277480
 21
167.724976066268030
  0
ARC
  8
0
  6
CONTINUOUS
 62
3
 10
-212.223806193277600
 20
173.724976066268030
 40
3.000000000000000
 50
270.000000000000000
 51
0.000000000000000
  0
ARC
  8
0
  6
CONTINUOUS
 62
3
 10
-216.223806193277480
 20
167.724976066268030
 40
3.000000000000000
 50
90.000000000000000
 51
180.000000000000000
  0
ARC
  8
0
  6
CONTINUOUS
 62
3
 10
-364.864041092396860
 20
-273.832710063839950
 40
9.000000000000234
 50
7.398451589678908
 51
40.601531107483503
  0
ARC
  8
0
  6
CONTINUOUS
 62
3
 10
-357.228145467215540
 20
-272.841190941341320
 40
1.299999237060559
 50
293.999982013920090
 51
7.398451589679256
  0
LINE
  8
0
  6
DASHDOT
 62
4
 10
-382.745648819560870
 20
-249.773279237153560
 11
-382.745648819560870
 21
-272.641788412917210
  0
LINE
  8
0
  6
CONTINUOUS
 62
3
 10
-405.440212759825390
 20
-176.304794619943660
 11
-359.723014078100390
 21
-278.987304058969700
  0
ARC
  8
0
  6
CONTINUOUS
 62
3
 10
-358.977213266287090
 20
-211.502453199211350
 40
1.000000000000077
 50
0.587807867721716
 51
53.794291905958382
  0
ARC
  8
0
  6
CONTINUOUS
 62
3
 10
-357.795841150010690
 20
-209.888650261153200
 40
0.999999999999967
 50
180.740494943192910
 51
233.794291905968890
  0
ARC
  8
0
  6
CONTINUOUS
 62
3
 10
-358.566049566163770
 20
-249.047659286148330
 40
0.999999999999769
 50
123.952126946395960
 51
177.005923909151190
  0
ARC
  8
0
  6
CONTINUOUS
 62
3
 10
-359.683049590776250
 20
-247.388650261153170
 40
1.000000000000147
 50
303.952126946381380
 51
357.158610984632960
  0
ARC
  8
0
  6
CONTINUOUS
 62
3
 10
-958.745648819560870
 20
-217.655803016859490
 40
600.799999999999950
 50
357.158610984636650
 51
0.587807867706883
  0
LINE
  8
0
  6
CONTINUOUS
 62
3
 10
-406.745648819560870
 20
-184.964198139800260
 11
-406.745648819560870
 21
-259.155803016859290
  0
LINE
  8
0
  6
CONTINUOUS
 62
3
 10
-407.745648819560870
 20
-248.655803016859270
 11
-406.745648819560870
 21
-248.655803016859270
  0
LINE
  8
0
  6
CONTINUOUS
 62
3
 10
-361.675349964864490
 20
-274.602285862285160
 11
-365.192499976788550
 21
-276.168221938126980
  0
LINE
  8
0
  6
CONTINUOUS
 62
3
 10
-363.302296537167760
 20
-270.948104031715160
 11
-366.819446549091590
 21
-272.514040107556980
  0
ARC
  8
0
  6
CONTINUOUS
 62
3
 10
-362.375635223141780
 20
-261.778437605096430
 40
2.000000000000451
 50
294.000000000027340
 51
355.768661925113970
  0
ARC
  8
0
  6
CONTINUOUS
 62
3
 10
-360.950961555862360
 20
-264.428040856737990
 40
0.999999999999856
 50
113.999999999979760
 51
204.000000000003580
  0
LINE
  8
0
  6
CONTINUOUS
 62
3
 10
-382.869939796757190
 20
-217.655803016859270
 11
-356.658277982134340
 21
-276.528159357639310
  0
ARC
  8
0
  6
CONTINUOUS
 62
3
 10
-357.571823439776950
 20
-276.934896000714960
 40
1.000000000000226
 50
294.000000000027340
 51
23.999999999991683
  0
LINE
  8
0
  6
CONTINUOUS
 62
3
 10
-357.165086796700620
 20
-277.848441458357570
 11
-359.723014078100390
 21
-278.987304058969700
  0
LINE
  8
0
  6
CONTINUOUS
 62
3
 10
-401.745648819560870
 20
-264.155803016859290
 11
-366.326423788232090
 21
-264.155803016859290
  0
ARC
  8
0
  6
CONTINUOUS
 62
3
 10
-401.745648819560870
 20
-259.155803016859290
 40
5.000000000000000
 50
180.000000000000000
 51
270.000000000000000
  0
LINE
  8
0
  6
CONTINUOUS
 62
3
 10
-407.745648819560870
 20
-186.655803016859290
 11
-406.745648819560870
 21
-186.655803016859290
  0
ARC
  8
0
  6
CONTINUOUS
 62
3
 10
-403.745648819560870
 20
-184.964198139800260
 40
2.999999999999567
 50
113.999999999979760
 51
180.000000000000000
  0
LINE
  8
0
  6
CONTINUOUS
 62
3
 10
-403.162487558600450
 20
-181.420649182742300
 11
-404.965858748787130
 21
-182.223561766872420
  0
LINE
  8
0
  6
CONTINUOUS
 62
3
 10
-402.882285478420840
 20
-175.165932019329260
 11
-405.440212759820160
 21
-176.304794619941390
  0
ARC
  8
0
  6
CONTINUOUS
 62
3
 10
-359.779599827249170
 20
-267.058962374745870
 40
0.999999999999983
 50
175.284875165916760
 51
204.000000000003580
  0
ARC
  8
0
  6
CONTINUOUS
 62
3
 10
-958.745648819560870
 20
-217.655803016859490
 40
600.000000000000910
 50
355.284875165908370
 51
1.682768801133146
  0
ARC
  8
0
  6
CONTINUOUS
 62
3
 10
-373.997937805001700
 20
-200.476907149124490
 40
15.000000000000393
 50
1.682768801133086
 51
80.681876880324481
  0
LINE
  8
0
  6
CONTINUOUS
 62
3
 10
-397.524835446346170
 20
-181.416009739520520
 11
-371.569198352810080
 21
-185.674838892513550
  0
ARC
  8
0
  6
CONTINUOUS
 62
3
 10
-397.039087555907490
 20
-178.455596088198380
 40
3.000000000000030
 50
203.999999999999630
 51
260.681876880317470
  0
LINE
  8
0
  6
CONTINUOUS
 62
3
 10
-401.562003377702810
 20
-175.672740833896000
 11
-382.869939796754010
 21
-217.655803016859270
  0
LINE
  8
0
  6
CONTINUOUS
 62
3
 10
-405.111051980154230
 20
-178.999132337753620
 11
-404.374648097392200
 21
-179.311717240544910
  0
LINE
  8
0
  6
CONTINUOUS
 62
3
 10
-404.241306075198170
 20
-178.997583122095530
 11
-404.374648097392200
 21
-179.311717240544910
  0
LINE
  8
0
  6
CONTINUOUS
 62
3
 10
-404.686219820408160
 20
-177.998290489138180
 11
-405.111051980154230
 21
-178.999132337753620
  0
ARC
  8
0
  6
CONTINUOUS
 62
3
 10
-359.017787317380110
 20
-268.821589533754260
 40
1.299999237060495
 50
40.601531107483851
 51
114.000000683246080
  0
LINE
  8
0
  6
CONTINUOUS
 62
3
 10
-360.440928762739650
 20
-268.032186601563010
 11
-359.546544643063160
 21
-267.633981135798760
  0
LINE
  8
0
  6
CONTINUOUS
 62
3
 10
-357.593772261208760
 20
-274.427004805061300
 11
-356.699388141532270
 21
-274.028799339296820
  0
LINE
  8
0
  6
CONTINUOUS
 62
3
 10
-360.440928762739650
 20
-268.032186601563010
 11
-357.593772261208760
 21
-274.427004805061300
  0
LINE
  8
0
  6
CONTINUOUS
 62
3
 10
-360.440928762739650
 20
-268.032186601563010
 11
-357.593772261208760
 21
-274.427004805061300
  0
POINT
  8
0
  6
CONTINUOUS
 62
3
 10
-359.017350511974090
 20
-271.229595703312160
  0
LINE
  8
0
  6
CONTINUOUS
 62
3
 10
-366.996829634190020
 20
-272.976138842808380
 11
-365.654598712039960
 21
-275.990838853028550
  0
LINE
  8
0
  6
CONTINUOUS
 62
3
 10
-365.192499976788550
 20
-276.168221938126980
 11
-365.654598712039960
 21
-275.990838853028550
  0
LINE
  8
0
  6
CONTINUOUS
 62
3
 10
-366.819446549091590
 20
-272.514040107556980
 11
-366.996829634190020
 21
-272.976138842808380
  0
LINE
  8
0
  6
CONTINUOUS
 62
4
 10
-363.159938712091280
 20
-271.267844941890080
 11
-366.996829634190020
 21
-272.976138842808380
  0
LINE
  8
0
  6
CONTINUOUS
 62
4
 10
-361.817707789940750
 20
-274.282544952110700
 11
-365.654598712039730
 21
-275.990838853029000
  0
ARC
  8
0
  6
CONTINUOUS
 62
3
 10
-402.475548835345420
 20
-176.079477476971870
 40
1.000000000000041
 50
24.000000000003585
 51
113.999999999979760
  0
LINE
  8
0
  6
CONTINUOUS
 62
3
 10
-407.745648819560870
 20
-217.655803016859270
 11
-407.745648819560870
 21
-248.655803016859270
  0
LINE
  8
0
  6
CONTINUOUS
 62
3
 10
-407.745648819560870
 20
-217.655803016859270
 11
-407.745648819560870
 21
-186.655803016859290
  0
LINE
  8
0
  6
CONTINUOUS
 62
3
 10
-411.745648819560870
 20
-247.648302079126070
 11
-411.745648819560870
 21
-250.260546703135990
  0
LINE
  8
0
  6
CONTINUOUS
 62
3
 10
-411.745648819560870
 20
-187.663303954592490
 11
-411.745648819560870
 21
-185.051059330582580
  0
LINE
  8
0
  6
CONTINUOUS
 62
3
 10
-411.745648819560870
 20
-185.051059330582580
 11
-408.719471871252950
 21
-185.130302562805410
  0
LINE
  8
0
  6
CONTINUOUS
 62
3
 10
-407.745648819560870
 20
-249.181646145937610
 11
-407.745648819560870
 21
-186.129959887780960
  0
ARC
  8
0
  6
CONTINUOUS
 62
3
 10
-408.745648819560870
 20
-186.129959887780960
 40
1.000000000000000
 50
0.000000000000000
 51
88.499999999997257
  0
ARC
  8
0
  6
CONTINUOUS
 62
3
 10
-408.745648819560870
 20
-249.181646145937610
 40
1.000000000000045
 50
271.500000000002670
 51
0.000000000000000
  0
LINE
  8
0
  6
CONTINUOUS
 62
3
 10
-411.745648819560870
 20
-250.260546703135990
 11
-408.719471871252950
 21
-250.181303470913210
  0
ARC
  8
0
  6
CONTINUOUS
 62
4
 10
-475.245648819560870
 20
-458.255803016859200
 40
289.396999999999930
 50
90.000000000000000
 51
97.897988672427743
  0
ARC
  8
0
  6
CONTINUOUS
 62
4
 10
-514.187166774942970
 20
-177.547025476272550
 40
5.999999999999923
 50
97.897988672425626
 51
134.999999999996930
  0
ARC
  8
0
  6
CONTINUOUS
 62
3
 10
-519.194236249843360
 20
-167.559188549331000
 40
6.599999999999971
 50
98.597082237248614
 51
134.999999999998610
  0
ARC
  8
0
  6
CONTINUOUS
 62
3
 10
-479.245648819560870
 20
-188.932989784168850
 40
1.499999999999998
 50
277.928141766204020
 51
0.000000000000000
  0
ARC
  8
0
  6
CONTINUOUS
 62
3
 10
-475.245648819560420
 20
-217.655803016859270
 40
33.499999999999922
 50
97.180755781459084
 51
142.819244218541770
  0
ARC
  8
0
  6
CONTINUOUS
 62
3
 10
-475.245648819560420
 20
-217.655803016859270
 40
43.000000000000007
 50
95.531071524839788
 51
144.468928475160770
  0
ARC
  8
0
  6
CONTINUOUS
 62
3
 10
-475.245648819560420
 20
-217.655803016859270
 40
37.000000000000071
 50
95.963570118321798
 51
144.036429881678830
  0
ARC
  8
0
  6
CONTINUOUS
 62
3
 10
-498.120334747226590
 20
-199.830294785376170
 40
1.499999999999926
 50
239.999999999998410
 51
322.071858233800300
  0
ARC
  8
0
  6
CONTINUOUS
 62
3
 10
-500.741102989295430
 20
-198.317193535334010
 40
1.500000000000103
 50
142.819244218542510
 51
239.999999999998410
  0
ARC
  8
0
  6
CONTINUOUS
 62
3
 10
-506.407185273711660
 20
-195.045879403175720
 40
1.500000000000123
 50
240.000000000002730
 51
324.036429881683720
  0
LINE
  8
0
  6
CONTINUOUS
 62
3
 10
-498.870334747226590
 20
-201.129332891052740
 11
-501.491102989295430
 21
-199.616231641010590
  0
LINE
  8
0
  6
CONTINUOUS
 62
3
 10
-507.157185273711660
 20
-196.344917508852520
 11
-509.768368872695760
 21
-194.837349955075410
  0
ARC
  8
0
  6
CONTINUOUS
 62
3
 10
-509.018368872695760
 20
-193.538311849398610
 40
1.499999999999976
 50
144.468928475160790
 51
240.000000000002730
  0
ARC
  8
0
  6
CONTINUOUS
 62
3
 10
-504.741102989295880
 20
-230.066209268108960
 40
1.500000000000157
 50
202.819244218546660
 51
300.000000000001590
  0
LINE
  8
0
  6
CONTINUOUS
 62
3
 10
-503.991102989295880
 20
-231.365247373785540
 11
-501.370334747226590
 21
-229.852146123743610
  0
ARC
  8
0
  6
CONTINUOUS
 62
3
 10
-510.407185273712120
 20
-233.337523400267260
 40
1.499999999999926
 50
300.000000000001590
 51
24.036429881677126
  0
LINE
  8
0
  6
CONTINUOUS
 62
3
 10
-512.268368872696210
 20
-236.144129059721170
 11
-509.657185273712120
 21
-234.636561505943830
  0
ARC
  8
0
  6
CONTINUOUS
 62
3
 10
-513.018368872696210
 20
-234.845090954044140
 40
1.500000000000128
 50
204.468928475167470
 51
299.999999999992950
  0
ARC
  8
0
  6
CONTINUOUS
 62
3
 10
-502.120334747226590
 20
-228.553108018066580
 40
1.500000000000320
 50
299.999999999992950
 51
22.071858233784546
  0
ARC
  8
0
  6
CONTINUOUS
 62
3
 10
-475.245648819560640
 20
-217.655803016859720
 40
33.499999999999787
 50
157.180755781458430
 51
202.819244218540940
  0
ARC
  8
0
  6
CONTINUOUS
 62
3
 10
-475.245648819560640
 20
-217.655803016859720
 40
43.000000000000114
 50
155.531071524839260
 51
204.468928475160200
  0
ARC
  8
0
  6
CONTINUOUS
 62
3
 10
-475.245648819560640
 20
-217.655803016859720
 40
37.000000000000142
 50
155.963570118321170
 51
204.036429881678230
  0
ARC
  8
0
  6
CONTINUOUS
 62
3
 10
-475.245648819561320
 20
-217.655803016859270
 40
27.499999999999876
 50
157.928141766202230
 51
202.071858233798680
  0
ARC
  8
0
  6
CONTINUOUS
 62
3
 10
-502.120334747226820
 20
-206.758498015651980
 40
1.500000000000110
 50
337.928141766202600
 51
59.999999999998380
  0
ARC
  8
0
  6
CONTINUOUS
 62
3
 10
-504.741102989295650
 20
-205.245396765610050
 40
1.500000000000123
 50
60.000000000002721
 51
157.180755781457980
  0
ARC
  8
0
  6
CONTINUOUS
 62
3
 10
-510.407185273711890
 20
-201.974082633451760
 40
1.499999999999855
 50
335.963570118319300
 51
59.999999999990862
  0
LINE
  8
0
  6
CONTINUOUS
 62
3
 10
-501.370334747226820
 20
-205.459459909975410
 11
-503.991102989295650
 21
-203.946358659933250
  0
LINE
  8
0
  6
CONTINUOUS
 62
3
 10
-509.657185273711660
 20
-200.675044527775190
 11
-512.268368872696210
 21
-199.167476973998080
  0
ARC
  8
0
  6
CONTINUOUS
 62
3
 10
-513.018368872696210
 20
-200.466515079674650
 40
1.499999999999926
 50
59.999999999998380
 51
155.531071524840400
  0
ARC
  8
0
  6
CONTINUOUS
 62
3
 10
-500.741102989295880
 20
-236.994412498384320
 40
1.499999999999926
 50
120.000000000001620
 51
217.180755781464400
  0
LINE
  8
0
  6
CONTINUOUS
 62
3
 10
-501.491102989295880
 20
-235.695374392707750
 11
-498.870334747226590
 21
-234.182273142665370
  0
ARC
  8
0
  6
CONTINUOUS
 62
3
 10
-506.407185273712120
 20
-240.265726630542620
 40
1.499999999999968
 50
35.963570118309242
 51
120.000000000001620
  0
LINE
  8
0
  6
CONTINUOUS
 62
3
 10
-509.768368872696210
 20
-240.474256078643380
 11
-507.157185273712120
 21
-238.966688524866040
  0
ARC
  8
0
  6
CONTINUOUS
 62
3
 10
-509.018368872696210
 20
-241.773294184319950
 40
1.499999999999926
 50
120.000000000001620
 51
215.531071524832130
  0
ARC
  8
0
  6
CONTINUOUS
 62
3
 10
-498.120334747226590
 20
-235.481311248342390
 40
1.500000000000122
 50
37.928141766218701
 51
119.999999999992930
  0
ARC
  8
0
  6
CONTINUOUS
 62
3
 10
-475.245648819561100
 20
-217.655803016858810
 40
33.500000000000163
 50
217.180755781459110
 51
262.819244218541770
  0
ARC
  8
0
  6
CONTINUOUS
 62
3
 10
-475.245648819561100
 20
-217.655803016858810
 40
42.999999999999858
 50
215.531071524839690
 51
264.468928475160850
  0
ARC
  8
0
  6
CONTINUOUS
 62
3
 10
-475.245648819561100
 20
-217.655803016858810
 40
37.000000000000021
 50
215.963570118321970
 51
264.036429881678940
  0
ARC
  8
0
  6
CONTINUOUS
 62
3
 10
-475.245648819561100
 20
-217.655803016859720
 40
27.499999999999780
 50
217.928141766201070
 51
262.071858233797400
  0
ARC
  8
0
  6
CONTINUOUS
 62
3
 10
-479.245648819561100
 20
-246.378616249549710
 40
1.500000000000000
 50
0.000000000000000
 51
82.071858233804562
  0
ARC
  8
0
  6
CONTINUOUS
 62
3
 10
-479.245648819561100
 20
-249.404818749634020
 40
1.499999999999998
 50
262.819244218541710
 51
0.000000000000000
  0
ARC
  8
0
  6
CONTINUOUS
 62
3
 10
-479.245648819561100
 20
-255.947447013950610
 40
1.500000000000000
 50
0.000000000017370
 51
84.036429881682594
  0
LINE
  8
0
  6
CONTINUOUS
 62
3
 10
-477.745648819561100
 20
-246.378616249549710
 11
-477.745648819561100
 21
-249.404818749634020
  0
LINE
  8
0
  6
CONTINUOUS
 62
3
 10
-477.745648819561100
 20
-255.947447013950150
 11
-477.745648819561100
 21
-258.962582121504400
  0
ARC
  8
0
  6
CONTINUOUS
 62
3
 10
-479.245648819561100
 20
-258.962582121504400
 40
1.500000000000430
 50
264.468928475160000
 51
0.000000000000000
  0
ARC
  8
0
  6
CONTINUOUS
 62
3
 10
-449.750194649825860
 20
-236.994412498384320
 40
1.500000000000240
 50
322.819244218535570
 51
59.999999999998380
  0
LINE
  8
0
  6
CONTINUOUS
 62
3
 10
-449.000194649825860
 20
-235.695374392707750
 11
-451.620962891895150
 21
-234.182273142665370
  0
ARC
  8
0
  6
CONTINUOUS
 62
3
 10
-444.084112365409620
 20
-240.265726630542620
 40
1.499999999999926
 50
59.999999999998380
 51
144.036429881690740
  0
ARC
  8
0
  6
CONTINUOUS
 62
3
 10
-452.370962891895150
 20
-235.481311248342390
 40
1.500000000000320
 50
60.000000000007070
 51
142.071858233781280
  0
ARC
  8
0
  6
CONTINUOUS
 62
3
 10
-475.245648819560640
 20
-217.655803016858810
 40
33.500000000000114
 50
277.180755781458230
 51
322.819244218540860
  0
ARC
  8
0
  6
CONTINUOUS
 62
3
 10
-475.245648819560640
 20
-217.655803016858810
 40
43.000000000000227
 50
275.531071524838860
 51
324.468928475160340
  0
ARC
  8
0
  6
CONTINUOUS
 62
3
 10
-475.245648819560640
 20
-217.655803016858810
 40
37.000000000000028
 50
275.963570118320770
 51
324.036429881678030
  0
ARC
  8
0
  6
CONTINUOUS
 62
3
 10
-475.245648819560640
 20
-217.655803016859720
 40
27.499999999999879
 50
277.928141766202600
 51
322.071858233798930
  0
ARC
  8
0
  6
CONTINUOUS
 62
3
 10
-471.245648819560640
 20
-246.378616249549710
 40
1.499999999999967
 50
97.928141766195438
 51
180.000000000000000
  0
ARC
  8
0
  6
CONTINUOUS
 62
3
 10
-471.245648819560640
 20
-249.404818749634020
 40
1.500000000000000
 50
180.000000000000000
 51
277.180755781458290
  0
ARC
  8
0
  6
CONTINUOUS
 62
3
 10
-471.245648819560640
 20
-255.947447013950610
 40
1.500000000000182
 50
95.963570118326047
 51
179.999999999982630
  0
LINE
  8
0
  6
CONTINUOUS
 62
3
 10
-472.745648819560640
 20
-246.378616249549710
 11
-472.745648819560640
 21
-249.404818749634020
  0
LINE
  8
0
  6
CONTINUOUS
 62
3
 10
-472.745648819560640
 20
-255.947447013950150
 11
-472.745648819560640
 21
-258.962582121504400
  0
ARC
  8
0
  6
CONTINUOUS
 62
3
 10
-471.245648819560640
 20
-258.962582121504400
 40
1.500000000000000
 50
180.000000000000000
 51
275.531071524831360
  0
ARC
  8
0
  6
CONTINUOUS
 62
3
 10
-445.750194649825860
 20
-230.066209268108960
 40
1.499999999999926
 50
239.999999999998410
 51
337.180755781453340
  0
LINE
  8
0
  6
CONTINUOUS
 62
3
 10
-446.500194649825860
 20
-231.365247373785540
 11
-449.120962891895150
 21
-229.852146123743610
  0
ARC
  8
0
  6
CONTINUOUS
 62
3
 10
-448.370962891895150
 20
-228.553108018066580
 40
1.499999999999899
 50
157.928141766199360
 51
240.000000000007050
  0
ARC
  8
0
  6
CONTINUOUS
 62
3
 10
-475.245648819561100
 20
-217.655803016859720
 40
33.500000000000128
 50
337.180755781459030
 51
22.819244218541922
  0
ARC
  8
0
  6
CONTINUOUS
 62
3
 10
-475.245648819560420
 20
-217.655803016859270
 40
27.499999999999886
 50
337.928141766202200
 51
22.071858233797755
  0
ARC
  8
0
  6
CONTINUOUS
 62
3
 10
-448.370962891894920
 20
-206.758498015651980
 40
1.499999999999926
 50
120.000000000001620
 51
202.071858233797370
  0
ARC
  8
0
  6
CONTINUOUS
 62
3
 10
-445.750194649826080
 20
-205.245396765610050
 40
1.499999999999948
 50
22.819244218550043
 51
119.999999999997270
  0
LINE
  8
0
  6
CONTINUOUS
 62
3
 10
-449.120962891894920
 20
-205.459459909975410
 11
-446.500194649826080
 21
-203.946358659933250
  0
ARC
  8
0
  6
CONTINUOUS
 62
3
 10
-475.245648819561320
 20
-217.655803016859270
 40
33.500000000000057
 50
37.180755781458217
 51
82.819244218540916
  0
ARC
  8
0
  6
CONTINUOUS
 62
3
 10
-475.245648819561320
 20
-217.655803016859270
 40
36.999999999999922
 50
35.963570118321151
 51
84.036429881678160
  0
ARC
  8
0
  6
CONTINUOUS
 62
3
 10
-444.084112365410080
 20
-195.045879403175720
 40
1.500000000000102
 50
215.963570118316280
 51
299.999999999997270
  0
ARC
  8
0
  6
CONTINUOUS
 62
3
 10
-449.750194649826310
 20
-198.317193535334010
 40
1.499999999999926
 50
300.000000000001590
 51
37.180755781457485
  0
ARC
  8
0
  6
CONTINUOUS
 62
3
 10
-475.245648819560640
 20
-217.655803016858810
 40
27.500000000000043
 50
37.928141766201769
 51
82.071858233798309
  0
ARC
  8
0
  6
CONTINUOUS
 62
3
 10
-471.245648819560870
 20
-188.932989784168850
 40
1.500000000000000
 50
180.000000000000000
 51
262.071858233795980
  0
LINE
  8
0
  6
CONTINUOUS
 62
3
 10
-451.620962891895150
 20
-201.129332891052740
 11
-449.000194649826310
 21
-199.616231641010590
  0
ARC
  8
0
  6
CONTINUOUS
 62
3
 10
-452.370962891895150
 20
-199.830294785376170
 40
1.499999999999843
 50
217.928141766204990
 51
300.000000000001590
  0
CIRCLE
  8
0
  6
CONTINUOUS
 62
3
 10
-475.245648819560870
 20
-217.655803016858810
 40
5.000000000000000
  0
ARC
  8
0
  6
CONTINUOUS
 62
3
 10
-469.308394886366950
 20
-209.609125706765440
 40
1.499999999999693
 50
233.578178478195410
 51
300.000000000001590
  0
ARC
  8
0
  6
CONTINUOUS
 62
3
 10
-471.245648819560870
 20
-208.490651626946940
 40
1.500000000000000
 50
180.000000000000000
 51
246.421821521804280
  0
ARC
  8
0
  6
CONTINUOUS
 62
3
 10
-458.070469550516120
 20
-203.120906488978900
 40
1.499999999999926
 50
300.000000000001590
 51
40.240348321182964
  0
ARC
  8
0
  6
CONTINUOUS
 62
3
 10
-471.245648819560870
 20
-205.286486140005880
 40
1.500000000000138
 50
72.079786860605225
 51
180.000000000000000
  0
ARC
  8
0
  6
CONTINUOUS
 62
3
 10
-471.245648819560870
 20
-198.570468332866650
 40
1.500000000000000
 50
180.000000000000000
 51
258.162995844103310
  0
ARC
  8
0
  6
CONTINUOUS
 62
3
 10
-460.717264143495070
 20
-204.649034059725070
 40
1.499999999999967
 50
221.837004155893280
 51
300.000000000001590
  0
ARC
  8
0
  6
CONTINUOUS
 62
3
 10
-471.245648819560870
 20
-195.514213191374320
 40
1.499999999999952
 50
79.759651678814024
 51
180.000000000000000
  0
ARC
  8
0
  6
CONTINUOUS
 62
3
 10
-466.533506176746530
 20
-208.007042963294570
 40
1.499999999999926
 50
300.000000000001590
 51
47.920213139381872
  0
LINE
  8
0
  6
CONTINUOUS
 62
3
 10
-459.967264143495070
 20
-205.948072165401640
 11
-457.320469550516120
 21
-204.419944594655480
  0
ARC
  8
0
  6
CONTINUOUS
 62
3
 10
-475.245648819560640
 20
-217.655803016858810
 40
14.499999999999837
 50
47.920213139391684
 51
72.079786860608266
  0
LINE
  8
0
  6
CONTINUOUS
 62
3
 10
-472.745648819560870
 20
-205.286486140005880
 11
-472.745648819560870
 21
-208.490651626946940
  0
LINE
  8
0
  6
CONTINUOUS
 62
3
 10
-472.745648819560870
 20
-195.514213191374320
 11
-472.745648819560870
 21
-198.570468332866650
  0
LINE
  8
0
  6
CONTINUOUS
 62
3
 10
-468.558394886366950
 20
-210.908163812442010
 11
-465.783506176746530
 21
-209.306081068971140
  0
ARC
  8
0
  6
CONTINUOUS
 62
3
 10
-475.245648819560640
 20
-217.655803016858810
 40
23.999999999999797
 50
40.240348321186033
 51
79.759651678814308
  0
ARC
  8
0
  6
CONTINUOUS
 62
3
 10
-475.245648819560640
 20
-217.655803016858810
 40
8.500000000000078
 50
53.578178478202538
 51
66.421821521799018
  0
ARC
  8
0
  6
CONTINUOUS
 62
3
 10
-462.533506176746530
 20
-220.376359840147730
 40
1.499999999999926
 50
239.999999999998410
 51
347.920213139390400
  0
LINE
  8
0
  6
CONTINUOUS
 62
3
 10
-463.283506176746530
 20
-221.675397945824300
 11
-466.058394886366950
 21
-220.073315202353880
  0
ARC
  8
0
  6
CONTINUOUS
 62
3
 10
-465.308394886366950
 20
-218.774277096677310
 40
1.500000000000099
 50
173.578178478198990
 51
239.999999999998410
  0
ARC
  8
0
  6
CONTINUOUS
 62
3
 10
-475.245648819560640
 20
-217.655803016858810
 40
8.499999999999865
 50
353.578178478199500
 51
6.421821521797448
  0
ARC
  8
0
  6
CONTINUOUS
 62
3
 10
-465.308394886366950
 20
-216.537328937040770
 40
1.499999999999926
 50
120.000000000001620
 51
186.421821521801010
  0
LINE
  8
0
  6
CONTINUOUS
 62
3
 10
-466.058394886366950
 20
-215.238290831364200
 11
-463.283506176746530
 21
-213.636208087893320
  0
ARC
  8
0
  6
CONTINUOUS
 62
3
 10
-462.533506176746530
 20
-214.935246193569900
 40
1.500000000000192
 50
12.079786860592611
 51
120.000000000001620
  0
ARC
  8
0
  6
CONTINUOUS
 62
3
 10
-475.245648819560640
 20
-217.655803016858810
 40
14.500000000000169
 50
347.920213139391310
 51
12.079786860606980
  0
ARC
  8
0
  6
CONTINUOUS
 62
3
 10
-454.070469550516120
 20
-225.262496314463390
 40
1.499999999999926
 50
239.999999999998410
 51
340.240348321188210
  0
LINE
  8
0
  6
CONTINUOUS
 62
3
 10
-454.820469550516120
 20
-226.561534420139960
 11
-457.467264143495070
 21
-225.033406849394250
  0
ARC
  8
0
  6
CONTINUOUS
 62
3
 10
-456.717264143495070
 20
-223.734368743717230
 40
1.500000000000038
 50
161.837004155895410
 51
240.000000000007050
  0
ARC
  8
0
  6
CONTINUOUS
 62
3
 10
-475.245648819560640
 20
-217.655803016858810
 40
17.999999999999943
 50
341.837004155893340
 51
18.162995844106561
  0
ARC
  8
0
  6
CONTINUOUS
 62
3
 10
-456.717264143495070
 20
-211.577237290000430
 40
1.499999999999926
 50
120.000000000001620
 51
198.162995844104590
  0
LINE
  8
0
  6
CONTINUOUS
 62
3
 10
-457.467264143495070
 20
-210.278199184323850
 11
-454.820469550516120
 21
-208.750071613577690
  0
ARC
  8
0
  6
CONTINUOUS
 62
3
 10
-454.070469550516120
 20
-210.049109719254260
 40
1.500000000000246
 50
19.759651678811824
 51
120.000000000001620
  0
ARC
  8
0
  6
CONTINUOUS
 62
3
 10
-475.245648819560640
 20
-217.655803016858810
 40
24.000000000000139
 50
340.240348321186050
 51
19.759651678813860
  0
ARC
  8
0
  6
CONTINUOUS
 62
3
 10
-487.957791462375210
 20
-220.376359840147730
 40
1.500000000000287
 50
192.079786860609600
 51
300.000000000001590
  0
LINE
  8
0
  6
CONTINUOUS
 62
3
 10
-487.207791462375210
 20
-221.675397945824300
 11
-484.432902752754790
 21
-220.073315202353880
  0
ARC
  8
0
  6
CONTINUOUS
 62
3
 10
-485.182902752754790
 20
-218.774277096677310
 40
1.499999999999926
 50
300.000000000001590
 51
6.421821521801967
  0
ARC
  8
0
  6
CONTINUOUS
 62
3
 10
-475.245648819561320
 20
-217.655803016858810
 40
8.499999999999813
 50
173.578178478202550
 51
186.421821521800500
  0
ARC
  8
0
  6
CONTINUOUS
 62
3
 10
-485.182902752754790
 20
-216.537328937040770
 40
1.499999999999873
 50
353.578178478198030
 51
59.999999999998380
  0
LINE
  8
0
  6
CONTINUOUS
 62
3
 10
-484.432902752754790
 20
-215.238290831364200
 11
-487.207791462375440
 21
-213.636208087893320
  0
ARC
  8
0
  6
CONTINUOUS
 62
3
 10
-487.957791462375440
 20
-214.935246193569900
 40
1.499999999999926
 50
59.999999999998380
 51
167.920213139405550
  0
ARC
  8
0
  6
CONTINUOUS
 62
3
 10
-475.245648819561320
 20
-217.655803016858810
 40
14.499999999999851
 50
167.920213139392840
 51
192.079786860608920
  0
ARC
  8
0
  6
CONTINUOUS
 62
3
 10
-496.420828088605620
 20
-225.262496314463390
 40
1.500000000000246
 50
199.759651678811820
 51
300.000000000001590
  0
LINE
  8
0
  6
CONTINUOUS
 62
3
 10
-495.670828088605620
 20
-226.561534420139960
 11
-493.024033495626670
 21
-225.033406849394250
  0
ARC
  8
0
  6
CONTINUOUS
 62
3
 10
-493.774033495626670
 20
-223.734368743717230
 40
1.500000000000320
 50
299.999999999992950
 51
18.162995844104589
  0
ARC
  8
0
  6
CONTINUOUS
 62
3
 10
-475.245648819561320
 20
-217.655803016858810
 40
17.999999999999716
 50
161.837004155893200
 51
198.162995844106860
  0
ARC
  8
0
  6
CONTINUOUS
 62
3
 10
-493.774033495626670
 20
-211.577237290000430
 40
1.500000000000038
 50
341.837004155895390
 51
59.999999999998380
  0
LINE
  8
0
  6
CONTINUOUS
 62
3
 10
-493.024033495626670
 20
-210.278199184323850
 11
-495.670828088605840
 21
-208.750071613577690
  0
ARC
  8
0
  6
CONTINUOUS
 62
3
 10
-496.420828088605840
 20
-210.049109719254260
 40
1.499999999999926
 50
59.999999999998380
 51
160.240348321185250
  0
ARC
  8
0
  6
CONTINUOUS
 62
3
 10
-475.245648819561320
 20
-217.655803016858810
 40
23.999999999999918
 50
160.240348321185960
 51
199.759651678814090
  0
ARC
  8
0
  6
CONTINUOUS
 62
3
 10
-483.957791462375210
 20
-227.304563070423540
 40
1.500000000000320
 50
119.999999999992930
 51
227.920213139381870
  0
LINE
  8
0
  6
CONTINUOUS
 62
3
 10
-484.707791462375210
 20
-226.005524964746510
 11
-481.932902752754790
 21
-224.403442221276090
  0
ARC
  8
0
  6
CONTINUOUS
 62
3
 10
-481.182902752754790
 20
-225.702480326952670
 40
1.500000000000059
 50
53.578178478205707
 51
120.000000000001620
  0
ARC
  8
0
  6
CONTINUOUS
 62
3
 10
-475.245648819560870
 20
-217.655803016859270
 40
8.499999999999870
 50
233.578178478199590
 51
246.421821521797680
  0
ARC
  8
0
  6
CONTINUOUS
 62
3
 10
-479.245648819560870
 20
-226.820954406771160
 40
1.500000000000000
 50
0.000000000017370
 51
66.421821521804304
  0
LINE
  8
0
  6
CONTINUOUS
 62
3
 10
-477.745648819560870
 20
-226.820954406770710
 11
-477.745648819560870
 21
-230.025119893712000
  0
ARC
  8
0
  6
CONTINUOUS
 62
3
 10
-479.245648819560870
 20
-230.025119893712000
 40
1.500000000000355
 50
252.079786860607900
 51
0.000000000000000
  0
ARC
  8
0
  6
CONTINUOUS
 62
3
 10
-475.245648819560870
 20
-217.655803016859270
 40
14.500000000000011
 50
227.920213139391080
 51
252.079786860607410
  0
ARC
  8
0
  6
CONTINUOUS
 62
3
 10
-492.420828088605620
 20
-232.190699544739200
 40
1.499999999999926
 50
120.000000000001620
 51
220.240348321176330
  0
LINE
  8
0
  6
CONTINUOUS
 62
3
 10
-493.170828088605620
 20
-230.891661439062630
 11
-490.524033495626670
 21
-229.363533868316470
  0
ARC
  8
0
  6
CONTINUOUS
 62
3
 10
-489.774033495626670
 20
-230.662571973993040
 40
1.500000000000118
 50
41.837004155899741
 51
120.000000000001620
  0
ARC
  8
0
  6
CONTINUOUS
 62
3
 10
-475.245648819560870
 20
-217.655803016859270
 40
17.999999999999940
 50
221.837004155892320
 51
258.162995844106770
  0
ARC
  8
0
  6
CONTINUOUS
 62
3
 10
-479.245648819560870
 20
-236.741137700851450
 40
1.500000000000000
 50
0.000000000000000
 51
78.162995844101530
  0
LINE
  8
0
  6
CONTINUOUS
 62
3
 10
-477.745648819560870
 20
-236.741137700851450
 11
-477.745648819560870
 21
-239.797392842343780
  0
ARC
  8
0
  6
CONTINUOUS
 62
3
 10
-479.245648819560870
 20
-239.797392842343780
 40
1.499999999999728
 50
259.759651678812470
 51
0.000000000000000
  0
ARC
  8
0
  6
CONTINUOUS
 62
3
 10
-475.245648819560870
 20
-217.655803016859270
 40
23.999999999999844
 50
220.240348321185340
 51
259.759651678813730
  0
ARC
  8
0
  6
CONTINUOUS
 62
3
 10
-466.533506176746530
 20
-227.304563070423540
 40
1.499999999999944
 50
312.079786860618130
 51
60.000000000007070
  0
LINE
  8
0
  6
CONTINUOUS
 62
3
 10
-465.783506176746530
 20
-226.005524964746510
 11
-468.558394886366950
 21
-224.403442221276090
  0
ARC
  8
0
  6
CONTINUOUS
 62
3
 10
-469.308394886366950
 20
-225.702480326952670
 40
1.499999999999926
 50
59.999999999998380
 51
126.421821521801260
  0
ARC
  8
0
  6
CONTINUOUS
 62
3
 10
-475.245648819560870
 20
-217.655803016859270
 40
8.500000000000060
 50
293.578178478202350
 51
306.421821521799190
  0
ARC
  8
0
  6
CONTINUOUS
 62
3
 10
-471.245648819560870
 20
-226.820954406771160
 40
1.500000000000139
 50
113.578178478195690
 51
179.999999999982630
  0
LINE
  8
0
  6
CONTINUOUS
 62
3
 10
-472.745648819560870
 20
-226.820954406770710
 11
-472.745648819560870
 21
-230.025119893712000
  0
ARC
  8
0
  6
CONTINUOUS
 62
3
 10
-471.245648819560870
 20
-230.025119893712000
 40
1.500000000000000
 50
180.000000000000000
 51
287.920213139392100
  0
ARC
  8
0
  6
CONTINUOUS
 62
3
 10
-475.245648819560870
 20
-217.655803016859270
 40
14.500000000000121
 50
287.920213139392560
 51
312.079786860608860
  0
ARC
  8
0
  6
CONTINUOUS
 62
3
 10
-458.070469550516120
 20
-232.190699544739200
 40
1.499999999999828
 50
319.759651678823670
 51
59.999999999998380
  0
LINE
  8
0
  6
CONTINUOUS
 62
3
 10
-457.320469550516120
 20
-230.891661439062630
 11
-459.967264143495070
 21
-229.363533868316470
  0
ARC
  8
0
  6
CONTINUOUS
 62
3
 10
-460.717264143495070
 20
-230.662571973993040
 40
1.499999999999926
 50
59.999999999998380
 51
138.162995844100240
  0
ARC
  8
0
  6
CONTINUOUS
 62
3
 10
-475.245648819560870
 20
-217.655803016859270
 40
18.000000000000146
 50
281.837004155893230
 51
318.162995844107680
  0
ARC
  8
0
  6
CONTINUOUS
 62
3
 10
-471.245648819560870
 20
-236.741137700851450
 40
1.499999999999731
 50
101.837004155898450
 51
180.000000000000000
  0
LINE
  8
0
  6
CONTINUOUS
 62
3
 10
-472.745648819560870
 20
-236.741137700851450
 11
-472.745648819560870
 21
-239.797392842343780
  0
ARC
  8
0
  6
CONTINUOUS
 62
3
 10
-471.245648819560870
 20
-239.797392842343780
 40
1.500000000000000
 50
180.000000000000000
 51
280.240348321187530
  0
ARC
  8
0
  6
CONTINUOUS
 62
3
 10
-475.245648819560870
 20
-217.655803016859270
 40
23.999999999999716
 50
280.240348321186270
 51
319.759651678814690
  0
ARC
  8
0
  6
CONTINUOUS
 62
3
 10
-479.245648819560870
 20
-205.286486140005880
 40
1.500000000000000
 50
0.000000000000000
 51
107.920213139394770
  0
LINE
  8
0
  6
CONTINUOUS
 62
3
 10
-477.745648819560870
 20
-205.286486140005880
 11
-477.745648819560870
 21
-208.490651626946940
  0
ARC
  8
0
  6
CONTINUOUS
 62
3
 10
-479.245648819560870
 20
-208.490651626946940
 40
1.500000000000139
 50
293.578178478195700
 51
0.000000000000000
  0
ARC
  8
0
  6
CONTINUOUS
 62
3
 10
-475.245648819561320
 20
-217.655803016858810
 40
8.499999999999853
 50
113.578178478199570
 51
126.421821521797450
  0
ARC
  8
0
  6
CONTINUOUS
 62
3
 10
-481.182902752754790
 20
-209.609125706765440
 40
1.499999999999926
 50
239.999999999998410
 51
306.421821521797600
  0
LINE
  8
0
  6
CONTINUOUS
 62
3
 10
-481.932902752754790
 20
-210.908163812442010
 11
-484.707791462375440
 21
-209.306081068971140
  0
ARC
  8
0
  6
CONTINUOUS
 62
3
 10
-483.957791462375440
 20
-208.007042963294570
 40
1.499999999999792
 50
132.079786860611680
 51
239.999999999998410
  0
ARC
  8
0
  6
CONTINUOUS
 62
3
 10
-475.245648819561320
 20
-217.655803016858810
 40
14.499999999999954
 50
107.920213139390880
 51
132.079786860607670
  0
ARC
  8
0
  6
CONTINUOUS
 62
3
 10
-479.245648819560870
 20
-195.514213191374320
 40
1.500000000000000
 50
0.000000000000000
 51
100.240348321194510
  0
LINE
  8
0
  6
CONTINUOUS
 62
3
 10
-477.745648819560870
 20
-195.514213191374320
 11
-477.745648819560870
 21
-198.570468332866650
  0
ARC
  8
0
  6
CONTINUOUS
 62
3
 10
-479.245648819560870
 20
-198.570468332866650
 40
1.499999999999954
 50
281.837004155896690
 51
0.000000000000000
  0
ARC
  8
0
  6
CONTINUOUS
 62
3
 10
-475.245648819561320
 20
-217.655803016858810
 40
17.999999999999801
 50
101.837004155892000
 51
138.162995844106260
  0
ARC
  8
0
  6
CONTINUOUS
 62
3
 10
-489.774033495626670
 20
-204.649034059725070
 40
1.499999999999926
 50
239.999999999998410
 51
318.162995844106720
  0
LINE
  8
0
  6
CONTINUOUS
 62
3
 10
-490.524033495626670
 20
-205.948072165401640
 11
-493.170828088605840
 21
-204.419944594655480
  0
ARC
  8
0
  6
CONTINUOUS
 62
3
 10
-492.420828088605840
 20
-203.120906488978900
 40
1.499999999999802
 50
139.759651678811420
 51
239.999999999998410
  0
ARC
  8
0
  6
CONTINUOUS
 62
3
 10
-475.245648819561320
 20
-217.655803016858810
 40
23.999999999999872
 50
100.240348321185690
 51
139.759651678813610
  0
ARC
  8
0
  6
CONTINUOUS
 62
3
 10
-479.245648819560870
 20
-185.906787284084320
 40
1.500000000000000
 50
0.000000000000000
 51
97.180755781458288
  0
LINE
  8
0
  6
CONTINUOUS
 62
3
 10
-477.745648819560870
 20
-185.906787284084320
 11
-477.745648819560870
 21
-188.932989784168850
  0
ARC
  8
0
  6
CONTINUOUS
 62
3
 10
-479.245648819560870
 20
-179.364159019767730
 40
1.499999999999933
 50
275.963570118318330
 51
0.000000000000000
  0
LINE
  8
0
  6
CONTINUOUS
 62
3
 10
-477.745648819560870
 20
-176.349023912213510
 11
-477.745648819560870
 21
-179.364159019767730
  0
LINE
  8
0
  6
CONTINUOUS
 62
3
 10
-440.722928766425530
 20
-240.474256078643380
 11
-443.334112365409620
 21
-238.966688524866040
  0
ARC
  8
0
  6
CONTINUOUS
 62
3
 10
-441.472928766425530
 20
-241.773294184319950
 40
1.499999999999844
 50
324.468928475167900
 51
59.999999999998380
  0
ARC
  8
0
  6
CONTINUOUS
 62
3
 10
-440.084112365409620
 20
-233.337523400267260
 40
1.500000000000063
 50
155.963570118322880
 51
239.999999999998410
  0
LINE
  8
0
  6
CONTINUOUS
 62
3
 10
-438.222928766425530
 20
-236.144129059721170
 11
-440.834112365409620
 21
-234.636561505943830
  0
ARC
  8
0
  6
CONTINUOUS
 62
3
 10
-437.472928766425530
 20
-234.845090954044140
 40
1.500000000000320
 50
240.000000000007050
 51
335.531071524832500
  0
ARC
  8
0
  6
CONTINUOUS
 62
3
 10
-475.245648819561100
 20
-217.655803016859720
 40
42.999999999999936
 50
335.531071524839770
 51
24.468928475160730
  0
ARC
  8
0
  6
CONTINUOUS
 62
3
 10
-475.245648819561100
 20
-217.655803016859720
 40
36.999999999999972
 50
335.963570118321740
 51
24.036429881678828
  0
ARC
  8
0
  6
CONTINUOUS
 62
3
 10
-440.084112365409850
 20
-201.974082633451760
 40
1.500000000000123
 50
119.999999999997270
 51
204.036429881680680
  0
LINE
  8
0
  6
CONTINUOUS
 62
3
 10
-440.834112365409850
 20
-200.675044527774960
 11
-438.222928766425530
 21
-199.167476973997850
  0
ARC
  8
0
  6
CONTINUOUS
 62
3
 10
-437.472928766425530
 20
-200.466515079674650
 40
1.500000000000034
 50
24.468928475159590
 51
119.999999999997270
  0
ARC
  8
0
  6
CONTINUOUS
 62
3
 10
-475.245648819561320
 20
-217.655803016859270
 40
42.999999999999893
 50
35.531071524839213
 51
84.468928475160212
  0
ARC
  8
0
  6
CONTINUOUS
 62
3
 10
-441.472928766425980
 20
-193.538311849398610
 40
1.500000000000123
 50
299.999999999997270
 51
35.531071524839192
  0
ARC
  8
0
  6
CONTINUOUS
 62
3
 10
-471.245648819560870
 20
-179.364159019767730
 40
1.500000000000000
 50
180.000000000000000
 51
264.036429881682580
  0
ARC
  8
0
  6
CONTINUOUS
 62
3
 10
-471.245648819560870
 20
-185.906787284084320
 40
1.499999999999998
 50
82.819244218541712
 51
180.000000000000000
  0
LINE
  8
0
  6
CONTINUOUS
 62
3
 10
-472.745648819560870
 20
-185.906787284084320
 11
-472.745648819560870
 21
-188.932989784168850
  0
LINE
  8
0
  6
CONTINUOUS
 62
3
 10
-443.334112365410080
 20
-196.344917508852520
 11
-440.722928766425980
 21
-194.837349955075410
  0
LINE
  8
0
  6
CONTINUOUS
 62
3
 10
-472.745648819560870
 20
-176.349023912213740
 11
-472.745648819560870
 21
-179.364159019767730
  0
ARC
  8
0
  6
CONTINUOUS
 62
3
 10
-475.245648819561100
 20
-217.655803016858810
 40
27.499999999999787
 50
97.928141766201691
 51
142.071858233797940
  0
ARC
  8
0
  6
CONTINUOUS
 62
3
 10
-475.245648819560640
 20
-217.655803016858810
 40
17.999999999999901
 50
41.837004155893254
 51
78.162995844107286
  0
ARC
  8
0
  6
CONTINUOUS
 62
3
 10
-479.245648819560870
 20
-176.349023912213510
 40
1.500000000000000
 50
0.000000000000000
 51
95.531071524841693
  0
ARC
  8
0
  6
CONTINUOUS
 62
3
 10
-471.245648819560870
 20
-176.349023912213740
 40
1.500000000000203
 50
84.468928475159132
 51
180.000000000000000
  0
ARC
  8
0
  6
CONTINUOUS
 62
3
 10
-475.245648819560870
 20
-458.255803016859200
 40
300.599999999999910
 50
90.000000000000000
 51
98.597082237249069
  0
ARC
  8
0
  6
CONTINUOUS
 62
3
 10
-475.245648819560870
 20
22.944196983140841
 40
300.600000000000140
 50
270.000000000000000
 51
278.597082237249080
  0
ARC
  8
0
  6
CONTINUOUS
 62
3
 10
-431.297061389278380
 20
-167.559188549331000
 40
6.600000000000118
 50
45.000000000001400
 51
81.402917762751386
  0
ARC
  8
0
  6
CONTINUOUS
 62
3
 10
-475.245648819560870
 20
-458.255803016859200
 40
300.599999999999800
 50
81.402917762750931
 51
90.000000000000000
  0
ARC
  8
0
  6
CONTINUOUS
 62
3
 10
-431.297061389278380
 20
-267.752417484387820
 40
6.599999999999747
 50
278.597082237248910
 51
315.000000000000000
  0
ARC
  8
0
  6
CONTINUOUS
 62
3
 10
-475.245648819560870
 20
22.944196983140841
 40
300.600000000000020
 50
261.402917762750920
 51
270.000000000000000
  0
ARC
  8
0
  6
CONTINUOUS
 62
3
 10
-519.194236249843360
 20
-267.752417484387820
 40
6.599999999999957
 50
225.000000000000000
 51
261.402917762751090
  0
LINE
  8
0
  6
CONTINUOUS
 62
3
 10
-426.630156633447200
 20
-162.892283793499810
 11
-419.563707514788230
 21
-169.958732912158780
  0
ARC
  8
0
  6
CONTINUOUS
 62
3
 10
-438.372747894350480
 20
-188.767773291721030
 40
26.600000000000193
 50
6.051985358668552
 51
45.000000000000000
  0
LINE
  8
0
  6
CONTINUOUS
 62
3
 10
-523.861141005674540
 20
-162.892283793499810
 11
-530.927590124333510
 21
-169.958732912158780
  0
ARC
  8
0
  6
CONTINUOUS
 62
3
 10
-512.118549744771260
 20
-188.767773291721030
 40
26.600000000000119
 50
135.000000000000000
 51
173.948014641331410
  0
LINE
  8
0
  6
CONTINUOUS
 62
3
 10
-523.861141005674540
 20
-272.419322240219000
 11
-530.927590124333730
 21
-265.352873121559360
  0
ARC
  8
0
  6
CONTINUOUS
 62
3
 10
-239.645648819560820
 20
-217.655803016859270
 40
300.599999999999970
 50
173.948014641331500
 51
186.051985358668500
  0
ARC
  8
0
  6
CONTINUOUS
 62
3
 10
-512.118549744771260
 20
-246.543832741997530
 40
26.599999999999969
 50
186.051985358668590
 51
224.999999999999010
  0
ARC
  8
0
  6
CONTINUOUS
 62
3
 10
-710.845648819560780
 20
-217.655803016859270
 40
300.600000000000080
 50
353.948014641331500
 51
6.051985358668493
  0
LINE
  8
0
  6
CONTINUOUS
 62
3
 10
-426.630156633447200
 20
-272.419322240219000
 11
-419.563707514787780
 21
-265.352873121559360
  0
ARC
  8
0
  6
CONTINUOUS
 62
3
 10
-438.372747894350250
 20
-246.543832741997530
 40
26.599999999999977
 50
315.000000000000970
 51
353.948014641331380
  0
ARC
  8
0
  6
CONTINUOUS
 62
4
 10
-512.118549744771260
 20
-188.767773291721030
 40
15.396999999999876
 50
135.000000000000000
 51
173.948014641331160
  0
LINE
  8
0
  6
CONTINUOUS
 62
4
 10
-518.429807462062060
 20
-173.304384789153000
 11
-523.005872854700670
 21
-177.880450181791620
  0
ARC
  8
0
  6
CONTINUOUS
 62
4
 10
-239.645648819560930
 20
-217.655803016859270
 40
289.396999999999930
 50
173.948014641331500
 51
180.000000000000000
  0
ARC
  8
0
  6
CONTINUOUS
 62
4
 10
-475.245648819560870
 20
-458.255803016859200
 40
289.396999999999820
 50
82.102011327572214
 51
90.000000000000000
  0
ARC
  8
0
  6
CONTINUOUS
 62
4
 10
-436.304130864178550
 20
-177.547025476272550
 40
6.000000000000049
 50
45.000000000003077
 51
82.102011327574374
  0
LINE
  8
0
  6
CONTINUOUS
 62
4
 10
-432.061490177059450
 20
-173.304384789153000
 11
-427.485424784420840
 21
-177.880450181791620
  0
ARC
  8
0
  6
CONTINUOUS
 62
4
 10
-438.372747894350250
 20
-188.767773291721030
 40
15.397000000000052
 50
6.051985358668849
 51
45.000000000000000
  0
ARC
  8
0
  6
CONTINUOUS
 62
4
 10
-710.845648819560780
 20
-217.655803016859270
 40
289.397000000000160
 50
0.000000000000000
 51
6.051985358668502
  0
ARC
  8
0
  6
CONTINUOUS
 62
4
 10
-475.245648819560870
 20
22.944196983140614
 40
289.396999999999930
 50
270.000000000000000
 51
277.897988672427800
  0
ARC
  8
0
  6
CONTINUOUS
 62
4
 10
-436.304130864178550
 20
-257.764580557446040
 40
5.999999999999923
 50
277.897988672425640
 51
314.999999999996870
  0
LINE
  8
0
  6
CONTINUOUS
 62
4
 10
-432.061490177059450
 20
-262.007221244565590
 11
-427.485424784420840
 21
-257.431155851926970
  0
ARC
  8
0
  6
CONTINUOUS
 62
4
 10
-438.372747894350250
 20
-246.543832741997530
 40
15.396999999999895
 50
314.999999999999890
 51
353.948014641331160
  0
ARC
  8
0
  6
CONTINUOUS
 62
4
 10
-710.845648819560780
 20
-217.655803016859270
 40
289.397000000000160
 50
353.948014641331500
 51
0.000000000000000
  0
ARC
  8
0
  6
CONTINUOUS
 62
4
 10
-475.245648819560640
 20
22.944196983140614
 40
289.396999999999820
 50
262.102011327572200
 51
270.000000000000000
  0
ARC
  8
0
  6
CONTINUOUS
 62
4
 10
-514.187166774942970
 20
-257.764580557446040
 40
6.000000000000049
 50
225.000000000003070
 51
262.102011327574360
  0
LINE
  8
0
  6
CONTINUOUS
 62
4
 10
-518.429807462062060
 20
-262.007221244565590
 11
-523.005872854700670
 21
-257.431155851926970
  0
ARC
  8
0
  6
CONTINUOUS
 62
4
 10
-512.118549744771260
 20
-246.543832741997530
 40
15.397000000000052
 50
186.051985358668840
 51
225.000000000000110
  0
ARC
  8
0
  6
CONTINUOUS
 62
4
 10
-239.645648819560710
 20
-217.655803016859270
 40
289.397000000000160
 50
180.000000000000000
 51
186.051985358668500
  0
TEXT
  8
0
  6
CONTINUOUS
 62
3
 10
-531.486694335937500
 20
254.788375854492190
 40
16.000000000000000
  1
Ｄ０６４
 50
0.000002504478167
 41
0.833333333333333
  7
STANDARD1
  0
TEXT
  8
0
  6
CONTINUOUS
 62
3
 10
-531.486694335937500
 20
233.588378906250000
 40
16.000000000000000
  1
三菱ギヤードモートル
 50
0.000002504478167
 41
0.833333333333333
  7
STANDARD1
  0
TEXT
  8
0
  6
CONTINUOUS
 62
3
 10
-531.486694335937500
 20
212.388381958007810
 40
16.000000000000000
  1
ＧＭ－ＤＦ
 50
0.000002504478167
 41
0.833333333333333
  7
STANDARD1
  0
TEXT
  8
0
  6
CONTINUOUS
 62
3
 10
-531.486694335937500
 20
191.188369750976560
 40
16.000000000000000
  1
０．４（kＷ）
 50
0.000002504478167
 41
0.804878051688032
  7
STANDARD1
  0
TEXT
  8
0
  6
CONTINUOUS
 62
3
 10
-531.486694335937500
 20
169.988372802734380
 40
16.000000000000000
  1
１／１２００
 50
0.000002504478167
 41
0.833333333333333
  7
STANDARD1
  0
TEXT
  8
0
  6
CONTINUOUS
 62
3
 10
-531.486694335937500
 20
148.788375854492190
 40
16.000000000000000
  1
ＳＣＡＬＥ　１／１
 50
0.000002504478167
 41
0.833333333333333
  7
STANDARD1
  0
ARC
  8
0
  6
DASHED
 62
3
 10
398.586216162670550
 20
-176.079477476989780
 40
0.999999999999856
 50
66.000000000020236
 51
155.999999999996390
  0
LINE
  8
0
  6
DASHED
 62
3
 10
357.928375117265890
 20
-274.282544952128600
 11
361.765266039364860
 21
-275.990838853046910
  0
LINE
  8
0
  6
DASHED
 62
3
 10
359.270606039416410
 20
-271.267844941907980
 11
363.107496961515150
 21
-272.976138842826290
  0
LINE
  8
0
  6
DASHED
 62
3
 10
362.930113876416730
 20
-272.514040107574890
 11
363.107496961515150
 21
-272.976138842826290
  0
LINE
  8
0
  6
DASHED
 62
3
 10
361.303167304113690
 20
-276.168221938144880
 11
361.765266039365090
 21
-275.990838853046450
  0
LINE
  8
0
  6
DASHED
 62
3
 10
363.107496961515150
 20
-272.976138842826290
 11
361.765266039365090
 21
-275.990838853046450
  0
LINE
  8
0
  6
DASHED
 62
3
 10
356.551596090064780
 20
-268.032186601580920
 11
353.704439588533890
 21
-274.427004805079210
  0
LINE
  8
0
  6
DASHED
 62
3
 10
356.551596090064780
 20
-268.032186601580920
 11
353.704439588533890
 21
-274.427004805079210
  0
LINE
  8
0
  6
DASHED
 62
3
 10
353.704439588533890
 20
-274.427004805079210
 11
352.810055468857400
 21
-274.028799339314730
  0
LINE
  8
0
  6
DASHED
 62
3
 10
356.551596090064780
 20
-268.032186601580920
 11
355.657211970388290
 21
-267.633981135816670
  0
ARC
  8
0
  6
DASHED
 62
3
 10
355.128454644705240
 20
-268.821589533772170
 40
1.299999237060620
 50
65.999999316753915
 51
139.398468892516150
  0
LINE
  8
0
  6
DASHED
 62
3
 10
400.796887147733290
 20
-177.998290489156090
 11
401.221719307479360
 21
-178.999132337771530
  0
LINE
  8
0
  6
DASHED
 62
3
 10
400.351973402523300
 20
-178.997583122113440
 11
400.485315424717330
 21
-179.311717240562810
  0
LINE
  8
0
  6
DASHED
 62
3
 10
401.221719307479360
 20
-178.999132337771530
 11
400.485315424717330
 21
-179.311717240562810
  0
LINE
  8
0
  6
DASHED
 62
3
 10
397.672670705027940
 20
-175.672740833913910
 11
378.980607124079140
 21
-217.655803016877200
  0
ARC
  8
0
  6
DASHED
 62
3
 10
393.149754883232620
 20
-178.455596088216280
 40
3.000000000000022
 50
279.318123119682530
 51
336.000000000000400
  0
LINE
  8
0
  6
DASHED
 62
3
 10
393.635502773671310
 20
-181.416009739538420
 11
367.679865680135210
 21
-185.674838892531450
  0
ARC
  8
0
  6
DASHED
 62
3
 10
370.108605132326830
 20
-200.476907149142390
 40
15.000000000000041
 50
99.318123119675519
 51
178.317231198866920
  0
ARC
  8
0
  6
DASHED
 62
3
 10
954.856316146886000
 20
-217.655803016877540
 40
600.000000000001140
 50
178.317231198866840
 51
184.715124834091600
  0
ARC
  8
0
  6
DASHED
 62
3
 10
355.890267154574300
 20
-267.058962374763780
 40
1.000000000000041
 50
335.999999999996420
 51
4.715124834083239
  0
LINE
  8
0
  6
DASHED
 62
3
 10
398.992952805745970
 20
-175.165932019347170
 11
401.550880087145290
 21
-176.304794619959300
  0
LINE
  8
0
  6
DASHED
 62
3
 10
399.273154885925580
 20
-181.420649182760200
 11
401.076526076112260
 21
-182.223561766890330
  0
ARC
  8
0
  6
DASHED
 62
3
 10
399.856316146886000
 20
-184.964198139818170
 40
3.000000000000000
 50
0.000000000000000
 51
66.000000000020236
  0
ARC
  8
0
  6
DASHED
 62
3
 10
397.856316146886000
 20
-259.155803016877200
 40
5.000000000000000
 50
270.000000000000000
 51
0.000000000000000
  0
LINE
  8
0
  6
DASHED
 62
3
 10
397.856316146886000
 20
-264.155803016877200
 11
362.437091115557220
 21
-264.155803016877200
  0
LINE
  8
0
  6
DASHED
 62
3
 10
353.275754124025750
 20
-277.848441458375480
 11
355.833681405425520
 21
-278.987304058987600
  0
ARC
  8
0
  6
DASHED
 62
3
 10
353.682490767102080
 20
-276.934896000732860
 40
0.999999999999948
 50
156.000000000008300
 51
245.999999999972630
  0
LINE
  8
0
  6
DASHED
 62
3
 10
378.980607124082330
 20
-217.655803016877200
 11
352.768945309459470
 21
-276.528159357657220
  0
ARC
  8
0
  6
DASHED
 62
3
 10
357.061628883187500
 20
-264.428040856755900
 40
1.000000000000041
 50
335.999999999996420
 51
66.000000000020236
  0
ARC
  8
0
  6
DASHED
 62
3
 10
358.486302550466920
 20
-261.778437605114330
 40
2.000000000000632
 50
184.231338074886000
 51
245.999999999972630
  0
LINE
  8
0
  6
DASHED
 62
3
 10
359.412963864492890
 20
-270.948104031733070
 11
362.930113876416730
 21
-272.514040107574890
  0
LINE
  8
0
  6
DASHED
 62
3
 10
357.786017292189630
 20
-274.602285862303060
 11
361.303167304113690
 21
-276.168221938144880
  0
LINE
  8
0
  6
DASHED
 62
3
 10
402.856316146886000
 20
-184.964198139818170
 11
402.856316146886000
 21
-259.155803016877200
  0
ARC
  8
0
  6
DASHED
 62
3
 10
954.856316146886000
 20
-217.655803016877540
 40
600.799999999999950
 50
179.412192132293110
 51
182.841389015363320
  0
ARC
  8
0
  6
DASHED
 62
3
 10
355.793716918101380
 20
-247.388650261171110
 40
0.999999999999988
 50
182.841389015366990
 51
236.047873053618590
  0
ARC
  8
0
  6
DASHED
 62
3
 10
354.676716893488900
 20
-249.047659286166270
 40
1.000000000000008
 50
2.994076090848812
 51
56.047873053604029
  0
ARC
  8
0
  6
DASHED
 62
3
 10
353.906508477335820
 20
-209.888650261171110
 40
0.999999999999994
 50
306.205708094031080
 51
359.259505056807090
  0
ARC
  8
0
  6
DASHED
 62
3
 10
355.087880593612230
 20
-211.502453199229250
 40
1.000000000000128
 50
126.205708094041610
 51
179.412192132278280
  0
LINE
  8
0
  6
DASHED
 62
3
 10
401.550880087150520
 20
-176.304794619961570
 11
355.833681405425520
 21
-278.987304058987600
  0
ARC
  8
0
  6
DASHED
 62
3
 10
353.338812794540670
 20
-272.841190941359230
 40
1.299999237060687
 50
172.601548410320760
 51
246.000017986079880
  0
ARC
  8
0
  6
DASHED
 62
3
 10
360.974708419721990
 20
-273.832710063857860
 40
9.000000000000075
 50
139.398468892516490
 51
172.601548410321070
  0
LINE
  8
0
  6
DASHDOT
 62
4
 10
378.856316146886000
 20
-249.773279237171490
 11
378.856316146886000
 21
-272.641788412935110
  0
POLYLINE
  8
0
  6
CONTINUOUS
 62
3
 66
1
  0
VERTEX
  8
0
  6
CONTINUOUS
 62
3
 10
-177.479685621798350
 20
-266.142773213864190
  0
VERTEX
  8
0
  6
CONTINUOUS
 62
3
 10
-178.441386222372900
 20
-265.370894051937570
  0
VERTEX
  8
0
  6
CONTINUOUS
 62
3
 10
-179.525544390264830
 20
-264.749031483331980
  0
VERTEX
  8
0
  6
CONTINUOUS
 62
3
 10
-180.704399415909710
 20
-264.293108780746310
  0
VERTEX
  8
0
  6
CONTINUOUS
 62
3
 10
-181.947765803358100
 20
-264.014800198090200
  0
VERTEX
  8
0
  6
CONTINUOUS
 62
3
 10
-183.223806193277820
 20
-263.921232042171370
  0
SEQEND
  8
0
  6
CONTINUOUS
 62
3
  0
POLYLINE
  8
0
  6
CONTINUOUS
 62
3
 66
1
 70
1
  0
VERTEX
  8
0
  6
CONTINUOUS
 62
3
 10
-179.723806193277820
 20
-270.974297550877570
  0
VERTEX
  8
0
  6
CONTINUOUS
 62
3
 10
-179.791057711866530
 20
-270.300707780831430
  0
VERTEX
  8
0
  6
CONTINUOUS
 62
3
 10
-179.990227829488330
 20
-269.653003687894680
  0
VERTEX
  8
0
  6
CONTINUOUS
 62
3
 10
-180.313662550218910
 20
-269.056076177122180
  0
VERTEX
  8
0
  6
CONTINUOUS
 62
3
 10
-180.748932459124920
 20
-268.532864837992240
  0
VERTEX
  8
0
  6
CONTINUOUS
 62
3
 10
-181.279310377709210
 20
-268.103476388847180
  0
VERTEX
  8
0
  6
CONTINUOUS
 62
3
 10
-181.884414180000020
 20
-267.784411986983910
  0
VERTEX
  8
0
  6
CONTINUOUS
 62
3
 10
-182.540990066221380
 20
-267.587933098432640
  0
VERTEX
  8
0
  6
CONTINUOUS
 62
3
 10
-183.223806193277820
 20
-267.521590296693770
  0
VERTEX
  8
0
  6
CONTINUOUS
 62
3
 10
-183.906622320334260
 20
-267.587933098432640
  0
VERTEX
  8
0
  6
CONTINUOUS
 62
3
 10
-184.563198206555630
 20
-267.784411986983910
  0
VERTEX
  8
0
  6
CONTINUOUS
 62
3
 10
-185.168302008846440
 20
-268.103476388847180
  0
VERTEX
  8
0
  6
CONTINUOUS
 62
3
 10
-185.698679927430730
 20
-268.532864837992240
  0
VERTEX
  8
0
  6
CONTINUOUS
 62
3
 10
-186.133949836336740
 20
-269.056076177122180
  0
VERTEX
  8
0
  6
CONTINUOUS
 62
3
 10
-186.457384557067310
 20
-269.653003687894680
  0
VERTEX
  8
0
  6
CONTINUOUS
 62
3
 10
-186.656554674689120
 20
-270.300707780831430
  0
VERTEX
  8
0
  6
CONTINUOUS
 62
3
 10
-186.723806193277820
 20
-270.974297550877570
  0
VERTEX
  8
0
  6
CONTINUOUS
 62
3
 10
-186.656554674689120
 20
-271.647887320923700
  0
VERTEX
  8
0
  6
CONTINUOUS
 62
3
 10
-186.457384557067310
 20
-272.295591413860450
  0
VERTEX
  8
0
  6
CONTINUOUS
 62
3
 10
-186.133949836336740
 20
-272.892518924632950
  0
VERTEX
  8
0
  6
CONTINUOUS
 62
3
 10
-185.698679927430730
 20
-273.415730263762900
  0
VERTEX
  8
0
  6
CONTINUOUS
 62
3
 10
-185.168302008846440
 20
-273.845118712907950
  0
VERTEX
  8
0
  6
CONTINUOUS
 62
3
 10
-184.563198206555630
 20
-274.164183114771220
  0
VERTEX
  8
0
  6
CONTINUOUS
 62
3
 10
-183.906622320334260
 20
-274.360662003322490
  0
VERTEX
  8
0
  6
CONTINUOUS
 62
3
 10
-183.223806193277820
 20
-274.427004805061360
  0
VERTEX
  8
0
  6
CONTINUOUS
 62
3
 10
-182.540990066221380
 20
-274.360662003322490
  0
VERTEX
  8
0
  6
CONTINUOUS
 62
3
 10
-181.884414180000020
 20
-274.164183114771220
  0
VERTEX
  8
0
  6
CONTINUOUS
 62
3
 10
-181.279310377709210
 20
-273.845118712907950
  0
VERTEX
  8
0
  6
CONTINUOUS
 62
3
 10
-180.748932459124920
 20
-273.415730263762900
  0
VERTEX
  8
0
  6
CONTINUOUS
 62
3
 10
-180.313662550218910
 20
-272.892518924632950
  0
VERTEX
  8
0
  6
CONTINUOUS
 62
3
 10
-179.990227829488330
 20
-272.295591413860450
  0
VERTEX
  8
0
  6
CONTINUOUS
 62
3
 10
-179.791057711866530
 20
-271.647887320923700
  0
SEQEND
  8
0
  6
CONTINUOUS
 62
3
  0
POLYLINE
  8
0
  6
CONTINUOUS
 62
3
 66
1
  0
VERTEX
  8
0
  6
CONTINUOUS
 62
3
 10
-183.223806193277820
 20
-263.921232042171370
  0
VERTEX
  8
0
  6
CONTINUOUS
 62
3
 10
-184.499846583197550
 20
-264.014800198090200
  0
VERTEX
  8
0
  6
CONTINUOUS
 62
3
 10
-185.743212970645940
 20
-264.293108780746310
  0
VERTEX
  8
0
  6
CONTINUOUS
 62
3
 10
-186.922067996290820
 20
-264.749031483331980
  0
VERTEX
  8
0
  6
CONTINUOUS
 62
3
 10
-188.006226164182750
 20
-265.370894051937570
  0
VERTEX
  8
0
  6
CONTINUOUS
 62
3
 10
-188.967926764757290
 20
-266.142773213864190
  0
SEQEND
  8
0
  6
CONTINUOUS
 62
3
  0
POLYLINE
  8
0
  6
CONTINUOUS
 62
3
 66
1
  0
VERTEX
  8
0
  6
CONTINUOUS
 62
3
 10
-183.223806193277820
 20
-263.119528003424650
  0
VERTEX
  8
0
  6
CONTINUOUS
 62
3
 10
-184.650657480692700
 20
-263.236710672075670
  0
VERTEX
  8
0
  6
CONTINUOUS
 62
3
 10
-186.031752358224370
 20
-263.584500852482790
  0
VERTEX
  8
0
  6
CONTINUOUS
 62
3
 10
-187.322801737121010
 20
-264.151745574334200
  0
VERTEX
  8
0
  6
CONTINUOUS
 62
3
 10
-188.482404116692720
 20
-264.920254377119930
  0
VERTEX
  8
0
  6
CONTINUOUS
 62
3
 10
-189.473373251779090
 20
-265.865382643640430
  0
SEQEND
  8
0
  6
CONTINUOUS
 62
3
  0
POLYLINE
  8
0
  6
CONTINUOUS
 62
3
 66
1
 70
1
  0
VERTEX
  8
0
  6
CONTINUOUS
 62
3
 10
-215.523806193277150
 20
-165.732277984799170
  0
VERTEX
  8
0
  6
CONTINUOUS
 62
3
 10
-215.614115375381970
 20
-165.029321018598810
  0
VERTEX
  8
0
  6
CONTINUOUS
 62
3
 10
-215.881572390474100
 20
-164.353378294386720
  0
VERTEX
  8
0
  6
CONTINUOUS
 62
3
 10
-216.315899015455190
 20
-163.730425911981310
  0
VERTEX
  8
0
  6
CONTINUOUS
 62
3
 10
-216.900404321700360
 20
-163.184403582082720
  0
VERTEX
  8
0
  6
CONTINUOUS
 62
3
 10
-217.612626098085030
 20
-162.736294636616090
  0
VERTEX
  8
0
  6
CONTINUOUS
 62
3
 10
-218.425194061161220
 20
-162.403319651053350
  0
VERTEX
  8
0
  6
CONTINUOUS
 62
3
 10
-219.306881679801340
 20
-162.198274667355090
  0
VERTEX
  8
0
  6
CONTINUOUS
 62
3
 10
-220.223806193277140
 20
-162.129039449254320
  0
VERTEX
  8
0
  6
CONTINUOUS
 62
3
 10
-221.140730706752950
 20
-162.198274667355090
  0
VERTEX
  8
0
  6
CONTINUOUS
 62
3
 10
-222.022418325393060
 20
-162.403319651053350
  0
VERTEX
  8
0
  6
CONTINUOUS
 62
3
 10
-222.834986288469250
 20
-162.736294636616090
  0
VERTEX
  8
0
  6
CONTINUOUS
 62
3
 10
-223.547208064853920
 20
-163.184403582082720
  0
VERTEX
  8
0
  6
CONTINUOUS
 62
3
 10
-224.131713371099100
 20
-163.730425911981310
  0
VERTEX
  8
0
  6
CONTINUOUS
 62
3
 10
-224.566039996080180
 20
-164.353378294386720
  0
VERTEX
  8
0
  6
CONTINUOUS
 62
3
 10
-224.833497011172310
 20
-165.029321018598810
  0
VERTEX
  8
0
  6
CONTINUOUS
 62
3
 10
-224.923806193277130
 20
-165.732277984799170
  0
VERTEX
  8
0
  6
CONTINUOUS
 62
3
 10
-224.833497011172310
 20
-166.435234950999530
  0
VERTEX
  8
0
  6
CONTINUOUS
 62
3
 10
-224.566039996080180
 20
-167.111177675211620
  0
VERTEX
  8
0
  6
CONTINUOUS
 62
3
 10
-224.131713371099100
 20
-167.734130057617020
  0
VERTEX
  8
0
  6
CONTINUOUS
 62
3
 10
-223.547208064853890
 20
-168.280152387515610
  0
VERTEX
  8
0
  6
CONTINUOUS
 62
3
 10
-222.834986288469250
 20
-168.728261332982240
  0
VERTEX
  8
0
  6
CONTINUOUS
 62
3
 10
-222.022418325393060
 20
-169.061236318544990
  0
VERTEX
  8
0
  6
CONTINUOUS
 62
3
 10
-221.140730706752950
 20
-169.266281302243240
  0
VERTEX
  8
0
  6
CONTINUOUS
 62
3
 10
-220.223806193277140
 20
-169.335516520344020
  0
VERTEX
  8
0
  6
CONTINUOUS
 62
3
 10
-219.306881679801340
 20
-169.266281302243240
  0
VERTEX
  8
0
  6
CONTINUOUS
 62
3
 10
-218.425194061161220
 20
-169.061236318544990
  0
VERTEX
  8
0
  6
CONTINUOUS
 62
3
 10
-217.612626098085030
 20
-168.728261332982240
  0
VERTEX
  8
0
  6
CONTINUOUS
 62
3
 10
-216.900404321700390
 20
-168.280152387515610
  0
VERTEX
  8
0
  6
CONTINUOUS
 62
3
 10
-216.315899015455190
 20
-167.734130057617020
  0
VERTEX
  8
0
  6
CONTINUOUS
 62
3
 10
-215.881572390474100
 20
-167.111177675211620
  0
VERTEX
  8
0
  6
CONTINUOUS
 62
3
 10
-215.614115375381970
 20
-166.435234950999530
  0
SEQEND
  8
0
  6
CONTINUOUS
 62
3
  0
ARC
  8
0
  6
CONTINUOUS
 62
3
 10
-191.711280408998160
 20
-263.231757792635620
 40
3.999999993776328
 50
270.000000000000000
 51
313.301579148531630
  0
ARC
  8
0
  6
CONTINUOUS
 62
3
 10
-192.484024373891090
 20
-263.231757799262200
 40
3.999999987149749
 50
270.000000000000000
 51
318.821565628880590
  0
ARC
  8
0
  6
CONTINUOUS
 62
3
 10
-218.673806193276730
 20
-266.441704815281870
 40
11.000000000000000
 50
180.000000000000000
 51
270.000000000000000
  0
ARC
  8
0
  6
CONTINUOUS
 62
3
 10
-218.673806193276730
 20
-267.661914744509030
 40
11.000000000000000
 50
180.000000000000000
 51
270.000000000000000
  0
ARC
  8
0
  6
CONTINUOUS
 62
3
 10
-218.273806193277100
 20
-262.231757786411950
 40
5.000000000000000
 50
180.000000000000000
 51
270.000000000000000
  0
ARC
  8
0
  6
CONTINUOUS
 62
3
 10
-218.673806193276730
 20
-186.059195376253290
 40
11.000000000000000
 50
90.000000000000000
 51
180.000000000000000
  0
ARC
  8
0
  6
CONTINUOUS
 62
3
 10
-218.273806193277100
 20
-186.154013579751850
 40
5.000000000000000
 50
90.000000000000000
 51
180.000000000000000
  0
ARC
  8
0
  6
CONTINUOUS
 62
4
 10
-218.273806193277100
 20
-192.655803016859010
 40
5.000000000000000
 50
90.000000000000000
 51
180.000000000000000
  0
ARC
  8
0
  6
CONTINUOUS
 62
3
 10
-237.917830415698060
 20
-177.655803016859240
 40
20.000000000000000
 50
90.000000000000000
 51
125.000000000000240
  0
ARC
  8
0
  6
CONTINUOUS
 62
3
 10
-257.623806193227440
 20
-170.212597959613790
 40
2.599999999999721
 50
125.000000000001370
 51
180.000000000000000
  0
ARC
  8
0
  6
CONTINUOUS
 62
3
 10
-237.917830415698060
 20
-257.655803016859240
 40
20.000000000000007
 50
234.999999999999740
 51
270.000000000000000
  0
ARC
  8
0
  6
CONTINUOUS
 62
3
 10
-257.623806193227440
 20
-265.099008074104690
 40
2.600000000000136
 50
180.000000000000000
 51
234.999999999998610
  0
ARC
  8
0
  6
CONTINUOUS
 62
3
 10
192.776193806722060
 20
-206.155803016859860
 40
8.000000000000000
 50
90.000000000000000
 51
270.000000000000000
  0
ARC
  8
0
  6
CONTINUOUS
 62
3
 10
254.976193806722340
 20
-179.455803016859820
 40
0.799999999999727
 50
0.000000000000000
 51
90.000000000000000
  0
ARC
  8
0
  6
CONTINUOUS
 62
3
 10
174.576193806722240
 20
-178.005803016860000
 40
0.800000000000182
 50
180.000000000000000
 51
270.000000000000000
  0
ARC
  8
0
  6
CONTINUOUS
 62
3
 10
174.576193806722240
 20
-234.305803016860410
 40
0.800000000000182
 50
90.000000000000000
 51
180.000000000000000
  0
ARC
  8
0
  6
CONTINUOUS
 62
3
 10
254.976193806722340
 20
-232.855803016860590
 40
0.800000000000182
 50
270.000000000000000
 51
0.000000000000000
  0
ARC
  8
0
  6
CONTINUOUS
 62
3
 10
160.776193806722060
 20
-65.582209888052603
 40
2.000000000000000
 50
90.000000000000000
 51
180.000000000000000
  0
ARC
  8
0
  6
CONTINUOUS
 62
3
 10
160.776193806722060
 20
-101.648608708007480
 40
2.000000000000000
 50
90.000000000000000
 51
180.000000000000000
  0
ARC
  8
0
  6
CONTINUOUS
 62
3
 10
160.776193806722060
 20
-199.155803016859860
 40
2.000000000000000
 50
180.000000000000000
 51
270.000000000000000
  0
ARC
  8
0
  6
CONTINUOUS
 62
3
 10
160.776193806722060
 20
-346.729396145666670
 40
2.000000000000000
 50
180.000000000000000
 51
270.000000000000000
  0
ARC
  8
0
  6
CONTINUOUS
 62
3
 10
160.776193806722060
 20
-310.662997325711790
 40
2.000000000000000
 50
180.000000000000000
 51
270.000000000000000
  0
ARC
  8
0
  6
CONTINUOUS
 62
3
 10
160.776193806722060
 20
-213.155803016859860
 40
2.000000000000000
 50
90.000000000000000
 51
180.000000000000000
  0
ARC
  8
0
  6
CONTINUOUS
 62
3
 10
140.776193806722060
 20
-349.169981160419410
 40
5.000000000000000
 50
0.000000000000000
 51
87.999999999996405
  0
ARC
  8
0
  6
CONTINUOUS
 62
3
 10
147.776193806722060
 20
-23.155783307648790
 40
2.000000000000000
 50
90.000000000000000
 51
180.000000000000000
  0
ARC
  8
0
  6
CONTINUOUS
 62
3
 10
140.776193806722060
 20
-34.816037345492987
 40
4.999999999999902
 50
330.000000000002390
 51
0.000000000000000
  0
ARC
  8
0
  6
CONTINUOUS
 62
3
 10
113.479777633991600
 20
-82.094817021207518
 40
4.999999999999909
 50
271.999999999998470
 51
329.999999999997500
  0
ARC
  8
0
  6
CONTINUOUS
 62
3
 10
147.776193806722060
 20
-389.155822726070260
 40
2.000000000000000
 50
180.000000000000000
 51
270.000000000000000
  0
ARC
  8
0
  6
CONTINUOUS
 62
3
 10
140.776193806722060
 20
-352.737603406989360
 40
5.000000000000000
 50
270.000000000000000
 51
0.000000000000000
  0
ARC
  8
0
  6
CONTINUOUS
 62
3
 10
128.276193806722060
 20
-370.155803016859860
 40
19.000000000000000
 50
180.000000000000000
 51
266.999999999999890
  0
ARC
  8
0
  6
CONTINUOUS
 62
3
 10
104.276193806722060
 20
-362.737603406989360
 40
5.000000000000000
 50
0.000000000000000
 51
90.000000000000000
  0
ARC
  8
0
  6
CONTINUOUS
 62
3
 10
145.028333476485950
 20
-392.062564721147280
 40
1.999999999999825
 50
46.609653602427549
 51
87.000000000006906
  0
ARC
  8
0
  6
CONTINUOUS
 62
3
 10
147.776193806722060
 20
-399.155803016859860
 40
4.000000000000000
 50
270.000000000000000
 51
0.000000000000000
  0
ARC
  8
0
  6
CONTINUOUS
 62
3
 10
155.776193806722060
 20
-395.155803016859860
 40
4.000000000000000
 50
90.000000000000000
 51
180.000000000000000
  0
CIRCLE
  8
0
  6
CONTINUOUS
 62
4
 10
128.276193806722060
 20
-369.949171835603010
 40
10.477499999999992
  0
CIRCLE
  8
0
  6
CONTINUOUS
 62
3
 10
128.276193806722060
 20
-369.949171835603010
 40
9.315499999999986
  0
ARC
  8
0
  6
CONTINUOUS
 62
3
 10
114.059992310330130
 20
-100.943421716468030
 40
5.000000000000455
 50
270.000000000000000
 51
320.612185745697730
  0
ARC
  8
0
  6
CONTINUOUS
 62
3
 10
114.059992310330130
 20
-108.671343777826220
 40
5.000000000000455
 50
270.000000000000000
 51
320.612185745697730
  0
ARC
  8
0
  6
CONTINUOUS
 62
3
 10
140.776193806722060
 20
-34.816037345492987
 40
5.000000000000016
 50
330.000000000000110
 51
0.000000000000000
  0
ARC
  8
0
  6
CONTINUOUS
 62
3
 10
140.776193806722060
 20
-68.404478601044957
 40
5.000000000000246
 50
320.612185745701710
 51
0.000000000000000
  0
ARC
  8
0
  6
CONTINUOUS
 62
3
 10
140.776193806722060
 20
-76.132400662403143
 40
5.000000000000246
 50
320.612185745701710
 51
0.000000000000000
  0
ARC
  8
0
  6
CONTINUOUS
 62
3
 10
113.479777633991600
 20
-82.094817021207746
 40
4.999999999999682
 50
271.999999999998580
 51
329.999999999997500
  0
ARC
  8
0
  6
DASHED
 62
3
 10
354.676716893488900
 20
-258.547659286213050
 40
1.000000000000008
 50
2.994076090848812
 51
56.047873053604029
  0
ARC
  8
0
  6
DASHED
 62
3
 10
355.793716918101380
 20
-256.888650261217890
 40
0.999999999999988
 50
182.841389015366990
 51
236.047873053618590
  0
CIRCLE
  8
0
  6
CONTINUOUS
 62
3
 10
471.356316146886000
 20
-206.155803016859860
 40
50.000000000000000
  0
ARC
  8
0
  6
CONTINUOUS
 62
3
 10
332.040216819141280
 20
-276.348569511008010
 40
6.000000000000000
 50
180.000000000000000
 51
206.740709026617080
  0
ARC
  8
0
  6
CONTINUOUS
 62
3
 10
443.356316146886000
 20
-211.973165601855040
 40
117.460243780278770
 50
93.344152204455582
 51
171.841594723736590
  0
ARC
  8
0
  6
CONTINUOUS
 62
3
 10
471.356316146886000
 20
-691.155803016859640
 40
597.460243780278460
 50
90.968763500174902
 51
93.344152204455654
  0
ARC
  8
0
  6
CONTINUOUS
 62
3
 10
610.672415474630720
 20
-276.348569511008010
 40
5.999999999999756
 50
333.259290973381890
 51
0.000000000000000
  0
ARC
  8
0
  6
CONTINUOUS
 62
3
 10
499.356316146886000
 20
-211.973165601855040
 40
117.460243780279120
 50
8.158405276263403
 51
86.655847795544418
  0
ARC
  8
0
  6
CONTINUOUS
 62
3
 10
471.356316146886000
 20
-691.155803016859640
 40
597.460243780278690
 50
86.655847795544346
 51
89.031236499825098
  0
ARC
  8
0
  6
CONTINUOUS
 62
3
 10
396.918076820784560
 20
-386.655803016859860
 40
17.499999999999904
 50
206.539104932784450
 51
250.537049053685220
  0
ARC
  8
0
  6
CONTINUOUS
 62
3
 10
288.356316146886000
 20
-209.155803016859860
 40
2.000000000000000
 50
180.000000000000000
 51
270.000000000000000
  0
ARC
  8
0
  6
CONTINUOUS
 62
3
 10
293.536182303724220
 20
-214.155803016859860
 40
2.999999999999955
 50
2.575958927652206
 51
90.000000000000000
  0
ARC
  8
0
  6
CONTINUOUS
 62
3
 10
288.356316146886000
 20
-203.155803016859860
 40
2.000000000000000
 50
90.000000000000000
 51
180.000000000000000
  0
ARC
  8
0
  6
CONTINUOUS
 62
3
 10
293.536182303724220
 20
-198.155803016859860
 40
3.000000000000000
 50
270.000000000000000
 51
357.424041072347790
  0
ARC
  8
0
  6
CONTINUOUS
 62
3
 10
654.356316146886000
 20
-203.155803016859860
 40
2.000000000000000
 50
0.000000000000000
 51
90.000000000000000
  0
ARC
  8
0
  6
CONTINUOUS
 62
3
 10
654.356316146886000
 20
-209.155803016859860
 40
2.000000000000000
 50
270.000000000000000
 51
0.000000000000000
  0
ARC
  8
0
  6
CONTINUOUS
 62
3
 10
649.176449990047790
 20
-214.155803016859860
 40
3.000000000000000
 50
90.000000000000000
 51
177.424041072347590
  0
ARC
  8
0
  6
CONTINUOUS
 62
3
 10
649.176449990047790
 20
-198.155803016859860
 40
2.999999999999728
 50
182.575958927652410
 51
270.000000000000000
  0
ARC
  8
0
  6
CONTINUOUS
 62
3
 10
545.794555472987440
 20
-386.655803016859860
 40
17.499999999999950
 50
289.462950946314780
 51
333.460895067215570
  0
ARC
  8
0
  6
CONTINUOUS
 62
3
 10
582.979675260785830
 20
-309.326659852156580
 40
9.999999999999805
 50
176.272298631503730
 51
317.253519503884210
  0
ARC
  8
0
  6
CONTINUOUS
 62
3
 10
375.894280779155910
 20
-397.155803016859860
 40
6.000000000000113
 50
26.539104932783616
 51
90.000000000000000
  0
ARC
  8
0
  6
CONTINUOUS
 62
3
 10
566.818351514616100
 20
-397.155803016859860
 40
6.000000000000000
 50
90.000000000000000
 51
153.460895067216400
  0
ARC
  8
0
  6
CONTINUOUS
 62
3
 10
610.672415474630720
 20
-216.155803016859860
 40
6.000000000000000
 50
0.000000000000000
 51
90.000000000000000
  0
ARC
  8
0
  6
CONTINUOUS
 62
3
 10
609.688528054442490
 20
-196.155803016859860
 40
6.000000000000000
 50
270.000000000000000
 51
8.158405276263428
  0
ARC
  8
0
  6
CONTINUOUS
 62
3
 10
461.356316146886000
 20
-99.780101814462569
 40
6.000000000000000
 50
0.000000000000000
 51
90.968763500176422
  0
ARC
  8
0
  6
CONTINUOUS
 62
3
 10
481.356316146886000
 20
-99.780101814462569
 40
5.999999999999671
 50
89.031236499823578
 51
180.000000000000000
  0
ARC
  8
0
  6
CONTINUOUS
 62
3
 10
333.024104239329290
 20
-196.155803016859860
 40
5.999999999999981
 50
171.841594723735940
 51
270.000000000000000
  0
ARC
  8
0
  6
CONTINUOUS
 62
3
 10
332.040216819141280
 20
-216.155803016859860
 40
6.000000000000000
 50
90.000000000000000
 51
180.000000000000000
  0
CIRCLE
  8
0
  6
CONTINUOUS
 62
3
 10
471.356316146886000
 20
-206.155803016859860
 40
40.000000000000000
  0
CIRCLE
  8
0
  6
CONTINUOUS
 62
3
 10
471.356316146886000
 20
-206.155803016859860
 40
75.000000000000000
  0
ARC
  8
0
  6
CONTINUOUS
 62
3
 10
306.356316146886000
 20
-371.155803016859860
 40
20.000000000000000
 50
180.000000000000000
 51
270.000000000000000
  0
CIRCLE
  8
0
  6
CONTINUOUS
 62
3
 10
312.257290379913000
 20
-365.254828783833320
 40
12.000000000000000
  0
ARC
  8
0
  6
CONTINUOUS
 62
3
 10
326.711655206213890
 20
-386.155803016859860
 40
5.000000000000000
 50
270.000000000000000
 51
314.999999999996310
  0
ARC
  8
0
  6
CONTINUOUS
 62
3
 10
636.356316146886000
 20
-371.155803016859860
 40
20.000000000000000
 50
270.000000000000000
 51
0.000000000000000
  0
CIRCLE
  8
0
  6
CONTINUOUS
 62
3
 10
630.455341913858770
 20
-365.254828783833320
 40
12.000000000000000
  0
ARC
  8
0
  6
CONTINUOUS
 62
3
 10
616.000977087558110
 20
-386.155803016859860
 40
4.999999999999879
 50
225.000000000003690
 51
270.000000000000000
  0
ARC
  8
0
  6
CONTINUOUS
 62
3
 10
636.356316146886000
 20
-41.155803016859863
 40
20.000000000000000
 50
0.000000000000000
 51
90.000000000000000
  0
CIRCLE
  8
0
  6
CONTINUOUS
 62
3
 10
630.455341913858770
 20
-47.056777249886409
 40
12.000000000000000
  0
CIRCLE
  8
0
  6
CONTINUOUS
 62
3
 10
471.356316146886000
 20
-206.155803016859860
 40
170.000000000000000
  0
ARC
  8
0
  6
CONTINUOUS
 62
3
 10
616.000977087558110
 20
-26.155803016859636
 40
4.999999999999773
 50
90.000000000000000
 51
135.000000000000000
  0
ARC
  8
0
  6
CONTINUOUS
 62
3
 10
651.356316146886000
 20
-61.511142076186616
 40
5.000000000000201
 50
315.000000000000000
 51
0.000000000000000
  0
ARC
  8
0
  6
CONTINUOUS
 62
3
 10
627.360985138795970
 20
-106.719676519873470
 40
10.000000000000242
 50
135.000000000000910
 51
212.513110185840300
  0
ARC
  8
0
  6
CONTINUOUS
 62
3
 10
471.356316146886000
 20
-206.155803016859860
 40
175.000000000000200
 50
2.575958927652314
 51
32.513110185840702
  0
ARC
  8
0
  6
CONTINUOUS
 62
3
 10
306.356316146886000
 20
-41.155803016859863
 40
20.000000000000000
 50
90.000000000000000
 51
180.000000000000000
  0
CIRCLE
  8
0
  6
CONTINUOUS
 62
3
 10
312.257290379913000
 20
-47.056777249886409
 40
12.000000000000000
  0
ARC
  8
0
  6
CONTINUOUS
 62
3
 10
291.356316146885770
 20
-61.511142076186616
 40
4.999999999999773
 50
180.000000000000000
 51
225.000000000001850
  0
ARC
  8
0
  6
CONTINUOUS
 62
3
 10
326.711655206213890
 20
-26.155803016859636
 40
4.999999999999558
 50
45.000000000000000
 51
90.000000000000000
  0
ARC
  8
0
  6
CONTINUOUS
 62
3
 10
374.737758919340650
 20
-323.496564899794520
 40
9.999999999999806
 50
230.531908102796110
 51
8.851634271286279
  0
ARC
  8
0
  6
CONTINUOUS
 62
3
 10
405.136513761458450
 20
-259.446869548079800
 40
9.999999999999940
 50
300.369210364658160
 51
38.825729699929447
  0
ARC
  8
0
  6
CONTINUOUS
 62
3
 10
436.987435923008430
 20
-313.802354620507230
 40
53.000000000000036
 50
120.369210364658620
 51
188.851634271285040
  0
ARC
  8
0
  6
CONTINUOUS
 62
3
 10
543.782747923602070
 20
-250.646386066452350
 40
9.999999999999828
 50
148.438153310684640
 51
251.211528718409170
  0
ARC
  8
0
  6
CONTINUOUS
 62
3
 10
525.102385770626820
 20
-305.555803016859730
 40
47.999999999999979
 50
356.272298631503650
 51
71.211528718408644
  0
CIRCLE
  8
0
  6
CONTINUOUS
 62
3
 10
471.356316146886000
 20
-206.155803016859860
 40
162.000000000000000
  0
ARC
  8
0
  6
CONTINUOUS
 62
3
 10
471.356316146886000
 20
-206.155803016859860
 40
174.999999999999940
 50
327.486889814159270
 51
357.424041072347680
  0
ARC
  8
0
  6
CONTINUOUS
 62
3
 10
627.360985138795970
 20
-305.591929513846250
 40
10.000000000000261
 50
147.486889814159700
 51
224.999999999999090
  0
ARC
  8
0
  6
CONTINUOUS
 62
3
 10
471.356316146886000
 20
-206.155803016859860
 40
175.000000000000000
 50
270.000000000000000
 51
302.513110185840450
  0
ARC
  8
0
  6
CONTINUOUS
 62
3
 10
570.792442643871710
 20
-362.160472008769830
 40
10.000000000000082
 50
44.999999999998167
 51
122.513110185840580
  0
ARC
  8
0
  6
CONTINUOUS
 62
3
 10
651.356316146886000
 20
-350.800463957532880
 40
5.000000000000000
 50
0.000000000000000
 51
44.999999999996326
  0
ARC
  8
0
  6
CONTINUOUS
 62
3
 10
471.356316146886000
 20
-206.155803016859860
 40
174.999999999999970
 50
182.575958927652320
 51
212.513110185840700
  0
ARC
  8
0
  6
CONTINUOUS
 62
3
 10
315.351647154976040
 20
-305.591929513846250
 40
10.000000000000242
 50
315.000000000000910
 51
32.513110185840311
  0
ARC
  8
0
  6
CONTINUOUS
 62
3
 10
471.356316146886000
 20
-206.155803016859860
 40
175.000000000000200
 50
237.486889814159440
 51
270.000000000000000
  0
ARC
  8
0
  6
CONTINUOUS
 62
3
 10
371.920189649899840
 20
-362.160472008769830
 40
9.999999999999877
 50
57.486889814158296
 51
135.000000000000000
  0
ARC
  8
0
  6
CONTINUOUS
 62
3
 10
291.356316146885770
 20
-350.800463957532880
 40
4.999999999999718
 50
135.000000000001820
 51
180.000000000000000
  0
ARC
  8
0
  6
CONTINUOUS
 62
3
 10
471.356316146886000
 20
-206.155803016859860
 40
174.999999999999940
 50
147.486889814159300
 51
177.424041072347680
  0
ARC
  8
0
  6
CONTINUOUS
 62
3
 10
315.351647154976040
 20
-106.719676519873470
 40
10.000000000000261
 50
327.486889814159670
 51
44.999999999999083
  0
ARC
  8
0
  6
CONTINUOUS
 62
3
 10
471.356316146886000
 20
-206.155803016859860
 40
175.000000000000000
 50
90.000000000000000
 51
122.513110185840580
  0
ARC
  8
0
  6
CONTINUOUS
 62
3
 10
371.920189649899840
 20
-50.151134024949670
 40
9.999999999999920
 50
225.000000000000910
 51
302.513110185840330
  0
ARC
  8
0
  6
CONTINUOUS
 62
3
 10
570.792442643871710
 20
-50.151134024949670
 40
10.000000000000139
 50
237.486889814160800
 51
315.000000000000910
  0
ARC
  8
0
  6
CONTINUOUS
 62
3
 10
471.356316146886000
 20
-206.155803016859860
 40
174.999999999999890
 50
57.486889814159468
 51
90.000000000000000
  0
ARC
  8
0
  6
CONTINUOUS
 62
3
 10
525.102385770626820
 20
-305.555803016859730
 40
55.999999999999815
 50
4.769310518983685
 51
69.984265829160805
  0
ARC
  8
0
  6
CONTINUOUS
 62
3
 10
436.987435923008430
 20
-313.802354620507230
 40
60.999999999999908
 50
121.018601945962600
 51
181.557316013169160
  0
ARC
  8
0
  6
CONTINUOUS
 62
3
 10
590.873863204107690
 20
-300.068293908246460
 40
10.000000000000158
 50
184.769310518984470
 51
321.841040431514390
  0
ARC
  8
0
  6
CONTINUOUS
 62
3
 10
547.692745803538400
 20
-243.542291315106920
 40
10.000000000000165
 50
153.906260770664370
 51
249.984265829160960
  0
ARC
  8
0
  6
CONTINUOUS
 62
3
 10
400.399975771822260
 20
-252.955351738809210
 40
10.000000000000110
 50
301.018601945962130
 51
33.407013332929751
  0
ARC
  8
0
  6
CONTINUOUS
 62
3
 10
366.013660582005060
 20
-315.731917743285750
 40
10.000000000000169
 50
226.128463455825110
 51
1.557316013168583
  0
ARC
  8
0
  6
CONTINUOUS
 62
3
 10
314.614490203712880
 20
-215.155803016859860
 40
5.000000000000000
 50
90.000000000000000
 51
183.286272973093330
  0
ARC
  8
0
  6
CONTINUOUS
 62
3
 10
314.614490203712880
 20
-197.155803016859860
 40
5.000000000000075
 50
176.713727026906670
 51
270.000000000000000
  0
ARC
  8
0
  6
CONTINUOUS
 62
3
 10
391.864178170857260
 20
-197.155803016859860
 40
5.000000000000000
 50
270.000000000000000
 51
353.540550222644810
  0
ARC
  8
0
  6
CONTINUOUS
 62
3
 10
391.864178170857260
 20
-215.155803016859860
 40
4.999999999999898
 50
6.459449777355209
 51
90.000000000000000
  0
ARC
  8
0
  6
CONTINUOUS
 62
3
 10
462.356316146886000
 20
-49.413977073686738
 40
5.000000000000000
 50
0.000000000000000
 51
93.286272973093347
  0
ARC
  8
0
  6
CONTINUOUS
 62
3
 10
480.356316146886000
 20
-49.413977073686738
 40
5.000000000000075
 50
86.713727026906653
 51
180.000000000000000
  0
ARC
  8
0
  6
CONTINUOUS
 62
3
 10
480.356316146886000
 20
-126.663665040831120
 40
5.000000000000000
 50
180.000000000000000
 51
263.540550222644810
  0
ARC
  8
0
  6
CONTINUOUS
 62
3
 10
462.356316146886000
 20
-126.663665040831120
 40
4.999999999999898
 50
276.459449777355190
 51
0.000000000000000
  0
ARC
  8
0
  6
CONTINUOUS
 62
3
 10
628.098142090059350
 20
-197.155803016859860
 40
5.000000000000000
 50
270.000000000000000
 51
3.286272973093636
  0
ARC
  8
0
  6
CONTINUOUS
 62
3
 10
628.098142090059350
 20
-215.155803016859860
 40
4.999999999999621
 50
356.713727026906380
 51
90.000000000000000
  0
ARC
  8
0
  6
CONTINUOUS
 62
3
 10
550.848454122914750
 20
-215.155803016859860
 40
5.000000000000000
 50
90.000000000000000
 51
173.540550222644780
  0
ARC
  8
0
  6
CONTINUOUS
 62
3
 10
550.848454122914750
 20
-197.155803016859860
 40
4.999999999999898
 50
186.459449777355220
 51
270.000000000000000
  0
CIRCLE
  8
0
  6
CONTINUOUS
 62
3
 10
471.356316146886000
 20
-206.155803016859860
 40
3.324999999999989
  0
CIRCLE
  8
0
  6
CONTINUOUS
 62
4
 10
471.356316146886000
 20
-206.155803016859860
 40
4.000000000000000
  0
ARC
  8
0
  6
DASHDOT
 62
4
 10
471.356316146886000
 20
-206.155803016859860
 40
225.000000000000060
 50
128.728212855906260
 51
140.944594227328990
  0
ARC
  8
0
  6
DASHDOT
 62
4
 10
471.356316146886000
 20
-206.155803016859860
 40
225.000000000000200
 50
308.728212855906290
 51
320.944594227328990
  0
LINE
  8
0
  6
CONTINUOUS
 62
3
 10
-185.223806193277820
 20
-272.090701421087090
 11
-181.223806193277820
 21
-268.436519590516640
  0
LINE
  8
0
  6
CONTINUOUS
 62
3
 10
-181.223806193277820
 20
-272.090701421087090
 11
-185.223806193277820
 21
-268.436519590516640
  0
LINE
  8
0
  6
CONTINUOUS
 62
3
 10
-218.673806193276730
 20
-278.661914744509030
 11
-183.223806193277820
 21
-278.661914744509030
  0
LINE
  8
0
  6
CONTINUOUS
 62
3
 10
-218.673806193276730
 20
-277.441704815281870
 11
-183.223806193277820
 21
-277.441704815281870
  0
LINE
  8
0
  6
CONTINUOUS
 62
3
 10
-191.711280410671410
 20
-267.231757786411950
 11
-218.273806193277100
 21
-267.231757786411950
  0
LINE
  8
0
  6
DASHDOT
 62
4
 10
-183.223806193277820
 20
-172.156203184067240
 11
-183.223806193277820
 21
-284.809922609303900
  0
LINE
  8
0
  6
CONTINUOUS
 62
4
 10
-183.223806193277820
 20
-210.888650261153150
 11
-190.440684558148180
 21
-223.388650261153150
  0
LINE
  8
0
  6
CONTINUOUS
 62
4
 10
-190.440684558148180
 20
-223.388650261153370
 11
-183.223806193277820
 21
-235.888650261153150
  0
LINE
  8
0
  6
CONTINUOUS
 62
4
 10
-197.657562923017620
 20
-235.888650261153150
 11
-183.223806193277820
 21
-235.888650261153150
  0
LINE
  8
0
  6
CONTINUOUS
 62
4
 10
-197.657562923017620
 20
-235.888650261153150
 11
-204.874441287887980
 21
-248.388650261153150
  0
LINE
  8
0
  6
CONTINUOUS
 62
4
 10
-183.223806193277820
 20
-235.888650261153150
 11
-190.440684558147270
 21
-248.388650261153150
  0
LINE
  8
0
  6
CONTINUOUS
 62
4
 10
-204.874441287887980
 20
-248.388650261153150
 11
-190.440684558147270
 21
-248.388650261153150
  0
LINE
  8
0
  6
CONTINUOUS
 62
3
 10
-218.673806193276730
 20
-175.059195376253290
 11
-183.223806193277820
 21
-175.059195376253290
  0
LINE
  8
0
  6
CONTINUOUS
 62
3
 10
-183.223806193277820
 20
-181.154013579751850
 11
-218.273806193277100
 21
-181.154013579751850
  0
LINE
  8
0
  6
CONTINUOUS
 62
4
 10
-183.223806193277820
 20
-187.655803016859010
 11
-218.273806193277100
 21
-187.655803016859010
  0
LINE
  8
0
  6
CONTINUOUS
 62
3
 10
-223.273806193277100
 20
-186.154013579751850
 11
-223.273806193277100
 21
-262.231757786411950
  0
LINE
  8
0
  6
CONTINUOUS
 62
3
 10
-229.673806193276730
 20
-186.059195376253290
 11
-229.673806193276730
 21
-267.661914744509030
  0
LINE
  8
0
  6
CONTINUOUS
 62
3
 10
-209.223806193277710
 20
-175.059195376253290
 11
-209.223806193277710
 21
-157.655803016859240
  0
LINE
  8
0
  6
CONTINUOUS
 62
3
 10
-209.223806193277710
 20
-157.655803016859240
 11
-237.917830415698060
 21
-157.655803016859240
  0
LINE
  8
0
  6
CONTINUOUS
 62
3
 10
-260.223806193227570
 20
-217.655803016859240
 11
-260.223806193227570
 21
-170.212597959613790
  0
LINE
  8
0
  6
CONTINUOUS
 62
3
 10
-249.389359142719060
 20
-161.272762131079450
 11
-259.115104927740050
 21
-168.082802644462670
  0
LINE
  8
0
  6
CONTINUOUS
 62
3
 10
-223.269695356407280
 20
-277.655803016859240
 11
-237.917830415698060
 21
-277.655803016859240
  0
LINE
  8
0
  6
CONTINUOUS
 62
3
 10
-260.223806193227570
 20
-217.655803016859240
 11
-260.223806193227570
 21
-265.099008074104690
  0
LINE
  8
0
  6
CONTINUOUS
 62
3
 10
-249.389359142719060
 20
-274.038843902639030
 11
-259.115104927740050
 21
-267.228803389255800
  0
LINE
  8
0
  6
CONTINUOUS
 62
3
 10
-222.223806193277140
 20
-162.739902430798850
 11
-220.223806193277140
 21
-163.915687916421630
  0
LINE
  8
0
  6
CONTINUOUS
 62
3
 10
-220.223806193277140
 20
-163.915687916421630
 11
-218.223806193277140
 21
-165.568329555545060
  0
LINE
  8
0
  6
CONTINUOUS
 62
3
 10
-218.223806193277140
 20
-162.739902430798850
 11
-220.223806193277140
 21
-163.915687916421630
  0
LINE
  8
0
  6
CONTINUOUS
 62
3
 10
-220.223806193277140
 20
-163.915687916421630
 11
-222.223806193277140
 21
-165.568329555545060
  0
LINE
  8
0
  6
CONTINUOUS
 62
3
 10
192.776193806722060
 20
-214.155803016859860
 11
255.776193806722060
 21
-214.155803016860770
  0
LINE
  8
0
  6
CONTINUOUS
 62
3
 10
192.776193806722060
 20
-198.155803016859860
 11
255.776193806722060
 21
-198.155803016859860
  0
LINE
  8
0
  6
CONTINUOUS
 62
3
 10
255.776193806722060
 20
-206.155803016860770
 11
255.776193806722060
 21
-179.455803016859820
  0
LINE
  8
0
  6
CONTINUOUS
 62
3
 10
172.976193806722340
 20
-177.155803016860550
 11
173.776193806722060
 21
-177.955803016859820
  0
LINE
  8
0
  6
CONTINUOUS
 62
3
 10
175.776193806722060
 20
-178.805803016860180
 11
176.336001427857470
 21
-178.655803016860550
  0
LINE
  8
0
  6
CONTINUOUS
 62
3
 10
175.776193806721610
 20
-178.805803016860180
 11
174.576193806722240
 21
-178.805803016860180
  0
LINE
  8
0
  6
CONTINUOUS
 62
3
 10
254.976193806722340
 20
-178.655803016860550
 11
176.336001427857470
 21
-178.655803016860550
  0
LINE
  8
0
  6
CONTINUOUS
 62
3
 10
173.776193806722060
 20
-177.955803016859820
 11
173.776193806722060
 21
-206.155803016860770
  0
LINE
  8
0
  6
CONTINUOUS
 62
3
 10
173.776193806722060
 20
-206.155803016860770
 11
173.776193806722060
 21
-177.955803016859820
  0
LINE
  8
0
  6
CONTINUOUS
 62
3
 10
172.976193806722340
 20
-235.155803016860770
 11
173.776193806722060
 21
-234.355803016860590
  0
LINE
  8
0
  6
CONTINUOUS
 62
3
 10
175.776193806722060
 20
-233.505803016860230
 11
176.336001427857470
 21
-233.655803016860770
  0
LINE
  8
0
  6
CONTINUOUS
 62
3
 10
175.776193806721610
 20
-233.505803016860230
 11
174.576193806722240
 21
-233.505803016860230
  0
LINE
  8
0
  6
CONTINUOUS
 62
3
 10
173.776193806722060
 20
-234.355803016859680
 11
173.776193806722060
 21
-206.155803016860770
  0
LINE
  8
0
  6
CONTINUOUS
 62
3
 10
173.776193806722060
 20
-206.155803016860770
 11
173.776193806722060
 21
-234.355803016859680
  0
LINE
  8
0
  6
CONTINUOUS
 62
3
 10
191.776193806722060
 20
-233.655803016860770
 11
183.776193806722060
 21
-233.655803016860770
  0
LINE
  8
0
  6
CONTINUOUS
 62
3
 10
183.776193806722060
 20
-233.655803016860770
 11
176.336001427857470
 21
-233.655803016860770
  0
LINE
  8
0
  6
CONTINUOUS
 62
3
 10
255.776193806722060
 20
-206.155803016860770
 11
255.776193806722060
 21
-232.855803016860590
  0
LINE
  8
0
  6
CONTINUOUS
 62
3
 10
254.976193806722340
 20
-233.655803016860770
 11
191.776193806722060
 21
-233.655803016860770
  0
LINE
  8
0
  6
CONTINUOUS
 62
3
 10
165.776193806722520
 20
-201.155803016859860
 11
160.776193806722060
 21
-201.155803016859860
  0
LINE
  8
0
  6
CONTINUOUS
 62
3
 10
165.776193806722520
 20
-99.648608708007487
 11
160.776193806722060
 21
-99.648608708007487
  0
LINE
  8
0
  6
CONTINUOUS
 62
3
 10
165.776193806722520
 20
-63.582209888052603
 11
160.776193806722060
 21
-63.582209888052603
  0
LINE
  8
0
  6
CONTINUOUS
 62
3
 10
158.776193806722060
 20
-199.155803016859860
 11
158.776193806722060
 21
-65.582209888052603
  0
LINE
  8
0
  6
CONTINUOUS
 62
3
 10
165.776193806722520
 20
-211.155803016859860
 11
160.776193806722060
 21
-211.155803016859860
  0
LINE
  8
0
  6
CONTINUOUS
 62
3
 10
165.776193806722520
 20
-312.662997325711790
 11
160.776193806722060
 21
-312.662997325711790
  0
LINE
  8
0
  6
CONTINUOUS
 62
3
 10
165.776193806722520
 20
-348.729396145666670
 11
160.776193806722060
 21
-348.729396145666670
  0
LINE
  8
0
  6
CONTINUOUS
 62
3
 10
158.776193806722060
 20
-213.155803016859860
 11
158.776193806722060
 21
-346.729396145666670
  0
LINE
  8
0
  6
CONTINUOUS
 62
3
 10
145.776193806721610
 20
-389.155822726070260
 11
145.776193806722060
 21
-23.155783307648790
  0
LINE
  8
0
  6
CONTINUOUS
 62
3
 10
165.776193806722060
 20
-206.155803016859860
 11
165.776193806722060
 21
-391.155803016859860
  0
LINE
  8
0
  6
CONTINUOUS
 62
3
 10
165.776193806722060
 20
-21.155783307648790
 11
147.776193806722060
 21
-21.155783307648790
  0
LINE
  8
0
  6
CONTINUOUS
 62
3
 10
165.776193806722060
 20
-206.155803016859860
 11
165.776193806722060
 21
-21.155783307648790
  0
LINE
  8
0
  6
CONTINUOUS
 62
3
 10
117.809904652913360
 20
-84.594817021207518
 11
145.106320825644270
 21
-37.316037345492759
  0
LINE
  8
0
  6
CONTINUOUS
 62
3
 10
169.776193806722060
 20
-206.155803016859860
 11
169.776193806722060
 21
-37.155783307648790
  0
LINE
  8
0
  6
CONTINUOUS
 62
3
 10
168.776193806722060
 20
-36.155783307648790
 11
165.776193806722060
 21
-36.155783307648790
  0
LINE
  8
0
  6
CONTINUOUS
 62
3
 10
168.776193806722060
 20
-36.155783307648790
 11
169.776193806722060
 21
-37.155783307648790
  0
LINE
  8
0
  6
CONTINUOUS
 62
3
 10
169.776193806722060
 20
-206.155803016859860
 11
169.776193806722060
 21
-375.155803016859860
  0
LINE
  8
0
  6
CONTINUOUS
 62
3
 10
127.281810638106090
 20
-389.129764177196650
 11
145.133005388971580
 21
-390.065305651638480
  0
LINE
  8
0
  6
CONTINUOUS
 62
3
 10
109.276193806722060
 20
-370.155803016859860
 11
109.276193806722060
 21
-362.737603406989360
  0
LINE
  8
0
  6
CONTINUOUS
 62
3
 10
104.276193806722060
 20
-357.737603406989360
 11
140.776193806722060
 21
-357.737603406989360
  0
LINE
  8
0
  6
CONTINUOUS
 62
3
 10
147.767314817200370
 20
-391.155803016859860
 11
165.776193806722060
 21
-391.155803016859860
  0
LINE
  8
0
  6
CONTINUOUS
 62
3
 10
151.776193806722060
 20
-395.155803016859860
 11
151.776193806722060
 21
-399.155803016859860
  0
LINE
  8
0
  6
CONTINUOUS
 62
3
 10
165.776193806722060
 20
-376.155803016859860
 11
168.776193806722060
 21
-376.155803016859860
  0
LINE
  8
0
  6
CONTINUOUS
 62
3
 10
168.776193806722060
 20
-376.155803016859860
 11
169.776193806722060
 21
-375.155803016859860
  0
LINE
  8
0
  6
DASHDOT
 62
4
 10
128.276193806722060
 20
-350.244433530578140
 11
128.276193806722060
 21
-397.585595671313970
  0
LINE
  8
0
  6
DASHDOT
 62
4
 10
154.041247036200390
 20
-370.155803016859860
 11
96.586291165398166
 21
-370.155803016859860
  0
LINE
  8
0
  6
DASHDOT
 62
4
 10
178.637821825496420
 20
-47.056777249886636
 11
131.507677766693290
 21
-47.056777249886636
  0
LINE
  8
0
  6
DASHDOT
 62
4
 10
178.637821825496420
 20
-365.254828783833090
 11
131.507677766693290
 21
-365.254828783833090
  0
LINE
  8
0
  6
CONTINUOUS
 62
3
 10
140.342959125612310
 20
-113.671343777826670
 11
120.872060703861840
 21
-113.671343777826670
  0
LINE
  8
0
  6
CONTINUOUS
 62
3
 10
117.924335067249670
 20
-104.116252480478120
 11
144.640536563641600
 21
-71.577309365054589
  0
LINE
  8
0
  6
CONTINUOUS
 62
3
 10
117.924335067249670
 20
-111.844174541836310
 11
144.640536563641600
 21
-79.305231426412774
  0
LINE
  8
0
  6
CONTINUOUS
 62
3
 10
117.809904652913360
 20
-84.594817021207746
 11
145.106320825644270
 21
-37.316037345492987
  0
LINE
  8
0
  6
CONTINUOUS
 62
3
 10
172.976193806722340
 20
-177.155803016860550
 11
169.776193806722060
 21
-177.155803016860550
  0
LINE
  8
0
  6
CONTINUOUS
 62
3
 10
172.976193806722340
 20
-235.155803016860770
 11
169.776193806722060
 21
-235.155803016860770
  0
LINE
  8
0
  6
DASHDOT
 62
4
 10
260.118085350077310
 20
-206.155803016859860
 11
122.111463425245910
 21
-206.155803016859860
  0
LINE
  8
0
  6
DASHDOT
 62
4
 10
471.356316146886000
 20
-8.201238485853537
 11
471.356316146886000
 21
-405.431104326022250
  0
LINE
  8
0
  6
DASHDOT
 62
4
 10
659.362191537380570
 20
-206.155803016859860
 11
277.751148891649790
 21
-206.155803016859860
  0
LINE
  8
0
  6
CONTINUOUS
 62
3
 10
326.040216819141280
 20
-216.155803016859860
 11
326.040216819141280
 21
-276.348569511008010
  0
LINE
  8
0
  6
CONTINUOUS
 62
3
 10
616.672415474630720
 20
-216.155803016859860
 11
616.672415474630720
 21
-276.348569511008010
  0
LINE
  8
0
  6
CONTINUOUS
 62
3
 10
288.356316146886000
 20
-211.155803016859860
 11
293.536182303724220
 21
-211.155803016859860
  0
LINE
  8
0
  6
CONTINUOUS
 62
3
 10
288.356316146886000
 20
-201.155803016859860
 11
293.536182303724220
 21
-201.155803016859860
  0
LINE
  8
0
  6
CONTINUOUS
 62
3
 10
654.356316146886000
 20
-211.155803016859860
 11
649.176449990047790
 21
-211.155803016859860
  0
LINE
  8
0
  6
CONTINUOUS
 62
3
 10
654.356316146886000
 20
-201.155803016859860
 11
649.176449990047790
 21
-201.155803016859860
  0
LINE
  8
0
  6
CONTINUOUS
 62
3
 10
628.098142090059350
 20
-210.155803016859860
 11
550.848454122914750
 21
-210.155803016859860
  0
LINE
  8
0
  6
CONTINUOUS
 62
3
 10
628.098142090059350
 20
-202.155803016859860
 11
550.848454122914750
 21
-202.155803016859860
  0
LINE
  8
0
  6
CONTINUOUS
 62
3
 10
475.356316146886000
 20
-49.413977073686738
 11
475.356316146886000
 21
-126.663665040831120
  0
LINE
  8
0
  6
CONTINUOUS
 62
3
 10
467.356316146886000
 20
-49.413977073686738
 11
467.356316146886000
 21
-126.663665040831120
  0
LINE
  8
0
  6
CONTINUOUS
 62
3
 10
286.356316146886000
 20
-41.155803016859863
 11
286.356316146886000
 21
-371.155803016859860
  0
LINE
  8
0
  6
CONTINUOUS
 62
3
 10
330.247189112146320
 20
-389.691336922792740
 11
364.849121838034530
 21
-355.089404196904520
  0
LINE
  8
0
  6
CONTINUOUS
 62
3
 10
612.465443181625690
 20
-389.691336922792740
 11
577.863510455737470
 21
-355.089404196904520
  0
LINE
  8
0
  6
CONTINUOUS
 62
3
 10
656.356316146886000
 20
-41.155803016859863
 11
656.356316146886000
 21
-371.155803016859860
  0
LINE
  8
0
  6
CONTINUOUS
 62
3
 10
654.891850052818880
 20
-65.046675982119496
 11
620.289917326930210
 21
-99.648608708007941
  0
LINE
  8
0
  6
CONTINUOUS
 62
3
 10
612.465443181625690
 20
-22.620269110927211
 11
577.863510455737470
 21
-57.222201836815202
  0
LINE
  8
0
  6
CONTINUOUS
 62
3
 10
306.356316146886000
 20
-21.155803016859863
 11
636.356316146886000
 21
-21.155803016859863
  0
LINE
  8
0
  6
CONTINUOUS
 62
3
 10
287.820782240953120
 20
-65.046675982119496
 11
322.422714966841800
 21
-99.648608708007941
  0
LINE
  8
0
  6
CONTINUOUS
 62
3
 10
330.247189112146320
 20
-22.620269110927211
 11
364.849121838034530
 21
-57.222201836815202
  0
LINE
  8
0
  6
CONTINUOUS
 62
3
 10
314.614490203712880
 20
-202.155803016859860
 11
391.864178170857260
 21
-202.155803016859860
  0
LINE
  8
0
  6
CONTINUOUS
 62
3
 10
314.614490203712880
 20
-210.155803016859860
 11
391.864178170857260
 21
-210.155803016859860
  0
LINE
  8
0
  6
CONTINUOUS
 62
3
 10
654.891850052818880
 20
-347.264930051600460
 11
620.289917326930210
 21
-312.662997325711790
  0
LINE
  8
0
  6
CONTINUOUS
 62
3
 10
287.820782240953120
 20
-347.264930051600460
 11
322.422714966841800
 21
-312.662997325711790
  0
LINE
  8
0
  6
CONTINUOUS
 62
3
 10
471.356316146886000
 20
-391.155803016859860
 11
636.356316146886000
 21
-391.155803016859860
  0
LINE
  8
0
  6
CONTINUOUS
 62
3
 10
471.356316146886000
 20
-391.155803016859860
 11
306.356316146886000
 21
-391.155803016859860
  0
LINE
  8
0
  6
DASHDOT
 62
4
 10
426.495665566223120
 20
-217.655803016877140
 11
512.826911294071120
 21
-217.655803016877140
  0
LINE
  8
0
  6
CONTINUOUS
 62
3
 10
471.356316146886000
 20
-403.155803016859860
 11
391.087124925939410
 21
-403.155803016859860
  0
LINE
  8
0
  6
CONTINUOUS
 62
3
 10
471.356316146886000
 20
-403.155803016859860
 11
551.625507367832600
 21
-403.155803016859860
  0
LINE
  8
0
  6
DASHDOT
 62
4
 10
296.964910219848210
 20
-31.764397089821614
 11
329.589472065341170
 21
-64.388958935314804
  0
LINE
  8
0
  6
DASHDOT
 62
4
 10
645.747722073924020
 20
-31.764397089821614
 11
613.123160228431060
 21
-64.388958935314804
  0
LINE
  8
0
  6
DASHDOT
 62
4
 10
645.747722073924020
 20
-380.547208943898110
 11
613.123160228431060
 21
-347.922647098404920
  0
LINE
  8
0
  6
DASHDOT
 62
4
 10
296.964910219848210
 20
-380.547208943898110
 11
329.589472065341170
 21
-347.922647098404920
  0
ENDSEC
  0
EOF
