  0
SECTION
  2
HEADER
  9
$FILLMODE
 70
1
  9
$TEXTSTYLE
  7
STANDARD1
  9
$ACADVER
  1
AC1009
  9
$DIMASZ
 40
1.931851648807023
  9
$DIMEXE
 40
2.000000000000000
  9
$DIMEXO
 40
1.000000000000000
  9
$DIMLFAC
 40
1.000000000000000
  9
$DIMSCALE
 40
1.000000000000000
  9
$DIMTAD
 70
1
  9
$DIMTFAC
 40
0.714285731315613
  9
$DIMTXT
 40
3.200000047683716
  9
$LUPREC
 70
3
  9
$TEXTSIZE
 40
3.299999952316284
  9
$REGENMODE
 70
1
  0
ENDSEC
  0
SECTION
  2
TABLES
  0
TABLE
  2
LTYPE
 70
4
  0
LTYPE
  2
CONTINUOUS
 70
64
  3
Solid line
 72
65
 73
0
 40
0.0
  0
LTYPE
  2
DASHED
 70
64
  3
-- -- -- -- -- -- -- -- -- -- -- -- -- -- --
 72
65
 73
2
 40
0.75
 49
0.5
 49
-0.25
  0
LTYPE
  2
DASHDOT
 70
64
  3
__ . __ . __ . __ . __ . __ . __ . __ . __ . __
 72
65
 73
4
 40
1.0
 49
0.5
 49
-0.25
 49
0.0
 49
-0.25
  0
LTYPE
  2
DIVIDE
 70
64
  3
__ . . __ . . __ . . __ . . __ . . __ . . __
 72
65
 73
6
 40
1.25
 49
0.5
 49
-0.25
 49
0.0
 49
-0.25
 49
0.0
 49
-0.25
  0
ENDTAB
  0
TABLE
  2
LAYER
 70
1
  0
LAYER
  2
0
 70
64
 62
2
  6
CONTINUOUS
  0
ENDTAB
  0
TABLE
  2
STYLE
 70
4
  0
STYLE
  2
STANDARD1
 70
64
 40
0.0
 41
1.0
 50
0.0
 71
0
 42
3.299999952316284
  3
MONOTXT
  4
BIGFONT
  0
STYLE
  2
STANDARD2
 70
68
 40
0.0
 41
1.0
 50
0.0
 71
0
 42
3.299999952316284
  3
MONOTXT
  4
BIGFONT
  0
STYLE
  2
STANDARD3
 70
64
 40
0.0
 41
1.0
 50
0.0
 71
0
 42
3.299999952316284
  3
MONOTXT
  4

  0
STYLE
  2
STANDARD4
 70
68
 40
0.0
 41
1.0
 50
0.0
 71
0
 42
3.299999952316284
  3
MONOTXT
  4

  0
ENDTAB
  0
TABLE
  2
VIEW
 70
0
  0
ENDTAB
  0
ENDSEC
  0
SECTION
  2
BLOCKS
  0
BLOCK
  8
0
  2
SYM1
 70
64
 10
0.000000000000000
 20
0.000000000000000
  0
LINE
  8
0
  6
CONTINUOUS
 62
3
 10
-0.000000000000000
 20
-5.000000000000000
 11
-6.000000000000000
 21
-5.000000000000000
  0
LINE
  8
0
  6
CONTINUOUS
 62
3
 10
0.000000000000000
 20
5.000000000000000
 11
-6.000000000000000
 21
5.000000000000000
  0
LINE
  8
0
  6
CONTINUOUS
 62
3
 10
-6.000000000000000
 20
-5.000000000000000
 11
-6.000000000000000
 21
5.000000000000000
  0
LINE
  8
0
  6
CONTINUOUS
 62
3
 10
0.000000000000000
 20
5.000000000000000
 11
0.000000000000000
 21
-5.000000000000000
  0
POINT
  8
0
  6
CONTINUOUS
 62
3
 10
0.000000000000000
 20
0.000000000000000
  0
ENDBLK
  8
0
  0
ENDSEC
  0
SECTION
  2
ENTITIES
  0
ARC
  8
0
  6
CONTINUOUS
 62
3
 10
-363.969647796289510
 20
-83.162062124630751
 40
6.099999427795419
 50
84.601927898108485
 51
185.398089404735120
  0
POINT
  8
0
  6
CONTINUOUS
 62
3
 10
-366.232389361216520
 20
-80.899320559703710
  0
LINE
  8
0
  6
CONTINUOUS
 62
3
 10
-369.555791097923360
 20
-84.222722296410566
 11
-362.908987624509680
 21
-77.575918822996854
  0
LINE
  8
0
  6
CONTINUOUS
 62
3
 10
-369.868929706892170
 20
-83.970175345560193
 11
-363.191830404419250
 21
-77.293076043087282
  0
LINE
  8
0
  6
CONTINUOUS
 62
3
 10
-362.908987624509680
 20
-77.575918822996854
 11
-363.395791016215300
 21
-77.089115431291233
  0
LINE
  8
0
  6
CONTINUOUS
 62
3
 10
-369.555791097923360
 20
-84.222722296410566
 11
-370.042594489628980
 21
-83.735918904704945
  0
ARC
  8
0
  6
CONTINUOUS
 62
3
 10
-363.969647796289510
 20
-182.015590404250050
 40
6.099999427795398
 50
174.601910595264880
 51
275.398072101891500
  0
POINT
  8
0
  6
CONTINUOUS
 62
3
 10
-366.232389361216520
 20
-184.278331969177090
  0
LINE
  8
0
  6
CONTINUOUS
 62
3
 10
-369.555791097923360
 20
-180.954930232470220
 11
-362.908987624509680
 21
-187.601733705883960
  0
LINE
  8
0
  6
CONTINUOUS
 62
3
 10
-369.868929706892170
 20
-181.207477183320610
 11
-363.191830404419250
 21
-187.884576485793530
  0
LINE
  8
0
  6
CONTINUOUS
 62
3
 10
-362.908987624509680
 20
-187.601733705883960
 11
-363.395791016215300
 21
-188.088537097589550
  0
LINE
  8
0
  6
CONTINUOUS
 62
3
 10
-369.555791097923360
 20
-180.954930232470220
 11
-370.042594489628980
 21
-181.441733624175840
  0
ARC
  8
0
  6
CONTINUOUS
 62
3
 10
-265.116119516670380
 20
-182.015590404250050
 40
6.099999427795406
 50
264.601927898108500
 51
5.398089404735109
  0
POINT
  8
0
  6
CONTINUOUS
 62
3
 10
-262.853377951743370
 20
-184.278331969177090
  0
LINE
  8
0
  6
CONTINUOUS
 62
3
 10
-259.529976215036530
 20
-180.954930232470220
 11
-266.176779688450210
 21
-187.601733705883960
  0
LINE
  8
0
  6
CONTINUOUS
 62
3
 10
-259.216837606067710
 20
-181.207477183320610
 11
-265.893936908540640
 21
-187.884576485793530
  0
LINE
  8
0
  6
CONTINUOUS
 62
3
 10
-266.176779688450210
 20
-187.601733705883960
 11
-265.689976296744590
 21
-188.088537097589550
  0
LINE
  8
0
  6
CONTINUOUS
 62
3
 10
-259.529976215036530
 20
-180.954930232470220
 11
-259.043172823330910
 21
-181.441733624175840
  0
ARC
  8
0
  6
CONTINUOUS
 62
3
 10
-265.116119516670380
 20
-83.162062124630751
 40
6.099999427795398
 50
354.601910595264880
 51
95.398072101891515
  0
POINT
  8
0
  6
CONTINUOUS
 62
3
 10
-262.853377951743370
 20
-80.899320559703710
  0
LINE
  8
0
  6
CONTINUOUS
 62
3
 10
-259.529976215036530
 20
-84.222722296410566
 11
-266.176779688450210
 21
-77.575918822996854
  0
LINE
  8
0
  6
CONTINUOUS
 62
3
 10
-259.216837606067710
 20
-83.970175345560193
 11
-265.893936908540640
 21
-77.293076043087282
  0
LINE
  8
0
  6
CONTINUOUS
 62
3
 10
-266.176779688450210
 20
-77.575918822996854
 11
-265.689976296744590
 21
-77.089115431291233
  0
LINE
  8
0
  6
CONTINUOUS
 62
3
 10
-259.529976215036530
 20
-84.222722296410566
 11
-259.043172823330910
 21
-83.735918904704945
  0
ARC
  8
0
  6
CONTINUOUS
 62
3
 10
-204.161275929315930
 20
-188.765733311420950
 40
9.000000000000234
 50
7.398451589678908
 51
40.601531107483503
  0
ARC
  8
0
  6
CONTINUOUS
 62
3
 10
-196.525380304134610
 20
-187.774214188922310
 40
1.299999237060559
 50
293.999982013920090
 51
7.398451589679256
  0
LINE
  8
0
  6
DASHDOT
 62
4
 10
-222.042883656479940
 20
-164.706302484734580
 11
-222.042883656479940
 21
-187.574811660498200
  0
LINE
  8
0
  6
CONTINUOUS
 62
3
 10
-244.737447596744460
 20
-91.237817867524655
 11
-199.020248915019470
 21
-193.920327306550690
  0
ARC
  8
0
  6
CONTINUOUS
 62
3
 10
-198.274448103206170
 20
-126.435476446792330
 40
1.000000000000077
 50
0.587807867721716
 51
53.794291905958382
  0
ARC
  8
0
  6
CONTINUOUS
 62
3
 10
-197.093075986929760
 20
-124.821673508734190
 40
0.999999999999967
 50
180.740494943192910
 51
233.794291905968890
  0
ARC
  8
0
  6
CONTINUOUS
 62
3
 10
-197.863284403082840
 20
-163.980682533729350
 40
0.999999999999769
 50
123.952126946395960
 51
177.005923909151190
  0
ARC
  8
0
  6
CONTINUOUS
 62
3
 10
-198.980284427695320
 20
-162.321673508734190
 40
1.000000000000147
 50
303.952126946381380
 51
357.158610984632960
  0
ARC
  8
0
  6
CONTINUOUS
 62
3
 10
-798.042883656479940
 20
-132.588826264440510
 40
600.799999999999950
 50
357.158610984636650
 51
0.587807867706885
  0
LINE
  8
0
  6
CONTINUOUS
 62
3
 10
-246.042883656479940
 20
-99.897221387381251
 11
-246.042883656479940
 21
-174.088826264440290
  0
LINE
  8
0
  6
CONTINUOUS
 62
3
 10
-247.042883656479940
 20
-163.588826264440290
 11
-246.042883656479940
 21
-163.588826264440290
  0
LINE
  8
0
  6
CONTINUOUS
 62
3
 10
-200.972584801783570
 20
-189.535309109866150
 11
-204.489734813707630
 21
-191.101245185707970
  0
LINE
  8
0
  6
CONTINUOUS
 62
3
 10
-202.599531374086840
 20
-185.881127279296150
 11
-206.116681386010670
 21
-187.447063355137970
  0
ARC
  8
0
  6
CONTINUOUS
 62
3
 10
-201.672870060060860
 20
-176.711460852677420
 40
2.000000000000451
 50
294.000000000027340
 51
355.768661925113970
  0
ARC
  8
0
  6
CONTINUOUS
 62
3
 10
-200.248196392781440
 20
-179.361064104318980
 40
0.999999999999856
 50
113.999999999979760
 51
204.000000000003580
  0
LINE
  8
0
  6
CONTINUOUS
 62
3
 10
-222.167174633676270
 20
-132.588826264440290
 11
-195.955512819053410
 21
-191.461182605220300
  0
ARC
  8
0
  6
CONTINUOUS
 62
3
 10
-196.869058276696020
 20
-191.867919248295950
 40
1.000000000000226
 50
294.000000000027340
 51
23.999999999991683
  0
LINE
  8
0
  6
CONTINUOUS
 62
3
 10
-196.462321633619690
 20
-192.781464705938560
 11
-199.020248915019470
 21
-193.920327306550690
  0
LINE
  8
0
  6
CONTINUOUS
 62
3
 10
-241.042883656479940
 20
-179.088826264440290
 11
-205.623658625151170
 21
-179.088826264440290
  0
ARC
  8
0
  6
CONTINUOUS
 62
3
 10
-241.042883656479940
 20
-174.088826264440290
 40
5.000000000000000
 50
180.000000000000000
 51
270.000000000000000
  0
LINE
  8
0
  6
CONTINUOUS
 62
3
 10
-247.042883656479940
 20
-101.588826264440280
 11
-246.042883656479940
 21
-101.588826264440280
  0
ARC
  8
0
  6
CONTINUOUS
 62
3
 10
-243.042883656479940
 20
-99.897221387381251
 40
2.999999999999567
 50
113.999999999979760
 51
180.000000000000000
  0
LINE
  8
0
  6
CONTINUOUS
 62
3
 10
-242.459722395519520
 20
-96.353672430323286
 11
-244.263093585706200
 21
-97.156585014453412
  0
LINE
  8
0
  6
CONTINUOUS
 62
3
 10
-242.179520315339910
 20
-90.098955266910252
 11
-244.737447596739230
 21
-91.237817867522381
  0
ARC
  8
0
  6
CONTINUOUS
 62
3
 10
-199.076834664168250
 20
-181.991985622326870
 40
0.999999999999983
 50
175.284875165916760
 51
204.000000000003580
  0
ARC
  8
0
  6
CONTINUOUS
 62
3
 10
-798.042883656479940
 20
-132.588826264440510
 40
600.000000000000910
 50
355.284875165908370
 51
1.682768801133149
  0
ARC
  8
0
  6
CONTINUOUS
 62
3
 10
-213.295172641920770
 20
-115.409930396705470
 40
15.000000000000393
 50
1.682768801133086
 51
80.681876880324481
  0
LINE
  8
0
  6
CONTINUOUS
 62
3
 10
-236.822070283265250
 20
-96.349032987101509
 11
-210.866433189729150
 21
-100.607862140094530
  0
ARC
  8
0
  6
CONTINUOUS
 62
3
 10
-236.336322392826560
 20
-93.388619335779367
 40
3.000000000000030
 50
203.999999999999630
 51
260.681876880317470
  0
LINE
  8
0
  6
CONTINUOUS
 62
3
 10
-240.859238214621880
 20
-90.605764081476991
 11
-222.167174633673080
 21
-132.588826264440290
  0
LINE
  8
0
  6
CONTINUOUS
 62
3
 10
-244.408286817073300
 20
-93.932155585334613
 11
-243.671882934311270
 21
-94.244740488125899
  0
LINE
  8
0
  6
CONTINUOUS
 62
3
 10
-243.538540912117240
 20
-93.930606369676525
 11
-243.671882934311270
 21
-94.244740488125899
  0
LINE
  8
0
  6
CONTINUOUS
 62
3
 10
-243.983454657327230
 20
-92.931313736719176
 11
-244.408286817073300
 21
-93.932155585334613
  0
ARC
  8
0
  6
CONTINUOUS
 62
3
 10
-198.315022154299190
 20
-183.754612781335250
 40
1.299999237060495
 50
40.601531107483851
 51
114.000000683246080
  0
LINE
  8
0
  6
CONTINUOUS
 62
3
 10
-199.738163599658720
 20
-182.965209849144000
 11
-198.843779479982230
 21
-182.567004383379750
  0
LINE
  8
0
  6
CONTINUOUS
 62
3
 10
-196.891007098127830
 20
-189.360028052642290
 11
-195.996622978451340
 21
-188.961822586877820
  0
LINE
  8
0
  6
CONTINUOUS
 62
3
 10
-199.738163599658720
 20
-182.965209849144000
 11
-196.891007098127830
 21
-189.360028052642290
  0
LINE
  8
0
  6
CONTINUOUS
 62
3
 10
-199.738163599658720
 20
-182.965209849144000
 11
-196.891007098127830
 21
-189.360028052642290
  0
LINE
  8
0
  6
CONTINUOUS
 62
3
 10
-206.294064471109100
 20
-187.909162090389370
 11
-204.951833548959030
 21
-190.923862100609540
  0
LINE
  8
0
  6
CONTINUOUS
 62
3
 10
-204.489734813707630
 20
-191.101245185707970
 11
-204.951833548959030
 21
-190.923862100609540
  0
LINE
  8
0
  6
CONTINUOUS
 62
3
 10
-206.116681386010670
 20
-187.447063355137970
 11
-206.294064471109100
 21
-187.909162090389370
  0
LINE
  8
0
  6
CONTINUOUS
 62
4
 10
-202.457173549010350
 20
-186.200868189471070
 11
-206.294064471109100
 21
-187.909162090389370
  0
LINE
  8
0
  6
CONTINUOUS
 62
4
 10
-201.114942626859830
 20
-189.215568199691690
 11
-204.951833548958800
 21
-190.923862100609990
  0
ARC
  8
0
  6
CONTINUOUS
 62
3
 10
-241.772783672264500
 20
-91.012500724552865
 40
1.000000000000041
 50
24.000000000003585
 51
113.999999999979760
  0
LINE
  8
0
  6
CONTINUOUS
 62
3
 10
-247.042883656479940
 20
-132.588826264440290
 11
-247.042883656479940
 21
-163.588826264440290
  0
LINE
  8
0
  6
CONTINUOUS
 62
3
 10
-247.042883656479940
 20
-132.588826264440290
 11
-247.042883656479940
 21
-101.588826264440280
  0
LINE
  8
0
  6
CONTINUOUS
 62
3
 10
-251.042883656479940
 20
-162.581325326707090
 11
-251.042883656479940
 21
-165.193569950717010
  0
LINE
  8
0
  6
CONTINUOUS
 62
3
 10
-251.042883656479940
 20
-102.596327202173480
 11
-251.042883656479940
 21
-99.984082578163566
  0
LINE
  8
0
  6
CONTINUOUS
 62
3
 10
-251.042883656479940
 20
-99.984082578163566
 11
-248.016706708172020
 21
-100.063325810386400
  0
LINE
  8
0
  6
CONTINUOUS
 62
3
 10
-247.042883656479940
 20
-164.114669393518620
 11
-247.042883656479940
 21
-101.062983135361940
  0
ARC
  8
0
  6
CONTINUOUS
 62
3
 10
-248.042883656479940
 20
-101.062983135361940
 40
1.000000000000000
 50
0.000000000000000
 51
88.499999999997257
  0
ARC
  8
0
  6
CONTINUOUS
 62
3
 10
-248.042883656479940
 20
-164.114669393518620
 40
0.999999999999988
 50
271.500000000002730
 51
0.000000000000000
  0
LINE
  8
0
  6
CONTINUOUS
 62
3
 10
-251.042883656479940
 20
-165.193569950717010
 11
-248.016706708172020
 21
-165.114326718494170
  0
ARC
  8
0
  6
CONTINUOUS
 62
4
 10
-314.542883656479940
 20
-373.188826264440190
 40
289.396999999999930
 50
90.000000000000000
 51
97.897988672427743
  0
ARC
  8
0
  6
CONTINUOUS
 62
4
 10
-353.484401611862040
 20
-92.480048723853542
 40
5.999999999999923
 50
97.897988672425626
 51
134.999999999996930
  0
ARC
  8
0
  6
CONTINUOUS
 62
3
 10
-358.491471086762430
 20
-82.492211796911988
 40
6.599999999999971
 50
98.597082237248614
 51
134.999999999998610
  0
ARC
  8
0
  6
CONTINUOUS
 62
3
 10
-318.542883656479940
 20
-103.866013031749840
 40
1.499999999999998
 50
277.928141766204020
 51
0.000000000000000
  0
ARC
  8
0
  6
CONTINUOUS
 62
3
 10
-314.542883656479490
 20
-132.588826264440290
 40
33.499999999999950
 50
97.180755781459069
 51
142.819244218541740
  0
ARC
  8
0
  6
CONTINUOUS
 62
3
 10
-314.542883656479490
 20
-132.588826264440290
 40
43.000000000000043
 50
95.531071524839788
 51
144.468928475160770
  0
ARC
  8
0
  6
CONTINUOUS
 62
3
 10
-314.542883656479490
 20
-132.588826264440290
 40
37.000000000000099
 50
95.963570118321798
 51
144.036429881678830
  0
ARC
  8
0
  6
CONTINUOUS
 62
3
 10
-337.417569584145670
 20
-114.763318032957150
 40
1.499999999999926
 50
239.999999999998410
 51
322.071858233800300
  0
ARC
  8
0
  6
CONTINUOUS
 62
3
 10
-340.038337826214500
 20
-113.250216782915000
 40
1.500000000000103
 50
142.819244218542510
 51
239.999999999998410
  0
ARC
  8
0
  6
CONTINUOUS
 62
3
 10
-345.704420110630740
 20
-109.978902650756700
 40
1.500000000000123
 50
240.000000000002730
 51
324.036429881683720
  0
LINE
  8
0
  6
CONTINUOUS
 62
3
 10
-338.167569584145670
 20
-116.062356138633730
 11
-340.788337826214500
 21
-114.549254888591570
  0
LINE
  8
0
  6
CONTINUOUS
 62
3
 10
-346.454420110630740
 20
-111.277940756433500
 11
-349.065603709614830
 21
-109.770373202656400
  0
ARC
  8
0
  6
CONTINUOUS
 62
3
 10
-348.315603709614830
 20
-108.471335096979600
 40
1.499999999999976
 50
144.468928475160790
 51
240.000000000002730
  0
ARC
  8
0
  6
CONTINUOUS
 62
3
 10
-344.038337826214960
 20
-144.999232515689980
 40
1.500000000000157
 50
202.819244218546660
 51
300.000000000001590
  0
LINE
  8
0
  6
CONTINUOUS
 62
3
 10
-343.288337826214960
 20
-146.298270621366560
 11
-340.667569584145670
 21
-144.785169371324630
  0
ARC
  8
0
  6
CONTINUOUS
 62
3
 10
-349.704420110631190
 20
-148.270546647848280
 40
1.499999999999926
 50
300.000000000001590
 51
24.036429881677126
  0
LINE
  8
0
  6
CONTINUOUS
 62
3
 10
-351.565603709615290
 20
-151.077152307302190
 11
-348.954420110631190
 21
-149.569584753524850
  0
ARC
  8
0
  6
CONTINUOUS
 62
3
 10
-352.315603709615290
 20
-149.778114201625160
 40
1.500000000000128
 50
204.468928475167470
 51
299.999999999992950
  0
ARC
  8
0
  6
CONTINUOUS
 62
3
 10
-341.417569584145670
 20
-143.486131265647600
 40
1.500000000000320
 50
299.999999999992950
 51
22.071858233784546
  0
ARC
  8
0
  6
CONTINUOUS
 62
3
 10
-314.542883656479720
 20
-132.588826264440740
 40
33.499999999999794
 50
157.180755781458400
 51
202.819244218540940
  0
ARC
  8
0
  6
CONTINUOUS
 62
3
 10
-314.542883656479720
 20
-132.588826264440740
 40
43.000000000000121
 50
155.531071524839230
 51
204.468928475160200
  0
ARC
  8
0
  6
CONTINUOUS
 62
3
 10
-314.542883656479720
 20
-132.588826264440740
 40
37.000000000000156
 50
155.963570118321120
 51
204.036429881678230
  0
ARC
  8
0
  6
CONTINUOUS
 62
3
 10
-314.542883656480400
 20
-132.588826264440290
 40
27.499999999999886
 50
157.928141766202200
 51
202.071858233798680
  0
ARC
  8
0
  6
CONTINUOUS
 62
3
 10
-341.417569584145890
 20
-121.691521263232970
 40
1.500000000000110
 50
337.928141766202600
 51
59.999999999998380
  0
ARC
  8
0
  6
CONTINUOUS
 62
3
 10
-344.038337826214730
 20
-120.178420013191040
 40
1.500000000000123
 50
60.000000000002721
 51
157.180755781457980
  0
ARC
  8
0
  6
CONTINUOUS
 62
3
 10
-349.704420110630960
 20
-116.907105881032740
 40
1.499999999999855
 50
335.963570118319300
 51
59.999999999990862
  0
LINE
  8
0
  6
CONTINUOUS
 62
3
 10
-340.667569584145890
 20
-120.392483157556390
 11
-343.288337826214730
 21
-118.879381907514240
  0
LINE
  8
0
  6
CONTINUOUS
 62
3
 10
-348.954420110630740
 20
-115.608067775356170
 11
-351.565603709615290
 21
-114.100500221579060
  0
ARC
  8
0
  6
CONTINUOUS
 62
3
 10
-352.315603709615290
 20
-115.399538327255640
 40
1.499999999999926
 50
59.999999999998380
 51
155.531071524840400
  0
ARC
  8
0
  6
CONTINUOUS
 62
3
 10
-340.038337826214960
 20
-151.927435745965340
 40
1.499999999999926
 50
120.000000000001620
 51
217.180755781464400
  0
LINE
  8
0
  6
CONTINUOUS
 62
3
 10
-340.788337826214960
 20
-150.628397640288770
 11
-338.167569584145670
 21
-149.115296390246390
  0
ARC
  8
0
  6
CONTINUOUS
 62
3
 10
-345.704420110631190
 20
-155.198749878123640
 40
1.499999999999968
 50
35.963570118309242
 51
120.000000000001620
  0
LINE
  8
0
  6
CONTINUOUS
 62
3
 10
-349.065603709615290
 20
-155.407279326224400
 11
-346.454420110631190
 21
-153.899711772447060
  0
ARC
  8
0
  6
CONTINUOUS
 62
3
 10
-348.315603709615290
 20
-156.706317431900970
 40
1.499999999999926
 50
120.000000000001620
 51
215.531071524832130
  0
ARC
  8
0
  6
CONTINUOUS
 62
3
 10
-337.417569584145670
 20
-150.414334495923410
 40
1.500000000000122
 50
37.928141766218701
 51
119.999999999992930
  0
ARC
  8
0
  6
CONTINUOUS
 62
3
 10
-314.542883656480170
 20
-132.588826264439830
 40
33.500000000000163
 50
217.180755781459110
 51
262.819244218541770
  0
ARC
  8
0
  6
CONTINUOUS
 62
3
 10
-314.542883656480170
 20
-132.588826264439830
 40
42.999999999999858
 50
215.531071524839690
 51
264.468928475160850
  0
ARC
  8
0
  6
CONTINUOUS
 62
3
 10
-314.542883656480170
 20
-132.588826264439830
 40
37.000000000000021
 50
215.963570118321970
 51
264.036429881678940
  0
ARC
  8
0
  6
CONTINUOUS
 62
3
 10
-314.542883656480170
 20
-132.588826264440740
 40
27.499999999999780
 50
217.928141766201070
 51
262.071858233797400
  0
ARC
  8
0
  6
CONTINUOUS
 62
3
 10
-318.542883656480170
 20
-161.311639497130730
 40
1.500000000000000
 50
0.000000000000000
 51
82.071858233804562
  0
ARC
  8
0
  6
CONTINUOUS
 62
3
 10
-318.542883656480170
 20
-164.337841997215040
 40
1.499999999999998
 50
262.819244218541710
 51
0.000000000000000
  0
ARC
  8
0
  6
CONTINUOUS
 62
3
 10
-318.542883656480170
 20
-170.880470261531630
 40
1.500000000000000
 50
0.000000000017370
 51
84.036429881682594
  0
LINE
  8
0
  6
CONTINUOUS
 62
3
 10
-317.042883656480170
 20
-161.311639497130730
 11
-317.042883656480170
 21
-164.337841997215040
  0
LINE
  8
0
  6
CONTINUOUS
 62
3
 10
-317.042883656480170
 20
-170.880470261531170
 11
-317.042883656480170
 21
-173.895605369085390
  0
ARC
  8
0
  6
CONTINUOUS
 62
3
 10
-318.542883656480170
 20
-173.895605369085390
 40
1.500000000000430
 50
264.468928475160000
 51
0.000000000000000
  0
ARC
  8
0
  6
CONTINUOUS
 62
3
 10
-289.047429486744930
 20
-151.927435745965340
 40
1.500000000000240
 50
322.819244218535570
 51
59.999999999998380
  0
LINE
  8
0
  6
CONTINUOUS
 62
3
 10
-288.297429486744930
 20
-150.628397640288770
 11
-290.918197728814220
 21
-149.115296390246390
  0
ARC
  8
0
  6
CONTINUOUS
 62
3
 10
-283.381347202328700
 20
-155.198749878123640
 40
1.499999999999926
 50
59.999999999998380
 51
144.036429881690740
  0
ARC
  8
0
  6
CONTINUOUS
 62
3
 10
-291.668197728814220
 20
-150.414334495923410
 40
1.500000000000320
 50
60.000000000007070
 51
142.071858233781280
  0
ARC
  8
0
  6
CONTINUOUS
 62
3
 10
-314.542883656479720
 20
-132.588826264439830
 40
33.500000000000114
 50
277.180755781458230
 51
322.819244218540860
  0
ARC
  8
0
  6
CONTINUOUS
 62
3
 10
-314.542883656479720
 20
-132.588826264439830
 40
43.000000000000199
 50
275.531071524838860
 51
324.468928475160340
  0
ARC
  8
0
  6
CONTINUOUS
 62
3
 10
-314.542883656479720
 20
-132.588826264439830
 40
37.000000000000028
 50
275.963570118320770
 51
324.036429881678030
  0
ARC
  8
0
  6
CONTINUOUS
 62
3
 10
-314.542883656479720
 20
-132.588826264440740
 40
27.499999999999879
 50
277.928141766202600
 51
322.071858233798930
  0
ARC
  8
0
  6
CONTINUOUS
 62
3
 10
-310.542883656479720
 20
-161.311639497130730
 40
1.499999999999967
 50
97.928141766195438
 51
180.000000000000000
  0
ARC
  8
0
  6
CONTINUOUS
 62
3
 10
-310.542883656479720
 20
-164.337841997215040
 40
1.500000000000000
 50
180.000000000000000
 51
277.180755781458290
  0
ARC
  8
0
  6
CONTINUOUS
 62
3
 10
-310.542883656479720
 20
-170.880470261531630
 40
1.500000000000182
 50
95.963570118326047
 51
179.999999999982630
  0
LINE
  8
0
  6
CONTINUOUS
 62
3
 10
-312.042883656479720
 20
-161.311639497130730
 11
-312.042883656479720
 21
-164.337841997215040
  0
LINE
  8
0
  6
CONTINUOUS
 62
3
 10
-312.042883656479720
 20
-170.880470261531170
 11
-312.042883656479720
 21
-173.895605369085390
  0
ARC
  8
0
  6
CONTINUOUS
 62
3
 10
-310.542883656479720
 20
-173.895605369085390
 40
1.500000000000000
 50
180.000000000000000
 51
275.531071524831360
  0
ARC
  8
0
  6
CONTINUOUS
 62
3
 10
-285.047429486744930
 20
-144.999232515689980
 40
1.499999999999926
 50
239.999999999998410
 51
337.180755781453340
  0
LINE
  8
0
  6
CONTINUOUS
 62
3
 10
-285.797429486744930
 20
-146.298270621366560
 11
-288.418197728814220
 21
-144.785169371324630
  0
ARC
  8
0
  6
CONTINUOUS
 62
3
 10
-287.668197728814220
 20
-143.486131265647600
 40
1.499999999999899
 50
157.928141766199360
 51
240.000000000007050
  0
ARC
  8
0
  6
CONTINUOUS
 62
3
 10
-314.542883656480170
 20
-132.588826264440740
 40
33.500000000000128
 50
337.180755781459030
 51
22.819244218541968
  0
ARC
  8
0
  6
CONTINUOUS
 62
3
 10
-314.542883656479490
 20
-132.588826264440290
 40
27.499999999999886
 50
337.928141766202200
 51
22.071858233797812
  0
ARC
  8
0
  6
CONTINUOUS
 62
3
 10
-287.668197728813990
 20
-121.691521263232970
 40
1.499999999999926
 50
120.000000000001620
 51
202.071858233797370
  0
ARC
  8
0
  6
CONTINUOUS
 62
3
 10
-285.047429486745160
 20
-120.178420013191040
 40
1.499999999999948
 50
22.819244218550043
 51
119.999999999997270
  0
LINE
  8
0
  6
CONTINUOUS
 62
3
 10
-288.418197728813990
 20
-120.392483157556390
 11
-285.797429486745160
 21
-118.879381907514240
  0
ARC
  8
0
  6
CONTINUOUS
 62
3
 10
-314.542883656480400
 20
-132.588826264440290
 40
33.500000000000071
 50
37.180755781458259
 51
82.819244218540931
  0
ARC
  8
0
  6
CONTINUOUS
 62
3
 10
-314.542883656480400
 20
-132.588826264440290
 40
36.999999999999943
 50
35.963570118321194
 51
84.036429881678174
  0
ARC
  8
0
  6
CONTINUOUS
 62
3
 10
-283.381347202329150
 20
-109.978902650756700
 40
1.500000000000102
 50
215.963570118316280
 51
299.999999999997270
  0
ARC
  8
0
  6
CONTINUOUS
 62
3
 10
-289.047429486745390
 20
-113.250216782915000
 40
1.499999999999926
 50
300.000000000001590
 51
37.180755781457485
  0
ARC
  8
0
  6
CONTINUOUS
 62
3
 10
-314.542883656479720
 20
-132.588826264439830
 40
27.500000000000060
 50
37.928141766201819
 51
82.071858233798309
  0
ARC
  8
0
  6
CONTINUOUS
 62
3
 10
-310.542883656479940
 20
-103.866013031749840
 40
1.500000000000000
 50
180.000000000000000
 51
262.071858233795980
  0
LINE
  8
0
  6
CONTINUOUS
 62
3
 10
-290.918197728814220
 20
-116.062356138633730
 11
-288.297429486745390
 21
-114.549254888591570
  0
ARC
  8
0
  6
CONTINUOUS
 62
3
 10
-291.668197728814220
 20
-114.763318032957150
 40
1.499999999999843
 50
217.928141766204990
 51
300.000000000001590
  0
CIRCLE
  8
0
  6
CONTINUOUS
 62
3
 10
-314.542883656479940
 20
-132.588826264439830
 40
5.000000000000000
  0
ARC
  8
0
  6
CONTINUOUS
 62
3
 10
-308.605629723286030
 20
-124.542148954346430
 40
1.499999999999693
 50
233.578178478195410
 51
300.000000000001590
  0
ARC
  8
0
  6
CONTINUOUS
 62
3
 10
-310.542883656479940
 20
-123.423674874527930
 40
1.500000000000000
 50
180.000000000000000
 51
246.421821521804280
  0
ARC
  8
0
  6
CONTINUOUS
 62
3
 10
-297.367704387435200
 20
-118.053929736559890
 40
1.499999999999926
 50
300.000000000001590
 51
40.240348321182964
  0
ARC
  8
0
  6
CONTINUOUS
 62
3
 10
-310.542883656479940
 20
-120.219509387586860
 40
1.500000000000138
 50
72.079786860605225
 51
180.000000000000000
  0
ARC
  8
0
  6
CONTINUOUS
 62
3
 10
-310.542883656479940
 20
-113.503491580447640
 40
1.500000000000000
 50
180.000000000000000
 51
258.162995844103310
  0
ARC
  8
0
  6
CONTINUOUS
 62
3
 10
-300.014498980414150
 20
-119.582057307306050
 40
1.499999999999967
 50
221.837004155893280
 51
300.000000000001590
  0
ARC
  8
0
  6
CONTINUOUS
 62
3
 10
-310.542883656479940
 20
-110.447236438955310
 40
1.499999999999952
 50
79.759651678814024
 51
180.000000000000000
  0
ARC
  8
0
  6
CONTINUOUS
 62
3
 10
-305.830741013665600
 20
-122.940066210875550
 40
1.499999999999926
 50
300.000000000001590
 51
47.920213139381872
  0
LINE
  8
0
  6
CONTINUOUS
 62
3
 10
-299.264498980414150
 20
-120.881095412982630
 11
-296.617704387435200
 21
-119.352967842236460
  0
ARC
  8
0
  6
CONTINUOUS
 62
3
 10
-314.542883656479720
 20
-132.588826264439830
 40
14.499999999999860
 50
47.920213139391755
 51
72.079786860608309
  0
LINE
  8
0
  6
CONTINUOUS
 62
3
 10
-312.042883656479940
 20
-120.219509387586860
 11
-312.042883656479940
 21
-123.423674874527930
  0
LINE
  8
0
  6
CONTINUOUS
 62
3
 10
-312.042883656479940
 20
-110.447236438955310
 11
-312.042883656479940
 21
-113.503491580447640
  0
LINE
  8
0
  6
CONTINUOUS
 62
3
 10
-307.855629723286030
 20
-125.841187060023000
 11
-305.080741013665600
 21
-124.239104316552130
  0
ARC
  8
0
  6
CONTINUOUS
 62
3
 10
-314.542883656479720
 20
-132.588826264439830
 40
23.999999999999819
 50
40.240348321186090
 51
79.759651678814322
  0
ARC
  8
0
  6
CONTINUOUS
 62
3
 10
-314.542883656479720
 20
-132.588826264439830
 40
8.500000000000101
 50
53.578178478202659
 51
66.421821521799089
  0
ARC
  8
0
  6
CONTINUOUS
 62
3
 10
-301.830741013665600
 20
-135.309383087728750
 40
1.499999999999926
 50
239.999999999998410
 51
347.920213139390400
  0
LINE
  8
0
  6
CONTINUOUS
 62
3
 10
-302.580741013665600
 20
-136.608421193405320
 11
-305.355629723286030
 21
-135.006338449934900
  0
ARC
  8
0
  6
CONTINUOUS
 62
3
 10
-304.605629723286030
 20
-133.707300344258330
 40
1.500000000000099
 50
173.578178478198990
 51
239.999999999998410
  0
ARC
  8
0
  6
CONTINUOUS
 62
3
 10
-314.542883656479720
 20
-132.588826264439830
 40
8.499999999999865
 50
353.578178478199500
 51
6.421821521797448
  0
ARC
  8
0
  6
CONTINUOUS
 62
3
 10
-304.605629723286030
 20
-131.470352184621790
 40
1.499999999999926
 50
120.000000000001620
 51
186.421821521801010
  0
LINE
  8
0
  6
CONTINUOUS
 62
3
 10
-305.355629723286030
 20
-130.171314078945220
 11
-302.580741013665600
 21
-128.569231335474340
  0
ARC
  8
0
  6
CONTINUOUS
 62
3
 10
-301.830741013665600
 20
-129.868269441150910
 40
1.500000000000192
 50
12.079786860592611
 51
120.000000000001620
  0
ARC
  8
0
  6
CONTINUOUS
 62
3
 10
-314.542883656479720
 20
-132.588826264439830
 40
14.500000000000169
 50
347.920213139391310
 51
12.079786860606980
  0
ARC
  8
0
  6
CONTINUOUS
 62
3
 10
-293.367704387435200
 20
-140.195519562044410
 40
1.499999999999926
 50
239.999999999998410
 51
340.240348321188210
  0
LINE
  8
0
  6
CONTINUOUS
 62
3
 10
-294.117704387435200
 20
-141.494557667720980
 11
-296.764498980414150
 21
-139.966430096975270
  0
ARC
  8
0
  6
CONTINUOUS
 62
3
 10
-296.014498980414150
 20
-138.667391991298250
 40
1.500000000000038
 50
161.837004155895410
 51
240.000000000007050
  0
ARC
  8
0
  6
CONTINUOUS
 62
3
 10
-314.542883656479720
 20
-132.588826264439830
 40
17.999999999999943
 50
341.837004155893340
 51
18.162995844106646
  0
ARC
  8
0
  6
CONTINUOUS
 62
3
 10
-296.014498980414150
 20
-126.510260537581410
 40
1.499999999999926
 50
120.000000000001620
 51
198.162995844104590
  0
LINE
  8
0
  6
CONTINUOUS
 62
3
 10
-296.764498980414150
 20
-125.211222431904840
 11
-294.117704387435200
 21
-123.683094861158670
  0
ARC
  8
0
  6
CONTINUOUS
 62
3
 10
-293.367704387435200
 20
-124.982132966835250
 40
1.500000000000246
 50
19.759651678811824
 51
120.000000000001620
  0
ARC
  8
0
  6
CONTINUOUS
 62
3
 10
-314.542883656479720
 20
-132.588826264439830
 40
24.000000000000139
 50
340.240348321186050
 51
19.759651678813924
  0
ARC
  8
0
  6
CONTINUOUS
 62
3
 10
-327.255026299294290
 20
-135.309383087728750
 40
1.500000000000287
 50
192.079786860609600
 51
300.000000000001590
  0
LINE
  8
0
  6
CONTINUOUS
 62
3
 10
-326.505026299294290
 20
-136.608421193405320
 11
-323.730137589673860
 21
-135.006338449934900
  0
ARC
  8
0
  6
CONTINUOUS
 62
3
 10
-324.480137589673860
 20
-133.707300344258330
 40
1.499999999999926
 50
300.000000000001590
 51
6.421821521801967
  0
ARC
  8
0
  6
CONTINUOUS
 62
3
 10
-314.542883656480400
 20
-132.588826264439830
 40
8.499999999999813
 50
173.578178478202550
 51
186.421821521800500
  0
ARC
  8
0
  6
CONTINUOUS
 62
3
 10
-324.480137589673860
 20
-131.470352184621790
 40
1.499999999999873
 50
353.578178478198030
 51
59.999999999998380
  0
LINE
  8
0
  6
CONTINUOUS
 62
3
 10
-323.730137589673860
 20
-130.171314078945220
 11
-326.505026299294510
 21
-128.569231335474340
  0
ARC
  8
0
  6
CONTINUOUS
 62
3
 10
-327.255026299294510
 20
-129.868269441150910
 40
1.499999999999926
 50
59.999999999998380
 51
167.920213139405550
  0
ARC
  8
0
  6
CONTINUOUS
 62
3
 10
-314.542883656480400
 20
-132.588826264439830
 40
14.499999999999851
 50
167.920213139392840
 51
192.079786860608920
  0
ARC
  8
0
  6
CONTINUOUS
 62
3
 10
-335.718062925524690
 20
-140.195519562044410
 40
1.500000000000246
 50
199.759651678811820
 51
300.000000000001590
  0
LINE
  8
0
  6
CONTINUOUS
 62
3
 10
-334.968062925524690
 20
-141.494557667720980
 11
-332.321268332545740
 21
-139.966430096975270
  0
ARC
  8
0
  6
CONTINUOUS
 62
3
 10
-333.071268332545740
 20
-138.667391991298250
 40
1.500000000000320
 50
299.999999999992950
 51
18.162995844104589
  0
ARC
  8
0
  6
CONTINUOUS
 62
3
 10
-314.542883656480400
 20
-132.588826264439830
 40
17.999999999999726
 50
161.837004155893140
 51
198.162995844106860
  0
ARC
  8
0
  6
CONTINUOUS
 62
3
 10
-333.071268332545740
 20
-126.510260537581410
 40
1.500000000000038
 50
341.837004155895390
 51
59.999999999998380
  0
LINE
  8
0
  6
CONTINUOUS
 62
3
 10
-332.321268332545740
 20
-125.211222431904840
 11
-334.968062925524920
 21
-123.683094861158670
  0
ARC
  8
0
  6
CONTINUOUS
 62
3
 10
-335.718062925524920
 20
-124.982132966835250
 40
1.499999999999926
 50
59.999999999998380
 51
160.240348321185250
  0
ARC
  8
0
  6
CONTINUOUS
 62
3
 10
-314.542883656480400
 20
-132.588826264439830
 40
23.999999999999925
 50
160.240348321185910
 51
199.759651678814090
  0
ARC
  8
0
  6
CONTINUOUS
 62
3
 10
-323.255026299294290
 20
-142.237586318004560
 40
1.500000000000320
 50
119.999999999992930
 51
227.920213139381870
  0
LINE
  8
0
  6
CONTINUOUS
 62
3
 10
-324.005026299294290
 20
-140.938548212327530
 11
-321.230137589673860
 21
-139.336465468857110
  0
ARC
  8
0
  6
CONTINUOUS
 62
3
 10
-320.480137589673860
 20
-140.635503574533690
 40
1.500000000000059
 50
53.578178478205707
 51
120.000000000001620
  0
ARC
  8
0
  6
CONTINUOUS
 62
3
 10
-314.542883656479940
 20
-132.588826264440290
 40
8.499999999999870
 50
233.578178478199590
 51
246.421821521797680
  0
ARC
  8
0
  6
CONTINUOUS
 62
3
 10
-318.542883656479940
 20
-141.753977654352180
 40
1.500000000000000
 50
0.000000000017370
 51
66.421821521804304
  0
LINE
  8
0
  6
CONTINUOUS
 62
3
 10
-317.042883656479940
 20
-141.753977654351730
 11
-317.042883656479940
 21
-144.958143141293020
  0
ARC
  8
0
  6
CONTINUOUS
 62
3
 10
-318.542883656479940
 20
-144.958143141293020
 40
1.500000000000355
 50
252.079786860607900
 51
0.000000000000000
  0
ARC
  8
0
  6
CONTINUOUS
 62
3
 10
-314.542883656479940
 20
-132.588826264440290
 40
14.500000000000011
 50
227.920213139391080
 51
252.079786860607410
  0
ARC
  8
0
  6
CONTINUOUS
 62
3
 10
-331.718062925524690
 20
-147.123722792320220
 40
1.499999999999926
 50
120.000000000001620
 51
220.240348321176330
  0
LINE
  8
0
  6
CONTINUOUS
 62
3
 10
-332.468062925524690
 20
-145.824684686643650
 11
-329.821268332545740
 21
-144.296557115897490
  0
ARC
  8
0
  6
CONTINUOUS
 62
3
 10
-329.071268332545740
 20
-145.595595221574060
 40
1.500000000000118
 50
41.837004155899741
 51
120.000000000001620
  0
ARC
  8
0
  6
CONTINUOUS
 62
3
 10
-314.542883656479940
 20
-132.588826264440290
 40
17.999999999999940
 50
221.837004155892320
 51
258.162995844106770
  0
ARC
  8
0
  6
CONTINUOUS
 62
3
 10
-318.542883656479940
 20
-151.674160948432470
 40
1.500000000000000
 50
0.000000000000000
 51
78.162995844101530
  0
LINE
  8
0
  6
CONTINUOUS
 62
3
 10
-317.042883656479940
 20
-151.674160948432470
 11
-317.042883656479940
 21
-154.730416089924800
  0
ARC
  8
0
  6
CONTINUOUS
 62
3
 10
-318.542883656479940
 20
-154.730416089924800
 40
1.499999999999728
 50
259.759651678812470
 51
0.000000000000000
  0
ARC
  8
0
  6
CONTINUOUS
 62
3
 10
-314.542883656479940
 20
-132.588826264440290
 40
23.999999999999844
 50
220.240348321185340
 51
259.759651678813730
  0
ARC
  8
0
  6
CONTINUOUS
 62
3
 10
-305.830741013665600
 20
-142.237586318004560
 40
1.499999999999944
 50
312.079786860618130
 51
60.000000000007070
  0
LINE
  8
0
  6
CONTINUOUS
 62
3
 10
-305.080741013665600
 20
-140.938548212327530
 11
-307.855629723286030
 21
-139.336465468857110
  0
ARC
  8
0
  6
CONTINUOUS
 62
3
 10
-308.605629723286030
 20
-140.635503574533690
 40
1.499999999999926
 50
59.999999999998380
 51
126.421821521801260
  0
ARC
  8
0
  6
CONTINUOUS
 62
3
 10
-314.542883656479940
 20
-132.588826264440290
 40
8.500000000000060
 50
293.578178478202350
 51
306.421821521799190
  0
ARC
  8
0
  6
CONTINUOUS
 62
3
 10
-310.542883656479940
 20
-141.753977654352180
 40
1.500000000000139
 50
113.578178478195690
 51
179.999999999982630
  0
LINE
  8
0
  6
CONTINUOUS
 62
3
 10
-312.042883656479940
 20
-141.753977654351730
 11
-312.042883656479940
 21
-144.958143141293020
  0
ARC
  8
0
  6
CONTINUOUS
 62
3
 10
-310.542883656479940
 20
-144.958143141293020
 40
1.500000000000000
 50
180.000000000000000
 51
287.920213139392100
  0
ARC
  8
0
  6
CONTINUOUS
 62
3
 10
-314.542883656479940
 20
-132.588826264440290
 40
14.500000000000121
 50
287.920213139392560
 51
312.079786860608860
  0
ARC
  8
0
  6
CONTINUOUS
 62
3
 10
-297.367704387435200
 20
-147.123722792320220
 40
1.499999999999828
 50
319.759651678823670
 51
59.999999999998380
  0
LINE
  8
0
  6
CONTINUOUS
 62
3
 10
-296.617704387435200
 20
-145.824684686643650
 11
-299.264498980414150
 21
-144.296557115897490
  0
ARC
  8
0
  6
CONTINUOUS
 62
3
 10
-300.014498980414150
 20
-145.595595221574060
 40
1.499999999999926
 50
59.999999999998380
 51
138.162995844100240
  0
ARC
  8
0
  6
CONTINUOUS
 62
3
 10
-314.542883656479940
 20
-132.588826264440290
 40
18.000000000000146
 50
281.837004155893230
 51
318.162995844107680
  0
ARC
  8
0
  6
CONTINUOUS
 62
3
 10
-310.542883656479940
 20
-151.674160948432470
 40
1.499999999999731
 50
101.837004155898450
 51
180.000000000000000
  0
LINE
  8
0
  6
CONTINUOUS
 62
3
 10
-312.042883656479940
 20
-151.674160948432470
 11
-312.042883656479940
 21
-154.730416089924800
  0
ARC
  8
0
  6
CONTINUOUS
 62
3
 10
-310.542883656479940
 20
-154.730416089924800
 40
1.500000000000000
 50
180.000000000000000
 51
280.240348321187530
  0
ARC
  8
0
  6
CONTINUOUS
 62
3
 10
-314.542883656479940
 20
-132.588826264440290
 40
23.999999999999716
 50
280.240348321186270
 51
319.759651678814690
  0
ARC
  8
0
  6
CONTINUOUS
 62
3
 10
-318.542883656479940
 20
-120.219509387586860
 40
1.500000000000000
 50
0.000000000000000
 51
107.920213139394770
  0
LINE
  8
0
  6
CONTINUOUS
 62
3
 10
-317.042883656479940
 20
-120.219509387586860
 11
-317.042883656479940
 21
-123.423674874527930
  0
ARC
  8
0
  6
CONTINUOUS
 62
3
 10
-318.542883656479940
 20
-123.423674874527930
 40
1.500000000000139
 50
293.578178478195700
 51
0.000000000000000
  0
ARC
  8
0
  6
CONTINUOUS
 62
3
 10
-314.542883656480400
 20
-132.588826264439830
 40
8.499999999999879
 50
113.578178478199500
 51
126.421821521797340
  0
ARC
  8
0
  6
CONTINUOUS
 62
3
 10
-320.480137589673860
 20
-124.542148954346430
 40
1.499999999999926
 50
239.999999999998410
 51
306.421821521797600
  0
LINE
  8
0
  6
CONTINUOUS
 62
3
 10
-321.230137589673860
 20
-125.841187060023000
 11
-324.005026299294510
 21
-124.239104316552130
  0
ARC
  8
0
  6
CONTINUOUS
 62
3
 10
-323.255026299294510
 20
-122.940066210875550
 40
1.499999999999792
 50
132.079786860611680
 51
239.999999999998410
  0
ARC
  8
0
  6
CONTINUOUS
 62
3
 10
-314.542883656480400
 20
-132.588826264439830
 40
14.499999999999980
 50
107.920213139390830
 51
132.079786860607560
  0
ARC
  8
0
  6
CONTINUOUS
 62
3
 10
-318.542883656479940
 20
-110.447236438955310
 40
1.500000000000000
 50
0.000000000000000
 51
100.240348321194510
  0
LINE
  8
0
  6
CONTINUOUS
 62
3
 10
-317.042883656479940
 20
-110.447236438955310
 11
-317.042883656479940
 21
-113.503491580447640
  0
ARC
  8
0
  6
CONTINUOUS
 62
3
 10
-318.542883656479940
 20
-113.503491580447640
 40
1.499999999999954
 50
281.837004155896690
 51
0.000000000000000
  0
ARC
  8
0
  6
CONTINUOUS
 62
3
 10
-314.542883656480400
 20
-132.588826264439830
 40
17.999999999999829
 50
101.837004155891980
 51
138.162995844106210
  0
ARC
  8
0
  6
CONTINUOUS
 62
3
 10
-329.071268332545740
 20
-119.582057307306050
 40
1.499999999999926
 50
239.999999999998410
 51
318.162995844106720
  0
LINE
  8
0
  6
CONTINUOUS
 62
3
 10
-329.821268332545740
 20
-120.881095412982630
 11
-332.468062925524920
 21
-119.352967842236460
  0
ARC
  8
0
  6
CONTINUOUS
 62
3
 10
-331.718062925524920
 20
-118.053929736559890
 40
1.499999999999802
 50
139.759651678811420
 51
239.999999999998410
  0
ARC
  8
0
  6
CONTINUOUS
 62
3
 10
-314.542883656480400
 20
-132.588826264439830
 40
23.999999999999901
 50
100.240348321185670
 51
139.759651678813550
  0
ARC
  8
0
  6
CONTINUOUS
 62
3
 10
-318.542883656479940
 20
-100.839810531665300
 40
1.500000000000000
 50
0.000000000000000
 51
97.180755781458288
  0
LINE
  8
0
  6
CONTINUOUS
 62
3
 10
-317.042883656479940
 20
-100.839810531665300
 11
-317.042883656479940
 21
-103.866013031749840
  0
ARC
  8
0
  6
CONTINUOUS
 62
3
 10
-318.542883656479940
 20
-94.297182267348717
 40
1.499999999999933
 50
275.963570118318330
 51
0.000000000000000
  0
LINE
  8
0
  6
CONTINUOUS
 62
3
 10
-317.042883656479940
 20
-91.282047159794502
 11
-317.042883656479940
 21
-94.297182267348717
  0
LINE
  8
0
  6
CONTINUOUS
 62
3
 10
-280.020163603344600
 20
-155.407279326224400
 11
-282.631347202328700
 21
-153.899711772447060
  0
ARC
  8
0
  6
CONTINUOUS
 62
3
 10
-280.770163603344600
 20
-156.706317431900970
 40
1.499999999999844
 50
324.468928475167900
 51
59.999999999998380
  0
ARC
  8
0
  6
CONTINUOUS
 62
3
 10
-279.381347202328700
 20
-148.270546647848280
 40
1.500000000000063
 50
155.963570118322880
 51
239.999999999998410
  0
LINE
  8
0
  6
CONTINUOUS
 62
3
 10
-277.520163603344600
 20
-151.077152307302190
 11
-280.131347202328700
 21
-149.569584753524850
  0
ARC
  8
0
  6
CONTINUOUS
 62
3
 10
-276.770163603344600
 20
-149.778114201625160
 40
1.500000000000320
 50
240.000000000007050
 51
335.531071524832500
  0
ARC
  8
0
  6
CONTINUOUS
 62
3
 10
-314.542883656480170
 20
-132.588826264440740
 40
42.999999999999936
 50
335.531071524839770
 51
24.468928475160769
  0
ARC
  8
0
  6
CONTINUOUS
 62
3
 10
-314.542883656480170
 20
-132.588826264440740
 40
36.999999999999972
 50
335.963570118321740
 51
24.036429881678870
  0
ARC
  8
0
  6
CONTINUOUS
 62
3
 10
-279.381347202328930
 20
-116.907105881032740
 40
1.500000000000123
 50
119.999999999997270
 51
204.036429881680680
  0
LINE
  8
0
  6
CONTINUOUS
 62
3
 10
-280.131347202328930
 20
-115.608067775355940
 11
-277.520163603344600
 21
-114.100500221578840
  0
ARC
  8
0
  6
CONTINUOUS
 62
3
 10
-276.770163603344600
 20
-115.399538327255640
 40
1.500000000000034
 50
24.468928475159590
 51
119.999999999997270
  0
ARC
  8
0
  6
CONTINUOUS
 62
3
 10
-314.542883656480400
 20
-132.588826264440290
 40
42.999999999999908
 50
35.531071524839248
 51
84.468928475160212
  0
ARC
  8
0
  6
CONTINUOUS
 62
3
 10
-280.770163603345050
 20
-108.471335096979600
 40
1.500000000000123
 50
299.999999999997270
 51
35.531071524839192
  0
ARC
  8
0
  6
CONTINUOUS
 62
3
 10
-310.542883656479940
 20
-94.297182267348717
 40
1.500000000000000
 50
180.000000000000000
 51
264.036429881682580
  0
ARC
  8
0
  6
CONTINUOUS
 62
3
 10
-310.542883656479940
 20
-100.839810531665300
 40
1.499999999999998
 50
82.819244218541712
 51
180.000000000000000
  0
LINE
  8
0
  6
CONTINUOUS
 62
3
 10
-312.042883656479940
 20
-100.839810531665300
 11
-312.042883656479940
 21
-103.866013031749840
  0
LINE
  8
0
  6
CONTINUOUS
 62
3
 10
-282.631347202329150
 20
-111.277940756433500
 11
-280.020163603345050
 21
-109.770373202656400
  0
LINE
  8
0
  6
CONTINUOUS
 62
3
 10
-312.042883656479940
 20
-91.282047159794729
 11
-312.042883656479940
 21
-94.297182267348717
  0
ARC
  8
0
  6
CONTINUOUS
 62
3
 10
-314.542883656480170
 20
-132.588826264439830
 40
27.499999999999815
 50
97.928141766201691
 51
142.071858233797880
  0
ARC
  8
0
  6
CONTINUOUS
 62
3
 10
-314.542883656479720
 20
-132.588826264439830
 40
17.999999999999922
 50
41.837004155893325
 51
78.162995844107314
  0
ARC
  8
0
  6
CONTINUOUS
 62
3
 10
-318.542883656479940
 20
-91.282047159794502
 40
1.500000000000000
 50
0.000000000000000
 51
95.531071524841693
  0
ARC
  8
0
  6
CONTINUOUS
 62
3
 10
-310.542883656479940
 20
-91.282047159794729
 40
1.500000000000203
 50
84.468928475159132
 51
180.000000000000000
  0
ARC
  8
0
  6
CONTINUOUS
 62
3
 10
-314.542883656479940
 20
-373.188826264440190
 40
300.599999999999910
 50
90.000000000000000
 51
98.597082237249069
  0
ARC
  8
0
  6
CONTINUOUS
 62
3
 10
-314.542883656479940
 20
108.011173735559850
 40
300.600000000000140
 50
270.000000000000000
 51
278.597082237249080
  0
ARC
  8
0
  6
CONTINUOUS
 62
3
 10
-270.594296226197460
 20
-82.492211796911988
 40
6.600000000000118
 50
45.000000000001400
 51
81.402917762751386
  0
ARC
  8
0
  6
CONTINUOUS
 62
3
 10
-314.542883656479940
 20
-373.188826264440190
 40
300.599999999999800
 50
81.402917762750931
 51
90.000000000000000
  0
ARC
  8
0
  6
CONTINUOUS
 62
3
 10
-270.594296226197460
 20
-182.685440731968810
 40
6.599999999999747
 50
278.597082237248910
 51
315.000000000000000
  0
ARC
  8
0
  6
CONTINUOUS
 62
3
 10
-314.542883656479940
 20
108.011173735559850
 40
300.600000000000020
 50
261.402917762750920
 51
270.000000000000000
  0
ARC
  8
0
  6
CONTINUOUS
 62
3
 10
-358.491471086762430
 20
-182.685440731968810
 40
6.599999999999957
 50
225.000000000000000
 51
261.402917762751090
  0
LINE
  8
0
  6
CONTINUOUS
 62
3
 10
-265.927391470366270
 20
-77.825307041080805
 11
-258.860942351707310
 21
-84.891756159739771
  0
ARC
  8
0
  6
CONTINUOUS
 62
3
 10
-277.669982731269560
 20
-103.700796539302010
 40
26.600000000000193
 50
6.051985358668552
 51
45.000000000000000
  0
LINE
  8
0
  6
CONTINUOUS
 62
3
 10
-363.158375842593610
 20
-77.825307041080805
 11
-370.224824961252580
 21
-84.891756159739771
  0
ARC
  8
0
  6
CONTINUOUS
 62
3
 10
-351.415784581690330
 20
-103.700796539302010
 40
26.600000000000119
 50
135.000000000000000
 51
173.948014641331410
  0
LINE
  8
0
  6
CONTINUOUS
 62
3
 10
-363.158375842593610
 20
-187.352345487799990
 11
-370.224824961252810
 21
-180.285896369140350
  0
ARC
  8
0
  6
CONTINUOUS
 62
3
 10
-78.942883656479921
 20
-132.588826264440290
 40
300.599999999999970
 50
173.948014641331500
 51
186.051985358668500
  0
ARC
  8
0
  6
CONTINUOUS
 62
3
 10
-351.415784581690330
 20
-161.476855989578550
 40
26.599999999999969
 50
186.051985358668590
 51
224.999999999998980
  0
ARC
  8
0
  6
CONTINUOUS
 62
3
 10
-550.142883656479850
 20
-132.588826264440290
 40
300.600000000000080
 50
353.948014641331500
 51
6.051985358668499
  0
LINE
  8
0
  6
CONTINUOUS
 62
3
 10
-265.927391470366270
 20
-187.352345487799990
 11
-258.860942351706850
 21
-180.285896369140350
  0
ARC
  8
0
  6
CONTINUOUS
 62
3
 10
-277.669982731269330
 20
-161.476855989578550
 40
26.599999999999955
 50
315.000000000001020
 51
353.948014641331380
  0
ARC
  8
0
  6
CONTINUOUS
 62
4
 10
-351.415784581690330
 20
-103.700796539302010
 40
15.396999999999876
 50
135.000000000000000
 51
173.948014641331160
  0
LINE
  8
0
  6
CONTINUOUS
 62
4
 10
-357.727042298981130
 20
-88.237408036733996
 11
-362.303107691619740
 21
-92.813473429372607
  0
ARC
  8
0
  6
CONTINUOUS
 62
4
 10
-78.942883656480035
 20
-132.588826264440290
 40
289.396999999999930
 50
173.948014641331470
 51
180.000000000000000
  0
ARC
  8
0
  6
CONTINUOUS
 62
4
 10
-314.542883656479940
 20
-373.188826264440190
 40
289.396999999999820
 50
82.102011327572214
 51
90.000000000000000
  0
ARC
  8
0
  6
CONTINUOUS
 62
4
 10
-275.601365701097620
 20
-92.480048723853542
 40
6.000000000000049
 50
45.000000000003077
 51
82.102011327574374
  0
LINE
  8
0
  6
CONTINUOUS
 62
4
 10
-271.358725013978530
 20
-88.237408036733996
 11
-266.782659621339920
 21
-92.813473429372607
  0
ARC
  8
0
  6
CONTINUOUS
 62
4
 10
-277.669982731269330
 20
-103.700796539302010
 40
15.397000000000052
 50
6.051985358668849
 51
45.000000000000000
  0
ARC
  8
0
  6
CONTINUOUS
 62
4
 10
-550.142883656479850
 20
-132.588826264440290
 40
289.397000000000160
 50
0.000000000000000
 51
6.051985358668508
  0
ARC
  8
0
  6
CONTINUOUS
 62
4
 10
-314.542883656479940
 20
108.011173735559620
 40
289.396999999999930
 50
270.000000000000000
 51
277.897988672427800
  0
ARC
  8
0
  6
CONTINUOUS
 62
4
 10
-275.601365701097620
 20
-172.697603805027030
 40
5.999999999999923
 50
277.897988672425640
 51
314.999999999996870
  0
LINE
  8
0
  6
CONTINUOUS
 62
4
 10
-271.358725013978530
 20
-176.940244492146580
 11
-266.782659621339920
 21
-172.364179099507960
  0
ARC
  8
0
  6
CONTINUOUS
 62
4
 10
-277.669982731269330
 20
-161.476855989578550
 40
15.396999999999876
 50
315.000000000000000
 51
353.948014641331160
  0
ARC
  8
0
  6
CONTINUOUS
 62
4
 10
-550.142883656479850
 20
-132.588826264440290
 40
289.397000000000160
 50
353.948014641331500
 51
0.000000000000000
  0
ARC
  8
0
  6
CONTINUOUS
 62
4
 10
-314.542883656479720
 20
108.011173735559620
 40
289.396999999999820
 50
262.102011327572200
 51
270.000000000000000
  0
ARC
  8
0
  6
CONTINUOUS
 62
4
 10
-353.484401611862040
 20
-172.697603805027030
 40
6.000000000000049
 50
225.000000000003070
 51
262.102011327574360
  0
LINE
  8
0
  6
CONTINUOUS
 62
4
 10
-357.727042298981130
 20
-176.940244492146580
 11
-362.303107691619740
 21
-172.364179099507960
  0
ARC
  8
0
  6
CONTINUOUS
 62
4
 10
-351.415784581690330
 20
-161.476855989578550
 40
15.397000000000052
 50
186.051985358668840
 51
225.000000000000000
  0
ARC
  8
0
  6
CONTINUOUS
 62
4
 10
-78.942883656479808
 20
-132.588826264440290
 40
289.397000000000160
 50
180.000000000000000
 51
186.051985358668500
  0
LINE
  8
0
  6
DASHDOT
 62
4
 10
-385.994800942680290
 20
-184.040743550640460
 11
-403.042883656480400
 21
-201.088826264440340
  0
LINE
  8
0
  6
DASHDOT
 62
4
 10
-384.932674019260960
 20
-42.199035901659613
 11
-403.142081093323950
 21
-23.989628827596604
  0
CIRCLE
  8
0
  6
CONTINUOUS
 62
3
 10
-356.542883656480400
 20
-206.088826264440290
 40
5.000000000000000
  0
LINE
  8
0
  6
CONTINUOUS
 62
3
 10
-354.042886040664940
 20
-207.532197909438200
 11
-354.042885086990620
 21
-204.645448641860070
  0
LINE
  8
0
  6
CONTINUOUS
 62
3
 10
-359.042881272295290
 20
-204.645454619441240
 11
-359.042882225969610
 21
-207.532200072322100
  0
LINE
  8
0
  6
CONTINUOUS
 62
3
 10
-356.542888377687630
 20
-203.202077524084190
 11
-359.042882162478920
 21
-204.645454168631660
  0
LINE
  8
0
  6
CONTINUOUS
 62
3
 10
-356.542878144354860
 20
-208.975573202162370
 11
-354.042885839311340
 21
-207.532197855418250
  0
LINE
  8
0
  6
CONTINUOUS
 62
3
 10
-356.542888438917090
 20
-203.202078004226910
 11
-354.042883710870230
 21
-204.645449039320060
  0
LINE
  8
0
  6
CONTINUOUS
 62
3
 10
-359.042883008424500
 20
-207.532200239116260
 11
-356.542878658917970
 21
-208.975573815812140
  0
CIRCLE
  8
0
  6
CONTINUOUS
 62
3
 10
-272.542883656479940
 20
-206.088826264440290
 40
5.000000000000000
  0
LINE
  8
0
  6
CONTINUOUS
 62
3
 10
-275.042881272295400
 20
-207.532197909438200
 11
-275.042882225969720
 21
-204.645448641860070
  0
LINE
  8
0
  6
CONTINUOUS
 62
3
 10
-270.042886040665050
 20
-204.645454619441240
 11
-270.042885086990740
 21
-207.532200072322100
  0
LINE
  8
0
  6
CONTINUOUS
 62
3
 10
-272.542878935272710
 20
-203.202077524084190
 11
-270.042885150481420
 21
-204.645454168631660
  0
LINE
  8
0
  6
CONTINUOUS
 62
3
 10
-272.542889168605370
 20
-208.975573202162370
 11
-275.042881473649000
 21
-207.532197855418250
  0
LINE
  8
0
  6
CONTINUOUS
 62
3
 10
-272.542878874043250
 20
-203.202078004226910
 11
-275.042883602090110
 21
-204.645449039320060
  0
LINE
  8
0
  6
CONTINUOUS
 62
3
 10
-270.042884304535850
 20
-207.532200239116260
 11
-272.542888654042370
 21
-208.975573815812140
  0
CIRCLE
  8
0
  6
CONTINUOUS
 62
3
 10
-386.542883656480170
 20
-127.088826264440220
 40
5.000000000000000
  0
LINE
  8
0
  6
CONTINUOUS
 62
3
 10
-384.042886040664600
 20
-128.532197909438140
 11
-384.042885086990280
 21
-125.645448641860010
  0
LINE
  8
0
  6
CONTINUOUS
 62
3
 10
-389.042881272295060
 20
-125.645454619441180
 11
-389.042882225969380
 21
-128.532200072322040
  0
LINE
  8
0
  6
CONTINUOUS
 62
3
 10
-386.542888377687400
 20
-124.202077524084130
 11
-389.042882162478690
 21
-125.645454168631600
  0
LINE
  8
0
  6
CONTINUOUS
 62
3
 10
-386.542878144354520
 20
-129.975573202162310
 11
-384.042885839311110
 21
-128.532197855418190
  0
LINE
  8
0
  6
CONTINUOUS
 62
3
 10
-386.542888438916860
 20
-124.202078004226840
 11
-384.042883710870000
 21
-125.645449039319990
  0
LINE
  8
0
  6
CONTINUOUS
 62
3
 10
-389.042883008424270
 20
-128.532200239116210
 11
-386.542878658917740
 21
-129.975573815812080
  0
CIRCLE
  8
0
  6
CONTINUOUS
 62
3
 10
-361.542883656480400
 20
-68.588826264440172
 40
5.000000000000000
  0
LINE
  8
0
  6
CONTINUOUS
 62
3
 10
-359.042886040664940
 20
-70.032197909438082
 11
-359.042885086990620
 21
-67.145448641859957
  0
LINE
  8
0
  6
CONTINUOUS
 62
3
 10
-364.042881272295290
 20
-67.145454619441125
 11
-364.042882225969610
 21
-70.032200072321984
  0
LINE
  8
0
  6
CONTINUOUS
 62
3
 10
-361.542888377687630
 20
-65.702077524084075
 11
-364.042882162478920
 21
-67.145454168631545
  0
LINE
  8
0
  6
CONTINUOUS
 62
3
 10
-361.542878144354860
 20
-71.475573202162252
 11
-359.042885839311340
 21
-70.032197855418133
  0
LINE
  8
0
  6
CONTINUOUS
 62
3
 10
-361.542888438917090
 20
-65.702078004226792
 11
-359.042883710870230
 21
-67.145449039319942
  0
LINE
  8
0
  6
CONTINUOUS
 62
3
 10
-364.042883008424500
 20
-70.032200239116150
 11
-361.542878658917970
 21
-71.475573815812027
  0
CIRCLE
  8
0
  6
CONTINUOUS
 62
3
 10
-267.542883656479940
 20
-68.588826264440172
 40
5.000000000000000
  0
LINE
  8
0
  6
CONTINUOUS
 62
3
 10
-270.042881272295400
 20
-70.032197909438082
 11
-270.042882225969720
 21
-67.145448641859957
  0
LINE
  8
0
  6
CONTINUOUS
 62
3
 10
-265.042886040665050
 20
-67.145454619441125
 11
-265.042885086990740
 21
-70.032200072321984
  0
LINE
  8
0
  6
CONTINUOUS
 62
3
 10
-267.542878935272710
 20
-65.702077524084075
 11
-265.042885150481420
 21
-67.145454168631545
  0
LINE
  8
0
  6
CONTINUOUS
 62
3
 10
-267.542889168605370
 20
-71.475573202162252
 11
-270.042881473649000
 21
-70.032197855418133
  0
LINE
  8
0
  6
CONTINUOUS
 62
3
 10
-267.542878874043250
 20
-65.702078004226792
 11
-270.042883602090110
 21
-67.145449039319942
  0
LINE
  8
0
  6
CONTINUOUS
 62
3
 10
-265.042884304535850
 20
-70.032200239116150
 11
-267.542888654042370
 21
-71.475573815812027
  0
ARC
  8
0
  6
CONTINUOUS
 62
3
 10
-356.542883656479940
 20
-206.088826264439890
 40
8.000000000000156
 50
184.632766630878280
 51
223.432536557788810
  0
ARC
  8
0
  6
CONTINUOUS
 62
3
 10
-370.497143568372620
 20
-207.219591629732180
 40
5.999999999999830
 50
4.632766630877953
 51
61.473514688828168
  0
ARC
  8
0
  6
CONTINUOUS
 62
3
 10
-356.542883656479940
 20
-206.088826264439890
 40
7.999999999999812
 50
316.567463442208920
 51
325.771133672186410
  0
ARC
  8
0
  6
CONTINUOUS
 62
3
 10
-272.542883656479940
 20
-206.088826264439890
 40
8.000000000000162
 50
214.228866327811770
 51
223.432536557788810
  0
ARC
  8
0
  6
CONTINUOUS
 62
3
 10
-272.542883656479940
 20
-206.088826264439890
 40
7.999999999999812
 50
316.567463442208920
 51
355.367233369121610
  0
ARC
  8
0
  6
CONTINUOUS
 62
3
 10
-258.588623744587270
 20
-207.219591629732180
 40
6.000000000000011
 50
118.526485311173740
 51
175.367233369122230
  0
ARC
  8
0
  6
CONTINUOUS
 62
3
 10
-230.042883656479940
 20
-28.088826264440286
 40
8.000000000000000
 50
0.000000000000000
 51
90.000000000000000
  0
LINE
  8
0
  6
DASHDOT
 62
4
 10
-244.153093293699270
 20
-42.199035901659613
 11
-225.859959268393770
 21
-23.905901876354015
  0
CIRCLE
  8
0
  6
CONTINUOUS
 62
3
 10
-234.993370772993330
 20
-33.039313380953672
 40
6.000000000000000
  0
ARC
  8
0
  6
DASHDOT
 62
4
 10
-314.542883656479940
 20
-112.588826264440280
 40
112.500000000000020
 50
39.397383721309190
 51
50.602616278690533
  0
LINE
  8
0
  6
CONTINUOUS
 62
3
 10
-399.042883656479940
 20
-20.088826264440286
 11
-230.042883656479940
 21
-20.088826264440286
  0
CIRCLE
  8
0
  6
CONTINUOUS
 62
3
 10
-394.092396539966560
 20
-33.039313380953672
 40
6.000000000000000
  0
ARC
  8
0
  6
DASHDOT
 62
4
 10
-314.542883656479940
 20
-112.588826264440280
 40
112.500000000000020
 50
129.397383721309180
 51
140.602616278690590
  0
ARC
  8
0
  6
CONTINUOUS
 62
3
 10
-399.042883656479940
 20
-28.088826264440286
 40
8.000000000000000
 50
90.000000000000000
 51
180.000000000000000
  0
LINE
  8
0
  6
CONTINUOUS
 62
3
 10
-222.042883656479940
 20
-28.088826264440286
 11
-222.042883656479940
 21
-98.774017996595035
  0
CIRCLE
  8
0
  6
CONTINUOUS
 62
3
 10
-234.993370772993330
 20
-192.138339147926900
 40
6.000000000000000
  0
ARC
  8
0
  6
DASHDOT
 62
4
 10
-314.542883656479940
 20
-112.588826264440280
 40
112.500000000000020
 50
309.397383721309210
 51
320.602616278690560
  0
ARC
  8
0
  6
CONTINUOUS
 62
3
 10
-230.042883656479940
 20
-197.088826264440290
 40
8.000000000000000
 50
270.000000000000000
 51
0.000000000000000
  0
LINE
  8
0
  6
CONTINUOUS
 62
3
 10
-407.042883656479940
 20
-28.088826264440286
 11
-407.042883656479940
 21
-197.088826264440290
  0
LINE
  8
0
  6
CONTINUOUS
 62
3
 10
-399.042883656479940
 20
-205.088826264440290
 11
-364.888236459311880
 21
-205.088826264440290
  0
CIRCLE
  8
0
  6
CONTINUOUS
 62
3
 10
-394.092396539966560
 20
-192.138339147926900
 40
6.000000000000000
  0
ARC
  8
0
  6
CONTINUOUS
 62
3
 10
-399.042883656479940
 20
-197.088826264440290
 40
8.000000000000000
 50
180.000000000000000
 51
270.000000000000000
  0
ARC
  8
0
  6
DASHDOT
 62
4
 10
-314.542883656479940
 20
-112.588826264440280
 40
112.500000000000020
 50
219.397383721309180
 51
230.602616278690560
  0
LINE
  8
0
  6
CONTINUOUS
 62
3
 10
-230.042883656479940
 20
-205.088826264440290
 11
-264.197530853648000
 21
-205.088826264440290
  0
LINE
  8
0
  6
CONTINUOUS
 62
3
 10
-312.042883656479940
 20
-30.620871843803457
 11
-312.042883656479940
 21
-49.622216015958088
  0
LINE
  8
0
  6
CONTINUOUS
 62
3
 10
-317.042883656479940
 20
-30.620871843803457
 11
-317.042883656479940
 21
-49.622216015958088
  0
ARC
  8
0
  6
CONTINUOUS
 62
3
 10
-320.042883656479940
 20
-49.622216015958088
 40
3.000000000000050
 50
270.695661214153010
 51
0.000000000000000
  0
ARC
  8
0
  6
CONTINUOUS
 62
3
 10
-309.042883656479940
 20
-49.622216015958088
 40
3.000000000000000
 50
180.000000000000000
 51
269.304338785846990
  0
LINE
  8
0
  6
CONTINUOUS
 62
3
 10
-246.722019155844240
 20
-48.303495669737913
 11
-260.246869442342360
 21
-61.828345956235808
  0
LINE
  8
0
  6
CONTINUOUS
 62
3
 10
-251.560968312054680
 20
-46.071377014082714
 11
-265.467552000927070
 21
-59.977960702955215
  0
ARC
  8
0
  6
CONTINUOUS
 62
3
 10
-267.588872344486840
 20
-57.856640359395669
 40
2.999999999999992
 50
241.971420058078930
 51
315.000000000003070
  0
ARC
  8
0
  6
CONTINUOUS
 62
3
 10
-258.125549098782590
 20
-63.949666299795467
 40
3.000000000000105
 50
135.000000000001530
 51
232.477101356600140
  0
ARC
  8
0
  6
CONTINUOUS
 62
3
 10
-370.960218214177300
 20
-63.949666299795467
 40
3.000000000000070
 50
307.522898643399230
 51
45.000000000001542
  0
LINE
  8
0
  6
CONTINUOUS
 62
3
 10
-382.363748157115650
 20
-48.303495669737913
 11
-368.838897870617760
 21
-61.828345956235808
  0
ARC
  8
0
  6
CONTINUOUS
 62
3
 10
-361.496894968473040
 20
-57.856640359395669
 40
3.000000000000064
 50
224.999999999997700
 51
298.028579941921070
  0
LINE
  8
0
  6
CONTINUOUS
 62
3
 10
-377.524799000905430
 20
-46.071377014082714
 11
-363.618215312032820
 21
-59.977960702955272
  0
ARC
  8
0
  6
CONTINUOUS
 62
3
 10
-309.042883656479940
 20
-30.620871843803457
 40
2.999999999999922
 50
89.332343391590499
 51
180.000000000000000
  0
ARC
  8
0
  6
CONTINUOUS
 62
3
 10
-320.042883656479940
 20
-30.620871843803457
 40
3.000000000000000
 50
0.000000000000000
 51
90.667656608409501
  0
ARC
  8
0
  6
CONTINUOUS
 62
3
 10
-253.682288655614230
 20
-43.950056670523054
 40
2.999999999999944
 50
314.999999999998470
 51
58.188034330663932
  0
ARC
  8
0
  6
CONTINUOUS
 62
3
 10
-244.600698812284690
 20
-50.424816013297459
 40
3.000000000000059
 50
50.837692226880797
 51
135.000000000000000
  0
ARC
  8
0
  6
CONTINUOUS
 62
3
 10
-375.403478657345660
 20
-43.950056670523054
 40
2.999999999999948
 50
121.811965669336070
 51
224.999999999998470
  0
ARC
  8
0
  6
CONTINUOUS
 62
3
 10
-384.485068500675200
 20
-50.424816013297573
 40
2.999999999999944
 50
45.000000000001542
 51
129.162307773119210
  0
LINE
  8
0
  6
DASHDOT
 62
4
 10
-243.090966370280060
 20
-184.040743550640460
 11
-226.042883656479940
 21
-201.088826264440340
  0
ARC
  8
0
  6
CONTINUOUS
 62
3
 10
-356.542883656479940
 20
-206.088826264440290
 40
7.999999999999647
 50
316.567463442207780
 51
325.771133672185440
  0
ARC
  8
0
  6
CONTINUOUS
 62
3
 10
-356.542883656479940
 20
-206.088826264440290
 40
8.000000000000384
 50
184.632766630878140
 51
223.432536557788810
  0
ARC
  8
0
  6
CONTINUOUS
 62
3
 10
-370.497143568372620
 20
-207.219591629732580
 40
5.999999999999603
 50
4.632766630878128
 51
61.473514688830072
  0
ARC
  8
0
  6
CONTINUOUS
 62
3
 10
-349.292883656479940
 20
-209.588826264440290
 40
1.000000000000000
 50
180.000000000000000
 51
270.000000000000000
  0
ARC
  8
0
  6
CONTINUOUS
 62
3
 10
-356.542883656479940
 20
-206.088826264440290
 40
6.250000000000000
 50
0.000000000000000
 51
161.675340083705490
  0
ARC
  8
0
  6
CONTINUOUS
 62
3
 10
-363.899883081444610
 20
-203.652218076596000
 40
1.500000000000089
 50
208.401667336006680
 51
341.675340083702340
  0
LINE
  8
0
  6
CONTINUOUS
 62
3
 10
-349.928505378818950
 20
-210.588826264440290
 11
-314.542883656479940
 21
-210.588826264440290
  0
LINE
  8
0
  6
CONTINUOUS
 62
3
 10
-362.352358675791270
 20
-211.588826264440290
 11
-350.733408637169300
 21
-211.588826264440290
  0
LINE
  8
0
  6
CONTINUOUS
 62
3
 10
-350.292883656479940
 20
-206.088826264440290
 11
-350.292883656479940
 21
-209.588826264440290
  0
ARC
  8
0
  6
CONTINUOUS
 62
3
 10
-272.542883656479940
 20
-206.088826264440290
 40
7.999999999999812
 50
316.567463442208920
 51
355.367233369121610
  0
ARC
  8
0
  6
CONTINUOUS
 62
3
 10
-272.542883656479940
 20
-206.088826264440290
 40
8.000000000000162
 50
214.228866327811770
 51
223.432536557788810
  0
ARC
  8
0
  6
CONTINUOUS
 62
3
 10
-279.792883656480170
 20
-209.588826264440290
 40
1.000000000000000
 50
270.000000000000000
 51
0.000000000000000
  0
ARC
  8
0
  6
CONTINUOUS
 62
3
 10
-258.588623744587270
 20
-207.219591629732580
 40
6.000000000000011
 50
118.526485311173740
 51
175.367233369122230
  0
ARC
  8
0
  6
CONTINUOUS
 62
3
 10
-272.542883656480170
 20
-206.088826264440290
 40
6.250000000000168
 50
18.324659916294014
 51
180.000000000000000
  0
ARC
  8
0
  6
CONTINUOUS
 62
3
 10
-265.185884231515500
 20
-203.652218076596060
 40
1.499999999999832
 50
198.324659916297660
 51
331.598332663995220
  0
LINE
  8
0
  6
CONTINUOUS
 62
3
 10
-279.157261934141620
 20
-210.588826264440290
 11
-314.542883656479940
 21
-210.588826264440290
  0
LINE
  8
0
  6
CONTINUOUS
 62
3
 10
-266.733408637169080
 20
-211.588826264440290
 11
-278.352358675791270
 21
-211.588826264440290
  0
LINE
  8
0
  6
CONTINUOUS
 62
3
 10
-278.792883656480170
 20
-206.088826264440290
 11
-278.792883656480170
 21
-209.588826264440290
  0
ARC
  8
0
  6
CONTINUOUS
 62
3
 10
-314.542883656479940
 20
-502.588826264440290
 40
450.000000000000000
 50
90.000000000000000
 51
92.232868242791525
  0
ARC
  8
0
  6
CONTINUOUS
 62
3
 10
-329.542883656480170
 20
-117.881145031013370
 40
65.000000000000142
 50
92.232868242791668
 51
180.000000000000000
  0
ARC
  8
0
  6
CONTINUOUS
 62
3
 10
-345.663766290774220
 20
-161.532576264440310
 40
45.999999999999908
 50
219.626523446889820
 51
241.473514688826810
  0
ARC
  8
0
  6
CONTINUOUS
 62
3
 10
-385.542883656479940
 20
-110.088826264440280
 40
8.000000000000000
 50
90.000000000000000
 51
270.000000000000000
  0
ARC
  8
0
  6
CONTINUOUS
 62
3
 10
-361.542883656480170
 20
-68.588826264440286
 40
6.250000000000000
 50
180.000000000000000
 51
0.000000000000000
  0
ARC
  8
0
  6
CONTINUOUS
 62
3
 10
-354.292883656480170
 20
-58.860491866210111
 40
1.000000000000006
 50
112.750483887073680
 51
180.000000000000000
  0
ARC
  8
0
  6
CONTINUOUS
 62
3
 10
-368.792883656480170
 20
-67.329809737076744
 40
1.000000000000000
 50
0.000000000000000
 51
127.827138740095090
  0
ARC
  8
0
  6
CONTINUOUS
 62
3
 10
-386.542883656479940
 20
-127.088826264440220
 40
6.250000000000000
 50
270.000000000000000
 51
90.000000000000000
  0
ARC
  8
0
  6
CONTINUOUS
 62
3
 10
-393.542883656479940
 20
-134.338826264440230
 40
1.000000000000000
 50
90.000000000000000
 51
180.000000000000000
  0
ARC
  8
0
  6
CONTINUOUS
 62
3
 10
-393.542883656479940
 20
-119.838826264440220
 40
1.000000000000000
 50
180.000000000000000
 51
270.000000000000000
  0
ARC
  8
0
  6
CONTINUOUS
 62
3
 10
-388.542883656479940
 20
-165.968289617703990
 40
6.000000000000000
 50
180.000000000000000
 51
209.999999999999460
  0
LINE
  8
0
  6
CONTINUOUS
 62
3
 10
-394.542883656479940
 20
-117.881145031013370
 11
-394.542883656479940
 21
-165.968289617703990
  0
LINE
  8
0
  6
DASHDOT
 62
4
 10
-314.542883656480170
 20
-11.964403689773235
 11
-314.542883656479940
 21
-219.806053339001660
  0
LINE
  8
0
  6
DASHDOT
 62
4
 10
-293.576553590712140
 20
-112.588826264440220
 11
-335.418717297947300
 21
-112.588826264440220
  0
LINE
  8
0
  6
CONTINUOUS
 62
3
 10
-385.542883656479940
 20
-118.088826264440280
 11
-379.192962757218880
 21
-118.088826264440280
  0
LINE
  8
0
  6
CONTINUOUS
 62
3
 10
-385.542883656479940
 20
-102.088826264440280
 11
-377.991558624285060
 21
-102.088826264440280
  0
LINE
  8
0
  6
CONTINUOUS
 62
3
 10
-381.093798107501240
 20
-190.870484258462340
 11
-393.739036079186690
 21
-168.968289617703990
  0
LINE
  8
0
  6
CONTINUOUS
 62
3
 10
-367.792883656480170
 20
-67.329809737076744
 11
-367.792883656480170
 21
-68.588826264440286
  0
LINE
  8
0
  6
CONTINUOUS
 62
3
 10
-355.292883656480170
 20
-58.860491866210111
 11
-355.292883656480170
 21
-68.588826264440286
  0
LINE
  8
0
  6
CONTINUOUS
 62
3
 10
-393.542883656479940
 20
-120.838826264440220
 11
-386.542883656479940
 21
-120.838826264440220
  0
LINE
  8
0
  6
CONTINUOUS
 62
3
 10
-393.542883656479940
 20
-133.338826264440230
 11
-386.542883656479940
 21
-133.338826264440230
  0
ARC
  8
0
  6
CONTINUOUS
 62
3
 10
-314.542883656479940
 20
-502.588826264440290
 40
450.000000000000110
 50
87.767131757208588
 51
90.000000000000000
  0
ARC
  8
0
  6
CONTINUOUS
 62
3
 10
-299.542883656480170
 20
-117.881145031013370
 40
65.000000000000057
 50
20.221019215724056
 51
87.767131757208730
  0
ARC
  8
0
  6
CONTINUOUS
 62
3
 10
-283.422001022186120
 20
-161.532576264440190
 40
45.999999999999943
 50
298.241217900780210
 51
320.373476553111230
  0
ARC
  8
0
  6
CONTINUOUS
 62
3
 10
-260.292883656480170
 20
-67.329809737076744
 40
1.000000000000016
 50
52.172861259904892
 51
180.000000000000000
  0
ARC
  8
0
  6
CONTINUOUS
 62
3
 10
-267.542883656479940
 20
-68.588826264440286
 40
6.250000000000000
 50
180.000000000000000
 51
0.000000000000000
  0
ARC
  8
0
  6
CONTINUOUS
 62
3
 10
-274.792883656479940
 20
-58.860491866210111
 40
1.000000000000000
 50
0.000000000000000
 51
67.249516112926315
  0
LINE
  8
0
  6
DASHDOT
 62
4
 10
-184.031157290954410
 20
-132.588826264440290
 11
-415.186234612388940
 21
-132.588826264440290
  0
LINE
  8
0
  6
CONTINUOUS
 62
3
 10
-247.991969205458870
 20
-190.870484258462340
 11
-241.189825791110140
 21
-179.088826264440290
  0
LINE
  8
0
  6
CONTINUOUS
 62
3
 10
-273.792883656479940
 20
-58.860491866210111
 11
-273.792883656479940
 21
-68.588826264440286
  0
LINE
  8
0
  6
CONTINUOUS
 62
3
 10
-261.292883656479940
 20
-67.329809737076744
 11
-261.292883656479940
 21
-68.588826264440286
  0
LINE
  8
0
  6
CONTINUOUS
 62
3
 10
-222.042883656479940
 20
-179.088826264440290
 11
-222.042883656479940
 21
-197.088826264440290
  0
LINE
  8
0
  6
CONTINUOUS
 62
3
 10
52.547152614941297
 20
65.411173735559714
 11
52.547152614941297
 21
75.411173735559714
  0
LINE
  8
0
  6
CONTINUOUS
 62
3
 10
58.547152614941297
 20
75.411173735559714
 11
52.547152614941297
 21
75.411173735559714
  0
LINE
  8
0
  6
CONTINUOUS
 62
3
 10
58.547152614941297
 20
65.411173735559714
 11
52.547152614941297
 21
65.411173735559714
  0
LINE
  8
0
  6
CONTINUOUS
 62
3
 10
52.547152614941297
 20
169.411173735559710
 11
52.547152614941297
 21
159.411173735559710
  0
LINE
  8
0
  6
CONTINUOUS
 62
3
 10
58.547152614941297
 20
159.411173735559710
 11
52.547152614941297
 21
159.411173735559710
  0
LINE
  8
0
  6
CONTINUOUS
 62
3
 10
58.547152614941297
 20
169.411173735559710
 11
52.547152614941297
 21
169.411173735559710
  0
LINE
  8
0
  6
CONTINUOUS
 62
3
 10
52.547152614941297
 20
169.411173735559710
 11
52.547152614941297
 21
159.411173735559710
  0
LINE
  8
0
  6
CONTINUOUS
 62
3
 10
58.547152614941297
 20
159.411173735559710
 11
52.547152614941297
 21
159.411173735559710
  0
LINE
  8
0
  6
CONTINUOUS
 62
3
 10
58.547152614941297
 20
169.411173735559710
 11
52.547152614941297
 21
169.411173735559710
  0
LINE
  8
0
  6
CONTINUOUS
 62
3
 10
52.547152614941297
 20
65.411173735559714
 11
52.547152614941297
 21
75.411173735559714
  0
LINE
  8
0
  6
CONTINUOUS
 62
3
 10
58.547152614941297
 20
75.411173735559714
 11
52.547152614941297
 21
75.411173735559714
  0
LINE
  8
0
  6
CONTINUOUS
 62
3
 10
58.547152614941297
 20
65.411173735559714
 11
52.547152614941297
 21
65.411173735559714
  0
LINE
  8
0
  6
CONTINUOUS
 62
3
 10
141.297152614941300
 20
103.911173735559710
 11
173.297152614941300
 21
103.911173735559710
  0
LINE
  8
0
  6
CONTINUOUS
 62
3
 10
173.297152614941300
 20
103.911173735559710
 11
173.297152614941300
 21
128.011173735560080
  0
LINE
  8
0
  6
CONTINUOUS
 62
3
 10
98.668630207508386
 20
63.012662368407291
 11
113.878946419486960
 21
48.353899295814699
  0
ARC
  8
0
  6
CONTINUOUS
 62
3
 10
116.797152614941290
 20
26.911173735559714
 40
2.000000000000000
 50
180.000000000000000
 51
270.000000000000000
  0
LINE
  8
0
  6
CONTINUOUS
 62
3
 10
126.297152614941290
 20
24.911173735559714
 11
116.797152614941290
 21
24.911173735559714
  0
ARC
  8
0
  6
CONTINUOUS
 62
3
 10
109.797152614941290
 20
30.836691386936764
 40
5.000000000000000
 50
0.000000000000000
 51
88.000000000001606
  0
LINE
  8
0
  6
CONTINUOUS
 62
3
 10
64.797152614941297
 20
37.411173735559714
 11
109.971650098453660
 21
35.833645522032384
  0
ARC
  8
0
  6
CONTINUOUS
 62
3
 10
54.297152614941297
 20
177.645119439185690
 40
1.000000000000758
 50
272.000000000002100
 51
0.000000000000000
  0
ARC
  8
0
  6
CONTINUOUS
 62
3
 10
55.797152614941297
 20
196.911173735559710
 40
0.500000000000000
 50
90.000000000000000
 51
180.000000000000000
  0
ARC
  8
0
  6
CONTINUOUS
 62
3
 10
54.797152614941297
 20
196.911173735558800
 40
0.500000000000000
 50
270.000000000000000
 51
0.000000000000000
  0
ARC
  8
0
  6
CONTINUOUS
 62
3
 10
54.797152614941297
 20
195.911173735558800
 40
0.500000000000000
 50
90.000000000000000
 51
180.000000000000000
  0
LINE
  8
0
  6
CONTINUOUS
 62
3
 10
54.297152614941297
 20
195.911173735558800
 11
54.297152614941297
 21
177.610198669693090
  0
ARC
  8
0
  6
CONTINUOUS
 62
3
 10
53.297152614941297
 20
177.610198669693090
 40
0.999999999999849
 50
272.000000000003920
 51
0.000000000000000
  0
ARC
  8
0
  6
CONTINUOUS
 62
3
 10
58.147152614941660
 20
170.261173735558260
 40
0.399999999999636
 50
0.000000000000000
 51
90.000000000000000
  0
LINE
  8
0
  6
CONTINUOUS
 62
3
 10
56.297152614941297
 20
170.661173735559710
 11
58.147152614941660
 21
170.661173735559710
  0
ARC
  8
0
  6
CONTINUOUS
 62
3
 10
56.297152614941297
 20
171.661173735559710
 40
1.000000000000000
 50
180.000000000000000
 51
270.000000000000000
  0
LINE
  8
0
  6
CONTINUOUS
 62
3
 10
56.297152614941297
 20
158.161173735559710
 11
58.147152614941660
 21
158.161173735559710
  0
LINE
  8
0
  6
CONTINUOUS
 62
3
 10
58.547152614941297
 20
158.561173735559350
 11
58.547152614941297
 21
170.261173735558260
  0
ARC
  8
0
  6
CONTINUOUS
 62
3
 10
58.147152614941660
 20
158.561173735559350
 40
0.399999999999636
 50
270.000000000000000
 51
0.000000000000000
  0
ARC
  8
0
  6
CONTINUOUS
 62
3
 10
56.297152614941297
 20
157.161173735559710
 40
1.000000000000000
 50
90.000000000000000
 51
180.000000000000000
  0
LINE
  8
0
  6
CONTINUOUS
 62
3
 10
55.297152614941297
 20
159.411173735559710
 11
55.297152614941297
 21
117.411173735559710
  0
LINE
  8
0
  6
CONTINUOUS
 62
3
 10
52.547152614941297
 20
194.411173735559710
 11
52.547152614941297
 21
184.411173735559710
  0
LINE
  8
0
  6
CONTINUOUS
 62
3
 10
54.297152614941297
 20
194.411173735559710
 11
52.547152614941297
 21
194.411173735559710
  0
LINE
  8
0
  6
CONTINUOUS
 62
3
 10
54.297152614941297
 20
184.411173735559710
 11
52.547152614941297
 21
184.411173735559710
  0
LINE
  8
0
  6
CONTINUOUS
 62
3
 10
64.797152614941297
 20
117.411173735560620
 11
64.797152614941297
 21
197.376252966068020
  0
LINE
  8
0
  6
CONTINUOUS
 62
3
 10
54.297152614941297
 20
184.411173735559710
 11
52.547152614941297
 21
184.411173735559710
  0
LINE
  8
0
  6
CONTINUOUS
 62
3
 10
54.297152614941297
 20
194.411173735559710
 11
52.547152614941297
 21
194.411173735559710
  0
LINE
  8
0
  6
CONTINUOUS
 62
3
 10
52.547152614941297
 20
194.411173735559710
 11
52.547152614941297
 21
184.411173735559710
  0
LINE
  8
0
  6
CONTINUOUS
 62
3
 10
55.297152614941297
 20
159.411173735559710
 11
55.297152614941297
 21
117.411173735559710
  0
LINE
  8
0
  6
CONTINUOUS
 62
3
 10
55.297152614941297
 20
196.911173735559710
 11
55.297152614941297
 21
169.411173735559710
  0
ARC
  8
0
  6
CONTINUOUS
 62
3
 10
56.297152614941297
 20
157.161173735559710
 40
1.000000000000000
 50
90.000000000000000
 51
180.000000000000000
  0
ARC
  8
0
  6
CONTINUOUS
 62
3
 10
58.147152614941660
 20
158.561173735559350
 40
0.399999999999636
 50
270.000000000000000
 51
0.000000000000000
  0
LINE
  8
0
  6
CONTINUOUS
 62
3
 10
58.547152614941297
 20
158.561173735559350
 11
58.547152614941297
 21
170.261173735558260
  0
LINE
  8
0
  6
CONTINUOUS
 62
3
 10
56.297152614941297
 20
158.161173735559710
 11
58.147152614941660
 21
158.161173735559710
  0
ARC
  8
0
  6
CONTINUOUS
 62
3
 10
56.297152614941297
 20
171.661173735559710
 40
1.000000000000000
 50
180.000000000000000
 51
270.000000000000000
  0
LINE
  8
0
  6
CONTINUOUS
 62
3
 10
56.297152614941297
 20
170.661173735559710
 11
58.147152614941660
 21
170.661173735559710
  0
ARC
  8
0
  6
CONTINUOUS
 62
3
 10
58.147152614941660
 20
170.261173735558260
 40
0.399999999999636
 50
0.000000000000000
 51
90.000000000000000
  0
ARC
  8
0
  6
CONTINUOUS
 62
3
 10
53.297152614941297
 20
177.610198669693090
 40
0.999999999999849
 50
272.000000000003920
 51
0.000000000000000
  0
LINE
  8
0
  6
CONTINUOUS
 62
3
 10
54.297152614941297
 20
195.911173735558800
 11
54.297152614941297
 21
177.610198669693090
  0
ARC
  8
0
  6
CONTINUOUS
 62
3
 10
54.797152614941297
 20
195.911173735558800
 40
0.500000000000000
 50
90.000000000000000
 51
180.000000000000000
  0
ARC
  8
0
  6
CONTINUOUS
 62
3
 10
54.797152614941297
 20
196.911173735558800
 40
0.500000000000000
 50
270.000000000000000
 51
0.000000000000000
  0
LINE
  8
0
  6
CONTINUOUS
 62
3
 10
64.297152614941297
 20
197.411173735559710
 11
64.297152614941297
 21
117.411173735559710
  0
LINE
  8
0
  6
CONTINUOUS
 62
3
 10
64.297152614941297
 20
197.411173735559710
 11
55.797152614941297
 21
197.411173735559710
  0
LINE
  8
0
  6
CONTINUOUS
 62
3
 10
54.332052111643861
 20
176.645728612165840
 11
32.797152614941297
 21
175.893713350813410
  0
ARC
  8
0
  6
CONTINUOUS
 62
3
 10
55.797152614941297
 20
196.911173735559710
 40
0.500000000000000
 50
90.000000000000000
 51
180.000000000000000
  0
ARC
  8
0
  6
CONTINUOUS
 62
3
 10
54.297152614941297
 20
177.645119439185690
 40
1.000000000000758
 50
272.000000000002100
 51
0.000000000000000
  0
LINE
  8
0
  6
CONTINUOUS
 62
3
 10
119.797152614941290
 20
117.411173735559710
 11
119.797152614941290
 21
188.112183862336680
  0
LINE
  8
0
  6
CONTINUOUS
 62
3
 10
114.797152614941290
 20
26.911173735559714
 11
114.797152614941290
 21
207.911173735559710
  0
ARC
  8
0
  6
CONTINUOUS
 62
3
 10
54.297152614941297
 20
57.177228031933737
 40
1.000000000000000
 50
0.000000000000000
 51
87.999999999997854
  0
ARC
  8
0
  6
CONTINUOUS
 62
3
 10
55.797152614941297
 20
37.911173735559714
 40
0.500000000000000
 50
180.000000000000000
 51
270.000000000000000
  0
LINE
  8
0
  6
CONTINUOUS
 62
3
 10
54.332052111643861
 20
58.176618858953589
 11
32.797152614941297
 21
58.928634120306015
  0
LINE
  8
0
  6
CONTINUOUS
 62
3
 10
64.297152614941297
 20
37.411173735559714
 11
55.797152614941297
 21
37.411173735559714
  0
LINE
  8
0
  6
CONTINUOUS
 62
3
 10
64.297152614941297
 20
37.411173735559714
 11
64.297152614941297
 21
117.411173735559710
  0
ARC
  8
0
  6
CONTINUOUS
 62
3
 10
54.797152614941297
 20
37.911173735560624
 40
0.500000000000000
 50
0.000000000000000
 51
90.000000000000000
  0
ARC
  8
0
  6
CONTINUOUS
 62
3
 10
54.797152614941297
 20
38.911173735560624
 40
0.500000000000000
 50
180.000000000000000
 51
270.000000000000000
  0
LINE
  8
0
  6
CONTINUOUS
 62
3
 10
54.297152614941297
 20
38.911173735560624
 11
54.297152614941297
 21
57.212148801426338
  0
ARC
  8
0
  6
CONTINUOUS
 62
3
 10
53.297152614941297
 20
57.212148801426338
 40
1.000000000000000
 50
0.000000000000000
 51
87.999999999996049
  0
ARC
  8
0
  6
CONTINUOUS
 62
3
 10
58.147152614941660
 20
64.561173735561169
 40
0.400000000001455
 50
270.000000000000000
 51
0.000000000000000
  0
LINE
  8
0
  6
CONTINUOUS
 62
3
 10
56.297152614941297
 20
64.161173735559714
 11
58.147152614941660
 21
64.161173735559714
  0
ARC
  8
0
  6
CONTINUOUS
 62
3
 10
56.297152614941297
 20
63.161173735559714
 40
1.000000000000000
 50
90.000000000000000
 51
180.000000000000000
  0
LINE
  8
0
  6
CONTINUOUS
 62
3
 10
56.297152614941297
 20
76.661173735559714
 11
58.147152614941660
 21
76.661173735559714
  0
LINE
  8
0
  6
CONTINUOUS
 62
3
 10
58.547152614941297
 20
76.261173735560078
 11
58.547152614941297
 21
64.561173735561169
  0
ARC
  8
0
  6
CONTINUOUS
 62
3
 10
58.147152614941660
 20
76.261173735560078
 40
0.399999999999636
 50
0.000000000000000
 51
90.000000000000000
  0
ARC
  8
0
  6
CONTINUOUS
 62
3
 10
56.297152614941297
 20
77.661173735559714
 40
1.000000000000000
 50
180.000000000000000
 51
270.000000000000000
  0
LINE
  8
0
  6
CONTINUOUS
 62
3
 10
55.297152614941297
 20
37.911173735559714
 11
55.297152614941297
 21
65.411173735559714
  0
LINE
  8
0
  6
CONTINUOUS
 62
3
 10
55.297152614941297
 20
75.411173735559714
 11
55.297152614941297
 21
117.411173735559710
  0
LINE
  8
0
  6
CONTINUOUS
 62
3
 10
52.547152614941297
 20
40.411173735559714
 11
52.547152614941297
 21
50.411173735559714
  0
LINE
  8
0
  6
CONTINUOUS
 62
3
 10
54.297152614941297
 20
40.411173735559714
 11
52.547152614941297
 21
40.411173735559714
  0
LINE
  8
0
  6
CONTINUOUS
 62
3
 10
54.297152614941297
 20
50.411173735559714
 11
52.547152614941297
 21
50.411173735559714
  0
LINE
  8
0
  6
CONTINUOUS
 62
3
 10
172.897152614941660
 20
106.411173735559710
 11
139.856960236076700
 21
106.411173735559710
  0
LINE
  8
0
  6
CONTINUOUS
 62
3
 10
172.897152614941660
 20
106.411173735559710
 11
139.856960236076700
 21
106.411173735559710
  0
ARC
  8
0
  6
CONTINUOUS
 62
3
 10
172.897152614941660
 20
106.811173735559350
 40
0.399999999999636
 50
270.000000000000000
 51
0.000000000000000
  0
LINE
  8
0
  6
CONTINUOUS
 62
3
 10
135.297152614941300
 20
129.411173735559710
 11
136.897152614941660
 21
129.411173735559710
  0
LINE
  8
0
  6
CONTINUOUS
 62
3
 10
137.297152614941300
 20
129.011173735560080
 11
136.897152614941660
 21
129.411173735559710
  0
LINE
  8
0
  6
CONTINUOUS
 62
3
 10
139.856960236076700
 20
128.411173735559710
 11
139.297152614941300
 21
128.261173735560080
  0
LINE
  8
0
  6
CONTINUOUS
 62
3
 10
139.297152614941300
 20
128.261173735560080
 11
138.097152614942390
 21
128.261173735560080
  0
ARC
  8
0
  6
CONTINUOUS
 62
3
 10
138.097152614942390
 20
129.061173735559350
 40
0.800000000000237
 50
183.703196634280290
 51
270.000000000000000
  0
LINE
  8
0
  6
CONTINUOUS
 62
3
 10
137.297152614941300
 20
129.011173735560080
 11
136.897152614941660
 21
129.411173735559710
  0
LINE
  8
0
  6
CONTINUOUS
 62
3
 10
139.856960236076700
 20
128.411173735559710
 11
139.297152614941300
 21
128.261173735560080
  0
LINE
  8
0
  6
CONTINUOUS
 62
3
 10
139.297152614941300
 20
128.261173735560080
 11
138.097152614942390
 21
128.261173735560080
  0
LINE
  8
0
  6
CONTINUOUS
 62
3
 10
137.297152614941300
 20
117.411173735559710
 11
137.297152614941300
 21
129.011173735560080
  0
LINE
  8
0
  6
CONTINUOUS
 62
3
 10
135.297152614941300
 20
129.411173735559710
 11
136.897152614941660
 21
129.411173735559710
  0
LINE
  8
0
  6
CONTINUOUS
 62
3
 10
137.297152614941300
 20
117.411173735559710
 11
137.297152614941300
 21
105.811173735559350
  0
LINE
  8
0
  6
CONTINUOUS
 62
3
 10
135.297152614941300
 20
105.411173735559710
 11
136.897152614941660
 21
105.411173735559710
  0
LINE
  8
0
  6
CONTINUOUS
 62
3
 10
172.897152614941660
 20
128.411173735559710
 11
139.856960236076700
 21
128.411173735559710
  0
LINE
  8
0
  6
CONTINUOUS
 62
3
 10
137.297152614941300
 20
105.811173735559350
 11
136.897152614941660
 21
105.411173735559710
  0
LINE
  8
0
  6
CONTINUOUS
 62
3
 10
139.856960236076700
 20
106.411173735559710
 11
139.297152614941300
 21
106.561173735559350
  0
LINE
  8
0
  6
CONTINUOUS
 62
3
 10
139.297152614941300
 20
106.561173735559350
 11
138.097152614942390
 21
106.561173735559350
  0
ARC
  8
0
  6
CONTINUOUS
 62
3
 10
138.097152614942390
 20
105.761173735560070
 40
0.799999999999272
 50
90.000000000000000
 51
176.296803365719710
  0
LINE
  8
0
  6
CONTINUOUS
 62
3
 10
172.897152614941660
 20
128.411173735559710
 11
139.856960236076700
 21
128.411173735559710
  0
LINE
  8
0
  6
CONTINUOUS
 62
3
 10
137.297152614941300
 20
105.811173735559350
 11
136.897152614941660
 21
105.411173735559710
  0
LINE
  8
0
  6
CONTINUOUS
 62
3
 10
139.856960236076700
 20
106.411173735559710
 11
139.297152614941300
 21
106.561173735559350
  0
LINE
  8
0
  6
CONTINUOUS
 62
3
 10
139.297152614941300
 20
106.561173735559350
 11
138.097152614942390
 21
106.561173735559350
  0
LINE
  8
0
  6
CONTINUOUS
 62
3
 10
135.297152614941300
 20
105.411173735559710
 11
136.897152614941660
 21
105.411173735559710
  0
LINE
  8
0
  6
CONTINUOUS
 62
3
 10
141.297152614941300
 20
106.411173735559710
 11
141.297152614941300
 21
103.911173735559710
  0
ARC
  8
0
  6
CONTINUOUS
 62
3
 10
172.897152614941660
 20
128.011173735560080
 40
0.399999999999636
 50
0.000000000000000
 51
90.000000000000000
  0
LINE
  8
0
  6
CONTINUOUS
 62
3
 10
135.297152614941300
 20
117.411173735559710
 11
135.297152614941300
 21
139.411173735559710
  0
LINE
  8
0
  6
CONTINUOUS
 62
3
 10
126.297152614941290
 20
209.911173735559710
 11
116.797152614941290
 21
209.911173735559710
  0
LINE
  8
0
  6
CONTINUOUS
 62
3
 10
126.297152614941290
 20
209.911173735559710
 11
126.797152614941290
 21
209.411173735559710
  0
ARC
  8
0
  6
CONTINUOUS
 62
3
 10
116.797152614941290
 20
207.911173735559710
 40
2.000000000000000
 50
90.000000000000000
 51
180.000000000000000
  0
ARC
  8
0
  6
CONTINUOUS
 62
3
 10
134.297152614941300
 20
140.411173735559710
 40
1.000000000000000
 50
180.000000000000000
 51
270.000000000000000
  0
LINE
  8
0
  6
CONTINUOUS
 62
3
 10
135.297152614941300
 20
117.411173735559710
 11
135.297152614941300
 21
95.411173735559714
  0
LINE
  8
0
  6
CONTINUOUS
 62
3
 10
114.797152614941290
 20
207.411173735559710
 11
114.797152614941290
 21
207.911173735559710
  0
ARC
  8
0
  6
CONTINUOUS
 62
3
 10
134.297152614941300
 20
94.411173735559714
 40
1.000000000000000
 50
90.000000000000000
 51
180.000000000000000
  0
ARC
  8
0
  6
CONTINUOUS
 62
3
 10
130.297152614941300
 20
145.202674624106290
 40
3.000000000000000
 50
0.000000000000000
 51
72.718501628185663
  0
ARC
  8
0
  6
CONTINUOUS
 62
3
 10
130.297152614941300
 20
89.619672847012225
 40
2.999999999999842
 50
287.281498371819450
 51
0.000000000000000
  0
LINE
  8
0
  6
CONTINUOUS
 62
3
 10
126.297152614941290
 20
24.911173735559714
 11
126.797152614941290
 21
25.411173735559714
  0
LINE
  8
0
  6
CONTINUOUS
 62
3
 10
129.397152614941210
 20
32.411173735559714
 11
126.797152614941290
 21
32.411173735559714
  0
LINE
  8
0
  6
CONTINUOUS
 62
3
 10
129.397152614941210
 20
202.411173735559710
 11
126.797152614941290
 21
202.411173735559710
  0
LINE
  8
0
  6
CONTINUOUS
 62
3
 10
129.797152614941300
 20
32.811173735559350
 11
129.397152614941210
 21
32.411173735559714
  0
LINE
  8
0
  6
CONTINUOUS
 62
3
 10
134.297152614941300
 20
139.411173735559710
 11
135.297152614941300
 21
139.411173735559710
  0
LINE
  8
0
  6
CONTINUOUS
 62
3
 10
134.297152614941300
 20
95.411173735559714
 11
135.297152614941300
 21
95.411173735559714
  0
LINE
  8
0
  6
CONTINUOUS
 62
3
 10
129.397152614941210
 20
202.411173735559710
 11
129.797152614941300
 21
202.011173735560080
  0
LINE
  8
0
  6
CONTINUOUS
 62
3
 10
126.797152614941290
 20
117.411173735559710
 11
126.797152614941290
 21
209.411173735559710
  0
LINE
  8
0
  6
CONTINUOUS
 62
3
 10
126.797152614941290
 20
117.411173735559710
 11
126.797152614941290
 21
25.411173735559714
  0
LINE
  8
0
  6
CONTINUOUS
 62
3
 10
129.797152614941300
 20
117.411173735559710
 11
129.797152614941300
 21
32.811173735559350
  0
LINE
  8
0
  6
CONTINUOUS
 62
3
 10
129.797152614941070
 20
117.411173735559710
 11
129.797152614941300
 21
202.011173735560080
  0
LINE
  8
0
  6
CONTINUOUS
 62
3
 10
133.297152614941300
 20
117.411173735559710
 11
133.297152614941300
 21
145.202674624106290
  0
LINE
  8
0
  6
CONTINUOUS
 62
3
 10
133.297152614941300
 20
117.411173735559710
 11
133.297152614941300
 21
89.647820502003924
  0
LINE
  8
0
  6
CONTINUOUS
 62
3
 10
131.188352272850120
 20
148.067244953099360
 11
129.797152614941070
 21
148.500062624448220
  0
LINE
  8
0
  6
CONTINUOUS
 62
3
 10
131.188352272850120
 20
86.755102518020067
 11
129.797152614941300
 21
86.322284846670300
  0
ARC
  8
0
  6
CONTINUOUS
 62
3
 10
121.797152614941290
 20
166.944569012578540
 40
2.000000000000000
 50
90.000000000000000
 51
180.000000000000000
  0
ARC
  8
0
  6
CONTINUOUS
 62
3
 10
121.797152614941290
 20
188.112183862336680
 40
2.000000000000000
 50
90.000000000000000
 51
180.000000000000000
  0
LINE
  8
0
  6
CONTINUOUS
 62
3
 10
126.797152614941290
 20
190.112183862336680
 11
121.797152614941290
 21
190.112183862336680
  0
LINE
  8
0
  6
CONTINUOUS
 62
3
 10
126.797152614941290
 20
168.944569012578540
 11
121.797152614941290
 21
168.944569012578540
  0
ARC
  8
0
  6
CONTINUOUS
 62
3
 10
121.797152614941290
 20
67.877778458540888
 40
2.000000000000000
 50
180.000000000000000
 51
270.000000000000000
  0
ARC
  8
0
  6
CONTINUOUS
 62
3
 10
121.797152614941290
 20
46.710163608782750
 40
2.000000000000000
 50
180.000000000000000
 51
270.000000000000000
  0
LINE
  8
0
  6
CONTINUOUS
 62
3
 10
126.797152614941290
 20
44.710163608782750
 11
121.797152614941290
 21
44.710163608782750
  0
LINE
  8
0
  6
CONTINUOUS
 62
3
 10
126.797152614941290
 20
65.877778458540888
 11
121.797152614941290
 21
65.877778458540888
  0
LINE
  8
0
  6
CONTINUOUS
 62
3
 10
119.797152614941290
 20
117.411173735559710
 11
119.797152614941290
 21
46.710163608782750
  0
LINE
  8
0
  6
CONTINUOUS
 62
3
 10
64.797152614941297
 20
197.411173735559710
 11
109.971650098453660
 21
198.988701949087040
  0
ARC
  8
0
  6
CONTINUOUS
 62
3
 10
109.797152614941290
 20
203.985656084182660
 40
5.000000000000137
 50
271.999999999998410
 51
0.000000000000000
  0
LINE
  8
0
  6
CONTINUOUS
 62
3
 10
64.797152614941297
 20
117.411173735558800
 11
64.797152614941297
 21
37.446094505051406
  0
LINE
  8
0
  6
DASHDOT
 62
4
 10
191.996138937040090
 20
117.411173735559710
 11
-176.218324879533610
 21
117.411173735559710
  0
LINE
  8
0
  6
DASHDOT
 62
4
 10
137.904192689195040
 20
196.960686619046100
 11
106.948750046311030
 21
196.960686619046100
  0
LINE
  8
0
  6
DASHDOT
 62
4
 10
137.904192689195040
 20
37.861660852073328
 11
106.948750046311030
 21
37.861660852073328
  0
ARC
  8
0
  6
CONTINUOUS
 62
3
 10
111.797152614941290
 20
111.911173735559710
 40
3.000000000000000
 50
0.000000000000000
 51
90.000000000000000
  0
ARC
  8
0
  6
CONTINUOUS
 62
3
 10
111.797152614941290
 20
122.911173735559710
 40
3.000000000000000
 50
270.000000000000000
 51
0.000000000000000
  0
LINE
  8
0
  6
CONTINUOUS
 62
3
 10
100.797152614939930
 20
119.911173735559710
 11
111.797152614941290
 21
119.911173735559710
  0
ARC
  8
0
  6
CONTINUOUS
 62
3
 10
100.797152614939930
 20
122.911173735559710
 40
3.000000000000000
 50
180.000000000000000
 51
270.000000000000000
  0
LINE
  8
0
  6
CONTINUOUS
 62
3
 10
100.797152614939930
 20
114.911173735559710
 11
111.797152614941290
 21
114.911173735559710
  0
ARC
  8
0
  6
CONTINUOUS
 62
3
 10
100.797152614939930
 20
111.911173735559710
 40
3.000000000000000
 50
90.000000000000000
 51
180.000000000000000
  0
ARC
  8
0
  6
CONTINUOUS
 62
3
 10
111.797152614941290
 20
52.275365403022988
 40
3.000000000000000
 50
0.000000000000000
 51
46.057885836872963
  0
LINE
  8
0
  6
CONTINUOUS
 62
3
 10
98.668630207508386
 20
69.094252211736602
 11
113.878946419486960
 21
54.435489139144011
  0
ARC
  8
0
  6
CONTINUOUS
 62
3
 10
96.586836402962490
 20
66.934128475615580
 40
2.999999999999853
 50
46.057885836869829
 51
90.000000000000000
  0
ARC
  8
0
  6
CONTINUOUS
 62
3
 10
111.797152614941290
 20
46.193775559693677
 40
3.000000000000000
 50
0.000000000000000
 51
46.057885836872963
  0
ARC
  8
0
  6
CONTINUOUS
 62
3
 10
96.586836402962490
 20
60.852538632286269
 40
2.999999999999853
 50
46.057885836869829
 51
90.000000000000000
  0
LINE
  8
0
  6
CONTINUOUS
 62
3
 10
112.863268030432660
 20
69.934128475615580
 11
100.779649525615240
 21
69.934128475615580
  0
ARC
  8
0
  6
CONTINUOUS
 62
3
 10
111.797152614941290
 20
182.546982068096440
 40
2.999999999999696
 50
313.942114163127030
 51
0.000000000000000
  0
LINE
  8
0
  6
CONTINUOUS
 62
3
 10
98.668630207508386
 20
165.728095259382830
 11
113.878946419486960
 21
180.386858331975420
  0
ARC
  8
0
  6
CONTINUOUS
 62
3
 10
96.586836402962490
 20
167.888218995503850
 40
3.000000000000000
 50
270.000000000000000
 51
313.942114163130160
  0
ARC
  8
0
  6
CONTINUOUS
 62
3
 10
111.797152614941290
 20
188.628571911425750
 40
2.999999999999696
 50
313.942114163127030
 51
0.000000000000000
  0
LINE
  8
0
  6
CONTINUOUS
 62
3
 10
98.668630207508386
 20
171.809685102712140
 11
113.878946419486960
 21
186.468448175304730
  0
ARC
  8
0
  6
CONTINUOUS
 62
3
 10
96.586836402962490
 20
173.969808838833160
 40
3.000000000000000
 50
270.000000000000000
 51
313.942114163130160
  0
LINE
  8
0
  6
CONTINUOUS
 62
3
 10
112.863268030432660
 20
164.888218995503850
 11
100.779649525615240
 21
164.888218995503850
  0
LINE
  8
0
  6
CONTINUOUS
 62
3
 10
135.297152614941300
 20
105.411173735559710
 11
136.897152614941660
 21
105.411173735559710
  0
LINE
  8
0
  6
CONTINUOUS
 62
3
 10
139.297152614941300
 20
106.561173735559350
 11
138.097152614942390
 21
106.561173735559350
  0
LINE
  8
0
  6
CONTINUOUS
 62
3
 10
139.856960236076700
 20
106.411173735559710
 11
139.297152614941300
 21
106.561173735559350
  0
LINE
  8
0
  6
CONTINUOUS
 62
3
 10
137.297152614941300
 20
105.811173735559350
 11
136.897152614941660
 21
105.411173735559710
  0
LINE
  8
0
  6
CONTINUOUS
 62
3
 10
135.297152614941300
 20
129.411173735559710
 11
136.897152614941660
 21
129.411173735559710
  0
LINE
  8
0
  6
CONTINUOUS
 62
3
 10
139.297152614941300
 20
128.261173735560080
 11
138.097152614942390
 21
128.261173735560080
  0
LINE
  8
0
  6
CONTINUOUS
 62
3
 10
139.856960236076700
 20
128.411173735559710
 11
139.297152614941300
 21
128.261173735560080
  0
LINE
  8
0
  6
CONTINUOUS
 62
3
 10
137.297152614941300
 20
129.011173735560080
 11
136.897152614941660
 21
129.411173735559710
  0
ARC
  8
0
  6
CONTINUOUS
 62
3
 10
172.897152614941660
 20
106.811173735559350
 40
0.399999999999636
 50
270.000000000000000
 51
0.000000000000000
  0
LINE
  8
0
  6
CONTINUOUS
 62
3
 10
54.297152614941297
 20
50.411173735559714
 11
52.547152614941297
 21
50.411173735559714
  0
LINE
  8
0
  6
CONTINUOUS
 62
3
 10
54.297152614941297
 20
40.411173735559714
 11
52.547152614941297
 21
40.411173735559714
  0
LINE
  8
0
  6
CONTINUOUS
 62
3
 10
52.547152614941297
 20
40.411173735559714
 11
52.547152614941297
 21
50.411173735559714
  0
LINE
  8
0
  6
CONTINUOUS
 62
3
 10
55.297152614941297
 20
75.411173735559714
 11
55.297152614941297
 21
117.411173735559710
  0
ARC
  8
0
  6
CONTINUOUS
 62
3
 10
56.297152614941297
 20
77.661173735559714
 40
1.000000000000000
 50
180.000000000000000
 51
270.000000000000000
  0
ARC
  8
0
  6
CONTINUOUS
 62
3
 10
58.147152614941660
 20
76.261173735560078
 40
0.399999999999636
 50
0.000000000000000
 51
90.000000000000000
  0
LINE
  8
0
  6
CONTINUOUS
 62
3
 10
58.547152614941297
 20
76.261173735560078
 11
58.547152614941297
 21
64.561173735561169
  0
LINE
  8
0
  6
CONTINUOUS
 62
3
 10
56.297152614941297
 20
76.661173735559714
 11
58.147152614941660
 21
76.661173735559714
  0
ARC
  8
0
  6
CONTINUOUS
 62
3
 10
56.297152614941297
 20
63.161173735559714
 40
1.000000000000000
 50
90.000000000000000
 51
180.000000000000000
  0
LINE
  8
0
  6
CONTINUOUS
 62
3
 10
56.297152614941297
 20
64.161173735559714
 11
58.147152614941660
 21
64.161173735559714
  0
ARC
  8
0
  6
CONTINUOUS
 62
3
 10
58.147152614941660
 20
64.561173735561169
 40
0.400000000001455
 50
270.000000000000000
 51
0.000000000000000
  0
ARC
  8
0
  6
CONTINUOUS
 62
3
 10
53.297152614941297
 20
57.212148801426338
 40
1.000000000000000
 50
0.000000000000000
 51
87.999999999996049
  0
LINE
  8
0
  6
CONTINUOUS
 62
3
 10
54.297152614941297
 20
38.911173735560624
 11
54.297152614941297
 21
57.212148801426338
  0
ARC
  8
0
  6
CONTINUOUS
 62
3
 10
54.797152614941297
 20
38.911173735560624
 40
0.500000000000000
 50
180.000000000000000
 51
270.000000000000000
  0
ARC
  8
0
  6
CONTINUOUS
 62
3
 10
54.797152614941297
 20
37.911173735560624
 40
0.500000000000000
 50
0.000000000000000
 51
90.000000000000000
  0
ARC
  8
0
  6
CONTINUOUS
 62
3
 10
55.797152614941297
 20
37.911173735559714
 40
0.500000000000000
 50
180.000000000000000
 51
270.000000000000000
  0
ARC
  8
0
  6
CONTINUOUS
 62
3
 10
54.297152614941297
 20
57.177228031933737
 40
1.000000000000000
 50
0.000000000000000
 51
87.999999999997854
  0
TEXT
  8
0
  6
CONTINUOUS
 62
3
 10
-364.413421630859380
 20
163.530395507812500
 40
13.600000381469727
  1
Ｄ０８８
 50
0.000002504478167
 41
0.833333333333333
  7
STANDARD1
  0
TEXT
  8
0
  6
CONTINUOUS
 62
3
 10
-364.413421630859380
 20
145.510391235351560
 40
13.600000381469727
  1
三菱ギヤードモートル
 50
0.000002504478167
 41
0.833333333333333
  7
STANDARD1
  0
TEXT
  8
0
  6
CONTINUOUS
 62
3
 10
-364.413421630859380
 20
127.490386962890620
 40
13.600000381469727
  1
ＧＭ－ＤＦＢ
 50
0.000002504478167
 41
0.833333333333333
  7
STANDARD1
  0
TEXT
  8
0
  6
CONTINUOUS
 62
3
 10
-364.413421630859380
 20
109.470390319824210
 40
13.600000381469727
  1
０．４（kＷ）
 50
0.000002504478167
 41
0.804878051688032
  7
STANDARD1
  0
TEXT
  8
0
  6
CONTINUOUS
 62
3
 10
-364.413421630859380
 20
91.450386047363281
 40
13.600000381469727
  1
１／３～１／５０
 50
0.000002504478167
 41
0.833333333333333
  7
STANDARD1
  0
TEXT
  8
0
  6
CONTINUOUS
 62
3
 10
-364.413421630859380
 20
73.430389404296875
 40
13.600000381469727
  1
ＳＣＡＬＥ　１／１
 50
0.000002504478167
 41
0.833333333333333
  7
STANDARD1
  0
ARC
  8
0
  6
DASHDOT
 62
4
 10
320.659660457220980
 20
-112.588826264440280
 40
112.500000000000020
 50
219.845923834973290
 51
230.602616278690820
  0
ARC
  8
0
  6
DASHDOT
 62
4
 10
320.659660457220980
 20
-112.588826264440280
 40
112.500000000000010
 50
39.388945942250309
 51
50.602616278690817
  0
LINE
  8
0
  6
CONTINUOUS
 62
3
 10
-35.145591179162693
 20
-1.262651644224206
 11
-2.752847385059908
 21
-1.262651644224206
  0
ARC
  8
0
  6
CONTINUOUS
 62
3
 10
-36.002846622119250
 20
-0.285353776694137
 40
1.299999237060351
 50
286.601548410324710
 51
17.759447913550098
  0
ARC
  8
0
  6
CONTINUOUS
 62
3
 10
-38.202847385058703
 20
7.093671146153611
 40
8.999999999999858
 50
253.398468892518050
 51
286.601548410325050
  0
ARC
  8
0
  6
CONTINUOUS
 62
3
 10
-40.402848147998156
 20
-0.285353776694137
 40
1.299999237060699
 50
162.240552086452960
 51
253.398468892505180
  0
CIRCLE
  8
0
  6
DASHED
 62
4
 10
-38.202847385058703
 20
24.911173735559487
 40
13.500000000000000
  0
LINE
  8
0
  6
DASHDOT
 62
4
 10
-61.026479016370558
 20
24.911173735559714
 11
-16.738760977972106
 21
24.911173735559714
  0
LINE
  8
0
  6
CONTINUOUS
 62
3
 10
-69.202847385058703
 20
49.911173735559714
 11
-69.202847385058703
 21
48.911173735559714
  0
LINE
  8
0
  6
CONTINUOUS
 62
3
 10
-7.202847385058817
 20
49.911173735559601
 11
-7.202847385058817
 21
48.911173735559601
  0
ARC
  8
0
  6
CONTINUOUS
 62
3
 10
-72.002847385058885
 20
43.911173735559714
 40
5.000000000000000
 50
90.000000000000000
 51
135.074043599465310
  0
ARC
  8
0
  6
CONTINUOUS
 62
3
 10
-4.402847385058863
 20
43.911173735559601
 40
5.000000000000008
 50
44.925956400534659
 51
90.000000000000000
  0
LINE
  8
0
  6
CONTINUOUS
 62
3
 10
-72.002847385058885
 20
48.911173735559714
 11
-4.402847385058863
 21
48.911173735559601
  0
ARC
  8
0
  6
CONTINUOUS
 62
3
 10
-59.253482479668946
 20
1.111173735559760
 40
1.000000000000227
 50
216.869897645844020
 51
270.000000000000000
  0
ARC
  8
0
  6
CONTINUOUS
 62
3
 10
-60.853482479668855
 20
-0.088826264440286
 40
0.999999999999727
 50
36.869897645849235
 51
90.000000000000000
  0
ARC
  8
0
  6
CONTINUOUS
 62
3
 10
-15.952212290448642
 20
-0.088826264440286
 40
1.000000000000000
 50
90.000000000000000
 51
143.130102354166380
  0
ARC
  8
0
  6
CONTINUOUS
 62
3
 10
-17.552212290448551
 20
1.111173735559760
 40
1.000000000000000
 50
270.000000000000000
 51
323.130102354140380
  0
LINE
  8
0
  6
CONTINUOUS
 62
3
 10
-59.253482479668946
 20
0.111173735559760
 11
-17.552212290448551
 21
0.111173735559760
  0
ARC
  8
0
  6
CONTINUOUS
 62
3
 10
-73.652847385057612
 20
36.605737675824230
 40
10.999999999999886
 50
90.000000000000000
 51
180.000000000000000
  0
ARC
  8
0
  6
CONTINUOUS
 62
3
 10
-73.652847385057612
 20
33.134264936777299
 40
11.000000000000000
 50
90.000000000000000
 51
180.000000000000000
  0
ARC
  8
0
  6
CONTINUOUS
 62
3
 10
-2.752847385059908
 20
36.605737675824003
 40
11.000000000000000
 50
0.000000000000000
 51
90.000000000000000
  0
ARC
  8
0
  6
CONTINUOUS
 62
3
 10
-2.752847385059908
 20
33.134264936777299
 40
11.000000000000000
 50
0.000000000000000
 51
90.000000000000000
  0
ARC
  8
0
  6
CONTINUOUS
 62
3
 10
-72.452847385058249
 20
6.711173735559669
 40
5.799999999999727
 50
180.000000000000000
 51
270.000000000000000
  0
ARC
  8
0
  6
CONTINUOUS
 62
3
 10
-3.952847385059499
 20
6.711173735559669
 40
5.799999999999955
 50
270.000000000000000
 51
0.000000000000000
  0
LINE
  8
0
  6
CONTINUOUS
 62
3
 10
-72.452847385058249
 20
0.911173735559714
 11
-3.952847385059499
 21
0.911173735559714
  0
ARC
  8
0
  6
CONTINUOUS
 62
3
 10
-73.652847385057612
 20
9.737348355775794
 40
11.000000000000000
 50
180.000000000000000
 51
270.000000000000000
  0
ARC
  8
0
  6
CONTINUOUS
 62
3
 10
-2.752847385059908
 20
9.737348355775794
 40
11.000000000000000
 50
270.000000000000000
 51
0.000000000000000
  0
ARC
  8
0
  6
CONTINUOUS
 62
3
 10
-73.252847385057976
 20
36.287108435246637
 40
4.999999999999886
 50
90.000000000000000
 51
180.000000000000000
  0
ARC
  8
0
  6
CONTINUOUS
 62
3
 10
-3.152847385059545
 20
36.287108435246409
 40
5.000000000000000
 50
0.000000000000000
 51
90.000000000000000
  0
LINE
  8
0
  6
CONTINUOUS
 62
3
 10
-73.252847385057976
 20
41.287108435246523
 11
-3.152847385059545
 21
41.287108435246409
  0
LINE
  8
0
  6
CONTINUOUS
 62
3
 10
-78.252847385057976
 20
6.711173735559669
 11
-78.252847385057976
 21
36.287108435246637
  0
LINE
  8
0
  6
CONTINUOUS
 62
3
 10
1.847152614940455
 20
6.711173735559669
 11
1.847152614940455
 21
36.287108435246409
  0
LINE
  8
0
  6
CONTINUOUS
 62
3
 10
-84.652847385057612
 20
36.605737675824230
 11
-84.652847385057612
 21
9.737348355775794
  0
LINE
  8
0
  6
CONTINUOUS
 62
3
 10
8.247152614940092
 20
36.605737675824003
 11
8.247152614940092
 21
9.737348355775794
  0
LINE
  8
0
  6
CONTINUOUS
 62
3
 10
-73.652847385057612
 20
44.134264936777299
 11
-2.752847385059908
 21
44.134264936777299
  0
LINE
  8
0
  6
CONTINUOUS
 62
3
 10
-73.652847385057612
 20
47.605737675824116
 11
-2.752847385059908
 21
47.605737675824003
  0
LINE
  8
0
  6
CONTINUOUS
 62
3
 10
-73.652847385057612
 20
-1.262651644224206
 11
-41.260103590954941
 21
-1.262651644224206
  0
LINE
  8
0
  6
DASHDOT
 62
4
 10
-38.202847385058703
 20
55.744887071712469
 11
-38.202847385058703
 21
-6.317526444923715
  0
LINE
  8
0
  6
CONTINUOUS
 62
3
 10
-70.702847385058703
 20
53.911173735559714
 11
-5.702847385058590
 21
53.911173735559714
  0
LINE
  8
0
  6
CONTINUOUS
 62
3
 10
-66.365523150238687
 20
55.911173735559714
 11
-5.702847385058590
 21
55.911173735559714
  0
LINE
  8
0
  6
CONTINUOUS
 62
3
 10
-70.702847385058703
 20
49.911173735559714
 11
-5.702847385058590
 21
49.911173735559714
  0
LINE
  8
0
  6
CONTINUOUS
 62
3
 10
-5.702847385058590
 20
49.911173735559714
 11
-5.702847385058703
 21
56.911173735559714
  0
LINE
  8
0
  6
CONTINUOUS
 62
3
 10
-70.702847385058703
 20
49.911173735559714
 11
-70.702847385058703
 21
55.749992710236711
  0
LINE
  8
0
  6
CONTINUOUS
 62
3
 10
-1.452847385058703
 20
56.911173735559714
 11
-1.452847385058703
 21
57.911173735559714
  0
LINE
  8
0
  6
CONTINUOUS
 62
3
 10
-64.865611829862814
 20
56.911173735559714
 11
-1.452847385058703
 21
56.911173735559714
  0
POLYLINE
  8
0
  6
CONTINUOUS
 62
3
 66
1
 70
1
  0
VERTEX
  8
0
  6
CONTINUOUS
 62
3
 10
-70.502847385058033
 20
65.487648703499872
  0
VERTEX
  8
0
  6
CONTINUOUS
 62
3
 10
-70.593156567162850
 20
66.190605669700233
  0
VERTEX
  8
0
  6
CONTINUOUS
 62
3
 10
-70.860613582254985
 20
66.866548393912325
  0
VERTEX
  8
0
  6
CONTINUOUS
 62
3
 10
-71.294940207236067
 20
67.489500776317726
  0
VERTEX
  8
0
  6
CONTINUOUS
 62
3
 10
-71.879445513481258
 20
68.035523106216303
  0
VERTEX
  8
0
  6
CONTINUOUS
 62
3
 10
-72.591667289865896
 20
68.483632051682918
  0
VERTEX
  8
0
  6
CONTINUOUS
 62
3
 10
-73.404235252942101
 20
68.816607037245689
  0
VERTEX
  8
0
  6
CONTINUOUS
 62
3
 10
-74.285922871582216
 20
69.021652020943932
  0
VERTEX
  8
0
  6
CONTINUOUS
 62
3
 10
-75.202847385058021
 20
69.090887239044704
  0
VERTEX
  8
0
  6
CONTINUOUS
 62
3
 10
-76.119771898533827
 20
69.021652020943932
  0
VERTEX
  8
0
  6
CONTINUOUS
 62
3
 10
-77.001459517173942
 20
68.816607037245689
  0
VERTEX
  8
0
  6
CONTINUOUS
 62
3
 10
-77.814027480250147
 20
68.483632051682918
  0
VERTEX
  8
0
  6
CONTINUOUS
 62
3
 10
-78.526249256634785
 20
68.035523106216303
  0
VERTEX
  8
0
  6
CONTINUOUS
 62
3
 10
-79.110754562879976
 20
67.489500776317726
  0
VERTEX
  8
0
  6
CONTINUOUS
 62
3
 10
-79.545081187861058
 20
66.866548393912325
  0
VERTEX
  8
0
  6
CONTINUOUS
 62
3
 10
-79.812538202953192
 20
66.190605669700233
  0
VERTEX
  8
0
  6
CONTINUOUS
 62
3
 10
-79.902847385058010
 20
65.487648703499872
  0
VERTEX
  8
0
  6
CONTINUOUS
 62
3
 10
-79.812538202953192
 20
64.784691737299511
  0
VERTEX
  8
0
  6
CONTINUOUS
 62
3
 10
-79.545081187861058
 20
64.108749013087419
  0
VERTEX
  8
0
  6
CONTINUOUS
 62
3
 10
-79.110754562879976
 20
63.485796630682017
  0
VERTEX
  8
0
  6
CONTINUOUS
 62
3
 10
-78.526249256634785
 20
62.939774300783441
  0
VERTEX
  8
0
  6
CONTINUOUS
 62
3
 10
-77.814027480250147
 20
62.491665355316819
  0
VERTEX
  8
0
  6
CONTINUOUS
 62
3
 10
-77.001459517173942
 20
62.158690369754062
  0
VERTEX
  8
0
  6
CONTINUOUS
 62
3
 10
-76.119771898533827
 20
61.953645386055811
  0
VERTEX
  8
0
  6
CONTINUOUS
 62
3
 10
-75.202847385058021
 20
61.884410167955039
  0
VERTEX
  8
0
  6
CONTINUOUS
 62
3
 10
-74.285922871582216
 20
61.953645386055811
  0
VERTEX
  8
0
  6
CONTINUOUS
 62
3
 10
-73.404235252942101
 20
62.158690369754062
  0
VERTEX
  8
0
  6
CONTINUOUS
 62
3
 10
-72.591667289865896
 20
62.491665355316819
  0
VERTEX
  8
0
  6
CONTINUOUS
 62
3
 10
-71.879445513481258
 20
62.939774300783441
  0
VERTEX
  8
0
  6
CONTINUOUS
 62
3
 10
-71.294940207236067
 20
63.485796630682017
  0
VERTEX
  8
0
  6
CONTINUOUS
 62
3
 10
-70.860613582254985
 20
64.108749013087419
  0
VERTEX
  8
0
  6
CONTINUOUS
 62
3
 10
-70.593156567162850
 20
64.784691737299511
  0
SEQEND
  8
0
  6
CONTINUOUS
 62
3
  0
LINE
  8
0
  6
CONTINUOUS
 62
3
 10
-77.202847385058021
 20
62.495273149499553
 11
-75.202847385058021
 21
63.671058635121881
  0
LINE
  8
0
  6
CONTINUOUS
 62
3
 10
-75.202847385058021
 20
63.671058635121881
 11
-73.202847385058021
 21
65.323700274245311
  0
LINE
  8
0
  6
CONTINUOUS
 62
3
 10
-73.202847385058021
 20
62.495273149499553
 11
-75.202847385058021
 21
63.671058635121881
  0
LINE
  8
0
  6
CONTINUOUS
 62
3
 10
-75.202847385058021
 20
63.671058635121881
 11
-77.202847385058021
 21
65.323700274245311
  0
POLYLINE
  8
0
  6
CONTINUOUS
 62
3
 66
1
 70
1
  0
VERTEX
  8
0
  6
CONTINUOUS
 62
3
 10
-70.502847385058033
 20
169.334698767619780
  0
VERTEX
  8
0
  6
CONTINUOUS
 62
3
 10
-70.593156567162850
 20
170.037655733820150
  0
VERTEX
  8
0
  6
CONTINUOUS
 62
3
 10
-70.860613582254985
 20
170.713598458032240
  0
VERTEX
  8
0
  6
CONTINUOUS
 62
3
 10
-71.294940207236067
 20
171.336550840437640
  0
VERTEX
  8
0
  6
CONTINUOUS
 62
3
 10
-71.879445513481258
 20
171.882573170336230
  0
VERTEX
  8
0
  6
CONTINUOUS
 62
3
 10
-72.591667289865896
 20
172.330682115802860
  0
VERTEX
  8
0
  6
CONTINUOUS
 62
3
 10
-73.404235252942101
 20
172.663657101365600
  0
VERTEX
  8
0
  6
CONTINUOUS
 62
3
 10
-74.285922871582216
 20
172.868702085063860
  0
VERTEX
  8
0
  6
CONTINUOUS
 62
3
 10
-75.202847385058021
 20
172.937937303164630
  0
VERTEX
  8
0
  6
CONTINUOUS
 62
3
 10
-76.119771898533827
 20
172.868702085063860
  0
VERTEX
  8
0
  6
CONTINUOUS
 62
3
 10
-77.001459517173942
 20
172.663657101365600
  0
VERTEX
  8
0
  6
CONTINUOUS
 62
3
 10
-77.814027480250147
 20
172.330682115802860
  0
VERTEX
  8
0
  6
CONTINUOUS
 62
3
 10
-78.526249256634785
 20
171.882573170336230
  0
VERTEX
  8
0
  6
CONTINUOUS
 62
3
 10
-79.110754562879976
 20
171.336550840437640
  0
VERTEX
  8
0
  6
CONTINUOUS
 62
3
 10
-79.545081187861058
 20
170.713598458032240
  0
VERTEX
  8
0
  6
CONTINUOUS
 62
3
 10
-79.812538202953192
 20
170.037655733820150
  0
VERTEX
  8
0
  6
CONTINUOUS
 62
3
 10
-79.902847385058010
 20
169.334698767619780
  0
VERTEX
  8
0
  6
CONTINUOUS
 62
3
 10
-79.812538202953192
 20
168.631741801419420
  0
VERTEX
  8
0
  6
CONTINUOUS
 62
3
 10
-79.545081187861058
 20
167.955799077207330
  0
VERTEX
  8
0
  6
CONTINUOUS
 62
3
 10
-79.110754562879976
 20
167.332846694801930
  0
VERTEX
  8
0
  6
CONTINUOUS
 62
3
 10
-78.526249256634785
 20
166.786824364903340
  0
VERTEX
  8
0
  6
CONTINUOUS
 62
3
 10
-77.814027480250147
 20
166.338715419436710
  0
VERTEX
  8
0
  6
CONTINUOUS
 62
3
 10
-77.001459517173942
 20
166.005740433873970
  0
VERTEX
  8
0
  6
CONTINUOUS
 62
3
 10
-76.119771898533827
 20
165.800695450175710
  0
VERTEX
  8
0
  6
CONTINUOUS
 62
3
 10
-75.202847385058021
 20
165.731460232074940
  0
VERTEX
  8
0
  6
CONTINUOUS
 62
3
 10
-74.285922871582216
 20
165.800695450175710
  0
VERTEX
  8
0
  6
CONTINUOUS
 62
3
 10
-73.404235252942101
 20
166.005740433873970
  0
VERTEX
  8
0
  6
CONTINUOUS
 62
3
 10
-72.591667289865896
 20
166.338715419436710
  0
VERTEX
  8
0
  6
CONTINUOUS
 62
3
 10
-71.879445513481258
 20
166.786824364903340
  0
VERTEX
  8
0
  6
CONTINUOUS
 62
3
 10
-71.294940207236067
 20
167.332846694801930
  0
VERTEX
  8
0
  6
CONTINUOUS
 62
3
 10
-70.860613582254985
 20
167.955799077207330
  0
VERTEX
  8
0
  6
CONTINUOUS
 62
3
 10
-70.593156567162850
 20
168.631741801419420
  0
SEQEND
  8
0
  6
CONTINUOUS
 62
3
  0
LINE
  8
0
  6
CONTINUOUS
 62
3
 10
-77.202847385058021
 20
172.327074321620100
 11
-75.202847385058021
 21
171.151288835997320
  0
LINE
  8
0
  6
CONTINUOUS
 62
3
 10
-75.202847385058021
 20
171.151288835997320
 11
-73.202847385058021
 21
169.498647196873890
  0
LINE
  8
0
  6
CONTINUOUS
 62
3
 10
-73.202847385058021
 20
172.327074321620100
 11
-75.202847385058021
 21
171.151288835997320
  0
LINE
  8
0
  6
CONTINUOUS
 62
3
 10
-75.202847385058021
 20
171.151288835997320
 11
-77.202847385058021
 21
169.498647196873890
  0
LINE
  8
0
  6
CONTINUOUS
 62
3
 10
-64.202847385058590
 20
117.411173735559710
 11
-64.202847385058590
 21
182.411173735559710
  0
LINE
  8
0
  6
CONTINUOUS
 62
3
 10
32.797152614941297
 20
176.911173735559490
 11
32.797152614941297
 21
117.411173735559710
  0
LINE
  8
0
  6
CONTINUOUS
 62
3
 10
-64.202847385058590
 20
182.411173735559710
 11
-144.896871607478940
 21
182.411173735559710
  0
LINE
  8
0
  6
CONTINUOUS
 62
3
 10
-167.202847385008450
 20
117.411173735559710
 11
-167.202847385008450
 21
169.854378792805160
  0
ARC
  8
0
  6
CONTINUOUS
 62
3
 10
-144.896871607478940
 20
162.411173735559710
 40
20.000000000000000
 50
90.000000000000000
 51
125.000000000000240
  0
LINE
  8
0
  6
CONTINUOUS
 62
3
 10
-156.368400334499940
 20
178.794214621339510
 11
-166.094146119520930
 21
171.984174107956280
  0
ARC
  8
0
  6
CONTINUOUS
 62
3
 10
-164.602847385008320
 20
169.854378792805160
 40
2.599999999999721
 50
125.000000000001370
 51
180.000000000000000
  0
LINE
  8
0
  6
CONTINUOUS
 62
3
 10
-64.202847385058590
 20
117.411173735559710
 11
-64.202847385058590
 21
58.791952818686923
  0
LINE
  8
0
  6
CONTINUOUS
 62
3
 10
32.797152614941297
 20
57.911173735559714
 11
32.797152614941297
 21
117.411173735559710
  0
LINE
  8
0
  6
CONTINUOUS
 62
3
 10
-167.202847385008450
 20
117.411173735559710
 11
-167.202847385008450
 21
64.967968678314264
  0
LINE
  8
0
  6
CONTINUOUS
 62
3
 10
-156.368400334499940
 20
56.028132849779922
 11
-166.094146119520930
 21
62.838173363163150
  0
ARC
  8
0
  6
CONTINUOUS
 62
3
 10
-164.602847385008320
 20
64.967968678314264
 40
2.600000000000136
 50
180.000000000000000
 51
234.999999999998610
  0
LINE
  8
0
  6
CONTINUOUS
 62
3
 10
-74.202847385058476
 20
52.411173735559714
 11
-144.896871607478940
 21
52.411173735559714
  0
ARC
  8
0
  6
CONTINUOUS
 62
3
 10
-144.896871607478940
 20
72.411173735559714
 40
20.000000000000007
 50
234.999999999999740
 51
270.000000000000000
  0
LINE
  8
0
  6
CONTINUOUS
 62
3
 10
-71.202847385058476
 20
55.791952818686923
 11
-67.202847385058590
 21
55.791952818686923
  0
LINE
  8
0
  6
CONTINUOUS
 62
3
 10
-74.202847385058476
 20
52.411173735559714
 11
-74.202847385058476
 21
52.791952818686923
  0
ARC
  8
0
  6
CONTINUOUS
 62
3
 10
-67.202847385058590
 20
58.791952818686923
 40
3.000000000000000
 50
270.000000000000000
 51
0.000000000000000
  0
ARC
  8
0
  6
CONTINUOUS
 62
3
 10
-71.202847385058476
 20
52.791952818686923
 40
3.000000000000000
 50
90.000000000000000
 51
180.000000000000000
  0
LINE
  8
0
  6
CONTINUOUS
 62
3
 10
-64.202847385058590
 20
176.911173735559490
 11
32.797152614941297
 21
176.911173735559490
  0
LINE
  8
0
  6
CONTINUOUS
 62
3
 10
-64.335055864266792
 20
57.911173735559714
 11
32.797152614941297
 21
57.911173735559714
  0
LINE
  8
0
  6
CONTINUOUS
 62
4
 10
-64.202847385058590
 20
60.411173735559714
 11
55.297152614941297
 21
60.411173735559707
  0
LINE
  8
0
  6
CONTINUOUS
 62
4
 10
-64.202847385058590
 20
61.411173735559714
 11
55.297152614941297
 21
61.411173735559714
  0
LINE
  8
0
  6
CONTINUOUS
 62
4
 10
-64.202847385058590
 20
62.411173735559714
 11
55.297152614941297
 21
62.411173735559714
  0
LINE
  8
0
  6
CONTINUOUS
 62
4
 10
-64.202847385058590
 20
67.095639548783993
 11
52.547152614941297
 21
67.095639548783993
  0
LINE
  8
0
  6
CONTINUOUS
 62
4
 10
-64.202847385058590
 20
72.045387017089752
 11
52.547152614941297
 21
72.045387017089752
  0
LINE
  8
0
  6
CONTINUOUS
 62
4
 10
-64.202847385058590
 20
80.091988679823771
 11
55.297152614941297
 21
80.091988679823771
  0
LINE
  8
0
  6
CONTINUOUS
 62
4
 10
-64.202847385058590
 20
81.696636595385826
 11
55.297152614941297
 21
81.696636595385826
  0
LINE
  8
0
  6
CONTINUOUS
 62
4
 10
-64.202847385058590
 20
85.660382019185363
 11
55.297152614941297
 21
85.660382019185363
  0
LINE
  8
0
  6
CONTINUOUS
 62
4
 10
-64.202847385058590
 20
87.128739408989986
 11
55.297152614941297
 21
87.128739408989986
  0
LINE
  8
0
  6
CONTINUOUS
 62
4
 10
-64.202847385058590
 20
91.219239943079856
 11
55.297152614941297
 21
91.219239943079856
  0
LINE
  8
0
  6
CONTINUOUS
 62
4
 10
-64.202847385058590
 20
92.581120278429125
 11
55.297152614941297
 21
92.581120278429125
  0
LINE
  8
0
  6
CONTINUOUS
 62
4
 10
-64.202847385058590
 20
96.771674009971321
 11
55.297152614941297
 21
96.771674009971321
  0
LINE
  8
0
  6
CONTINUOUS
 62
4
 10
-64.202847385058590
 20
98.037911926058541
 11
55.297152614941297
 21
98.037911926058541
  0
LINE
  8
0
  6
CONTINUOUS
 62
4
 10
-64.202847385058590
 20
102.411173735559710
 11
55.297152614941297
 21
102.411173735559720
  0
LINE
  8
0
  6
CONTINUOUS
 62
4
 10
-64.202847385058590
 20
154.730358791295660
 11
55.297152614941297
 21
154.730358791295660
  0
LINE
  8
0
  6
CONTINUOUS
 62
4
 10
-64.202847385058590
 20
153.125710875733600
 11
55.297152614941297
 21
153.125710875733600
  0
LINE
  8
0
  6
CONTINUOUS
 62
4
 10
-64.202847385058590
 20
149.161965451934070
 11
55.297152614941297
 21
149.161965451934070
  0
LINE
  8
0
  6
CONTINUOUS
 62
4
 10
-64.202847385058590
 20
147.693608062129440
 11
55.297152614941297
 21
147.693608062129440
  0
LINE
  8
0
  6
CONTINUOUS
 62
4
 10
-64.202847385058590
 20
143.603107528039570
 11
55.297152614941297
 21
143.603107528039570
  0
LINE
  8
0
  6
CONTINUOUS
 62
4
 10
-64.202847385058590
 20
142.241227192690300
 11
55.297152614941297
 21
142.241227192690300
  0
LINE
  8
0
  6
CONTINUOUS
 62
4
 10
-64.202847385058590
 20
138.050673461148110
 11
55.297152614941297
 21
138.050673461148110
  0
LINE
  8
0
  6
CONTINUOUS
 62
4
 10
-64.202847385058590
 20
136.784435545060890
 11
55.297152614941297
 21
136.784435545060890
  0
LINE
  8
0
  6
CONTINUOUS
 62
4
 10
-64.202847385058590
 20
132.411173735559710
 11
55.297152614941297
 21
132.411173735559710
  0
LINE
  8
0
  6
CONTINUOUS
 62
4
 10
-64.202847385058590
 20
162.776960454029680
 11
52.547152614941297
 21
162.776960454029680
  0
LINE
  8
0
  6
CONTINUOUS
 62
4
 10
-64.202847385058590
 20
167.726707922335440
 11
52.547152614941297
 21
167.726707922335440
  0
LINE
  8
0
  6
CONTINUOUS
 62
4
 10
-64.202847385058590
 20
172.411173735559710
 11
55.297152614941297
 21
172.411173735559740
  0
LINE
  8
0
  6
CONTINUOUS
 62
4
 10
-64.202847385058590
 20
173.411173735559710
 11
55.297152614941297
 21
173.411173735559740
  0
LINE
  8
0
  6
CONTINUOUS
 62
4
 10
-64.202847385058590
 20
174.411173735559710
 11
55.297152614941297
 21
174.411173735559740
  0
LINE
  8
0
  6
CONTINUOUS
 62
3
 10
2.797152614941410
 20
176.911173735559710
 11
32.797152614941297
 21
176.911173735559710
  0
LINE
  8
0
  6
CONTINUOUS
 62
3
 10
52.547152614941211
 20
-211.088826264440290
 11
52.547152614941211
 21
-201.088826264440290
  0
LINE
  8
0
  6
CONTINUOUS
 62
3
 10
55.297152614941211
 20
-201.088826264440290
 11
52.547152614941211
 21
-201.088826264440290
  0
LINE
  8
0
  6
CONTINUOUS
 62
3
 10
58.681127211156792
 20
-211.088826264440290
 11
52.547152614941211
 21
-211.088826264440290
  0
LINE
  8
0
  6
CONTINUOUS
 62
3
 10
54.764329724562714
 20
-73.588826264440172
 11
52.547152614941211
 21
-73.588826264440172
  0
INSERT
  8
0
  2
SYM1
 10
58.547152614940757
 20
-127.088826264440170
  0
LINE
  8
0
  6
CONTINUOUS
 62
3
 10
52.547152614941211
 20
-73.588826264440172
 11
52.547152614941211
 21
-63.588826264440172
  0
LINE
  8
0
  6
CONTINUOUS
 62
3
 10
58.547152614941211
 20
-63.588826264440172
 11
52.547152614941211
 21
-63.588826264440172
  0
ARC
  8
0
  6
CONTINUOUS
 62
3
 10
370.650223484022720
 20
-70.376824184721272
 40
2.999999999999989
 50
53.625515111983589
 51
134.999759915015030
  0
ARC
  8
0
  6
CONTINUOUS
 62
3
 10
335.659660457220980
 20
-117.881145031012900
 40
62.000000000000014
 50
10.539624083276333
 51
53.625515111984804
  0
ARC
  8
0
  6
CONTINUOUS
 62
3
 10
393.664250434956220
 20
-107.089132173588590
 40
2.999999999999962
 50
269.999759915016680
 51
10.539624083277474
  0
LINE
  8
0
  6
CONTINUOUS
 62
4
 10
32.797152614941211
 20
-182.904360451215780
 11
55.297152614941211
 21
-182.904360451215780
  0
LINE
  8
0
  6
CONTINUOUS
 62
4
 10
32.797152614941211
 20
-177.954612982910020
 11
55.297152614941211
 21
-177.954612982910020
  0
LINE
  8
0
  6
CONTINUOUS
 62
4
 10
32.797152614941211
 20
-169.908011320176230
 11
55.297152614941211
 21
-169.908011320176230
  0
LINE
  8
0
  6
CONTINUOUS
 62
4
 10
32.797152614941211
 20
-168.303363404614170
 11
55.297152614941211
 21
-168.303363404614170
  0
LINE
  8
0
  6
CONTINUOUS
 62
4
 10
32.797152614941211
 20
-164.339617980814640
 11
55.297152614941211
 21
-164.339617980814640
  0
LINE
  8
0
  6
CONTINUOUS
 62
4
 10
32.797152614941211
 20
-162.871260591009560
 11
55.297152614941211
 21
-162.871260591009560
  0
LINE
  8
0
  6
CONTINUOUS
 62
4
 10
32.797152614941211
 20
-158.780760056919920
 11
55.297152614941211
 21
-158.780760056919920
  0
LINE
  8
0
  6
CONTINUOUS
 62
4
 10
32.797152614941211
 20
-157.418879721570650
 11
55.297152614941211
 21
-157.418879721570650
  0
LINE
  8
0
  6
CONTINUOUS
 62
4
 10
32.797152614941211
 20
-152.588826264440290
 11
55.297152614941211
 21
-152.588826264440290
  0
LINE
  8
0
  6
CONTINUOUS
 62
4
 10
32.797152614941211
 20
-112.588826264440280
 11
54.297152614941211
 21
-112.588826264440280
  0
LINE
  8
0
  6
CONTINUOUS
 62
4
 10
32.797152614941211
 20
-107.758772807309920
 11
54.297152614941211
 21
-107.758772807309930
  0
LINE
  8
0
  6
CONTINUOUS
 62
4
 10
32.797152614941211
 20
-106.396892471960650
 11
54.297152614941211
 21
-106.396892471960660
  0
LINE
  8
0
  6
CONTINUOUS
 62
4
 10
32.797152614941211
 20
-102.306391937871010
 11
54.384562199183222
 21
-102.306391937871010
  0
LINE
  8
0
  6
CONTINUOUS
 62
4
 10
32.797152614941211
 20
-100.838034548065930
 11
55.297152614941211
 21
-100.838034548065930
  0
LINE
  8
0
  6
CONTINUOUS
 62
4
 10
32.797152614941211
 20
-96.874289124266397
 11
55.297152614941211
 21
-96.874289124266397
  0
LINE
  8
0
  6
CONTINUOUS
 62
4
 10
32.797152614941211
 20
-95.269641208704343
 11
55.297152614941211
 21
-95.269641208704343
  0
LINE
  8
0
  6
CONTINUOUS
 62
4
 10
32.797152614941211
 20
-87.223039545970551
 11
55.297152614941211
 21
-87.223039545970551
  0
LINE
  8
0
  6
CONTINUOUS
 62
4
 10
32.797152614941211
 20
-82.273292077664792
 11
55.297152614941211
 21
-82.273292077664792
  0
LINE
  8
0
  6
CONTINUOUS
 62
4
 10
32.797152614941211
 20
-77.588826264440272
 11
55.297152614941211
 21
-77.588826264440286
  0
LINE
  8
0
  6
CONTINUOUS
 62
4
 10
32.797152614941211
 20
-76.588826264440286
 11
55.297152614941211
 21
-76.588826264440286
  0
LINE
  8
0
  6
CONTINUOUS
 62
4
 10
32.797152614941211
 20
-75.588826264440286
 11
55.297152614941211
 21
-75.588826264440286
  0
LINE
  8
0
  6
CONTINUOUS
 62
4
 10
32.797152614941211
 20
-75.088826264440286
 11
55.297152614941211
 21
-75.088826264440286
  0
LINE
  8
0
  6
CONTINUOUS
 62
4
 10
32.797152614941211
 20
-190.088826264440290
 11
55.297152614941211
 21
-190.088826264440290
  0
LINE
  8
0
  6
CONTINUOUS
 62
4
 10
32.797152614941211
 20
-189.588826264440290
 11
55.297152614941211
 21
-189.588826264440290
  0
LINE
  8
0
  6
CONTINUOUS
 62
4
 10
32.797152614941211
 20
-188.588826264440290
 11
55.297152614941211
 21
-188.588826264440290
  0
LINE
  8
0
  6
CONTINUOUS
 62
4
 10
32.797152614941211
 20
-187.588826264440290
 11
55.297152614941211
 21
-187.588826264440290
  0
ARC
  8
0
  6
CONTINUOUS
 62
3
 10
58.147152614941575
 20
-58.599175391933386
 40
0.399999999999636
 50
0.000000000000000
 51
90.000000000000000
  0
ARC
  8
0
  6
CONTINUOUS
 62
3
 10
56.297152614941211
 20
-67.329809737077085
 40
1.000000000000000
 50
90.000000000000000
 51
180.000000000000000
  0
ARC
  8
0
  6
CONTINUOUS
 62
3
 10
59.547152614941211
 20
-210.588826264440290
 40
1.000000000000000
 50
180.000000000000000
 51
270.000000000000000
  0
LINE
  8
0
  6
CONTINUOUS
 62
3
 10
64.297152614941211
 20
-52.588826264440286
 11
64.297152614941211
 21
-112.588826264440280
  0
ARC
  8
0
  6
CONTINUOUS
 62
3
 10
54.297152614941211
 20
-72.704662507975627
 40
0.999999999999551
 50
270.999999999976180
 51
0.000000000000000
  0
LINE
  8
0
  6
CONTINUOUS
 62
3
 10
64.797152614941211
 20
-52.588826264440286
 11
56.297152614941211
 21
-52.588826264440286
  0
ARC
  8
0
  6
CONTINUOUS
 62
3
 10
58.147152614941575
 20
-121.238826264439920
 40
0.399999999999636
 50
0.000000000000000
 51
90.000000000000000
  0
ARC
  8
0
  6
CONTINUOUS
 62
3
 10
58.147152614941575
 20
-132.938826264439740
 40
0.400000000000546
 50
270.000000000000000
 51
0.000000000000000
  0
ARC
  8
0
  6
CONTINUOUS
 62
3
 10
54.797152614941211
 20
-102.588826264440280
 40
0.500000000000000
 50
90.000000000000000
 51
180.000000000000000
  0
ARC
  8
0
  6
CONTINUOUS
 62
3
 10
54.797152614941211
 20
-101.588826264440280
 40
0.500000000000000
 50
270.000000000000000
 51
0.000000000000000
  0
LINE
  8
0
  6
CONTINUOUS
 62
3
 10
137.297152614941210
 20
-124.188826264440650
 11
136.897152614941580
 21
-124.588826264440280
  0
LINE
  8
0
  6
CONTINUOUS
 62
3
 10
135.297152614941210
 20
-124.588826264440280
 11
136.897152614941580
 21
-124.588826264440280
  0
LINE
  8
0
  6
DASHDOT
 62
4
 10
180.623597317813990
 20
-112.588826264440280
 11
108.347117101205780
 21
-112.588826264440280
  0
LINE
  8
0
  6
CONTINUOUS
 62
3
 10
114.797152614941210
 20
-22.588826264440286
 11
114.797152614941210
 21
-22.088826264440286
  0
ARC
  8
0
  6
CONTINUOUS
 62
3
 10
130.297152614941210
 20
-84.797325375893706
 40
3.000000000000000
 50
0.000000000000000
 51
72.718501628185663
  0
ARC
  8
0
  6
CONTINUOUS
 62
3
 10
130.297152614941210
 20
-140.380327152987770
 40
2.999999999999842
 50
287.281498371819450
 51
0.000000000000000
  0
LINE
  8
0
  6
CONTINUOUS
 62
3
 10
126.297152614941210
 20
-205.088826264440290
 11
126.797152614941210
 21
-204.588826264440290
  0
LINE
  8
0
  6
CONTINUOUS
 62
3
 10
64.797152614941211
 20
-58.588826264440286
 11
64.797152614941211
 21
-52.588826264440286
  0
LINE
  8
0
  6
CONTINUOUS
 62
3
 10
129.397152614941120
 20
-197.588826264440290
 11
126.797152614941210
 21
-197.588826264440290
  0
LINE
  8
0
  6
CONTINUOUS
 62
3
 10
129.797152614941210
 20
-197.188826264440650
 11
129.397152614941120
 21
-197.588826264440290
  0
LINE
  8
0
  6
CONTINUOUS
 62
3
 10
129.397152614941120
 20
-27.588826264440286
 11
129.797152614941210
 21
-27.988826264439922
  0
ARC
  8
0
  6
CONTINUOUS
 62
3
 10
116.797152614941210
 20
-203.088826264440290
 40
2.000000000000000
 50
180.000000000000000
 51
270.000000000000000
  0
LINE
  8
0
  6
CONTINUOUS
 62
3
 10
129.797152614941210
 20
-112.588826264440280
 11
129.797152614941210
 21
-197.188826264440650
  0
LINE
  8
0
  6
CONTINUOUS
 62
3
 10
129.797152614940980
 20
-112.588826264440280
 11
129.797152614941210
 21
-27.988826264439922
  0
LINE
  8
0
  6
CONTINUOUS
 62
3
 10
133.297152614941210
 20
-112.588826264440280
 11
133.297152614941210
 21
-84.797325375893706
  0
LINE
  8
0
  6
CONTINUOUS
 62
3
 10
133.297152614941210
 20
-112.588826264440280
 11
133.297152614941210
 21
-140.352179497996080
  0
LINE
  8
0
  6
CONTINUOUS
 62
3
 10
131.188352272850040
 20
-81.932755046900638
 11
129.797152614940980
 21
-81.499937375551781
  0
LINE
  8
0
  6
CONTINUOUS
 62
3
 10
131.188352272850040
 20
-143.244897481979930
 11
129.797152614941210
 21
-143.677715153329700
  0
ARC
  8
0
  6
CONTINUOUS
 62
3
 10
121.797152614941210
 20
-105.588826264440280
 40
2.000000000000000
 50
180.000000000000000
 51
270.000000000000000
  0
LINE
  8
0
  6
CONTINUOUS
 62
3
 10
126.797152614941210
 20
-107.588826264440280
 11
121.797152614941210
 21
-107.588826264440280
  0
ARC
  8
0
  6
CONTINUOUS
 62
3
 10
121.797152614941210
 20
-162.122221541459110
 40
2.000000000000000
 50
180.000000000000000
 51
270.000000000000000
  0
ARC
  8
0
  6
CONTINUOUS
 62
3
 10
121.797152614941210
 20
-183.289836391217250
 40
2.000000000000000
 50
180.000000000000000
 51
270.000000000000000
  0
LINE
  8
0
  6
CONTINUOUS
 62
3
 10
126.797152614941210
 20
-185.289836391217250
 11
121.797152614941210
 21
-185.289836391217250
  0
LINE
  8
0
  6
CONTINUOUS
 62
3
 10
126.797152614941210
 20
-164.122221541459110
 11
121.797152614941210
 21
-164.122221541459110
  0
LINE
  8
0
  6
DASHDOT
 62
4
 10
137.904192689194960
 20
-192.138339147926670
 11
106.948750046310940
 21
-192.138339147926670
  0
LINE
  8
0
  6
DASHDOT
 62
4
 10
137.904192689194960
 20
-33.039313380953899
 11
106.948750046310940
 21
-33.039313380953899
  0
LINE
  8
0
  6
DASHDOT
 62
4
 10
137.904192689194960
 20
-33.039313380953899
 11
106.948750046310940
 21
-33.039313380953899
  0
LINE
  8
0
  6
DASHDOT
 62
4
 10
137.904192689194960
 20
-192.138339147926670
 11
106.948750046310940
 21
-192.138339147926670
  0
LINE
  8
0
  6
CONTINUOUS
 62
3
 10
64.797152614941211
 20
-52.553905494948594
 11
108.430171752100620
 21
-51.030206891430680
  0
ARC
  8
0
  6
CONTINUOUS
 62
3
 10
96.460342095088350
 20
-59.854236901045624
 40
3.000000000000000
 50
270.000000000000000
 51
318.035840720391380
  0
LINE
  8
0
  6
CONTINUOUS
 62
3
 10
98.691031836273538
 20
-61.860233730198161
 11
114.027842356126850
 21
-44.805537834394272
  0
ARC
  8
0
  6
CONTINUOUS
 62
3
 10
111.797152614941210
 20
-42.799541005241736
 40
3.000000000000150
 50
318.035840720397180
 51
0.000000000000000
  0
LINE
  8
0
  6
CONTINUOUS
 62
3
 10
100.797152614939840
 20
-66.328996243820256
 11
111.797152614941210
 21
-66.328996243820256
  0
ARC
  8
0
  6
CONTINUOUS
 62
3
 10
111.797152614941210
 20
-46.274300348016368
 40
3.000000000000150
 50
318.035840720397180
 51
0.000000000000000
  0
LINE
  8
0
  6
CONTINUOUS
 62
3
 10
98.691031836273538
 20
-65.334993072972793
 11
114.027842356126850
 21
-48.280297177168904
  0
ARC
  8
0
  6
CONTINUOUS
 62
3
 10
96.460342095088350
 20
-63.328996243820256
 40
3.000000000000000
 50
270.000000000000000
 51
318.035840720391380
  0
LINE
  8
0
  6
CONTINUOUS
 62
3
 10
119.797152614941210
 20
-205.088826264440290
 11
119.797152614941210
 21
-212.575254070836310
  0
LINE
  8
0
  6
CONTINUOUS
 62
3
 10
126.797152614941210
 20
-117.588826264440280
 11
121.797152614941210
 21
-117.588826264440280
  0
ARC
  8
0
  6
CONTINUOUS
 62
3
 10
121.797152614941210
 20
-119.588826264440280
 40
2.000000000000000
 50
90.000000000000000
 51
180.000000000000000
  0
LINE
  8
0
  6
CONTINUOUS
 62
3
 10
119.797152614941210
 20
-119.588826264440280
 11
119.797152614941210
 21
-183.289836391217250
  0
LINE
  8
0
  6
CONTINUOUS
 62
3
 10
126.797152614941210
 20
-164.122221541459110
 11
121.797152614941210
 21
-164.122221541459110
  0
LINE
  8
0
  6
CONTINUOUS
 62
3
 10
126.797152614941210
 20
-185.289836391217250
 11
121.797152614941210
 21
-185.289836391217250
  0
ARC
  8
0
  6
CONTINUOUS
 62
3
 10
121.797152614941210
 20
-183.289836391217250
 40
2.000000000000000
 50
180.000000000000000
 51
270.000000000000000
  0
ARC
  8
0
  6
CONTINUOUS
 62
3
 10
121.797152614941210
 20
-162.122221541459110
 40
2.000000000000000
 50
180.000000000000000
 51
270.000000000000000
  0
LINE
  8
0
  6
CONTINUOUS
 62
3
 10
126.797152614941210
 20
-107.588826264440280
 11
121.797152614941210
 21
-107.588826264440280
  0
ARC
  8
0
  6
CONTINUOUS
 62
3
 10
121.797152614941210
 20
-105.588826264440280
 40
2.000000000000000
 50
180.000000000000000
 51
270.000000000000000
  0
LINE
  8
0
  6
CONTINUOUS
 62
3
 10
119.797152614941210
 20
-105.588826264440280
 11
119.797152614941210
 21
-41.887816137663322
  0
LINE
  8
0
  6
CONTINUOUS
 62
3
 10
126.797152614941210
 20
-61.055430987421460
 11
121.797152614941210
 21
-61.055430987421460
  0
LINE
  8
0
  6
CONTINUOUS
 62
3
 10
126.797152614941210
 20
-39.887816137663322
 11
121.797152614941210
 21
-39.887816137663322
  0
ARC
  8
0
  6
CONTINUOUS
 62
3
 10
121.797152614941210
 20
-41.887816137663322
 40
2.000000000000000
 50
90.000000000000000
 51
180.000000000000000
  0
ARC
  8
0
  6
CONTINUOUS
 62
3
 10
121.797152614941210
 20
-63.055430987421460
 40
2.000000000000000
 50
90.000000000000000
 51
180.000000000000000
  0
LINE
  8
0
  6
CONTINUOUS
 62
3
 10
131.188352272850040
 20
-143.244897481979930
 11
129.797152614941210
 21
-143.677715153329700
  0
LINE
  8
0
  6
CONTINUOUS
 62
3
 10
131.188352272850040
 20
-81.932755046900638
 11
129.797152614940980
 21
-81.499937375551781
  0
LINE
  8
0
  6
CONTINUOUS
 62
3
 10
133.297152614941210
 20
-112.588826264440280
 11
133.297152614941210
 21
-140.352179497996080
  0
LINE
  8
0
  6
CONTINUOUS
 62
3
 10
133.297152614941210
 20
-112.588826264440280
 11
133.297152614941210
 21
-84.797325375893706
  0
LINE
  8
0
  6
CONTINUOUS
 62
3
 10
129.797152614940980
 20
-112.588826264440280
 11
129.797152614941210
 21
-27.988826264439922
  0
LINE
  8
0
  6
CONTINUOUS
 62
3
 10
129.797152614941210
 20
-112.588826264440280
 11
129.797152614941210
 21
-197.188826264440650
  0
LINE
  8
0
  6
CONTINUOUS
 62
3
 10
126.797152614941210
 20
-112.588826264440280
 11
126.797152614941210
 21
-204.588826264440290
  0
LINE
  8
0
  6
CONTINUOUS
 62
3
 10
126.797152614941210
 20
-112.588826264440280
 11
126.797152614941210
 21
-20.588826264440286
  0
LINE
  8
0
  6
CONTINUOUS
 62
3
 10
114.797152614941210
 20
-203.088826264440290
 11
114.797152614941210
 21
-22.588826264440286
  0
LINE
  8
0
  6
CONTINUOUS
 62
3
 10
126.297152614941210
 20
-205.088826264440290
 11
116.797152614941210
 21
-205.088826264440290
  0
ARC
  8
0
  6
CONTINUOUS
 62
3
 10
116.797152614941210
 20
-203.088826264440290
 40
2.000000000000000
 50
180.000000000000000
 51
270.000000000000000
  0
LINE
  8
0
  6
CONTINUOUS
 62
3
 10
129.397152614941120
 20
-27.588826264440286
 11
129.797152614941210
 21
-27.988826264439922
  0
LINE
  8
0
  6
CONTINUOUS
 62
3
 10
134.297152614941210
 20
-134.588826264440290
 11
135.297152614941210
 21
-134.588826264440290
  0
LINE
  8
0
  6
CONTINUOUS
 62
3
 10
129.797152614941210
 20
-197.188826264440650
 11
129.397152614941120
 21
-197.588826264440290
  0
LINE
  8
0
  6
CONTINUOUS
 62
3
 10
129.397152614941120
 20
-27.588826264440286
 11
126.797152614941210
 21
-27.588826264440286
  0
LINE
  8
0
  6
CONTINUOUS
 62
3
 10
129.397152614941120
 20
-197.588826264440290
 11
126.797152614941210
 21
-197.588826264440290
  0
LINE
  8
0
  6
CONTINUOUS
 62
3
 10
64.797152614941211
 20
-58.588826264440286
 11
64.797152614941211
 21
-52.588826264440286
  0
LINE
  8
0
  6
CONTINUOUS
 62
3
 10
64.797152614941211
 20
-58.588826264440286
 11
64.797152614941211
 21
-211.615611978725610
  0
LINE
  8
0
  6
CONTINUOUS
 62
3
 10
126.297152614941210
 20
-205.088826264440290
 11
126.797152614941210
 21
-204.588826264440290
  0
LINE
  8
0
  6
CONTINUOUS
 62
3
 10
64.797152614941211
 20
-211.615611978725610
 11
119.283764559731160
 21
-213.075074798675810
  0
ARC
  8
0
  6
CONTINUOUS
 62
3
 10
119.297152614941210
 20
-212.575254070836310
 40
0.500000000000320
 50
268.465658500292700
 51
0.000000000000000
  0
ARC
  8
0
  6
CONTINUOUS
 62
3
 10
96.214674581394462
 20
-48.454952819459322
 40
3.000000000000455
 50
272.000000000003350
 51
324.476770668235820
  0
ARC
  8
0
  6
CONTINUOUS
 62
3
 10
111.797152614941210
 20
-26.627848193636055
 40
2.999999999999886
 50
324.476770668235820
 51
0.000000000000000
  0
LINE
  8
0
  6
CONTINUOUS
 62
3
 10
114.238792669027270
 20
-28.370947114030969
 11
98.656314635480527
 21
-50.198051739854236
  0
ARC
  8
0
  6
CONTINUOUS
 62
3
 10
130.297152614941210
 20
-140.380327152987770
 40
2.999999999999842
 50
287.281498371819450
 51
0.000000000000000
  0
ARC
  8
0
  6
CONTINUOUS
 62
3
 10
130.297152614941210
 20
-84.797325375893706
 40
3.000000000000000
 50
0.000000000000000
 51
72.718501628185663
  0
ARC
  8
0
  6
CONTINUOUS
 62
3
 10
134.297152614941210
 20
-135.588826264440290
 40
1.000000000000000
 50
90.000000000000000
 51
180.000000000000000
  0
LINE
  8
0
  6
CONTINUOUS
 62
3
 10
114.797152614941210
 20
-22.588826264440286
 11
114.797152614941210
 21
-22.088826264440286
  0
LINE
  8
0
  6
CONTINUOUS
 62
3
 10
135.297152614941210
 20
-112.588826264440280
 11
135.297152614941210
 21
-134.588826264440290
  0
ARC
  8
0
  6
CONTINUOUS
 62
3
 10
116.797152614941210
 20
-22.088826264440286
 40
2.000000000000000
 50
90.000000000000000
 51
180.000000000000000
  0
LINE
  8
0
  6
CONTINUOUS
 62
3
 10
126.297152614941210
 20
-20.088826264440286
 11
126.797152614941210
 21
-20.588826264440286
  0
LINE
  8
0
  6
CONTINUOUS
 62
3
 10
126.297152614941210
 20
-20.088826264440286
 11
116.797152614941210
 21
-20.088826264440286
  0
ARC
  8
0
  6
CONTINUOUS
 62
3
 10
172.897152614941580
 20
-123.188826264440650
 40
0.399999999999636
 50
270.000000000000000
 51
0.000000000000000
  0
LINE
  8
0
  6
CONTINUOUS
 62
3
 10
172.897152614941580
 20
-123.588826264440280
 11
139.856960236076620
 21
-123.588826264440280
  0
LINE
  8
0
  6
CONTINUOUS
 62
3
 10
173.297152614941210
 20
-115.588826264440280
 11
144.297152614942120
 21
-115.588826264440280
  0
ARC
  8
0
  6
CONTINUOUS
 62
3
 10
144.297152614942120
 20
-112.588826264440280
 40
3.000000000000000
 50
90.000000000000000
 51
270.000000000000000
  0
LINE
  8
0
  6
CONTINUOUS
 62
3
 10
173.297152614941210
 20
-123.188826264440650
 11
173.297152614941210
 21
-101.988826264440830
  0
LINE
  8
0
  6
CONTINUOUS
 62
3
 10
135.297152614941210
 20
-124.588826264440280
 11
136.897152614941580
 21
-124.588826264440280
  0
LINE
  8
0
  6
CONTINUOUS
 62
3
 10
139.297152614941210
 20
-123.438826264440650
 11
138.097152614942300
 21
-123.438826264440650
  0
LINE
  8
0
  6
CONTINUOUS
 62
3
 10
139.856960236076620
 20
-123.588826264440280
 11
139.297152614941210
 21
-123.438826264440650
  0
LINE
  8
0
  6
CONTINUOUS
 62
3
 10
137.297152614941210
 20
-124.188826264440650
 11
136.897152614941580
 21
-124.588826264440280
  0
ARC
  8
0
  6
CONTINUOUS
 62
3
 10
138.097152614942300
 20
-124.238826264440830
 40
0.800000000000182
 50
90.000000000000000
 51
176.296803365719710
  0
LINE
  8
0
  6
CONTINUOUS
 62
3
 10
139.297152614941210
 20
-123.438826264440650
 11
138.097152614942300
 21
-123.438826264440650
  0
LINE
  8
0
  6
CONTINUOUS
 62
3
 10
139.856960236076620
 20
-123.588826264440280
 11
139.297152614941210
 21
-123.438826264440650
  0
LINE
  8
0
  6
CONTINUOUS
 62
3
 10
137.297152614941210
 20
-124.188826264440650
 11
136.897152614941580
 21
-124.588826264440280
  0
LINE
  8
0
  6
CONTINUOUS
 62
3
 10
135.297152614941210
 20
-124.588826264440280
 11
136.897152614941580
 21
-124.588826264440280
  0
LINE
  8
0
  6
CONTINUOUS
 62
3
 10
137.297152614941210
 20
-112.588826264440280
 11
137.297152614941210
 21
-124.188826264440650
  0
ARC
  8
0
  6
CONTINUOUS
 62
3
 10
54.797152614941211
 20
-101.588826264440280
 40
0.500000000000000
 50
270.000000000000000
 51
0.000000000000000
  0
ARC
  8
0
  6
CONTINUOUS
 62
3
 10
54.797152614941211
 20
-102.588826264440280
 40
0.500000000000000
 50
90.000000000000000
 51
180.000000000000000
  0
LINE
  8
0
  6
CONTINUOUS
 62
3
 10
54.297152614941211
 20
-102.588826264440280
 11
54.297152614941211
 21
-117.588826264440280
  0
ARC
  8
0
  6
CONTINUOUS
 62
3
 10
54.797152614941211
 20
-118.588826264440280
 40
0.500000000000000
 50
0.000000000000000
 51
90.000000000000000
  0
ARC
  8
0
  6
CONTINUOUS
 62
3
 10
54.797152614941211
 20
-117.588826264440280
 40
0.500000000000000
 50
180.000000000000000
 51
270.000000000000000
  0
ARC
  8
0
  6
CONTINUOUS
 62
3
 10
58.147152614941575
 20
-132.938826264439740
 40
0.400000000000546
 50
270.000000000000000
 51
0.000000000000000
  0
LINE
  8
0
  6
CONTINUOUS
 62
3
 10
56.297152614941211
 20
-133.338826264440290
 11
58.147152614941575
 21
-133.338826264440290
  0
ARC
  8
0
  6
CONTINUOUS
 62
3
 10
56.297152614941211
 20
-134.338826264440290
 40
1.000000000000000
 50
90.000000000000000
 51
180.000000000000000
  0
LINE
  8
0
  6
CONTINUOUS
 62
3
 10
56.297152614941211
 20
-120.838826264440280
 11
58.147152614941575
 21
-120.838826264440280
  0
LINE
  8
0
  6
CONTINUOUS
 62
3
 10
58.547152614941211
 20
-121.238826264439920
 11
58.547152614941211
 21
-132.938826264439740
  0
ARC
  8
0
  6
CONTINUOUS
 62
3
 10
58.147152614941575
 20
-121.238826264439920
 40
0.399999999999636
 50
0.000000000000000
 51
90.000000000000000
  0
ARC
  8
0
  6
CONTINUOUS
 62
3
 10
56.297152614941211
 20
-119.838826264440280
 40
1.000000000000000
 50
180.000000000000000
 51
270.000000000000000
  0
LINE
  8
0
  6
CONTINUOUS
 62
3
 10
55.297152614941211
 20
-204.152218076596000
 11
55.297152614941211
 21
-132.088826264440290
  0
LINE
  8
0
  6
CONTINUOUS
 62
3
 10
64.297152614941211
 20
-211.588826264440290
 11
59.547152614941211
 21
-211.588826264440290
  0
LINE
  8
0
  6
CONTINUOUS
 62
3
 10
55.297152614941211
 20
-53.588826264440286
 11
55.297152614941211
 21
-63.588826264440286
  0
LINE
  8
0
  6
CONTINUOUS
 62
3
 10
32.797152614941211
 20
-191.097553796904320
 11
54.314605021378071
 21
-191.473142325749000
  0
LINE
  8
0
  6
CONTINUOUS
 62
3
 10
32.797152614941211
 20
-74.080098731976250
 11
54.314605021378071
 21
-73.704510203131576
  0
ARC
  8
0
  6
CONTINUOUS
 62
3
 10
56.297152614941211
 20
-53.588826264440286
 40
1.000000000000000
 50
90.000000000000000
 51
180.000000000000000
  0
ARC
  8
0
  6
CONTINUOUS
 62
3
 10
54.297152614941211
 20
-192.472990020904940
 40
1.000000000000000
 50
0.000000000000000
 51
89.000000000023846
  0
ARC
  8
0
  6
CONTINUOUS
 62
3
 10
54.297152614941211
 20
-72.704662507975627
 40
0.999999999999551
 50
270.999999999976180
 51
0.000000000000000
  0
LINE
  8
0
  6
CONTINUOUS
 62
3
 10
64.297152614941211
 20
-211.588826264440290
 11
64.297152614941211
 21
-112.588826264440280
  0
LINE
  8
0
  6
CONTINUOUS
 62
3
 10
64.297152614941211
 20
-52.588826264440286
 11
64.297152614941211
 21
-112.588826264440280
  0
LINE
  8
0
  6
CONTINUOUS
 62
3
 10
32.797152614941211
 20
-74.080098731976250
 11
32.797152614941211
 21
-191.088826264440290
  0
LINE
  8
0
  6
CONTINUOUS
 62
3
 10
55.297152614941211
 20
-67.329809737077085
 11
55.297152614941211
 21
-122.088826264440280
  0
ARC
  8
0
  6
CONTINUOUS
 62
3
 10
59.547152614941211
 20
-210.588826264440290
 40
1.000000000000000
 50
180.000000000000000
 51
270.000000000000000
  0
LINE
  8
0
  6
CONTINUOUS
 62
3
 10
56.297152614941211
 20
-205.152218076596000
 11
58.147152614941575
 21
-205.152218076596000
  0
ARC
  8
0
  6
CONTINUOUS
 62
3
 10
56.297152614941211
 20
-59.199175391933750
 40
1.000000000000000
 50
90.000000000000000
 51
180.000000000000000
  0
LINE
  8
0
  6
CONTINUOUS
 62
3
 10
56.297152614941211
 20
-58.199175391933750
 11
58.147152614941575
 21
-58.199175391933750
  0
LINE
  8
0
  6
CONTINUOUS
 62
3
 10
58.547152614941211
 20
-58.599175391933386
 11
58.547152614941211
 21
-65.929809737076539
  0
ARC
  8
0
  6
CONTINUOUS
 62
3
 10
56.297152614941211
 20
-67.329809737077085
 40
1.000000000000000
 50
90.000000000000000
 51
180.000000000000000
  0
ARC
  8
0
  6
CONTINUOUS
 62
3
 10
58.147152614941575
 20
-65.929809737076539
 40
0.400000000000546
 50
270.000000000000000
 51
0.000000000000000
  0
LINE
  8
0
  6
CONTINUOUS
 62
3
 10
56.297152614941211
 20
-66.329809737077085
 11
58.147152614941575
 21
-66.329809737077085
  0
ARC
  8
0
  6
CONTINUOUS
 62
3
 10
56.297152614941211
 20
-204.152218076596000
 40
1.000000000000000
 50
180.000000000000000
 51
270.000000000000000
  0
LINE
  8
0
  6
CONTINUOUS
 62
3
 10
58.547152614941211
 20
-205.552218076595640
 11
58.547152614941211
 21
-210.588826264440290
  0
ARC
  8
0
  6
CONTINUOUS
 62
3
 10
58.147152614941575
 20
-205.552218076595640
 40
0.399999999999636
 50
0.000000000000000
 51
90.000000000000000
  0
ARC
  8
0
  6
CONTINUOUS
 62
3
 10
58.147152614941575
 20
-58.599175391933386
 40
0.399999999999636
 50
0.000000000000000
 51
90.000000000000000
  0
ARC
  8
0
  6
CONTINUOUS
 62
3
 10
405.159660457220980
 20
-197.088826264440290
 40
8.000000000000000
 50
270.000000000000000
 51
0.000000000000000
  0
ARC
  8
0
  6
CONTINUOUS
 62
3
 10
236.159660457220980
 20
-197.088826264440290
 40
8.000000000000000
 50
180.000000000000000
 51
270.000000000000000
  0
LINE
  8
0
  6
CONTINUOUS
 62
3
 10
405.159660457220980
 20
-20.088826264440286
 11
236.159660457220980
 21
-20.088826264440286
  0
CIRCLE
  8
0
  6
CONTINUOUS
 62
3
 10
320.659660457220980
 20
-112.588826264440280
 40
85.000000000000227
  0
ARC
  8
0
  6
CONTINUOUS
 62
3
 10
320.659660457220980
 20
-112.588826264440280
 40
88.000000000000000
 50
149.175803515866960
 51
174.956497631052570
  0
ARC
  8
0
  6
CONTINUOUS
 62
3
 10
320.659660457220980
 20
-112.588826264440280
 40
87.999999999999957
 50
185.043502368947430
 51
210.824196484133010
  0
LINE
  8
0
  6
CONTINUOUS
 62
3
 10
243.659660457220980
 20
-118.089136344725370
 11
243.659660457220980
 21
-133.872622918232880
  0
ARC
  8
0
  6
CONTINUOUS
 62
3
 10
305.659660457220980
 20
-117.881145031012920
 40
62.000000000000021
 50
126.374484888015180
 51
169.460375916723680
  0
LINE
  8
0
  6
CONTINUOUS
 62
3
 10
243.856329741482450
 20
-110.089148091377410
 11
281.039579310570160
 21
-110.088992283393280
  0
LINE
  8
0
  6
CONTINUOUS
 62
3
 10
243.856350692849790
 20
-115.089148091333520
 11
281.039600261937490
 21
-115.088992283349390
  0
ARC
  8
0
  6
CONTINUOUS
 62
3
 10
243.856363263670230
 20
-118.089148091307260
 40
3.000000000000076
 50
90.000240084985506
 51
184.096283843137060
  0
ARC
  8
0
  6
CONTINUOUS
 62
3
 10
243.856317170662010
 20
-107.089148091403890
 40
3.000000000000122
 50
175.904196326832020
 51
270.000240084985530
  0
ARC
  8
0
  6
CONTINUOUS
 62
3
 10
246.659660457220980
 20
-118.089136344725370
 40
2.999999999999962
 50
90.000240084985506
 51
180.000000000000000
  0
ARC
  8
0
  6
CONTINUOUS
 62
3
 10
247.655070479485740
 20
-107.089132173588600
 40
3.000000000000060
 50
169.460375916722510
 51
270.000240084983320
  0
ARC
  8
0
  6
CONTINUOUS
 62
3
 10
230.011990878792180
 20
-104.588826264440280
 40
3.000000000000000
 50
271.692414817539090
 51
354.956497631052000
  0
ARC
  8
0
  6
CONTINUOUS
 62
3
 10
230.159660457220980
 20
-109.586645158278540
 40
2.000000000000000
 50
91.692414817539131
 51
180.000000000000000
  0
ARC
  8
0
  6
CONTINUOUS
 62
3
 10
230.159660457220980
 20
-115.591007370602020
 40
2.000000000000000
 50
180.000000000000000
 51
268.307585182460910
  0
ARC
  8
0
  6
CONTINUOUS
 62
3
 10
230.011990878792180
 20
-120.588826264440280
 40
2.999999999999969
 50
5.043502368948022
 51
88.307585182460869
  0
LINE
  8
0
  6
CONTINUOUS
 62
3
 10
228.159660457220980
 20
-28.088826264440286
 11
228.159660457220980
 21
-197.088826264440290
  0
CIRCLE
  8
0
  6
CONTINUOUS
 62
3
 10
320.659660457220980
 20
-112.588826264440280
 40
80.000000000000000
  0
ARC
  8
0
  6
CONTINUOUS
 62
3
 10
320.659660457220980
 20
-112.588826264440280
 40
88.000000000000000
 50
329.175803515866960
 51
354.956497631052570
  0
ARC
  8
0
  6
CONTINUOUS
 62
3
 10
320.659660457220980
 20
-112.588826264440280
 40
88.000000000000071
 50
5.043502368947420
 51
30.824196484132976
  0
ARC
  8
0
  6
CONTINUOUS
 62
3
 10
397.463003743779950
 20
-118.088504437476670
 40
3.000000000000122
 50
355.904196326831990
 51
90.000240084985506
  0
ARC
  8
0
  6
CONTINUOUS
 62
3
 10
397.462957650771730
 20
-107.088504437573300
 40
2.999999999999962
 50
270.000240084985530
 51
4.096283843137061
  0
ARC
  8
0
  6
CONTINUOUS
 62
3
 10
411.307330035649780
 20
-120.588826264440280
 40
3.000000000000000
 50
91.692414817539131
 51
174.956497631051970
  0
ARC
  8
0
  6
CONTINUOUS
 62
3
 10
411.307330035649780
 20
-104.588826264440280
 40
2.999999999999969
 50
185.043502368948030
 51
268.307585182460910
  0
ARC
  8
0
  6
CONTINUOUS
 62
3
 10
411.159660457220980
 20
-115.591007370602020
 40
2.000000000000000
 50
271.692414817539090
 51
0.000000000000000
  0
ARC
  8
0
  6
CONTINUOUS
 62
3
 10
411.159660457220980
 20
-109.586645158278540
 40
2.000000000000000
 50
0.000000000000000
 51
88.307585182460869
  0
LINE
  8
0
  6
CONTINUOUS
 62
3
 10
413.159660457220980
 20
-28.088826264440286
 11
413.159660457220980
 21
-197.088826264440290
  0
LINE
  8
0
  6
CONTINUOUS
 62
3
 10
268.668964466608260
 20
-205.088826264440290
 11
236.159660457220980
 21
-205.088826264440290
  0
LINE
  8
0
  6
CONTINUOUS
 62
3
 10
405.159660457220980
 20
-205.088826264440290
 11
372.650356447833700
 21
-205.088826264440290
  0
ARC
  8
0
  6
DASHDOT
 62
4
 10
320.659660457220980
 20
-112.588826264440280
 40
112.500000000000140
 50
309.397383721309440
 51
320.602616278690790
  0
ARC
  8
0
  6
CONTINUOUS
 62
3
 10
395.431738395863020
 20
-200.088826264440290
 40
4.999999999999879
 50
225.000000000000000
 51
270.000000000000000
  0
LINE
  8
0
  6
CONTINUOUS
 62
3
 10
377.946473649572680
 20
-189.674629330015250
 11
391.896204489930370
 21
-203.624360170372940
  0
ARC
  8
0
  6
CONTINUOUS
 62
3
 10
370.875405837707150
 20
-196.745697141880780
 40
10.000000000000082
 50
45.000000000000000
 51
120.824196484132790
  0
ARC
  8
0
  6
CONTINUOUS
 62
3
 10
320.659660457220980
 20
-112.588826264440280
 40
88.000000000000099
 50
239.175803515867050
 51
300.824196484132930
  0
ARC
  8
0
  6
CONTINUOUS
 62
3
 10
270.443915076734810
 20
-196.745697141880780
 40
9.999999999999950
 50
59.175803515867180
 51
135.000000000000000
  0
ARC
  8
0
  6
CONTINUOUS
 62
3
 10
245.887582518578940
 20
-200.088826264440290
 40
5.000000000000000
 50
270.000000000000000
 51
315.000000000000000
  0
LINE
  8
0
  6
CONTINUOUS
 62
3
 10
263.372847264869280
 20
-189.674629330015250
 11
249.423116424511590
 21
-203.624360170372940
  0
LINE
  8
0
  6
DASHDOT
 62
4
 10
250.987385399205440
 20
-182.261101322456060
 11
233.694466251400290
 21
-199.554020470261090
  0
ARC
  8
0
  6
CONTINUOUS
 62
3
 10
341.031887940892720
 20
-186.844952929877990
 40
3.000000000000016
 50
285.341664101623510
 51
66.991966642062607
  0
ARC
  8
0
  6
CONTINUOUS
 62
3
 10
376.613920369113660
 20
-207.219591629732350
 40
4.500000000000040
 50
151.738047852171460
 51
175.367233369122230
  0
ARC
  8
0
  6
CONTINUOUS
 62
3
 10
362.659660457220980
 20
-206.088826264440290
 40
9.500000000000030
 50
312.536898362986390
 51
355.367233369123710
  0
LINE
  8
0
  6
CONTINUOUS
 62
3
 10
369.082276746553590
 20
-213.088826264440290
 11
356.237044167888370
 21
-213.088826264440290
  0
ARC
  8
0
  6
CONTINUOUS
 62
3
 10
362.659660457220980
 20
-206.088826264440290
 40
9.500000000000011
 50
219.166710716120120
 51
227.463101637013610
  0
LINE
  8
0
  6
CONTINUOUS
 62
3
 10
355.294200525892850
 20
-212.088826264440290
 11
286.025120388549110
 21
-212.088826264440290
  0
ARC
  8
0
  6
CONTINUOUS
 62
3
 10
278.659660457220980
 20
-206.088826264440290
 40
9.500000000000030
 50
312.536898362986390
 51
320.833289283879880
  0
LINE
  8
0
  6
CONTINUOUS
 62
3
 10
272.237044167888370
 20
-213.088826264440290
 11
285.082276746553590
 21
-213.088826264440290
  0
ARC
  8
0
  6
CONTINUOUS
 62
3
 10
278.659660457220980
 20
-206.088826264440290
 40
9.500000000000030
 50
184.632766630876180
 51
227.463101637013610
  0
ARC
  8
0
  6
CONTINUOUS
 62
3
 10
264.705400545328300
 20
-207.219591629732350
 40
4.500000000000043
 50
4.632766630877777
 51
28.261952147828559
  0
ARC
  8
0
  6
CONTINUOUS
 62
3
 10
277.777852169447670
 20
-163.249201112662150
 40
3.000000000000064
 50
13.587067531240857
 51
135.000240084983430
  0
ARC
  8
0
  6
CONTINUOUS
 62
3
 10
279.029201594281520
 20
-146.441426828920840
 40
2.999999999999994
 50
315.000240084984970
 51
337.897229129195860
  0
ARC
  8
0
  6
CONTINUOUS
 62
3
 10
262.462635870999070
 20
-163.008131389666690
 40
3.000000000000023
 50
220.904196326832620
 51
315.000240084984970
  0
LINE
  8
0
  6
CONTINUOUS
 62
3
 10
264.583965103452440
 20
-165.129442844295340
 11
281.150530826734890
 21
-148.562738283549490
  0
ARC
  8
0
  6
CONTINUOUS
 62
3
 10
270.240843056661560
 20
-170.786273389971710
 40
3.000000000000075
 50
135.000240084986500
 51
229.096283843137120
  0
LINE
  8
0
  6
CONTINUOUS
 62
3
 10
268.119513824208070
 20
-168.664961935343060
 11
275.656522936994410
 21
-161.127889658033500
  0
ARC
  8
0
  6
CONTINUOUS
 62
3
 10
394.659660457220980
 20
-118.088516184251710
 40
3.000000000000000
 50
0.000000000000000
 51
90.000240084985506
  0
ARC
  8
0
  6
CONTINUOUS
 62
3
 10
360.279708081684020
 20
-107.088660245557540
 40
3.000000000000037
 50
187.903447818469350
 51
270.000240084985530
  0
LINE
  8
0
  6
CONTINUOUS
 62
3
 10
397.462970221592170
 20
-110.088504437546930
 11
360.279720652504470
 21
-110.088660245531170
  0
LINE
  8
0
  6
CONTINUOUS
 62
3
 10
397.462991172959510
 20
-115.088504437503040
 11
360.279741603871800
 21
-115.088660245487290
  0
ARC
  8
0
  6
CONTINUOUS
 62
3
 10
360.279754174692240
 20
-118.088660245460910
 40
2.999999999999962
 50
90.000240084985506
 51
172.097032351500100
  0
ARC
  8
0
  6
CONTINUOUS
 62
3
 10
270.669097430419240
 20
-70.376824184721272
 40
2.999999999999994
 50
45.000240084984966
 51
126.374484888016410
  0
ARC
  8
0
  6
CONTINUOUS
 62
3
 10
280.407102714559530
 20
-64.558463858236678
 40
2.999999999999931
 50
115.341301222794580
 51
225.000240084984970
  0
ARC
  8
0
  6
CONTINUOUS
 62
3
 10
281.039612832757940
 20
-118.088992283323020
 40
3.000000000000037
 50
7.903447818469339
 51
90.000240084985506
  0
ARC
  8
0
  6
CONTINUOUS
 62
3
 10
281.039566739749720
 20
-107.088992283419540
 40
3.000000000000076
 50
270.000240084985530
 51
352.097032351497940
  0
ARC
  8
0
  6
CONTINUOUS
 62
3
 10
270.240355331994580
 20
-54.391801678218371
 40
3.000000000000097
 50
130.904196326834270
 51
225.000240084984970
  0
ARC
  8
0
  6
CONTINUOUS
 62
3
 10
262.462213331689550
 20
-62.170008863880753
 40
2.999999999999914
 50
45.000240084986508
 51
139.096283843138740
  0
ARC
  8
0
  6
CONTINUOUS
 62
3
 10
288.754851421425430
 20
-88.462426607852194
 40
3.000000000000016
 50
322.903447818468750
 51
45.000240084986508
  0
LINE
  8
0
  6
CONTINUOUS
 62
3
 10
264.583524786318090
 20
-60.048679631427376
 11
290.876162876053970
 21
-86.341097375398817
  0
LINE
  8
0
  6
CONTINUOUS
 62
3
 10
268.119043877365930
 20
-56.513130910671748
 11
294.411681967101800
 21
-82.805548654643189
  0
ARC
  8
0
  6
CONTINUOUS
 62
3
 10
296.532993421730450
 20
-80.684219422189813
 40
2.999999999999994
 50
225.000240084984970
 51
307.097032351498340
  0
ARC
  8
0
  6
CONTINUOUS
 62
3
 10
246.659660457220980
 20
-133.872622918232880
 40
3.000000000000000
 50
180.000000000000000
 51
196.046234080500770
  0
ARC
  8
0
  6
CONTINUOUS
 62
3
 10
315.159434325165420
 20
-58.622895688121730
 40
3.000000000000076
 50
0.000240084985506
 51
90.709792352509822
  0
ARC
  8
0
  6
CONTINUOUS
 62
3
 10
326.159434325238640
 20
-58.622890085321956
 40
3.000000000000117
 50
89.290266014178883
 51
180.000240084985510
  0
ARC
  8
0
  6
CONTINUOUS
 62
3
 10
360.911716115896300
 20
-64.558226084173953
 40
2.999999999999994
 50
315.000240084984970
 51
64.659238270505398
  0
ARC
  8
0
  6
CONTINUOUS
 62
3
 10
335.659660457220980
 20
-117.881145031012920
 40
61.999999999999915
 50
64.659238270504076
 51
87.767131757208375
  0
ARC
  8
0
  6
CONTINUOUS
 62
3
 10
394.659660457220980
 20
-133.872622918233220
 40
2.999999999999942
 50
343.953765919498660
 51
0.000000000000000
  0
LINE
  8
0
  6
CONTINUOUS
 62
3
 10
397.659660457220980
 20
-118.088516184251710
 11
397.659660457220980
 21
-133.872622918233220
  0
ARC
  8
0
  6
CONTINUOUS
 62
3
 10
320.659660457220980
 20
-502.588826264439940
 40
447.000000000000110
 50
90.709792352509865
 51
92.232868242791440
  0
ARC
  8
0
  6
CONTINUOUS
 62
3
 10
305.659660457220980
 20
-117.881145031012920
 40
61.999999999999936
 50
92.232868242791213
 51
115.341301222795840
  0
ARC
  8
0
  6
CONTINUOUS
 62
3
 10
320.659660457220980
 20
-502.588826264439940
 40
446.999999999999940
 50
87.767131757208503
 51
89.290266014176979
  0
ARC
  8
0
  6
CONTINUOUS
 62
3
 10
354.349337859388920
 20
-134.152815610984020
 40
3.000000000000000
 50
147.377625176143000
 51
264.640146069234110
  0
ARC
  8
0
  6
CONTINUOUS
 62
3
 10
287.597426327881520
 20
-135.103014554865920
 40
2.999999999999965
 50
307.947460937503020
 51
34.253450584158479
  0
ARC
  8
0
  6
CONTINUOUS
 62
3
 10
326.761013327155870
 20
-172.946301789891780
 40
3.000000000000007
 50
24.522122957054755
 51
144.017044019297000
  0
ARC
  8
0
  6
CONTINUOUS
 62
3
 10
379.262223350573550
 20
-162.536194787022620
 40
2.999999999999942
 50
177.908513527906420
 51
319.558816068347430
  0
ARC
  8
0
  6
CONTINUOUS
 62
3
 10
351.780543091515030
 20
-161.532576264440190
 40
24.500000000000011
 50
357.908513527907300
 51
84.640146069234163
  0
ARC
  8
0
  6
CONTINUOUS
 62
3
 10
304.508238564344080
 20
-156.788826264440100
 40
24.499999999999972
 50
127.947460937503260
 51
324.017044019299190
  0
ARC
  8
0
  6
CONTINUOUS
 62
3
 10
351.780543091515030
 20
-161.532576264440190
 40
24.499999999999975
 50
204.522122957052740
 51
246.991966642062580
  0
ARC
  8
0
  6
CONTINUOUS
 62
3
 10
315.159338630354000
 20
-35.785529070889538
 40
3.000000000000076
 50
0.000240084985506
 51
94.096283843136902
  0
ARC
  8
0
  6
CONTINUOUS
 62
3
 10
315.159494438338240
 20
-72.968778639977131
 40
3.000000000000037
 50
277.903447818469320
 51
0.000240084985506
  0
LINE
  8
0
  6
CONTINUOUS
 62
3
 10
318.159338630327740
 20
-35.785516500069093
 11
318.159494438311870
 21
-72.968766069156686
  0
ARC
  8
0
  6
CONTINUOUS
 62
3
 10
326.159494438241610
 20
-72.968732546968909
 40
2.999999999999962
 50
180.000240084985510
 51
262.097032351500100
  0
LINE
  8
0
  6
CONTINUOUS
 62
3
 10
323.159338630283860
 20
-35.785495548701761
 11
323.159494438267980
 21
-72.968745117789354
  0
ARC
  8
0
  6
CONTINUOUS
 62
3
 10
326.159338630257480
 20
-35.785482977881315
 40
3.000000000000114
 50
85.904196326834182
 51
180.000240084985510
  0
LINE
  8
0
  6
CONTINUOUS
 62
3
 10
397.745463522796400
 20
-169.875639456791760
 11
411.695194363153860
 21
-183.825370297149680
  0
CIRCLE
  8
0
  6
CONTINUOUS
 62
3
 10
320.659660457220980
 20
-112.588826264440280
 40
28.500000000000000
  0
LINE
  8
0
  6
DASHDOT
 62
4
 10
344.203431101475870
 20
-132.588826264440290
 11
297.316868630488900
 21
-132.588826264440290
  0
CIRCLE
  8
0
  6
CONTINUOUS
 62
3
 10
320.659660457220980
 20
-112.588826264440280
 40
22.500000000000000
  0
LINE
  8
0
  6
CONTINUOUS
 62
3
 10
243.573857391646020
 20
-55.302013072088585
 11
229.624126551288330
 21
-41.352282231730896
  0
ARC
  8
0
  6
CONTINUOUS
 62
3
 10
233.159660457220980
 20
-37.816748325798244
 40
5.000000000000000
 50
180.000000000000000
 51
225.000000000000000
  0
ARC
  8
0
  6
DASHDOT
 62
4
 10
320.659660457220980
 20
-112.588826264440280
 40
112.499999999999980
 50
129.397383721309410
 51
140.602616278690820
  0
LINE
  8
0
  6
CONTINUOUS
 62
3
 10
263.372847264869390
 20
-35.503023198865321
 11
249.423116424511700
 21
-21.553292358507633
  0
ARC
  8
0
  6
CONTINUOUS
 62
3
 10
245.887582518579050
 20
-25.088826264440286
 40
4.999999999999879
 50
45.000000000000000
 51
90.000000000000000
  0
ARC
  8
0
  6
CONTINUOUS
 62
3
 10
236.159660457220980
 20
-28.088826264440286
 40
8.000000000000000
 50
90.000000000000000
 51
180.000000000000000
  0
ARC
  8
0
  6
CONTINUOUS
 62
3
 10
405.159660457220980
 20
-28.088826264440286
 40
8.000000000000000
 50
0.000000000000000
 51
90.000000000000000
  0
ARC
  8
0
  6
CONTINUOUS
 62
3
 10
408.159660457220980
 20
-37.816748325798358
 40
4.999999999999879
 50
315.000000000000000
 51
0.000000000000000
  0
LINE
  8
0
  6
CONTINUOUS
 62
3
 10
397.745463522795940
 20
-55.302013072088698
 11
411.695194363153630
 21
-41.352282231731010
  0
ARC
  8
0
  6
CONTINUOUS
 62
3
 10
395.431738395863020
 20
-25.088826264440286
 40
5.000000000000000
 50
90.000000000000000
 51
135.000000000000000
  0
LINE
  8
0
  6
CONTINUOUS
 62
3
 10
377.946473649572680
 20
-35.503023198865321
 11
391.896204489930370
 21
-21.553292358507633
  0
ARC
  8
0
  6
CONTINUOUS
 62
3
 10
404.816531334661480
 20
-62.373080883954117
 40
10.000000000000000
 50
135.000000000000450
 51
210.824196484133070
  0
ARC
  8
0
  6
CONTINUOUS
 62
3
 10
370.875405837707260
 20
-28.431955386999903
 40
10.000000000000009
 50
239.175803515866650
 51
315.000000000000000
  0
ARC
  8
0
  6
CONTINUOUS
 62
3
 10
320.659660457220980
 20
-112.588826264440280
 40
88.000000000000000
 50
59.175803515866981
 51
120.824196484133010
  0
ARC
  8
0
  6
CONTINUOUS
 62
3
 10
270.443915076734810
 20
-28.431955386999789
 40
10.000000000000000
 50
225.000000000000450
 51
300.824196484133040
  0
ARC
  8
0
  6
CONTINUOUS
 62
3
 10
236.502789579780600
 20
-62.373080883954117
 40
9.999999999999950
 50
329.175803515867190
 51
45.000000000000462
  0
ARC
  8
0
  6
CONTINUOUS
 62
3
 10
236.502789579780480
 20
-162.804571644926450
 40
10.000000000000082
 50
315.000000000000000
 51
30.824196484132493
  0
LINE
  8
0
  6
CONTINUOUS
 62
3
 10
243.573857391646020
 20
-169.875639456791990
 11
229.624126551288330
 21
-183.825370297149680
  0
ARC
  8
0
  6
CONTINUOUS
 62
3
 10
233.159660457220980
 20
-187.360904203082330
 40
4.999999999999879
 50
135.000000000000000
 51
180.000000000000000
  0
ARC
  8
0
  6
CONTINUOUS
 62
3
 10
408.159660457220980
 20
-187.360904203082330
 40
5.000000000000000
 50
0.000000000000000
 51
45.000000000000000
  0
ARC
  8
0
  6
CONTINUOUS
 62
3
 10
404.816531334661480
 20
-162.804571644926450
 40
9.999999999999950
 50
149.175803515867160
 51
225.000000000000000
  0
CIRCLE
  8
0
  6
CONTINUOUS
 62
3
 10
320.659660457220980
 20
-112.588826264440280
 40
37.000000000000000
  0
ARC
  8
0
  6
CONTINUOUS
 62
3
 10
352.564267299471340
 20
-88.462159228949645
 40
2.999999999999914
 50
135.000240084983430
 51
217.097032351501410
  0
ARC
  8
0
  6
CONTINUOUS
 62
3
 10
344.786060113809070
 20
-80.684017228644620
 40
3.000000000000016
 50
232.903447818468810
 51
315.000240084984970
  0
ARC
  8
0
  6
CONTINUOUS
 62
3
 10
371.078477857780400
 20
-54.391379138908746
 40
3.000000000000075
 50
315.000240084986500
 51
49.096283843135694
  0
ARC
  8
0
  6
CONTINUOUS
 62
3
 10
378.856685043442890
 20
-62.169521139213884
 40
3.000000000000023
 50
40.904196326832619
 51
135.000240084986500
  0
LINE
  8
0
  6
CONTINUOUS
 62
3
 10
373.199807090233890
 20
-56.512690593537400
 11
346.907389346262450
 21
-82.805328683273274
  0
LINE
  8
0
  6
CONTINUOUS
 62
3
 10
376.735355810989400
 20
-60.048209684585231
 11
350.442938067018080
 21
-86.340847774320991
  0
ARC
  8
0
  6
CONTINUOUS
 62
3
 10
320.659660457220980
 20
-112.588826264440280
 40
10.999999999999600
 50
195.826620131872940
 51
164.173379868127060
  0
LINE
  8
0
  6
CONTINUOUS
 62
3
 10
307.159660457220980
 20
-109.588826264440280
 11
313.159660457220980
 21
-109.588826264440280
  0
CIRCLE
  8
0
  6
CONTINUOUS
 62
3
 10
320.659660457220980
 20
-112.588826264440280
 40
3.323500000000024
  0
CIRCLE
  8
0
  6
CONTINUOUS
 62
4
 10
320.659660457220980
 20
-112.588826264440280
 40
4.000000000000000
  0
CIRCLE
  8
0
  6
CONTINUOUS
 62
4
 10
320.659660457220980
 20
-112.588826264440280
 40
4.000000000000000
  0
LINE
  8
0
  6
CONTINUOUS
 62
3
 10
307.159660457220980
 20
-115.588826264440280
 11
313.159660457220980
 21
-115.588826264440280
  0
LINE
  8
0
  6
CONTINUOUS
 62
3
 10
313.159660457220980
 20
-109.588826264440280
 11
313.159660457220980
 21
-115.588826264440280
  0
LINE
  8
0
  6
CONTINUOUS
 62
3
 10
307.159660457220980
 20
-115.588826264440280
 11
307.159660457220980
 21
-109.588826264440280
  0
CIRCLE
  8
0
  6
CONTINUOUS
 62
3
 10
320.659660457220980
 20
-112.588826264440280
 40
19.000000000000000
  0
CIRCLE
  8
0
  6
CONTINUOUS
 62
3
 10
241.110147573734370
 20
-33.039313380953672
 40
6.000000000000000
  0
CIRCLE
  8
0
  6
CONTINUOUS
 62
3
 10
241.110147573734480
 20
-192.138339147926900
 40
6.000000000000000
  0
CIRCLE
  8
0
  6
CONTINUOUS
 62
3
 10
400.209173340707710
 20
-192.138339147926790
 40
6.000000000000000
  0
CIRCLE
  8
0
  6
CONTINUOUS
 62
3
 10
400.209173340707590
 20
-33.039313380953558
 40
6.000000000000000
  0
LINE
  8
0
  6
DASHDOT
 62
4
 10
390.331935515236520
 20
-182.261101322456060
 11
407.624854663041670
 21
-199.554020470261090
  0
LINE
  8
0
  6
DASHDOT
 62
4
 10
390.331935515236520
 20
-42.916551206424401
 11
407.624854663041670
 21
-25.623632058619478
  0
LINE
  8
0
  6
DASHDOT
 62
4
 10
250.987385399205440
 20
-42.916551206424401
 11
233.694466251400290
 21
-25.623632058619478
  0
ARC
  8
0
  6
CONTINUOUS
 62
3
 10
172.897152614941580
 20
-101.988826264439920
 40
0.399999999999636
 50
0.000000000000000
 51
90.000000000000000
  0
LINE
  8
0
  6
CONTINUOUS
 62
3
 10
173.297152614941210
 20
-101.988826264439920
 11
173.297152614941210
 21
-123.188826264439740
  0
LINE
  8
0
  6
CONTINUOUS
 62
3
 10
172.897152614941580
 20
-101.588826264440280
 11
139.856960236076620
 21
-101.588826264440280
  0
LINE
  8
0
  6
CONTINUOUS
 62
3
 10
137.297152614941210
 20
-112.588826264440280
 11
137.297152614941210
 21
-100.988826264439920
  0
LINE
  8
0
  6
CONTINUOUS
 62
3
 10
135.297152614941210
 20
-100.588826264440280
 11
136.897152614941580
 21
-100.588826264440280
  0
LINE
  8
0
  6
CONTINUOUS
 62
3
 10
137.297152614941210
 20
-100.988826264439920
 11
136.897152614941580
 21
-100.588826264440280
  0
LINE
  8
0
  6
CONTINUOUS
 62
3
 10
139.856960236076620
 20
-101.588826264440280
 11
139.297152614941210
 21
-101.738826264439920
  0
LINE
  8
0
  6
CONTINUOUS
 62
3
 10
139.297152614941210
 20
-101.738826264439920
 11
138.097152614942300
 21
-101.738826264439920
  0
ARC
  8
0
  6
CONTINUOUS
 62
3
 10
138.097152614942300
 20
-100.938826264439740
 40
0.800000000000237
 50
183.703196634280290
 51
270.000000000000000
  0
LINE
  8
0
  6
CONTINUOUS
 62
3
 10
137.297152614941210
 20
-100.988826264439920
 11
136.897152614941580
 21
-100.588826264440280
  0
LINE
  8
0
  6
CONTINUOUS
 62
3
 10
139.856960236076620
 20
-101.588826264440280
 11
139.297152614941210
 21
-101.738826264439920
  0
LINE
  8
0
  6
CONTINUOUS
 62
3
 10
139.297152614941210
 20
-101.738826264439920
 11
138.097152614942300
 21
-101.738826264439920
  0
LINE
  8
0
  6
CONTINUOUS
 62
3
 10
135.297152614941210
 20
-100.588826264440280
 11
136.897152614941580
 21
-100.588826264440280
  0
LINE
  8
0
  6
CONTINUOUS
 62
3
 10
135.297152614941210
 20
-112.588826264440280
 11
135.297152614941210
 21
-90.588826264440286
  0
ARC
  8
0
  6
CONTINUOUS
 62
3
 10
134.297152614941210
 20
-89.588826264440286
 40
1.000000000000000
 50
180.000000000000000
 51
270.000000000000000
  0
LINE
  8
0
  6
CONTINUOUS
 62
3
 10
134.297152614941210
 20
-90.588826264440286
 11
135.297152614941210
 21
-90.588826264440286
  0
LINE
  8
0
  6
CONTINUOUS
 62
3
 10
135.297152614941210
 20
-100.588826264440280
 11
136.897152614941580
 21
-100.588826264440280
  0
LINE
  8
0
  6
CONTINUOUS
 62
3
 10
137.297152614941210
 20
-100.988826264439920
 11
136.897152614941580
 21
-100.588826264440280
  0
LINE
  8
0
  6
CONTINUOUS
 62
3
 10
173.297152614941210
 20
-109.588826264440280
 11
144.297152614942120
 21
-109.588826264440280
  0
LINE
  8
0
  6
DASHDOT
 62
4
 10
422.993272672472810
 20
-112.588826264440280
 11
192.761035840947440
 21
-112.588826264440280
  0
ARC
  8
0
  6
CONTINUOUS
 62
3
 10
202.642157104875650
 20
-187.774214188922260
 40
1.299999237060687
 50
172.601548410320760
 51
246.000017986079880
  0
LINE
  8
0
  6
DASHDOT
 62
4
 10
228.159660457220980
 20
-164.706302484734550
 11
228.159660457220980
 21
-187.574811660498140
  0
LINE
  8
0
  6
CONTINUOUS
 62
3
 10
228.159660457220980
 20
-142.210643045072520
 11
205.137025715760500
 21
-193.920327306550630
  0
ARC
  8
0
  6
CONTINUOUS
 62
3
 10
204.391224903947200
 20
-126.435476446792300
 40
1.000000000000128
 50
126.205708094041610
 51
179.412192132278280
  0
ARC
  8
0
  6
CONTINUOUS
 62
3
 10
203.209852787670800
 20
-124.821673508734160
 40
0.999999999999994
 50
306.205708094031080
 51
359.259505056807090
  0
ARC
  8
0
  6
CONTINUOUS
 62
3
 10
203.980061203823880
 20
-163.980682533729320
 40
1.000000000000008
 50
2.994076090848812
 51
56.047873053604029
  0
ARC
  8
0
  6
CONTINUOUS
 62
3
 10
205.097061228436360
 20
-162.321673508734160
 40
0.999999999999988
 50
182.841389015366990
 51
236.047873053618590
  0
ARC
  8
0
  6
CONTINUOUS
 62
3
 10
804.159660457220980
 20
-132.588826264440570
 40
600.799999999999950
 50
179.412192132293110
 51
182.841389015363320
  0
LINE
  8
0
  6
CONTINUOUS
 62
3
 10
207.089361602524600
 20
-189.535309109866090
 11
210.606511614448660
 21
-191.101245185707910
  0
LINE
  8
0
  6
CONTINUOUS
 62
3
 10
208.716308174827870
 20
-185.881127279296090
 11
212.233458186751700
 21
-187.447063355137910
  0
ARC
  8
0
  6
CONTINUOUS
 62
3
 10
207.789646860801890
 20
-176.711460852677390
 40
2.000000000000632
 50
184.231338074886000
 51
245.999999999972630
  0
ARC
  8
0
  6
CONTINUOUS
 62
3
 10
206.364973193522470
 20
-179.361064104318960
 40
1.000000000000029
 50
335.999999999997950
 51
66.000000000020236
  0
LINE
  8
0
  6
CONTINUOUS
 62
3
 10
228.159660457220980
 20
-132.867988369887660
 11
202.072289619794450
 21
-191.461182605220240
  0
ARC
  8
0
  6
CONTINUOUS
 62
3
 10
202.985835077437060
 20
-191.867919248295890
 40
0.999999999999948
 50
156.000000000008300
 51
245.999999999972630
  0
LINE
  8
0
  6
CONTINUOUS
 62
3
 10
202.579098434360730
 20
-192.781464705938500
 11
205.137025715760500
 21
-193.920327306550630
  0
LINE
  8
0
  6
CONTINUOUS
 62
3
 10
228.159660457220980
 20
-179.088826264440260
 11
211.740435425892200
 21
-179.088826264440260
  0
ARC
  8
0
  6
CONTINUOUS
 62
3
 10
205.193611464909280
 20
-181.991985622326810
 40
1.000000000000041
 50
335.999999999996420
 51
4.715124834083239
  0
ARC
  8
0
  6
CONTINUOUS
 62
3
 10
804.159660457220980
 20
-132.588826264440570
 40
600.000000000001140
 50
178.317231198866840
 51
184.715124834091600
  0
ARC
  8
0
  6
CONTINUOUS
 62
3
 10
219.411949442661810
 20
-115.409930396705440
 40
15.000000000000041
 50
99.318123119675519
 51
178.317231198866920
  0
LINE
  8
0
  6
CONTINUOUS
 62
3
 10
228.159660457220980
 20
-98.774017996594964
 11
216.983209990470190
 21
-100.607862140094510
  0
ARC
  8
0
  6
CONTINUOUS
 62
3
 10
204.431798955040220
 20
-183.754612781335200
 40
1.299999237060620
 50
65.999999316753915
 51
139.398468892516150
  0
LINE
  8
0
  6
CONTINUOUS
 62
3
 10
205.854940400399760
 20
-182.965209849143950
 11
204.960556280723270
 21
-182.567004383379700
  0
LINE
  8
0
  6
CONTINUOUS
 62
3
 10
203.007783898868870
 20
-189.360028052642240
 11
202.113399779192380
 21
-188.961822586877760
  0
LINE
  8
0
  6
CONTINUOUS
 62
3
 10
205.854940400399760
 20
-182.965209849143950
 11
203.007783898868870
 21
-189.360028052642240
  0
LINE
  8
0
  6
CONTINUOUS
 62
3
 10
205.854940400399760
 20
-182.965209849143950
 11
203.007783898868870
 21
-189.360028052642240
  0
LINE
  8
0
  6
CONTINUOUS
 62
3
 10
212.410841271850130
 20
-187.909162090389320
 11
211.068610349700070
 21
-190.923862100609480
  0
LINE
  8
0
  6
CONTINUOUS
 62
3
 10
210.606511614448660
 20
-191.101245185707910
 11
211.068610349700070
 21
-190.923862100609480
  0
LINE
  8
0
  6
CONTINUOUS
 62
3
 10
212.233458186751700
 20
-187.447063355137910
 11
212.410841271850130
 21
-187.909162090389320
  0
LINE
  8
0
  6
CONTINUOUS
 62
4
 10
208.573950349751390
 20
-186.200868189471010
 11
212.410841271850130
 21
-187.909162090389320
  0
LINE
  8
0
  6
CONTINUOUS
 62
4
 10
207.231719427600860
 20
-189.215568199691630
 11
211.068610349699840
 21
-190.923862100609940
  0
ARC
  8
0
  6
CONTINUOUS
 62
3
 10
210.278052730056970
 20
-188.765733311420890
 40
9.000000000000075
 50
139.398468892516490
 51
172.601548410321070
  0
LINE
  8
0
  6
CONTINUOUS
 62
3
 10
32.797152614941211
 20
-132.588826264440290
 11
32.797152614941211
 21
-74.088826264440286
  0
LINE
  8
0
  6
CONTINUOUS
 62
3
 10
32.797152614941211
 20
-132.588826264440290
 11
32.797152614941211
 21
-191.088826264440290
  0
LINE
  8
0
  6
CONTINUOUS
 62
3
 10
-2.752847385059994
 20
-89.992218623834333
 11
-38.202847385058789
 21
-89.992218623834333
  0
ARC
  8
0
  6
CONTINUOUS
 62
3
 10
-2.752847385059994
 20
-100.992218623834330
 40
11.000000000000000
 50
0.000000000000000
 51
90.000000000000000
  0
ARC
  8
0
  6
CONTINUOUS
 62
4
 10
-3.152847385059630
 20
-107.588826264440050
 40
5.000000000000000
 50
0.000000000000000
 51
90.000000000000000
  0
LINE
  8
0
  6
CONTINUOUS
 62
4
 10
-38.202847385058789
 20
-102.588826264440050
 11
-3.152847385059630
 21
-102.588826264440050
  0
ARC
  8
0
  6
CONTINUOUS
 62
3
 10
-3.152847385059630
 20
-101.087036827332890
 40
5.000000000000000
 50
0.000000000000000
 51
90.000000000000000
  0
LINE
  8
0
  6
CONTINUOUS
 62
3
 10
-38.202847385058789
 20
-96.087036827332895
 11
-3.152847385059630
 21
-96.087036827332895
  0
LINE
  8
0
  6
CONTINUOUS
 62
3
 10
8.247152614940006
 20
-100.992218623834330
 11
8.247152614940006
 21
-182.594937992090080
  0
LINE
  8
0
  6
CONTINUOUS
 62
3
 10
1.847152614940370
 20
-101.087036827332890
 11
1.847152614940370
 21
-177.164781033992990
  0
ARC
  8
0
  6
CONTINUOUS
 62
3
 10
-3.152847385059630
 20
-177.164781033992990
 40
5.000000000000000
 50
270.000000000000000
 51
0.000000000000000
  0
LINE
  8
0
  6
CONTINUOUS
 62
3
 10
-2.752847385059994
 20
-192.374728062862910
 11
-38.202847385058789
 21
-192.374728062862910
  0
LINE
  8
0
  6
CONTINUOUS
 62
3
 10
-2.752847385059994
 20
-193.594937992090080
 11
-38.202847385058789
 21
-193.594937992090080
  0
ARC
  8
0
  6
CONTINUOUS
 62
3
 10
-2.752847385059994
 20
-182.594937992090080
 40
11.000000000000000
 50
270.000000000000000
 51
0.000000000000000
  0
ARC
  8
0
  6
CONTINUOUS
 62
3
 10
-2.752847385059994
 20
-181.374728062862910
 40
11.000000000000000
 50
270.000000000000000
 51
0.000000000000000
  0
ARC
  8
0
  6
CONTINUOUS
 62
3
 10
-28.942629204445524
 20
-178.164781046843250
 40
4.000000000000156
 50
221.178434371117250
 51
270.000000000000000
  0
POLYLINE
  8
0
  6
CONTINUOUS
 62
3
 66
1
  0
VERTEX
  8
0
  6
CONTINUOUS
 62
3
 10
-31.953280326557746
 20
-180.798405891221220
  0
VERTEX
  8
0
  6
CONTINUOUS
 62
3
 10
-32.944249461644119
 20
-179.853277624700810
  0
VERTEX
  8
0
  6
CONTINUOUS
 62
3
 10
-34.103851841215793
 20
-179.084768821915130
  0
VERTEX
  8
0
  6
CONTINUOUS
 62
3
 10
-35.394901220112374
 20
-178.517524100063810
  0
VERTEX
  8
0
  6
CONTINUOUS
 62
3
 10
-36.775996097643976
 20
-178.169733919656690
  0
VERTEX
  8
0
  6
CONTINUOUS
 62
3
 10
-38.202847385058789
 20
-178.052551251005700
  0
SEQEND
  8
0
  6
CONTINUOUS
 62
3
  0
ARC
  8
0
  6
CONTINUOUS
 62
3
 10
-29.715373169338676
 20
-178.164781040216670
 40
3.999999999999828
 50
226.698420851470790
 51
270.000000000000000
  0
POLYLINE
  8
0
  6
CONTINUOUS
 62
3
 66
1
  0
VERTEX
  8
0
  6
CONTINUOUS
 62
3
 10
-32.458726813579318
 20
-181.075796461445240
  0
VERTEX
  8
0
  6
CONTINUOUS
 62
3
 10
-33.420427414153870
 20
-180.303917299518620
  0
VERTEX
  8
0
  6
CONTINUOUS
 62
3
 10
-34.504585582045792
 20
-179.682054730913050
  0
VERTEX
  8
0
  6
CONTINUOUS
 62
3
 10
-35.683440607690677
 20
-179.226132028327330
  0
VERTEX
  8
0
  6
CONTINUOUS
 62
3
 10
-36.926806995139067
 20
-178.947823445671250
  0
VERTEX
  8
0
  6
CONTINUOUS
 62
3
 10
-38.202847385058789
 20
-178.854255289752420
  0
SEQEND
  8
0
  6
CONTINUOUS
 62
3
  0
LINE
  8
0
  6
CONTINUOUS
 62
3
 10
-29.715373167665433
 20
-182.164781033992990
 11
-3.152847385059630
 21
-182.164781033992990
  0
POLYLINE
  8
0
  6
CONTINUOUS
 62
3
 66
1
 70
1
  0
VERTEX
  8
0
  6
CONTINUOUS
 62
3
 10
-34.702847385058789
 20
-185.907320798458610
  0
VERTEX
  8
0
  6
CONTINUOUS
 62
3
 10
-34.770098903647479
 20
-185.233731028412480
  0
VERTEX
  8
0
  6
CONTINUOUS
 62
3
 10
-34.969269021269284
 20
-184.586026935475730
  0
VERTEX
  8
0
  6
CONTINUOUS
 62
3
 10
-35.292703741999880
 20
-183.989099424703260
  0
VERTEX
  8
0
  6
CONTINUOUS
 62
3
 10
-35.727973650905874
 20
-183.465888085573280
  0
VERTEX
  8
0
  6
CONTINUOUS
 62
3
 10
-36.258351569490181
 20
-183.036499636428230
  0
VERTEX
  8
0
  6
CONTINUOUS
 62
3
 10
-36.863455371780972
 20
-182.717435234564960
  0
VERTEX
  8
0
  6
CONTINUOUS
 62
3
 10
-37.520031258002341
 20
-182.520956346013690
  0
VERTEX
  8
0
  6
CONTINUOUS
 62
3
 10
-38.202847385058789
 20
-182.454613544274820
  0
VERTEX
  8
0
  6
CONTINUOUS
 62
3
 10
-38.885663512115237
 20
-182.520956346013690
  0
VERTEX
  8
0
  6
CONTINUOUS
 62
3
 10
-39.542239398336605
 20
-182.717435234564960
  0
VERTEX
  8
0
  6
CONTINUOUS
 62
3
 10
-40.147343200627397
 20
-183.036499636428230
  0
VERTEX
  8
0
  6
CONTINUOUS
 62
3
 10
-40.677721119211704
 20
-183.465888085573280
  0
VERTEX
  8
0
  6
CONTINUOUS
 62
3
 10
-41.112991028117698
 20
-183.989099424703260
  0
VERTEX
  8
0
  6
CONTINUOUS
 62
3
 10
-41.436425748848293
 20
-184.586026935475730
  0
VERTEX
  8
0
  6
CONTINUOUS
 62
3
 10
-41.635595866470091
 20
-185.233731028412480
  0
VERTEX
  8
0
  6
CONTINUOUS
 62
3
 10
-41.702847385058789
 20
-185.907320798458610
  0
VERTEX
  8
0
  6
CONTINUOUS
 62
3
 10
-41.635595866470091
 20
-186.580910568504750
  0
VERTEX
  8
0
  6
CONTINUOUS
 62
3
 10
-41.436425748848293
 20
-187.228614661441500
  0
VERTEX
  8
0
  6
CONTINUOUS
 62
3
 10
-41.112991028117698
 20
-187.825542172213970
  0
VERTEX
  8
0
  6
CONTINUOUS
 62
3
 10
-40.677721119211704
 20
-188.348753511343940
  0
VERTEX
  8
0
  6
CONTINUOUS
 62
3
 10
-40.147343200627397
 20
-188.778141960488990
  0
VERTEX
  8
0
  6
CONTINUOUS
 62
3
 10
-39.542239398336605
 20
-189.097206362352270
  0
VERTEX
  8
0
  6
CONTINUOUS
 62
3
 10
-38.885663512115237
 20
-189.293685250903540
  0
VERTEX
  8
0
  6
CONTINUOUS
 62
3
 10
-38.202847385058789
 20
-189.360028052642410
  0
VERTEX
  8
0
  6
CONTINUOUS
 62
3
 10
-37.520031258002341
 20
-189.293685250903540
  0
VERTEX
  8
0
  6
CONTINUOUS
 62
3
 10
-36.863455371780979
 20
-189.097206362352270
  0
VERTEX
  8
0
  6
CONTINUOUS
 62
3
 10
-36.258351569490181
 20
-188.778141960488990
  0
VERTEX
  8
0
  6
CONTINUOUS
 62
3
 10
-35.727973650905874
 20
-188.348753511343940
  0
VERTEX
  8
0
  6
CONTINUOUS
 62
3
 10
-35.292703741999887
 20
-187.825542172213970
  0
VERTEX
  8
0
  6
CONTINUOUS
 62
3
 10
-34.969269021269291
 20
-187.228614661441500
  0
VERTEX
  8
0
  6
CONTINUOUS
 62
3
 10
-34.770098903647487
 20
-186.580910568504750
  0
SEQEND
  8
0
  6
CONTINUOUS
 62
3
  0
LINE
  8
0
  6
CONTINUOUS
 62
3
 10
-40.202847385058789
 20
-187.023724668668140
 11
-36.202847385058789
 21
-183.369542838097690
  0
LINE
  8
0
  6
CONTINUOUS
 62
3
 10
-36.202847385058789
 20
-187.023724668668140
 11
-40.202847385058789
 21
-183.369542838097690
  0
POLYLINE
  8
0
  6
CONTINUOUS
 62
3
 66
1
  0
VERTEX
  8
0
  6
CONTINUOUS
 62
3
 10
-38.202847385058789
 20
-178.854255289752420
  0
VERTEX
  8
0
  6
CONTINUOUS
 62
3
 10
-39.478887774978510
 20
-178.947823445671250
  0
VERTEX
  8
0
  6
CONTINUOUS
 62
3
 10
-40.722254162426900
 20
-179.226132028327330
  0
VERTEX
  8
0
  6
CONTINUOUS
 62
3
 10
-41.901109188071786
 20
-179.682054730913050
  0
VERTEX
  8
0
  6
CONTINUOUS
 62
3
 10
-42.985267355963707
 20
-180.303917299518620
  0
VERTEX
  8
0
  6
CONTINUOUS
 62
3
 10
-43.946967956538259
 20
-181.075796461445240
  0
SEQEND
  8
0
  6
CONTINUOUS
 62
3
  0
ARC
  8
0
  6
CONTINUOUS
 62
3
 10
-46.690321600779129
 20
-178.164781040216670
 40
3.999999993776328
 50
270.000000000000000
 51
313.301579148531630
  0
POLYLINE
  8
0
  6
CONTINUOUS
 62
3
 66
1
  0
VERTEX
  8
0
  6
CONTINUOUS
 62
3
 10
-38.202847385058789
 20
-178.052551251005700
  0
VERTEX
  8
0
  6
CONTINUOUS
 62
3
 10
-39.629698672473673
 20
-178.169733919656690
  0
VERTEX
  8
0
  6
CONTINUOUS
 62
3
 10
-41.010793550005339
 20
-178.517524100063870
  0
VERTEX
  8
0
  6
CONTINUOUS
 62
3
 10
-42.301842928901969
 20
-179.084768821915220
  0
VERTEX
  8
0
  6
CONTINUOUS
 62
3
 10
-43.461445308473671
 20
-179.853277624700980
  0
VERTEX
  8
0
  6
CONTINUOUS
 62
3
 10
-44.452414443560059
 20
-180.798405891221510
  0
SEQEND
  8
0
  6
CONTINUOUS
 62
3
  0
ARC
  8
0
  6
CONTINUOUS
 62
3
 10
-47.463065565672053
 20
-178.164781046843250
 40
3.999999987149749
 50
270.000000000000000
 51
318.821565628880590
  0
LINE
  8
0
  6
CONTINUOUS
 62
3
 10
-73.652847385057697
 20
-193.594937992090080
 11
-38.202847385058789
 21
-193.594937992090080
  0
LINE
  8
0
  6
CONTINUOUS
 62
3
 10
-73.652847385057697
 20
-192.374728062862910
 11
-38.202847385058789
 21
-192.374728062862910
  0
ARC
  8
0
  6
CONTINUOUS
 62
3
 10
-73.652847385057697
 20
-181.374728062862910
 40
11.000000000000000
 50
180.000000000000000
 51
270.000000000000000
  0
ARC
  8
0
  6
CONTINUOUS
 62
3
 10
-73.652847385057697
 20
-182.594937992090080
 40
11.000000000000000
 50
180.000000000000000
 51
270.000000000000000
  0
LINE
  8
0
  6
CONTINUOUS
 62
3
 10
-46.690321602452372
 20
-182.164781033992990
 11
-73.252847385058061
 21
-182.164781033992990
  0
ARC
  8
0
  6
CONTINUOUS
 62
3
 10
-73.252847385058061
 20
-177.164781033992990
 40
5.000000000000000
 50
180.000000000000000
 51
270.000000000000000
  0
LINE
  8
0
  6
DASHDOT
 62
4
 10
-38.202847385058789
 20
-87.089226431648285
 11
-38.202847385058789
 21
-199.742945856884940
  0
LINE
  8
0
  6
CONTINUOUS
 62
4
 10
-38.202847385058789
 20
-150.821673508734190
 11
-30.985969020189344
 21
-163.321673508734190
  0
LINE
  8
0
  6
CONTINUOUS
 62
4
 10
-23.769090655318990
 20
-150.821673508734190
 11
-38.202847385058789
 21
-150.821673508734190
  0
LINE
  8
0
  6
CONTINUOUS
 62
4
 10
-30.985969020188435
 20
-138.321673508734420
 11
-38.202847385058789
 21
-150.821673508734190
  0
LINE
  8
0
  6
CONTINUOUS
 62
4
 10
-38.202847385058789
 20
-125.821673508734190
 11
-30.985969020188435
 21
-138.321673508734190
  0
LINE
  8
0
  6
CONTINUOUS
 62
4
 10
-16.552212290448637
 20
-163.321673508734190
 11
-30.985969020189344
 21
-163.321673508734190
  0
LINE
  8
0
  6
CONTINUOUS
 62
4
 10
-23.769090655318990
 20
-150.821673508734190
 11
-16.552212290448637
 21
-163.321673508734190
  0
LINE
  8
0
  6
CONTINUOUS
 62
4
 10
-38.202847385058789
 20
-125.821673508734190
 11
-45.419725749929142
 21
-138.321673508734190
  0
LINE
  8
0
  6
CONTINUOUS
 62
4
 10
-45.419725749929142
 20
-138.321673508734420
 11
-38.202847385058789
 21
-150.821673508734190
  0
LINE
  8
0
  6
CONTINUOUS
 62
4
 10
-52.636604114798587
 20
-150.821673508734190
 11
-38.202847385058789
 21
-150.821673508734190
  0
LINE
  8
0
  6
CONTINUOUS
 62
4
 10
-52.636604114798587
 20
-150.821673508734190
 11
-59.853482479668941
 21
-163.321673508734190
  0
LINE
  8
0
  6
CONTINUOUS
 62
4
 10
-38.202847385058789
 20
-150.821673508734190
 11
-45.419725749928233
 21
-163.321673508734190
  0
LINE
  8
0
  6
CONTINUOUS
 62
4
 10
-59.853482479668941
 20
-163.321673508734190
 11
-45.419725749928233
 21
-163.321673508734190
  0
LINE
  8
0
  6
CONTINUOUS
 62
3
 10
-73.652847385057697
 20
-89.992218623834333
 11
-38.202847385058789
 21
-89.992218623834333
  0
ARC
  8
0
  6
CONTINUOUS
 62
3
 10
-73.652847385057697
 20
-100.992218623834330
 40
11.000000000000000
 50
90.000000000000000
 51
180.000000000000000
  0
LINE
  8
0
  6
CONTINUOUS
 62
3
 10
-38.202847385058789
 20
-96.087036827332895
 11
-73.252847385058061
 21
-96.087036827332895
  0
ARC
  8
0
  6
CONTINUOUS
 62
3
 10
-73.252847385058061
 20
-101.087036827332890
 40
5.000000000000000
 50
90.000000000000000
 51
180.000000000000000
  0
LINE
  8
0
  6
CONTINUOUS
 62
4
 10
-38.202847385058789
 20
-102.588826264440050
 11
-73.252847385058061
 21
-102.588826264440050
  0
ARC
  8
0
  6
CONTINUOUS
 62
4
 10
-73.252847385058061
 20
-107.588826264440050
 40
5.000000000000000
 50
90.000000000000000
 51
180.000000000000000
  0
LINE
  8
0
  6
CONTINUOUS
 62
3
 10
-78.252847385058061
 20
-101.087036827332890
 11
-78.252847385058061
 21
-177.164781033992990
  0
LINE
  8
0
  6
CONTINUOUS
 62
3
 10
-84.652847385057697
 20
-100.992218623834330
 11
-84.652847385057697
 21
-182.594937992090080
  0
LINE
  8
0
  6
CONTINUOUS
 62
4
 10
8.247152614939893
 20
-102.306391937871010
 11
32.797152614941211
 21
-102.306391937871010
  0
LINE
  8
0
  6
CONTINUOUS
 62
4
 10
8.247152614939893
 20
-107.758772807309920
 11
32.797152614941211
 21
-107.758772807309920
  0
LINE
  8
0
  6
CONTINUOUS
 62
4
 10
8.247152614939893
 20
-106.396892471960650
 11
32.797152614941211
 21
-106.396892471960650
  0
LINE
  8
0
  6
CONTINUOUS
 62
4
 10
8.247152614939893
 20
-112.588826264440280
 11
32.797152614941211
 21
-112.588826264440280
  0
LINE
  8
0
  6
CONTINUOUS
 62
4
 10
-64.202847385058675
 20
-75.588826264440286
 11
32.797152614941211
 21
-75.588826264440286
  0
LINE
  8
0
  6
CONTINUOUS
 62
4
 10
-64.202847385058675
 20
-75.088826264440286
 11
32.797152614941211
 21
-75.088826264440286
  0
LINE
  8
0
  6
CONTINUOUS
 62
4
 10
-64.202847385058675
 20
-76.588826264440286
 11
32.797152614941211
 21
-76.588826264440286
  0
LINE
  8
0
  6
CONTINUOUS
 62
4
 10
-64.202847385058675
 20
-77.588826264440286
 11
32.797152614941211
 21
-77.588826264440272
  0
LINE
  8
0
  6
CONTINUOUS
 62
4
 10
-64.202847385058675
 20
-82.273292077664792
 11
32.797152614941211
 21
-82.273292077664792
  0
LINE
  8
0
  6
CONTINUOUS
 62
4
 10
-64.202847385058675
 20
-87.223039545970551
 11
32.797152614941211
 21
-87.223039545970551
  0
LINE
  8
0
  6
CONTINUOUS
 62
4
 10
6.641411911331858
 20
-95.269641208704343
 11
32.797152614941211
 21
-95.269641208704343
  0
LINE
  8
0
  6
CONTINUOUS
 62
4
 10
7.447282841392422
 20
-96.874289124266397
 11
32.797152614941211
 21
-96.874289124266397
  0
LINE
  8
0
  6
CONTINUOUS
 62
4
 10
8.247152614939893
 20
-100.838034548065930
 11
32.797152614941211
 21
-100.838034548065930
  0
LINE
  8
0
  6
CONTINUOUS
 62
3
 10
-64.202847385058675
 20
-89.992218623834333
 11
-64.202847385058675
 21
-72.588826264440286
  0
LINE
  8
0
  6
CONTINUOUS
 62
3
 10
32.797152614941211
 20
-74.088826264440286
 11
-64.202847385058675
 21
-74.088826264440286
  0
LINE
  8
0
  6
CONTINUOUS
 62
3
 10
32.797152614941211
 20
-74.088826264440286
 11
32.797152614941211
 21
-132.588826264440290
  0
LINE
  8
0
  6
CONTINUOUS
 62
3
 10
-64.202847385058675
 20
-72.588826264440286
 11
-144.896871607479060
 21
-72.588826264440286
  0
LINE
  8
0
  6
CONTINUOUS
 62
3
 10
-167.202847385008570
 20
-132.588826264440290
 11
-167.202847385008570
 21
-85.145621207194836
  0
ARC
  8
0
  6
CONTINUOUS
 62
3
 10
-144.896871607479060
 20
-92.588826264440286
 40
20.000000000000000
 50
90.000000000000000
 51
125.000000000000240
  0
LINE
  8
0
  6
CONTINUOUS
 62
3
 10
-156.368400334500050
 20
-76.205785378660494
 11
-166.094146119521040
 21
-83.015825892043722
  0
ARC
  8
0
  6
CONTINUOUS
 62
3
 10
-164.602847385008430
 20
-85.145621207194836
 40
2.599999999999721
 50
125.000000000001370
 51
180.000000000000000
  0
LINE
  8
0
  6
CONTINUOUS
 62
4
 10
8.247152614939893
 20
-162.871260591009560
 11
32.797152614941211
 21
-162.871260591009560
  0
LINE
  8
0
  6
CONTINUOUS
 62
4
 10
8.247152614939893
 20
-157.418879721570650
 11
32.797152614941211
 21
-157.418879721570650
  0
LINE
  8
0
  6
CONTINUOUS
 62
4
 10
8.247152614939893
 20
-158.780760056919920
 11
32.797152614941211
 21
-158.780760056919920
  0
LINE
  8
0
  6
CONTINUOUS
 62
4
 10
8.247152614939893
 20
-152.588826264440290
 11
32.797152614941211
 21
-152.588826264440290
  0
LINE
  8
0
  6
CONTINUOUS
 62
4
 10
5.737472210448942
 20
-189.588826264440290
 11
32.797152614941211
 21
-189.588826264440290
  0
LINE
  8
0
  6
CONTINUOUS
 62
4
 10
5.299583214549813
 20
-190.088826264440290
 11
32.797152614941211
 21
-190.088826264440290
  0
LINE
  8
0
  6
CONTINUOUS
 62
4
 10
6.470671649374850
 20
-188.588826264440290
 11
32.797152614941211
 21
-188.588826264440290
  0
LINE
  8
0
  6
CONTINUOUS
 62
4
 10
7.048228062220375
 20
-187.588826264440290
 11
32.797152614941211
 21
-187.588826264440290
  0
LINE
  8
0
  6
CONTINUOUS
 62
4
 10
8.247152614939893
 20
-182.904360451215780
 11
32.797152614941211
 21
-182.904360451215780
  0
LINE
  8
0
  6
CONTINUOUS
 62
4
 10
8.247152614939893
 20
-177.954612982910020
 11
32.797152614941211
 21
-177.954612982910020
  0
LINE
  8
0
  6
CONTINUOUS
 62
4
 10
8.247152614939893
 20
-169.908011320176230
 11
32.797152614941211
 21
-169.908011320176230
  0
LINE
  8
0
  6
CONTINUOUS
 62
4
 10
8.247152614939893
 20
-168.303363404614170
 11
32.797152614941211
 21
-168.303363404614170
  0
LINE
  8
0
  6
CONTINUOUS
 62
4
 10
8.247152614939893
 20
-164.339617980814640
 11
32.797152614941211
 21
-164.339617980814640
  0
LINE
  8
0
  6
DASHDOT
 62
4
 10
69.282642411765124
 20
-132.588826264440290
 11
-177.132059923405340
 21
-132.588826264440290
  0
LINE
  8
0
  6
CONTINUOUS
 62
3
 10
32.797152614941211
 20
-191.088826264440290
 11
4.236706393031369
 21
-191.088826264440290
  0
LINE
  8
0
  6
CONTINUOUS
 62
3
 10
32.797152614941211
 20
-191.088826264440290
 11
32.797152614941211
 21
-132.588826264440290
  0
LINE
  8
0
  6
CONTINUOUS
 62
3
 10
-78.248736548188248
 20
-192.588826264440290
 11
-144.896871607479060
 21
-192.588826264440290
  0
LINE
  8
0
  6
CONTINUOUS
 62
3
 10
-167.202847385008570
 20
-132.588826264440290
 11
-167.202847385008570
 21
-180.032031321685740
  0
ARC
  8
0
  6
CONTINUOUS
 62
3
 10
-144.896871607479060
 20
-172.588826264440290
 40
20.000000000000007
 50
234.999999999999740
 51
270.000000000000000
  0
LINE
  8
0
  6
CONTINUOUS
 62
3
 10
-156.368400334500050
 20
-188.971867150220080
 11
-166.094146119521040
 21
-182.161826636836850
  0
ARC
  8
0
  6
CONTINUOUS
 62
3
 10
-164.602847385008430
 20
-180.032031321685740
 40
2.600000000000136
 50
180.000000000000000
 51
234.999999999998610
  0
POLYLINE
  8
0
  6
CONTINUOUS
 62
3
 66
1
 70
1
  0
VERTEX
  8
0
  6
CONTINUOUS
 62
3
 10
-70.502847385058118
 20
-80.665301232380216
  0
VERTEX
  8
0
  6
CONTINUOUS
 62
3
 10
-70.593156567162936
 20
-79.962344266179855
  0
VERTEX
  8
0
  6
CONTINUOUS
 62
3
 10
-70.860613582255070
 20
-79.286401541967763
  0
VERTEX
  8
0
  6
CONTINUOUS
 62
3
 10
-71.294940207236152
 20
-78.663449159562362
  0
VERTEX
  8
0
  6
CONTINUOUS
 62
3
 10
-71.879445513481343
 20
-78.117426829663785
  0
VERTEX
  8
0
  6
CONTINUOUS
 62
3
 10
-72.591667289865981
 20
-77.669317884197170
  0
VERTEX
  8
0
  6
CONTINUOUS
 62
3
 10
-73.404235252942186
 20
-77.336342898634399
  0
VERTEX
  8
0
  6
CONTINUOUS
 62
3
 10
-74.285922871582301
 20
-77.131297914936155
  0
VERTEX
  8
0
  6
CONTINUOUS
 62
3
 10
-75.202847385058107
 20
-77.062062696835383
  0
VERTEX
  8
0
  6
CONTINUOUS
 62
3
 10
-76.119771898533912
 20
-77.131297914936155
  0
VERTEX
  8
0
  6
CONTINUOUS
 62
3
 10
-77.001459517174027
 20
-77.336342898634399
  0
VERTEX
  8
0
  6
CONTINUOUS
 62
3
 10
-77.814027480250232
 20
-77.669317884197170
  0
VERTEX
  8
0
  6
CONTINUOUS
 62
3
 10
-78.526249256634870
 20
-78.117426829663785
  0
VERTEX
  8
0
  6
CONTINUOUS
 62
3
 10
-79.110754562880061
 20
-78.663449159562362
  0
VERTEX
  8
0
  6
CONTINUOUS
 62
3
 10
-79.545081187861143
 20
-79.286401541967763
  0
VERTEX
  8
0
  6
CONTINUOUS
 62
3
 10
-79.812538202953277
 20
-79.962344266179855
  0
VERTEX
  8
0
  6
CONTINUOUS
 62
3
 10
-79.902847385058095
 20
-80.665301232380216
  0
VERTEX
  8
0
  6
CONTINUOUS
 62
3
 10
-79.812538202953277
 20
-81.368258198580577
  0
VERTEX
  8
0
  6
CONTINUOUS
 62
3
 10
-79.545081187861143
 20
-82.044200922792669
  0
VERTEX
  8
0
  6
CONTINUOUS
 62
3
 10
-79.110754562880061
 20
-82.667153305198070
  0
VERTEX
  8
0
  6
CONTINUOUS
 62
3
 10
-78.526249256634870
 20
-83.213175635096647
  0
VERTEX
  8
0
  6
CONTINUOUS
 62
3
 10
-77.814027480250232
 20
-83.661284580563262
  0
VERTEX
  8
0
  6
CONTINUOUS
 62
3
 10
-77.001459517174027
 20
-83.994259566126033
  0
VERTEX
  8
0
  6
CONTINUOUS
 62
3
 10
-76.119771898533912
 20
-84.199304549824276
  0
VERTEX
  8
0
  6
CONTINUOUS
 62
3
 10
-75.202847385058107
 20
-84.268539767925049
  0
VERTEX
  8
0
  6
CONTINUOUS
 62
3
 10
-74.285922871582301
 20
-84.199304549824276
  0
VERTEX
  8
0
  6
CONTINUOUS
 62
3
 10
-73.404235252942186
 20
-83.994259566126033
  0
VERTEX
  8
0
  6
CONTINUOUS
 62
3
 10
-72.591667289865981
 20
-83.661284580563262
  0
VERTEX
  8
0
  6
CONTINUOUS
 62
3
 10
-71.879445513481343
 20
-83.213175635096647
  0
VERTEX
  8
0
  6
CONTINUOUS
 62
3
 10
-71.294940207236152
 20
-82.667153305198070
  0
VERTEX
  8
0
  6
CONTINUOUS
 62
3
 10
-70.860613582255070
 20
-82.044200922792669
  0
VERTEX
  8
0
  6
CONTINUOUS
 62
3
 10
-70.593156567162936
 20
-81.368258198580577
  0
SEQEND
  8
0
  6
CONTINUOUS
 62
3
  0
LINE
  8
0
  6
CONTINUOUS
 62
3
 10
-77.202847385058107
 20
-77.672925678379897
 11
-75.202847385058107
 21
-78.848711164002680
  0
LINE
  8
0
  6
CONTINUOUS
 62
3
 10
-75.202847385058107
 20
-78.848711164002680
 11
-73.202847385058107
 21
-80.501352803126110
  0
LINE
  8
0
  6
CONTINUOUS
 62
3
 10
-73.202847385058107
 20
-77.672925678379897
 11
-75.202847385058107
 21
-78.848711164002680
  0
LINE
  8
0
  6
CONTINUOUS
 62
3
 10
-75.202847385058107
 20
-78.848711164002680
 11
-77.202847385058107
 21
-80.501352803126110
  0
LINE
  8
0
  6
DASHDOT
 62
4
 10
320.659660457220980
 20
-10.369426957480755
 11
320.659660457220980
 21
-224.653542085914520
  0
ENDSEC
  0
EOF
