  0
SECTION
  2
HEADER
  9
$FILLMODE
 70
1
  9
$TEXTSTYLE
  7
STANDARD1
  9
$ACADVER
  1
AC1009
  9
$DIMASZ
 40
1.931851648807023
  9
$DIMEXE
 40
2.000000000000000
  9
$DIMEXO
 40
1.000000000000000
  9
$DIMLFAC
 40
1.000000000000000
  9
$DIMSCALE
 40
1.000000000000000
  9
$DIMTAD
 70
1
  9
$DIMTFAC
 40
0.714285731315613
  9
$DIMTXT
 40
3.200000047683716
  9
$LUPREC
 70
3
  9
$TEXTSIZE
 40
3.299999952316284
  9
$REGENMODE
 70
1
  0
ENDSEC
  0
SECTION
  2
TABLES
  0
TABLE
  2
LTYPE
 70
4
  0
LTYPE
  2
CONTINUOUS
 70
64
  3
Solid line
 72
65
 73
0
 40
0.0
  0
LTYPE
  2
DASHED
 70
64
  3
-- -- -- -- -- -- -- -- -- -- -- -- -- -- --
 72
65
 73
2
 40
0.75
 49
0.5
 49
-0.25
  0
LTYPE
  2
DASHDOT
 70
64
  3
__ . __ . __ . __ . __ . __ . __ . __ . __ . __
 72
65
 73
4
 40
1.0
 49
0.5
 49
-0.25
 49
0.0
 49
-0.25
  0
LTYPE
  2
DIVIDE
 70
64
  3
__ . . __ . . __ . . __ . . __ . . __ . . __
 72
65
 73
6
 40
1.25
 49
0.5
 49
-0.25
 49
0.0
 49
-0.25
 49
0.0
 49
-0.25
  0
ENDTAB
  0
TABLE
  2
LAYER
 70
1
  0
LAYER
  2
0
 70
64
 62
2
  6
CONTINUOUS
  0
ENDTAB
  0
TABLE
  2
STYLE
 70
4
  0
STYLE
  2
STANDARD1
 70
64
 40
0.0
 41
1.0
 50
0.0
 71
0
 42
3.299999952316284
  3
MONOTXT
  4
BIGFONT
  0
STYLE
  2
STANDARD2
 70
68
 40
0.0
 41
1.0
 50
0.0
 71
0
 42
3.299999952316284
  3
MONOTXT
  4
BIGFONT
  0
STYLE
  2
STANDARD3
 70
64
 40
0.0
 41
1.0
 50
0.0
 71
0
 42
3.299999952316284
  3
MONOTXT
  4

  0
STYLE
  2
STANDARD4
 70
68
 40
0.0
 41
1.0
 50
0.0
 71
0
 42
3.299999952316284
  3
MONOTXT
  4

  0
ENDTAB
  0
TABLE
  2
VIEW
 70
0
  0
ENDTAB
  0
ENDSEC
  0
SECTION
  2
BLOCKS
  0
BLOCK
  8
0
  2
SYM1
 70
64
 10
0.000000000000000
 20
0.000000000000000
  0
POINT
  8
0
  6
CONTINUOUS
 62
3
 10
0.000000000000000
 20
0.000000000000000
  0
LINE
  8
0
  6
CONTINUOUS
 62
3
 10
0.000000000000000
 20
-6.500000000000000
 11
-0.000000000000000
 21
6.500000000000000
  0
LINE
  8
0
  6
CONTINUOUS
 62
3
 10
-7.999999046325684
 20
5.633875846862793
 11
-7.999999046325684
 21
-5.634070396423340
  0
LINE
  8
0
  6
CONTINUOUS
 62
3
 10
0.000000000000000
 20
6.500000000000000
 11
-7.499999046325684
 21
6.500000000000000
  0
LINE
  8
0
  6
CONTINUOUS
 62
3
 10
-0.000000000000000
 20
-6.500000000000000
 11
-7.499998092651367
 21
-6.500000000000000
  0
LINE
  8
0
  6
CONTINUOUS
 62
3
 10
-7.499999203818277
 20
6.499999909101064
 11
-7.999999021366804
 21
5.633876130311293
  0
LINE
  8
0
  6
CONTINUOUS
 62
3
 10
-7.499997911632022
 20
-6.499999445138201
 11
-7.999998623386432
 21
-5.634070287011241
  0
LINE
  8
0
  6
CONTINUOUS
 62
3
 10
-7.499999046325684
 20
6.500000000000000
 11
-7.499999046325684
 21
-6.500000000000000
  0
ENDBLK
  8
0
  0
ENDSEC
  0
SECTION
  2
ENTITIES
  0
LINE
  8
0
  6
CONTINUOUS
 62
3
 10
-409.735174108272530
 20
-118.320289262362060
 11
-410.221977499978150
 21
-117.833485870656440
  0
LINE
  8
0
  6
CONTINUOUS
 62
3
 10
-403.088370634858850
 20
-111.673485788948350
 11
-403.575174026564470
 21
-111.186682397242730
  0
LINE
  8
0
  6
CONTINUOUS
 62
3
 10
-410.048312717241340
 20
-118.067742311511690
 11
-403.371213414768420
 21
-111.390643009038780
  0
LINE
  8
0
  6
CONTINUOUS
 62
3
 10
-409.735174108272530
 20
-118.320289262362060
 11
-403.088370634858850
 21
-111.673485788948350
  0
POINT
  8
0
  6
CONTINUOUS
 62
3
 10
-406.411772371565690
 20
-114.996887525655210
  0
ARC
  8
0
  6
CONTINUOUS
 62
3
 10
-404.149030806638680
 20
-117.259629090582250
 40
6.099999427795419
 50
84.601927898108485
 51
185.398089404735120
  0
LINE
  8
0
  6
CONTINUOUS
 62
3
 10
-409.735174108272530
 20
-215.052497198421720
 11
-410.221977499978150
 21
-215.539300590127340
  0
LINE
  8
0
  6
CONTINUOUS
 62
3
 10
-403.088370634858850
 20
-221.699300671835460
 11
-403.575174026564470
 21
-222.186104063541050
  0
LINE
  8
0
  6
CONTINUOUS
 62
3
 10
-410.048312717241340
 20
-215.305044149272110
 11
-403.371213414768420
 21
-221.982143451745030
  0
LINE
  8
0
  6
CONTINUOUS
 62
3
 10
-409.735174108272530
 20
-215.052497198421720
 11
-403.088370634858850
 21
-221.699300671835460
  0
POINT
  8
0
  6
CONTINUOUS
 62
3
 10
-406.411772371565690
 20
-218.375898935128590
  0
ARC
  8
0
  6
CONTINUOUS
 62
3
 10
-404.149030806638680
 20
-216.113157370201550
 40
6.099999427795398
 50
174.601910595264880
 51
275.398072101891500
  0
LINE
  8
0
  6
CONTINUOUS
 62
3
 10
-299.709359225385750
 20
-215.052497198421720
 11
-299.222555833680130
 21
-215.539300590127340
  0
LINE
  8
0
  6
CONTINUOUS
 62
3
 10
-306.356162698799440
 20
-221.699300671835460
 11
-305.869359307093820
 21
-222.186104063541050
  0
LINE
  8
0
  6
CONTINUOUS
 62
3
 10
-299.396220616416940
 20
-215.305044149272110
 11
-306.073319918889870
 21
-221.982143451745030
  0
LINE
  8
0
  6
CONTINUOUS
 62
3
 10
-299.709359225385750
 20
-215.052497198421720
 11
-306.356162698799440
 21
-221.699300671835460
  0
POINT
  8
0
  6
CONTINUOUS
 62
3
 10
-303.032760962092600
 20
-218.375898935128590
  0
ARC
  8
0
  6
CONTINUOUS
 62
3
 10
-305.295502527019610
 20
-216.113157370201550
 40
6.099999427795406
 50
264.601927898108500
 51
5.398089404735109
  0
LINE
  8
0
  6
CONTINUOUS
 62
3
 10
-299.709359225385750
 20
-118.320289262362060
 11
-299.222555833680130
 21
-117.833485870656440
  0
LINE
  8
0
  6
CONTINUOUS
 62
3
 10
-306.356162698799440
 20
-111.673485788948350
 11
-305.869359307093820
 21
-111.186682397242730
  0
LINE
  8
0
  6
CONTINUOUS
 62
3
 10
-299.396220616416940
 20
-118.067742311511690
 11
-306.073319918889870
 21
-111.390643009038780
  0
LINE
  8
0
  6
CONTINUOUS
 62
3
 10
-299.709359225385750
 20
-118.320289262362060
 11
-306.356162698799440
 21
-111.673485788948350
  0
POINT
  8
0
  6
CONTINUOUS
 62
3
 10
-303.032760962092600
 20
-114.996887525655210
  0
ARC
  8
0
  6
CONTINUOUS
 62
3
 10
-305.295502527019610
 20
-117.259629090582250
 40
6.099999427795398
 50
354.601910595264880
 51
95.398072101891515
  0
LINE
  8
0
  6
CONTINUOUS
 62
3
 10
2.561016039215872
 20
-146.686393230391790
 11
23.061016039214053
 21
-146.686393230391790
  0
LINE
  8
0
  6
DASHDOT
 62
4
 10
17.840618567228375
 20
-75.686393230393264
 11
-6.676839990086592
 21
-75.686393230393264
  0
ARC
  8
0
  6
CONTINUOUS
 62
3
 10
-344.222266666829170
 20
-75.686393230401336
 40
10.000000000000000
 50
270.000000000000000
 51
0.000000000000000
  0
ARC
  8
0
  6
CONTINUOUS
 62
3
 10
-365.222266666829230
 20
-75.686393230401336
 40
9.999999999999943
 50
180.000000000000000
 51
270.000000000000000
  0
LINE
  8
0
  6
CONTINUOUS
 62
3
 10
2.061016992897180
 20
129.313606769609580
 11
2.061016992897180
 21
116.313606769609570
  0
LINE
  8
0
  6
CONTINUOUS
 62
3
 10
9.561016039222864
 20
129.313606769609580
 11
2.061016992897180
 21
129.313606769609580
  0
LINE
  8
0
  6
CONTINUOUS
 62
3
 10
9.561016039222864
 20
116.313606769609570
 11
2.061017946571496
 21
116.313606769609570
  0
LINE
  8
0
  6
CONTINUOUS
 62
3
 10
1.561016992897180
 20
128.447482616472370
 11
1.561016992897180
 21
117.179536373186230
  0
LINE
  8
0
  6
CONTINUOUS
 62
3
 10
2.061017630754918
 20
129.313606793677760
 11
1.561017604607855
 21
128.447482653543720
  0
LINE
  8
0
  6
CONTINUOUS
 62
3
 10
2.061018257382216
 20
116.313606792310560
 11
1.561017307188990
 21
117.179536363378920
  0
LINE
  8
0
  6
CONTINUOUS
 62
3
 10
2.061018257382671
 20
150.313606746908700
 11
1.561017307189900
 21
149.447677175840340
  0
LINE
  8
0
  6
CONTINUOUS
 62
3
 10
2.061017630754918
 20
137.313606745541620
 11
1.561017604607855
 21
138.179730885675670
  0
LINE
  8
0
  6
CONTINUOUS
 62
3
 10
9.561016039222864
 20
137.313606769609240
 11
2.061016992897180
 21
137.313606769609690
  0
LINE
  8
0
  6
CONTINUOUS
 62
3
 10
9.561016039223773
 20
150.313606769609240
 11
2.061017946572406
 21
150.313606769609690
  0
LINE
  8
0
  6
CONTINUOUS
 62
3
 10
1.561016992897180
 20
138.179730922747010
 11
1.561016992898089
 21
149.447677166033150
  0
LINE
  8
0
  6
CONTINUOUS
 62
3
 10
2.061016992897180
 20
137.313606769609690
 11
2.061016992898089
 21
150.313606769609690
  0
LINE
  8
0
  6
CONTINUOUS
 62
3
 10
17.561016992891723
 20
55.813606769609464
 11
17.561016992891723
 21
42.813606769609464
  0
LINE
  8
0
  6
CONTINUOUS
 62
3
 10
17.561018257376759
 20
42.813606792310452
 11
17.061017307183533
 21
43.679536363379043
  0
LINE
  8
0
  6
CONTINUOUS
 62
3
 10
17.561017630749461
 20
55.813606793677423
 11
17.061017604602398
 21
54.947482653543716
  0
LINE
  8
0
  6
CONTINUOUS
 62
3
 10
17.061016992891723
 20
54.947482616472257
 11
17.061016992891723
 21
43.679536373186124
  0
LINE
  8
0
  6
CONTINUOUS
 62
3
 10
23.061016039217407
 20
42.813606769609464
 11
17.561017946566039
 21
42.813606769609464
  0
LINE
  8
0
  6
CONTINUOUS
 62
3
 10
23.485563466916460
 20
55.813606769609464
 11
17.561016992891723
 21
55.813606769609464
  0
LINE
  8
0
  6
CONTINUOUS
 62
3
 10
17.061016992891723
 20
88.947482616472257
 11
17.061016992891723
 21
77.679536373186124
  0
LINE
  8
0
  6
CONTINUOUS
 62
3
 10
25.061016039217407
 20
89.813606769609464
 11
17.561016992891723
 21
89.813606769609464
  0
LINE
  8
0
  6
CONTINUOUS
 62
3
 10
25.061016039217407
 20
76.813606769609464
 11
17.561017946566039
 21
76.813606769609464
  0
LINE
  8
0
  6
CONTINUOUS
 62
3
 10
17.561017630749461
 20
89.813606793677650
 11
17.061017604602398
 21
88.947482653543602
  0
LINE
  8
0
  6
CONTINUOUS
 62
3
 10
17.561018257376759
 20
76.813606792310452
 11
17.061017307183533
 21
77.679536363378816
  0
LINE
  8
0
  6
CONTINUOUS
 62
3
 10
17.561016992891723
 20
89.813606769609464
 11
17.561016992891723
 21
76.813606769609464
  0
LINE
  8
0
  6
CONTINUOUS
 62
3
 10
17.061016992894452
 20
177.679730922745990
 11
17.061016992895361
 21
188.947677166032120
  0
LINE
  8
0
  6
CONTINUOUS
 62
3
 10
25.061016039220135
 20
176.813606769608210
 11
17.561016992894452
 21
176.813606769608670
  0
LINE
  8
0
  6
CONTINUOUS
 62
3
 10
25.061016039221045
 20
189.813606769608210
 11
17.561017946569677
 21
189.813606769608670
  0
LINE
  8
0
  6
CONTINUOUS
 62
3
 10
17.561017630752190
 20
176.813606745540600
 11
17.061017604605127
 21
177.679730885674640
  0
LINE
  8
0
  6
CONTINUOUS
 62
3
 10
17.561018257379942
 20
189.813606746907680
 11
17.061017307187171
 21
188.947677175839320
  0
LINE
  8
0
  6
CONTINUOUS
 62
3
 10
17.561016992894452
 20
176.813606769608670
 11
17.561016992895361
 21
189.813606769608670
  0
LINE
  8
0
  6
CONTINUOUS
 62
3
 10
17.561016992896725
 20
210.813606769608550
 11
17.561016992897180
 21
223.813606769608550
  0
LINE
  8
0
  6
CONTINUOUS
 62
3
 10
17.561018257382216
 20
223.813606746907570
 11
17.061017307188990
 21
222.947677175839430
  0
LINE
  8
0
  6
CONTINUOUS
 62
3
 10
17.561017630754463
 20
210.813606745540600
 11
17.061017604607400
 21
211.679730885674760
  0
LINE
  8
0
  6
CONTINUOUS
 62
3
 10
17.061016992896725
 20
211.679730922746220
 11
17.061016992897180
 21
222.947677166032350
  0
LINE
  8
0
  6
CONTINUOUS
 62
3
 10
23.061016039223318
 20
223.813606769608100
 11
17.561017946571496
 21
223.813606769608550
  0
LINE
  8
0
  6
CONTINUOUS
 62
3
 10
23.485563466921917
 20
210.813606769608210
 11
17.561016992896725
 21
210.813606769608550
  0
LINE
  8
0
  6
CONTINUOUS
 62
3
 10
25.061016039217634
 20
91.013606578874260
 11
25.061016039217634
 21
75.613606960343986
  0
LINE
  8
0
  6
CONTINUOUS
 62
3
 10
9.561016039223091
 20
130.513606578874260
 11
9.561016039223091
 21
115.113606960343980
  0
LINE
  8
0
  6
CONTINUOUS
 62
3
 10
9.561016039223318
 20
136.113606960343530
 11
9.561016039224228
 21
151.513606578873810
  0
LINE
  8
0
  6
CONTINUOUS
 62
3
 10
25.061016039220362
 20
175.613606960342620
 11
25.061016039221272
 21
191.013606578872900
  0
LINE
  8
0
  6
DASHDOT
 62
4
 10
153.197525399059150
 20
232.308556135724760
 11
114.201533209876850
 21
232.308556135724760
  0
LINE
  8
0
  6
DASHDOT
 62
4
 10
153.197525399059150
 20
34.318657403491216
 11
114.201533209876850
 21
34.318657403491216
  0
LINE
  8
0
  6
CONTINUOUS
 62
3
 10
137.561016039217860
 20
66.865033450294504
 11
133.561016039217630
 21
66.865033450294504
  0
LINE
  8
0
  6
CONTINUOUS
 62
3
 10
137.561016039217860
 20
42.026810205205038
 11
133.561016039217630
 21
42.026810205205038
  0
ARC
  8
0
  6
CONTINUOUS
 62
3
 10
133.561016039217630
 20
45.026810205205038
 40
3.000000000000000
 50
180.000000000000000
 51
270.000000000000000
  0
LINE
  8
0
  6
CONTINUOUS
 62
3
 10
130.561016039217630
 20
133.313606769608210
 11
130.561016039217630
 21
45.026810205205038
  0
ARC
  8
0
  6
CONTINUOUS
 62
3
 10
133.561016039217630
 20
69.865033450294504
 40
3.000000000000000
 50
180.000000000000000
 51
270.000000000000000
  0
LINE
  8
0
  6
CONTINUOUS
 62
3
 10
137.561016039217860
 20
199.762180088921920
 11
133.561016039217630
 21
199.762180088921920
  0
LINE
  8
0
  6
CONTINUOUS
 62
3
 10
137.561016039217860
 20
224.600403334011390
 11
133.561016039217630
 21
224.600403334011390
  0
ARC
  8
0
  6
CONTINUOUS
 62
3
 10
133.561016039217630
 20
221.600403334011390
 40
3.000000000000000
 50
90.000000000000000
 51
180.000000000000000
  0
LINE
  8
0
  6
CONTINUOUS
 62
3
 10
130.561016039217630
 20
133.313606769608210
 11
130.561016039217630
 21
221.600403334011390
  0
ARC
  8
0
  6
CONTINUOUS
 62
3
 10
133.561016039217630
 20
196.762180088921920
 40
3.000000000000000
 50
90.000000000000000
 51
180.000000000000000
  0
LINE
  8
0
  6
CONTINUOUS
 62
3
 10
137.561016039217630
 20
20.813606769608214
 11
123.561016039217630
 21
20.813606769608214
  0
LINE
  8
0
  6
CONTINUOUS
 62
3
 10
121.561016039217630
 20
22.813606769608214
 11
121.561016039217630
 21
243.813606769608210
  0
ARC
  8
0
  6
CONTINUOUS
 62
3
 10
123.561016039217630
 20
22.813606769608214
 40
2.000000000000000
 50
180.000000000000000
 51
270.000000000000000
  0
LINE
  8
0
  6
CONTINUOUS
 62
3
 10
141.561016039217630
 20
133.313606769608210
 11
141.561016039217630
 21
237.313606769608210
  0
ARC
  8
0
  6
CONTINUOUS
 62
3
 10
140.561016039217630
 20
178.466713069463370
 40
3.000000000000000
 50
0.000000000000000
 51
70.528779365509465
  0
ARC
  8
0
  6
CONTINUOUS
 62
3
 10
143.561016039217630
 20
82.964357852516969
 40
2.999999999999984
 50
120.000187270170780
 51
131.810314895779530
  0
LINE
  8
0
  6
CONTINUOUS
 62
3
 10
137.561016039217630
 20
133.313606769608210
 11
137.561016039217630
 21
20.813606769607759
  0
LINE
  8
0
  6
CONTINUOUS
 62
3
 10
141.561016039217630
 20
133.313606769608210
 11
141.561016039217630
 21
29.313606769608214
  0
LINE
  8
0
  6
CONTINUOUS
 62
3
 10
143.561016039217630
 20
133.313606769608210
 11
143.561016039217630
 21
88.160500469752606
  0
LINE
  8
0
  6
CONTINUOUS
 62
3
 10
137.561016039217860
 20
133.313606769608210
 11
137.561016039217630
 21
245.813606769608210
  0
LINE
  8
0
  6
CONTINUOUS
 62
3
 10
143.561016039217630
 20
133.313606769608210
 11
143.561016039217630
 21
178.466713069463370
  0
ARC
  8
0
  6
CONTINUOUS
 62
3
 10
123.561016039217630
 20
243.813606769608210
 40
2.000000000000000
 50
90.000000000000000
 51
180.000000000000000
  0
LINE
  8
0
  6
CONTINUOUS
 62
3
 10
123.561016039217630
 20
245.813606769608210
 11
137.561016039217630
 21
245.813606769608210
  0
ARC
  8
0
  6
CONTINUOUS
 62
3
 10
144.561016039217630
 20
167.813606769608210
 40
1.000000000000000
 50
180.000000000000000
 51
270.000000000000000
  0
ARC
  8
0
  6
CONTINUOUS
 62
3
 10
144.561016039217630
 20
98.813606769608214
 40
1.000000000000000
 50
90.000000000000000
 51
180.000000000000000
  0
ARC
  8
0
  6
CONTINUOUS
 62
3
 10
140.560999055708070
 20
88.160500469752606
 40
2.999999999999871
 50
300.000187270167030
 51
0.000000000000000
  0
LINE
  8
0
  6
CONTINUOUS
 62
3
 10
145.561016039217630
 20
99.813606769608214
 11
145.561016039217630
 21
166.813606769608210
  0
LINE
  8
0
  6
DASHDOT
 62
4
 10
-214.263487282954880
 20
133.313606769608210
 11
218.720842126126290
 21
133.313606769608210
  0
LINE
  8
0
  6
CONTINUOUS
 62
3
 10
144.561016039217630
 20
99.813606769608214
 11
145.561016039217630
 21
99.813606769608214
  0
LINE
  8
0
  6
CONTINUOUS
 62
3
 10
144.561016039217630
 20
166.813606769608210
 11
145.561016039217630
 21
166.813606769608210
  0
LINE
  8
0
  6
CONTINUOUS
 62
3
 10
137.561016039217630
 20
238.313606769608210
 11
140.561016039217630
 21
238.313606769608210
  0
LINE
  8
0
  6
CONTINUOUS
 62
3
 10
140.561016039217630
 20
238.313606769608210
 11
141.561016039217630
 21
237.313606769608210
  0
LINE
  8
0
  6
CONTINUOUS
 62
3
 10
140.561016039217630
 20
28.313606769608214
 11
137.561016039217630
 21
28.313606769608214
  0
LINE
  8
0
  6
CONTINUOUS
 62
3
 10
141.561016039217630
 20
29.313606769608214
 11
140.561016039217630
 21
28.313606769608214
  0
LINE
  8
0
  6
CONTINUOUS
 62
3
 10
130.514976639031490
 20
21.136176102270383
 11
130.514976639031490
 21
20.813606769608214
  0
ARC
  8
0
  6
CONTINUOUS
 62
3
 10
197.161016039238920
 20
117.713606769607850
 40
0.400000000000091
 50
270.000000000000000
 51
0.000000000000000
  0
LINE
  8
0
  6
CONTINUOUS
 62
3
 10
197.561016039239010
 20
133.313606769608210
 11
197.561016039239010
 21
148.913606769608120
  0
LINE
  8
0
  6
CONTINUOUS
 62
3
 10
147.561016039239010
 20
116.513606769608030
 11
147.361016039239190
 21
116.313606769607750
  0
ARC
  8
0
  6
CONTINUOUS
 62
3
 10
148.361016039239190
 20
116.663606769607660
 40
0.800000000000182
 50
90.000000000000000
 51
176.296803365719710
  0
LINE
  8
0
  6
CONTINUOUS
 62
3
 10
147.561016039239010
 20
116.513606769608030
 11
147.561016039239010
 21
133.313606769607760
  0
LINE
  8
0
  6
CONTINUOUS
 62
3
 10
149.561016039239010
 20
117.463606769607850
 11
148.361016039239190
 21
117.463606769607850
  0
LINE
  8
0
  6
CONTINUOUS
 62
3
 10
197.161016039238920
 20
117.313606769607750
 11
150.120823660374410
 21
117.313606769607750
  0
LINE
  8
0
  6
CONTINUOUS
 62
3
 10
145.561016039216720
 20
116.313606769607300
 11
147.361016039239190
 21
116.313606769607750
  0
LINE
  8
0
  6
CONTINUOUS
 62
3
 10
149.561016039239010
 20
117.463606769607850
 11
150.120823660374410
 21
117.313606769607750
  0
LINE
  8
0
  6
CONTINUOUS
 62
3
 10
147.561016039239010
 20
150.113606769607940
 11
147.361016039239190
 21
150.313606769607760
  0
ARC
  8
0
  6
CONTINUOUS
 62
3
 10
148.361016039239190
 20
149.963606769607850
 40
0.800000000000237
 50
183.703196634280290
 51
270.000000000000000
  0
LINE
  8
0
  6
CONTINUOUS
 62
3
 10
147.561016039239010
 20
150.113606769607940
 11
147.561016039239010
 21
133.313606769607760
  0
LINE
  8
0
  6
CONTINUOUS
 62
3
 10
145.561016039216720
 20
150.313606769608210
 11
147.361016039239190
 21
150.313606769607760
  0
LINE
  8
0
  6
CONTINUOUS
 62
3
 10
149.561016039239010
 20
149.163606769607670
 11
148.361016039239190
 21
149.163606769607670
  0
LINE
  8
0
  6
CONTINUOUS
 62
3
 10
149.561016039239010
 20
149.163606769607670
 11
150.120823660374410
 21
149.313606769607760
  0
LINE
  8
0
  6
CONTINUOUS
 62
3
 10
152.561016039239010
 20
117.313606769608210
 11
152.561016039239010
 21
114.313606769608210
  0
LINE
  8
0
  6
CONTINUOUS
 62
3
 10
197.161016039238920
 20
149.313606769607760
 11
150.120823660374410
 21
149.313606769607760
  0
LINE
  8
0
  6
CONTINUOUS
 62
3
 10
197.561016039239010
 20
114.313606769608210
 11
152.561016039239010
 21
114.313606769608210
  0
ARC
  8
0
  6
CONTINUOUS
 62
3
 10
197.161016039238920
 20
148.913606769607670
 40
0.400000000000091
 50
0.000000000000000
 51
90.000000000000000
  0
LINE
  8
0
  6
CONTINUOUS
 62
3
 10
197.561016039239010
 20
133.313606769608210
 11
197.561016039239010
 21
114.313606769608210
  0
LINE
  8
0
  6
CONTINUOUS
 62
3
 10
102.720229222026880
 20
136.313606769608210
 11
118.561016039217630
 21
136.313606769608210
  0
LINE
  8
0
  6
CONTINUOUS
 62
3
 10
102.720229222026880
 20
130.313606769608210
 11
118.561016039217630
 21
130.313606769608210
  0
ARC
  8
0
  6
CONTINUOUS
 62
3
 10
118.561016039217630
 20
139.313606769608210
 40
3.000000000000000
 50
270.000000000000000
 51
0.000000000000000
  0
ARC
  8
0
  6
CONTINUOUS
 62
3
 10
118.561016039217630
 20
127.313606769608210
 40
3.000000000000000
 50
0.000000000000000
 51
90.000000000000000
  0
ARC
  8
0
  6
CONTINUOUS
 62
3
 10
102.720229222026880
 20
127.313606769608210
 40
3.000000000000000
 50
90.000000000000000
 51
180.000000000000000
  0
ARC
  8
0
  6
CONTINUOUS
 62
3
 10
102.720229222026880
 20
139.313606769608670
 40
3.000000000000000
 50
180.000000000000000
 51
270.000000000000000
  0
LINE
  8
0
  6
CONTINUOUS
 62
3
 10
118.305715188801170
 20
187.822996428361880
 11
103.323000249713570
 21
187.822996428361880
  0
LINE
  8
0
  6
CONTINUOUS
 62
3
 10
100.621051460715870
 20
188.959289130495110
 11
120.911887177301760
 21
214.554048623218020
  0
ARC
  8
0
  6
CONTINUOUS
 62
3
 10
98.270180322631518
 20
190.822996428361880
 40
3.000000000000000
 50
270.000000000000000
 51
321.593567086411040
  0
ARC
  8
0
  6
CONTINUOUS
 62
3
 10
118.561016039217630
 20
216.417755921084790
 40
2.999999999999804
 50
321.593567086408370
 51
0.000000000000000
  0
ARC
  8
0
  6
CONTINUOUS
 62
3
 10
118.561016039217630
 20
221.903037295323430
 40
2.999999999999804
 50
321.593567086408370
 51
0.000000000000000
  0
LINE
  8
0
  6
CONTINUOUS
 62
3
 10
100.621051460715870
 20
194.444570504733750
 11
120.911887177301760
 21
220.039329997456660
  0
ARC
  8
0
  6
CONTINUOUS
 62
3
 10
98.270180322631518
 20
196.308277802600510
 40
3.000000000000000
 50
270.000000000000000
 51
321.593567086411040
  0
LINE
  8
0
  6
CONTINUOUS
 62
3
 10
118.305715188801170
 20
78.804217110854552
 11
103.323000249713570
 21
78.804217110854552
  0
ARC
  8
0
  6
CONTINUOUS
 62
3
 10
118.561016039217630
 20
44.724176243892998
 40
3.000000000000000
 50
0.000000000000000
 51
38.406432913591630
  0
LINE
  8
0
  6
CONTINUOUS
 62
3
 10
100.621051460715870
 20
72.182643034482680
 11
120.911887177301760
 21
46.587883541759766
  0
ARC
  8
0
  6
CONTINUOUS
 62
3
 10
98.270180322631518
 20
70.318935736615913
 40
2.999999999999982
 50
38.406432913588930
 51
90.000000000000000
  0
ARC
  8
0
  6
CONTINUOUS
 62
3
 10
118.561016039217630
 20
50.209457618131637
 40
3.000000000000000
 50
0.000000000000000
 51
38.406432913591630
  0
LINE
  8
0
  6
CONTINUOUS
 62
3
 10
100.621051460715870
 20
77.667924408721319
 11
120.911887177301760
 21
52.073164915998404
  0
ARC
  8
0
  6
CONTINUOUS
 62
3
 10
98.270180322631518
 20
75.804217110854552
 40
2.999999999999982
 50
38.406432913588930
 51
90.000000000000000
  0
LINE
  8
0
  6
CONTINUOUS
 62
3
 10
2.561016039220362
 20
150.313606769609120
 11
2.561016039223091
 21
192.813606769609120
  0
LINE
  8
0
  6
CONTINUOUS
 62
3
 10
2.561016039223091
 20
192.813606769609120
 11
22.218023907950624
 21
193.843786899357380
  0
ARC
  8
0
  6
CONTINUOUS
 62
3
 10
22.061016039221727
 20
196.839675503621040
 40
2.999999999999937
 50
273.000000000001360
 51
359.999999999991300
  0
LINE
  8
0
  6
CONTINUOUS
 62
3
 10
25.061016039218998
 20
156.813606769608210
 11
25.061016039223546
 21
225.313606769607760
  0
LINE
  8
0
  6
CONTINUOUS
 62
3
 10
23.061016039222636
 20
212.045657577176940
 11
23.061016039223546
 21
225.313606769607760
  0
ARC
  8
0
  6
CONTINUOUS
 62
3
 10
25.061016039223546
 20
225.313606769607760
 40
2.000000000000000
 50
90.000000000000000
 51
180.000000000000000
  0
LINE
  8
0
  6
CONTINUOUS
 62
3
 10
37.561016039217634
 20
227.313606769606850
 11
25.061016039223546
 21
227.313606769607760
  0
ARC
  8
0
  6
CONTINUOUS
 62
3
 10
25.061016039222636
 20
212.045657577176830
 40
2.000000000000000
 50
180.000000000000000
 51
239.999999999997070
  0
ARC
  8
0
  6
CONTINUOUS
 62
3
 10
23.061016039222409
 20
208.581555962038690
 40
2.000000000000000
 50
0.000000000000000
 51
60.000000000002721
  0
LINE
  8
0
  6
CONTINUOUS
 62
3
 10
2.561016039219453
 20
133.313606769609120
 11
2.561016039219680
 21
137.313606769609120
  0
LINE
  8
0
  6
CONTINUOUS
 62
3
 10
14.061016039224683
 20
153.813606769608670
 11
9.561016039223773
 21
153.813606769608670
  0
LINE
  8
0
  6
CONTINUOUS
 62
3
 10
14.061016039223546
 20
133.313606769609120
 11
14.061016039224683
 21
153.813606769608670
  0
LINE
  8
0
  6
CONTINUOUS
 62
3
 10
9.561016039222636
 20
133.313606769608670
 11
9.561016039223773
 21
153.813606769608670
  0
ARC
  8
0
  6
CONTINUOUS
 62
3
 10
22.061016039218998
 20
156.813606769608210
 40
3.000000000000000
 50
270.000000000000000
 51
359.999999999991300
  0
LINE
  8
0
  6
CONTINUOUS
 62
3
 10
22.061016039218771
 20
153.813606769608210
 11
17.061016039224683
 21
153.813606769608210
  0
ARC
  8
0
  6
CONTINUOUS
 62
3
 10
17.061016039224683
 20
150.813606769608210
 40
3.000000000000000
 50
90.000000000000000
 51
179.999999999991330
  0
ARC
  8
0
  6
CONTINUOUS
 62
3
 10
27.061016039223546
 20
225.313606769607760
 40
2.000000000000000
 50
90.000000000000000
 51
180.000000000000000
  0
LINE
  8
0
  6
CONTINUOUS
 62
3
 10
37.061016039217634
 20
133.313606769608210
 11
37.061016039223546
 21
227.313606769606850
  0
LINE
  8
0
  6
CONTINUOUS
 62
3
 10
2.561016039219453
 20
116.313606769609120
 11
2.561016039219453
 21
73.813606769609123
  0
LINE
  8
0
  6
CONTINUOUS
 62
3
 10
2.561016039219453
 20
73.813606769609123
 11
22.218023907946758
 21
72.783426639859954
  0
ARC
  8
0
  6
CONTINUOUS
 62
3
 10
22.061016039217634
 20
69.787538035596299
 40
3.000000000000000
 50
0.000000000000000
 51
86.999999999994344
  0
LINE
  8
0
  6
CONTINUOUS
 62
3
 10
25.061016039217634
 20
109.813606769609120
 11
25.061016039217634
 21
41.313606769609123
  0
LINE
  8
0
  6
CONTINUOUS
 62
3
 10
23.061016039217634
 20
54.581555962040056
 11
23.061016039217634
 21
41.313606769609123
  0
ARC
  8
0
  6
CONTINUOUS
 62
3
 10
25.061016039217634
 20
41.313606769609123
 40
2.000000000000000
 50
180.000000000000000
 51
270.000000000000000
  0
LINE
  8
0
  6
CONTINUOUS
 62
3
 10
37.561016039217634
 20
39.313606769609123
 11
25.061016039217634
 21
39.313606769609123
  0
ARC
  8
0
  6
CONTINUOUS
 62
3
 10
25.061016039217634
 20
54.581555962040056
 40
2.000000000000164
 50
119.999999999997270
 51
180.000000000000000
  0
ARC
  8
0
  6
CONTINUOUS
 62
3
 10
23.061016039217634
 20
58.045657577178190
 40
2.000000000000164
 50
299.999999999997270
 51
0.000000000000000
  0
LINE
  8
0
  6
CONTINUOUS
 62
3
 10
2.561016039219453
 20
133.313606769609120
 11
2.561016039219453
 21
129.313606769609120
  0
LINE
  8
0
  6
CONTINUOUS
 62
3
 10
14.061016039223546
 20
112.813606769609120
 11
9.561016039222636
 21
112.813606769609120
  0
LINE
  8
0
  6
CONTINUOUS
 62
3
 10
14.061016039223546
 20
133.313606769608670
 11
14.061016039223546
 21
112.813606769609120
  0
LINE
  8
0
  6
CONTINUOUS
 62
3
 10
9.561016039222636
 20
133.313606769609120
 11
9.561016039222636
 21
112.813606769609120
  0
ARC
  8
0
  6
CONTINUOUS
 62
3
 10
22.061016039217634
 20
109.813606769609120
 40
3.000000000000000
 50
0.000000000000000
 51
90.000000000000000
  0
LINE
  8
0
  6
CONTINUOUS
 62
3
 10
22.061016039217634
 20
112.813606769609120
 11
17.061016039223546
 21
112.813606769609120
  0
ARC
  8
0
  6
CONTINUOUS
 62
3
 10
17.061016039223546
 20
115.813606769609120
 40
3.000000000000000
 50
180.000000000000000
 51
270.000000000000000
  0
ARC
  8
0
  6
CONTINUOUS
 62
3
 10
27.061016039217634
 20
41.313606769609123
 40
2.000000000000000
 50
180.000000000000000
 51
270.000000000000000
  0
LINE
  8
0
  6
CONTINUOUS
 62
3
 10
37.061016039217634
 20
133.313606769607760
 11
37.061016039217634
 21
39.313606769609123
  0
ARC
  8
0
  6
CONTINUOUS
 62
3
 10
118.561016039217630
 20
233.144017731334770
 40
2.999999999999993
 50
271.999999999999320
 51
0.000000000000000
  0
LINE
  8
0
  6
CONTINUOUS
 62
3
 10
37.561016039217634
 20
227.313606769607300
 11
118.665714529325100
 21
230.145845250277490
  0
ARC
  8
0
  6
CONTINUOUS
 62
3
 10
118.561016039217630
 20
33.483195807881657
 40
3.000000000000000
 50
0.000000000000000
 51
88.000000000000682
  0
LINE
  8
0
  6
CONTINUOUS
 62
3
 10
37.561016039217634
 20
39.313606769609123
 11
118.665714529325100
 21
36.481368288938938
  0
LINE
  8
0
  6
CONTINUOUS
 62
3
 10
37.561016039217634
 20
39.313606769609123
 11
37.561016039217634
 21
227.313606769607760
  0
ARC
  8
0
  6
CONTINUOUS
 62
4
 10
-119.122266666829030
 20
-166.686393230391790
 40
289.397000000000110
 50
180.000000000000000
 51
186.051985358668500
  0
ARC
  8
0
  6
CONTINUOUS
 62
4
 10
-391.595167592039560
 20
-195.574422955530050
 40
15.396999999999995
 50
186.051985358668870
 51
225.000000000000140
  0
LINE
  8
0
  6
CONTINUOUS
 62
4
 10
-397.906425309330300
 20
-211.037811458098080
 11
-402.482490701968910
 21
-206.461746065459470
  0
ARC
  8
0
  6
CONTINUOUS
 62
4
 10
-393.663784622211210
 20
-206.795170770978530
 40
6.000000000000049
 50
225.000000000003070
 51
262.102011327574360
  0
ARC
  8
0
  6
CONTINUOUS
 62
4
 10
-354.722266666828940
 20
73.913606769608123
 40
289.396999999999820
 50
262.102011327572200
 51
270.000000000000000
  0
ARC
  8
0
  6
CONTINUOUS
 62
4
 10
-590.322266666829020
 20
-166.686393230391790
 40
289.397000000000110
 50
353.948014641331500
 51
0.000000000000000
  0
ARC
  8
0
  6
CONTINUOUS
 62
4
 10
-317.849365741618560
 20
-195.574422955530050
 40
15.396999999999876
 50
315.000000000000000
 51
353.948014641331160
  0
LINE
  8
0
  6
CONTINUOUS
 62
4
 10
-311.538108024327760
 20
-211.037811458098080
 11
-306.962042631689140
 21
-206.461746065459470
  0
ARC
  8
0
  6
CONTINUOUS
 62
4
 10
-315.780748711446850
 20
-206.795170770978530
 40
5.999999999999923
 50
277.897988672425640
 51
314.999999999996870
  0
ARC
  8
0
  6
CONTINUOUS
 62
4
 10
-354.722266666829170
 20
73.913606769608123
 40
289.396999999999930
 50
270.000000000000000
 51
277.897988672427800
  0
ARC
  8
0
  6
CONTINUOUS
 62
4
 10
-590.322266666829020
 20
-166.686393230391790
 40
289.397000000000110
 50
0.000000000000000
 51
6.051985358668509
  0
ARC
  8
0
  6
CONTINUOUS
 62
4
 10
-317.849365741618560
 20
-137.798363505253520
 40
15.397000000000052
 50
6.051985358668849
 51
45.000000000000000
  0
LINE
  8
0
  6
CONTINUOUS
 62
4
 10
-311.538108024327760
 20
-122.334975002685490
 11
-306.962042631689140
 21
-126.911040395324100
  0
ARC
  8
0
  6
CONTINUOUS
 62
4
 10
-315.780748711446850
 20
-126.577615689805040
 40
6.000000000000049
 50
45.000000000003077
 51
82.102011327574374
  0
ARC
  8
0
  6
CONTINUOUS
 62
4
 10
-354.722266666829170
 20
-407.286393230391700
 40
289.396999999999820
 50
82.102011327572214
 51
90.000000000000000
  0
ARC
  8
0
  6
CONTINUOUS
 62
4
 10
-119.122266666829260
 20
-166.686393230391790
 40
289.396999999999880
 50
173.948014641331470
 51
180.000000000000000
  0
LINE
  8
0
  6
CONTINUOUS
 62
4
 10
-397.906425309330300
 20
-122.334975002685490
 11
-402.482490701968910
 21
-126.911040395324100
  0
ARC
  8
0
  6
CONTINUOUS
 62
4
 10
-391.595167592039560
 20
-137.798363505253520
 40
15.396999999999835
 50
134.999999999999860
 51
173.948014641331130
  0
ARC
  8
0
  6
CONTINUOUS
 62
3
 10
-317.849365741618560
 20
-195.574422955530050
 40
26.599999999999955
 50
315.000000000001020
 51
353.948014641331380
  0
LINE
  8
0
  6
CONTINUOUS
 62
3
 10
-306.106774480715500
 20
-221.449912453751490
 11
-299.040325362056080
 21
-214.383463335091850
  0
ARC
  8
0
  6
CONTINUOUS
 62
3
 10
-590.322266666829020
 20
-166.686393230391790
 40
300.600000000000020
 50
353.948014641331500
 51
6.051985358668500
  0
ARC
  8
0
  6
CONTINUOUS
 62
3
 10
-391.595167592039560
 20
-195.574422955530050
 40
26.599999999999913
 50
186.051985358668620
 51
224.999999999999060
  0
ARC
  8
0
  6
CONTINUOUS
 62
3
 10
-119.122266666829140
 20
-166.686393230391790
 40
300.599999999999910
 50
173.948014641331500
 51
186.051985358668500
  0
LINE
  8
0
  6
CONTINUOUS
 62
3
 10
-403.337758852942780
 20
-221.449912453751490
 11
-410.404207971601980
 21
-214.383463335091850
  0
ARC
  8
0
  6
CONTINUOUS
 62
3
 10
-391.595167592039560
 20
-137.798363505253520
 40
26.600000000000080
 50
134.999999999999890
 51
173.948014641331380
  0
LINE
  8
0
  6
CONTINUOUS
 62
3
 10
-403.337758852942780
 20
-111.922874007032300
 11
-410.404207971601750
 21
-118.989323125691270
  0
ARC
  8
0
  6
CONTINUOUS
 62
3
 10
-317.849365741618780
 20
-137.798363505253520
 40
26.600000000000193
 50
6.051985358668552
 51
45.000000000000000
  0
LINE
  8
0
  6
CONTINUOUS
 62
3
 10
-306.106774480715500
 20
-111.922874007032300
 11
-299.040325362056540
 21
-118.989323125691270
  0
ARC
  8
0
  6
CONTINUOUS
 62
3
 10
-398.670854097111600
 20
-216.783007697920310
 40
6.599999999999957
 50
225.000000000000000
 51
261.402917762751090
  0
ARC
  8
0
  6
CONTINUOUS
 62
3
 10
-354.722266666829170
 20
73.913606769608350
 40
300.600000000000020
 50
261.402917762750920
 51
270.000000000000000
  0
ARC
  8
0
  6
CONTINUOUS
 62
3
 10
-310.773679236546680
 20
-216.783007697920310
 40
6.599999999999747
 50
278.597082237248910
 51
315.000000000000000
  0
ARC
  8
0
  6
CONTINUOUS
 62
3
 10
-354.722266666829170
 20
-407.286393230391700
 40
300.599999999999800
 50
81.402917762750931
 51
90.000000000000000
  0
ARC
  8
0
  6
CONTINUOUS
 62
3
 10
-310.773679236546680
 20
-116.589778762863480
 40
6.600000000000118
 50
45.000000000001400
 51
81.402917762751386
  0
ARC
  8
0
  6
CONTINUOUS
 62
3
 10
-354.722266666829170
 20
73.913606769608350
 40
300.600000000000140
 50
270.000000000000000
 51
278.597082237249080
  0
ARC
  8
0
  6
CONTINUOUS
 62
3
 10
-354.722266666829170
 20
-407.286393230391700
 40
300.599999999999910
 50
90.000000000000000
 51
98.597082237249069
  0
ARC
  8
0
  6
CONTINUOUS
 62
3
 10
-350.722266666829170
 20
-125.379614125746230
 40
1.500000000000203
 50
84.468928475159132
 51
180.000000000000000
  0
ARC
  8
0
  6
CONTINUOUS
 62
3
 10
-358.722266666829170
 20
-125.379614125746000
 40
1.500000000000000
 50
0.000000000000000
 51
95.531071524841693
  0
ARC
  8
0
  6
CONTINUOUS
 62
3
 10
-354.722266666828940
 20
-166.686393230391330
 40
17.999999999999922
 50
41.837004155893325
 51
78.162995844107314
  0
ARC
  8
0
  6
CONTINUOUS
 62
3
 10
-354.722266666829400
 20
-166.686393230391330
 40
27.499999999999815
 50
97.928141766201691
 51
142.071858233797880
  0
LINE
  8
0
  6
CONTINUOUS
 62
3
 10
-352.222266666829170
 20
-125.379614125746230
 11
-352.222266666829170
 21
-128.394749233300220
  0
LINE
  8
0
  6
CONTINUOUS
 62
3
 10
-322.810730212678380
 20
-145.375507722385010
 11
-320.199546613694280
 21
-143.867940168607900
  0
LINE
  8
0
  6
CONTINUOUS
 62
3
 10
-352.222266666829170
 20
-134.937377497616810
 11
-352.222266666829170
 21
-137.963579997701340
  0
ARC
  8
0
  6
CONTINUOUS
 62
3
 10
-350.722266666829170
 20
-134.937377497616810
 40
1.499999999999998
 50
82.819244218541712
 51
180.000000000000000
  0
ARC
  8
0
  6
CONTINUOUS
 62
3
 10
-350.722266666829170
 20
-128.394749233300220
 40
1.500000000000000
 50
180.000000000000000
 51
264.036429881682580
  0
ARC
  8
0
  6
CONTINUOUS
 62
3
 10
-320.949546613694280
 20
-142.568902062931100
 40
1.500000000000123
 50
299.999999999997270
 51
35.531071524839192
  0
ARC
  8
0
  6
CONTINUOUS
 62
3
 10
-354.722266666829630
 20
-166.686393230391790
 40
42.999999999999908
 50
35.531071524839248
 51
84.468928475160212
  0
ARC
  8
0
  6
CONTINUOUS
 62
3
 10
-316.949546613693830
 20
-149.497105293207140
 40
1.500000000000034
 50
24.468928475159590
 51
119.999999999997270
  0
LINE
  8
0
  6
CONTINUOUS
 62
3
 10
-320.310730212678150
 20
-149.705634741307450
 11
-317.699546613693830
 21
-148.198067187530340
  0
ARC
  8
0
  6
CONTINUOUS
 62
3
 10
-319.560730212678150
 20
-151.004672846984250
 40
1.500000000000123
 50
119.999999999997270
 51
204.036429881680680
  0
ARC
  8
0
  6
CONTINUOUS
 62
3
 10
-354.722266666829400
 20
-166.686393230392240
 40
36.999999999999972
 50
335.963570118321740
 51
24.036429881678870
  0
ARC
  8
0
  6
CONTINUOUS
 62
3
 10
-354.722266666829400
 20
-166.686393230392240
 40
42.999999999999936
 50
335.531071524839770
 51
24.468928475160769
  0
ARC
  8
0
  6
CONTINUOUS
 62
3
 10
-316.949546613693830
 20
-183.875681167576660
 40
1.500000000000320
 50
240.000000000007050
 51
335.531071524832500
  0
LINE
  8
0
  6
CONTINUOUS
 62
3
 10
-317.699546613693830
 20
-185.174719273253690
 11
-320.310730212677920
 21
-183.667151719476350
  0
ARC
  8
0
  6
CONTINUOUS
 62
3
 10
-319.560730212677920
 20
-182.368113613799780
 40
1.500000000000063
 50
155.963570118322880
 51
239.999999999998410
  0
ARC
  8
0
  6
CONTINUOUS
 62
3
 10
-320.949546613693830
 20
-190.803884397852470
 40
1.499999999999844
 50
324.468928475167900
 51
59.999999999998380
  0
LINE
  8
0
  6
CONTINUOUS
 62
3
 10
-320.199546613693830
 20
-189.504846292175900
 11
-322.810730212677920
 21
-187.997278738398560
  0
LINE
  8
0
  6
CONTINUOUS
 62
3
 10
-357.222266666829170
 20
-125.379614125746000
 11
-357.222266666829170
 21
-128.394749233300220
  0
ARC
  8
0
  6
CONTINUOUS
 62
3
 10
-358.722266666829170
 20
-128.394749233300220
 40
1.499999999999933
 50
275.963570118318330
 51
0.000000000000000
  0
LINE
  8
0
  6
CONTINUOUS
 62
3
 10
-357.222266666829170
 20
-134.937377497616810
 11
-357.222266666829170
 21
-137.963579997701340
  0
ARC
  8
0
  6
CONTINUOUS
 62
3
 10
-358.722266666829170
 20
-134.937377497616810
 40
1.500000000000000
 50
0.000000000000000
 51
97.180755781458288
  0
ARC
  8
0
  6
CONTINUOUS
 62
3
 10
-354.722266666829630
 20
-166.686393230391330
 40
23.999999999999901
 50
100.240348321185670
 51
139.759651678813550
  0
ARC
  8
0
  6
CONTINUOUS
 62
3
 10
-371.897445935874150
 20
-152.151496702511390
 40
1.499999999999802
 50
139.759651678811420
 51
239.999999999998410
  0
LINE
  8
0
  6
CONTINUOUS
 62
3
 10
-370.000651342894970
 20
-154.978662378934130
 11
-372.647445935874150
 21
-153.450534808187970
  0
ARC
  8
0
  6
CONTINUOUS
 62
3
 10
-369.250651342894970
 20
-153.679624273257560
 40
1.499999999999926
 50
239.999999999998410
 51
318.162995844106720
  0
ARC
  8
0
  6
CONTINUOUS
 62
3
 10
-354.722266666829630
 20
-166.686393230391330
 40
17.999999999999829
 50
101.837004155891980
 51
138.162995844106210
  0
ARC
  8
0
  6
CONTINUOUS
 62
3
 10
-358.722266666829170
 20
-147.601058546399140
 40
1.499999999999954
 50
281.837004155896690
 51
0.000000000000000
  0
LINE
  8
0
  6
CONTINUOUS
 62
3
 10
-357.222266666829170
 20
-144.544803404906820
 11
-357.222266666829170
 21
-147.601058546399140
  0
ARC
  8
0
  6
CONTINUOUS
 62
3
 10
-358.722266666829170
 20
-144.544803404906820
 40
1.500000000000000
 50
0.000000000000000
 51
100.240348321194510
  0
ARC
  8
0
  6
CONTINUOUS
 62
3
 10
-354.722266666829630
 20
-166.686393230391330
 40
14.499999999999980
 50
107.920213139390830
 51
132.079786860607560
  0
ARC
  8
0
  6
CONTINUOUS
 62
3
 10
-363.434409309643740
 20
-157.037633176827060
 40
1.499999999999792
 50
132.079786860611680
 51
239.999999999998410
  0
LINE
  8
0
  6
CONTINUOUS
 62
3
 10
-361.409520600023090
 20
-159.938754025974500
 11
-364.184409309643740
 21
-158.336671282503630
  0
ARC
  8
0
  6
CONTINUOUS
 62
3
 10
-360.659520600023090
 20
-158.639715920297930
 40
1.499999999999926
 50
239.999999999998410
 51
306.421821521797600
  0
ARC
  8
0
  6
CONTINUOUS
 62
3
 10
-354.722266666829630
 20
-166.686393230391330
 40
8.499999999999879
 50
113.578178478199500
 51
126.421821521797340
  0
ARC
  8
0
  6
CONTINUOUS
 62
3
 10
-358.722266666829170
 20
-157.521241840479430
 40
1.500000000000139
 50
293.578178478195700
 51
0.000000000000000
  0
LINE
  8
0
  6
CONTINUOUS
 62
3
 10
-357.222266666829170
 20
-154.317076353538370
 11
-357.222266666829170
 21
-157.521241840479430
  0
ARC
  8
0
  6
CONTINUOUS
 62
3
 10
-358.722266666829170
 20
-154.317076353538370
 40
1.500000000000000
 50
0.000000000000000
 51
107.920213139394770
  0
ARC
  8
0
  6
CONTINUOUS
 62
3
 10
-354.722266666829170
 20
-166.686393230391790
 40
23.999999999999716
 50
280.240348321186270
 51
319.759651678814690
  0
ARC
  8
0
  6
CONTINUOUS
 62
3
 10
-350.722266666829170
 20
-188.827983055876300
 40
1.500000000000000
 50
180.000000000000000
 51
280.240348321187530
  0
LINE
  8
0
  6
CONTINUOUS
 62
3
 10
-352.222266666829170
 20
-185.771727914383970
 11
-352.222266666829170
 21
-188.827983055876300
  0
ARC
  8
0
  6
CONTINUOUS
 62
3
 10
-350.722266666829170
 20
-185.771727914383970
 40
1.499999999999731
 50
101.837004155898450
 51
180.000000000000000
  0
ARC
  8
0
  6
CONTINUOUS
 62
3
 10
-354.722266666829170
 20
-166.686393230391790
 40
18.000000000000146
 50
281.837004155893230
 51
318.162995844107680
  0
ARC
  8
0
  6
CONTINUOUS
 62
3
 10
-340.193881990763370
 20
-179.693162187525560
 40
1.499999999999926
 50
59.999999999998380
 51
138.162995844100240
  0
LINE
  8
0
  6
CONTINUOUS
 62
3
 10
-336.797087397784420
 20
-179.922251652595150
 11
-339.443881990763370
 21
-178.394124081848990
  0
ARC
  8
0
  6
CONTINUOUS
 62
3
 10
-337.547087397784420
 20
-181.221289758271720
 40
1.499999999999828
 50
319.759651678823670
 51
59.999999999998380
  0
ARC
  8
0
  6
CONTINUOUS
 62
3
 10
-354.722266666829170
 20
-166.686393230391790
 40
14.500000000000121
 50
287.920213139392560
 51
312.079786860608860
  0
ARC
  8
0
  6
CONTINUOUS
 62
3
 10
-350.722266666829170
 20
-179.055710107244520
 40
1.500000000000000
 50
180.000000000000000
 51
287.920213139392100
  0
LINE
  8
0
  6
CONTINUOUS
 62
3
 10
-352.222266666829170
 20
-175.851544620303230
 11
-352.222266666829170
 21
-179.055710107244520
  0
ARC
  8
0
  6
CONTINUOUS
 62
3
 10
-350.722266666829170
 20
-175.851544620303680
 40
1.500000000000139
 50
113.578178478195690
 51
179.999999999982630
  0
ARC
  8
0
  6
CONTINUOUS
 62
3
 10
-354.722266666829170
 20
-166.686393230391790
 40
8.500000000000060
 50
293.578178478202350
 51
306.421821521799190
  0
ARC
  8
0
  6
CONTINUOUS
 62
3
 10
-348.785012733635260
 20
-174.733070540485190
 40
1.499999999999926
 50
59.999999999998380
 51
126.421821521801260
  0
LINE
  8
0
  6
CONTINUOUS
 62
3
 10
-345.260124024014830
 20
-175.036115178279030
 11
-348.035012733635260
 21
-173.434032434808610
  0
ARC
  8
0
  6
CONTINUOUS
 62
3
 10
-346.010124024014830
 20
-176.335153283956060
 40
1.499999999999944
 50
312.079786860618130
 51
60.000000000007070
  0
ARC
  8
0
  6
CONTINUOUS
 62
3
 10
-354.722266666829170
 20
-166.686393230391790
 40
23.999999999999844
 50
220.240348321185340
 51
259.759651678813730
  0
ARC
  8
0
  6
CONTINUOUS
 62
3
 10
-358.722266666829170
 20
-188.827983055876300
 40
1.499999999999728
 50
259.759651678812470
 51
0.000000000000000
  0
LINE
  8
0
  6
CONTINUOUS
 62
3
 10
-357.222266666829170
 20
-185.771727914383970
 11
-357.222266666829170
 21
-188.827983055876300
  0
ARC
  8
0
  6
CONTINUOUS
 62
3
 10
-358.722266666829170
 20
-185.771727914383970
 40
1.500000000000000
 50
0.000000000000000
 51
78.162995844101530
  0
ARC
  8
0
  6
CONTINUOUS
 62
3
 10
-354.722266666829170
 20
-166.686393230391790
 40
17.999999999999940
 50
221.837004155892320
 51
258.162995844106770
  0
ARC
  8
0
  6
CONTINUOUS
 62
3
 10
-369.250651342894970
 20
-179.693162187525560
 40
1.500000000000118
 50
41.837004155899741
 51
120.000000000001620
  0
LINE
  8
0
  6
CONTINUOUS
 62
3
 10
-372.647445935873920
 20
-179.922251652595150
 11
-370.000651342894970
 21
-178.394124081848990
  0
ARC
  8
0
  6
CONTINUOUS
 62
3
 10
-371.897445935873920
 20
-181.221289758271720
 40
1.499999999999926
 50
120.000000000001620
 51
220.240348321176330
  0
ARC
  8
0
  6
CONTINUOUS
 62
3
 10
-354.722266666829170
 20
-166.686393230391790
 40
14.500000000000011
 50
227.920213139391080
 51
252.079786860607410
  0
ARC
  8
0
  6
CONTINUOUS
 62
3
 10
-358.722266666829170
 20
-179.055710107244520
 40
1.500000000000355
 50
252.079786860607900
 51
0.000000000000000
  0
LINE
  8
0
  6
CONTINUOUS
 62
3
 10
-357.222266666829170
 20
-175.851544620303230
 11
-357.222266666829170
 21
-179.055710107244520
  0
ARC
  8
0
  6
CONTINUOUS
 62
3
 10
-358.722266666829170
 20
-175.851544620303680
 40
1.500000000000000
 50
0.000000000017370
 51
66.421821521804304
  0
ARC
  8
0
  6
CONTINUOUS
 62
3
 10
-354.722266666829170
 20
-166.686393230391790
 40
8.499999999999870
 50
233.578178478199590
 51
246.421821521797680
  0
ARC
  8
0
  6
CONTINUOUS
 62
3
 10
-360.659520600023090
 20
-174.733070540485190
 40
1.500000000000059
 50
53.578178478205707
 51
120.000000000001620
  0
LINE
  8
0
  6
CONTINUOUS
 62
3
 10
-364.184409309643510
 20
-175.036115178279030
 11
-361.409520600023090
 21
-173.434032434808610
  0
ARC
  8
0
  6
CONTINUOUS
 62
3
 10
-363.434409309643510
 20
-176.335153283956060
 40
1.500000000000320
 50
119.999999999992930
 51
227.920213139381870
  0
ARC
  8
0
  6
CONTINUOUS
 62
3
 10
-354.722266666829630
 20
-166.686393230391330
 40
23.999999999999925
 50
160.240348321185910
 51
199.759651678814090
  0
ARC
  8
0
  6
CONTINUOUS
 62
3
 10
-375.897445935874150
 20
-159.079699932786750
 40
1.499999999999926
 50
59.999999999998380
 51
160.240348321185250
  0
LINE
  8
0
  6
CONTINUOUS
 62
3
 10
-372.500651342894970
 20
-159.308789397856340
 11
-375.147445935874150
 21
-157.780661827110180
  0
ARC
  8
0
  6
CONTINUOUS
 62
3
 10
-373.250651342894970
 20
-160.607827503532920
 40
1.500000000000038
 50
341.837004155895390
 51
59.999999999998380
  0
ARC
  8
0
  6
CONTINUOUS
 62
3
 10
-354.722266666829630
 20
-166.686393230391330
 40
17.999999999999726
 50
161.837004155893140
 51
198.162995844106860
  0
ARC
  8
0
  6
CONTINUOUS
 62
3
 10
-373.250651342894970
 20
-172.764958957249750
 40
1.500000000000320
 50
299.999999999992950
 51
18.162995844104589
  0
LINE
  8
0
  6
CONTINUOUS
 62
3
 10
-375.147445935873920
 20
-175.592124633672480
 11
-372.500651342894970
 21
-174.063997062926770
  0
ARC
  8
0
  6
CONTINUOUS
 62
3
 10
-375.897445935873920
 20
-174.293086527995910
 40
1.500000000000246
 50
199.759651678811820
 51
300.000000000001590
  0
ARC
  8
0
  6
CONTINUOUS
 62
3
 10
-354.722266666829630
 20
-166.686393230391330
 40
14.499999999999851
 50
167.920213139392840
 51
192.079786860608920
  0
ARC
  8
0
  6
CONTINUOUS
 62
3
 10
-367.434409309643740
 20
-163.965836407102420
 40
1.499999999999926
 50
59.999999999998380
 51
167.920213139405550
  0
LINE
  8
0
  6
CONTINUOUS
 62
3
 10
-363.909520600023090
 20
-164.268881044896720
 11
-366.684409309643740
 21
-162.666798301425840
  0
ARC
  8
0
  6
CONTINUOUS
 62
3
 10
-364.659520600023090
 20
-165.567919150573290
 40
1.499999999999873
 50
353.578178478198030
 51
59.999999999998380
  0
ARC
  8
0
  6
CONTINUOUS
 62
3
 10
-354.722266666829630
 20
-166.686393230391330
 40
8.499999999999813
 50
173.578178478202550
 51
186.421821521800500
  0
ARC
  8
0
  6
CONTINUOUS
 62
3
 10
-364.659520600023090
 20
-167.804867310209830
 40
1.499999999999926
 50
300.000000000001590
 51
6.421821521801967
  0
LINE
  8
0
  6
CONTINUOUS
 62
3
 10
-366.684409309643510
 20
-170.705988159356820
 11
-363.909520600023090
 21
-169.103905415886400
  0
ARC
  8
0
  6
CONTINUOUS
 62
3
 10
-367.434409309643510
 20
-169.406950053680250
 40
1.500000000000287
 50
192.079786860609600
 51
300.000000000001590
  0
ARC
  8
0
  6
CONTINUOUS
 62
3
 10
-354.722266666828940
 20
-166.686393230391330
 40
24.000000000000139
 50
340.240348321186050
 51
19.759651678813924
  0
ARC
  8
0
  6
CONTINUOUS
 62
3
 10
-333.547087397784420
 20
-159.079699932786750
 40
1.500000000000246
 50
19.759651678811824
 51
120.000000000001620
  0
LINE
  8
0
  6
CONTINUOUS
 62
3
 10
-336.943881990763370
 20
-159.308789397856340
 11
-334.297087397784420
 21
-157.780661827110180
  0
ARC
  8
0
  6
CONTINUOUS
 62
3
 10
-336.193881990763370
 20
-160.607827503532920
 40
1.499999999999926
 50
120.000000000001620
 51
198.162995844104590
  0
ARC
  8
0
  6
CONTINUOUS
 62
3
 10
-354.722266666828940
 20
-166.686393230391330
 40
17.999999999999943
 50
341.837004155893340
 51
18.162995844106646
  0
ARC
  8
0
  6
CONTINUOUS
 62
3
 10
-336.193881990763370
 20
-172.764958957249750
 40
1.500000000000038
 50
161.837004155895410
 51
240.000000000007050
  0
LINE
  8
0
  6
CONTINUOUS
 62
3
 10
-334.297087397784420
 20
-175.592124633672480
 11
-336.943881990763370
 21
-174.063997062926770
  0
ARC
  8
0
  6
CONTINUOUS
 62
3
 10
-333.547087397784420
 20
-174.293086527995910
 40
1.499999999999926
 50
239.999999999998410
 51
340.240348321188210
  0
ARC
  8
0
  6
CONTINUOUS
 62
3
 10
-354.722266666828940
 20
-166.686393230391330
 40
14.500000000000169
 50
347.920213139391310
 51
12.079786860606980
  0
ARC
  8
0
  6
CONTINUOUS
 62
3
 10
-342.010124024014830
 20
-163.965836407102420
 40
1.500000000000192
 50
12.079786860592611
 51
120.000000000001620
  0
LINE
  8
0
  6
CONTINUOUS
 62
3
 10
-345.535012733635260
 20
-164.268881044896720
 11
-342.760124024014830
 21
-162.666798301425840
  0
ARC
  8
0
  6
CONTINUOUS
 62
3
 10
-344.785012733635260
 20
-165.567919150573290
 40
1.499999999999926
 50
120.000000000001620
 51
186.421821521801010
  0
ARC
  8
0
  6
CONTINUOUS
 62
3
 10
-354.722266666828940
 20
-166.686393230391330
 40
8.499999999999865
 50
353.578178478199500
 51
6.421821521797448
  0
ARC
  8
0
  6
CONTINUOUS
 62
3
 10
-344.785012733635260
 20
-167.804867310209830
 40
1.500000000000099
 50
173.578178478198990
 51
239.999999999998410
  0
LINE
  8
0
  6
CONTINUOUS
 62
3
 10
-342.760124024014830
 20
-170.705988159356820
 11
-345.535012733635260
 21
-169.103905415886400
  0
ARC
  8
0
  6
CONTINUOUS
 62
3
 10
-342.010124024014830
 20
-169.406950053680250
 40
1.499999999999926
 50
239.999999999998410
 51
347.920213139390400
  0
ARC
  8
0
  6
CONTINUOUS
 62
3
 10
-354.722266666828940
 20
-166.686393230391330
 40
8.500000000000101
 50
53.578178478202659
 51
66.421821521799089
  0
ARC
  8
0
  6
CONTINUOUS
 62
3
 10
-354.722266666828940
 20
-166.686393230391330
 40
23.999999999999819
 50
40.240348321186090
 51
79.759651678814322
  0
LINE
  8
0
  6
CONTINUOUS
 62
3
 10
-348.035012733635260
 20
-159.938754025974500
 11
-345.260124024014830
 21
-158.336671282503630
  0
LINE
  8
0
  6
CONTINUOUS
 62
3
 10
-352.222266666829170
 20
-144.544803404906820
 11
-352.222266666829170
 21
-147.601058546399140
  0
LINE
  8
0
  6
CONTINUOUS
 62
3
 10
-352.222266666829170
 20
-154.317076353538370
 11
-352.222266666829170
 21
-157.521241840479430
  0
ARC
  8
0
  6
CONTINUOUS
 62
3
 10
-354.722266666828940
 20
-166.686393230391330
 40
14.499999999999860
 50
47.920213139391755
 51
72.079786860608309
  0
LINE
  8
0
  6
CONTINUOUS
 62
3
 10
-339.443881990763370
 20
-154.978662378934130
 11
-336.797087397784420
 21
-153.450534808187970
  0
ARC
  8
0
  6
CONTINUOUS
 62
3
 10
-346.010124024014830
 20
-157.037633176827060
 40
1.499999999999926
 50
300.000000000001590
 51
47.920213139381872
  0
ARC
  8
0
  6
CONTINUOUS
 62
3
 10
-350.722266666829170
 20
-144.544803404906820
 40
1.499999999999952
 50
79.759651678814024
 51
180.000000000000000
  0
ARC
  8
0
  6
CONTINUOUS
 62
3
 10
-340.193881990763370
 20
-153.679624273257560
 40
1.499999999999967
 50
221.837004155893280
 51
300.000000000001590
  0
ARC
  8
0
  6
CONTINUOUS
 62
3
 10
-350.722266666829170
 20
-147.601058546399140
 40
1.500000000000000
 50
180.000000000000000
 51
258.162995844103310
  0
ARC
  8
0
  6
CONTINUOUS
 62
3
 10
-350.722266666829170
 20
-154.317076353538370
 40
1.500000000000138
 50
72.079786860605225
 51
180.000000000000000
  0
ARC
  8
0
  6
CONTINUOUS
 62
3
 10
-337.547087397784420
 20
-152.151496702511390
 40
1.499999999999926
 50
300.000000000001590
 51
40.240348321182964
  0
ARC
  8
0
  6
CONTINUOUS
 62
3
 10
-350.722266666829170
 20
-157.521241840479430
 40
1.500000000000000
 50
180.000000000000000
 51
246.421821521804280
  0
ARC
  8
0
  6
CONTINUOUS
 62
3
 10
-348.785012733635260
 20
-158.639715920297930
 40
1.499999999999693
 50
233.578178478195410
 51
300.000000000001590
  0
CIRCLE
  8
0
  6
CONTINUOUS
 62
3
 10
-354.722266666829170
 20
-166.686393230391330
 40
5.000000000000000
  0
ARC
  8
0
  6
CONTINUOUS
 62
3
 10
-331.847580739163450
 20
-148.860884998908660
 40
1.499999999999843
 50
217.928141766204990
 51
300.000000000001590
  0
LINE
  8
0
  6
CONTINUOUS
 62
3
 10
-331.097580739163450
 20
-150.159923104585230
 11
-328.476812497094610
 21
-148.646821854543080
  0
ARC
  8
0
  6
CONTINUOUS
 62
3
 10
-350.722266666829170
 20
-137.963579997701340
 40
1.500000000000000
 50
180.000000000000000
 51
262.071858233795980
  0
ARC
  8
0
  6
CONTINUOUS
 62
3
 10
-354.722266666828940
 20
-166.686393230391330
 40
27.500000000000060
 50
37.928141766201819
 51
82.071858233798309
  0
ARC
  8
0
  6
CONTINUOUS
 62
3
 10
-329.226812497094610
 20
-147.347783748866500
 40
1.499999999999926
 50
300.000000000001590
 51
37.180755781457485
  0
ARC
  8
0
  6
CONTINUOUS
 62
3
 10
-323.560730212678380
 20
-144.076469616708210
 40
1.500000000000102
 50
215.963570118316280
 51
299.999999999997270
  0
ARC
  8
0
  6
CONTINUOUS
 62
3
 10
-354.722266666829630
 20
-166.686393230391790
 40
36.999999999999943
 50
35.963570118321194
 51
84.036429881678174
  0
ARC
  8
0
  6
CONTINUOUS
 62
3
 10
-354.722266666829630
 20
-166.686393230391790
 40
33.500000000000071
 50
37.180755781458259
 51
82.819244218540931
  0
LINE
  8
0
  6
CONTINUOUS
 62
3
 10
-328.597580739163220
 20
-154.490050123507900
 11
-325.976812497094390
 21
-152.976948873465740
  0
ARC
  8
0
  6
CONTINUOUS
 62
3
 10
-325.226812497094390
 20
-154.275986979142540
 40
1.499999999999948
 50
22.819244218550043
 51
119.999999999997270
  0
ARC
  8
0
  6
CONTINUOUS
 62
3
 10
-327.847580739163220
 20
-155.789088229184470
 40
1.499999999999926
 50
120.000000000001620
 51
202.071858233797370
  0
ARC
  8
0
  6
CONTINUOUS
 62
3
 10
-354.722266666828720
 20
-166.686393230391790
 40
27.499999999999886
 50
337.928141766202200
 51
22.071858233797812
  0
ARC
  8
0
  6
CONTINUOUS
 62
3
 10
-354.722266666829400
 20
-166.686393230392240
 40
33.500000000000128
 50
337.180755781459030
 51
22.819244218541968
  0
ARC
  8
0
  6
CONTINUOUS
 62
3
 10
-327.847580739163450
 20
-177.583698231599100
 40
1.499999999999899
 50
157.928141766199360
 51
240.000000000007050
  0
LINE
  8
0
  6
CONTINUOUS
 62
3
 10
-325.976812497094160
 20
-180.395837587318060
 11
-328.597580739163450
 21
-178.882736337276130
  0
ARC
  8
0
  6
CONTINUOUS
 62
3
 10
-325.226812497094160
 20
-179.096799481641480
 40
1.499999999999926
 50
239.999999999998410
 51
337.180755781453340
  0
ARC
  8
0
  6
CONTINUOUS
 62
3
 10
-350.722266666828940
 20
-207.993172335036890
 40
1.500000000000000
 50
180.000000000000000
 51
275.531071524831360
  0
LINE
  8
0
  6
CONTINUOUS
 62
3
 10
-352.222266666828940
 20
-204.978037227482670
 11
-352.222266666828940
 21
-207.993172335036890
  0
LINE
  8
0
  6
CONTINUOUS
 62
3
 10
-352.222266666828940
 20
-195.409206463082230
 11
-352.222266666828940
 21
-198.435408963166540
  0
ARC
  8
0
  6
CONTINUOUS
 62
3
 10
-350.722266666828940
 20
-204.978037227483130
 40
1.500000000000182
 50
95.963570118326047
 51
179.999999999982630
  0
ARC
  8
0
  6
CONTINUOUS
 62
3
 10
-350.722266666828940
 20
-198.435408963166540
 40
1.500000000000000
 50
180.000000000000000
 51
277.180755781458290
  0
ARC
  8
0
  6
CONTINUOUS
 62
3
 10
-350.722266666828940
 20
-195.409206463082230
 40
1.499999999999967
 50
97.928141766195438
 51
180.000000000000000
  0
ARC
  8
0
  6
CONTINUOUS
 62
3
 10
-354.722266666828940
 20
-166.686393230392240
 40
27.499999999999879
 50
277.928141766202600
 51
322.071858233798930
  0
ARC
  8
0
  6
CONTINUOUS
 62
3
 10
-354.722266666828940
 20
-166.686393230391330
 40
37.000000000000028
 50
275.963570118320770
 51
324.036429881678030
  0
ARC
  8
0
  6
CONTINUOUS
 62
3
 10
-354.722266666828940
 20
-166.686393230391330
 40
43.000000000000199
 50
275.531071524838860
 51
324.468928475160340
  0
ARC
  8
0
  6
CONTINUOUS
 62
3
 10
-354.722266666828940
 20
-166.686393230391330
 40
33.500000000000114
 50
277.180755781458230
 51
322.819244218540860
  0
ARC
  8
0
  6
CONTINUOUS
 62
3
 10
-331.847580739163450
 20
-184.511901461874910
 40
1.500000000000320
 50
60.000000000007070
 51
142.071858233781280
  0
ARC
  8
0
  6
CONTINUOUS
 62
3
 10
-323.560730212677920
 20
-189.296316844075140
 40
1.499999999999926
 50
59.999999999998380
 51
144.036429881690740
  0
LINE
  8
0
  6
CONTINUOUS
 62
3
 10
-328.476812497094160
 20
-184.725964606240270
 11
-331.097580739163450
 21
-183.212863356197890
  0
ARC
  8
0
  6
CONTINUOUS
 62
3
 10
-329.226812497094160
 20
-186.025002711916840
 40
1.500000000000240
 50
322.819244218535570
 51
59.999999999998380
  0
ARC
  8
0
  6
CONTINUOUS
 62
3
 10
-358.722266666829400
 20
-207.993172335036890
 40
1.500000000000430
 50
264.468928475160000
 51
0.000000000000000
  0
LINE
  8
0
  6
CONTINUOUS
 62
3
 10
-357.222266666829400
 20
-204.978037227482670
 11
-357.222266666829400
 21
-207.993172335036890
  0
LINE
  8
0
  6
CONTINUOUS
 62
3
 10
-357.222266666829400
 20
-195.409206463082230
 11
-357.222266666829400
 21
-198.435408963166540
  0
ARC
  8
0
  6
CONTINUOUS
 62
3
 10
-358.722266666829400
 20
-204.978037227483130
 40
1.500000000000000
 50
0.000000000017370
 51
84.036429881682594
  0
ARC
  8
0
  6
CONTINUOUS
 62
3
 10
-358.722266666829400
 20
-198.435408963166540
 40
1.499999999999998
 50
262.819244218541710
 51
0.000000000000000
  0
ARC
  8
0
  6
CONTINUOUS
 62
3
 10
-358.722266666829400
 20
-195.409206463082230
 40
1.500000000000000
 50
0.000000000000000
 51
82.071858233804562
  0
ARC
  8
0
  6
CONTINUOUS
 62
3
 10
-354.722266666829400
 20
-166.686393230392240
 40
27.499999999999780
 50
217.928141766201070
 51
262.071858233797400
  0
ARC
  8
0
  6
CONTINUOUS
 62
3
 10
-354.722266666829400
 20
-166.686393230391330
 40
37.000000000000021
 50
215.963570118321970
 51
264.036429881678940
  0
ARC
  8
0
  6
CONTINUOUS
 62
3
 10
-354.722266666829400
 20
-166.686393230391330
 40
42.999999999999858
 50
215.531071524839690
 51
264.468928475160850
  0
ARC
  8
0
  6
CONTINUOUS
 62
3
 10
-354.722266666829400
 20
-166.686393230391330
 40
33.500000000000163
 50
217.180755781459110
 51
262.819244218541770
  0
ARC
  8
0
  6
CONTINUOUS
 62
3
 10
-377.596952594494890
 20
-184.511901461874910
 40
1.500000000000122
 50
37.928141766218701
 51
119.999999999992930
  0
ARC
  8
0
  6
CONTINUOUS
 62
3
 10
-388.494986719964520
 20
-190.803884397852470
 40
1.499999999999926
 50
120.000000000001620
 51
215.531071524832130
  0
LINE
  8
0
  6
CONTINUOUS
 62
3
 10
-389.244986719964520
 20
-189.504846292175900
 11
-386.633803120980420
 21
-187.997278738398560
  0
ARC
  8
0
  6
CONTINUOUS
 62
3
 10
-385.883803120980420
 20
-189.296316844075140
 40
1.499999999999968
 50
35.963570118309242
 51
120.000000000001620
  0
LINE
  8
0
  6
CONTINUOUS
 62
3
 10
-380.967720836564180
 20
-184.725964606240270
 11
-378.346952594494890
 21
-183.212863356197890
  0
ARC
  8
0
  6
CONTINUOUS
 62
3
 10
-380.217720836564180
 20
-186.025002711916840
 40
1.499999999999926
 50
120.000000000001620
 51
217.180755781464400
  0
ARC
  8
0
  6
CONTINUOUS
 62
3
 10
-392.494986719964520
 20
-149.497105293207140
 40
1.499999999999926
 50
59.999999999998380
 51
155.531071524839520
  0
LINE
  8
0
  6
CONTINUOUS
 62
3
 10
-389.133803120979960
 20
-149.705634741307680
 11
-391.744986719964520
 21
-148.198067187530570
  0
LINE
  8
0
  6
CONTINUOUS
 62
3
 10
-380.846952594495120
 20
-154.490050123507900
 11
-383.467720836563960
 21
-152.976948873465740
  0
ARC
  8
0
  6
CONTINUOUS
 62
3
 10
-389.883803120980190
 20
-151.004672846984250
 40
1.499999999999855
 50
335.963570118319300
 51
59.999999999990862
  0
ARC
  8
0
  6
CONTINUOUS
 62
3
 10
-384.217720836563960
 20
-154.275986979142540
 40
1.500000000000123
 50
60.000000000002721
 51
157.180755781457980
  0
ARC
  8
0
  6
CONTINUOUS
 62
3
 10
-381.596952594495120
 20
-155.789088229184470
 40
1.500000000000110
 50
337.928141766202600
 51
59.999999999998380
  0
ARC
  8
0
  6
CONTINUOUS
 62
3
 10
-354.722266666829630
 20
-166.686393230391790
 40
27.499999999999886
 50
157.928141766202200
 51
202.071858233798680
  0
ARC
  8
0
  6
CONTINUOUS
 62
3
 10
-354.722266666828940
 20
-166.686393230392240
 40
37.000000000000156
 50
155.963570118321120
 51
204.036429881678230
  0
ARC
  8
0
  6
CONTINUOUS
 62
3
 10
-354.722266666828940
 20
-166.686393230392240
 40
43.000000000000071
 50
155.531071524839210
 51
204.468928475160250
  0
ARC
  8
0
  6
CONTINUOUS
 62
3
 10
-354.722266666828940
 20
-166.686393230392240
 40
33.499999999999794
 50
157.180755781458400
 51
202.819244218540940
  0
ARC
  8
0
  6
CONTINUOUS
 62
3
 10
-381.596952594494890
 20
-177.583698231599100
 40
1.500000000000320
 50
299.999999999992950
 51
22.071858233784546
  0
ARC
  8
0
  6
CONTINUOUS
 62
3
 10
-392.494986719964520
 20
-183.875681167576660
 40
1.500000000000076
 50
204.468928475168380
 51
299.999999999992950
  0
LINE
  8
0
  6
CONTINUOUS
 62
3
 10
-391.744986719964520
 20
-185.174719273253690
 11
-389.133803120980420
 21
-183.667151719476350
  0
ARC
  8
0
  6
CONTINUOUS
 62
3
 10
-389.883803120980420
 20
-182.368113613799780
 40
1.499999999999926
 50
300.000000000001590
 51
24.036429881677126
  0
LINE
  8
0
  6
CONTINUOUS
 62
3
 10
-383.467720836564180
 20
-180.395837587318060
 11
-380.846952594494890
 21
-178.882736337276130
  0
ARC
  8
0
  6
CONTINUOUS
 62
3
 10
-384.217720836564180
 20
-179.096799481641480
 40
1.500000000000157
 50
202.819244218546660
 51
300.000000000001590
  0
ARC
  8
0
  6
CONTINUOUS
 62
3
 10
-388.494986719964060
 20
-142.568902062931100
 40
1.499999999999976
 50
144.468928475160790
 51
240.000000000002730
  0
LINE
  8
0
  6
CONTINUOUS
 62
3
 10
-386.633803120979960
 20
-145.375507722385010
 11
-389.244986719964060
 21
-143.867940168607900
  0
LINE
  8
0
  6
CONTINUOUS
 62
3
 10
-378.346952594494890
 20
-150.159923104585230
 11
-380.967720836563730
 21
-148.646821854543080
  0
ARC
  8
0
  6
CONTINUOUS
 62
3
 10
-385.883803120979960
 20
-144.076469616708210
 40
1.500000000000123
 50
240.000000000002730
 51
324.036429881683720
  0
ARC
  8
0
  6
CONTINUOUS
 62
3
 10
-380.217720836563730
 20
-147.347783748866500
 40
1.500000000000103
 50
142.819244218542510
 51
239.999999999998410
  0
ARC
  8
0
  6
CONTINUOUS
 62
3
 10
-377.596952594494890
 20
-148.860884998908660
 40
1.499999999999926
 50
239.999999999998410
 51
322.071858233800300
  0
ARC
  8
0
  6
CONTINUOUS
 62
3
 10
-354.722266666828720
 20
-166.686393230391790
 40
37.000000000000099
 50
95.963570118321798
 51
144.036429881678830
  0
ARC
  8
0
  6
CONTINUOUS
 62
3
 10
-354.722266666828720
 20
-166.686393230391790
 40
43.000000000000043
 50
95.531071524839788
 51
144.468928475160770
  0
ARC
  8
0
  6
CONTINUOUS
 62
3
 10
-354.722266666828720
 20
-166.686393230391790
 40
33.499999999999950
 50
97.180755781459069
 51
142.819244218541740
  0
ARC
  8
0
  6
CONTINUOUS
 62
3
 10
-358.722266666829170
 20
-137.963579997701340
 40
1.499999999999998
 50
277.928141766204020
 51
0.000000000000000
  0
ARC
  8
0
  6
CONTINUOUS
 62
3
 10
-398.670854097111600
 20
-116.589778762863480
 40
6.599999999999971
 50
98.597082237248614
 51
134.999999999998610
  0
ARC
  8
0
  6
CONTINUOUS
 62
4
 10
-393.663784622211210
 20
-126.577615689805040
 40
5.999999999999923
 50
97.897988672425626
 51
134.999999999996930
  0
ARC
  8
0
  6
CONTINUOUS
 62
4
 10
-354.722266666829170
 20
-407.286393230391700
 40
289.396999999999930
 50
90.000000000000000
 51
97.897988672427729
  0
LINE
  8
0
  6
CONTINUOUS
 62
3
 10
-291.222266666829170
 20
-199.291136916668510
 11
-288.196089718521250
 21
-199.211893684445670
  0
ARC
  8
0
  6
CONTINUOUS
 62
3
 10
-288.222266666829170
 20
-198.212236359470130
 40
0.999999999999988
 50
271.500000000002730
 51
0.000000000000000
  0
ARC
  8
0
  6
CONTINUOUS
 62
3
 10
-288.222266666829170
 20
-135.160550101313450
 40
1.000000000000000
 50
0.000000000000000
 51
88.499999999997257
  0
LINE
  8
0
  6
CONTINUOUS
 62
3
 10
-287.222266666829170
 20
-198.212236359470130
 11
-287.222266666829170
 21
-135.160550101313450
  0
LINE
  8
0
  6
CONTINUOUS
 62
3
 10
-291.222266666829170
 20
-134.081649544115070
 11
-288.196089718521250
 21
-134.160892776337900
  0
LINE
  8
0
  6
CONTINUOUS
 62
3
 10
-291.222266666829170
 20
-136.693894168124980
 11
-291.222266666829170
 21
-134.081649544115070
  0
LINE
  8
0
  6
CONTINUOUS
 62
3
 10
-291.222266666829170
 20
-196.678892292658590
 11
-291.222266666829170
 21
-199.291136916668510
  0
LINE
  8
0
  6
CONTINUOUS
 62
3
 10
-287.222266666829170
 20
-166.686393230391790
 11
-287.222266666829170
 21
-135.686393230391790
  0
LINE
  8
0
  6
CONTINUOUS
 62
3
 10
-287.222266666829170
 20
-166.686393230391790
 11
-287.222266666829170
 21
-197.686393230391790
  0
ARC
  8
0
  6
CONTINUOUS
 62
3
 10
-281.952166682613720
 20
-125.110067690504360
 40
1.000000000000041
 50
24.000000000003585
 51
113.999999999979760
  0
LINE
  8
0
  6
CONTINUOUS
 62
4
 10
-241.294325637209060
 20
-223.313135165643190
 11
-245.131216559308030
 21
-225.021429066561500
  0
LINE
  8
0
  6
CONTINUOUS
 62
4
 10
-242.636556559359580
 20
-220.298435155422570
 11
-246.473447481458320
 21
-222.006729056340870
  0
LINE
  8
0
  6
CONTINUOUS
 62
3
 10
-246.296064396359900
 20
-221.544630321089470
 11
-246.473447481458320
 21
-222.006729056340870
  0
LINE
  8
0
  6
CONTINUOUS
 62
3
 10
-244.669117824056850
 20
-225.198812151659470
 11
-245.131216559308260
 21
-225.021429066561040
  0
LINE
  8
0
  6
CONTINUOUS
 62
3
 10
-246.473447481458320
 20
-222.006729056340870
 11
-245.131216559308260
 21
-225.021429066561040
  0
POINT
  8
0
  6
CONTINUOUS
 62
3
 10
-238.493968359242390
 20
-220.260185916844650
  0
LINE
  8
0
  6
CONTINUOUS
 62
3
 10
-239.917546610007950
 20
-217.062776815095500
 11
-237.070390108477060
 21
-223.457595018593790
  0
LINE
  8
0
  6
CONTINUOUS
 62
3
 10
-239.917546610007950
 20
-217.062776815095500
 11
-237.070390108477060
 21
-223.457595018593790
  0
LINE
  8
0
  6
CONTINUOUS
 62
3
 10
-237.070390108477060
 20
-223.457595018593790
 11
-236.176005988800570
 21
-223.059389552829320
  0
LINE
  8
0
  6
CONTINUOUS
 62
3
 10
-239.917546610007950
 20
-217.062776815095500
 11
-239.023162490331460
 21
-216.664571349331250
  0
ARC
  8
0
  6
CONTINUOUS
 62
3
 10
-238.494405164648410
 20
-217.852179747286750
 40
1.299999237060495
 50
40.601531107483851
 51
114.000000683246080
  0
LINE
  8
0
  6
CONTINUOUS
 62
3
 10
-284.162837667676460
 20
-127.028880702670670
 11
-284.587669827422530
 21
-128.029722551286110
  0
LINE
  8
0
  6
CONTINUOUS
 62
3
 10
-283.717923922466470
 20
-128.028173335628030
 11
-283.851265944660500
 21
-128.342307454077400
  0
LINE
  8
0
  6
CONTINUOUS
 62
3
 10
-284.587669827422530
 20
-128.029722551286110
 11
-283.851265944660500
 21
-128.342307454077400
  0
LINE
  8
0
  6
CONTINUOUS
 62
3
 10
-281.038621224971110
 20
-124.703331047428490
 11
-262.346557644022310
 21
-166.686393230391790
  0
ARC
  8
0
  6
CONTINUOUS
 62
3
 10
-276.515705403175790
 20
-127.486186301730860
 40
3.000000000000030
 50
203.999999999999630
 51
260.681876880317470
  0
LINE
  8
0
  6
CONTINUOUS
 62
3
 10
-277.001453293614470
 20
-130.446599953053010
 11
-251.045816200078380
 21
-134.705429106046040
  0
ARC
  8
0
  6
CONTINUOUS
 62
3
 10
-253.474555652270000
 20
-149.507497362656980
 40
15.000000000000393
 50
1.682768801133086
 51
80.681876880324481
  0
ARC
  8
0
  6
CONTINUOUS
 62
3
 10
-838.222266666829110
 20
-166.686393230392010
 40
600.000000000000910
 50
355.284875165908370
 51
1.682768801133149
  0
ARC
  8
0
  6
CONTINUOUS
 62
3
 10
-239.256217674517470
 20
-216.089552588278370
 40
0.999999999999983
 50
175.284875165916760
 51
204.000000000003580
  0
LINE
  8
0
  6
CONTINUOUS
 62
3
 10
-282.358903325689140
 20
-124.196522232861750
 11
-284.916830607088460
 21
-125.335384833473880
  0
LINE
  8
0
  6
CONTINUOUS
 62
3
 10
-282.639105405868750
 20
-130.451239396274790
 11
-284.442476596055430
 21
-131.254151980404910
  0
ARC
  8
0
  6
CONTINUOUS
 62
3
 10
-283.222266666829170
 20
-133.994788353332750
 40
2.999999999999567
 50
113.999999999979760
 51
180.000000000000000
  0
LINE
  8
0
  6
CONTINUOUS
 62
3
 10
-287.222266666829170
 20
-135.686393230391790
 11
-286.222266666829170
 21
-135.686393230391790
  0
ARC
  8
0
  6
CONTINUOUS
 62
3
 10
-281.222266666829170
 20
-208.186393230391790
 40
5.000000000000000
 50
180.000000000000000
 51
270.000000000000000
  0
LINE
  8
0
  6
CONTINUOUS
 62
3
 10
-281.222266666829170
 20
-213.186393230391790
 11
-245.803041635500390
 21
-213.186393230391790
  0
LINE
  8
0
  6
CONTINUOUS
 62
3
 10
-236.641704643968920
 20
-226.879031671890060
 11
-239.199631925368690
 21
-228.017894272502190
  0
ARC
  8
0
  6
CONTINUOUS
 62
3
 10
-237.048441287045250
 20
-225.965486214247450
 40
1.000000000000226
 50
294.000000000027340
 51
23.999999999991683
  0
LINE
  8
0
  6
CONTINUOUS
 62
3
 10
-262.346557644025490
 20
-166.686393230391790
 11
-236.134895829402640
 21
-225.558749571171800
  0
ARC
  8
0
  6
CONTINUOUS
 62
3
 10
-240.427579403130660
 20
-213.458631070270480
 40
0.999999999999856
 50
113.999999999979760
 51
204.000000000003580
  0
ARC
  8
0
  6
CONTINUOUS
 62
3
 10
-241.852253070410090
 20
-210.809027818628920
 40
2.000000000000451
 50
294.000000000027340
 51
355.768661925113970
  0
LINE
  8
0
  6
CONTINUOUS
 62
3
 10
-242.778914384436060
 20
-219.978694245247650
 11
-246.296064396359900
 21
-221.544630321089470
  0
LINE
  8
0
  6
CONTINUOUS
 62
3
 10
-241.151967812132800
 20
-223.632876075817650
 11
-244.669117824056850
 21
-225.198812151659470
  0
LINE
  8
0
  6
CONTINUOUS
 62
3
 10
-287.222266666829170
 20
-197.686393230391790
 11
-286.222266666829170
 21
-197.686393230391790
  0
LINE
  8
0
  6
CONTINUOUS
 62
3
 10
-286.222266666829170
 20
-133.994788353332750
 11
-286.222266666829170
 21
-208.186393230391790
  0
ARC
  8
0
  6
CONTINUOUS
 62
3
 10
-838.222266666829110
 20
-166.686393230392010
 40
600.799999999999950
 50
357.158610984636650
 51
0.587807867706885
  0
ARC
  8
0
  6
CONTINUOUS
 62
3
 10
-239.159667438044550
 20
-196.419240474685690
 40
1.000000000000147
 50
303.952126946381380
 51
357.158610984632960
  0
ARC
  8
0
  6
CONTINUOUS
 62
3
 10
-238.042667413432070
 20
-198.078249499680850
 40
0.999999999999769
 50
123.952126946395960
 51
177.005923909151190
  0
ARC
  8
0
  6
CONTINUOUS
 62
3
 10
-237.272458997278990
 20
-158.919240474685690
 40
0.999999999999967
 50
180.740494943192910
 51
233.794291905968890
  0
ARC
  8
0
  6
CONTINUOUS
 62
3
 10
-238.453831113555400
 20
-160.533043412743840
 40
1.000000000000077
 50
0.587807867721716
 51
53.794291905958382
  0
LINE
  8
0
  6
CONTINUOUS
 62
3
 10
-284.916830607093690
 20
-125.335384833476150
 11
-239.199631925368690
 21
-228.017894272502190
  0
LINE
  8
0
  6
DASHDOT
 62
4
 10
-262.222266666829170
 20
-198.803869450686080
 11
-262.222266666829170
 21
-221.672378626449700
  0
ARC
  8
0
  6
CONTINUOUS
 62
3
 10
-236.704763314483840
 20
-221.871781154873820
 40
1.299999237060559
 50
293.999982013920090
 51
7.398451589679256
  0
ARC
  8
0
  6
CONTINUOUS
 62
3
 10
-244.340658939665160
 20
-222.863300277372450
 40
9.000000000000234
 50
7.398451589678908
 51
40.601531107483503
  0
ARC
  8
0
  6
DASHDOT
 62
4
 10
-354.722266666829170
 20
-136.686393230391790
 40
139.999999999999860
 50
128.145887032109410
 51
142.133832766859290
  0
LINE
  8
0
  6
DASHDOT
 62
4
 10
-442.161046881905410
 20
-49.247613015315508
 11
-463.722334717344040
 21
-27.686325179876853
  0
ARC
  8
0
  6
DASHDOT
 62
4
 10
-354.722266666829170
 20
-136.686393230391790
 40
139.999999999999860
 50
218.461942160588510
 51
231.599098592510870
  0
LINE
  8
0
  6
DASHDOT
 62
4
 10
-442.789304204626720
 20
-224.753430768189360
 11
-463.517562187558330
 21
-245.481688751121000
  0
ARC
  8
0
  6
DASHDOT
 62
4
 10
-354.722266666829170
 20
-136.686393230391790
 40
140.000000000000000
 50
308.001346510124220
 51
320.892807432408010
  0
LINE
  8
0
  6
DASHDOT
 62
4
 10
-267.433363575117260
 20
-223.975296322103500
 11
-245.549990165023670
 21
-245.858669732197060
  0
ARC
  8
0
  6
DASHDOT
 62
4
 10
-354.722266666829170
 20
-136.686393230391790
 40
140.000000000000000
 50
38.555342652054932
 51
51.595829349591064
  0
LINE
  8
0
  6
DASHDOT
 62
4
 10
-266.631120346376920
 20
-48.595246909939796
 11
-245.871167948401730
 21
-27.835294511964577
  0
ARC
  8
0
  6
CONTINUOUS
 62
3
 10
-370.222266666829170
 20
-80.686393230401393
 40
5.000000000000000
 50
180.000000000000000
 51
270.000000000000000
  0
ARC
  8
0
  6
CONTINUOUS
 62
3
 10
-339.222266666829400
 20
-80.686393230401336
 40
5.000000000000000
 50
270.000000000000000
 51
0.000000000000000
  0
LINE
  8
0
  6
CONTINUOUS
 62
3
 10
-339.222266666829400
 20
-85.686393230401336
 11
-370.222266666829170
 21
-85.686393230401336
  0
CIRCLE
  8
0
  6
CONTINUOUS
 62
3
 10
-304.722266666829170
 20
-85.686393230391786
 40
5.633955001831055
  0
CIRCLE
  8
0
  6
CONTINUOUS
 62
3
 10
-304.722266666829170
 20
-85.686393230391786
 40
6.500000000000000
  0
LINE
  8
0
  6
CONTINUOUS
 62
3
 10
-307.722263328970200
 20
-87.418439229943033
 11
-307.722264282644520
 21
-83.954341253258463
  0
LINE
  8
0
  6
CONTINUOUS
 62
3
 10
-301.722270004688370
 20
-83.954346277166223
 11
-301.722269051014280
 21
-87.418444253850794
  0
LINE
  8
0
  6
CONTINUOUS
 62
3
 10
-304.722259965108320
 20
-82.222296230456550
 11
-307.722264606380750
 21
-83.954341408686219
  0
LINE
  8
0
  6
CONTINUOUS
 62
3
 10
-301.722268554735540
 20
-87.418444623170558
 11
-304.722271131241260
 21
-89.150491595806898
  0
LINE
  8
0
  6
CONTINUOUS
 62
3
 10
-304.722260048227500
 20
-82.222296334006160
 11
-301.722269240880170
 21
-83.954346448255421
  0
LINE
  8
0
  6
CONTINUOUS
 62
3
 10
-304.722271371817840
 20
-89.150491406140588
 11
-307.722264243929600
 21
-87.418439448424522
  0
CIRCLE
  8
0
  6
CONTINUOUS
 62
3
 10
-344.222266666829170
 20
-75.686393230401279
 40
5.633955001831055
  0
CIRCLE
  8
0
  6
CONTINUOUS
 62
3
 10
-344.222266666829170
 20
-75.686393230401279
 40
6.500000000000000
  0
LINE
  8
0
  6
CONTINUOUS
 62
3
 10
-347.222263328970200
 20
-77.418439229952526
 11
-347.222264282644520
 21
-73.954341253267955
  0
LINE
  8
0
  6
CONTINUOUS
 62
3
 10
-341.222270004688370
 20
-73.954346277175716
 11
-341.222269051014280
 21
-77.418444253860287
  0
LINE
  8
0
  6
CONTINUOUS
 62
3
 10
-344.222259965108320
 20
-72.222296230466100
 11
-347.222264606380750
 21
-73.954341408695711
  0
LINE
  8
0
  6
CONTINUOUS
 62
3
 10
-341.222268554735540
 20
-77.418444623180051
 11
-344.222271131241260
 21
-79.150491595816391
  0
LINE
  8
0
  6
CONTINUOUS
 62
3
 10
-344.222260048227500
 20
-72.222296334015709
 11
-341.222269240880170
 21
-73.954346448264914
  0
LINE
  8
0
  6
CONTINUOUS
 62
3
 10
-344.222271371817840
 20
-79.150491406150081
 11
-347.222264243929600
 21
-77.418439448434015
  0
CIRCLE
  8
0
  6
CONTINUOUS
 62
3
 10
-365.222266666829170
 20
-75.686393230401279
 40
5.633955001831055
  0
CIRCLE
  8
0
  6
CONTINUOUS
 62
3
 10
-365.222266666829170
 20
-75.686393230401279
 40
6.500000000000000
  0
LINE
  8
0
  6
CONTINUOUS
 62
3
 10
-362.222270004688140
 20
-77.418439229952526
 11
-362.222269051013820
 21
-73.954341253267955
  0
LINE
  8
0
  6
CONTINUOUS
 62
3
 10
-368.222263328969970
 20
-73.954346277175716
 11
-368.222264282644060
 21
-77.418444253860287
  0
LINE
  8
0
  6
CONTINUOUS
 62
3
 10
-365.222273368550020
 20
-72.222296230466100
 11
-362.222268727277590
 21
-73.954341408695711
  0
LINE
  8
0
  6
CONTINUOUS
 62
3
 10
-368.222264778922810
 20
-77.418444623180051
 11
-365.222262202416860
 21
-79.150491595816391
  0
LINE
  8
0
  6
CONTINUOUS
 62
3
 10
-365.222273285430840
 20
-72.222296334015709
 11
-368.222264092778180
 21
-73.954346448264914
  0
LINE
  8
0
  6
CONTINUOUS
 62
3
 10
-365.222261961840500
 20
-79.150491406150081
 11
-362.222269089728740
 21
-77.418439448434015
  0
CIRCLE
  8
0
  6
CONTINUOUS
 62
3
 10
-404.722266666829110
 20
-85.686393230392014
 40
5.633955001831055
  0
CIRCLE
  8
0
  6
CONTINUOUS
 62
3
 10
-404.722266666829110
 20
-85.686393230392014
 40
6.500000000000000
  0
LINE
  8
0
  6
CONTINUOUS
 62
3
 10
-401.722270004688080
 20
-87.418439229943260
 11
-401.722269051013770
 21
-83.954341253258690
  0
LINE
  8
0
  6
CONTINUOUS
 62
3
 10
-407.722263328969920
 20
-83.954346277166451
 11
-407.722264282644010
 21
-87.418444253851021
  0
LINE
  8
0
  6
CONTINUOUS
 62
3
 10
-404.722273368549960
 20
-82.222296230456777
 11
-401.722268727277540
 21
-83.954341408686446
  0
LINE
  8
0
  6
CONTINUOUS
 62
3
 10
-407.722264778922750
 20
-87.418444623170785
 11
-404.722262202416800
 21
-89.150491595807125
  0
LINE
  8
0
  6
CONTINUOUS
 62
3
 10
-404.722273285430790
 20
-82.222296334006387
 11
-407.722264092778120
 21
-83.954346448255649
  0
LINE
  8
0
  6
CONTINUOUS
 62
3
 10
-404.722261961840450
 20
-89.150491406140816
 11
-401.722269089728680
 21
-87.418439448424749
  0
CIRCLE
  8
0
  6
CONTINUOUS
 62
3
 10
-438.722266666829110
 20
-161.686393230392010
 40
5.633955001831055
  0
CIRCLE
  8
0
  6
CONTINUOUS
 62
3
 10
-438.722266666829110
 20
-161.686393230392010
 40
6.500000000000000
  0
LINE
  8
0
  6
CONTINUOUS
 62
3
 10
-435.722270004688080
 20
-163.418439229943260
 11
-435.722269051013770
 21
-159.954341253258690
  0
LINE
  8
0
  6
CONTINUOUS
 62
3
 10
-441.722263328969920
 20
-159.954346277166450
 11
-441.722264282644010
 21
-163.418444253851020
  0
LINE
  8
0
  6
CONTINUOUS
 62
3
 10
-438.722273368549960
 20
-158.222296230456780
 11
-435.722268727277540
 21
-159.954341408686450
  0
LINE
  8
0
  6
CONTINUOUS
 62
3
 10
-441.722264778922750
 20
-163.418444623170790
 11
-438.722262202416800
 21
-165.150491595807130
  0
LINE
  8
0
  6
CONTINUOUS
 62
3
 10
-438.722273285430790
 20
-158.222296334006390
 11
-441.722264092778120
 21
-159.954346448255710
  0
LINE
  8
0
  6
CONTINUOUS
 62
3
 10
-438.722261961840450
 20
-165.150491406140870
 11
-435.722269089728680
 21
-163.418439448424690
  0
CIRCLE
  8
0
  6
CONTINUOUS
 62
3
 10
-302.722266666829400
 20
-249.686393230391790
 40
5.633955001831055
  0
CIRCLE
  8
0
  6
CONTINUOUS
 62
3
 10
-302.722266666829400
 20
-249.686393230391790
 40
6.500000000000000
  0
LINE
  8
0
  6
CONTINUOUS
 62
3
 10
-305.722263328970430
 20
-251.418439229943030
 11
-305.722264282644740
 21
-247.954341253258460
  0
LINE
  8
0
  6
CONTINUOUS
 62
3
 10
-299.722270004688600
 20
-247.954346277166220
 11
-299.722269051014510
 21
-251.418444253850790
  0
LINE
  8
0
  6
CONTINUOUS
 62
3
 10
-302.722259965108550
 20
-246.222296230456550
 11
-305.722264606380970
 21
-247.954341408686220
  0
LINE
  8
0
  6
CONTINUOUS
 62
3
 10
-299.722268554735760
 20
-251.418444623170560
 11
-302.722271131241710
 21
-253.150491595806900
  0
LINE
  8
0
  6
CONTINUOUS
 62
3
 10
-302.722260048227720
 20
-246.222296334006160
 11
-299.722269240880390
 21
-247.954346448255360
  0
LINE
  8
0
  6
CONTINUOUS
 62
3
 10
-302.722271371818070
 20
-253.150491406140650
 11
-305.722264243929830
 21
-251.418439448424580
  0
CIRCLE
  8
0
  6
CONTINUOUS
 62
3
 10
-406.722266666829110
 20
-249.686393230392010
 40
5.633955001831055
  0
CIRCLE
  8
0
  6
CONTINUOUS
 62
3
 10
-406.722266666829110
 20
-249.686393230392010
 40
6.500000000000000
  0
LINE
  8
0
  6
CONTINUOUS
 62
3
 10
-403.722270004688080
 20
-251.418439229943260
 11
-403.722269051013770
 21
-247.954341253258690
  0
LINE
  8
0
  6
CONTINUOUS
 62
3
 10
-409.722263328969920
 20
-247.954346277166450
 11
-409.722264282644010
 21
-251.418444253851020
  0
LINE
  8
0
  6
CONTINUOUS
 62
3
 10
-406.722273368549960
 20
-246.222296230456780
 11
-403.722268727277540
 21
-247.954341408686450
  0
LINE
  8
0
  6
CONTINUOUS
 62
3
 10
-409.722264778922750
 20
-251.418444623170790
 11
-406.722262202416800
 21
-253.150491595807130
  0
LINE
  8
0
  6
CONTINUOUS
 62
3
 10
-406.722273285430790
 20
-246.222296334006390
 11
-409.722264092778120
 21
-247.954346448255710
  0
LINE
  8
0
  6
CONTINUOUS
 62
3
 10
-406.722261961840450
 20
-253.150491406140870
 11
-403.722269089728680
 21
-251.418439448424690
  0
LINE
  8
0
  6
CONTINUOUS
 62
3
 10
-357.722266666829170
 20
-42.147001216222407
 11
-357.722266666829170
 21
-61.225785244561166
  0
LINE
  8
0
  6
CONTINUOUS
 62
3
 10
-351.722266666829170
 20
-42.147001216222407
 11
-351.722266666829170
 21
-61.225785244561166
  0
CIRCLE
  8
0
  6
CONTINUOUS
 62
3
 10
-354.722266666829170
 20
-51.686393230391786
 40
10.000000000000000
  0
LINE
  8
0
  6
DASHDOT
 62
4
 10
-331.554353667947620
 20
-51.686393230391786
 11
-378.576867569482320
 21
-51.686393230391786
  0
LINE
  8
0
  6
CONTINUOUS
 62
3
 10
-334.222266666829170
 20
-41.686393230391786
 11
-334.222266666829170
 21
-80.686393230401336
  0
LINE
  8
0
  6
CONTINUOUS
 62
3
 10
-375.222266666829170
 20
-41.686393230391786
 11
-375.222266666829170
 21
-80.686393230401393
  0
ARC
  8
0
  6
CONTINUOUS
 62
3
 10
-365.222266666829170
 20
-41.686393230391786
 40
10.000000000000000
 50
90.000000000000000
 51
180.000000000000000
  0
LINE
  8
0
  6
CONTINUOUS
 62
3
 10
-344.222266666829170
 20
-31.686393230391786
 11
-365.222266666829170
 21
-31.686393230391786
  0
ARC
  8
0
  6
CONTINUOUS
 62
3
 10
-344.222266666829170
 20
-41.686393230391786
 40
10.000000000000000
 50
0.000000000000000
 51
90.000000000000000
  0
ARC
  8
0
  6
CONTINUOUS
 62
3
 10
-408.726674119225320
 20
-74.196704403757167
 40
3.000000000000024
 50
225.000000000003070
 51
298.814852117041600
  0
LINE
  8
0
  6
CONTINUOUS
 62
3
 10
-269.299055857002660
 20
-55.505823107684591
 11
-292.558388162235760
 21
-78.765155412917693
  0
LINE
  8
0
  6
CONTINUOUS
 62
3
 10
-273.541696544121980
 20
-51.263182420565272
 11
-298.596538870873640
 21
-76.318024747316940
  0
LINE
  8
0
  6
CONTINUOUS
 62
3
 10
-440.145477476655400
 20
-55.505823107684591
 11
-416.886145171422530
 21
-78.765155412917693
  0
LINE
  8
0
  6
CONTINUOUS
 62
3
 10
-435.902836789536310
 20
-51.263182420565272
 11
-410.847994462784410
 21
-76.318024747316940
  0
LINE
  8
0
  6
CONTINUOUS
 62
3
 10
-242.222266666829170
 20
-32.186393230391786
 11
-242.222266666829170
 21
-139.588526015378650
  0
LINE
  8
0
  6
CONTINUOUS
 62
3
 10
-459.222266666829110
 20
-24.186393230391786
 11
-250.222266666829170
 21
-24.186393230391786
  0
LINE
  8
0
  6
CONTINUOUS
 62
3
 10
-467.222266666829110
 20
-32.186393230391786
 11
-467.222266666829110
 21
-241.186393230391790
  0
LINE
  8
0
  6
CONTINUOUS
 62
3
 10
-459.222266666829110
 20
-249.186393230391790
 11
-416.784055494836710
 21
-249.186393230391790
  0
LINE
  8
0
  6
CONTINUOUS
 62
3
 10
-292.660477838821580
 20
-249.186393230391790
 11
-250.222266666829170
 21
-249.186393230391790
  0
LINE
  8
0
  6
DASHDOT
 62
4
 10
-354.722266666829170
 20
-2.009231935604475
 11
-354.722266666829170
 21
-263.770106981392020
  0
ARC
  8
0
  6
CONTINUOUS
 62
3
 10
-290.437067818676210
 20
-80.886475756477239
 40
2.999999999999864
 50
135.000000000000000
 51
232.710272620194250
  0
ARC
  8
0
  6
CONTINUOUS
 62
3
 10
-267.177735513442880
 20
-57.627143451244137
 40
2.999999999999864
 50
45.000000000000000
 51
135.000000000003040
  0
ARC
  8
0
  6
CONTINUOUS
 62
3
 10
-275.663016887681520
 20
-49.141862077005499
 40
3.000000000000024
 50
314.999999999996870
 51
45.000000000000000
  0
ARC
  8
0
  6
CONTINUOUS
 62
3
 10
-433.781516445976760
 20
-49.141862077005726
 40
3.000000000000024
 50
134.999999999996930
 51
225.000000000000000
  0
ARC
  8
0
  6
CONTINUOUS
 62
3
 10
-442.266797820215400
 20
-57.627143451244137
 40
3.000000000000185
 50
44.999999999993868
 51
135.000000000000000
  0
ARC
  8
0
  6
CONTINUOUS
 62
3
 10
-419.007465514982070
 20
-80.886475756477239
 40
3.000000000000132
 50
307.289727379809220
 51
45.000000000000000
  0
ARC
  8
0
  6
CONTINUOUS
 62
3
 10
-348.722266666829170
 20
-29.686393230391786
 40
3.000000000000000
 50
90.000000000000000
 51
180.000000000000000
  0
ARC
  8
0
  6
CONTINUOUS
 62
3
 10
-360.722266666829170
 20
-29.686393230391786
 40
3.000000000000000
 50
0.000000000000000
 51
90.000000000000000
  0
CIRCLE
  8
0
  6
CONTINUOUS
 62
3
 10
-255.727317300712400
 20
-37.691443864275243
 40
7.500000000000000
  0
CIRCLE
  8
0
  6
CONTINUOUS
 62
3
 10
-453.717216032945660
 20
-37.691443864275243
 40
7.500000000000000
  0
CIRCLE
  8
0
  6
CONTINUOUS
 62
3
 10
-453.717216032945660
 20
-235.681342596508330
 40
7.500000000000000
  0
CIRCLE
  8
0
  6
CONTINUOUS
 62
3
 10
-255.727317300712400
 20
-235.681342596508330
 40
7.500000000000000
  0
ARC
  8
0
  6
CONTINUOUS
 62
3
 10
-250.222266666829170
 20
-32.186393230391786
 40
8.000000000000000
 50
0.000000000000000
 51
90.000000000000000
  0
ARC
  8
0
  6
CONTINUOUS
 62
3
 10
-459.222266666829110
 20
-32.186393230391786
 40
8.000000000000000
 50
90.000000000000000
 51
180.000000000000000
  0
ARC
  8
0
  6
CONTINUOUS
 62
3
 10
-459.222266666829110
 20
-241.186393230391790
 40
8.000000000000000
 50
180.000000000000000
 51
270.000000000000000
  0
ARC
  8
0
  6
CONTINUOUS
 62
3
 10
-250.222266666829170
 20
-241.186393230391790
 40
8.000000000000000
 50
270.000000000000000
 51
0.000000000000000
  0
LINE
  8
0
  6
CONTINUOUS
 62
3
 10
-351.722266666829170
 20
-29.686393230391786
 11
-351.722266666829170
 21
-31.686393230391786
  0
LINE
  8
0
  6
CONTINUOUS
 62
3
 10
-357.722266666829170
 20
-29.686393230391786
 11
-357.722266666829170
 21
-31.686393230391786
  0
LINE
  8
0
  6
DASHDOT
 62
4
 10
-224.408367295643980
 20
-166.686393230391790
 11
-485.807978829452620
 21
-166.686393230391790
  0
ARC
  8
0
  6
CONTINUOUS
 62
3
 10
-300.717859214433420
 20
-74.196704403757167
 40
3.000000000000092
 50
241.185147882958400
 51
315.000000000000000
  0
LINE
  8
0
  6
CONTINUOUS
 62
3
 10
-446.722266666829110
 20
-149.686393230391790
 11
-439.722266666829110
 21
-149.686393230391790
  0
LINE
  8
0
  6
CONTINUOUS
 62
3
 10
-445.220263893960810
 20
-133.686393230391790
 11
-439.722266666829110
 21
-133.686393230391790
  0
LINE
  8
0
  6
CONTINUOUS
 62
3
 10
-448.722266666829570
 20
-146.919791414573180
 11
-448.722266666829570
 21
-202.672501661284970
  0
LINE
  8
0
  6
CONTINUOUS
 62
3
 10
-406.722266666829110
 20
-259.686393230391790
 11
-354.722266666829630
 21
-259.686393230391790
  0
LINE
  8
0
  6
CONTINUOUS
 62
3
 10
-302.722266666829400
 20
-259.686393230391790
 11
-354.722266666829400
 21
-259.686393230391790
  0
LINE
  8
0
  6
CONTINUOUS
 62
4
 10
-354.722266666829170
 20
-166.686393230391790
 11
-354.338861438804260
 21
-166.302988002366650
  0
LINE
  8
0
  6
CONTINUOUS
 62
3
 10
-357.722266666829170
 20
-88.686393230401336
 11
-357.722266666829170
 21
-105.186393230391780
  0
LINE
  8
0
  6
CONTINUOUS
 62
3
 10
-351.722266666829170
 20
-88.686393230401336
 11
-351.722266666829170
 21
-105.186393230391780
  0
ARC
  8
0
  6
CONTINUOUS
 62
3
 10
-446.722266666829110
 20
-151.686393230391790
 40
2.000000000000000
 50
90.000000000000000
 51
180.000000000000000
  0
ARC
  8
0
  6
CONTINUOUS
 62
3
 10
-439.722266666829110
 20
-141.686393230391790
 40
8.000000000000000
 50
270.000000000000000
 51
90.000000000000000
  0
ARC
  8
0
  6
CONTINUOUS
 62
3
 10
-445.220263893960810
 20
-131.686393230391790
 40
1.999999999999699
 50
168.737752074358670
 51
270.000000000000000
  0
ARC
  8
0
  6
CONTINUOUS
 62
3
 10
-264.224269439697930
 20
-131.686393230391790
 40
1.999999999999976
 50
325.676823592027290
 51
11.262247925638780
  0
ARC
  8
0
  6
CONTINUOUS
 62
3
 10
-340.722266666829170
 20
-146.919791414573180
 40
80.000000000000000
 50
10.082140083407035
 51
85.339580615885211
  0
ARC
  8
0
  6
CONTINUOUS
 62
3
 10
-368.722266666829630
 20
-146.919791414573180
 40
80.000000000000028
 50
94.660419384114462
 51
180.000000000000000
  0
ARC
  8
0
  6
CONTINUOUS
 62
3
 10
-284.730969596618420
 20
-250.246062535801910
 40
7.999999999999901
 50
129.950233661982820
 51
178.218230102087230
  0
ARC
  8
0
  6
CONTINUOUS
 62
3
 10
-302.722266666829400
 20
-249.686393230391790
 40
10.000000000000000
 50
270.000000000000000
 51
358.218230102088230
  0
ARC
  8
0
  6
CONTINUOUS
 62
3
 10
-406.722266666829110
 20
-249.686393230391790
 40
10.000000000000128
 50
181.781769897911770
 51
270.000000000000000
  0
ARC
  8
0
  6
CONTINUOUS
 62
3
 10
-424.713563737040320
 20
-250.246062535801910
 40
8.000000000000107
 50
1.781769897912753
 51
50.049766338017157
  0
ARC
  8
0
  6
CONTINUOUS
 62
3
 10
-443.722266666829570
 20
-202.672501661284970
 40
5.000000000000000
 50
180.000000000000000
 51
202.015369540398010
  0
ARC
  8
0
  6
CONTINUOUS
 62
3
 10
-354.722266666829630
 20
-166.686393230391790
 40
100.999999999999840
 50
202.015369540396930
 51
230.049766338017630
  0
ARC
  8
0
  6
CONTINUOUS
 62
3
 10
-354.722266666829170
 20
-166.686393230391790
 40
101.000000000000050
 50
309.950233661982400
 51
332.587333833727940
  0
ARC
  8
0
  6
CONTINUOUS
 62
3
 10
-340.502889947440680
 20
-205.226960237910130
 40
26.999999999999947
 50
232.608236715358740
 51
313.223998195751050
  0
ARC
  8
0
  6
CONTINUOUS
 62
3
 10
-393.516538867188160
 20
-194.953059897058210
 40
27.000000000000085
 50
161.248570830536150
 51
231.704372189437830
  0
ARC
  8
0
  6
CONTINUOUS
 62
3
 10
-360.722266666829170
 20
-88.686393230401336
 40
3.000000000000000
 50
0.000000000000000
 51
90.000000000000000
  0
ARC
  8
0
  6
CONTINUOUS
 62
3
 10
-360.722266666829170
 20
-105.186393230391780
 40
2.999999999999970
 50
329.571714196297530
 51
0.000000000000000
  0
ARC
  8
0
  6
CONTINUOUS
 62
3
 10
-348.722266666829170
 20
-105.186393230391780
 40
3.000000000000000
 50
180.000000000000000
 51
210.428285803702490
  0
ARC
  8
0
  6
CONTINUOUS
 62
3
 10
-348.722266666829170
 20
-88.686393230401336
 40
3.000000000000000
 50
90.000000000000000
 51
180.000000000000000
  0
LINE
  8
0
  6
DASHDOT
 62
4
 10
-334.417158394764560
 20
-136.686393230391790
 11
-375.827472939501600
 21
-136.686393230391790
  0
LINE
  8
0
  6
CONTINUOUS
 62
3
 10
-242.222266666829170
 20
-224.109403827781310
 11
-242.222266666829170
 21
-241.186393230391790
  0
TEXT
  8
0
  6
CONTINUOUS
 62
3
 10
-414.613311767578120
 20
177.880264282226560
 40
13.600000381469727
  1
Ｄ０８９
 50
0.000002504478167
 41
0.833333333333333
  7
STANDARD1
  0
TEXT
  8
0
  6
CONTINUOUS
 62
3
 10
-414.613311767578120
 20
159.860260009765620
 40
13.600000381469727
  1
三菱ギヤードモートル
 50
0.000002504478167
 41
0.833333333333333
  7
STANDARD1
  0
TEXT
  8
0
  6
CONTINUOUS
 62
3
 10
-414.613311767578120
 20
141.840255737304690
 40
13.600000381469727
  1
ＧＭ－ＤＦＢ
 50
0.000002504478167
 41
0.833333333333333
  7
STANDARD1
  0
TEXT
  8
0
  6
CONTINUOUS
 62
3
 10
-414.613311767578120
 20
123.820259094238280
 40
13.600000381469727
  1
０．４（kＷ）
 50
0.000002504478167
 41
0.804878051688032
  7
STANDARD1
  0
TEXT
  8
0
  6
CONTINUOUS
 62
3
 10
-414.613311767578120
 20
105.800254821777340
 40
13.600000381469727
  1
１／６０～１／１００
 50
0.000002504478167
 41
0.833333333333333
  7
STANDARD1
  0
TEXT
  8
0
  6
CONTINUOUS
 62
3
 10
-414.613311767578120
 20
87.780258178710938
 40
13.600000381469727
  1
ＳＣＡＬＥ　１／１
 50
0.000002504478167
 41
0.833333333333333
  7
STANDARD1
  0
ARC
  8
0
  6
CONTINUOUS
 62
3
 10
239.403304592622650
 20
-228.801616919543050
 40
2.000000000000036
 50
135.000000000009780
 51
180.000000000000820
  0
ARC
  8
0
  6
DASHDOT
 62
4
 10
349.903304592623040
 20
-136.686393230393150
 40
140.000000000000000
 50
219.485237787490430
 51
230.976920363566340
  0
LINE
  8
0
  6
CONTINUOUS
 62
3
 10
-27.438983960780433
 20
192.813606769608210
 11
2.561016039219453
 21
192.813606769608210
  0
LINE
  8
0
  6
CONTINUOUS
 62
4
 10
-94.438983960780433
 20
190.313606769608210
 11
2.561016039219453
 21
190.313606769608210
  0
LINE
  8
0
  6
CONTINUOUS
 62
4
 10
-94.438983960780433
 20
189.313606769608210
 11
2.561016039219453
 21
189.313606769608210
  0
LINE
  8
0
  6
CONTINUOUS
 62
4
 10
-94.438983960780433
 20
188.313606769608210
 11
2.561016039219453
 21
188.313606769608210
  0
LINE
  8
0
  6
CONTINUOUS
 62
4
 10
-94.438983960780433
 20
183.629140956383940
 11
2.561016039219453
 21
183.629140956383940
  0
LINE
  8
0
  6
CONTINUOUS
 62
4
 10
-94.438983960780433
 20
178.679393488078180
 11
2.561016039219453
 21
178.679393488078180
  0
LINE
  8
0
  6
CONTINUOUS
 62
4
 10
-94.438983960780433
 20
148.313606769608210
 11
1.561016992897180
 21
148.313606769608210
  0
LINE
  8
0
  6
CONTINUOUS
 62
4
 10
-94.438983960780433
 20
152.686868579109390
 11
2.561016039219453
 21
152.686868579109390
  0
LINE
  8
0
  6
CONTINUOUS
 62
4
 10
-94.438983960780433
 20
153.953106495196610
 11
2.561016039219453
 21
153.953106495196610
  0
LINE
  8
0
  6
CONTINUOUS
 62
4
 10
-94.438983960780433
 20
158.143660226738800
 11
2.561016039219453
 21
158.143660226738800
  0
LINE
  8
0
  6
CONTINUOUS
 62
4
 10
-94.438983960780433
 20
159.505540562088070
 11
2.561016039219453
 21
159.505540562088070
  0
LINE
  8
0
  6
CONTINUOUS
 62
4
 10
-94.438983960780433
 20
163.596041096177940
 11
2.561016039219453
 21
163.596041096177940
  0
LINE
  8
0
  6
CONTINUOUS
 62
4
 10
-94.438983960780433
 20
165.064398485982570
 11
2.561016039219453
 21
165.064398485982570
  0
LINE
  8
0
  6
CONTINUOUS
 62
4
 10
-94.438983960780433
 20
169.028143909782100
 11
2.561016039219453
 21
169.028143909782100
  0
LINE
  8
0
  6
CONTINUOUS
 62
4
 10
-94.438983960780433
 20
170.632791825344160
 11
2.561016039219453
 21
170.632791825344160
  0
LINE
  8
0
  6
CONTINUOUS
 62
4
 10
-94.438983960780433
 20
118.313606769608210
 11
1.561016992897180
 21
118.313606769608210
  0
LINE
  8
0
  6
CONTINUOUS
 62
4
 10
-94.438983960780433
 20
113.940344960107040
 11
2.561016039219453
 21
113.940344960107040
  0
LINE
  8
0
  6
CONTINUOUS
 62
4
 10
-94.438983960780433
 20
112.674107044019820
 11
2.561016039219453
 21
112.674107044019820
  0
LINE
  8
0
  6
CONTINUOUS
 62
4
 10
-94.438983960780433
 20
108.483553312477620
 11
2.561016039219453
 21
108.483553312477620
  0
LINE
  8
0
  6
CONTINUOUS
 62
4
 10
-94.438983960780433
 20
107.121672977128350
 11
2.561016039219453
 21
107.121672977128350
  0
LINE
  8
0
  6
CONTINUOUS
 62
4
 10
-94.438983960780433
 20
103.031172443038480
 11
2.561016039219453
 21
103.031172443038480
  0
LINE
  8
0
  6
CONTINUOUS
 62
4
 10
-94.438983960780433
 20
101.562815053233860
 11
2.561016039219453
 21
101.562815053233860
  0
LINE
  8
0
  6
CONTINUOUS
 62
4
 10
-94.438983960780433
 20
97.599069629434325
 11
2.561016039219453
 21
97.599069629434325
  0
LINE
  8
0
  6
CONTINUOUS
 62
4
 10
-94.438983960780433
 20
95.994421713872271
 11
2.561016039219453
 21
95.994421713872271
  0
LINE
  8
0
  6
CONTINUOUS
 62
4
 10
-94.438983960780433
 20
87.947820051138251
 11
2.561016039219453
 21
87.947820051138251
  0
LINE
  8
0
  6
CONTINUOUS
 62
4
 10
-94.438983960780433
 20
82.998072582832492
 11
2.561016039219453
 21
82.998072582832492
  0
LINE
  8
0
  6
CONTINUOUS
 62
4
 10
-94.438983960780433
 20
78.313606769608214
 11
2.561016039219453
 21
78.313606769608214
  0
LINE
  8
0
  6
CONTINUOUS
 62
4
 10
-94.438983960780433
 20
77.313606769608214
 11
2.561016039219453
 21
77.313606769608214
  0
LINE
  8
0
  6
CONTINUOUS
 62
4
 10
-94.438983960780433
 20
76.313606769608214
 11
2.561016039219453
 21
76.313606769608214
  0
LINE
  8
0
  6
CONTINUOUS
 62
3
 10
-94.571192439988636
 20
73.813606769608214
 11
2.561016039219453
 21
73.813606769608214
  0
LINE
  8
0
  6
CONTINUOUS
 62
3
 10
-94.438983960780433
 20
192.813606769607990
 11
2.561016039219453
 21
192.813606769607990
  0
ARC
  8
0
  6
CONTINUOUS
 62
3
 10
-101.438983960780320
 20
68.694385852735422
 40
3.000000000000000
 50
90.000000000000000
 51
180.000000000000000
  0
ARC
  8
0
  6
CONTINUOUS
 62
3
 10
-97.438983960780433
 20
74.694385852735422
 40
3.000000000000000
 50
270.000000000000000
 51
0.000000000000000
  0
LINE
  8
0
  6
CONTINUOUS
 62
3
 10
-104.438983960780320
 20
68.313606769608214
 11
-104.438983960780320
 21
68.694385852735422
  0
LINE
  8
0
  6
CONTINUOUS
 62
3
 10
-101.438983960780320
 20
71.694385852735422
 11
-97.438983960780433
 21
71.694385852735422
  0
ARC
  8
0
  6
CONTINUOUS
 62
3
 10
-175.133008183200790
 20
88.313606769608214
 40
20.000000000000007
 50
234.999999999999740
 51
270.000000000000000
  0
LINE
  8
0
  6
CONTINUOUS
 62
3
 10
-104.438983960780320
 20
68.313606769608214
 11
-175.133008183200790
 21
68.313606769608214
  0
ARC
  8
0
  6
CONTINUOUS
 62
3
 10
-194.838983960730160
 20
80.870401712362764
 40
2.600000000000136
 50
180.000000000000000
 51
234.999999999998610
  0
LINE
  8
0
  6
CONTINUOUS
 62
3
 10
-186.604536910221780
 20
71.930565883828422
 11
-196.330282695242770
 21
78.740606397211650
  0
LINE
  8
0
  6
CONTINUOUS
 62
3
 10
-197.438983960730300
 20
133.313606769608210
 11
-197.438983960730300
 21
80.870401712362764
  0
LINE
  8
0
  6
CONTINUOUS
 62
3
 10
-94.438983960780433
 20
133.313606769608210
 11
-94.438983960780433
 21
74.694385852735422
  0
ARC
  8
0
  6
CONTINUOUS
 62
3
 10
-194.838983960730160
 20
185.756811826853660
 40
2.599999999999721
 50
125.000000000001370
 51
180.000000000000000
  0
LINE
  8
0
  6
CONTINUOUS
 62
3
 10
-186.604536910221780
 20
194.696647655388010
 11
-196.330282695242770
 21
187.886607142004780
  0
ARC
  8
0
  6
CONTINUOUS
 62
3
 10
-175.133008183200790
 20
178.313606769608210
 40
20.000000000000000
 50
90.000000000000000
 51
125.000000000000240
  0
LINE
  8
0
  6
CONTINUOUS
 62
3
 10
-197.438983960730300
 20
133.313606769608210
 11
-197.438983960730300
 21
185.756811826853660
  0
LINE
  8
0
  6
CONTINUOUS
 62
3
 10
-94.438983960780433
 20
198.313606769608210
 11
-175.133008183200790
 21
198.313606769608210
  0
LINE
  8
0
  6
CONTINUOUS
 62
3
 10
-94.438983960780433
 20
133.313606769608210
 11
-94.438983960780433
 21
198.313606769608210
  0
LINE
  8
0
  6
CONTINUOUS
 62
3
 10
-105.438983960779860
 20
187.053721870045820
 11
-107.438983960779860
 21
185.401080230922390
  0
LINE
  8
0
  6
CONTINUOUS
 62
3
 10
-103.438983960779860
 20
188.229507355668600
 11
-105.438983960779860
 21
187.053721870045820
  0
LINE
  8
0
  6
CONTINUOUS
 62
3
 10
-105.438983960779860
 20
187.053721870045820
 11
-103.438983960779860
 21
185.401080230922390
  0
LINE
  8
0
  6
CONTINUOUS
 62
3
 10
-107.438983960779860
 20
188.229507355668600
 11
-105.438983960779860
 21
187.053721870045820
  0
POLYLINE
  8
0
  6
CONTINUOUS
 62
3
 66
1
 70
1
  0
VERTEX
  8
0
  6
CONTINUOUS
 62
3
 10
-100.738983960779870
 20
185.237131801668280
  0
VERTEX
  8
0
  6
CONTINUOUS
 62
3
 10
-100.829293142884690
 20
185.940088767868640
  0
VERTEX
  8
0
  6
CONTINUOUS
 62
3
 10
-101.096750157976820
 20
186.616031492080740
  0
VERTEX
  8
0
  6
CONTINUOUS
 62
3
 10
-101.531076782957910
 20
187.238983874486140
  0
VERTEX
  8
0
  6
CONTINUOUS
 62
3
 10
-102.115582089203100
 20
187.785006204384730
  0
VERTEX
  8
0
  6
CONTINUOUS
 62
3
 10
-102.827803865587740
 20
188.233115149851360
  0
VERTEX
  8
0
  6
CONTINUOUS
 62
3
 10
-103.640371828663940
 20
188.566090135414100
  0
VERTEX
  8
0
  6
CONTINUOUS
 62
3
 10
-104.522059447304050
 20
188.771135119112360
  0
VERTEX
  8
0
  6
CONTINUOUS
 62
3
 10
-105.438983960779860
 20
188.840370337213130
  0
VERTEX
  8
0
  6
CONTINUOUS
 62
3
 10
-106.355908474255670
 20
188.771135119112360
  0
VERTEX
  8
0
  6
CONTINUOUS
 62
3
 10
-107.237596092895780
 20
188.566090135414100
  0
VERTEX
  8
0
  6
CONTINUOUS
 62
3
 10
-108.050164055971990
 20
188.233115149851360
  0
VERTEX
  8
0
  6
CONTINUOUS
 62
3
 10
-108.762385832356620
 20
187.785006204384730
  0
VERTEX
  8
0
  6
CONTINUOUS
 62
3
 10
-109.346891138601810
 20
187.238983874486140
  0
VERTEX
  8
0
  6
CONTINUOUS
 62
3
 10
-109.781217763582900
 20
186.616031492080740
  0
VERTEX
  8
0
  6
CONTINUOUS
 62
3
 10
-110.048674778675030
 20
185.940088767868640
  0
VERTEX
  8
0
  6
CONTINUOUS
 62
3
 10
-110.138983960779850
 20
185.237131801668280
  0
VERTEX
  8
0
  6
CONTINUOUS
 62
3
 10
-110.048674778675030
 20
184.534174835467920
  0
VERTEX
  8
0
  6
CONTINUOUS
 62
3
 10
-109.781217763582900
 20
183.858232111255830
  0
VERTEX
  8
0
  6
CONTINUOUS
 62
3
 10
-109.346891138601810
 20
183.235279728850430
  0
VERTEX
  8
0
  6
CONTINUOUS
 62
3
 10
-108.762385832356620
 20
182.689257398951840
  0
VERTEX
  8
0
  6
CONTINUOUS
 62
3
 10
-108.050164055971990
 20
182.241148453485210
  0
VERTEX
  8
0
  6
CONTINUOUS
 62
3
 10
-107.237596092895780
 20
181.908173467922470
  0
VERTEX
  8
0
  6
CONTINUOUS
 62
3
 10
-106.355908474255670
 20
181.703128484224210
  0
VERTEX
  8
0
  6
CONTINUOUS
 62
3
 10
-105.438983960779860
 20
181.633893266123440
  0
VERTEX
  8
0
  6
CONTINUOUS
 62
3
 10
-104.522059447304050
 20
181.703128484224210
  0
VERTEX
  8
0
  6
CONTINUOUS
 62
3
 10
-103.640371828663940
 20
181.908173467922470
  0
VERTEX
  8
0
  6
CONTINUOUS
 62
3
 10
-102.827803865587740
 20
182.241148453485210
  0
VERTEX
  8
0
  6
CONTINUOUS
 62
3
 10
-102.115582089203100
 20
182.689257398951840
  0
VERTEX
  8
0
  6
CONTINUOUS
 62
3
 10
-101.531076782957910
 20
183.235279728850430
  0
VERTEX
  8
0
  6
CONTINUOUS
 62
3
 10
-101.096750157976820
 20
183.858232111255830
  0
VERTEX
  8
0
  6
CONTINUOUS
 62
3
 10
-100.829293142884690
 20
184.534174835467920
  0
SEQEND
  8
0
  6
CONTINUOUS
 62
3
  0
LINE
  8
0
  6
CONTINUOUS
 62
3
 10
-105.438983960779860
 20
79.573491669170380
 11
-107.438983960779860
 21
81.226133308293811
  0
LINE
  8
0
  6
CONTINUOUS
 62
3
 10
-103.438983960779860
 20
78.397706183548053
 11
-105.438983960779860
 21
79.573491669170380
  0
LINE
  8
0
  6
CONTINUOUS
 62
3
 10
-105.438983960779860
 20
79.573491669170380
 11
-103.438983960779860
 21
81.226133308293811
  0
LINE
  8
0
  6
CONTINUOUS
 62
3
 10
-107.438983960779860
 20
78.397706183548053
 11
-105.438983960779860
 21
79.573491669170380
  0
POLYLINE
  8
0
  6
CONTINUOUS
 62
3
 66
1
 70
1
  0
VERTEX
  8
0
  6
CONTINUOUS
 62
3
 10
-100.738983960779870
 20
81.390081737548371
  0
VERTEX
  8
0
  6
CONTINUOUS
 62
3
 10
-100.829293142884690
 20
82.093038703748732
  0
VERTEX
  8
0
  6
CONTINUOUS
 62
3
 10
-101.096750157976820
 20
82.768981427960824
  0
VERTEX
  8
0
  6
CONTINUOUS
 62
3
 10
-101.531076782957910
 20
83.391933810366226
  0
VERTEX
  8
0
  6
CONTINUOUS
 62
3
 10
-102.115582089203100
 20
83.937956140264802
  0
VERTEX
  8
0
  6
CONTINUOUS
 62
3
 10
-102.827803865587740
 20
84.386065085731417
  0
VERTEX
  8
0
  6
CONTINUOUS
 62
3
 10
-103.640371828663940
 20
84.719040071294188
  0
VERTEX
  8
0
  6
CONTINUOUS
 62
3
 10
-104.522059447304050
 20
84.924085054992432
  0
VERTEX
  8
0
  6
CONTINUOUS
 62
3
 10
-105.438983960779860
 20
84.993320273093204
  0
VERTEX
  8
0
  6
CONTINUOUS
 62
3
 10
-106.355908474255670
 20
84.924085054992432
  0
VERTEX
  8
0
  6
CONTINUOUS
 62
3
 10
-107.237596092895780
 20
84.719040071294188
  0
VERTEX
  8
0
  6
CONTINUOUS
 62
3
 10
-108.050164055971990
 20
84.386065085731417
  0
VERTEX
  8
0
  6
CONTINUOUS
 62
3
 10
-108.762385832356620
 20
83.937956140264802
  0
VERTEX
  8
0
  6
CONTINUOUS
 62
3
 10
-109.346891138601810
 20
83.391933810366226
  0
VERTEX
  8
0
  6
CONTINUOUS
 62
3
 10
-109.781217763582900
 20
82.768981427960824
  0
VERTEX
  8
0
  6
CONTINUOUS
 62
3
 10
-110.048674778675030
 20
82.093038703748732
  0
VERTEX
  8
0
  6
CONTINUOUS
 62
3
 10
-110.138983960779850
 20
81.390081737548371
  0
VERTEX
  8
0
  6
CONTINUOUS
 62
3
 10
-110.048674778675030
 20
80.687124771348010
  0
VERTEX
  8
0
  6
CONTINUOUS
 62
3
 10
-109.781217763582900
 20
80.011182047135918
  0
VERTEX
  8
0
  6
CONTINUOUS
 62
3
 10
-109.346891138601810
 20
79.388229664730517
  0
VERTEX
  8
0
  6
CONTINUOUS
 62
3
 10
-108.762385832356620
 20
78.842207334831940
  0
VERTEX
  8
0
  6
CONTINUOUS
 62
3
 10
-108.050164055971990
 20
78.394098389365325
  0
VERTEX
  8
0
  6
CONTINUOUS
 62
3
 10
-107.237596092895780
 20
78.061123403802554
  0
VERTEX
  8
0
  6
CONTINUOUS
 62
3
 10
-106.355908474255670
 20
77.856078420104311
  0
VERTEX
  8
0
  6
CONTINUOUS
 62
3
 10
-105.438983960779860
 20
77.786843202003539
  0
VERTEX
  8
0
  6
CONTINUOUS
 62
3
 10
-104.522059447304050
 20
77.856078420104311
  0
VERTEX
  8
0
  6
CONTINUOUS
 62
3
 10
-103.640371828663940
 20
78.061123403802554
  0
VERTEX
  8
0
  6
CONTINUOUS
 62
3
 10
-102.827803865587740
 20
78.394098389365325
  0
VERTEX
  8
0
  6
CONTINUOUS
 62
3
 10
-102.115582089203100
 20
78.842207334831940
  0
VERTEX
  8
0
  6
CONTINUOUS
 62
3
 10
-101.531076782957910
 20
79.388229664730517
  0
VERTEX
  8
0
  6
CONTINUOUS
 62
3
 10
-101.096750157976820
 20
80.011182047135918
  0
VERTEX
  8
0
  6
CONTINUOUS
 62
3
 10
-100.829293142884690
 20
80.687124771348010
  0
SEQEND
  8
0
  6
CONTINUOUS
 62
3
  0
LINE
  8
0
  6
CONTINUOUS
 62
3
 10
-95.101748405584658
 20
72.813606769608214
 11
-31.688983960780547
 21
72.813606769608214
  0
LINE
  8
0
  6
CONTINUOUS
 62
3
 10
-31.688983960780547
 20
72.813606769608214
 11
-31.688983960780547
 21
73.813606769608214
  0
LINE
  8
0
  6
CONTINUOUS
 62
3
 10
-100.938983960780540
 20
65.813606769608214
 11
-100.938983960780540
 21
71.652425744285210
  0
LINE
  8
0
  6
CONTINUOUS
 62
3
 10
-35.938983960780433
 20
65.813606769608214
 11
-35.938983960780547
 21
72.813606769608214
  0
LINE
  8
0
  6
CONTINUOUS
 62
3
 10
-100.938983960780540
 20
65.813606769608214
 11
-35.938983960780433
 21
65.813606769608214
  0
LINE
  8
0
  6
CONTINUOUS
 62
3
 10
-96.601659725960531
 20
71.813606769608214
 11
-35.938983960780433
 21
71.813606769608214
  0
LINE
  8
0
  6
CONTINUOUS
 62
3
 10
-100.938983960780540
 20
69.813606769608214
 11
-35.938983960780433
 21
69.813606769608214
  0
LINE
  8
0
  6
DASHDOT
 62
4
 10
-68.438983960780547
 20
71.647320105760969
 11
-68.438983960780547
 21
9.584906589124785
  0
LINE
  8
0
  6
CONTINUOUS
 62
3
 10
-103.888983960779450
 20
14.639781389824293
 11
-71.496240166676785
 21
14.639781389824293
  0
LINE
  8
0
  6
CONTINUOUS
 62
3
 10
-103.888983960779450
 20
63.508170709872616
 11
-32.988983960781752
 21
63.508170709872502
  0
LINE
  8
0
  6
CONTINUOUS
 62
3
 10
-103.888983960779450
 20
60.036697970825799
 11
-32.988983960781752
 21
60.036697970825799
  0
LINE
  8
0
  6
CONTINUOUS
 62
3
 10
-21.988983960781752
 20
52.508170709872502
 11
-21.988983960781752
 21
25.639781389824293
  0
LINE
  8
0
  6
CONTINUOUS
 62
3
 10
-114.888983960779450
 20
52.508170709872729
 11
-114.888983960779450
 21
25.639781389824293
  0
LINE
  8
0
  6
CONTINUOUS
 62
3
 10
-28.388983960781388
 20
22.613606769608168
 11
-28.388983960781388
 21
52.189541469294909
  0
LINE
  8
0
  6
CONTINUOUS
 62
3
 10
-108.488983960779810
 20
22.613606769608168
 11
-108.488983960779810
 21
52.189541469295136
  0
LINE
  8
0
  6
CONTINUOUS
 62
3
 10
-103.488983960779810
 20
57.189541469295023
 11
-33.388983960781388
 21
57.189541469294909
  0
ARC
  8
0
  6
CONTINUOUS
 62
3
 10
-33.388983960781388
 20
52.189541469294909
 40
5.000000000000000
 50
0.000000000000000
 51
90.000000000000000
  0
ARC
  8
0
  6
CONTINUOUS
 62
3
 10
-103.488983960779810
 20
52.189541469295136
 40
4.999999999999886
 50
90.000000000000000
 51
180.000000000000000
  0
ARC
  8
0
  6
CONTINUOUS
 62
3
 10
-32.988983960781752
 20
25.639781389824293
 40
11.000000000000000
 50
270.000000000000000
 51
0.000000000000000
  0
ARC
  8
0
  6
CONTINUOUS
 62
3
 10
-103.888983960779450
 20
25.639781389824293
 40
11.000000000000000
 50
180.000000000000000
 51
270.000000000000000
  0
LINE
  8
0
  6
CONTINUOUS
 62
3
 10
-102.688983960780090
 20
16.813606769608214
 11
-34.188983960781343
 21
16.813606769608214
  0
ARC
  8
0
  6
CONTINUOUS
 62
3
 10
-34.188983960781343
 20
22.613606769608168
 40
5.799999999999955
 50
270.000000000000000
 51
0.000000000000000
  0
ARC
  8
0
  6
CONTINUOUS
 62
3
 10
-102.688983960780090
 20
22.613606769608168
 40
5.799999999999727
 50
180.000000000000000
 51
270.000000000000000
  0
ARC
  8
0
  6
CONTINUOUS
 62
3
 10
-32.988983960781752
 20
49.036697970825799
 40
11.000000000000000
 50
0.000000000000000
 51
90.000000000000000
  0
ARC
  8
0
  6
CONTINUOUS
 62
3
 10
-32.988983960781752
 20
52.508170709872502
 40
11.000000000000000
 50
0.000000000000000
 51
90.000000000000000
  0
ARC
  8
0
  6
CONTINUOUS
 62
3
 10
-103.888983960779450
 20
49.036697970825799
 40
11.000000000000000
 50
90.000000000000000
 51
180.000000000000000
  0
ARC
  8
0
  6
CONTINUOUS
 62
3
 10
-103.888983960779450
 20
52.508170709872729
 40
10.999999999999886
 50
90.000000000000000
 51
180.000000000000000
  0
LINE
  8
0
  6
CONTINUOUS
 62
3
 10
-89.489619055390790
 20
16.013606769608259
 11
-47.788348866170395
 21
16.013606769608259
  0
ARC
  8
0
  6
CONTINUOUS
 62
3
 10
-47.788348866170395
 20
17.013606769608259
 40
1.000000000000000
 50
270.000000000000000
 51
323.130102354140380
  0
ARC
  8
0
  6
CONTINUOUS
 62
3
 10
-46.188348866170486
 20
15.813606769608214
 40
1.000000000000000
 50
90.000000000000000
 51
143.130102354166380
  0
ARC
  8
0
  6
CONTINUOUS
 62
3
 10
-91.089619055390699
 20
15.813606769608214
 40
0.999999999999727
 50
36.869897645849235
 51
90.000000000000000
  0
ARC
  8
0
  6
CONTINUOUS
 62
3
 10
-89.489619055390790
 20
17.013606769608259
 40
1.000000000000227
 50
216.869897645844020
 51
270.000000000000000
  0
LINE
  8
0
  6
CONTINUOUS
 62
3
 10
-102.238983960780720
 20
64.813606769608214
 11
-34.638983960780706
 21
64.813606769608100
  0
ARC
  8
0
  6
CONTINUOUS
 62
3
 10
-34.638983960780706
 20
59.813606769608100
 40
5.000000000000008
 50
44.925956400534659
 51
90.000000000000000
  0
ARC
  8
0
  6
CONTINUOUS
 62
3
 10
-102.238983960780720
 20
59.813606769608214
 40
5.000000000000000
 50
90.000000000000000
 51
135.074043599465310
  0
LINE
  8
0
  6
CONTINUOUS
 62
3
 10
-37.438983960780661
 20
65.813606769608100
 11
-37.438983960780661
 21
64.813606769608100
  0
LINE
  8
0
  6
CONTINUOUS
 62
3
 10
-99.438983960780547
 20
65.813606769608214
 11
-99.438983960780547
 21
64.813606769608214
  0
LINE
  8
0
  6
DASHDOT
 62
4
 10
-91.262615592092402
 20
40.813606769608214
 11
-46.974897553693950
 21
40.813606769608214
  0
CIRCLE
  8
0
  6
DASHED
 62
4
 10
-68.438983960780547
 20
40.813606769607986
 40
13.500000000000000
  0
ARC
  8
0
  6
CONTINUOUS
 62
3
 10
-70.638984723720000
 20
15.617079257354362
 40
1.299999237060699
 50
162.240552086452960
 51
253.398468892505180
  0
ARC
  8
0
  6
CONTINUOUS
 62
3
 10
-68.438983960780547
 20
22.996104180202110
 40
8.999999999999858
 50
253.398468892518050
 51
286.601548410325050
  0
ARC
  8
0
  6
CONTINUOUS
 62
3
 10
-66.238983197841094
 20
15.617079257354362
 40
1.299999237060351
 50
286.601548410324710
 51
17.759447913550098
  0
LINE
  8
0
  6
CONTINUOUS
 62
3
 10
-65.381727754884537
 20
14.639781389824293
 11
-32.988983960781752
 21
14.639781389824293
  0
ARC
  8
0
  6
CONTINUOUS
 62
3
 10
17.061016039219510
 20
-84.686393230393264
 40
3.000000000000000
 50
180.000000000000000
 51
239.999999999991270
  0
ARC
  8
0
  6
CONTINUOUS
 62
3
 10
14.061016039218714
 20
-89.882545653099442
 40
3.000000000002046
 50
359.999999999991590
 51
59.999999999991253
  0
LINE
  8
0
  6
CONTINUOUS
 62
3
 10
237.403304592623040
 20
-196.728945489100620
 11
234.380669851162510
 21
-203.517894272500570
  0
LINE
  8
0
  6
CONTINUOUS
 62
3
 10
237.403304592623040
 20
-187.386290813918890
 11
231.315933755196450
 21
-201.058749571170180
  0
ARC
  8
0
  6
CONTINUOUS
 62
3
 10
248.655593578063820
 20
-125.007497362655370
 40
14.999999999999988
 50
138.603598217667160
 51
178.317231198866840
  0
ARC
  8
0
  6
CONTINUOUS
 62
3
 10
239.521696865458980
 20
-198.363300277370830
 40
9.000000000000075
 50
139.398468892516490
 51
172.601548410321070
  0
LINE
  8
0
  6
CONTINUOUS
 62
3
 10
236.475363563002870
 20
-198.813135165641570
 11
237.403304592623070
 21
-199.226281130303220
  0
LINE
  8
0
  6
CONTINUOUS
 62
3
 10
235.098584535801760
 20
-192.562776815093880
 11
232.251428034270870
 21
-198.957595018592170
  0
LINE
  8
0
  6
CONTINUOUS
 62
3
 10
235.098584535801760
 20
-192.562776815093880
 11
232.251428034270870
 21
-198.957595018592170
  0
LINE
  8
0
  6
CONTINUOUS
 62
3
 10
232.251428034270870
 20
-198.957595018592170
 11
231.357043914594390
 21
-198.559389552827700
  0
LINE
  8
0
  6
CONTINUOUS
 62
3
 10
235.098584535801760
 20
-192.562776815093880
 11
234.204200416125270
 21
-192.164571349329630
  0
ARC
  8
0
  6
CONTINUOUS
 62
3
 10
233.675443090442230
 20
-193.352179747285130
 40
1.299999237060620
 50
65.999999316753915
 51
139.398468892516150
  0
ARC
  8
0
  6
CONTINUOUS
 62
3
 10
833.403304592623040
 20
-142.186393230390480
 40
600.000000000001140
 50
178.317231198866840
 51
184.715124834091600
  0
ARC
  8
0
  6
DASHED
 62
3
 10
234.437255600311290
 20
-191.589552588276750
 40
1.000000000000041
 50
335.999999999996420
 51
4.715124834083239
  0
LINE
  8
0
  6
CONTINUOUS
 62
3
 10
231.822742569762740
 20
-202.379031671888440
 11
234.380669851162510
 21
-203.517894272500570
  0
ARC
  8
0
  6
CONTINUOUS
 62
3
 10
232.229479212839070
 20
-201.465486214245830
 40
0.999999999999948
 50
156.000000000008300
 51
245.999999999972630
  0
ARC
  8
0
  6
DASHED
 62
3
 10
235.608617328924480
 20
-188.958631070268860
 40
1.000000000000041
 50
335.999999999996420
 51
66.000000000020236
  0
ARC
  8
0
  6
CONTINUOUS
 62
3
 10
237.033290996203900
 20
-186.309027818627300
 40
2.000000000000632
 50
184.231338074886000
 51
245.999999999972630
  0
LINE
  8
0
  6
CONTINUOUS
 62
3
 10
236.333005737926610
 20
-199.132876075816030
 11
237.403304592623070
 21
-199.609403827779770
  0
ARC
  8
0
  6
CONTINUOUS
 62
3
 10
833.403304592623040
 20
-142.186393230390480
 40
600.799999999999950
 50
179.412192132293110
 51
182.841389015363320
  0
ARC
  8
0
  6
CONTINUOUS
 62
3
 10
234.340705363838370
 20
-171.919240474684070
 40
0.999999999999988
 50
182.841389015366990
 51
236.047873053618590
  0
ARC
  8
0
  6
CONTINUOUS
 62
3
 10
233.223705339225890
 20
-173.578249499679230
 40
1.000000000000008
 50
2.994076090848812
 51
56.047873053604029
  0
ARC
  8
0
  6
DASHED
 62
3
 10
232.453496923072810
 20
-134.419240474684070
 40
0.999999999999994
 50
306.205708094031080
 51
359.259505056807090
  0
ARC
  8
0
  6
DASHED
 62
3
 10
233.634869039349210
 20
-136.033043412742220
 40
1.000000000000128
 50
126.205708094041610
 51
179.412192132278280
  0
ARC
  8
0
  6
CONTINUOUS
 62
3
 10
231.885801240277660
 20
-197.371781154872200
 40
1.299999237060687
 50
172.601548410320760
 51
246.000017986079880
  0
ARC
  8
0
  6
CONTINUOUS
 62
3
 10
98.301141444661141
 20
-72.760657860205470
 40
3.000000000000000
 50
270.000000000000000
 51
320.631038306637150
  0
LINE
  8
0
  6
CONTINUOUS
 62
3
 10
100.620373364820970
 20
-74.663593303280891
 11
120.880247959376610
 21
-49.971558673777167
  0
ARC
  8
0
  6
CONTINUOUS
 62
3
 10
118.561016039217230
 20
-48.068623230702201
 40
2.999999999999515
 50
320.631038306638350
 51
0.000000000000000
  0
ARC
  8
0
  6
CONTINUOUS
 62
3
 10
118.561016039217230
 20
-53.553904604940385
 40
2.999999999999515
 50
320.631038306638350
 51
0.000000000000000
  0
ARC
  8
0
  6
CONTINUOUS
 62
3
 10
98.301141444661141
 20
-78.245939234443654
 40
3.000000000000000
 50
270.000000000000000
 51
320.631038306637150
  0
LINE
  8
0
  6
CONTINUOUS
 62
3
 10
100.620373364820970
 20
-80.148874677519075
 11
120.880247959376610
 21
-55.456840048015351
  0
LINE
  8
0
  6
CONTINUOUS
 62
3
 10
118.580000760908830
 20
-81.245939234443654
 11
101.830561877506790
 21
-81.245939234443654
  0
LINE
  8
0
  6
CONTINUOUS
 62
3
 10
197.561016039239060
 20
-136.686393230393260
 11
197.561016039239060
 21
-121.086393230392900
  0
ARC
  8
0
  6
CONTINUOUS
 62
3
 10
197.161016039238970
 20
-121.086393230392900
 40
0.400000000000091
 50
0.000000000000000
 51
90.000000000000000
  0
LINE
  8
0
  6
CONTINUOUS
 62
3
 10
197.161016039238970
 20
-120.686393230393260
 11
150.120823660374470
 21
-120.686393230393260
  0
LINE
  8
0
  6
CONTINUOUS
 62
3
 10
149.561016039239060
 20
-120.836393230392900
 11
150.120823660374470
 21
-120.686393230393260
  0
LINE
  8
0
  6
CONTINUOUS
 62
3
 10
149.561016039239060
 20
-120.836393230392900
 11
148.361016039239250
 21
-120.836393230392900
  0
LINE
  8
0
  6
CONTINUOUS
 62
3
 10
145.561016039217240
 20
-119.686393230393260
 11
147.361016039239250
 21
-119.686393230393260
  0
LINE
  8
0
  6
CONTINUOUS
 62
3
 10
147.561016039239060
 20
-119.886393230393080
 11
147.561016039239060
 21
-136.686393230393260
  0
ARC
  8
0
  6
CONTINUOUS
 62
3
 10
148.361016039239250
 20
-120.036393230393170
 40
0.800000000000237
 50
183.703196634280290
 51
270.000000000000000
  0
LINE
  8
0
  6
CONTINUOUS
 62
3
 10
147.561016039239060
 20
-119.886393230393080
 11
147.361016039239250
 21
-119.686393230393260
  0
LINE
  8
0
  6
CONTINUOUS
 62
3
 10
149.561016039239060
 20
-152.536393230393170
 11
150.120823660374470
 21
-152.686393230393260
  0
LINE
  8
0
  6
CONTINUOUS
 62
3
 10
145.561016039217240
 20
-153.686393230393260
 11
147.361016039239250
 21
-153.686393230393260
  0
LINE
  8
0
  6
CONTINUOUS
 62
3
 10
197.161016039238970
 20
-152.686393230393260
 11
150.120823660374470
 21
-152.686393230393260
  0
LINE
  8
0
  6
CONTINUOUS
 62
3
 10
149.561016039239060
 20
-152.536393230393170
 11
148.361016039239250
 21
-152.536393230393170
  0
LINE
  8
0
  6
CONTINUOUS
 62
3
 10
147.561016039239060
 20
-153.486393230392990
 11
147.561016039239060
 21
-136.686393230393260
  0
ARC
  8
0
  6
CONTINUOUS
 62
3
 10
148.361016039239250
 20
-153.336393230392900
 40
0.799999999999727
 50
90.000000000000000
 51
176.296803365752200
  0
LINE
  8
0
  6
CONTINUOUS
 62
3
 10
147.561016039239060
 20
-153.486393230392990
 11
147.361016039239250
 21
-153.686393230393260
  0
LINE
  8
0
  6
CONTINUOUS
 62
3
 10
197.561016039239060
 20
-136.686393230393260
 11
197.561016039239060
 21
-152.286393230393170
  0
ARC
  8
0
  6
CONTINUOUS
 62
3
 10
197.161016039238970
 20
-152.286393230393170
 40
0.400000000000091
 50
270.000000000000000
 51
0.000000000000000
  0
LINE
  8
0
  6
CONTINUOUS
 62
3
 10
197.561016039239060
 20
-131.686393230393260
 11
157.561016039239970
 21
-131.686393230393260
  0
LINE
  8
0
  6
CONTINUOUS
 62
3
 10
197.561016039239060
 20
-141.686393230393260
 11
157.561016039239970
 21
-141.686393230393260
  0
ARC
  8
0
  6
CONTINUOUS
 62
3
 10
157.561016039239970
 20
-136.686393230393260
 40
5.000000000000000
 50
90.000000000000000
 51
270.000000000000000
  0
LINE
  8
0
  6
DASHDOT
 62
4
 10
153.197525399058750
 20
-235.681342596510260
 11
114.201533209876450
 21
-235.681342596510260
  0
LINE
  8
0
  6
DASHDOT
 62
4
 10
153.197525399058750
 20
-37.691443864276721
 11
114.201533209876450
 21
-37.691443864276721
  0
ARC
  8
0
  6
CONTINUOUS
 62
3
 10
133.561016039217240
 20
-144.686393230393260
 40
3.000000000000000
 50
90.000000000000000
 51
180.000000000000000
  0
ARC
  8
0
  6
CONTINUOUS
 62
3
 10
133.561016039217240
 20
-200.134966549706970
 40
3.000000000000000
 50
180.000000000000000
 51
270.000000000000000
  0
LINE
  8
0
  6
CONTINUOUS
 62
3
 10
130.561016039217240
 20
-144.686393230393260
 11
130.561016039217240
 21
-224.973189794796440
  0
ARC
  8
0
  6
CONTINUOUS
 62
3
 10
133.561016039217240
 20
-224.973189794796440
 40
3.000000000000000
 50
180.000000000000000
 51
270.000000000000000
  0
LINE
  8
0
  6
CONTINUOUS
 62
3
 10
137.561016039217460
 20
-227.973189794796440
 11
133.561016039217240
 21
-227.973189794796440
  0
LINE
  8
0
  6
CONTINUOUS
 62
3
 10
137.561016039217460
 20
-203.134966549706970
 11
133.561016039217240
 21
-203.134966549706970
  0
LINE
  8
0
  6
CONTINUOUS
 62
3
 10
133.561016039217240
 20
-141.686393230393260
 11
137.561016039217460
 21
-141.686393230393260
  0
ARC
  8
0
  6
CONTINUOUS
 62
3
 10
133.561016039217240
 20
-48.399596665990089
 40
3.000000000000000
 50
90.000000000000000
 51
180.000000000000000
  0
ARC
  8
0
  6
CONTINUOUS
 62
3
 10
133.561016039217240
 20
-73.237819911079555
 40
3.000000000000000
 50
90.000000000000000
 51
180.000000000000000
  0
ARC
  8
0
  6
CONTINUOUS
 62
3
 10
133.561016039217240
 20
-128.686393230393260
 40
3.000000000000000
 50
180.000000000000000
 51
270.000000000000000
  0
LINE
  8
0
  6
CONTINUOUS
 62
3
 10
133.561016039217240
 20
-131.686393230393260
 11
137.561016039217460
 21
-131.686393230393260
  0
LINE
  8
0
  6
CONTINUOUS
 62
3
 10
137.561016039217460
 20
-70.237819911079555
 11
133.561016039217240
 21
-70.237819911079555
  0
LINE
  8
0
  6
CONTINUOUS
 62
3
 10
137.561016039217460
 20
-45.399596665990089
 11
133.561016039217240
 21
-45.399596665990089
  0
LINE
  8
0
  6
CONTINUOUS
 62
3
 10
130.561016039217240
 20
-128.686393230393260
 11
130.561016039217240
 21
-48.399596665990089
  0
ARC
  8
0
  6
CONTINUOUS
 62
3
 10
123.561016039217230
 20
-247.186393230393260
 40
2.000000000000000
 50
180.000000000000000
 51
270.000000000000000
  0
ARC
  8
0
  6
CONTINUOUS
 62
3
 10
118.571382489488480
 20
-25.864590434535444
 40
3.000000000000246
 50
330.000000000002730
 51
356.309860996867310
  0
LINE
  8
0
  6
CONTINUOUS
 62
3
 10
141.561016039217240
 20
-136.686393230393260
 11
141.561016039217240
 21
-240.686393230393260
  0
LINE
  8
0
  6
CONTINUOUS
 62
3
 10
130.514976639031090
 20
-248.863823897731090
 11
130.514976639031090
 21
-249.186393230393260
  0
LINE
  8
0
  6
CONTINUOUS
 62
3
 10
141.561016039217240
 20
-240.686393230393260
 11
140.561016039217240
 21
-241.686393230393260
  0
LINE
  8
0
  6
CONTINUOUS
 62
3
 10
140.561016039217240
 20
-241.686393230393260
 11
137.561016039217240
 21
-241.686393230393260
  0
LINE
  8
0
  6
CONTINUOUS
 62
3
 10
140.561016039217240
 20
-31.686393230393264
 11
141.561016039217240
 21
-32.686393230393264
  0
LINE
  8
0
  6
CONTINUOUS
 62
3
 10
137.561016039217240
 20
-31.686393230393264
 11
140.561016039217240
 21
-31.686393230393264
  0
LINE
  8
0
  6
CONTINUOUS
 62
3
 10
141.561016039217240
 20
-136.686393230393260
 11
141.561016039217240
 21
-32.686393230393264
  0
LINE
  8
0
  6
CONTINUOUS
 62
3
 10
37.561016039217236
 20
-66.686393230393264
 11
109.218867537570700
 21
-64.184045915945831
  0
LINE
  8
0
  6
CONTINUOUS
 62
3
 10
100.551692799205680
 20
-63.075608514731016
 11
121.169458700842080
 21
-27.364590434535444
  0
LINE
  8
0
  6
CONTINUOUS
 62
3
 10
121.561016039217230
 20
-247.186393230393260
 11
121.561016039217230
 21
-26.186393230393264
  0
LINE
  8
0
  6
CONTINUOUS
 62
3
 10
37.561016039217236
 20
-259.686393230393260
 11
123.475744676559710
 21
-262.129402292021610
  0
LINE
  8
0
  6
CONTINUOUS
 62
3
 10
126.561016039217230
 20
-252.186393230393260
 11
126.561016039217230
 21
-259.130614404439370
  0
LINE
  8
0
  6
CONTINUOUS
 62
3
 10
123.561016039217230
 20
-24.186393230393264
 11
137.561016039217240
 21
-24.186393230393264
  0
LINE
  8
0
  6
CONTINUOUS
 62
3
 10
144.561016039217240
 20
-103.186393230393260
 11
145.561016039217240
 21
-103.186393230393260
  0
LINE
  8
0
  6
CONTINUOUS
 62
3
 10
144.561016039217240
 20
-170.186393230393260
 11
145.561016039217240
 21
-170.186393230393260
  0
LINE
  8
0
  6
DASHDOT
 62
4
 10
82.260031520960808
 20
-136.686393230393260
 11
208.646438373176350
 21
-136.686393230393260
  0
LINE
  8
0
  6
CONTINUOUS
 62
3
 10
145.561016039217240
 20
-170.186393230393260
 11
145.561016039217240
 21
-103.186393230393260
  0
LINE
  8
0
  6
CONTINUOUS
 62
3
 10
137.561016039217460
 20
-136.686393230393260
 11
137.561016039217240
 21
-24.186393230393264
  0
LINE
  8
0
  6
CONTINUOUS
 62
3
 10
37.561016039217236
 20
-259.686393230393260
 11
37.561016039217236
 21
-66.686393230393264
  0
LINE
  8
0
  6
CONTINUOUS
 62
3
 10
137.561016039217240
 20
-249.186393230393260
 11
123.561016039217230
 21
-249.186393230393260
  0
LINE
  8
0
  6
CONTINUOUS
 62
3
 10
143.561016039217240
 20
-136.686393230393260
 11
143.561016039217240
 21
-181.839499530248870
  0
LINE
  8
0
  6
CONTINUOUS
 62
3
 10
143.561016039217240
 20
-136.686393230393260
 11
143.561016039217240
 21
-91.533286930538111
  0
LINE
  8
0
  6
CONTINUOUS
 62
3
 10
137.561016039217240
 20
-136.686393230393260
 11
137.561016039217240
 21
-249.186393230393720
  0
ARC
  8
0
  6
CONTINUOUS
 62
3
 10
143.561016039217240
 20
-187.035642147484510
 40
2.999999999999984
 50
120.000187270170780
 51
131.810314895779530
  0
ARC
  8
0
  6
CONTINUOUS
 62
3
 10
140.560999055707670
 20
-181.839499530248870
 40
2.999999999999871
 50
300.000187270167030
 51
0.000000000000000
  0
ARC
  8
0
  6
CONTINUOUS
 62
3
 10
97.953616587852309
 20
-61.575608514731016
 40
3.000000000000001
 50
272.000000000003640
 51
330.000000000000570
  0
ARC
  8
0
  6
CONTINUOUS
 62
3
 10
129.561016039217240
 20
-252.186393230393260
 40
3.000000000000000
 50
90.000000000000000
 51
180.000000000000000
  0
ARC
  8
0
  6
CONTINUOUS
 62
3
 10
123.561016039217230
 20
-259.130614404439370
 40
2.999999999999903
 50
268.371217566509590
 51
0.000000000000000
  0
ARC
  8
0
  6
CONTINUOUS
 62
3
 10
123.561016039217230
 20
-26.186393230393264
 40
2.000000000000000
 50
90.000000000000000
 51
180.000000000000000
  0
ARC
  8
0
  6
CONTINUOUS
 62
3
 10
144.561016039217240
 20
-171.186393230393260
 40
1.000000000000000
 50
90.000000000000000
 51
180.000000000000000
  0
ARC
  8
0
  6
CONTINUOUS
 62
3
 10
140.561016039217240
 20
-91.533286930538111
 40
3.000000000000000
 50
0.000000000000000
 51
70.528779365509465
  0
ARC
  8
0
  6
CONTINUOUS
 62
3
 10
144.561016039217240
 20
-102.186393230393260
 40
1.000000000000000
 50
180.000000000000000
 51
270.000000000000000
  0
LINE
  8
0
  6
CONTINUOUS
 62
3
 10
9.561016039220419
 20
-31.686393230393264
 11
14.061016039220419
 21
-31.686393230393264
  0
LINE
  8
0
  6
DASHDOT
 62
4
 10
3.830768638403867
 20
-51.686393230393264
 11
21.930034653695373
 21
-51.686393230393264
  0
LINE
  8
0
  6
CONTINUOUS
 62
3
 10
14.061016039220419
 20
-31.686393230393264
 11
14.061016039220419
 21
-85.686393230393264
  0
LINE
  8
0
  6
CONTINUOUS
 62
3
 10
9.561016039216781
 20
-85.686393230393264
 11
9.561016039220419
 21
-31.686393230393264
  0
INSERT
  8
0
  2
SYM1
 10
9.561016039217691
 20
-75.686393230393264
  0
LINE
  8
0
  6
CONTINUOUS
 62
3
 10
9.561016039216781
 20
-85.686393230393264
 11
14.061016039216781
 21
-85.686393230393264
  0
LINE
  8
0
  6
CONTINUOUS
 62
3
 10
17.061016039218600
 20
-104.579586730643420
 11
17.061016039220760
 21
-89.882545653099882
  0
INSERT
  8
0
  2
SYM1
 10
25.061016039214053
 20
-249.686393230393260
  0
INSERT
  8
0
  2
SYM1
 10
25.061016039214053
 20
-161.686393230393260
  0
INSERT
  8
0
  2
SYM1
 10
25.061016039214053
 20
-85.686393230393264
  0
LINE
  8
0
  6
CONTINUOUS
 62
3
 10
2.561016039215872
 20
-186.686393230393260
 11
25.061016039214053
 21
-186.686393230393260
  0
ARC
  8
0
  6
CONTINUOUS
 62
3
 10
23.061016039214053
 20
-132.222291615255590
 40
1.999999999999770
 50
300.000000000003810
 51
0.000000000000000
  0
ARC
  8
0
  6
CONTINUOUS
 62
3
 10
25.061016039214053
 20
-135.686393230393260
 40
2.000000000000164
 50
119.999999999997270
 51
180.000000000000000
  0
ARC
  8
0
  6
CONTINUOUS
 62
3
 10
23.061016039214053
 20
-151.150494845530940
 40
2.000000000000000
 50
0.000000000000000
 51
59.999999999996206
  0
ARC
  8
0
  6
CONTINUOUS
 62
3
 10
25.061016039214053
 20
-147.686393230393260
 40
2.000000000000000
 50
180.000000000000000
 51
240.000000000002730
  0
LINE
  8
0
  6
CONTINUOUS
 62
3
 10
23.061016039214053
 20
-135.686393230393260
 11
23.061016039214053
 21
-147.686393230393260
  0
ARC
  8
0
  6
CONTINUOUS
 62
3
 10
22.061016039218600
 20
-104.160324496379070
 40
2.999999999999901
 50
272.999999999988290
 51
0.000000000000000
  0
LINE
  8
0
  6
CONTINUOUS
 62
3
 10
25.061016039214053
 20
-69.686393230392355
 11
25.061016039214053
 21
-132.222291615255590
  0
LINE
  8
0
  6
CONTINUOUS
 62
3
 10
37.061016039215872
 20
-166.686393230393260
 11
37.061016039220419
 21
-66.686393230393264
  0
LINE
  8
0
  6
CONTINUOUS
 62
3
 10
37.061016039214053
 20
-166.686393230393260
 11
37.061016039214053
 21
-259.686393230393260
  0
LINE
  8
0
  6
CONTINUOUS
 62
3
 10
2.561016039215872
 20
-166.686393230391900
 11
2.561016039215872
 21
-228.179287477477490
  0
LINE
  8
0
  6
CONTINUOUS
 62
3
 10
2.561016039215872
 20
-166.686393230391900
 11
2.561016039215872
 21
-108.186393230391900
  0
LINE
  8
0
  6
CONTINUOUS
 62
3
 10
22.218023907947725
 20
-107.156213100642730
 11
2.561016039215872
 21
-108.186393230392350
  0
ARC
  8
0
  6
CONTINUOUS
 62
3
 10
27.061016039214053
 20
-257.686393230393260
 40
2.000000000000000
 50
180.000000000000000
 51
270.000000000000000
  0
ARC
  8
0
  6
CONTINUOUS
 62
3
 10
22.061016039214053
 20
-232.205356211490310
 40
3.000000000000000
 50
0.000000000000000
 51
86.999999999994344
  0
ARC
  8
0
  6
CONTINUOUS
 62
3
 10
14.061016039218600
 20
-104.579586730643420
 40
2.999999999999901
 50
272.999999999988290
 51
0.000000000000000
  0
ARC
  8
0
  6
CONTINUOUS
 62
3
 10
17.061016039220419
 20
-69.686393230391900
 40
3.000000000000000
 50
90.000000000000000
 51
179.999999999991330
  0
ARC
  8
0
  6
CONTINUOUS
 62
3
 10
28.061016039220419
 20
-69.686393230392355
 40
3.000000000000000
 50
90.000000000000000
 51
180.000000000000000
  0
LINE
  8
0
  6
CONTINUOUS
 62
3
 10
2.561016039215872
 20
-228.179287477477490
 11
22.218023907943177
 21
-229.209467607226660
  0
LINE
  8
0
  6
CONTINUOUS
 62
3
 10
37.561016039217236
 20
-259.686393230393260
 11
27.061016039214053
 21
-259.686393230393260
  0
LINE
  8
0
  6
CONTINUOUS
 62
3
 10
37.561016039217236
 20
-66.686393230393264
 11
17.061016039220419
 21
-66.686393230391900
  0
LINE
  8
0
  6
CONTINUOUS
 62
3
 10
14.061016039219510
 20
-84.686393230393264
 11
14.061016039220419
 21
-69.686393230391445
  0
LINE
  8
0
  6
CONTINUOUS
 62
3
 10
25.061016039214053
 20
-151.150494845530940
 11
25.061016039214053
 21
-257.686393230393260
  0
LINE
  8
0
  6
DASHDOT
 62
4
 10
384.005703647439080
 20
-166.686393230390190
 11
317.765057315915330
 21
-166.686393230390190
  0
ARC
  8
0
  6
CONTINUOUS
 62
3
 10
363.903304592623040
 20
-146.919791414574770
 40
77.139211988464197
 50
14.640477209921752
 51
88.089786828289931
  0
LINE
  8
0
  6
DASHDOT
 62
4
 10
241.403304592623040
 20
-245.186393230393150
 11
260.328472575084110
 21
-226.261225247931630
  0
ARC
  8
0
  6
DASHDOT
 62
4
 10
349.903304592623040
 20
-136.686393230393150
 40
139.999999999999970
 50
309.023079636433580
 51
321.565985342037210
  0
LINE
  8
0
  6
DASHDOT
 62
4
 10
458.403304592623040
 20
-245.186393230393150
 11
439.478136610161530
 21
-226.261225247931630
  0
ARC
  8
0
  6
DASHDOT
 62
4
 10
349.903304592623040
 20
-136.686393230393150
 40
139.999999999999860
 50
38.434014657962834
 51
50.976920363566450
  0
LINE
  8
0
  6
DASHDOT
 62
4
 10
458.403304592623040
 20
-28.186393230393151
 11
439.478136610161530
 21
-47.111561212854440
  0
CIRCLE
  8
0
  6
CONTINUOUS
 62
3
 10
349.903304592623040
 20
-136.686393230393150
 40
23.500000000000000
  0
CIRCLE
  8
0
  6
CONTINUOUS
 62
3
 10
349.903304592623040
 20
-136.686393230393150
 40
48.000000000000000
  0
ARC
  8
0
  6
CONTINUOUS
 62
3
 10
442.018528281772430
 20
-247.186393230393150
 40
1.999999999999695
 50
225.000000000018420
 51
270.000000000000000
  0
CIRCLE
  8
0
  6
CONTINUOUS
 62
3
 10
448.898253958740040
 20
-235.681342596509690
 40
7.500000000000000
  0
ARC
  8
0
  6
CONTINUOUS
 62
3
 10
460.403304592623040
 20
-228.801616919542990
 40
2.000000000000000
 50
0.000000000000000
 51
44.999999999990798
  0
ARC
  8
0
  6
CONTINUOUS
 62
3
 10
415.216598426448850
 20
-237.355026123545940
 40
9.999999999999437
 50
45.000000000001855
 51
122.975300819435740
  0
ARC
  8
0
  6
CONTINUOUS
 62
3
 10
349.903304592623040
 20
-136.686393230393150
 40
110.000000000000000
 50
270.000000000000000
 51
302.975300819434150
  0
ARC
  8
0
  6
CONTINUOUS
 62
3
 10
450.571937485775830
 20
-201.999687064218960
 40
9.999999999999902
 50
147.024699180564230
 51
224.999999999998180
  0
ARC
  8
0
  6
CONTINUOUS
 62
3
 10
257.788080903473200
 20
-247.186393230393150
 40
2.000000000000000
 50
270.000000000000000
 51
314.999999999990790
  0
CIRCLE
  8
0
  6
CONTINUOUS
 62
3
 10
250.908355226506050
 20
-235.681342596509690
 40
7.500000000000000
  0
ARC
  8
0
  6
CONTINUOUS
 62
3
 10
284.590010758797230
 20
-237.355026123545940
 40
9.999999999999902
 50
57.024699180564248
 51
134.999999999998150
  0
ARC
  8
0
  6
CONTINUOUS
 62
3
 10
349.903304592623040
 20
-136.686393230393150
 40
110.000000000000220
 50
237.024699180565850
 51
270.000000000000000
  0
ARC
  8
0
  6
CONTINUOUS
 62
3
 10
249.234671699470250
 20
-201.999687064218960
 40
9.999999999999758
 50
315.000000000000000
 51
32.975300819435773
  0
ARC
  8
0
  6
CONTINUOUS
 62
3
 10
257.788080903473200
 20
-26.186393230393151
 40
1.999999999999694
 50
45.000000000000000
 51
90.000000000000000
  0
CIRCLE
  8
0
  6
CONTINUOUS
 62
3
 10
250.908355226506050
 20
-37.691443864276607
 40
7.500000000000000
  0
ARC
  8
0
  6
DASHDOT
 62
4
 10
349.903304592623040
 20
-136.686393230393150
 40
140.000000000000260
 50
129.023079636433660
 51
141.565985342037290
  0
ARC
  8
0
  6
CONTINUOUS
 62
3
 10
239.403304592623040
 20
-44.571169541243762
 40
2.000000000000000
 50
180.000000000000000
 51
224.999999999990790
  0
ARC
  8
0
  6
CONTINUOUS
 62
3
 10
284.590010758797230
 20
-36.017760337240361
 40
9.999999999999758
 50
225.000000000003690
 51
302.975300819434380
  0
ARC
  8
0
  6
CONTINUOUS
 62
3
 10
349.903304592623040
 20
-136.686393230393150
 40
110.000000000000000
 50
90.000000000000000
 51
122.975300819434320
  0
ARC
  8
0
  6
CONTINUOUS
 62
3
 10
249.234671699470250
 20
-71.373099396567795
 40
9.999999999999902
 50
327.024699180564200
 51
45.000000000000000
  0
ARC
  8
0
  6
CONTINUOUS
 62
3
 10
245.403304592623040
 20
-32.186393230393151
 40
8.000000000000000
 50
90.000000000000000
 51
180.000000000000000
  0
ARC
  8
0
  6
CONTINUOUS
 62
3
 10
454.403304592623040
 20
-241.186393230393150
 40
8.000000000000000
 50
270.000000000000000
 51
0.000000000000000
  0
ARC
  8
0
  6
CONTINUOUS
 62
3
 10
245.403304592623040
 20
-241.186393230393150
 40
8.000000000000000
 50
180.000000000000000
 51
270.000000000000000
  0
CIRCLE
  8
0
  6
CONTINUOUS
 62
3
 10
349.903304592623040
 20
-136.686393230393150
 40
99.000000000000000
  0
ARC
  8
0
  6
CONTINUOUS
 62
3
 10
460.403304592623040
 20
-44.571169541243762
 40
2.000000000000016
 50
315.000000000009210
 51
0.000000000000000
  0
ARC
  8
0
  6
CONTINUOUS
 62
3
 10
442.018528281772430
 20
-26.186393230393151
 40
2.000000000000000
 50
90.000000000000000
 51
134.999999999990790
  0
CIRCLE
  8
0
  6
CONTINUOUS
 62
3
 10
448.898253958740040
 20
-37.691443864276607
 40
7.500000000000000
  0
ARC
  8
0
  6
CONTINUOUS
 62
3
 10
454.403304592623040
 20
-32.186393230393151
 40
8.000000000000000
 50
0.000000000000000
 51
90.000000000000000
  0
CIRCLE
  8
0
  6
CONTINUOUS
 62
3
 10
349.903304592623040
 20
-136.686393230393150
 40
105.000000000000000
  0
ARC
  8
0
  6
CONTINUOUS
 62
3
 10
450.571937485775830
 20
-71.373099396567795
 40
10.000000000000082
 50
135.000000000001820
 51
212.975300819435770
  0
ARC
  8
0
  6
CONTINUOUS
 62
3
 10
415.216598426448850
 20
-36.017760337240361
 40
10.000000000000284
 50
237.024699180565620
 51
314.999999999996310
  0
ARC
  8
0
  6
CONTINUOUS
 62
3
 10
349.903304592623040
 20
-136.686393230393150
 40
109.999999999999850
 50
57.024699180565683
 51
90.000000000000000
  0
ARC
  8
0
  6
CONTINUOUS
 62
3
 10
401.903304592623040
 20
-249.686393230393150
 40
12.566440900597172
 50
270.000000000000000
 51
358.218230102087600
  0
ARC
  8
0
  6
CONTINUOUS
 62
3
 10
297.903304592623040
 20
-249.686393230393150
 40
12.530739605809545
 50
181.781769897913250
 51
270.000000000000000
  0
ARC
  8
0
  6
CONTINUOUS
 62
3
 10
419.894601662833790
 20
-250.246062535803500
 40
5.433559099403096
 50
168.753929484950930
 51
178.218230102085670
  0
ARC
  8
0
  6
CONTINUOUS
 62
3
 10
279.912007522412300
 20
-250.246062535803500
 40
5.469260394190242
 50
1.781769897912350
 51
11.246070515048753
  0
CIRCLE
  8
0
  6
CONTINUOUS
 62
3
 10
349.903304592623040
 20
-136.686393230393150
 40
33.500000000000000
  0
ARC
  8
0
  6
CONTINUOUS
 62
3
 10
436.042516581087060
 20
-174.316649115869040
 40
5.000000000000556
 50
336.401698263640920
 51
0.000000000000000
  0
ARC
  8
0
  6
CONTINUOUS
 62
3
 10
263.764092604158120
 20
-174.316649115869040
 40
5.000000000000000
 50
180.000000000000000
 51
203.598301736363200
  0
ARC
  8
0
  6
CONTINUOUS
 62
3
 10
314.346128506360400
 20
-175.988902422180670
 40
4.999999999999588
 50
307.256131004966900
 51
47.864198486307934
  0
ARC
  8
0
  6
CONTINUOUS
 62
3
 10
336.745157490933250
 20
-205.438579849076630
 40
31.999999999999872
 50
127.256131004967170
 51
198.872128672720810
  0
ARC
  8
0
  6
CONTINUOUS
 62
3
 10
301.734173322753580
 20
-217.406494770878000
 40
4.999999999999471
 50
239.173668330597560
 51
18.872128672723658
  0
ARC
  8
0
  6
CONTINUOUS
 62
3
 10
388.697576792982090
 20
-194.953059897059570
 40
27.000000000000107
 50
353.114296223340200
 51
77.708022749951752
  0
ARC
  8
0
  6
CONTINUOUS
 62
3
 10
395.510171191127940
 20
-163.686647285979230
 40
4.999999999999936
 50
149.373547225007940
 51
257.708022749950660
  0
ARC
  8
0
  6
CONTINUOUS
 62
3
 10
420.466769980472690
 20
-198.789511931934610
 40
4.999999999999885
 50
173.114296223340180
 51
318.648896542797160
  0
ARC
  8
0
  6
CONTINUOUS
 62
3
 10
398.341752398081100
 20
-158.197245705315710
 40
4.999999999999789
 50
156.054647304130040
 51
255.297858639474210
  0
ARC
  8
0
  6
CONTINUOUS
 62
3
 10
388.697576792982090
 20
-194.953059897059570
 40
32.999999999999922
 50
5.724045726881045
 51
75.297858639474498
  0
ARC
  8
0
  6
CONTINUOUS
 62
3
 10
426.508101197101040
 20
-191.163040862076740
 40
5.000000000000169
 50
185.724045726879550
 51
324.581888853420930
  0
ARC
  8
0
  6
CONTINUOUS
 62
3
 10
310.103589120064950
 20
-171.686145348135600
 40
4.999999999999686
 50
308.284839477501690
 51
41.328301793388754
  0
ARC
  8
0
  6
CONTINUOUS
 62
3
 10
336.745157490933250
 20
-205.438579849076630
 40
37.999999999999908
 50
128.284839477505610
 51
189.449699705365930
  0
ARC
  8
0
  6
CONTINUOUS
 62
3
 10
294.328662430367790
 20
-212.498391941265710
 40
4.999999999999974
 50
233.756397618482510
 51
9.449699705361347
  0
ARC
  8
0
  6
CONTINUOUS
 62
3
 10
299.257475544220600
 20
-130.686393230393150
 40
3.000000000000000
 50
270.000000000000000
 51
353.243672969409600
  0
ARC
  8
0
  6
CONTINUOUS
 62
3
 10
299.257475544220600
 20
-142.686393230393150
 40
2.999999999999939
 50
6.756327030581794
 51
90.000000000000000
  0
ARC
  8
0
  6
CONTINUOUS
 62
3
 10
254.090988056595050
 20
-142.686393230393150
 40
3.000000000000000
 50
90.000000000000000
 51
183.583321698471880
  0
ARC
  8
0
  6
CONTINUOUS
 62
3
 10
254.090988056595050
 20
-130.686393230393150
 40
3.000000000000075
 50
176.416678301528120
 51
270.000000000000000
  0
ARC
  8
0
  6
CONTINUOUS
 62
3
 10
335.903304592622590
 20
-146.919791414574770
 40
77.139211988464069
 50
91.910213171709728
 51
165.359522790078270
  0
ARC
  8
0
  6
CONTINUOUS
 62
3
 10
266.106391358771820
 20
-128.686393230393150
 40
4.999999999999463
 50
165.359522790078730
 51
270.000000000000000
  0
ARC
  8
0
  6
CONTINUOUS
 62
3
 10
335.903304592622590
 20
-146.919791414574770
 40
77.139211988464439
 50
178.225864444680160
 51
180.000000000000000
  0
ARC
  8
0
  6
CONTINUOUS
 62
3
 10
263.798673403859990
 20
-144.686393230393150
 40
5.000000000000000
 50
90.000000000000000
 51
178.225864444682000
  0
ARC
  8
0
  6
CONTINUOUS
 62
3
 10
436.007935781386100
 20
-144.686393230393150
 40
4.999999999999758
 50
1.774135555318164
 51
90.000000000000000
  0
ARC
  8
0
  6
CONTINUOUS
 62
3
 10
433.700217826473820
 20
-128.686393230393150
 40
5.000000000000000
 50
270.000000000000000
 51
14.640477209919958
  0
ARC
  8
0
  6
CONTINUOUS
 62
3
 10
445.715621128650580
 20
-142.686393230393150
 40
3.000000000000075
 50
356.416678301528120
 51
90.000000000000000
  0
ARC
  8
0
  6
CONTINUOUS
 62
3
 10
445.715621128650580
 20
-130.686393230393150
 40
3.000000000000000
 50
270.000000000000000
 51
3.583321698471884
  0
ARC
  8
0
  6
CONTINUOUS
 62
3
 10
400.549133641025490
 20
-130.686393230393150
 40
3.000000000000444
 50
186.756327030589400
 51
270.000000000000000
  0
ARC
  8
0
  6
CONTINUOUS
 62
3
 10
400.549133641025490
 20
-142.686393230393150
 40
3.000000000000000
 50
90.000000000000000
 51
173.243672969419240
  0
ARC
  8
0
  6
CONTINUOUS
 62
3
 10
363.903304592623040
 20
-146.919791414574770
 40
77.139211988464012
 50
0.000000000000000
 51
1.774135555319836
  0
ARC
  8
0
  6
CONTINUOUS
 62
3
 10
343.903304592623040
 20
-86.040564181990703
 40
3.000000000000390
 50
276.756327030580790
 51
0.000000000000000
  0
ARC
  8
0
  6
CONTINUOUS
 62
3
 10
355.903304592623040
 20
-86.040564181990703
 40
3.000000000000000
 50
180.000000000000000
 51
263.243672969410620
  0
ARC
  8
0
  6
CONTINUOUS
 62
3
 10
355.903304592623040
 20
-40.874076694365613
 40
3.000000000000075
 50
86.416678301528108
 51
180.000000000000000
  0
ARC
  8
0
  6
CONTINUOUS
 62
3
 10
343.903304592623040
 20
-40.874076694365613
 40
3.000000000000000
 50
0.000000000000000
 51
93.583321698471892
  0
ARC
  8
0
  6
CONTINUOUS
 62
3
 10
349.903304592623040
 20
-566.686393230393150
 40
497.139211988463840
 50
88.089786828290045
 51
89.304278800861709
  0
ARC
  8
0
  6
CONTINUOUS
 62
3
 10
355.903304592623040
 20
-72.583609566325777
 40
2.999999999999993
 50
89.304278800860644
 51
180.000000000000000
  0
ARC
  8
0
  6
CONTINUOUS
 62
3
 10
349.903304592623040
 20
-566.686393230393150
 40
497.139211988464010
 50
90.695721199138291
 51
91.910213171709955
  0
ARC
  8
0
  6
CONTINUOUS
 62
3
 10
343.903304592623040
 20
-72.583609566325777
 40
3.000000000000000
 50
0.000000000000000
 51
90.695721199139356
  0
ARC
  8
0
  6
CONTINUOUS
 62
3
 10
460.403304592623040
 20
-133.686393230393150
 40
2.000000000000000
 50
0.000000000000000
 51
63.214562179985727
  0
ARC
  8
0
  6
CONTINUOUS
 62
3
 10
462.656557934195460
 20
-129.222891311642340
 40
3.000000000000164
 50
183.787068033871800
 51
243.214562179987690
  0
ARC
  8
0
  6
CONTINUOUS
 62
3
 10
459.403304592623040
 20
-138.686393230393150
 40
3.000000000000028
 50
303.156214469688900
 51
0.000000000000000
  0
ARC
  8
0
  6
CONTINUOUS
 62
3
 10
462.684846234506490
 20
-143.709488337255610
 40
3.000000000000028
 50
123.156214469688900
 51
176.436697168475770
  0
ARC
  8
0
  6
CONTINUOUS
 62
3
 10
240.403304592623040
 20
-138.686393230393610
 40
3.000000000000000
 50
180.000000000000000
 51
236.843785530306350
  0
ARC
  8
0
  6
CONTINUOUS
 62
3
 10
237.121762950739140
 20
-143.709488337255610
 40
3.000000000000222
 50
3.563302831523683
 51
56.843785530303819
  0
ARC
  8
0
  6
CONTINUOUS
 62
3
 10
239.403304592623040
 20
-133.686393230393610
 40
2.000000000000302
 50
116.785437820020030
 51
180.000000000000000
  0
ARC
  8
0
  6
CONTINUOUS
 62
3
 10
237.150051251050630
 20
-129.222891311642340
 40
3.000000000000044
 50
296.785437820004520
 51
356.212931966127600
  0
ARC
  8
0
  6
CONTINUOUS
 62
3
 10
349.903304592623040
 20
-136.686393230393150
 40
109.999999999999870
 50
3.787068033865315
 51
32.975300819434004
  0
ARC
  8
0
  6
CONTINUOUS
 62
3
 10
349.903304592623040
 20
-136.686393230393150
 40
110.000000000000220
 50
327.024699180565790
 51
356.436697168476600
  0
ARC
  8
0
  6
CONTINUOUS
 62
3
 10
349.903304592623040
 20
-136.686393230393150
 40
109.999999999999980
 50
147.024699180565990
 51
176.212931966134700
  0
ARC
  8
0
  6
CONTINUOUS
 62
3
 10
349.903304592623040
 20
-136.686393230393150
 40
109.999999999999900
 50
183.563302831523370
 51
212.975300819434210
  0
LINE
  8
0
  6
DASHDOT
 62
4
 10
480.021313915796780
 20
-136.686393230393150
 11
219.476422946994720
 21
-136.686393230393150
  0
LINE
  8
0
  6
CONTINUOUS
 62
3
 10
440.604314719400010
 20
-248.600606792766480
 11
422.287666238313700
 21
-230.283958311680640
  0
LINE
  8
0
  6
CONTINUOUS
 62
3
 10
461.817518154996380
 20
-227.387403357170110
 11
443.500869673910070
 21
-209.070754876084270
  0
LINE
  8
0
  6
CONTINUOUS
 62
3
 10
259.202294465846080
 20
-248.600606792766480
 11
277.518942946932380
 21
-230.283958311680640
  0
LINE
  8
0
  6
CONTINUOUS
 62
3
 10
237.989091030249710
 20
-227.387403357170110
 11
256.305739511335560
 21
-209.070754876084270
  0
LINE
  8
0
  6
CONTINUOUS
 62
3
 10
259.202294465846080
 20
-24.772179668020271
 11
277.518942946932380
 21
-43.088828149106121
  0
LINE
  8
0
  6
CONTINUOUS
 62
3
 10
237.989091030249710
 20
-45.985383103616641
 11
256.305739511335560
 21
-64.302031584702490
  0
LINE
  8
0
  6
DASHDOT
 62
4
 10
241.403304592623040
 20
-28.186393230393151
 11
260.328472575084110
 21
-47.111561212854440
  0
LINE
  8
0
  6
CONTINUOUS
 62
3
 10
237.403304592623040
 20
-32.186393230393151
 11
237.403304592623040
 21
-241.186393230393150
  0
LINE
  8
0
  6
CONTINUOUS
 62
3
 10
245.403304592623040
 20
-24.186393230393151
 11
454.403304592623040
 21
-24.186393230393151
  0
LINE
  8
0
  6
CONTINUOUS
 62
3
 10
245.403304592623040
 20
-249.186393230393150
 11
454.403304592623040
 21
-249.186393230393150
  0
LINE
  8
0
  6
CONTINUOUS
 62
3
 10
461.817518154996380
 20
-45.985383103616641
 11
443.500869673910070
 21
-64.302031584702490
  0
LINE
  8
0
  6
CONTINUOUS
 62
3
 10
440.604314719400010
 20
-24.772179668020271
 11
422.287666238313700
 21
-43.088828149106121
  0
LINE
  8
0
  6
CONTINUOUS
 62
3
 10
401.903304592623040
 20
-262.186393230393150
 11
349.903304592623040
 21
-262.186393230393150
  0
LINE
  8
0
  6
CONTINUOUS
 62
3
 10
297.903304592623040
 20
-262.186393230393150
 11
349.903304592623040
 21
-262.186393230393150
  0
LINE
  8
0
  6
CONTINUOUS
 62
3
 10
441.042516581087060
 20
-146.919791414574770
 11
441.042516581087060
 21
-174.316649115869040
  0
LINE
  8
0
  6
CONTINUOUS
 62
3
 10
258.764092604158120
 20
-146.919791414574770
 11
258.764092604158120
 21
-174.316649115869040
  0
LINE
  8
0
  6
CONTINUOUS
 62
3
 10
254.090988056595050
 20
-139.686393230393150
 11
299.257475544220600
 21
-139.686393230393150
  0
LINE
  8
0
  6
CONTINUOUS
 62
3
 10
254.090988056595050
 20
-133.686393230393150
 11
299.257475544220600
 21
-133.686393230393150
  0
LINE
  8
0
  6
CONTINUOUS
 62
3
 10
445.715621128650580
 20
-139.686393230393150
 11
400.549133641025490
 21
-139.686393230393150
  0
LINE
  8
0
  6
CONTINUOUS
 62
3
 10
445.715621128650580
 20
-133.686393230393150
 11
400.549133641025490
 21
-133.686393230393150
  0
LINE
  8
0
  6
CONTINUOUS
 62
3
 10
352.903304592623040
 20
-40.874076694365613
 11
352.903304592623040
 21
-86.040564181990703
  0
LINE
  8
0
  6
CONTINUOUS
 62
3
 10
346.903304592623040
 20
-40.874076694365613
 11
346.903304592623040
 21
-86.040564181990703
  0
LINE
  8
0
  6
CONTINUOUS
 62
3
 10
462.403304592623040
 20
-32.186393230393151
 11
462.403304592623040
 21
-131.686393230393150
  0
LINE
  8
0
  6
CONTINUOUS
 62
3
 10
462.403304592623040
 20
-131.686393230393150
 11
462.403304592623040
 21
-141.686393230393150
  0
LINE
  8
0
  6
CONTINUOUS
 62
3
 10
462.403304592623040
 20
-141.686393230393150
 11
462.403304592623040
 21
-241.186393230393150
  0
CIRCLE
  8
0
  6
CONTINUOUS
 62
4
 10
349.903304592623040
 20
-136.686393230393150
 40
4.000000000000000
  0
CIRCLE
  8
0
  6
CONTINUOUS
 62
3
 10
349.903304592623040
 20
-136.686393230393150
 40
3.323500000000024
  0
LINE
  8
0
  6
CONTINUOUS
 62
3
 10
330.903304592622130
 20
-131.686393230393150
 11
338.903304592622130
 21
-131.686393230393150
  0
LINE
  8
0
  6
CONTINUOUS
 62
3
 10
330.903304592622130
 20
-141.686393230393150
 11
330.903304592622130
 21
-131.686393230393150
  0
ARC
  8
0
  6
CONTINUOUS
 62
3
 10
349.903304592622130
 20
-136.686393230393150
 40
16.000000000000192
 50
198.209956864282790
 51
161.790043135717210
  0
LINE
  8
0
  6
CONTINUOUS
 62
3
 10
338.903304592622130
 20
-141.686393230393150
 11
338.903304592622130
 21
-131.686393230393150
  0
LINE
  8
0
  6
CONTINUOUS
 62
3
 10
330.903304592622130
 20
-141.686393230393150
 11
338.903304592622130
 21
-141.686393230393150
  0
LINE
  8
0
  6
CONTINUOUS
 62
3
 10
2.561016039215872
 20
-166.686393230391790
 11
2.561016039215872
 21
-108.186393230391780
  0
LINE
  8
0
  6
CONTINUOUS
 62
3
 10
2.561016039215872
 20
-166.686393230391790
 11
2.561016039215872
 21
-228.179287477477370
  0
LINE
  8
0
  6
CONTINUOUS
 62
3
 10
-105.438983960783440
 20
-112.946278129954180
 11
-107.438983960783440
 21
-114.598919769077610
  0
LINE
  8
0
  6
CONTINUOUS
 62
3
 10
-103.438983960783440
 20
-111.770492644331390
 11
-105.438983960783440
 21
-112.946278129954180
  0
LINE
  8
0
  6
CONTINUOUS
 62
3
 10
-105.438983960783440
 20
-112.946278129954180
 11
-103.438983960783440
 21
-114.598919769077610
  0
LINE
  8
0
  6
CONTINUOUS
 62
3
 10
-107.438983960783440
 20
-111.770492644331390
 11
-105.438983960783440
 21
-112.946278129954180
  0
POLYLINE
  8
0
  6
CONTINUOUS
 62
3
 66
1
 70
1
  0
VERTEX
  8
0
  6
CONTINUOUS
 62
3
 10
-100.738983960783450
 20
-114.762868198331710
  0
VERTEX
  8
0
  6
CONTINUOUS
 62
3
 10
-100.829293142888270
 20
-114.059911232131350
  0
VERTEX
  8
0
  6
CONTINUOUS
 62
3
 10
-101.096750157980400
 20
-113.383968507919260
  0
VERTEX
  8
0
  6
CONTINUOUS
 62
3
 10
-101.531076782961490
 20
-112.761016125513860
  0
VERTEX
  8
0
  6
CONTINUOUS
 62
3
 10
-102.115582089206680
 20
-112.214993795615280
  0
VERTEX
  8
0
  6
CONTINUOUS
 62
3
 10
-102.827803865591320
 20
-111.766884850148670
  0
VERTEX
  8
0
  6
CONTINUOUS
 62
3
 10
-103.640371828667520
 20
-111.433909864585900
  0
VERTEX
  8
0
  6
CONTINUOUS
 62
3
 10
-104.522059447307640
 20
-111.228864880887650
  0
VERTEX
  8
0
  6
CONTINUOUS
 62
3
 10
-105.438983960783440
 20
-111.159629662786880
  0
VERTEX
  8
0
  6
CONTINUOUS
 62
3
 10
-106.355908474259250
 20
-111.228864880887650
  0
VERTEX
  8
0
  6
CONTINUOUS
 62
3
 10
-107.237596092899360
 20
-111.433909864585900
  0
VERTEX
  8
0
  6
CONTINUOUS
 62
3
 10
-108.050164055975570
 20
-111.766884850148670
  0
VERTEX
  8
0
  6
CONTINUOUS
 62
3
 10
-108.762385832360200
 20
-112.214993795615280
  0
VERTEX
  8
0
  6
CONTINUOUS
 62
3
 10
-109.346891138605400
 20
-112.761016125513860
  0
VERTEX
  8
0
  6
CONTINUOUS
 62
3
 10
-109.781217763586480
 20
-113.383968507919260
  0
VERTEX
  8
0
  6
CONTINUOUS
 62
3
 10
-110.048674778678610
 20
-114.059911232131350
  0
VERTEX
  8
0
  6
CONTINUOUS
 62
3
 10
-110.138983960783430
 20
-114.762868198331710
  0
VERTEX
  8
0
  6
CONTINUOUS
 62
3
 10
-110.048674778678610
 20
-115.465825164532070
  0
VERTEX
  8
0
  6
CONTINUOUS
 62
3
 10
-109.781217763586480
 20
-116.141767888744170
  0
VERTEX
  8
0
  6
CONTINUOUS
 62
3
 10
-109.346891138605400
 20
-116.764720271149570
  0
VERTEX
  8
0
  6
CONTINUOUS
 62
3
 10
-108.762385832360200
 20
-117.310742601048140
  0
VERTEX
  8
0
  6
CONTINUOUS
 62
3
 10
-108.050164055975570
 20
-117.758851546514760
  0
VERTEX
  8
0
  6
CONTINUOUS
 62
3
 10
-107.237596092899360
 20
-118.091826532077530
  0
VERTEX
  8
0
  6
CONTINUOUS
 62
3
 10
-106.355908474259250
 20
-118.296871515775770
  0
VERTEX
  8
0
  6
CONTINUOUS
 62
3
 10
-105.438983960783440
 20
-118.366106733876540
  0
VERTEX
  8
0
  6
CONTINUOUS
 62
3
 10
-104.522059447307640
 20
-118.296871515775770
  0
VERTEX
  8
0
  6
CONTINUOUS
 62
3
 10
-103.640371828667520
 20
-118.091826532077530
  0
VERTEX
  8
0
  6
CONTINUOUS
 62
3
 10
-102.827803865591320
 20
-117.758851546514760
  0
VERTEX
  8
0
  6
CONTINUOUS
 62
3
 10
-102.115582089206680
 20
-117.310742601048140
  0
VERTEX
  8
0
  6
CONTINUOUS
 62
3
 10
-101.531076782961490
 20
-116.764720271149570
  0
VERTEX
  8
0
  6
CONTINUOUS
 62
3
 10
-101.096750157980400
 20
-116.141767888744170
  0
VERTEX
  8
0
  6
CONTINUOUS
 62
3
 10
-100.829293142888270
 20
-115.465825164532070
  0
SEQEND
  8
0
  6
CONTINUOUS
 62
3
  0
ARC
  8
0
  6
CONTINUOUS
 62
3
 10
-194.838983960733740
 20
-214.129598287637240
 40
2.600000000000136
 50
180.000000000000000
 51
234.999999999998610
  0
LINE
  8
0
  6
CONTINUOUS
 62
3
 10
-186.604536910225360
 20
-223.069434116171580
 11
-196.330282695246350
 21
-216.259393602788350
  0
ARC
  8
0
  6
CONTINUOUS
 62
3
 10
-175.133008183204370
 20
-206.686393230391790
 40
20.000000000000007
 50
234.999999999999740
 51
270.000000000000000
  0
LINE
  8
0
  6
CONTINUOUS
 62
3
 10
-197.438983960733880
 20
-166.686393230391790
 11
-197.438983960733880
 21
-214.129598287637240
  0
LINE
  8
0
  6
CONTINUOUS
 62
3
 10
-108.484873123913580
 20
-226.686393230391790
 11
-175.133008183204370
 21
-226.686393230391790
  0
LINE
  8
0
  6
CONTINUOUS
 62
3
 10
2.561016039215872
 20
-225.186393230391790
 11
2.561016039215872
 21
-166.686393230391790
  0
LINE
  8
0
  6
CONTINUOUS
 62
3
 10
2.561016039215872
 20
-225.186393230391790
 11
-25.999430182693970
 21
-225.186393230391790
  0
LINE
  8
0
  6
DASHDOT
 62
4
 10
45.253508077521644
 20
-166.686393230391790
 11
-212.120444660449720
 21
-166.686393230391790
  0
LINE
  8
0
  6
CONTINUOUS
 62
4
 10
-21.988983960785447
 20
-198.437184946766140
 11
2.561016039215872
 21
-198.437184946766140
  0
LINE
  8
0
  6
CONTINUOUS
 62
4
 10
-21.988983960785447
 20
-202.400930370565670
 11
2.561016039215872
 21
-202.400930370565670
  0
LINE
  8
0
  6
CONTINUOUS
 62
4
 10
-21.988983960785447
 20
-204.005578286127730
 11
2.561016039215872
 21
-204.005578286127730
  0
LINE
  8
0
  6
CONTINUOUS
 62
4
 10
-21.988983960785447
 20
-212.052179948861520
 11
2.561016039215872
 21
-212.052179948861520
  0
LINE
  8
0
  6
CONTINUOUS
 62
4
 10
-21.988983960785447
 20
-217.001927417167280
 11
2.561016039215872
 21
-217.001927417167280
  0
LINE
  8
0
  6
CONTINUOUS
 62
4
 10
-23.187908513504965
 20
-221.686393230391790
 11
2.561016039215872
 21
-221.686393230391790
  0
LINE
  8
0
  6
CONTINUOUS
 62
4
 10
-23.765464926350489
 20
-222.686393230391790
 11
2.561016039215872
 21
-222.686393230391790
  0
LINE
  8
0
  6
CONTINUOUS
 62
4
 10
-24.936553361175527
 20
-224.186393230391790
 11
2.561016039215872
 21
-224.186393230391790
  0
LINE
  8
0
  6
CONTINUOUS
 62
4
 10
-24.498664365276397
 20
-223.686393230391790
 11
2.561016039215872
 21
-223.686393230391790
  0
LINE
  8
0
  6
CONTINUOUS
 62
4
 10
-21.988983960785447
 20
-186.686393230391790
 11
2.561016039215872
 21
-186.686393230391790
  0
LINE
  8
0
  6
CONTINUOUS
 62
4
 10
-21.988983960785447
 20
-192.878327022871420
 11
2.561016039215872
 21
-192.878327022871420
  0
LINE
  8
0
  6
CONTINUOUS
 62
4
 10
-21.988983960785447
 20
-191.516446687522150
 11
2.561016039215872
 21
-191.516446687522150
  0
LINE
  8
0
  6
CONTINUOUS
 62
4
 10
-21.988983960785447
 20
-196.968827556961060
 11
2.561016039215872
 21
-196.968827556961060
  0
ARC
  8
0
  6
CONTINUOUS
 62
3
 10
-194.838983960733740
 20
-119.243188173146330
 40
2.599999999999721
 50
125.000000000001370
 51
180.000000000000000
  0
LINE
  8
0
  6
CONTINUOUS
 62
3
 10
-186.604536910225360
 20
-110.303352344611990
 11
-196.330282695246350
 21
-117.113392857995220
  0
ARC
  8
0
  6
CONTINUOUS
 62
3
 10
-175.133008183204370
 20
-126.686393230391780
 40
20.000000000000000
 50
90.000000000000000
 51
125.000000000000240
  0
LINE
  8
0
  6
CONTINUOUS
 62
3
 10
-197.438983960733880
 20
-166.686393230391790
 11
-197.438983960733880
 21
-119.243188173146330
  0
LINE
  8
0
  6
CONTINUOUS
 62
3
 10
-94.438983960784014
 20
-106.686393230391780
 11
-175.133008183204370
 21
-106.686393230391780
  0
LINE
  8
0
  6
CONTINUOUS
 62
3
 10
2.561016039215872
 20
-108.186393230391780
 11
2.561016039215872
 21
-166.686393230391790
  0
LINE
  8
0
  6
CONTINUOUS
 62
3
 10
2.561016039215872
 20
-108.186393230391780
 11
-94.438983960784014
 21
-108.186393230391780
  0
LINE
  8
0
  6
CONTINUOUS
 62
3
 10
-94.438983960784014
 20
-124.089785589785830
 11
-94.438983960784014
 21
-106.686393230391780
  0
LINE
  8
0
  6
CONTINUOUS
 62
4
 10
-21.988983960785447
 20
-134.935601514017430
 11
2.561016039215872
 21
-134.935601514017430
  0
LINE
  8
0
  6
CONTINUOUS
 62
4
 10
-22.788853734332918
 20
-130.971856090217900
 11
2.561016039215872
 21
-130.971856090217900
  0
LINE
  8
0
  6
CONTINUOUS
 62
4
 10
-23.594724664393482
 20
-129.367208174655840
 11
2.561016039215872
 21
-129.367208174655840
  0
LINE
  8
0
  6
CONTINUOUS
 62
4
 10
-94.438983960784014
 20
-121.320606511922050
 11
2.561016039215872
 21
-121.320606511922050
  0
LINE
  8
0
  6
CONTINUOUS
 62
4
 10
-94.438983960784014
 20
-116.370859043616290
 11
2.561016039215872
 21
-116.370859043616290
  0
LINE
  8
0
  6
CONTINUOUS
 62
4
 10
-94.438983960784014
 20
-111.686393230391780
 11
2.561016039215872
 21
-111.686393230391780
  0
LINE
  8
0
  6
CONTINUOUS
 62
4
 10
-94.438983960784014
 20
-110.686393230391780
 11
2.561016039215872
 21
-110.686393230391780
  0
LINE
  8
0
  6
CONTINUOUS
 62
4
 10
-94.438983960784014
 20
-109.186393230391780
 11
2.561016039215872
 21
-109.186393230391780
  0
LINE
  8
0
  6
CONTINUOUS
 62
4
 10
-94.438983960784014
 20
-109.686393230391780
 11
2.561016039215872
 21
-109.686393230391780
  0
LINE
  8
0
  6
CONTINUOUS
 62
4
 10
-21.988983960785447
 20
-146.686393230391790
 11
2.561016039215872
 21
-146.686393230391790
  0
LINE
  8
0
  6
CONTINUOUS
 62
4
 10
-21.988983960785447
 20
-140.494459437912160
 11
2.561016039215872
 21
-140.494459437912160
  0
LINE
  8
0
  6
CONTINUOUS
 62
4
 10
-21.988983960785447
 20
-141.856339773261420
 11
2.561016039215872
 21
-141.856339773261420
  0
LINE
  8
0
  6
CONTINUOUS
 62
4
 10
-21.988983960785447
 20
-136.403958903822510
 11
2.561016039215872
 21
-136.403958903822510
  0
LINE
  8
0
  6
CONTINUOUS
 62
3
 10
-114.888983960783030
 20
-135.089785589785830
 11
-114.888983960783030
 21
-216.692504958041580
  0
LINE
  8
0
  6
CONTINUOUS
 62
3
 10
-108.488983960783400
 20
-135.184603793284400
 11
-108.488983960783400
 21
-211.262347999944500
  0
ARC
  8
0
  6
CONTINUOUS
 62
4
 10
-103.488983960783400
 20
-141.686393230391560
 40
5.000000000000000
 50
90.000000000000000
 51
180.000000000000000
  0
LINE
  8
0
  6
CONTINUOUS
 62
4
 10
-68.438983960784128
 20
-136.686393230391560
 11
-103.488983960783400
 21
-136.686393230391560
  0
ARC
  8
0
  6
CONTINUOUS
 62
3
 10
-103.488983960783400
 20
-135.184603793284400
 40
5.000000000000000
 50
90.000000000000000
 51
180.000000000000000
  0
LINE
  8
0
  6
CONTINUOUS
 62
3
 10
-68.438983960784128
 20
-130.184603793284400
 11
-103.488983960783400
 21
-130.184603793284400
  0
ARC
  8
0
  6
CONTINUOUS
 62
3
 10
-103.888983960783030
 20
-135.089785589785830
 40
11.000000000000000
 50
90.000000000000000
 51
180.000000000000000
  0
LINE
  8
0
  6
CONTINUOUS
 62
3
 10
-103.888983960783030
 20
-124.089785589785830
 11
-68.438983960784128
 21
-124.089785589785830
  0
LINE
  8
0
  6
CONTINUOUS
 62
4
 10
-90.089619055394280
 20
-197.419240474685690
 11
-75.655862325653572
 21
-197.419240474685690
  0
LINE
  8
0
  6
CONTINUOUS
 62
4
 10
-68.438983960784128
 20
-184.919240474685690
 11
-75.655862325653572
 21
-197.419240474685690
  0
LINE
  8
0
  6
CONTINUOUS
 62
4
 10
-82.872740690523926
 20
-184.919240474685690
 11
-90.089619055394280
 21
-197.419240474685690
  0
LINE
  8
0
  6
CONTINUOUS
 62
4
 10
-82.872740690523926
 20
-184.919240474685690
 11
-68.438983960784128
 21
-184.919240474685690
  0
LINE
  8
0
  6
CONTINUOUS
 62
4
 10
-75.655862325654482
 20
-172.419240474685920
 11
-68.438983960784128
 21
-184.919240474685690
  0
LINE
  8
0
  6
CONTINUOUS
 62
4
 10
-68.438983960784128
 20
-159.919240474685690
 11
-75.655862325654482
 21
-172.419240474685690
  0
LINE
  8
0
  6
CONTINUOUS
 62
4
 10
-54.005227231044330
 20
-184.919240474685690
 11
-46.788348866173976
 21
-197.419240474685690
  0
LINE
  8
0
  6
CONTINUOUS
 62
4
 10
-46.788348866173976
 20
-197.419240474685690
 11
-61.222105595914684
 21
-197.419240474685690
  0
LINE
  8
0
  6
CONTINUOUS
 62
4
 10
-68.438983960784128
 20
-159.919240474685690
 11
-61.222105595913774
 21
-172.419240474685690
  0
LINE
  8
0
  6
CONTINUOUS
 62
4
 10
-61.222105595913774
 20
-172.419240474685920
 11
-68.438983960784128
 21
-184.919240474685690
  0
LINE
  8
0
  6
CONTINUOUS
 62
4
 10
-54.005227231044330
 20
-184.919240474685690
 11
-68.438983960784128
 21
-184.919240474685690
  0
LINE
  8
0
  6
CONTINUOUS
 62
4
 10
-68.438983960784128
 20
-184.919240474685690
 11
-61.222105595914684
 21
-197.419240474685690
  0
LINE
  8
0
  6
DASHDOT
 62
4
 10
-68.438983960784128
 20
-121.186793397599780
 11
-68.438983960784128
 21
-233.840512822836440
  0
ARC
  8
0
  6
CONTINUOUS
 62
3
 10
-103.488983960783400
 20
-211.262347999944500
 40
5.000000000000000
 50
180.000000000000000
 51
270.000000000000000
  0
LINE
  8
0
  6
CONTINUOUS
 62
3
 10
-76.926458178177711
 20
-216.262347999944500
 11
-103.488983960783400
 21
-216.262347999944500
  0
ARC
  8
0
  6
CONTINUOUS
 62
3
 10
-103.888983960783030
 20
-216.692504958041580
 40
11.000000000000000
 50
180.000000000000000
 51
270.000000000000000
  0
ARC
  8
0
  6
CONTINUOUS
 62
3
 10
-103.888983960783030
 20
-215.472295028814410
 40
11.000000000000000
 50
180.000000000000000
 51
270.000000000000000
  0
LINE
  8
0
  6
CONTINUOUS
 62
3
 10
-103.888983960783030
 20
-226.472295028814410
 11
-68.438983960784128
 21
-226.472295028814410
  0
LINE
  8
0
  6
CONTINUOUS
 62
3
 10
-103.888983960783030
 20
-227.692504958041580
 11
-68.438983960784128
 21
-227.692504958041580
  0
ARC
  8
0
  6
CONTINUOUS
 62
3
 10
-77.699202141397393
 20
-212.262348012794750
 40
3.999999987149749
 50
270.000000000000000
 51
318.821565628880590
  0
POLYLINE
  8
0
  6
CONTINUOUS
 62
3
 66
1
  0
VERTEX
  8
0
  6
CONTINUOUS
 62
3
 10
-68.438983960784128
 20
-212.150118216957200
  0
VERTEX
  8
0
  6
CONTINUOUS
 62
3
 10
-69.865835248199019
 20
-212.267300885608190
  0
VERTEX
  8
0
  6
CONTINUOUS
 62
3
 10
-71.246930125730685
 20
-212.615091066015370
  0
VERTEX
  8
0
  6
CONTINUOUS
 62
3
 10
-72.537979504627316
 20
-213.182335787866720
  0
VERTEX
  8
0
  6
CONTINUOUS
 62
3
 10
-73.697581884199010
 20
-213.950844590652480
  0
VERTEX
  8
0
  6
CONTINUOUS
 62
3
 10
-74.688551019285399
 20
-214.895972857173010
  0
SEQEND
  8
0
  6
CONTINUOUS
 62
3
  0
ARC
  8
0
  6
CONTINUOUS
 62
3
 10
-76.926458176504468
 20
-212.262348006168170
 40
3.999999993776328
 50
270.000000000000000
 51
313.301579148531630
  0
POLYLINE
  8
0
  6
CONTINUOUS
 62
3
 66
1
  0
VERTEX
  8
0
  6
CONTINUOUS
 62
3
 10
-68.438983960784128
 20
-212.951822255703920
  0
VERTEX
  8
0
  6
CONTINUOUS
 62
3
 10
-69.715024350703843
 20
-213.045390411622750
  0
VERTEX
  8
0
  6
CONTINUOUS
 62
3
 10
-70.958390738152247
 20
-213.323698994278830
  0
VERTEX
  8
0
  6
CONTINUOUS
 62
3
 10
-72.137245763797125
 20
-213.779621696864550
  0
VERTEX
  8
0
  6
CONTINUOUS
 62
3
 10
-73.221403931689039
 20
-214.401484265470120
  0
VERTEX
  8
0
  6
CONTINUOUS
 62
3
 10
-74.183104532263599
 20
-215.173363427396740
  0
SEQEND
  8
0
  6
CONTINUOUS
 62
3
  0
LINE
  8
0
  6
CONTINUOUS
 62
3
 10
-66.438983960784128
 20
-221.121291634619640
 11
-70.438983960784128
 21
-217.467109804049190
  0
LINE
  8
0
  6
CONTINUOUS
 62
3
 10
-70.438983960784128
 20
-221.121291634619640
 11
-66.438983960784128
 21
-217.467109804049190
  0
POLYLINE
  8
0
  6
CONTINUOUS
 62
3
 66
1
 70
1
  0
VERTEX
  8
0
  6
CONTINUOUS
 62
3
 10
-64.938983960784128
 20
-220.004887764410110
  0
VERTEX
  8
0
  6
CONTINUOUS
 62
3
 10
-65.006235479372819
 20
-219.331297994363980
  0
VERTEX
  8
0
  6
CONTINUOUS
 62
3
 10
-65.205405596994623
 20
-218.683593901427230
  0
VERTEX
  8
0
  6
CONTINUOUS
 62
3
 10
-65.528840317725226
 20
-218.086666390654760
  0
VERTEX
  8
0
  6
CONTINUOUS
 62
3
 10
-65.964110226631206
 20
-217.563455051524780
  0
VERTEX
  8
0
  6
CONTINUOUS
 62
3
 10
-66.494488145215527
 20
-217.134066602379730
  0
VERTEX
  8
0
  6
CONTINUOUS
 62
3
 10
-67.099591947506312
 20
-216.815002200516460
  0
VERTEX
  8
0
  6
CONTINUOUS
 62
3
 10
-67.756167833727673
 20
-216.618523311965190
  0
VERTEX
  8
0
  6
CONTINUOUS
 62
3
 10
-68.438983960784128
 20
-216.552180510226320
  0
VERTEX
  8
0
  6
CONTINUOUS
 62
3
 10
-69.121800087840583
 20
-216.618523311965190
  0
VERTEX
  8
0
  6
CONTINUOUS
 62
3
 10
-69.778375974061944
 20
-216.815002200516460
  0
VERTEX
  8
0
  6
CONTINUOUS
 62
3
 10
-70.383479776352729
 20
-217.134066602379730
  0
VERTEX
  8
0
  6
CONTINUOUS
 62
3
 10
-70.913857694937050
 20
-217.563455051524780
  0
VERTEX
  8
0
  6
CONTINUOUS
 62
3
 10
-71.349127603843030
 20
-218.086666390654760
  0
VERTEX
  8
0
  6
CONTINUOUS
 62
3
 10
-71.672562324573633
 20
-218.683593901427230
  0
VERTEX
  8
0
  6
CONTINUOUS
 62
3
 10
-71.871732442195437
 20
-219.331297994363980
  0
VERTEX
  8
0
  6
CONTINUOUS
 62
3
 10
-71.938983960784128
 20
-220.004887764410110
  0
VERTEX
  8
0
  6
CONTINUOUS
 62
3
 10
-71.871732442195437
 20
-220.678477534456250
  0
VERTEX
  8
0
  6
CONTINUOUS
 62
3
 10
-71.672562324573633
 20
-221.326181627393000
  0
VERTEX
  8
0
  6
CONTINUOUS
 62
3
 10
-71.349127603843030
 20
-221.923109138165470
  0
VERTEX
  8
0
  6
CONTINUOUS
 62
3
 10
-70.913857694937036
 20
-222.446320477295440
  0
VERTEX
  8
0
  6
CONTINUOUS
 62
3
 10
-70.383479776352729
 20
-222.875708926440500
  0
VERTEX
  8
0
  6
CONTINUOUS
 62
3
 10
-69.778375974061944
 20
-223.194773328303770
  0
VERTEX
  8
0
  6
CONTINUOUS
 62
3
 10
-69.121800087840583
 20
-223.391252216855040
  0
VERTEX
  8
0
  6
CONTINUOUS
 62
3
 10
-68.438983960784128
 20
-223.457595018593910
  0
VERTEX
  8
0
  6
CONTINUOUS
 62
3
 10
-67.756167833727687
 20
-223.391252216855040
  0
VERTEX
  8
0
  6
CONTINUOUS
 62
3
 10
-67.099591947506312
 20
-223.194773328303770
  0
VERTEX
  8
0
  6
CONTINUOUS
 62
3
 10
-66.494488145215527
 20
-222.875708926440500
  0
VERTEX
  8
0
  6
CONTINUOUS
 62
3
 10
-65.964110226631220
 20
-222.446320477295440
  0
VERTEX
  8
0
  6
CONTINUOUS
 62
3
 10
-65.528840317725226
 20
-221.923109138165470
  0
VERTEX
  8
0
  6
CONTINUOUS
 62
3
 10
-65.205405596994623
 20
-221.326181627393000
  0
VERTEX
  8
0
  6
CONTINUOUS
 62
3
 10
-65.006235479372833
 20
-220.678477534456250
  0
SEQEND
  8
0
  6
CONTINUOUS
 62
3
  0
LINE
  8
0
  6
CONTINUOUS
 62
3
 10
-59.951509743390773
 20
-216.262347999944500
 11
-33.388983960784969
 21
-216.262347999944500
  0
POLYLINE
  8
0
  6
CONTINUOUS
 62
3
 66
1
  0
VERTEX
  8
0
  6
CONTINUOUS
 62
3
 10
-62.694863389304658
 20
-215.173363427396740
  0
VERTEX
  8
0
  6
CONTINUOUS
 62
3
 10
-63.656563989879210
 20
-214.401484265470120
  0
VERTEX
  8
0
  6
CONTINUOUS
 62
3
 10
-64.740722157771131
 20
-213.779621696864550
  0
VERTEX
  8
0
  6
CONTINUOUS
 62
3
 10
-65.919577183416010
 20
-213.323698994278830
  0
VERTEX
  8
0
  6
CONTINUOUS
 62
3
 10
-67.162943570864414
 20
-213.045390411622750
  0
VERTEX
  8
0
  6
CONTINUOUS
 62
3
 10
-68.438983960784128
 20
-212.951822255703920
  0
SEQEND
  8
0
  6
CONTINUOUS
 62
3
  0
ARC
  8
0
  6
CONTINUOUS
 62
3
 10
-59.951509745064016
 20
-212.262348006168170
 40
3.999999999999828
 50
226.698420851470790
 51
270.000000000000000
  0
POLYLINE
  8
0
  6
CONTINUOUS
 62
3
 66
1
  0
VERTEX
  8
0
  6
CONTINUOUS
 62
3
 10
-62.189416902283085
 20
-214.895972857172720
  0
VERTEX
  8
0
  6
CONTINUOUS
 62
3
 10
-63.180386037369459
 20
-213.950844590652310
  0
VERTEX
  8
0
  6
CONTINUOUS
 62
3
 10
-64.339988416941139
 20
-213.182335787866630
  0
VERTEX
  8
0
  6
CONTINUOUS
 62
3
 10
-65.631037795837713
 20
-212.615091066015310
  0
VERTEX
  8
0
  6
CONTINUOUS
 62
3
 10
-67.012132673369308
 20
-212.267300885608190
  0
VERTEX
  8
0
  6
CONTINUOUS
 62
3
 10
-68.438983960784128
 20
-212.150118216957200
  0
SEQEND
  8
0
  6
CONTINUOUS
 62
3
  0
ARC
  8
0
  6
CONTINUOUS
 62
3
 10
-59.178765780170863
 20
-212.262348012794750
 40
4.000000000000156
 50
221.178434371117250
 51
270.000000000000000
  0
ARC
  8
0
  6
CONTINUOUS
 62
3
 10
-32.988983960785333
 20
-215.472295028814410
 40
11.000000000000000
 50
270.000000000000000
 51
0.000000000000000
  0
ARC
  8
0
  6
CONTINUOUS
 62
3
 10
-32.988983960785333
 20
-216.692504958041580
 40
11.000000000000000
 50
270.000000000000000
 51
0.000000000000000
  0
LINE
  8
0
  6
CONTINUOUS
 62
3
 10
-32.988983960785333
 20
-227.692504958041580
 11
-68.438983960784128
 21
-227.692504958041580
  0
LINE
  8
0
  6
CONTINUOUS
 62
3
 10
-32.988983960785333
 20
-226.472295028814410
 11
-68.438983960784128
 21
-226.472295028814410
  0
ARC
  8
0
  6
CONTINUOUS
 62
3
 10
-33.388983960784969
 20
-211.262347999944500
 40
5.000000000000000
 50
270.000000000000000
 51
0.000000000000000
  0
LINE
  8
0
  6
CONTINUOUS
 62
3
 10
-28.388983960784969
 20
-135.184603793284400
 11
-28.388983960784969
 21
-211.262347999944500
  0
LINE
  8
0
  6
CONTINUOUS
 62
3
 10
-21.988983960785333
 20
-135.089785589785830
 11
-21.988983960785333
 21
-216.692504958041580
  0
LINE
  8
0
  6
CONTINUOUS
 62
3
 10
-68.438983960784128
 20
-130.184603793284400
 11
-33.388983960784969
 21
-130.184603793284400
  0
ARC
  8
0
  6
CONTINUOUS
 62
3
 10
-33.388983960784969
 20
-135.184603793284400
 40
5.000000000000000
 50
0.000000000000000
 51
90.000000000000000
  0
LINE
  8
0
  6
CONTINUOUS
 62
4
 10
-68.438983960784128
 20
-136.686393230391560
 11
-33.388983960784969
 21
-136.686393230391560
  0
ARC
  8
0
  6
CONTINUOUS
 62
4
 10
-33.388983960784969
 20
-141.686393230391560
 40
5.000000000000000
 50
0.000000000000000
 51
90.000000000000000
  0
ARC
  8
0
  6
CONTINUOUS
 62
3
 10
-32.988983960785333
 20
-135.089785589785830
 40
11.000000000000000
 50
0.000000000000000
 51
90.000000000000000
  0
LINE
  8
0
  6
CONTINUOUS
 62
3
 10
-32.988983960785333
 20
-124.089785589785830
 11
-68.438983960784128
 21
-124.089785589785830
  0
LINE
  8
0
  6
DASHDOT
 62
4
 10
349.903304592623040
 20
-6.223595200794080
 11
349.903304592623040
 21
-275.758124186540950
  0
ENDSEC
  0
EOF
