  0
SECTION
  2
HEADER
  9
$FILLMODE
 70
1
  9
$TEXTSTYLE
  7
STANDARD1
  9
$ACADVER
  1
AC1009
  9
$DIMASZ
 40
1.931851648807023
  9
$DIMEXE
 40
2.000000000000000
  9
$DIMEXO
 40
1.000000000000000
  9
$DIMLFAC
 40
1.000000000000000
  9
$DIMSCALE
 40
1.000000000000000
  9
$DIMTAD
 70
1
  9
$DIMTFAC
 40
0.714285731315613
  9
$DIMTXT
 40
3.200000047683716
  9
$LUPREC
 70
3
  9
$TEXTSIZE
 40
3.299999952316284
  9
$REGENMODE
 70
1
  0
ENDSEC
  0
SECTION
  2
TABLES
  0
TABLE
  2
LTYPE
 70
4
  0
LTYPE
  2
CONTINUOUS
 70
64
  3
Solid line
 72
65
 73
0
 40
0.0
  0
LTYPE
  2
DASHED
 70
64
  3
-- -- -- -- -- -- -- -- -- -- -- -- -- -- --
 72
65
 73
2
 40
0.75
 49
0.5
 49
-0.25
  0
LTYPE
  2
DASHDOT
 70
64
  3
__ . __ . __ . __ . __ . __ . __ . __ . __ . __
 72
65
 73
4
 40
1.0
 49
0.5
 49
-0.25
 49
0.0
 49
-0.25
  0
LTYPE
  2
DIVIDE
 70
64
  3
__ . . __ . . __ . . __ . . __ . . __ . . __
 72
65
 73
6
 40
1.25
 49
0.5
 49
-0.25
 49
0.0
 49
-0.25
 49
0.0
 49
-0.25
  0
ENDTAB
  0
TABLE
  2
LAYER
 70
1
  0
LAYER
  2
0
 70
64
 62
2
  6
CONTINUOUS
  0
ENDTAB
  0
TABLE
  2
STYLE
 70
4
  0
STYLE
  2
STANDARD1
 70
64
 40
0.0
 41
1.0
 50
0.0
 71
0
 42
3.299999952316284
  3
MONOTXT
  4
BIGFONT
  0
STYLE
  2
STANDARD2
 70
68
 40
0.0
 41
1.0
 50
0.0
 71
0
 42
3.299999952316284
  3
MONOTXT
  4
BIGFONT
  0
STYLE
  2
STANDARD3
 70
64
 40
0.0
 41
1.0
 50
0.0
 71
0
 42
3.299999952316284
  3
MONOTXT
  4

  0
STYLE
  2
STANDARD4
 70
68
 40
0.0
 41
1.0
 50
0.0
 71
0
 42
3.299999952316284
  3
MONOTXT
  4

  0
ENDTAB
  0
TABLE
  2
VIEW
 70
0
  0
ENDTAB
  0
ENDSEC
  0
SECTION
  2
BLOCKS
  0
BLOCK
  8
0
  2
SYM1
 70
64
 10
0.000000000000000
 20
0.000000000000000
  0
POINT
  8
0
  6
CONTINUOUS
 62
3
 10
0.000000000000000
 20
0.000000000000000
  0
LINE
  8
0
  6
CONTINUOUS
 62
3
 10
0.000000000000000
 20
-6.500000000000000
 11
-0.000000000000000
 21
6.500000000000000
  0
LINE
  8
0
  6
CONTINUOUS
 62
3
 10
-7.999999046325684
 20
5.633875846862793
 11
-7.999999046325684
 21
-5.634070396423340
  0
LINE
  8
0
  6
CONTINUOUS
 62
3
 10
0.000000000000000
 20
6.500000000000000
 11
-7.499999046325684
 21
6.500000000000000
  0
LINE
  8
0
  6
CONTINUOUS
 62
3
 10
-0.000000000000000
 20
-6.500000000000000
 11
-7.499998092651367
 21
-6.500000000000000
  0
LINE
  8
0
  6
CONTINUOUS
 62
3
 10
-7.499999203818277
 20
6.499999909101064
 11
-7.999999021366804
 21
5.633876130311293
  0
LINE
  8
0
  6
CONTINUOUS
 62
3
 10
-7.499997911632022
 20
-6.499999445138201
 11
-7.999998623386432
 21
-5.634070287011241
  0
LINE
  8
0
  6
CONTINUOUS
 62
3
 10
-7.499999046325684
 20
6.500000000000000
 11
-7.499999046325684
 21
-6.500000000000000
  0
ENDBLK
  8
0
  0
ENDSEC
  0
SECTION
  2
ENTITIES
  0
LINE
  8
0
  6
CONTINUOUS
 62
3
 10
327.056386781209080
 20
-295.205268790199630
 11
313.500661129549030
 21
-295.205268790199630
  0
LINE
  8
0
  6
CONTINUOUS
 62
3
 10
447.500661129549090
 20
-295.205268790199630
 11
461.056386781209140
 21
-295.205268790199630
  0
LINE
  8
0
  6
CONTINUOUS
 62
3
 10
364.278523955379110
 20
-155.205268790199630
 11
372.278523955379110
 21
-155.205268790199630
  0
LINE
  8
0
  6
CONTINUOUS
 62
3
 10
364.278523955379110
 20
-143.205268790199630
 11
372.278523955379110
 21
-143.205268790199630
  0
LINE
  8
0
  6
CONTINUOUS
 62
3
 10
163.199108893487280
 20
-155.205268790199630
 11
212.199108893487280
 21
-155.205268790199630
  0
ARC
  8
0
  6
CONTINUOUS
 62
3
 10
163.199108893487280
 20
-149.205268790199630
 40
6.000000000000000
 50
180.000000000000000
 51
270.000000000000000
  0
ARC
  8
0
  6
CONTINUOUS
 62
3
 10
163.199108893487280
 20
-149.205268790199630
 40
6.000000000000000
 50
90.000000000000000
 51
180.000000000000000
  0
LINE
  8
0
  6
CONTINUOUS
 62
3
 10
157.199108893487280
 20
-149.205282454786810
 11
157.199108893487280
 21
-149.205268790199630
  0
LINE
  8
0
  6
CONTINUOUS
 62
3
 10
163.199108893487280
 20
-143.205268790199630
 11
212.199108893487280
 21
-143.205268790199630
  0
LINE
  8
0
  6
CONTINUOUS
 62
3
 10
-444.882379693587270
 20
-132.839164822169920
 11
-445.369183085292890
 21
-132.352361430464300
  0
LINE
  8
0
  6
CONTINUOUS
 62
3
 10
-438.235576220173580
 20
-126.192361348756190
 11
-438.722379611879210
 21
-125.705557957050570
  0
LINE
  8
0
  6
CONTINUOUS
 62
3
 10
-445.195518302556080
 20
-132.586617871319530
 11
-438.518419000083160
 21
-125.909518568846620
  0
LINE
  8
0
  6
CONTINUOUS
 62
3
 10
-444.882379693587270
 20
-132.839164822169920
 11
-438.235576220173580
 21
-126.192361348756190
  0
POINT
  8
0
  6
CONTINUOUS
 62
3
 10
-441.558977956880430
 20
-129.515763085463050
  0
ARC
  8
0
  6
CONTINUOUS
 62
3
 10
-439.296236391953410
 20
-131.778504650390090
 40
6.099999427795419
 50
84.601927898108485
 51
185.398089404735120
  0
LINE
  8
0
  6
CONTINUOUS
 62
3
 10
-444.882379693587270
 20
-229.571372758229560
 11
-445.369183085292890
 21
-230.058176149935180
  0
LINE
  8
0
  6
CONTINUOUS
 62
3
 10
-438.235576220173580
 20
-236.218176231643300
 11
-438.722379611879210
 21
-236.704979623348890
  0
LINE
  8
0
  6
CONTINUOUS
 62
3
 10
-445.195518302556080
 20
-229.823919709079950
 11
-438.518419000083160
 21
-236.501019011552870
  0
LINE
  8
0
  6
CONTINUOUS
 62
3
 10
-444.882379693587270
 20
-229.571372758229560
 11
-438.235576220173580
 21
-236.218176231643300
  0
POINT
  8
0
  6
CONTINUOUS
 62
3
 10
-441.558977956880430
 20
-232.894774494936430
  0
ARC
  8
0
  6
CONTINUOUS
 62
3
 10
-439.296236391953410
 20
-230.632032930009390
 40
6.099999427795398
 50
174.601910595264880
 51
275.398072101891500
  0
LINE
  8
0
  6
CONTINUOUS
 62
3
 10
-334.856564810700490
 20
-229.571372758229560
 11
-334.369761418994870
 21
-230.058176149935180
  0
LINE
  8
0
  6
CONTINUOUS
 62
3
 10
-341.503368284114170
 20
-236.218176231643300
 11
-341.016564892408550
 21
-236.704979623348890
  0
LINE
  8
0
  6
CONTINUOUS
 62
3
 10
-334.543426201731680
 20
-229.823919709079950
 11
-341.220525504204600
 21
-236.501019011552870
  0
LINE
  8
0
  6
CONTINUOUS
 62
3
 10
-334.856564810700490
 20
-229.571372758229560
 11
-341.503368284114170
 21
-236.218176231643300
  0
POINT
  8
0
  6
CONTINUOUS
 62
3
 10
-338.179966547407330
 20
-232.894774494936430
  0
ARC
  8
0
  6
CONTINUOUS
 62
3
 10
-340.442708112334340
 20
-230.632032930009390
 40
6.099999427795406
 50
264.601927898108500
 51
5.398089404735109
  0
LINE
  8
0
  6
CONTINUOUS
 62
3
 10
-334.856564810700490
 20
-132.839164822169920
 11
-334.369761418994870
 21
-132.352361430464300
  0
LINE
  8
0
  6
CONTINUOUS
 62
3
 10
-341.503368284114170
 20
-126.192361348756190
 11
-341.016564892408550
 21
-125.705557957050570
  0
LINE
  8
0
  6
CONTINUOUS
 62
3
 10
-334.543426201731680
 20
-132.586617871319530
 11
-341.220525504204600
 21
-125.909518568846620
  0
LINE
  8
0
  6
CONTINUOUS
 62
3
 10
-334.856564810700490
 20
-132.839164822169920
 11
-341.503368284114170
 21
-126.192361348756190
  0
POINT
  8
0
  6
CONTINUOUS
 62
3
 10
-338.179966547407330
 20
-129.515763085463050
  0
ARC
  8
0
  6
CONTINUOUS
 62
3
 10
-340.442708112334340
 20
-131.778504650390090
 40
6.099999427795398
 50
354.601910595264880
 51
95.398072101891515
  0
ARC
  8
0
  6
CONTINUOUS
 62
3
 10
133.699108893488870
 20
60.079016121869245
 40
2.999999999999972
 50
179.999999999998890
 51
270.000000000000000
  0
ARC
  8
0
  6
CONTINUOUS
 62
3
 10
133.699108893489640
 20
91.530842555631295
 40
3.000000000000028
 50
179.999999999998890
 51
270.000000000000000
  0
LINE
  8
0
  6
CONTINUOUS
 62
3
 10
130.699108893488900
 20
60.079016121869302
 11
130.699108893491400
 21
168.794731209800370
  0
LINE
  8
0
  6
CONTINUOUS
 62
3
 10
137.699108893488810
 20
57.079016121869245
 11
133.699108893488870
 21
57.079016121869245
  0
LINE
  8
0
  6
CONTINUOUS
 62
3
 10
137.699108893489520
 20
88.530842555631295
 11
133.699108893489640
 21
88.530842555631295
  0
ARC
  8
0
  6
CONTINUOUS
 62
3
 10
133.699108893488870
 20
277.510473626905880
 40
3.000000000000000
 50
90.000000000000000
 51
180.000000000001080
  0
ARC
  8
0
  6
CONTINUOUS
 62
3
 10
133.699108893489640
 20
246.058647193143830
 40
3.000000000000000
 50
90.000000000000000
 51
180.000000000001080
  0
LINE
  8
0
  6
CONTINUOUS
 62
3
 10
130.699108893488900
 20
277.510473626905820
 11
130.699108893491370
 21
168.794731209800370
  0
LINE
  8
0
  6
CONTINUOUS
 62
3
 10
137.699108893488810
 20
280.510473626905880
 11
133.699108893488870
 21
280.510473626905880
  0
LINE
  8
0
  6
CONTINUOUS
 62
3
 10
137.699108893489520
 20
249.058647193143830
 11
133.699108893489640
 21
249.058647193143830
  0
ARC
  8
0
  6
CONTINUOUS
 62
3
 10
133.699108893488870
 20
-257.920997542717940
 40
2.999999999999972
 50
179.999999999998890
 51
270.000000000000000
  0
ARC
  8
0
  6
CONTINUOUS
 62
3
 10
133.699108893489640
 20
-226.469171108955890
 40
3.000000000000028
 50
179.999999999998890
 51
270.000000000000000
  0
LINE
  8
0
  6
CONTINUOUS
 62
3
 10
130.699108893488900
 20
-257.920997542717880
 11
130.699108893491200
 21
-157.205268790199570
  0
ARC
  8
0
  6
CONTINUOUS
 62
3
 10
133.699108893491200
 20
-157.205268790199630
 40
3.000000000000000
 50
90.000000000000000
 51
179.999999999998890
  0
LINE
  8
0
  6
CONTINUOUS
 62
3
 10
137.699108893488810
 20
-260.920997542717940
 11
133.699108893488870
 21
-260.920997542717940
  0
LINE
  8
0
  6
CONTINUOUS
 62
3
 10
137.699108893489520
 20
-229.469171108955890
 11
133.699108893489640
 21
-229.469171108955890
  0
LINE
  8
0
  6
CONTINUOUS
 62
3
 10
133.699108893491200
 20
-154.205268790199630
 11
137.699108893491230
 21
-154.205268790199630
  0
ARC
  8
0
  6
CONTINUOUS
 62
3
 10
133.699108893491200
 20
-141.205268790199630
 40
3.000000000000000
 50
180.000000000001080
 51
270.000000000000000
  0
ARC
  8
0
  6
CONTINUOUS
 62
3
 10
133.699108893489640
 20
-71.941366471443345
 40
3.000000000000000
 50
90.000000000000000
 51
180.000000000001340
  0
ARC
  8
0
  6
CONTINUOUS
 62
3
 10
133.699108893488870
 20
-40.489540037681316
 40
3.000000000000000
 50
90.000000000000000
 51
180.000000000001220
  0
LINE
  8
0
  6
CONTINUOUS
 62
3
 10
130.699108893488900
 20
-40.489540037681380
 11
130.699108893491200
 21
-141.205268790199680
  0
LINE
  8
0
  6
CONTINUOUS
 62
3
 10
133.699108893491200
 20
-144.205268790199630
 11
137.699108893491230
 21
-144.205268790199630
  0
LINE
  8
0
  6
CONTINUOUS
 62
3
 10
137.699108893489520
 20
-68.941366471443345
 11
133.699108893489640
 21
-68.941366471443345
  0
LINE
  8
0
  6
CONTINUOUS
 62
3
 10
137.699108893488810
 20
-37.489540037681316
 11
133.699108893488870
 21
-37.489540037681316
  0
LINE
  8
0
  6
DASHDOT
 62
4
 10
0.890253540790582
 20
-77.205256780308446
 11
-23.695592598207440
 21
-77.205256780308446
  0
ARC
  8
0
  6
CONTINUOUS
 62
3
 10
-400.369472252143850
 20
-77.205267993098914
 40
10.000000000000000
 50
180.000000000000000
 51
270.000000000000000
  0
ARC
  8
0
  6
CONTINUOUS
 62
3
 10
-379.369472252143850
 20
-77.205267993098914
 40
10.000000000000000
 50
270.000000000000000
 51
0.000000000000000
  0
LINE
  8
0
  6
CONTINUOUS
 62
3
 10
-11.800897157717031
 20
172.794731209800370
 11
-11.800897157717031
 21
164.794731209800370
  0
LINE
  8
0
  6
CONTINUOUS
 62
3
 10
1.199103795956830
 20
69.294731209800375
 11
1.199103795956830
 21
56.294731209800375
  0
LINE
  8
0
  6
CONTINUOUS
 62
3
 10
1.699102842282514
 20
69.294731209800261
 11
1.199103795956830
 21
69.294731209800375
  0
LINE
  8
0
  6
CONTINUOUS
 62
3
 10
1.699102842282514
 20
56.294731209800375
 11
1.199104749631147
 21
56.294731209800375
  0
LINE
  8
0
  6
CONTINUOUS
 62
3
 10
0.699103795956830
 20
68.428607056663168
 11
0.699103795956830
 21
57.160660813377035
  0
LINE
  8
0
  6
CONTINUOUS
 62
3
 10
1.199104433814568
 20
69.294731233868788
 11
0.699104407667505
 21
68.428607093735081
  0
LINE
  8
0
  6
CONTINUOUS
 62
3
 10
1.199105060441866
 20
56.294731232501363
 11
0.699104110248186
 21
57.160660803569954
  0
LINE
  8
0
  6
CONTINUOUS
 62
3
 10
8.699102842282514
 20
95.294731209800375
 11
1.199104749631147
 21
95.294731209800375
  0
LINE
  8
0
  6
CONTINUOUS
 62
3
 10
1.199105060441866
 20
95.294731232501363
 11
0.699104110248641
 21
96.160660803569726
  0
LINE
  8
0
  6
CONTINUOUS
 62
3
 10
0.699103795956830
 20
107.428607056663160
 11
0.699103795956830
 21
96.160660813377035
  0
LINE
  8
0
  6
CONTINUOUS
 62
3
 10
8.699102842282514
 20
108.294731209800370
 11
1.199103795956830
 21
108.294731209800370
  0
LINE
  8
0
  6
CONTINUOUS
 62
3
 10
1.199104433814568
 20
108.294731233868560
 11
0.699104407667505
 21
107.428607093734510
  0
LINE
  8
0
  6
CONTINUOUS
 62
3
 10
1.199103795956830
 20
108.294731209800370
 11
1.199103795956830
 21
95.294731209800375
  0
LINE
  8
0
  6
CONTINUOUS
 62
3
 10
-15.800896204053629
 20
173.660855362937580
 11
-15.800896204053629
 21
184.928801606223710
  0
LINE
  8
0
  6
CONTINUOUS
 62
3
 10
-7.800897157727945
 20
172.794731209800370
 11
-15.300896204053629
 21
172.794731209800370
  0
LINE
  8
0
  6
CONTINUOUS
 62
3
 10
-7.800897157727945
 20
185.794731209800370
 11
-15.300895250379313
 21
185.794731209800370
  0
LINE
  8
0
  6
CONTINUOUS
 62
3
 10
-15.300895566195891
 20
172.794731185732190
 11
-15.800895592342954
 21
173.660855325866120
  0
LINE
  8
0
  6
CONTINUOUS
 62
3
 10
-15.300894939568593
 20
185.794731187099390
 11
-15.800895889761819
 21
184.928801616031020
  0
LINE
  8
0
  6
CONTINUOUS
 62
3
 10
-15.300896204053629
 20
172.794731209800370
 11
-15.300896204053629
 21
185.794731209800370
  0
LINE
  8
0
  6
CONTINUOUS
 62
3
 10
-15.300894939568593
 20
151.794731232501360
 11
-15.800895889761819
 21
152.660660803569730
  0
LINE
  8
0
  6
CONTINUOUS
 62
3
 10
-15.800896204053629
 20
163.928607056663170
 11
-15.800896204053629
 21
152.660660813377040
  0
LINE
  8
0
  6
CONTINUOUS
 62
3
 10
-15.300895566195891
 20
164.794731233868560
 11
-15.800895592342954
 21
163.928607093734510
  0
LINE
  8
0
  6
CONTINUOUS
 62
3
 10
-15.300896204053629
 20
164.794731209800370
 11
-15.300896204053629
 21
151.794731209800370
  0
LINE
  8
0
  6
CONTINUOUS
 62
3
 10
-7.800897157727945
 20
164.794731209800370
 11
-15.300896204053629
 21
164.794731209800370
  0
LINE
  8
0
  6
CONTINUOUS
 62
3
 10
-7.800897157727945
 20
151.794731209800370
 11
-15.300895250379313
 21
151.794731209800370
  0
LINE
  8
0
  6
CONTINUOUS
 62
3
 10
8.699102842282514
 20
242.294731209800370
 11
1.199104749631147
 21
242.294731209800370
  0
LINE
  8
0
  6
CONTINUOUS
 62
3
 10
1.199105060441866
 20
242.294731187099390
 11
0.699104110248641
 21
241.428801616031020
  0
LINE
  8
0
  6
CONTINUOUS
 62
3
 10
0.699103795956830
 20
230.160855362937580
 11
0.699103795956830
 21
241.428801606223710
  0
LINE
  8
0
  6
CONTINUOUS
 62
3
 10
8.699102842282514
 20
229.294731209800370
 11
1.199103795956830
 21
229.294731209800370
  0
LINE
  8
0
  6
CONTINUOUS
 62
3
 10
1.199104433814568
 20
229.294731185732190
 11
0.699104407667505
 21
230.160855325866120
  0
LINE
  8
0
  6
CONTINUOUS
 62
3
 10
1.199103795956830
 20
229.294731209800370
 11
1.199103795956830
 21
242.294731209800370
  0
LINE
  8
0
  6
CONTINUOUS
 62
3
 10
0.699103795956376
 20
269.160855362937580
 11
0.699103795956376
 21
280.428801606223710
  0
LINE
  8
0
  6
CONTINUOUS
 62
3
 10
1.199104433814114
 20
268.294731185732420
 11
0.699104407667051
 21
269.160855325866120
  0
LINE
  8
0
  6
CONTINUOUS
 62
3
 10
1.199105060441411
 20
281.294731187099390
 11
0.699104110248186
 21
280.428801616030800
  0
LINE
  8
0
  6
CONTINUOUS
 62
3
 10
1.199103795956376
 20
268.294731209800370
 11
1.199103795956376
 21
281.294731209800370
  0
LINE
  8
0
  6
CONTINUOUS
 62
3
 10
1.699102842282514
 20
281.294731209800370
 11
1.199104749630692
 21
281.294731209800370
  0
LINE
  8
0
  6
CONTINUOUS
 62
3
 10
1.699102842282514
 20
268.294731209800370
 11
1.199103795956376
 21
268.294731209800370
  0
LINE
  8
0
  6
CONTINUOUS
 62
3
 10
137.699108893487960
 20
28.794731209800375
 11
137.699108893487960
 21
168.794731209800370
  0
LINE
  8
0
  6
CONTINUOUS
 62
3
 10
141.699108893488410
 20
39.794731209800375
 11
141.699108893488410
 21
168.794731209800370
  0
LINE
  8
0
  6
CONTINUOUS
 62
3
 10
148.199108843668570
 20
118.641597580770390
 11
148.199108843668570
 21
168.794731209800370
  0
LINE
  8
0
  6
CONTINUOUS
 62
3
 10
148.199108843668570
 20
218.948063211947100
 11
148.199108843668570
 21
168.794731209800370
  0
LINE
  8
0
  6
CONTINUOUS
 62
3
 10
137.699108893488190
 20
308.794717545213190
 11
137.699108893491370
 21
168.794731209800370
  0
LINE
  8
0
  6
CONTINUOUS
 62
3
 10
141.699108893488190
 20
297.794717545213190
 11
141.699108893488410
 21
168.794731209800370
  0
LINE
  8
0
  6
CONTINUOUS
 62
3
 10
141.699108893488410
 20
222.135607474820520
 11
145.356116712397470
 21
221.943951816210760
  0
LINE
  8
0
  6
CONTINUOUS
 62
3
 10
119.699108893488180
 20
305.794717545213190
 11
119.699108893488180
 21
31.794744874387561
  0
LINE
  8
0
  6
CONTINUOUS
 62
3
 10
137.699108893487960
 20
28.794731209800375
 11
122.699108893487960
 21
28.794731209800375
  0
ARC
  8
0
  6
CONTINUOUS
 62
3
 10
122.699108893487960
 20
31.794744874387561
 40
2.999999999999773
 50
180.000000000000000
 51
270.000000000000000
  0
LINE
  8
0
  6
CONTINUOUS
 62
3
 10
145.356116712397470
 20
115.645708976506730
 11
141.699108893488410
 21
115.454053317896970
  0
ARC
  8
0
  6
CONTINUOUS
 62
3
 10
145.199108843668570
 20
218.948063211947100
 40
3.000000000000000
 50
0.000000000000000
 51
86.999999999998678
  0
ARC
  8
0
  6
CONTINUOUS
 62
3
 10
145.199108843668570
 20
118.641597580770390
 40
2.999999999999937
 50
273.000000000001360
 51
0.000000000000000
  0
ARC
  8
0
  6
CONTINUOUS
 62
3
 10
149.199108868578720
 20
126.794717520303940
 40
1.000000024909241
 50
90.000000000000000
 51
180.000000000000000
  0
ARC
  8
0
  6
CONTINUOUS
 62
3
 10
149.199108868578720
 20
210.794717570122430
 40
1.000000024909241
 50
180.000000000000000
 51
270.000000000000000
  0
ARC
  8
0
  6
CONTINUOUS
 62
3
 10
113.699108893488180
 20
295.063480634384180
 40
5.999999999999986
 50
271.999999999999320
 51
0.000000000000000
  0
ARC
  8
0
  6
CONTINUOUS
 62
3
 10
122.699108893487960
 20
305.794717545213190
 40
3.000000000000000
 50
90.000000000000000
 51
180.000000000000000
  0
LINE
  8
0
  6
CONTINUOUS
 62
3
 10
149.199108868578720
 20
209.794717545213190
 11
150.199108893488190
 21
209.794717545213190
  0
LINE
  8
0
  6
CONTINUOUS
 62
3
 10
141.699108893488410
 20
39.794731209800375
 11
140.699108893488410
 21
38.794731209800375
  0
LINE
  8
0
  6
CONTINUOUS
 62
3
 10
149.199108868578720
 20
127.794717545213180
 11
150.199108893488190
 21
127.794717545213180
  0
LINE
  8
0
  6
CONTINUOUS
 62
3
 10
140.699108893488190
 20
298.794717545213190
 11
141.699108893488190
 21
297.794717545213190
  0
LINE
  8
0
  6
CONTINUOUS
 62
3
 10
140.699108893488410
 20
38.794731209800375
 11
137.699108893487960
 21
38.794731209800375
  0
LINE
  8
0
  6
CONTINUOUS
 62
3
 10
150.199108893488190
 20
209.794717545213190
 11
150.199108893488190
 21
127.794717545213180
  0
LINE
  8
0
  6
CONTINUOUS
 62
3
 10
140.699108893488190
 20
298.794717545213190
 11
137.699108893488410
 21
298.794717545213190
  0
LINE
  8
0
  6
CONTINUOUS
 62
3
 10
137.699108893488190
 20
308.794717545213190
 11
122.699108893487960
 21
308.794717545213190
  0
LINE
  8
0
  6
CONTINUOUS
 62
3
 10
20.199102842282059
 20
285.794731209800830
 11
20.199102842282059
 21
51.794731209800375
  0
LINE
  8
0
  6
DASHDOT
 62
4
 10
-235.770128125335990
 20
168.794731209800370
 11
229.145160143732600
 21
168.794731209800370
  0
LINE
  8
0
  6
CONTINUOUS
 62
3
 10
20.199102842282059
 20
285.794731209800370
 11
113.908505873703120
 21
289.067135672269610
  0
ARC
  8
0
  6
CONTINUOUS
 62
3
 10
113.699108893488180
 20
42.525981785216572
 40
6.000000000000000
 50
0.000000000000000
 51
88.000000000000682
  0
LINE
  8
0
  6
CONTINUOUS
 62
3
 10
20.199102842282059
 20
51.794731209800375
 11
113.908505873703120
 21
48.522326747331135
  0
LINE
  8
0
  6
CONTINUOUS
 62
3
 10
101.177255880007920
 20
172.044731209800370
 11
116.699108893488180
 21
172.044731209800370
  0
LINE
  8
0
  6
CONTINUOUS
 62
3
 10
101.177255880007920
 20
165.544731209800370
 11
116.699108893488180
 21
165.544731209800370
  0
ARC
  8
0
  6
CONTINUOUS
 62
3
 10
116.699108893488180
 20
175.044731209800370
 40
3.000000000000000
 50
270.000000000000000
 51
0.000000000000000
  0
ARC
  8
0
  6
CONTINUOUS
 62
3
 10
116.699108893488180
 20
162.544731209800370
 40
3.000000000000000
 50
0.000000000000000
 51
90.000000000000000
  0
ARC
  8
0
  6
CONTINUOUS
 62
3
 10
101.177255880007920
 20
162.544731209800370
 40
3.000000000000000
 50
90.000000000000000
 51
180.000000000000000
  0
ARC
  8
0
  6
CONTINUOUS
 62
3
 10
101.177255880007920
 20
175.044731209800370
 40
3.000000000000000
 50
180.000000000000000
 51
270.000000000000000
  0
LINE
  8
0
  6
CONTINUOUS
 62
3
 10
116.667126740856130
 20
238.318913511034220
 11
101.070304938191490
 21
238.318913511034220
  0
LINE
  8
0
  6
CONTINUOUS
 62
3
 10
99.077633550571477
 20
239.505079791643310
 11
119.088671037145670
 21
265.867814766761510
  0
ARC
  8
0
  6
CONTINUOUS
 62
3
 10
116.699108893488180
 20
267.681648486151970
 40
2.999999999999797
 50
322.799127827378920
 51
0.000000000000000
  0
ARC
  8
0
  6
CONTINUOUS
 62
3
 10
96.688071406913764
 20
241.318913511034220
 40
3.000000000000000
 50
270.000000000000000
 51
322.799127827374600
  0
LINE
  8
0
  6
CONTINUOUS
 62
3
 10
99.077633550571477
 20
245.343914556475740
 11
119.088671037145670
 21
271.706649531593940
  0
ARC
  8
0
  6
CONTINUOUS
 62
3
 10
116.699108893488180
 20
273.520483250984400
 40
2.999999999999797
 50
322.799127827378920
 51
0.000000000000000
  0
ARC
  8
0
  6
CONTINUOUS
 62
3
 10
96.688071406913764
 20
247.157748275866650
 40
3.000000000000000
 50
270.000000000000000
 51
322.799127827374600
  0
LINE
  8
0
  6
CONTINUOUS
 62
3
 10
116.667126740856130
 20
99.270548908566525
 11
101.070304938191490
 21
99.270548908566525
  0
LINE
  8
0
  6
CONTINUOUS
 62
3
 10
99.077633550571477
 20
92.245547863125012
 11
119.088671037145670
 21
65.882812888006811
  0
ARC
  8
0
  6
CONTINUOUS
 62
3
 10
116.699108893488180
 20
64.068979168616352
 40
3.000000000000000
 50
0.000000000000000
 51
37.200872172621111
  0
ARC
  8
0
  6
CONTINUOUS
 62
3
 10
96.688071406913764
 20
90.431714143734098
 40
3.000000000000254
 50
37.200872172625409
 51
90.000000000000000
  0
ARC
  8
0
  6
CONTINUOUS
 62
3
 10
96.688071406913764
 20
96.270548908566525
 40
3.000000000000254
 50
37.200872172625409
 51
90.000000000000000
  0
LINE
  8
0
  6
CONTINUOUS
 62
3
 10
99.077633550571477
 20
98.084382627957439
 11
119.088671037145670
 21
71.721647652839238
  0
ARC
  8
0
  6
CONTINUOUS
 62
3
 10
116.699108893488180
 20
69.907813933448779
 40
3.000000000000000
 50
0.000000000000000
 51
37.200872172621111
  0
ARC
  8
0
  6
CONTINUOUS
 62
3
 10
211.799108893487190
 20
149.194717545212820
 40
0.399999999999636
 50
270.000000000000000
 51
0.000000000000000
  0
LINE
  8
0
  6
CONTINUOUS
 62
3
 10
212.199108893487280
 20
168.794717545213190
 11
212.199108893487280
 21
145.794717545213190
  0
LINE
  8
0
  6
CONTINUOUS
 62
3
 10
211.799108893487190
 20
148.794717545213190
 11
155.258923640491840
 21
148.794717545213190
  0
LINE
  8
0
  6
CONTINUOUS
 62
3
 10
212.199108893487280
 20
168.794717545213190
 11
212.199108893487280
 21
188.394717545212640
  0
LINE
  8
0
  6
CONTINUOUS
 62
3
 10
211.799108893487190
 20
188.794717545213190
 11
155.258923640491840
 21
188.794717545212280
  0
ARC
  8
0
  6
CONTINUOUS
 62
3
 10
211.799108893487190
 20
188.394717545212640
 40
0.400000000000091
 50
0.000000000000000
 51
90.000000000000000
  0
LINE
  8
0
  6
CONTINUOUS
 62
3
 10
212.199116019355980
 20
145.794717545213190
 11
157.199116019355980
 21
145.794717545213190
  0
LINE
  8
0
  6
CONTINUOUS
 62
3
 10
155.258923640491390
 20
148.794717545213190
 11
154.699116019355980
 21
148.944717545212820
  0
LINE
  8
0
  6
CONTINUOUS
 62
3
 10
152.199108893487280
 20
168.794717545213190
 11
152.199108893487280
 21
146.694717545212820
  0
LINE
  8
0
  6
CONTINUOUS
 62
3
 10
151.799108893487190
 20
146.294717545213190
 11
152.199108893487280
 21
146.694717545212820
  0
LINE
  8
0
  6
CONTINUOUS
 62
3
 10
154.699116019355980
 20
148.944717545212820
 11
153.799108893487190
 21
148.944717545212820
  0
ARC
  8
0
  6
CONTINUOUS
 62
3
 10
153.799108893487190
 20
147.344717545213370
 40
1.599999999999454
 50
90.000000000000000
 51
180.000000000000000
  0
LINE
  8
0
  6
CONTINUOUS
 62
3
 10
151.799108893487190
 20
146.294717545213190
 11
150.199108893488190
 21
146.294717545213190
  0
LINE
  8
0
  6
CONTINUOUS
 62
3
 10
155.258923640491390
 20
188.794717545212280
 11
154.699116019355980
 21
188.644717545212640
  0
LINE
  8
0
  6
CONTINUOUS
 62
3
 10
152.199108893487280
 20
168.794717545213190
 11
152.199108893487280
 21
190.894717545212640
  0
LINE
  8
0
  6
CONTINUOUS
 62
3
 10
151.799108893487190
 20
191.294717545213190
 11
150.199108893488190
 21
191.294717545213190
  0
LINE
  8
0
  6
CONTINUOUS
 62
3
 10
151.799108893487190
 20
191.294717545213190
 11
152.199108893487280
 21
190.894717545212640
  0
LINE
  8
0
  6
CONTINUOUS
 62
3
 10
154.699116019355980
 20
188.644717545212640
 11
153.799108893487190
 21
188.644717545212640
  0
ARC
  8
0
  6
CONTINUOUS
 62
3
 10
153.799108893487190
 20
190.244717545213010
 40
1.599999999999909
 50
180.000000000000000
 51
270.000000000000000
  0
LINE
  8
0
  6
CONTINUOUS
 62
3
 10
157.199108893487280
 20
148.794717545213190
 11
157.199108893487280
 21
145.794717545213190
  0
LINE
  8
0
  6
DASHDOT
 62
4
 10
156.392038682540830
 20
48.586578408077912
 11
102.460479288558070
 21
48.586578408077912
  0
LINE
  8
0
  6
DASHDOT
 62
4
 10
156.392038682540830
 20
289.002884011503740
 11
102.460479288558070
 21
289.002884011503740
  0
ARC
  8
0
  6
CONTINUOUS
 62
3
 10
3.699102842282059
 20
234.113913518676780
 40
5.000000000000018
 50
272.999999999995110
 51
285.455770299465660
  0
LINE
  8
0
  6
CONTINUOUS
 62
3
 10
-11.800897157717031
 20
185.794731209800370
 11
-11.800897157717031
 21
228.294731209800370
  0
LINE
  8
0
  6
CONTINUOUS
 62
3
 10
8.699102842282059
 20
282.794731209800370
 11
8.699102842282059
 21
192.294731209800370
  0
LINE
  8
0
  6
CONTINUOUS
 62
3
 10
-0.300897157717714
 20
189.294731209800370
 11
5.699102842282059
 21
189.294731209800370
  0
LINE
  8
0
  6
CONTINUOUS
 62
3
 10
-7.800897157728627
 20
189.294731209800370
 11
-3.300897157717941
 21
189.294731209800370
  0
LINE
  8
0
  6
CONTINUOUS
 62
3
 10
-7.800897157728627
 20
189.294731209800370
 11
-7.800897157727263
 21
168.794731209800370
  0
LINE
  8
0
  6
CONTINUOUS
 62
3
 10
-3.300897157717486
 20
168.794731209800370
 11
-3.300897157717714
 21
189.294731209800370
  0
ARC
  8
0
  6
CONTINUOUS
 62
3
 10
-0.300897157717714
 20
186.294731209800370
 40
3.000000000000000
 50
90.000000000000000
 51
180.000000000000000
  0
ARC
  8
0
  6
CONTINUOUS
 62
3
 10
5.699102842282059
 20
192.294731209800370
 40
3.000000000000000
 50
270.000000000000000
 51
0.000000000000000
  0
LINE
  8
0
  6
CONTINUOUS
 62
3
 10
3.960782623496357
 20
229.120765844903870
 11
-11.800897157717031
 21
228.294731209800370
  0
ARC
  8
0
  6
CONTINUOUS
 62
3
 10
11.699102842282059
 20
282.794731209800370
 40
3.000000000000000
 50
90.000000000000000
 51
180.000000000000000
  0
ARC
  8
0
  6
CONTINUOUS
 62
3
 10
4.699102842282059
 20
282.794731209800370
 40
3.000000000000000
 50
90.000000000000000
 51
180.000000000000000
  0
LINE
  8
0
  6
CONTINUOUS
 62
3
 10
20.199102842282059
 20
285.794731209800370
 11
4.699102842282059
 21
285.794731209800370
  0
LINE
  8
0
  6
CONTINUOUS
 62
3
 10
1.699102842282286
 20
259.794731209800370
 11
1.699102842282286
 21
282.794731209800370
  0
ARC
  8
0
  6
CONTINUOUS
 62
3
 10
6.699102842282286
 20
255.794731209800830
 40
2.000000000000000
 50
0.000000000000000
 51
90.000000000000000
  0
LINE
  8
0
  6
CONTINUOUS
 62
3
 10
6.699102842282286
 20
257.794731209800830
 11
3.699102842282286
 21
257.794731209800370
  0
ARC
  8
0
  6
CONTINUOUS
 62
3
 10
3.699102842282286
 20
259.794731209800370
 40
2.000000000000000
 50
180.000000000000000
 51
270.000000000000000
  0
LINE
  8
0
  6
CONTINUOUS
 62
3
 10
19.699102842282059
 20
285.794731209800370
 11
19.699102842282059
 21
168.794731209800370
  0
ARC
  8
0
  6
CONTINUOUS
 62
3
 10
3.699102842282059
 20
103.475548900923960
 40
4.999999999999811
 50
74.544229700534345
 51
87.000000000004846
  0
LINE
  8
0
  6
CONTINUOUS
 62
3
 10
-11.800897157717031
 20
151.794731209800370
 11
-11.800897157717031
 21
109.294731209800370
  0
LINE
  8
0
  6
CONTINUOUS
 62
3
 10
8.699102842282059
 20
54.794731209800375
 11
8.699102842282059
 21
145.294731209800370
  0
LINE
  8
0
  6
CONTINUOUS
 62
3
 10
-0.300897157717714
 20
148.294731209800370
 11
5.699102842282059
 21
148.294731209800370
  0
LINE
  8
0
  6
CONTINUOUS
 62
3
 10
-7.800897157728627
 20
148.294731209800370
 11
-3.300897157717941
 21
148.294731209800370
  0
LINE
  8
0
  6
CONTINUOUS
 62
3
 10
-7.800897157728627
 20
148.294731209800370
 11
-7.800897157727263
 21
168.794731209800370
  0
LINE
  8
0
  6
CONTINUOUS
 62
3
 10
-3.300897157717486
 20
168.794731209800370
 11
-3.300897157717714
 21
148.294731209800370
  0
ARC
  8
0
  6
CONTINUOUS
 62
3
 10
-0.300897157717714
 20
151.294731209800370
 40
3.000000000000000
 50
180.000000000000000
 51
270.000000000000000
  0
ARC
  8
0
  6
CONTINUOUS
 62
3
 10
5.699102842282059
 20
145.294731209800370
 40
3.000000000000000
 50
0.000000000000000
 51
90.000000000000000
  0
LINE
  8
0
  6
CONTINUOUS
 62
3
 10
3.960782623496357
 20
108.468696574696870
 11
-11.800897157717031
 21
109.294731209800370
  0
ARC
  8
0
  6
CONTINUOUS
 62
3
 10
11.699102842282059
 20
54.794731209800375
 40
3.000000000000000
 50
180.000000000000000
 51
270.000000000000000
  0
ARC
  8
0
  6
CONTINUOUS
 62
3
 10
4.699102842282059
 20
54.794731209800375
 40
2.999999999999773
 50
180.000000000000000
 51
270.000000000000000
  0
LINE
  8
0
  6
CONTINUOUS
 62
3
 10
20.199102842282059
 20
51.794731209800375
 11
4.699102842282059
 21
51.794731209800375
  0
LINE
  8
0
  6
CONTINUOUS
 62
3
 10
1.699102842282286
 20
77.794731209800375
 11
1.699102842282286
 21
54.794731209800375
  0
ARC
  8
0
  6
CONTINUOUS
 62
3
 10
6.699102842282286
 20
81.794731209799920
 40
2.000000000000000
 50
270.000000000000000
 51
0.000000000000000
  0
LINE
  8
0
  6
CONTINUOUS
 62
3
 10
6.699102842282286
 20
79.794731209799920
 11
3.699102842282286
 21
79.794731209800375
  0
ARC
  8
0
  6
CONTINUOUS
 62
3
 10
3.699102842282286
 20
77.794731209800375
 40
2.000000000000000
 50
90.000000000000000
 51
180.000000000000000
  0
LINE
  8
0
  6
CONTINUOUS
 62
3
 10
19.699102842282059
 20
51.794731209800375
 11
19.699102842282059
 21
168.794731209800370
  0
ARC
  8
0
  6
CONTINUOUS
 62
4
 10
-154.269472252143770
 20
-181.205268790199630
 40
289.397000000000110
 50
180.000000000000000
 51
186.051985358668500
  0
ARC
  8
0
  6
CONTINUOUS
 62
4
 10
-426.742373177354240
 20
-210.093298515337890
 40
15.397000000000052
 50
186.051985358668840
 51
225.000000000000000
  0
LINE
  8
0
  6
CONTINUOUS
 62
4
 10
-433.053630894645040
 20
-225.556687017905920
 11
-437.629696287283650
 21
-220.980621625267300
  0
ARC
  8
0
  6
CONTINUOUS
 62
4
 10
-428.810990207525950
 20
-221.314046330786370
 40
6.000000000000049
 50
225.000000000003070
 51
262.102011327574360
  0
ARC
  8
0
  6
CONTINUOUS
 62
4
 10
-389.869472252143620
 20
59.394731209800284
 40
289.396999999999820
 50
262.102011327572200
 51
270.000000000000000
  0
ARC
  8
0
  6
CONTINUOUS
 62
4
 10
-625.469472252143760
 20
-181.205268790199630
 40
289.397000000000110
 50
353.948014641331500
 51
0.000000000000000
  0
ARC
  8
0
  6
CONTINUOUS
 62
4
 10
-352.996571326933290
 20
-210.093298515337890
 40
15.396999999999876
 50
315.000000000000000
 51
353.948014641331160
  0
LINE
  8
0
  6
CONTINUOUS
 62
4
 10
-346.685313609642490
 20
-225.556687017905920
 11
-342.109248217003880
 21
-220.980621625267300
  0
ARC
  8
0
  6
CONTINUOUS
 62
4
 10
-350.927954296761580
 20
-221.314046330786370
 40
5.999999999999923
 50
277.897988672425640
 51
314.999999999996870
  0
ARC
  8
0
  6
CONTINUOUS
 62
4
 10
-389.869472252143850
 20
59.394731209800284
 40
289.396999999999930
 50
270.000000000000000
 51
277.897988672427800
  0
ARC
  8
0
  6
CONTINUOUS
 62
4
 10
-625.469472252143760
 20
-181.205268790199630
 40
289.397000000000110
 50
0.000000000000000
 51
6.051985358668509
  0
ARC
  8
0
  6
CONTINUOUS
 62
4
 10
-352.996571326933290
 20
-152.317239065061360
 40
15.397000000000052
 50
6.051985358668849
 51
45.000000000000000
  0
LINE
  8
0
  6
CONTINUOUS
 62
4
 10
-346.685313609642490
 20
-136.853850562493340
 11
-342.109248217003880
 21
-141.429915955131950
  0
ARC
  8
0
  6
CONTINUOUS
 62
4
 10
-350.927954296761580
 20
-141.096491249612880
 40
6.000000000000049
 50
45.000000000003077
 51
82.102011327574374
  0
ARC
  8
0
  6
CONTINUOUS
 62
4
 10
-389.869472252143850
 20
-421.805268790199530
 40
289.396999999999820
 50
82.102011327572214
 51
90.000000000000000
  0
ARC
  8
0
  6
CONTINUOUS
 62
4
 10
-154.269472252144000
 20
-181.205268790199630
 40
289.396999999999880
 50
173.948014641331470
 51
180.000000000000000
  0
LINE
  8
0
  6
CONTINUOUS
 62
4
 10
-433.053630894645040
 20
-136.853850562493340
 11
-437.629696287283650
 21
-141.429915955131950
  0
ARC
  8
0
  6
CONTINUOUS
 62
4
 10
-426.742373177354240
 20
-152.317239065061360
 40
15.396999999999876
 50
135.000000000000000
 51
173.948014641331160
  0
ARC
  8
0
  6
CONTINUOUS
 62
3
 10
-352.996571326933290
 20
-210.093298515337890
 40
26.599999999999955
 50
315.000000000001020
 51
353.948014641331380
  0
LINE
  8
0
  6
CONTINUOUS
 62
3
 10
-341.253980066030240
 20
-235.968788013559330
 11
-334.187530947370820
 21
-228.902338894899690
  0
ARC
  8
0
  6
CONTINUOUS
 62
3
 10
-625.469472252143760
 20
-181.205268790199630
 40
300.600000000000020
 50
353.948014641331500
 51
6.051985358668500
  0
ARC
  8
0
  6
CONTINUOUS
 62
3
 10
-426.742373177354240
 20
-210.093298515337890
 40
26.599999999999969
 50
186.051985358668590
 51
224.999999999998980
  0
ARC
  8
0
  6
CONTINUOUS
 62
3
 10
-154.269472252143880
 20
-181.205268790199630
 40
300.599999999999910
 50
173.948014641331500
 51
186.051985358668500
  0
LINE
  8
0
  6
CONTINUOUS
 62
3
 10
-438.484964438257520
 20
-235.968788013559330
 11
-445.551413556916710
 21
-228.902338894899690
  0
ARC
  8
0
  6
CONTINUOUS
 62
3
 10
-426.742373177354240
 20
-152.317239065061360
 40
26.600000000000119
 50
135.000000000000000
 51
173.948014641331410
  0
LINE
  8
0
  6
CONTINUOUS
 62
3
 10
-438.484964438257520
 20
-126.441749566840140
 11
-445.551413556916490
 21
-133.508198685499110
  0
ARC
  8
0
  6
CONTINUOUS
 62
3
 10
-352.996571326933520
 20
-152.317239065061360
 40
26.600000000000193
 50
6.051985358668552
 51
45.000000000000000
  0
LINE
  8
0
  6
CONTINUOUS
 62
3
 10
-341.253980066030240
 20
-126.441749566840140
 11
-334.187530947371270
 21
-133.508198685499110
  0
ARC
  8
0
  6
CONTINUOUS
 62
3
 10
-433.818059682426340
 20
-231.301883257728150
 40
6.599999999999957
 50
225.000000000000000
 51
261.402917762751090
  0
ARC
  8
0
  6
CONTINUOUS
 62
3
 10
-389.869472252143850
 20
59.394731209800511
 40
300.600000000000020
 50
261.402917762750920
 51
270.000000000000000
  0
ARC
  8
0
  6
CONTINUOUS
 62
3
 10
-345.920884821861420
 20
-231.301883257728150
 40
6.599999999999747
 50
278.597082237248910
 51
315.000000000000000
  0
ARC
  8
0
  6
CONTINUOUS
 62
3
 10
-389.869472252143850
 20
-421.805268790199530
 40
300.599999999999800
 50
81.402917762750931
 51
90.000000000000000
  0
ARC
  8
0
  6
CONTINUOUS
 62
3
 10
-345.920884821861420
 20
-131.108654322671330
 40
6.600000000000118
 50
45.000000000001400
 51
81.402917762751386
  0
ARC
  8
0
  6
CONTINUOUS
 62
3
 10
-389.869472252143850
 20
59.394731209800511
 40
300.600000000000140
 50
270.000000000000000
 51
278.597082237249080
  0
ARC
  8
0
  6
CONTINUOUS
 62
3
 10
-389.869472252143850
 20
-421.805268790199530
 40
300.599999999999910
 50
90.000000000000000
 51
98.597082237249069
  0
ARC
  8
0
  6
CONTINUOUS
 62
3
 10
-385.869472252143850
 20
-139.898489685554070
 40
1.500000000000203
 50
84.468928475159132
 51
180.000000000000000
  0
ARC
  8
0
  6
CONTINUOUS
 62
3
 10
-393.869472252143850
 20
-139.898489685553840
 40
1.500000000000000
 50
0.000000000000000
 51
95.531071524841693
  0
ARC
  8
0
  6
CONTINUOUS
 62
3
 10
-389.869472252143620
 20
-181.205268790199170
 40
17.999999999999922
 50
41.837004155893325
 51
78.162995844107314
  0
ARC
  8
0
  6
CONTINUOUS
 62
3
 10
-389.869472252144080
 20
-181.205268790199170
 40
27.499999999999815
 50
97.928141766201691
 51
142.071858233797880
  0
LINE
  8
0
  6
CONTINUOUS
 62
3
 10
-387.369472252143850
 20
-139.898489685554070
 11
-387.369472252143850
 21
-142.913624793108060
  0
LINE
  8
0
  6
CONTINUOUS
 62
3
 10
-357.957935797993120
 20
-159.894383282192850
 11
-355.346752199009020
 21
-158.386815728415740
  0
LINE
  8
0
  6
CONTINUOUS
 62
3
 10
-387.369472252143850
 20
-149.456253057424650
 11
-387.369472252143850
 21
-152.482455557509180
  0
ARC
  8
0
  6
CONTINUOUS
 62
3
 10
-385.869472252143850
 20
-149.456253057424650
 40
1.499999999999998
 50
82.819244218541712
 51
180.000000000000000
  0
ARC
  8
0
  6
CONTINUOUS
 62
3
 10
-385.869472252143850
 20
-142.913624793108060
 40
1.500000000000000
 50
180.000000000000000
 51
264.036429881682580
  0
ARC
  8
0
  6
CONTINUOUS
 62
3
 10
-356.096752199009020
 20
-157.087777622738940
 40
1.500000000000123
 50
299.999999999997270
 51
35.531071524839192
  0
ARC
  8
0
  6
CONTINUOUS
 62
3
 10
-389.869472252144310
 20
-181.205268790199630
 40
42.999999999999865
 50
35.531071524839291
 51
84.468928475160212
  0
ARC
  8
0
  6
CONTINUOUS
 62
3
 10
-352.096752199008560
 20
-164.015980853014980
 40
1.500000000000034
 50
24.468928475159590
 51
119.999999999997270
  0
LINE
  8
0
  6
CONTINUOUS
 62
3
 10
-355.457935797992890
 20
-164.224510301115290
 11
-352.846752199008560
 21
-162.716942747338180
  0
ARC
  8
0
  6
CONTINUOUS
 62
3
 10
-354.707935797992890
 20
-165.523548406792090
 40
1.500000000000123
 50
119.999999999997270
 51
204.036429881680680
  0
ARC
  8
0
  6
CONTINUOUS
 62
3
 10
-389.869472252144080
 20
-181.205268790200080
 40
36.999999999999915
 50
335.963570118321680
 51
24.036429881678906
  0
ARC
  8
0
  6
CONTINUOUS
 62
3
 10
-389.869472252144080
 20
-181.205268790200080
 40
42.999999999999886
 50
335.531071524839720
 51
24.468928475160798
  0
ARC
  8
0
  6
CONTINUOUS
 62
3
 10
-352.096752199008560
 20
-198.394556727384500
 40
1.500000000000320
 50
240.000000000007050
 51
335.531071524832500
  0
LINE
  8
0
  6
CONTINUOUS
 62
3
 10
-352.846752199008560
 20
-199.693594833061520
 11
-355.457935797992660
 21
-198.186027279284190
  0
ARC
  8
0
  6
CONTINUOUS
 62
3
 10
-354.707935797992660
 20
-196.886989173607620
 40
1.500000000000063
 50
155.963570118322880
 51
239.999999999998410
  0
ARC
  8
0
  6
CONTINUOUS
 62
3
 10
-356.096752199008560
 20
-205.322759957660310
 40
1.499999999999844
 50
324.468928475167900
 51
59.999999999998380
  0
LINE
  8
0
  6
CONTINUOUS
 62
3
 10
-355.346752199008560
 20
-204.023721851983740
 11
-357.957935797992660
 21
-202.516154298206400
  0
LINE
  8
0
  6
CONTINUOUS
 62
3
 10
-392.369472252143850
 20
-139.898489685553840
 11
-392.369472252143850
 21
-142.913624793108060
  0
ARC
  8
0
  6
CONTINUOUS
 62
3
 10
-393.869472252143850
 20
-142.913624793108060
 40
1.499999999999933
 50
275.963570118318330
 51
0.000000000000000
  0
LINE
  8
0
  6
CONTINUOUS
 62
3
 10
-392.369472252143850
 20
-149.456253057424650
 11
-392.369472252143850
 21
-152.482455557509180
  0
ARC
  8
0
  6
CONTINUOUS
 62
3
 10
-393.869472252143850
 20
-149.456253057424650
 40
1.500000000000000
 50
0.000000000000000
 51
97.180755781458288
  0
ARC
  8
0
  6
CONTINUOUS
 62
3
 10
-389.869472252144310
 20
-181.205268790199170
 40
23.999999999999901
 50
100.240348321185670
 51
139.759651678813550
  0
ARC
  8
0
  6
CONTINUOUS
 62
3
 10
-407.044651521188830
 20
-166.670372262319230
 40
1.499999999999802
 50
139.759651678811420
 51
239.999999999998410
  0
LINE
  8
0
  6
CONTINUOUS
 62
3
 10
-405.147856928209650
 20
-169.497537938741970
 11
-407.794651521188830
 21
-167.969410367995810
  0
ARC
  8
0
  6
CONTINUOUS
 62
3
 10
-404.397856928209650
 20
-168.198499833065400
 40
1.499999999999926
 50
239.999999999998410
 51
318.162995844106720
  0
ARC
  8
0
  6
CONTINUOUS
 62
3
 10
-389.869472252144310
 20
-181.205268790199170
 40
17.999999999999829
 50
101.837004155891980
 51
138.162995844106210
  0
ARC
  8
0
  6
CONTINUOUS
 62
3
 10
-393.869472252143850
 20
-162.119934106206980
 40
1.499999999999954
 50
281.837004155896690
 51
0.000000000000000
  0
LINE
  8
0
  6
CONTINUOUS
 62
3
 10
-392.369472252143850
 20
-159.063678964714650
 11
-392.369472252143850
 21
-162.119934106206980
  0
ARC
  8
0
  6
CONTINUOUS
 62
3
 10
-393.869472252143850
 20
-159.063678964714650
 40
1.500000000000000
 50
0.000000000000000
 51
100.240348321194510
  0
ARC
  8
0
  6
CONTINUOUS
 62
3
 10
-389.869472252144310
 20
-181.205268790199170
 40
14.499999999999980
 50
107.920213139390830
 51
132.079786860607560
  0
ARC
  8
0
  6
CONTINUOUS
 62
3
 10
-398.581614894958420
 20
-171.556508736634900
 40
1.499999999999792
 50
132.079786860611680
 51
239.999999999998410
  0
LINE
  8
0
  6
CONTINUOUS
 62
3
 10
-396.556726185337770
 20
-174.457629585782340
 11
-399.331614894958420
 21
-172.855546842311470
  0
ARC
  8
0
  6
CONTINUOUS
 62
3
 10
-395.806726185337770
 20
-173.158591480105770
 40
1.499999999999926
 50
239.999999999998410
 51
306.421821521797600
  0
ARC
  8
0
  6
CONTINUOUS
 62
3
 10
-389.869472252144310
 20
-181.205268790199170
 40
8.499999999999879
 50
113.578178478199500
 51
126.421821521797340
  0
ARC
  8
0
  6
CONTINUOUS
 62
3
 10
-393.869472252143850
 20
-172.040117400287270
 40
1.500000000000139
 50
293.578178478195700
 51
0.000000000000000
  0
LINE
  8
0
  6
CONTINUOUS
 62
3
 10
-392.369472252143850
 20
-168.835951913346210
 11
-392.369472252143850
 21
-172.040117400287270
  0
ARC
  8
0
  6
CONTINUOUS
 62
3
 10
-393.869472252143850
 20
-168.835951913346210
 40
1.500000000000000
 50
0.000000000000000
 51
107.920213139394770
  0
ARC
  8
0
  6
CONTINUOUS
 62
3
 10
-389.869472252143850
 20
-181.205268790199630
 40
23.999999999999716
 50
280.240348321186270
 51
319.759651678814690
  0
ARC
  8
0
  6
CONTINUOUS
 62
3
 10
-385.869472252143850
 20
-203.346858615684140
 40
1.500000000000000
 50
180.000000000000000
 51
280.240348321187530
  0
LINE
  8
0
  6
CONTINUOUS
 62
3
 10
-387.369472252143850
 20
-200.290603474191810
 11
-387.369472252143850
 21
-203.346858615684140
  0
ARC
  8
0
  6
CONTINUOUS
 62
3
 10
-385.869472252143850
 20
-200.290603474191810
 40
1.499999999999731
 50
101.837004155898450
 51
180.000000000000000
  0
ARC
  8
0
  6
CONTINUOUS
 62
3
 10
-389.869472252143850
 20
-181.205268790199630
 40
18.000000000000146
 50
281.837004155893230
 51
318.162995844107680
  0
ARC
  8
0
  6
CONTINUOUS
 62
3
 10
-375.341087576078050
 20
-194.212037747333400
 40
1.499999999999926
 50
59.999999999998380
 51
138.162995844100240
  0
LINE
  8
0
  6
CONTINUOUS
 62
3
 10
-371.944292983099100
 20
-194.441127212402990
 11
-374.591087576078050
 21
-192.912999641656820
  0
ARC
  8
0
  6
CONTINUOUS
 62
3
 10
-372.694292983099100
 20
-195.740165318079560
 40
1.499999999999828
 50
319.759651678823670
 51
59.999999999998380
  0
ARC
  8
0
  6
CONTINUOUS
 62
3
 10
-389.869472252143850
 20
-181.205268790199630
 40
14.500000000000121
 50
287.920213139392560
 51
312.079786860608860
  0
ARC
  8
0
  6
CONTINUOUS
 62
3
 10
-385.869472252143850
 20
-193.574585667052360
 40
1.500000000000000
 50
180.000000000000000
 51
287.920213139392100
  0
LINE
  8
0
  6
CONTINUOUS
 62
3
 10
-387.369472252143850
 20
-190.370420180111070
 11
-387.369472252143850
 21
-193.574585667052360
  0
ARC
  8
0
  6
CONTINUOUS
 62
3
 10
-385.869472252143850
 20
-190.370420180111520
 40
1.500000000000139
 50
113.578178478195690
 51
179.999999999982630
  0
ARC
  8
0
  6
CONTINUOUS
 62
3
 10
-389.869472252143850
 20
-181.205268790199630
 40
8.500000000000060
 50
293.578178478202350
 51
306.421821521799190
  0
ARC
  8
0
  6
CONTINUOUS
 62
3
 10
-383.932218318949940
 20
-189.251946100293030
 40
1.499999999999926
 50
59.999999999998380
 51
126.421821521801260
  0
LINE
  8
0
  6
CONTINUOUS
 62
3
 10
-380.407329609329510
 20
-189.554990738086870
 11
-383.182218318949940
 21
-187.952907994616450
  0
ARC
  8
0
  6
CONTINUOUS
 62
3
 10
-381.157329609329510
 20
-190.854028843763900
 40
1.499999999999944
 50
312.079786860618130
 51
60.000000000007070
  0
ARC
  8
0
  6
CONTINUOUS
 62
3
 10
-389.869472252143850
 20
-181.205268790199630
 40
23.999999999999844
 50
220.240348321185340
 51
259.759651678813730
  0
ARC
  8
0
  6
CONTINUOUS
 62
3
 10
-393.869472252143850
 20
-203.346858615684140
 40
1.499999999999728
 50
259.759651678812470
 51
0.000000000000000
  0
LINE
  8
0
  6
CONTINUOUS
 62
3
 10
-392.369472252143850
 20
-200.290603474191810
 11
-392.369472252143850
 21
-203.346858615684140
  0
ARC
  8
0
  6
CONTINUOUS
 62
3
 10
-393.869472252143850
 20
-200.290603474191810
 40
1.500000000000000
 50
0.000000000000000
 51
78.162995844101530
  0
ARC
  8
0
  6
CONTINUOUS
 62
3
 10
-389.869472252143850
 20
-181.205268790199630
 40
17.999999999999940
 50
221.837004155892320
 51
258.162995844106770
  0
ARC
  8
0
  6
CONTINUOUS
 62
3
 10
-404.397856928209650
 20
-194.212037747333400
 40
1.500000000000118
 50
41.837004155899741
 51
120.000000000001620
  0
LINE
  8
0
  6
CONTINUOUS
 62
3
 10
-407.794651521188600
 20
-194.441127212402990
 11
-405.147856928209650
 21
-192.912999641656820
  0
ARC
  8
0
  6
CONTINUOUS
 62
3
 10
-407.044651521188600
 20
-195.740165318079560
 40
1.499999999999926
 50
120.000000000001620
 51
220.240348321176330
  0
ARC
  8
0
  6
CONTINUOUS
 62
3
 10
-389.869472252143850
 20
-181.205268790199630
 40
14.500000000000011
 50
227.920213139391080
 51
252.079786860607410
  0
ARC
  8
0
  6
CONTINUOUS
 62
3
 10
-393.869472252143850
 20
-193.574585667052360
 40
1.500000000000355
 50
252.079786860607900
 51
0.000000000000000
  0
LINE
  8
0
  6
CONTINUOUS
 62
3
 10
-392.369472252143850
 20
-190.370420180111070
 11
-392.369472252143850
 21
-193.574585667052360
  0
ARC
  8
0
  6
CONTINUOUS
 62
3
 10
-393.869472252143850
 20
-190.370420180111520
 40
1.500000000000000
 50
0.000000000017370
 51
66.421821521804304
  0
ARC
  8
0
  6
CONTINUOUS
 62
3
 10
-389.869472252143850
 20
-181.205268790199630
 40
8.499999999999870
 50
233.578178478199590
 51
246.421821521797680
  0
ARC
  8
0
  6
CONTINUOUS
 62
3
 10
-395.806726185337770
 20
-189.251946100293030
 40
1.500000000000059
 50
53.578178478205707
 51
120.000000000001620
  0
LINE
  8
0
  6
CONTINUOUS
 62
3
 10
-399.331614894958190
 20
-189.554990738086870
 11
-396.556726185337770
 21
-187.952907994616450
  0
ARC
  8
0
  6
CONTINUOUS
 62
3
 10
-398.581614894958190
 20
-190.854028843763900
 40
1.500000000000320
 50
119.999999999992930
 51
227.920213139381870
  0
ARC
  8
0
  6
CONTINUOUS
 62
3
 10
-389.869472252144310
 20
-181.205268790199170
 40
23.999999999999925
 50
160.240348321185910
 51
199.759651678814090
  0
ARC
  8
0
  6
CONTINUOUS
 62
3
 10
-411.044651521188830
 20
-173.598575492594590
 40
1.499999999999926
 50
59.999999999998380
 51
160.240348321185250
  0
LINE
  8
0
  6
CONTINUOUS
 62
3
 10
-407.647856928209650
 20
-173.827664957664180
 11
-410.294651521188830
 21
-172.299537386918020
  0
ARC
  8
0
  6
CONTINUOUS
 62
3
 10
-408.397856928209650
 20
-175.126703063340760
 40
1.500000000000038
 50
341.837004155895390
 51
59.999999999998380
  0
ARC
  8
0
  6
CONTINUOUS
 62
3
 10
-389.869472252144310
 20
-181.205268790199170
 40
17.999999999999726
 50
161.837004155893140
 51
198.162995844106860
  0
ARC
  8
0
  6
CONTINUOUS
 62
3
 10
-408.397856928209650
 20
-187.283834517057580
 40
1.500000000000320
 50
299.999999999992950
 51
18.162995844104589
  0
LINE
  8
0
  6
CONTINUOUS
 62
3
 10
-410.294651521188600
 20
-190.111000193480320
 11
-407.647856928209650
 21
-188.582872622734610
  0
ARC
  8
0
  6
CONTINUOUS
 62
3
 10
-411.044651521188600
 20
-188.811962087803750
 40
1.500000000000246
 50
199.759651678811820
 51
300.000000000001590
  0
ARC
  8
0
  6
CONTINUOUS
 62
3
 10
-389.869472252144310
 20
-181.205268790199170
 40
14.499999999999851
 50
167.920213139392840
 51
192.079786860608920
  0
ARC
  8
0
  6
CONTINUOUS
 62
3
 10
-402.581614894958420
 20
-178.484711966910250
 40
1.499999999999926
 50
59.999999999998380
 51
167.920213139405550
  0
LINE
  8
0
  6
CONTINUOUS
 62
3
 10
-399.056726185337770
 20
-178.787756604704550
 11
-401.831614894958420
 21
-177.185673861233680
  0
ARC
  8
0
  6
CONTINUOUS
 62
3
 10
-399.806726185337770
 20
-180.086794710381130
 40
1.499999999999873
 50
353.578178478198030
 51
59.999999999998380
  0
ARC
  8
0
  6
CONTINUOUS
 62
3
 10
-389.869472252144310
 20
-181.205268790199170
 40
8.499999999999813
 50
173.578178478202550
 51
186.421821521800500
  0
ARC
  8
0
  6
CONTINUOUS
 62
3
 10
-399.806726185337770
 20
-182.323742870017670
 40
1.499999999999926
 50
300.000000000001590
 51
6.421821521801967
  0
LINE
  8
0
  6
CONTINUOUS
 62
3
 10
-401.831614894958190
 20
-185.224863719164660
 11
-399.056726185337770
 21
-183.622780975694240
  0
ARC
  8
0
  6
CONTINUOUS
 62
3
 10
-402.581614894958190
 20
-183.925825613488090
 40
1.500000000000287
 50
192.079786860609600
 51
300.000000000001590
  0
ARC
  8
0
  6
CONTINUOUS
 62
3
 10
-389.869472252143620
 20
-181.205268790199170
 40
24.000000000000139
 50
340.240348321186050
 51
19.759651678813924
  0
ARC
  8
0
  6
CONTINUOUS
 62
3
 10
-368.694292983099100
 20
-173.598575492594590
 40
1.500000000000246
 50
19.759651678811824
 51
120.000000000001620
  0
LINE
  8
0
  6
CONTINUOUS
 62
3
 10
-372.091087576078050
 20
-173.827664957664180
 11
-369.444292983099100
 21
-172.299537386918020
  0
ARC
  8
0
  6
CONTINUOUS
 62
3
 10
-371.341087576078050
 20
-175.126703063340760
 40
1.499999999999926
 50
120.000000000001620
 51
198.162995844104590
  0
ARC
  8
0
  6
CONTINUOUS
 62
3
 10
-389.869472252143620
 20
-181.205268790199170
 40
17.999999999999943
 50
341.837004155893340
 51
18.162995844106646
  0
ARC
  8
0
  6
CONTINUOUS
 62
3
 10
-371.341087576078050
 20
-187.283834517057580
 40
1.500000000000038
 50
161.837004155895410
 51
240.000000000007050
  0
LINE
  8
0
  6
CONTINUOUS
 62
3
 10
-369.444292983099100
 20
-190.111000193480320
 11
-372.091087576078050
 21
-188.582872622734610
  0
ARC
  8
0
  6
CONTINUOUS
 62
3
 10
-368.694292983099100
 20
-188.811962087803750
 40
1.499999999999926
 50
239.999999999998410
 51
340.240348321188210
  0
ARC
  8
0
  6
CONTINUOUS
 62
3
 10
-389.869472252143620
 20
-181.205268790199170
 40
14.500000000000169
 50
347.920213139391310
 51
12.079786860606980
  0
ARC
  8
0
  6
CONTINUOUS
 62
3
 10
-377.157329609329510
 20
-178.484711966910250
 40
1.500000000000192
 50
12.079786860592611
 51
120.000000000001620
  0
LINE
  8
0
  6
CONTINUOUS
 62
3
 10
-380.682218318949940
 20
-178.787756604704550
 11
-377.907329609329510
 21
-177.185673861233680
  0
ARC
  8
0
  6
CONTINUOUS
 62
3
 10
-379.932218318949940
 20
-180.086794710381130
 40
1.499999999999926
 50
120.000000000001620
 51
186.421821521801010
  0
ARC
  8
0
  6
CONTINUOUS
 62
3
 10
-389.869472252143620
 20
-181.205268790199170
 40
8.499999999999865
 50
353.578178478199500
 51
6.421821521797448
  0
ARC
  8
0
  6
CONTINUOUS
 62
3
 10
-379.932218318949940
 20
-182.323742870017670
 40
1.500000000000099
 50
173.578178478198990
 51
239.999999999998410
  0
LINE
  8
0
  6
CONTINUOUS
 62
3
 10
-377.907329609329510
 20
-185.224863719164660
 11
-380.682218318949940
 21
-183.622780975694240
  0
ARC
  8
0
  6
CONTINUOUS
 62
3
 10
-377.157329609329510
 20
-183.925825613488090
 40
1.499999999999926
 50
239.999999999998410
 51
347.920213139390400
  0
ARC
  8
0
  6
CONTINUOUS
 62
3
 10
-389.869472252143620
 20
-181.205268790199170
 40
8.500000000000101
 50
53.578178478202659
 51
66.421821521799089
  0
ARC
  8
0
  6
CONTINUOUS
 62
3
 10
-389.869472252143620
 20
-181.205268790199170
 40
23.999999999999819
 50
40.240348321186090
 51
79.759651678814322
  0
LINE
  8
0
  6
CONTINUOUS
 62
3
 10
-383.182218318949940
 20
-174.457629585782340
 11
-380.407329609329510
 21
-172.855546842311470
  0
LINE
  8
0
  6
CONTINUOUS
 62
3
 10
-387.369472252143850
 20
-159.063678964714650
 11
-387.369472252143850
 21
-162.119934106206980
  0
LINE
  8
0
  6
CONTINUOUS
 62
3
 10
-387.369472252143850
 20
-168.835951913346210
 11
-387.369472252143850
 21
-172.040117400287270
  0
ARC
  8
0
  6
CONTINUOUS
 62
3
 10
-389.869472252143620
 20
-181.205268790199170
 40
14.499999999999860
 50
47.920213139391755
 51
72.079786860608309
  0
LINE
  8
0
  6
CONTINUOUS
 62
3
 10
-374.591087576078050
 20
-169.497537938741970
 11
-371.944292983099100
 21
-167.969410367995810
  0
ARC
  8
0
  6
CONTINUOUS
 62
3
 10
-381.157329609329510
 20
-171.556508736634900
 40
1.499999999999926
 50
300.000000000001590
 51
47.920213139381872
  0
ARC
  8
0
  6
CONTINUOUS
 62
3
 10
-385.869472252143850
 20
-159.063678964714650
 40
1.499999999999952
 50
79.759651678814024
 51
180.000000000000000
  0
ARC
  8
0
  6
CONTINUOUS
 62
3
 10
-375.341087576078050
 20
-168.198499833065400
 40
1.499999999999967
 50
221.837004155893280
 51
300.000000000001590
  0
ARC
  8
0
  6
CONTINUOUS
 62
3
 10
-385.869472252143850
 20
-162.119934106206980
 40
1.500000000000000
 50
180.000000000000000
 51
258.162995844103310
  0
ARC
  8
0
  6
CONTINUOUS
 62
3
 10
-385.869472252143850
 20
-168.835951913346210
 40
1.500000000000138
 50
72.079786860605225
 51
180.000000000000000
  0
ARC
  8
0
  6
CONTINUOUS
 62
3
 10
-372.694292983099100
 20
-166.670372262319230
 40
1.499999999999926
 50
300.000000000001590
 51
40.240348321182964
  0
ARC
  8
0
  6
CONTINUOUS
 62
3
 10
-385.869472252143850
 20
-172.040117400287270
 40
1.500000000000000
 50
180.000000000000000
 51
246.421821521804280
  0
ARC
  8
0
  6
CONTINUOUS
 62
3
 10
-383.932218318949940
 20
-173.158591480105770
 40
1.499999999999693
 50
233.578178478195410
 51
300.000000000001590
  0
CIRCLE
  8
0
  6
CONTINUOUS
 62
3
 10
-389.869472252143850
 20
-181.205268790199170
 40
5.000000000000000
  0
ARC
  8
0
  6
CONTINUOUS
 62
3
 10
-366.994786324478130
 20
-163.379760558716500
 40
1.499999999999843
 50
217.928141766204990
 51
300.000000000001590
  0
LINE
  8
0
  6
CONTINUOUS
 62
3
 10
-366.244786324478130
 20
-164.678798664393070
 11
-363.624018082409290
 21
-163.165697414350920
  0
ARC
  8
0
  6
CONTINUOUS
 62
3
 10
-385.869472252143850
 20
-152.482455557509180
 40
1.500000000000000
 50
180.000000000000000
 51
262.071858233795980
  0
ARC
  8
0
  6
CONTINUOUS
 62
3
 10
-389.869472252143620
 20
-181.205268790199170
 40
27.500000000000060
 50
37.928141766201819
 51
82.071858233798309
  0
ARC
  8
0
  6
CONTINUOUS
 62
3
 10
-364.374018082409290
 20
-161.866659308674340
 40
1.499999999999926
 50
300.000000000001590
 51
37.180755781457485
  0
ARC
  8
0
  6
CONTINUOUS
 62
3
 10
-358.707935797993060
 20
-158.595345176516050
 40
1.500000000000102
 50
215.963570118316280
 51
299.999999999995400
  0
ARC
  8
0
  6
CONTINUOUS
 62
3
 10
-389.869472252144310
 20
-181.205268790199630
 40
36.999999999999943
 50
35.963570118321194
 51
84.036429881678174
  0
ARC
  8
0
  6
CONTINUOUS
 62
3
 10
-389.869472252144310
 20
-181.205268790199630
 40
33.500000000000071
 50
37.180755781458259
 51
82.819244218540931
  0
LINE
  8
0
  6
CONTINUOUS
 62
3
 10
-363.744786324477900
 20
-169.008925683315740
 11
-361.124018082409070
 21
-167.495824433273580
  0
ARC
  8
0
  6
CONTINUOUS
 62
3
 10
-360.374018082409070
 20
-168.794862538950380
 40
1.499999999999948
 50
22.819244218550043
 51
119.999999999997270
  0
ARC
  8
0
  6
CONTINUOUS
 62
3
 10
-362.994786324477900
 20
-170.307963788992310
 40
1.499999999999926
 50
120.000000000001620
 51
202.071858233797370
  0
ARC
  8
0
  6
CONTINUOUS
 62
3
 10
-389.869472252143400
 20
-181.205268790199630
 40
27.499999999999886
 50
337.928141766202200
 51
22.071858233797812
  0
ARC
  8
0
  6
CONTINUOUS
 62
3
 10
-389.869472252144080
 20
-181.205268790200080
 40
33.500000000000128
 50
337.180755781459030
 51
22.819244218541968
  0
ARC
  8
0
  6
CONTINUOUS
 62
3
 10
-362.994786324478130
 20
-192.102573791406940
 40
1.499999999999899
 50
157.928141766199360
 51
240.000000000007050
  0
LINE
  8
0
  6
CONTINUOUS
 62
3
 10
-361.124018082408840
 20
-194.914713147125890
 11
-363.744786324478130
 21
-193.401611897083970
  0
ARC
  8
0
  6
CONTINUOUS
 62
3
 10
-360.374018082408840
 20
-193.615675041449320
 40
1.499999999999926
 50
239.999999999998410
 51
337.180755781453340
  0
ARC
  8
0
  6
CONTINUOUS
 62
3
 10
-385.869472252143620
 20
-222.512047894844730
 40
1.500000000000000
 50
180.000000000000000
 51
275.531071524831360
  0
LINE
  8
0
  6
CONTINUOUS
 62
3
 10
-387.369472252143620
 20
-219.496912787290510
 11
-387.369472252143620
 21
-222.512047894844730
  0
LINE
  8
0
  6
CONTINUOUS
 62
3
 10
-387.369472252143620
 20
-209.928082022890070
 11
-387.369472252143620
 21
-212.954284522974380
  0
ARC
  8
0
  6
CONTINUOUS
 62
3
 10
-385.869472252143620
 20
-219.496912787290970
 40
1.500000000000182
 50
95.963570118326047
 51
179.999999999982630
  0
ARC
  8
0
  6
CONTINUOUS
 62
3
 10
-385.869472252143620
 20
-212.954284522974380
 40
1.500000000000000
 50
180.000000000000000
 51
277.180755781458290
  0
ARC
  8
0
  6
CONTINUOUS
 62
3
 10
-385.869472252143620
 20
-209.928082022890070
 40
1.499999999999967
 50
97.928141766195438
 51
180.000000000000000
  0
ARC
  8
0
  6
CONTINUOUS
 62
3
 10
-389.869472252143620
 20
-181.205268790200080
 40
27.499999999999879
 50
277.928141766202600
 51
322.071858233798930
  0
ARC
  8
0
  6
CONTINUOUS
 62
3
 10
-389.869472252143620
 20
-181.205268790199170
 40
37.000000000000028
 50
275.963570118320770
 51
324.036429881678030
  0
ARC
  8
0
  6
CONTINUOUS
 62
3
 10
-389.869472252143620
 20
-181.205268790199170
 40
43.000000000000199
 50
275.531071524838860
 51
324.468928475160280
  0
ARC
  8
0
  6
CONTINUOUS
 62
3
 10
-389.869472252143620
 20
-181.205268790199170
 40
33.500000000000114
 50
277.180755781458230
 51
322.819244218540860
  0
ARC
  8
0
  6
CONTINUOUS
 62
3
 10
-366.994786324478130
 20
-199.030777021682750
 40
1.500000000000320
 50
60.000000000007070
 51
142.071858233781280
  0
ARC
  8
0
  6
CONTINUOUS
 62
3
 10
-358.707935797992600
 20
-203.815192403882970
 40
1.499999999999898
 50
60.000000000000263
 51
144.036429881690740
  0
LINE
  8
0
  6
CONTINUOUS
 62
3
 10
-363.624018082408840
 20
-199.244840166048110
 11
-366.244786324478130
 21
-197.731738916005720
  0
ARC
  8
0
  6
CONTINUOUS
 62
3
 10
-364.374018082408840
 20
-200.543878271724680
 40
1.500000000000240
 50
322.819244218535570
 51
59.999999999998380
  0
ARC
  8
0
  6
CONTINUOUS
 62
3
 10
-393.869472252144080
 20
-222.512047894844730
 40
1.500000000000430
 50
264.468928475160000
 51
0.000000000000000
  0
LINE
  8
0
  6
CONTINUOUS
 62
3
 10
-392.369472252144080
 20
-219.496912787290510
 11
-392.369472252144080
 21
-222.512047894844730
  0
LINE
  8
0
  6
CONTINUOUS
 62
3
 10
-392.369472252144080
 20
-209.928082022890070
 11
-392.369472252144080
 21
-212.954284522974380
  0
ARC
  8
0
  6
CONTINUOUS
 62
3
 10
-393.869472252144080
 20
-219.496912787290970
 40
1.500000000000000
 50
0.000000000017370
 51
84.036429881682594
  0
ARC
  8
0
  6
CONTINUOUS
 62
3
 10
-393.869472252144080
 20
-212.954284522974380
 40
1.499999999999998
 50
262.819244218541710
 51
0.000000000000000
  0
ARC
  8
0
  6
CONTINUOUS
 62
3
 10
-393.869472252144080
 20
-209.928082022890070
 40
1.500000000000000
 50
0.000000000000000
 51
82.071858233804562
  0
ARC
  8
0
  6
CONTINUOUS
 62
3
 10
-389.869472252144080
 20
-181.205268790200080
 40
27.499999999999780
 50
217.928141766201070
 51
262.071858233797400
  0
ARC
  8
0
  6
CONTINUOUS
 62
3
 10
-389.869472252144080
 20
-181.205268790199170
 40
37.000000000000021
 50
215.963570118321970
 51
264.036429881678940
  0
ARC
  8
0
  6
CONTINUOUS
 62
3
 10
-389.869472252144080
 20
-181.205268790199170
 40
42.999999999999858
 50
215.531071524839690
 51
264.468928475160850
  0
ARC
  8
0
  6
CONTINUOUS
 62
3
 10
-389.869472252144080
 20
-181.205268790199170
 40
33.500000000000163
 50
217.180755781459110
 51
262.819244218541770
  0
ARC
  8
0
  6
CONTINUOUS
 62
3
 10
-412.744158179809570
 20
-199.030777021682750
 40
1.500000000000122
 50
37.928141766218701
 51
119.999999999992930
  0
ARC
  8
0
  6
CONTINUOUS
 62
3
 10
-423.642192305279200
 20
-205.322759957660310
 40
1.499999999999926
 50
120.000000000001620
 51
215.531071524832130
  0
LINE
  8
0
  6
CONTINUOUS
 62
3
 10
-424.392192305279200
 20
-204.023721851983740
 11
-421.781008706295100
 21
-202.516154298206400
  0
ARC
  8
0
  6
CONTINUOUS
 62
3
 10
-421.031008706295100
 20
-203.815192403882970
 40
1.499999999999968
 50
35.963570118309242
 51
120.000000000001620
  0
LINE
  8
0
  6
CONTINUOUS
 62
3
 10
-416.114926421878860
 20
-199.244840166048110
 11
-413.494158179809570
 21
-197.731738916005720
  0
ARC
  8
0
  6
CONTINUOUS
 62
3
 10
-415.364926421878860
 20
-200.543878271724680
 40
1.499999999999926
 50
120.000000000001620
 51
217.180755781464400
  0
ARC
  8
0
  6
CONTINUOUS
 62
3
 10
-427.642192305279200
 20
-164.015980853014980
 40
1.499999999999926
 50
59.999999999998380
 51
155.531071524840400
  0
LINE
  8
0
  6
CONTINUOUS
 62
3
 10
-424.281008706294640
 20
-164.224510301115520
 11
-426.892192305279200
 21
-162.716942747338410
  0
LINE
  8
0
  6
CONTINUOUS
 62
3
 10
-415.994158179809800
 20
-169.008925683315740
 11
-418.614926421878640
 21
-167.495824433273580
  0
ARC
  8
0
  6
CONTINUOUS
 62
3
 10
-425.031008706294870
 20
-165.523548406792090
 40
1.499999999999855
 50
335.963570118319300
 51
59.999999999990862
  0
ARC
  8
0
  6
CONTINUOUS
 62
3
 10
-419.364926421878640
 20
-168.794862538950380
 40
1.500000000000123
 50
60.000000000002721
 51
157.180755781457980
  0
ARC
  8
0
  6
CONTINUOUS
 62
3
 10
-416.744158179809800
 20
-170.307963788992310
 40
1.500000000000110
 50
337.928141766202600
 51
59.999999999998380
  0
ARC
  8
0
  6
CONTINUOUS
 62
3
 10
-389.869472252144310
 20
-181.205268790199630
 40
27.499999999999886
 50
157.928141766202200
 51
202.071858233798680
  0
ARC
  8
0
  6
CONTINUOUS
 62
3
 10
-389.869472252143620
 20
-181.205268790200080
 40
37.000000000000156
 50
155.963570118321120
 51
204.036429881678230
  0
ARC
  8
0
  6
CONTINUOUS
 62
3
 10
-389.869472252143620
 20
-181.205268790200080
 40
43.000000000000121
 50
155.531071524839230
 51
204.468928475160200
  0
ARC
  8
0
  6
CONTINUOUS
 62
3
 10
-389.869472252143620
 20
-181.205268790200080
 40
33.499999999999794
 50
157.180755781458400
 51
202.819244218540940
  0
ARC
  8
0
  6
CONTINUOUS
 62
3
 10
-416.744158179809570
 20
-192.102573791406940
 40
1.500000000000320
 50
299.999999999992950
 51
22.071858233784546
  0
ARC
  8
0
  6
CONTINUOUS
 62
3
 10
-427.642192305279200
 20
-198.394556727384500
 40
1.500000000000128
 50
204.468928475167470
 51
299.999999999992950
  0
LINE
  8
0
  6
CONTINUOUS
 62
3
 10
-426.892192305279200
 20
-199.693594833061520
 11
-424.281008706295100
 21
-198.186027279284190
  0
ARC
  8
0
  6
CONTINUOUS
 62
3
 10
-425.031008706295100
 20
-196.886989173607620
 40
1.499999999999926
 50
300.000000000001590
 51
24.036429881677126
  0
LINE
  8
0
  6
CONTINUOUS
 62
3
 10
-418.614926421878860
 20
-194.914713147125890
 11
-415.994158179809570
 21
-193.401611897083970
  0
ARC
  8
0
  6
CONTINUOUS
 62
3
 10
-419.364926421878860
 20
-193.615675041449320
 40
1.500000000000157
 50
202.819244218546660
 51
300.000000000001590
  0
ARC
  8
0
  6
CONTINUOUS
 62
3
 10
-423.642192305278740
 20
-157.087777622738940
 40
1.499999999999976
 50
144.468928475160790
 51
240.000000000002730
  0
LINE
  8
0
  6
CONTINUOUS
 62
3
 10
-421.781008706294640
 20
-159.894383282192850
 11
-424.392192305278740
 21
-158.386815728415740
  0
LINE
  8
0
  6
CONTINUOUS
 62
3
 10
-413.494158179809570
 20
-164.678798664393070
 11
-416.114926421878410
 21
-163.165697414350920
  0
ARC
  8
0
  6
CONTINUOUS
 62
3
 10
-421.031008706294640
 20
-158.595345176516050
 40
1.500000000000123
 50
240.000000000002730
 51
324.036429881683720
  0
ARC
  8
0
  6
CONTINUOUS
 62
3
 10
-415.364926421878410
 20
-161.866659308674340
 40
1.500000000000103
 50
142.819244218542510
 51
239.999999999998410
  0
ARC
  8
0
  6
CONTINUOUS
 62
3
 10
-412.744158179809570
 20
-163.379760558716500
 40
1.499999999999926
 50
239.999999999998410
 51
322.071858233800300
  0
ARC
  8
0
  6
CONTINUOUS
 62
3
 10
-389.869472252143400
 20
-181.205268790199630
 40
37.000000000000099
 50
95.963570118321798
 51
144.036429881678830
  0
ARC
  8
0
  6
CONTINUOUS
 62
3
 10
-389.869472252143400
 20
-181.205268790199630
 40
43.000000000000043
 50
95.531071524839788
 51
144.468928475160770
  0
ARC
  8
0
  6
CONTINUOUS
 62
3
 10
-389.869472252143400
 20
-181.205268790199630
 40
33.499999999999950
 50
97.180755781459069
 51
142.819244218541740
  0
ARC
  8
0
  6
CONTINUOUS
 62
3
 10
-393.869472252143850
 20
-152.482455557509180
 40
1.499999999999998
 50
277.928141766204020
 51
0.000000000000000
  0
ARC
  8
0
  6
CONTINUOUS
 62
3
 10
-433.818059682426340
 20
-131.108654322671330
 40
6.599999999999971
 50
98.597082237248614
 51
134.999999999998610
  0
ARC
  8
0
  6
CONTINUOUS
 62
4
 10
-428.810990207525950
 20
-141.096491249612880
 40
5.999999999999923
 50
97.897988672425626
 51
134.999999999996930
  0
ARC
  8
0
  6
CONTINUOUS
 62
4
 10
-389.869472252143850
 20
-421.805268790199530
 40
289.396999999999930
 50
90.000000000000000
 51
97.897988672427743
  0
LINE
  8
0
  6
CONTINUOUS
 62
3
 10
-326.369472252143910
 20
-213.810012476476350
 11
-323.343295303835990
 21
-213.730769244253510
  0
ARC
  8
0
  6
CONTINUOUS
 62
3
 10
-323.369472252143910
 20
-212.731111919277960
 40
0.999999999999988
 50
271.500000000002730
 51
0.000000000000000
  0
ARC
  8
0
  6
CONTINUOUS
 62
3
 10
-323.369472252143910
 20
-149.679425661121290
 40
1.000000000000000
 50
0.000000000000000
 51
88.499999999997257
  0
LINE
  8
0
  6
CONTINUOUS
 62
3
 10
-322.369472252143910
 20
-212.731111919277960
 11
-322.369472252143910
 21
-149.679425661121290
  0
LINE
  8
0
  6
CONTINUOUS
 62
3
 10
-326.369472252143910
 20
-148.600525103922910
 11
-323.343295303835990
 21
-148.679768336145740
  0
LINE
  8
0
  6
CONTINUOUS
 62
3
 10
-326.369472252143910
 20
-151.212769727932820
 11
-326.369472252143910
 21
-148.600525103922910
  0
LINE
  8
0
  6
CONTINUOUS
 62
3
 10
-326.369472252143910
 20
-211.197767852466430
 11
-326.369472252143910
 21
-213.810012476476350
  0
LINE
  8
0
  6
CONTINUOUS
 62
3
 10
-322.369472252143910
 20
-181.205268790199630
 11
-322.369472252143910
 21
-150.205268790199630
  0
LINE
  8
0
  6
CONTINUOUS
 62
3
 10
-322.369472252143910
 20
-181.205268790199630
 11
-322.369472252143910
 21
-212.205268790199630
  0
ARC
  8
0
  6
CONTINUOUS
 62
3
 10
-317.099372267928460
 20
-139.628943250312200
 40
1.000000000000041
 50
24.000000000003585
 51
113.999999999979760
  0
LINE
  8
0
  6
CONTINUOUS
 62
4
 10
-276.441531222523790
 20
-237.832010725451030
 11
-280.278422144622770
 21
-239.540304626369330
  0
LINE
  8
0
  6
CONTINUOUS
 62
4
 10
-277.783762144674310
 20
-234.817310715230410
 11
-281.620653066773060
 21
-236.525604616148710
  0
LINE
  8
0
  6
CONTINUOUS
 62
3
 10
-281.443269981674630
 20
-236.063505880897310
 11
-281.620653066773060
 21
-236.525604616148710
  0
LINE
  8
0
  6
CONTINUOUS
 62
3
 10
-279.816323409371590
 20
-239.717687711467310
 11
-280.278422144622990
 21
-239.540304626368880
  0
LINE
  8
0
  6
CONTINUOUS
 62
3
 10
-281.620653066773060
 20
-236.525604616148710
 11
-280.278422144622990
 21
-239.540304626368880
  0
POINT
  8
0
  6
CONTINUOUS
 62
3
 10
-273.641173944557120
 20
-234.779061476652490
  0
LINE
  8
0
  6
CONTINUOUS
 62
3
 10
-275.064752195322680
 20
-231.581652374903340
 11
-272.217595693791790
 21
-237.976470578401630
  0
LINE
  8
0
  6
CONTINUOUS
 62
3
 10
-275.064752195322680
 20
-231.581652374903340
 11
-272.217595693791790
 21
-237.976470578401630
  0
LINE
  8
0
  6
CONTINUOUS
 62
3
 10
-272.217595693791790
 20
-237.976470578401630
 11
-271.323211574115310
 21
-237.578265112637150
  0
LINE
  8
0
  6
CONTINUOUS
 62
3
 10
-275.064752195322680
 20
-231.581652374903340
 11
-274.170368075646190
 21
-231.183446909139090
  0
ARC
  8
0
  6
CONTINUOUS
 62
3
 10
-273.641610749963150
 20
-232.371055307094590
 40
1.299999237060495
 50
40.601531107483851
 51
114.000000683246080
  0
LINE
  8
0
  6
CONTINUOUS
 62
3
 10
-319.310043252991190
 20
-141.547756262478520
 11
-319.734875412737270
 21
-142.548598111093950
  0
LINE
  8
0
  6
CONTINUOUS
 62
3
 10
-318.865129507781210
 20
-142.547048895435860
 11
-318.998471529975230
 21
-142.861183013885240
  0
LINE
  8
0
  6
CONTINUOUS
 62
3
 10
-319.734875412737270
 20
-142.548598111093950
 11
-318.998471529975230
 21
-142.861183013885240
  0
LINE
  8
0
  6
CONTINUOUS
 62
3
 10
-316.185826810285850
 20
-139.222206607236330
 11
-297.493763229337050
 21
-181.205268790199630
  0
ARC
  8
0
  6
CONTINUOUS
 62
3
 10
-311.662910988490520
 20
-142.005061861538710
 40
3.000000000000030
 50
203.999999999999630
 51
260.681876880317470
  0
LINE
  8
0
  6
CONTINUOUS
 62
3
 10
-312.148658878929210
 20
-144.965475512860850
 11
-286.193021785393110
 21
-149.224304665853880
  0
ARC
  8
0
  6
CONTINUOUS
 62
3
 10
-288.621761237584740
 20
-164.026372922464820
 40
15.000000000000393
 50
1.682768801133086
 51
80.681876880324481
  0
ARC
  8
0
  6
CONTINUOUS
 62
3
 10
-873.369472252143850
 20
-181.205268790199850
 40
600.000000000000910
 50
355.284875165908370
 51
1.682768801133149
  0
ARC
  8
0
  6
CONTINUOUS
 62
3
 10
-274.403423259832210
 20
-230.608428148086200
 40
0.999999999999983
 50
175.284875165916760
 51
204.000000000003580
  0
LINE
  8
0
  6
CONTINUOUS
 62
3
 10
-317.506108911003880
 20
-138.715397792669590
 11
-320.064036192403190
 21
-139.854260393281720
  0
LINE
  8
0
  6
CONTINUOUS
 62
3
 10
-317.786310991183480
 20
-144.970114956082630
 11
-319.589682181370160
 21
-145.773027540212750
  0
ARC
  8
0
  6
CONTINUOUS
 62
3
 10
-318.369472252143910
 20
-148.513663913140590
 40
2.999999999999567
 50
113.999999999979760
 51
180.000000000000000
  0
LINE
  8
0
  6
CONTINUOUS
 62
3
 10
-322.369472252143910
 20
-150.205268790199630
 11
-321.369472252143910
 21
-150.205268790199630
  0
ARC
  8
0
  6
CONTINUOUS
 62
3
 10
-316.369472252143910
 20
-222.705268790199630
 40
5.000000000000000
 50
180.000000000000000
 51
270.000000000000000
  0
LINE
  8
0
  6
CONTINUOUS
 62
3
 10
-316.369472252143910
 20
-227.705268790199630
 11
-280.950247220815130
 21
-227.705268790199630
  0
LINE
  8
0
  6
CONTINUOUS
 62
3
 10
-271.788910229283660
 20
-241.397907231697900
 11
-274.346837510683430
 21
-242.536769832310030
  0
ARC
  8
0
  6
CONTINUOUS
 62
3
 10
-272.195646872359990
 20
-240.484361774055290
 40
1.000000000000226
 50
294.000000000027340
 51
23.999999999991683
  0
LINE
  8
0
  6
CONTINUOUS
 62
3
 10
-297.493763229340230
 20
-181.205268790199630
 11
-271.282101414717370
 21
-240.077625130979640
  0
ARC
  8
0
  6
CONTINUOUS
 62
3
 10
-275.574784988445400
 20
-227.977506630078320
 40
0.999999999999856
 50
113.999999999979760
 51
204.000000000003580
  0
ARC
  8
0
  6
CONTINUOUS
 62
3
 10
-276.999458655724820
 20
-225.327903378436760
 40
2.000000000000451
 50
294.000000000027340
 51
355.768661925113970
  0
LINE
  8
0
  6
CONTINUOUS
 62
3
 10
-277.926119969750800
 20
-234.497569805055490
 11
-281.443269981674630
 21
-236.063505880897310
  0
LINE
  8
0
  6
CONTINUOUS
 62
3
 10
-276.299173397447530
 20
-238.151751635625490
 11
-279.816323409371590
 21
-239.717687711467310
  0
LINE
  8
0
  6
CONTINUOUS
 62
3
 10
-322.369472252143910
 20
-212.205268790199630
 11
-321.369472252143910
 21
-212.205268790199630
  0
LINE
  8
0
  6
CONTINUOUS
 62
3
 10
-321.369472252143910
 20
-148.513663913140590
 11
-321.369472252143910
 21
-222.705268790199630
  0
ARC
  8
0
  6
CONTINUOUS
 62
3
 10
-873.369472252143850
 20
-181.205268790199850
 40
600.799999999999950
 50
357.158610984636650
 51
0.587807867706885
  0
ARC
  8
0
  6
CONTINUOUS
 62
3
 10
-274.306873023359290
 20
-210.938116034493530
 40
1.000000000000147
 50
303.952126946381380
 51
357.158610984632960
  0
ARC
  8
0
  6
CONTINUOUS
 62
3
 10
-273.189872998746810
 20
-212.597125059488690
 40
0.999999999999769
 50
123.952126946395960
 51
177.005923909151190
  0
ARC
  8
0
  6
CONTINUOUS
 62
3
 10
-272.419664582593730
 20
-173.438116034493530
 40
0.999999999999967
 50
180.740494943192910
 51
233.794291905968890
  0
ARC
  8
0
  6
CONTINUOUS
 62
3
 10
-273.601036698870130
 20
-175.051918972551680
 40
1.000000000000077
 50
0.587807867721716
 51
53.794291905958382
  0
LINE
  8
0
  6
CONTINUOUS
 62
3
 10
-320.064036192408420
 20
-139.854260393283990
 11
-274.346837510683430
 21
-242.536769832310030
  0
LINE
  8
0
  6
DASHDOT
 62
4
 10
-297.369472252143910
 20
-213.322745010493920
 11
-297.369472252143910
 21
-236.191254186257540
  0
ARC
  8
0
  6
CONTINUOUS
 62
3
 10
-271.851968899798580
 20
-236.390656714681650
 40
1.299999237060559
 50
293.999982013920090
 51
7.398451589679256
  0
ARC
  8
0
  6
CONTINUOUS
 62
3
 10
-279.487864524979900
 20
-237.382175837180280
 40
9.000000000000234
 50
7.398451589678908
 51
40.601531107483503
  0
ARC
  8
0
  6
DASHDOT
 62
4
 10
-389.869472252143850
 20
-149.205267993098910
 40
170.000000000000570
 50
307.276735604901940
 51
322.075746408331950
  0
LINE
  8
0
  6
DASHDOT
 62
4
 10
-284.102779242112320
 20
-254.971961003113820
 11
-255.054033990633090
 21
-284.020706254588670
  0
ARC
  8
0
  6
DASHDOT
 62
4
 10
-389.869472252143850
 20
-149.205267993098910
 40
170.000000000000280
 50
217.671879179694910
 51
232.303787384806870
  0
LINE
  8
0
  6
DASHDOT
 62
4
 10
-496.663025723262420
 20
-255.998821464234910
 11
-525.053011428172680
 21
-284.388807169150080
  0
ARC
  8
0
  6
DASHDOT
 62
4
 10
-389.869472252143850
 20
-149.205267993098910
 40
169.999999999999630
 50
127.131231110644890
 51
142.228365791807330
  0
LINE
  8
0
  6
DASHDOT
 62
4
 10
-493.865955207206750
 20
-45.208785038052838
 11
-524.098919717503580
 21
-14.975820527760703
  0
ARC
  8
0
  6
DASHDOT
 62
4
 10
-389.869472252143850
 20
-149.205267993098910
 40
169.999999999999910
 50
37.213488941910938
 51
52.606605304877540
  0
LINE
  8
0
  6
DASHDOT
 62
4
 10
-285.716808715573170
 20
-45.052604456512221
 11
-254.841087830026050
 21
-14.176883570960403
  0
CIRCLE
  8
0
  6
CONTINUOUS
 62
3
 10
-496.869472252143850
 20
-226.205267993098910
 40
5.633955001831055
  0
CIRCLE
  8
0
  6
CONTINUOUS
 62
3
 10
-496.869472252143850
 20
-226.205267993098910
 40
6.500000000000000
  0
LINE
  8
0
  6
CONTINUOUS
 62
3
 10
-493.869475590003050
 20
-227.937313992650160
 11
-493.869474636328730
 21
-224.473216015965590
  0
LINE
  8
0
  6
CONTINUOUS
 62
3
 10
-499.869468914284650
 20
-224.473221039873350
 11
-499.869469867958970
 21
-227.937319016557920
  0
LINE
  8
0
  6
CONTINUOUS
 62
3
 10
-496.869478953864700
 20
-222.741170993163680
 11
-493.869474312592270
 21
-224.473216171393460
  0
LINE
  8
0
  6
CONTINUOUS
 62
3
 10
-499.869470364237490
 20
-227.937319385877570
 11
-496.869467787731760
 21
-229.669366358514030
  0
LINE
  8
0
  6
CONTINUOUS
 62
3
 10
-496.869478870745520
 20
-222.741171096713290
 11
-499.869469678092860
 21
-224.473221210962490
  0
LINE
  8
0
  6
CONTINUOUS
 62
3
 10
-496.869467547155410
 20
-229.669366168847770
 11
-493.869474675043420
 21
-227.937314211131710
  0
CIRCLE
  8
0
  6
CONTINUOUS
 62
3
 10
-495.869472252143850
 20
-160.205267993098460
 40
5.633955001831055
  0
CIRCLE
  8
0
  6
CONTINUOUS
 62
3
 10
-495.869472252143850
 20
-160.205267993098460
 40
6.500000000000000
  0
LINE
  8
0
  6
CONTINUOUS
 62
3
 10
-492.869475590003050
 20
-161.937313992649710
 11
-492.869474636328730
 21
-158.473216015965140
  0
LINE
  8
0
  6
CONTINUOUS
 62
3
 10
-498.869468914284650
 20
-158.473221039872900
 11
-498.869469867958970
 21
-161.937319016557470
  0
LINE
  8
0
  6
CONTINUOUS
 62
3
 10
-495.869478953864700
 20
-156.741170993163220
 11
-492.869474312592270
 21
-158.473216171393010
  0
LINE
  8
0
  6
CONTINUOUS
 62
3
 10
-498.869470364237490
 20
-161.937319385877120
 11
-495.869467787731760
 21
-163.669366358513570
  0
LINE
  8
0
  6
CONTINUOUS
 62
3
 10
-495.869478870745520
 20
-156.741171096712830
 11
-498.869469678092860
 21
-158.473221210962040
  0
LINE
  8
0
  6
CONTINUOUS
 62
3
 10
-495.869467547155410
 20
-163.669366168847320
 11
-492.869474675043420
 21
-161.937314211131250
  0
CIRCLE
  8
0
  6
CONTINUOUS
 62
3
 10
-456.869472252143850
 20
-84.205267993098460
 40
5.633955001831055
  0
CIRCLE
  8
0
  6
CONTINUOUS
 62
3
 10
-456.869472252143850
 20
-84.205267993098460
 40
6.500000000000000
  0
LINE
  8
0
  6
CONTINUOUS
 62
3
 10
-453.869475590002820
 20
-85.937313992649706
 11
-453.869474636328730
 21
-82.473216015965136
  0
LINE
  8
0
  6
CONTINUOUS
 62
3
 10
-459.869468914284650
 20
-82.473221039872897
 11
-459.869469867958970
 21
-85.937319016557467
  0
LINE
  8
0
  6
CONTINUOUS
 62
3
 10
-456.869478953864700
 20
-80.741170993163223
 11
-453.869474312592270
 21
-82.473216171393005
  0
LINE
  8
0
  6
CONTINUOUS
 62
3
 10
-459.869470364237490
 20
-85.937319385877117
 11
-456.869467787731760
 21
-87.669366358513571
  0
LINE
  8
0
  6
CONTINUOUS
 62
3
 10
-456.869478870745520
 20
-80.741171096712833
 11
-459.869469678092860
 21
-82.473221210962038
  0
LINE
  8
0
  6
CONTINUOUS
 62
3
 10
-456.869467547155180
 20
-87.669366168847318
 11
-453.869474675043420
 21
-85.937314211131252
  0
CIRCLE
  8
0
  6
CONTINUOUS
 62
3
 10
-400.369472252143850
 20
-77.205267993098914
 40
5.633955001831055
  0
CIRCLE
  8
0
  6
CONTINUOUS
 62
3
 10
-400.369472252143850
 20
-77.205267993098914
 40
6.500000000000000
  0
LINE
  8
0
  6
CONTINUOUS
 62
3
 10
-397.369475590002820
 20
-78.937313992650161
 11
-397.369474636328620
 21
-75.473216015965590
  0
LINE
  8
0
  6
CONTINUOUS
 62
3
 10
-403.369468914284540
 20
-75.473221039873351
 11
-403.369469867958860
 21
-78.937319016557922
  0
LINE
  8
0
  6
CONTINUOUS
 62
3
 10
-400.369478953864700
 20
-73.741170993163678
 11
-397.369474312592270
 21
-75.473216171393460
  0
LINE
  8
0
  6
CONTINUOUS
 62
3
 10
-403.369470364237490
 20
-78.937319385877572
 11
-400.369467787731650
 21
-80.669366358514026
  0
LINE
  8
0
  6
CONTINUOUS
 62
3
 10
-400.369478870745520
 20
-73.741171096713288
 11
-403.369469678092860
 21
-75.473221210962492
  0
LINE
  8
0
  6
CONTINUOUS
 62
3
 10
-400.369467547155180
 20
-80.669366168847773
 11
-397.369474675043420
 21
-78.937314211131707
  0
CIRCLE
  8
0
  6
CONTINUOUS
 62
3
 10
-379.369472252143850
 20
-77.205267993098914
 40
5.633955001831055
  0
CIRCLE
  8
0
  6
CONTINUOUS
 62
3
 10
-379.369472252143850
 20
-77.205267993098914
 40
6.500000000000000
  0
LINE
  8
0
  6
CONTINUOUS
 62
3
 10
-382.369468914284880
 20
-78.937313992650161
 11
-382.369469867959080
 21
-75.473216015965590
  0
LINE
  8
0
  6
CONTINUOUS
 62
3
 10
-376.369475590003160
 20
-75.473221039873351
 11
-376.369474636328850
 21
-78.937319016557922
  0
LINE
  8
0
  6
CONTINUOUS
 62
3
 10
-379.369465550423000
 20
-73.741170993163678
 11
-382.369470191695430
 21
-75.473216171393233
  0
LINE
  8
0
  6
CONTINUOUS
 62
3
 10
-376.369474140050220
 20
-78.937319385877800
 11
-379.369476716556050
 21
-80.669366358514026
  0
LINE
  8
0
  6
CONTINUOUS
 62
3
 10
-379.369465633542180
 20
-73.741171096713288
 11
-376.369474826194850
 21
-75.473221210962492
  0
LINE
  8
0
  6
CONTINUOUS
 62
3
 10
-379.369476957132520
 20
-80.669366168847773
 11
-382.369469829244280
 21
-78.937314211131707
  0
CIRCLE
  8
0
  6
CONTINUOUS
 62
3
 10
-322.869472252143910
 20
-84.205267993098460
 40
5.633955001831055
  0
CIRCLE
  8
0
  6
CONTINUOUS
 62
3
 10
-322.869472252143910
 20
-84.205267993098460
 40
6.500000000000000
  0
LINE
  8
0
  6
CONTINUOUS
 62
3
 10
-325.869468914284940
 20
-85.937313992649706
 11
-325.869469867959140
 21
-82.473216015965136
  0
LINE
  8
0
  6
CONTINUOUS
 62
3
 10
-319.869475590003220
 20
-82.473221039872897
 11
-319.869474636328900
 21
-85.937319016557467
  0
LINE
  8
0
  6
CONTINUOUS
 62
3
 10
-322.869465550423060
 20
-80.741170993163223
 11
-325.869470191695480
 21
-82.473216171392778
  0
LINE
  8
0
  6
CONTINUOUS
 62
3
 10
-319.869474140050270
 20
-85.937319385877345
 11
-322.869476716556110
 21
-87.669366358513571
  0
LINE
  8
0
  6
CONTINUOUS
 62
3
 10
-322.869465633542230
 20
-80.741171096712833
 11
-319.869474826194900
 21
-82.473221210962038
  0
LINE
  8
0
  6
CONTINUOUS
 62
3
 10
-322.869476957132580
 20
-87.669366168847318
 11
-325.869469829244340
 21
-85.937314211131252
  0
ARC
  8
0
  6
CONTINUOUS
 62
3
 10
-282.869472252143910
 20
-226.205267993098910
 40
5.633955001831093
 50
195.440822143987110
 51
305.707265004868020
  0
ARC
  8
0
  6
CONTINUOUS
 62
3
 10
-282.869472252143910
 20
-226.205267993098910
 40
6.499999999999966
 50
193.342371018229530
 51
304.129640101466980
  0
LINE
  8
0
  6
CONTINUOUS
 62
3
 10
-285.869468914284940
 20
-227.937313992650160
 11
-285.869468978167500
 21
-227.705268790199630
  0
LINE
  8
0
  6
CONTINUOUS
 62
3
 10
-280.647053279575000
 20
-228.386253531850290
 11
-282.869476716556110
 21
-229.669366358514030
  0
LINE
  8
0
  6
CONTINUOUS
 62
3
 10
-282.869476957132580
 20
-229.669366168847770
 11
-285.869469829244340
 21
-227.937314211131710
  0
CIRCLE
  8
0
  6
CONTINUOUS
 62
3
 10
-322.869472252143910
 20
-284.205267993098910
 40
5.633955001831055
  0
CIRCLE
  8
0
  6
CONTINUOUS
 62
3
 10
-322.869472252143910
 20
-284.205267993098910
 40
6.500000000000000
  0
LINE
  8
0
  6
CONTINUOUS
 62
3
 10
-325.869468914284940
 20
-285.937313992650160
 11
-325.869469867959140
 21
-282.473216015965590
  0
LINE
  8
0
  6
CONTINUOUS
 62
3
 10
-319.869475590003220
 20
-282.473221039873350
 11
-319.869474636328900
 21
-285.937319016557920
  0
LINE
  8
0
  6
CONTINUOUS
 62
3
 10
-322.869465550423060
 20
-280.741170993163680
 11
-325.869470191695480
 21
-282.473216171393230
  0
LINE
  8
0
  6
CONTINUOUS
 62
3
 10
-319.869474140050270
 20
-285.937319385877800
 11
-322.869476716556110
 21
-287.669366358514030
  0
LINE
  8
0
  6
CONTINUOUS
 62
3
 10
-322.869465633542230
 20
-280.741171096713290
 11
-319.869474826194900
 21
-282.473221210962490
  0
LINE
  8
0
  6
CONTINUOUS
 62
3
 10
-322.869476957132580
 20
-287.669366168847770
 11
-325.869469829244340
 21
-285.937314211131710
  0
CIRCLE
  8
0
  6
CONTINUOUS
 62
3
 10
-456.869472252143850
 20
-284.205267993098910
 40
5.633955001831055
  0
CIRCLE
  8
0
  6
CONTINUOUS
 62
3
 10
-456.869472252143850
 20
-284.205267993098910
 40
6.500000000000000
  0
LINE
  8
0
  6
CONTINUOUS
 62
3
 10
-453.869475590002820
 20
-285.937313992650160
 11
-453.869474636328730
 21
-282.473216015965590
  0
LINE
  8
0
  6
CONTINUOUS
 62
3
 10
-459.869468914284650
 20
-282.473221039873350
 11
-459.869469867958970
 21
-285.937319016557920
  0
LINE
  8
0
  6
CONTINUOUS
 62
3
 10
-456.869478953864700
 20
-280.741170993163680
 11
-453.869474312592270
 21
-282.473216171393460
  0
LINE
  8
0
  6
CONTINUOUS
 62
3
 10
-459.869470364237490
 20
-285.937319385877570
 11
-456.869467787731760
 21
-287.669366358514030
  0
LINE
  8
0
  6
CONTINUOUS
 62
3
 10
-456.869478870745520
 20
-280.741171096713290
 11
-459.869469678092860
 21
-282.473221210962490
  0
LINE
  8
0
  6
CONTINUOUS
 62
3
 10
-456.869467547155180
 20
-287.669366168847770
 11
-453.869474675043420
 21
-285.937314211131710
  0
LINE
  8
0
  6
CONTINUOUS
 62
3
 10
-393.119472252143850
 20
-29.205267993098914
 11
-393.119472252143850
 21
-27.205302567351509
  0
LINE
  8
0
  6
CONTINUOUS
 62
3
 10
-386.619472252143850
 20
-29.205267993098914
 11
-386.619472252143850
 21
-27.205302567351509
  0
LINE
  8
0
  6
CONTINUOUS
 62
3
 10
-369.369472252143850
 20
-39.205267993098914
 11
-369.369472252143850
 21
-64.625694751758147
  0
ARC
  8
0
  6
CONTINUOUS
 62
3
 10
-379.369472252143850
 20
-39.205267993098914
 40
10.000000000000000
 50
0.000000000000000
 51
90.000000000000000
  0
LINE
  8
0
  6
CONTINUOUS
 62
3
 10
-379.369472252143850
 20
-29.205267993098914
 11
-400.369472252143850
 21
-29.205267993098914
  0
ARC
  8
0
  6
CONTINUOUS
 62
3
 10
-400.369472252143850
 20
-39.205267993098914
 40
10.000000000000000
 50
90.000000000000000
 51
180.000000000000000
  0
LINE
  8
0
  6
DASHDOT
 62
4
 10
-366.701559253262300
 20
-49.205267993098914
 11
-413.724073154797000
 21
-49.205267993098914
  0
CIRCLE
  8
0
  6
CONTINUOUS
 62
3
 10
-389.869472252143850
 20
-49.205267993098914
 40
10.000000000000000
  0
LINE
  8
0
  6
CONTINUOUS
 62
3
 10
-410.369472252143850
 20
-39.205267993098914
 11
-410.369472252143850
 21
-64.625694751758147
  0
LINE
  8
0
  6
CONTINUOUS
 62
3
 10
-468.567810437876460
 20
-75.103123885079185
 11
-491.464266986109810
 21
-52.206667336845612
  0
LINE
  8
0
  6
CONTINUOUS
 62
3
 10
-461.514974896937250
 20
-72.963571270593093
 11
-486.868072908397380
 21
-47.610473259132959
  0
LINE
  8
0
  6
CONTINUOUS
 62
3
 10
-519.869472252143850
 20
-289.205267993099140
 11
-465.529726289988280
 21
-289.205267993099140
  0
LINE
  8
0
  6
CONTINUOUS
 62
3
 10
-529.869472252143850
 20
-279.205267993099140
 11
-529.869472252143850
 21
-19.205267993099142
  0
LINE
  8
0
  6
CONTINUOUS
 62
3
 10
-314.209218214299480
 20
-289.205267993099140
 11
-259.869472252143910
 21
-289.205267993099140
  0
LINE
  8
0
  6
CONTINUOUS
 62
3
 10
-249.869472252143910
 20
-279.205267993099140
 11
-249.869472252143910
 21
-19.205267993099142
  0
LINE
  8
0
  6
CONTINUOUS
 62
3
 10
-450.869476901901860
 20
-292.205271480415600
 11
-462.869467602385840
 21
-292.205271480415600
  0
LINE
  8
0
  6
CONTINUOUS
 62
3
 10
-519.869472252143850
 20
-9.205267993099142
 11
-259.869472252143910
 21
-9.205267993099142
  0
LINE
  8
0
  6
CONTINUOUS
 62
3
 10
-318.223969607350510
 20
-72.963571270593093
 11
-292.870871595890380
 21
-47.610473259132959
  0
LINE
  8
0
  6
CONTINUOUS
 62
3
 10
-311.171134066411300
 20
-75.103123885079185
 11
-288.274677518177950
 21
-52.206667336845612
  0
ARC
  8
0
  6
CONTINUOUS
 62
3
 10
-396.119472252143850
 20
-27.205302567351509
 40
3.000000000000000
 50
0.000000000000000
 51
90.000000000000000
  0
ARC
  8
0
  6
CONTINUOUS
 62
3
 10
-519.869472252143850
 20
-279.205267993099140
 40
10.000000000000000
 50
180.000000000000000
 51
270.000000000000000
  0
CIRCLE
  8
0
  6
CONTINUOUS
 62
3
 10
-510.077625053847210
 20
-269.413420794822060
 40
9.500000000000000
  0
ARC
  8
0
  6
CONTINUOUS
 62
3
 10
-259.869472252143910
 20
-279.205267993099140
 40
10.000000000000000
 50
270.000000000000000
 51
0.000000000000000
  0
CIRCLE
  8
0
  6
CONTINUOUS
 62
3
 10
-269.661319450420990
 20
-269.413420794802960
 40
9.500000000000000
  0
ARC
  8
0
  6
CONTINUOUS
 62
3
 10
-519.869472252143850
 20
-19.205267993099142
 40
10.000000000000000
 50
90.000000000000000
 51
180.000000000000000
  0
CIRCLE
  8
0
  6
CONTINUOUS
 62
3
 10
-510.077625053866310
 20
-28.997115191395778
 40
9.500000000000000
  0
ARC
  8
0
  6
CONTINUOUS
 62
3
 10
-322.869472252143910
 20
-284.205267993099140
 40
10.000000000000158
 50
224.427031979599950
 51
233.130135655587680
  0
ARC
  8
0
  6
CONTINUOUS
 62
3
 10
-459.393654553377700
 20
-70.842250927033547
 40
2.999999999999864
 50
225.000000000000000
 51
295.240018135852320
  0
ARC
  8
0
  6
CONTINUOUS
 62
3
 10
-456.869472252143850
 20
-284.205267993099140
 40
10.000000000000053
 50
306.869864344412290
 51
315.572968020400030
  0
ARC
  8
0
  6
CONTINUOUS
 62
3
 10
-259.869472252143910
 20
-19.205267993099142
 40
10.000000000000000
 50
0.000000000000000
 51
90.000000000000000
  0
CIRCLE
  8
0
  6
CONTINUOUS
 62
3
 10
-269.661319450440090
 20
-28.997115191376679
 40
9.500000000000000
  0
ARC
  8
0
  6
CONTINUOUS
 62
3
 10
-484.746752564837380
 20
-45.489152915573186
 40
3.000000000000009
 50
132.451607436421090
 51
224.999999999996960
  0
ARC
  8
0
  6
CONTINUOUS
 62
3
 10
-493.585587329669350
 20
-54.327987680405158
 40
2.999999999999864
 50
45.000000000000000
 51
137.548392563582130
  0
ARC
  8
0
  6
CONTINUOUS
 62
3
 10
-294.992191939450380
 20
-45.489152915573186
 40
3.000000000000346
 50
315.000000000003070
 51
47.548392563578922
  0
ARC
  8
0
  6
CONTINUOUS
 62
3
 10
-320.345289950910060
 20
-70.842250927033547
 40
3.000000000000066
 50
244.759981864147700
 51
315.000000000000000
  0
ARC
  8
0
  6
CONTINUOUS
 62
3
 10
-286.153357174618410
 20
-54.327987680405386
 40
3.000000000000009
 50
42.451607436421085
 51
134.999999999996930
  0
ARC
  8
0
  6
CONTINUOUS
 62
3
 10
-470.689130781436010
 20
-77.224444228638959
 40
2.999999999999801
 50
303.694795008803110
 51
45.000000000003077
  0
ARC
  8
0
  6
CONTINUOUS
 62
3
 10
-309.049813722851750
 20
-77.224444228638959
 40
3.000000000000024
 50
134.999999999996930
 51
236.305204991196890
  0
ARC
  8
0
  6
CONTINUOUS
 62
3
 10
-383.619472252143850
 20
-27.205302567351509
 40
3.000000000000000
 50
90.000000000000000
 51
180.000000000000000
  0
LINE
  8
0
  6
CONTINUOUS
 62
3
 10
-393.119472252143850
 20
-58.662408152787748
 11
-393.119472252143850
 21
-39.748127833410081
  0
LINE
  8
0
  6
CONTINUOUS
 62
3
 10
-386.619472252143850
 20
-58.662408152787748
 11
-386.619472252143850
 21
-39.748127833410081
  0
LINE
  8
0
  6
CONTINUOUS
 62
3
 10
-410.369472252143850
 20
-64.625694751758374
 11
-410.369472252143850
 21
-84.205267993098914
  0
LINE
  8
0
  6
CONTINUOUS
 62
3
 10
-369.369472252143850
 20
-64.625694751758374
 11
-369.369472252143850
 21
-84.205267993098914
  0
ARC
  8
0
  6
CONTINUOUS
 62
3
 10
-389.869472252143850
 20
-564.205267993098910
 40
499.999999999999940
 50
92.349785605460426
 51
94.422377585978055
  0
ARC
  8
0
  6
CONTINUOUS
 62
3
 10
-389.869472252143850
 20
-564.205267993098910
 40
499.999999999999940
 50
85.577622414021960
 51
87.650214394539574
  0
LINE
  8
0
  6
CONTINUOUS
 62
3
 10
-506.869472252143850
 20
-224.100489969254340
 11
-506.869472252143850
 21
-150.440842262708200
  0
LINE
  8
0
  6
CONTINUOUS
 62
3
 10
-491.869472252143850
 20
-121.205267993098680
 11
-497.267534239893170
 21
-121.205267993098680
  0
ARC
  8
0
  6
CONTINUOUS
 62
3
 10
-483.529098062588450
 20
-96.384477744587457
 40
2.999999999999864
 50
45.000000000000000
 51
138.759285791780480
  0
ARC
  8
0
  6
CONTINUOUS
 62
3
 10
-474.595808318151510
 20
-87.640097959360901
 40
3.000000000000087
 50
130.016194045871200
 51
225.000000000000000
  0
ARC
  8
0
  6
CONTINUOUS
 62
3
 10
-471.603805513562970
 20
-271.778436816449580
 40
3.000000000000024
 50
134.999999999996930
 51
227.936520027066310
  0
ARC
  8
0
  6
CONTINUOUS
 62
3
 10
-474.856044169920320
 20
-283.510120061606360
 40
7.999999999999943
 50
357.786725011996450
 51
50.282947375418615
  0
ARC
  8
0
  6
CONTINUOUS
 62
3
 10
-480.442640278394950
 20
-262.939602051617610
 40
3.000000000000057
 50
222.063479972927580
 51
314.999999999996870
  0
ARC
  8
0
  6
CONTINUOUS
 62
3
 10
-491.869472252143850
 20
-134.205267993098690
 40
13.000000000000000
 50
270.000000000000000
 51
90.000000000000000
  0
LINE
  8
0
  6
CONTINUOUS
 62
3
 10
-491.869472252143850
 20
-147.205267993098690
 11
-503.869472252143850
 21
-147.205267993098690
  0
ARC
  8
0
  6
CONTINUOUS
 62
3
 10
-500.869472252143850
 20
-224.100489969254340
 40
6.000000000000000
 50
180.000000000000000
 51
201.128697254300160
  0
ARC
  8
0
  6
CONTINUOUS
 62
3
 10
-389.869472252143850
 20
-181.205268790199630
 40
125.000000000000250
 50
201.128697254301100
 51
230.282947375420260
  0
ARC
  8
0
  6
CONTINUOUS
 62
3
 10
-497.267534239893170
 20
-118.205267993098680
 40
3.000000000000109
 50
156.851427179930060
 51
270.000000000000000
  0
ARC
  8
0
  6
CONTINUOUS
 62
3
 10
-503.869472252143850
 20
-150.205267993098690
 40
3.000000000000000
 50
90.000000000000000
 51
180.000000000000000
  0
LINE
  8
0
  6
CONTINUOUS
 62
3
 10
-386.619472252143850
 20
-119.705268790199620
 11
-386.619472252143850
 21
-90.205267993098914
  0
LINE
  8
0
  6
CONTINUOUS
 62
3
 10
-393.119472252143850
 20
-119.705268790199620
 11
-393.119472252143850
 21
-90.205267993098914
  0
LINE
  8
0
  6
CONTINUOUS
 62
3
 10
-334.494440322738850
 20
-130.426430938507450
 11
-298.331166785258860
 21
-94.263157401027911
  0
LINE
  8
0
  6
CONTINUOUS
 62
3
 10
-339.090634400451050
 20
-125.830236860794620
 11
-303.021815842576700
 21
-89.761418302920447
  0
LINE
  8
0
  6
CONTINUOUS
 62
3
 10
-447.838248947506830
 20
-243.770239563274570
 11
-473.725125857122980
 21
-269.657116472889810
  0
LINE
  8
0
  6
CONTINUOUS
 62
3
 10
-448.468490745336340
 20
-235.208093205679010
 11
-478.321319934835400
 21
-265.060922395177390
  0
LINE
  8
0
  6
CONTINUOUS
 62
3
 10
-318.832818422687350
 20
-247.645728541943300
 11
-301.417624569452810
 21
-265.060922395177390
  0
LINE
  8
0
  6
CONTINUOUS
 62
3
 10
-322.733265009747640
 20
-252.937670110307860
 11
-306.013818647165240
 21
-269.657116472889810
  0
LINE
  8
0
  6
CONTINUOUS
 62
3
 10
-389.869472252143850
 20
-291.205271480415380
 11
-330.010897262431460
 21
-291.205271480415380
  0
LINE
  8
0
  6
CONTINUOUS
 62
3
 10
-389.869472252143850
 20
-291.205271480415380
 11
-449.728047241856760
 21
-291.205271480415380
  0
LINE
  8
0
  6
CONTINUOUS
 62
3
 10
-328.869467602385900
 20
-292.205271480415380
 11
-316.869476901901920
 21
-292.205271480415380
  0
LINE
  8
0
  6
CONTINUOUS
 62
3
 10
-450.869476901901860
 20
-292.205271480415380
 11
-462.869467602385840
 21
-292.205271480415380
  0
LINE
  8
0
  6
CONTINUOUS
 62
4
 10
-389.869472252143850
 20
-181.205268790199630
 11
-389.486067024118480
 21
-180.821863562174490
  0
LINE
  8
0
  6
DASHDOT
 62
4
 10
-389.869472252143850
 20
-305.990805429006290
 11
-389.869472252143850
 21
-0.117848253201373
  0
LINE
  8
0
  6
CONTINUOUS
 62
3
 10
-389.869472252143850
 20
-87.205267993098914
 11
-407.369472252143850
 21
-87.205267993098914
  0
LINE
  8
0
  6
CONTINUOUS
 62
3
 10
-389.869472252143850
 20
-87.205267993098914
 11
-372.369472252143850
 21
-87.205267993098914
  0
LINE
  8
0
  6
CONTINUOUS
 62
3
 10
-272.869472252143910
 20
-224.100489969254110
 11
-272.869472252143910
 21
-200.189209371647680
  0
LINE
  8
0
  6
DASHDOT
 62
4
 10
-236.385980658549950
 20
-181.205268790199630
 11
-543.356734394521480
 21
-181.205268790199630
  0
LINE
  8
0
  6
CONTINUOUS
 62
3
 10
-287.869472252143910
 20
-121.205267993098680
 11
-282.471410264394590
 21
-121.205267993098680
  0
LINE
  8
0
  6
CONTINUOUS
 62
3
 10
-287.869472252143910
 20
-147.205267993098690
 11
-275.869472252143910
 21
-147.205267993098690
  0
ARC
  8
0
  6
CONTINUOUS
 62
3
 10
-383.619472252143850
 20
-90.205267993098914
 40
3.000000000000000
 50
90.000000000000000
 51
180.000000000000000
  0
ARC
  8
0
  6
CONTINUOUS
 62
3
 10
-383.619472252143850
 20
-119.705268790199620
 40
3.000000000000000
 50
180.000000000000000
 51
210.493960341051750
  0
ARC
  8
0
  6
CONTINUOUS
 62
3
 10
-396.119472252143850
 20
-119.705268790199620
 40
2.999999999999680
 50
329.506039658948280
 51
0.000000000000000
  0
ARC
  8
0
  6
CONTINUOUS
 62
3
 10
-396.119472252143850
 20
-90.205267993098914
 40
3.000000000000000
 50
0.000000000000000
 51
90.000000000000000
  0
ARC
  8
0
  6
CONTINUOUS
 62
3
 10
-296.209846441699310
 20
-96.384477744587457
 40
3.000000000000097
 50
41.240714208219508
 51
135.000000000000000
  0
ARC
  8
0
  6
CONTINUOUS
 62
3
 10
-305.143136186136250
 20
-87.640097959360901
 40
2.999999999999864
 50
315.000000000000000
 51
49.983805954128798
  0
ARC
  8
0
  6
CONTINUOUS
 62
3
 10
-445.716928603947280
 20
-245.891559906834350
 40
2.999999999999769
 50
33.002416253121815
 51
134.999999999996930
  0
ARC
  8
0
  6
CONTINUOUS
 62
3
 10
-450.589811088895890
 20
-233.086772862119460
 40
2.999999999999864
 50
315.000000000000000
 51
8.666390951558663
  0
ARC
  8
0
  6
CONTINUOUS
 62
3
 10
-316.711498079127350
 20
-245.524408198383530
 40
3.000000000000064
 50
148.296383256602130
 51
224.999999999996960
  0
ARC
  8
0
  6
CONTINUOUS
 62
3
 10
-299.296304225893270
 20
-262.939602051617840
 40
2.999999999999864
 50
225.000000000000000
 51
317.936520027075630
  0
ARC
  8
0
  6
CONTINUOUS
 62
3
 10
-324.854585353307190
 20
-255.058990453867410
 40
2.999999999999864
 50
45.000000000000000
 51
130.705112768220120
  0
ARC
  8
0
  6
CONTINUOUS
 62
3
 10
-308.135138990724780
 20
-271.778436816449580
 40
2.999999999999736
 50
312.063479972927270
 51
45.000000000003077
  0
ARC
  8
0
  6
CONTINUOUS
 62
3
 10
-304.882900334367430
 20
-283.510120061606360
 40
8.000000000000190
 50
129.717052624580360
 51
182.213274988003520
  0
ARC
  8
0
  6
CONTINUOUS
 62
3
 10
-278.869472252143910
 20
-224.100489969254110
 40
6.000000000000148
 50
338.871302745699890
 51
0.000000000000000
  0
ARC
  8
0
  6
CONTINUOUS
 62
3
 10
-389.869472252143850
 20
-181.205268790199630
 40
124.999999999999940
 50
309.717052624579760
 51
332.211641912804960
  0
ARC
  8
0
  6
CONTINUOUS
 62
3
 10
-418.460881639205350
 20
-228.189641822746130
 40
29.499999999999911
 50
176.174628045369390
 51
333.835129630832680
  0
ARC
  8
0
  6
CONTINUOUS
 62
3
 10
-351.593393529508660
 20
-223.977868573917250
 40
37.999999999999886
 50
206.904793340023080
 51
354.370835208503820
  0
ARC
  8
0
  6
CONTINUOUS
 62
3
 10
-407.369472252143850
 20
-84.205267993098914
 40
3.000000000000000
 50
180.000000000000000
 51
270.000000000000000
  0
ARC
  8
0
  6
CONTINUOUS
 62
3
 10
-372.369472252143850
 20
-84.205267993098914
 40
3.000000000000000
 50
270.000000000000000
 51
0.000000000000000
  0
ARC
  8
0
  6
CONTINUOUS
 62
3
 10
-322.869472252143910
 20
-284.205267993098910
 40
10.000000000000053
 50
306.869864344412290
 51
2.213274988003464
  0
ARC
  8
0
  6
CONTINUOUS
 62
3
 10
-322.869472252143910
 20
-284.205267993098910
 40
10.000000000000158
 50
224.427031979599950
 51
233.130135655587680
  0
ARC
  8
0
  6
CONTINUOUS
 62
3
 10
-421.869472252143850
 20
-150.440842262708200
 40
84.999999999999972
 50
94.422377585978197
 51
180.000000000000000
  0
ARC
  8
0
  6
CONTINUOUS
 62
3
 10
-456.869472252143850
 20
-284.205267993098910
 40
10.000000000000156
 50
177.786725011996540
 51
233.130135655587680
  0
ARC
  8
0
  6
CONTINUOUS
 62
3
 10
-456.869472252143850
 20
-284.205267993098910
 40
10.000000000000053
 50
306.869864344412290
 51
315.572968020398260
  0
ARC
  8
0
  6
CONTINUOUS
 62
3
 10
-357.869472252143910
 20
-150.440842262708200
 40
85.000000000000000
 50
0.000000000000000
 51
85.577622414021803
  0
ARC
  8
0
  6
CONTINUOUS
 62
3
 10
-287.869472252143910
 20
-134.205267993098690
 40
13.000000000000000
 50
90.000000000000000
 51
270.000000000000000
  0
ARC
  8
0
  6
CONTINUOUS
 62
3
 10
-282.471410264394590
 20
-118.205267993098680
 40
3.000000000000000
 50
270.000000000000000
 51
23.148572820069919
  0
ARC
  8
0
  6
CONTINUOUS
 62
3
 10
-275.869472252143910
 20
-150.205267993098690
 40
3.000000000000000
 50
0.000000000000000
 51
90.000000000000000
  0
LINE
  8
0
  6
DASHDOT
 62
4
 10
-364.306522161772590
 20
-149.205268790198940
 11
-415.646591365100900
 21
-149.205268790198940
  0
LINE
  8
0
  6
CONTINUOUS
 62
3
 10
-272.869472252143910
 20
-174.370146678976880
 11
-272.869472252143910
 21
-150.440842262708200
  0
ARC
  8
0
  6
CONTINUOUS
 62
3
 10
-389.869472252143850
 20
-181.205268790199630
 40
124.999999999999980
 50
336.463102608948360
 51
338.871302745698980
  0
LINE
  8
0
  6
CONTINUOUS
 62
3
 10
-440.664300653364080
 20
-125.814246311267360
 11
-476.717128661711060
 21
-89.761418302920447
  0
LINE
  8
0
  6
CONTINUOUS
 62
3
 10
-445.248280719920330
 20
-130.422654400136030
 11
-481.407777719028900
 21
-94.263157401027911
  0
TEXT
  8
0
  6
CONTINUOUS
 62
3
 10
-460.851318359375000
 20
210.561996459960940
 40
17.100000381469727
  1
Ｄ０９０
 50
0.000002504478167
 41
0.833333333333333
  7
STANDARD1
  0
TEXT
  8
0
  6
CONTINUOUS
 62
3
 10
-460.851318359375000
 20
187.904495239257810
 40
17.100000381469727
  1
三菱ギヤードモートル
 50
0.000002504478167
 41
0.833333333333333
  7
STANDARD1
  0
TEXT
  8
0
  6
CONTINUOUS
 62
3
 10
-460.851318359375000
 20
165.246994018554690
 40
17.100000381469727
  1
ＧＭ－ＤＦＢ
 50
0.000002504478167
 41
0.833333333333333
  7
STANDARD1
  0
TEXT
  8
0
  6
CONTINUOUS
 62
3
 10
-460.851318359375000
 20
142.589492797851560
 40
17.100000381469727
  1
０．４（kＷ）
 50
0.000002504478167
 41
0.804878051688032
  7
STANDARD1
  0
TEXT
  8
0
  6
CONTINUOUS
 62
3
 10
-460.851318359375000
 20
119.931999206542960
 40
17.100000381469727
  1
１／１２０～１／２００
 50
0.000002504478167
 41
0.833333333333333
  7
STANDARD1
  0
TEXT
  8
0
  6
CONTINUOUS
 62
3
 10
-460.851318359375000
 20
97.274497985839844
 40
17.100000381469727
  1
ＳＣＡＬＥ　１／１
 50
0.000002504478167
 41
0.833333333333333
  7
STANDARD1
  0
ARC
  8
0
  6
DASHDOT
 62
4
 10
387.278523955379110
 20
-149.205268790199630
 40
169.999999999999910
 50
39.279529057974905
 51
50.832634642346790
  0
ARC
  8
0
  6
DASHDOT
 62
4
 10
387.278523955378660
 20
-149.205268790199630
 40
169.999999999999940
 50
218.973701863629940
 51
230.985989333487250
  0
LINE
  8
0
  6
CONTINUOUS
 62
3
 10
-41.800897157716918
 20
228.294731209800370
 11
-11.800897157717031
 21
228.294731209800370
  0
LINE
  8
0
  6
CONTINUOUS
 62
4
 10
-108.800897157716910
 20
225.794731209800370
 11
-11.800897157717031
 21
225.794731209800370
  0
LINE
  8
0
  6
CONTINUOUS
 62
4
 10
-108.800897157716910
 20
224.794731209800370
 11
-11.800897157717031
 21
224.794731209800370
  0
LINE
  8
0
  6
CONTINUOUS
 62
4
 10
-108.800897157716910
 20
223.794731209800370
 11
-11.800897157717031
 21
223.794731209800370
  0
LINE
  8
0
  6
CONTINUOUS
 62
4
 10
-108.800897157716910
 20
219.110265396576100
 11
-11.800897157717031
 21
219.110265396576100
  0
LINE
  8
0
  6
CONTINUOUS
 62
4
 10
-108.800897157716910
 20
214.160517928270340
 11
-11.800897157717031
 21
214.160517928270340
  0
LINE
  8
0
  6
CONTINUOUS
 62
4
 10
-108.800897157716910
 20
183.794731209800370
 11
-15.800896204053629
 21
183.794731209800370
  0
LINE
  8
0
  6
CONTINUOUS
 62
4
 10
-108.800897157716910
 20
188.167993019301550
 11
-11.800897157717031
 21
188.167993019301550
  0
LINE
  8
0
  6
CONTINUOUS
 62
4
 10
-108.800897157716910
 20
189.434230935388770
 11
-11.800897157717031
 21
189.434230935388770
  0
LINE
  8
0
  6
CONTINUOUS
 62
4
 10
-108.800897157716910
 20
193.624784666930960
 11
-11.800897157717031
 21
193.624784666930960
  0
LINE
  8
0
  6
CONTINUOUS
 62
4
 10
-108.800897157716910
 20
194.986665002280230
 11
-11.800897157717031
 21
194.986665002280230
  0
LINE
  8
0
  6
CONTINUOUS
 62
4
 10
-108.800897157716910
 20
199.077165536370100
 11
-11.800897157717031
 21
199.077165536370100
  0
LINE
  8
0
  6
CONTINUOUS
 62
4
 10
-108.800897157716910
 20
200.545522926174730
 11
-11.800897157717031
 21
200.545522926174730
  0
LINE
  8
0
  6
CONTINUOUS
 62
4
 10
-108.800897157716910
 20
204.509268349974260
 11
-11.800897157717031
 21
204.509268349974260
  0
LINE
  8
0
  6
CONTINUOUS
 62
4
 10
-108.800897157716910
 20
206.113916265536320
 11
-11.800897157717031
 21
206.113916265536320
  0
LINE
  8
0
  6
CONTINUOUS
 62
4
 10
-108.800897157716910
 20
153.794731209800370
 11
-15.800896204053629
 21
153.794731209800370
  0
LINE
  8
0
  6
CONTINUOUS
 62
4
 10
-108.800897157716910
 20
149.421469400299200
 11
-11.800897157717031
 21
149.421469400299200
  0
LINE
  8
0
  6
CONTINUOUS
 62
4
 10
-108.800897157716910
 20
148.155231484211980
 11
-11.800897157717031
 21
148.155231484211980
  0
LINE
  8
0
  6
CONTINUOUS
 62
4
 10
-108.800897157716910
 20
143.964677752669790
 11
-11.800897157717031
 21
143.964677752669790
  0
LINE
  8
0
  6
CONTINUOUS
 62
4
 10
-108.800897157716910
 20
142.602797417320520
 11
-11.800897157717031
 21
142.602797417320520
  0
LINE
  8
0
  6
CONTINUOUS
 62
4
 10
-108.800897157716910
 20
138.512296883230650
 11
-11.800897157717031
 21
138.512296883230650
  0
LINE
  8
0
  6
CONTINUOUS
 62
4
 10
-108.800897157716910
 20
137.043939493426020
 11
-11.800897157717031
 21
137.043939493426020
  0
LINE
  8
0
  6
CONTINUOUS
 62
4
 10
-108.800897157716910
 20
133.080194069626490
 11
-11.800897157717031
 21
133.080194069626490
  0
LINE
  8
0
  6
CONTINUOUS
 62
4
 10
-108.800897157716910
 20
131.475546154064430
 11
-11.800897157717031
 21
131.475546154064430
  0
LINE
  8
0
  6
CONTINUOUS
 62
4
 10
-108.800897157716910
 20
123.428944491330410
 11
-11.800897157717031
 21
123.428944491330410
  0
LINE
  8
0
  6
CONTINUOUS
 62
4
 10
-108.800897157716910
 20
118.479197023024650
 11
-11.800897157717031
 21
118.479197023024650
  0
LINE
  8
0
  6
CONTINUOUS
 62
4
 10
-108.800897157716910
 20
113.794731209800370
 11
-11.800897157717031
 21
113.794731209800370
  0
LINE
  8
0
  6
CONTINUOUS
 62
4
 10
-108.800897157716910
 20
112.794731209800370
 11
-11.800897157717031
 21
112.794731209800370
  0
LINE
  8
0
  6
CONTINUOUS
 62
4
 10
-108.800897157716910
 20
111.794731209800370
 11
-11.800897157717031
 21
111.794731209800370
  0
LINE
  8
0
  6
CONTINUOUS
 62
3
 10
-108.933105636925120
 20
109.294731209800370
 11
-11.800897157717031
 21
109.294731209800370
  0
LINE
  8
0
  6
CONTINUOUS
 62
3
 10
-108.800897157716910
 20
228.294731209800150
 11
-11.800897157717031
 21
228.294731209800150
  0
ARC
  8
0
  6
CONTINUOUS
 62
3
 10
-115.800897157716800
 20
104.175510292927580
 40
3.000000000000000
 50
90.000000000000000
 51
180.000000000000000
  0
ARC
  8
0
  6
CONTINUOUS
 62
3
 10
-111.800897157716910
 20
110.175510292927580
 40
3.000000000000000
 50
270.000000000000000
 51
0.000000000000000
  0
LINE
  8
0
  6
CONTINUOUS
 62
3
 10
-118.800897157716800
 20
103.794731209800370
 11
-118.800897157716800
 21
104.175510292927580
  0
LINE
  8
0
  6
CONTINUOUS
 62
3
 10
-115.800897157716800
 20
107.175510292927580
 11
-111.800897157716910
 21
107.175510292927580
  0
ARC
  8
0
  6
CONTINUOUS
 62
3
 10
-189.494921380137270
 20
123.794731209800370
 40
20.000000000000007
 50
234.999999999999740
 51
270.000000000000000
  0
LINE
  8
0
  6
CONTINUOUS
 62
3
 10
-118.800897157716800
 20
103.794731209800370
 11
-189.494921380137270
 21
103.794731209800370
  0
ARC
  8
0
  6
CONTINUOUS
 62
3
 10
-209.200897157666650
 20
116.351526152554920
 40
2.600000000000136
 50
180.000000000000000
 51
234.999999999998610
  0
LINE
  8
0
  6
CONTINUOUS
 62
3
 10
-200.966450107158270
 20
107.411690324020580
 11
-210.692195892179260
 21
114.221730837403810
  0
LINE
  8
0
  6
CONTINUOUS
 62
3
 10
-211.800897157666780
 20
168.794731209800370
 11
-211.800897157666780
 21
116.351526152554920
  0
LINE
  8
0
  6
CONTINUOUS
 62
3
 10
-108.800897157716910
 20
168.794731209800370
 11
-108.800897157716910
 21
110.175510292927580
  0
ARC
  8
0
  6
CONTINUOUS
 62
3
 10
-209.200897157666650
 20
221.237936267045820
 40
2.599999999999721
 50
125.000000000001370
 51
180.000000000000000
  0
LINE
  8
0
  6
CONTINUOUS
 62
3
 10
-200.966450107158270
 20
230.177772095580170
 11
-210.692195892179260
 21
223.367731582196940
  0
ARC
  8
0
  6
CONTINUOUS
 62
3
 10
-189.494921380137270
 20
213.794731209800370
 40
20.000000000000000
 50
90.000000000000000
 51
125.000000000000240
  0
LINE
  8
0
  6
CONTINUOUS
 62
3
 10
-211.800897157666780
 20
168.794731209800370
 11
-211.800897157666780
 21
221.237936267045820
  0
LINE
  8
0
  6
CONTINUOUS
 62
3
 10
-108.800897157716910
 20
233.794731209800370
 11
-189.494921380137270
 21
233.794731209800370
  0
LINE
  8
0
  6
CONTINUOUS
 62
3
 10
-108.800897157716910
 20
168.794731209800370
 11
-108.800897157716910
 21
233.794731209800370
  0
LINE
  8
0
  6
CONTINUOUS
 62
3
 10
-119.800897157716340
 20
222.534846310237980
 11
-121.800897157716340
 21
220.882204671114550
  0
LINE
  8
0
  6
CONTINUOUS
 62
3
 10
-117.800897157716340
 20
223.710631795860760
 11
-119.800897157716340
 21
222.534846310237980
  0
LINE
  8
0
  6
CONTINUOUS
 62
3
 10
-119.800897157716340
 20
222.534846310237980
 11
-117.800897157716340
 21
220.882204671114550
  0
LINE
  8
0
  6
CONTINUOUS
 62
3
 10
-121.800897157716340
 20
223.710631795860760
 11
-119.800897157716340
 21
222.534846310237980
  0
POLYLINE
  8
0
  6
CONTINUOUS
 62
3
 66
1
 70
1
  0
VERTEX
  8
0
  6
CONTINUOUS
 62
3
 10
-115.100897157716360
 20
220.718256241860440
  0
VERTEX
  8
0
  6
CONTINUOUS
 62
3
 10
-115.191206339821170
 20
221.421213208060810
  0
VERTEX
  8
0
  6
CONTINUOUS
 62
3
 10
-115.458663354913310
 20
222.097155932272900
  0
VERTEX
  8
0
  6
CONTINUOUS
 62
3
 10
-115.892989979894390
 20
222.720108314678300
  0
VERTEX
  8
0
  6
CONTINUOUS
 62
3
 10
-116.477495286139580
 20
223.266130644576890
  0
VERTEX
  8
0
  6
CONTINUOUS
 62
3
 10
-117.189717062524220
 20
223.714239590043520
  0
VERTEX
  8
0
  6
CONTINUOUS
 62
3
 10
-118.002285025600420
 20
224.047214575606260
  0
VERTEX
  8
0
  6
CONTINUOUS
 62
3
 10
-118.883972644240540
 20
224.252259559304520
  0
VERTEX
  8
0
  6
CONTINUOUS
 62
3
 10
-119.800897157716340
 20
224.321494777405290
  0
VERTEX
  8
0
  6
CONTINUOUS
 62
3
 10
-120.717821671192150
 20
224.252259559304520
  0
VERTEX
  8
0
  6
CONTINUOUS
 62
3
 10
-121.599509289832270
 20
224.047214575606260
  0
VERTEX
  8
0
  6
CONTINUOUS
 62
3
 10
-122.412077252908470
 20
223.714239590043520
  0
VERTEX
  8
0
  6
CONTINUOUS
 62
3
 10
-123.124299029293110
 20
223.266130644576890
  0
VERTEX
  8
0
  6
CONTINUOUS
 62
3
 10
-123.708804335538300
 20
222.720108314678300
  0
VERTEX
  8
0
  6
CONTINUOUS
 62
3
 10
-124.143130960519380
 20
222.097155932272900
  0
VERTEX
  8
0
  6
CONTINUOUS
 62
3
 10
-124.410587975611520
 20
221.421213208060810
  0
VERTEX
  8
0
  6
CONTINUOUS
 62
3
 10
-124.500897157716330
 20
220.718256241860440
  0
VERTEX
  8
0
  6
CONTINUOUS
 62
3
 10
-124.410587975611520
 20
220.015299275660080
  0
VERTEX
  8
0
  6
CONTINUOUS
 62
3
 10
-124.143130960519380
 20
219.339356551447990
  0
VERTEX
  8
0
  6
CONTINUOUS
 62
3
 10
-123.708804335538300
 20
218.716404169042590
  0
VERTEX
  8
0
  6
CONTINUOUS
 62
3
 10
-123.124299029293110
 20
218.170381839144000
  0
VERTEX
  8
0
  6
CONTINUOUS
 62
3
 10
-122.412077252908470
 20
217.722272893677370
  0
VERTEX
  8
0
  6
CONTINUOUS
 62
3
 10
-121.599509289832270
 20
217.389297908114630
  0
VERTEX
  8
0
  6
CONTINUOUS
 62
3
 10
-120.717821671192150
 20
217.184252924416370
  0
VERTEX
  8
0
  6
CONTINUOUS
 62
3
 10
-119.800897157716340
 20
217.115017706315600
  0
VERTEX
  8
0
  6
CONTINUOUS
 62
3
 10
-118.883972644240540
 20
217.184252924416370
  0
VERTEX
  8
0
  6
CONTINUOUS
 62
3
 10
-118.002285025600420
 20
217.389297908114630
  0
VERTEX
  8
0
  6
CONTINUOUS
 62
3
 10
-117.189717062524220
 20
217.722272893677370
  0
VERTEX
  8
0
  6
CONTINUOUS
 62
3
 10
-116.477495286139580
 20
218.170381839144000
  0
VERTEX
  8
0
  6
CONTINUOUS
 62
3
 10
-115.892989979894390
 20
218.716404169042590
  0
VERTEX
  8
0
  6
CONTINUOUS
 62
3
 10
-115.458663354913310
 20
219.339356551447990
  0
VERTEX
  8
0
  6
CONTINUOUS
 62
3
 10
-115.191206339821170
 20
220.015299275660080
  0
SEQEND
  8
0
  6
CONTINUOUS
 62
3
  0
LINE
  8
0
  6
CONTINUOUS
 62
3
 10
-119.800897157716340
 20
115.054616109362540
 11
-121.800897157716340
 21
116.707257748485970
  0
LINE
  8
0
  6
CONTINUOUS
 62
3
 10
-117.800897157716340
 20
113.878830623740210
 11
-119.800897157716340
 21
115.054616109362540
  0
LINE
  8
0
  6
CONTINUOUS
 62
3
 10
-119.800897157716340
 20
115.054616109362540
 11
-117.800897157716340
 21
116.707257748485970
  0
LINE
  8
0
  6
CONTINUOUS
 62
3
 10
-121.800897157716340
 20
113.878830623740210
 11
-119.800897157716340
 21
115.054616109362540
  0
POLYLINE
  8
0
  6
CONTINUOUS
 62
3
 66
1
 70
1
  0
VERTEX
  8
0
  6
CONTINUOUS
 62
3
 10
-115.100897157716360
 20
116.871206177740530
  0
VERTEX
  8
0
  6
CONTINUOUS
 62
3
 10
-115.191206339821170
 20
117.574163143940890
  0
VERTEX
  8
0
  6
CONTINUOUS
 62
3
 10
-115.458663354913310
 20
118.250105868152980
  0
VERTEX
  8
0
  6
CONTINUOUS
 62
3
 10
-115.892989979894390
 20
118.873058250558380
  0
VERTEX
  8
0
  6
CONTINUOUS
 62
3
 10
-116.477495286139580
 20
119.419080580456960
  0
VERTEX
  8
0
  6
CONTINUOUS
 62
3
 10
-117.189717062524220
 20
119.867189525923570
  0
VERTEX
  8
0
  6
CONTINUOUS
 62
3
 10
-118.002285025600420
 20
120.200164511486340
  0
VERTEX
  8
0
  6
CONTINUOUS
 62
3
 10
-118.883972644240540
 20
120.405209495184590
  0
VERTEX
  8
0
  6
CONTINUOUS
 62
3
 10
-119.800897157716340
 20
120.474444713285360
  0
VERTEX
  8
0
  6
CONTINUOUS
 62
3
 10
-120.717821671192150
 20
120.405209495184590
  0
VERTEX
  8
0
  6
CONTINUOUS
 62
3
 10
-121.599509289832270
 20
120.200164511486340
  0
VERTEX
  8
0
  6
CONTINUOUS
 62
3
 10
-122.412077252908470
 20
119.867189525923570
  0
VERTEX
  8
0
  6
CONTINUOUS
 62
3
 10
-123.124299029293110
 20
119.419080580456960
  0
VERTEX
  8
0
  6
CONTINUOUS
 62
3
 10
-123.708804335538300
 20
118.873058250558380
  0
VERTEX
  8
0
  6
CONTINUOUS
 62
3
 10
-124.143130960519380
 20
118.250105868152980
  0
VERTEX
  8
0
  6
CONTINUOUS
 62
3
 10
-124.410587975611520
 20
117.574163143940890
  0
VERTEX
  8
0
  6
CONTINUOUS
 62
3
 10
-124.500897157716330
 20
116.871206177740530
  0
VERTEX
  8
0
  6
CONTINUOUS
 62
3
 10
-124.410587975611520
 20
116.168249211540170
  0
VERTEX
  8
0
  6
CONTINUOUS
 62
3
 10
-124.143130960519380
 20
115.492306487328070
  0
VERTEX
  8
0
  6
CONTINUOUS
 62
3
 10
-123.708804335538300
 20
114.869354104922670
  0
VERTEX
  8
0
  6
CONTINUOUS
 62
3
 10
-123.124299029293110
 20
114.323331775024100
  0
VERTEX
  8
0
  6
CONTINUOUS
 62
3
 10
-122.412077252908470
 20
113.875222829557480
  0
VERTEX
  8
0
  6
CONTINUOUS
 62
3
 10
-121.599509289832270
 20
113.542247843994710
  0
VERTEX
  8
0
  6
CONTINUOUS
 62
3
 10
-120.717821671192150
 20
113.337202860296470
  0
VERTEX
  8
0
  6
CONTINUOUS
 62
3
 10
-119.800897157716340
 20
113.267967642195700
  0
VERTEX
  8
0
  6
CONTINUOUS
 62
3
 10
-118.883972644240540
 20
113.337202860296470
  0
VERTEX
  8
0
  6
CONTINUOUS
 62
3
 10
-118.002285025600420
 20
113.542247843994710
  0
VERTEX
  8
0
  6
CONTINUOUS
 62
3
 10
-117.189717062524220
 20
113.875222829557480
  0
VERTEX
  8
0
  6
CONTINUOUS
 62
3
 10
-116.477495286139580
 20
114.323331775024100
  0
VERTEX
  8
0
  6
CONTINUOUS
 62
3
 10
-115.892989979894390
 20
114.869354104922670
  0
VERTEX
  8
0
  6
CONTINUOUS
 62
3
 10
-115.458663354913310
 20
115.492306487328070
  0
VERTEX
  8
0
  6
CONTINUOUS
 62
3
 10
-115.191206339821170
 20
116.168249211540170
  0
SEQEND
  8
0
  6
CONTINUOUS
 62
3
  0
LINE
  8
0
  6
CONTINUOUS
 62
3
 10
-109.463661602521140
 20
108.294731209800370
 11
-46.050897157717031
 21
108.294731209800370
  0
LINE
  8
0
  6
CONTINUOUS
 62
3
 10
-46.050897157717031
 20
108.294731209800370
 11
-46.050897157717031
 21
109.294731209800370
  0
LINE
  8
0
  6
CONTINUOUS
 62
3
 10
-115.300897157717030
 20
101.294731209800370
 11
-115.300897157717030
 21
107.133550184477370
  0
LINE
  8
0
  6
CONTINUOUS
 62
3
 10
-50.300897157716918
 20
101.294731209800370
 11
-50.300897157717031
 21
108.294731209800370
  0
LINE
  8
0
  6
CONTINUOUS
 62
3
 10
-115.300897157717030
 20
101.294731209800370
 11
-50.300897157716918
 21
101.294731209800370
  0
LINE
  8
0
  6
CONTINUOUS
 62
3
 10
-110.963572922897010
 20
107.294731209800370
 11
-50.300897157716918
 21
107.294731209800370
  0
LINE
  8
0
  6
CONTINUOUS
 62
3
 10
-115.300897157717030
 20
105.294731209800370
 11
-50.300897157716918
 21
105.294731209800370
  0
LINE
  8
0
  6
DASHDOT
 62
4
 10
-82.800897157717031
 20
107.128444545953130
 11
-82.800897157717031
 21
45.066031029316946
  0
LINE
  8
0
  6
CONTINUOUS
 62
3
 10
-118.250897157715940
 20
50.120905830016454
 11
-85.858153363613269
 21
50.120905830016454
  0
LINE
  8
0
  6
CONTINUOUS
 62
3
 10
-118.250897157715940
 20
98.989295150064777
 11
-47.350897157718236
 21
98.989295150064663
  0
LINE
  8
0
  6
CONTINUOUS
 62
3
 10
-118.250897157715940
 20
95.517822411017960
 11
-47.350897157718236
 21
95.517822411017960
  0
LINE
  8
0
  6
CONTINUOUS
 62
3
 10
-36.350897157718236
 20
87.989295150064663
 11
-36.350897157718236
 21
61.120905830016454
  0
LINE
  8
0
  6
CONTINUOUS
 62
3
 10
-129.250897157715940
 20
87.989295150064891
 11
-129.250897157715940
 21
61.120905830016454
  0
LINE
  8
0
  6
CONTINUOUS
 62
3
 10
-42.750897157717873
 20
58.094731209800329
 11
-42.750897157717873
 21
87.670665909487070
  0
LINE
  8
0
  6
CONTINUOUS
 62
3
 10
-122.850897157716300
 20
58.094731209800329
 11
-122.850897157716300
 21
87.670665909487298
  0
LINE
  8
0
  6
CONTINUOUS
 62
3
 10
-117.850897157716300
 20
92.670665909487184
 11
-47.750897157717873
 21
92.670665909487070
  0
ARC
  8
0
  6
CONTINUOUS
 62
3
 10
-47.750897157717873
 20
87.670665909487070
 40
5.000000000000000
 50
0.000000000000000
 51
90.000000000000000
  0
ARC
  8
0
  6
CONTINUOUS
 62
3
 10
-117.850897157716300
 20
87.670665909487298
 40
4.999999999999886
 50
90.000000000000000
 51
180.000000000000000
  0
ARC
  8
0
  6
CONTINUOUS
 62
3
 10
-47.350897157718236
 20
61.120905830016454
 40
11.000000000000000
 50
270.000000000000000
 51
0.000000000000000
  0
ARC
  8
0
  6
CONTINUOUS
 62
3
 10
-118.250897157715940
 20
61.120905830016454
 40
11.000000000000000
 50
180.000000000000000
 51
270.000000000000000
  0
LINE
  8
0
  6
CONTINUOUS
 62
3
 10
-117.050897157716570
 20
52.294731209800375
 11
-48.550897157717827
 21
52.294731209800375
  0
ARC
  8
0
  6
CONTINUOUS
 62
3
 10
-48.550897157717827
 20
58.094731209800329
 40
5.799999999999955
 50
270.000000000000000
 51
0.000000000000000
  0
ARC
  8
0
  6
CONTINUOUS
 62
3
 10
-117.050897157716570
 20
58.094731209800329
 40
5.799999999999727
 50
180.000000000000000
 51
270.000000000000000
  0
ARC
  8
0
  6
CONTINUOUS
 62
3
 10
-47.350897157718236
 20
84.517822411017960
 40
11.000000000000000
 50
0.000000000000000
 51
90.000000000000000
  0
ARC
  8
0
  6
CONTINUOUS
 62
3
 10
-47.350897157718236
 20
87.989295150064663
 40
11.000000000000000
 50
0.000000000000000
 51
90.000000000000000
  0
ARC
  8
0
  6
CONTINUOUS
 62
3
 10
-118.250897157715940
 20
84.517822411017960
 40
11.000000000000000
 50
90.000000000000000
 51
180.000000000000000
  0
ARC
  8
0
  6
CONTINUOUS
 62
3
 10
-118.250897157715940
 20
87.989295150064891
 40
10.999999999999886
 50
90.000000000000000
 51
180.000000000000000
  0
LINE
  8
0
  6
CONTINUOUS
 62
3
 10
-103.851532252327270
 20
51.494731209800420
 11
-62.150262063106879
 21
51.494731209800420
  0
ARC
  8
0
  6
CONTINUOUS
 62
3
 10
-62.150262063106879
 20
52.494731209800420
 40
1.000000000000000
 50
270.000000000000000
 51
323.130102354140380
  0
ARC
  8
0
  6
CONTINUOUS
 62
3
 10
-60.550262063106970
 20
51.294731209800375
 40
1.000000000000000
 50
90.000000000000000
 51
143.130102354166380
  0
ARC
  8
0
  6
CONTINUOUS
 62
3
 10
-105.451532252327180
 20
51.294731209800375
 40
0.999999999999727
 50
36.869897645849235
 51
90.000000000000000
  0
ARC
  8
0
  6
CONTINUOUS
 62
3
 10
-103.851532252327270
 20
52.494731209800420
 40
1.000000000000227
 50
216.869897645844020
 51
270.000000000000000
  0
LINE
  8
0
  6
CONTINUOUS
 62
3
 10
-116.600897157717210
 20
100.294731209800370
 11
-49.000897157717191
 21
100.294731209800260
  0
ARC
  8
0
  6
CONTINUOUS
 62
3
 10
-49.000897157717191
 20
95.294731209800261
 40
5.000000000000008
 50
44.925956400534659
 51
90.000000000000000
  0
ARC
  8
0
  6
CONTINUOUS
 62
3
 10
-116.600897157717210
 20
95.294731209800375
 40
5.000000000000000
 50
90.000000000000000
 51
135.074043599465310
  0
LINE
  8
0
  6
CONTINUOUS
 62
3
 10
-51.800897157717145
 20
101.294731209800260
 11
-51.800897157717145
 21
100.294731209800260
  0
LINE
  8
0
  6
CONTINUOUS
 62
3
 10
-113.800897157717030
 20
101.294731209800370
 11
-113.800897157717030
 21
100.294731209800370
  0
LINE
  8
0
  6
DASHDOT
 62
4
 10
-105.624528789028880
 20
76.294731209800375
 11
-61.336810750630434
 21
76.294731209800375
  0
CIRCLE
  8
0
  6
DASHED
 62
4
 10
-82.800897157717031
 20
76.294731209800148
 40
13.500000000000000
  0
ARC
  8
0
  6
CONTINUOUS
 62
3
 10
-85.000897920656485
 20
51.098203697546523
 40
1.299999237060699
 50
162.240552086452960
 51
253.398468892505180
  0
ARC
  8
0
  6
CONTINUOUS
 62
3
 10
-82.800897157717031
 20
58.477228620394271
 40
8.999999999999858
 50
253.398468892518050
 51
286.601548410325050
  0
ARC
  8
0
  6
CONTINUOUS
 62
3
 10
-80.600896394777578
 20
51.098203697546523
 40
1.299999237060351
 50
286.601548410324710
 51
17.759447913550098
  0
LINE
  8
0
  6
CONTINUOUS
 62
3
 10
-79.743640951821021
 20
50.120905830016454
 11
-47.350897157718236
 21
50.120905830016454
  0
LINE
  8
0
  6
DASHDOT
 62
4
 10
156.392038682540830
 20
-269.413421591922320
 11
102.460479288558070
 21
-269.413421591922320
  0
LINE
  8
0
  6
DASHDOT
 62
4
 10
156.392038682540830
 20
-28.997115988496262
 11
102.460479288558070
 21
-28.997115988496262
  0
CIRCLE
  8
0
  6
CONTINUOUS
 62
3
 10
387.278523955379110
 20
-149.205268790199630
 40
3.324999999999989
  0
CIRCLE
  8
0
  6
CONTINUOUS
 62
4
 10
387.278523955379110
 20
-149.205268790199630
 40
4.000000000000000
  0
LINE
  8
0
  6
CONTINUOUS
 62
3
 10
364.278523955379110
 20
-143.205268790199630
 11
364.278523955379110
 21
-155.205268790199630
  0
ARC
  8
0
  6
CONTINUOUS
 62
3
 10
387.278523955379110
 20
-149.205268790199630
 40
31.000000000000256
 50
70.008590721901967
 51
180.000000000000000
  0
CIRCLE
  8
0
  6
CONTINUOUS
 62
3
 10
387.278523955379110
 20
-149.205268790199630
 40
31.000000000000057
  0
LINE
  8
0
  6
CONTINUOUS
 62
3
 10
372.278523955379110
 20
-143.205268790199630
 11
372.278523955379110
 21
-155.205268790199630
  0
ARC
  8
0
  6
CONTINUOUS
 62
3
 10
387.278523955379110
 20
-149.205268790199630
 40
20.000000000000014
 50
197.457603123722070
 51
162.542396876277930
  0
ARC
  8
0
  6
CONTINUOUS
 62
3
 10
211.799108893487190
 20
-168.805282454787180
 40
0.399999999999636
 50
270.000000000000000
 51
0.000000000000000
  0
LINE
  8
0
  6
CONTINUOUS
 62
3
 10
212.199108893487280
 20
-149.205282454786810
 11
212.199108893487280
 21
-168.805282454787180
  0
LINE
  8
0
  6
CONTINUOUS
 62
3
 10
155.258923640491390
 20
-169.205282454786810
 11
154.699116019355980
 21
-169.055282454787180
  0
LINE
  8
0
  6
CONTINUOUS
 62
3
 10
211.799108893487190
 20
-169.205282454786810
 11
155.258923640491840
 21
-169.205282454786810
  0
LINE
  8
0
  6
CONTINUOUS
 62
3
 10
152.199108893487280
 20
-149.205282454786810
 11
152.199108893487280
 21
-171.305282454787180
  0
LINE
  8
0
  6
CONTINUOUS
 62
3
 10
151.799108893487190
 20
-171.705282454786810
 11
152.199108893487280
 21
-171.305282454787180
  0
LINE
  8
0
  6
CONTINUOUS
 62
3
 10
154.699116019355980
 20
-169.055282454787180
 11
153.799108893487190
 21
-169.055282454787180
  0
ARC
  8
0
  6
CONTINUOUS
 62
3
 10
153.799108893487190
 20
-170.655282454786630
 40
1.599999999999454
 50
90.000000000000000
 51
180.000000000000000
  0
LINE
  8
0
  6
CONTINUOUS
 62
3
 10
155.258923640491390
 20
-129.205282454786810
 11
154.699116019355980
 21
-129.355282454787360
  0
LINE
  8
0
  6
CONTINUOUS
 62
3
 10
152.199108893487280
 20
-149.205282454786810
 11
152.199108893487280
 21
-127.105282454787350
  0
LINE
  8
0
  6
CONTINUOUS
 62
3
 10
151.799108893487190
 20
-126.705282454786810
 11
152.199108893487280
 21
-127.105282454787350
  0
LINE
  8
0
  6
CONTINUOUS
 62
3
 10
154.699116019355980
 20
-129.355282454787360
 11
153.799108893487190
 21
-129.355282454787360
  0
ARC
  8
0
  6
CONTINUOUS
 62
3
 10
153.799108893487190
 20
-127.755282454786990
 40
1.599999999999909
 50
180.000000000000000
 51
270.000000000000000
  0
LINE
  8
0
  6
CONTINUOUS
 62
3
 10
211.799108893487190
 20
-129.205282454786810
 11
155.258923640491840
 21
-129.205282454786810
  0
ARC
  8
0
  6
CONTINUOUS
 62
3
 10
211.799108893487190
 20
-129.605282454787360
 40
0.400000000000091
 50
0.000000000000000
 51
90.000000000000000
  0
LINE
  8
0
  6
CONTINUOUS
 62
3
 10
151.799108893487190
 20
-126.705282454786810
 11
150.199108893488190
 21
-126.705282454786810
  0
LINE
  8
0
  6
CONTINUOUS
 62
3
 10
151.799108893487190
 20
-171.705282454786810
 11
150.199108893488190
 21
-171.705282454786810
  0
LINE
  8
0
  6
CONTINUOUS
 62
3
 10
212.199108893487280
 20
-149.205282454786810
 11
212.199108893487280
 21
-129.605282454787360
  0
ARC
  8
0
  6
CONTINUOUS
 62
3
 10
96.769687954242613
 20
-68.385610260907242
 40
3.000000000000227
 50
270.000000000000000
 51
320.270935214703170
  0
ARC
  8
0
  6
CONTINUOUS
 62
3
 10
116.699108893488180
 20
-44.405268834852905
 40
2.999999999999973
 50
320.270935214704250
 51
0.000000000000000
  0
LINE
  8
0
  6
CONTINUOUS
 62
3
 10
99.076914227308976
 20
-70.303084361091123
 11
119.006335166554090
 21
-46.322742935036331
  0
ARC
  8
0
  6
CONTINUOUS
 62
3
 10
96.769687954242613
 20
-74.224445025739215
 40
3.000000000000227
 50
270.000000000000000
 51
320.270935214703170
  0
ARC
  8
0
  6
CONTINUOUS
 62
3
 10
116.699108893488180
 20
-50.244103599684877
 40
2.999999999999973
 50
320.270935214704250
 51
0.000000000000000
  0
LINE
  8
0
  6
CONTINUOUS
 62
3
 10
99.076914227308976
 20
-76.141919125923096
 11
119.006335166554090
 21
-52.161577699868303
  0
LINE
  8
0
  6
CONTINUOUS
 62
3
 10
116.395984740418150
 20
-77.224445025739442
 11
101.225223642340660
 21
-77.224445025739442
  0
ARC
  8
0
  6
CONTINUOUS
 62
3
 10
122.699108893487960
 20
-286.205255125612440
 40
2.999999999999773
 50
180.000000000000000
 51
270.000000000000000
  0
LINE
  8
0
  6
CONTINUOUS
 62
3
 10
266.940718175150780
 20
-145.955268790199630
 11
331.628375434157990
 21
-145.955268790199630
  0
LINE
  8
0
  6
CONTINUOUS
 62
3
 10
266.940718175150780
 20
-152.455268790199630
 11
331.628375434157990
 21
-152.455268790199630
  0
LINE
  8
0
  6
CONTINUOUS
 62
3
 10
390.528523955379110
 20
-28.867463009971289
 11
390.528523955379110
 21
-93.555120268978726
  0
LINE
  8
0
  6
CONTINUOUS
 62
3
 10
384.028523955379110
 20
-28.867463009971289
 11
384.028523955379110
 21
-93.555120268978726
  0
LINE
  8
0
  6
CONTINUOUS
 62
3
 10
507.616329735607220
 20
-152.455268790199630
 11
442.928672476600010
 21
-152.455268790199630
  0
LINE
  8
0
  6
CONTINUOUS
 62
3
 10
507.616329735607220
 20
-145.955268790199630
 11
442.928672476600010
 21
-145.955268790199630
  0
LINE
  8
0
  6
CONTINUOUS
 62
3
 10
501.466842171080770
 20
-157.455268790199850
 11
501.466842171080770
 21
-195.250476632347500
  0
LINE
  8
0
  6
CONTINUOUS
 62
3
 10
272.824375092960050
 20
-235.375146405172470
 11
248.742990049445780
 21
-259.456531448690160
  0
LINE
  8
0
  6
CONTINUOUS
 62
3
 10
301.108646340424460
 20
-263.659417652631870
 11
277.027261296927920
 21
-287.740802696132280
  0
LINE
  8
0
  6
DASHDOT
 62
4
 10
280.282861488054490
 20
-256.200931257541010
 11
253.359306646936600
 21
-283.124486098663510
  0
LINE
  8
0
  6
CONTINUOUS
 62
3
 10
257.278523955379110
 20
-289.205268790199630
 11
387.278523955379110
 21
-289.205268790199630
  0
LINE
  8
0
  6
CONTINUOUS
 62
3
 10
247.278523955379110
 20
-279.205268790199630
 11
247.278523955379110
 21
-19.205268790199625
  0
LINE
  8
0
  6
CONTINUOUS
 62
3
 10
387.278523955378890
 20
-294.293077150381120
 11
446.205386586671470
 21
-294.293077150381120
  0
LINE
  8
0
  6
CONTINUOUS
 62
3
 10
473.448401570351510
 20
-263.659417652618690
 11
497.529786613869420
 21
-287.740802696132960
  0
LINE
  8
0
  6
DASHDOT
 62
4
 10
494.979897117032980
 20
-256.906641951836780
 11
521.315220116406180
 21
-283.241964951206000
  0
LINE
  8
0
  6
CONTINUOUS
 62
3
 10
387.278523955379110
 20
-289.205268790199630
 11
517.278523955379110
 21
-289.205268790199630
  0
LINE
  8
0
  6
CONTINUOUS
 62
3
 10
527.278523955379110
 20
-279.205268790199630
 11
527.278523955379110
 21
-19.205268790199625
  0
LINE
  8
0
  6
CONTINUOUS
 62
3
 10
501.732672817811360
 20
-235.375146405154280
 11
525.814057861311310
 21
-259.456531448651050
  0
LINE
  8
0
  6
CONTINUOUS
 62
3
 10
301.108646340406270
 20
-34.751119927781019
 11
277.027261296888580
 21
-10.669734884266745
  0
LINE
  8
0
  6
CONTINUOUS
 62
3
 10
272.824375092946870
 20
-63.035391175245422
 11
248.742990049446460
 21
-38.954006131748429
  0
LINE
  8
0
  6
CONTINUOUS
 62
3
 10
257.278523955379110
 20
-9.205268790199625
 11
517.278523955379110
 21
-9.205268790199625
  0
LINE
  8
0
  6
CONTINUOUS
 62
3
 10
473.448401570333770
 20
-34.751119927767832
 11
497.529786613830310
 21
-10.669734884267200
  0
LINE
  8
0
  6
CONTINUOUS
 62
3
 10
501.732672817797720
 20
-63.035391175227232
 11
525.814057861311990
 21
-38.954006131709320
  0
LINE
  8
0
  6
CONTINUOUS
 62
3
 10
20.199102842282059
 20
-292.205272277515860
 11
122.611341604747280
 21
-295.202703478972580
  0
LINE
  8
0
  6
CONTINUOUS
 62
3
 10
20.199102842282059
 20
-64.205303364451993
 11
106.653677376224660
 21
-61.186243095645295
  0
LINE
  8
0
  6
DASHDOT
 62
4
 10
49.257763306539459
 20
-149.205268790199630
 11
225.660442394022540
 21
-149.205268790199630
  0
LINE
  8
0
  6
CONTINUOUS
 62
3
 10
20.199102842282059
 20
-64.205303364451993
 11
20.199102842282059
 21
-292.205272277515860
  0
LINE
  8
0
  6
CONTINUOUS
 62
3
 10
137.699108893487960
 20
-289.205268790199630
 11
122.699108893487960
 21
-289.205268790199630
  0
LINE
  8
0
  6
CONTINUOUS
 62
3
 10
141.699108893488190
 20
-20.205282454786811
 11
141.699108893488410
 21
-149.205268790199630
  0
LINE
  8
0
  6
CONTINUOUS
 62
3
 10
119.699108893488180
 20
-12.205282454786811
 11
119.699108893488180
 21
-286.205255125612440
  0
LINE
  8
0
  6
CONTINUOUS
 62
3
 10
137.699108893488190
 20
-9.205282454786811
 11
137.699108893491370
 21
-149.205268790199630
  0
LINE
  8
0
  6
CONTINUOUS
 62
3
 10
137.699108893488190
 20
-9.205282454786811
 11
122.699108893487960
 21
-9.205282454786811
  0
LINE
  8
0
  6
CONTINUOUS
 62
3
 10
140.699108893488190
 20
-19.205282454786811
 11
137.699108893488410
 21
-19.205282454786811
  0
LINE
  8
0
  6
CONTINUOUS
 62
3
 10
141.699108893488410
 20
-95.864392525179483
 11
145.356116712397470
 21
-96.056048183789017
  0
LINE
  8
0
  6
CONTINUOUS
 62
3
 10
148.199108843668570
 20
-99.051936788052899
 11
148.199108843668570
 21
-149.205268790199630
  0
LINE
  8
0
  6
CONTINUOUS
 62
3
 10
150.199108893488190
 20
-108.205282454786810
 11
150.199108893488190
 21
-190.205282454786810
  0
LINE
  8
0
  6
CONTINUOUS
 62
3
 10
148.199108843668570
 20
-199.358402419229380
 11
148.199108843668570
 21
-149.205268790199630
  0
LINE
  8
0
  6
CONTINUOUS
 62
3
 10
141.699108893488410
 20
-278.205268790199630
 11
141.699108893488410
 21
-149.205268790199630
  0
LINE
  8
0
  6
CONTINUOUS
 62
3
 10
145.356116712397470
 20
-202.354291023493260
 11
141.699108893488410
 21
-202.545946682102790
  0
LINE
  8
0
  6
CONTINUOUS
 62
3
 10
137.699108893487960
 20
-289.205268790199630
 11
137.699108893487960
 21
-149.205268790199630
  0
LINE
  8
0
  6
CONTINUOUS
 62
3
 10
140.699108893488410
 20
-279.205268790199630
 11
137.699108893487960
 21
-279.205268790199630
  0
LINE
  8
0
  6
CONTINUOUS
 62
3
 10
273.090205739677000
 20
-157.455268790199630
 11
273.090205739677000
 21
-195.250476632347500
  0
LINE
  8
0
  6
CONTINUOUS
 62
3
 10
140.699108893488190
 20
-19.205282454786811
 11
141.699108893488190
 21
-20.205282454786811
  0
LINE
  8
0
  6
CONTINUOUS
 62
3
 10
149.199108868578720
 20
-190.205282454786810
 11
150.199108893488190
 21
-190.205282454786810
  0
LINE
  8
0
  6
CONTINUOUS
 62
3
 10
141.699108893488410
 20
-278.205268790199630
 11
140.699108893488410
 21
-279.205268790199630
  0
LINE
  8
0
  6
CONTINUOUS
 62
3
 10
249.278523955379110
 20
-144.205268790199630
 11
249.510603161023030
 21
-144.205268790199630
  0
LINE
  8
0
  6
CONTINUOUS
 62
3
 10
149.199108868578720
 20
-108.205282454786810
 11
150.199108893488190
 21
-108.205282454786810
  0
LINE
  8
0
  6
CONTINUOUS
 62
3
 10
387.278523955379110
 20
-294.293077150381120
 11
328.351661324086540
 21
-294.293077150381120
  0
LINE
  8
0
  6
CONTINUOUS
 62
3
 10
119.297185104841560
 20
-24.901455787158739
 11
99.008719457186885
 21
-60.042109096512377
  0
LINE
  8
0
  6
CONTINUOUS
 62
3
 10
249.278523955379110
 20
-154.205268790199630
 11
249.510603161023030
 21
-154.205268790199630
  0
LINE
  8
0
  6
CONTINUOUS
 62
3
 10
525.278523955379110
 20
-154.205268790199850
 11
525.046444749734970
 21
-154.205268790199850
  0
LINE
  8
0
  6
CONTINUOUS
 62
3
 10
525.278523955379110
 20
-144.205268790199630
 11
525.046444749734970
 21
-144.205268790199630
  0
ARC
  8
0
  6
CONTINUOUS
 62
3
 10
331.628375434157990
 20
-155.455268790199630
 40
3.000000000000179
 50
6.407967039624588
 51
90.000000000000000
  0
ARC
  8
0
  6
CONTINUOUS
 62
3
 10
278.665900165141470
 20
-140.955268790199630
 40
5.000000000000173
 50
172.942004709554080
 51
270.000000000000000
  0
ARC
  8
0
  6
CONTINUOUS
 62
3
 10
266.940718175150780
 20
-142.955268790199630
 40
3.000000000000144
 50
177.026893139963730
 51
270.000000000000000
  0
ARC
  8
0
  6
CONTINUOUS
 62
3
 10
381.028523955379110
 20
-93.555120268978726
 40
2.999999999999952
 50
276.407967039625080
 51
0.000000000000000
  0
ARC
  8
0
  6
CONTINUOUS
 62
3
 10
266.940718175150780
 20
-155.455268790199630
 40
3.000000000000000
 50
90.000000000000000
 51
182.973106860036270
  0
ARC
  8
0
  6
CONTINUOUS
 62
3
 10
278.090205739677000
 20
-157.455268790199630
 40
5.000000000000000
 50
90.000000000000000
 51
180.000000000000000
  0
ARC
  8
0
  6
CONTINUOUS
 62
3
 10
393.528523955379110
 20
-93.555120268978726
 40
3.000000000000000
 50
180.000000000000000
 51
263.592032960370600
  0
ARC
  8
0
  6
CONTINUOUS
 62
3
 10
278.090205739677230
 20
-195.250476632347500
 40
5.000000000000227
 50
180.000000000000000
 51
202.865372927123560
  0
ARC
  8
0
  6
CONTINUOUS
 62
3
 10
393.528523955379110
 20
-28.867463009971289
 40
2.999999999999690
 50
87.026893139963278
 51
180.000000000000000
  0
ARC
  8
0
  6
CONTINUOUS
 62
3
 10
381.028523955379110
 20
-28.867463009971289
 40
3.000000000000000
 50
0.000000000000000
 51
92.973106860036722
  0
ARC
  8
0
  6
CONTINUOUS
 62
3
 10
442.928672476600010
 20
-142.955268790199630
 40
2.999999999999978
 50
186.407967039629400
 51
270.000000000000000
  0
ARC
  8
0
  6
CONTINUOUS
 62
3
 10
331.628375434157990
 20
-142.955268790199630
 40
3.000000000000000
 50
270.000000000000000
 51
353.592032960371110
  0
ARC
  8
0
  6
CONTINUOUS
 62
3
 10
442.928672476600010
 20
-155.455268790199850
 40
3.000000000000227
 50
90.000000000000000
 51
173.592032960374920
  0
ARC
  8
0
  6
CONTINUOUS
 62
3
 10
507.616329735607220
 20
-155.455268790199630
 40
2.999999999999917
 50
357.026893139963530
 51
90.000000000000000
  0
ARC
  8
0
  6
CONTINUOUS
 62
3
 10
507.616329735607220
 20
-142.955268790199630
 40
3.000000000000000
 50
270.000000000000000
 51
2.973106860036494
  0
ARC
  8
0
  6
CONTINUOUS
 62
3
 10
379.028523955379110
 20
-72.076809919550215
 40
5.000000000000000
 50
0.000000000000000
 51
90.960411656889562
  0
ARC
  8
0
  6
CONTINUOUS
 62
3
 10
496.466842171080770
 20
-157.455268790199850
 40
5.000000000000000
 50
0.000000000000000
 51
90.000000000000000
  0
ARC
  8
0
  6
CONTINUOUS
 62
3
 10
349.002445232743410
 20
-223.977869371018190
 40
50.500000000000078
 50
111.298869871463080
 51
165.196482760921950
  0
ARC
  8
0
  6
CONTINUOUS
 62
3
 10
436.046651714953900
 20
-189.088491284927390
 40
10.000000000000023
 50
140.723243944674460
 51
242.705659254349090
  0
ARC
  8
0
  6
CONTINUOUS
 62
3
 10
415.869933342440160
 20
-228.189642619846840
 40
40.499999999999986
 50
357.185211996778430
 51
61.540294027493751
  0
ARC
  8
0
  6
CONTINUOUS
 62
3
 10
458.931490525270870
 20
-237.228574691159790
 40
10.000000000000044
 50
168.145311946518550
 51
309.146370585137730
  0
ARC
  8
0
  6
CONTINUOUS
 62
3
 10
466.309004889433710
 20
-230.669574368361280
 40
10.000000000000245
 50
177.185211996777720
 51
314.131204225173580
  0
CIRCLE
  8
0
  6
CONTINUOUS
 62
3
 10
387.278523955379110
 20
-149.205268790199630
 40
53.000013664587186
  0
ARC
  8
0
  6
CONTINUOUS
 62
3
 10
257.278523955379110
 20
-279.205268790199630
 40
10.000000000000000
 50
180.000000000000000
 51
270.000000000000000
  0
CIRCLE
  8
0
  6
CONTINUOUS
 62
3
 10
267.070371153675750
 20
-269.413421591922540
 40
9.500000000000000
  0
ARC
  8
0
  6
CONTINUOUS
 62
3
 10
265.753307281093840
 20
-228.304078593307170
 40
10.000000000000401
 50
315.000000000003640
 51
33.059456039395712
  0
ARC
  8
0
  6
CONTINUOUS
 62
3
 10
415.869933342440160
 20
-228.189642619846840
 40
34.000000000000107
 50
348.145311946518920
 51
62.705659254348859
  0
ARC
  8
0
  6
CONTINUOUS
 62
3
 10
308.179714152290220
 20
-270.730485464497180
 40
10.000000000000053
 50
56.940543960613702
 51
135.000000000001820
  0
ARC
  8
0
  6
CONTINUOUS
 62
3
 10
454.278523955379110
 20
-284.205268790199630
 40
12.920504033735240
 50
301.640102641906310
 51
337.233171499442110
  0
ARC
  8
0
  6
CONTINUOUS
 62
3
 10
454.278523955379110
 20
-284.205268790199630
 40
12.920504033735355
 50
231.330182039103220
 51
238.359897358093660
  0
CIRCLE
  8
0
  6
CONTINUOUS
 62
3
 10
387.278523955379110
 20
-149.205268790199630
 40
130.000000000000000
  0
CIRCLE
  8
0
  6
CONTINUOUS
 62
3
 10
387.278523955379110
 20
-149.205268790199630
 40
123.500000000000000
  0
ARC
  8
0
  6
CONTINUOUS
 62
3
 10
387.278523955379110
 20
-149.205268790199630
 40
135.000000000000000
 50
236.940543960613270
 51
303.059456039395570
  0
ARC
  8
0
  6
CONTINUOUS
 62
3
 10
466.377333758486200
 20
-270.730485464484900
 40
10.000000000000401
 50
45.000000000003688
 51
123.059456039393490
  0
ARC
  8
0
  6
CONTINUOUS
 62
3
 10
517.278523955379110
 20
-279.205268790199630
 40
10.000000000000000
 50
270.000000000000000
 51
0.000000000000000
  0
CIRCLE
  8
0
  6
CONTINUOUS
 62
3
 10
507.486676757102030
 20
-269.413421591903440
 40
9.500000000000000
  0
ARC
  8
0
  6
CONTINUOUS
 62
3
 10
329.244724438767430
 20
-173.722198357417260
 40
9.999999999999874
 50
291.461978362654920
 51
22.902088473504499
  0
ARC
  8
0
  6
CONTINUOUS
 62
3
 10
439.935233761655810
 20
-183.792443206675670
 40
9.999999999999941
 50
146.701382572444940
 51
241.540294027493160
  0
ARC
  8
0
  6
DASHDOT
 62
4
 10
387.278523955378660
 20
-149.205268790200080
 40
169.999999999999940
 50
309.007361181828170
 51
321.033378511745300
  0
ARC
  8
0
  6
CONTINUOUS
 62
3
 10
508.803740629676210
 20
-228.304078593288520
 40
10.000000000000053
 50
146.940543960613670
 51
225.000000000003690
  0
ARC
  8
0
  6
CONTINUOUS
 62
3
 10
496.466842171080770
 20
-195.250476632347500
 40
5.000000000000118
 50
337.134627072876410
 51
0.000000000000000
  0
ARC
  8
0
  6
CONTINUOUS
 62
3
 10
387.278523955379110
 20
-149.205268790199630
 40
134.999999999999740
 50
146.940543960613410
 51
176.676642326013510
  0
ARC
  8
0
  6
CONTINUOUS
 62
3
 10
495.891147745616760
 20
-140.955268790199850
 40
5.000000000000000
 50
270.000000000000000
 51
7.057995290449153
  0
ARC
  8
0
  6
CONTINUOUS
 62
3
 10
257.278523955379110
 20
-19.205268790199625
 40
10.000000000000000
 50
90.000000000000000
 51
180.000000000000000
  0
CIRCLE
  8
0
  6
CONTINUOUS
 62
3
 10
267.070371153656650
 20
-28.997115988496262
 40
9.500000000000000
  0
ARC
  8
0
  6
CONTINUOUS
 62
3
 10
308.179714152271570
 20
-27.680052115914805
 40
10.000000000000401
 50
225.000000000003690
 51
303.059456039395680
  0
ARC
  8
0
  6
CONTINUOUS
 62
3
 10
295.581312836634420
 20
-216.092274053138000
 40
10.000000000000107
 50
216.108259096316600
 51
351.603097720444510
  0
ARC
  8
0
  6
CONTINUOUS
 62
3
 10
265.753307281081560
 20
-70.106458987111182
 40
10.000000000000053
 50
326.940543960613700
 51
45.000000000001855
  0
ARC
  8
0
  6
DASHDOT
 62
4
 10
387.278523955379110
 20
-149.205268790199630
 40
169.999999999999940
 50
129.214025099883170
 51
141.005710044390380
  0
ARC
  8
0
  6
CONTINUOUS
 62
3
 10
419.278523955378890
 20
-150.440843059809140
 40
82.197605165243033
 50
7.057995290447003
 51
85.577622414021747
  0
ARC
  8
0
  6
CONTINUOUS
 62
3
 10
387.278523955379110
 20
-149.205268790199630
 40
135.000000000000000
 50
56.940543960613276
 51
123.059456039395760
  0
ARC
  8
0
  6
CONTINUOUS
 62
3
 10
395.528523955379110
 20
-72.076809919550215
 40
4.999999999999934
 50
89.039588343113039
 51
180.000000000000000
  0
ARC
  8
0
  6
CONTINUOUS
 62
3
 10
387.278523955378890
 20
-564.205268790199630
 40
497.197605165242980
 50
85.577622414021931
 51
89.039588343112683
  0
ARC
  8
0
  6
CONTINUOUS
 62
3
 10
517.278523955379110
 20
-19.205268790199625
 40
10.000000000000000
 50
0.000000000000000
 51
90.000000000000000
  0
CIRCLE
  8
0
  6
CONTINUOUS
 62
3
 10
507.486676757082930
 20
-28.997115988477162
 40
9.500000000000000
  0
ARC
  8
0
  6
CONTINUOUS
 62
3
 10
466.377333758467560
 20
-27.680052115902527
 40
10.000000000000053
 50
236.940543960613670
 51
315.000000000003640
  0
ARC
  8
0
  6
CONTINUOUS
 62
3
 10
508.803740629663930
 20
-70.106458987092083
 40
10.000000000000082
 50
135.000000000005510
 51
213.059456039395710
  0
ARC
  8
0
  6
CONTINUOUS
 62
3
 10
387.278523955379110
 20
-149.205268790199630
 40
135.000000000000260
 50
326.940543960613130
 51
356.676642326013450
  0
ARC
  8
0
  6
CONTINUOUS
 62
3
 10
387.278523955379110
 20
-149.205268790199630
 40
31.000000000000000
 50
180.000000000000000
 51
0.000000000000000
  0
ARC
  8
0
  6
CONTINUOUS
 62
3
 10
387.278523955379110
 20
-149.205268790199630
 40
31.000000000000000
 50
0.000000000000000
 51
180.000000000000000
  0
ARC
  8
0
  6
CONTINUOUS
 62
3
 10
327.026857608559340
 20
-167.610116634441740
 40
10.000000000000039
 50
291.298869871463920
 51
16.986140903216128
  0
ARC
  8
0
  6
CONTINUOUS
 62
3
 10
122.699108893487960
 20
-12.205282454786811
 40
3.000000000000000
 50
90.000000000000000
 51
180.000000000000000
  0
ARC
  8
0
  6
CONTINUOUS
 62
3
 10
387.278523955379110
 20
-564.205268790199630
 40
497.197605165242980
 50
90.960411656887317
 51
94.422377585978097
  0
ARC
  8
0
  6
CONTINUOUS
 62
3
 10
355.278523955379110
 20
-150.440843059809140
 40
82.197605165243203
 50
94.422377585978424
 51
172.942004709553000
  0
ARC
  8
0
  6
CONTINUOUS
 62
3
 10
501.065320519763190
 20
-14.205268790199625
 40
5.000000000000000
 50
90.000000000000000
 51
135.000000000003670
  0
ARC
  8
0
  6
CONTINUOUS
 62
3
 10
149.199108868578720
 20
-107.205282429877570
 40
1.000000024909241
 50
180.000000000000000
 51
270.000000000000000
  0
ARC
  8
0
  6
CONTINUOUS
 62
3
 10
149.199108868578720
 20
-191.205282479696050
 40
1.000000024909241
 50
90.000000000000000
 51
180.000000000000000
  0
ARC
  8
0
  6
CONTINUOUS
 62
3
 10
145.199108843668570
 20
-199.358402419229380
 40
3.000000000000164
 50
273.000000000001080
 51
0.000000000000000
  0
ARC
  8
0
  6
CONTINUOUS
 62
3
 10
349.002445232743410
 20
-223.977869371018190
 40
44.000000000000121
 50
111.461978362654540
 51
171.603097720444280
  0
ARC
  8
0
  6
CONTINUOUS
 62
3
 10
122.699108893487960
 20
-292.203987603297260
 40
3.000000000000011
 50
268.323529052110760
 51
0.000000000000000
  0
ARC
  8
0
  6
CONTINUOUS
 62
3
 10
128.699108893487960
 20
-292.205268790199630
 40
3.000000000000000
 50
90.000000000000000
 51
180.000000000000000
  0
ARC
  8
0
  6
CONTINUOUS
 62
3
 10
145.199108843668570
 20
-99.051936788052899
 40
3.000000000000000
 50
0.000000000000000
 51
86.999999999998920
  0
ARC
  8
0
  6
CONTINUOUS
 62
3
 10
522.278523955379110
 20
-35.418472225776895
 40
4.999999999999879
 50
315.000000000003640
 51
0.000000000000000
  0
ARC
  8
0
  6
CONTINUOUS
 62
3
 10
116.699108893488180
 20
-23.401455787158739
 40
3.000000000000049
 50
330.000000000000570
 51
0.000000000000000
  0
ARC
  8
0
  6
CONTINUOUS
 62
3
 10
387.278523955379110
 20
-149.205268790199630
 40
41.000000000000000
 50
0.000000000000000
 51
180.000000000000000
  0
ARC
  8
0
  6
CONTINUOUS
 62
3
 10
273.491727390955930
 20
-14.205268790199625
 40
4.999999999999879
 50
45.000000000003688
 51
90.000000000000000
  0
ARC
  8
0
  6
CONTINUOUS
 62
3
 10
387.278523955379110
 20
-149.205268790199630
 40
41.000000000000000
 50
180.000000000000000
 51
0.000000000000000
  0
ARC
  8
0
  6
CONTINUOUS
 62
3
 10
290.510579042054810
 20
-208.519810323046610
 40
10.000000000000037
 50
211.506485838553940
 51
345.196482760921980
  0
ARC
  8
0
  6
CONTINUOUS
 62
3
 10
320.278523955378890
 20
-284.205268790199630
 40
12.920504033735121
 50
301.640102641905460
 51
308.669817960896750
  0
ARC
  8
0
  6
CONTINUOUS
 62
3
 10
320.278523955378890
 20
-284.205268790199630
 40
12.920504033734950
 50
202.766828500557860
 51
238.359897358094540
  0
ARC
  8
0
  6
CONTINUOUS
 62
3
 10
249.278523955379110
 20
-146.205268790199630
 40
2.000000000000000
 50
90.000000000000000
 51
180.000000000000000
  0
ARC
  8
0
  6
CONTINUOUS
 62
3
 10
96.410643245833512
 20
-58.542109096512377
 40
2.999999999999993
 50
271.999999999999320
 51
330.000000000000570
  0
ARC
  8
0
  6
CONTINUOUS
 62
3
 10
252.278523955379110
 20
-35.418472225815549
 40
5.000000000000000
 50
180.000000000000000
 51
225.000000000003690
  0
ARC
  8
0
  6
CONTINUOUS
 62
3
 10
249.510603161023030
 20
-141.205268790199630
 40
3.000000000000000
 50
270.000000000000000
 51
356.676642326013850
  0
ARC
  8
0
  6
CONTINUOUS
 62
3
 10
249.510603161023030
 20
-157.205268790199850
 40
3.000000000000096
 50
3.323357673986185
 51
90.000000000000000
  0
ARC
  8
0
  6
CONTINUOUS
 62
3
 10
249.278523955379110
 20
-152.205268790199630
 40
2.000000000000000
 50
180.000000000000000
 51
270.000000000000000
  0
ARC
  8
0
  6
CONTINUOUS
 62
3
 10
525.046444749734970
 20
-157.205268790199850
 40
3.000000000000000
 50
90.000000000000000
 51
176.676642326013820
  0
ARC
  8
0
  6
CONTINUOUS
 62
3
 10
252.278523955379110
 20
-262.992065354622810
 40
5.000000000000041
 50
135.000000000005510
 51
180.000000000000000
  0
ARC
  8
0
  6
CONTINUOUS
 62
3
 10
273.491727390994810
 20
-284.205268790199630
 40
5.000000000000000
 50
270.000000000000000
 51
315.000000000003640
  0
ARC
  8
0
  6
CONTINUOUS
 62
3
 10
501.065320519801840
 20
-284.205268790199630
 40
5.000000000000041
 50
225.000000000005540
 51
270.000000000000000
  0
ARC
  8
0
  6
CONTINUOUS
 62
3
 10
522.278523955379110
 20
-262.992065354583930
 40
5.000000000000000
 50
0.000000000000000
 51
45.000000000003688
  0
ARC
  8
0
  6
CONTINUOUS
 62
3
 10
522.278523955379110
 20
-35.418472225776895
 40
4.999999999999879
 50
315.000000000003640
 51
0.000000000000000
  0
ARC
  8
0
  6
CONTINUOUS
 62
3
 10
501.065320519763190
 20
-14.205268790199625
 40
5.000000000000000
 50
90.000000000000000
 51
135.000000000003670
  0
ARC
  8
0
  6
CONTINUOUS
 62
3
 10
525.278523955379110
 20
-152.205268790199850
 40
2.000000000000000
 50
270.000000000000000
 51
0.000000000000000
  0
ARC
  8
0
  6
CONTINUOUS
 62
3
 10
525.046444749734970
 20
-141.205268790199630
 40
3.000000000000096
 50
183.323357673986180
 51
270.000000000000000
  0
ARC
  8
0
  6
CONTINUOUS
 62
3
 10
525.278523955379110
 20
-146.205268790199630
 40
2.000000000000000
 50
0.000000000000000
 51
90.000000000000000
  0
ARC
  8
0
  6
CONTINUOUS
 62
3
 10
387.278523955379110
 20
-149.205268790199630
 40
135.000000000000030
 50
3.323357673986484
 51
33.059456039395677
  0
ARC
  8
0
  6
CONTINUOUS
 62
3
 10
387.278523955379110
 20
-149.205268790199630
 40
134.999999999999830
 50
183.323357673986610
 51
213.059456039395680
  0
LINE
  8
0
  6
CONTINUOUS
 62
3
 10
2.389541363552212
 20
-121.961568207457270
 11
-11.800897157717031
 21
-122.705257577409610
  0
ARC
  8
0
  6
CONTINUOUS
 62
3
 10
3.699102842282059
 20
-116.886075268532750
 40
5.000000000000056
 50
293.447344693371690
 51
0.000000000000000
  0
LINE
  8
0
  6
CONTINUOUS
 62
3
 10
-7.800897157721579
 20
-87.205256780308446
 11
-7.800897157717941
 21
-29.205256780308446
  0
LINE
  8
0
  6
CONTINUOUS
 62
3
 10
-3.300897157717941
 20
-29.205256780308446
 11
-3.300897157717941
 21
-87.205256780308446
  0
LINE
  8
0
  6
CONTINUOUS
 62
3
 10
-7.800897157717941
 20
-29.205256780308446
 11
-3.300897157717941
 21
-29.205256780308446
  0
LINE
  8
0
  6
DASHDOT
 62
4
 10
-13.531144558534493
 20
-49.205256780308446
 11
4.568121456757012
 21
-49.205256780308446
  0
LINE
  8
0
  6
CONTINUOUS
 62
3
 10
-7.800897157721579
 20
-87.205256780308446
 11
-3.300897157721579
 21
-87.205256780308446
  0
ARC
  8
0
  6
CONTINUOUS
 62
3
 10
-0.300897157717941
 20
-84.205256780308900
 40
3.000000000000000
 50
180.000000000000000
 51
240.000000000002730
  0
ARC
  8
0
  6
CONTINUOUS
 62
3
 10
-3.300897157717941
 20
-89.401409203015646
 40
3.000000000000000
 50
0.000000000000000
 51
59.999999999998380
  0
LINE
  8
0
  6
CONTINUOUS
 62
3
 10
-0.300897157717941
 20
-89.401409203015646
 11
-0.300897157717941
 21
-119.255674415509930
  0
ARC
  8
0
  6
CONTINUOUS
 62
3
 10
-0.300897157717941
 20
-67.205268790199625
 40
3.000000000000000
 50
90.000000000000000
 51
180.000000000000000
  0
LINE
  8
0
  6
CONTINUOUS
 62
3
 10
-3.300897157717941
 20
-67.205268790199625
 11
-3.300897157717941
 21
-84.205256780308900
  0
LINE
  8
0
  6
CONTINUOUS
 62
3
 10
20.199102842282059
 20
-64.205268790199625
 11
-0.300897157717941
 21
-64.205268790199625
  0
LINE
  8
0
  6
CONTINUOUS
 62
3
 10
8.699102842282059
 20
-201.190333722680860
 11
-11.800897157717031
 21
-201.190333722680860
  0
LINE
  8
0
  6
CONTINUOUS
 62
3
 10
-11.800897157717031
 20
-161.220203857718390
 11
0.699103795956376
 21
-161.220203857718390
  0
LINE
  8
0
  6
CONTINUOUS
 62
3
 10
-11.800897157717031
 20
-181.205268790199630
 11
-11.800897157717031
 21
-239.757665356692540
  0
LINE
  8
0
  6
CONTINUOUS
 62
3
 10
-11.800897157717031
 20
-181.205268790199630
 11
-11.800897157717031
 21
-122.705257577409150
  0
ARC
  8
0
  6
CONTINUOUS
 62
3
 10
3.699102842282059
 20
-245.576847665569400
 40
5.000000000000000
 50
0.000000000000000
 51
87.000000000004846
  0
LINE
  8
0
  6
CONTINUOUS
 62
3
 10
3.960782623496357
 20
-240.583699991796490
 11
-11.800897157717031
 21
-239.757665356692540
  0
ARC
  8
0
  6
CONTINUOUS
 62
3
 10
-3.300897157717941
 20
-119.255674415509930
 40
2.999999999999949
 50
273.000000000005680
 51
0.000000000000000
  0
LINE
  8
0
  6
CONTINUOUS
 62
3
 10
8.699102842282059
 20
-148.937307587877510
 11
8.699102842282059
 21
-181.205268790199630
  0
LINE
  8
0
  6
CONTINUOUS
 62
3
 10
8.699102842282059
 20
-67.205268790199625
 11
8.699102842282059
 21
-119.473205972739370
  0
ARC
  8
0
  6
CONTINUOUS
 62
3
 10
3.699102842282059
 20
-123.473205972739370
 40
2.000000000000000
 50
90.000000000000000
 51
180.000000000000000
  0
LINE
  8
0
  6
CONTINUOUS
 62
3
 10
6.699102842282059
 20
-121.473205972739370
 11
3.699102842282059
 21
-121.473205972739370
  0
LINE
  8
0
  6
CONTINUOUS
 62
3
 10
1.699102842282059
 20
-123.473205972739370
 11
1.699102842282059
 21
-144.937307587877510
  0
ARC
  8
0
  6
CONTINUOUS
 62
3
 10
3.699102842282059
 20
-144.937307587877510
 40
2.000000000000000
 50
180.000000000000000
 51
270.000000000000000
  0
LINE
  8
0
  6
CONTINUOUS
 62
3
 10
6.699102842282059
 20
-146.937307587877510
 11
3.699102842282059
 21
-146.937307587877510
  0
ARC
  8
0
  6
CONTINUOUS
 62
3
 10
6.699102842282059
 20
-148.937307587877510
 40
2.000000000000000
 50
0.000000000000000
 51
90.000000000000000
  0
ARC
  8
0
  6
CONTINUOUS
 62
3
 10
6.699102842282059
 20
-119.473205972739370
 40
2.000000000000000
 50
270.000000000000000
 51
0.000000000000000
  0
ARC
  8
0
  6
CONTINUOUS
 62
3
 10
11.699102842282059
 20
-67.205268790199625
 40
3.000000000000000
 50
90.000000000000000
 51
180.000000000000000
  0
ARC
  8
0
  6
CONTINUOUS
 62
3
 10
11.699102842282059
 20
-289.205271480414920
 40
3.000000000000000
 50
180.000000000000000
 51
270.000000000000000
  0
LINE
  8
0
  6
CONTINUOUS
 62
3
 10
8.699102842282059
 20
-288.205271480414920
 11
8.699102842282059
 21
-181.205268790199630
  0
LINE
  8
0
  6
DASHDOT
 62
4
 10
15.338530839485770
 20
-181.205268790199630
 11
-17.498634450009547
 21
-181.205268790199630
  0
LINE
  8
0
  6
CONTINUOUS
 62
3
 10
19.699102842282059
 20
-64.205289699864807
 11
19.699102842282059
 21
-181.205268790199630
  0
LINE
  8
0
  6
CONTINUOUS
 62
3
 10
20.199102842282059
 20
-292.205271480414920
 11
11.699102842282059
 21
-292.205271480414920
  0
LINE
  8
0
  6
CONTINUOUS
 62
3
 10
19.699102842282059
 20
-292.205271480414920
 11
19.699102842282059
 21
-181.205268790199630
  0
INSERT
  8
0
  2
SYM1
 10
-7.800897157720669
 20
-77.205256780308446
  0
INSERT
  8
0
  2
SYM1
 10
8.699102842282059
 20
-84.697816288970898
  0
INSERT
  8
0
  2
SYM1
 10
8.699102842282059
 20
-284.205256780308450
  0
INSERT
  8
0
  2
SYM1
 10
8.699102842282059
 20
-226.205256780308450
  0
INSERT
  8
0
  2
SYM1
 10
8.699102842282059
 20
-160.205256780308450
  0
LINE
  8
0
  6
DASHDOT
 62
4
 10
494.733031758136120
 20
-41.750760987459167
 11
521.315220116406180
 21
-15.168572629193250
  0
LINE
  8
0
  6
DASHDOT
 62
4
 10
280.007721617706580
 20
-41.934466452543582
 11
253.241827794352050
 21
-15.168572629193250
  0
LINE
  8
0
  6
CONTINUOUS
 62
3
 10
-11.800897157717088
 20
-181.205268790199630
 11
-11.800897157717088
 21
-122.705257577409150
  0
LINE
  8
0
  6
CONTINUOUS
 62
3
 10
-11.800897157717088
 20
-181.205268790199630
 11
-11.800897157717088
 21
-239.705257577410070
  0
LINE
  8
0
  6
CONTINUOUS
 62
3
 10
-47.350897157718293
 20
-138.608661149593670
 11
-82.800897157717088
 21
-138.608661149593670
  0
ARC
  8
0
  6
CONTINUOUS
 62
3
 10
-47.350897157718293
 20
-149.608661149593670
 40
11.000000000000000
 50
0.000000000000000
 51
90.000000000000000
  0
ARC
  8
0
  6
CONTINUOUS
 62
4
 10
-47.750897157717930
 20
-156.205268790199400
 40
5.000000000000000
 50
0.000000000000000
 51
90.000000000000000
  0
LINE
  8
0
  6
CONTINUOUS
 62
4
 10
-82.800897157717088
 20
-151.205268790199400
 11
-47.750897157717930
 21
-151.205268790199400
  0
ARC
  8
0
  6
CONTINUOUS
 62
3
 10
-47.750897157717930
 20
-149.703479353092230
 40
5.000000000000000
 50
0.000000000000000
 51
90.000000000000000
  0
LINE
  8
0
  6
CONTINUOUS
 62
3
 10
-82.800897157717088
 20
-144.703479353092230
 11
-47.750897157717930
 21
-144.703479353092230
  0
LINE
  8
0
  6
CONTINUOUS
 62
3
 10
-36.350897157718293
 20
-149.608661149593670
 11
-36.350897157718293
 21
-231.211380517849420
  0
LINE
  8
0
  6
CONTINUOUS
 62
3
 10
-42.750897157717930
 20
-149.703479353092230
 11
-42.750897157717930
 21
-225.781223559752330
  0
ARC
  8
0
  6
CONTINUOUS
 62
3
 10
-47.750897157717930
 20
-225.781223559752330
 40
5.000000000000000
 50
270.000000000000000
 51
0.000000000000000
  0
LINE
  8
0
  6
CONTINUOUS
 62
3
 10
-47.350897157718293
 20
-240.991170588622250
 11
-82.800897157717088
 21
-240.991170588622250
  0
LINE
  8
0
  6
CONTINUOUS
 62
3
 10
-47.350897157718293
 20
-242.211380517849420
 11
-82.800897157717088
 21
-242.211380517849420
  0
ARC
  8
0
  6
CONTINUOUS
 62
3
 10
-47.350897157718293
 20
-231.211380517849420
 40
11.000000000000000
 50
270.000000000000000
 51
0.000000000000000
  0
ARC
  8
0
  6
CONTINUOUS
 62
3
 10
-47.350897157718293
 20
-229.991170588622250
 40
11.000000000000000
 50
270.000000000000000
 51
0.000000000000000
  0
ARC
  8
0
  6
CONTINUOUS
 62
3
 10
-73.540678977103823
 20
-226.781223572602580
 40
4.000000000000156
 50
221.178434371117250
 51
270.000000000000000
  0
POLYLINE
  8
0
  6
CONTINUOUS
 62
3
 66
1
  0
VERTEX
  8
0
  6
CONTINUOUS
 62
3
 10
-76.551330099216045
 20
-229.414848416980560
  0
VERTEX
  8
0
  6
CONTINUOUS
 62
3
 10
-77.542299234302419
 20
-228.469720150460150
  0
VERTEX
  8
0
  6
CONTINUOUS
 62
3
 10
-78.701901613874099
 20
-227.701211347674470
  0
VERTEX
  8
0
  6
CONTINUOUS
 62
3
 10
-79.992950992770673
 20
-227.133966625823150
  0
VERTEX
  8
0
  6
CONTINUOUS
 62
3
 10
-81.374045870302268
 20
-226.786176445416030
  0
VERTEX
  8
0
  6
CONTINUOUS
 62
3
 10
-82.800897157717088
 20
-226.668993776765030
  0
SEQEND
  8
0
  6
CONTINUOUS
 62
3
  0
ARC
  8
0
  6
CONTINUOUS
 62
3
 10
-74.313422941996976
 20
-226.781223565976010
 40
3.999999999999828
 50
226.698420851470790
 51
270.000000000000000
  0
POLYLINE
  8
0
  6
CONTINUOUS
 62
3
 66
1
  0
VERTEX
  8
0
  6
CONTINUOUS
 62
3
 10
-77.056776586237618
 20
-229.692238987204580
  0
VERTEX
  8
0
  6
CONTINUOUS
 62
3
 10
-78.018477186812177
 20
-228.920359825277960
  0
VERTEX
  8
0
  6
CONTINUOUS
 62
3
 10
-79.102635354704091
 20
-228.298497256672390
  0
VERTEX
  8
0
  6
CONTINUOUS
 62
3
 10
-80.281490380348970
 20
-227.842574554086670
  0
VERTEX
  8
0
  6
CONTINUOUS
 62
3
 10
-81.524856767797374
 20
-227.564265971430590
  0
VERTEX
  8
0
  6
CONTINUOUS
 62
3
 10
-82.800897157717088
 20
-227.470697815511760
  0
SEQEND
  8
0
  6
CONTINUOUS
 62
3
  0
LINE
  8
0
  6
CONTINUOUS
 62
3
 10
-74.313422940323733
 20
-230.781223559752330
 11
-47.750897157717930
 21
-230.781223559752330
  0
POLYLINE
  8
0
  6
CONTINUOUS
 62
3
 66
1
 70
1
  0
VERTEX
  8
0
  6
CONTINUOUS
 62
3
 10
-79.300897157717088
 20
-234.523763324217950
  0
VERTEX
  8
0
  6
CONTINUOUS
 62
3
 10
-79.368148676305779
 20
-233.850173554171820
  0
VERTEX
  8
0
  6
CONTINUOUS
 62
3
 10
-79.567318793927583
 20
-233.202469461235070
  0
VERTEX
  8
0
  6
CONTINUOUS
 62
3
 10
-79.890753514658186
 20
-232.605541950462590
  0
VERTEX
  8
0
  6
CONTINUOUS
 62
3
 10
-80.326023423564166
 20
-232.082330611332620
  0
VERTEX
  8
0
  6
CONTINUOUS
 62
3
 10
-80.856401342148487
 20
-231.652942162187570
  0
VERTEX
  8
0
  6
CONTINUOUS
 62
3
 10
-81.461505144439272
 20
-231.333877760324300
  0
VERTEX
  8
0
  6
CONTINUOUS
 62
3
 10
-82.118081030660633
 20
-231.137398871773030
  0
VERTEX
  8
0
  6
CONTINUOUS
 62
3
 10
-82.800897157717088
 20
-231.071056070034160
  0
VERTEX
  8
0
  6
CONTINUOUS
 62
3
 10
-83.483713284773543
 20
-231.137398871773030
  0
VERTEX
  8
0
  6
CONTINUOUS
 62
3
 10
-84.140289170994905
 20
-231.333877760324300
  0
VERTEX
  8
0
  6
CONTINUOUS
 62
3
 10
-84.745392973285689
 20
-231.652942162187570
  0
VERTEX
  8
0
  6
CONTINUOUS
 62
3
 10
-85.275770891870010
 20
-232.082330611332620
  0
VERTEX
  8
0
  6
CONTINUOUS
 62
3
 10
-85.711040800775990
 20
-232.605541950462590
  0
VERTEX
  8
0
  6
CONTINUOUS
 62
3
 10
-86.034475521506593
 20
-233.202469461235070
  0
VERTEX
  8
0
  6
CONTINUOUS
 62
3
 10
-86.233645639128397
 20
-233.850173554171820
  0
VERTEX
  8
0
  6
CONTINUOUS
 62
3
 10
-86.300897157717088
 20
-234.523763324217950
  0
VERTEX
  8
0
  6
CONTINUOUS
 62
3
 10
-86.233645639128397
 20
-235.197353094264090
  0
VERTEX
  8
0
  6
CONTINUOUS
 62
3
 10
-86.034475521506593
 20
-235.845057187200840
  0
VERTEX
  8
0
  6
CONTINUOUS
 62
3
 10
-85.711040800775990
 20
-236.441984697973310
  0
VERTEX
  8
0
  6
CONTINUOUS
 62
3
 10
-85.275770891869996
 20
-236.965196037103280
  0
VERTEX
  8
0
  6
CONTINUOUS
 62
3
 10
-84.745392973285689
 20
-237.394584486248330
  0
VERTEX
  8
0
  6
CONTINUOUS
 62
3
 10
-84.140289170994905
 20
-237.713648888111610
  0
VERTEX
  8
0
  6
CONTINUOUS
 62
3
 10
-83.483713284773543
 20
-237.910127776662880
  0
VERTEX
  8
0
  6
CONTINUOUS
 62
3
 10
-82.800897157717088
 20
-237.976470578401750
  0
VERTEX
  8
0
  6
CONTINUOUS
 62
3
 10
-82.118081030660647
 20
-237.910127776662880
  0
VERTEX
  8
0
  6
CONTINUOUS
 62
3
 10
-81.461505144439272
 20
-237.713648888111610
  0
VERTEX
  8
0
  6
CONTINUOUS
 62
3
 10
-80.856401342148487
 20
-237.394584486248330
  0
VERTEX
  8
0
  6
CONTINUOUS
 62
3
 10
-80.326023423564180
 20
-236.965196037103280
  0
VERTEX
  8
0
  6
CONTINUOUS
 62
3
 10
-79.890753514658186
 20
-236.441984697973310
  0
VERTEX
  8
0
  6
CONTINUOUS
 62
3
 10
-79.567318793927583
 20
-235.845057187200840
  0
VERTEX
  8
0
  6
CONTINUOUS
 62
3
 10
-79.368148676305793
 20
-235.197353094264090
  0
SEQEND
  8
0
  6
CONTINUOUS
 62
3
  0
LINE
  8
0
  6
CONTINUOUS
 62
3
 10
-84.800897157717088
 20
-235.640167194427480
 11
-80.800897157717088
 21
-231.985985363857030
  0
LINE
  8
0
  6
CONTINUOUS
 62
3
 10
-80.800897157717088
 20
-235.640167194427480
 11
-84.800897157717088
 21
-231.985985363857030
  0
POLYLINE
  8
0
  6
CONTINUOUS
 62
3
 66
1
  0
VERTEX
  8
0
  6
CONTINUOUS
 62
3
 10
-82.800897157717088
 20
-227.470697815511760
  0
VERTEX
  8
0
  6
CONTINUOUS
 62
3
 10
-84.076937547636803
 20
-227.564265971430590
  0
VERTEX
  8
0
  6
CONTINUOUS
 62
3
 10
-85.320303935085207
 20
-227.842574554086670
  0
VERTEX
  8
0
  6
CONTINUOUS
 62
3
 10
-86.499158960730085
 20
-228.298497256672390
  0
VERTEX
  8
0
  6
CONTINUOUS
 62
3
 10
-87.583317128621999
 20
-228.920359825277960
  0
VERTEX
  8
0
  6
CONTINUOUS
 62
3
 10
-88.545017729196559
 20
-229.692238987204580
  0
SEQEND
  8
0
  6
CONTINUOUS
 62
3
  0
ARC
  8
0
  6
CONTINUOUS
 62
3
 10
-91.288371373437428
 20
-226.781223565976010
 40
3.999999993776328
 50
270.000000000000000
 51
313.301579148531630
  0
POLYLINE
  8
0
  6
CONTINUOUS
 62
3
 66
1
  0
VERTEX
  8
0
  6
CONTINUOUS
 62
3
 10
-82.800897157717088
 20
-226.668993776765030
  0
VERTEX
  8
0
  6
CONTINUOUS
 62
3
 10
-84.227748445131979
 20
-226.786176445416030
  0
VERTEX
  8
0
  6
CONTINUOUS
 62
3
 10
-85.608843322663645
 20
-227.133966625823210
  0
VERTEX
  8
0
  6
CONTINUOUS
 62
3
 10
-86.899892701560276
 20
-227.701211347674560
  0
VERTEX
  8
0
  6
CONTINUOUS
 62
3
 10
-88.059495081131971
 20
-228.469720150460320
  0
VERTEX
  8
0
  6
CONTINUOUS
 62
3
 10
-89.050464216218359
 20
-229.414848416980850
  0
SEQEND
  8
0
  6
CONTINUOUS
 62
3
  0
ARC
  8
0
  6
CONTINUOUS
 62
3
 10
-92.061115338330353
 20
-226.781223572602580
 40
3.999999987149749
 50
270.000000000000000
 51
318.821565628880590
  0
LINE
  8
0
  6
CONTINUOUS
 62
3
 10
-118.250897157715990
 20
-242.211380517849420
 11
-82.800897157717088
 21
-242.211380517849420
  0
LINE
  8
0
  6
CONTINUOUS
 62
3
 10
-118.250897157715990
 20
-240.991170588622250
 11
-82.800897157717088
 21
-240.991170588622250
  0
ARC
  8
0
  6
CONTINUOUS
 62
3
 10
-118.250897157715990
 20
-229.991170588622250
 40
11.000000000000000
 50
180.000000000000000
 51
270.000000000000000
  0
ARC
  8
0
  6
CONTINUOUS
 62
3
 10
-118.250897157715990
 20
-231.211380517849420
 40
11.000000000000000
 50
180.000000000000000
 51
270.000000000000000
  0
LINE
  8
0
  6
CONTINUOUS
 62
3
 10
-91.288371375110671
 20
-230.781223559752330
 11
-117.850897157716360
 21
-230.781223559752330
  0
ARC
  8
0
  6
CONTINUOUS
 62
3
 10
-117.850897157716360
 20
-225.781223559752330
 40
5.000000000000000
 50
180.000000000000000
 51
270.000000000000000
  0
LINE
  8
0
  6
DASHDOT
 62
4
 10
-82.800897157717088
 20
-135.705668957407620
 11
-82.800897157717088
 21
-248.359388382644280
  0
LINE
  8
0
  6
CONTINUOUS
 62
4
 10
-82.800897157717088
 20
-199.438116034493530
 11
-75.584018792847644
 21
-211.938116034493530
  0
LINE
  8
0
  6
CONTINUOUS
 62
4
 10
-68.367140427977290
 20
-199.438116034493530
 11
-82.800897157717088
 21
-199.438116034493530
  0
LINE
  8
0
  6
CONTINUOUS
 62
4
 10
-75.584018792846734
 20
-186.938116034493760
 11
-82.800897157717088
 21
-199.438116034493530
  0
LINE
  8
0
  6
CONTINUOUS
 62
4
 10
-82.800897157717088
 20
-174.438116034493530
 11
-75.584018792846734
 21
-186.938116034493530
  0
LINE
  8
0
  6
CONTINUOUS
 62
4
 10
-61.150262063106936
 20
-211.938116034493530
 11
-75.584018792847644
 21
-211.938116034493530
  0
LINE
  8
0
  6
CONTINUOUS
 62
4
 10
-68.367140427977290
 20
-199.438116034493530
 11
-61.150262063106936
 21
-211.938116034493530
  0
LINE
  8
0
  6
CONTINUOUS
 62
4
 10
-82.800897157717088
 20
-174.438116034493530
 11
-90.017775522587442
 21
-186.938116034493530
  0
LINE
  8
0
  6
CONTINUOUS
 62
4
 10
-90.017775522587442
 20
-186.938116034493760
 11
-82.800897157717088
 21
-199.438116034493530
  0
LINE
  8
0
  6
CONTINUOUS
 62
4
 10
-97.234653887456886
 20
-199.438116034493530
 11
-82.800897157717088
 21
-199.438116034493530
  0
LINE
  8
0
  6
CONTINUOUS
 62
4
 10
-97.234653887456886
 20
-199.438116034493530
 11
-104.451532252327240
 21
-211.938116034493530
  0
LINE
  8
0
  6
CONTINUOUS
 62
4
 10
-82.800897157717088
 20
-199.438116034493530
 11
-90.017775522586533
 21
-211.938116034493530
  0
LINE
  8
0
  6
CONTINUOUS
 62
4
 10
-104.451532252327240
 20
-211.938116034493530
 11
-90.017775522586533
 21
-211.938116034493530
  0
LINE
  8
0
  6
CONTINUOUS
 62
3
 10
-118.250897157715990
 20
-138.608661149593670
 11
-82.800897157717088
 21
-138.608661149593670
  0
ARC
  8
0
  6
CONTINUOUS
 62
3
 10
-118.250897157715990
 20
-149.608661149593670
 40
11.000000000000000
 50
90.000000000000000
 51
180.000000000000000
  0
LINE
  8
0
  6
CONTINUOUS
 62
3
 10
-82.800897157717088
 20
-144.703479353092230
 11
-117.850897157716360
 21
-144.703479353092230
  0
ARC
  8
0
  6
CONTINUOUS
 62
3
 10
-117.850897157716360
 20
-149.703479353092230
 40
5.000000000000000
 50
90.000000000000000
 51
180.000000000000000
  0
LINE
  8
0
  6
CONTINUOUS
 62
4
 10
-82.800897157717088
 20
-151.205268790199400
 11
-117.850897157716360
 21
-151.205268790199400
  0
ARC
  8
0
  6
CONTINUOUS
 62
4
 10
-117.850897157716360
 20
-156.205268790199400
 40
5.000000000000000
 50
90.000000000000000
 51
180.000000000000000
  0
LINE
  8
0
  6
CONTINUOUS
 62
3
 10
-122.850897157716360
 20
-149.703479353092230
 11
-122.850897157716360
 21
-225.781223559752330
  0
LINE
  8
0
  6
CONTINUOUS
 62
3
 10
-129.250897157716000
 20
-149.608661149593670
 11
-129.250897157716000
 21
-231.211380517849420
  0
LINE
  8
0
  6
CONTINUOUS
 62
4
 10
-36.350897157718407
 20
-150.922834463630350
 11
-11.800897157717088
 21
-150.922834463630350
  0
LINE
  8
0
  6
CONTINUOUS
 62
4
 10
-36.350897157718407
 20
-156.375215333069260
 11
-11.800897157717088
 21
-156.375215333069260
  0
LINE
  8
0
  6
CONTINUOUS
 62
4
 10
-36.350897157718407
 20
-155.013334997719990
 11
-11.800897157717088
 21
-155.013334997719990
  0
LINE
  8
0
  6
CONTINUOUS
 62
4
 10
-36.350897157718407
 20
-161.205268790199630
 11
-11.800897157717088
 21
-161.205268790199630
  0
LINE
  8
0
  6
CONTINUOUS
 62
4
 10
-108.800897157716970
 20
-124.205268790199620
 11
-11.800897157717088
 21
-124.205268790199620
  0
LINE
  8
0
  6
CONTINUOUS
 62
4
 10
-108.800897157716970
 20
-123.705268790199620
 11
-11.800897157717088
 21
-123.705268790199620
  0
LINE
  8
0
  6
CONTINUOUS
 62
4
 10
-108.800897157716970
 20
-125.205268790199620
 11
-11.800897157717088
 21
-125.205268790199620
  0
LINE
  8
0
  6
CONTINUOUS
 62
4
 10
-108.800897157716970
 20
-126.205268790199620
 11
-11.800897157717088
 21
-126.205268790199620
  0
LINE
  8
0
  6
CONTINUOUS
 62
4
 10
-108.800897157716970
 20
-130.889734603424130
 11
-11.800897157717088
 21
-130.889734603424130
  0
LINE
  8
0
  6
CONTINUOUS
 62
4
 10
-108.800897157716970
 20
-135.839482071729890
 11
-11.800897157717088
 21
-135.839482071729890
  0
LINE
  8
0
  6
CONTINUOUS
 62
4
 10
-37.956637861326442
 20
-143.886083734463680
 11
-11.800897157717088
 21
-143.886083734463680
  0
LINE
  8
0
  6
CONTINUOUS
 62
4
 10
-37.150766931265878
 20
-145.490731650025740
 11
-11.800897157717088
 21
-145.490731650025740
  0
LINE
  8
0
  6
CONTINUOUS
 62
4
 10
-36.350897157718407
 20
-149.454477073825270
 11
-11.800897157717088
 21
-149.454477073825270
  0
LINE
  8
0
  6
CONTINUOUS
 62
3
 10
-108.800897157716970
 20
-138.608661149593670
 11
-108.800897157716970
 21
-121.205268790199620
  0
LINE
  8
0
  6
CONTINUOUS
 62
3
 10
-11.800897157717088
 20
-122.705268790199620
 11
-108.800897157716970
 21
-122.705268790199620
  0
LINE
  8
0
  6
CONTINUOUS
 62
3
 10
-11.800897157717088
 20
-122.705268790199620
 11
-11.800897157717088
 21
-181.205268790199630
  0
LINE
  8
0
  6
CONTINUOUS
 62
3
 10
-108.800897157716970
 20
-121.205268790199620
 11
-189.494921380137330
 21
-121.205268790199620
  0
LINE
  8
0
  6
CONTINUOUS
 62
3
 10
-211.800897157666840
 20
-181.205268790199630
 11
-211.800897157666840
 21
-133.762063732954180
  0
ARC
  8
0
  6
CONTINUOUS
 62
3
 10
-189.494921380137330
 20
-141.205268790199630
 40
20.000000000000000
 50
90.000000000000000
 51
125.000000000000240
  0
LINE
  8
0
  6
CONTINUOUS
 62
3
 10
-200.966450107158320
 20
-124.822227904419830
 11
-210.692195892179310
 21
-131.632268417803060
  0
ARC
  8
0
  6
CONTINUOUS
 62
3
 10
-209.200897157666700
 20
-133.762063732954180
 40
2.599999999999721
 50
125.000000000001370
 51
180.000000000000000
  0
LINE
  8
0
  6
CONTINUOUS
 62
4
 10
-36.350897157718407
 20
-211.487703116768900
 11
-11.800897157717088
 21
-211.487703116768900
  0
LINE
  8
0
  6
CONTINUOUS
 62
4
 10
-36.350897157718407
 20
-206.035322247329990
 11
-11.800897157717088
 21
-206.035322247329990
  0
LINE
  8
0
  6
CONTINUOUS
 62
4
 10
-36.350897157718407
 20
-207.397202582679260
 11
-11.800897157717088
 21
-207.397202582679260
  0
LINE
  8
0
  6
CONTINUOUS
 62
4
 10
-36.350897157718407
 20
-201.205268790199630
 11
-11.800897157717088
 21
-201.205268790199630
  0
LINE
  8
0
  6
CONTINUOUS
 62
4
 10
-38.860577562209357
 20
-238.205268790199630
 11
-11.800897157717088
 21
-238.205268790199630
  0
LINE
  8
0
  6
CONTINUOUS
 62
4
 10
-39.298466558108487
 20
-238.705268790199630
 11
-11.800897157717088
 21
-238.705268790199630
  0
LINE
  8
0
  6
CONTINUOUS
 62
4
 10
-38.127378123283449
 20
-237.205268790199630
 11
-11.800897157717088
 21
-237.205268790199630
  0
LINE
  8
0
  6
CONTINUOUS
 62
4
 10
-37.549821710437925
 20
-236.205268790199630
 11
-11.800897157717088
 21
-236.205268790199630
  0
LINE
  8
0
  6
CONTINUOUS
 62
4
 10
-36.350897157718407
 20
-231.520802976975120
 11
-11.800897157717088
 21
-231.520802976975120
  0
LINE
  8
0
  6
CONTINUOUS
 62
4
 10
-36.350897157718407
 20
-226.571055508669360
 11
-11.800897157717088
 21
-226.571055508669360
  0
LINE
  8
0
  6
CONTINUOUS
 62
4
 10
-36.350897157718407
 20
-218.524453845935570
 11
-11.800897157717088
 21
-218.524453845935570
  0
LINE
  8
0
  6
CONTINUOUS
 62
4
 10
-36.350897157718407
 20
-216.919805930373510
 11
-11.800897157717088
 21
-216.919805930373510
  0
LINE
  8
0
  6
CONTINUOUS
 62
4
 10
-36.350897157718407
 20
-212.956060506573980
 11
-11.800897157717088
 21
-212.956060506573980
  0
LINE
  8
0
  6
DASHDOT
 62
4
 10
-19.226763633275539
 20
-181.205268790199630
 11
-225.745320509777230
 21
-181.205268790199630
  0
LINE
  8
0
  6
CONTINUOUS
 62
3
 10
-11.800897157717088
 20
-239.705268790199630
 11
-40.361343379626931
 21
-239.705268790199630
  0
LINE
  8
0
  6
CONTINUOUS
 62
3
 10
-11.800897157717088
 20
-239.705268790199630
 11
-11.800897157717088
 21
-181.205268790199630
  0
LINE
  8
0
  6
CONTINUOUS
 62
3
 10
-122.846786320846540
 20
-241.205268790199630
 11
-189.494921380137330
 21
-241.205268790199630
  0
LINE
  8
0
  6
CONTINUOUS
 62
3
 10
-211.800897157666840
 20
-181.205268790199630
 11
-211.800897157666840
 21
-228.648473847445080
  0
ARC
  8
0
  6
CONTINUOUS
 62
3
 10
-189.494921380137330
 20
-221.205268790199630
 40
20.000000000000007
 50
234.999999999999740
 51
270.000000000000000
  0
LINE
  8
0
  6
CONTINUOUS
 62
3
 10
-200.966450107158320
 20
-237.588309675979420
 11
-210.692195892179310
 21
-230.778269162596190
  0
ARC
  8
0
  6
CONTINUOUS
 62
3
 10
-209.200897157666700
 20
-228.648473847445080
 40
2.600000000000136
 50
180.000000000000000
 51
234.999999999998610
  0
POLYLINE
  8
0
  6
CONTINUOUS
 62
3
 66
1
 70
1
  0
VERTEX
  8
0
  6
CONTINUOUS
 62
3
 10
-115.100897157716410
 20
-129.281743758139560
  0
VERTEX
  8
0
  6
CONTINUOUS
 62
3
 10
-115.191206339821230
 20
-128.578786791939190
  0
VERTEX
  8
0
  6
CONTINUOUS
 62
3
 10
-115.458663354913360
 20
-127.902844067727100
  0
VERTEX
  8
0
  6
CONTINUOUS
 62
3
 10
-115.892989979894450
 20
-127.279891685321700
  0
VERTEX
  8
0
  6
CONTINUOUS
 62
3
 10
-116.477495286139640
 20
-126.733869355423120
  0
VERTEX
  8
0
  6
CONTINUOUS
 62
3
 10
-117.189717062524280
 20
-126.285760409956500
  0
VERTEX
  8
0
  6
CONTINUOUS
 62
3
 10
-118.002285025600480
 20
-125.952785424393730
  0
VERTEX
  8
0
  6
CONTINUOUS
 62
3
 10
-118.883972644240600
 20
-125.747740440695490
  0
VERTEX
  8
0
  6
CONTINUOUS
 62
3
 10
-119.800897157716400
 20
-125.678505222594720
  0
VERTEX
  8
0
  6
CONTINUOUS
 62
3
 10
-120.717821671192210
 20
-125.747740440695490
  0
VERTEX
  8
0
  6
CONTINUOUS
 62
3
 10
-121.599509289832320
 20
-125.952785424393730
  0
VERTEX
  8
0
  6
CONTINUOUS
 62
3
 10
-122.412077252908530
 20
-126.285760409956500
  0
VERTEX
  8
0
  6
CONTINUOUS
 62
3
 10
-123.124299029293160
 20
-126.733869355423120
  0
VERTEX
  8
0
  6
CONTINUOUS
 62
3
 10
-123.708804335538360
 20
-127.279891685321700
  0
VERTEX
  8
0
  6
CONTINUOUS
 62
3
 10
-124.143130960519440
 20
-127.902844067727100
  0
VERTEX
  8
0
  6
CONTINUOUS
 62
3
 10
-124.410587975611570
 20
-128.578786791939190
  0
VERTEX
  8
0
  6
CONTINUOUS
 62
3
 10
-124.500897157716390
 20
-129.281743758139560
  0
VERTEX
  8
0
  6
CONTINUOUS
 62
3
 10
-124.410587975611570
 20
-129.984700724339920
  0
VERTEX
  8
0
  6
CONTINUOUS
 62
3
 10
-124.143130960519440
 20
-130.660643448552010
  0
VERTEX
  8
0
  6
CONTINUOUS
 62
3
 10
-123.708804335538360
 20
-131.283595830957410
  0
VERTEX
  8
0
  6
CONTINUOUS
 62
3
 10
-123.124299029293160
 20
-131.829618160856000
  0
VERTEX
  8
0
  6
CONTINUOUS
 62
3
 10
-122.412077252908530
 20
-132.277727106322600
  0
VERTEX
  8
0
  6
CONTINUOUS
 62
3
 10
-121.599509289832320
 20
-132.610702091885370
  0
VERTEX
  8
0
  6
CONTINUOUS
 62
3
 10
-120.717821671192210
 20
-132.815747075583630
  0
VERTEX
  8
0
  6
CONTINUOUS
 62
3
 10
-119.800897157716400
 20
-132.884982293684370
  0
VERTEX
  8
0
  6
CONTINUOUS
 62
3
 10
-118.883972644240600
 20
-132.815747075583630
  0
VERTEX
  8
0
  6
CONTINUOUS
 62
3
 10
-118.002285025600480
 20
-132.610702091885370
  0
VERTEX
  8
0
  6
CONTINUOUS
 62
3
 10
-117.189717062524280
 20
-132.277727106322600
  0
VERTEX
  8
0
  6
CONTINUOUS
 62
3
 10
-116.477495286139640
 20
-131.829618160856000
  0
VERTEX
  8
0
  6
CONTINUOUS
 62
3
 10
-115.892989979894450
 20
-131.283595830957410
  0
VERTEX
  8
0
  6
CONTINUOUS
 62
3
 10
-115.458663354913360
 20
-130.660643448552010
  0
VERTEX
  8
0
  6
CONTINUOUS
 62
3
 10
-115.191206339821230
 20
-129.984700724339920
  0
SEQEND
  8
0
  6
CONTINUOUS
 62
3
  0
LINE
  8
0
  6
CONTINUOUS
 62
3
 10
-121.800897157716400
 20
-126.289368204139230
 11
-119.800897157716400
 21
-127.465153689762010
  0
LINE
  8
0
  6
CONTINUOUS
 62
3
 10
-119.800897157716400
 20
-127.465153689762010
 11
-117.800897157716400
 21
-129.117795328885450
  0
LINE
  8
0
  6
CONTINUOUS
 62
3
 10
-117.800897157716400
 20
-126.289368204139230
 11
-119.800897157716400
 21
-127.465153689762010
  0
LINE
  8
0
  6
CONTINUOUS
 62
3
 10
-119.800897157716400
 20
-127.465153689762010
 11
-121.800897157716400
 21
-129.117795328885450
  0
LINE
  8
0
  6
DASHDOT
 62
4
 10
420.825347687449270
 20
-181.205269587300790
 11
354.384525739151740
 21
-181.205269587300790
  0
LINE
  8
0
  6
DASHDOT
 62
4
 10
233.925917390599350
 20
-149.205268790199630
 11
542.552762989867920
 21
-149.205268790199630
  0
ARC
  8
0
  6
DASHED
 62
3
 10
276.896916228215100
 20
-237.382176634281450
 40
9.000000000000075
 50
139.398468892516490
 51
172.601548410321070
  0
ARC
  8
0
  6
DASHED
 62
3
 10
314.508423971163670
 20
-139.628944047413340
 40
0.999999999999856
 50
66.000000000020236
 51
155.999999999996390
  0
LINE
  8
0
  6
DASHED
 62
3
 10
273.850582925759000
 20
-237.832011522552190
 11
277.687473847857970
 21
-239.540305423470500
  0
LINE
  8
0
  6
DASHED
 62
3
 10
275.192813847909520
 20
-234.817311512331570
 11
279.029704770008270
 21
-236.525605413249880
  0
LINE
  8
0
  6
DASHED
 62
3
 10
278.852321684909840
 20
-236.063506677998480
 11
279.029704770008270
 21
-236.525605413249880
  0
LINE
  8
0
  6
DASHED
 62
3
 10
277.225375112606800
 20
-239.717688508568470
 11
277.687473847858200
 21
-239.540305423470040
  0
LINE
  8
0
  6
DASHED
 62
3
 10
279.029704770008270
 20
-236.525605413249880
 11
277.687473847858200
 21
-239.540305423470040
  0
LINE
  8
0
  6
DASHED
 62
3
 10
272.473803898557890
 20
-231.581653172004510
 11
269.626647397027000
 21
-237.976471375502800
  0
LINE
  8
0
  6
DASHED
 62
3
 10
272.473803898557890
 20
-231.581653172004510
 11
269.626647397027000
 21
-237.976471375502800
  0
LINE
  8
0
  6
DASHED
 62
3
 10
269.626647397027000
 20
-237.976471375502800
 11
268.732263277350510
 21
-237.578265909738320
  0
LINE
  8
0
  6
DASHED
 62
3
 10
272.473803898557890
 20
-231.581653172004510
 11
271.579419778881400
 21
-231.183447706240260
  0
ARC
  8
0
  6
DASHED
 62
3
 10
271.050662453198360
 20
-232.371056104195760
 40
1.299999237060620
 50
65.999999316753915
 51
139.398468892516150
  0
LINE
  8
0
  6
DASHED
 62
3
 10
316.719094956226400
 20
-141.547757059579650
 11
317.143927115972470
 21
-142.548598908195090
  0
LINE
  8
0
  6
DASHED
 62
3
 10
316.274181211016410
 20
-142.547049692537000
 11
316.407523233210440
 21
-142.861183810986380
  0
LINE
  8
0
  6
DASHED
 62
3
 10
317.143927115972470
 20
-142.548598908195090
 11
316.407523233210440
 21
-142.861183810986380
  0
LINE
  8
0
  6
DASHED
 62
3
 10
313.594878513521050
 20
-139.222207404337470
 11
294.902814932572260
 21
-181.205269587300760
  0
ARC
  8
0
  6
DASHED
 62
3
 10
309.071962691725730
 20
-142.005062658639840
 40
3.000000000000022
 50
279.318123119682530
 51
336.000000000000400
  0
LINE
  8
0
  6
DASHED
 62
3
 10
309.557710582164420
 20
-144.965476309961990
 11
283.602073488628320
 21
-149.224305462955020
  0
ARC
  8
0
  6
DASHED
 62
3
 10
286.030812940819940
 20
-164.026373719565950
 40
15.000000000000041
 50
99.318123119675519
 51
178.317231198866920
  0
ARC
  8
0
  6
DASHED
 62
3
 10
870.778523955379110
 20
-181.205269587301070
 40
600.000000000001140
 50
178.317231198866840
 51
184.715124834091600
  0
ARC
  8
0
  6
DASHED
 62
3
 10
271.812474963067420
 20
-230.608428945187370
 40
1.000000000000041
 50
335.999999999996420
 51
4.715124834083239
  0
LINE
  8
0
  6
DASHED
 62
3
 10
314.915160614239080
 20
-138.715398589770730
 11
317.473087895638400
 21
-139.854261190382860
  0
LINE
  8
0
  6
DASHED
 62
3
 10
315.195362694418690
 20
-144.970115753183760
 11
316.998733884605370
 21
-145.773028337313890
  0
ARC
  8
0
  6
DASHED
 62
3
 10
315.778523955379110
 20
-148.513664710241730
 40
3.000000000000000
 50
0.000000000000000
 51
66.000000000020236
  0
ARC
  8
0
  6
DASHED
 62
3
 10
313.778523955379110
 20
-222.705269587300760
 40
5.000000000000028
 50
270.000000000000000
 51
0.000000000000000
  0
LINE
  8
0
  6
DASHED
 62
3
 10
313.778523955379110
 20
-227.705269587300790
 11
278.359298924050340
 21
-227.705269587300790
  0
LINE
  8
0
  6
DASHED
 62
3
 10
269.197961932518870
 20
-241.397908028799070
 11
271.755889213918640
 21
-242.536770629411190
  0
ARC
  8
0
  6
DASHED
 62
3
 10
269.604698575595190
 20
-240.484362571156450
 40
0.999999999999948
 50
156.000000000008300
 51
245.999999999972630
  0
LINE
  8
0
  6
DASHED
 62
3
 10
294.902814932575440
 20
-181.205269587300760
 11
268.691153117952580
 21
-240.077625928080810
  0
ARC
  8
0
  6
DASHED
 62
3
 10
272.983836691680610
 20
-227.977507427179490
 40
1.000000000000041
 50
335.999999999996420
 51
66.000000000020236
  0
ARC
  8
0
  6
DASHED
 62
3
 10
274.408510358960030
 20
-225.327904175537920
 40
2.000000000000632
 50
184.231338074886000
 51
245.999999999972630
  0
LINE
  8
0
  6
DASHED
 62
3
 10
275.335171672986010
 20
-234.497570602156660
 11
278.852321684909840
 21
-236.063506677998480
  0
LINE
  8
0
  6
DASHED
 62
3
 10
273.708225100682740
 20
-238.151752432726650
 11
277.225375112606800
 21
-239.717688508568470
  0
LINE
  8
0
  6
DASHED
 62
3
 10
318.778523955379110
 20
-148.513664710241730
 11
318.778523955379110
 21
-222.705269587300760
  0
ARC
  8
0
  6
DASHED
 62
3
 10
870.778523955379110
 20
-181.205269587301070
 40
600.799999999999950
 50
179.412192132293110
 51
182.841389015363320
  0
ARC
  8
0
  6
DASHED
 62
3
 10
271.715924726594490
 20
-210.938116831594670
 40
0.999999999999988
 50
182.841389015366990
 51
236.047873053618590
  0
ARC
  8
0
  6
DASHED
 62
3
 10
270.598924701982010
 20
-212.597125856589830
 40
1.000000000000008
 50
2.994076090848812
 51
56.047873053604029
  0
ARC
  8
0
  6
DASHED
 62
3
 10
269.828716285828930
 20
-173.438116831594670
 40
0.999999999999994
 50
306.205708094031080
 51
359.259505056807090
  0
ARC
  8
0
  6
DASHED
 62
3
 10
271.010088402105340
 20
-175.051919769652810
 40
1.000000000000128
 50
126.205708094041610
 51
179.412192132278280
  0
LINE
  8
0
  6
DASHED
 62
3
 10
317.473087895643630
 20
-139.854261190385130
 11
271.755889213918640
 21
-242.536770629411190
  0
LINE
  8
0
  6
DASHDOT
 62
4
 10
294.778523955379110
 20
-213.322745807595060
 11
294.778523955379110
 21
-236.191254983358700
  0
ARC
  8
0
  6
DASHED
 62
3
 10
269.261020603033780
 20
-236.390657511782820
 40
1.299999237060687
 50
172.601548410320760
 51
246.000017986079880
  0
LINE
  8
0
  6
DASHDOT
 62
4
 10
387.278523955379110
 20
-303.161649369863880
 11
387.278523955379110
 21
9.156845693494688
  0
ENDSEC
  0
EOF
