  0
SECTION
  2
HEADER
  9
$FILLMODE
 70
1
  9
$TEXTSTYLE
  7
STANDARD1
  9
$ACADVER
  1
AC1009
  9
$DIMASZ
 40
1.931851648807023
  9
$DIMEXE
 40
2.000000000000000
  9
$DIMEXO
 40
1.000000000000000
  9
$DIMLFAC
 40
1.000000000000000
  9
$DIMSCALE
 40
1.000000000000000
  9
$DIMTAD
 70
1
  9
$DIMTFAC
 40
0.714285731315613
  9
$DIMTXT
 40
3.200000047683716
  9
$LUPREC
 70
3
  9
$TEXTSIZE
 40
3.299999952316284
  9
$REGENMODE
 70
1
  0
ENDSEC
  0
SECTION
  2
TABLES
  0
TABLE
  2
LTYPE
 70
4
  0
LTYPE
  2
CONTINUOUS
 70
64
  3
Solid line
 72
65
 73
0
 40
0.0
  0
LTYPE
  2
DASHED
 70
64
  3
-- -- -- -- -- -- -- -- -- -- -- -- -- -- --
 72
65
 73
2
 40
0.75
 49
0.5
 49
-0.25
  0
LTYPE
  2
DASHDOT
 70
64
  3
__ . __ . __ . __ . __ . __ . __ . __ . __ . __
 72
65
 73
4
 40
1.0
 49
0.5
 49
-0.25
 49
0.0
 49
-0.25
  0
LTYPE
  2
DIVIDE
 70
64
  3
__ . . __ . . __ . . __ . . __ . . __ . . __
 72
65
 73
6
 40
1.25
 49
0.5
 49
-0.25
 49
0.0
 49
-0.25
 49
0.0
 49
-0.25
  0
ENDTAB
  0
TABLE
  2
LAYER
 70
1
  0
LAYER
  2
0
 70
64
 62
2
  6
CONTINUOUS
  0
ENDTAB
  0
TABLE
  2
STYLE
 70
4
  0
STYLE
  2
STANDARD1
 70
64
 40
0.0
 41
1.0
 50
0.0
 71
0
 42
3.299999952316284
  3
MONOTXT
  4
BIGFONT
  0
STYLE
  2
STANDARD2
 70
68
 40
0.0
 41
1.0
 50
0.0
 71
0
 42
3.299999952316284
  3
MONOTXT
  4
BIGFONT
  0
STYLE
  2
STANDARD3
 70
64
 40
0.0
 41
1.0
 50
0.0
 71
0
 42
3.299999952316284
  3
MONOTXT
  4

  0
STYLE
  2
STANDARD4
 70
68
 40
0.0
 41
1.0
 50
0.0
 71
0
 42
3.299999952316284
  3
MONOTXT
  4

  0
ENDTAB
  0
TABLE
  2
VIEW
 70
0
  0
ENDTAB
  0
ENDSEC
  0
SECTION
  2
BLOCKS
  0
BLOCK
  8
0
  2
SYM1
 70
64
 10
0.000000000000000
 20
0.000000000000000
  0
POINT
  8
0
  6
CONTINUOUS
 62
3
 10
0.000000000000000
 20
0.000000000000000
  0
LINE
  8
0
  6
CONTINUOUS
 62
3
 10
-0.000030423851130
 20
-7.499999046330735
 11
-4.750025899805295
 21
-7.499979019174840
  0
LINE
  8
0
  6
CONTINUOUS
 62
3
 10
-4.750049139977591
 20
-7.499993996888350
 11
-5.500046248261697
 21
-6.299990408291990
  0
LINE
  8
0
  6
CONTINUOUS
 62
3
 10
-5.500023365026398
 20
-6.299976341312318
 11
-5.499970912939614
 21
6.300019271785827
  0
LINE
  8
0
  6
CONTINUOUS
 62
3
 10
-5.499983083855739
 20
6.300024529816085
 11
-4.749977372865317
 21
7.500023360260684
  0
LINE
  8
0
  6
CONTINUOUS
 62
3
 10
-4.749964714019825
 20
7.500017166133830
 11
0.000031348552056
 21
7.499999046315238
  0
LINE
  8
0
  6
CONTINUOUS
 62
3
 10
0.000030896794669
 20
7.500000000000000
 11
-0.000030896794669
 21
-7.500000000000000
  0
LINE
  8
0
  6
CONTINUOUS
 62
3
 10
-4.750011996199395
 20
-3.749974250803856
 11
-0.000011530566302
 21
-3.749994277972148
  0
LINE
  8
0
  6
CONTINUOUS
 62
3
 10
-4.749979019169359
 20
3.750014305102241
 11
0.000017610677105
 21
3.749996185290124
  0
ARC
  8
0
  6
CONTINUOUS
 62
3
 10
-2.780022621154785
 20
-5.624988555908203
 40
2.720000267028809
 50
136.399751989368410
 51
179.999745461767870
  0
ARC
  8
0
  6
CONTINUOUS
 62
3
 10
-2.779975891113281
 20
5.625011444091797
 40
2.720000267028809
 50
179.999745461767870
 51
223.599738934167330
  0
ARC
  8
0
  6
CONTINUOUS
 62
3
 10
4.250000000000000
 20
-0.000017508195015
 40
9.750000000000000
 50
157.379852817599810
 51
202.619583464422590
  0
ENDBLK
  8
0
  0
BLOCK
  8
0
  2
SYM2
 70
64
 10
0.000000000000000
 20
0.000000000000000
  0
POINT
  8
0
  6
CONTINUOUS
 62
3
 10
0.000000000000000
 20
0.000000000000000
  0
LINE
  8
0
  6
CONTINUOUS
 62
3
 10
0.000000000000000
 20
-6.500000000000000
 11
-0.000000000000000
 21
6.500000000000000
  0
LINE
  8
0
  6
CONTINUOUS
 62
3
 10
-7.999999046325684
 20
5.633875846862793
 11
-7.999999046325684
 21
-5.634070396423340
  0
LINE
  8
0
  6
CONTINUOUS
 62
3
 10
0.000000000000000
 20
6.500000000000000
 11
-7.499999046325684
 21
6.500000000000000
  0
LINE
  8
0
  6
CONTINUOUS
 62
3
 10
-0.000000000000000
 20
-6.500000000000000
 11
-7.499998092651367
 21
-6.500000000000000
  0
LINE
  8
0
  6
CONTINUOUS
 62
3
 10
-7.499997911632022
 20
-6.499999445138201
 11
-7.999998623386432
 21
-5.634070287011241
  0
LINE
  8
0
  6
CONTINUOUS
 62
3
 10
-7.499999046325684
 20
6.500000000000000
 11
-7.499999046325684
 21
-6.500000000000000
  0
ENDBLK
  8
0
  0
BLOCK
  8
0
  2
SYM3
 70
64
 10
0.000000000000000
 20
0.000000000000000
  0
POINT
  8
0
  6
CONTINUOUS
 62
3
 10
0.000000000000000
 20
0.000000000000000
  0
LINE
  8
0
  6
CONTINUOUS
 62
3
 10
-0.000030423851130
 20
-7.499999046330735
 11
-4.750025899805295
 21
-7.499979019174840
  0
LINE
  8
0
  6
CONTINUOUS
 62
3
 10
-4.750049139977591
 20
-7.499993996888350
 11
-5.500046248261697
 21
-6.299990408291990
  0
LINE
  8
0
  6
CONTINUOUS
 62
3
 10
-5.500023365026398
 20
-6.299976341312318
 11
-5.499970912939614
 21
6.300019271785827
  0
LINE
  8
0
  6
CONTINUOUS
 62
3
 10
-5.499983083855739
 20
6.300024529816085
 11
-4.749977372865317
 21
7.500023360260684
  0
LINE
  8
0
  6
CONTINUOUS
 62
3
 10
-4.749964714019825
 20
7.500017166133830
 11
0.000031348552056
 21
7.499999046315238
  0
LINE
  8
0
  6
CONTINUOUS
 62
3
 10
0.000030896794669
 20
7.500000000000000
 11
-0.000030896794669
 21
-7.500000000000000
  0
LINE
  8
0
  6
CONTINUOUS
 62
3
 10
-4.750011996199395
 20
-3.749974250803856
 11
-0.000011530566302
 21
-3.749994277972148
  0
LINE
  8
0
  6
CONTINUOUS
 62
3
 10
-4.749979019169359
 20
3.750014305102241
 11
0.000017610677105
 21
3.749996185290124
  0
ARC
  8
0
  6
CONTINUOUS
 62
3
 10
-2.780022621154785
 20
-5.624988555908203
 40
2.720000267028809
 50
136.399751989368410
 51
179.999745461767870
  0
ARC
  8
0
  6
CONTINUOUS
 62
3
 10
-2.779975891113281
 20
5.625011444091797
 40
2.720000267028809
 50
179.999745461767870
 51
223.599738934167330
  0
ARC
  8
0
  6
CONTINUOUS
 62
3
 10
4.250000000000000
 20
-0.000017508195015
 40
9.750000000000000
 50
157.379852817599810
 51
202.619583464422590
  0
ENDBLK
  8
0
  0
BLOCK
  8
0
  2
SYM4
 70
64
 10
0.000000000000000
 20
0.000000000000000
  0
POINT
  8
0
  6
CONTINUOUS
 62
3
 10
0.000000000000000
 20
0.000000000000000
  0
LINE
  8
0
  6
CONTINUOUS
 62
3
 10
0.002401208367701
 20
-7.504162813807056
 11
-6.495187652077846
 21
-3.749994904254493
  0
LINE
  8
0
  6
CONTINUOUS
 62
3
 10
-6.495189094719432
 20
-3.749993872743451
 11
-6.497592351816327
 21
3.754165100950397
  0
LINE
  8
0
  6
CONTINUOUS
 62
3
 10
-6.497593715787616
 20
3.754167812298078
 11
-0.002401379516073
 21
7.504164176415429
  0
LINE
  8
0
  6
CONTINUOUS
 62
3
 10
-0.002401208367701
 20
7.504162813807056
 11
6.495187652077846
 21
3.749994904254493
  0
LINE
  8
0
  6
CONTINUOUS
 62
3
 10
6.495189094719432
 20
3.749993872743451
 11
6.497592351816327
 21
-3.754165100950397
  0
LINE
  8
0
  6
CONTINUOUS
 62
3
 10
6.497593715787616
 20
-3.754167812298078
 11
0.002401379516073
 21
-7.504164176415429
  0
CIRCLE
  8
0
  6
CONTINUOUS
 62
3
 10
0.000000000000000
 20
0.000000000000000
 40
6.500000000000000
  0
ENDBLK
  8
0
  0
BLOCK
  8
0
  2
SYM5
 70
64
 10
0.000000000000000
 20
0.000000000000000
  0
POINT
  8
0
  6
CONTINUOUS
 62
3
 10
0.000000000000000
 20
0.000000000000000
  0
LINE
  8
0
  6
CONTINUOUS
 62
3
 10
0.002401208367701
 20
-7.504162813807056
 11
-6.495187652077846
 21
-3.749994904254493
  0
LINE
  8
0
  6
CONTINUOUS
 62
3
 10
-6.495189094719432
 20
-3.749993872743451
 11
-6.497592351816327
 21
3.754165100950397
  0
LINE
  8
0
  6
CONTINUOUS
 62
3
 10
-6.497593715787616
 20
3.754167812298078
 11
-0.002401379516073
 21
7.504164176415429
  0
LINE
  8
0
  6
CONTINUOUS
 62
3
 10
-0.002401208367701
 20
7.504162813807056
 11
6.495187652077846
 21
3.749994904254493
  0
LINE
  8
0
  6
CONTINUOUS
 62
3
 10
6.495189094719432
 20
3.749993872743451
 11
6.497592351816327
 21
-3.754165100950397
  0
LINE
  8
0
  6
CONTINUOUS
 62
3
 10
6.497593715787616
 20
-3.754167812298078
 11
0.002401379516073
 21
-7.504164176415429
  0
CIRCLE
  8
0
  6
CONTINUOUS
 62
3
 10
0.000000000000000
 20
0.000000000000000
 40
6.500000000000000
  0
ENDBLK
  8
0
  0
BLOCK
  8
0
  2
SYM6
 70
64
 10
0.000000000000000
 20
0.000000000000000
  0
CIRCLE
  8
0
  6
CONTINUOUS
 62
3
 10
0.000000000000000
 20
0.000000000000000
 40
5.633955001831055
  0
CIRCLE
  8
0
  6
CONTINUOUS
 62
3
 10
0.000000000000000
 20
0.000000000000000
 40
6.500000000000000
  0
POINT
  8
0
  6
CONTINUOUS
 62
3
 10
0.000000000000000
 20
0.000000000000000
  0
LINE
  8
0
  6
CONTINUOUS
 62
3
 10
-2.999996662140960
 20
-1.732045999551255
 11
-2.999997615815242
 21
1.732051977133316
  0
LINE
  8
0
  6
CONTINUOUS
 62
3
 10
2.999996662140697
 20
1.732046953225571
 11
2.999997615814979
 21
-1.732051023458999
  0
LINE
  8
0
  6
CONTINUOUS
 62
3
 10
0.000006701720849
 20
3.464096999935236
 11
-2.999997939551520
 21
1.732051821705568
  0
LINE
  8
0
  6
CONTINUOUS
 62
3
 10
2.999998112093635
 20
-1.732051392778772
 11
-0.000004464412200
 21
-3.464098365415111
  0
LINE
  8
0
  6
CONTINUOUS
 62
3
 10
0.000006618601731
 20
3.464096896385627
 11
2.999997425948948
 21
1.732046782136365
  0
LINE
  8
0
  6
CONTINUOUS
 62
3
 10
-0.000004704988612
 20
-3.464098175748802
 11
-2.999997577100373
 21
-1.732046218032735
  0
POINT
  8
0
  6
CONTINUOUS
 62
3
 10
0.500000119209290
 20
6.500000000000000
  0
POINT
  8
0
  6
CONTINUOUS
 62
3
 10
0.000000000000000
 20
5.633955001831055
  0
ENDBLK
  8
0
  0
ENDSEC
  0
SECTION
  2
ENTITIES
  0
LINE
  8
0
  6
CONTINUOUS
 62
3
 10
-509.171957872647790
 20
-129.741698807597600
 11
-509.658761264353420
 21
-129.254895415891980
  0
LINE
  8
0
  6
CONTINUOUS
 62
3
 10
-502.525154399234110
 20
-123.094895334183870
 11
-503.011957790939730
 21
-122.608091942478250
  0
LINE
  8
0
  6
CONTINUOUS
 62
3
 10
-509.485096481616610
 20
-129.489151856747210
 11
-502.807997179143680
 21
-122.812052554274300
  0
LINE
  8
0
  6
CONTINUOUS
 62
3
 10
-509.171957872647790
 20
-129.741698807597600
 11
-502.525154399234110
 21
-123.094895334183870
  0
POINT
  8
0
  6
CONTINUOUS
 62
3
 10
-505.848556135940950
 20
-126.418297070890730
  0
ARC
  8
0
  6
CONTINUOUS
 62
3
 10
-503.585814571013940
 20
-128.681038635817770
 40
6.099999427795419
 50
84.601927898108485
 51
185.398089404735120
  0
LINE
  8
0
  6
CONTINUOUS
 62
3
 10
-509.171957872647790
 20
-226.473906743657240
 11
-509.658761264353420
 21
-226.960710135362860
  0
LINE
  8
0
  6
CONTINUOUS
 62
3
 10
-502.525154399234110
 20
-233.120710217070980
 11
-503.011957790939730
 21
-233.607513608776570
  0
LINE
  8
0
  6
CONTINUOUS
 62
3
 10
-509.485096481616610
 20
-226.726453694507630
 11
-502.807997179143680
 21
-233.403552996980550
  0
LINE
  8
0
  6
CONTINUOUS
 62
3
 10
-509.171957872647790
 20
-226.473906743657240
 11
-502.525154399234110
 21
-233.120710217070980
  0
POINT
  8
0
  6
CONTINUOUS
 62
3
 10
-505.848556135940950
 20
-229.797308480364110
  0
ARC
  8
0
  6
CONTINUOUS
 62
3
 10
-503.585814571013940
 20
-227.534566915437070
 40
6.099999427795398
 50
174.601910595264880
 51
275.398072101891500
  0
LINE
  8
0
  6
CONTINUOUS
 62
3
 10
-399.146142989760960
 20
-226.473906743657240
 11
-398.659339598055340
 21
-226.960710135362860
  0
LINE
  8
0
  6
CONTINUOUS
 62
3
 10
-405.792946463174640
 20
-233.120710217070980
 11
-405.306143071469020
 21
-233.607513608776570
  0
LINE
  8
0
  6
CONTINUOUS
 62
3
 10
-398.833004380792150
 20
-226.726453694507630
 11
-405.510103683265070
 21
-233.403552996980550
  0
LINE
  8
0
  6
CONTINUOUS
 62
3
 10
-399.146142989760960
 20
-226.473906743657240
 11
-405.792946463174640
 21
-233.120710217070980
  0
POINT
  8
0
  6
CONTINUOUS
 62
3
 10
-402.469544726467800
 20
-229.797308480364110
  0
ARC
  8
0
  6
CONTINUOUS
 62
3
 10
-404.732286291394810
 20
-227.534566915437070
 40
6.099999427795406
 50
264.601927898108500
 51
5.398089404735109
  0
LINE
  8
0
  6
CONTINUOUS
 62
3
 10
-399.146142989760960
 20
-129.741698807597600
 11
-398.659339598055340
 21
-129.254895415891980
  0
LINE
  8
0
  6
CONTINUOUS
 62
3
 10
-405.792946463174640
 20
-123.094895334183870
 11
-405.306143071469020
 21
-122.608091942478250
  0
LINE
  8
0
  6
CONTINUOUS
 62
3
 10
-398.833004380792150
 20
-129.489151856747210
 11
-405.510103683265070
 21
-122.812052554274300
  0
LINE
  8
0
  6
CONTINUOUS
 62
3
 10
-399.146142989760960
 20
-129.741698807597600
 11
-405.792946463174640
 21
-123.094895334183870
  0
POINT
  8
0
  6
CONTINUOUS
 62
3
 10
-402.469544726467800
 20
-126.418297070890730
  0
ARC
  8
0
  6
CONTINUOUS
 62
3
 10
-404.732286291394810
 20
-128.681038635817770
 40
6.099999427795398
 50
354.601910595264880
 51
95.398072101891515
  0
ARC
  8
0
  6
CONTINUOUS
 62
3
 10
-2.843211304667079
 20
-301.887138276863770
 40
5.000000000000000
 50
0.000000000000000
 51
28.704380115585796
  0
LINE
  8
0
  6
CONTINUOUS
 62
3
 10
2.156788695332921
 20
-287.644022628587550
 11
-1.525468493719814
 21
-279.747396603568060
  0
LINE
  8
0
  6
CONTINUOUS
 62
3
 10
-33.080180922986187
 20
-234.698711866490160
 11
-23.482316232262406
 21
-234.698711866490160
  0
ARC
  8
0
  6
CONTINUOUS
 62
3
 10
-35.711509270844658
 20
-237.698711866490160
 40
2.999999999999923
 50
28.704380115585955
 51
90.000000000000000
  0
ARC
  8
0
  6
CONTINUOUS
 62
3
 10
-27.697527950958488
 20
-238.749525506962190
 40
4.999999999999964
 50
203.855500852148960
 51
253.883837153531400
  0
ARC
  8
0
  6
CONTINUOUS
 62
3
 10
-36.843211304667989
 20
-242.793839539487290
 40
4.999999999999964
 50
23.855500852148985
 51
86.999999999997044
  0
LINE
  8
0
  6
CONTINUOUS
 62
3
 10
-36.581531523453009
 20
-237.800691865714380
 11
-59.343211304670945
 21
-236.607802775627650
  0
LINE
  8
0
  6
CONTINUOUS
 62
3
 10
-3.343223437529446
 20
-275.849208546777730
 11
-21.953117179887045
 21
-235.940162626344550
  0
LINE
  8
0
  6
CONTINUOUS
 62
3
 10
1.542335941763874
 20
-299.485685518777020
 11
-33.080180922986187
 21
-236.257840211638150
  0
LINE
  8
0
  6
CONTINUOUS
 62
3
 10
-59.343211304667079
 20
-236.607802775579100
 11
-59.343211304667079
 21
-119.607802775578870
  0
LINE
  8
0
  6
CONTINUOUS
 62
3
 10
-59.343211304666966
 20
-119.607802775627300
 11
-59.343211304666966
 21
-178.107802775627310
  0
LINE
  8
0
  6
CONTINUOUS
 62
3
 10
-59.343211304666966
 20
-236.607802775627310
 11
-59.343211304666966
 21
-178.107802775627310
  0
LINE
  8
0
  6
CONTINUOUS
 62
3
 10
-59.343211304667079
 20
-236.607802775627310
 11
-59.343211304667079
 21
-178.107802775627310
  0
LINE
  8
0
  6
CONTINUOUS
 62
3
 10
-59.343211304667079
 20
-236.607802775627310
 11
-87.903657526576922
 21
-236.607802775627310
  0
LINE
  8
0
  6
DASHDOT
 62
4
 10
-33.487204281109371
 20
-178.107802775627310
 11
-269.272423843013600
 21
-178.107802775627310
  0
LINE
  8
0
  6
CONTINUOUS
 62
4
 10
-83.893211304668398
 20
-209.858594492001660
 11
-59.343211304667079
 21
-209.858594492001660
  0
LINE
  8
0
  6
CONTINUOUS
 62
4
 10
-83.893211304668398
 20
-213.822339915801190
 11
-59.343211304667079
 21
-213.822339915801190
  0
LINE
  8
0
  6
CONTINUOUS
 62
4
 10
-83.893211304668398
 20
-215.426987831363250
 11
-59.343211304667079
 21
-215.426987831363250
  0
LINE
  8
0
  6
CONTINUOUS
 62
4
 10
-83.893211304668398
 20
-223.473589494097040
 11
-59.343211304667079
 21
-223.473589494097040
  0
LINE
  8
0
  6
CONTINUOUS
 62
4
 10
-83.893211304668398
 20
-228.423336962402800
 11
-59.343211304667079
 21
-228.423336962402800
  0
LINE
  8
0
  6
CONTINUOUS
 62
4
 10
-85.092135857387916
 20
-233.107802775627310
 11
-59.343211304667079
 21
-233.107802775627310
  0
LINE
  8
0
  6
CONTINUOUS
 62
4
 10
-85.669692270233440
 20
-234.107802775627310
 11
-59.343211304667079
 21
-234.107802775627310
  0
LINE
  8
0
  6
CONTINUOUS
 62
4
 10
-86.840780705058478
 20
-235.607802775627310
 11
-59.343211304667079
 21
-235.607802775627310
  0
LINE
  8
0
  6
CONTINUOUS
 62
4
 10
-86.402891709159348
 20
-235.107802775627310
 11
-59.343211304667079
 21
-235.107802775627310
  0
LINE
  8
0
  6
CONTINUOUS
 62
4
 10
-83.893211304668398
 20
-198.107802775627310
 11
-59.343211304667079
 21
-198.107802775627310
  0
LINE
  8
0
  6
CONTINUOUS
 62
4
 10
-83.893211304668398
 20
-204.299736568106940
 11
-59.343211304667079
 21
-204.299736568106940
  0
LINE
  8
0
  6
CONTINUOUS
 62
4
 10
-83.893211304668398
 20
-202.937856232757670
 11
-59.343211304667079
 21
-202.937856232757670
  0
LINE
  8
0
  6
CONTINUOUS
 62
4
 10
-83.893211304668398
 20
-208.390237102196580
 11
-59.343211304667079
 21
-208.390237102196580
  0
LINE
  8
0
  6
CONTINUOUS
 62
3
 10
-59.343211304667079
 20
-119.607802775627300
 11
-59.343211304667079
 21
-178.107802775627310
  0
LINE
  8
0
  6
CONTINUOUS
 62
3
 10
-59.343211304667079
 20
-119.607802775627300
 11
-156.343211304666970
 21
-119.607802775627300
  0
LINE
  8
0
  6
CONTINUOUS
 62
4
 10
-83.893211304668398
 20
-146.357011059252950
 11
-59.343211304667079
 21
-146.357011059252950
  0
LINE
  8
0
  6
CONTINUOUS
 62
4
 10
-84.693081078215869
 20
-142.393265635453420
 11
-59.343211304667079
 21
-142.393265635453420
  0
LINE
  8
0
  6
CONTINUOUS
 62
4
 10
-85.498952008276433
 20
-140.788617719891360
 11
-59.343211304667079
 21
-140.788617719891360
  0
LINE
  8
0
  6
CONTINUOUS
 62
4
 10
-156.343211304666970
 20
-132.742016057157570
 11
-59.343211304667079
 21
-132.742016057157570
  0
LINE
  8
0
  6
CONTINUOUS
 62
4
 10
-156.343211304666970
 20
-127.792268588851810
 11
-59.343211304667079
 21
-127.792268588851810
  0
LINE
  8
0
  6
CONTINUOUS
 62
4
 10
-156.343211304666970
 20
-123.107802775627300
 11
-59.343211304667079
 21
-123.107802775627300
  0
LINE
  8
0
  6
CONTINUOUS
 62
4
 10
-156.343211304666970
 20
-122.107802775627300
 11
-59.343211304667079
 21
-122.107802775627300
  0
LINE
  8
0
  6
CONTINUOUS
 62
4
 10
-156.343211304666970
 20
-120.607802775627300
 11
-59.343211304667079
 21
-120.607802775627300
  0
LINE
  8
0
  6
CONTINUOUS
 62
4
 10
-156.343211304666970
 20
-121.107802775627300
 11
-59.343211304667079
 21
-121.107802775627300
  0
LINE
  8
0
  6
CONTINUOUS
 62
4
 10
-83.893211304668398
 20
-158.107802775627310
 11
-59.343211304667079
 21
-158.107802775627310
  0
LINE
  8
0
  6
CONTINUOUS
 62
4
 10
-83.893211304668398
 20
-151.915868983147670
 11
-59.343211304667079
 21
-151.915868983147670
  0
LINE
  8
0
  6
CONTINUOUS
 62
4
 10
-83.893211304668398
 20
-153.277749318496940
 11
-59.343211304667079
 21
-153.277749318496940
  0
LINE
  8
0
  6
CONTINUOUS
 62
4
 10
-83.893211304668398
 20
-147.825368449058030
 11
-59.343211304667079
 21
-147.825368449058030
  0
INSERT
  8
0
  2
SYM1
 10
2.156788695332921
 20
-272.247413082416190
  0
INSERT
  8
0
  2
SYM1
 10
2.156788695332921
 20
-144.968192468742470
 41
-1.000000000000000
 50
180.000000000000000
  0
LINE
  8
0
  6
CONTINUOUS
 62
3
 10
-59.343211304667079
 20
-236.607802775579100
 11
-59.343211304667079
 21
-119.607802775578870
  0
ARC
  8
0
  6
CONTINUOUS
 62
3
 10
-0.843211304667079
 20
-201.107802775629810
 40
3.000000000000000
 50
0.000000000000000
 51
90.000000000000000
  0
LINE
  8
0
  6
CONTINUOUS
 62
3
 10
-59.343211304667079
 20
-198.107802775630030
 11
-0.843211304667079
 21
-198.107802775629810
  0
INSERT
  8
0
  2
SYM2
 10
15.656788695329169
 20
-76.607802775580240
  0
LINE
  8
0
  6
CONTINUOUS
 62
3
 10
27.418468476547105
 20
-107.912787588683380
 11
12.156789463684845
 21
-108.712618293877310
  0
LINE
  8
0
  6
CONTINUOUS
 62
3
 10
27.418468476547105
 20
-309.407633521041130
 11
12.156788695332807
 21
-308.607802775579330
  0
LINE
  8
0
  6
CONTINUOUS
 62
3
 10
15.656788695329169
 20
-86.607802775580240
 11
15.656788695332807
 21
-28.607802775580240
  0
LINE
  8
0
  6
CONTINUOUS
 62
3
 10
15.656788695329169
 20
-86.607802775580240
 11
20.156788695329169
 21
-86.607802775580240
  0
LINE
  8
0
  6
DASHDOT
 62
4
 10
23.008284514497063
 20
-76.607802775580240
 11
-1.559148129766982
 21
-76.607802775580240
  0
ARC
  8
0
  6
CONTINUOUS
 62
3
 10
-35.343211304667307
 20
-157.607802775627310
 40
5.000000000000000
 50
180.000000000000000
 51
270.000000000000000
  0
ARC
  8
0
  6
CONTINUOUS
 62
3
 10
-2.843211304667079
 20
-157.607802775627310
 40
5.000000000000000
 50
270.000000000000000
 51
0.000000000000000
  0
LINE
  8
0
  6
CONTINUOUS
 62
3
 10
12.156788695332921
 20
-108.607802775627870
 11
12.156788695332921
 21
-208.607802775627870
  0
LINE
  8
0
  6
CONTINUOUS
 62
3
 10
12.156788695332921
 20
-308.607802775627870
 11
12.156788695332921
 21
-208.607802775627870
  0
LINE
  8
0
  6
CONTINUOUS
 62
3
 10
2.156788695332921
 20
-287.644022628587550
 11
2.156788695332921
 21
-305.607802775627870
  0
LINE
  8
0
  6
CONTINUOUS
 62
3
 10
5.156788695332921
 20
-108.607802775627870
 11
12.156788695332921
 21
-108.607802775627870
  0
LINE
  8
0
  6
CONTINUOUS
 62
3
 10
2.156788695332921
 20
-111.607802775627870
 11
2.156788695332921
 21
-114.607802775627300
  0
LINE
  8
0
  6
CONTINUOUS
 62
3
 10
5.156788695332921
 20
-308.607802775627870
 11
12.156788695332921
 21
-308.607802775627870
  0
ARC
  8
0
  6
CONTINUOUS
 62
3
 10
5.156788695332921
 20
-111.607802775627870
 40
3.000000000000000
 50
90.000000000000000
 51
180.000000000000000
  0
ARC
  8
0
  6
CONTINUOUS
 62
3
 10
5.156788695332921
 20
-305.607802775627870
 40
3.000000000000000
 50
180.000000000000000
 51
270.000000000000000
  0
LINE
  8
0
  6
CONTINUOUS
 62
3
 10
-59.343211304667079
 20
-119.607802775627300
 11
-2.343211304667079
 21
-119.607802775627300
  0
ARC
  8
0
  6
CONTINUOUS
 62
3
 10
-2.843211304667079
 20
-114.607802775627300
 40
5.000000000000000
 50
270.000000000000000
 51
0.000000000000000
  0
LINE
  8
0
  6
CONTINUOUS
 62
3
 10
-2.843211304667079
 20
-162.607802775627310
 11
-35.343211304667307
 21
-162.607802775627310
  0
ARC
  8
0
  6
CONTINUOUS
 62
3
 10
5.156788695332921
 20
-114.607802775675620
 40
3.000000000000000
 50
90.000000000000000
 51
180.000000000000000
  0
LINE
  8
0
  6
CONTINUOUS
 62
3
 10
5.156788695332921
 20
-111.607802775675620
 11
12.156788695332921
 21
-111.607802775675620
  0
ARC
  8
0
  6
CONTINUOUS
 62
3
 10
-2.843211304667307
 20
-125.607802775627530
 40
5.000000000000000
 50
270.000000000000000
 51
0.000000000000000
  0
LINE
  8
0
  6
CONTINUOUS
 62
3
 10
-40.343211304667307
 20
-157.607802775627310
 11
-40.343211304667307
 21
-124.607802775627530
  0
ARC
  8
0
  6
CONTINUOUS
 62
3
 10
-35.343211304667307
 20
-125.607802775627530
 40
5.000000000000000
 50
179.999999999997410
 51
270.000000000000000
  0
ARC
  8
0
  6
CONTINUOUS
 62
3
 10
-45.343211304667307
 20
-124.607802775627300
 40
5.000000000000000
 50
359.999999999997390
 51
90.000000000000000
  0
LINE
  8
0
  6
CONTINUOUS
 62
3
 10
-2.843211304667307
 20
-130.607802775627530
 11
-35.343211304667761
 21
-130.607802775627530
  0
LINE
  8
0
  6
CONTINUOUS
 62
3
 10
2.156788695332921
 20
-114.607802775627300
 11
2.156788695332921
 21
-287.644022628587550
  0
LINE
  8
0
  6
DASHDOT
 62
4
 10
-17.843211304667079
 20
-153.803471162880100
 11
-17.843211304667079
 21
-110.649216606501220
  0
LINE
  8
0
  6
CONTINUOUS
 62
3
 10
5.156788695332921
 20
-305.607802775675620
 11
12.156788695332921
 21
-305.607802775675620
  0
ARC
  8
0
  6
CONTINUOUS
 62
3
 10
5.156788695332921
 20
-302.607802775675620
 40
3.000000000000000
 50
180.000000000000000
 51
270.000000000000000
  0
LINE
  8
0
  6
CONTINUOUS
 62
3
 10
-59.343211304667079
 20
-158.107802775630030
 11
-40.318148490200130
 21
-158.107802775630030
  0
LINE
  8
0
  6
CONTINUOUS
 62
3
 10
-156.343211304666970
 20
231.392197224372470
 11
-59.343211304667079
 21
231.392197224372470
  0
LINE
  8
0
  6
CONTINUOUS
 62
3
 10
-156.475419783875170
 20
112.392197224372690
 11
-59.343211304667079
 21
112.392197224372690
  0
LINE
  8
0
  6
CONTINUOUS
 62
4
 10
-156.343211304666970
 20
114.892197224372690
 11
-59.343211304667079
 21
114.892197224372690
  0
LINE
  8
0
  6
CONTINUOUS
 62
4
 10
-156.343211304666970
 20
115.892197224372690
 11
-59.343211304667079
 21
115.892197224372690
  0
LINE
  8
0
  6
CONTINUOUS
 62
4
 10
-156.343211304666970
 20
116.892197224372690
 11
-59.343211304667079
 21
116.892197224372690
  0
LINE
  8
0
  6
CONTINUOUS
 62
4
 10
-156.343211304666970
 20
121.576663037596970
 11
-59.343211304667079
 21
121.576663037596970
  0
LINE
  8
0
  6
CONTINUOUS
 62
4
 10
-156.343211304666970
 20
126.526410505902730
 11
-59.343211304667079
 21
126.526410505902730
  0
LINE
  8
0
  6
CONTINUOUS
 62
4
 10
-156.343211304666970
 20
134.573012168636750
 11
-59.343211304667079
 21
134.573012168636750
  0
LINE
  8
0
  6
CONTINUOUS
 62
4
 10
-156.343211304666970
 20
136.177660084198810
 11
-59.343211304667079
 21
136.177660084198810
  0
LINE
  8
0
  6
CONTINUOUS
 62
4
 10
-156.343211304666970
 20
140.141405507998340
 11
-59.343211304667079
 21
140.141405507998340
  0
LINE
  8
0
  6
CONTINUOUS
 62
4
 10
-156.343211304666970
 20
141.609762897802970
 11
-59.343211304667079
 21
141.609762897802970
  0
LINE
  8
0
  6
CONTINUOUS
 62
4
 10
-156.343211304666970
 20
145.700263431892840
 11
-59.343211304667079
 21
145.700263431892840
  0
LINE
  8
0
  6
CONTINUOUS
 62
4
 10
-156.343211304666970
 20
147.062143767242110
 11
-59.343211304667079
 21
147.062143767242110
  0
LINE
  8
0
  6
CONTINUOUS
 62
4
 10
-156.343211304666970
 20
151.252697498784300
 11
-59.343211304667079
 21
151.252697498784300
  0
LINE
  8
0
  6
CONTINUOUS
 62
4
 10
-156.343211304666970
 20
152.518935414871520
 11
-59.343211304667079
 21
152.518935414871520
  0
LINE
  8
0
  6
CONTINUOUS
 62
4
 10
-156.343211304666970
 20
209.211382280108640
 11
-59.343211304667079
 21
209.211382280108640
  0
LINE
  8
0
  6
CONTINUOUS
 62
4
 10
-156.343211304666970
 20
207.606734364546580
 11
-59.343211304667079
 21
207.606734364546580
  0
LINE
  8
0
  6
CONTINUOUS
 62
4
 10
-156.343211304666970
 20
203.642988940747050
 11
-59.343211304667079
 21
203.642988940747050
  0
LINE
  8
0
  6
CONTINUOUS
 62
4
 10
-156.343211304666970
 20
202.174631550942420
 11
-59.343211304667079
 21
202.174631550942420
  0
LINE
  8
0
  6
CONTINUOUS
 62
4
 10
-156.343211304666970
 20
198.084131016852550
 11
-59.343211304667079
 21
198.084131016852550
  0
LINE
  8
0
  6
CONTINUOUS
 62
4
 10
-156.343211304666970
 20
196.722250681503280
 11
-59.343211304667079
 21
196.722250681503280
  0
LINE
  8
0
  6
CONTINUOUS
 62
4
 10
-156.343211304666970
 20
192.531696949961090
 11
-59.343211304667079
 21
192.531696949961090
  0
LINE
  8
0
  6
CONTINUOUS
 62
4
 10
-156.343211304666970
 20
191.265459033873870
 11
-59.343211304667079
 21
191.265459033873870
  0
LINE
  8
0
  6
CONTINUOUS
 62
4
 10
-156.343211304666970
 20
217.257983942842660
 11
-59.343211304667079
 21
217.257983942842660
  0
LINE
  8
0
  6
CONTINUOUS
 62
4
 10
-156.343211304666970
 20
222.207731411148420
 11
-59.343211304667079
 21
222.207731411148420
  0
LINE
  8
0
  6
CONTINUOUS
 62
4
 10
-156.343211304666970
 20
226.892197224372690
 11
-59.343211304667079
 21
226.892197224372690
  0
LINE
  8
0
  6
CONTINUOUS
 62
4
 10
-156.343211304666970
 20
227.892197224372690
 11
-59.343211304667079
 21
227.892197224372690
  0
LINE
  8
0
  6
CONTINUOUS
 62
4
 10
-156.343211304666970
 20
228.892197224372690
 11
-59.343211304667079
 21
228.892197224372690
  0
LINE
  8
0
  6
CONTINUOUS
 62
3
 10
-89.343211304666966
 20
231.392197224372690
 11
-59.343211304667079
 21
231.392197224372690
  0
LINE
  8
0
  6
DASHDOT
 62
4
 10
288.755949207727330
 20
171.892197224372690
 11
-285.115590575899890
 21
171.892197224372690
  0
LINE
  8
0
  6
CONTINUOUS
 62
3
 10
12.156788695332807
 20
188.892197224374060
 11
12.156788695332580
 21
269.892197224373600
  0
LINE
  8
0
  6
CONTINUOUS
 62
3
 10
12.156788695332807
 20
171.892197224372920
 11
12.156788695332807
 21
175.892197224374060
  0
LINE
  8
0
  6
CONTINUOUS
 62
3
 10
12.156788695332807
 20
154.892197224371780
 11
12.156788695332807
 21
73.892197224372239
  0
LINE
  8
0
  6
CONTINUOUS
 62
3
 10
12.156788695332807
 20
171.892197224372920
 11
12.156788695332807
 21
167.892197224371780
  0
LINE
  8
0
  6
CONTINUOUS
 62
3
 10
26.641861824889702
 20
73.133066708900515
 11
12.156788695332807
 21
73.892197224372239
  0
INSERT
  8
0
  2
SYM2
 10
15.656788695328487
 20
182.392197224374060
 41
-1.000000000000000
 50
180.000000000000030
  0
INSERT
  8
0
  2
SYM2
 10
15.656788695328487
 20
161.392197224371780
  0
LINE
  8
0
  6
CONTINUOUS
 62
3
 10
-3.343191211098596
 20
231.392197224421350
 11
-59.343211304667079
 21
231.392197224421350
  0
LINE
  8
0
  6
CONTINUOUS
 62
3
 10
-3.342695830106492
 20
112.392197224324020
 11
-59.343211304667079
 21
112.392197224324030
  0
LINE
  8
0
  6
CONTINUOUS
 62
3
 10
2.156788695332921
 20
181.828688897524670
 11
7.656789649002803
 21
181.828688897524670
  0
LINE
  8
0
  6
CONTINUOUS
 62
3
 10
2.156788695332921
 20
171.892197224372690
 11
2.156788695332921
 21
266.892197224421810
  0
LINE
  8
0
  6
CONTINUOUS
 62
3
 10
-59.343211304667079
 20
231.392197224421350
 11
-59.343211304667079
 21
171.892197224372690
  0
LINE
  8
0
  6
CONTINUOUS
 62
3
 10
2.156788695332921
 20
161.955705551220720
 11
7.656789649002803
 21
161.955705551220690
  0
LINE
  8
0
  6
CONTINUOUS
 62
3
 10
2.156788695332921
 20
171.892197224372690
 11
2.156788695332921
 21
76.892197224323581
  0
LINE
  8
0
  6
CONTINUOUS
 62
3
 10
-59.343211304667079
 20
112.392197224324030
 11
-59.343211304667079
 21
171.892197224372690
  0
LINE
  8
0
  6
CONTINUOUS
 62
3
 10
12.156788695332921
 20
73.892197224323581
 11
5.156788695332921
 21
73.892197224323581
  0
ARC
  8
0
  6
CONTINUOUS
 62
3
 10
5.156788695332921
 20
76.892197224323581
 40
3.000000000000000
 50
180.000000000000000
 51
270.000000000000000
  0
INSERT
  8
0
  2
SYM3
 10
2.156788695332921
 20
235.531807531209550
 41
-1.000000000000000
 50
180.000000000000000
  0
INSERT
  8
0
  2
SYM1
 10
2.156788695332921
 20
108.252586917535830
  0
ARC
  8
0
  6
CONTINUOUS
 62
3
 10
-45.343211304665942
 20
226.392197224421470
 40
5.000000000000000
 50
0.000000000000000
 51
90.000000000000000
  0
ARC
  8
0
  6
CONTINUOUS
 62
3
 10
-37.343211304665942
 20
189.892197224372810
 40
3.000000000000000
 50
180.000000000000000
 51
270.000000000000000
  0
LINE
  8
0
  6
CONTINUOUS
 62
3
 10
-40.343211304665942
 20
189.892197224372810
 11
-40.343211304665942
 21
226.392197224421470
  0
ARC
  8
0
  6
CONTINUOUS
 62
3
 10
-37.343211304665942
 20
153.892197224372580
 40
3.000000000000000
 50
90.000000000000000
 51
180.000000000000000
  0
ARC
  8
0
  6
CONTINUOUS
 62
3
 10
-45.343211304665942
 20
117.392197224323920
 40
5.000000000000000
 50
270.000000000000000
 51
0.000000000000000
  0
LINE
  8
0
  6
CONTINUOUS
 62
3
 10
-40.343211304665942
 20
153.892197224372580
 11
-40.343211304665942
 21
117.392197224323920
  0
CIRCLE
  8
0
  6
CONTINUOUS
 62
3
 10
-17.843211304667079
 20
171.892197224372810
 40
10.500000000000000
  0
ARC
  8
0
  6
CONTINUOUS
 62
3
 10
-0.843211304667079
 20
189.892197224372690
 40
3.000000000000000
 50
270.000000000000000
 51
0.000000000000000
  0
LINE
  8
0
  6
CONTINUOUS
 62
3
 10
-37.343211304665942
 20
186.892197224372690
 11
-0.843211304667079
 21
186.892197224372690
  0
ARC
  8
0
  6
CONTINUOUS
 62
3
 10
-0.843211304667079
 20
153.892197224372690
 40
3.000000000000000
 50
0.000000000000000
 51
90.000000000000000
  0
LINE
  8
0
  6
CONTINUOUS
 62
3
 10
-37.343211304665942
 20
156.892197224372690
 11
-0.843211304667079
 21
156.892197224372690
  0
LINE
  8
0
  6
DASHDOT
 62
4
 10
-17.843211304667079
 20
158.394166043955920
 11
-17.843211304667079
 21
185.629134684579180
  0
LINE
  8
0
  6
CONTINUOUS
 62
4
 10
-156.343211304666970
 20
186.892197224372690
 11
-37.343211304665942
 21
186.892197224372690
  0
LINE
  8
0
  6
CONTINUOUS
 62
4
 10
-156.343211304666970
 20
156.892197224372690
 11
-37.343211304665942
 21
156.892197224372690
  0
ARC
  8
0
  6
CONTINUOUS
 62
4
 10
-218.559050431204240
 20
-178.107802775627310
 40
289.397000000000160
 50
180.000000000000000
 51
186.051985358668500
  0
ARC
  8
0
  6
CONTINUOUS
 62
4
 10
-491.031951356414770
 20
-206.995832500765570
 40
15.397000000000052
 50
186.051985358668840
 51
225.000000000000000
  0
LINE
  8
0
  6
CONTINUOUS
 62
4
 10
-497.343209073705570
 20
-222.459221003333600
 11
-501.919274466344180
 21
-217.883155610694980
  0
ARC
  8
0
  6
CONTINUOUS
 62
4
 10
-493.100568386586470
 20
-218.216580316214050
 40
6.000000000000049
 50
225.000000000003070
 51
262.102011327574360
  0
ARC
  8
0
  6
CONTINUOUS
 62
4
 10
-454.159050431204150
 20
62.492197224372603
 40
289.396999999999820
 50
262.102011327572200
 51
270.000000000000000
  0
ARC
  8
0
  6
CONTINUOUS
 62
4
 10
-689.759050431204290
 20
-178.107802775627310
 40
289.397000000000160
 50
353.948014641331500
 51
0.000000000000000
  0
ARC
  8
0
  6
CONTINUOUS
 62
4
 10
-417.286149505993760
 20
-206.995832500765570
 40
15.396999999999876
 50
315.000000000000000
 51
353.948014641331160
  0
LINE
  8
0
  6
CONTINUOUS
 62
4
 10
-410.974891788702960
 20
-222.459221003333600
 11
-406.398826396064350
 21
-217.883155610694980
  0
ARC
  8
0
  6
CONTINUOUS
 62
4
 10
-415.217532475822050
 20
-218.216580316214050
 40
5.999999999999923
 50
277.897988672425640
 51
314.999999999996870
  0
ARC
  8
0
  6
CONTINUOUS
 62
4
 10
-454.159050431204380
 20
62.492197224372603
 40
289.396999999999930
 50
270.000000000000000
 51
277.897988672427800
  0
ARC
  8
0
  6
CONTINUOUS
 62
4
 10
-689.759050431204290
 20
-178.107802775627310
 40
289.397000000000160
 50
0.000000000000000
 51
6.051985358668508
  0
ARC
  8
0
  6
CONTINUOUS
 62
4
 10
-417.286149505993760
 20
-149.219773050489040
 40
15.397000000000052
 50
6.051985358668849
 51
45.000000000000000
  0
LINE
  8
0
  6
CONTINUOUS
 62
4
 10
-410.974891788702960
 20
-133.756384547921020
 11
-406.398826396064350
 21
-138.332449940559630
  0
ARC
  8
0
  6
CONTINUOUS
 62
4
 10
-415.217532475822050
 20
-137.999025235040560
 40
6.000000000000049
 50
45.000000000003077
 51
82.102011327574374
  0
ARC
  8
0
  6
CONTINUOUS
 62
4
 10
-454.159050431204380
 20
-418.707802775627210
 40
289.396999999999820
 50
82.102011327572214
 51
90.000000000000000
  0
ARC
  8
0
  6
CONTINUOUS
 62
4
 10
-218.559050431204470
 20
-178.107802775627310
 40
289.396999999999930
 50
173.948014641331470
 51
180.000000000000000
  0
LINE
  8
0
  6
CONTINUOUS
 62
4
 10
-497.343209073705570
 20
-133.756384547921020
 11
-501.919274466344180
 21
-138.332449940559630
  0
ARC
  8
0
  6
CONTINUOUS
 62
4
 10
-491.031951356414770
 20
-149.219773050489040
 40
15.396999999999876
 50
135.000000000000000
 51
173.948014641331160
  0
ARC
  8
0
  6
CONTINUOUS
 62
3
 10
-417.286149505993760
 20
-206.995832500765570
 40
26.599999999999955
 50
315.000000000001020
 51
353.948014641331380
  0
LINE
  8
0
  6
CONTINUOUS
 62
3
 10
-405.543558245090710
 20
-232.871321998987010
 11
-398.477109126431290
 21
-225.804872880327370
  0
ARC
  8
0
  6
CONTINUOUS
 62
3
 10
-689.759050431204290
 20
-178.107802775627310
 40
300.600000000000080
 50
353.948014641331500
 51
6.051985358668499
  0
ARC
  8
0
  6
CONTINUOUS
 62
3
 10
-491.031951356414770
 20
-206.995832500765570
 40
26.599999999999969
 50
186.051985358668590
 51
224.999999999998980
  0
ARC
  8
0
  6
CONTINUOUS
 62
3
 10
-218.559050431204350
 20
-178.107802775627310
 40
300.599999999999970
 50
173.948014641331500
 51
186.051985358668500
  0
LINE
  8
0
  6
CONTINUOUS
 62
3
 10
-502.774542617318050
 20
-232.871321998987010
 11
-509.840991735977240
 21
-225.804872880327370
  0
ARC
  8
0
  6
CONTINUOUS
 62
3
 10
-491.031951356414770
 20
-149.219773050489040
 40
26.600000000000119
 50
135.000000000000000
 51
173.948014641331410
  0
LINE
  8
0
  6
CONTINUOUS
 62
3
 10
-502.774542617318050
 20
-123.344283552267820
 11
-509.840991735977010
 21
-130.410732670926790
  0
ARC
  8
0
  6
CONTINUOUS
 62
3
 10
-417.286149505993990
 20
-149.219773050489040
 40
26.600000000000193
 50
6.051985358668552
 51
45.000000000000000
  0
LINE
  8
0
  6
CONTINUOUS
 62
3
 10
-405.543558245090710
 20
-123.344283552267820
 11
-398.477109126431740
 21
-130.410732670926790
  0
ARC
  8
0
  6
CONTINUOUS
 62
3
 10
-498.107637861486860
 20
-228.204417243155830
 40
6.599999999999957
 50
225.000000000000000
 51
261.402917762751090
  0
ARC
  8
0
  6
CONTINUOUS
 62
3
 10
-454.159050431204380
 20
62.492197224372831
 40
300.600000000000020
 50
261.402917762750920
 51
270.000000000000000
  0
ARC
  8
0
  6
CONTINUOUS
 62
3
 10
-410.210463000921890
 20
-228.204417243155830
 40
6.599999999999747
 50
278.597082237248910
 51
315.000000000000000
  0
ARC
  8
0
  6
CONTINUOUS
 62
3
 10
-454.159050431204380
 20
-418.707802775627210
 40
300.599999999999800
 50
81.402917762750931
 51
90.000000000000000
  0
ARC
  8
0
  6
CONTINUOUS
 62
3
 10
-410.210463000921890
 20
-128.011188308099010
 40
6.600000000000118
 50
45.000000000001400
 51
81.402917762751386
  0
ARC
  8
0
  6
CONTINUOUS
 62
3
 10
-454.159050431204380
 20
62.492197224372831
 40
300.600000000000140
 50
270.000000000000000
 51
278.597082237249080
  0
ARC
  8
0
  6
CONTINUOUS
 62
3
 10
-454.159050431204380
 20
-418.707802775627210
 40
300.599999999999910
 50
90.000000000000000
 51
98.597082237249069
  0
ARC
  8
0
  6
CONTINUOUS
 62
3
 10
-450.159050431204380
 20
-136.801023670981750
 40
1.500000000000203
 50
84.468928475159132
 51
180.000000000000000
  0
ARC
  8
0
  6
CONTINUOUS
 62
3
 10
-458.159050431204380
 20
-136.801023670981520
 40
1.500000000000000
 50
0.000000000000000
 51
95.531071524841693
  0
ARC
  8
0
  6
CONTINUOUS
 62
3
 10
-454.159050431204150
 20
-178.107802775626850
 40
17.999999999999922
 50
41.837004155893325
 51
78.162995844107314
  0
ARC
  8
0
  6
CONTINUOUS
 62
3
 10
-454.159050431204610
 20
-178.107802775626850
 40
27.499999999999815
 50
97.928141766201691
 51
142.071858233797880
  0
LINE
  8
0
  6
CONTINUOUS
 62
3
 10
-451.659050431204380
 20
-136.801023670981750
 11
-451.659050431204380
 21
-139.816158778535740
  0
LINE
  8
0
  6
CONTINUOUS
 62
3
 10
-422.247513977053590
 20
-156.796917267620530
 11
-419.636330378069490
 21
-155.289349713843420
  0
LINE
  8
0
  6
CONTINUOUS
 62
3
 10
-451.659050431204380
 20
-146.358787042852330
 11
-451.659050431204380
 21
-149.384989542936860
  0
ARC
  8
0
  6
CONTINUOUS
 62
3
 10
-450.159050431204380
 20
-146.358787042852330
 40
1.499999999999998
 50
82.819244218541712
 51
180.000000000000000
  0
ARC
  8
0
  6
CONTINUOUS
 62
3
 10
-450.159050431204380
 20
-139.816158778535740
 40
1.500000000000000
 50
180.000000000000000
 51
264.036429881682580
  0
ARC
  8
0
  6
CONTINUOUS
 62
3
 10
-420.386330378069490
 20
-153.990311608166620
 40
1.500000000000123
 50
299.999999999997270
 51
35.531071524839192
  0
ARC
  8
0
  6
CONTINUOUS
 62
3
 10
-454.159050431204830
 20
-178.107802775627310
 40
42.999999999999908
 50
35.531071524839248
 51
84.468928475160212
  0
ARC
  8
0
  6
CONTINUOUS
 62
3
 10
-416.386330378069030
 20
-160.918514838442660
 40
1.500000000000034
 50
24.468928475159590
 51
119.999999999997270
  0
LINE
  8
0
  6
CONTINUOUS
 62
3
 10
-419.747513977053360
 20
-161.127044286542970
 11
-417.136330378069030
 21
-159.619476732765860
  0
ARC
  8
0
  6
CONTINUOUS
 62
3
 10
-418.997513977053360
 20
-162.426082392219770
 40
1.500000000000123
 50
119.999999999997270
 51
204.036429881680680
  0
ARC
  8
0
  6
CONTINUOUS
 62
3
 10
-454.159050431204610
 20
-178.107802775627760
 40
36.999999999999972
 50
335.963570118321740
 51
24.036429881678870
  0
ARC
  8
0
  6
CONTINUOUS
 62
3
 10
-454.159050431204610
 20
-178.107802775627760
 40
42.999999999999936
 50
335.531071524839770
 51
24.468928475160769
  0
ARC
  8
0
  6
CONTINUOUS
 62
3
 10
-416.386330378069030
 20
-195.297090712812180
 40
1.500000000000320
 50
240.000000000007050
 51
335.531071524832500
  0
LINE
  8
0
  6
CONTINUOUS
 62
3
 10
-417.136330378069030
 20
-196.596128818489210
 11
-419.747513977053130
 21
-195.088561264711870
  0
ARC
  8
0
  6
CONTINUOUS
 62
3
 10
-418.997513977053130
 20
-193.789523159035300
 40
1.500000000000063
 50
155.963570118322880
 51
239.999999999998410
  0
ARC
  8
0
  6
CONTINUOUS
 62
3
 10
-420.386330378069030
 20
-202.225293943087990
 40
1.499999999999844
 50
324.468928475167900
 51
59.999999999998380
  0
LINE
  8
0
  6
CONTINUOUS
 62
3
 10
-419.636330378069030
 20
-200.926255837411420
 11
-422.247513977053130
 21
-199.418688283634080
  0
LINE
  8
0
  6
CONTINUOUS
 62
3
 10
-456.659050431204380
 20
-136.801023670981520
 11
-456.659050431204380
 21
-139.816158778535740
  0
ARC
  8
0
  6
CONTINUOUS
 62
3
 10
-458.159050431204380
 20
-139.816158778535740
 40
1.499999999999933
 50
275.963570118318330
 51
0.000000000000000
  0
LINE
  8
0
  6
CONTINUOUS
 62
3
 10
-456.659050431204380
 20
-146.358787042852330
 11
-456.659050431204380
 21
-149.384989542936860
  0
ARC
  8
0
  6
CONTINUOUS
 62
3
 10
-458.159050431204380
 20
-146.358787042852330
 40
1.500000000000000
 50
0.000000000000000
 51
97.180755781458288
  0
ARC
  8
0
  6
CONTINUOUS
 62
3
 10
-454.159050431204830
 20
-178.107802775626850
 40
23.999999999999901
 50
100.240348321185670
 51
139.759651678813550
  0
ARC
  8
0
  6
CONTINUOUS
 62
3
 10
-471.334229700249350
 20
-163.572906247746910
 40
1.499999999999802
 50
139.759651678811420
 51
239.999999999998410
  0
LINE
  8
0
  6
CONTINUOUS
 62
3
 10
-469.437435107270180
 20
-166.400071924169650
 11
-472.084229700249350
 21
-164.871944353423490
  0
ARC
  8
0
  6
CONTINUOUS
 62
3
 10
-468.687435107270180
 20
-165.101033818493080
 40
1.499999999999926
 50
239.999999999998410
 51
318.162995844106720
  0
ARC
  8
0
  6
CONTINUOUS
 62
3
 10
-454.159050431204830
 20
-178.107802775626850
 40
17.999999999999829
 50
101.837004155891980
 51
138.162995844106210
  0
ARC
  8
0
  6
CONTINUOUS
 62
3
 10
-458.159050431204380
 20
-159.022468091634660
 40
1.499999999999954
 50
281.837004155896690
 51
0.000000000000000
  0
LINE
  8
0
  6
CONTINUOUS
 62
3
 10
-456.659050431204380
 20
-155.966212950142340
 11
-456.659050431204380
 21
-159.022468091634660
  0
ARC
  8
0
  6
CONTINUOUS
 62
3
 10
-458.159050431204380
 20
-155.966212950142340
 40
1.500000000000000
 50
0.000000000000000
 51
100.240348321194510
  0
ARC
  8
0
  6
CONTINUOUS
 62
3
 10
-454.159050431204830
 20
-178.107802775626850
 40
14.499999999999980
 50
107.920213139390830
 51
132.079786860607560
  0
ARC
  8
0
  6
CONTINUOUS
 62
3
 10
-462.871193074018950
 20
-168.459042722062580
 40
1.499999999999792
 50
132.079786860611680
 51
239.999999999998410
  0
LINE
  8
0
  6
CONTINUOUS
 62
3
 10
-460.846304364398290
 20
-171.360163571210020
 11
-463.621193074018950
 21
-169.758080827739150
  0
ARC
  8
0
  6
CONTINUOUS
 62
3
 10
-460.096304364398290
 20
-170.061125465533450
 40
1.499999999999926
 50
239.999999999998410
 51
306.421821521797600
  0
ARC
  8
0
  6
CONTINUOUS
 62
3
 10
-454.159050431204830
 20
-178.107802775626850
 40
8.499999999999879
 50
113.578178478199500
 51
126.421821521797340
  0
ARC
  8
0
  6
CONTINUOUS
 62
3
 10
-458.159050431204380
 20
-168.942651385714950
 40
1.500000000000139
 50
293.578178478195700
 51
0.000000000000000
  0
LINE
  8
0
  6
CONTINUOUS
 62
3
 10
-456.659050431204380
 20
-165.738485898773890
 11
-456.659050431204380
 21
-168.942651385714950
  0
ARC
  8
0
  6
CONTINUOUS
 62
3
 10
-458.159050431204380
 20
-165.738485898773890
 40
1.500000000000000
 50
0.000000000000000
 51
107.920213139394770
  0
ARC
  8
0
  6
CONTINUOUS
 62
3
 10
-454.159050431204380
 20
-178.107802775627310
 40
23.999999999999716
 50
280.240348321186270
 51
319.759651678814690
  0
ARC
  8
0
  6
CONTINUOUS
 62
3
 10
-450.159050431204380
 20
-200.249392601111820
 40
1.500000000000000
 50
180.000000000000000
 51
280.240348321187530
  0
LINE
  8
0
  6
CONTINUOUS
 62
3
 10
-451.659050431204380
 20
-197.193137459619490
 11
-451.659050431204380
 21
-200.249392601111820
  0
ARC
  8
0
  6
CONTINUOUS
 62
3
 10
-450.159050431204380
 20
-197.193137459619490
 40
1.499999999999731
 50
101.837004155898450
 51
180.000000000000000
  0
ARC
  8
0
  6
CONTINUOUS
 62
3
 10
-454.159050431204380
 20
-178.107802775627310
 40
18.000000000000146
 50
281.837004155893230
 51
318.162995844107680
  0
ARC
  8
0
  6
CONTINUOUS
 62
3
 10
-439.630665755138580
 20
-191.114571732761080
 40
1.499999999999926
 50
59.999999999998380
 51
138.162995844100240
  0
LINE
  8
0
  6
CONTINUOUS
 62
3
 10
-436.233871162159630
 20
-191.343661197830670
 11
-438.880665755138580
 21
-189.815533627084510
  0
ARC
  8
0
  6
CONTINUOUS
 62
3
 10
-436.983871162159630
 20
-192.642699303507240
 40
1.499999999999828
 50
319.759651678823670
 51
59.999999999998380
  0
ARC
  8
0
  6
CONTINUOUS
 62
3
 10
-454.159050431204380
 20
-178.107802775627310
 40
14.500000000000121
 50
287.920213139392560
 51
312.079786860608860
  0
ARC
  8
0
  6
CONTINUOUS
 62
3
 10
-450.159050431204380
 20
-190.477119652480040
 40
1.500000000000000
 50
180.000000000000000
 51
287.920213139392100
  0
LINE
  8
0
  6
CONTINUOUS
 62
3
 10
-451.659050431204380
 20
-187.272954165538750
 11
-451.659050431204380
 21
-190.477119652480040
  0
ARC
  8
0
  6
CONTINUOUS
 62
3
 10
-450.159050431204380
 20
-187.272954165539200
 40
1.500000000000139
 50
113.578178478195690
 51
179.999999999982630
  0
ARC
  8
0
  6
CONTINUOUS
 62
3
 10
-454.159050431204380
 20
-178.107802775627310
 40
8.500000000000060
 50
293.578178478202350
 51
306.421821521799190
  0
ARC
  8
0
  6
CONTINUOUS
 62
3
 10
-448.221796498010460
 20
-186.154480085720710
 40
1.499999999999926
 50
59.999999999998380
 51
126.421821521801260
  0
LINE
  8
0
  6
CONTINUOUS
 62
3
 10
-444.696907788390040
 20
-186.457524723514550
 11
-447.471796498010460
 21
-184.855441980044130
  0
ARC
  8
0
  6
CONTINUOUS
 62
3
 10
-445.446907788390040
 20
-187.756562829191580
 40
1.499999999999944
 50
312.079786860618130
 51
60.000000000007070
  0
ARC
  8
0
  6
CONTINUOUS
 62
3
 10
-454.159050431204380
 20
-178.107802775627310
 40
23.999999999999844
 50
220.240348321185340
 51
259.759651678813730
  0
ARC
  8
0
  6
CONTINUOUS
 62
3
 10
-458.159050431204380
 20
-200.249392601111820
 40
1.499999999999728
 50
259.759651678812470
 51
0.000000000000000
  0
LINE
  8
0
  6
CONTINUOUS
 62
3
 10
-456.659050431204380
 20
-197.193137459619490
 11
-456.659050431204380
 21
-200.249392601111820
  0
ARC
  8
0
  6
CONTINUOUS
 62
3
 10
-458.159050431204380
 20
-197.193137459619490
 40
1.500000000000000
 50
0.000000000000000
 51
78.162995844101530
  0
ARC
  8
0
  6
CONTINUOUS
 62
3
 10
-454.159050431204380
 20
-178.107802775627310
 40
17.999999999999940
 50
221.837004155892320
 51
258.162995844106770
  0
ARC
  8
0
  6
CONTINUOUS
 62
3
 10
-468.687435107270180
 20
-191.114571732761080
 40
1.500000000000118
 50
41.837004155899741
 51
120.000000000001620
  0
LINE
  8
0
  6
CONTINUOUS
 62
3
 10
-472.084229700249130
 20
-191.343661197830670
 11
-469.437435107270180
 21
-189.815533627084510
  0
ARC
  8
0
  6
CONTINUOUS
 62
3
 10
-471.334229700249130
 20
-192.642699303507240
 40
1.499999999999926
 50
120.000000000001620
 51
220.240348321176330
  0
ARC
  8
0
  6
CONTINUOUS
 62
3
 10
-454.159050431204380
 20
-178.107802775627310
 40
14.500000000000011
 50
227.920213139391080
 51
252.079786860607410
  0
ARC
  8
0
  6
CONTINUOUS
 62
3
 10
-458.159050431204380
 20
-190.477119652480040
 40
1.500000000000355
 50
252.079786860607900
 51
0.000000000000000
  0
LINE
  8
0
  6
CONTINUOUS
 62
3
 10
-456.659050431204380
 20
-187.272954165538750
 11
-456.659050431204380
 21
-190.477119652480040
  0
ARC
  8
0
  6
CONTINUOUS
 62
3
 10
-458.159050431204380
 20
-187.272954165539200
 40
1.500000000000000
 50
0.000000000017370
 51
66.421821521804304
  0
ARC
  8
0
  6
CONTINUOUS
 62
3
 10
-454.159050431204380
 20
-178.107802775627310
 40
8.499999999999870
 50
233.578178478199590
 51
246.421821521797680
  0
ARC
  8
0
  6
CONTINUOUS
 62
3
 10
-460.096304364398290
 20
-186.154480085720710
 40
1.500000000000059
 50
53.578178478205707
 51
120.000000000001620
  0
LINE
  8
0
  6
CONTINUOUS
 62
3
 10
-463.621193074018720
 20
-186.457524723514550
 11
-460.846304364398290
 21
-184.855441980044130
  0
ARC
  8
0
  6
CONTINUOUS
 62
3
 10
-462.871193074018720
 20
-187.756562829191580
 40
1.500000000000320
 50
119.999999999992930
 51
227.920213139381870
  0
ARC
  8
0
  6
CONTINUOUS
 62
3
 10
-454.159050431204830
 20
-178.107802775626850
 40
23.999999999999925
 50
160.240348321185910
 51
199.759651678814090
  0
ARC
  8
0
  6
CONTINUOUS
 62
3
 10
-475.334229700249350
 20
-170.501109478022270
 40
1.499999999999926
 50
59.999999999998380
 51
160.240348321185250
  0
LINE
  8
0
  6
CONTINUOUS
 62
3
 10
-471.937435107270180
 20
-170.730198943091860
 11
-474.584229700249350
 21
-169.202071372345700
  0
ARC
  8
0
  6
CONTINUOUS
 62
3
 10
-472.687435107270180
 20
-172.029237048768440
 40
1.500000000000038
 50
341.837004155895390
 51
59.999999999998380
  0
ARC
  8
0
  6
CONTINUOUS
 62
3
 10
-454.159050431204830
 20
-178.107802775626850
 40
17.999999999999726
 50
161.837004155893140
 51
198.162995844106860
  0
ARC
  8
0
  6
CONTINUOUS
 62
3
 10
-472.687435107270180
 20
-184.186368502485270
 40
1.500000000000320
 50
299.999999999992950
 51
18.162995844104589
  0
LINE
  8
0
  6
CONTINUOUS
 62
3
 10
-474.584229700249130
 20
-187.013534178908000
 11
-471.937435107270180
 21
-185.485406608162290
  0
ARC
  8
0
  6
CONTINUOUS
 62
3
 10
-475.334229700249130
 20
-185.714496073231430
 40
1.500000000000246
 50
199.759651678811820
 51
300.000000000001590
  0
ARC
  8
0
  6
CONTINUOUS
 62
3
 10
-454.159050431204830
 20
-178.107802775626850
 40
14.499999999999851
 50
167.920213139392840
 51
192.079786860608920
  0
ARC
  8
0
  6
CONTINUOUS
 62
3
 10
-466.871193074018950
 20
-175.387245952337930
 40
1.499999999999926
 50
59.999999999998380
 51
167.920213139405550
  0
LINE
  8
0
  6
CONTINUOUS
 62
3
 10
-463.346304364398290
 20
-175.690290590132240
 11
-466.121193074018950
 21
-174.088207846661360
  0
ARC
  8
0
  6
CONTINUOUS
 62
3
 10
-464.096304364398290
 20
-176.989328695808810
 40
1.499999999999873
 50
353.578178478198030
 51
59.999999999998380
  0
ARC
  8
0
  6
CONTINUOUS
 62
3
 10
-454.159050431204830
 20
-178.107802775626850
 40
8.499999999999813
 50
173.578178478202550
 51
186.421821521800500
  0
ARC
  8
0
  6
CONTINUOUS
 62
3
 10
-464.096304364398290
 20
-179.226276855445350
 40
1.499999999999926
 50
300.000000000001590
 51
6.421821521801967
  0
LINE
  8
0
  6
CONTINUOUS
 62
3
 10
-466.121193074018720
 20
-182.127397704592340
 11
-463.346304364398290
 21
-180.525314961121920
  0
ARC
  8
0
  6
CONTINUOUS
 62
3
 10
-466.871193074018720
 20
-180.828359598915770
 40
1.500000000000287
 50
192.079786860609600
 51
300.000000000001590
  0
ARC
  8
0
  6
CONTINUOUS
 62
3
 10
-454.159050431204150
 20
-178.107802775626850
 40
24.000000000000139
 50
340.240348321186050
 51
19.759651678813924
  0
ARC
  8
0
  6
CONTINUOUS
 62
3
 10
-432.983871162159630
 20
-170.501109478022270
 40
1.500000000000246
 50
19.759651678811824
 51
120.000000000001620
  0
LINE
  8
0
  6
CONTINUOUS
 62
3
 10
-436.380665755138580
 20
-170.730198943091860
 11
-433.733871162159630
 21
-169.202071372345700
  0
ARC
  8
0
  6
CONTINUOUS
 62
3
 10
-435.630665755138580
 20
-172.029237048768440
 40
1.499999999999926
 50
120.000000000001620
 51
198.162995844104590
  0
ARC
  8
0
  6
CONTINUOUS
 62
3
 10
-454.159050431204150
 20
-178.107802775626850
 40
17.999999999999943
 50
341.837004155893340
 51
18.162995844106646
  0
ARC
  8
0
  6
CONTINUOUS
 62
3
 10
-435.630665755138580
 20
-184.186368502485270
 40
1.500000000000038
 50
161.837004155895410
 51
240.000000000007050
  0
LINE
  8
0
  6
CONTINUOUS
 62
3
 10
-433.733871162159630
 20
-187.013534178908000
 11
-436.380665755138580
 21
-185.485406608162290
  0
ARC
  8
0
  6
CONTINUOUS
 62
3
 10
-432.983871162159630
 20
-185.714496073231430
 40
1.499999999999926
 50
239.999999999998410
 51
340.240348321188210
  0
ARC
  8
0
  6
CONTINUOUS
 62
3
 10
-454.159050431204150
 20
-178.107802775626850
 40
14.500000000000169
 50
347.920213139391310
 51
12.079786860606980
  0
ARC
  8
0
  6
CONTINUOUS
 62
3
 10
-441.446907788390040
 20
-175.387245952337930
 40
1.500000000000192
 50
12.079786860592611
 51
120.000000000001620
  0
LINE
  8
0
  6
CONTINUOUS
 62
3
 10
-444.971796498010460
 20
-175.690290590132240
 11
-442.196907788390040
 21
-174.088207846661360
  0
ARC
  8
0
  6
CONTINUOUS
 62
3
 10
-444.221796498010460
 20
-176.989328695808810
 40
1.499999999999926
 50
120.000000000001620
 51
186.421821521801010
  0
ARC
  8
0
  6
CONTINUOUS
 62
3
 10
-454.159050431204150
 20
-178.107802775626850
 40
8.499999999999865
 50
353.578178478199500
 51
6.421821521797448
  0
ARC
  8
0
  6
CONTINUOUS
 62
3
 10
-444.221796498010460
 20
-179.226276855445350
 40
1.500000000000099
 50
173.578178478198990
 51
239.999999999998410
  0
LINE
  8
0
  6
CONTINUOUS
 62
3
 10
-442.196907788390040
 20
-182.127397704592340
 11
-444.971796498010460
 21
-180.525314961121920
  0
ARC
  8
0
  6
CONTINUOUS
 62
3
 10
-441.446907788390040
 20
-180.828359598915770
 40
1.499999999999926
 50
239.999999999998410
 51
347.920213139390400
  0
ARC
  8
0
  6
CONTINUOUS
 62
3
 10
-454.159050431204150
 20
-178.107802775626850
 40
8.500000000000101
 50
53.578178478202659
 51
66.421821521799089
  0
ARC
  8
0
  6
CONTINUOUS
 62
3
 10
-454.159050431204150
 20
-178.107802775626850
 40
23.999999999999819
 50
40.240348321186090
 51
79.759651678814322
  0
LINE
  8
0
  6
CONTINUOUS
 62
3
 10
-447.471796498010460
 20
-171.360163571210020
 11
-444.696907788390040
 21
-169.758080827739150
  0
LINE
  8
0
  6
CONTINUOUS
 62
3
 10
-451.659050431204380
 20
-155.966212950142340
 11
-451.659050431204380
 21
-159.022468091634660
  0
LINE
  8
0
  6
CONTINUOUS
 62
3
 10
-451.659050431204380
 20
-165.738485898773890
 11
-451.659050431204380
 21
-168.942651385714950
  0
ARC
  8
0
  6
CONTINUOUS
 62
3
 10
-454.159050431204150
 20
-178.107802775626850
 40
14.499999999999860
 50
47.920213139391755
 51
72.079786860608309
  0
LINE
  8
0
  6
CONTINUOUS
 62
3
 10
-438.880665755138580
 20
-166.400071924169650
 11
-436.233871162159630
 21
-164.871944353423490
  0
ARC
  8
0
  6
CONTINUOUS
 62
3
 10
-445.446907788390040
 20
-168.459042722062580
 40
1.499999999999926
 50
300.000000000001590
 51
47.920213139381872
  0
ARC
  8
0
  6
CONTINUOUS
 62
3
 10
-450.159050431204380
 20
-155.966212950142340
 40
1.499999999999952
 50
79.759651678814024
 51
180.000000000000000
  0
ARC
  8
0
  6
CONTINUOUS
 62
3
 10
-439.630665755138580
 20
-165.101033818493080
 40
1.499999999999967
 50
221.837004155893280
 51
300.000000000001590
  0
ARC
  8
0
  6
CONTINUOUS
 62
3
 10
-450.159050431204380
 20
-159.022468091634660
 40
1.500000000000000
 50
180.000000000000000
 51
258.162995844103310
  0
ARC
  8
0
  6
CONTINUOUS
 62
3
 10
-450.159050431204380
 20
-165.738485898773890
 40
1.500000000000138
 50
72.079786860605225
 51
180.000000000000000
  0
ARC
  8
0
  6
CONTINUOUS
 62
3
 10
-436.983871162159630
 20
-163.572906247746910
 40
1.499999999999926
 50
300.000000000001590
 51
40.240348321182964
  0
ARC
  8
0
  6
CONTINUOUS
 62
3
 10
-450.159050431204380
 20
-168.942651385714950
 40
1.500000000000000
 50
180.000000000000000
 51
246.421821521804280
  0
ARC
  8
0
  6
CONTINUOUS
 62
3
 10
-448.221796498010460
 20
-170.061125465533450
 40
1.499999999999693
 50
233.578178478195410
 51
300.000000000001590
  0
CIRCLE
  8
0
  6
CONTINUOUS
 62
3
 10
-454.159050431204380
 20
-178.107802775626850
 40
5.000000000000000
  0
ARC
  8
0
  6
CONTINUOUS
 62
3
 10
-431.284364503538650
 20
-160.282294544144180
 40
1.499999999999843
 50
217.928141766204990
 51
300.000000000001590
  0
LINE
  8
0
  6
CONTINUOUS
 62
3
 10
-430.534364503538650
 20
-161.581332649820750
 11
-427.913596261469820
 21
-160.068231399778600
  0
ARC
  8
0
  6
CONTINUOUS
 62
3
 10
-450.159050431204380
 20
-149.384989542936860
 40
1.500000000000000
 50
180.000000000000000
 51
262.071858233795980
  0
ARC
  8
0
  6
CONTINUOUS
 62
3
 10
-454.159050431204150
 20
-178.107802775626850
 40
27.500000000000060
 50
37.928141766201819
 51
82.071858233798309
  0
ARC
  8
0
  6
CONTINUOUS
 62
3
 10
-428.663596261469820
 20
-158.769193294102020
 40
1.499999999999926
 50
300.000000000001590
 51
37.180755781457485
  0
ARC
  8
0
  6
CONTINUOUS
 62
3
 10
-422.997513977053590
 20
-155.497879161943730
 40
1.500000000000102
 50
215.963570118316280
 51
299.999999999997270
  0
ARC
  8
0
  6
CONTINUOUS
 62
3
 10
-454.159050431204830
 20
-178.107802775627310
 40
36.999999999999943
 50
35.963570118321194
 51
84.036429881678174
  0
ARC
  8
0
  6
CONTINUOUS
 62
3
 10
-454.159050431204830
 20
-178.107802775627310
 40
33.500000000000071
 50
37.180755781458259
 51
82.819244218540931
  0
LINE
  8
0
  6
CONTINUOUS
 62
3
 10
-428.034364503538430
 20
-165.911459668743420
 11
-425.413596261469590
 21
-164.398358418701260
  0
ARC
  8
0
  6
CONTINUOUS
 62
3
 10
-424.663596261469590
 20
-165.697396524378060
 40
1.499999999999948
 50
22.819244218550043
 51
119.999999999997270
  0
ARC
  8
0
  6
CONTINUOUS
 62
3
 10
-427.284364503538430
 20
-167.210497774419990
 40
1.499999999999926
 50
120.000000000001620
 51
202.071858233797370
  0
ARC
  8
0
  6
CONTINUOUS
 62
3
 10
-454.159050431203920
 20
-178.107802775627310
 40
27.499999999999886
 50
337.928141766202200
 51
22.071858233797812
  0
ARC
  8
0
  6
CONTINUOUS
 62
3
 10
-454.159050431204610
 20
-178.107802775627760
 40
33.500000000000128
 50
337.180755781459030
 51
22.819244218541968
  0
ARC
  8
0
  6
CONTINUOUS
 62
3
 10
-427.284364503538650
 20
-189.005107776834620
 40
1.499999999999899
 50
157.928141766199360
 51
240.000000000007050
  0
LINE
  8
0
  6
CONTINUOUS
 62
3
 10
-425.413596261469370
 20
-191.817247132553580
 11
-428.034364503538650
 21
-190.304145882511650
  0
ARC
  8
0
  6
CONTINUOUS
 62
3
 10
-424.663596261469370
 20
-190.518209026877000
 40
1.499999999999926
 50
239.999999999998410
 51
337.180755781453340
  0
ARC
  8
0
  6
CONTINUOUS
 62
3
 10
-450.159050431204150
 20
-219.414581880272410
 40
1.500000000000000
 50
180.000000000000000
 51
275.531071524831360
  0
LINE
  8
0
  6
CONTINUOUS
 62
3
 10
-451.659050431204150
 20
-216.399446772718190
 11
-451.659050431204150
 21
-219.414581880272410
  0
LINE
  8
0
  6
CONTINUOUS
 62
3
 10
-451.659050431204150
 20
-206.830616008317750
 11
-451.659050431204150
 21
-209.856818508402060
  0
ARC
  8
0
  6
CONTINUOUS
 62
3
 10
-450.159050431204150
 20
-216.399446772718650
 40
1.500000000000182
 50
95.963570118326047
 51
179.999999999982630
  0
ARC
  8
0
  6
CONTINUOUS
 62
3
 10
-450.159050431204150
 20
-209.856818508402060
 40
1.500000000000000
 50
180.000000000000000
 51
277.180755781458290
  0
ARC
  8
0
  6
CONTINUOUS
 62
3
 10
-450.159050431204150
 20
-206.830616008317750
 40
1.499999999999967
 50
97.928141766195438
 51
180.000000000000000
  0
ARC
  8
0
  6
CONTINUOUS
 62
3
 10
-454.159050431204150
 20
-178.107802775627760
 40
27.499999999999879
 50
277.928141766202600
 51
322.071858233798930
  0
ARC
  8
0
  6
CONTINUOUS
 62
3
 10
-454.159050431204150
 20
-178.107802775626850
 40
37.000000000000028
 50
275.963570118320770
 51
324.036429881678030
  0
ARC
  8
0
  6
CONTINUOUS
 62
3
 10
-454.159050431204150
 20
-178.107802775626850
 40
43.000000000000199
 50
275.531071524838860
 51
324.468928475160340
  0
ARC
  8
0
  6
CONTINUOUS
 62
3
 10
-454.159050431204150
 20
-178.107802775626850
 40
33.500000000000114
 50
277.180755781458230
 51
322.819244218540860
  0
ARC
  8
0
  6
CONTINUOUS
 62
3
 10
-431.284364503538650
 20
-195.933311007110430
 40
1.500000000000320
 50
60.000000000007070
 51
142.071858233781280
  0
ARC
  8
0
  6
CONTINUOUS
 62
3
 10
-422.997513977053130
 20
-200.717726389310660
 40
1.499999999999926
 50
59.999999999998380
 51
144.036429881690740
  0
LINE
  8
0
  6
CONTINUOUS
 62
3
 10
-427.913596261469370
 20
-196.147374151475790
 11
-430.534364503538650
 21
-194.634272901433410
  0
ARC
  8
0
  6
CONTINUOUS
 62
3
 10
-428.663596261469370
 20
-197.446412257152360
 40
1.500000000000240
 50
322.819244218535570
 51
59.999999999998380
  0
ARC
  8
0
  6
CONTINUOUS
 62
3
 10
-458.159050431204610
 20
-219.414581880272410
 40
1.500000000000430
 50
264.468928475160000
 51
0.000000000000000
  0
LINE
  8
0
  6
CONTINUOUS
 62
3
 10
-456.659050431204610
 20
-216.399446772718190
 11
-456.659050431204610
 21
-219.414581880272410
  0
LINE
  8
0
  6
CONTINUOUS
 62
3
 10
-456.659050431204610
 20
-206.830616008317750
 11
-456.659050431204610
 21
-209.856818508402060
  0
ARC
  8
0
  6
CONTINUOUS
 62
3
 10
-458.159050431204610
 20
-216.399446772718650
 40
1.500000000000000
 50
0.000000000017370
 51
84.036429881682594
  0
ARC
  8
0
  6
CONTINUOUS
 62
3
 10
-458.159050431204610
 20
-209.856818508402060
 40
1.499999999999998
 50
262.819244218541710
 51
0.000000000000000
  0
ARC
  8
0
  6
CONTINUOUS
 62
3
 10
-458.159050431204610
 20
-206.830616008317750
 40
1.500000000000000
 50
0.000000000000000
 51
82.071858233804562
  0
ARC
  8
0
  6
CONTINUOUS
 62
3
 10
-454.159050431204610
 20
-178.107802775627760
 40
27.499999999999780
 50
217.928141766201070
 51
262.071858233797400
  0
ARC
  8
0
  6
CONTINUOUS
 62
3
 10
-454.159050431204610
 20
-178.107802775626850
 40
37.000000000000021
 50
215.963570118321970
 51
264.036429881678940
  0
ARC
  8
0
  6
CONTINUOUS
 62
3
 10
-454.159050431204610
 20
-178.107802775626850
 40
42.999999999999858
 50
215.531071524839690
 51
264.468928475160850
  0
ARC
  8
0
  6
CONTINUOUS
 62
3
 10
-454.159050431204610
 20
-178.107802775626850
 40
33.500000000000163
 50
217.180755781459110
 51
262.819244218541770
  0
ARC
  8
0
  6
CONTINUOUS
 62
3
 10
-477.033736358870100
 20
-195.933311007110430
 40
1.500000000000122
 50
37.928141766218701
 51
119.999999999992930
  0
ARC
  8
0
  6
CONTINUOUS
 62
3
 10
-487.931770484339720
 20
-202.225293943087990
 40
1.499999999999926
 50
120.000000000001620
 51
215.531071524832130
  0
LINE
  8
0
  6
CONTINUOUS
 62
3
 10
-488.681770484339720
 20
-200.926255837411420
 11
-486.070586885355620
 21
-199.418688283634080
  0
ARC
  8
0
  6
CONTINUOUS
 62
3
 10
-485.320586885355620
 20
-200.717726389310660
 40
1.499999999999968
 50
35.963570118309242
 51
120.000000000001620
  0
LINE
  8
0
  6
CONTINUOUS
 62
3
 10
-480.404504600939390
 20
-196.147374151475790
 11
-477.783736358870100
 21
-194.634272901433410
  0
ARC
  8
0
  6
CONTINUOUS
 62
3
 10
-479.654504600939390
 20
-197.446412257152360
 40
1.499999999999926
 50
120.000000000001620
 51
217.180755781464400
  0
ARC
  8
0
  6
CONTINUOUS
 62
3
 10
-491.931770484339720
 20
-160.918514838442660
 40
1.499999999999926
 50
59.999999999998380
 51
155.531071524840400
  0
LINE
  8
0
  6
CONTINUOUS
 62
3
 10
-488.570586885355170
 20
-161.127044286543200
 11
-491.181770484339720
 21
-159.619476732766090
  0
LINE
  8
0
  6
CONTINUOUS
 62
3
 10
-480.283736358870330
 20
-165.911459668743420
 11
-482.904504600939160
 21
-164.398358418701260
  0
ARC
  8
0
  6
CONTINUOUS
 62
3
 10
-489.320586885355400
 20
-162.426082392219770
 40
1.499999999999855
 50
335.963570118319300
 51
59.999999999990862
  0
ARC
  8
0
  6
CONTINUOUS
 62
3
 10
-483.654504600939160
 20
-165.697396524378060
 40
1.500000000000123
 50
60.000000000002721
 51
157.180755781457980
  0
ARC
  8
0
  6
CONTINUOUS
 62
3
 10
-481.033736358870330
 20
-167.210497774419990
 40
1.500000000000110
 50
337.928141766202600
 51
59.999999999998380
  0
ARC
  8
0
  6
CONTINUOUS
 62
3
 10
-454.159050431204830
 20
-178.107802775627310
 40
27.499999999999886
 50
157.928141766202200
 51
202.071858233798680
  0
ARC
  8
0
  6
CONTINUOUS
 62
3
 10
-454.159050431204150
 20
-178.107802775627760
 40
37.000000000000156
 50
155.963570118321120
 51
204.036429881678230
  0
ARC
  8
0
  6
CONTINUOUS
 62
3
 10
-454.159050431204150
 20
-178.107802775627760
 40
43.000000000000121
 50
155.531071524839230
 51
204.468928475160200
  0
ARC
  8
0
  6
CONTINUOUS
 62
3
 10
-454.159050431204150
 20
-178.107802775627760
 40
33.499999999999794
 50
157.180755781458400
 51
202.819244218540940
  0
ARC
  8
0
  6
CONTINUOUS
 62
3
 10
-481.033736358870100
 20
-189.005107776834620
 40
1.500000000000320
 50
299.999999999992950
 51
22.071858233784546
  0
ARC
  8
0
  6
CONTINUOUS
 62
3
 10
-491.931770484339720
 20
-195.297090712812180
 40
1.500000000000128
 50
204.468928475167470
 51
299.999999999992950
  0
LINE
  8
0
  6
CONTINUOUS
 62
3
 10
-491.181770484339720
 20
-196.596128818489210
 11
-488.570586885355620
 21
-195.088561264711870
  0
ARC
  8
0
  6
CONTINUOUS
 62
3
 10
-489.320586885355620
 20
-193.789523159035300
 40
1.499999999999926
 50
300.000000000001590
 51
24.036429881677126
  0
LINE
  8
0
  6
CONTINUOUS
 62
3
 10
-482.904504600939390
 20
-191.817247132553580
 11
-480.283736358870100
 21
-190.304145882511650
  0
ARC
  8
0
  6
CONTINUOUS
 62
3
 10
-483.654504600939390
 20
-190.518209026877000
 40
1.500000000000157
 50
202.819244218546660
 51
300.000000000001590
  0
ARC
  8
0
  6
CONTINUOUS
 62
3
 10
-487.931770484339270
 20
-153.990311608166620
 40
1.499999999999976
 50
144.468928475160790
 51
240.000000000002730
  0
LINE
  8
0
  6
CONTINUOUS
 62
3
 10
-486.070586885355170
 20
-156.796917267620530
 11
-488.681770484339270
 21
-155.289349713843420
  0
LINE
  8
0
  6
CONTINUOUS
 62
3
 10
-477.783736358870100
 20
-161.581332649820750
 11
-480.404504600938940
 21
-160.068231399778600
  0
ARC
  8
0
  6
CONTINUOUS
 62
3
 10
-485.320586885355170
 20
-155.497879161943730
 40
1.500000000000123
 50
240.000000000002730
 51
324.036429881683720
  0
ARC
  8
0
  6
CONTINUOUS
 62
3
 10
-479.654504600938940
 20
-158.769193294102020
 40
1.500000000000103
 50
142.819244218542510
 51
239.999999999998410
  0
ARC
  8
0
  6
CONTINUOUS
 62
3
 10
-477.033736358870100
 20
-160.282294544144180
 40
1.499999999999926
 50
239.999999999998410
 51
322.071858233800300
  0
ARC
  8
0
  6
CONTINUOUS
 62
3
 10
-454.159050431203920
 20
-178.107802775627310
 40
37.000000000000099
 50
95.963570118321798
 51
144.036429881678830
  0
ARC
  8
0
  6
CONTINUOUS
 62
3
 10
-454.159050431203920
 20
-178.107802775627310
 40
43.000000000000043
 50
95.531071524839788
 51
144.468928475160770
  0
ARC
  8
0
  6
CONTINUOUS
 62
3
 10
-454.159050431203920
 20
-178.107802775627310
 40
33.499999999999950
 50
97.180755781459069
 51
142.819244218541740
  0
ARC
  8
0
  6
CONTINUOUS
 62
3
 10
-458.159050431204380
 20
-149.384989542936860
 40
1.499999999999998
 50
277.928141766204020
 51
0.000000000000000
  0
ARC
  8
0
  6
CONTINUOUS
 62
3
 10
-498.107637861486860
 20
-128.011188308099010
 40
6.599999999999971
 50
98.597082237248614
 51
134.999999999998610
  0
ARC
  8
0
  6
CONTINUOUS
 62
4
 10
-493.100568386586470
 20
-137.999025235040560
 40
5.999999999999923
 50
97.897988672425626
 51
134.999999999996930
  0
ARC
  8
0
  6
CONTINUOUS
 62
4
 10
-454.159050431204380
 20
-418.707802775627210
 40
289.396999999999930
 50
90.000000000000000
 51
97.897988672427743
  0
LINE
  8
0
  6
CONTINUOUS
 62
3
 10
-390.659050431204380
 20
-210.712546461904030
 11
-387.632873482896460
 21
-210.633303229681130
  0
ARC
  8
0
  6
CONTINUOUS
 62
3
 10
-387.659050431204380
 20
-209.633645904705650
 40
0.999999999999931
 50
271.500000000002790
 51
0.000000000000000
  0
ARC
  8
0
  6
CONTINUOUS
 62
3
 10
-387.659050431204380
 20
-146.581959646548970
 40
1.000000000000000
 50
0.000000000000000
 51
88.499999999997186
  0
LINE
  8
0
  6
CONTINUOUS
 62
3
 10
-386.659050431204380
 20
-209.633645904705650
 11
-386.659050431204380
 21
-146.581959646548970
  0
LINE
  8
0
  6
CONTINUOUS
 62
3
 10
-390.659050431204380
 20
-145.503059089350590
 11
-387.632873482896460
 21
-145.582302321573480
  0
LINE
  8
0
  6
CONTINUOUS
 62
3
 10
-390.659050431204380
 20
-148.115303713360500
 11
-390.659050431204380
 21
-145.503059089350590
  0
LINE
  8
0
  6
CONTINUOUS
 62
3
 10
-390.659050431204380
 20
-208.100301837894110
 11
-390.659050431204380
 21
-210.712546461904030
  0
LINE
  8
0
  6
CONTINUOUS
 62
3
 10
-386.659050431204380
 20
-178.107802775627310
 11
-386.659050431204380
 21
-147.107802775627310
  0
LINE
  8
0
  6
CONTINUOUS
 62
3
 10
-386.659050431204380
 20
-178.107802775627310
 11
-386.659050431204380
 21
-209.107802775627310
  0
ARC
  8
0
  6
CONTINUOUS
 62
3
 10
-381.388950446988930
 20
-136.531477235739890
 40
1.000000000000041
 50
24.000000000003585
 51
113.999999999979760
  0
LINE
  8
0
  6
CONTINUOUS
 62
4
 10
-340.731109401584260
 20
-234.734544710878710
 11
-344.568000323683240
 21
-236.442838611797010
  0
LINE
  8
0
  6
CONTINUOUS
 62
4
 10
-342.073340323734780
 20
-231.719844700658090
 11
-345.910231245833530
 21
-233.428138601576390
  0
LINE
  8
0
  6
CONTINUOUS
 62
3
 10
-345.732848160735100
 20
-232.966039866324990
 11
-345.910231245833530
 21
-233.428138601576390
  0
LINE
  8
0
  6
CONTINUOUS
 62
3
 10
-344.105901588432060
 20
-236.620221696894990
 11
-344.568000323683460
 21
-236.442838611796560
  0
LINE
  8
0
  6
CONTINUOUS
 62
3
 10
-345.910231245833530
 20
-233.428138601576390
 11
-344.568000323683460
 21
-236.442838611796560
  0
POINT
  8
0
  6
CONTINUOUS
 62
3
 10
-337.930752123617590
 20
-231.681595462080170
  0
LINE
  8
0
  6
CONTINUOUS
 62
3
 10
-339.354330374383150
 20
-228.484186360331020
 11
-336.507173872852260
 21
-234.879004563829310
  0
LINE
  8
0
  6
CONTINUOUS
 62
3
 10
-339.354330374383150
 20
-228.484186360331020
 11
-336.507173872852260
 21
-234.879004563829310
  0
LINE
  8
0
  6
CONTINUOUS
 62
3
 10
-336.507173872852260
 20
-234.879004563829310
 11
-335.612789753175780
 21
-234.480799098064840
  0
LINE
  8
0
  6
CONTINUOUS
 62
3
 10
-339.354330374383150
 20
-228.484186360331020
 11
-338.459946254706670
 21
-228.085980894566770
  0
ARC
  8
0
  6
CONTINUOUS
 62
3
 10
-337.931188929023620
 20
-229.273589292522270
 40
1.299999237060495
 50
40.601531107483851
 51
114.000000683246080
  0
LINE
  8
0
  6
CONTINUOUS
 62
3
 10
-383.599621432051660
 20
-138.450290247906200
 11
-384.024453591797740
 21
-139.451132096521630
  0
LINE
  8
0
  6
CONTINUOUS
 62
3
 10
-383.154707686841680
 20
-139.449582880863550
 11
-383.288049709035700
 21
-139.763716999312920
  0
LINE
  8
0
  6
CONTINUOUS
 62
3
 10
-384.024453591797740
 20
-139.451132096521630
 11
-383.288049709035700
 21
-139.763716999312920
  0
LINE
  8
0
  6
CONTINUOUS
 62
3
 10
-380.475404989346320
 20
-136.124740592664010
 11
-361.783341408397520
 21
-178.107802775627310
  0
ARC
  8
0
  6
CONTINUOUS
 62
3
 10
-375.952489167550990
 20
-138.907595846966390
 40
3.000000000000030
 50
203.999999999999630
 51
260.681876880317470
  0
LINE
  8
0
  6
CONTINUOUS
 62
3
 10
-376.438237057989680
 20
-141.868009498288530
 11
-350.482599964453580
 21
-146.126838651281560
  0
ARC
  8
0
  6
CONTINUOUS
 62
3
 10
-352.911339416645210
 20
-160.928906907892500
 40
15.000000000000393
 50
1.682768801133086
 51
80.681876880324481
  0
ARC
  8
0
  6
CONTINUOUS
 62
3
 10
-937.659050431204380
 20
-178.107802775627530
 40
600.000000000000910
 50
355.284875165908370
 51
1.682768801133149
  0
ARC
  8
0
  6
CONTINUOUS
 62
3
 10
-338.693001438892680
 20
-227.510962133513890
 40
0.999999999999983
 50
175.284875165916760
 51
204.000000000003580
  0
LINE
  8
0
  6
CONTINUOUS
 62
3
 10
-381.795687090064350
 20
-135.617931778097270
 11
-384.353614371463660
 21
-136.756794378709400
  0
LINE
  8
0
  6
CONTINUOUS
 62
3
 10
-382.075889170243950
 20
-141.872648941510310
 11
-383.879260360430640
 21
-142.675561525640430
  0
ARC
  8
0
  6
CONTINUOUS
 62
3
 10
-382.659050431204380
 20
-145.416197898568270
 40
2.999999999999567
 50
113.999999999979760
 51
180.000000000000000
  0
LINE
  8
0
  6
CONTINUOUS
 62
3
 10
-386.659050431204380
 20
-147.107802775627310
 11
-385.659050431204380
 21
-147.107802775627310
  0
ARC
  8
0
  6
CONTINUOUS
 62
3
 10
-380.659050431204380
 20
-219.607802775627310
 40
5.000000000000000
 50
180.000000000000000
 51
270.000000000000000
  0
LINE
  8
0
  6
CONTINUOUS
 62
3
 10
-380.659050431204380
 20
-224.607802775627310
 11
-345.239825399875600
 21
-224.607802775627310
  0
LINE
  8
0
  6
CONTINUOUS
 62
3
 10
-336.078488408344130
 20
-238.300441217125580
 11
-338.636415689743900
 21
-239.439303817737710
  0
ARC
  8
0
  6
CONTINUOUS
 62
3
 10
-336.485225051420460
 20
-237.386895759482970
 40
1.000000000000226
 50
294.000000000027340
 51
23.999999999991683
  0
LINE
  8
0
  6
CONTINUOUS
 62
3
 10
-361.783341408400700
 20
-178.107802775627310
 11
-335.571679593777840
 21
-236.980159116407320
  0
ARC
  8
0
  6
CONTINUOUS
 62
3
 10
-339.864363167505870
 20
-224.880040615506000
 40
1.000000000000011
 50
115.342003472277410
 51
204.000000000003580
  0
ARC
  8
0
  6
CONTINUOUS
 62
3
 10
-341.285719245735890
 20
-222.240390131012650
 40
1.999999999999991
 50
299.779785485285120
 51
352.117918512083290
  0
LINE
  8
0
  6
CONTINUOUS
 62
3
 10
-342.215698148811270
 20
-231.400103790483170
 11
-345.732848160735100
 21
-232.966039866324990
  0
LINE
  8
0
  6
CONTINUOUS
 62
3
 10
-340.588751576508000
 20
-235.054285621053170
 11
-344.105901588432060
 21
-236.620221696894990
  0
LINE
  8
0
  6
CONTINUOUS
 62
3
 10
-386.659050431204380
 20
-209.107802775627310
 11
-385.659050431204380
 21
-209.107802775627310
  0
LINE
  8
0
  6
CONTINUOUS
 62
3
 10
-385.659050431204380
 20
-145.416197898568270
 11
-385.659050431204380
 21
-219.607802775627310
  0
ARC
  8
0
  6
CONTINUOUS
 62
3
 10
-937.659050431204380
 20
-178.107802775627530
 40
600.799999999999950
 50
357.158610984636650
 51
0.587807867706885
  0
ARC
  8
0
  6
CONTINUOUS
 62
3
 10
-338.596451202419760
 20
-207.840650019921210
 40
1.000000000000147
 50
303.952126946381380
 51
357.158610984632960
  0
ARC
  8
0
  6
CONTINUOUS
 62
3
 10
-337.479451177807280
 20
-209.499659044916370
 40
0.999999999999769
 50
123.952126946395960
 51
177.005923909151190
  0
ARC
  8
0
  6
CONTINUOUS
 62
3
 10
-336.709242761654200
 20
-170.340650019921210
 40
0.999999999999967
 50
180.740494943192910
 51
233.794291905968890
  0
ARC
  8
0
  6
CONTINUOUS
 62
3
 10
-337.890614877930600
 20
-171.954452957979360
 40
1.000000000000077
 50
0.587807867721716
 51
53.794291905958382
  0
LINE
  8
0
  6
CONTINUOUS
 62
3
 10
-384.353614371468890
 20
-136.756794378711670
 11
-338.636415689743900
 21
-239.439303817737710
  0
LINE
  8
0
  6
DASHDOT
 62
4
 10
-361.659050431204380
 20
-210.225278995921600
 11
-361.659050431204380
 21
-233.093788171685220
  0
ARC
  8
0
  6
CONTINUOUS
 62
3
 10
-336.141547078859050
 20
-233.293190700109340
 40
1.299999237060559
 50
293.999982013920090
 51
7.398451589679256
  0
ARC
  8
0
  6
CONTINUOUS
 62
3
 10
-343.777442704040370
 20
-234.284709822607970
 40
9.000000000000234
 50
7.398451589678908
 51
40.601531107483503
  0
LINE
  8
0
  6
DASHDOT
 62
4
 10
-487.914966685184480
 20
-168.607802775625260
 11
-420.107327160239950
 21
-168.607802775625260
  0
LINE
  8
0
  6
DASHDOT
 62
4
 10
-620.794491150045360
 20
-178.107802775627310
 11
-287.578404940304610
 21
-178.107802775627310
  0
LINE
  8
0
  6
CONTINUOUS
 62
3
 10
-454.159050431204380
 20
-108.607802775625480
 11
-462.159050431204380
 21
-108.607802775625480
  0
LINE
  8
0
  6
CONTINUOUS
 62
3
 10
-466.032033777411930
 20
-111.607802775625480
 11
-472.159050431205290
 21
-111.607802775625480
  0
LINE
  8
0
  6
CONTINUOUS
 62
3
 10
-454.159050431204380
 20
-108.607802775625480
 11
-446.159050431204830
 21
-108.607802775625480
  0
LINE
  8
0
  6
CONTINUOUS
 62
3
 10
-442.286067084997280
 20
-111.607802775625480
 11
-436.159050431203920
 21
-111.607802775625480
  0
LINE
  8
0
  6
CONTINUOUS
 62
3
 10
-466.032033777411930
 20
-305.607802775625490
 11
-472.159050431205290
 21
-305.607802775625490
  0
LINE
  8
0
  6
CONTINUOUS
 62
3
 10
-454.159050431204380
 20
-308.607802775625490
 11
-462.159050431204380
 21
-308.607802775625490
  0
LINE
  8
0
  6
CONTINUOUS
 62
3
 10
-454.159050431204380
 20
-308.607802775625490
 11
-446.159050431204830
 21
-308.607802775625490
  0
LINE
  8
0
  6
CONTINUOUS
 62
3
 10
-552.159050431205290
 20
-208.607802775625490
 11
-552.159050431205290
 21
-225.607802775625490
  0
LINE
  8
0
  6
CONTINUOUS
 62
3
 10
-552.159050431205290
 20
-208.607802775625490
 11
-552.159050431205290
 21
-191.607802775625490
  0
LINE
  8
0
  6
CONTINUOUS
 62
3
 10
-356.159050431203920
 20
-224.607802775627310
 11
-356.159050431203920
 21
-225.607802775625490
  0
ARC
  8
0
  6
CONTINUOUS
 62
3
 10
-472.159050431205290
 20
-225.607802775625490
 40
79.999999999999986
 50
202.119118468599990
 51
242.258787150595110
  0
ARC
  8
0
  6
CONTINUOUS
 62
3
 10
-472.159050431205290
 20
-191.607802775625490
 40
80.000000000000000
 50
90.000000000000000
 51
180.000000000000000
  0
ARC
  8
0
  6
CONTINUOUS
 62
3
 10
-462.159050431204380
 20
-110.607802775625480
 40
2.000000000000000
 50
90.000000000000000
 51
165.522487814070560
  0
ARC
  8
0
  6
CONTINUOUS
 62
3
 10
-466.032033777411930
 20
-109.607802775625480
 40
2.000000000000000
 50
270.000000000000000
 51
345.522487814070530
  0
ARC
  8
0
  6
CONTINUOUS
 62
3
 10
-436.159050431203920
 20
-191.607802775625490
 40
79.999999999999972
 50
37.939692129195038
 51
90.000000000000000
  0
ARC
  8
0
  6
CONTINUOUS
 62
3
 10
-446.159050431204830
 20
-110.607802775625480
 40
2.000000000000063
 50
14.477512185929456
 51
90.000000000000000
  0
ARC
  8
0
  6
CONTINUOUS
 62
3
 10
-442.286067084997280
 20
-109.607802775625480
 40
2.000000000000063
 50
194.477512185929440
 51
270.000000000000000
  0
ARC
  8
0
  6
CONTINUOUS
 62
3
 10
-446.159050431204830
 20
-306.607802775625490
 40
2.000000000000000
 50
270.000000000000000
 51
345.522487814070530
  0
ARC
  8
0
  6
CONTINUOUS
 62
3
 10
-442.286067084997280
 20
-307.607802775625490
 40
2.000000000000000
 50
90.000000000000000
 51
165.522487814070560
  0
ARC
  8
0
  6
CONTINUOUS
 62
3
 10
-472.159050431205290
 20
-225.607802775625490
 40
80.000000000000000
 50
180.000000000000000
 51
202.119118468599990
  0
ARC
  8
0
  6
CONTINUOUS
 62
3
 10
-462.159050431204380
 20
-306.607802775625490
 40
2.000000000000063
 50
194.477512185929440
 51
270.000000000000000
  0
ARC
  8
0
  6
CONTINUOUS
 62
3
 10
-466.032033777411930
 20
-307.607802775625490
 40
2.000000000000063
 50
14.477512185929456
 51
90.000000000000000
  0
ARC
  8
0
  6
CONTINUOUS
 62
3
 10
-436.159050431203920
 20
-225.607802775625490
 40
79.999999999999687
 50
323.661143755958900
 51
0.000000000000000
  0
LINE
  8
0
  6
CONTINUOUS
 62
3
 10
-466.032033777411930
 20
-305.607802775625490
 11
-472.159050431205290
 21
-305.607802775625490
  0
ARC
  8
0
  6
CONTINUOUS
 62
3
 10
-454.159050431204380
 20
-208.607802775625490
 40
35.000000000000028
 50
235.503770534084960
 51
304.496229465915180
  0
ARC
  8
0
  6
CONTINUOUS
 62
3
 10
-423.659050431204380
 20
-237.202440926763070
 40
2.999999999999919
 50
173.162860976797870
 51
180.000000000000000
  0
ARC
  8
0
  6
CONTINUOUS
 62
3
 10
-434.659050431204380
 20
-241.222983290226470
 40
3.000000000000000
 50
0.000000000000000
 51
120.874405407568840
  0
ARC
  8
0
  6
CONTINUOUS
 62
3
 10
-473.659050431204380
 20
-241.222983290226470
 40
3.000000000000172
 50
59.125594592431149
 51
180.000000000000000
  0
ARC
  8
0
  6
CONTINUOUS
 62
3
 10
-484.659050431204380
 20
-237.202440926763070
 40
3.000000000000000
 50
0.000000000000000
 51
6.837139023201846
  0
ARC
  8
0
  6
CONTINUOUS
 62
3
 10
-390.519440124414810
 20
-272.247413082414600
 40
9.999999999999870
 50
58.384308452268890
 51
211.615691547733350
  0
ARC
  8
0
  6
CONTINUOUS
 62
3
 10
-384.228810347606670
 20
-262.028412299014460
 40
2.000000000000040
 50
238.384308452260910
 51
322.623325274950450
  0
ARC
  8
0
  6
CONTINUOUS
 62
3
 10
-400.738440907814950
 20
-278.538042859222740
 40
1.999999999999958
 50
307.376674725049550
 51
31.615691547728044
  0
ARC
  8
0
  6
CONTINUOUS
 62
3
 10
-517.798660737993940
 20
-272.247413082414600
 40
10.000000000000108
 50
328.384308452266620
 51
121.615691547731100
  0
ARC
  8
0
  6
CONTINUOUS
 62
3
 10
-524.089290514802090
 20
-262.028412299014460
 40
1.999999999999958
 50
217.376674725049580
 51
301.615691547739120
  0
ARC
  8
0
  6
CONTINUOUS
 62
3
 10
-507.579659954593810
 20
-278.538042859222740
 40
1.999999999999801
 50
148.384308452271940
 51
232.623325274950420
  0
ARC
  8
0
  6
CONTINUOUS
 62
3
 10
-517.798660737993940
 20
-144.968192468836380
 40
9.999999999999870
 50
238.384308452268900
 51
267.319870332125790
  0
ARC
  8
0
  6
CONTINUOUS
 62
3
 10
-524.089290514802090
 20
-155.187193252236510
 40
2.000000000000040
 50
58.384308452260875
 51
142.623325274950420
  0
INSERT
  8
0
  2
SYM4
 10
-390.519440124414810
 20
-272.247413082414600
  0
INSERT
  8
0
  2
SYM5
 10
-517.798660737993940
 20
-272.247413082414600
  0
INSERT
  8
0
  2
SYM6
 10
-443.659050431204380
 20
-76.607802775625260
  0
INSERT
  8
0
  2
SYM6
 10
-404.159050431204380
 20
-77.607803588518436
  0
INSERT
  8
0
  2
SYM6
 10
-333.159050431204380
 20
-146.607803588518210
  0
INSERT
  8
0
  2
SYM6
 10
-376.659050431204380
 20
-328.607802775624800
  0
INSERT
  8
0
  2
SYM6
 10
-446.659050431204380
 20
-328.607802775624800
  0
INSERT
  8
0
  2
SYM6
 10
-531.659050431204380
 20
-328.607802775624800
 41
-1.000000000000000
  0
INSERT
  8
0
  2
SYM6
 10
-464.659050431204380
 20
-76.607802775625260
 41
-1.000000000000000
  0
INSERT
  8
0
  2
SYM6
 10
-504.159050431204380
 20
-77.607803588518436
 41
-1.000000000000000
  0
INSERT
  8
0
  2
SYM6
 10
-575.159050431204380
 20
-146.607803588518210
 41
-1.000000000000000
  0
INSERT
  8
0
  2
SYM6
 10
-576.159050431204380
 20
-236.607802775624800
 41
-1.000000000000000
  0
ARC
  8
0
  6
CONTINUOUS
 62
3
 10
-552.063864798494250
 20
-98.682173128165687
 40
4.999999999999291
 50
133.973975518343850
 51
225.000000000003690
  0
ARC
  8
0
  6
CONTINUOUS
 62
3
 10
-563.322786443754010
 20
-111.464882043248280
 40
5.000000000000522
 50
44.999999999996326
 51
143.279272265286270
  0
LINE
  8
0
  6
CONTINUOUS
 62
3
 10
-576.159050431204380
 20
-199.607802775624800
 11
-586.159050431204380
 21
-199.607802775624800
  0
LINE
  8
0
  6
CONTINUOUS
 62
3
 10
-576.159050431204380
 20
-225.607802775624800
 11
-585.528229825178640
 21
-225.607802775624800
  0
LINE
  8
0
  6
CONTINUOUS
 62
3
 10
-589.159050431204380
 20
-174.245974263836160
 11
-589.159050431204380
 21
-224.015048595747430
  0
LINE
  8
0
  6
CONTINUOUS
 62
3
 10
-588.480238469905090
 20
-229.181448964785890
 11
-573.067034084047010
 21
-286.823404474615470
  0
ARC
  8
0
  6
CONTINUOUS
 62
3
 10
-548.166097275896390
 20
-314.635664900487200
 40
4.999999999999718
 50
134.999999999998150
 51
228.768523924275400
  0
ARC
  8
0
  6
CONTINUOUS
 62
3
 10
-559.552541588706840
 20
-301.980478652955070
 40
5.000000000000420
 50
215.189773733126660
 51
314.999999999998120
  0
ARC
  8
0
  6
CONTINUOUS
 62
3
 10
-586.159050431204380
 20
-196.607802775624800
 40
3.000000000000000
 50
180.000000000000000
 51
270.000000000000000
  0
ARC
  8
0
  6
CONTINUOUS
 62
3
 10
-576.159050431204380
 20
-212.607802775624800
 40
13.000000000000000
 50
270.000000000000000
 51
90.000000000000000
  0
ARC
  8
0
  6
CONTINUOUS
 62
3
 10
-585.528229825178640
 20
-228.607802775624800
 40
3.000000000000000
 50
90.000000000000000
 51
194.970401305466080
  0
ARC
  8
0
  6
CONTINUOUS
 62
3
 10
-500.710702283531650
 20
-260.487853438539330
 40
77.000000000000270
 50
199.999999999999660
 51
234.885533069884020
  0
ARC
  8
0
  6
CONTINUOUS
 62
3
 10
-549.603706378782590
 20
-330.018236369613310
 40
8.000000000000373
 50
4.494156527999717
 51
54.885533069884232
  0
ARC
  8
0
  6
CONTINUOUS
 62
3
 10
-531.659050431204380
 20
-328.607802775624800
 40
9.999999999999778
 50
184.494156527999370
 51
233.130102354155980
  0
ARC
  8
0
  6
CONTINUOUS
 62
3
 10
-569.159050431204380
 20
-224.015048595747430
 40
20.000000000000000
 50
180.000000000000000
 51
194.970401305464610
  0
LINE
  8
0
  6
CONTINUOUS
 62
3
 10
-372.931801864762750
 20
-294.784798810371510
 11
-356.616469680579940
 21
-311.100130994554320
  0
LINE
  8
0
  6
CONTINUOUS
 62
3
 10
-368.923561427616730
 20
-288.893544310906010
 11
-352.301093179634340
 21
-305.516012558887500
  0
LINE
  8
0
  6
CONTINUOUS
 62
3
 10
-471.659050431204380
 20
-88.607802775625260
 11
-454.159050431204380
 21
-88.607802775625260
  0
LINE
  8
0
  6
CONTINUOUS
 62
3
 10
-454.159050431204380
 20
-88.607802775625260
 11
-436.659050431204380
 21
-88.607802775625260
  0
LINE
  8
0
  6
CONTINUOUS
 62
3
 10
-450.659050431204380
 20
-93.607802775625260
 11
-450.659050431204380
 21
-103.625682753740870
  0
LINE
  8
0
  6
CONTINUOUS
 62
3
 10
-457.659050431204380
 20
-93.607802775625260
 11
-457.659050431204380
 21
-103.625682753740870
  0
LINE
  8
0
  6
CONTINUOUS
 62
3
 10
-374.333233449345240
 20
-133.731733262072570
 11
-348.530848324588080
 21
-107.929348137315400
  0
LINE
  8
0
  6
CONTINUOUS
 62
3
 10
-379.383488247616700
 20
-128.882493123732730
 11
-352.718702157982080
 21
-102.217707034098560
  0
LINE
  8
0
  6
CONTINUOUS
 62
3
 10
-528.934612614792060
 20
-128.882493123732730
 11
-555.599398704426680
 21
-102.217707034098560
  0
LINE
  8
0
  6
CONTINUOUS
 62
3
 10
-533.984867413063510
 20
-133.731733262072570
 11
-559.787252537820680
 21
-107.929348137315400
  0
LINE
  8
0
  6
CONTINUOUS
 62
3
 10
-528.934612614792060
 20
-288.333112427517790
 11
-551.701631181828820
 21
-311.100130994554550
  0
LINE
  8
0
  6
CONTINUOUS
 62
3
 10
-533.984867413063510
 20
-283.483872289177950
 11
-556.017007682774420
 21
-305.516012558887720
  0
LINE
  8
0
  6
CONTINUOUS
 62
3
 10
-332.159050431204380
 20
-199.607802775624800
 11
-322.159050431204380
 21
-199.607802775624800
  0
LINE
  8
0
  6
CONTINUOUS
 62
3
 10
-332.159050431204380
 20
-225.607802775624800
 11
-322.789871037230110
 21
-225.607802775624800
  0
LINE
  8
0
  6
CONTINUOUS
 62
3
 10
-454.159050431204380
 20
-336.607802775624800
 11
-537.659050431204380
 21
-336.607802775624800
  0
LINE
  8
0
  6
CONTINUOUS
 62
3
 10
-454.159050431204380
 20
-336.607802775624800
 11
-370.659050431204380
 21
-336.607802775624800
  0
LINE
  8
0
  6
CONTINUOUS
 62
3
 10
-319.159050431204380
 20
-174.245974263836160
 11
-319.159050431204380
 21
-224.015048595747430
  0
LINE
  8
0
  6
CONTINUOUS
 62
3
 10
-319.837862392504580
 20
-229.181448964785890
 11
-335.251066778362660
 21
-286.823404474615470
  0
ARC
  8
0
  6
CONTINUOUS
 62
3
 10
-471.659050431204380
 20
-85.607802775625260
 40
3.000000000000000
 50
180.000000000000000
 51
270.000000000000000
  0
ARC
  8
0
  6
CONTINUOUS
 62
3
 10
-436.659050431204380
 20
-85.607802775625260
 40
3.000000000000000
 50
270.000000000000000
 51
0.000000000000000
  0
ARC
  8
0
  6
CONTINUOUS
 62
3
 10
-462.659050431204380
 20
-93.607802775625260
 40
5.000000000000000
 50
0.000000000000000
 51
90.000000000000000
  0
ARC
  8
0
  6
CONTINUOUS
 62
3
 10
-445.659050431204380
 20
-93.607802775625260
 40
5.000000000000000
 50
90.000000000000000
 51
180.000000000000000
  0
ARC
  8
0
  6
CONTINUOUS
 62
3
 10
-344.995314418654740
 20
-111.464882043248280
 40
4.999999999999919
 50
36.720727734713748
 51
135.000000000003670
  0
ARC
  8
0
  6
CONTINUOUS
 62
3
 10
-356.254236063914500
 20
-98.682173128165687
 40
4.999999999999879
 50
314.999999999996310
 51
46.026024481656137
  0
ARC
  8
0
  6
CONTINUOUS
 62
3
 10
-348.765559273701910
 20
-301.980478652954840
 40
4.999999999999718
 50
225.000000000001850
 51
324.810226266867350
  0
ARC
  8
0
  6
CONTINUOUS
 62
3
 10
-360.152003586512360
 20
-314.635664900486970
 40
4.999999999999698
 50
311.231476075715020
 51
45.000000000001855
  0
ARC
  8
0
  6
CONTINUOUS
 62
3
 10
-322.159050431204380
 20
-196.607802775624800
 40
3.000000000000000
 50
270.000000000000000
 51
0.000000000000000
  0
ARC
  8
0
  6
CONTINUOUS
 62
3
 10
-332.159050431204380
 20
-212.607802775624800
 40
13.000000000000000
 50
90.000000000000000
 51
113.210423839731860
  0
ARC
  8
0
  6
CONTINUOUS
 62
3
 10
-322.789871037230110
 20
-228.607802775624800
 40
2.999999999999482
 50
345.029598694533890
 51
90.000000000000000
  0
ARC
  8
0
  6
CONTINUOUS
 62
3
 10
-376.659050431204380
 20
-328.607802775624800
 40
10.000000000000000
 50
306.869897645843990
 51
355.505843472000610
  0
ARC
  8
0
  6
CONTINUOUS
 62
3
 10
-358.714394483626170
 20
-330.018236369613310
 40
7.999999999999969
 50
125.114466930115760
 51
175.505843472000290
  0
ARC
  8
0
  6
CONTINUOUS
 62
3
 10
-407.607398578877110
 20
-260.487853438539330
 40
77.000000000000085
 50
305.114466930115950
 51
340.000000000000340
  0
ARC
  8
0
  6
CONTINUOUS
 62
3
 10
-479.159050431204380
 20
-174.245974263836160
 40
110.000000000000070
 50
92.924523789728397
 51
180.000000000000000
  0
ARC
  8
0
  6
CONTINUOUS
 62
3
 10
-429.159050431204380
 20
-174.245974263836160
 40
110.000000000000000
 50
0.000000000000000
 51
87.075476210271603
  0
ARC
  8
0
  6
CONTINUOUS
 62
3
 10
-339.159050431204380
 20
-224.015048595747430
 40
19.999999999999925
 50
345.029598694534740
 51
0.000000000000000
  0
ARC
  8
0
  6
CONTINUOUS
 62
3
 10
-407.607398578877110
 20
-260.487853438539330
 40
44.000000000000099
 50
258.506801628087090
 51
319.912288498426220
  0
ARC
  8
0
  6
CONTINUOUS
 62
3
 10
-358.607470890411610
 20
-260.403671937469200
 40
4.999999999999396
 50
155.835163798773490
 51
180.098433614223640
  0
ARC
  8
0
  6
CONTINUOUS
 62
3
 10
-370.797699543412820
 20
-137.267267168005220
 40
4.999999999999718
 50
134.999999999998150
 51
219.739673259820310
  0
ARC
  8
0
  6
CONTINUOUS
 62
3
 10
-382.919022153550030
 20
-125.346959217800070
 40
4.999999999999628
 50
231.218416769279800
 51
315.000000000005570
  0
ARC
  8
0
  6
CONTINUOUS
 62
3
 10
-525.399078708858720
 20
-125.346959217800070
 40
5.000000000000361
 50
224.999999999994490
 51
308.781583230718580
  0
ARC
  8
0
  6
CONTINUOUS
 62
3
 10
-537.520401318995940
 20
-137.267267168005220
 40
4.999999999999747
 50
320.260326740179720
 51
45.000000000001855
  0
ARC
  8
0
  6
CONTINUOUS
 62
3
 10
-365.388027521684310
 20
-285.358010404973130
 40
4.999999999999973
 50
149.498945295270290
 51
225.000000000003690
  0
ARC
  8
0
  6
CONTINUOUS
 62
3
 10
-376.467335770696080
 20
-298.320332716304160
 40
5.000000000000361
 50
44.999999999994479
 51
129.457930749405760
  0
ARC
  8
0
  6
CONTINUOUS
 62
3
 10
-407.607398578877110
 20
-260.487853438539330
 40
44.000000000000071
 50
319.912288498426220
 51
0.098433614225121
  0
ARC
  8
0
  6
CONTINUOUS
 62
3
 10
-537.520401318995940
 20
-279.948338383245300
 40
4.999999999999718
 50
314.999999999998120
 51
39.739673259822290
  0
ARC
  8
0
  6
CONTINUOUS
 62
3
 10
-525.399078708858720
 20
-291.868646333450440
 40
4.999999999999805
 50
51.218416769281426
 51
135.000000000005510
  0
ARC
  8
0
  6
CONTINUOUS
 62
3
 10
-445.659050431204380
 20
-103.625682753740870
 40
5.000000000000000
 50
180.000000000000000
 51
265.903956241844530
  0
ARC
  8
0
  6
CONTINUOUS
 62
3
 10
-462.659050431204380
 20
-103.625682753740870
 40
4.999999999999828
 50
274.096043758155470
 51
0.000000000000000
  0
LINE
  8
0
  6
CONTINUOUS
 62
3
 10
-433.659050431204380
 20
-63.958114186448029
 11
-433.659050431204380
 21
-85.607802775625260
  0
ARC
  8
0
  6
CONTINUOUS
 62
3
 10
-454.159050431204380
 20
-663.607803588518890
 40
600.000000000000000
 50
87.075476210271731
 51
88.042013127606680
  0
LINE
  8
0
  6
CONTINUOUS
 62
3
 10
-474.659050431204380
 20
-63.958114186448029
 11
-474.659050431204380
 21
-85.607802775625260
  0
ARC
  8
0
  6
CONTINUOUS
 62
3
 10
-454.159050431204380
 20
-663.607803588518890
 40
600.000000000000000
 50
91.957986872393320
 51
92.924523789728269
  0
ARC
  8
0
  6
CONTINUOUS
 62
3
 10
-443.659050431203470
 20
-38.607802775625032
 40
10.000000000000000
 50
0.000000000000000
 51
90.000000000000000
  0
LINE
  8
0
  6
CONTINUOUS
 62
3
 10
-433.659050431203470
 20
-38.607802775625032
 11
-433.659050431203470
 21
-63.958113373553942
  0
ARC
  8
0
  6
CONTINUOUS
 62
3
 10
-464.659050431203470
 20
-38.607802775625032
 40
10.000000000000000
 50
90.000000000000000
 51
180.000000000000000
  0
LINE
  8
0
  6
CONTINUOUS
 62
3
 10
-474.659050431203470
 20
-38.607802775625032
 11
-474.659050431203470
 21
-63.958113373553942
  0
LINE
  8
0
  6
CONTINUOUS
 62
3
 10
-443.659050431203470
 20
-28.607802775625032
 11
-464.659050431203470
 21
-28.607802775625032
  0
LINE
  8
0
  6
DASHDOT
 62
4
 10
-430.991137432321920
 20
-48.607802775625032
 11
-478.013651333856610
 21
-48.607802775625032
  0
CIRCLE
  8
0
  6
CONTINUOUS
 62
3
 10
-454.159050431203470
 20
-48.607802775625032
 40
10.000000000000000
  0
LINE
  8
0
  6
DASHDOT
 62
4
 10
-454.159050431204380
 20
-3.935804285440099
 11
-454.159050431204380
 21
-346.557592822650800
  0
LINE
  8
0
  6
CONTINUOUS
 62
3
 10
-339.896217617967520
 20
-59.294717430693481
 11
-361.220537894441800
 21
-80.619037707167763
  0
LINE
  8
0
  6
CONTINUOUS
 62
3
 10
-346.665658708849150
 20
-56.164663584963137
 11
-368.482934128307530
 21
-77.981939004422429
  0
LINE
  8
0
  6
CONTINUOUS
 62
3
 10
-568.421883244442140
 20
-59.294717430693481
 11
-547.097562967966950
 21
-80.619037707167763
  0
LINE
  8
0
  6
CONTINUOUS
 62
3
 10
-561.652442153560510
 20
-56.164663584963137
 11
-539.835166734101220
 21
-77.981939004422429
  0
LINE
  8
0
  6
CONTINUOUS
 62
3
 10
-311.659050431204380
 20
-326.107802775625490
 11
-365.693542648482430
 21
-326.107802775625490
  0
LINE
  8
0
  6
CONTINUOUS
 62
3
 10
-542.553504979736320
 20
-326.107802775625490
 11
-596.659050431204380
 21
-326.107802775625490
  0
LINE
  8
0
  6
CONTINUOUS
 62
3
 10
-296.659050431204380
 20
-26.107802775625032
 11
-296.659050431204380
 21
-311.107802775625490
  0
LINE
  8
0
  6
CONTINUOUS
 62
3
 10
-611.659050431204380
 20
-26.107802775625032
 11
-611.659050431204380
 21
-311.107802775625490
  0
LINE
  8
0
  6
CONTINUOUS
 62
3
 10
-311.659050431204380
 20
-11.107802775625032
 11
-596.659050431204380
 21
-11.107802775625032
  0
LINE
  8
0
  6
DASHDOT
 62
4
 10
-574.720756623511080
 20
-289.169508967931730
 11
-602.297921089786540
 21
-316.746673434207200
  0
LINE
  8
0
  6
DASHDOT
 62
4
 10
-333.597344238898590
 20
-289.169508967931730
 11
-306.020179772622210
 21
-316.746673434207200
  0
LINE
  8
0
  6
DASHDOT
 62
4
 10
-333.597344238897680
 20
-48.046096583318786
 11
-306.020179772622210
 21
-20.468932117043778
  0
LINE
  8
0
  6
DASHDOT
 62
4
 10
-574.720756623510170
 20
-48.046096583318786
 11
-602.297921089785630
 21
-20.468932117043323
  0
ARC
  8
0
  6
CONTINUOUS
 62
3
 10
-350.201192614781580
 20
-52.629129679030484
 40
4.999999999999718
 50
314.999999999998120
 51
57.006973874312941
  0
ARC
  8
0
  6
CONTINUOUS
 62
3
 10
-336.360683712035100
 20
-62.830251336626134
 40
5.000000000000658
 50
50.209020423811033
 51
134.999999999998150
  0
ARC
  8
0
  6
CONTINUOUS
 62
3
 10
-372.018468034240870
 20
-74.446405098489777
 40
4.999999999999973
 50
240.206558325790580
 51
315.000000000005570
  0
ARC
  8
0
  6
CONTINUOUS
 62
3
 10
-357.685003988509380
 20
-84.154571613100643
 40
4.999999999999879
 50
134.999999999996310
 51
231.573261158808440
  0
ARC
  8
0
  6
CONTINUOUS
 62
3
 10
-571.957417150374570
 20
-62.830251336626134
 40
4.999999999999718
 50
45.000000000001855
 51
129.790979576180970
  0
ARC
  8
0
  6
CONTINUOUS
 62
3
 10
-550.633096873900290
 20
-84.154571613100643
 40
4.999999999999912
 50
308.426738841191540
 51
44.999999999996326
  0
ARC
  8
0
  6
CONTINUOUS
 62
3
 10
-536.299632828167890
 20
-74.446405098489777
 40
5.000000000000361
 50
224.999999999994490
 51
299.793441674209420
  0
ARC
  8
0
  6
CONTINUOUS
 62
3
 10
-558.116908247628090
 20
-52.629129679030484
 40
4.999999999999676
 50
122.993026125687060
 51
225.000000000001850
  0
ARC
  8
0
  6
CONTINUOUS
 62
3
 10
-445.659050431204380
 20
-28.590342390879186
 40
5.000000000000000
 50
90.000000000000000
 51
180.000000000000000
  0
ARC
  8
0
  6
CONTINUOUS
 62
3
 10
-462.659050431204380
 20
-28.590342390879186
 40
5.000000000000000
 50
0.000000000000000
 51
90.000000000000000
  0
CIRCLE
  8
0
  6
CONTINUOUS
 62
3
 10
-588.509338856648360
 20
-302.958091201069460
 40
12.000000000000000
  0
ARC
  8
0
  6
CONTINUOUS
 62
3
 10
-596.659050431204380
 20
-26.107802775625032
 40
15.000000000000000
 50
90.000000000000000
 51
180.000000000000000
  0
ARC
  8
0
  6
CONTINUOUS
 62
3
 10
-596.659050431204380
 20
-311.107802775625490
 40
15.000000000000000
 50
180.000000000000000
 51
270.000000000000000
  0
ARC
  8
0
  6
CONTINUOUS
 62
3
 10
-311.659050431204380
 20
-311.107802775625490
 40
15.000000000000000
 50
270.000000000000000
 51
0.000000000000000
  0
ARC
  8
0
  6
CONTINUOUS
 62
3
 10
-311.659050431204380
 20
-26.107802775625032
 40
15.000000000000000
 50
0.000000000000000
 51
90.000000000000000
  0
ARC
  8
0
  6
DASHDOT
 62
4
 10
-454.159050431204380
 20
-168.607802775625030
 40
190.000000000000260
 50
219.119041968700600
 51
230.880958031302730
  0
ARC
  8
0
  6
DASHDOT
 62
4
 10
-454.159050431204380
 20
-168.607802775625030
 40
190.000000000000310
 50
309.119041968700400
 51
320.880958031302500
  0
CIRCLE
  8
0
  6
CONTINUOUS
 62
3
 10
-319.808762005760400
 20
-302.958091201069460
 40
12.000000000000000
  0
ARC
  8
0
  6
DASHDOT
 62
4
 10
-454.159050431204380
 20
-168.607802775625030
 40
189.999999999999690
 50
39.119041968700387
 51
50.880958031302640
  0
CIRCLE
  8
0
  6
CONTINUOUS
 62
3
 10
-319.808762005760400
 20
-34.257514350181054
 40
12.000000000000000
  0
ARC
  8
0
  6
DASHDOT
 62
4
 10
-454.159050431204380
 20
-168.607802775625030
 40
189.999999999999970
 50
129.119041968700490
 51
140.880958031302610
  0
CIRCLE
  8
0
  6
CONTINUOUS
 62
3
 10
-588.509338856648360
 20
-34.257514350181054
 40
12.000000000000000
  0
LINE
  8
0
  6
CONTINUOUS
 62
3
 10
-450.659050431204380
 20
-28.590342390879186
 11
-450.659050431204380
 21
-28.607802775625032
  0
LINE
  8
0
  6
CONTINUOUS
 62
3
 10
-457.659050431204380
 20
-28.590342390879186
 11
-457.659050431204380
 21
-28.607802775625032
  0
ARC
  8
0
  6
CONTINUOUS
 62
3
 10
-452.659050431204380
 20
-40.230725109958030
 40
2.000000000000000
 50
0.000000000000000
 51
33.678870778999830
  0
ARC
  8
0
  6
CONTINUOUS
 62
3
 10
-455.659050431204380
 20
-40.230725109958030
 40
1.999999999999613
 50
146.321129221016430
 51
180.000000000000000
  0
LINE
  8
0
  6
CONTINUOUS
 62
3
 10
-450.659050431204380
 20
-39.240305778027050
 11
-450.659050431204380
 21
-57.975299773223014
  0
LINE
  8
0
  6
CONTINUOUS
 62
3
 10
-457.659050431204380
 20
-39.240305778027732
 11
-457.659050431204380
 21
-57.975299773222332
  0
LINE
  8
0
  6
CONTINUOUS
 62
3
 10
-518.051299116202360
 20
-152.324998862877010
 11
-524.293848390071840
 21
-148.718187373090810
  0
LINE
  8
0
  6
CONTINUOUS
 62
3
 10
-524.293849832713360
 20
-148.718186341579890
 11
-524.296253089810310
 21
-141.214027367886050
  0
LINE
  8
0
  6
CONTINUOUS
 62
3
 10
-524.296254453781560
 20
-141.214024656538300
 11
-517.801062117510010
 21
-137.464028292420950
  0
LINE
  8
0
  6
CONTINUOUS
 62
3
 10
-517.801061946361640
 20
-137.464029655029320
 11
-515.502756871622410
 21
-138.791941183946280
  0
ARC
  8
0
  6
CONTINUOUS
 62
3
 10
-517.798660737993940
 20
-144.968192468836380
 40
6.499999999999977
 50
69.643935972739300
 51
268.435835376533870
  0
LINE
  8
0
  6
CONTINUOUS
 62
3
 10
-392.816630153967820
 20
-138.788923483899680
 11
-390.521841503930890
 21
-137.464028292420950
  0
LINE
  8
0
  6
CONTINUOUS
 62
3
 10
-390.521841332782510
 20
-137.464029655029320
 11
-384.024252472336910
 21
-141.218197564581940
  0
LINE
  8
0
  6
CONTINUOUS
 62
3
 10
-384.024251029695390
 20
-141.218198596092860
 11
-384.023763695106710
 21
-142.739898555360920
  0
ARC
  8
0
  6
CONTINUOUS
 62
3
 10
-390.519440124414810
 20
-144.968192468836380
 40
6.499999999999965
 50
18.226699476753051
 51
110.356064027260700
  0
ARC
  8
0
  6
CONTINUOUS
 62
3
 10
-423.659050431204380
 20
-300.572794605145420
 40
3.000000000000000
 50
180.000000000000000
 51
279.466661087573700
  0
ARC
  8
0
  6
CONTINUOUS
 62
3
 10
-434.659050431204380
 20
-301.592998702200250
 40
3.000000000000115
 50
271.130911184731190
 51
0.000000000000000
  0
LINE
  8
0
  6
CONTINUOUS
 62
3
 10
-431.659050431204380
 20
-263.231515575104590
 11
-431.659050431204380
 21
-301.592998702200250
  0
LINE
  8
0
  6
CONTINUOUS
 62
3
 10
-426.659050431204380
 20
-257.940854576623910
 11
-426.659050431204380
 21
-300.572794605145420
  0
LINE
  8
0
  6
CONTINUOUS
 62
3
 10
-442.286067084997280
 20
-305.607802775625490
 11
-436.159050431203920
 21
-305.607802775625490
  0
ARC
  8
0
  6
CONTINUOUS
 62
3
 10
-436.159050431203920
 20
-225.607802775625490
 40
80.000000000000000
 50
270.000000000000000
 51
279.172054809625190
  0
ARC
  8
0
  6
CONTINUOUS
 62
3
 10
-436.159050431203920
 20
-225.607802775625490
 40
80.000000000000043
 50
279.172054809625190
 51
323.661143755958900
  0
ARC
  8
0
  6
CONTINUOUS
 62
3
 10
-436.159050431203920
 20
-225.607802775625490
 40
80.000000000000043
 50
279.172054809625190
 51
323.661143755958900
  0
LINE
  8
0
  6
CONTINUOUS
 62
3
 10
-431.659050431204380
 20
-241.222983290226470
 11
-431.659050431204380
 21
-301.592998702200250
  0
LINE
  8
0
  6
CONTINUOUS
 62
3
 10
-426.659050431204380
 20
-237.202440926763070
 11
-426.659050431204380
 21
-300.572794605145420
  0
ARC
  8
0
  6
CONTINUOUS
 62
3
 10
-436.159050431203920
 20
-225.607802775625490
 40
80.000000000000000
 50
270.000000000000000
 51
279.172054809625190
  0
LINE
  8
0
  6
CONTINUOUS
 62
3
 10
-442.286067084997280
 20
-305.607802775625490
 11
-436.159050431203920
 21
-305.607802775625490
  0
ARC
  8
0
  6
CONTINUOUS
 62
3
 10
-417.370727241641360
 20
-308.505323315895790
 40
4.999999999999787
 50
78.506801628095019
 51
102.770071443539460
  0
ARC
  8
0
  6
CONTINUOUS
 62
3
 10
-473.659050431204380
 20
-301.592998702200700
 40
3.000000000000000
 50
180.000000000000000
 51
268.869088815268640
  0
ARC
  8
0
  6
CONTINUOUS
 62
3
 10
-484.659050431204380
 20
-300.572794605145420
 40
3.000000000000273
 50
260.533338912426300
 51
0.000000000000000
  0
LINE
  8
0
  6
CONTINUOUS
 62
3
 10
-481.659050431204380
 20
-237.202440926763070
 11
-481.659050431204380
 21
-300.572794605145420
  0
LINE
  8
0
  6
CONTINUOUS
 62
3
 10
-476.659050431204380
 20
-241.222983290226470
 11
-476.659050431204380
 21
-301.592998702200700
  0
ARC
  8
0
  6
CONTINUOUS
 62
3
 10
-472.159050431205290
 20
-225.607802775625490
 40
79.999999999999943
 50
242.258787150595110
 51
270.000000000000000
  0
LINE
  8
0
  6
CONTINUOUS
 62
3
 10
-481.659050431204380
 20
-257.940854576623910
 11
-481.659050431204380
 21
-300.572794605145420
  0
LINE
  8
0
  6
CONTINUOUS
 62
3
 10
-476.659050431204380
 20
-263.231515575104590
 11
-476.659050431204380
 21
-301.592998702200700
  0
ARC
  8
0
  6
CONTINUOUS
 62
3
 10
-472.159050431205290
 20
-225.607802775625490
 40
79.999999999999943
 50
242.258787150595110
 51
270.000000000000000
  0
ARC
  8
0
  6
CONTINUOUS
 62
3
 10
-332.159050431204380
 20
-212.607802775624800
 40
12.999999999999950
 50
236.296430203431580
 51
270.000000000000000
  0
ARC
  8
0
  6
CONTINUOUS
 62
3
 10
-332.159050431204380
 20
-236.607802775624800
 40
5.633955001831049
 50
203.513099321098140
 51
121.736370180361370
  0
ARC
  8
0
  6
CONTINUOUS
 62
3
 10
-332.159050431204380
 20
-236.607802775624800
 40
6.499999999999984
 50
203.577974107225970
 51
119.980245938812910
  0
LINE
  8
0
  6
CONTINUOUS
 62
3
 10
-335.159047093345350
 20
-238.339848775176050
 11
-335.159048047019610
 21
-234.875750798491480
  0
LINE
  8
0
  6
CONTINUOUS
 62
3
 10
-329.159053769063690
 20
-234.875755822399240
 11
-329.159052815389370
 21
-238.339853799083810
  0
LINE
  8
0
  6
CONTINUOUS
 62
3
 10
-332.159043729483530
 20
-233.143705775689570
 11
-335.159048370755900
 21
-234.875750953919240
  0
LINE
  8
0
  6
CONTINUOUS
 62
3
 10
-329.159052319110740
 20
-238.339854168403580
 11
-332.159054895616580
 21
-240.071901141039920
  0
LINE
  8
0
  6
CONTINUOUS
 62
3
 10
-332.159043812602650
 20
-233.143705879239180
 11
-329.159053005255430
 21
-234.875755993488440
  0
LINE
  8
0
  6
CONTINUOUS
 62
3
 10
-332.159055136192990
 20
-240.071900951373610
 11
-335.159048008304750
 21
-238.339848993657540
  0
LINE
  8
0
  6
CONTINUOUS
 62
3
 10
-443.659050431204380
 20
-86.607802775580240
 11
-464.659050431204380
 21
-86.607802775580240
  0
ARC
  8
0
  6
CONTINUOUS
 62
3
 10
-464.659050431204380
 20
-76.607802775580240
 40
10.000000000000000
 50
180.000000000000000
 51
270.000000000000000
  0
ARC
  8
0
  6
CONTINUOUS
 62
3
 10
-443.659050431204380
 20
-76.607802775580240
 40
10.000000000000000
 50
270.000000000000000
 51
0.000000000000000
  0
ARC
  8
0
  6
CONTINUOUS
 62
3
 10
5.156788695332921
 20
266.892197224421810
 40
3.000000000000000
 50
90.000000000000000
 51
180.000000000000000
  0
LINE
  8
0
  6
CONTINUOUS
 62
3
 10
12.156788695332921
 20
269.892197224421810
 11
5.156788695332921
 21
269.892197224421810
  0
INSERT
  8
0
  2
SYM2
 10
32.156788695332807
 20
50.892197224372921
  0
INSERT
  8
0
  2
SYM2
 10
32.156788695332807
 20
121.892197224372920
  0
INSERT
  8
0
  2
SYM2
 10
32.156788695332580
 20
292.892197224372920
 41
-1.000000000000000
 50
180.000000000000030
  0
INSERT
  8
0
  2
SYM2
 10
32.156788695332807
 20
221.892197224372920
 41
-1.000000000000000
 50
180.000000000000030
  0
ARC
  8
0
  6
CONTINUOUS
 62
3
 10
34.156788695332807
 20
38.892197224372921
 40
2.000000000000000
 50
180.000000000000000
 51
270.000000000000000
  0
LINE
  8
0
  6
CONTINUOUS
 62
3
 10
43.156788695332807
 20
171.892197224372920
 11
43.156788695332807
 21
36.892197224372921
  0
LINE
  8
0
  6
CONTINUOUS
 62
3
 10
27.156788695332807
 20
38.892197224372921
 11
27.156788695332807
 21
44.392197224372921
  0
ARC
  8
0
  6
CONTINUOUS
 62
3
 10
30.156788695332807
 20
59.934157332822906
 40
2.999999999999756
 50
99.594068226861253
 51
180.000000000000000
  0
LINE
  8
0
  6
CONTINUOUS
 62
3
 10
32.156788695332807
 20
171.892197224372920
 11
32.156788695332807
 21
38.892197224372921
  0
ARC
  8
0
  6
CONTINUOUS
 62
3
 10
29.156788695332807
 20
38.892197224372921
 40
2.000000000000000
 50
180.000000000000000
 51
270.000000000000000
  0
LINE
  8
0
  6
CONTINUOUS
 62
3
 10
27.156788695332807
 20
57.392197224372921
 11
27.156788695332807
 21
59.934157332822906
  0
LINE
  8
0
  6
CONTINUOUS
 62
3
 10
27.331286178845403
 20
151.036895943056380
 11
23.052090205225113
 21
151.186328759261410
  0
LINE
  8
0
  6
CONTINUOUS
 62
3
 10
20.156788695332807
 20
171.892197224372920
 11
20.156788695332807
 21
151.392197224372920
  0
ARC
  8
0
  6
CONTINUOUS
 62
3
 10
27.156788695332807
 20
146.039941807960990
 40
5.000000000000000
 50
0.000000000000000
 51
87.999999999998934
  0
ARC
  8
0
  6
CONTINUOUS
 62
3
 10
23.156788695332807
 20
154.184501240318700
 40
3.000000000000000
 50
180.000000000000000
 51
267.999999999996360
  0
LINE
  8
0
  6
CONTINUOUS
 62
3
 10
15.656788695329169
 20
171.892197224372920
 11
15.656788695329169
 21
151.392197224372920
  0
LINE
  8
0
  6
CONTINUOUS
 62
3
 10
20.156788695332807
 20
151.392197224372920
 11
15.656788695329169
 21
151.392197224372920
  0
ARC
  8
0
  6
CONTINUOUS
 62
3
 10
13.316469972401364
 20
97.376805192945312
 40
3.000000000000161
 50
26.946799452615107
 51
90.000000000000000
  0
LINE
  8
0
  6
CONTINUOUS
 62
3
 10
15.990753016701319
 20
98.736294140664540
 11
31.831071739632534
 21
67.576426421171846
  0
ARC
  8
0
  6
CONTINUOUS
 62
3
 10
29.156788695332807
 20
66.216937473452617
 40
3.000000000000000
 50
0.000000000000000
 51
26.946799452617075
  0
LINE
  8
0
  6
CONTINUOUS
 62
3
 10
30.296047983699054
 20
100.376805192945310
 11
15.990753016701319
 21
100.376805192945310
  0
ARC
  8
0
  6
CONTINUOUS
 62
3
 10
29.156788695332807
 20
61.565759513307967
 40
3.000000000000000
 50
0.000000000000000
 51
26.946799452617075
  0
ARC
  8
0
  6
CONTINUOUS
 62
3
 10
13.316469972401364
 20
92.725627232800662
 40
3.000000000000161
 50
26.946799452615107
 51
90.000000000000000
  0
LINE
  8
0
  6
CONTINUOUS
 62
3
 10
15.990753016701319
 20
94.085116180519890
 11
31.831071739632534
 21
62.925248461027195
  0
ARC
  8
0
  6
CONTINUOUS
 62
3
 10
29.156788695332807
 20
65.850237115922937
 40
3.000000000000653
 50
279.594068226858330
 51
317.606151747584480
  0
ARC
  8
0
  6
CONTINUOUS
 62
3
 10
34.156788695332580
 20
304.892197224372920
 40
2.000000000000000
 50
90.000000000000000
 51
180.000000000000000
  0
LINE
  8
0
  6
CONTINUOUS
 62
3
 10
43.156788695332807
 20
171.892197224372920
 11
43.156788695332580
 21
306.892197224372920
  0
LINE
  8
0
  6
CONTINUOUS
 62
3
 10
27.156788695332580
 20
304.892197224372920
 11
27.156788695332580
 21
299.392197224372920
  0
ARC
  8
0
  6
CONTINUOUS
 62
3
 10
30.156788695332580
 20
283.850237115922940
 40
3.000000000000000
 50
180.000000000000000
 51
260.405931773138780
  0
LINE
  8
0
  6
CONTINUOUS
 62
3
 10
32.156788695332807
 20
171.892197224372920
 11
32.156788695332580
 21
304.892197224372920
  0
ARC
  8
0
  6
CONTINUOUS
 62
3
 10
29.156788695332580
 20
304.892197224372920
 40
2.000000000000000
 50
90.000000000000000
 51
180.000000000000000
  0
LINE
  8
0
  6
CONTINUOUS
 62
3
 10
27.156788695332580
 20
286.392197224372920
 11
27.156788695332580
 21
283.850237115922940
  0
LINE
  8
0
  6
CONTINUOUS
 62
3
 10
27.331286178845403
 20
192.747498505689460
 11
23.052090205225113
 21
192.598065689484430
  0
LINE
  8
0
  6
CONTINUOUS
 62
3
 10
20.156788695332807
 20
171.892197224372920
 11
20.156788695332807
 21
192.392197224372920
  0
ARC
  8
0
  6
CONTINUOUS
 62
3
 10
27.156788695332807
 20
197.744452640784860
 40
4.999999999999918
 50
272.000000000001080
 51
0.000000000000000
  0
ARC
  8
0
  6
CONTINUOUS
 62
3
 10
23.156788695332807
 20
189.599893208427150
 40
3.000000000000001
 50
92.000000000003652
 51
180.000000000000000
  0
LINE
  8
0
  6
CONTINUOUS
 62
3
 10
15.656788695329169
 20
171.892197224372920
 11
15.656788695329169
 21
192.392197224372920
  0
LINE
  8
0
  6
CONTINUOUS
 62
3
 10
20.156788695332807
 20
192.392197224372920
 11
15.656788695329169
 21
192.392197224372920
  0
ARC
  8
0
  6
CONTINUOUS
 62
3
 10
13.316469972401364
 20
246.407589255800530
 40
3.000000000000000
 50
270.000000000000000
 51
333.053200547384900
  0
LINE
  8
0
  6
CONTINUOUS
 62
3
 10
15.990753016701319
 20
245.048100308081300
 11
31.831071739632534
 21
276.207968027574000
  0
ARC
  8
0
  6
CONTINUOUS
 62
3
 10
29.156788695332580
 20
277.567456975293230
 40
3.000000000000161
 50
333.053200547384900
 51
0.000000000000000
  0
LINE
  8
0
  6
CONTINUOUS
 62
3
 10
30.296047983699054
 20
243.407589255800530
 11
15.990753016701319
 21
243.407589255800530
  0
ARC
  8
0
  6
CONTINUOUS
 62
3
 10
29.156788695332580
 20
282.218634935437880
 40
3.000000000000161
 50
333.053200547384900
 51
0.000000000000000
  0
ARC
  8
0
  6
CONTINUOUS
 62
3
 10
13.316469972401364
 20
251.058767215945180
 40
3.000000000000000
 50
270.000000000000000
 51
333.053200547384900
  0
LINE
  8
0
  6
CONTINUOUS
 62
3
 10
15.990753016701319
 20
249.699278268225950
 11
31.831071739632534
 21
280.859145987718650
  0
LINE
  8
0
  6
CONTINUOUS
 62
3
 10
26.641861824889702
 20
270.651327739845330
 11
12.156788695332580
 21
269.892197224373600
  0
ARC
  8
0
  6
CONTINUOUS
 62
3
 10
29.156788695332580
 20
277.934157332822910
 40
3.000000000000124
 50
42.393848252412582
 51
80.405931773141646
  0
ARC
  8
0
  6
CONTINUOUS
 62
3
 10
120.794208551165630
 20
84.751614827409185
 40
4.999999999999970
 50
54.248856798877661
 51
90.000000000000000
  0
LINE
  8
0
  6
CONTINUOUS
 62
3
 10
123.715537843922220
 20
88.809426449858165
 11
157.578117988089390
 21
64.430831160664980
  0
ARC
  8
0
  6
CONTINUOUS
 62
3
 10
154.656788695332810
 20
60.373019538215885
 40
5.000000000000000
 50
0.000000000000000
 51
54.248856798878435
  0
ARC
  8
0
  6
CONTINUOUS
 62
3
 10
120.794208551165630
 20
75.911105924662024
 40
4.999999999999970
 50
54.248856798877661
 51
90.000000000000000
  0
ARC
  8
0
  6
CONTINUOUS
 62
3
 10
154.656788695332810
 20
51.532510635468725
 40
5.000000000000000
 50
0.000000000000000
 51
54.248856798878435
  0
LINE
  8
0
  6
CONTINUOUS
 62
3
 10
123.715537843922220
 20
79.968917547111005
 11
157.578117988089390
 21
55.590322257917819
  0
LINE
  8
0
  6
CONTINUOUS
 62
3
 10
154.907184607011230
 20
89.751614827409185
 11
127.434805974200790
 21
89.751614827409185
  0
ARC
  8
0
  6
CONTINUOUS
 62
3
 10
127.406810697536230
 20
163.392197224372690
 40
5.000000000000000
 50
90.000000000000000
 51
180.000000000000000
  0
ARC
  8
0
  6
CONTINUOUS
 62
3
 10
127.406810697536230
 20
180.392197224372690
 40
5.000000000000000
 50
180.000000000000000
 51
270.000000000000000
  0
LINE
  8
0
  6
CONTINUOUS
 62
3
 10
154.656788695332810
 20
175.392197224372690
 11
127.406810697536230
 21
175.392197224372690
  0
ARC
  8
0
  6
CONTINUOUS
 62
3
 10
154.656788695332810
 20
180.392197224372690
 40
5.000000000000000
 50
270.000000000000000
 51
0.000000000000000
  0
LINE
  8
0
  6
CONTINUOUS
 62
3
 10
154.656788695332810
 20
168.392197224372690
 11
127.406810697536230
 21
168.392197224372690
  0
ARC
  8
0
  6
CONTINUOUS
 62
3
 10
154.656788695332810
 20
163.392197224372690
 40
5.000000000000000
 50
0.000000000000000
 51
90.000000000000000
  0
ARC
  8
0
  6
CONTINUOUS
 62
3
 10
120.794208551165630
 20
259.032779621336200
 40
5.000000000000000
 50
270.000000000000000
 51
305.751143201122320
  0
LINE
  8
0
  6
CONTINUOUS
 62
3
 10
123.715537843922220
 20
254.974967998887220
 11
157.578117988089390
 21
279.353563288080410
  0
ARC
  8
0
  6
CONTINUOUS
 62
3
 10
154.656788695332810
 20
283.411374910529500
 40
5.000000000000062
 50
305.751143201121580
 51
0.000000000000000
  0
ARC
  8
0
  6
CONTINUOUS
 62
3
 10
120.794208551165630
 20
267.873288524083360
 40
5.000000000000000
 50
270.000000000000000
 51
305.751143201122320
  0
ARC
  8
0
  6
CONTINUOUS
 62
3
 10
154.656788695332810
 20
292.251883813276660
 40
5.000000000000062
 50
305.751143201121580
 51
0.000000000000000
  0
LINE
  8
0
  6
CONTINUOUS
 62
3
 10
123.715537843922220
 20
263.815476901634380
 11
157.578117988089390
 21
288.194072190827570
  0
LINE
  8
0
  6
CONTINUOUS
 62
3
 10
154.907184607011230
 20
254.032779621336200
 11
127.434805974200790
 21
254.032779621336200
  0
LINE
  8
0
  6
CONTINUOUS
 62
3
 10
188.156788695332810
 20
127.892197224372690
 11
189.156788695332810
 21
127.892197224372690
  0
LINE
  8
0
  6
CONTINUOUS
 62
3
 10
188.156788695332810
 20
215.892197224372690
 11
189.156788695332810
 21
215.892197224372470
  0
LINE
  8
0
  6
CONTINUOUS
 62
3
 10
183.656788695332810
 20
315.892197224372690
 11
182.656788695332810
 21
316.892197224372690
  0
LINE
  8
0
  6
CONTINUOUS
 62
3
 10
183.656788695332810
 20
27.892197224373149
 11
182.656788695332810
 21
26.892197224373149
  0
LINE
  8
0
  6
CONTINUOUS
 62
3
 10
189.156788695332810
 20
127.892197224372690
 11
189.156788695332810
 21
215.892197224372470
  0
LINE
  8
0
  6
CONTINUOUS
 62
3
 10
182.656788695332810
 20
316.892197224372690
 11
179.656788695332810
 21
316.892197224372690
  0
LINE
  8
0
  6
CONTINUOUS
 62
3
 10
179.656788695332810
 20
329.392197224372690
 11
162.656788695332810
 21
329.392197224372690
  0
LINE
  8
0
  6
CONTINUOUS
 62
3
 10
182.656788695332810
 20
26.892197224373149
 11
179.656788695332810
 21
26.892197224373149
  0
ARC
  8
0
  6
CONTINUOUS
 62
3
 10
182.156788695332810
 20
106.892197224372690
 40
5.000000000000034
 50
303.367012969231500
 51
0.000000000000000
  0
ARC
  8
0
  6
CONTINUOUS
 62
3
 10
162.656788695332810
 20
326.392197224372690
 40
3.000000000000000
 50
90.000000000000000
 51
180.000000000000000
  0
ARC
  8
0
  6
CONTINUOUS
 62
3
 10
188.156788695332810
 20
216.892197224372690
 40
1.000000000000000
 50
180.000000000000000
 51
270.000000000000000
  0
ARC
  8
0
  6
CONTINUOUS
 62
3
 10
188.156788695332810
 20
126.892197224372690
 40
1.000000000000000
 50
90.000000000000000
 51
180.000000000000000
  0
LINE
  8
0
  6
CONTINUOUS
 62
3
 10
179.656788695332810
 20
171.892197224372690
 11
179.656788695332810
 21
329.392197224372690
  0
LINE
  8
0
  6
CONTINUOUS
 62
3
 10
187.156788695333030
 20
171.892197224372690
 11
187.156788695332810
 21
237.147374390798180
  0
LINE
  8
0
  6
CONTINUOUS
 62
3
 10
183.656788695332810
 20
171.892197224372690
 11
183.656788695332810
 21
315.892197224372690
  0
ARC
  8
0
  6
CONTINUOUS
 62
3
 10
182.156788695332810
 20
237.147374390798180
 40
5.000000000000000
 50
0.000000000000000
 51
72.542396876278175
  0
ARC
  8
0
  6
CONTINUOUS
 62
3
 10
162.656788695332810
 20
17.392197224372694
 40
3.000000000000000
 50
180.000000000000000
 51
270.000000000000000
  0
LINE
  8
0
  6
CONTINUOUS
 62
3
 10
179.656788695332810
 20
14.392197224372921
 11
162.656788695332810
 21
14.392197224372921
  0
LINE
  8
0
  6
CONTINUOUS
 62
3
 10
187.156788695332810
 20
171.892197224372690
 11
187.156788695332810
 21
106.892197224372690
  0
LINE
  8
0
  6
CONTINUOUS
 62
3
 10
183.656788695332810
 20
171.892197224372690
 11
183.656788695332810
 21
27.892197224373149
  0
LINE
  8
0
  6
CONTINUOUS
 62
3
 10
179.656788695332810
 20
171.892197224372690
 11
179.656788695332810
 21
14.392197224373149
  0
ARC
  8
0
  6
CONTINUOUS
 62
3
 10
187.656788695332810
 20
98.540550680127581
 40
5.000000000000034
 50
123.367012969231490
 51
143.130102354155980
  0
LINE
  8
0
  6
CONTINUOUS
 62
3
 10
159.656788695332810
 20
17.392197224372694
 11
159.656788695332810
 21
326.392197224372690
  0
LINE
  8
0
  6
DASHDOT
 62
4
 10
197.794658326314900
 20
306.242485649816900
 11
145.639613204632270
 21
306.242485649816900
  0
LINE
  8
0
  6
DASHDOT
 62
4
 10
197.794658326314900
 20
37.541908798928716
 11
145.639613204632270
 21
37.541908798928716
  0
ARC
  8
0
  6
CONTINUOUS
 62
3
 10
154.656788695332810
 20
315.771450359450680
 40
5.000000000000137
 50
271.999999999998410
 51
0.000000000000000
  0
LINE
  8
0
  6
CONTINUOUS
 62
3
 10
154.831286178845180
 20
310.774496224355060
 11
43.656484108842278
 21
306.892186587978590
  0
ARC
  8
0
  6
CONTINUOUS
 62
3
 10
154.656788695332810
 20
28.012944089294706
 40
5.000000000000000
 50
0.000000000000000
 51
88.000000000001606
  0
LINE
  8
0
  6
CONTINUOUS
 62
3
 10
154.831286178845180
 20
33.009898224390327
 11
43.656484108842278
 21
36.892207860766803
  0
LINE
  8
0
  6
CONTINUOUS
 62
3
 10
43.656788695332807
 20
36.892197224372239
 11
43.656788695332807
 21
276.909657609118770
  0
LINE
  8
0
  6
CONTINUOUS
 62
3
 10
43.656788695332807
 20
36.892197224372239
 11
43.656788695332807
 21
306.892197224373380
  0
ARC
  8
0
  6
CONTINUOUS
 62
3
 10
174.656788695332810
 20
86.987363437276827
 40
2.000000000000000
 50
180.000000000000000
 51
270.000000000000000
  0
ARC
  8
0
  6
CONTINUOUS
 62
3
 10
174.656788695332810
 20
51.747536283700128
 40
2.000000000000000
 50
180.000000000000000
 51
270.000000000000000
  0
LINE
  8
0
  6
CONTINUOUS
 62
3
 10
179.656788695332810
 20
49.747536283700128
 11
174.656788695332810
 21
49.747536283700128
  0
LINE
  8
0
  6
CONTINUOUS
 62
3
 10
179.656788695332810
 20
84.987363437276827
 11
174.656788695332810
 21
84.987363437276827
  0
ARC
  8
0
  6
CONTINUOUS
 62
3
 10
174.656788695332810
 20
256.797031011468560
 40
2.000000000000000
 50
90.000000000000000
 51
180.000000000000000
  0
ARC
  8
0
  6
CONTINUOUS
 62
3
 10
174.656788695332810
 20
292.036858165045260
 40
2.000000000000000
 50
90.000000000000000
 51
180.000000000000000
  0
LINE
  8
0
  6
CONTINUOUS
 62
3
 10
179.656788695332810
 20
294.036858165045260
 11
174.656788695332810
 21
294.036858165045260
  0
LINE
  8
0
  6
CONTINUOUS
 62
3
 10
179.656788695332810
 20
258.797031011468560
 11
174.656788695332810
 21
258.797031011468560
  0
LINE
  8
0
  6
CONTINUOUS
 62
3
 10
172.656788695332810
 20
171.892197224372690
 11
172.656788695332810
 21
292.036858165045260
  0
LINE
  8
0
  6
CONTINUOUS
 62
3
 10
172.656788695332810
 20
171.892197224372690
 11
172.656788695332810
 21
51.747536283700128
  0
LINE
  8
0
  6
CONTINUOUS
 62
3
 10
196.156788695332810
 20
144.392197224372690
 11
196.156788695332810
 21
147.892197224372690
  0
LINE
  8
0
  6
CONTINUOUS
 62
3
 10
191.156788695332810
 20
171.892197224372690
 11
191.156788695332810
 21
196.542197224373240
  0
LINE
  8
0
  6
CONTINUOUS
 62
3
 10
190.956788695332990
 20
196.892197224372690
 11
189.156788695332810
 21
196.892197224372690
  0
LINE
  8
0
  6
CONTINUOUS
 62
3
 10
193.156788695332810
 20
195.742197224372150
 11
193.716596316468210
 21
195.892197224372690
  0
LINE
  8
0
  6
CONTINUOUS
 62
3
 10
193.156788695332810
 20
195.742197224372150
 11
191.956788695332990
 21
195.742197224372150
  0
LINE
  8
0
  6
CONTINUOUS
 62
3
 10
191.156788695332810
 20
196.542197224373240
 11
191.156788695332810
 21
196.692197224372880
  0
ARC
  8
0
  6
CONTINUOUS
 62
3
 10
191.956788695332990
 20
196.542197224373240
 40
0.800000000000182
 50
180.000000000000000
 51
270.000000000000000
  0
LINE
  8
0
  6
CONTINUOUS
 62
3
 10
191.156788695332810
 20
196.692197224372880
 11
190.956788695332990
 21
196.892197224372690
  0
LINE
  8
0
  6
CONTINUOUS
 62
3
 10
191.156788695332810
 20
171.892197224372690
 11
191.156788695332810
 21
147.242197224372150
  0
LINE
  8
0
  6
CONTINUOUS
 62
3
 10
190.956788695332990
 20
146.892197224372690
 11
189.156788695332810
 21
146.892197224372690
  0
LINE
  8
0
  6
CONTINUOUS
 62
3
 10
193.156788695332810
 20
148.042197224373240
 11
193.716596316468210
 21
147.892197224372690
  0
LINE
  8
0
  6
CONTINUOUS
 62
3
 10
193.156788695332810
 20
148.042197224373240
 11
191.956788695332990
 21
148.042197224373240
  0
LINE
  8
0
  6
CONTINUOUS
 62
3
 10
191.156788695332810
 20
147.242197224372150
 11
191.156788695332810
 21
147.092197224372510
  0
ARC
  8
0
  6
CONTINUOUS
 62
3
 10
191.956788695332990
 20
147.242197224372150
 40
0.800000000001091
 50
90.000000000000000
 51
180.000000000000000
  0
LINE
  8
0
  6
CONTINUOUS
 62
3
 10
191.156788695332810
 20
147.092197224372510
 11
190.956788695332990
 21
146.892197224372690
  0
LINE
  8
0
  6
CONTINUOUS
 62
3
 10
265.756788695333170
 20
195.892197224372690
 11
193.716596316468210
 21
195.892197224372690
  0
LINE
  8
0
  6
CONTINUOUS
 62
3
 10
266.156788695332810
 20
171.892197224372690
 11
266.156788695332810
 21
195.492197224372150
  0
ARC
  8
0
  6
CONTINUOUS
 62
3
 10
265.756788695333170
 20
195.492197224372150
 40
0.399999999999636
 50
0.000000000000000
 51
90.000000000000000
  0
LINE
  8
0
  6
CONTINUOUS
 62
3
 10
266.156788695332810
 20
144.392197224372690
 11
196.156788695332810
 21
144.392197224372690
  0
LINE
  8
0
  6
CONTINUOUS
 62
3
 10
266.156788695332810
 20
171.892197224372690
 11
266.156788695332810
 21
144.392197224372690
  0
LINE
  8
0
  6
CONTINUOUS
 62
3
 10
265.756788695333170
 20
147.892197224372690
 11
193.716596316468210
 21
147.892197224372690
  0
ARC
  8
0
  6
CONTINUOUS
 62
3
 10
265.756788695333170
 20
148.292197224373240
 40
0.400000000000546
 50
270.000000000000000
 51
0.000000000000000
  0
LINE
  8
0
  6
CONTINUOUS
 62
3
 10
29.156788695332580
 20
306.892197224372920
 11
43.656788695332807
 21
306.892197224372920
  0
LINE
  8
0
  6
CONTINUOUS
 62
3
 10
29.156788695332807
 20
36.892197224372921
 11
43.656788695332807
 21
36.892197224372921
  0
TEXT
  8
0
  6
CONTINUOUS
 62
3
 10
-492.988342285156250
 20
222.149658203125000
 40
16.000000000000000
  1
Ｄ０９１
 50
0.000002504478167
 41
0.833333333333333
  7
STANDARD1
  0
TEXT
  8
0
  6
CONTINUOUS
 62
3
 10
-492.988342285156250
 20
200.949661254882810
 40
16.000000000000000
  1
三菱ギヤードモートル
 50
0.000002504478167
 41
0.833333333333333
  7
STANDARD1
  0
TEXT
  8
0
  6
CONTINUOUS
 62
3
 10
-492.988342285156250
 20
179.749664306640620
 40
16.000000000000000
  1
ＧＭ－ＤＦＢ
 50
0.000002504478167
 41
0.833333333333333
  7
STANDARD1
  0
TEXT
  8
0
  6
CONTINUOUS
 62
3
 10
-492.988342285156250
 20
158.549667358398440
 40
16.000000000000000
  1
０．４（kＷ）
 50
0.000002504478167
 41
0.804878051688032
  7
STANDARD1
  0
TEXT
  8
0
  6
CONTINUOUS
 62
3
 10
-492.988342285156250
 20
137.349670410156250
 40
16.000000000000000
  1
１／２７０～１／４５０
 50
0.000002504478167
 41
0.833333333333333
  7
STANDARD1
  0
TEXT
  8
0
  6
CONTINUOUS
 62
3
 10
-492.988342285156250
 20
116.149665832519530
 40
16.000000000000000
  1
ＳＣＡＬＥ　１／１
 50
0.000002504478167
 41
0.833333333333333
  7
STANDARD1
  0
ARC
  8
0
  6
DASHDOT
 62
4
 10
453.746292391201000
 20
-168.607802775579330
 40
189.999999999999940
 50
38.579643607448766
 51
51.697379200818425
  0
ARC
  8
0
  6
DASHDOT
 62
4
 10
453.746292391201000
 20
-168.607802775579330
 40
190.000000000000000
 50
218.342213078630830
 51
231.759041488419460
  0
ARC
  8
0
  6
CONTINUOUS
 62
3
 10
-163.343211304666850
 20
107.272976307499900
 40
3.000000000000000
 50
90.000000000000000
 51
180.000000000000000
  0
ARC
  8
0
  6
CONTINUOUS
 62
3
 10
-159.343211304666970
 20
113.272976307499900
 40
3.000000000000000
 50
270.000000000000000
 51
0.000000000000000
  0
LINE
  8
0
  6
CONTINUOUS
 62
3
 10
-166.343211304666850
 20
106.892197224372690
 11
-166.343211304666850
 21
107.272976307499900
  0
LINE
  8
0
  6
CONTINUOUS
 62
3
 10
-163.343211304666850
 20
110.272976307499900
 11
-159.343211304666970
 21
110.272976307499900
  0
ARC
  8
0
  6
CONTINUOUS
 62
3
 10
-237.037235527087320
 20
126.892197224372690
 40
20.000000000000007
 50
234.999999999999740
 51
270.000000000000000
  0
LINE
  8
0
  6
CONTINUOUS
 62
3
 10
-166.343211304666850
 20
106.892197224372690
 11
-237.037235527087320
 21
106.892197224372690
  0
ARC
  8
0
  6
CONTINUOUS
 62
3
 10
-256.743211304616690
 20
119.448992167127240
 40
2.600000000000136
 50
180.000000000000000
 51
234.999999999998610
  0
LINE
  8
0
  6
CONTINUOUS
 62
3
 10
-248.508764254108310
 20
110.509156338592900
 11
-258.234510039129300
 21
117.319196851976130
  0
LINE
  8
0
  6
CONTINUOUS
 62
3
 10
-259.343211304616830
 20
171.892197224372690
 11
-259.343211304616830
 21
119.448992167127240
  0
LINE
  8
0
  6
CONTINUOUS
 62
3
 10
-156.343211304666970
 20
171.892197224372690
 11
-156.343211304666970
 21
113.272976307499900
  0
ARC
  8
0
  6
CONTINUOUS
 62
3
 10
-256.743211304616690
 20
224.335402281618140
 40
2.599999999999721
 50
125.000000000001370
 51
180.000000000000000
  0
LINE
  8
0
  6
CONTINUOUS
 62
3
 10
-248.508764254108310
 20
233.275238110152490
 11
-258.234510039129300
 21
226.465197596769260
  0
ARC
  8
0
  6
CONTINUOUS
 62
3
 10
-237.037235527087320
 20
216.892197224372690
 40
20.000000000000000
 50
90.000000000000000
 51
125.000000000000240
  0
LINE
  8
0
  6
CONTINUOUS
 62
3
 10
-259.343211304616830
 20
171.892197224372690
 11
-259.343211304616830
 21
224.335402281618140
  0
LINE
  8
0
  6
CONTINUOUS
 62
3
 10
-156.343211304666970
 20
236.892197224372690
 11
-237.037235527087320
 21
236.892197224372690
  0
LINE
  8
0
  6
CONTINUOUS
 62
3
 10
-156.343211304666970
 20
171.892197224372690
 11
-156.343211304666970
 21
236.892197224372690
  0
LINE
  8
0
  6
CONTINUOUS
 62
3
 10
-167.343211304666400
 20
225.632312324810300
 11
-169.343211304666400
 21
223.979670685686870
  0
LINE
  8
0
  6
CONTINUOUS
 62
3
 10
-165.343211304666400
 20
226.808097810433080
 11
-167.343211304666400
 21
225.632312324810300
  0
LINE
  8
0
  6
CONTINUOUS
 62
3
 10
-167.343211304666400
 20
225.632312324810300
 11
-165.343211304666400
 21
223.979670685686870
  0
LINE
  8
0
  6
CONTINUOUS
 62
3
 10
-169.343211304666400
 20
226.808097810433080
 11
-167.343211304666400
 21
225.632312324810300
  0
POLYLINE
  8
0
  6
CONTINUOUS
 62
3
 66
1
 70
1
  0
VERTEX
  8
0
  6
CONTINUOUS
 62
3
 10
-162.643211304666410
 20
223.815722256432760
  0
VERTEX
  8
0
  6
CONTINUOUS
 62
3
 10
-162.733520486771230
 20
224.518679222633120
  0
VERTEX
  8
0
  6
CONTINUOUS
 62
3
 10
-163.000977501863360
 20
225.194621946845220
  0
VERTEX
  8
0
  6
CONTINUOUS
 62
3
 10
-163.435304126844440
 20
225.817574329250620
  0
VERTEX
  8
0
  6
CONTINUOUS
 62
3
 10
-164.019809433089620
 20
226.363596659149210
  0
VERTEX
  8
0
  6
CONTINUOUS
 62
3
 10
-164.732031209474290
 20
226.811705604615840
  0
VERTEX
  8
0
  6
CONTINUOUS
 62
3
 10
-165.544599172550480
 20
227.144680590178580
  0
VERTEX
  8
0
  6
CONTINUOUS
 62
3
 10
-166.426286791190590
 20
227.349725573876840
  0
VERTEX
  8
0
  6
CONTINUOUS
 62
3
 10
-167.343211304666400
 20
227.418960791977610
  0
VERTEX
  8
0
  6
CONTINUOUS
 62
3
 10
-168.260135818142200
 20
227.349725573876840
  0
VERTEX
  8
0
  6
CONTINUOUS
 62
3
 10
-169.141823436782320
 20
227.144680590178580
  0
VERTEX
  8
0
  6
CONTINUOUS
 62
3
 10
-169.954391399858510
 20
226.811705604615840
  0
VERTEX
  8
0
  6
CONTINUOUS
 62
3
 10
-170.666613176243170
 20
226.363596659149210
  0
VERTEX
  8
0
  6
CONTINUOUS
 62
3
 10
-171.251118482488350
 20
225.817574329250620
  0
VERTEX
  8
0
  6
CONTINUOUS
 62
3
 10
-171.685445107469430
 20
225.194621946845220
  0
VERTEX
  8
0
  6
CONTINUOUS
 62
3
 10
-171.952902122561570
 20
224.518679222633120
  0
VERTEX
  8
0
  6
CONTINUOUS
 62
3
 10
-172.043211304666390
 20
223.815722256432760
  0
VERTEX
  8
0
  6
CONTINUOUS
 62
3
 10
-171.952902122561570
 20
223.112765290232400
  0
VERTEX
  8
0
  6
CONTINUOUS
 62
3
 10
-171.685445107469430
 20
222.436822566020310
  0
VERTEX
  8
0
  6
CONTINUOUS
 62
3
 10
-171.251118482488350
 20
221.813870183614910
  0
VERTEX
  8
0
  6
CONTINUOUS
 62
3
 10
-170.666613176243150
 20
221.267847853716320
  0
VERTEX
  8
0
  6
CONTINUOUS
 62
3
 10
-169.954391399858510
 20
220.819738908249690
  0
VERTEX
  8
0
  6
CONTINUOUS
 62
3
 10
-169.141823436782320
 20
220.486763922686950
  0
VERTEX
  8
0
  6
CONTINUOUS
 62
3
 10
-168.260135818142200
 20
220.281718938988690
  0
VERTEX
  8
0
  6
CONTINUOUS
 62
3
 10
-167.343211304666400
 20
220.212483720887920
  0
VERTEX
  8
0
  6
CONTINUOUS
 62
3
 10
-166.426286791190590
 20
220.281718938988690
  0
VERTEX
  8
0
  6
CONTINUOUS
 62
3
 10
-165.544599172550480
 20
220.486763922686950
  0
VERTEX
  8
0
  6
CONTINUOUS
 62
3
 10
-164.732031209474290
 20
220.819738908249690
  0
VERTEX
  8
0
  6
CONTINUOUS
 62
3
 10
-164.019809433089650
 20
221.267847853716320
  0
VERTEX
  8
0
  6
CONTINUOUS
 62
3
 10
-163.435304126844440
 20
221.813870183614910
  0
VERTEX
  8
0
  6
CONTINUOUS
 62
3
 10
-163.000977501863360
 20
222.436822566020310
  0
VERTEX
  8
0
  6
CONTINUOUS
 62
3
 10
-162.733520486771230
 20
223.112765290232400
  0
SEQEND
  8
0
  6
CONTINUOUS
 62
3
  0
LINE
  8
0
  6
CONTINUOUS
 62
3
 10
-167.343211304666400
 20
118.152082123934860
 11
-169.343211304666400
 21
119.804723763058290
  0
LINE
  8
0
  6
CONTINUOUS
 62
3
 10
-165.343211304666400
 20
116.976296638312530
 11
-167.343211304666400
 21
118.152082123934860
  0
LINE
  8
0
  6
CONTINUOUS
 62
3
 10
-167.343211304666400
 20
118.152082123934860
 11
-165.343211304666400
 21
119.804723763058290
  0
LINE
  8
0
  6
CONTINUOUS
 62
3
 10
-169.343211304666400
 20
116.976296638312530
 11
-167.343211304666400
 21
118.152082123934860
  0
POLYLINE
  8
0
  6
CONTINUOUS
 62
3
 66
1
 70
1
  0
VERTEX
  8
0
  6
CONTINUOUS
 62
3
 10
-162.643211304666410
 20
119.968672192312850
  0
VERTEX
  8
0
  6
CONTINUOUS
 62
3
 10
-162.733520486771230
 20
120.671629158513210
  0
VERTEX
  8
0
  6
CONTINUOUS
 62
3
 10
-163.000977501863360
 20
121.347571882725300
  0
VERTEX
  8
0
  6
CONTINUOUS
 62
3
 10
-163.435304126844440
 20
121.970524265130700
  0
VERTEX
  8
0
  6
CONTINUOUS
 62
3
 10
-164.019809433089620
 20
122.516546595029280
  0
VERTEX
  8
0
  6
CONTINUOUS
 62
3
 10
-164.732031209474290
 20
122.964655540495890
  0
VERTEX
  8
0
  6
CONTINUOUS
 62
3
 10
-165.544599172550480
 20
123.297630526058660
  0
VERTEX
  8
0
  6
CONTINUOUS
 62
3
 10
-166.426286791190590
 20
123.502675509756910
  0
VERTEX
  8
0
  6
CONTINUOUS
 62
3
 10
-167.343211304666400
 20
123.571910727857680
  0
VERTEX
  8
0
  6
CONTINUOUS
 62
3
 10
-168.260135818142200
 20
123.502675509756910
  0
VERTEX
  8
0
  6
CONTINUOUS
 62
3
 10
-169.141823436782320
 20
123.297630526058660
  0
VERTEX
  8
0
  6
CONTINUOUS
 62
3
 10
-169.954391399858510
 20
122.964655540495890
  0
VERTEX
  8
0
  6
CONTINUOUS
 62
3
 10
-170.666613176243170
 20
122.516546595029280
  0
VERTEX
  8
0
  6
CONTINUOUS
 62
3
 10
-171.251118482488350
 20
121.970524265130700
  0
VERTEX
  8
0
  6
CONTINUOUS
 62
3
 10
-171.685445107469430
 20
121.347571882725300
  0
VERTEX
  8
0
  6
CONTINUOUS
 62
3
 10
-171.952902122561570
 20
120.671629158513210
  0
VERTEX
  8
0
  6
CONTINUOUS
 62
3
 10
-172.043211304666390
 20
119.968672192312850
  0
VERTEX
  8
0
  6
CONTINUOUS
 62
3
 10
-171.952902122561570
 20
119.265715226112490
  0
VERTEX
  8
0
  6
CONTINUOUS
 62
3
 10
-171.685445107469430
 20
118.589772501900390
  0
VERTEX
  8
0
  6
CONTINUOUS
 62
3
 10
-171.251118482488350
 20
117.966820119494990
  0
VERTEX
  8
0
  6
CONTINUOUS
 62
3
 10
-170.666613176243150
 20
117.420797789596420
  0
VERTEX
  8
0
  6
CONTINUOUS
 62
3
 10
-169.954391399858510
 20
116.972688844129800
  0
VERTEX
  8
0
  6
CONTINUOUS
 62
3
 10
-169.141823436782320
 20
116.639713858567030
  0
VERTEX
  8
0
  6
CONTINUOUS
 62
3
 10
-168.260135818142200
 20
116.434668874868790
  0
VERTEX
  8
0
  6
CONTINUOUS
 62
3
 10
-167.343211304666400
 20
116.365433656768010
  0
VERTEX
  8
0
  6
CONTINUOUS
 62
3
 10
-166.426286791190590
 20
116.434668874868790
  0
VERTEX
  8
0
  6
CONTINUOUS
 62
3
 10
-165.544599172550480
 20
116.639713858567030
  0
VERTEX
  8
0
  6
CONTINUOUS
 62
3
 10
-164.732031209474290
 20
116.972688844129800
  0
VERTEX
  8
0
  6
CONTINUOUS
 62
3
 10
-164.019809433089650
 20
117.420797789596420
  0
VERTEX
  8
0
  6
CONTINUOUS
 62
3
 10
-163.435304126844440
 20
117.966820119494990
  0
VERTEX
  8
0
  6
CONTINUOUS
 62
3
 10
-163.000977501863360
 20
118.589772501900390
  0
VERTEX
  8
0
  6
CONTINUOUS
 62
3
 10
-162.733520486771230
 20
119.265715226112490
  0
SEQEND
  8
0
  6
CONTINUOUS
 62
3
  0
LINE
  8
0
  6
CONTINUOUS
 62
3
 10
-157.005975749471190
 20
111.392197224372690
 11
-93.593211304667079
 21
111.392197224372690
  0
LINE
  8
0
  6
CONTINUOUS
 62
3
 10
-93.593211304667079
 20
111.392197224372690
 11
-93.593211304667079
 21
112.392197224372690
  0
LINE
  8
0
  6
CONTINUOUS
 62
3
 10
-162.843211304667080
 20
104.392197224372690
 11
-162.843211304667080
 21
110.231016199049690
  0
LINE
  8
0
  6
CONTINUOUS
 62
3
 10
-97.843211304666966
 20
104.392197224372690
 11
-97.843211304667079
 21
111.392197224372690
  0
LINE
  8
0
  6
CONTINUOUS
 62
3
 10
-162.843211304667080
 20
104.392197224372690
 11
-97.843211304666966
 21
104.392197224372690
  0
LINE
  8
0
  6
CONTINUOUS
 62
3
 10
-158.505887069847060
 20
110.392197224372690
 11
-97.843211304666966
 21
110.392197224372690
  0
LINE
  8
0
  6
CONTINUOUS
 62
3
 10
-162.843211304667080
 20
108.392197224372690
 11
-97.843211304666966
 21
108.392197224372690
  0
LINE
  8
0
  6
DASHDOT
 62
4
 10
-130.343211304667080
 20
110.225910560525440
 11
-130.343211304667080
 21
48.163497043889265
  0
LINE
  8
0
  6
CONTINUOUS
 62
3
 10
-165.793211304665990
 20
53.218371844588773
 11
-133.400467510563320
 21
53.218371844588773
  0
LINE
  8
0
  6
CONTINUOUS
 62
3
 10
-165.793211304665990
 20
102.086761164637090
 11
-94.893211304668284
 21
102.086761164636980
  0
LINE
  8
0
  6
CONTINUOUS
 62
3
 10
-165.793211304665990
 20
98.615288425590279
 11
-94.893211304668284
 21
98.615288425590279
  0
LINE
  8
0
  6
CONTINUOUS
 62
3
 10
-83.893211304668284
 20
91.086761164636982
 11
-83.893211304668284
 21
64.218371844588773
  0
LINE
  8
0
  6
CONTINUOUS
 62
3
 10
-176.793211304665990
 20
91.086761164637210
 11
-176.793211304665990
 21
64.218371844588773
  0
LINE
  8
0
  6
CONTINUOUS
 62
3
 10
-90.293211304667921
 20
61.192197224372649
 11
-90.293211304667921
 21
90.768131924059389
  0
LINE
  8
0
  6
CONTINUOUS
 62
3
 10
-170.393211304666350
 20
61.192197224372649
 11
-170.393211304666350
 21
90.768131924059617
  0
LINE
  8
0
  6
CONTINUOUS
 62
3
 10
-165.393211304666350
 20
95.768131924059503
 11
-95.293211304667921
 21
95.768131924059389
  0
ARC
  8
0
  6
CONTINUOUS
 62
3
 10
-95.293211304667921
 20
90.768131924059389
 40
5.000000000000000
 50
0.000000000000000
 51
90.000000000000000
  0
ARC
  8
0
  6
CONTINUOUS
 62
3
 10
-165.393211304666350
 20
90.768131924059617
 40
4.999999999999886
 50
90.000000000000000
 51
180.000000000000000
  0
ARC
  8
0
  6
CONTINUOUS
 62
3
 10
-94.893211304668284
 20
64.218371844588773
 40
11.000000000000000
 50
270.000000000000000
 51
0.000000000000000
  0
ARC
  8
0
  6
CONTINUOUS
 62
3
 10
-165.793211304665990
 20
64.218371844588773
 40
11.000000000000000
 50
180.000000000000000
 51
270.000000000000000
  0
LINE
  8
0
  6
CONTINUOUS
 62
3
 10
-164.593211304666620
 20
55.392197224372694
 11
-96.093211304667875
 21
55.392197224372694
  0
ARC
  8
0
  6
CONTINUOUS
 62
3
 10
-96.093211304667875
 20
61.192197224372649
 40
5.799999999999955
 50
270.000000000000000
 51
0.000000000000000
  0
ARC
  8
0
  6
CONTINUOUS
 62
3
 10
-164.593211304666620
 20
61.192197224372649
 40
5.799999999999727
 50
180.000000000000000
 51
270.000000000000000
  0
ARC
  8
0
  6
CONTINUOUS
 62
3
 10
-94.893211304668284
 20
87.615288425590279
 40
11.000000000000000
 50
0.000000000000000
 51
90.000000000000000
  0
ARC
  8
0
  6
CONTINUOUS
 62
3
 10
-94.893211304668284
 20
91.086761164636982
 40
11.000000000000000
 50
0.000000000000000
 51
90.000000000000000
  0
ARC
  8
0
  6
CONTINUOUS
 62
3
 10
-165.793211304665990
 20
87.615288425590279
 40
11.000000000000000
 50
90.000000000000000
 51
180.000000000000000
  0
ARC
  8
0
  6
CONTINUOUS
 62
3
 10
-165.793211304665990
 20
91.086761164637210
 40
10.999999999999886
 50
90.000000000000000
 51
180.000000000000000
  0
LINE
  8
0
  6
CONTINUOUS
 62
3
 10
-151.393846399277320
 20
54.592197224372740
 11
-109.692576210056920
 21
54.592197224372740
  0
ARC
  8
0
  6
CONTINUOUS
 62
3
 10
-109.692576210056920
 20
55.592197224372740
 40
1.000000000000000
 50
270.000000000000000
 51
323.130102354140380
  0
ARC
  8
0
  6
CONTINUOUS
 62
3
 10
-108.092576210057010
 20
54.392197224372694
 40
1.000000000000000
 50
90.000000000000000
 51
143.130102354166380
  0
ARC
  8
0
  6
CONTINUOUS
 62
3
 10
-152.993846399277230
 20
54.392197224372694
 40
0.999999999999727
 50
36.869897645849235
 51
90.000000000000000
  0
ARC
  8
0
  6
CONTINUOUS
 62
3
 10
-151.393846399277320
 20
55.592197224372740
 40
1.000000000000227
 50
216.869897645844020
 51
270.000000000000000
  0
LINE
  8
0
  6
CONTINUOUS
 62
3
 10
-164.143211304667260
 20
103.392197224372690
 11
-96.543211304667238
 21
103.392197224372580
  0
ARC
  8
0
  6
CONTINUOUS
 62
3
 10
-96.543211304667238
 20
98.392197224372580
 40
5.000000000000008
 50
44.925956400534659
 51
90.000000000000000
  0
ARC
  8
0
  6
CONTINUOUS
 62
3
 10
-164.143211304667260
 20
98.392197224372694
 40
5.000000000000000
 50
90.000000000000000
 51
135.074043599465310
  0
LINE
  8
0
  6
CONTINUOUS
 62
3
 10
-99.343211304667193
 20
104.392197224372580
 11
-99.343211304667193
 21
103.392197224372580
  0
LINE
  8
0
  6
CONTINUOUS
 62
3
 10
-161.343211304667080
 20
104.392197224372690
 11
-161.343211304667080
 21
103.392197224372690
  0
LINE
  8
0
  6
DASHDOT
 62
4
 10
-153.166842935978930
 20
79.392197224372694
 11
-108.879124897580480
 21
79.392197224372694
  0
CIRCLE
  8
0
  6
DASHED
 62
4
 10
-130.343211304667080
 20
79.392197224372467
 40
13.500000000000000
  0
ARC
  8
0
  6
CONTINUOUS
 62
3
 10
-132.543212067606530
 20
54.195669712118843
 40
1.299999237060699
 50
162.240552086452960
 51
253.398468892505180
  0
ARC
  8
0
  6
CONTINUOUS
 62
3
 10
-130.343211304667080
 20
61.574694634966590
 40
8.999999999999858
 50
253.398468892518050
 51
286.601548410325050
  0
ARC
  8
0
  6
CONTINUOUS
 62
3
 10
-128.143210541727630
 20
54.195669712118843
 40
1.299999237060351
 50
286.601548410324710
 51
17.759447913550098
  0
LINE
  8
0
  6
CONTINUOUS
 62
3
 10
-127.285955098771060
 20
53.218371844588773
 11
-94.893211304668284
 21
53.218371844588773
  0
LINE
  8
0
  6
CONTINUOUS
 62
3
 10
34.156788695332807
 20
-336.607802775579330
 11
43.656788695332807
 21
-336.607802775579330
  0
LINE
  8
0
  6
CONTINUOUS
 62
3
 10
23.156788695332807
 20
-63.607802775579330
 11
43.656788695332807
 21
-63.607802775579330
  0
LINE
  8
0
  6
DASHDOT
 62
4
 10
274.499278236216920
 20
-168.607802775579330
 11
90.389331058004473
 21
-168.607802775579330
  0
LINE
  8
0
  6
CONTINUOUS
 62
3
 10
23.156788695332807
 20
-88.607802775579330
 11
27.156788695332807
 21
-88.607802775579330
  0
LINE
  8
0
  6
DASHDOT
 62
4
 10
9.926541294518984
 20
-48.607802775580240
 11
28.025807309810489
 21
-48.607802775580240
  0
LINE
  8
0
  6
CONTINUOUS
 62
3
 10
20.156788695332807
 20
-28.607802775580240
 11
20.156788695332807
 21
-86.607802775580240
  0
LINE
  8
0
  6
CONTINUOUS
 62
3
 10
15.656788695332807
 20
-28.607802775580240
 11
20.156788695332807
 21
-28.607802775580240
  0
LINE
  8
0
  6
CONTINUOUS
 62
3
 10
32.156788695332807
 20
-199.691722992477480
 11
32.156788695332807
 21
-65.607802775579330
  0
LINE
  8
0
  6
CONTINUOUS
 62
3
 10
43.156788695332807
 20
-208.607802775579330
 11
43.156788695332807
 21
-63.607802775579330
  0
LINE
  8
0
  6
CONTINUOUS
 62
3
 10
32.156788695332807
 20
-225.523882558676630
 11
32.156788695332807
 21
-334.607802775579330
  0
ARC
  8
0
  6
CONTINUOUS
 62
3
 10
34.156788695332807
 20
-65.607802775579330
 40
2.000000000000000
 50
90.000000000000000
 51
180.000000000000000
  0
ARC
  8
0
  6
CONTINUOUS
 62
3
 10
30.156788695332807
 20
-205.607802775577510
 40
2.999999999999756
 50
99.594068226861253
 51
180.000000000000000
  0
ARC
  8
0
  6
CONTINUOUS
 62
3
 10
30.156788695332807
 20
-219.607802775577510
 40
3.000000000000000
 50
180.000000000000000
 51
260.405931773138780
  0
ARC
  8
0
  6
CONTINUOUS
 62
3
 10
29.156788695332807
 20
-199.691722992477480
 40
3.000000000000653
 50
279.594068226858330
 51
0.000000000000000
  0
ARC
  8
0
  6
CONTINUOUS
 62
3
 10
29.156788695332807
 20
-225.523882558676630
 40
3.000000000000000
 50
0.000000000000000
 51
80.405931773138747
  0
LINE
  8
0
  6
CONTINUOUS
 62
3
 10
27.156788695332807
 20
-205.607802775577510
 11
27.156788695332807
 21
-212.607802775577510
  0
LINE
  8
0
  6
CONTINUOUS
 62
3
 10
27.156788695332807
 20
-219.607802775577510
 11
27.156788695332807
 21
-212.607802775577510
  0
LINE
  8
0
  6
CONTINUOUS
 62
3
 10
43.156788695332807
 20
-208.607802775579330
 11
43.156788695332807
 21
-336.607802775579330
  0
ARC
  8
0
  6
CONTINUOUS
 62
3
 10
27.156788695332807
 20
-314.400781194814040
 40
5.000000000000356
 50
74.028040356722741
 51
87.000000000004846
  0
ARC
  8
0
  6
CONTINUOUS
 62
3
 10
27.156788695332807
 20
-102.919639914909560
 40
5.000000000000018
 50
272.999999999995110
 51
0.000000000000000
  0
LINE
  8
0
  6
CONTINUOUS
 62
3
 10
24.156788695332807
 20
-105.236831282603810
 11
24.156788695332807
 21
-91.264657025070846
  0
ARC
  8
0
  6
CONTINUOUS
 62
3
 10
21.156788695332807
 20
-105.236831282603810
 40
3.000000000000403
 50
273.000000000005230
 51
0.000000000000000
  0
ARC
  8
0
  6
CONTINUOUS
 62
3
 10
21.156788695332807
 20
-91.264657025070846
 40
3.000000000000000
 50
0.000000000000000
 51
70.528779365506566
  0
ARC
  8
0
  6
CONTINUOUS
 62
3
 10
27.156788695332807
 20
-93.607802775579330
 40
5.000000000000000
 50
0.000000000000000
 51
90.000000000000000
  0
LINE
  8
0
  6
CONTINUOUS
 62
3
 10
20.156788695332807
 20
-80.607802775579330
 11
20.156788695332807
 21
-66.607802775579330
  0
ARC
  8
0
  6
CONTINUOUS
 62
3
 10
23.156788695332807
 20
-85.607802775579330
 40
3.000000000000000
 50
180.000000000000000
 51
270.000000000000000
  0
ARC
  8
0
  6
CONTINUOUS
 62
3
 10
23.156788695332807
 20
-66.607802775579330
 40
3.000000000000000
 50
90.000000000000000
 51
180.000000000000000
  0
ARC
  8
0
  6
CONTINUOUS
 62
3
 10
21.156788695332807
 20
-91.264657025070846
 40
3.000000000000322
 50
67.582369538516275
 51
70.528779365506566
  0
ARC
  8
0
  6
CONTINUOUS
 62
3
 10
34.156788695332807
 20
-334.607802775579330
 40
2.000000000000000
 50
180.000000000000000
 51
270.000000000000000
  0
ARC
  8
0
  6
CONTINUOUS
 62
3
 10
27.156788695332807
 20
-314.400781194814730
 40
5.000000000000000
 50
0.000000000000000
 51
86.999999999999645
  0
ARC
  8
0
  6
CONTINUOUS
 62
3
 10
203.156381316191300
 20
-168.639035326844350
 40
7.000000000000000
 50
90.000000000000000
 51
270.000000000000000
  0
LINE
  8
0
  6
CONTINUOUS
 62
3
 10
266.156788695332350
 20
-161.639035326844350
 11
203.156381316191300
 21
-161.639035326844350
  0
LINE
  8
0
  6
CONTINUOUS
 62
3
 10
266.156788695332350
 20
-175.639035326844350
 11
203.156381316191300
 21
-175.639035326844350
  0
LINE
  8
0
  6
CONTINUOUS
 62
3
 10
266.156788695332810
 20
-168.607802775579330
 11
266.156788695332810
 21
-145.007802775579880
  0
ARC
  8
0
  6
CONTINUOUS
 62
3
 10
265.756788695333170
 20
-145.007802775579880
 40
0.399999999999636
 50
0.000000000000000
 51
90.000000000000000
  0
LINE
  8
0
  6
CONTINUOUS
 62
3
 10
265.756788695333170
 20
-144.607802775579330
 11
193.716596316468210
 21
-144.607802775579330
  0
ARC
  8
0
  6
CONTINUOUS
 62
3
 10
265.756788695333170
 20
-192.207802775578780
 40
0.400000000000546
 50
270.000000000000000
 51
0.000000000000000
  0
LINE
  8
0
  6
CONTINUOUS
 62
3
 10
266.156788695332810
 20
-168.607802775579330
 11
266.156788695332810
 21
-192.207802775578780
  0
LINE
  8
0
  6
CONTINUOUS
 62
3
 10
265.756788695333170
 20
-192.607802775579330
 11
193.716596316468210
 21
-192.607802775579330
  0
LINE
  8
0
  6
CONTINUOUS
 62
3
 10
190.956788695332990
 20
-143.607802775579330
 11
189.156788695332810
 21
-143.607802775579330
  0
LINE
  8
0
  6
CONTINUOUS
 62
3
 10
190.956788695332990
 20
-193.607802775579330
 11
189.156788695332810
 21
-193.607802775579330
  0
LINE
  8
0
  6
CONTINUOUS
 62
3
 10
191.156788695332810
 20
-193.407802775579510
 11
190.956788695332990
 21
-193.607802775579330
  0
ARC
  8
0
  6
CONTINUOUS
 62
3
 10
191.956788695332990
 20
-193.257802775579880
 40
0.800000000001091
 50
90.000000000000000
 51
180.000000000000000
  0
LINE
  8
0
  6
CONTINUOUS
 62
3
 10
191.156788695332810
 20
-193.257802775579880
 11
191.156788695332810
 21
-193.407802775579510
  0
LINE
  8
0
  6
CONTINUOUS
 62
3
 10
193.156788695332810
 20
-192.457802775578780
 11
191.956788695332990
 21
-192.457802775578780
  0
LINE
  8
0
  6
CONTINUOUS
 62
3
 10
193.156788695332810
 20
-192.457802775578780
 11
193.716596316468210
 21
-192.607802775579330
  0
LINE
  8
0
  6
CONTINUOUS
 62
3
 10
191.156788695332810
 20
-168.607802775579330
 11
191.156788695332810
 21
-193.257802775579880
  0
LINE
  8
0
  6
CONTINUOUS
 62
3
 10
191.156788695332810
 20
-143.807802775579150
 11
190.956788695332990
 21
-143.607802775579330
  0
ARC
  8
0
  6
CONTINUOUS
 62
3
 10
191.956788695332990
 20
-143.957802775578780
 40
0.800000000000182
 50
180.000000000000000
 51
270.000000000000000
  0
LINE
  8
0
  6
CONTINUOUS
 62
3
 10
191.156788695332810
 20
-143.957802775578780
 11
191.156788695332810
 21
-143.807802775579150
  0
LINE
  8
0
  6
CONTINUOUS
 62
3
 10
193.156788695332810
 20
-144.757802775579880
 11
191.956788695332990
 21
-144.757802775579880
  0
LINE
  8
0
  6
CONTINUOUS
 62
3
 10
193.156788695332810
 20
-144.757802775579880
 11
193.716596316468210
 21
-144.607802775579330
  0
LINE
  8
0
  6
CONTINUOUS
 62
3
 10
191.156788695332810
 20
-168.607802775579330
 11
191.156788695332810
 21
-143.957802775578780
  0
LINE
  8
0
  6
CONTINUOUS
 62
3
 10
179.656788695332810
 20
-173.607802775579330
 11
174.656788695332580
 21
-173.607802775579330
  0
LINE
  8
0
  6
CONTINUOUS
 62
3
 10
179.656788695332810
 20
-255.512636562675200
 11
174.656788695332810
 21
-255.512636562675200
  0
LINE
  8
0
  6
CONTINUOUS
 62
3
 10
179.656788695332810
 20
-290.752463716251900
 11
174.656788695332810
 21
-290.752463716251900
  0
ARC
  8
0
  6
CONTINUOUS
 62
3
 10
174.656788695332810
 20
-288.752463716251900
 40
2.000000000000000
 50
180.000000000000000
 51
270.000000000000000
  0
LINE
  8
0
  6
CONTINUOUS
 62
3
 10
172.656788695332810
 20
-175.607802775579330
 11
172.656788695332810
 21
-288.752463716251900
  0
ARC
  8
0
  6
CONTINUOUS
 62
3
 10
174.656788695332810
 20
-253.512636562675200
 40
2.000000000000000
 50
180.000000000000000
 51
270.000000000000000
  0
ARC
  8
0
  6
CONTINUOUS
 62
3
 10
174.656788695332580
 20
-175.607802775579330
 40
2.000000000000000
 50
90.000000000000000
 51
180.000000000000000
  0
LINE
  8
0
  6
CONTINUOUS
 62
3
 10
179.656788695332810
 20
-163.607802775579330
 11
174.656788695332580
 21
-163.607802775579330
  0
LINE
  8
0
  6
CONTINUOUS
 62
3
 10
179.656788695332810
 20
-81.702968988483462
 11
174.656788695332810
 21
-81.702968988483462
  0
LINE
  8
0
  6
CONTINUOUS
 62
3
 10
179.656788695332810
 20
-46.463141834906764
 11
174.656788695332810
 21
-46.463141834906764
  0
ARC
  8
0
  6
CONTINUOUS
 62
3
 10
174.656788695332810
 20
-48.463141834906764
 40
2.000000000000000
 50
90.000000000000000
 51
180.000000000000000
  0
LINE
  8
0
  6
CONTINUOUS
 62
3
 10
172.656788695332810
 20
-161.607802775579330
 11
172.656788695332810
 21
-48.463141834906764
  0
ARC
  8
0
  6
CONTINUOUS
 62
3
 10
174.656788695332810
 20
-83.702968988483462
 40
2.000000000000000
 50
90.000000000000000
 51
180.000000000000000
  0
ARC
  8
0
  6
CONTINUOUS
 62
3
 10
174.656788695332580
 20
-161.607802775579330
 40
1.999999999999773
 50
180.000000000000000
 51
270.000000000000000
  0
LINE
  8
0
  6
DASHDOT
 62
4
 10
197.794658326314900
 20
-302.958091201023310
 11
145.639613204632270
 21
-302.958091201023310
  0
LINE
  8
0
  6
DASHDOT
 62
4
 10
197.794658326314900
 20
-34.257514350135125
 11
145.639613204632270
 21
-34.257514350135125
  0
LINE
  8
0
  6
CONTINUOUS
 62
3
 10
159.656788695332810
 20
-323.107802775579330
 11
159.656788695332810
 21
-14.107802775579330
  0
LINE
  8
0
  6
CONTINUOUS
 62
3
 10
149.369972451932200
 20
-59.898756668631222
 11
43.656484108842278
 21
-63.590353027228048
  0
ARC
  8
0
  6
CONTINUOUS
 62
3
 10
187.656788695332810
 20
-241.959449319824440
 40
5.000000000000129
 50
123.367012969230780
 51
143.130102354155980
  0
LINE
  8
0
  6
CONTINUOUS
 62
3
 10
179.656788695332810
 20
-168.607802775579330
 11
179.656788695332810
 21
-326.107802775578880
  0
LINE
  8
0
  6
CONTINUOUS
 62
3
 10
183.656788695332810
 20
-168.607802775579330
 11
183.656788695332810
 21
-312.607802775578880
  0
LINE
  8
0
  6
CONTINUOUS
 62
3
 10
187.156788695332810
 20
-168.607802775579330
 11
187.156788695332810
 21
-233.607802775579330
  0
LINE
  8
0
  6
CONTINUOUS
 62
3
 10
179.656788695332810
 20
-326.107802775579100
 11
162.656788695332810
 21
-326.107802775579100
  0
ARC
  8
0
  6
CONTINUOUS
 62
3
 10
162.656788695332810
 20
-323.107802775579330
 40
3.000000000000000
 50
180.000000000000000
 51
270.000000000000000
  0
ARC
  8
0
  6
CONTINUOUS
 62
3
 10
182.156788695332810
 20
-103.352625609153840
 40
5.000000000000000
 50
0.000000000000000
 51
72.542396876278175
  0
LINE
  8
0
  6
CONTINUOUS
 62
3
 10
183.656788695332810
 20
-168.607802775579330
 11
183.656788695332810
 21
-24.607802775579330
  0
LINE
  8
0
  6
CONTINUOUS
 62
3
 10
187.156788695333030
 20
-168.607802775579330
 11
187.156788695332810
 21
-103.352625609153840
  0
LINE
  8
0
  6
CONTINUOUS
 62
3
 10
179.656788695332810
 20
-168.607802775579330
 11
179.656788695332810
 21
-11.107802775579330
  0
ARC
  8
0
  6
CONTINUOUS
 62
3
 10
188.156788695332810
 20
-213.607802775579330
 40
1.000000000000000
 50
90.000000000000000
 51
180.000000000000000
  0
ARC
  8
0
  6
CONTINUOUS
 62
3
 10
188.156788695332810
 20
-123.607802775579330
 40
1.000000000000000
 50
180.000000000000000
 51
270.000000000000000
  0
ARC
  8
0
  6
CONTINUOUS
 62
3
 10
162.656788695332810
 20
-14.107802775579330
 40
3.000000000000000
 50
90.000000000000000
 51
180.000000000000000
  0
ARC
  8
0
  6
CONTINUOUS
 62
3
 10
168.656788695332810
 20
-329.107802775579100
 40
3.000000000000000
 50
90.000000000000000
 51
180.000000000000000
  0
ARC
  8
0
  6
CONTINUOUS
 62
3
 10
162.656788695332810
 20
-337.507830083185810
 40
2.999999999999980
 50
268.122122552714020
 51
0.000000000000000
  0
ARC
  8
0
  6
CONTINUOUS
 62
3
 10
154.656788695332810
 20
-21.519285215362515
 40
5.000000000000041
 50
314.999999999998120
 51
0.000000000000000
  0
ARC
  8
0
  6
CONTINUOUS
 62
3
 10
120.263960634042170
 20
-55.912113276653599
 40
4.999999999999918
 50
272.000000000001080
 51
315.000000000000000
  0
ARC
  8
0
  6
CONTINUOUS
 62
3
 10
182.156788695332810
 20
-233.607802775579330
 40
4.999999999999939
 50
303.367012969232230
 51
0.000000000000000
  0
LINE
  8
0
  6
CONTINUOUS
 62
3
 10
182.656788695332810
 20
-313.607802775578880
 11
179.656788695332810
 21
-313.607802775578880
  0
LINE
  8
0
  6
CONTINUOUS
 62
3
 10
179.656788695332810
 20
-11.107802775579330
 11
162.656788695332810
 21
-11.107802775579330
  0
LINE
  8
0
  6
CONTINUOUS
 62
3
 10
182.656788695332810
 20
-23.607802775579330
 11
179.656788695332810
 21
-23.607802775579330
  0
LINE
  8
0
  6
CONTINUOUS
 62
3
 10
189.156788695332810
 20
-212.607802775579330
 11
189.156788695332810
 21
-124.607802775579550
  0
LINE
  8
0
  6
CONTINUOUS
 62
3
 10
43.656788695332807
 20
-336.607802775579330
 11
43.656788695332807
 21
-63.590342390833257
  0
LINE
  8
0
  6
CONTINUOUS
 62
3
 10
165.656788695332810
 20
-337.507830083185810
 11
165.656788695332810
 21
-329.107802775579100
  0
LINE
  8
0
  6
CONTINUOUS
 62
3
 10
43.656788695332807
 20
-336.607802775579330
 11
162.558480864870490
 21
-340.506218912285480
  0
LINE
  8
0
  6
CONTINUOUS
 62
3
 10
183.656788695332810
 20
-312.607802775578880
 11
182.656788695332810
 21
-313.607802775578880
  0
LINE
  8
0
  6
CONTINUOUS
 62
3
 10
183.656788695332810
 20
-24.607802775579330
 11
182.656788695332810
 21
-23.607802775579330
  0
LINE
  8
0
  6
CONTINUOUS
 62
3
 10
188.156788695332810
 20
-124.607802775579330
 11
189.156788695332810
 21
-124.607802775579550
  0
LINE
  8
0
  6
CONTINUOUS
 62
3
 10
188.156788695332810
 20
-212.607802775579330
 11
189.156788695332810
 21
-212.607802775579330
  0
LINE
  8
0
  6
CONTINUOUS
 62
3
 10
158.192322601265460
 20
-25.054819121295395
 11
123.799494539974830
 21
-59.447647182586252
  0
LINE
  8
0
  6
CONTINUOUS
 62
3
 10
154.962108841038800
 20
-84.154571613054713
 11
127.118598730678280
 21
-84.154571613054713
  0
ARC
  8
0
  6
CONTINUOUS
 62
3
 10
120.818382825829070
 20
-73.953449955459064
 40
5.000000000000000
 50
270.000000000000000
 51
305.248603455044820
  0
LINE
  8
0
  6
CONTINUOUS
 62
3
 10
157.542415119299450
 20
-54.123343909202731
 11
123.704009249795710
 21
-78.036728067626655
  0
ARC
  8
0
  6
CONTINUOUS
 62
3
 10
120.818382825829070
 20
-79.154571613054713
 40
5.000000000000000
 50
270.000000000000000
 51
305.248603455044820
  0
LINE
  8
0
  6
CONTINUOUS
 62
3
 10
157.542415119299450
 20
-59.324465566798381
 11
123.704009249795710
 21
-83.237849725222304
  0
ARC
  8
0
  6
CONTINUOUS
 62
3
 10
154.656788695332810
 20
-50.040065797035140
 40
5.000000000000143
 50
305.248603455044820
 51
0.000000000000000
  0
ARC
  8
0
  6
CONTINUOUS
 62
3
 10
154.656788695332810
 20
-55.241187454630790
 40
5.000000000000143
 50
305.248603455044820
 51
0.000000000000000
  0
ARC
  8
0
  6
CONTINUOUS
 62
3
 10
351.253932738047750
 20
-245.284502057230160
 40
9.999999999999950
 50
216.800938413478920
 51
344.803706655300350
  0
ARC
  8
0
  6
CONTINUOUS
 62
3
 10
383.797583040622840
 20
-207.430193997505970
 40
10.000000000000089
 50
293.824470809970080
 51
29.030811683541202
  0
ARC
  8
0
  6
CONTINUOUS
 62
3
 10
511.951664185626440
 20
-223.490720830951660
 40
10.000000000000068
 50
136.682825299161440
 51
238.061807908989040
  0
ARC
  8
0
  6
CONTINUOUS
 62
3
 10
535.972410828935840
 20
-266.704007832980100
 40
10.000000000000052
 50
180.074478852622290
 51
309.970383425430270
  0
CIRCLE
  8
0
  6
CONTINUOUS
 62
3
 10
453.746292391201000
 20
-168.607802775579330
 40
70.000000000000000
  0
ARC
  8
0
  6
CONTINUOUS
 62
3
 10
407.225873090136930
 20
-260.487853438493860
 40
48.000000000000021
 50
113.824470809971230
 51
164.803706655299460
  0
ARC
  8
0
  6
CONTINUOUS
 62
3
 10
484.972453917379650
 20
-266.770302775579010
 40
40.999999999999964
 50
0.074478852621535
 51
58.061807908989444
  0
CIRCLE
  8
0
  6
CONTINUOUS
 62
3
 10
453.746292391201000
 20
-168.607802775579330
 40
138.000000000000000
  0
CIRCLE
  8
0
  6
CONTINUOUS
 62
3
 10
453.746292391201000
 20
-168.607802775579330
 40
145.000000000000000
  0
ARC
  8
0
  6
CONTINUOUS
 62
3
 10
301.246292391201000
 20
-44.392074023041232
 40
5.000000000000000
 50
180.000000000000000
 51
225.000000000000000
  0
CIRCLE
  8
0
  6
CONTINUOUS
 62
3
 10
319.396003965757020
 20
-34.257514350135125
 40
12.000000000000000
  0
ARC
  8
0
  6
DASHDOT
 62
4
 10
453.746292391201000
 20
-168.607802775579330
 40
190.000000000000000
 50
129.119041968700370
 51
140.880958031302580
  0
ARC
  8
0
  6
CONTINUOUS
 62
3
 10
329.530563638662900
 20
-16.107802775579103
 40
5.000000000000041
 50
44.999999999998167
 51
90.000000000000000
  0
ARC
  8
0
  6
CONTINUOUS
 62
3
 10
318.600544220573740
 20
-82.959529288010344
 40
10.000000000000107
 50
327.635625093020340
 51
45.000000000000000
  0
ARC
  8
0
  6
CONTINUOUS
 62
3
 10
453.746292391201000
 20
-168.607802775579330
 40
149.999999999999910
 50
147.635625093021160
 51
177.002775457334760
  0
ARC
  8
0
  6
CONTINUOUS
 62
3
 10
368.098018903632010
 20
-33.462054604952073
 40
9.999999999999758
 50
225.000000000000000
 51
302.364374906978530
  0
ARC
  8
0
  6
CONTINUOUS
 62
3
 10
577.962021143739320
 20
-16.107802775579330
 40
5.000000000000000
 50
90.000000000000000
 51
135.000000000001820
  0
CIRCLE
  8
0
  6
CONTINUOUS
 62
3
 10
588.096580816644970
 20
-34.257514350135352
 40
12.000000000000000
  0
ARC
  8
0
  6
CONTINUOUS
 62
3
 10
606.246292391201000
 20
-44.392074023041232
 40
5.000000000000201
 50
315.000000000000000
 51
0.000000000000000
  0
ARC
  8
0
  6
CONTINUOUS
 62
3
 10
539.394565878769980
 20
-33.462054604952073
 40
9.999999999999984
 50
237.635625093021450
 51
314.999999999999090
  0
ARC
  8
0
  6
CONTINUOUS
 62
3
 10
453.746292391201000
 20
-168.607802775579330
 40
150.000000000000060
 50
57.635625093021090
 51
122.364374906978950
  0
ARC
  8
0
  6
CONTINUOUS
 62
3
 10
588.892040561828030
 20
-82.959529288010344
 40
9.999999999999758
 50
135.000000000000000
 51
212.364374906979260
  0
ARC
  8
0
  6
CONTINUOUS
 62
3
 10
606.246292391201000
 20
-292.823531528117660
 40
5.000000000000000
 50
0.000000000002606
 51
45.000000000001855
  0
CIRCLE
  8
0
  6
CONTINUOUS
 62
3
 10
588.096580816644970
 20
-302.958091201023310
 40
12.000000000000000
  0
ARC
  8
0
  6
DASHDOT
 62
4
 10
453.746292391201000
 20
-168.607802775579330
 40
190.000000000000140
 50
309.119041968700400
 51
320.880958031302550
  0
ARC
  8
0
  6
CONTINUOUS
 62
3
 10
577.962021143739090
 20
-321.107802775579330
 40
5.000000000000041
 50
225.000000000001850
 51
270.000000000000000
  0
ARC
  8
0
  6
CONTINUOUS
 62
3
 10
588.892040561828250
 20
-254.256076263148320
 40
9.999999999999984
 50
147.635625093021420
 51
224.999999999999090
  0
ARC
  8
0
  6
CONTINUOUS
 62
3
 10
453.746292391201000
 20
-168.607802775579330
 40
150.000000000000060
 50
327.635625093021080
 51
357.002775457334740
  0
ARC
  8
0
  6
CONTINUOUS
 62
3
 10
539.394565878769980
 20
-303.753550946206360
 40
9.999999999999758
 50
45.000000000000000
 51
122.364374906979250
  0
ARC
  8
0
  6
CONTINUOUS
 62
3
 10
318.600544220573970
 20
-254.256076263148320
 40
9.999999999999758
 50
315.000000000000000
 51
32.364374906979279
  0
ARC
  8
0
  6
CONTINUOUS
 62
3
 10
368.098018903632010
 20
-303.753550946206590
 40
10.000000000000107
 50
57.635625093020330
 51
134.999999999999090
  0
ARC
  8
0
  6
CONTINUOUS
 62
3
 10
329.530563638662900
 20
-321.107802775579330
 40
5.000000000000000
 50
270.000000000000000
 51
315.000000000000000
  0
ARC
  8
0
  6
CONTINUOUS
 62
3
 10
301.246292391201000
 20
-292.823531528117430
 40
5.000000000000041
 50
135.000000000001820
 51
180.000000000000000
  0
ARC
  8
0
  6
CONTINUOUS
 62
3
 10
453.746292391201000
 20
-168.607802775579330
 40
149.999999999999910
 50
237.635625093021160
 51
302.364374906978870
  0
ARC
  8
0
  6
CONTINUOUS
 62
3
 10
596.246292391201000
 20
-26.107802775579330
 40
15.000000000000000
 50
0.000000000000000
 51
90.000000000000000
  0
ARC
  8
0
  6
CONTINUOUS
 62
3
 10
596.246292391201000
 20
-311.107802775579330
 40
15.000000000000000
 50
270.000000000000000
 51
0.000000000000000
  0
ARC
  8
0
  6
CONTINUOUS
 62
3
 10
311.246292391201000
 20
-311.107802775579330
 40
15.000000000000000
 50
180.000000000000000
 51
270.000000000000000
  0
ARC
  8
0
  6
CONTINUOUS
 62
3
 10
311.246292391201000
 20
-26.107802775579330
 40
15.000000000000000
 50
90.000000000000000
 51
180.000000000000000
  0
CIRCLE
  8
0
  6
CONTINUOUS
 62
3
 10
319.396003965757020
 20
-302.958091201023310
 40
12.000000000000000
  0
CIRCLE
  8
0
  6
CONTINUOUS
 62
3
 10
453.746292391201000
 20
-168.607802775579780
 40
34.000000000000000
  0
ARC
  8
0
  6
CONTINUOUS
 62
3
 10
453.746292391201000
 20
-168.607802775579330
 40
149.999999999999910
 50
182.997224542665240
 51
212.364374906978920
  0
ARC
  8
0
  6
CONTINUOUS
 62
3
 10
453.746292391201000
 20
-168.607802775579330
 40
149.999999999999910
 50
2.997224542665233
 51
32.364374906978924
  0
CIRCLE
  8
0
  6
CONTINUOUS
 62
3
 10
453.746292391201000
 20
-168.607802775579780
 40
44.000000000000000
  0
ARC
  8
0
  6
CONTINUOUS
 62
3
 10
374.246292391201000
 20
-328.607802775578880
 40
11.999999999999970
 50
177.134016017401560
 51
270.000000000000000
  0
ARC
  8
0
  6
CONTINUOUS
 62
3
 10
356.270698404604670
 20
-328.544830432080520
 40
5.999999999999909
 50
2.984000447292837
 51
23.964546172534565
  0
ARC
  8
0
  6
CONTINUOUS
 62
3
 10
533.246292391201000
 20
-328.607802775578880
 40
12.000000000000000
 50
270.000000000000000
 51
2.865983982598435
  0
ARC
  8
0
  6
CONTINUOUS
 62
3
 10
551.221886377797320
 20
-328.544830432080520
 40
5.999999999999934
 50
156.035453827466310
 51
177.015999552707170
  0
ARC
  8
0
  6
CONTINUOUS
 62
3
 10
300.955585867538280
 20
-176.607802775579330
 40
3.000000000000193
 50
2.997224542666690
 51
90.000000000000000
  0
ARC
  8
0
  6
CONTINUOUS
 62
3
 10
300.955585867538280
 20
-160.607802775579330
 40
3.000000000000000
 50
270.000000000000000
 51
357.002775457333310
  0
ARC
  8
0
  6
CONTINUOUS
 62
3
 10
606.536998914863720
 20
-160.607802775579330
 40
2.999999999999966
 50
182.997224542666910
 51
270.000000000000000
  0
ARC
  8
0
  6
CONTINUOUS
 62
3
 10
606.536998914863720
 20
-176.607802775579330
 40
3.000000000000000
 50
90.000000000000000
 51
177.002775457333090
  0
ARC
  8
0
  6
CONTINUOUS
 62
3
 10
581.085973981158760
 20
-206.995372281451410
 40
5.000000000000024
 50
343.224145321645440
 51
0.000000000000000
  0
ARC
  8
0
  6
CONTINUOUS
 62
3
 10
326.406610801243230
 20
-206.995372281451410
 40
5.000000000000000
 50
180.000000000000000
 51
196.775854678354560
  0
ARC
  8
0
  6
CONTINUOUS
 62
3
 10
609.246292391201000
 20
-165.607802775579330
 40
2.000000000000000
 50
0.000000000000000
 51
90.000000000000000
  0
ARC
  8
0
  6
CONTINUOUS
 62
3
 10
609.246292391201000
 20
-171.607802775579330
 40
2.000000000000000
 50
270.000000000000000
 51
0.000000000000000
  0
ARC
  8
0
  6
CONTINUOUS
 62
3
 10
298.246292391201000
 20
-165.607802775579330
 40
2.000000000000000
 50
90.000000000000000
 51
180.000000000000000
  0
ARC
  8
0
  6
CONTINUOUS
 62
3
 10
298.246292391201000
 20
-171.607802775579330
 40
2.000000000000000
 50
180.000000000000000
 51
270.000000000000000
  0
ARC
  8
0
  6
CONTINUOUS
 62
3
 10
588.589720113874820
 20
-162.107802775579330
 40
3.000000000000000
 50
270.000000000000000
 51
2.759752678235591
  0
ARC
  8
0
  6
CONTINUOUS
 62
3
 10
588.589720113874820
 20
-175.107802775579330
 40
3.000000000000145
 50
357.240247321764400
 51
90.000000000000000
  0
ARC
  8
0
  6
CONTINUOUS
 62
3
 10
526.456332963325620
 20
-162.107802775579330
 40
3.000000000000029
 50
185.108444450886450
 51
270.000000000000000
  0
ARC
  8
0
  6
CONTINUOUS
 62
3
 10
526.456332963325620
 20
-175.107802775579330
 40
3.000000000000000
 50
90.000000000000000
 51
174.891555549113520
  0
ARC
  8
0
  6
CONTINUOUS
 62
3
 10
478.777524942464420
 20
-174.245973450895920
 40
107.308449038694430
 50
7.943216783021247
 51
87.075476210271674
  0
ARC
  8
0
  6
CONTINUOUS
 62
3
 10
580.104376638639910
 20
-160.107802775579330
 40
5.000000000000000
 50
270.000000000000000
 51
7.943216783020048
  0
ARC
  8
0
  6
CONTINUOUS
 62
3
 10
581.085973981158760
 20
-177.107802775579330
 40
5.000000000000000
 50
0.000000000000000
 51
90.000000000000000
  0
ARC
  8
0
  6
CONTINUOUS
 62
3
 10
460.246292391201000
 20
-33.764375052905280
 40
2.999999999999929
 50
87.240247321759867
 51
180.000000000000000
  0
ARC
  8
0
  6
CONTINUOUS
 62
3
 10
447.246292391201000
 20
-33.764375052905280
 40
3.000000000000000
 50
0.000000000000000
 51
92.759752678235799
  0
ARC
  8
0
  6
CONTINUOUS
 62
3
 10
447.246292391201000
 20
-95.897762203454704
 40
3.000000000000029
 50
275.108444450886450
 51
0.000000000000000
  0
ARC
  8
0
  6
CONTINUOUS
 62
3
 10
460.246292391201000
 20
-95.897762203454704
 40
3.000000000000000
 50
180.000000000000000
 51
264.891555549113550
  0
ARC
  8
0
  6
CONTINUOUS
 62
3
 10
318.902864668527170
 20
-162.107802775579330
 40
3.000000000000145
 50
177.240247321764400
 51
270.000000000000000
  0
ARC
  8
0
  6
CONTINUOUS
 62
3
 10
318.902864668527170
 20
-175.107802775579330
 40
3.000000000000000
 50
90.000000000000000
 51
182.759752678235600
  0
ARC
  8
0
  6
CONTINUOUS
 62
3
 10
381.036251819076370
 20
-175.107802775579330
 40
3.000000000000029
 50
5.108444450886473
 51
90.000000000000000
  0
ARC
  8
0
  6
CONTINUOUS
 62
3
 10
381.036251819076370
 20
-162.107802775579330
 40
3.000000000000000
 50
270.000000000000000
 51
354.891555549113550
  0
ARC
  8
0
  6
CONTINUOUS
 62
3
 10
453.777524942463970
 20
-663.607802775579100
 40
597.308449038694450
 50
87.075476210271702
 51
89.180762713737593
  0
ARC
  8
0
  6
CONTINUOUS
 62
3
 10
462.246292391201000
 20
-71.359899629841266
 40
4.999999999999854
 50
89.180762713737522
 51
180.000000000000000
  0
ARC
  8
0
  6
CONTINUOUS
 62
3
 10
453.715059839938250
 20
-663.607802775579100
 40
597.308449038694680
 50
90.819237286262435
 51
92.924523789728312
  0
ARC
  8
0
  6
CONTINUOUS
 62
3
 10
445.246292391201000
 20
-71.359899629841266
 40
5.000000000000000
 50
0.000000000000000
 51
90.819237286262478
  0
ARC
  8
0
  6
CONTINUOUS
 62
3
 10
428.715059839937570
 20
-174.245973450895920
 40
107.308449038694130
 50
92.924523789728326
 51
172.056783216978630
  0
ARC
  8
0
  6
CONTINUOUS
 62
3
 10
327.388208143762090
 20
-160.107802775579330
 40
4.999999999999872
 50
172.056783216977010
 51
270.000000000000000
  0
ARC
  8
0
  6
CONTINUOUS
 62
3
 10
326.406610801243230
 20
-177.107802775579330
 40
5.000000000000000
 50
90.000000000000000
 51
180.000000000000000
  0
ARC
  8
0
  6
CONTINUOUS
 62
3
 10
516.572339998336020
 20
-218.134439468030220
 40
10.000000000000112
 50
141.750801860498630
 51
236.987251938307910
  0
ARC
  8
0
  6
CONTINUOUS
 62
3
 10
484.972453917379650
 20
-266.770302775579010
 40
48.000000000000185
 50
6.015134369631197
 51
56.987251938308155
  0
ARC
  8
0
  6
CONTINUOUS
 62
3
 10
542.653120420074860
 20
-260.692415658754500
 40
9.999999999999867
 50
186.015134369631200
 51
313.994123956684400
  0
ARC
  8
0
  6
CONTINUOUS
 62
3
 10
346.221114063139110
 20
-238.050844367365020
 40
10.000000000000092
 50
212.855608111867750
 51
339.806925700099780
  0
ARC
  8
0
  6
CONTINUOUS
 62
3
 10
407.225873090136930
 20
-260.487853438493860
 40
55.000000000000135
 50
114.115030123907000
 51
159.806925700100010
  0
ARC
  8
0
  6
CONTINUOUS
 62
3
 10
380.668829220234100
 20
-201.160596457473280
 40
9.999999999999854
 50
294.115030123906250
 51
24.010868112054702
  0
LINE
  8
0
  6
DASHDOT
 62
4
 10
333.184586198894750
 20
-48.046096583272856
 11
305.607421732619510
 21
-20.468932116997394
  0
LINE
  8
0
  6
CONTINUOUS
 62
3
 10
361.026951091766700
 20
-40.533122416817378
 11
333.066097544595780
 21
-12.572268869646450
  0
LINE
  8
0
  6
CONTINUOUS
 62
3
 10
325.671612032439270
 20
-75.888461476144812
 11
297.710758485268340
 21
-47.927607928973885
  0
LINE
  8
0
  6
DASHDOT
 62
4
 10
574.307998583507470
 20
-48.046096583273084
 11
601.885163049782700
 21
-20.468932116997848
  0
LINE
  8
0
  6
CONTINUOUS
 62
3
 10
581.820972749962720
 20
-75.888461476145039
 11
609.781826297133880
 21
-47.927607928974112
  0
LINE
  8
0
  6
CONTINUOUS
 62
3
 10
546.465633690635290
 20
-40.533122416817605
 11
574.426487237806440
 21
-12.572268869646678
  0
LINE
  8
0
  6
DASHDOT
 62
4
 10
574.307998583507240
 20
-289.169508967885800
 11
601.885163049782700
 21
-316.746673434161040
  0
LINE
  8
0
  6
CONTINUOUS
 62
3
 10
546.465633690635290
 20
-296.682483134341060
 11
574.426487237806440
 21
-324.643336681512210
  0
LINE
  8
0
  6
CONTINUOUS
 62
3
 10
581.820972749962720
 20
-261.327144075013620
 11
609.781826297133650
 21
-289.287997622184780
  0
LINE
  8
0
  6
CONTINUOUS
 62
3
 10
361.026951091766700
 20
-296.682483134341060
 11
333.066097544595550
 21
-324.643336681511980
  0
LINE
  8
0
  6
CONTINUOUS
 62
3
 10
325.671612032439270
 20
-261.327144075013620
 11
297.710758485268120
 21
-289.287997622184780
  0
LINE
  8
0
  6
DASHDOT
 62
4
 10
333.184586198894520
 20
-289.169508967885580
 11
305.607421732619290
 21
-316.746673434161040
  0
LINE
  8
0
  6
CONTINUOUS
 62
3
 10
596.246292391201000
 20
-326.107802775579330
 11
311.246292391201000
 21
-326.107802775579330
  0
LINE
  8
0
  6
CONTINUOUS
 62
3
 10
596.246292391201000
 20
-11.107802775579330
 11
311.246292391201000
 21
-11.107802775579330
  0
LINE
  8
0
  6
CONTINUOUS
 62
3
 10
296.246292391201000
 20
-26.107802775579330
 11
296.246292391201000
 21
-311.107802775579330
  0
LINE
  8
0
  6
CONTINUOUS
 62
3
 10
611.246292391201000
 20
-26.107802775579330
 11
611.246292391201000
 21
-311.107802775579330
  0
LINE
  8
0
  6
DASHDOT
 62
4
 10
502.145570041933070
 20
-178.107802775627310
 11
404.282753923570680
 21
-178.107802775627310
  0
LINE
  8
0
  6
DASHDOT
 62
4
 10
453.746292391201000
 20
7.414087139771937
 11
453.746292391201000
 21
-353.756718651058920
  0
LINE
  8
0
  6
CONTINUOUS
 62
3
 10
374.246292391201000
 20
-340.607802775579330
 11
453.746292391201000
 21
-340.607802775579330
  0
LINE
  8
0
  6
CONTINUOUS
 62
3
 10
533.246292391201000
 20
-340.607802775579330
 11
453.746292391201000
 21
-340.607802775579330
  0
LINE
  8
0
  6
CONTINUOUS
 62
3
 10
300.955585867538280
 20
-163.607802775579330
 11
298.246292391201000
 21
-163.607802775579330
  0
LINE
  8
0
  6
CONTINUOUS
 62
3
 10
300.955585867538280
 20
-173.607802775579330
 11
298.246292391201000
 21
-173.607802775579330
  0
LINE
  8
0
  6
CONTINUOUS
 62
3
 10
606.536998914863720
 20
-163.607802775579330
 11
609.246292391201000
 21
-163.607802775579330
  0
LINE
  8
0
  6
CONTINUOUS
 62
3
 10
606.536998914863720
 20
-173.607802775579330
 11
609.246292391201000
 21
-173.607802775579330
  0
LINE
  8
0
  6
DASHDOT
 62
4
 10
637.060979371553230
 20
-168.607802775579330
 11
278.116056522701230
 21
-168.607802775579330
  0
LINE
  8
0
  6
CONTINUOUS
 62
3
 10
588.589720113874820
 20
-165.107802775579330
 11
526.456332963325620
 21
-165.107802775579330
  0
LINE
  8
0
  6
CONTINUOUS
 62
3
 10
588.589720113874820
 20
-172.107802775579330
 11
526.456332963325620
 21
-172.107802775579330
  0
LINE
  8
0
  6
CONTINUOUS
 62
3
 10
586.085973981158760
 20
-177.107802775579330
 11
586.085973981158760
 21
-206.995372281451410
  0
LINE
  8
0
  6
CONTINUOUS
 62
3
 10
450.246292391201000
 20
-33.764375052905280
 11
450.246292391201000
 21
-95.897762203454704
  0
LINE
  8
0
  6
CONTINUOUS
 62
3
 10
457.246292391201000
 20
-33.764375052905280
 11
457.246292391201000
 21
-95.897762203454704
  0
LINE
  8
0
  6
CONTINUOUS
 62
3
 10
318.902864668527170
 20
-172.107802775579330
 11
381.036251819076370
 21
-172.107802775579330
  0
LINE
  8
0
  6
CONTINUOUS
 62
3
 10
318.902864668527170
 20
-165.107802775579330
 11
381.036251819076370
 21
-165.107802775579330
  0
LINE
  8
0
  6
CONTINUOUS
 62
3
 10
321.406610801243230
 20
-177.107802775579330
 11
321.406610801243230
 21
-206.995372281451410
  0
LINE
  8
0
  6
CONTINUOUS
 62
3
 10
426.246292391201000
 20
-161.639035326843900
 11
426.246292391201000
 21
-175.639035326843900
  0
LINE
  8
0
  6
CONTINUOUS
 62
3
 10
435.246292391201000
 20
-161.639035326843900
 11
435.246292391201000
 21
-175.639035326843900
  0
ARC
  8
0
  6
CONTINUOUS
 62
3
 10
453.746292391201000
 20
-168.639035326843900
 40
23.999999999999723
 50
196.957763300004330
 51
163.042236699995670
  0
LINE
  8
0
  6
CONTINUOUS
 62
3
 10
426.246292391201000
 20
-161.639035326843900
 11
435.246292391201000
 21
-161.639035326843900
  0
LINE
  8
0
  6
CONTINUOUS
 62
3
 10
426.246292391201000
 20
-175.639035326843900
 11
435.246292391201000
 21
-175.639035326843900
  0
CIRCLE
  8
0
  6
CONTINUOUS
 62
4
 10
453.746292391201000
 20
-168.607802775579780
 40
4.000000000000000
  0
CIRCLE
  8
0
  6
CONTINUOUS
 62
3
 10
453.746292391201000
 20
-168.607802775579780
 40
3.324999999999989
  0
INSERT
  8
0
  2
SYM2
 10
32.156788695332807
 20
-77.607803588472052
  0
INSERT
  8
0
  2
SYM2
 10
32.156788695332807
 20
-146.607803588472050
  0
INSERT
  8
0
  2
SYM2
 10
32.156788695332807
 20
-236.607802775578420
  0
INSERT
  8
0
  2
SYM2
 10
32.156788695332807
 20
-328.607802775578880
  0
LINE
  8
0
  6
CONTINUOUS
 62
3
 10
-94.893211304668284
 20
-135.511195135021350
 11
-130.343211304667080
 21
-135.511195135021350
  0
LINE
  8
0
  6
CONTINUOUS
 62
4
 10
-130.343211304667080
 20
-148.107802775627080
 11
-95.293211304667921
 21
-148.107802775627080
  0
LINE
  8
0
  6
CONTINUOUS
 62
3
 10
-130.343211304667080
 20
-141.606013338519920
 11
-95.293211304667921
 21
-141.606013338519920
  0
LINE
  8
0
  6
CONTINUOUS
 62
3
 10
-83.893211304668284
 20
-146.511195135021350
 11
-83.893211304668284
 21
-228.113914503277100
  0
LINE
  8
0
  6
CONTINUOUS
 62
3
 10
-90.293211304667921
 20
-146.606013338519920
 11
-90.293211304667921
 21
-222.683757545180010
  0
LINE
  8
0
  6
CONTINUOUS
 62
3
 10
-94.893211304668284
 20
-237.893704574049930
 11
-130.343211304667080
 21
-237.893704574049930
  0
LINE
  8
0
  6
CONTINUOUS
 62
3
 10
-94.893211304668284
 20
-239.113914503277100
 11
-130.343211304667080
 21
-239.113914503277100
  0
LINE
  8
0
  6
CONTINUOUS
 62
3
 10
-121.855737087273720
 20
-227.683757545180010
 11
-95.293211304667921
 21
-227.683757545180010
  0
LINE
  8
0
  6
CONTINUOUS
 62
3
 10
-132.343211304667080
 20
-232.542701179855160
 11
-128.343211304667080
 21
-228.888519349284710
  0
LINE
  8
0
  6
CONTINUOUS
 62
3
 10
-128.343211304667080
 20
-232.542701179855160
 11
-132.343211304667080
 21
-228.888519349284710
  0
LINE
  8
0
  6
CONTINUOUS
 62
3
 10
-165.793211304665990
 20
-239.113914503277100
 11
-130.343211304667080
 21
-239.113914503277100
  0
LINE
  8
0
  6
CONTINUOUS
 62
3
 10
-165.793211304665990
 20
-237.893704574049930
 11
-130.343211304667080
 21
-237.893704574049930
  0
LINE
  8
0
  6
CONTINUOUS
 62
3
 10
-138.830685522060660
 20
-227.683757545180010
 11
-165.393211304666350
 21
-227.683757545180010
  0
LINE
  8
0
  6
DASHDOT
 62
4
 10
-130.343211304667080
 20
-132.608202942835310
 11
-130.343211304667080
 21
-245.261922368071960
  0
LINE
  8
0
  6
CONTINUOUS
 62
4
 10
-130.343211304667080
 20
-196.340650019921210
 11
-123.126332939797630
 21
-208.840650019921210
  0
LINE
  8
0
  6
CONTINUOUS
 62
4
 10
-115.909454574927280
 20
-196.340650019921210
 11
-130.343211304667080
 21
-196.340650019921210
  0
LINE
  8
0
  6
CONTINUOUS
 62
4
 10
-123.126332939796720
 20
-183.840650019921440
 11
-130.343211304667080
 21
-196.340650019921210
  0
LINE
  8
0
  6
CONTINUOUS
 62
4
 10
-130.343211304667080
 20
-171.340650019921210
 11
-123.126332939796720
 21
-183.840650019921210
  0
LINE
  8
0
  6
CONTINUOUS
 62
4
 10
-108.692576210056920
 20
-208.840650019921210
 11
-123.126332939797630
 21
-208.840650019921210
  0
LINE
  8
0
  6
CONTINUOUS
 62
4
 10
-115.909454574927280
 20
-196.340650019921210
 11
-108.692576210056920
 21
-208.840650019921210
  0
LINE
  8
0
  6
CONTINUOUS
 62
4
 10
-130.343211304667080
 20
-171.340650019921210
 11
-137.560089669537430
 21
-183.840650019921210
  0
LINE
  8
0
  6
CONTINUOUS
 62
4
 10
-137.560089669537430
 20
-183.840650019921440
 11
-130.343211304667080
 21
-196.340650019921210
  0
LINE
  8
0
  6
CONTINUOUS
 62
4
 10
-144.776968034406880
 20
-196.340650019921210
 11
-130.343211304667080
 21
-196.340650019921210
  0
LINE
  8
0
  6
CONTINUOUS
 62
4
 10
-144.776968034406880
 20
-196.340650019921210
 11
-151.993846399277230
 21
-208.840650019921210
  0
LINE
  8
0
  6
CONTINUOUS
 62
4
 10
-130.343211304667080
 20
-196.340650019921210
 11
-137.560089669536520
 21
-208.840650019921210
  0
LINE
  8
0
  6
CONTINUOUS
 62
4
 10
-151.993846399277230
 20
-208.840650019921210
 11
-137.560089669536520
 21
-208.840650019921210
  0
LINE
  8
0
  6
CONTINUOUS
 62
3
 10
-165.793211304665990
 20
-135.511195135021350
 11
-130.343211304667080
 21
-135.511195135021350
  0
LINE
  8
0
  6
CONTINUOUS
 62
3
 10
-130.343211304667080
 20
-141.606013338519920
 11
-165.393211304666350
 21
-141.606013338519920
  0
LINE
  8
0
  6
CONTINUOUS
 62
4
 10
-130.343211304667080
 20
-148.107802775627080
 11
-165.393211304666350
 21
-148.107802775627080
  0
LINE
  8
0
  6
CONTINUOUS
 62
3
 10
-170.393211304666350
 20
-146.606013338519920
 11
-170.393211304666350
 21
-222.683757545180010
  0
LINE
  8
0
  6
CONTINUOUS
 62
3
 10
-176.793211304665990
 20
-146.511195135021350
 11
-176.793211304665990
 21
-228.113914503277100
  0
LINE
  8
0
  6
CONTINUOUS
 62
3
 10
-156.343211304666970
 20
-135.511195135021350
 11
-156.343211304666970
 21
-118.107802775627300
  0
LINE
  8
0
  6
CONTINUOUS
 62
3
 10
-156.343211304666970
 20
-118.107802775627300
 11
-237.037235527087320
 21
-118.107802775627300
  0
LINE
  8
0
  6
CONTINUOUS
 62
3
 10
-259.343211304616830
 20
-178.107802775627310
 11
-259.343211304616830
 21
-130.664597718381860
  0
LINE
  8
0
  6
CONTINUOUS
 62
3
 10
-248.508764254108310
 20
-121.724761889847510
 11
-258.234510039129300
 21
-128.534802403230740
  0
LINE
  8
0
  6
CONTINUOUS
 62
3
 10
-170.389100467796540
 20
-238.107802775627310
 11
-237.037235527087320
 21
-238.107802775627310
  0
LINE
  8
0
  6
CONTINUOUS
 62
3
 10
-259.343211304616830
 20
-178.107802775627310
 11
-259.343211304616830
 21
-225.551007832872760
  0
LINE
  8
0
  6
CONTINUOUS
 62
3
 10
-248.508764254108310
 20
-234.490843661407100
 11
-258.234510039129300
 21
-227.680803148023870
  0
LINE
  8
0
  6
CONTINUOUS
 62
3
 10
-169.343211304666400
 20
-123.191902189566910
 11
-167.343211304666400
 21
-124.367687675189700
  0
LINE
  8
0
  6
CONTINUOUS
 62
3
 10
-167.343211304666400
 20
-124.367687675189700
 11
-165.343211304666400
 21
-126.020329314313130
  0
LINE
  8
0
  6
CONTINUOUS
 62
3
 10
-165.343211304666400
 20
-123.191902189566910
 11
-167.343211304666400
 21
-124.367687675189700
  0
LINE
  8
0
  6
CONTINUOUS
 62
3
 10
-167.343211304666400
 20
-124.367687675189700
 11
-169.343211304666400
 21
-126.020329314313130
  0
LINE
  8
0
  6
DASHED
 62
3
 10
340.318351361580880
 20
-234.734544710878710
 11
344.155242283679850
 21
-236.442838611797010
  0
LINE
  8
0
  6
DASHED
 62
3
 10
341.660582283731400
 20
-231.719844700658090
 11
345.497473205830150
 21
-233.428138601576390
  0
LINE
  8
0
  6
DASHED
 62
3
 10
345.320090120731720
 20
-232.966039866324990
 11
345.497473205830150
 21
-233.428138601576390
  0
LINE
  8
0
  6
DASHED
 62
3
 10
343.693143548428680
 20
-236.620221696894990
 11
344.155242283680080
 21
-236.442838611796560
  0
LINE
  8
0
  6
DASHED
 62
3
 10
345.497473205830150
 20
-233.428138601576390
 11
344.155242283680080
 21
-236.442838611796560
  0
LINE
  8
0
  6
DASHED
 62
3
 10
338.941572334379770
 20
-228.484186360331020
 11
336.094415832848880
 21
-234.879004563829310
  0
LINE
  8
0
  6
DASHED
 62
3
 10
338.941572334379770
 20
-228.484186360331020
 11
336.094415832848880
 21
-234.879004563829310
  0
LINE
  8
0
  6
DASHED
 62
3
 10
336.094415832848880
 20
-234.879004563829310
 11
335.200031713172390
 21
-234.480799098064840
  0
LINE
  8
0
  6
DASHED
 62
3
 10
338.941572334379770
 20
-228.484186360331020
 11
338.047188214703280
 21
-228.085980894566770
  0
LINE
  8
0
  6
DASHED
 62
3
 10
383.186863392048280
 20
-138.450290247906200
 11
383.611695551794360
 21
-139.451132096521630
  0
LINE
  8
0
  6
DASHED
 62
3
 10
382.741949646838290
 20
-139.449582880863550
 11
382.875291669032320
 21
-139.763716999312920
  0
LINE
  8
0
  6
DASHED
 62
3
 10
383.611695551794360
 20
-139.451132096521630
 11
382.875291669032320
 21
-139.763716999312920
  0
LINE
  8
0
  6
DASHED
 62
3
 10
380.062646949342930
 20
-136.124740592664010
 11
361.370583368394140
 21
-178.107802775627310
  0
LINE
  8
0
  6
DASHED
 62
3
 10
376.025479017986300
 20
-141.868009498288530
 11
350.069841924450200
 21
-146.126838651281560
  0
LINE
  8
0
  6
DASHED
 62
3
 10
381.382929050060970
 20
-135.617931778097270
 11
383.940856331460280
 21
-136.756794378709400
  0
LINE
  8
0
  6
DASHED
 62
3
 10
381.663131130240570
 20
-141.872648941510310
 11
383.466502320427250
 21
-142.675561525640430
  0
LINE
  8
0
  6
DASHED
 62
3
 10
380.246292391201000
 20
-224.607802775627310
 11
344.827067359872220
 21
-224.607802775627310
  0
LINE
  8
0
  6
DASHED
 62
3
 10
335.665730368340750
 20
-238.300441217125580
 11
338.223657649740520
 21
-239.439303817737710
  0
LINE
  8
0
  6
DASHED
 62
3
 10
361.370583368397320
 20
-178.107802775627310
 11
335.158921553774460
 21
-236.980159116407320
  0
LINE
  8
0
  6
DASHED
 62
3
 10
341.802940108807890
 20
-231.400103790483170
 11
345.320090120731720
 21
-232.966039866324990
  0
LINE
  8
0
  6
DASHED
 62
3
 10
340.175993536504620
 20
-235.054285621053170
 11
343.693143548428680
 21
-236.620221696894990
  0
LINE
  8
0
  6
DASHED
 62
3
 10
385.246292391201000
 20
-145.416197898568270
 11
385.246292391201000
 21
-219.607802775627310
  0
LINE
  8
0
  6
DASHED
 62
3
 10
383.940856331465510
 20
-136.756794378711670
 11
338.223657649740520
 21
-239.439303817737710
  0
LINE
  8
0
  6
DASHDOT
 62
4
 10
361.246292391201000
 20
-210.225278995921600
 11
361.246292391201000
 21
-233.093788171685220
  0
ARC
  8
0
  6
CONTINUOUS
 62
3
 10
-94.893211304668284
 20
-146.511195135021350
 40
11.000000000000000
 50
0.000000000000000
 51
90.000000000000000
  0
ARC
  8
0
  6
CONTINUOUS
 62
4
 10
-95.293211304667921
 20
-153.107802775627080
 40
5.000000000000000
 50
0.000000000000000
 51
90.000000000000000
  0
ARC
  8
0
  6
CONTINUOUS
 62
3
 10
-95.293211304667921
 20
-146.606013338519920
 40
5.000000000000000
 50
0.000000000000000
 51
90.000000000000000
  0
ARC
  8
0
  6
CONTINUOUS
 62
3
 10
-95.293211304667921
 20
-222.683757545180010
 40
5.000000000000000
 50
270.000000000000000
 51
0.000000000000000
  0
ARC
  8
0
  6
CONTINUOUS
 62
3
 10
-94.893211304668284
 20
-228.113914503277100
 40
11.000000000000000
 50
270.000000000000000
 51
0.000000000000000
  0
ARC
  8
0
  6
CONTINUOUS
 62
3
 10
-94.893211304668284
 20
-226.893704574049930
 40
11.000000000000000
 50
270.000000000000000
 51
0.000000000000000
  0
ARC
  8
0
  6
CONTINUOUS
 62
3
 10
-121.082993124053810
 20
-223.683757558030270
 40
4.000000000000156
 50
221.178434371117250
 51
270.000000000000000
  0
ARC
  8
0
  6
CONTINUOUS
 62
3
 10
-121.855737088946960
 20
-223.683757551403690
 40
3.999999999999828
 50
226.698420851470790
 51
270.000000000000000
  0
ARC
  8
0
  6
CONTINUOUS
 62
3
 10
-138.830685520387420
 20
-223.683757551403690
 40
3.999999993776328
 50
270.000000000000000
 51
313.301579148531630
  0
ARC
  8
0
  6
CONTINUOUS
 62
3
 10
-139.603429485280340
 20
-223.683757558030270
 40
3.999999987149749
 50
270.000000000000000
 51
318.821565628880590
  0
ARC
  8
0
  6
CONTINUOUS
 62
3
 10
-165.793211304665990
 20
-226.893704574049930
 40
11.000000000000000
 50
180.000000000000000
 51
270.000000000000000
  0
ARC
  8
0
  6
CONTINUOUS
 62
3
 10
-165.793211304665990
 20
-228.113914503277100
 40
11.000000000000000
 50
180.000000000000000
 51
270.000000000000000
  0
ARC
  8
0
  6
CONTINUOUS
 62
3
 10
-165.393211304666350
 20
-222.683757545180010
 40
5.000000000000000
 50
180.000000000000000
 51
270.000000000000000
  0
ARC
  8
0
  6
CONTINUOUS
 62
3
 10
-165.793211304665990
 20
-146.511195135021350
 40
11.000000000000000
 50
90.000000000000000
 51
180.000000000000000
  0
ARC
  8
0
  6
CONTINUOUS
 62
3
 10
-165.393211304666350
 20
-146.606013338519920
 40
5.000000000000000
 50
90.000000000000000
 51
180.000000000000000
  0
ARC
  8
0
  6
CONTINUOUS
 62
4
 10
-165.393211304666350
 20
-153.107802775627080
 40
5.000000000000000
 50
90.000000000000000
 51
180.000000000000000
  0
ARC
  8
0
  6
CONTINUOUS
 62
3
 10
-237.037235527087320
 20
-138.107802775627310
 40
20.000000000000000
 50
90.000000000000000
 51
125.000000000000240
  0
ARC
  8
0
  6
CONTINUOUS
 62
3
 10
-256.743211304616690
 20
-130.664597718381860
 40
2.599999999999721
 50
125.000000000001370
 51
180.000000000000000
  0
ARC
  8
0
  6
CONTINUOUS
 62
3
 10
-237.037235527087320
 20
-218.107802775627310
 40
20.000000000000007
 50
234.999999999999740
 51
270.000000000000000
  0
ARC
  8
0
  6
CONTINUOUS
 62
3
 10
-256.743211304616690
 20
-225.551007832872760
 40
2.600000000000136
 50
180.000000000000000
 51
234.999999999998610
  0
ARC
  8
0
  6
DASHED
 62
3
 10
380.976192406985550
 20
-136.531477235739890
 40
0.999999999999856
 50
66.000000000020236
 51
155.999999999996390
  0
ARC
  8
0
  6
DASHED
 62
3
 10
337.518430889020240
 20
-229.273589292522270
 40
1.299999237060620
 50
65.999999316753915
 51
139.398468892516150
  0
ARC
  8
0
  6
DASHED
 62
3
 10
375.539731127547610
 20
-138.907595846966390
 40
3.000000000000022
 50
279.318123119682530
 51
336.000000000000400
  0
ARC
  8
0
  6
DASHED
 62
3
 10
352.498581376641820
 20
-160.928906907892500
 40
15.000000000000041
 50
99.318123119675519
 51
178.317231198866920
  0
ARC
  8
0
  6
DASHED
 62
3
 10
937.246292391201000
 20
-178.107802775627530
 40
600.000000000001140
 50
178.317231198866840
 51
184.715124834091600
  0
ARC
  8
0
  6
DASHED
 62
3
 10
338.280243398889300
 20
-227.510962133513890
 40
1.000000000000041
 50
335.999999999996420
 51
4.715124834083239
  0
ARC
  8
0
  6
DASHED
 62
3
 10
382.246292391201000
 20
-145.416197898568270
 40
3.000000000000000
 50
0.000000000000000
 51
66.000000000020236
  0
ARC
  8
0
  6
DASHED
 62
3
 10
380.246292391201000
 20
-219.607802775627310
 40
5.000000000000000
 50
270.000000000000000
 51
0.000000000000000
  0
ARC
  8
0
  6
DASHED
 62
3
 10
336.072467011417070
 20
-237.386895759482970
 40
0.999999999999948
 50
156.000000000008300
 51
245.999999999972630
  0
ARC
  8
0
  6
DASHED
 62
3
 10
339.451605127502490
 20
-224.880040615506000
 40
1.000000000000041
 50
335.999999999996420
 51
66.000000000020236
  0
ARC
  8
0
  6
DASHED
 62
3
 10
340.876278794781910
 20
-222.230437363864440
 40
2.000000000000632
 50
184.231338074886000
 51
245.999999999972630
  0
ARC
  8
0
  6
DASHED
 62
3
 10
937.246292391201000
 20
-178.107802775627530
 40
600.799999999999950
 50
179.412192132293110
 51
182.841389015363350
  0
ARC
  8
0
  6
DASHED
 62
3
 10
338.183693162416380
 20
-207.840650019921210
 40
0.999999999999988
 50
182.841389015366990
 51
236.047873053618590
  0
ARC
  8
0
  6
DASHED
 62
3
 10
337.066693137803900
 20
-209.499659044916370
 40
1.000000000000008
 50
2.994076090848812
 51
56.047873053604029
  0
ARC
  8
0
  6
DASHED
 62
3
 10
336.296484721650810
 20
-170.340650019921210
 40
0.999999999999994
 50
306.205708094031080
 51
359.259505056807090
  0
ARC
  8
0
  6
DASHED
 62
3
 10
337.477856837927220
 20
-171.954452957979360
 40
1.000000000000128
 50
126.205708094041610
 51
179.412192132278280
  0
ARC
  8
0
  6
DASHED
 62
3
 10
335.728789038855670
 20
-233.293190700109340
 40
1.299999237060687
 50
172.601548410320760
 51
246.000017986079880
  0
ARC
  8
0
  6
DASHED
 62
3
 10
343.364684664036990
 20
-234.284709822607970
 40
9.000000000000075
 50
139.398468892516490
 51
172.601548410321070
  0
POLYLINE
  8
0
  6
CONTINUOUS
 62
3
 66
1
  0
VERTEX
  8
0
  6
CONTINUOUS
 62
3
 10
-124.093644246166030
 20
-226.317382402408240
  0
VERTEX
  8
0
  6
CONTINUOUS
 62
3
 10
-125.084613381252410
 20
-225.372254135887830
  0
VERTEX
  8
0
  6
CONTINUOUS
 62
3
 10
-126.244215760824090
 20
-224.603745333102150
  0
VERTEX
  8
0
  6
CONTINUOUS
 62
3
 10
-127.535265139720660
 20
-224.036500611250830
  0
VERTEX
  8
0
  6
CONTINUOUS
 62
3
 10
-128.916360017252260
 20
-223.688710430843710
  0
VERTEX
  8
0
  6
CONTINUOUS
 62
3
 10
-130.343211304667080
 20
-223.571527762192720
  0
SEQEND
  8
0
  6
CONTINUOUS
 62
3
  0
POLYLINE
  8
0
  6
CONTINUOUS
 62
3
 66
1
  0
VERTEX
  8
0
  6
CONTINUOUS
 62
3
 10
-124.599090733187600
 20
-226.594772972632260
  0
VERTEX
  8
0
  6
CONTINUOUS
 62
3
 10
-125.560791333762160
 20
-225.822893810705640
  0
VERTEX
  8
0
  6
CONTINUOUS
 62
3
 10
-126.644949501654080
 20
-225.201031242100070
  0
VERTEX
  8
0
  6
CONTINUOUS
 62
3
 10
-127.823804527298960
 20
-224.745108539514350
  0
VERTEX
  8
0
  6
CONTINUOUS
 62
3
 10
-129.067170914747350
 20
-224.466799956858270
  0
VERTEX
  8
0
  6
CONTINUOUS
 62
3
 10
-130.343211304667080
 20
-224.373231800939440
  0
SEQEND
  8
0
  6
CONTINUOUS
 62
3
  0
POLYLINE
  8
0
  6
CONTINUOUS
 62
3
 66
1
 70
1
  0
VERTEX
  8
0
  6
CONTINUOUS
 62
3
 10
-126.843211304667070
 20
-231.426297309645630
  0
VERTEX
  8
0
  6
CONTINUOUS
 62
3
 10
-126.910462823255770
 20
-230.752707539599500
  0
VERTEX
  8
0
  6
CONTINUOUS
 62
3
 10
-127.109632940877570
 20
-230.105003446662750
  0
VERTEX
  8
0
  6
CONTINUOUS
 62
3
 10
-127.433067661608170
 20
-229.508075935890280
  0
VERTEX
  8
0
  6
CONTINUOUS
 62
3
 10
-127.868337570514150
 20
-228.984864596760300
  0
VERTEX
  8
0
  6
CONTINUOUS
 62
3
 10
-128.398715489098460
 20
-228.555476147615250
  0
VERTEX
  8
0
  6
CONTINUOUS
 62
3
 10
-129.003819291389280
 20
-228.236411745751980
  0
VERTEX
  8
0
  6
CONTINUOUS
 62
3
 10
-129.660395177610640
 20
-228.039932857200710
  0
VERTEX
  8
0
  6
CONTINUOUS
 62
3
 10
-130.343211304667080
 20
-227.973590055461840
  0
VERTEX
  8
0
  6
CONTINUOUS
 62
3
 10
-131.026027431723520
 20
-228.039932857200710
  0
VERTEX
  8
0
  6
CONTINUOUS
 62
3
 10
-131.682603317944880
 20
-228.236411745751980
  0
VERTEX
  8
0
  6
CONTINUOUS
 62
3
 10
-132.287707120235690
 20
-228.555476147615250
  0
VERTEX
  8
0
  6
CONTINUOUS
 62
3
 10
-132.818085038819990
 20
-228.984864596760300
  0
VERTEX
  8
0
  6
CONTINUOUS
 62
3
 10
-133.253354947726000
 20
-229.508075935890280
  0
VERTEX
  8
0
  6
CONTINUOUS
 62
3
 10
-133.576789668456570
 20
-230.105003446662750
  0
VERTEX
  8
0
  6
CONTINUOUS
 62
3
 10
-133.775959786078370
 20
-230.752707539599500
  0
VERTEX
  8
0
  6
CONTINUOUS
 62
3
 10
-133.843211304667080
 20
-231.426297309645630
  0
VERTEX
  8
0
  6
CONTINUOUS
 62
3
 10
-133.775959786078370
 20
-232.099887079691770
  0
VERTEX
  8
0
  6
CONTINUOUS
 62
3
 10
-133.576789668456570
 20
-232.747591172628520
  0
VERTEX
  8
0
  6
CONTINUOUS
 62
3
 10
-133.253354947726000
 20
-233.344518683400990
  0
VERTEX
  8
0
  6
CONTINUOUS
 62
3
 10
-132.818085038819990
 20
-233.867730022530960
  0
VERTEX
  8
0
  6
CONTINUOUS
 62
3
 10
-132.287707120235690
 20
-234.297118471676010
  0
VERTEX
  8
0
  6
CONTINUOUS
 62
3
 10
-131.682603317944880
 20
-234.616182873539290
  0
VERTEX
  8
0
  6
CONTINUOUS
 62
3
 10
-131.026027431723520
 20
-234.812661762090560
  0
VERTEX
  8
0
  6
CONTINUOUS
 62
3
 10
-130.343211304667080
 20
-234.879004563829430
  0
VERTEX
  8
0
  6
CONTINUOUS
 62
3
 10
-129.660395177610640
 20
-234.812661762090560
  0
VERTEX
  8
0
  6
CONTINUOUS
 62
3
 10
-129.003819291389280
 20
-234.616182873539290
  0
VERTEX
  8
0
  6
CONTINUOUS
 62
3
 10
-128.398715489098460
 20
-234.297118471676010
  0
VERTEX
  8
0
  6
CONTINUOUS
 62
3
 10
-127.868337570514170
 20
-233.867730022530960
  0
VERTEX
  8
0
  6
CONTINUOUS
 62
3
 10
-127.433067661608170
 20
-233.344518683400990
  0
VERTEX
  8
0
  6
CONTINUOUS
 62
3
 10
-127.109632940877570
 20
-232.747591172628520
  0
VERTEX
  8
0
  6
CONTINUOUS
 62
3
 10
-126.910462823255780
 20
-232.099887079691770
  0
SEQEND
  8
0
  6
CONTINUOUS
 62
3
  0
POLYLINE
  8
0
  6
CONTINUOUS
 62
3
 66
1
  0
VERTEX
  8
0
  6
CONTINUOUS
 62
3
 10
-130.343211304667080
 20
-224.373231800939440
  0
VERTEX
  8
0
  6
CONTINUOUS
 62
3
 10
-131.619251694586810
 20
-224.466799956858270
  0
VERTEX
  8
0
  6
CONTINUOUS
 62
3
 10
-132.862618082035200
 20
-224.745108539514350
  0
VERTEX
  8
0
  6
CONTINUOUS
 62
3
 10
-134.041473107680080
 20
-225.201031242100070
  0
VERTEX
  8
0
  6
CONTINUOUS
 62
3
 10
-135.125631275572000
 20
-225.822893810705640
  0
VERTEX
  8
0
  6
CONTINUOUS
 62
3
 10
-136.087331876146550
 20
-226.594772972632260
  0
SEQEND
  8
0
  6
CONTINUOUS
 62
3
  0
POLYLINE
  8
0
  6
CONTINUOUS
 62
3
 66
1
  0
VERTEX
  8
0
  6
CONTINUOUS
 62
3
 10
-130.343211304667080
 20
-223.571527762192720
  0
VERTEX
  8
0
  6
CONTINUOUS
 62
3
 10
-131.770062592081960
 20
-223.688710430843710
  0
VERTEX
  8
0
  6
CONTINUOUS
 62
3
 10
-133.151157469613620
 20
-224.036500611250890
  0
VERTEX
  8
0
  6
CONTINUOUS
 62
3
 10
-134.442206848510270
 20
-224.603745333102240
  0
VERTEX
  8
0
  6
CONTINUOUS
 62
3
 10
-135.601809228081980
 20
-225.372254135888000
  0
VERTEX
  8
0
  6
CONTINUOUS
 62
3
 10
-136.592778363168350
 20
-226.317382402408530
  0
SEQEND
  8
0
  6
CONTINUOUS
 62
3
  0
POLYLINE
  8
0
  6
CONTINUOUS
 62
3
 66
1
 70
1
  0
VERTEX
  8
0
  6
CONTINUOUS
 62
3
 10
-162.643211304666410
 20
-126.184277743567230
  0
VERTEX
  8
0
  6
CONTINUOUS
 62
3
 10
-162.733520486771230
 20
-125.481320777366870
  0
VERTEX
  8
0
  6
CONTINUOUS
 62
3
 10
-163.000977501863360
 20
-124.805378053154780
  0
VERTEX
  8
0
  6
CONTINUOUS
 62
3
 10
-163.435304126844440
 20
-124.182425670749380
  0
VERTEX
  8
0
  6
CONTINUOUS
 62
3
 10
-164.019809433089620
 20
-123.636403340850800
  0
VERTEX
  8
0
  6
CONTINUOUS
 62
3
 10
-164.732031209474290
 20
-123.188294395384190
  0
VERTEX
  8
0
  6
CONTINUOUS
 62
3
 10
-165.544599172550480
 20
-122.855319409821410
  0
VERTEX
  8
0
  6
CONTINUOUS
 62
3
 10
-166.426286791190590
 20
-122.650274426123170
  0
VERTEX
  8
0
  6
CONTINUOUS
 62
3
 10
-167.343211304666400
 20
-122.581039208022400
  0
VERTEX
  8
0
  6
CONTINUOUS
 62
3
 10
-168.260135818142200
 20
-122.650274426123170
  0
VERTEX
  8
0
  6
CONTINUOUS
 62
3
 10
-169.141823436782320
 20
-122.855319409821410
  0
VERTEX
  8
0
  6
CONTINUOUS
 62
3
 10
-169.954391399858510
 20
-123.188294395384190
  0
VERTEX
  8
0
  6
CONTINUOUS
 62
3
 10
-170.666613176243170
 20
-123.636403340850800
  0
VERTEX
  8
0
  6
CONTINUOUS
 62
3
 10
-171.251118482488350
 20
-124.182425670749380
  0
VERTEX
  8
0
  6
CONTINUOUS
 62
3
 10
-171.685445107469430
 20
-124.805378053154780
  0
VERTEX
  8
0
  6
CONTINUOUS
 62
3
 10
-171.952902122561570
 20
-125.481320777366870
  0
VERTEX
  8
0
  6
CONTINUOUS
 62
3
 10
-172.043211304666390
 20
-126.184277743567230
  0
VERTEX
  8
0
  6
CONTINUOUS
 62
3
 10
-171.952902122561570
 20
-126.887234709767590
  0
VERTEX
  8
0
  6
CONTINUOUS
 62
3
 10
-171.685445107469430
 20
-127.563177433979680
  0
VERTEX
  8
0
  6
CONTINUOUS
 62
3
 10
-171.251118482488350
 20
-128.186129816385090
  0
VERTEX
  8
0
  6
CONTINUOUS
 62
3
 10
-170.666613176243150
 20
-128.732152146283680
  0
VERTEX
  8
0
  6
CONTINUOUS
 62
3
 10
-169.954391399858510
 20
-129.180261091750280
  0
VERTEX
  8
0
  6
CONTINUOUS
 62
3
 10
-169.141823436782320
 20
-129.513236077313050
  0
VERTEX
  8
0
  6
CONTINUOUS
 62
3
 10
-168.260135818142200
 20
-129.718281061011310
  0
VERTEX
  8
0
  6
CONTINUOUS
 62
3
 10
-167.343211304666400
 20
-129.787516279112050
  0
VERTEX
  8
0
  6
CONTINUOUS
 62
3
 10
-166.426286791190590
 20
-129.718281061011310
  0
VERTEX
  8
0
  6
CONTINUOUS
 62
3
 10
-165.544599172550480
 20
-129.513236077313050
  0
VERTEX
  8
0
  6
CONTINUOUS
 62
3
 10
-164.732031209474290
 20
-129.180261091750280
  0
VERTEX
  8
0
  6
CONTINUOUS
 62
3
 10
-164.019809433089650
 20
-128.732152146283680
  0
VERTEX
  8
0
  6
CONTINUOUS
 62
3
 10
-163.435304126844440
 20
-128.186129816385090
  0
VERTEX
  8
0
  6
CONTINUOUS
 62
3
 10
-163.000977501863360
 20
-127.563177433979680
  0
VERTEX
  8
0
  6
CONTINUOUS
 62
3
 10
-162.733520486771230
 20
-126.887234709767590
  0
SEQEND
  8
0
  6
CONTINUOUS
 62
3
  0
ENDSEC
  0
EOF
