  0
SECTION
  2
HEADER
  9
$FILLMODE
 70
1
  9
$TEXTSTYLE
  7
STANDARD1
  9
$ACADVER
  1
AC1009
  9
$DIMASZ
 40
1.931851648807023
  9
$DIMEXE
 40
2.000000000000000
  9
$DIMEXO
 40
1.000000000000000
  9
$DIMLFAC
 40
1.000000000000000
  9
$DIMSCALE
 40
1.000000000000000
  9
$DIMTAD
 70
1
  9
$DIMTFAC
 40
0.714285731315613
  9
$DIMTXT
 40
3.200000047683716
  9
$LUPREC
 70
3
  9
$TEXTSIZE
 40
3.299999952316284
  9
$REGENMODE
 70
1
  0
ENDSEC
  0
SECTION
  2
TABLES
  0
TABLE
  2
LTYPE
 70
4
  0
LTYPE
  2
CONTINUOUS
 70
64
  3
Solid line
 72
65
 73
0
 40
0.0
  0
LTYPE
  2
DASHED
 70
64
  3
-- -- -- -- -- -- -- -- -- -- -- -- -- -- --
 72
65
 73
2
 40
0.75
 49
0.5
 49
-0.25
  0
LTYPE
  2
DASHDOT
 70
64
  3
__ . __ . __ . __ . __ . __ . __ . __ . __ . __
 72
65
 73
4
 40
1.0
 49
0.5
 49
-0.25
 49
0.0
 49
-0.25
  0
LTYPE
  2
DIVIDE
 70
64
  3
__ . . __ . . __ . . __ . . __ . . __ . . __
 72
65
 73
6
 40
1.25
 49
0.5
 49
-0.25
 49
0.0
 49
-0.25
 49
0.0
 49
-0.25
  0
ENDTAB
  0
TABLE
  2
LAYER
 70
1
  0
LAYER
  2
0
 70
64
 62
2
  6
CONTINUOUS
  0
ENDTAB
  0
TABLE
  2
STYLE
 70
4
  0
STYLE
  2
STANDARD1
 70
64
 40
0.0
 41
1.0
 50
0.0
 71
0
 42
3.299999952316284
  3
MONOTXT
  4
BIGFONT
  0
STYLE
  2
STANDARD2
 70
68
 40
0.0
 41
1.0
 50
0.0
 71
0
 42
3.299999952316284
  3
MONOTXT
  4
BIGFONT
  0
STYLE
  2
STANDARD3
 70
64
 40
0.0
 41
1.0
 50
0.0
 71
0
 42
3.299999952316284
  3
MONOTXT
  4

  0
STYLE
  2
STANDARD4
 70
68
 40
0.0
 41
1.0
 50
0.0
 71
0
 42
3.299999952316284
  3
MONOTXT
  4

  0
ENDTAB
  0
TABLE
  2
VIEW
 70
0
  0
ENDTAB
  0
ENDSEC
  0
SECTION
  2
BLOCKS
  0
BLOCK
  8
0
  2
SYM1
 70
64
 10
0.000000000000000
 20
0.000000000000000
  0
POINT
  8
0
  6
CONTINUOUS
 62
3
 10
0.000000000000000
 20
0.000000000000000
  0
LINE
  8
0
  6
CONTINUOUS
 62
3
 10
-0.000030423851130
 20
-7.499999046330735
 11
-4.750025899805295
 21
-7.499979019174840
  0
LINE
  8
0
  6
CONTINUOUS
 62
3
 10
-4.750049139977591
 20
-7.499993996888350
 11
-5.500046248261697
 21
-6.299990408291990
  0
LINE
  8
0
  6
CONTINUOUS
 62
3
 10
-5.500023365026398
 20
-6.299976341312318
 11
-5.499970912939614
 21
6.300019271785827
  0
LINE
  8
0
  6
CONTINUOUS
 62
3
 10
-5.499983083855739
 20
6.300024529816085
 11
-4.749977372865317
 21
7.500023360260684
  0
LINE
  8
0
  6
CONTINUOUS
 62
3
 10
-4.749964714019825
 20
7.500017166133830
 11
0.000031348552056
 21
7.499999046315238
  0
LINE
  8
0
  6
CONTINUOUS
 62
3
 10
0.000030896794669
 20
7.500000000000000
 11
-0.000030896794669
 21
-7.500000000000000
  0
LINE
  8
0
  6
CONTINUOUS
 62
3
 10
-4.750011996199395
 20
-3.749974250803856
 11
-0.000011530566302
 21
-3.749994277972148
  0
LINE
  8
0
  6
CONTINUOUS
 62
3
 10
-4.749979019169359
 20
3.750014305102241
 11
0.000017610677105
 21
3.749996185290124
  0
ARC
  8
0
  6
CONTINUOUS
 62
3
 10
-2.780022621154785
 20
-5.624988555908203
 40
2.720000267028809
 50
136.399751989368410
 51
179.999745461767870
  0
ARC
  8
0
  6
CONTINUOUS
 62
3
 10
-2.779975891113281
 20
5.625011444091797
 40
2.720000267028809
 50
179.999745461767870
 51
223.599738934167330
  0
ARC
  8
0
  6
CONTINUOUS
 62
3
 10
4.250000000000000
 20
-0.000017508195015
 40
9.750000000000000
 50
157.379852817599810
 51
202.619583464422590
  0
ENDBLK
  8
0
  0
BLOCK
  8
0
  2
SYM2
 70
64
 10
0.000000000000000
 20
0.000000000000000
  0
POINT
  8
0
  6
CONTINUOUS
 62
3
 10
0.000000000000000
 20
0.000000000000000
  0
LINE
  8
0
  6
CONTINUOUS
 62
3
 10
0.000000000000000
 20
7.699999809265137
 11
0.000000000000000
 21
-7.699999809265137
  0
LINE
  8
0
  6
CONTINUOUS
 62
3
 10
-2.000000000000000
 20
-7.699999809265137
 11
-2.000000000000000
 21
7.699999809265137
  0
LINE
  8
0
  6
CONTINUOUS
 62
3
 10
-9.999999046325684
 20
5.633875846862793
 11
-9.999999046325684
 21
-5.634070396423340
  0
LINE
  8
0
  6
CONTINUOUS
 62
3
 10
-2.000000000000000
 20
6.500000000000000
 11
-9.499999046325684
 21
6.500000000000000
  0
LINE
  8
0
  6
CONTINUOUS
 62
3
 10
-2.000000000000000
 20
-6.500000000000000
 11
-9.499998092651367
 21
-6.500000000000000
  0
LINE
  8
0
  6
CONTINUOUS
 62
3
 10
0.000000000000000
 20
7.699999809265137
 11
-2.000000000000000
 21
7.699999809265137
  0
LINE
  8
0
  6
CONTINUOUS
 62
3
 10
-0.000000000000000
 20
-7.699999809265137
 11
-2.000000000000000
 21
-7.699999809265137
  0
LINE
  8
0
  6
CONTINUOUS
 62
3
 10
-1.999998981873038
 20
0.172822249985114
 11
0.000000987769830
 21
0.900760853490894
  0
LINE
  8
0
  6
CONTINUOUS
 62
3
 10
-1.999999210488731
 20
-0.878418080432510
 11
0.000000949025296
 21
-0.150479834572059
  0
LINE
  8
0
  6
CONTINUOUS
 62
3
 10
-9.499998408467981
 20
6.500000024068164
 11
-9.999998434614934
 21
5.633875883934149
  0
LINE
  8
0
  6
CONTINUOUS
 62
3
 10
-9.499997781840761
 20
-6.499999977299012
 11
-9.999998732033873
 21
-5.634070406230592
  0
LINE
  8
0
  6
CONTINUOUS
 62
3
 10
-9.499999046325684
 20
6.500000000000000
 11
-9.499999046325684
 21
-6.500000000000000
  0
ENDBLK
  8
0
  0
BLOCK
  8
0
  2
SYM3
 70
64
 10
0.000000000000000
 20
0.000000000000000
  0
POINT
  8
0
  6
CONTINUOUS
 62
3
 10
0.000000000000000
 20
0.000000000000000
  0
LINE
  8
0
  6
CONTINUOUS
 62
3
 10
0.000000000000000
 20
7.699999809265137
 11
0.000000000000000
 21
-7.699999809265137
  0
LINE
  8
0
  6
CONTINUOUS
 62
3
 10
-2.000000000000000
 20
-7.699999809265137
 11
-2.000000000000000
 21
7.699999809265137
  0
LINE
  8
0
  6
CONTINUOUS
 62
3
 10
-9.999999046325684
 20
5.633875846862793
 11
-9.999999046325684
 21
-5.634070396423340
  0
LINE
  8
0
  6
CONTINUOUS
 62
3
 10
-2.000000000000000
 20
6.500000000000000
 11
-9.499999046325684
 21
6.500000000000000
  0
LINE
  8
0
  6
CONTINUOUS
 62
3
 10
-2.000000000000000
 20
-6.500000000000000
 11
-9.499998092651367
 21
-6.500000000000000
  0
LINE
  8
0
  6
CONTINUOUS
 62
3
 10
0.000000000000000
 20
7.699999809265137
 11
-2.000000000000000
 21
7.699999809265137
  0
LINE
  8
0
  6
CONTINUOUS
 62
3
 10
-0.000000000000000
 20
-7.699999809265137
 11
-2.000000000000000
 21
-7.699999809265137
  0
LINE
  8
0
  6
CONTINUOUS
 62
3
 10
-1.999998981873038
 20
0.172822249985114
 11
0.000000987769830
 21
0.900760853490894
  0
LINE
  8
0
  6
CONTINUOUS
 62
3
 10
-1.999999210488731
 20
-0.878418080432510
 11
0.000000949025296
 21
-0.150479834572059
  0
LINE
  8
0
  6
CONTINUOUS
 62
3
 10
-9.499998408467981
 20
6.500000024068164
 11
-9.999998434614934
 21
5.633875883934149
  0
LINE
  8
0
  6
CONTINUOUS
 62
3
 10
-9.499997781840761
 20
-6.499999977299012
 11
-9.999998732033873
 21
-5.634070406230592
  0
LINE
  8
0
  6
CONTINUOUS
 62
3
 10
-9.499999046325684
 20
6.500000000000000
 11
-9.499999046325684
 21
-6.500000000000000
  0
ENDBLK
  8
0
  0
BLOCK
  8
0
  2
SYM4
 70
64
 10
0.000000000000000
 20
0.000000000000000
  0
POINT
  8
0
  6
CONTINUOUS
 62
3
 10
0.000000000000000
 20
0.000000000000000
  0
LINE
  8
0
  6
CONTINUOUS
 62
3
 10
-0.000030423851130
 20
-7.499999046330735
 11
-4.750025899805295
 21
-7.499979019174840
  0
LINE
  8
0
  6
CONTINUOUS
 62
3
 10
-4.750049139977591
 20
-7.499993996888350
 11
-5.500046248261697
 21
-6.299990408291990
  0
LINE
  8
0
  6
CONTINUOUS
 62
3
 10
-5.500023365026398
 20
-6.299976341312318
 11
-5.499970912939614
 21
6.300019271785827
  0
LINE
  8
0
  6
CONTINUOUS
 62
3
 10
-5.499983083855739
 20
6.300024529816085
 11
-4.749977372865317
 21
7.500023360260684
  0
LINE
  8
0
  6
CONTINUOUS
 62
3
 10
-4.749964714019825
 20
7.500017166133830
 11
0.000031348552056
 21
7.499999046315238
  0
LINE
  8
0
  6
CONTINUOUS
 62
3
 10
0.000030896794669
 20
7.500000000000000
 11
-0.000030896794669
 21
-7.500000000000000
  0
LINE
  8
0
  6
CONTINUOUS
 62
3
 10
-4.750011996199395
 20
-3.749974250803856
 11
-0.000011530566302
 21
-3.749994277972148
  0
LINE
  8
0
  6
CONTINUOUS
 62
3
 10
-4.749979019169359
 20
3.750014305102241
 11
0.000017610677105
 21
3.749996185290124
  0
ARC
  8
0
  6
CONTINUOUS
 62
3
 10
-2.780022621154785
 20
-5.624988555908203
 40
2.720000267028809
 50
136.399751989368410
 51
179.999745461767870
  0
ARC
  8
0
  6
CONTINUOUS
 62
3
 10
-2.779975891113281
 20
5.625011444091797
 40
2.720000267028809
 50
179.999745461767870
 51
223.599738934167330
  0
ARC
  8
0
  6
CONTINUOUS
 62
3
 10
4.250000000000000
 20
-0.000017508195015
 40
9.750000000000000
 50
157.379852817599810
 51
202.619583464422590
  0
ENDBLK
  8
0
  0
BLOCK
  8
0
  2
SYM5
 70
64
 10
0.000000000000000
 20
0.000000000000000
  0
POINT
  8
0
  6
CONTINUOUS
 62
3
 10
0.000000000000000
 20
0.000000000000000
  0
LINE
  8
0
  6
CONTINUOUS
 62
3
 10
0.002401208367701
 20
-7.504162813807056
 11
-6.495187652077846
 21
-3.749994904254493
  0
LINE
  8
0
  6
CONTINUOUS
 62
3
 10
-6.495189094719432
 20
-3.749993872743451
 11
-6.497592351816327
 21
3.754165100950397
  0
LINE
  8
0
  6
CONTINUOUS
 62
3
 10
-6.497593715787616
 20
3.754167812298078
 11
-0.002401379516073
 21
7.504164176415429
  0
LINE
  8
0
  6
CONTINUOUS
 62
3
 10
-0.002401208367701
 20
7.504162813807056
 11
6.495187652077846
 21
3.749994904254493
  0
LINE
  8
0
  6
CONTINUOUS
 62
3
 10
6.495189094719432
 20
3.749993872743451
 11
6.497592351816327
 21
-3.754165100950397
  0
LINE
  8
0
  6
CONTINUOUS
 62
3
 10
6.497593715787616
 20
-3.754167812298078
 11
0.002401379516073
 21
-7.504164176415429
  0
CIRCLE
  8
0
  6
CONTINUOUS
 62
3
 10
0.000000000000000
 20
0.000000000000000
 40
6.500000000000000
  0
ENDBLK
  8
0
  0
BLOCK
  8
0
  2
SYM6
 70
64
 10
0.000000000000000
 20
0.000000000000000
  0
POINT
  8
0
  6
CONTINUOUS
 62
3
 10
0.000000000000000
 20
0.000000000000000
  0
LINE
  8
0
  6
CONTINUOUS
 62
3
 10
0.002401208367701
 20
-7.504162813807056
 11
-6.495187652077846
 21
-3.749994904254493
  0
LINE
  8
0
  6
CONTINUOUS
 62
3
 10
-6.495189094719432
 20
-3.749993872743451
 11
-6.497592351816327
 21
3.754165100950397
  0
LINE
  8
0
  6
CONTINUOUS
 62
3
 10
-6.497593715787616
 20
3.754167812298078
 11
-0.002401379516073
 21
7.504164176415429
  0
LINE
  8
0
  6
CONTINUOUS
 62
3
 10
-0.002401208367701
 20
7.504162813807056
 11
6.495187652077846
 21
3.749994904254493
  0
LINE
  8
0
  6
CONTINUOUS
 62
3
 10
6.495189094719432
 20
3.749993872743451
 11
6.497592351816327
 21
-3.754165100950397
  0
LINE
  8
0
  6
CONTINUOUS
 62
3
 10
6.497593715787616
 20
-3.754167812298078
 11
0.002401379516073
 21
-7.504164176415429
  0
CIRCLE
  8
0
  6
CONTINUOUS
 62
3
 10
0.000000000000000
 20
0.000000000000000
 40
6.500000000000000
  0
ENDBLK
  8
0
  0
BLOCK
  8
0
  2
SYM7
 70
64
 10
0.000000000000000
 20
0.000000000000000
  0
CIRCLE
  8
0
  6
CONTINUOUS
 62
3
 10
0.000000000000000
 20
0.000000000000000
 40
6.960738182067871
  0
CIRCLE
  8
0
  6
CONTINUOUS
 62
3
 10
0.000000000000000
 20
0.000000000000000
 40
8.000000000000000
  0
POINT
  8
0
  6
CONTINUOUS
 62
3
 10
0.000000000000000
 20
0.000000000000000
  0
LINE
  8
0
  6
CONTINUOUS
 62
3
 10
-3.999997139938404
 20
-2.309395532903077
 11
-3.999999047287009
 21
2.314052838984130
  0
LINE
  8
0
  6
CONTINUOUS
 62
3
 10
3.999998569010026
 20
2.314043870120289
 11
3.999999522684329
 21
-2.309402594418285
  0
LINE
  8
0
  6
CONTINUOUS
 62
3
 10
3.999998221725946
 20
2.314044355750525
 11
0.000007450274552
 21
4.623449687881021
  0
LINE
  8
0
  6
CONTINUOUS
 62
3
 10
-0.000006538738603
 20
-4.618798907292330
 11
-3.999997310189656
 21
-2.309395428508765
  0
LINE
  8
0
  6
CONTINUOUS
 62
3
 10
-3.999998875528718
 20
2.314052870410592
 11
0.000007037532896
 21
4.623449279581905
  0
LINE
  8
0
  6
CONTINUOUS
 62
3
 10
3.999999097720604
 20
-2.309402025869701
 11
-0.000006540038783
 21
-4.618798985645469
  0
ENDBLK
  8
0
  0
BLOCK
  8
0
  2
SYM8
 70
64
 10
0.000000000000000
 20
0.000000000000000
  0
CIRCLE
  8
0
  6
CONTINUOUS
 62
3
 10
0.000000000000000
 20
0.000000000000000
 40
5.633955001831055
  0
CIRCLE
  8
0
  6
CONTINUOUS
 62
3
 10
0.000000000000000
 20
0.000000000000000
 40
6.500000000000000
  0
POINT
  8
0
  6
CONTINUOUS
 62
3
 10
0.000000000000000
 20
0.000000000000000
  0
LINE
  8
0
  6
CONTINUOUS
 62
3
 10
-2.999996662140960
 20
-1.732045999551255
 11
-2.999997615815242
 21
1.732051977133316
  0
LINE
  8
0
  6
CONTINUOUS
 62
3
 10
2.999996662140697
 20
1.732046953225571
 11
2.999997615814979
 21
-1.732051023458999
  0
LINE
  8
0
  6
CONTINUOUS
 62
3
 10
0.000006701720849
 20
3.464096999935236
 11
-2.999997939551520
 21
1.732051821705568
  0
LINE
  8
0
  6
CONTINUOUS
 62
3
 10
2.999998112093635
 20
-1.732051392778772
 11
-0.000004464412200
 21
-3.464098365415111
  0
LINE
  8
0
  6
CONTINUOUS
 62
3
 10
0.000006618601731
 20
3.464096896385627
 11
2.999997425948948
 21
1.732046782136365
  0
LINE
  8
0
  6
CONTINUOUS
 62
3
 10
-0.000004704988612
 20
-3.464098175748802
 11
-2.999997577100373
 21
-1.732046218032735
  0
POINT
  8
0
  6
CONTINUOUS
 62
3
 10
0.500000119209290
 20
6.500000000000000
  0
POINT
  8
0
  6
CONTINUOUS
 62
3
 10
0.000000000000000
 20
5.633955001831055
  0
ENDBLK
  8
0
  0
BLOCK
  8
0
  2
SYM9
 70
64
 10
0.000000000000000
 20
0.000000000000000
  0
POINT
  8
0
  6
CONTINUOUS
 62
3
 10
0.000000000000000
 20
0.000000000000000
  0
LINE
  8
0
  6
CONTINUOUS
 62
3
 10
0.000000000000000
 20
8.000000000000000
 11
0.000000000000000
 21
-8.000000000000000
  0
LINE
  8
0
  6
CONTINUOUS
 62
3
 10
-10.000000476827037
 20
6.960612565696465
 11
-9.999999523152582
 21
-6.960911482155097
  0
LINE
  8
0
  6
CONTINUOUS
 62
3
 10
0.000000000000000
 20
8.000000000000000
 11
-9.399999618530273
 21
8.000000000000000
  0
LINE
  8
0
  6
CONTINUOUS
 62
3
 10
-0.000000000000000
 20
-8.000000000000000
 11
-9.399999618530273
 21
-8.000000000000000
  0
POINT
  8
0
  6
CONTINUOUS
 62
3
 10
0.000000000000000
 20
0.000000000000000
  0
LINE
  8
0
  6
CONTINUOUS
 62
3
 10
-9.399995837072993
 20
7.999998091430371
 11
-9.999996234594676
 21
6.960609445139085
  0
LINE
  8
0
  6
CONTINUOUS
 62
3
 10
-9.399998831389837
 20
-7.999998896492343
 11
-9.999998372115272
 21
-6.960910396167719
  0
LINE
  8
0
  6
CONTINUOUS
 62
3
 10
-9.399999618530273
 20
8.000000000000000
 11
-9.399999618530273
 21
-8.000000000000000
  0
ENDBLK
  8
0
  0
BLOCK
  8
0
  2
SYM10
 70
64
 10
0.000000000000000
 20
0.000000000000000
  0
POINT
  8
0
  6
CONTINUOUS
 62
3
 10
0.000000000000000
 20
0.000000000000000
  0
LINE
  8
0
  6
CONTINUOUS
 62
3
 10
0.000000000000000
 20
-6.500000000000000
 11
-0.000000000000000
 21
6.500000000000000
  0
LINE
  8
0
  6
CONTINUOUS
 62
3
 10
-7.999999046325684
 20
5.633875846862793
 11
-7.999999046325684
 21
-5.634070396423340
  0
LINE
  8
0
  6
CONTINUOUS
 62
3
 10
0.000000000000000
 20
6.500000000000000
 11
-7.499999046325684
 21
6.500000000000000
  0
LINE
  8
0
  6
CONTINUOUS
 62
3
 10
-0.000000000000000
 20
-6.500000000000000
 11
-7.499998092651367
 21
-6.500000000000000
  0
LINE
  8
0
  6
CONTINUOUS
 62
3
 10
-7.499999203818277
 20
6.499999909101064
 11
-7.999999021366804
 21
5.633876130311293
  0
LINE
  8
0
  6
CONTINUOUS
 62
3
 10
-7.499997911632022
 20
-6.499999445138201
 11
-7.999998623386432
 21
-5.634070287011241
  0
LINE
  8
0
  6
CONTINUOUS
 62
3
 10
-7.499999046325684
 20
6.500000000000000
 11
-7.499999046325684
 21
-6.500000000000000
  0
ENDBLK
  8
0
  0
ENDSEC
  0
SECTION
  2
ENTITIES
  0
LINE
  8
0
  6
CONTINUOUS
 62
3
 10
467.452299714742420
 20
-189.953343227660980
 11
467.452299714742420
 21
-205.953343227660980
  0
ARC
  8
0
  6
CONTINUOUS
 62
3
 10
498.952299714742420
 20
-197.953343227660980
 40
27.499999999999982
 50
196.912389803425840
 51
163.087610196574160
  0
LINE
  8
0
  6
CONTINUOUS
 62
3
 10
467.452299714742420
 20
-205.953343227660980
 11
477.452299714742420
 21
-205.953343227660980
  0
LINE
  8
0
  6
CONTINUOUS
 62
3
 10
467.452299714742420
 20
-189.953343227660980
 11
477.452299714742420
 21
-189.953343227660980
  0
LINE
  8
0
  6
CONTINUOUS
 62
3
 10
477.452299714742420
 20
-189.953343227660980
 11
477.452299714742420
 21
-205.953343227660980
  0
ARC
  8
0
  6
CONTINUOUS
 62
3
 10
-449.718952160684920
 20
-266.880107367518750
 40
6.099999427795406
 50
264.601927898108500
 51
5.398089404735375
  0
POINT
  8
0
  6
CONTINUOUS
 62
3
 10
-447.456210595757910
 20
-269.142848932445760
  0
LINE
  8
0
  6
CONTINUOUS
 62
3
 10
-444.132808859051070
 20
-265.819447195738920
 11
-450.779612332464750
 21
-272.466250669152600
  0
LINE
  8
0
  6
CONTINUOUS
 62
3
 10
-443.819670250082250
 20
-266.071994146589250
 11
-450.496769552555180
 21
-272.749093449062170
  0
LINE
  8
0
  6
CONTINUOUS
 62
3
 10
-450.779612332464750
 20
-272.466250669152600
 11
-450.292808940759130
 21
-272.953054060858220
  0
LINE
  8
0
  6
CONTINUOUS
 62
3
 10
-444.132808859051070
 20
-265.819447195738920
 11
-443.646005467345450
 21
-266.306250587444540
  0
ARC
  8
0
  6
CONTINUOUS
 62
3
 10
-548.572480440303820
 20
-266.880107367518750
 40
6.099999427795400
 50
174.601910595264630
 51
275.398072101890420
  0
POINT
  8
0
  6
CONTINUOUS
 62
3
 10
-550.835222005230890
 20
-269.142848932445760
  0
LINE
  8
0
  6
CONTINUOUS
 62
3
 10
-554.158623741937730
 20
-265.819447195738920
 11
-547.511820268524050
 21
-272.466250669152600
  0
LINE
  8
0
  6
CONTINUOUS
 62
3
 10
-554.471762350906490
 20
-266.071994146589250
 11
-547.794663048433560
 21
-272.749093449062170
  0
LINE
  8
0
  6
CONTINUOUS
 62
3
 10
-547.511820268524050
 20
-272.466250669152600
 11
-547.998623660229670
 21
-272.953054060858220
  0
LINE
  8
0
  6
CONTINUOUS
 62
3
 10
-554.158623741937730
 20
-265.819447195738920
 11
-554.645427133643350
 21
-266.306250587444540
  0
ARC
  8
0
  6
CONTINUOUS
 62
3
 10
-548.572480440303820
 20
-168.026579087899420
 40
6.099999427795394
 50
84.601927898109537
 51
185.398089404735120
  0
POINT
  8
0
  6
CONTINUOUS
 62
3
 10
-550.835222005230890
 20
-165.763837522972380
  0
LINE
  8
0
  6
CONTINUOUS
 62
3
 10
-554.158623741937730
 20
-169.087239259679250
 11
-547.511820268524050
 21
-162.440435786265510
  0
LINE
  8
0
  6
CONTINUOUS
 62
3
 10
-554.471762350906490
 20
-168.834692308828860
 11
-547.794663048433560
 21
-162.157593006355940
  0
LINE
  8
0
  6
CONTINUOUS
 62
3
 10
-547.511820268524050
 20
-162.440435786265510
 11
-547.998623660229670
 21
-161.953632394559920
  0
LINE
  8
0
  6
CONTINUOUS
 62
3
 10
-554.158623741937730
 20
-169.087239259679250
 11
-554.645427133643350
 21
-168.600435867973630
  0
ARC
  8
0
  6
CONTINUOUS
 62
3
 10
-449.718952160684920
 20
-168.026579087899420
 40
6.099999427795398
 50
354.601910595264880
 51
95.398072101891529
  0
POINT
  8
0
  6
CONTINUOUS
 62
3
 10
-447.456210595757910
 20
-165.763837522972380
  0
LINE
  8
0
  6
CONTINUOUS
 62
3
 10
-444.132808859051070
 20
-169.087239259679250
 11
-450.779612332464750
 21
-162.440435786265510
  0
LINE
  8
0
  6
CONTINUOUS
 62
3
 10
-443.819670250082250
 20
-168.834692308828860
 11
-450.496769552555180
 21
-162.157593006355940
  0
LINE
  8
0
  6
CONTINUOUS
 62
3
 10
-450.779612332464750
 20
-162.440435786265510
 11
-450.292808940759130
 21
-161.953632394559920
  0
LINE
  8
0
  6
CONTINUOUS
 62
3
 10
-444.132808859051070
 20
-169.087239259679250
 11
-443.646005467345450
 21
-168.600435867973630
  0
ARC
  8
0
  6
CONTINUOUS
 62
3
 10
-27.638063303864101
 20
-341.232678728945190
 40
5.000000000000000
 50
0.000000000000000
 51
28.704380115586343
  0
LINE
  8
0
  6
CONTINUOUS
 62
3
 10
-22.638063303864101
 20
-326.989563080669200
 11
-26.320320492916835
 21
-319.092937055649710
  0
LINE
  8
0
  6
CONTINUOUS
 62
3
 10
-57.875032922183209
 20
-274.044252318571810
 11
-48.277168231459427
 21
-274.044252318571810
  0
ARC
  8
0
  6
CONTINUOUS
 62
3
 10
-60.506361270041680
 20
-277.044252318571810
 40
2.999999999999923
 50
28.704380115585955
 51
90.000000000000000
  0
ARC
  8
0
  6
CONTINUOUS
 62
3
 10
-52.492379950155510
 20
-278.095065959043840
 40
4.999999999999964
 50
203.855500852148960
 51
253.883837153531400
  0
ARC
  8
0
  6
CONTINUOUS
 62
3
 10
-61.638063303865010
 20
-282.139379991568940
 40
4.999999999999964
 50
23.855500852148985
 51
86.999999999997044
  0
LINE
  8
0
  6
CONTINUOUS
 62
3
 10
-61.376383522650030
 20
-277.146232317796030
 11
-84.138063303867966
 21
-275.953343227709300
  0
LINE
  8
0
  6
CONTINUOUS
 62
3
 10
-28.138075436726467
 20
-315.194748998859380
 11
-46.747969179084066
 21
-275.285703078426200
  0
LINE
  8
0
  6
CONTINUOUS
 62
3
 10
-23.252516057433247
 20
-338.831225970858440
 11
-57.875032922183209
 21
-275.603380663719800
  0
LINE
  8
0
  6
DASHDOT
 62
4
 10
-671.504687081326210
 20
-25.594372446874559
 11
-641.572480718613970
 21
-55.526578809586908
  0
ARC
  8
0
  6
DASHDOT
 62
4
 10
-499.145716300494370
 20
-197.953343227706910
 40
224.999999999999970
 50
129.757750219785580
 51
140.038975029840970
  0
LINE
  8
0
  6
DASHDOT
 62
4
 10
-671.504687081326210
 20
-370.312314008539720
 11
-641.572480718613970
 21
-340.380107645827370
  0
ARC
  8
0
  6
DASHDOT
 62
4
 10
-499.145716300494370
 20
-197.953343227707360
 40
225.000000000000030
 50
219.961024970159030
 51
230.242249780214420
  0
LINE
  8
0
  6
DASHDOT
 62
4
 10
-326.786745519662530
 20
-370.312314008539720
 11
-356.718951882374820
 21
-340.380107645827370
  0
ARC
  8
0
  6
DASHDOT
 62
4
 10
-499.145716300494370
 20
-197.953343227707360
 40
224.999999999999970
 50
309.757750219785580
 51
320.038975029840970
  0
ARC
  8
0
  6
DASHDOT
 62
4
 10
-499.145716300494370
 20
-197.953343227706910
 40
225.000000000000000
 50
39.961024970159045
 51
50.242249780214415
  0
LINE
  8
0
  6
DASHDOT
 62
4
 10
-326.786745519662530
 20
-25.594372446874544
 11
-356.718951882374820
 21
-55.526578809586908
  0
INSERT
  8
0
  2
SYM1
 10
-22.638063303863987
 20
-184.313732920824120
 41
-1.000000000000000
 50
180.000000000000000
  0
INSERT
  8
0
  2
SYM1
 10
-22.638063303863987
 20
-311.592953534497840
  0
LINE
  8
0
  6
CONTINUOUS
 62
3
 10
8.123616477351220
 20
-149.865269696142380
 11
-12.638063303863987
 21
-150.953343227661890
  0
LINE
  8
0
  6
CONTINUOUS
 62
3
 10
8.123616477351220
 20
-146.970085254708240
 11
-12.638063303863987
 21
-148.058158786227750
  0
LINE
  8
0
  6
CONTINUOUS
 62
3
 10
8.123616477351220
 20
-348.936601200614630
 11
-12.638063303863987
 21
-347.848527669095120
  0
LINE
  8
0
  6
CONTINUOUS
 62
3
 10
-84.138063303863987
 20
-275.953343227660750
 11
-84.138063303863987
 21
-158.953343227660530
  0
LINE
  8
0
  6
CONTINUOUS
 62
3
 10
-84.138063303863987
 20
-237.453343227711680
 11
-25.638063303863987
 21
-237.453343227711460
  0
LINE
  8
0
  6
CONTINUOUS
 62
3
 10
-84.138063303863987
 20
-275.953343227660750
 11
-84.138063303863987
 21
-158.953343227660530
  0
LINE
  8
0
  6
CONTINUOUS
 62
3
 10
-84.138063303863873
 20
-275.953343227708960
 11
-84.138063303863873
 21
-217.453343227708960
  0
LINE
  8
0
  6
CONTINUOUS
 62
3
 10
-84.138063303863873
 20
-158.953343227708960
 11
-84.138063303863873
 21
-217.453343227708960
  0
LINE
  8
0
  6
CONTINUOUS
 62
3
 10
-84.138063303863760
 20
-275.953343227660750
 11
-84.138063303863760
 21
-158.953343227660530
  0
LINE
  8
0
  6
CONTINUOUS
 62
3
 10
-84.138063303864101
 20
-275.953343227708960
 11
-84.138063303864101
 21
-217.453343227708960
  0
LINE
  8
0
  6
CONTINUOUS
 62
3
 10
-84.138063303864101
 20
-275.953343227708960
 11
-112.698509525773940
 21
-275.953343227708960
  0
LINE
  8
0
  6
DASHDOT
 62
4
 10
-55.778551444908203
 20
-217.453343227708960
 11
-294.067275842210620
 21
-217.453343227708960
  0
LINE
  8
0
  6
CONTINUOUS
 62
4
 10
-108.688063303865420
 20
-249.204134944083310
 11
-84.138063303864101
 21
-249.204134944083310
  0
LINE
  8
0
  6
CONTINUOUS
 62
4
 10
-108.688063303865420
 20
-253.167880367882840
 11
-84.138063303864101
 21
-253.167880367882840
  0
LINE
  8
0
  6
CONTINUOUS
 62
4
 10
-108.688063303865420
 20
-254.772528283444900
 11
-84.138063303864101
 21
-254.772528283444900
  0
LINE
  8
0
  6
CONTINUOUS
 62
4
 10
-108.688063303865420
 20
-262.819129946178690
 11
-84.138063303864101
 21
-262.819129946178690
  0
LINE
  8
0
  6
CONTINUOUS
 62
4
 10
-108.688063303865420
 20
-267.768877414484450
 11
-84.138063303864101
 21
-267.768877414484450
  0
LINE
  8
0
  6
CONTINUOUS
 62
4
 10
-109.886987856584930
 20
-272.453343227708960
 11
-84.138063303864101
 21
-272.453343227708960
  0
LINE
  8
0
  6
CONTINUOUS
 62
4
 10
-110.464544269430460
 20
-273.453343227708960
 11
-84.138063303864101
 21
-273.453343227708960
  0
LINE
  8
0
  6
CONTINUOUS
 62
4
 10
-111.635632704255490
 20
-274.953343227708960
 11
-84.138063303864101
 21
-274.953343227708960
  0
LINE
  8
0
  6
CONTINUOUS
 62
4
 10
-111.197743708356370
 20
-274.453343227708960
 11
-84.138063303864101
 21
-274.453343227708960
  0
LINE
  8
0
  6
CONTINUOUS
 62
4
 10
-108.688063303865420
 20
-237.453343227708960
 11
-84.138063303864101
 21
-237.453343227708960
  0
LINE
  8
0
  6
CONTINUOUS
 62
4
 10
-108.688063303865420
 20
-243.645277020188590
 11
-84.138063303864101
 21
-243.645277020188590
  0
LINE
  8
0
  6
CONTINUOUS
 62
4
 10
-108.688063303865420
 20
-242.283396684839320
 11
-84.138063303864101
 21
-242.283396684839320
  0
LINE
  8
0
  6
CONTINUOUS
 62
4
 10
-108.688063303865420
 20
-247.735777554278230
 11
-84.138063303864101
 21
-247.735777554278230
  0
LINE
  8
0
  6
CONTINUOUS
 62
3
 10
-84.138063303864101
 20
-158.953343227708960
 11
-84.138063303864101
 21
-217.453343227708960
  0
LINE
  8
0
  6
CONTINUOUS
 62
3
 10
-84.138063303864101
 20
-158.953343227708960
 11
-181.138063303863990
 21
-158.953343227708960
  0
LINE
  8
0
  6
CONTINUOUS
 62
4
 10
-108.688063303865420
 20
-185.702551511334600
 11
-84.138063303864101
 21
-185.702551511334600
  0
LINE
  8
0
  6
CONTINUOUS
 62
4
 10
-109.487933077412890
 20
-181.738806087535070
 11
-84.138063303864101
 21
-181.738806087535070
  0
LINE
  8
0
  6
CONTINUOUS
 62
4
 10
-110.293804007473450
 20
-180.134158171973010
 11
-84.138063303864101
 21
-180.134158171973010
  0
LINE
  8
0
  6
CONTINUOUS
 62
4
 10
-181.138063303863990
 20
-172.087556509239220
 11
-84.138063303864101
 21
-172.087556509239220
  0
LINE
  8
0
  6
CONTINUOUS
 62
4
 10
-181.138063303863990
 20
-167.137809040933460
 11
-84.138063303864101
 21
-167.137809040933460
  0
LINE
  8
0
  6
CONTINUOUS
 62
4
 10
-181.138063303863990
 20
-162.453343227708960
 11
-84.138063303864101
 21
-162.453343227708960
  0
LINE
  8
0
  6
CONTINUOUS
 62
4
 10
-181.138063303863990
 20
-161.453343227708960
 11
-84.138063303864101
 21
-161.453343227708960
  0
LINE
  8
0
  6
CONTINUOUS
 62
4
 10
-181.138063303863990
 20
-159.953343227708960
 11
-84.138063303864101
 21
-159.953343227708960
  0
LINE
  8
0
  6
CONTINUOUS
 62
4
 10
-181.138063303863990
 20
-160.453343227708960
 11
-84.138063303864101
 21
-160.453343227708960
  0
LINE
  8
0
  6
CONTINUOUS
 62
4
 10
-108.688063303865420
 20
-197.453343227708960
 11
-84.138063303864101
 21
-197.453343227708960
  0
LINE
  8
0
  6
CONTINUOUS
 62
4
 10
-108.688063303865420
 20
-191.261409435229330
 11
-84.138063303864101
 21
-191.261409435229330
  0
LINE
  8
0
  6
CONTINUOUS
 62
4
 10
-108.688063303865420
 20
-192.623289770578590
 11
-84.138063303864101
 21
-192.623289770578590
  0
LINE
  8
0
  6
CONTINUOUS
 62
4
 10
-108.688063303865420
 20
-187.170908901139680
 11
-84.138063303864101
 21
-187.170908901139680
  0
LINE
  8
0
  6
CONTINUOUS
 62
3
 10
-146.650589086470750
 20
-267.029297997261660
 11
-120.088063303864940
 21
-267.029297997261660
  0
LINE
  8
0
  6
CONTINUOUS
 62
3
 10
-119.688063303865300
 20
-278.459454955358750
 11
-155.138063303864100
 21
-278.459454955358750
  0
LINE
  8
0
  6
CONTINUOUS
 62
3
 10
-119.688063303865300
 20
-277.239245026131580
 11
-155.138063303864100
 21
-277.239245026131580
  0
LINE
  8
0
  6
CONTINUOUS
 62
3
 10
-115.088063303864940
 20
-185.951553790601570
 11
-115.088063303864940
 21
-262.029297997261660
  0
LINE
  8
0
  6
CONTINUOUS
 62
3
 10
-108.688063303865300
 20
-185.856735587103000
 11
-108.688063303865300
 21
-267.459454955358750
  0
LINE
  8
0
  6
CONTINUOUS
 62
3
 10
-155.138063303864100
 20
-180.951553790601570
 11
-120.088063303864940
 21
-180.951553790601570
  0
LINE
  8
0
  6
CONTINUOUS
 62
4
 10
-155.138063303864100
 20
-187.453343227708730
 11
-120.088063303864940
 21
-187.453343227708730
  0
LINE
  8
0
  6
CONTINUOUS
 62
3
 10
-119.688063303865300
 20
-174.856735587103000
 11
-155.138063303864100
 21
-174.856735587103000
  0
ARC
  8
0
  6
CONTINUOUS
 62
3
 10
-25.638063303863987
 20
-240.453343227711460
 40
3.000000000000000
 50
0.000000000000000
 51
90.000000000000000
  0
ARC
  8
0
  6
CONTINUOUS
 62
3
 10
-119.688063303865300
 20
-266.239245026131580
 40
11.000000000000000
 50
270.000000000000000
 51
0.000000000000000
  0
ARC
  8
0
  6
CONTINUOUS
 62
3
 10
-119.688063303865300
 20
-267.459454955358750
 40
11.000000000000000
 50
270.000000000000000
 51
0.000000000000000
  0
ARC
  8
0
  6
CONTINUOUS
 62
3
 10
-120.088063303864940
 20
-262.029297997261660
 40
5.000000000000000
 50
270.000000000000000
 51
0.000000000000000
  0
ARC
  8
0
  6
CONTINUOUS
 62
3
 10
-120.088063303864940
 20
-185.951553790601570
 40
5.000000000000000
 50
0.000000000000000
 51
90.000000000000000
  0
ARC
  8
0
  6
CONTINUOUS
 62
4
 10
-120.088063303864940
 20
-192.453343227708730
 40
5.000000000000000
 50
0.000000000000000
 51
90.000000000000000
  0
ARC
  8
0
  6
CONTINUOUS
 62
3
 10
-119.688063303865300
 20
-185.856735587103000
 40
11.000000000000000
 50
0.000000000000000
 51
90.000000000000000
  0
ARC
  8
0
  6
CONTINUOUS
 62
3
 10
-60.138063303864328
 20
-196.953343227708960
 40
5.000000000000000
 50
180.000000000000000
 51
270.000000000000000
  0
ARC
  8
0
  6
CONTINUOUS
 62
3
 10
-27.638063303864101
 20
-196.953343227708960
 40
5.000000000000000
 50
270.000000000000000
 51
0.000000000000000
  0
LINE
  8
0
  6
CONTINUOUS
 62
3
 10
-12.638063303864101
 20
-147.953343227709520
 11
-12.638063303864101
 21
-247.953343227709520
  0
LINE
  8
0
  6
CONTINUOUS
 62
3
 10
-12.638063303864101
 20
-347.953343227709520
 11
-12.638063303864101
 21
-247.953343227709520
  0
LINE
  8
0
  6
CONTINUOUS
 62
3
 10
-22.638063303864101
 20
-326.989563080669200
 11
-22.638063303864101
 21
-344.953343227709520
  0
LINE
  8
0
  6
CONTINUOUS
 62
3
 10
-19.638063303864101
 20
-147.953343227709520
 11
-12.638063303864101
 21
-147.953343227709520
  0
LINE
  8
0
  6
CONTINUOUS
 62
3
 10
-22.638063303864101
 20
-150.953343227709520
 11
-22.638063303864101
 21
-153.953343227708960
  0
LINE
  8
0
  6
CONTINUOUS
 62
3
 10
-19.638063303864101
 20
-347.953343227709520
 11
-12.638063303864101
 21
-347.953343227709520
  0
ARC
  8
0
  6
CONTINUOUS
 62
3
 10
-19.638063303864101
 20
-150.953343227709520
 40
3.000000000000000
 50
90.000000000000000
 51
180.000000000000000
  0
ARC
  8
0
  6
CONTINUOUS
 62
3
 10
-19.638063303864101
 20
-344.953343227709520
 40
3.000000000000000
 50
180.000000000000000
 51
270.000000000000000
  0
LINE
  8
0
  6
CONTINUOUS
 62
3
 10
-84.138063303864101
 20
-158.953343227708960
 11
-27.138063303864101
 21
-158.953343227708960
  0
ARC
  8
0
  6
CONTINUOUS
 62
3
 10
-27.638063303864101
 20
-153.953343227708960
 40
5.000000000000000
 50
270.000000000000000
 51
0.000000000000000
  0
LINE
  8
0
  6
CONTINUOUS
 62
3
 10
-27.638063303864101
 20
-201.953343227708960
 11
-60.138063303864328
 21
-201.953343227708960
  0
ARC
  8
0
  6
CONTINUOUS
 62
3
 10
-19.638063303864101
 20
-153.953343227757270
 40
3.000000000000000
 50
90.000000000000000
 51
180.000000000000000
  0
LINE
  8
0
  6
CONTINUOUS
 62
3
 10
-19.638063303864101
 20
-150.953343227757270
 11
-12.638063303864101
 21
-150.953343227757270
  0
ARC
  8
0
  6
CONTINUOUS
 62
3
 10
-27.638063303864328
 20
-164.953343227709180
 40
5.000000000000000
 50
270.000000000000000
 51
0.000000000000000
  0
LINE
  8
0
  6
CONTINUOUS
 62
3
 10
-65.138063303864328
 20
-196.953343227708960
 11
-65.138063303864328
 21
-163.953343227709180
  0
ARC
  8
0
  6
CONTINUOUS
 62
3
 10
-60.138063303864328
 20
-164.953343227709180
 40
5.000000000000000
 50
179.999999999997410
 51
270.000000000000000
  0
ARC
  8
0
  6
CONTINUOUS
 62
3
 10
-70.138063303864328
 20
-163.953343227708960
 40
5.000000000000000
 50
359.999999999997390
 51
90.000000000000000
  0
LINE
  8
0
  6
CONTINUOUS
 62
3
 10
-27.638063303864328
 20
-169.953343227709180
 11
-60.138063303864783
 21
-169.953343227709180
  0
LINE
  8
0
  6
CONTINUOUS
 62
3
 10
-22.638063303864101
 20
-153.953343227708960
 11
-22.638063303864101
 21
-326.989563080669200
  0
LINE
  8
0
  6
DASHDOT
 62
4
 10
-42.638063303864101
 20
-193.149011614961750
 11
-42.638063303864101
 21
-149.994757058582880
  0
LINE
  8
0
  6
CONTINUOUS
 62
3
 10
-19.638063303864101
 20
-344.953343227757270
 11
-12.638063303864101
 21
-344.953343227757270
  0
ARC
  8
0
  6
CONTINUOUS
 62
3
 10
-19.638063303864101
 20
-341.953343227757270
 40
3.000000000000000
 50
180.000000000000000
 51
270.000000000000000
  0
LINE
  8
0
  6
CONTINUOUS
 62
3
 10
-84.138063303863987
 20
-197.453343227711680
 11
-65.113000489397152
 21
-197.453343227711680
  0
LINE
  8
0
  6
CONTINUOUS
 62
3
 10
-152.080807097967980
 20
93.872831392507123
 11
-119.688063303865190
 21
93.872831392507123
  0
LINE
  8
0
  6
DASHDOT
 62
4
 10
-177.961694935175840
 20
120.046656772291040
 11
-133.673976896777390
 21
120.046656772291040
  0
LINE
  8
0
  6
CONTINUOUS
 62
3
 10
-124.138063303864100
 20
145.046656772290930
 11
-124.138063303864100
 21
144.046656772290930
  0
ARC
  8
0
  6
CONTINUOUS
 62
3
 10
-121.338063303864140
 20
139.046656772290930
 40
5.000000000000008
 50
44.925956400534659
 51
90.000000000000000
  0
LINE
  8
0
  6
CONTINUOUS
 62
3
 10
-188.938063303864170
 20
144.046656772291040
 11
-121.338063303864140
 21
144.046656772290930
  0
ARC
  8
0
  6
CONTINUOUS
 62
3
 10
-132.887428209253930
 20
95.046656772291044
 40
1.000000000000000
 50
90.000000000000000
 51
143.130102354166380
  0
ARC
  8
0
  6
CONTINUOUS
 62
3
 10
-134.487428209253840
 20
96.246656772291090
 40
1.000000000000000
 50
270.000000000000000
 51
323.130102354140380
  0
LINE
  8
0
  6
CONTINUOUS
 62
3
 10
-176.188698398474230
 20
95.246656772291090
 11
-134.487428209253840
 21
95.246656772291090
  0
ARC
  8
0
  6
CONTINUOUS
 62
3
 10
-119.688063303865190
 20
131.741220712555330
 40
11.000000000000000
 50
0.000000000000000
 51
90.000000000000000
  0
ARC
  8
0
  6
CONTINUOUS
 62
3
 10
-119.688063303865190
 20
128.269747973508630
 40
11.000000000000000
 50
0.000000000000000
 51
90.000000000000000
  0
ARC
  8
0
  6
CONTINUOUS
 62
3
 10
-120.888063303864780
 20
101.846656772290990
 40
5.799999999999955
 50
270.000000000000000
 51
0.000000000000000
  0
LINE
  8
0
  6
CONTINUOUS
 62
3
 10
-189.388063303863530
 20
96.046656772291044
 11
-120.888063303864780
 21
96.046656772291044
  0
ARC
  8
0
  6
CONTINUOUS
 62
3
 10
-119.688063303865190
 20
104.872831392507120
 40
11.000000000000000
 50
270.000000000000000
 51
0.000000000000000
  0
ARC
  8
0
  6
CONTINUOUS
 62
3
 10
-120.088063303864820
 20
131.422591471977740
 40
5.000000000000000
 50
0.000000000000000
 51
90.000000000000000
  0
LINE
  8
0
  6
CONTINUOUS
 62
3
 10
-190.188063303863260
 20
136.422591471977850
 11
-120.088063303864820
 21
136.422591471977740
  0
LINE
  8
0
  6
CONTINUOUS
 62
3
 10
-115.088063303864820
 20
101.846656772290990
 11
-115.088063303864820
 21
131.422591471977740
  0
LINE
  8
0
  6
CONTINUOUS
 62
3
 10
-108.688063303865190
 20
131.741220712555330
 11
-108.688063303865190
 21
104.872831392507120
  0
LINE
  8
0
  6
CONTINUOUS
 62
3
 10
-190.588063303862900
 20
139.269747973508630
 11
-119.688063303865190
 21
139.269747973508630
  0
LINE
  8
0
  6
CONTINUOUS
 62
3
 10
-190.588063303862900
 20
142.741220712555450
 11
-119.688063303865190
 21
142.741220712555330
  0
LINE
  8
0
  6
CONTINUOUS
 62
3
 10
-187.638063303863990
 20
149.046656772291040
 11
-122.638063303863870
 21
149.046656772291040
  0
LINE
  8
0
  6
CONTINUOUS
 62
3
 10
-183.300739069043970
 20
151.046656772291040
 11
-122.638063303863870
 21
151.046656772291040
  0
LINE
  8
0
  6
CONTINUOUS
 62
3
 10
-187.638063303863990
 20
145.046656772291040
 11
-122.638063303863870
 21
145.046656772291040
  0
LINE
  8
0
  6
CONTINUOUS
 62
3
 10
-122.638063303863870
 20
145.046656772291040
 11
-122.638063303863980
 21
152.046656772291040
  0
LINE
  8
0
  6
CONTINUOUS
 62
3
 10
-118.388063303863980
 20
152.046656772291040
 11
-118.388063303863980
 21
153.046656772291040
  0
LINE
  8
0
  6
CONTINUOUS
 62
3
 10
-181.800827748668100
 20
152.046656772291040
 11
-118.388063303863980
 21
152.046656772291040
  0
LINE
  8
0
  6
CONTINUOUS
 62
3
 10
-181.138063303863870
 20
272.046656772290820
 11
-84.138063303863987
 21
272.046656772290820
  0
LINE
  8
0
  6
CONTINUOUS
 62
3
 10
-181.270271783072080
 20
153.046656772291040
 11
-84.138063303863987
 21
153.046656772291040
  0
LINE
  8
0
  6
CONTINUOUS
 62
4
 10
-181.138063303863870
 20
155.546656772291040
 11
-84.138063303863987
 21
155.546656772291040
  0
LINE
  8
0
  6
CONTINUOUS
 62
4
 10
-181.138063303863870
 20
156.546656772291040
 11
-84.138063303863987
 21
156.546656772291040
  0
LINE
  8
0
  6
CONTINUOUS
 62
4
 10
-181.138063303863870
 20
157.546656772291040
 11
-84.138063303863987
 21
157.546656772291040
  0
LINE
  8
0
  6
CONTINUOUS
 62
4
 10
-181.138063303863870
 20
162.231122585515320
 11
-84.138063303863987
 21
162.231122585515320
  0
LINE
  8
0
  6
CONTINUOUS
 62
4
 10
-181.138063303863870
 20
167.180870053821080
 11
-84.138063303863987
 21
167.180870053821080
  0
LINE
  8
0
  6
CONTINUOUS
 62
4
 10
-181.138063303863870
 20
175.227471716555100
 11
-84.138063303863987
 21
175.227471716555100
  0
LINE
  8
0
  6
CONTINUOUS
 62
4
 10
-181.138063303863870
 20
176.832119632117160
 11
-84.138063303863987
 21
176.832119632117160
  0
LINE
  8
0
  6
CONTINUOUS
 62
4
 10
-181.138063303863870
 20
180.795865055916690
 11
-84.138063303863987
 21
180.795865055916690
  0
LINE
  8
0
  6
CONTINUOUS
 62
4
 10
-181.138063303863870
 20
182.264222445721320
 11
-84.138063303863987
 21
182.264222445721320
  0
LINE
  8
0
  6
CONTINUOUS
 62
4
 10
-181.138063303863870
 20
186.354722979811190
 11
-84.138063303863987
 21
186.354722979811190
  0
LINE
  8
0
  6
CONTINUOUS
 62
4
 10
-181.138063303863870
 20
187.716603315160460
 11
-84.138063303863987
 21
187.716603315160460
  0
LINE
  8
0
  6
CONTINUOUS
 62
4
 10
-181.138063303863870
 20
191.907157046702650
 11
-84.138063303863987
 21
191.907157046702650
  0
LINE
  8
0
  6
CONTINUOUS
 62
4
 10
-181.138063303863870
 20
193.173394962789870
 11
-84.138063303863987
 21
193.173394962789870
  0
LINE
  8
0
  6
CONTINUOUS
 62
4
 10
-181.138063303863870
 20
197.546656772291040
 11
-84.138063303863987
 21
197.546656772291040
  0
LINE
  8
0
  6
CONTINUOUS
 62
4
 10
-181.138063303863870
 20
249.865841828026990
 11
-84.138063303863987
 21
249.865841828026990
  0
LINE
  8
0
  6
CONTINUOUS
 62
4
 10
-181.138063303863870
 20
248.261193912464930
 11
-84.138063303863987
 21
248.261193912464930
  0
LINE
  8
0
  6
CONTINUOUS
 62
4
 10
-181.138063303863870
 20
244.297448488665400
 11
-84.138063303863987
 21
244.297448488665400
  0
LINE
  8
0
  6
CONTINUOUS
 62
4
 10
-181.138063303863870
 20
242.829091098860770
 11
-84.138063303863987
 21
242.829091098860770
  0
LINE
  8
0
  6
CONTINUOUS
 62
4
 10
-181.138063303863870
 20
238.738590564770900
 11
-84.138063303863987
 21
238.738590564770900
  0
LINE
  8
0
  6
CONTINUOUS
 62
4
 10
-181.138063303863870
 20
237.376710229421630
 11
-84.138063303863987
 21
237.376710229421630
  0
LINE
  8
0
  6
CONTINUOUS
 62
4
 10
-181.138063303863870
 20
233.186156497879440
 11
-84.138063303863987
 21
233.186156497879440
  0
LINE
  8
0
  6
CONTINUOUS
 62
4
 10
-181.138063303863870
 20
231.919918581792220
 11
-84.138063303863987
 21
231.919918581792220
  0
LINE
  8
0
  6
CONTINUOUS
 62
4
 10
-181.138063303863870
 20
227.546656772291040
 11
-84.138063303863987
 21
227.546656772291040
  0
LINE
  8
0
  6
CONTINUOUS
 62
4
 10
-181.138063303863870
 20
257.912443490761010
 11
-84.138063303863987
 21
257.912443490761010
  0
LINE
  8
0
  6
CONTINUOUS
 62
4
 10
-181.138063303863870
 20
262.862190959066770
 11
-84.138063303863987
 21
262.862190959066770
  0
LINE
  8
0
  6
CONTINUOUS
 62
4
 10
-181.138063303863870
 20
267.546656772291040
 11
-84.138063303863987
 21
267.546656772291040
  0
LINE
  8
0
  6
CONTINUOUS
 62
4
 10
-181.138063303863870
 20
268.546656772291040
 11
-84.138063303863987
 21
268.546656772291040
  0
LINE
  8
0
  6
CONTINUOUS
 62
4
 10
-181.138063303863870
 20
269.546656772291040
 11
-84.138063303863987
 21
269.546656772291040
  0
LINE
  8
0
  6
CONTINUOUS
 62
3
 10
-114.138063303863870
 20
272.046656772291040
 11
-84.138063303863987
 21
272.046656772291040
  0
LINE
  8
0
  6
CONTINUOUS
 62
3
 10
-2.638063303865806
 20
192.046656772291270
 11
1.861936696136013
 21
192.046656772291270
  0
LINE
  8
0
  6
CONTINUOUS
 62
3
 10
-2.638063303865806
 20
212.546656772291270
 11
-2.638063303865806
 21
192.046656772291270
  0
LINE
  8
0
  6
CONTINUOUS
 62
3
 10
-12.638063303863987
 20
212.546656772291270
 11
-12.638063303863987
 21
112.651472330857130
  0
LINE
  8
0
  6
CONTINUOUS
 62
3
 10
-8.820767190700394
 20
139.704199327031800
 11
12.565804853665099
 21
95.210409729123285
  0
ARC
  8
0
  6
CONTINUOUS
 62
3
 10
-11.524635348229481
 20
138.404546686246700
 40
2.999999999999903
 50
25.671927745923867
 51
90.000000000000000
  0
ARC
  8
0
  6
CONTINUOUS
 62
3
 10
-11.524635348229481
 20
133.289889873946320
 40
2.999999999999903
 50
25.671927745923867
 51
90.000000000000000
  0
LINE
  8
0
  6
CONTINUOUS
 62
3
 10
-8.820767190700394
 20
134.589542514731420
 11
12.565804853665099
 21
90.095752916822903
  0
LINE
  8
0
  6
CONTINUOUS
 62
3
 10
2.095217239178851
 20
111.879333816042390
 11
-12.638063303863987
 21
112.651472330857130
  0
LINE
  8
0
  6
CONTINUOUS
 62
3
 10
-7.825004303125411
 20
141.404546686246700
 11
9.207506725073813
 21
141.404546686246700
  0
LINE
  8
0
  6
CONTINUOUS
 62
3
 10
-2.638063303865806
 20
233.046656772291040
 11
1.861936696136013
 21
233.046656772291040
  0
LINE
  8
0
  6
CONTINUOUS
 62
3
 10
-2.638063303865806
 20
212.546656772291040
 11
-2.638063303865806
 21
233.046656772291040
  0
LINE
  8
0
  6
CONTINUOUS
 62
3
 10
-12.638063303863987
 20
212.546656772291040
 11
-12.638063303863987
 21
312.441841213725180
  0
LINE
  8
0
  6
CONTINUOUS
 62
3
 10
-8.820767190700394
 20
285.389114217550510
 11
12.565804853665099
 21
329.882903815459030
  0
ARC
  8
0
  6
CONTINUOUS
 62
3
 10
-11.524635348229481
 20
286.688766858335610
 40
3.000000000000000
 50
270.000000000000000
 51
334.328072254076120
  0
ARC
  8
0
  6
CONTINUOUS
 62
3
 10
-11.524635348229481
 20
291.803423670635990
 40
3.000000000000000
 50
270.000000000000000
 51
334.328072254076120
  0
LINE
  8
0
  6
CONTINUOUS
 62
3
 10
-8.820767190700394
 20
290.503771029850900
 11
12.565804853665099
 21
334.997560627759410
  0
LINE
  8
0
  6
CONTINUOUS
 62
3
 10
2.095217239178851
 20
313.213979728539930
 11
-12.638063303863987
 21
312.441841213725180
  0
LINE
  8
0
  6
CONTINUOUS
 62
3
 10
-7.825004303125411
 20
283.688766858335610
 11
9.207506725073813
 21
283.688766858335610
  0
LINE
  8
0
  6
DASHDOT
 62
4
 10
305.025508670784230
 20
212.546656772291040
 11
-295.965100570447250
 21
212.546656772291040
  0
INSERT
  8
0
  2
SYM2
 10
-2.638063303865806
 20
202.046656772291270
  0
INSERT
  8
0
  2
SYM3
 10
-2.638063303865806
 20
223.046656772291040
 41
-1.000000000000000
 50
180.000000000000030
  0
INSERT
  8
0
  2
SYM4
 10
-22.638063303863987
 20
276.186267079127900
 41
-1.000000000000000
 50
180.000000000000000
  0
ARC
  8
0
  6
CONTINUOUS
 62
3
 10
-19.638063303863987
 20
307.546656772340160
 40
3.000000000000000
 50
90.000000000000000
 51
180.000000000000000
  0
LINE
  8
0
  6
CONTINUOUS
 62
3
 10
-12.638063303863987
 20
310.546656772340160
 11
-19.638063303863987
 21
310.546656772340160
  0
LINE
  8
0
  6
CONTINUOUS
 62
3
 10
-28.138043210295507
 20
272.046656772339700
 11
-84.138063303863987
 21
272.046656772339700
  0
LINE
  8
0
  6
CONTINUOUS
 62
3
 10
-84.138063303863987
 20
272.046656772339700
 11
-84.138063303863987
 21
212.546656772291040
  0
LINE
  8
0
  6
CONTINUOUS
 62
3
 10
-22.638063303863987
 20
212.546656772291040
 11
-22.638063303863987
 21
307.546656772340160
  0
LINE
  8
0
  6
CONTINUOUS
 62
3
 10
-22.638063303863987
 20
222.483148445443020
 11
-12.638063303863987
 21
222.483148445443020
  0
LINE
  8
0
  6
CONTINUOUS
 62
3
 10
-22.638063303863987
 20
202.610165099139070
 11
-12.638063303863987
 21
202.610165099139070
  0
ARC
  8
0
  6
CONTINUOUS
 62
3
 10
-19.638063303863987
 20
117.546656772241930
 40
3.000000000000000
 50
180.000000000000000
 51
270.000000000000000
  0
LINE
  8
0
  6
CONTINUOUS
 62
3
 10
-12.638063303863987
 20
114.546656772241930
 11
-19.638063303863987
 21
114.546656772241930
  0
LINE
  8
0
  6
CONTINUOUS
 62
3
 10
-28.137547829303401
 20
153.046656772242390
 11
-84.138063303863987
 21
153.046656772242390
  0
INSERT
  8
0
  2
SYM1
 10
-22.638063303863987
 20
148.907046465454190
  0
LINE
  8
0
  6
CONTINUOUS
 62
3
 10
-84.138063303863987
 20
153.046656772242390
 11
-84.138063303863987
 21
212.546656772291040
  0
LINE
  8
0
  6
CONTINUOUS
 62
3
 10
-22.638063303863987
 20
212.546656772291040
 11
-22.638063303863987
 21
117.546656772241930
  0
ARC
  8
0
  6
CONTINUOUS
 62
3
 10
-70.138063303862964
 20
267.046656772339930
 40
5.000000000000000
 50
0.000000000000000
 51
90.000000000000000
  0
ARC
  8
0
  6
CONTINUOUS
 62
3
 10
-62.138063303862964
 20
230.546656772291270
 40
3.000000000000000
 50
180.000000000000000
 51
270.000000000000000
  0
LINE
  8
0
  6
CONTINUOUS
 62
3
 10
-65.138063303862964
 20
230.546656772291270
 11
-65.138063303862964
 21
267.046656772339930
  0
ARC
  8
0
  6
CONTINUOUS
 62
3
 10
-62.138063303862964
 20
194.546656772291040
 40
3.000000000000000
 50
90.000000000000000
 51
180.000000000000000
  0
ARC
  8
0
  6
CONTINUOUS
 62
3
 10
-70.138063303862964
 20
158.046656772242390
 40
5.000000000000000
 50
270.000000000000000
 51
0.000000000000000
  0
LINE
  8
0
  6
CONTINUOUS
 62
3
 10
-65.138063303862964
 20
194.546656772291040
 11
-65.138063303862964
 21
158.046656772242390
  0
CIRCLE
  8
0
  6
CONTINUOUS
 62
3
 10
-42.638063303864101
 20
212.546656772291270
 40
10.500000000000000
  0
ARC
  8
0
  6
CONTINUOUS
 62
3
 10
-25.638063303864101
 20
230.546656772291040
 40
3.000000000000000
 50
270.000000000000000
 51
0.000000000000000
  0
LINE
  8
0
  6
CONTINUOUS
 62
3
 10
-62.138063303862964
 20
227.546656772291040
 11
-25.638063303864101
 21
227.546656772291040
  0
ARC
  8
0
  6
CONTINUOUS
 62
3
 10
-25.638063303864101
 20
194.546656772291040
 40
3.000000000000000
 50
0.000000000000000
 51
90.000000000000000
  0
LINE
  8
0
  6
CONTINUOUS
 62
3
 10
-62.138063303862964
 20
197.546656772291040
 11
-25.638063303864101
 21
197.546656772291040
  0
LINE
  8
0
  6
DASHDOT
 62
4
 10
-42.638063303864101
 20
199.048625591874500
 11
-42.638063303864101
 21
226.283594232497760
  0
LINE
  8
0
  6
DASHDOT
 62
4
 10
5.976666530441435
 20
-95.953343227660980
 11
-20.458644219299458
 21
-95.953343227660980
  0
ARC
  8
0
  6
CONTINUOUS
 62
4
 10
-263.545716300494290
 20
-217.453343227708960
 40
289.397000000000050
 50
180.000000000000000
 51
186.051985358668530
  0
ARC
  8
0
  6
CONTINUOUS
 62
4
 10
-536.018617225704700
 20
-246.341372952847220
 40
15.397000000000052
 50
186.051985358668840
 51
225.000000000000000
  0
LINE
  8
0
  6
CONTINUOUS
 62
4
 10
-542.329874942995500
 20
-261.804761455415250
 11
-546.905940335634110
 21
-257.228696062776630
  0
ARC
  8
0
  6
CONTINUOUS
 62
4
 10
-538.087234255876410
 20
-257.562120768295700
 40
6.000000000000049
 50
225.000000000003070
 51
262.102011327574360
  0
ARC
  8
0
  6
CONTINUOUS
 62
4
 10
-499.145716300494140
 20
23.146656772290953
 40
289.396999999999820
 50
262.102011327572200
 51
270.000000000000000
  0
ARC
  8
0
  6
CONTINUOUS
 62
4
 10
-734.745716300494220
 20
-217.453343227708960
 40
289.396999999999990
 50
353.948014641331500
 51
0.000000000000000
  0
ARC
  8
0
  6
CONTINUOUS
 62
4
 10
-462.272815375283870
 20
-246.341372952847220
 40
15.396999999999876
 50
315.000000000000000
 51
353.948014641331160
  0
LINE
  8
0
  6
CONTINUOUS
 62
4
 10
-455.961557657993070
 20
-261.804761455415250
 11
-451.385492265354460
 21
-257.228696062776630
  0
ARC
  8
0
  6
CONTINUOUS
 62
4
 10
-460.204198345112160
 20
-257.562120768295700
 40
5.999999999999923
 50
277.897988672425640
 51
314.999999999996870
  0
ARC
  8
0
  6
CONTINUOUS
 62
4
 10
-499.145716300494370
 20
23.146656772290953
 40
289.396999999999930
 50
270.000000000000000
 51
277.897988672427800
  0
ARC
  8
0
  6
CONTINUOUS
 62
4
 10
-734.745716300494220
 20
-217.453343227708960
 40
289.396999999999990
 50
0.000000000000000
 51
6.051985358668511
  0
ARC
  8
0
  6
CONTINUOUS
 62
4
 10
-462.272815375283870
 20
-188.565313502570690
 40
15.397000000000052
 50
6.051985358668849
 51
45.000000000000000
  0
LINE
  8
0
  6
CONTINUOUS
 62
4
 10
-455.961557657993070
 20
-173.101925000002670
 11
-451.385492265354460
 21
-177.677990392641280
  0
ARC
  8
0
  6
CONTINUOUS
 62
4
 10
-460.204198345112160
 20
-177.344565687122210
 40
6.000000000000049
 50
45.000000000003077
 51
82.102011327574374
  0
ARC
  8
0
  6
CONTINUOUS
 62
4
 10
-499.145716300494370
 20
-458.053343227708870
 40
289.396999999999760
 50
82.102011327572228
 51
90.000000000000000
  0
ARC
  8
0
  6
CONTINUOUS
 62
4
 10
-263.545716300494520
 20
-217.453343227708960
 40
289.396999999999820
 50
173.948014641331470
 51
180.000000000000000
  0
LINE
  8
0
  6
CONTINUOUS
 62
4
 10
-542.329874942995500
 20
-173.101925000002670
 11
-546.905940335634110
 21
-177.677990392641280
  0
ARC
  8
0
  6
CONTINUOUS
 62
4
 10
-536.018617225704700
 20
-188.565313502570690
 40
15.396999999999876
 50
135.000000000000000
 51
173.948014641331160
  0
ARC
  8
0
  6
CONTINUOUS
 62
3
 10
-462.272815375283870
 20
-246.341372952847220
 40
26.599999999999955
 50
315.000000000001020
 51
353.948014641331380
  0
LINE
  8
0
  6
CONTINUOUS
 62
3
 10
-450.530224114380810
 20
-272.216862451068660
 11
-443.463774995721390
 21
-265.150413332409020
  0
ARC
  8
0
  6
CONTINUOUS
 62
3
 10
-734.745716300494220
 20
-217.453343227708960
 40
300.599999999999910
 50
353.948014641331500
 51
6.051985358668502
  0
ARC
  8
0
  6
CONTINUOUS
 62
3
 10
-536.018617225704700
 20
-246.341372952847220
 40
26.599999999999969
 50
186.051985358668590
 51
224.999999999998980
  0
ARC
  8
0
  6
CONTINUOUS
 62
3
 10
-263.545716300494410
 20
-217.453343227708960
 40
300.599999999999850
 50
173.948014641331500
 51
186.051985358668500
  0
LINE
  8
0
  6
CONTINUOUS
 62
3
 10
-547.761208486607980
 20
-272.216862451068660
 11
-554.827657605267180
 21
-265.150413332409020
  0
ARC
  8
0
  6
CONTINUOUS
 62
3
 10
-536.018617225704700
 20
-188.565313502570690
 40
26.600000000000119
 50
135.000000000000000
 51
173.948014641331410
  0
LINE
  8
0
  6
CONTINUOUS
 62
3
 10
-547.761208486607980
 20
-162.689824004349480
 11
-554.827657605266950
 21
-169.756273123008440
  0
ARC
  8
0
  6
CONTINUOUS
 62
3
 10
-462.272815375284100
 20
-188.565313502570690
 40
26.600000000000193
 50
6.051985358668552
 51
45.000000000000000
  0
LINE
  8
0
  6
CONTINUOUS
 62
3
 10
-450.530224114380810
 20
-162.689824004349480
 11
-443.463774995721850
 21
-169.756273123008440
  0
ARC
  8
0
  6
CONTINUOUS
 62
3
 10
-543.094303730776800
 20
-267.549957695237480
 40
6.599999999999957
 50
225.000000000000000
 51
261.402917762751090
  0
ARC
  8
0
  6
CONTINUOUS
 62
3
 10
-499.145716300494370
 20
23.146656772291180
 40
300.600000000000020
 50
261.402917762750920
 51
270.000000000000000
  0
ARC
  8
0
  6
CONTINUOUS
 62
3
 10
-455.197128870212000
 20
-267.549957695237480
 40
6.599999999999747
 50
278.597082237248910
 51
315.000000000000000
  0
ARC
  8
0
  6
CONTINUOUS
 62
3
 10
-499.145716300494370
 20
-458.053343227708870
 40
300.599999999999800
 50
81.402917762750945
 51
90.000000000000000
  0
ARC
  8
0
  6
CONTINUOUS
 62
3
 10
-455.197128870212000
 20
-167.356728760180660
 40
6.600000000000118
 50
45.000000000001400
 51
81.402917762751386
  0
ARC
  8
0
  6
CONTINUOUS
 62
3
 10
-499.145716300494370
 20
23.146656772291180
 40
300.600000000000140
 50
270.000000000000000
 51
278.597082237249080
  0
ARC
  8
0
  6
CONTINUOUS
 62
3
 10
-499.145716300494370
 20
-458.053343227708870
 40
300.599999999999910
 50
90.000000000000000
 51
98.597082237249069
  0
ARC
  8
0
  6
CONTINUOUS
 62
3
 10
-495.145716300494370
 20
-176.146564123063400
 40
1.500000000000203
 50
84.468928475159132
 51
180.000000000000000
  0
ARC
  8
0
  6
CONTINUOUS
 62
3
 10
-503.145716300494370
 20
-176.146564123063170
 40
1.500000000000000
 50
0.000000000000000
 51
95.531071524841693
  0
ARC
  8
0
  6
CONTINUOUS
 62
3
 10
-499.145716300494140
 20
-217.453343227708500
 40
17.999999999999922
 50
41.837004155893325
 51
78.162995844107314
  0
ARC
  8
0
  6
CONTINUOUS
 62
3
 10
-499.145716300494600
 20
-217.453343227708500
 40
27.499999999999815
 50
97.928141766201691
 51
142.071858233797830
  0
LINE
  8
0
  6
CONTINUOUS
 62
3
 10
-496.645716300494370
 20
-176.146564123063400
 11
-496.645716300494370
 21
-179.161699230617390
  0
LINE
  8
0
  6
CONTINUOUS
 62
3
 10
-467.234179846343690
 20
-196.142457719702180
 11
-464.622996247359590
 21
-194.634890165925070
  0
LINE
  8
0
  6
CONTINUOUS
 62
3
 10
-496.645716300494370
 20
-185.704327494933980
 11
-496.645716300494370
 21
-188.730529995018510
  0
ARC
  8
0
  6
CONTINUOUS
 62
3
 10
-495.145716300494370
 20
-185.704327494933980
 40
1.499999999999998
 50
82.819244218541712
 51
180.000000000000000
  0
ARC
  8
0
  6
CONTINUOUS
 62
3
 10
-495.145716300494370
 20
-179.161699230617390
 40
1.500000000000000
 50
180.000000000000000
 51
264.036429881682580
  0
ARC
  8
0
  6
CONTINUOUS
 62
3
 10
-465.372996247359590
 20
-193.335852060248270
 40
1.500000000000123
 50
299.999999999997270
 51
35.531071524839192
  0
ARC
  8
0
  6
CONTINUOUS
 62
3
 10
-499.145716300494830
 20
-217.453343227708960
 40
42.999999999999815
 50
35.531071524839327
 51
84.468928475160212
  0
ARC
  8
0
  6
CONTINUOUS
 62
3
 10
-461.372996247359140
 20
-200.264055290524310
 40
1.500000000000034
 50
24.468928475159590
 51
119.999999999997270
  0
LINE
  8
0
  6
CONTINUOUS
 62
3
 10
-464.734179846343470
 20
-200.472584738624620
 11
-462.122996247359140
 21
-198.965017184847510
  0
ARC
  8
0
  6
CONTINUOUS
 62
3
 10
-463.984179846343470
 20
-201.771622844301420
 40
1.500000000000123
 50
119.999999999997270
 51
204.036429881680680
  0
ARC
  8
0
  6
CONTINUOUS
 62
3
 10
-499.145716300494600
 20
-217.453343227709410
 40
36.999999999999865
 50
335.963570118321680
 51
24.036429881678941
  0
ARC
  8
0
  6
CONTINUOUS
 62
3
 10
-499.145716300494600
 20
-217.453343227709410
 40
42.999999999999829
 50
335.531071524839720
 51
24.468928475160830
  0
ARC
  8
0
  6
CONTINUOUS
 62
3
 10
-461.372996247359140
 20
-234.642631164893830
 40
1.500000000000320
 50
240.000000000007050
 51
335.531071524832500
  0
LINE
  8
0
  6
CONTINUOUS
 62
3
 10
-462.122996247359140
 20
-235.941669270570860
 11
-464.734179846343240
 21
-234.434101716793520
  0
ARC
  8
0
  6
CONTINUOUS
 62
3
 10
-463.984179846343240
 20
-233.135063611116950
 40
1.500000000000063
 50
155.963570118322880
 51
239.999999999998410
  0
ARC
  8
0
  6
CONTINUOUS
 62
3
 10
-465.372996247359140
 20
-241.570834395169640
 40
1.499999999999844
 50
324.468928475167900
 51
59.999999999998380
  0
LINE
  8
0
  6
CONTINUOUS
 62
3
 10
-464.622996247359140
 20
-240.271796289493070
 11
-467.234179846343240
 21
-238.764228735715730
  0
LINE
  8
0
  6
CONTINUOUS
 62
3
 10
-501.645716300494370
 20
-176.146564123063170
 11
-501.645716300494370
 21
-179.161699230617390
  0
ARC
  8
0
  6
CONTINUOUS
 62
3
 10
-503.145716300494370
 20
-179.161699230617390
 40
1.499999999999933
 50
275.963570118318330
 51
0.000000000000000
  0
LINE
  8
0
  6
CONTINUOUS
 62
3
 10
-501.645716300494370
 20
-185.704327494933980
 11
-501.645716300494370
 21
-188.730529995018510
  0
ARC
  8
0
  6
CONTINUOUS
 62
3
 10
-503.145716300494370
 20
-185.704327494933980
 40
1.500000000000000
 50
0.000000000000000
 51
97.180755781458288
  0
ARC
  8
0
  6
CONTINUOUS
 62
3
 10
-499.145716300494830
 20
-217.453343227708500
 40
23.999999999999901
 50
100.240348321185670
 51
139.759651678813470
  0
ARC
  8
0
  6
CONTINUOUS
 62
3
 10
-516.320895569539290
 20
-202.918446699828560
 40
1.499999999999802
 50
139.759651678811420
 51
239.999999999998410
  0
LINE
  8
0
  6
CONTINUOUS
 62
3
 10
-514.424100976560110
 20
-205.745612376251300
 11
-517.070895569539290
 21
-204.217484805505140
  0
ARC
  8
0
  6
CONTINUOUS
 62
3
 10
-513.674100976560110
 20
-204.446574270574730
 40
1.499999999999926
 50
239.999999999998410
 51
318.162995844106720
  0
ARC
  8
0
  6
CONTINUOUS
 62
3
 10
-499.145716300494830
 20
-217.453343227708500
 40
17.999999999999829
 50
101.837004155891980
 51
138.162995844106060
  0
ARC
  8
0
  6
CONTINUOUS
 62
3
 10
-503.145716300494370
 20
-198.368008543716310
 40
1.499999999999954
 50
281.837004155896690
 51
0.000000000000000
  0
LINE
  8
0
  6
CONTINUOUS
 62
3
 10
-501.645716300494370
 20
-195.311753402223990
 11
-501.645716300494370
 21
-198.368008543716310
  0
ARC
  8
0
  6
CONTINUOUS
 62
3
 10
-503.145716300494370
 20
-195.311753402223990
 40
1.500000000000000
 50
0.000000000000000
 51
100.240348321194510
  0
ARC
  8
0
  6
CONTINUOUS
 62
3
 10
-499.145716300494830
 20
-217.453343227708500
 40
14.499999999999980
 50
107.920213139390830
 51
132.079786860607560
  0
ARC
  8
0
  6
CONTINUOUS
 62
3
 10
-507.857858943308940
 20
-207.804583174144230
 40
1.499999999999792
 50
132.079786860611680
 51
239.999999999998410
  0
LINE
  8
0
  6
CONTINUOUS
 62
3
 10
-505.832970233688290
 20
-210.705704023291670
 11
-508.607858943308940
 21
-209.103621279820800
  0
ARC
  8
0
  6
CONTINUOUS
 62
3
 10
-505.082970233688290
 20
-209.406665917615100
 40
1.499999999999926
 50
239.999999999998410
 51
306.421821521797600
  0
ARC
  8
0
  6
CONTINUOUS
 62
3
 10
-499.145716300494830
 20
-217.453343227708500
 40
8.499999999999879
 50
113.578178478199500
 51
126.421821521797340
  0
ARC
  8
0
  6
CONTINUOUS
 62
3
 10
-503.145716300494370
 20
-208.288191837796600
 40
1.500000000000139
 50
293.578178478195700
 51
0.000000000000000
  0
LINE
  8
0
  6
CONTINUOUS
 62
3
 10
-501.645716300494370
 20
-205.084026350855540
 11
-501.645716300494370
 21
-208.288191837796600
  0
ARC
  8
0
  6
CONTINUOUS
 62
3
 10
-503.145716300494370
 20
-205.084026350855540
 40
1.500000000000000
 50
0.000000000000000
 51
107.920213139394770
  0
ARC
  8
0
  6
CONTINUOUS
 62
3
 10
-499.145716300494370
 20
-217.453343227708960
 40
23.999999999999716
 50
280.240348321186270
 51
319.759651678814690
  0
ARC
  8
0
  6
CONTINUOUS
 62
3
 10
-495.145716300494370
 20
-239.594933053193470
 40
1.500000000000000
 50
180.000000000000000
 51
280.240348321187530
  0
LINE
  8
0
  6
CONTINUOUS
 62
3
 10
-496.645716300494370
 20
-236.538677911701140
 11
-496.645716300494370
 21
-239.594933053193470
  0
ARC
  8
0
  6
CONTINUOUS
 62
3
 10
-495.145716300494370
 20
-236.538677911701140
 40
1.499999999999731
 50
101.837004155898450
 51
180.000000000000000
  0
ARC
  8
0
  6
CONTINUOUS
 62
3
 10
-499.145716300494370
 20
-217.453343227708960
 40
18.000000000000146
 50
281.837004155893230
 51
318.162995844107680
  0
ARC
  8
0
  6
CONTINUOUS
 62
3
 10
-484.617331624428570
 20
-230.460112184842730
 40
1.499999999999926
 50
59.999999999998380
 51
138.162995844100240
  0
LINE
  8
0
  6
CONTINUOUS
 62
3
 10
-481.220537031449620
 20
-230.689201649912320
 11
-483.867331624428570
 21
-229.161074079166160
  0
ARC
  8
0
  6
CONTINUOUS
 62
3
 10
-481.970537031449620
 20
-231.988239755588890
 40
1.499999999999828
 50
319.759651678823670
 51
59.999999999998380
  0
ARC
  8
0
  6
CONTINUOUS
 62
3
 10
-499.145716300494370
 20
-217.453343227708960
 40
14.500000000000121
 50
287.920213139392560
 51
312.079786860608860
  0
ARC
  8
0
  6
CONTINUOUS
 62
3
 10
-495.145716300494370
 20
-229.822660104561690
 40
1.500000000000000
 50
180.000000000000000
 51
287.920213139392100
  0
LINE
  8
0
  6
CONTINUOUS
 62
3
 10
-496.645716300494370
 20
-226.618494617620400
 11
-496.645716300494370
 21
-229.822660104561690
  0
ARC
  8
0
  6
CONTINUOUS
 62
3
 10
-495.145716300494370
 20
-226.618494617620850
 40
1.500000000000139
 50
113.578178478195690
 51
179.999999999982630
  0
ARC
  8
0
  6
CONTINUOUS
 62
3
 10
-499.145716300494370
 20
-217.453343227708960
 40
8.500000000000060
 50
293.578178478202350
 51
306.421821521799190
  0
ARC
  8
0
  6
CONTINUOUS
 62
3
 10
-493.208462367300460
 20
-225.500020537802360
 40
1.499999999999926
 50
59.999999999998380
 51
126.421821521801260
  0
LINE
  8
0
  6
CONTINUOUS
 62
3
 10
-489.683573657680030
 20
-225.803065175596200
 11
-492.458462367300460
 21
-224.200982432125780
  0
ARC
  8
0
  6
CONTINUOUS
 62
3
 10
-490.433573657680030
 20
-227.102103281273230
 40
1.499999999999944
 50
312.079786860618130
 51
60.000000000007070
  0
ARC
  8
0
  6
CONTINUOUS
 62
3
 10
-499.145716300494370
 20
-217.453343227708960
 40
23.999999999999801
 50
220.240348321185390
 51
259.759651678813730
  0
ARC
  8
0
  6
CONTINUOUS
 62
3
 10
-503.145716300494370
 20
-239.594933053193470
 40
1.499999999999728
 50
259.759651678812470
 51
0.000000000000000
  0
LINE
  8
0
  6
CONTINUOUS
 62
3
 10
-501.645716300494370
 20
-236.538677911701140
 11
-501.645716300494370
 21
-239.594933053193470
  0
ARC
  8
0
  6
CONTINUOUS
 62
3
 10
-503.145716300494370
 20
-236.538677911701140
 40
1.500000000000000
 50
0.000000000000000
 51
78.162995844101530
  0
ARC
  8
0
  6
CONTINUOUS
 62
3
 10
-499.145716300494370
 20
-217.453343227708960
 40
17.999999999999897
 50
221.837004155892430
 51
258.162995844106770
  0
ARC
  8
0
  6
CONTINUOUS
 62
3
 10
-513.674100976560110
 20
-230.460112184842730
 40
1.500000000000118
 50
41.837004155899741
 51
120.000000000001620
  0
LINE
  8
0
  6
CONTINUOUS
 62
3
 10
-517.070895569539060
 20
-230.689201649912320
 11
-514.424100976560110
 21
-229.161074079166160
  0
ARC
  8
0
  6
CONTINUOUS
 62
3
 10
-516.320895569539060
 20
-231.988239755588890
 40
1.499999999999926
 50
120.000000000001620
 51
220.240348321176330
  0
ARC
  8
0
  6
CONTINUOUS
 62
3
 10
-499.145716300494370
 20
-217.453343227708960
 40
14.500000000000011
 50
227.920213139391080
 51
252.079786860607410
  0
ARC
  8
0
  6
CONTINUOUS
 62
3
 10
-503.145716300494370
 20
-229.822660104561690
 40
1.500000000000355
 50
252.079786860607900
 51
0.000000000000000
  0
LINE
  8
0
  6
CONTINUOUS
 62
3
 10
-501.645716300494370
 20
-226.618494617620400
 11
-501.645716300494370
 21
-229.822660104561690
  0
ARC
  8
0
  6
CONTINUOUS
 62
3
 10
-503.145716300494370
 20
-226.618494617620850
 40
1.500000000000000
 50
0.000000000017370
 51
66.421821521804304
  0
ARC
  8
0
  6
CONTINUOUS
 62
3
 10
-499.145716300494370
 20
-217.453343227708960
 40
8.499999999999870
 50
233.578178478199590
 51
246.421821521797680
  0
ARC
  8
0
  6
CONTINUOUS
 62
3
 10
-505.082970233688290
 20
-225.500020537802360
 40
1.500000000000059
 50
53.578178478205707
 51
120.000000000001620
  0
LINE
  8
0
  6
CONTINUOUS
 62
3
 10
-508.607858943308710
 20
-225.803065175596200
 11
-505.832970233688290
 21
-224.200982432125780
  0
ARC
  8
0
  6
CONTINUOUS
 62
3
 10
-507.857858943308710
 20
-227.102103281273230
 40
1.500000000000320
 50
119.999999999992930
 51
227.920213139381870
  0
ARC
  8
0
  6
CONTINUOUS
 62
3
 10
-499.145716300494830
 20
-217.453343227708500
 40
23.999999999999872
 50
160.240348321185850
 51
199.759651678814150
  0
ARC
  8
0
  6
CONTINUOUS
 62
3
 10
-520.320895569539290
 20
-209.846649930103920
 40
1.499999999999926
 50
59.999999999998380
 51
160.240348321185250
  0
LINE
  8
0
  6
CONTINUOUS
 62
3
 10
-516.924100976560110
 20
-210.075739395173510
 11
-519.570895569539290
 21
-208.547611824427350
  0
ARC
  8
0
  6
CONTINUOUS
 62
3
 10
-517.674100976560110
 20
-211.374777500850090
 40
1.500000000000038
 50
341.837004155895390
 51
59.999999999998380
  0
ARC
  8
0
  6
CONTINUOUS
 62
3
 10
-499.145716300494830
 20
-217.453343227708500
 40
17.999999999999673
 50
161.837004155893080
 51
198.162995844106920
  0
ARC
  8
0
  6
CONTINUOUS
 62
3
 10
-517.674100976560110
 20
-223.531908954566920
 40
1.500000000000320
 50
299.999999999992950
 51
18.162995844104589
  0
LINE
  8
0
  6
CONTINUOUS
 62
3
 10
-519.570895569539060
 20
-226.359074630989650
 11
-516.924100976560110
 21
-224.830947060243940
  0
ARC
  8
0
  6
CONTINUOUS
 62
3
 10
-520.320895569539060
 20
-225.060036525313080
 40
1.500000000000246
 50
199.759651678811820
 51
300.000000000001590
  0
ARC
  8
0
  6
CONTINUOUS
 62
3
 10
-499.145716300494830
 20
-217.453343227708500
 40
14.499999999999794
 50
167.920213139392790
 51
192.079786860608980
  0
ARC
  8
0
  6
CONTINUOUS
 62
3
 10
-511.857858943308940
 20
-214.732786404419580
 40
1.499999999999926
 50
59.999999999998380
 51
167.920213139405120
  0
LINE
  8
0
  6
CONTINUOUS
 62
3
 10
-508.332970233688290
 20
-215.035831042213890
 11
-511.107858943308940
 21
-213.433748298743010
  0
ARC
  8
0
  6
CONTINUOUS
 62
3
 10
-509.082970233688290
 20
-216.334869147890460
 40
1.499999999999873
 50
353.578178478198030
 51
59.999999999998380
  0
ARC
  8
0
  6
CONTINUOUS
 62
3
 10
-499.145716300494830
 20
-217.453343227708500
 40
8.499999999999813
 50
173.578178478202550
 51
186.421821521800500
  0
ARC
  8
0
  6
CONTINUOUS
 62
3
 10
-509.082970233688290
 20
-218.571817307527000
 40
1.499999999999926
 50
300.000000000001590
 51
6.421821521801967
  0
LINE
  8
0
  6
CONTINUOUS
 62
3
 10
-511.107858943308710
 20
-221.472938156673990
 11
-508.332970233688290
 21
-219.870855413203570
  0
ARC
  8
0
  6
CONTINUOUS
 62
3
 10
-511.857858943308710
 20
-220.173900050997420
 40
1.500000000000231
 50
192.079786860610060
 51
300.000000000001590
  0
ARC
  8
0
  6
CONTINUOUS
 62
3
 10
-499.145716300494140
 20
-217.453343227708500
 40
24.000000000000032
 50
340.240348321185990
 51
19.759651678814016
  0
ARC
  8
0
  6
CONTINUOUS
 62
3
 10
-477.970537031449620
 20
-209.846649930103920
 40
1.500000000000139
 50
19.759651678813292
 51
120.000000000001620
  0
LINE
  8
0
  6
CONTINUOUS
 62
3
 10
-481.367331624428570
 20
-210.075739395173510
 11
-478.720537031449620
 21
-208.547611824427350
  0
ARC
  8
0
  6
CONTINUOUS
 62
3
 10
-480.617331624428570
 20
-211.374777500850090
 40
1.499999999999926
 50
120.000000000001620
 51
198.162995844104590
  0
ARC
  8
0
  6
CONTINUOUS
 62
3
 10
-499.145716300494140
 20
-217.453343227708500
 40
17.999999999999943
 50
341.837004155893340
 51
18.162995844106646
  0
ARC
  8
0
  6
CONTINUOUS
 62
3
 10
-480.617331624428570
 20
-223.531908954566920
 40
1.500000000000038
 50
161.837004155895410
 51
240.000000000007050
  0
LINE
  8
0
  6
CONTINUOUS
 62
3
 10
-478.720537031449620
 20
-226.359074630989650
 11
-481.367331624428570
 21
-224.830947060243940
  0
ARC
  8
0
  6
CONTINUOUS
 62
3
 10
-477.970537031449620
 20
-225.060036525313080
 40
1.499999999999926
 50
239.999999999998410
 51
340.240348321186730
  0
ARC
  8
0
  6
CONTINUOUS
 62
3
 10
-499.145716300494140
 20
-217.453343227708500
 40
14.500000000000169
 50
347.920213139391310
 51
12.079786860606980
  0
ARC
  8
0
  6
CONTINUOUS
 62
3
 10
-486.433573657680030
 20
-214.732786404419580
 40
1.500000000000192
 50
12.079786860592611
 51
120.000000000001620
  0
LINE
  8
0
  6
CONTINUOUS
 62
3
 10
-489.958462367300460
 20
-215.035831042213890
 11
-487.183573657680030
 21
-213.433748298743010
  0
ARC
  8
0
  6
CONTINUOUS
 62
3
 10
-489.208462367300460
 20
-216.334869147890460
 40
1.499999999999926
 50
120.000000000001620
 51
186.421821521801010
  0
ARC
  8
0
  6
CONTINUOUS
 62
3
 10
-499.145716300494140
 20
-217.453343227708500
 40
8.499999999999865
 50
353.578178478199500
 51
6.421821521797448
  0
ARC
  8
0
  6
CONTINUOUS
 62
3
 10
-489.208462367300460
 20
-218.571817307527000
 40
1.500000000000099
 50
173.578178478198990
 51
239.999999999998410
  0
LINE
  8
0
  6
CONTINUOUS
 62
3
 10
-487.183573657680030
 20
-221.472938156673990
 11
-489.958462367300460
 21
-219.870855413203570
  0
ARC
  8
0
  6
CONTINUOUS
 62
3
 10
-486.433573657680030
 20
-220.173900050997420
 40
1.499999999999926
 50
239.999999999998410
 51
347.920213139390400
  0
ARC
  8
0
  6
CONTINUOUS
 62
3
 10
-499.145716300494140
 20
-217.453343227708500
 40
8.500000000000101
 50
53.578178478202659
 51
66.421821521799089
  0
ARC
  8
0
  6
CONTINUOUS
 62
3
 10
-499.145716300494140
 20
-217.453343227708500
 40
23.999999999999819
 50
40.240348321186090
 51
79.759651678814322
  0
LINE
  8
0
  6
CONTINUOUS
 62
3
 10
-492.458462367300460
 20
-210.705704023291670
 11
-489.683573657680030
 21
-209.103621279820800
  0
LINE
  8
0
  6
CONTINUOUS
 62
3
 10
-496.645716300494370
 20
-195.311753402223990
 11
-496.645716300494370
 21
-198.368008543716310
  0
LINE
  8
0
  6
CONTINUOUS
 62
3
 10
-496.645716300494370
 20
-205.084026350855540
 11
-496.645716300494370
 21
-208.288191837796600
  0
ARC
  8
0
  6
CONTINUOUS
 62
3
 10
-499.145716300494140
 20
-217.453343227708500
 40
14.499999999999860
 50
47.920213139391755
 51
72.079786860608309
  0
LINE
  8
0
  6
CONTINUOUS
 62
3
 10
-483.867331624428570
 20
-205.745612376251300
 11
-481.220537031449620
 21
-204.217484805505140
  0
ARC
  8
0
  6
CONTINUOUS
 62
3
 10
-490.433573657680030
 20
-207.804583174144230
 40
1.499999999999926
 50
300.000000000001590
 51
47.920213139381872
  0
ARC
  8
0
  6
CONTINUOUS
 62
3
 10
-495.145716300494370
 20
-195.311753402223990
 40
1.499999999999952
 50
79.759651678814024
 51
180.000000000000000
  0
ARC
  8
0
  6
CONTINUOUS
 62
3
 10
-484.617331624428570
 20
-204.446574270574730
 40
1.499999999999967
 50
221.837004155893280
 51
300.000000000001590
  0
ARC
  8
0
  6
CONTINUOUS
 62
3
 10
-495.145716300494370
 20
-198.368008543716310
 40
1.500000000000000
 50
180.000000000000000
 51
258.162995844103310
  0
ARC
  8
0
  6
CONTINUOUS
 62
3
 10
-495.145716300494370
 20
-205.084026350855540
 40
1.500000000000138
 50
72.079786860605225
 51
180.000000000000000
  0
ARC
  8
0
  6
CONTINUOUS
 62
3
 10
-481.970537031449620
 20
-202.918446699828560
 40
1.499999999999926
 50
300.000000000001590
 51
40.240348321182964
  0
ARC
  8
0
  6
CONTINUOUS
 62
3
 10
-495.145716300494370
 20
-208.288191837796600
 40
1.500000000000000
 50
180.000000000000000
 51
246.421821521804280
  0
ARC
  8
0
  6
CONTINUOUS
 62
3
 10
-493.208462367300460
 20
-209.406665917615100
 40
1.499999999999693
 50
233.578178478195410
 51
300.000000000001590
  0
CIRCLE
  8
0
  6
CONTINUOUS
 62
3
 10
-499.145716300494370
 20
-217.453343227708500
 40
5.000000000000000
  0
ARC
  8
0
  6
CONTINUOUS
 62
3
 10
-476.271030372828760
 20
-199.627834996225830
 40
1.499999999999843
 50
217.928141766204990
 51
300.000000000001590
  0
LINE
  8
0
  6
CONTINUOUS
 62
3
 10
-475.521030372828760
 20
-200.926873101902400
 11
-472.900262130759930
 21
-199.413771851860250
  0
ARC
  8
0
  6
CONTINUOUS
 62
3
 10
-495.145716300494370
 20
-188.730529995018510
 40
1.500000000000000
 50
180.000000000000000
 51
262.071858233795980
  0
ARC
  8
0
  6
CONTINUOUS
 62
3
 10
-499.145716300494140
 20
-217.453343227708500
 40
27.499999999999972
 50
37.928141766201961
 51
82.071858233798309
  0
ARC
  8
0
  6
CONTINUOUS
 62
3
 10
-473.650262130759930
 20
-198.114733746183670
 40
1.499999999999926
 50
300.000000000001590
 51
37.180755781457485
  0
ARC
  8
0
  6
CONTINUOUS
 62
3
 10
-467.984179846343690
 20
-194.843419614025380
 40
1.500000000000102
 50
215.963570118316280
 51
299.999999999997270
  0
ARC
  8
0
  6
CONTINUOUS
 62
3
 10
-499.145716300494830
 20
-217.453343227708960
 40
36.999999999999851
 50
35.963570118321293
 51
84.036429881678174
  0
ARC
  8
0
  6
CONTINUOUS
 62
3
 10
-499.145716300494830
 20
-217.453343227708960
 40
33.499999999999979
 50
37.180755781458373
 51
82.819244218540931
  0
LINE
  8
0
  6
CONTINUOUS
 62
3
 10
-473.021030372828530
 20
-205.257000120825070
 11
-470.400262130759700
 21
-203.743898870782910
  0
ARC
  8
0
  6
CONTINUOUS
 62
3
 10
-469.650262130759700
 20
-205.042936976459710
 40
1.499999999999948
 50
22.819244218550043
 51
119.999999999997270
  0
ARC
  8
0
  6
CONTINUOUS
 62
3
 10
-472.271030372828530
 20
-206.556038226501640
 40
1.499999999999926
 50
120.000000000001620
 51
202.071858233797370
  0
ARC
  8
0
  6
CONTINUOUS
 62
3
 10
-499.145716300493920
 20
-217.453343227708960
 40
27.499999999999780
 50
337.928141766202090
 51
22.071858233797901
  0
ARC
  8
0
  6
CONTINUOUS
 62
3
 10
-499.145716300494600
 20
-217.453343227709410
 40
33.500000000000021
 50
337.180755781458970
 51
22.819244218542043
  0
ARC
  8
0
  6
CONTINUOUS
 62
3
 10
-472.271030372828760
 20
-228.350648228916270
 40
1.499999999999899
 50
157.928141766199360
 51
240.000000000007050
  0
LINE
  8
0
  6
CONTINUOUS
 62
3
 10
-470.400262130759470
 20
-231.162787584635230
 11
-473.021030372828760
 21
-229.649686334593300
  0
ARC
  8
0
  6
CONTINUOUS
 62
3
 10
-469.650262130759470
 20
-229.863749478958650
 40
1.499999999999926
 50
239.999999999998410
 51
337.180755781453340
  0
ARC
  8
0
  6
CONTINUOUS
 62
3
 10
-495.145716300494140
 20
-258.760122332354060
 40
1.500000000000000
 50
180.000000000000000
 51
275.531071524831360
  0
LINE
  8
0
  6
CONTINUOUS
 62
3
 10
-496.645716300494140
 20
-255.744987224799840
 11
-496.645716300494140
 21
-258.760122332354060
  0
LINE
  8
0
  6
CONTINUOUS
 62
3
 10
-496.645716300494140
 20
-246.176156460399400
 11
-496.645716300494140
 21
-249.202358960483710
  0
ARC
  8
0
  6
CONTINUOUS
 62
3
 10
-495.145716300494140
 20
-255.744987224800300
 40
1.500000000000182
 50
95.963570118326047
 51
179.999999999982630
  0
ARC
  8
0
  6
CONTINUOUS
 62
3
 10
-495.145716300494140
 20
-249.202358960483710
 40
1.500000000000000
 50
180.000000000000000
 51
277.180755781458290
  0
ARC
  8
0
  6
CONTINUOUS
 62
3
 10
-495.145716300494140
 20
-246.176156460399400
 40
1.499999999999967
 50
97.928141766195438
 51
180.000000000000000
  0
ARC
  8
0
  6
CONTINUOUS
 62
3
 10
-499.145716300494140
 20
-217.453343227709410
 40
27.499999999999879
 50
277.928141766202600
 51
322.071858233798820
  0
ARC
  8
0
  6
CONTINUOUS
 62
3
 10
-499.145716300494140
 20
-217.453343227708500
 40
37.000000000000028
 50
275.963570118320770
 51
324.036429881677980
  0
ARC
  8
0
  6
CONTINUOUS
 62
3
 10
-499.145716300494140
 20
-217.453343227708500
 40
43.000000000000199
 50
275.531071524838860
 51
324.468928475160280
  0
ARC
  8
0
  6
CONTINUOUS
 62
3
 10
-499.145716300494140
 20
-217.453343227708500
 40
33.500000000000114
 50
277.180755781458230
 51
322.819244218540800
  0
ARC
  8
0
  6
CONTINUOUS
 62
3
 10
-476.271030372828760
 20
-235.278851459192080
 40
1.500000000000320
 50
60.000000000007070
 51
142.071858233781280
  0
ARC
  8
0
  6
CONTINUOUS
 62
3
 10
-467.984179846343240
 20
-240.063266841392310
 40
1.499999999999926
 50
59.999999999998380
 51
144.036429881690740
  0
LINE
  8
0
  6
CONTINUOUS
 62
3
 10
-472.900262130759470
 20
-235.492914603557440
 11
-475.521030372828760
 21
-233.979813353515060
  0
ARC
  8
0
  6
CONTINUOUS
 62
3
 10
-473.650262130759470
 20
-236.791952709234010
 40
1.500000000000240
 50
322.819244218535570
 51
59.999999999998380
  0
ARC
  8
0
  6
CONTINUOUS
 62
3
 10
-503.145716300494600
 20
-258.760122332354060
 40
1.500000000000430
 50
264.468928475160000
 51
0.000000000000000
  0
LINE
  8
0
  6
CONTINUOUS
 62
3
 10
-501.645716300494600
 20
-255.744987224799840
 11
-501.645716300494600
 21
-258.760122332354060
  0
LINE
  8
0
  6
CONTINUOUS
 62
3
 10
-501.645716300494600
 20
-246.176156460399400
 11
-501.645716300494600
 21
-249.202358960483710
  0
ARC
  8
0
  6
CONTINUOUS
 62
3
 10
-503.145716300494600
 20
-255.744987224800300
 40
1.500000000000000
 50
0.000000000017370
 51
84.036429881682594
  0
ARC
  8
0
  6
CONTINUOUS
 62
3
 10
-503.145716300494600
 20
-249.202358960483710
 40
1.499999999999998
 50
262.819244218541710
 51
0.000000000000000
  0
ARC
  8
0
  6
CONTINUOUS
 62
3
 10
-503.145716300494600
 20
-246.176156460399400
 40
1.500000000000000
 50
0.000000000000000
 51
82.071858233804562
  0
ARC
  8
0
  6
CONTINUOUS
 62
3
 10
-499.145716300494600
 20
-217.453343227709410
 40
27.499999999999737
 50
217.928141766201150
 51
262.071858233797400
  0
ARC
  8
0
  6
CONTINUOUS
 62
3
 10
-499.145716300494600
 20
-217.453343227708500
 40
36.999999999999979
 50
215.963570118322020
 51
264.036429881678940
  0
ARC
  8
0
  6
CONTINUOUS
 62
3
 10
-499.145716300494600
 20
-217.453343227708500
 40
42.999999999999808
 50
215.531071524839690
 51
264.468928475160850
  0
ARC
  8
0
  6
CONTINUOUS
 62
3
 10
-499.145716300494600
 20
-217.453343227708500
 40
33.500000000000121
 50
217.180755781459170
 51
262.819244218541770
  0
ARC
  8
0
  6
CONTINUOUS
 62
3
 10
-522.020402228160040
 20
-235.278851459192080
 40
1.500000000000122
 50
37.928141766218701
 51
119.999999999992930
  0
ARC
  8
0
  6
CONTINUOUS
 62
3
 10
-532.918436353629660
 20
-241.570834395169640
 40
1.499999999999926
 50
120.000000000001620
 51
215.531071524832130
  0
LINE
  8
0
  6
CONTINUOUS
 62
3
 10
-533.668436353629660
 20
-240.271796289493070
 11
-531.057252754645560
 21
-238.764228735715730
  0
ARC
  8
0
  6
CONTINUOUS
 62
3
 10
-530.307252754645560
 20
-240.063266841392310
 40
1.499999999999968
 50
35.963570118309242
 51
120.000000000001620
  0
LINE
  8
0
  6
CONTINUOUS
 62
3
 10
-525.391170470229330
 20
-235.492914603557440
 11
-522.770402228160040
 21
-233.979813353515060
  0
ARC
  8
0
  6
CONTINUOUS
 62
3
 10
-524.641170470229330
 20
-236.791952709234010
 40
1.499999999999926
 50
120.000000000001620
 51
217.180755781464400
  0
ARC
  8
0
  6
CONTINUOUS
 62
3
 10
-536.918436353629660
 20
-200.264055290524310
 40
1.499999999999926
 50
59.999999999998380
 51
155.531071524840400
  0
LINE
  8
0
  6
CONTINUOUS
 62
3
 10
-533.557252754645110
 20
-200.472584738624850
 11
-536.168436353629660
 21
-198.965017184847740
  0
LINE
  8
0
  6
CONTINUOUS
 62
3
 10
-525.270402228160260
 20
-205.257000120825070
 11
-527.891170470229100
 21
-203.743898870782910
  0
ARC
  8
0
  6
CONTINUOUS
 62
3
 10
-534.307252754645330
 20
-201.771622844301420
 40
1.499999999999855
 50
335.963570118319300
 51
59.999999999990862
  0
ARC
  8
0
  6
CONTINUOUS
 62
3
 10
-528.641170470229100
 20
-205.042936976459710
 40
1.500000000000123
 50
60.000000000002721
 51
157.180755781457980
  0
ARC
  8
0
  6
CONTINUOUS
 62
3
 10
-526.020402228160260
 20
-206.556038226501640
 40
1.500000000000110
 50
337.928141766202600
 51
59.999999999998380
  0
ARC
  8
0
  6
CONTINUOUS
 62
3
 10
-499.145716300494830
 20
-217.453343227708960
 40
27.499999999999833
 50
157.928141766202150
 51
202.071858233798740
  0
ARC
  8
0
  6
CONTINUOUS
 62
3
 10
-499.145716300494140
 20
-217.453343227709410
 40
37.000000000000099
 50
155.963570118321090
 51
204.036429881678260
  0
ARC
  8
0
  6
CONTINUOUS
 62
3
 10
-499.145716300494140
 20
-217.453343227709410
 40
43.000000000000071
 50
155.531071524839210
 51
204.468928475160250
  0
ARC
  8
0
  6
CONTINUOUS
 62
3
 10
-499.145716300494140
 20
-217.453343227709410
 40
33.499999999999744
 50
157.180755781458370
 51
202.819244218541000
  0
ARC
  8
0
  6
CONTINUOUS
 62
3
 10
-526.020402228160040
 20
-228.350648228916270
 40
1.500000000000320
 50
299.999999999992950
 51
22.071858233784546
  0
ARC
  8
0
  6
CONTINUOUS
 62
3
 10
-536.918436353629660
 20
-234.642631164893830
 40
1.500000000000128
 50
204.468928475167470
 51
299.999999999992950
  0
LINE
  8
0
  6
CONTINUOUS
 62
3
 10
-536.168436353629660
 20
-235.941669270570860
 11
-533.557252754645560
 21
-234.434101716793520
  0
ARC
  8
0
  6
CONTINUOUS
 62
3
 10
-534.307252754645560
 20
-233.135063611116950
 40
1.499999999999926
 50
300.000000000001590
 51
24.036429881677126
  0
LINE
  8
0
  6
CONTINUOUS
 62
3
 10
-527.891170470229330
 20
-231.162787584635230
 11
-525.270402228160040
 21
-229.649686334593300
  0
ARC
  8
0
  6
CONTINUOUS
 62
3
 10
-528.641170470229330
 20
-229.863749478958650
 40
1.500000000000157
 50
202.819244218546660
 51
300.000000000001590
  0
ARC
  8
0
  6
CONTINUOUS
 62
3
 10
-532.918436353629200
 20
-193.335852060248270
 40
1.499999999999976
 50
144.468928475160790
 51
240.000000000002730
  0
LINE
  8
0
  6
CONTINUOUS
 62
3
 10
-531.057252754645110
 20
-196.142457719702180
 11
-533.668436353629200
 21
-194.634890165925070
  0
LINE
  8
0
  6
CONTINUOUS
 62
3
 10
-522.770402228160040
 20
-200.926873101902400
 11
-525.391170470228870
 21
-199.413771851860250
  0
ARC
  8
0
  6
CONTINUOUS
 62
3
 10
-530.307252754645110
 20
-194.843419614025380
 40
1.500000000000123
 50
240.000000000002730
 51
324.036429881683720
  0
ARC
  8
0
  6
CONTINUOUS
 62
3
 10
-524.641170470228870
 20
-198.114733746183670
 40
1.500000000000103
 50
142.819244218542510
 51
239.999999999998410
  0
ARC
  8
0
  6
CONTINUOUS
 62
3
 10
-522.020402228160040
 20
-199.627834996225830
 40
1.499999999999926
 50
239.999999999998410
 51
322.071858233800300
  0
ARC
  8
0
  6
CONTINUOUS
 62
3
 10
-499.145716300493920
 20
-217.453343227708960
 40
37.000000000000099
 50
95.963570118321798
 51
144.036429881678770
  0
ARC
  8
0
  6
CONTINUOUS
 62
3
 10
-499.145716300493920
 20
-217.453343227708960
 40
43.000000000000043
 50
95.531071524839788
 51
144.468928475160710
  0
ARC
  8
0
  6
CONTINUOUS
 62
3
 10
-499.145716300493920
 20
-217.453343227708960
 40
33.499999999999950
 50
97.180755781459069
 51
142.819244218541680
  0
ARC
  8
0
  6
CONTINUOUS
 62
3
 10
-503.145716300494370
 20
-188.730529995018510
 40
1.499999999999998
 50
277.928141766204020
 51
0.000000000000000
  0
ARC
  8
0
  6
CONTINUOUS
 62
3
 10
-543.094303730776800
 20
-167.356728760180660
 40
6.599999999999971
 50
98.597082237248614
 51
134.999999999998610
  0
ARC
  8
0
  6
CONTINUOUS
 62
4
 10
-538.087234255876410
 20
-177.344565687122210
 40
5.999999999999923
 50
97.897988672425626
 51
134.999999999996930
  0
ARC
  8
0
  6
CONTINUOUS
 62
4
 10
-499.145716300494370
 20
-458.053343227708870
 40
289.396999999999930
 50
90.000000000000000
 51
97.897988672427729
  0
LINE
  8
0
  6
CONTINUOUS
 62
3
 10
-435.645716300494480
 20
-250.058086913985680
 11
-432.619539352186560
 21
-249.978843681762780
  0
ARC
  8
0
  6
CONTINUOUS
 62
3
 10
-432.645716300494480
 20
-248.979186356787300
 40
0.999999999999931
 50
271.500000000002790
 51
0.000000000000000
  0
ARC
  8
0
  6
CONTINUOUS
 62
3
 10
-432.645716300494480
 20
-185.927500098630620
 40
1.000000000000000
 50
0.000000000000000
 51
88.499999999997186
  0
LINE
  8
0
  6
CONTINUOUS
 62
3
 10
-431.645716300494480
 20
-248.979186356787300
 11
-431.645716300494480
 21
-185.927500098630620
  0
LINE
  8
0
  6
CONTINUOUS
 62
3
 10
-435.645716300494480
 20
-184.848599541432240
 11
-432.619539352186560
 21
-184.927842773655130
  0
LINE
  8
0
  6
CONTINUOUS
 62
3
 10
-435.645716300494480
 20
-187.460844165442150
 11
-435.645716300494480
 21
-184.848599541432240
  0
LINE
  8
0
  6
CONTINUOUS
 62
3
 10
-435.645716300494480
 20
-247.445842289975760
 11
-435.645716300494480
 21
-250.058086913985680
  0
LINE
  8
0
  6
CONTINUOUS
 62
3
 10
-431.645716300494480
 20
-217.453343227708960
 11
-431.645716300494480
 21
-186.453343227708960
  0
LINE
  8
0
  6
CONTINUOUS
 62
3
 10
-431.645716300494480
 20
-217.453343227708960
 11
-431.645716300494480
 21
-248.453343227708960
  0
ARC
  8
0
  6
CONTINUOUS
 62
3
 10
-426.375616316279040
 20
-175.877017687821540
 40
1.000000000000041
 50
24.000000000003585
 51
113.999999999979760
  0
LINE
  8
0
  6
CONTINUOUS
 62
4
 10
-385.717775270874370
 20
-274.080085162960360
 11
-389.554666192973340
 21
-275.788379063878660
  0
LINE
  8
0
  6
CONTINUOUS
 62
4
 10
-387.060006193024890
 20
-271.065385152739740
 11
-390.896897115123640
 21
-272.773679053658040
  0
LINE
  8
0
  6
CONTINUOUS
 62
3
 10
-390.719514030025210
 20
-272.311580318406640
 11
-390.896897115123640
 21
-272.773679053658040
  0
LINE
  8
0
  6
CONTINUOUS
 62
3
 10
-389.092567457722170
 20
-275.965762148976640
 11
-389.554666192973570
 21
-275.788379063878210
  0
LINE
  8
0
  6
CONTINUOUS
 62
3
 10
-390.896897115123640
 20
-272.773679053658040
 11
-389.554666192973570
 21
-275.788379063878210
  0
POINT
  8
0
  6
CONTINUOUS
 62
3
 10
-382.917417992907700
 20
-271.027135914161820
  0
LINE
  8
0
  6
CONTINUOUS
 62
3
 10
-384.340996243673260
 20
-267.829726812412670
 11
-381.493839742142370
 21
-274.224545015910960
  0
LINE
  8
0
  6
CONTINUOUS
 62
3
 10
-384.340996243673260
 20
-267.829726812412670
 11
-381.493839742142370
 21
-274.224545015910960
  0
LINE
  8
0
  6
CONTINUOUS
 62
3
 10
-381.493839742142370
 20
-274.224545015910960
 11
-380.599455622465880
 21
-273.826339550146490
  0
LINE
  8
0
  6
CONTINUOUS
 62
3
 10
-384.340996243673260
 20
-267.829726812412670
 11
-383.446612123996770
 21
-267.431521346648420
  0
ARC
  8
0
  6
CONTINUOUS
 62
3
 10
-382.917854798313730
 20
-268.619129744603920
 40
1.299999237060495
 50
40.601531107483851
 51
114.000000683246080
  0
LINE
  8
0
  6
CONTINUOUS
 62
3
 10
-428.586287301341770
 20
-177.795830699987850
 11
-429.011119461087840
 21
-178.796672548603280
  0
LINE
  8
0
  6
CONTINUOUS
 62
3
 10
-428.141373556131780
 20
-178.795123332945200
 11
-428.274715578325810
 21
-179.109257451394570
  0
LINE
  8
0
  6
CONTINUOUS
 62
3
 10
-429.011119461087840
 20
-178.796672548603280
 11
-428.274715578325810
 21
-179.109257451394570
  0
LINE
  8
0
  6
CONTINUOUS
 62
3
 10
-425.462070858636420
 20
-175.470281044745660
 11
-406.770007277687630
 21
-217.453343227708960
  0
ARC
  8
0
  6
CONTINUOUS
 62
3
 10
-420.939155036841100
 20
-178.253136299048040
 40
3.000000000000030
 50
203.999999999999630
 51
260.681876880317470
  0
LINE
  8
0
  6
CONTINUOUS
 62
3
 10
-421.424902927279790
 20
-181.213549950370180
 11
-395.469265833743690
 21
-185.472379103363210
  0
ARC
  8
0
  6
CONTINUOUS
 62
3
 10
-397.898005285935310
 20
-200.274447359974150
 40
15.000000000000393
 50
1.682768801133086
 51
80.681876880324481
  0
ARC
  8
0
  6
CONTINUOUS
 62
3
 10
-982.645716300494200
 20
-217.453343227709180
 40
600.000000000000680
 50
355.284875165908370
 51
1.682768801133149
  0
ARC
  8
0
  6
CONTINUOUS
 62
3
 10
-383.679667308182790
 20
-266.856502585595540
 40
0.999999999999983
 50
175.284875165916760
 51
204.000000000003580
  0
LINE
  8
0
  6
CONTINUOUS
 62
3
 10
-426.782352959354450
 20
-174.963472230178920
 11
-429.340280240753770
 21
-176.102334830791050
  0
LINE
  8
0
  6
CONTINUOUS
 62
3
 10
-427.062555039534060
 20
-181.218189393591960
 11
-428.865926229720740
 21
-182.021101977722080
  0
ARC
  8
0
  6
CONTINUOUS
 62
3
 10
-427.645716300494480
 20
-184.761738350649920
 40
2.999999999999567
 50
113.999999999979760
 51
180.000000000000000
  0
LINE
  8
0
  6
CONTINUOUS
 62
3
 10
-431.645716300494480
 20
-186.453343227708960
 11
-430.645716300494480
 21
-186.453343227708960
  0
ARC
  8
0
  6
CONTINUOUS
 62
3
 10
-425.645716300494480
 20
-258.953343227708960
 40
5.000000000000000
 50
180.000000000000000
 51
270.000000000000000
  0
LINE
  8
0
  6
CONTINUOUS
 62
3
 10
-425.645716300494480
 20
-263.953343227708960
 11
-390.226491269165710
 21
-263.953343227708960
  0
LINE
  8
0
  6
CONTINUOUS
 62
3
 10
-381.065154277634240
 20
-277.645981669207230
 11
-383.623081559034010
 21
-278.784844269819360
  0
ARC
  8
0
  6
CONTINUOUS
 62
3
 10
-381.471890920710560
 20
-276.732436211564620
 40
1.000000000000226
 50
294.000000000027340
 51
23.999999999991683
  0
LINE
  8
0
  6
CONTINUOUS
 62
3
 10
-406.770007277690810
 20
-217.453343227708960
 11
-380.558345463067950
 21
-276.325699568488970
  0
ARC
  8
0
  6
CONTINUOUS
 62
3
 10
-384.851029036795980
 20
-264.225581067587650
 40
0.999999999999856
 50
113.999999999979760
 51
204.000000000003580
  0
ARC
  8
0
  6
CONTINUOUS
 62
3
 10
-386.275702704075400
 20
-261.575977815946090
 40
2.000000000000451
 50
294.000000000027340
 51
355.768661925113970
  0
LINE
  8
0
  6
CONTINUOUS
 62
3
 10
-387.202364018101380
 20
-270.745644242564820
 11
-390.719514030025210
 21
-272.311580318406640
  0
LINE
  8
0
  6
CONTINUOUS
 62
3
 10
-385.575417445798110
 20
-274.399826073134820
 11
-389.092567457722170
 21
-275.965762148976640
  0
LINE
  8
0
  6
CONTINUOUS
 62
3
 10
-431.645716300494480
 20
-248.453343227708960
 11
-430.645716300494480
 21
-248.453343227708960
  0
LINE
  8
0
  6
CONTINUOUS
 62
3
 10
-430.645716300494480
 20
-184.761738350649920
 11
-430.645716300494480
 21
-258.953343227708960
  0
ARC
  8
0
  6
CONTINUOUS
 62
3
 10
-982.645716300494200
 20
-217.453343227709180
 40
600.799999999999730
 50
357.158610984636650
 51
0.587807867706886
  0
ARC
  8
0
  6
CONTINUOUS
 62
3
 10
-383.583117071709860
 20
-247.186190472002860
 40
1.000000000000147
 50
303.952126946381380
 51
357.158610984632960
  0
ARC
  8
0
  6
CONTINUOUS
 62
3
 10
-382.466117047097380
 20
-248.845199496998020
 40
0.999999999999769
 50
123.952126946395960
 51
177.005923909151190
  0
ARC
  8
0
  6
CONTINUOUS
 62
3
 10
-381.695908630944300
 20
-209.686190472002860
 40
0.999999999999967
 50
180.740494943192910
 51
233.794291905968890
  0
ARC
  8
0
  6
CONTINUOUS
 62
3
 10
-382.877280747220710
 20
-211.299993410061010
 40
1.000000000000077
 50
0.587807867721716
 51
53.794291905958382
  0
LINE
  8
0
  6
CONTINUOUS
 62
3
 10
-429.340280240759000
 20
-176.102334830793320
 11
-383.623081559034010
 21
-278.784844269819360
  0
LINE
  8
0
  6
DASHDOT
 62
4
 10
-406.645716300494480
 20
-249.570819448003250
 11
-406.645716300494480
 21
-272.439328623766870
  0
ARC
  8
0
  6
CONTINUOUS
 62
3
 10
-381.128212948149160
 20
-272.638731152190990
 40
1.299999237060559
 50
293.999982013920090
 51
7.398451589679256
  0
ARC
  8
0
  6
CONTINUOUS
 62
3
 10
-388.764108573330470
 20
-273.630250274689620
 40
9.000000000000234
 50
7.398451589678908
 51
40.601531107483503
  0
LINE
  8
0
  6
DASHDOT
 62
4
 10
-419.145716300494370
 20
-96.953343227707137
 11
-419.145716300494370
 21
-155.953343227707140
  0
LINE
  8
0
  6
DASHDOT
 62
4
 10
-389.645716300494480
 20
-126.453343227707130
 11
-448.645716300494480
 21
-126.453343227707130
  0
LINE
  8
0
  6
DASHDOT
 62
4
 10
-527.691275925099030
 20
-197.953343227707140
 11
-470.343264956758500
 21
-197.953343227707140
  0
LINE
  8
0
  6
CONTINUOUS
 62
3
 10
-526.645716300494310
 20
-276.547981378844950
 11
-526.645716300494310
 21
-339.918335057227300
  0
LINE
  8
0
  6
CONTINUOUS
 62
3
 10
-521.645716300494310
 20
-280.568523742307890
 11
-521.645716300494310
 21
-340.938539154282130
  0
LINE
  8
0
  6
CONTINUOUS
 62
3
 10
-476.645716300494370
 20
-302.577056027186470
 11
-476.645716300494370
 21
-340.938539154282130
  0
LINE
  8
0
  6
CONTINUOUS
 62
3
 10
-471.645716300494370
 20
-297.286395028705560
 11
-471.645716300494370
 21
-339.918335057227300
  0
LINE
  8
0
  6
CONTINUOUS
 62
3
 10
-499.145716300494370
 20
-147.953343227707140
 11
-507.145716300494370
 21
-147.953343227707140
  0
LINE
  8
0
  6
CONTINUOUS
 62
3
 10
-511.018699646701920
 20
-150.953343227707140
 11
-517.145716300495220
 21
-150.953343227707140
  0
LINE
  8
0
  6
CONTINUOUS
 62
3
 10
-499.145716300494370
 20
-147.953343227707140
 11
-491.145716300494830
 21
-147.953343227707140
  0
LINE
  8
0
  6
CONTINUOUS
 62
3
 10
-487.272732954287280
 20
-150.953343227707140
 11
-481.145716300493920
 21
-150.953343227707140
  0
LINE
  8
0
  6
CONTINUOUS
 62
3
 10
-597.145716300495220
 20
-247.953343227707140
 11
-597.145716300495220
 21
-264.953343227707140
  0
LINE
  8
0
  6
CONTINUOUS
 62
3
 10
-597.145716300495220
 20
-247.953343227707140
 11
-597.145716300495220
 21
-230.953343227707140
  0
LINE
  8
0
  6
CONTINUOUS
 62
3
 10
-401.145716300493920
 20
-263.953343227708960
 11
-401.145716300493920
 21
-264.953343227707140
  0
ARC
  8
0
  6
CONTINUOUS
 62
3
 10
-517.145716300495220
 20
-264.953343227707140
 40
79.999999999999986
 50
202.119118468599990
 51
242.258787150595110
  0
ARC
  8
0
  6
CONTINUOUS
 62
3
 10
-517.145716300495220
 20
-230.953343227707140
 40
80.000000000000000
 50
90.000000000000000
 51
180.000000000000000
  0
ARC
  8
0
  6
CONTINUOUS
 62
3
 10
-507.145716300494370
 20
-149.953343227707140
 40
2.000000000000000
 50
90.000000000000000
 51
165.522487814070560
  0
ARC
  8
0
  6
CONTINUOUS
 62
3
 10
-511.018699646701920
 20
-148.953343227707140
 40
2.000000000000000
 50
270.000000000000000
 51
345.522487814070530
  0
ARC
  8
0
  6
CONTINUOUS
 62
3
 10
-481.145716300493920
 20
-230.953343227707140
 40
80.000000000000071
 50
37.939692129195009
 51
90.000000000000000
  0
ARC
  8
0
  6
CONTINUOUS
 62
3
 10
-491.145716300494830
 20
-149.953343227707140
 40
2.000000000000063
 50
14.477512185929456
 51
90.000000000000000
  0
ARC
  8
0
  6
CONTINUOUS
 62
3
 10
-487.272732954287280
 20
-148.953343227707140
 40
2.000000000000063
 50
194.477512185929440
 51
270.000000000000000
  0
ARC
  8
0
  6
CONTINUOUS
 62
3
 10
-517.145716300495220
 20
-264.953343227707140
 40
80.000000000000000
 50
180.000000000000000
 51
202.119118468599990
  0
ARC
  8
0
  6
CONTINUOUS
 62
3
 10
-481.145716300493920
 20
-264.953343227707140
 40
80.000000000000199
 50
323.661143755959020
 51
0.000000000000000
  0
LINE
  8
0
  6
CONTINUOUS
 62
3
 10
-476.645716300494370
 20
-280.568523742307890
 11
-476.645716300494370
 21
-340.938539154282130
  0
LINE
  8
0
  6
CONTINUOUS
 62
3
 10
-471.645716300494370
 20
-276.547981378844950
 11
-471.645716300494370
 21
-339.918335057227300
  0
LINE
  8
0
  6
CONTINUOUS
 62
3
 10
-526.645716300494310
 20
-297.286395028705560
 11
-526.645716300494310
 21
-339.918335057227300
  0
LINE
  8
0
  6
CONTINUOUS
 62
3
 10
-521.645716300494310
 20
-302.577056027186470
 11
-521.645716300494310
 21
-340.938539154282130
  0
ARC
  8
0
  6
CONTINUOUS
 62
3
 10
-468.645716300494370
 20
-276.547981378844950
 40
2.999999999999494
 50
173.162860976792530
 51
180.000000000000000
  0
ARC
  8
0
  6
CONTINUOUS
 62
3
 10
-479.645716300494370
 20
-280.568523742307890
 40
3.000000000000000
 50
0.000000000000000
 51
120.874405407573300
  0
ARC
  8
0
  6
CONTINUOUS
 62
3
 10
-518.645716300494310
 20
-280.568523742307890
 40
2.999999999999782
 50
59.125594592426701
 51
180.000000000000000
  0
ARC
  8
0
  6
CONTINUOUS
 62
3
 10
-529.645716300494310
 20
-276.547981378844950
 40
3.000000000000000
 50
0.000000000000000
 51
6.837139023207191
  0
ARC
  8
0
  6
CONTINUOUS
 62
3
 10
-435.506105993704810
 20
-311.592953534496250
 40
10.000000000000108
 50
58.384308452266673
 51
211.615691547732240
  0
ARC
  8
0
  6
CONTINUOUS
 62
3
 10
-429.215476216896660
 20
-301.373952751096110
 40
1.999999999999801
 50
238.384308452271990
 51
322.623325274950450
  0
ARC
  8
0
  6
CONTINUOUS
 62
3
 10
-445.725106777104940
 20
-317.883583311304620
 40
1.999999999999958
 50
307.376674725049550
 51
31.615691547739139
  0
ARC
  8
0
  6
CONTINUOUS
 62
3
 10
-562.785326607283880
 20
-311.592953534496250
 40
9.999999999999989
 50
328.384308452267760
 51
121.615691547731100
  0
ARC
  8
0
  6
CONTINUOUS
 62
3
 10
-569.075956384092020
 20
-301.373952751096110
 40
1.999999999999958
 50
217.376674725049580
 51
301.615691547739120
  0
ARC
  8
0
  6
CONTINUOUS
 62
3
 10
-552.566325823883740
 20
-317.883583311304620
 40
2.000000000000040
 50
148.384308452260850
 51
232.623325274950420
  0
ARC
  8
0
  6
CONTINUOUS
 62
3
 10
-562.785326607283880
 20
-184.313732920918030
 40
9.999999999999870
 50
238.384308452268900
 51
267.319870332125110
  0
ARC
  8
0
  6
CONTINUOUS
 62
3
 10
-569.075956384092020
 20
-194.532733704318160
 40
2.000000000000040
 50
58.384308452260875
 51
142.623325274950420
  0
LINE
  8
0
  6
CONTINUOUS
 62
3
 10
-511.018699646701920
 20
-344.953343227707140
 11
-517.145716300495220
 21
-344.953343227707140
  0
LINE
  8
0
  6
CONTINUOUS
 62
3
 10
-487.272732954287280
 20
-344.953343227707140
 11
-481.145716300493920
 21
-344.953343227707140
  0
LINE
  8
0
  6
CONTINUOUS
 62
3
 10
-499.145716300494370
 20
-347.953343227707140
 11
-507.145716300494370
 21
-347.953343227707140
  0
LINE
  8
0
  6
CONTINUOUS
 62
3
 10
-499.145716300494370
 20
-347.953343227707140
 11
-491.145716300494830
 21
-347.953343227707140
  0
ARC
  8
0
  6
CONTINUOUS
 62
3
 10
-517.145716300495220
 20
-264.953343227707140
 40
79.999999999999943
 50
242.258787150595110
 51
270.000000000000000
  0
ARC
  8
0
  6
CONTINUOUS
 62
3
 10
-481.145716300493920
 20
-264.953343227707140
 40
80.000000000000000
 50
270.000000000000000
 51
279.172054809625190
  0
ARC
  8
0
  6
CONTINUOUS
 62
3
 10
-491.145716300494830
 20
-345.953343227707140
 40
2.000000000000000
 50
270.000000000000000
 51
345.522487814070530
  0
ARC
  8
0
  6
CONTINUOUS
 62
3
 10
-487.272732954287280
 20
-346.953343227707140
 40
2.000000000000000
 50
90.000000000000000
 51
165.522487814070560
  0
ARC
  8
0
  6
CONTINUOUS
 62
3
 10
-507.145716300494370
 20
-345.953343227707140
 40
2.000000000000063
 50
194.477512185929440
 51
270.000000000000000
  0
ARC
  8
0
  6
CONTINUOUS
 62
3
 10
-511.018699646701920
 20
-346.953343227707140
 40
2.000000000000063
 50
14.477512185929456
 51
90.000000000000000
  0
ARC
  8
0
  6
CONTINUOUS
 62
3
 10
-481.145716300493920
 20
-264.953343227707140
 40
80.000000000000043
 50
279.172054809625190
 51
323.661143755959020
  0
ARC
  8
0
  6
CONTINUOUS
 62
3
 10
-481.145716300493920
 20
-264.953343227707140
 40
80.000000000000043
 50
279.172054809625190
 51
323.661143755959020
  0
ARC
  8
0
  6
CONTINUOUS
 62
3
 10
-479.645716300494370
 20
-340.938539154282130
 40
3.000000000000115
 50
271.130911184731190
 51
0.000000000000000
  0
ARC
  8
0
  6
CONTINUOUS
 62
3
 10
-468.645716300494370
 20
-339.918335057227300
 40
3.000000000000000
 50
180.000000000000000
 51
279.466661087575120
  0
ARC
  8
0
  6
CONTINUOUS
 62
3
 10
-481.145716300493920
 20
-264.953343227707140
 40
80.000000000000000
 50
270.000000000000000
 51
279.172054809625190
  0
LINE
  8
0
  6
CONTINUOUS
 62
3
 10
-487.272732954287280
 20
-344.953343227707140
 11
-481.145716300493920
 21
-344.953343227707140
  0
ARC
  8
0
  6
CONTINUOUS
 62
3
 10
-529.645716300494310
 20
-339.918335057227300
 40
3.000000000000048
 50
260.533338912425560
 51
0.000000000000000
  0
ARC
  8
0
  6
CONTINUOUS
 62
3
 10
-518.645716300494310
 20
-340.938539154282130
 40
3.000000000000000
 50
180.000000000000000
 51
268.869088815268810
  0
ARC
  8
0
  6
CONTINUOUS
 62
3
 10
-517.145716300495220
 20
-264.953343227707140
 40
79.999999999999943
 50
242.258787150595110
 51
270.000000000000000
  0
LINE
  8
0
  6
CONTINUOUS
 62
3
 10
-511.018699646701920
 20
-344.953343227707140
 11
-517.145716300495220
 21
-344.953343227707140
  0
ARC
  8
0
  6
CONTINUOUS
 62
3
 10
-468.645716300494370
 20
-339.918335057227300
 40
3.000000000000000
 50
180.000000000000000
 51
279.466661087575120
  0
ARC
  8
0
  6
CONTINUOUS
 62
3
 10
-479.645716300494370
 20
-340.938539154282130
 40
3.000000000000115
 50
271.130911184731190
 51
0.000000000000000
  0
ARC
  8
0
  6
CONTINUOUS
 62
3
 10
-518.645716300494310
 20
-340.938539154282130
 40
3.000000000000000
 50
180.000000000000000
 51
268.869088815268810
  0
ARC
  8
0
  6
CONTINUOUS
 62
3
 10
-529.645716300494310
 20
-339.918335057227300
 40
3.000000000000048
 50
260.533338912425560
 51
0.000000000000000
  0
ARC
  8
0
  6
CONTINUOUS
 62
3
 10
-499.145716300494370
 20
-247.953343227707140
 40
35.000000000000007
 50
235.503770534084850
 51
304.496229465915230
  0
LINE
  8
0
  6
DASHDOT
 62
4
 10
-694.222879031731280
 20
-217.453343227708960
 11
-304.546444304916800
 21
-217.453343227708960
  0
INSERT
  8
0
  2
SYM5
 10
-562.785326607283880
 20
-311.592953534496250
 41
-1.000000000000000
  0
INSERT
  8
0
  2
SYM6
 10
-435.506105993704810
 20
-311.592953534496250
  0
LINE
  8
0
  6
CONTINUOUS
 62
3
 10
-503.145716300494370
 20
-58.788198798659323
 11
-503.145716300494370
 21
-75.953343227706910
  0
LINE
  8
0
  6
CONTINUOUS
 62
3
 10
-495.145716300494370
 20
-58.788198798659323
 11
-495.145716300494370
 21
-75.953343227706910
  0
LINE
  8
0
  6
CONTINUOUS
 62
3
 10
-478.645716300494370
 20
-57.953350188570994
 11
-478.645716300494370
 21
-83.303653825634910
  0
ARC
  8
0
  6
CONTINUOUS
 62
3
 10
-488.645716300494370
 20
-57.953350188570994
 40
10.000000000000000
 50
0.000000000000000
 51
90.000000000000000
  0
ARC
  8
0
  6
CONTINUOUS
 62
3
 10
-509.645716300494370
 20
-57.953350188570994
 40
10.000000000000000
 50
90.000000000000000
 51
180.000000000000000
  0
LINE
  8
0
  6
DASHDOT
 62
4
 10
-475.977803301612820
 20
-67.953350188570994
 11
-523.000317203147460
 21
-67.953350188570994
  0
CIRCLE
  8
0
  6
CONTINUOUS
 62
3
 10
-499.145716300494370
 20
-67.953350188570994
 40
10.000000000000000
  0
LINE
  8
0
  6
CONTINUOUS
 62
3
 10
-519.645716300494310
 20
-57.953350188570994
 11
-519.645716300494310
 21
-83.303653825634910
  0
LINE
  8
0
  6
CONTINUOUS
 62
3
 10
-488.645716300494370
 20
-47.953350188570994
 11
-509.645716300494370
 21
-47.953350188570994
  0
INSERT
  8
0
  2
SYM7
 10
-575.145716300494310
 20
-378.953343227706910
 41
-1.000000000000000
  0
INSERT
  8
0
  2
SYM7
 10
-634.145716300494200
 20
-277.953343227707590
 41
-1.000000000000000
  0
INSERT
  8
0
  2
SYM7
 10
-631.145716300494310
 20
-177.953343227707140
 41
-1.000000000000000
  0
INSERT
  8
0
  2
SYM7
 10
-559.145716300494310
 20
-102.453343227707130
 41
-1.000000000000000
  0
INSERT
  8
0
  2
SYM8
 10
-509.645716300494370
 20
-95.953343227707137
 41
-1.000000000000000
  0
INSERT
  8
0
  2
SYM7
 10
-423.145716300494370
 20
-378.953343227706910
  0
INSERT
  8
0
  2
SYM7
 10
-364.145716300494480
 20
-277.953343227707590
  0
INSERT
  8
0
  2
SYM7
 10
-367.145716300494310
 20
-177.953343227707140
  0
INSERT
  8
0
  2
SYM7
 10
-439.145716300494260
 20
-102.453343227707130
  0
INSERT
  8
0
  2
SYM8
 10
-488.645716300494370
 20
-95.953343227707137
  0
LINE
  8
0
  6
CONTINUOUS
 62
3
 10
-364.145716300494370
 20
-260.953343227707140
 11
-354.145716300494370
 21
-260.953343227707140
  0
LINE
  8
0
  6
CONTINUOUS
 62
3
 10
-364.145716300494370
 20
-234.953343227707140
 11
-354.145716300494370
 21
-234.953343227707140
  0
LINE
  8
0
  6
CONTINUOUS
 62
3
 10
-481.645716300494370
 20
-107.953343227707130
 11
-499.145716300494370
 21
-107.953343227707130
  0
LINE
  8
0
  6
CONTINUOUS
 62
3
 10
-516.645716300494310
 20
-107.953343227707130
 11
-499.145716300494370
 21
-107.953343227707130
  0
LINE
  8
0
  6
CONTINUOUS
 62
3
 10
-478.645716300494370
 20
-83.303653825636275
 11
-478.645716300494370
 21
-104.953343227707130
  0
LINE
  8
0
  6
CONTINUOUS
 62
3
 10
-519.645716300494310
 20
-83.303653825636275
 11
-519.645716300494310
 21
-104.953343227707130
  0
LINE
  8
0
  6
CONTINUOUS
 62
3
 10
-351.145716300494370
 20
-203.770705812702540
 11
-351.145716300494370
 21
-295.421255078655350
  0
LINE
  8
0
  6
CONTINUOUS
 62
3
 10
-352.485462262649950
 20
-300.421255078655350
 11
-374.385563566429650
 21
-338.353343227707230
  0
ARC
  8
0
  6
CONTINUOUS
 62
3
 10
-386.923030470356990
 20
-347.448106996486330
 40
5.000000000000121
 50
225.000000000000910
 51
319.414552653952110
  0
ARC
  8
0
  6
CONTINUOUS
 62
3
 10
-376.668284081322270
 20
-138.203833069893340
 40
5.000000000000070
 50
34.760457583999603
 51
134.999999999998150
  0
ARC
  8
0
  6
CONTINUOUS
 62
3
 10
-388.119427293324690
 20
-124.199132159179950
 40
5.000000000000121
 50
314.999999999999090
 51
43.782820215094013
  0
ARC
  8
0
  6
CONTINUOUS
 62
3
 10
-499.145716300494830
 20
-682.953343227707140
 40
600.000000000000110
 50
86.655847795544304
 51
88.042013127606623
  0
ARC
  8
0
  6
CONTINUOUS
 62
3
 10
-499.145716300494830
 20
-682.953343227707140
 40
600.000000000000000
 50
91.957986872393263
 51
93.344152204455611
  0
ARC
  8
0
  6
CONTINUOUS
 62
3
 10
-354.145716300494370
 20
-231.953343227707140
 40
3.000000000000000
 50
270.000000000000000
 51
0.000000000000000
  0
ARC
  8
0
  6
CONTINUOUS
 62
3
 10
-354.145716300494370
 20
-263.953343227707140
 40
3.000000000000000
 50
0.000000000000000
 51
90.000000000000000
  0
ARC
  8
0
  6
CONTINUOUS
 62
3
 10
-361.145716300494370
 20
-295.421255078655350
 40
10.000000000000032
 50
330.000000000000110
 51
0.000000000000000
  0
ARC
  8
0
  6
CONTINUOUS
 62
3
 10
-481.645716300494370
 20
-104.953343227707130
 40
3.000000000000000
 50
270.000000000000000
 51
0.000000000000000
  0
ARC
  8
0
  6
CONTINUOUS
 62
3
 10
-516.645716300494310
 20
-104.953343227707130
 40
3.000000000000000
 50
180.000000000000000
 51
270.000000000000000
  0
ARC
  8
0
  6
CONTINUOUS
 62
3
 10
-364.145716300494370
 20
-247.953343227707140
 40
13.000000000000000
 50
90.000000000000000
 51
270.000000000000000
  0
LINE
  8
0
  6
CONTINUOUS
 62
3
 10
-634.145716300494310
 20
-260.953343227707140
 11
-645.145716300494310
 21
-260.953343227707140
  0
LINE
  8
0
  6
CONTINUOUS
 62
3
 10
-634.145716300494310
 20
-234.953343227707140
 11
-645.145716300494310
 21
-234.953343227707140
  0
LINE
  8
0
  6
CONTINUOUS
 62
3
 10
-618.087614613733760
 20
-134.668299163960460
 11
-579.291481723018020
 21
-173.464432054676310
  0
LINE
  8
0
  6
CONTINUOUS
 62
3
 10
-613.707539213596650
 20
-127.734666065112830
 11
-573.528142786874700
 21
-167.914062491834780
  0
LINE
  8
0
  6
CONTINUOUS
 62
3
 10
-495.145716300494370
 20
-112.953343227707130
 11
-495.145716300494370
 21
-143.025139997431780
  0
LINE
  8
0
  6
CONTINUOUS
 62
3
 10
-503.145716300494370
 20
-112.953343227707130
 11
-503.145716300494370
 21
-143.025139997431780
  0
LINE
  8
0
  6
CONTINUOUS
 62
3
 10
-647.145716300494310
 20
-203.770705812702320
 11
-647.145716300494310
 21
-295.421255078655350
  0
LINE
  8
0
  6
CONTINUOUS
 62
3
 10
-645.805970338338740
 20
-300.421255078655350
 11
-623.905869034559150
 21
-338.353343227707230
  0
LINE
  8
0
  6
CONTINUOUS
 62
3
 10
-499.145716300494370
 20
-389.953343227707140
 11
-418.349884777181670
 21
-389.953343227707140
  0
LINE
  8
0
  6
CONTINUOUS
 62
3
 10
-499.145716300494370
 20
-389.953343227707140
 11
-579.941547823807010
 21
-389.953343227707140
  0
LINE
  8
0
  6
CONTINUOUS
 62
3
 10
-384.583893387391920
 20
-127.734666065112830
 11
-424.763289814114100
 21
-167.914062491835010
  0
LINE
  8
0
  6
CONTINUOUS
 62
3
 10
-380.203817987254920
 20
-134.668299163960460
 11
-418.999950877971000
 21
-173.464432054676540
  0
LINE
  8
0
  6
CONTINUOUS
 62
3
 10
-601.664106651518070
 20
-356.128587828223090
 11
-577.072847901500840
 21
-331.537329078205860
  0
LINE
  8
0
  6
CONTINUOUS
 62
3
 10
-607.832868224698930
 20
-350.983640902419210
 11
-583.662558650257440
 21
-326.813331327977720
  0
LINE
  8
0
  6
CONTINUOUS
 62
3
 10
-396.627325949470620
 20
-356.128587828223090
 11
-418.862846857723580
 21
-333.893066919970120
  0
LINE
  8
0
  6
CONTINUOUS
 62
3
 10
-390.458564376289760
 20
-350.983640902419210
 11
-417.440145061330160
 21
-324.002060217378580
  0
CIRCLE
  8
0
  6
CONTINUOUS
 62
3
 10
-419.145716300494480
 20
-126.453343227707130
 40
9.350000000000023
  0
CIRCLE
  8
0
  6
CONTINUOUS
 62
4
 10
-419.145716300494480
 20
-126.453343227707130
 40
10.500000000000000
  0
ARC
  8
0
  6
CONTINUOUS
 62
3
 10
-413.904611155397500
 20
-320.466526311445930
 40
4.999999999999858
 50
163.709803389737400
 51
225.000000000000000
  0
ARC
  8
0
  6
CONTINUOUS
 62
3
 10
-422.398380763656350
 20
-337.428600825902780
 40
4.999999999999960
 50
44.999999999999083
 51
143.091301640805400
  0
ARC
  8
0
  6
CONTINUOUS
 62
3
 10
-573.537313995568180
 20
-335.072862984138510
 40
4.999999999999928
 50
61.306201207326374
 51
135.000000000000000
  0
ARC
  8
0
  6
CONTINUOUS
 62
3
 10
-587.198092556190200
 20
-323.277797422044840
 40
5.000000000000121
 50
314.999999999999090
 51
37.077467885865147
  0
ARC
  8
0
  6
CONTINUOUS
 62
3
 10
-595.889974759688130
 20
-296.958682777723650
 40
5.000000000000093
 50
359.474123357936720
 51
22.119118468600291
  0
ARC
  8
0
  6
CONTINUOUS
 62
3
 10
-556.711413363599150
 20
-340.183361278420760
 40
4.999999999999996
 50
62.258787150595815
 51
84.903782261257945
  0
ARC
  8
0
  6
CONTINUOUS
 62
3
 10
-489.150386873423540
 20
-352.662937885915880
 40
4.999999999999896
 50
62.620744204632395
 51
106.561661668952900
  0
ARC
  8
0
  6
CONTINUOUS
 62
3
 10
-412.675954303260200
 20
-315.320909101413920
 40
5.000000000000077
 50
143.661143755958530
 51
169.431241352001900
  0
ARC
  8
0
  6
CONTINUOUS
 62
3
 10
-552.891785924235710
 20
-297.353343227707230
 40
37.999999999999986
 50
179.474123357936550
 51
264.903782261258300
  0
ARC
  8
0
  6
CONTINUOUS
 62
3
 10
-464.776836076617030
 20
-305.599894831354500
 40
48.000000000000149
 50
242.620744204634010
 51
349.431241352001900
  0
ARC
  8
0
  6
CONTINUOUS
 62
3
 10
-490.145716300494370
 20
-143.025139997431780
 40
5.000000000000000
 50
180.000000000000000
 51
261.786789298258380
  0
ARC
  8
0
  6
CONTINUOUS
 62
3
 10
-508.145716300494370
 20
-143.025139997431780
 40
4.999999999999918
 50
278.213210701737750
 51
0.000000000000000
  0
ARC
  8
0
  6
CONTINUOUS
 62
3
 10
-569.992608880942040
 20
-164.378528585902130
 40
4.999999999999879
 50
225.000000000000000
 51
308.442443111784140
  0
ARC
  8
0
  6
CONTINUOUS
 62
3
 10
-582.827015628950680
 20
-176.999965960608960
 40
5.000000000000030
 50
320.598880246797530
 51
45.000000000000000
  0
ARC
  8
0
  6
CONTINUOUS
 62
3
 10
-428.298823720046870
 20
-164.378528585902130
 40
5.000000000000076
 50
231.557556888217480
 51
314.999999999999090
  0
ARC
  8
0
  6
CONTINUOUS
 62
3
 10
-415.464416972038120
 20
-176.999965960609190
 40
5.000000000000041
 50
135.000000000001820
 51
219.401119753201640
  0
ARC
  8
0
  6
CONTINUOUS
 62
3
 10
-598.128572745585420
 20
-359.664121734155740
 40
4.999999999999879
 50
135.000000000000000
 51
234.020855184679220
  0
ARC
  8
0
  6
CONTINUOUS
 62
3
 10
-611.368402130631690
 20
-347.448106996486330
 40
4.999999999999976
 50
220.585447346048710
 51
314.999999999999090
  0
ARC
  8
0
  6
CONTINUOUS
 62
3
 10
-400.162859855403380
 20
-359.664121734155970
 40
4.999999999999892
 50
305.979144815322340
 51
45.000000000000931
  0
ARC
  8
0
  6
CONTINUOUS
 62
3
 10
-610.172005307663990
 20
-124.199132159179950
 40
4.999999999999995
 50
136.217179784905970
 51
225.000000000001850
  0
ARC
  8
0
  6
CONTINUOUS
 62
3
 10
-621.623148519666530
 20
-138.203833069893340
 40
5.000000000000121
 50
45.000000000000931
 51
145.239542415999670
  0
ARC
  8
0
  6
CONTINUOUS
 62
3
 10
-490.145716300494370
 20
-112.953343227707130
 40
5.000000000000000
 50
90.000000000000000
 51
180.000000000000000
  0
ARC
  8
0
  6
CONTINUOUS
 62
3
 10
-508.145716300494370
 20
-112.953343227707130
 40
5.000000000000000
 50
0.000000000000000
 51
90.000000000000000
  0
ARC
  8
0
  6
CONTINUOUS
 62
3
 10
-423.145716300494370
 20
-378.953343227707140
 40
11.999999999999991
 50
293.556464309101160
 51
5.963919453129750
  0
ARC
  8
0
  6
CONTINUOUS
 62
3
 10
-403.253965854671430
 20
-376.875299868896040
 40
7.999999999999761
 50
117.923051853925750
 51
185.963919453133060
  0
ARC
  8
0
  6
CONTINUOUS
 62
3
 10
-471.145716300494370
 20
-203.770705812702320
 40
120.000000000000000
 50
359.999999999999890
 51
86.655847795544332
  0
ARC
  8
0
  6
CONTINUOUS
 62
3
 10
-527.145716300494310
 20
-203.770705812702320
 40
120.000000000000050
 50
93.344152204455668
 51
180.000000000000000
  0
ARC
  8
0
  6
CONTINUOUS
 62
3
 10
-595.037466746317480
 20
-376.875299868896040
 40
8.000000000000169
 50
354.036080546867080
 51
62.076948146072816
  0
ARC
  8
0
  6
CONTINUOUS
 62
3
 10
-575.145716300494310
 20
-378.953343227707140
 40
11.999999999999956
 50
174.036080546870270
 51
246.443535690898870
  0
ARC
  8
0
  6
CONTINUOUS
 62
3
 10
-637.145716300494310
 20
-295.421255078655350
 40
10.000000000000000
 50
180.000000000000000
 51
209.999999999999890
  0
ARC
  8
0
  6
CONTINUOUS
 62
3
 10
-445.399646676753550
 20
-297.353343227707230
 40
81.999999999999815
 50
297.923051853925700
 51
330.000000000000000
  0
ARC
  8
0
  6
CONTINUOUS
 62
3
 10
-552.891785924235140
 20
-297.353343227707230
 40
82.000000000000028
 50
210.000000000000000
 51
242.076948146074160
  0
CIRCLE
  8
0
  6
CONTINUOUS
 62
3
 10
-419.145716300494480
 20
-126.453343227707130
 40
17.500000000000000
  0
ARC
  8
0
  6
CONTINUOUS
 62
3
 10
-645.145716300494310
 20
-232.953343227707140
 40
2.000000000000000
 50
180.000000000000000
 51
270.000000000000000
  0
ARC
  8
0
  6
CONTINUOUS
 62
3
 10
-634.145716300494310
 20
-247.953343227707140
 40
13.000000000000000
 50
270.000000000000000
 51
90.000000000000000
  0
ARC
  8
0
  6
CONTINUOUS
 62
3
 10
-645.145716300494310
 20
-262.953343227707140
 40
2.000000000000000
 50
90.000000000000000
 51
180.000000000000000
  0
LINE
  8
0
  6
CONTINUOUS
 62
3
 10
-616.145716300494310
 20
-349.535143617836640
 11
-616.145716300494310
 21
-378.953343227706910
  0
LINE
  8
0
  6
CONTINUOUS
 62
3
 10
-588.562124165493060
 20
-380.953343227706910
 11
-614.145716300494310
 21
-380.953343227706910
  0
LINE
  8
0
  6
CONTINUOUS
 62
3
 10
-409.729308435495740
 20
-380.953343227706910
 11
-384.145716300494480
 21
-380.953343227706910
  0
LINE
  8
0
  6
CONTINUOUS
 62
3
 10
-382.145716300494480
 20
-349.535143617836640
 11
-382.145716300494480
 21
-378.953343227706910
  0
LINE
  8
0
  6
CONTINUOUS
 62
3
 10
-366.719585131984960
 20
-71.184066308689808
 11
-397.468868906036110
 21
-101.933350082741070
  0
LINE
  8
0
  6
CONTINUOUS
 62
3
 10
-372.376439381477380
 20
-65.527212059197609
 11
-405.613345305128350
 21
-98.764117982848575
  0
LINE
  8
0
  6
CONTINUOUS
 62
3
 10
-631.571847469003840
 20
-71.184066308689808
 11
-600.822563694952810
 21
-101.933350082741070
  0
LINE
  8
0
  6
CONTINUOUS
 62
3
 10
-625.914993219511420
 20
-65.527212059197609
 11
-592.678087295860680
 21
-98.764117982848575
  0
LINE
  8
0
  6
CONTINUOUS
 62
3
 10
-684.145716300494310
 20
-32.953343227706910
 11
-684.145716300494310
 21
-362.953343227706910
  0
LINE
  8
0
  6
CONTINUOUS
 62
3
 10
-314.145716300494480
 20
-32.953343227706910
 11
-314.145716300494480
 21
-362.953343227706910
  0
LINE
  8
0
  6
CONTINUOUS
 62
3
 10
-664.145716300494310
 20
-12.953343227706910
 11
-334.145716300494480
 21
-12.953343227706910
  0
LINE
  8
0
  6
CONTINUOUS
 62
3
 10
-499.145716300494370
 20
-389.953343227706910
 11
-579.941547823807010
 21
-389.953343227706910
  0
LINE
  8
0
  6
CONTINUOUS
 62
3
 10
-499.145716300494370
 20
-389.953343227706910
 11
-418.349884777181790
 21
-389.953343227706910
  0
LINE
  8
0
  6
CONTINUOUS
 62
3
 10
-408.179086753398740
 20
-382.953343227706910
 11
-334.145716300494480
 21
-382.953343227706910
  0
LINE
  8
0
  6
CONTINUOUS
 62
3
 10
-586.459424799479170
 20
-382.953343227706910
 11
-664.145716300494310
 21
-382.953343227706910
  0
ARC
  8
0
  6
CONTINUOUS
 62
3
 10
-575.145716300494310
 20
-378.953343227706910
 40
12.000000000000041
 50
196.601549599019710
 51
246.443535690898870
  0
ARC
  8
0
  6
CONTINUOUS
 62
3
 10
-423.145716300494370
 20
-378.953343227706910
 40
11.999999999999947
 50
293.556464309100650
 51
343.398450400979130
  0
ARC
  8
0
  6
CONTINUOUS
 62
3
 10
-614.145716300494310
 20
-378.953343227706910
 40
2.000000000000000
 50
180.000000000000000
 51
270.000000000000000
  0
ARC
  8
0
  6
CONTINUOUS
 62
3
 10
-588.562124165493060
 20
-382.953343227706910
 40
1.999999999999902
 50
16.601549599017194
 51
90.000000000000000
  0
ARC
  8
0
  6
CONTINUOUS
 62
3
 10
-409.729308435495740
 20
-382.953343227706910
 40
2.000000000000000
 50
90.000000000000000
 51
163.398450400983730
  0
ARC
  8
0
  6
CONTINUOUS
 62
3
 10
-384.145716300494480
 20
-378.953343227706910
 40
2.000000000000000
 50
270.000000000000000
 51
0.000000000000000
  0
ARC
  8
0
  6
CONTINUOUS
 62
3
 10
-393.933335000103340
 20
-105.468883988673720
 40
4.999999999999960
 50
135.000000000000910
 51
231.851699048392280
  0
ARC
  8
0
  6
CONTINUOUS
 62
3
 10
-409.148879211061000
 20
-95.228584076915695
 40
5.000000000000037
 50
240.265956501734650
 51
314.999999999998120
  0
ARC
  8
0
  6
CONTINUOUS
 62
3
 10
-375.911973287410260
 20
-61.991678153264729
 40
5.000000000000201
 50
315.000000000000000
 51
44.999999999999083
  0
ARC
  8
0
  6
CONTINUOUS
 62
3
 10
-363.184051226052420
 20
-74.719600214622460
 40
4.999999999999960
 50
44.999999999999083
 51
134.999999999999090
  0
ARC
  8
0
  6
CONTINUOUS
 62
3
 10
-635.107381374936490
 20
-74.719600214622460
 40
4.999999999999879
 50
45.000000000000000
 51
135.000000000000000
  0
ARC
  8
0
  6
CONTINUOUS
 62
3
 10
-604.358097600885460
 20
-105.468883988673720
 40
4.999999999999975
 50
308.148300951607780
 51
45.000000000000000
  0
ARC
  8
0
  6
CONTINUOUS
 62
3
 10
-589.142553389927800
 20
-95.228584076915695
 40
5.000000000000201
 50
225.000000000000000
 51
299.734043498263130
  0
ARC
  8
0
  6
CONTINUOUS
 62
3
 10
-622.379459313578540
 20
-61.991678153264729
 40
5.000000000000041
 50
135.000000000001820
 51
225.000000000000000
  0
ARC
  8
0
  6
CONTINUOUS
 62
3
 10
-408.179086753398740
 20
-388.953343227706910
 40
6.000000000000000
 50
90.000000000000000
 51
146.251011404112180
  0
ARC
  8
0
  6
CONTINUOUS
 62
3
 10
-508.145716300494370
 20
-33.015653906645866
 40
5.000000000000000
 50
0.000000000000000
 51
90.793351528945863
  0
ARC
  8
0
  6
CONTINUOUS
 62
3
 10
-490.145716300494370
 20
-33.015653906645866
 40
5.000000000000037
 50
89.206648471056738
 51
180.000000000000000
  0
ARC
  8
0
  6
CONTINUOUS
 62
3
 10
-664.145716300494310
 20
-362.953343227706910
 40
20.000000000000000
 50
180.000000000000000
 51
270.000000000000000
  0
CIRCLE
  8
0
  6
CONTINUOUS
 62
3
 10
-658.244742067467540
 20
-357.052368994680360
 40
12.000000000000000
  0
ARC
  8
0
  6
CONTINUOUS
 62
3
 10
-334.145716300494480
 20
-362.953343227706910
 40
20.000000000000000
 50
270.000000000000000
 51
0.000000000000000
  0
ARC
  8
0
  6
CONTINUOUS
 62
3
 10
-334.145716300494480
 20
-32.953343227706910
 40
20.000000000000000
 50
0.000000000000000
 51
90.000000000000000
  0
CIRCLE
  8
0
  6
CONTINUOUS
 62
3
 10
-340.046690533521480
 20
-38.854317460733455
 40
12.000000000000000
  0
ARC
  8
0
  6
CONTINUOUS
 62
3
 10
-664.145716300494310
 20
-32.953343227706910
 40
20.000000000000000
 50
90.000000000000000
 51
180.000000000000000
  0
CIRCLE
  8
0
  6
CONTINUOUS
 62
3
 10
-658.244742067467540
 20
-38.854317460733455
 40
12.000000000000000
  0
CIRCLE
  8
0
  6
CONTINUOUS
 62
3
 10
-340.046690533521480
 20
-357.052368994680360
 40
12.000000000000000
  0
LINE
  8
0
  6
CONTINUOUS
 62
3
 10
-495.145716300494370
 20
-33.015653906645866
 11
-495.145716300494370
 21
-47.953350188570994
  0
LINE
  8
0
  6
CONTINUOUS
 62
3
 10
-503.145716300494370
 20
-33.015653906645866
 11
-503.145716300494370
 21
-47.953350188570994
  0
ARC
  8
0
  6
CONTINUOUS
 62
3
 10
-490.145716300494370
 20
-75.953343227706910
 40
5.000000000000000
 50
180.000000000000000
 51
192.823212320258360
  0
ARC
  8
0
  6
CONTINUOUS
 62
3
 10
-508.145716300494370
 20
-75.953343227706910
 40
5.000000000000020
 50
347.176787679741660
 51
0.000000000000000
  0
LINE
  8
0
  6
CONTINUOUS
 62
3
 10
-560.488136577730870
 20
-178.134463935981440
 11
-562.782925227767810
 21
-176.809568744502600
  0
LINE
  8
0
  6
CONTINUOUS
 62
3
 10
-562.782925398916180
 20
-176.809570107110970
 11
-569.280514259361780
 21
-180.563738016663590
  0
LINE
  8
0
  6
CONTINUOUS
 62
3
 10
-569.280515702003300
 20
-180.563739048174630
 11
-569.282918959100240
 21
-188.067898021868470
  0
LINE
  8
0
  6
CONTINUOUS
 62
3
 10
-569.282920323071490
 20
-188.067900733216110
 11
-563.038201460631850
 21
-191.673286350253310
  0
ARC
  8
0
  6
CONTINUOUS
 62
3
 10
-562.785326607283880
 20
-184.313732920918030
 40
6.499999999999977
 50
69.643935972739300
 51
268.435835376532850
  0
LINE
  8
0
  6
CONTINUOUS
 62
3
 10
-437.803296023257810
 20
-178.134463935981440
 11
-435.508507373220880
 21
-176.809568744502600
  0
LINE
  8
0
  6
CONTINUOUS
 62
3
 10
-435.508507202072510
 20
-176.809570107110970
 11
-429.010918341627020
 21
-180.563738016663590
  0
LINE
  8
0
  6
CONTINUOUS
 62
3
 10
-429.010916898985390
 20
-180.563739048174630
 11
-429.010429564396590
 21
-182.085439007442460
  0
ARC
  8
0
  6
CONTINUOUS
 62
3
 10
-435.506105993704810
 20
-184.313732920918030
 40
6.500000000000073
 50
18.226699476752742
 51
110.356064027260700
  0
LINE
  8
0
  6
DASHDOT
 62
4
 10
-499.145716300494370
 20
-409.469184777777170
 11
-499.145716300494370
 21
-9.185391620769224
  0
LINE
  8
0
  6
CONTINUOUS
 62
3
 10
-488.645716300494370
 20
-105.953343227660980
 11
-509.645716300494370
 21
-105.953343227660980
  0
ARC
  8
0
  6
CONTINUOUS
 62
3
 10
-509.645716300494370
 20
-95.953343227660980
 40
9.999999999999943
 50
180.000000000000000
 51
270.000000000000000
  0
ARC
  8
0
  6
CONTINUOUS
 62
3
 10
-488.645716300494370
 20
-95.953343227660980
 40
10.000000000000000
 50
270.000000000000000
 51
0.000000000000000
  0
TEXT
  8
0
  6
CONTINUOUS
 62
3
 10
-589.137023925781250
 20
245.228805541992190
 40
16.000000000000000
  1
Ｄ０９２
 50
0.000002504478167
 41
0.833333333333333
  7
STANDARD1
  0
TEXT
  8
0
  6
CONTINUOUS
 62
3
 10
-589.137023925781250
 20
224.028808593750000
 40
16.000000000000000
  1
三菱ギヤードモートル
 50
0.000002504478167
 41
0.833333333333333
  7
STANDARD1
  0
TEXT
  8
0
  6
CONTINUOUS
 62
3
 10
-589.137023925781250
 20
202.828811645507810
 40
16.000000000000000
  1
ＧＭ－ＤＦＢ
 50
0.000002504478167
 41
0.833333333333333
  7
STANDARD1
  0
TEXT
  8
0
  6
CONTINUOUS
 62
3
 10
-589.137023925781250
 20
181.628799438476560
 40
16.000000000000000
  1
０．４（kＷ）
 50
0.000002504478167
 41
0.804878051688032
  7
STANDARD1
  0
TEXT
  8
0
  6
CONTINUOUS
 62
3
 10
-589.137023925781250
 20
160.428802490234380
 40
16.000000000000000
  1
１／５４０～１／９００
 50
0.000002504478167
 41
0.833333333333333
  7
STANDARD1
  0
TEXT
  8
0
  6
CONTINUOUS
 62
3
 10
-589.137023925781250
 20
139.228805541992190
 40
16.000000000000000
  1
ＳＣＡＬＥ　１／１
 50
0.000002504478167
 41
0.833333333333333
  7
STANDARD1
  0
INSERT
  8
0
  2
SYM9
 10
12.861936696136013
 20
272.634826049968520
 41
-1.000000000000000
 50
180.000000000000030
  0
INSERT
  8
0
  2
SYM9
 10
12.861936696136013
 20
152.458487494613790
  0
LINE
  8
0
  6
CONTINUOUS
 62
3
 10
201.861936696136010
 20
212.546656772291040
 11
201.861936696136010
 21
240.746656772291770
  0
LINE
  8
0
  6
CONTINUOUS
 62
3
 10
201.861936696136010
 20
240.746656772291770
 11
201.861936696136010
 21
212.546656772291040
  0
LINE
  8
0
  6
CONTINUOUS
 62
3
 10
283.061936696136290
 20
240.046656772291040
 11
204.421744317271420
 21
240.046656772291040
  0
LINE
  8
0
  6
CONTINUOUS
 62
3
 10
203.861936696135560
 20
239.896656772291410
 11
202.661936696136190
 21
239.896656772291410
  0
LINE
  8
0
  6
CONTINUOUS
 62
3
 10
203.861936696136010
 20
239.896656772291410
 11
204.421744317271420
 21
240.046656772291040
  0
ARC
  8
0
  6
CONTINUOUS
 62
3
 10
202.661936696136190
 20
240.696656772291590
 40
0.800000000000182
 50
180.000000000000000
 51
270.000000000000000
  0
LINE
  8
0
  6
CONTINUOUS
 62
3
 10
201.061936696136290
 20
241.546656772291040
 11
201.861936696136010
 21
240.746656772291770
  0
LINE
  8
0
  6
CONTINUOUS
 62
3
 10
283.861936696136010
 20
181.046656772291040
 11
212.861936696136010
 21
181.046656772291040
  0
LINE
  8
0
  6
CONTINUOUS
 62
3
 10
212.861936696136010
 20
185.046656772291040
 11
212.861936696136010
 21
181.046656772291040
  0
LINE
  8
0
  6
CONTINUOUS
 62
3
 10
201.061936696136290
 20
183.546656772291040
 11
201.861936696136010
 21
184.346656772291230
  0
ARC
  8
0
  6
CONTINUOUS
 62
3
 10
202.661936696136190
 20
184.396656772291410
 40
0.800000000000182
 50
90.000000000000000
 51
180.000000000000000
  0
LINE
  8
0
  6
CONTINUOUS
 62
3
 10
203.861936696136010
 20
185.196656772291590
 11
204.421744317271420
 21
185.046656772291040
  0
LINE
  8
0
  6
CONTINUOUS
 62
3
 10
203.861936696135560
 20
185.196656772291590
 11
202.661936696136190
 21
185.196656772291590
  0
LINE
  8
0
  6
CONTINUOUS
 62
3
 10
201.861936696136010
 20
184.346656772292140
 11
201.861936696136010
 21
212.546656772291040
  0
LINE
  8
0
  6
CONTINUOUS
 62
3
 10
201.861936696136010
 20
212.546656772291040
 11
201.861936696136010
 21
184.346656772292140
  0
LINE
  8
0
  6
CONTINUOUS
 62
3
 10
219.861936696136010
 20
185.046656772291040
 11
211.861936696136010
 21
185.046656772291040
  0
LINE
  8
0
  6
CONTINUOUS
 62
3
 10
211.861936696136010
 20
185.046656772291040
 11
204.421744317271420
 21
185.046656772291040
  0
LINE
  8
0
  6
CONTINUOUS
 62
3
 10
283.061936696136290
 20
185.046656772291040
 11
219.861936696136010
 21
185.046656772291040
  0
CIRCLE
  8
0
  6
CONTINUOUS
 62
3
 10
50.361936696136468
 20
212.546656772291040
 40
16.000000000000227
  0
LINE
  8
0
  6
CONTINUOUS
 62
3
 10
186.861936696136010
 20
212.546656772291040
 11
186.861936696136010
 21
71.973063643483783
  0
LINE
  8
0
  6
CONTINUOUS
 62
3
 10
186.861936696136010
 20
212.546656772291040
 11
186.861936696136010
 21
353.120249901097850
  0
ARC
  8
0
  6
CONTINUOUS
 62
3
 10
136.872060964289060
 20
233.307621184028450
 40
3.000000000000000
 50
270.000000000000000
 51
0.000000000000000
  0
LINE
  8
0
  6
CONTINUOUS
 62
3
 10
50.361936696136468
 20
230.307621184028450
 11
136.872060964289060
 21
230.307621184028450
  0
ARC
  8
0
  6
CONTINUOUS
 62
3
 10
136.872060964289060
 20
192.307621184028450
 40
3.000000000000000
 50
0.000000000000000
 51
90.000000000000000
  0
LINE
  8
0
  6
CONTINUOUS
 62
3
 10
50.361936696136468
 20
195.307621184028450
 11
136.872060964289060
 21
195.307621184028450
  0
ARC
  8
0
  6
CONTINUOUS
 62
3
 10
50.361936696136468
 20
212.546656772291040
 40
19.999999999999982
 50
300.463560013368920
 51
62.629002634512737
  0
ARC
  8
0
  6
CONTINUOUS
 62
3
 10
50.361936696136468
 20
212.807621184028450
 40
17.500000000000000
 50
90.000000000000000
 51
270.000000000000000
  0
LINE
  8
0
  6
DASHDOT
 62
4
 10
50.361936696136468
 20
238.842664501998570
 11
50.361936696136468
 21
186.772577866058330
  0
LINE
  8
0
  6
CONTINUOUS
 62
3
 10
25.361936696136013
 20
360.546656772291040
 11
25.361936696136013
 21
64.546656772291044
  0
LINE
  8
0
  6
CONTINUOUS
 62
3
 10
173.861936696135560
 20
29.546637063080198
 11
173.861936696136010
 21
395.546676481501890
  0
LINE
  8
0
  6
CONTINUOUS
 62
3
 10
197.861936696136010
 20
212.546656772291040
 11
197.861936696136010
 21
43.546656772291044
  0
LINE
  8
0
  6
CONTINUOUS
 62
3
 10
193.861936696136010
 20
212.546656772291040
 11
193.861936696136010
 21
27.546656772291044
  0
LINE
  8
0
  6
CONTINUOUS
 62
3
 10
197.861936696136010
 20
212.546656772291040
 11
197.861936696136010
 21
381.546676481501890
  0
LINE
  8
0
  6
CONTINUOUS
 62
3
 10
193.861936696136010
 20
212.546656772291040
 11
193.861936696136010
 21
397.546676481501890
  0
LINE
  8
0
  6
CONTINUOUS
 62
3
 10
193.861936696136470
 20
319.053851081142970
 11
188.861936696136010
 21
319.053851081142970
  0
LINE
  8
0
  6
CONTINUOUS
 62
3
 10
193.861936696136470
 20
355.120249901097850
 11
188.861936696136010
 21
355.120249901097850
  0
ARC
  8
0
  6
CONTINUOUS
 62
3
 10
188.861936696136010
 20
353.120249901097850
 40
2.000000000000000
 50
90.000000000000000
 51
180.000000000000000
  0
ARC
  8
0
  6
CONTINUOUS
 62
3
 10
188.861936696136010
 20
317.053851081142970
 40
2.000000000000000
 50
90.000000000000000
 51
180.000000000000000
  0
LINE
  8
0
  6
CONTINUOUS
 62
3
 10
25.361936696136013
 20
360.546656772291040
 11
169.036434179648380
 21
365.563880780754970
  0
ARC
  8
0
  6
CONTINUOUS
 62
3
 10
168.861936696136010
 20
370.560834915850820
 40
4.999999999999925
 50
272.000000000003690
 51
0.000000000000000
  0
ARC
  8
0
  6
CONTINUOUS
 62
3
 10
175.861936696136010
 20
395.546656772301840
 40
2.000000000000000
 50
90.000000000000000
 51
180.000000000000000
  0
LINE
  8
0
  6
CONTINUOUS
 62
3
 10
193.861936696136010
 20
397.546656772301840
 11
175.861936696136010
 21
397.546656772301840
  0
LINE
  8
0
  6
CONTINUOUS
 62
3
 10
196.861936696136010
 20
382.546676481501890
 11
193.861936696136010
 21
382.546676481501890
  0
LINE
  8
0
  6
CONTINUOUS
 62
3
 10
196.861936696136010
 20
382.546676481501890
 11
197.861936696136010
 21
381.546676481501890
  0
LINE
  8
0
  6
CONTINUOUS
 62
3
 10
283.861936696136010
 20
212.546656772291040
 11
283.861936696136010
 21
239.246656772291770
  0
ARC
  8
0
  6
CONTINUOUS
 62
3
 10
283.061936696136290
 20
239.246656772291770
 40
0.799999999999727
 50
0.000000000000000
 51
90.000000000000000
  0
LINE
  8
0
  6
CONTINUOUS
 62
3
 10
283.861936696136010
 20
181.046656772291040
 11
283.861936696136010
 21
185.846656772290320
  0
ARC
  8
0
  6
CONTINUOUS
 62
3
 10
283.061936696136290
 20
185.846656772291230
 40
0.800000000000182
 50
270.000000000000000
 51
0.000000000000000
  0
LINE
  8
0
  6
CONTINUOUS
 62
3
 10
283.861936696136010
 20
212.546656772291040
 11
283.861936696136010
 21
185.846656772291230
  0
LINE
  8
0
  6
CONTINUOUS
 62
3
 10
193.861936696136470
 20
106.039462463438660
 11
188.861936696136010
 21
106.039462463438660
  0
LINE
  8
0
  6
CONTINUOUS
 62
3
 10
193.861936696136470
 20
69.973063643483783
 11
188.861936696136010
 21
69.973063643483783
  0
ARC
  8
0
  6
CONTINUOUS
 62
3
 10
188.861936696136010
 20
71.973063643483783
 40
2.000000000000000
 50
180.000000000000000
 51
270.000000000000000
  0
ARC
  8
0
  6
CONTINUOUS
 62
3
 10
188.861936696136010
 20
108.039462463438660
 40
2.000000000000000
 50
180.000000000000000
 51
270.000000000000000
  0
LINE
  8
0
  6
CONTINUOUS
 62
3
 10
25.361936696136013
 20
64.546656772290817
 11
169.036434179648380
 21
59.529432763826890
  0
ARC
  8
0
  6
CONTINUOUS
 62
3
 10
168.861936696136010
 20
54.532478628731042
 40
5.000000000000000
 50
0.000000000000000
 51
87.999999999996319
  0
LINE
  8
0
  6
CONTINUOUS
 62
3
 10
175.853057706614320
 20
27.546656772291044
 11
193.861936696136010
 21
27.546656772291044
  0
ARC
  8
0
  6
CONTINUOUS
 62
3
 10
175.861936696136010
 20
29.546637063080198
 40
2.000000000000000
 50
180.000000000000000
 51
270.000000000000000
  0
LINE
  8
0
  6
CONTINUOUS
 62
3
 10
193.861936696136010
 20
42.546656772291044
 11
196.861936696136010
 21
42.546656772291044
  0
LINE
  8
0
  6
CONTINUOUS
 62
3
 10
196.861936696136010
 20
42.546656772291044
 11
197.861936696136010
 21
43.546656772291044
  0
LINE
  8
0
  6
DASHDOT
 62
4
 10
206.723564714910370
 20
371.645682539264270
 11
159.593420656107240
 21
371.645682539264270
  0
LINE
  8
0
  6
DASHDOT
 62
4
 10
206.723564714910370
 20
53.447631005317817
 11
159.593420656107240
 21
53.447631005317817
  0
LINE
  8
0
  6
CONTINUOUS
 62
3
 10
168.986480239251590
 20
121.758335464352510
 11
148.205625845116060
 21
121.758335464352510
  0
ARC
  8
0
  6
CONTINUOUS
 62
3
 10
168.861936696136010
 20
74.858883364068333
 40
4.999999999999545
 50
0.000000000000000
 51
38.091566507328714
  0
LINE
  8
0
  6
CONTINUOUS
 62
3
 10
146.011284993699860
 20
112.115013591737350
 11
172.797065877702040
 21
77.943483552809994
  0
ARC
  8
0
  6
CONTINUOUS
 62
3
 10
142.076155812133380
 20
109.030413402995230
 40
5.000000000000397
 50
38.091566507329595
 51
90.000000000000000
  0
ARC
  8
0
  6
CONTINUOUS
 62
3
 10
168.861936696136010
 20
82.586805425425609
 40
4.999999999999545
 50
0.000000000000000
 51
38.091566507328714
  0
LINE
  8
0
  6
CONTINUOUS
 62
3
 10
146.011284993699860
 20
119.842935653094620
 11
172.797065877702040
 21
85.671405614167270
  0
ARC
  8
0
  6
CONTINUOUS
 62
3
 10
142.076155812133380
 20
116.758335464352510
 40
5.000000000000397
 50
38.091566507329595
 51
90.000000000000000
  0
ARC
  8
0
  6
CONTINUOUS
 62
3
 10
168.861936696136010
 20
221.546656772291040
 40
5.000000000000000
 50
270.000000000000000
 51
0.000000000000000
  0
LINE
  8
0
  6
CONTINUOUS
 62
3
 10
168.861936696136010
 20
216.546656772291040
 11
149.509874913695400
 21
216.546656772291040
  0
ARC
  8
0
  6
CONTINUOUS
 62
3
 10
168.861936696136010
 20
203.546656772291040
 40
5.000000000000000
 50
0.000000000000000
 51
90.000000000000000
  0
LINE
  8
0
  6
CONTINUOUS
 62
3
 10
168.861936696136010
 20
208.546656772291040
 11
149.509874913695400
 21
208.546656772291040
  0
ARC
  8
0
  6
CONTINUOUS
 62
3
 10
149.509874913695400
 20
203.546656772291040
 40
5.000000000000000
 50
90.000000000000000
 51
180.000000000000000
  0
ARC
  8
0
  6
CONTINUOUS
 62
3
 10
149.509874913695400
 20
221.546656772291040
 40
5.000000000000000
 50
180.000000000000000
 51
270.000000000000000
  0
LINE
  8
0
  6
CONTINUOUS
 62
3
 10
168.986480239251590
 20
303.334978080229580
 11
148.205625845116060
 21
303.334978080229580
  0
ARC
  8
0
  6
CONTINUOUS
 62
3
 10
168.861936696136010
 20
350.234430180513750
 40
4.999999999999759
 50
321.908433492671290
 51
0.000000000000000
  0
LINE
  8
0
  6
CONTINUOUS
 62
3
 10
146.011284993699860
 20
312.978299952844740
 11
172.797065877702040
 21
347.149829991772090
  0
ARC
  8
0
  6
CONTINUOUS
 62
3
 10
142.076155812133380
 20
316.062900141586850
 40
5.000000000000000
 50
270.000000000000000
 51
321.908433492670440
  0
ARC
  8
0
  6
CONTINUOUS
 62
3
 10
168.861936696136010
 20
342.506508119156480
 40
4.999999999999759
 50
321.908433492671290
 51
0.000000000000000
  0
LINE
  8
0
  6
CONTINUOUS
 62
3
 10
146.011284993699860
 20
305.250377891487460
 11
172.797065877702040
 21
339.421907930414820
  0
ARC
  8
0
  6
CONTINUOUS
 62
3
 10
142.076155812133380
 20
308.334978080229580
 40
5.000000000000000
 50
270.000000000000000
 51
321.908433492670440
  0
ARC
  8
0
  6
CONTINUOUS
 62
3
 10
9.861936696136013
 20
331.546656772291040
 40
2.999999999999964
 50
46.028108457829475
 51
90.000000000000000
  0
ARC
  8
0
  6
CONTINUOUS
 62
3
 10
9.861936696136013
 20
336.297213268544510
 40
2.999999999999903
 50
334.328072254076120
 51
0.000000000000000
  0
ARC
  8
0
  6
CONTINUOUS
 62
3
 10
9.861936696136013
 20
331.182556456244130
 40
2.999999999999903
 50
334.328072254076120
 51
0.000000000000000
  0
LINE
  8
0
  6
CONTINUOUS
 62
3
 10
4.861936696136013
 20
233.046656772291040
 11
9.861936696136013
 21
233.046656772291040
  0
LINE
  8
0
  6
CONTINUOUS
 62
3
 10
1.861936696136013
 20
212.546656772291040
 11
1.861936696136013
 21
233.046656772291040
  0
ARC
  8
0
  6
CONTINUOUS
 62
3
 10
4.861936696136013
 20
230.046656772291040
 40
3.000000000000000
 50
90.000000000000000
 51
180.000000000000000
  0
ARC
  8
0
  6
CONTINUOUS
 62
3
 10
9.861936696136013
 20
236.046656772290820
 40
2.999999999999773
 50
270.000000000000000
 51
0.000000000000000
  0
LINE
  8
0
  6
CONTINUOUS
 62
3
 10
12.861936696136013
 20
357.546656772291040
 11
12.861936696136013
 21
236.046656772290820
  0
LINE
  8
0
  6
CONTINUOUS
 62
3
 10
3.461937077605739
 20
336.546656772290820
 11
3.461937077605739
 21
352.546656772290820
  0
LINE
  8
0
  6
CONTINUOUS
 62
3
 10
3.461937383416966
 20
352.546655851612060
 11
2.861937961913441
 21
351.507567557756830
  0
LINE
  8
0
  6
CONTINUOUS
 62
3
 10
3.461940618742005
 20
336.546658247949840
 11
2.861940221220152
 21
337.586046894241010
  0
LINE
  8
0
  6
CONTINUOUS
 62
3
 10
12.861936696136013
 20
352.546656772290820
 11
3.461937077605739
 21
352.546656772290820
  0
LINE
  8
0
  6
CONTINUOUS
 62
3
 10
12.861936696136013
 20
336.546656772290820
 11
3.461937077605739
 21
336.546656772290820
  0
LINE
  8
0
  6
CONTINUOUS
 62
3
 10
2.861936219308859
 20
337.586044377853340
 11
2.861937172983176
 21
351.507568425704900
  0
LINE
  8
0
  6
CONTINUOUS
 62
3
 10
6.861936696136013
 20
352.546656772291040
 11
6.861936696136013
 21
357.546656772291040
  0
ARC
  8
0
  6
CONTINUOUS
 62
3
 10
9.861936696136013
 20
337.546656772291040
 40
3.000000000000097
 50
199.471220634494640
 51
270.000000000000000
  0
ARC
  8
0
  6
CONTINUOUS
 62
3
 10
9.861936696136013
 20
357.546656772291040
 40
3.000000000000000
 50
90.000000000000000
 51
180.000000000000000
  0
ARC
  8
0
  6
CONTINUOUS
 62
3
 10
15.861936696136013
 20
357.546656772291040
 40
3.000000000000000
 50
90.000000000000000
 51
180.000000000000000
  0
LINE
  8
0
  6
CONTINUOUS
 62
3
 10
24.861936696136013
 20
212.546656772291040
 11
24.861936696136013
 21
360.546656772291040
  0
ARC
  8
0
  6
CONTINUOUS
 62
3
 10
9.861936696136013
 20
93.546656772291271
 40
3.000000000000000
 50
270.000000000000000
 51
313.971891542170510
  0
ARC
  8
0
  6
CONTINUOUS
 62
3
 10
9.861936696136013
 20
88.796100276037805
 40
3.000000000000000
 50
0.000000000000000
 51
25.671927745923867
  0
ARC
  8
0
  6
CONTINUOUS
 62
3
 10
9.861936696136013
 20
93.910757088338187
 40
3.000000000000000
 50
0.000000000000000
 51
25.671927745923867
  0
LINE
  8
0
  6
CONTINUOUS
 62
3
 10
1.861936696136013
 20
212.546656772291270
 11
1.861936696136013
 21
192.046656772291270
  0
ARC
  8
0
  6
CONTINUOUS
 62
3
 10
4.861936696136013
 20
195.046656772291270
 40
3.000000000000000
 50
180.000000000000000
 51
270.000000000000000
  0
ARC
  8
0
  6
CONTINUOUS
 62
3
 10
9.861936696136013
 20
189.046656772291500
 40
3.000000000000000
 50
0.000000000000000
 51
90.000000000000000
  0
LINE
  8
0
  6
CONTINUOUS
 62
3
 10
12.861936696136013
 20
67.546656772291271
 11
12.861936696136013
 21
189.046656772291500
  0
LINE
  8
0
  6
CONTINUOUS
 62
3
 10
3.461937077605739
 20
88.546656772291499
 11
3.461937077605739
 21
72.546656772291499
  0
LINE
  8
0
  6
CONTINUOUS
 62
3
 10
3.461937383416966
 20
72.546657692970257
 11
2.861937961913441
 21
73.585745986825486
  0
LINE
  8
0
  6
CONTINUOUS
 62
3
 10
3.461940618742005
 20
88.546655296632480
 11
2.861940221220152
 21
87.507266650341307
  0
LINE
  8
0
  6
CONTINUOUS
 62
3
 10
12.861936696136013
 20
72.546656772291499
 11
3.461937077605739
 21
72.546656772291499
  0
LINE
  8
0
  6
CONTINUOUS
 62
3
 10
12.861936696136013
 20
88.546656772291499
 11
3.461937077605739
 21
88.546656772291499
  0
LINE
  8
0
  6
CONTINUOUS
 62
3
 10
2.861936219308859
 20
87.507269166728975
 11
2.861937172983176
 21
73.585745118877412
  0
LINE
  8
0
  6
CONTINUOUS
 62
3
 10
6.861936696136013
 20
72.546656772291271
 11
6.861936696136013
 21
67.546656772291271
  0
ARC
  8
0
  6
CONTINUOUS
 62
3
 10
9.861936696136013
 20
87.546656772291271
 40
3.000000000000000
 50
90.000000000000000
 51
160.528779365505360
  0
ARC
  8
0
  6
CONTINUOUS
 62
3
 10
9.861936696136013
 20
67.546656772291271
 40
3.000000000000000
 50
180.000000000000000
 51
270.000000000000000
  0
ARC
  8
0
  6
CONTINUOUS
 62
3
 10
15.861936696136013
 20
67.546656772291271
 40
3.000000000000000
 50
180.000000000000000
 51
270.000000000000000
  0
LINE
  8
0
  6
CONTINUOUS
 62
3
 10
24.861936696136013
 20
212.546656772291270
 11
24.861936696136013
 21
64.546656772291271
  0
LINE
  8
0
  6
CONTINUOUS
 62
3
 10
9.861936696136013
 20
360.546656772291040
 11
25.361936696136013
 21
360.546656772291040
  0
LINE
  8
0
  6
CONTINUOUS
 62
3
 10
9.861936696136013
 20
64.546656772291271
 11
25.361936696136013
 21
64.546656772291271
  0
LINE
  8
0
  6
CONTINUOUS
 62
3
 10
201.061936696136290
 20
241.546656772291040
 11
197.861936696136010
 21
241.546656772291040
  0
LINE
  8
0
  6
CONTINUOUS
 62
3
 10
201.061936696136290
 20
183.546656772291040
 11
197.861936696136010
 21
183.546656772291040
  0
ARC
  8
0
  6
DASHDOT
 62
4
 10
498.952299714742370
 20
-197.953343227661210
 40
225.000000000000000
 50
218.988608922342050
 51
230.763481047156180
  0
ARC
  8
0
  6
DASHDOT
 62
4
 10
498.952299714742370
 20
-197.953343227661210
 40
225.000000000000030
 50
39.286526982312445
 51
50.904887911402476
  0
ARC
  8
0
  6
CONTINUOUS
 62
3
 10
-188.138063303863760
 20
147.927435855418250
 40
3.000000000000000
 50
90.000000000000000
 51
180.000000000000000
  0
ARC
  8
0
  6
CONTINUOUS
 62
3
 10
-184.138063303863870
 20
153.927435855418250
 40
3.000000000000000
 50
270.000000000000000
 51
0.000000000000000
  0
LINE
  8
0
  6
CONTINUOUS
 62
3
 10
-191.138063303863760
 20
147.546656772291040
 11
-191.138063303863760
 21
147.927435855418250
  0
LINE
  8
0
  6
CONTINUOUS
 62
3
 10
-188.138063303863760
 20
150.927435855418250
 11
-184.138063303863870
 21
150.927435855418250
  0
ARC
  8
0
  6
CONTINUOUS
 62
3
 10
-261.832087526284230
 20
167.546656772291040
 40
20.000000000000007
 50
234.999999999999740
 51
270.000000000000000
  0
LINE
  8
0
  6
CONTINUOUS
 62
3
 10
-191.138063303863760
 20
147.546656772291040
 11
-261.832087526284230
 21
147.546656772291040
  0
ARC
  8
0
  6
CONTINUOUS
 62
3
 10
-281.538063303813600
 20
160.103451715045590
 40
2.600000000000136
 50
180.000000000000000
 51
234.999999999998610
  0
LINE
  8
0
  6
CONTINUOUS
 62
3
 10
-273.303616253305220
 20
151.163615886511250
 11
-283.029362038326210
 21
157.973656399894480
  0
LINE
  8
0
  6
CONTINUOUS
 62
3
 10
-284.138063303813740
 20
212.546656772291040
 11
-284.138063303813740
 21
160.103451715045590
  0
LINE
  8
0
  6
CONTINUOUS
 62
3
 10
-181.138063303863870
 20
212.546656772291040
 11
-181.138063303863870
 21
153.927435855418250
  0
ARC
  8
0
  6
CONTINUOUS
 62
3
 10
-281.538063303813600
 20
264.989861829536490
 40
2.599999999999721
 50
125.000000000001370
 51
180.000000000000000
  0
LINE
  8
0
  6
CONTINUOUS
 62
3
 10
-273.303616253305220
 20
273.929697658070840
 11
-283.029362038326210
 21
267.119657144687610
  0
ARC
  8
0
  6
CONTINUOUS
 62
3
 10
-261.832087526284230
 20
257.546656772291040
 40
20.000000000000000
 50
90.000000000000000
 51
125.000000000000240
  0
LINE
  8
0
  6
CONTINUOUS
 62
3
 10
-284.138063303813740
 20
212.546656772291040
 11
-284.138063303813740
 21
264.989861829536490
  0
LINE
  8
0
  6
CONTINUOUS
 62
3
 10
-181.138063303863870
 20
277.546656772291040
 11
-261.832087526284230
 21
277.546656772291040
  0
LINE
  8
0
  6
CONTINUOUS
 62
3
 10
-181.138063303863870
 20
212.546656772291040
 11
-181.138063303863870
 21
277.546656772291040
  0
LINE
  8
0
  6
CONTINUOUS
 62
3
 10
-192.138063303863310
 20
266.286771872728650
 11
-194.138063303863310
 21
264.634130233605220
  0
LINE
  8
0
  6
CONTINUOUS
 62
3
 10
-190.138063303863310
 20
267.462557358351430
 11
-192.138063303863310
 21
266.286771872728650
  0
LINE
  8
0
  6
CONTINUOUS
 62
3
 10
-192.138063303863310
 20
266.286771872728650
 11
-190.138063303863310
 21
264.634130233605220
  0
LINE
  8
0
  6
CONTINUOUS
 62
3
 10
-194.138063303863310
 20
267.462557358351430
 11
-192.138063303863310
 21
266.286771872728650
  0
POLYLINE
  8
0
  6
CONTINUOUS
 62
3
 66
1
 70
1
  0
VERTEX
  8
0
  6
CONTINUOUS
 62
3
 10
-187.438063303863320
 20
264.470181804351110
  0
VERTEX
  8
0
  6
CONTINUOUS
 62
3
 10
-187.528372485968130
 20
265.173138770551470
  0
VERTEX
  8
0
  6
CONTINUOUS
 62
3
 10
-187.795829501060270
 20
265.849081494763600
  0
VERTEX
  8
0
  6
CONTINUOUS
 62
3
 10
-188.230156126041350
 20
266.472033877169000
  0
VERTEX
  8
0
  6
CONTINUOUS
 62
3
 10
-188.814661432286530
 20
267.018056207067560
  0
VERTEX
  8
0
  6
CONTINUOUS
 62
3
 10
-189.526883208671190
 20
267.466165152534190
  0
VERTEX
  8
0
  6
CONTINUOUS
 62
3
 10
-190.339451171747380
 20
267.799140138096960
  0
VERTEX
  8
0
  6
CONTINUOUS
 62
3
 10
-191.221138790387500
 20
268.004185121795220
  0
VERTEX
  8
0
  6
CONTINUOUS
 62
3
 10
-192.138063303863310
 20
268.073420339895960
  0
VERTEX
  8
0
  6
CONTINUOUS
 62
3
 10
-193.054987817339110
 20
268.004185121795220
  0
VERTEX
  8
0
  6
CONTINUOUS
 62
3
 10
-193.936675435979230
 20
267.799140138096960
  0
VERTEX
  8
0
  6
CONTINUOUS
 62
3
 10
-194.749243399055420
 20
267.466165152534190
  0
VERTEX
  8
0
  6
CONTINUOUS
 62
3
 10
-195.461465175440080
 20
267.018056207067560
  0
VERTEX
  8
0
  6
CONTINUOUS
 62
3
 10
-196.045970481685260
 20
266.472033877169000
  0
VERTEX
  8
0
  6
CONTINUOUS
 62
3
 10
-196.480297106666340
 20
265.849081494763600
  0
VERTEX
  8
0
  6
CONTINUOUS
 62
3
 10
-196.747754121758480
 20
265.173138770551470
  0
VERTEX
  8
0
  6
CONTINUOUS
 62
3
 10
-196.838063303863290
 20
264.470181804351110
  0
VERTEX
  8
0
  6
CONTINUOUS
 62
3
 10
-196.747754121758480
 20
263.767224838150750
  0
VERTEX
  8
0
  6
CONTINUOUS
 62
3
 10
-196.480297106666340
 20
263.091282113938630
  0
VERTEX
  8
0
  6
CONTINUOUS
 62
3
 10
-196.045970481685260
 20
262.468329731533230
  0
VERTEX
  8
0
  6
CONTINUOUS
 62
3
 10
-195.461465175440050
 20
261.922307401634670
  0
VERTEX
  8
0
  6
CONTINUOUS
 62
3
 10
-194.749243399055420
 20
261.474198456168040
  0
VERTEX
  8
0
  6
CONTINUOUS
 62
3
 10
-193.936675435979230
 20
261.141223470605270
  0
VERTEX
  8
0
  6
CONTINUOUS
 62
3
 10
-193.054987817339110
 20
260.936178486907010
  0
VERTEX
  8
0
  6
CONTINUOUS
 62
3
 10
-192.138063303863310
 20
260.866943268806270
  0
VERTEX
  8
0
  6
CONTINUOUS
 62
3
 10
-191.221138790387500
 20
260.936178486907010
  0
VERTEX
  8
0
  6
CONTINUOUS
 62
3
 10
-190.339451171747380
 20
261.141223470605270
  0
VERTEX
  8
0
  6
CONTINUOUS
 62
3
 10
-189.526883208671190
 20
261.474198456168040
  0
VERTEX
  8
0
  6
CONTINUOUS
 62
3
 10
-188.814661432286560
 20
261.922307401634670
  0
VERTEX
  8
0
  6
CONTINUOUS
 62
3
 10
-188.230156126041350
 20
262.468329731533230
  0
VERTEX
  8
0
  6
CONTINUOUS
 62
3
 10
-187.795829501060270
 20
263.091282113938630
  0
VERTEX
  8
0
  6
CONTINUOUS
 62
3
 10
-187.528372485968130
 20
263.767224838150750
  0
SEQEND
  8
0
  6
CONTINUOUS
 62
3
  0
LINE
  8
0
  6
CONTINUOUS
 62
3
 10
-192.138063303863310
 20
158.806541671853210
 11
-194.138063303863310
 21
160.459183310976640
  0
LINE
  8
0
  6
CONTINUOUS
 62
3
 10
-190.138063303863310
 20
157.630756186230880
 11
-192.138063303863310
 21
158.806541671853210
  0
LINE
  8
0
  6
CONTINUOUS
 62
3
 10
-192.138063303863310
 20
158.806541671853210
 11
-190.138063303863310
 21
160.459183310976640
  0
LINE
  8
0
  6
CONTINUOUS
 62
3
 10
-194.138063303863310
 20
157.630756186230880
 11
-192.138063303863310
 21
158.806541671853210
  0
POLYLINE
  8
0
  6
CONTINUOUS
 62
3
 66
1
 70
1
  0
VERTEX
  8
0
  6
CONTINUOUS
 62
3
 10
-187.438063303863320
 20
160.623131740231200
  0
VERTEX
  8
0
  6
CONTINUOUS
 62
3
 10
-187.528372485968130
 20
161.326088706431560
  0
VERTEX
  8
0
  6
CONTINUOUS
 62
3
 10
-187.795829501060270
 20
162.002031430643650
  0
VERTEX
  8
0
  6
CONTINUOUS
 62
3
 10
-188.230156126041350
 20
162.624983813049060
  0
VERTEX
  8
0
  6
CONTINUOUS
 62
3
 10
-188.814661432286530
 20
163.171006142947650
  0
VERTEX
  8
0
  6
CONTINUOUS
 62
3
 10
-189.526883208671190
 20
163.619115088414280
  0
VERTEX
  8
0
  6
CONTINUOUS
 62
3
 10
-190.339451171747380
 20
163.952090073977020
  0
VERTEX
  8
0
  6
CONTINUOUS
 62
3
 10
-191.221138790387500
 20
164.157135057675280
  0
VERTEX
  8
0
  6
CONTINUOUS
 62
3
 10
-192.138063303863310
 20
164.226370275776050
  0
VERTEX
  8
0
  6
CONTINUOUS
 62
3
 10
-193.054987817339110
 20
164.157135057675280
  0
VERTEX
  8
0
  6
CONTINUOUS
 62
3
 10
-193.936675435979230
 20
163.952090073977020
  0
VERTEX
  8
0
  6
CONTINUOUS
 62
3
 10
-194.749243399055420
 20
163.619115088414280
  0
VERTEX
  8
0
  6
CONTINUOUS
 62
3
 10
-195.461465175440080
 20
163.171006142947650
  0
VERTEX
  8
0
  6
CONTINUOUS
 62
3
 10
-196.045970481685260
 20
162.624983813049060
  0
VERTEX
  8
0
  6
CONTINUOUS
 62
3
 10
-196.480297106666340
 20
162.002031430643650
  0
VERTEX
  8
0
  6
CONTINUOUS
 62
3
 10
-196.747754121758480
 20
161.326088706431560
  0
VERTEX
  8
0
  6
CONTINUOUS
 62
3
 10
-196.838063303863290
 20
160.623131740231200
  0
VERTEX
  8
0
  6
CONTINUOUS
 62
3
 10
-196.747754121758480
 20
159.920174774030840
  0
VERTEX
  8
0
  6
CONTINUOUS
 62
3
 10
-196.480297106666340
 20
159.244232049818750
  0
VERTEX
  8
0
  6
CONTINUOUS
 62
3
 10
-196.045970481685260
 20
158.621279667413350
  0
VERTEX
  8
0
  6
CONTINUOUS
 62
3
 10
-195.461465175440050
 20
158.075257337514760
  0
VERTEX
  8
0
  6
CONTINUOUS
 62
3
 10
-194.749243399055420
 20
157.627148392048130
  0
VERTEX
  8
0
  6
CONTINUOUS
 62
3
 10
-193.936675435979230
 20
157.294173406485380
  0
VERTEX
  8
0
  6
CONTINUOUS
 62
3
 10
-193.054987817339110
 20
157.089128422787130
  0
VERTEX
  8
0
  6
CONTINUOUS
 62
3
 10
-192.138063303863310
 20
157.019893204686350
  0
VERTEX
  8
0
  6
CONTINUOUS
 62
3
 10
-191.221138790387500
 20
157.089128422787130
  0
VERTEX
  8
0
  6
CONTINUOUS
 62
3
 10
-190.339451171747380
 20
157.294173406485380
  0
VERTEX
  8
0
  6
CONTINUOUS
 62
3
 10
-189.526883208671190
 20
157.627148392048130
  0
VERTEX
  8
0
  6
CONTINUOUS
 62
3
 10
-188.814661432286560
 20
158.075257337514760
  0
VERTEX
  8
0
  6
CONTINUOUS
 62
3
 10
-188.230156126041350
 20
158.621279667413350
  0
VERTEX
  8
0
  6
CONTINUOUS
 62
3
 10
-187.795829501060270
 20
159.244232049818750
  0
VERTEX
  8
0
  6
CONTINUOUS
 62
3
 10
-187.528372485968130
 20
159.920174774030840
  0
SEQEND
  8
0
  6
CONTINUOUS
 62
3
  0
LINE
  8
0
  6
CONTINUOUS
 62
3
 10
-187.638063303863990
 20
145.046656772291040
 11
-187.638063303863990
 21
150.885475746968040
  0
LINE
  8
0
  6
DASHDOT
 62
4
 10
-155.138063303863990
 20
150.880370108443800
 11
-155.138063303863990
 21
88.817956591807615
  0
LINE
  8
0
  6
CONTINUOUS
 62
3
 10
-190.588063303862900
 20
93.872831392507123
 11
-158.195319509760220
 21
93.872831392507123
  0
LINE
  8
0
  6
CONTINUOUS
 62
3
 10
-201.588063303862900
 20
131.741220712555560
 11
-201.588063303862900
 21
104.872831392507120
  0
LINE
  8
0
  6
CONTINUOUS
 62
3
 10
-195.188063303863260
 20
101.846656772290990
 11
-195.188063303863260
 21
131.422591471977970
  0
ARC
  8
0
  6
CONTINUOUS
 62
3
 10
-190.188063303863260
 20
131.422591471977970
 40
4.999999999999886
 50
90.000000000000000
 51
180.000000000000000
  0
ARC
  8
0
  6
CONTINUOUS
 62
3
 10
-190.588063303862900
 20
104.872831392507120
 40
11.000000000000000
 50
180.000000000000000
 51
270.000000000000000
  0
ARC
  8
0
  6
CONTINUOUS
 62
3
 10
-189.388063303863530
 20
101.846656772290990
 40
5.799999999999727
 50
180.000000000000000
 51
270.000000000000000
  0
ARC
  8
0
  6
CONTINUOUS
 62
3
 10
-190.588063303862900
 20
128.269747973508630
 40
11.000000000000000
 50
90.000000000000000
 51
180.000000000000000
  0
ARC
  8
0
  6
CONTINUOUS
 62
3
 10
-190.588063303862900
 20
131.741220712555560
 40
10.999999999999886
 50
90.000000000000000
 51
180.000000000000000
  0
ARC
  8
0
  6
CONTINUOUS
 62
3
 10
-177.788698398474140
 20
95.046656772291044
 40
0.999999999999727
 50
36.869897645849235
 51
90.000000000000000
  0
ARC
  8
0
  6
CONTINUOUS
 62
3
 10
-176.188698398474230
 20
96.246656772291090
 40
1.000000000000227
 50
216.869897645844020
 51
270.000000000000000
  0
ARC
  8
0
  6
CONTINUOUS
 62
3
 10
-188.938063303864170
 20
139.046656772291040
 40
5.000000000000000
 50
90.000000000000000
 51
135.074043599465310
  0
LINE
  8
0
  6
CONTINUOUS
 62
3
 10
-186.138063303863990
 20
145.046656772291040
 11
-186.138063303863990
 21
144.046656772291040
  0
CIRCLE
  8
0
  6
DASHED
 62
4
 10
-155.138063303863990
 20
120.046656772290810
 40
13.500000000000000
  0
ARC
  8
0
  6
CONTINUOUS
 62
3
 10
-157.338064066803440
 20
94.850129260037193
 40
1.299999237060699
 50
162.240552086452960
 51
253.398468892505180
  0
ARC
  8
0
  6
CONTINUOUS
 62
3
 10
-155.138063303863990
 20
102.229154182884940
 40
8.999999999999858
 50
253.398468892518050
 51
286.601548410325050
  0
ARC
  8
0
  6
CONTINUOUS
 62
3
 10
-152.938062540924530
 20
94.850129260037193
 40
1.299999237060351
 50
286.601548410324710
 51
17.759447913550098
  0
ARC
  8
0
  6
CONTINUOUS
 62
3
 10
4.861936696135956
 20
-105.953343227660980
 40
3.000000000000000
 50
180.000000000000000
 51
228.189670711320050
  0
POLYLINE
  8
0
  6
CONTINUOUS
 62
3
 66
1
  0
VERTEX
  8
0
  6
CONTINUOUS
 62
3
 10
-148.888496245363060
 20
-265.662922854489920
  0
VERTEX
  8
0
  6
CONTINUOUS
 62
3
 10
-149.879465380449430
 20
-264.717794587969480
  0
VERTEX
  8
0
  6
CONTINUOUS
 62
3
 10
-151.039067760021110
 20
-263.949285785183800
  0
VERTEX
  8
0
  6
CONTINUOUS
 62
3
 10
-152.330117138917670
 20
-263.382041063332450
  0
VERTEX
  8
0
  6
CONTINUOUS
 62
3
 10
-153.711212016449280
 20
-263.034250882925330
  0
VERTEX
  8
0
  6
CONTINUOUS
 62
3
 10
-155.138063303864100
 20
-262.917068214274370
  0
SEQEND
  8
0
  6
CONTINUOUS
 62
3
  0
POLYLINE
  8
0
  6
CONTINUOUS
 62
3
 66
1
  0
VERTEX
  8
0
  6
CONTINUOUS
 62
3
 10
-149.393942732384630
 20
-265.940313424713910
  0
VERTEX
  8
0
  6
CONTINUOUS
 62
3
 10
-150.355643332959180
 20
-265.168434262787290
  0
VERTEX
  8
0
  6
CONTINUOUS
 62
3
 10
-151.439801500851100
 20
-264.546571694181690
  0
VERTEX
  8
0
  6
CONTINUOUS
 62
3
 10
-152.618656526495980
 20
-264.090648991596030
  0
VERTEX
  8
0
  6
CONTINUOUS
 62
3
 10
-153.862022913944370
 20
-263.812340408939920
  0
VERTEX
  8
0
  6
CONTINUOUS
 62
3
 10
-155.138063303864100
 20
-263.718772253021090
  0
SEQEND
  8
0
  6
CONTINUOUS
 62
3
  0
POLYLINE
  8
0
  6
CONTINUOUS
 62
3
 66
1
 70
1
  0
VERTEX
  8
0
  6
CONTINUOUS
 62
3
 10
-151.638063303864100
 20
-270.771837761727280
  0
VERTEX
  8
0
  6
CONTINUOUS
 62
3
 10
-151.705314822452810
 20
-270.098247991681150
  0
VERTEX
  8
0
  6
CONTINUOUS
 62
3
 10
-151.904484940074610
 20
-269.450543898744400
  0
VERTEX
  8
0
  6
CONTINUOUS
 62
3
 10
-152.227919660805180
 20
-268.853616387971900
  0
VERTEX
  8
0
  6
CONTINUOUS
 62
3
 10
-152.663189569711190
 20
-268.330405048841950
  0
VERTEX
  8
0
  6
CONTINUOUS
 62
3
 10
-153.193567488295490
 20
-267.901016599696900
  0
VERTEX
  8
0
  6
CONTINUOUS
 62
3
 10
-153.798671290586300
 20
-267.581952197833630
  0
VERTEX
  8
0
  6
CONTINUOUS
 62
3
 10
-154.455247176807660
 20
-267.385473309282360
  0
VERTEX
  8
0
  6
CONTINUOUS
 62
3
 10
-155.138063303864100
 20
-267.319130507543490
  0
VERTEX
  8
0
  6
CONTINUOUS
 62
3
 10
-155.820879430920540
 20
-267.385473309282360
  0
VERTEX
  8
0
  6
CONTINUOUS
 62
3
 10
-156.477455317141900
 20
-267.581952197833630
  0
VERTEX
  8
0
  6
CONTINUOUS
 62
3
 10
-157.082559119432720
 20
-267.901016599696900
  0
VERTEX
  8
0
  6
CONTINUOUS
 62
3
 10
-157.612937038017010
 20
-268.330405048841950
  0
VERTEX
  8
0
  6
CONTINUOUS
 62
3
 10
-158.048206946923020
 20
-268.853616387971900
  0
VERTEX
  8
0
  6
CONTINUOUS
 62
3
 10
-158.371641667653590
 20
-269.450543898744400
  0
VERTEX
  8
0
  6
CONTINUOUS
 62
3
 10
-158.570811785275400
 20
-270.098247991681150
  0
VERTEX
  8
0
  6
CONTINUOUS
 62
3
 10
-158.638063303864100
 20
-270.771837761727280
  0
VERTEX
  8
0
  6
CONTINUOUS
 62
3
 10
-158.570811785275400
 20
-271.445427531773420
  0
VERTEX
  8
0
  6
CONTINUOUS
 62
3
 10
-158.371641667653590
 20
-272.093131624710170
  0
VERTEX
  8
0
  6
CONTINUOUS
 62
3
 10
-158.048206946923020
 20
-272.690059135482670
  0
VERTEX
  8
0
  6
CONTINUOUS
 62
3
 10
-157.612937038017010
 20
-273.213270474612610
  0
VERTEX
  8
0
  6
CONTINUOUS
 62
3
 10
-157.082559119432720
 20
-273.642658923757660
  0
VERTEX
  8
0
  6
CONTINUOUS
 62
3
 10
-156.477455317141900
 20
-273.961723325620940
  0
VERTEX
  8
0
  6
CONTINUOUS
 62
3
 10
-155.820879430920540
 20
-274.158202214172210
  0
VERTEX
  8
0
  6
CONTINUOUS
 62
3
 10
-155.138063303864100
 20
-274.224545015911080
  0
VERTEX
  8
0
  6
CONTINUOUS
 62
3
 10
-154.455247176807660
 20
-274.158202214172210
  0
VERTEX
  8
0
  6
CONTINUOUS
 62
3
 10
-153.798671290586300
 20
-273.961723325620940
  0
VERTEX
  8
0
  6
CONTINUOUS
 62
3
 10
-153.193567488295490
 20
-273.642658923757660
  0
VERTEX
  8
0
  6
CONTINUOUS
 62
3
 10
-152.663189569711190
 20
-273.213270474612610
  0
VERTEX
  8
0
  6
CONTINUOUS
 62
3
 10
-152.227919660805180
 20
-272.690059135482670
  0
VERTEX
  8
0
  6
CONTINUOUS
 62
3
 10
-151.904484940074610
 20
-272.093131624710170
  0
VERTEX
  8
0
  6
CONTINUOUS
 62
3
 10
-151.705314822452810
 20
-271.445427531773420
  0
SEQEND
  8
0
  6
CONTINUOUS
 62
3
  0
POLYLINE
  8
0
  6
CONTINUOUS
 62
3
 66
1
  0
VERTEX
  8
0
  6
CONTINUOUS
 62
3
 10
-155.138063303864100
 20
-263.718772253021090
  0
VERTEX
  8
0
  6
CONTINUOUS
 62
3
 10
-156.414103693783830
 20
-263.812340408939920
  0
VERTEX
  8
0
  6
CONTINUOUS
 62
3
 10
-157.657470081232220
 20
-264.090648991596030
  0
VERTEX
  8
0
  6
CONTINUOUS
 62
3
 10
-158.836325106877100
 20
-264.546571694181690
  0
VERTEX
  8
0
  6
CONTINUOUS
 62
3
 10
-159.920483274769030
 20
-265.168434262787290
  0
VERTEX
  8
0
  6
CONTINUOUS
 62
3
 10
-160.882183875343570
 20
-265.940313424713910
  0
SEQEND
  8
0
  6
CONTINUOUS
 62
3
  0
POLYLINE
  8
0
  6
CONTINUOUS
 62
3
 66
1
  0
VERTEX
  8
0
  6
CONTINUOUS
 62
3
 10
-155.138063303864100
 20
-262.917068214274370
  0
VERTEX
  8
0
  6
CONTINUOUS
 62
3
 10
-156.564914591278980
 20
-263.034250882925390
  0
VERTEX
  8
0
  6
CONTINUOUS
 62
3
 10
-157.946009468810640
 20
-263.382041063332510
  0
VERTEX
  8
0
  6
CONTINUOUS
 62
3
 10
-159.237058847707290
 20
-263.949285785183920
  0
VERTEX
  8
0
  6
CONTINUOUS
 62
3
 10
-160.396661227279000
 20
-264.717794587969650
  0
VERTEX
  8
0
  6
CONTINUOUS
 62
3
 10
-161.387630362365370
 20
-265.662922854490150
  0
SEQEND
  8
0
  6
CONTINUOUS
 62
3
  0
POLYLINE
  8
0
  6
CONTINUOUS
 62
3
 66
1
 70
1
  0
VERTEX
  8
0
  6
CONTINUOUS
 62
3
 10
-187.438063303863430
 20
-165.529818195648890
  0
VERTEX
  8
0
  6
CONTINUOUS
 62
3
 10
-187.528372485968250
 20
-164.826861229448530
  0
VERTEX
  8
0
  6
CONTINUOUS
 62
3
 10
-187.795829501060380
 20
-164.150918505236430
  0
VERTEX
  8
0
  6
CONTINUOUS
 62
3
 10
-188.230156126041460
 20
-163.527966122831030
  0
VERTEX
  8
0
  6
CONTINUOUS
 62
3
 10
-188.814661432286640
 20
-162.981943792932440
  0
VERTEX
  8
0
  6
CONTINUOUS
 62
3
 10
-189.526883208671310
 20
-162.533834847465810
  0
VERTEX
  8
0
  6
CONTINUOUS
 62
3
 10
-190.339451171747500
 20
-162.200859861903070
  0
VERTEX
  8
0
  6
CONTINUOUS
 62
3
 10
-191.221138790387610
 20
-161.995814878204810
  0
VERTEX
  8
0
  6
CONTINUOUS
 62
3
 10
-192.138063303863420
 20
-161.926579660104040
  0
VERTEX
  8
0
  6
CONTINUOUS
 62
3
 10
-193.054987817339220
 20
-161.995814878204810
  0
VERTEX
  8
0
  6
CONTINUOUS
 62
3
 10
-193.936675435979340
 20
-162.200859861903070
  0
VERTEX
  8
0
  6
CONTINUOUS
 62
3
 10
-194.749243399055530
 20
-162.533834847465810
  0
VERTEX
  8
0
  6
CONTINUOUS
 62
3
 10
-195.461465175440200
 20
-162.981943792932440
  0
VERTEX
  8
0
  6
CONTINUOUS
 62
3
 10
-196.045970481685370
 20
-163.527966122831030
  0
VERTEX
  8
0
  6
CONTINUOUS
 62
3
 10
-196.480297106666460
 20
-164.150918505236430
  0
VERTEX
  8
0
  6
CONTINUOUS
 62
3
 10
-196.747754121758590
 20
-164.826861229448530
  0
VERTEX
  8
0
  6
CONTINUOUS
 62
3
 10
-196.838063303863410
 20
-165.529818195648890
  0
VERTEX
  8
0
  6
CONTINUOUS
 62
3
 10
-196.747754121758590
 20
-166.232775161849250
  0
VERTEX
  8
0
  6
CONTINUOUS
 62
3
 10
-196.480297106666460
 20
-166.908717886061340
  0
VERTEX
  8
0
  6
CONTINUOUS
 62
3
 10
-196.045970481685370
 20
-167.531670268466740
  0
VERTEX
  8
0
  6
CONTINUOUS
 62
3
 10
-195.461465175440170
 20
-168.077692598365330
  0
VERTEX
  8
0
  6
CONTINUOUS
 62
3
 10
-194.749243399055530
 20
-168.525801543831960
  0
VERTEX
  8
0
  6
CONTINUOUS
 62
3
 10
-193.936675435979340
 20
-168.858776529394700
  0
VERTEX
  8
0
  6
CONTINUOUS
 62
3
 10
-193.054987817339220
 20
-169.063821513092960
  0
VERTEX
  8
0
  6
CONTINUOUS
 62
3
 10
-192.138063303863420
 20
-169.133056731193730
  0
VERTEX
  8
0
  6
CONTINUOUS
 62
3
 10
-191.221138790387610
 20
-169.063821513092960
  0
VERTEX
  8
0
  6
CONTINUOUS
 62
3
 10
-190.339451171747500
 20
-168.858776529394700
  0
VERTEX
  8
0
  6
CONTINUOUS
 62
3
 10
-189.526883208671310
 20
-168.525801543831960
  0
VERTEX
  8
0
  6
CONTINUOUS
 62
3
 10
-188.814661432286670
 20
-168.077692598365330
  0
VERTEX
  8
0
  6
CONTINUOUS
 62
3
 10
-188.230156126041460
 20
-167.531670268466740
  0
VERTEX
  8
0
  6
CONTINUOUS
 62
3
 10
-187.795829501060380
 20
-166.908717886061340
  0
VERTEX
  8
0
  6
CONTINUOUS
 62
3
 10
-187.528372485968250
 20
-166.232775161849250
  0
SEQEND
  8
0
  6
CONTINUOUS
 62
3
  0
ARC
  8
0
  6
DASHED
 62
3
 10
426.182199730526920
 20
-175.877017687821540
 40
0.999999999999856
 50
66.000000000020236
 51
155.999999999996390
  0
ARC
  8
0
  6
DASHED
 62
3
 10
420.745738451088980
 20
-178.253136299048040
 40
3.000000000000022
 50
279.318123119682530
 51
336.000000000000400
  0
ARC
  8
0
  6
DASHED
 62
3
 10
427.452299714742370
 20
-184.761738350649920
 40
3.000000000000000
 50
0.000000000000000
 51
66.000000000020236
  0
ARC
  8
0
  6
DASHED
 62
3
 10
425.452299714742370
 20
-258.953343227708960
 40
5.000000000000000
 50
270.000000000000000
 51
0.000000000000000
  0
ARC
  8
0
  6
DASHED
 62
3
 10
382.724438212561610
 20
-268.619129744603920
 40
1.299999237060620
 50
65.999999316753915
 51
139.398468892516150
  0
ARC
  8
0
  6
DASHED
 62
3
 10
982.452299714742370
 20
-217.453343227709180
 40
600.000000000001140
 50
178.317231198866840
 51
184.715124834091600
  0
ARC
  8
0
  6
DASHED
 62
3
 10
383.486250722430670
 20
-266.856502585595540
 40
1.000000000000041
 50
335.999999999996420
 51
4.715124834083239
  0
ARC
  8
0
  6
DASHED
 62
3
 10
381.278474334958450
 20
-276.732436211564620
 40
0.999999999999948
 50
156.000000000008300
 51
245.999999999972630
  0
ARC
  8
0
  6
DASHED
 62
3
 10
384.657612451043860
 20
-264.225581067587650
 40
1.000000000000041
 50
335.999999999996420
 51
66.000000000020236
  0
ARC
  8
0
  6
DASHED
 62
3
 10
386.082286118323280
 20
-261.575977815946090
 40
2.000000000000632
 50
184.231338074886000
 51
245.999999999972630
  0
ARC
  8
0
  6
DASHED
 62
3
 10
982.452299714742370
 20
-217.453343227709180
 40
600.799999999999950
 50
179.412192132293110
 51
182.841389015363350
  0
ARC
  8
0
  6
DASHED
 62
3
 10
383.389700485957750
 20
-247.186190472002860
 40
0.999999999999988
 50
182.841389015366990
 51
236.047873053618590
  0
ARC
  8
0
  6
DASHED
 62
3
 10
382.272700461345270
 20
-248.845199496998020
 40
1.000000000000008
 50
2.994076090848812
 51
56.047873053604029
  0
ARC
  8
0
  6
DASHED
 62
3
 10
380.934796362397040
 20
-272.638731152190990
 40
1.299999237060687
 50
172.601548410320760
 51
246.000017986079880
  0
ARC
  8
0
  6
DASHED
 62
3
 10
388.570691987578360
 20
-273.630250274689620
 40
9.000000000000075
 50
139.398468892516490
 51
172.601548410321070
  0
ARC
  8
0
  6
DASHED
 62
3
 10
381.502492045192180
 20
-209.686190472002860
 40
0.999999999999994
 50
306.205708094031080
 51
359.259505056807090
  0
ARC
  8
0
  6
DASHED
 62
3
 10
382.683864161468590
 20
-211.299993410061010
 40
1.000000000000128
 50
126.205708094041610
 51
179.412192132278280
  0
ARC
  8
0
  6
DASHED
 62
3
 10
397.704588700183190
 20
-200.274447359974150
 40
15.000000000000041
 50
99.318123119675519
 51
178.317231198866920
  0
CIRCLE
  8
0
  6
CONTINUOUS
 62
3
 10
498.952299714742370
 20
-197.953343227661210
 40
50.000000000000000
  0
ARC
  8
0
  6
CONTINUOUS
 62
3
 10
359.636200386997640
 20
-268.146109721809350
 40
6.000000000000000
 50
180.000000000000000
 51
206.740709026617080
  0
ARC
  8
0
  6
CONTINUOUS
 62
3
 10
470.952299714742370
 20
-203.770705812656390
 40
117.460243780278770
 50
93.344152204455582
 51
171.841594723736590
  0
ARC
  8
0
  6
CONTINUOUS
 62
3
 10
498.952299714742370
 20
-682.953343227660980
 40
597.460243780278460
 50
90.968763500174902
 51
93.344152204455654
  0
ARC
  8
0
  6
CONTINUOUS
 62
3
 10
638.268399042487090
 20
-268.146109721809350
 40
5.999999999999756
 50
333.259290973381890
 51
0.000000000000000
  0
ARC
  8
0
  6
CONTINUOUS
 62
3
 10
526.952299714742370
 20
-203.770705812656390
 40
117.460243780279120
 50
8.158405276263403
 51
86.655847795544418
  0
ARC
  8
0
  6
CONTINUOUS
 62
3
 10
498.952299714742370
 20
-682.953343227660980
 40
597.460243780278690
 50
86.655847795544346
 51
89.031236499825098
  0
ARC
  8
0
  6
CONTINUOUS
 62
3
 10
424.514060388640930
 20
-378.453343227661210
 40
17.499999999999904
 50
206.539104932784450
 51
250.537049053685220
  0
ARC
  8
0
  6
CONTINUOUS
 62
3
 10
315.952299714742370
 20
-200.953343227661210
 40
2.000000000000000
 50
180.000000000000000
 51
270.000000000000000
  0
ARC
  8
0
  6
CONTINUOUS
 62
3
 10
321.132165871580580
 20
-205.953343227661210
 40
2.999999999999955
 50
2.575958927652206
 51
90.000000000000000
  0
ARC
  8
0
  6
CONTINUOUS
 62
3
 10
315.952299714742370
 20
-194.953343227661210
 40
2.000000000000000
 50
90.000000000000000
 51
180.000000000000000
  0
ARC
  8
0
  6
CONTINUOUS
 62
3
 10
321.132165871580580
 20
-189.953343227661210
 40
3.000000000000000
 50
270.000000000000000
 51
357.424041072347790
  0
ARC
  8
0
  6
CONTINUOUS
 62
3
 10
681.952299714742370
 20
-194.953343227661210
 40
2.000000000000000
 50
0.000000000000000
 51
90.000000000000000
  0
ARC
  8
0
  6
CONTINUOUS
 62
3
 10
681.952299714742370
 20
-200.953343227661210
 40
2.000000000000000
 50
270.000000000000000
 51
0.000000000000000
  0
ARC
  8
0
  6
CONTINUOUS
 62
3
 10
676.772433557904150
 20
-205.953343227661210
 40
3.000000000000000
 50
90.000000000000000
 51
177.424041072347590
  0
ARC
  8
0
  6
CONTINUOUS
 62
3
 10
676.772433557904150
 20
-189.953343227661210
 40
2.999999999999728
 50
182.575958927652410
 51
270.000000000000000
  0
ARC
  8
0
  6
CONTINUOUS
 62
3
 10
573.390539040843810
 20
-378.453343227661210
 40
17.499999999999950
 50
289.462950946314780
 51
333.460895067215570
  0
ARC
  8
0
  6
CONTINUOUS
 62
3
 10
610.575658828642190
 20
-301.124200062957930
 40
9.999999999999805
 50
176.272298631503730
 51
317.253519503884210
  0
ARC
  8
0
  6
CONTINUOUS
 62
3
 10
403.490264347012270
 20
-388.953343227661210
 40
6.000000000000113
 50
26.539104932783616
 51
90.000000000000000
  0
ARC
  8
0
  6
CONTINUOUS
 62
3
 10
594.414335082472460
 20
-388.953343227661210
 40
6.000000000000000
 50
90.000000000000000
 51
153.460895067216400
  0
ARC
  8
0
  6
CONTINUOUS
 62
3
 10
638.268399042487090
 20
-207.953343227661210
 40
6.000000000000000
 50
0.000000000000000
 51
90.000000000000000
  0
ARC
  8
0
  6
CONTINUOUS
 62
3
 10
637.284511622298850
 20
-187.953343227661210
 40
6.000000000000000
 50
270.000000000000000
 51
8.158405276263428
  0
ARC
  8
0
  6
CONTINUOUS
 62
3
 10
488.952299714742370
 20
-91.577642025263913
 40
6.000000000000000
 50
0.000000000000000
 51
90.968763500176422
  0
ARC
  8
0
  6
CONTINUOUS
 62
3
 10
508.952299714742370
 20
-91.577642025263913
 40
5.999999999999671
 50
89.031236499823578
 51
180.000000000000000
  0
ARC
  8
0
  6
CONTINUOUS
 62
3
 10
360.620087807185660
 20
-187.953343227661210
 40
5.999999999999981
 50
171.841594723735940
 51
270.000000000000000
  0
ARC
  8
0
  6
CONTINUOUS
 62
3
 10
359.636200386997640
 20
-207.953343227661210
 40
6.000000000000000
 50
90.000000000000000
 51
180.000000000000000
  0
CIRCLE
  8
0
  6
CONTINUOUS
 62
3
 10
498.952299714742370
 20
-197.953343227661210
 40
40.000000000000000
  0
CIRCLE
  8
0
  6
CONTINUOUS
 62
3
 10
498.952299714742370
 20
-197.953343227661210
 40
75.000000000000000
  0
ARC
  8
0
  6
CONTINUOUS
 62
3
 10
333.952299714742370
 20
-362.953343227661210
 40
20.000000000000000
 50
180.000000000000000
 51
270.000000000000000
  0
CIRCLE
  8
0
  6
CONTINUOUS
 62
3
 10
339.853273947769370
 20
-357.052368994634660
 40
12.000000000000000
  0
ARC
  8
0
  6
CONTINUOUS
 62
3
 10
354.307638774070260
 20
-377.953343227661210
 40
5.000000000000000
 50
270.000000000000000
 51
314.999999999996310
  0
ARC
  8
0
  6
CONTINUOUS
 62
3
 10
663.952299714742370
 20
-362.953343227661210
 40
20.000000000000000
 50
270.000000000000000
 51
0.000000000000000
  0
CIRCLE
  8
0
  6
CONTINUOUS
 62
3
 10
658.051325481715140
 20
-357.052368994634660
 40
12.000000000000000
  0
ARC
  8
0
  6
CONTINUOUS
 62
3
 10
643.596960655414480
 20
-377.953343227661210
 40
4.999999999999879
 50
225.000000000003690
 51
270.000000000000000
  0
ARC
  8
0
  6
CONTINUOUS
 62
3
 10
663.952299714742370
 20
-32.953343227661207
 40
20.000000000000000
 50
0.000000000000000
 51
90.000000000000000
  0
CIRCLE
  8
0
  6
CONTINUOUS
 62
3
 10
658.051325481715140
 20
-38.854317460687753
 40
12.000000000000000
  0
CIRCLE
  8
0
  6
CONTINUOUS
 62
3
 10
498.952299714742370
 20
-197.953343227661210
 40
170.000000000000000
  0
ARC
  8
0
  6
CONTINUOUS
 62
3
 10
643.596960655414480
 20
-17.953343227660980
 40
4.999999999999773
 50
90.000000000000000
 51
135.000000000000000
  0
ARC
  8
0
  6
CONTINUOUS
 62
3
 10
678.952299714742370
 20
-53.308682286987960
 40
5.000000000000201
 50
315.000000000000000
 51
0.000000000000000
  0
ARC
  8
0
  6
CONTINUOUS
 62
3
 10
654.956968706652330
 20
-98.517216730674818
 40
10.000000000000242
 50
135.000000000000910
 51
212.513110185840300
  0
ARC
  8
0
  6
CONTINUOUS
 62
3
 10
498.952299714742370
 20
-197.953343227661210
 40
175.000000000000200
 50
2.575958927652314
 51
32.513110185840702
  0
ARC
  8
0
  6
CONTINUOUS
 62
3
 10
333.952299714742370
 20
-32.953343227661207
 40
20.000000000000000
 50
90.000000000000000
 51
180.000000000000000
  0
CIRCLE
  8
0
  6
CONTINUOUS
 62
3
 10
339.853273947769370
 20
-38.854317460687753
 40
12.000000000000000
  0
ARC
  8
0
  6
CONTINUOUS
 62
3
 10
318.952299714742140
 20
-53.308682286987960
 40
4.999999999999773
 50
180.000000000000000
 51
225.000000000001850
  0
ARC
  8
0
  6
CONTINUOUS
 62
3
 10
354.307638774070260
 20
-17.953343227660980
 40
4.999999999999558
 50
45.000000000000000
 51
90.000000000000000
  0
ARC
  8
0
  6
CONTINUOUS
 62
3
 10
402.333742487197010
 20
-315.294105110595860
 40
9.999999999999806
 50
230.531908102796110
 51
8.851634271286279
  0
ARC
  8
0
  6
CONTINUOUS
 62
3
 10
432.732497329314810
 20
-251.244409758881150
 40
9.999999999999940
 50
300.369210364658160
 51
38.825729699929447
  0
ARC
  8
0
  6
CONTINUOUS
 62
3
 10
464.583419490864800
 20
-305.599894831308570
 40
53.000000000000036
 50
120.369210364658620
 51
188.851634271285040
  0
ARC
  8
0
  6
CONTINUOUS
 62
3
 10
571.378731491458440
 20
-242.443926277253690
 40
9.999999999999828
 50
148.438153310684640
 51
251.211528718409170
  0
ARC
  8
0
  6
CONTINUOUS
 62
3
 10
552.698369338483190
 20
-297.353343227661070
 40
47.999999999999979
 50
356.272298631503650
 51
71.211528718408644
  0
CIRCLE
  8
0
  6
CONTINUOUS
 62
3
 10
498.952299714742370
 20
-197.953343227661210
 40
162.000000000000000
  0
ARC
  8
0
  6
CONTINUOUS
 62
3
 10
498.952299714742370
 20
-197.953343227661210
 40
174.999999999999940
 50
327.486889814159270
 51
357.424041072347680
  0
ARC
  8
0
  6
CONTINUOUS
 62
3
 10
654.956968706652330
 20
-297.389469724647600
 40
10.000000000000261
 50
147.486889814159700
 51
224.999999999999090
  0
ARC
  8
0
  6
CONTINUOUS
 62
3
 10
498.952299714742370
 20
-197.953343227661210
 40
175.000000000000000
 50
270.000000000000000
 51
302.513110185840450
  0
ARC
  8
0
  6
CONTINUOUS
 62
3
 10
598.388426211728070
 20
-353.958012219571170
 40
10.000000000000082
 50
44.999999999998167
 51
122.513110185840580
  0
ARC
  8
0
  6
CONTINUOUS
 62
3
 10
678.952299714742370
 20
-342.598004168334230
 40
5.000000000000000
 50
0.000000000000000
 51
44.999999999996326
  0
ARC
  8
0
  6
CONTINUOUS
 62
3
 10
498.952299714742370
 20
-197.953343227661210
 40
174.999999999999970
 50
182.575958927652320
 51
212.513110185840700
  0
ARC
  8
0
  6
CONTINUOUS
 62
3
 10
342.947630722832400
 20
-297.389469724647600
 40
10.000000000000242
 50
315.000000000000910
 51
32.513110185840311
  0
ARC
  8
0
  6
CONTINUOUS
 62
3
 10
498.952299714742370
 20
-197.953343227661210
 40
175.000000000000200
 50
237.486889814159440
 51
270.000000000000000
  0
ARC
  8
0
  6
CONTINUOUS
 62
3
 10
399.516173217756200
 20
-353.958012219571170
 40
9.999999999999877
 50
57.486889814158296
 51
135.000000000000000
  0
ARC
  8
0
  6
CONTINUOUS
 62
3
 10
318.952299714742140
 20
-342.598004168334230
 40
4.999999999999718
 50
135.000000000001820
 51
180.000000000000000
  0
ARC
  8
0
  6
CONTINUOUS
 62
3
 10
498.952299714742370
 20
-197.953343227661210
 40
174.999999999999940
 50
147.486889814159300
 51
177.424041072347680
  0
ARC
  8
0
  6
CONTINUOUS
 62
3
 10
342.947630722832400
 20
-98.517216730674818
 40
10.000000000000261
 50
327.486889814159670
 51
44.999999999999083
  0
ARC
  8
0
  6
CONTINUOUS
 62
3
 10
498.952299714742370
 20
-197.953343227661210
 40
175.000000000000000
 50
90.000000000000000
 51
122.513110185840580
  0
ARC
  8
0
  6
CONTINUOUS
 62
3
 10
399.516173217756200
 20
-41.948674235751014
 40
9.999999999999920
 50
225.000000000000910
 51
302.513110185840330
  0
ARC
  8
0
  6
CONTINUOUS
 62
3
 10
598.388426211728070
 20
-41.948674235751014
 40
10.000000000000139
 50
237.486889814160800
 51
315.000000000000910
  0
ARC
  8
0
  6
CONTINUOUS
 62
3
 10
498.952299714742370
 20
-197.953343227661210
 40
174.999999999999890
 50
57.486889814159468
 51
90.000000000000000
  0
ARC
  8
0
  6
CONTINUOUS
 62
3
 10
552.698369338483190
 20
-297.353343227661070
 40
55.999999999999815
 50
4.769310518983685
 51
69.984265829160805
  0
ARC
  8
0
  6
CONTINUOUS
 62
3
 10
464.583419490864800
 20
-305.599894831308570
 40
60.999999999999908
 50
121.018601945962600
 51
181.557316013169160
  0
ARC
  8
0
  6
CONTINUOUS
 62
3
 10
618.469846771964060
 20
-291.865834119047800
 40
10.000000000000158
 50
184.769310518984470
 51
321.841040431514390
  0
ARC
  8
0
  6
CONTINUOUS
 62
3
 10
575.288729371394770
 20
-235.339831525908270
 40
10.000000000000165
 50
153.906260770664370
 51
249.984265829160960
  0
ARC
  8
0
  6
CONTINUOUS
 62
3
 10
427.995959339678620
 20
-244.752891949610560
 40
10.000000000000110
 50
301.018601945962130
 51
33.407013332929751
  0
ARC
  8
0
  6
CONTINUOUS
 62
3
 10
393.609644149861420
 20
-307.529457954087090
 40
10.000000000000169
 50
226.128463455825110
 51
1.557316013168583
  0
ARC
  8
0
  6
CONTINUOUS
 62
3
 10
342.210473771569240
 20
-206.953343227661210
 40
5.000000000000000
 50
90.000000000000000
 51
183.286272973093330
  0
ARC
  8
0
  6
CONTINUOUS
 62
3
 10
342.210473771569240
 20
-188.953343227661210
 40
5.000000000000075
 50
176.713727026906670
 51
270.000000000000000
  0
ARC
  8
0
  6
CONTINUOUS
 62
3
 10
419.460161738713620
 20
-188.953343227661210
 40
5.000000000000000
 50
270.000000000000000
 51
353.540550222644810
  0
ARC
  8
0
  6
CONTINUOUS
 62
3
 10
419.460161738713620
 20
-206.953343227661210
 40
4.999999999999898
 50
6.459449777355209
 51
90.000000000000000
  0
ARC
  8
0
  6
CONTINUOUS
 62
3
 10
489.952299714742370
 20
-41.211517284488082
 40
5.000000000000000
 50
0.000000000000000
 51
93.286272973093347
  0
ARC
  8
0
  6
CONTINUOUS
 62
3
 10
507.952299714742370
 20
-41.211517284488082
 40
5.000000000000075
 50
86.713727026906653
 51
180.000000000000000
  0
ARC
  8
0
  6
CONTINUOUS
 62
3
 10
507.952299714742370
 20
-118.461205251632460
 40
5.000000000000000
 50
180.000000000000000
 51
263.540550222644810
  0
ARC
  8
0
  6
CONTINUOUS
 62
3
 10
489.952299714742370
 20
-118.461205251632460
 40
4.999999999999898
 50
276.459449777355190
 51
0.000000000000000
  0
ARC
  8
0
  6
CONTINUOUS
 62
3
 10
655.694125657915720
 20
-188.953343227661210
 40
5.000000000000000
 50
270.000000000000000
 51
3.286272973093636
  0
ARC
  8
0
  6
CONTINUOUS
 62
3
 10
655.694125657915720
 20
-206.953343227661210
 40
4.999999999999621
 50
356.713727026906380
 51
90.000000000000000
  0
ARC
  8
0
  6
CONTINUOUS
 62
3
 10
578.444437690771110
 20
-206.953343227661210
 40
5.000000000000000
 50
90.000000000000000
 51
173.540550222644780
  0
ARC
  8
0
  6
CONTINUOUS
 62
3
 10
578.444437690771110
 20
-188.953343227661210
 40
4.999999999999898
 50
186.459449777355220
 51
270.000000000000000
  0
CIRCLE
  8
0
  6
CONTINUOUS
 62
3
 10
498.952299714742370
 20
-197.953343227661210
 40
3.324999999999989
  0
CIRCLE
  8
0
  6
CONTINUOUS
 62
4
 10
498.952299714742370
 20
-197.953343227661210
 40
4.000000000000000
  0
ARC
  8
0
  6
DASHDOT
 62
4
 10
498.952299714742370
 20
-197.953343227661210
 40
225.000000000000060
 50
128.728212855906260
 51
140.944594227328990
  0
ARC
  8
0
  6
DASHDOT
 62
4
 10
498.952299714742370
 20
-197.953343227661210
 40
225.000000000000200
 50
308.728212855906290
 51
320.944594227328990
  0
ARC
  8
0
  6
CONTINUOUS
 62
3
 10
-145.877845123250840
 20
-263.029298010111920
 40
4.000000000000156
 50
221.178434371117250
 51
270.000000000000000
  0
ARC
  8
0
  6
CONTINUOUS
 62
3
 10
-146.650589088143990
 20
-263.029298003485340
 40
3.999999999999828
 50
226.698420851470790
 51
270.000000000000000
  0
ARC
  8
0
  6
CONTINUOUS
 62
3
 10
-163.625537519584440
 20
-263.029298003485340
 40
3.999999993776328
 50
270.000000000000000
 51
313.301579148531630
  0
ARC
  8
0
  6
CONTINUOUS
 62
3
 10
-164.398281484477370
 20
-263.029298010111920
 40
3.999999987149749
 50
270.000000000000000
 51
318.821565628880590
  0
ARC
  8
0
  6
CONTINUOUS
 62
3
 10
-190.588063303863010
 20
-266.239245026131580
 40
11.000000000000000
 50
180.000000000000000
 51
270.000000000000000
  0
ARC
  8
0
  6
CONTINUOUS
 62
3
 10
-190.588063303863010
 20
-267.459454955358750
 40
11.000000000000000
 50
180.000000000000000
 51
270.000000000000000
  0
ARC
  8
0
  6
CONTINUOUS
 62
3
 10
-190.188063303863370
 20
-262.029297997261660
 40
5.000000000000000
 50
180.000000000000000
 51
270.000000000000000
  0
ARC
  8
0
  6
CONTINUOUS
 62
3
 10
-190.588063303863010
 20
-185.856735587103000
 40
11.000000000000000
 50
90.000000000000000
 51
180.000000000000000
  0
ARC
  8
0
  6
CONTINUOUS
 62
3
 10
-190.188063303863370
 20
-185.951553790601570
 40
5.000000000000000
 50
90.000000000000000
 51
180.000000000000000
  0
ARC
  8
0
  6
CONTINUOUS
 62
4
 10
-190.188063303863370
 20
-192.453343227708730
 40
5.000000000000000
 50
90.000000000000000
 51
180.000000000000000
  0
ARC
  8
0
  6
CONTINUOUS
 62
3
 10
-261.832087526284340
 20
-177.453343227708960
 40
20.000000000000000
 50
90.000000000000000
 51
125.000000000000240
  0
ARC
  8
0
  6
CONTINUOUS
 62
3
 10
-281.538063303813710
 20
-170.010138170463510
 40
2.599999999999721
 50
125.000000000001370
 51
180.000000000000000
  0
ARC
  8
0
  6
CONTINUOUS
 62
3
 10
-261.832087526284340
 20
-257.453343227708960
 40
20.000000000000007
 50
234.999999999999740
 51
270.000000000000000
  0
ARC
  8
0
  6
CONTINUOUS
 62
3
 10
-281.538063303813710
 20
-264.896548284954410
 40
2.600000000000136
 50
180.000000000000000
 51
234.999999999998610
  0
ARC
  8
0
  6
CONTINUOUS
 62
3
 10
15.861936696136013
 20
-386.953343227660980
 40
3.000000000000000
 50
180.000000000000000
 51
270.000000000000000
  0
ARC
  8
0
  6
CONTINUOUS
 62
3
 10
9.861936696136013
 20
-237.953343227660980
 40
3.000000000000000
 50
90.000000000000000
 51
180.000000000000000
  0
ARC
  8
0
  6
CONTINUOUS
 62
3
 10
9.861936696136013
 20
-257.953343227660980
 40
3.000000000000000
 50
180.000000000000000
 51
270.000000000000000
  0
ARC
  8
0
  6
CONTINUOUS
 62
3
 10
9.861936696136013
 20
-231.953343227660980
 40
3.000000000000000
 50
270.000000000000000
 51
0.000000000000000
  0
ARC
  8
0
  6
CONTINUOUS
 62
3
 10
9.861936696136013
 20
-263.953343227660980
 40
3.000000000000000
 50
0.000000000000000
 51
90.000000000000000
  0
ARC
  8
0
  6
CONTINUOUS
 62
3
 10
15.861936696136013
 20
-85.953343227660980
 40
3.000000000000000
 50
90.000000000000000
 51
180.000000000000000
  0
ARC
  8
0
  6
CONTINUOUS
 62
3
 10
7.861936696136013
 20
-353.929748874387540
 40
5.000000000000000
 50
0.000000000000000
 51
86.999999999994429
  0
ARC
  8
0
  6
CONTINUOUS
 62
3
 10
-0.138063303863987
 20
-142.396199815199680
 40
5.000000000000066
 50
273.000000000005570
 51
0.000000000000000
  0
ARC
  8
0
  6
CONTINUOUS
 62
3
 10
4.861936696136013
 20
-85.953343227660980
 40
3.000000000000000
 50
90.000000000000000
 51
180.000000000000000
  0
ARC
  8
0
  6
CONTINUOUS
 62
3
 10
-0.138063303863987
 20
-111.198341226059480
 40
5.000000000000000
 50
0.000000000000000
 51
9.564841603927883
  0
ARC
  8
0
  6
CONTINUOUS
 62
3
 10
7.861936696136013
 20
-141.976937580935330
 40
5.000000000000066
 50
273.000000000005570
 51
0.000000000000000
  0
ARC
  8
0
  6
CONTINUOUS
 62
3
 10
7.861936696136013
 20
-144.872122022369470
 40
5.000000000000066
 50
273.000000000005570
 51
0.000000000000000
  0
ARC
  8
0
  6
CONTINUOUS
 62
3
 10
220.861936696136010
 20
-197.953343227660980
 40
8.000000000000000
 50
90.000000000000000
 51
270.000000000000000
  0
ARC
  8
0
  6
CONTINUOUS
 62
3
 10
283.061936696136290
 20
-171.253343227660930
 40
0.799999999999727
 50
0.000000000000000
 51
90.000000000000000
  0
ARC
  8
0
  6
CONTINUOUS
 62
3
 10
202.661936696136190
 20
-169.803343227661120
 40
0.800000000000182
 50
180.000000000000000
 51
270.000000000000000
  0
ARC
  8
0
  6
CONTINUOUS
 62
3
 10
202.661936696136190
 20
-226.103343227661530
 40
0.800000000000182
 50
90.000000000000000
 51
180.000000000000000
  0
ARC
  8
0
  6
CONTINUOUS
 62
3
 10
283.061936696136290
 20
-224.653343227661710
 40
0.800000000000182
 50
270.000000000000000
 51
0.000000000000000
  0
ARC
  8
0
  6
CONTINUOUS
 62
3
 10
34.861936696135558
 20
-80.305260099447196
 40
0.499999999999545
 50
180.000000000000000
 51
255.651500191095270
  0
ARC
  8
0
  6
CONTINUOUS
 62
3
 10
188.861936696136010
 20
-57.379750098853719
 40
2.000000000000000
 50
90.000000000000000
 51
180.000000000000000
  0
ARC
  8
0
  6
CONTINUOUS
 62
3
 10
188.861936696136010
 20
-93.446148918808603
 40
2.000000000000000
 50
90.000000000000000
 51
180.000000000000000
  0
ARC
  8
0
  6
CONTINUOUS
 62
3
 10
188.861936696136010
 20
-190.953343227660980
 40
2.000000000000000
 50
180.000000000000000
 51
270.000000000000000
  0
ARC
  8
0
  6
CONTINUOUS
 62
3
 10
188.861936696136010
 20
-338.526936356467790
 40
2.000000000000000
 50
180.000000000000000
 51
270.000000000000000
  0
ARC
  8
0
  6
CONTINUOUS
 62
3
 10
188.861936696136010
 20
-302.460537536512900
 40
2.000000000000000
 50
180.000000000000000
 51
270.000000000000000
  0
ARC
  8
0
  6
CONTINUOUS
 62
3
 10
188.861936696136010
 20
-204.953343227660980
 40
2.000000000000000
 50
90.000000000000000
 51
180.000000000000000
  0
ARC
  8
0
  6
CONTINUOUS
 62
3
 10
65.861936696136013
 20
-72.305260099447196
 40
0.500000000000000
 50
0.000000000000000
 51
90.000000000000000
  0
ARC
  8
0
  6
CONTINUOUS
 62
3
 10
168.861936696136010
 20
-340.967521371220530
 40
5.000000000000000
 50
0.000000000000000
 51
87.999999999996405
  0
ARC
  8
0
  6
CONTINUOUS
 62
3
 10
34.861936696136013
 20
-72.305260099447196
 40
0.500000000000000
 50
90.000000000000000
 51
180.000000000000000
  0
ARC
  8
0
  6
CONTINUOUS
 62
3
 10
31.862431034074575
 20
-81.760643118920370
 40
0.999999999999934
 50
287.183957065598410
 51
358.726075913069280
  0
ARC
  8
0
  6
CONTINUOUS
 62
3
 10
33.861936696136013
 20
-81.805107794603600
 40
1.000000000000014
 50
91.000000000001762
 51
178.726075913068680
  0
ARC
  8
0
  6
CONTINUOUS
 62
3
 10
175.861936696136010
 20
-14.953323518449906
 40
2.000000000000000
 50
90.000000000000000
 51
180.000000000000000
  0
ARC
  8
0
  6
CONTINUOUS
 62
3
 10
168.861936696136010
 20
-26.613577556294103
 40
4.999999999999902
 50
330.000000000002390
 51
0.000000000000000
  0
ARC
  8
0
  6
CONTINUOUS
 62
3
 10
141.565520523405550
 20
-73.892357232008635
 40
4.999999999999909
 50
271.999999999998470
 51
329.999999999997500
  0
CIRCLE
  8
0
  6
CONTINUOUS
 62
3
 10
45.361936696136013
 20
-305.953343227660980
 40
15.000000000000000
  0
ARC
  8
0
  6
CONTINUOUS
 62
3
 10
175.861936696136010
 20
-380.953362936871370
 40
2.000000000000000
 50
180.000000000000000
 51
270.000000000000000
  0
ARC
  8
0
  6
CONTINUOUS
 62
3
 10
168.861936696136010
 20
-344.535143617790480
 40
5.000000000000000
 50
270.000000000000000
 51
0.000000000000000
  0
ARC
  8
0
  6
CONTINUOUS
 62
3
 10
156.361936696136010
 20
-361.953343227660980
 40
19.000000000000000
 50
180.000000000000000
 51
266.999999999999890
  0
ARC
  8
0
  6
CONTINUOUS
 62
3
 10
132.361936696136010
 20
-354.535143617790480
 40
5.000000000000000
 50
0.000000000000000
 51
90.000000000000000
  0
ARC
  8
0
  6
CONTINUOUS
 62
3
 10
173.114076365899900
 20
-383.860104931948400
 40
1.999999999999825
 50
46.609653602427549
 51
87.000000000006906
  0
ARC
  8
0
  6
CONTINUOUS
 62
3
 10
175.861936696136010
 20
-390.953343227660980
 40
4.000000000000000
 50
270.000000000000000
 51
0.000000000000000
  0
ARC
  8
0
  6
CONTINUOUS
 62
3
 10
183.861936696136010
 20
-386.953343227660980
 40
4.000000000000000
 50
90.000000000000000
 51
180.000000000000000
  0
CIRCLE
  8
0
  6
CONTINUOUS
 62
4
 10
156.361936696136010
 20
-361.746712046404130
 40
10.477499999999992
  0
CIRCLE
  8
0
  6
CONTINUOUS
 62
3
 10
156.361936696136010
 20
-361.746712046404130
 40
9.315499999999986
  0
ARC
  8
0
  6
CONTINUOUS
 62
3
 10
142.145735199744080
 20
-92.740961927269154
 40
5.000000000000455
 50
270.000000000000000
 51
320.612185745697730
  0
ARC
  8
0
  6
CONTINUOUS
 62
3
 10
142.145735199744080
 20
-100.468883988627340
 40
5.000000000000455
 50
270.000000000000000
 51
320.612185745697730
  0
ARC
  8
0
  6
CONTINUOUS
 62
3
 10
168.861936696136010
 20
-26.613577556294103
 40
5.000000000000016
 50
330.000000000000110
 51
0.000000000000000
  0
ARC
  8
0
  6
CONTINUOUS
 62
3
 10
168.861936696136010
 20
-60.202018811846074
 40
5.000000000000246
 50
320.612185745701710
 51
0.000000000000000
  0
ARC
  8
0
  6
CONTINUOUS
 62
3
 10
168.861936696136010
 20
-67.929940873204259
 40
5.000000000000246
 50
320.612185745701710
 51
0.000000000000000
  0
ARC
  8
0
  6
CONTINUOUS
 62
3
 10
141.565520523405550
 20
-73.892357232008862
 40
4.999999999999682
 50
271.999999999998580
 51
329.999999999997500
  0
LINE
  8
0
  6
DASHDOT
 62
4
 10
297.638430303684800
 20
-197.953343227660980
 11
498.952299714742370
 21
-197.953343227660980
  0
LINE
  8
0
  6
DASHDOT
 62
4
 10
700.266169125799930
 20
-197.953343227660980
 11
498.952299714742370
 21
-197.953343227660980
  0
LINE
  8
0
  6
DASHED
 62
3
 10
428.392870715589650
 20
-177.795830699987850
 11
428.817702875335730
 21
-178.796672548603280
  0
LINE
  8
0
  6
DASHED
 62
3
 10
427.947956970379660
 20
-178.795123332945200
 11
428.081298992573690
 21
-179.109257451394570
  0
LINE
  8
0
  6
DASHED
 62
3
 10
428.817702875335730
 20
-178.796672548603280
 11
428.081298992573690
 21
-179.109257451394570
  0
LINE
  8
0
  6
DASHED
 62
3
 10
425.268654272884310
 20
-175.470281044745660
 11
406.576590691935510
 21
-217.453343227708960
  0
LINE
  8
0
  6
DASHED
 62
3
 10
426.588936373602340
 20
-174.963472230178920
 11
429.146863655001650
 21
-176.102334830791050
  0
LINE
  8
0
  6
DASHED
 62
3
 10
426.869138453781940
 20
-181.218189393591960
 11
428.672509643968620
 21
-182.021101977722080
  0
LINE
  8
0
  6
DASHED
 62
3
 10
430.452299714742370
 20
-184.761738350649920
 11
430.452299714742370
 21
-258.953343227708960
  0
LINE
  8
0
  6
DASHED
 62
3
 10
429.146863655006880
 20
-176.102334830793320
 11
383.429664973281890
 21
-278.784844269819360
  0
LINE
  8
0
  6
DASHED
 62
3
 10
425.452299714742370
 20
-263.953343227708960
 11
390.033074683413590
 21
-263.953343227708960
  0
LINE
  8
0
  6
DASHED
 62
3
 10
385.524358685122250
 20
-274.080085162960360
 11
389.361249607221230
 21
-275.788379063878660
  0
LINE
  8
0
  6
DASHED
 62
3
 10
386.866589607272770
 20
-271.065385152739740
 11
390.703480529371520
 21
-272.773679053658040
  0
LINE
  8
0
  6
DASHED
 62
3
 10
390.526097444273090
 20
-272.311580318406640
 11
390.703480529371520
 21
-272.773679053658040
  0
LINE
  8
0
  6
DASHED
 62
3
 10
388.899150871970050
 20
-275.965762148976640
 11
389.361249607221450
 21
-275.788379063878210
  0
LINE
  8
0
  6
DASHED
 62
3
 10
390.703480529371520
 20
-272.773679053658040
 11
389.361249607221450
 21
-275.788379063878210
  0
LINE
  8
0
  6
DASHED
 62
3
 10
384.147579657921140
 20
-267.829726812412670
 11
381.300423156390250
 21
-274.224545015910960
  0
LINE
  8
0
  6
DASHED
 62
3
 10
384.147579657921140
 20
-267.829726812412670
 11
381.300423156390250
 21
-274.224545015910960
  0
LINE
  8
0
  6
DASHED
 62
3
 10
381.300423156390250
 20
-274.224545015910960
 11
380.406039036713760
 21
-273.826339550146490
  0
LINE
  8
0
  6
DASHED
 62
3
 10
384.147579657921140
 20
-267.829726812412670
 11
383.253195538244650
 21
-267.431521346648420
  0
LINE
  8
0
  6
DASHED
 62
3
 10
380.871737691882120
 20
-277.645981669207230
 11
383.429664973281890
 21
-278.784844269819360
  0
LINE
  8
0
  6
DASHED
 62
3
 10
406.576590691938690
 20
-217.453343227708960
 11
380.364928877315830
 21
-276.325699568488970
  0
LINE
  8
0
  6
DASHED
 62
3
 10
387.008947432349260
 20
-270.745644242564820
 11
390.526097444273090
 21
-272.311580318406640
  0
LINE
  8
0
  6
DASHED
 62
3
 10
385.382000860045990
 20
-274.399826073134820
 11
388.899150871970050
 21
-275.965762148976640
  0
LINE
  8
0
  6
DASHED
 62
3
 10
421.231486341527670
 20
-181.213549950370180
 11
395.275849247991570
 21
-185.472379103363210
  0
LINE
  8
0
  6
DASHDOT
 62
4
 10
536.677989033374620
 20
-217.453343227708960
 11
460.178179033937340
 21
-217.453343227708960
  0
LINE
  8
0
  6
DASHDOT
 62
4
 10
498.952299714742370
 20
-9.434721776982769
 11
498.952299714742370
 21
-397.228644536823370
  0
LINE
  8
0
  6
CONTINUOUS
 62
3
 10
353.636200386997640
 20
-207.953343227661210
 11
353.636200386997640
 21
-268.146109721809350
  0
LINE
  8
0
  6
CONTINUOUS
 62
3
 10
644.268399042487090
 20
-207.953343227661210
 11
644.268399042487090
 21
-268.146109721809350
  0
LINE
  8
0
  6
CONTINUOUS
 62
3
 10
315.952299714742370
 20
-202.953343227661210
 11
321.132165871580580
 21
-202.953343227661210
  0
LINE
  8
0
  6
CONTINUOUS
 62
3
 10
315.952299714742370
 20
-192.953343227661210
 11
321.132165871580580
 21
-192.953343227661210
  0
LINE
  8
0
  6
CONTINUOUS
 62
3
 10
681.952299714742370
 20
-202.953343227661210
 11
676.772433557904150
 21
-202.953343227661210
  0
LINE
  8
0
  6
CONTINUOUS
 62
3
 10
681.952299714742370
 20
-192.953343227661210
 11
676.772433557904150
 21
-192.953343227661210
  0
LINE
  8
0
  6
CONTINUOUS
 62
3
 10
655.694125657915720
 20
-201.953343227661210
 11
578.444437690771110
 21
-201.953343227661210
  0
LINE
  8
0
  6
CONTINUOUS
 62
3
 10
655.694125657915720
 20
-193.953343227661210
 11
578.444437690771110
 21
-193.953343227661210
  0
LINE
  8
0
  6
CONTINUOUS
 62
3
 10
502.952299714742370
 20
-41.211517284488082
 11
502.952299714742370
 21
-118.461205251632460
  0
LINE
  8
0
  6
CONTINUOUS
 62
3
 10
494.952299714742370
 20
-41.211517284488082
 11
494.952299714742370
 21
-118.461205251632460
  0
LINE
  8
0
  6
CONTINUOUS
 62
3
 10
313.952299714742370
 20
-32.953343227661207
 11
313.952299714742370
 21
-362.953343227661210
  0
LINE
  8
0
  6
CONTINUOUS
 62
3
 10
357.843172680002680
 20
-381.488877133594090
 11
392.445105405890900
 21
-346.886944407705870
  0
LINE
  8
0
  6
CONTINUOUS
 62
3
 10
640.061426749482050
 20
-381.488877133594090
 11
605.459494023593830
 21
-346.886944407705870
  0
LINE
  8
0
  6
CONTINUOUS
 62
3
 10
683.952299714742370
 20
-32.953343227661207
 11
683.952299714742370
 21
-362.953343227661210
  0
LINE
  8
0
  6
CONTINUOUS
 62
3
 10
682.487833620675250
 20
-56.844216192920840
 11
647.885900894786570
 21
-91.446148918809286
  0
LINE
  8
0
  6
CONTINUOUS
 62
3
 10
640.061426749482050
 20
-14.417809321728555
 11
605.459494023593830
 21
-49.019742047616546
  0
LINE
  8
0
  6
CONTINUOUS
 62
3
 10
333.952299714742370
 20
-12.953343227661207
 11
663.952299714742370
 21
-12.953343227661207
  0
LINE
  8
0
  6
CONTINUOUS
 62
3
 10
315.416765808809490
 20
-56.844216192920840
 11
350.018698534698160
 21
-91.446148918809286
  0
LINE
  8
0
  6
CONTINUOUS
 62
3
 10
357.843172680002680
 20
-14.417809321728555
 11
392.445105405890900
 21
-49.019742047616546
  0
LINE
  8
0
  6
CONTINUOUS
 62
3
 10
342.210473771569240
 20
-193.953343227661210
 11
419.460161738713620
 21
-193.953343227661210
  0
LINE
  8
0
  6
CONTINUOUS
 62
3
 10
342.210473771569240
 20
-201.953343227661210
 11
419.460161738713620
 21
-201.953343227661210
  0
LINE
  8
0
  6
CONTINUOUS
 62
3
 10
682.487833620675250
 20
-339.062470262401800
 11
647.885900894786570
 21
-304.460537536513130
  0
LINE
  8
0
  6
CONTINUOUS
 62
3
 10
315.416765808809490
 20
-339.062470262401800
 11
350.018698534698160
 21
-304.460537536513130
  0
LINE
  8
0
  6
CONTINUOUS
 62
3
 10
498.952299714742370
 20
-382.953343227661210
 11
663.952299714742370
 21
-382.953343227661210
  0
LINE
  8
0
  6
CONTINUOUS
 62
3
 10
498.952299714742370
 20
-382.953343227661210
 11
333.952299714742370
 21
-382.953343227661210
  0
LINE
  8
0
  6
CONTINUOUS
 62
3
 10
498.952299714742370
 20
-394.953343227661210
 11
418.683108493795770
 21
-394.953343227661210
  0
LINE
  8
0
  6
CONTINUOUS
 62
3
 10
498.952299714742370
 20
-394.953343227661210
 11
579.221490935688960
 21
-394.953343227661210
  0
LINE
  8
0
  6
DASHDOT
 62
4
 10
324.560893787704570
 20
-23.561937300622958
 11
357.185455633197530
 21
-56.186499146116148
  0
LINE
  8
0
  6
DASHDOT
 62
4
 10
673.343705641780390
 20
-23.561937300622958
 11
640.719143796287430
 21
-56.186499146116148
  0
LINE
  8
0
  6
DASHDOT
 62
4
 10
673.343705641780390
 20
-372.344749154699460
 11
640.719143796287430
 21
-339.720187309206270
  0
LINE
  8
0
  6
DASHDOT
 62
4
 10
324.560893787704570
 20
-372.344749154699460
 11
357.185455633197530
 21
-339.720187309206270
  0
LINE
  8
0
  6
CONTINUOUS
 62
3
 10
-157.138063303864100
 20
-271.888241631936810
 11
-153.138063303864100
 21
-268.234059801366360
  0
LINE
  8
0
  6
CONTINUOUS
 62
3
 10
-153.138063303864100
 20
-271.888241631936810
 11
-157.138063303864100
 21
-268.234059801366360
  0
LINE
  8
0
  6
CONTINUOUS
 62
3
 10
-190.588063303863010
 20
-278.459454955358750
 11
-155.138063303864100
 21
-278.459454955358750
  0
LINE
  8
0
  6
CONTINUOUS
 62
3
 10
-190.588063303863010
 20
-277.239245026131580
 11
-155.138063303864100
 21
-277.239245026131580
  0
LINE
  8
0
  6
CONTINUOUS
 62
3
 10
-163.625537521257680
 20
-267.029297997261660
 11
-190.188063303863370
 21
-267.029297997261660
  0
LINE
  8
0
  6
DASHDOT
 62
4
 10
-155.138063303864100
 20
-171.953743394916960
 11
-155.138063303864100
 21
-284.607462820153610
  0
LINE
  8
0
  6
CONTINUOUS
 62
4
 10
-155.138063303864100
 20
-235.686190472002860
 11
-147.921184938994660
 21
-248.186190472002860
  0
LINE
  8
0
  6
CONTINUOUS
 62
4
 10
-140.704306574124300
 20
-235.686190472002860
 11
-155.138063303864100
 21
-235.686190472002860
  0
LINE
  8
0
  6
CONTINUOUS
 62
4
 10
-147.921184938993750
 20
-223.186190472003090
 11
-155.138063303864100
 21
-235.686190472002860
  0
LINE
  8
0
  6
CONTINUOUS
 62
4
 10
-155.138063303864100
 20
-210.686190472002860
 11
-147.921184938993750
 21
-223.186190472002860
  0
LINE
  8
0
  6
CONTINUOUS
 62
4
 10
-133.487428209253950
 20
-248.186190472002860
 11
-147.921184938994660
 21
-248.186190472002860
  0
LINE
  8
0
  6
CONTINUOUS
 62
4
 10
-140.704306574124300
 20
-235.686190472002860
 11
-133.487428209253950
 21
-248.186190472002860
  0
LINE
  8
0
  6
CONTINUOUS
 62
4
 10
-155.138063303864100
 20
-210.686190472002860
 11
-162.354941668734450
 21
-223.186190472002860
  0
LINE
  8
0
  6
CONTINUOUS
 62
4
 10
-162.354941668734450
 20
-223.186190472003090
 11
-155.138063303864100
 21
-235.686190472002860
  0
LINE
  8
0
  6
CONTINUOUS
 62
4
 10
-169.571820033603900
 20
-235.686190472002860
 11
-155.138063303864100
 21
-235.686190472002860
  0
LINE
  8
0
  6
CONTINUOUS
 62
4
 10
-169.571820033603900
 20
-235.686190472002860
 11
-176.788698398474250
 21
-248.186190472002860
  0
LINE
  8
0
  6
CONTINUOUS
 62
4
 10
-155.138063303864100
 20
-235.686190472002860
 11
-162.354941668733550
 21
-248.186190472002860
  0
LINE
  8
0
  6
CONTINUOUS
 62
4
 10
-176.788698398474250
 20
-248.186190472002860
 11
-162.354941668733550
 21
-248.186190472002860
  0
LINE
  8
0
  6
CONTINUOUS
 62
3
 10
-190.588063303863010
 20
-174.856735587103000
 11
-155.138063303864100
 21
-174.856735587103000
  0
LINE
  8
0
  6
CONTINUOUS
 62
3
 10
-155.138063303864100
 20
-180.951553790601570
 11
-190.188063303863370
 21
-180.951553790601570
  0
LINE
  8
0
  6
CONTINUOUS
 62
4
 10
-155.138063303864100
 20
-187.453343227708730
 11
-190.188063303863370
 21
-187.453343227708730
  0
LINE
  8
0
  6
CONTINUOUS
 62
3
 10
-195.188063303863370
 20
-185.951553790601570
 11
-195.188063303863370
 21
-262.029297997261660
  0
LINE
  8
0
  6
CONTINUOUS
 62
3
 10
-201.588063303863010
 20
-185.856735587103000
 11
-201.588063303863010
 21
-267.459454955358750
  0
LINE
  8
0
  6
CONTINUOUS
 62
3
 10
-181.138063303863990
 20
-174.856735587103000
 11
-181.138063303863990
 21
-157.453343227708960
  0
LINE
  8
0
  6
CONTINUOUS
 62
3
 10
-181.138063303863990
 20
-157.453343227708960
 11
-261.832087526284340
 21
-157.453343227708960
  0
LINE
  8
0
  6
CONTINUOUS
 62
3
 10
-284.138063303813850
 20
-217.453343227708960
 11
-284.138063303813850
 21
-170.010138170463510
  0
LINE
  8
0
  6
CONTINUOUS
 62
3
 10
-273.303616253305340
 20
-161.070302341929160
 11
-283.029362038326330
 21
-167.880342855312390
  0
LINE
  8
0
  6
CONTINUOUS
 62
3
 10
-195.183952466993560
 20
-277.453343227708960
 11
-261.832087526284340
 21
-277.453343227708960
  0
LINE
  8
0
  6
CONTINUOUS
 62
3
 10
-284.138063303813850
 20
-217.453343227708960
 11
-284.138063303813850
 21
-264.896548284954410
  0
LINE
  8
0
  6
CONTINUOUS
 62
3
 10
-273.303616253305340
 20
-273.836384113488750
 11
-283.029362038326330
 21
-267.026343600105520
  0
LINE
  8
0
  6
CONTINUOUS
 62
3
 10
-194.138063303863420
 20
-162.537442641648570
 11
-192.138063303863420
 21
-163.713228127271350
  0
LINE
  8
0
  6
CONTINUOUS
 62
3
 10
-192.138063303863420
 20
-163.713228127271350
 11
-190.138063303863420
 21
-165.365869766394780
  0
LINE
  8
0
  6
CONTINUOUS
 62
3
 10
-190.138063303863420
 20
-162.537442641648570
 11
-192.138063303863420
 21
-163.713228127271350
  0
LINE
  8
0
  6
CONTINUOUS
 62
3
 10
-192.138063303863420
 20
-163.713228127271350
 11
-194.138063303863420
 21
-165.365869766394780
  0
LINE
  8
0
  6
CONTINUOUS
 62
3
 10
24.861936696136013
 20
-247.953343227660980
 11
24.861936696136013
 21
-389.953343227660980
  0
LINE
  8
0
  6
CONTINUOUS
 62
3
 10
6.861936696136013
 20
-257.953343227660980
 11
6.861936696136013
 21
-237.953343227660980
  0
LINE
  8
0
  6
CONTINUOUS
 62
3
 10
24.861936696136013
 20
-247.953343227660980
 11
24.861936696136013
 21
-82.953343227660980
  0
LINE
  8
0
  6
CONTINUOUS
 62
3
 10
12.861936696136013
 20
-386.953343227660980
 11
12.861936696136013
 21
-263.953343227660980
  0
LINE
  8
0
  6
CONTINUOUS
 62
3
 10
12.861936696136013
 20
-231.953343227660980
 11
12.861936696136013
 21
-85.953343227660980
  0
LINE
  8
0
  6
CONTINUOUS
 62
3
 10
4.861936696136013
 20
-142.396199815199680
 11
4.861936696136013
 21
-111.198341226059480
  0
LINE
  8
0
  6
CONTINUOUS
 62
3
 10
1.861936696136013
 20
-94.367522831890483
 11
1.861936696136013
 21
-85.953343227660980
  0
LINE
  8
0
  6
DASHDOT
 62
4
 10
-8.368310704681448
 20
-67.953343227660980
 11
9.730955310610057
 21
-67.953343227660980
  0
LINE
  8
0
  6
CONTINUOUS
 62
3
 10
-2.638063303867625
 20
-105.953343227660980
 11
-2.638063303863987
 21
-47.953343227660980
  0
LINE
  8
0
  6
CONTINUOUS
 62
3
 10
-2.638063303863987
 20
-47.953343227660980
 11
1.861936696136013
 21
-47.953343227660980
  0
LINE
  8
0
  6
CONTINUOUS
 62
3
 10
1.861936696136013
 20
-47.953343227660980
 11
1.861936696136013
 21
-105.953343227660980
  0
LINE
  8
0
  6
CONTINUOUS
 62
3
 10
-2.638063303867625
 20
-105.953343227660980
 11
1.861936696136013
 21
-105.953343227660980
  0
LINE
  8
0
  6
DASHDOT
 62
4
 10
50.361936696136013
 20
-90.681588638169842
 11
50.361936696136013
 21
-58.513480403835047
  0
LINE
  8
0
  6
CONTINUOUS
 62
3
 10
220.861936696136010
 20
-205.953343227660980
 11
283.861936696136010
 21
-205.953343227661890
  0
LINE
  8
0
  6
CONTINUOUS
 62
3
 10
220.861936696136010
 20
-189.953343227660980
 11
283.861936696136010
 21
-189.953343227660980
  0
LINE
  8
0
  6
CONTINUOUS
 62
3
 10
283.861936696136010
 20
-197.953343227661890
 11
283.861936696136010
 21
-171.253343227660930
  0
LINE
  8
0
  6
CONTINUOUS
 62
3
 10
201.061936696136290
 20
-168.953343227661660
 11
201.861936696136010
 21
-169.753343227660930
  0
LINE
  8
0
  6
CONTINUOUS
 62
3
 10
203.861936696136010
 20
-170.603343227661300
 11
204.421744317271420
 21
-170.453343227661660
  0
LINE
  8
0
  6
CONTINUOUS
 62
3
 10
203.861936696135560
 20
-170.603343227661300
 11
202.661936696136190
 21
-170.603343227661300
  0
LINE
  8
0
  6
CONTINUOUS
 62
3
 10
283.061936696136290
 20
-170.453343227661660
 11
204.421744317271420
 21
-170.453343227661660
  0
LINE
  8
0
  6
CONTINUOUS
 62
3
 10
201.861936696136010
 20
-169.753343227660930
 11
201.861936696136010
 21
-197.953343227661890
  0
LINE
  8
0
  6
CONTINUOUS
 62
3
 10
201.861936696136010
 20
-197.953343227661890
 11
201.861936696136010
 21
-169.753343227660930
  0
LINE
  8
0
  6
CONTINUOUS
 62
3
 10
201.061936696136290
 20
-226.953343227661890
 11
201.861936696136010
 21
-226.153343227661710
  0
LINE
  8
0
  6
CONTINUOUS
 62
3
 10
203.861936696136010
 20
-225.303343227661340
 11
204.421744317271420
 21
-225.453343227661890
  0
LINE
  8
0
  6
CONTINUOUS
 62
3
 10
203.861936696135560
 20
-225.303343227661340
 11
202.661936696136190
 21
-225.303343227661340
  0
LINE
  8
0
  6
CONTINUOUS
 62
3
 10
201.861936696136010
 20
-226.153343227660800
 11
201.861936696136010
 21
-197.953343227661890
  0
LINE
  8
0
  6
CONTINUOUS
 62
3
 10
201.861936696136010
 20
-197.953343227661890
 11
201.861936696136010
 21
-226.153343227660800
  0
LINE
  8
0
  6
CONTINUOUS
 62
3
 10
219.861936696136010
 20
-225.453343227661890
 11
211.861936696136010
 21
-225.453343227661890
  0
LINE
  8
0
  6
CONTINUOUS
 62
3
 10
211.861936696136010
 20
-225.453343227661890
 11
204.421744317271420
 21
-225.453343227661890
  0
LINE
  8
0
  6
CONTINUOUS
 62
3
 10
283.861936696136010
 20
-197.953343227661890
 11
283.861936696136010
 21
-224.653343227661710
  0
LINE
  8
0
  6
CONTINUOUS
 62
3
 10
283.061936696136290
 20
-225.453343227661890
 11
219.861936696136010
 21
-225.453343227661890
  0
LINE
  8
0
  6
CONTINUOUS
 62
3
 10
193.861936696136470
 20
-192.953343227660980
 11
188.861936696136010
 21
-192.953343227660980
  0
LINE
  8
0
  6
CONTINUOUS
 62
3
 10
193.861936696136470
 20
-91.446148918808603
 11
188.861936696136010
 21
-91.446148918808603
  0
LINE
  8
0
  6
CONTINUOUS
 62
3
 10
193.861936696136470
 20
-55.379750098853719
 11
188.861936696136010
 21
-55.379750098853719
  0
LINE
  8
0
  6
CONTINUOUS
 62
3
 10
186.861936696136010
 20
-190.953343227660980
 11
186.861936696136010
 21
-57.379750098853719
  0
LINE
  8
0
  6
CONTINUOUS
 62
3
 10
193.861936696136470
 20
-202.953343227660980
 11
188.861936696136010
 21
-202.953343227660980
  0
LINE
  8
0
  6
CONTINUOUS
 62
3
 10
193.861936696136470
 20
-304.460537536512900
 11
188.861936696136010
 21
-304.460537536512900
  0
LINE
  8
0
  6
CONTINUOUS
 62
3
 10
193.861936696136470
 20
-340.526936356467790
 11
188.861936696136010
 21
-340.526936356467790
  0
LINE
  8
0
  6
CONTINUOUS
 62
3
 10
186.861936696136010
 20
-204.953343227660980
 11
186.861936696136010
 21
-338.526936356467790
  0
LINE
  8
0
  6
CONTINUOUS
 62
3
 10
66.361936696136013
 20
-72.305260099447196
 11
66.361936696136013
 21
-80.237665856392368
  0
LINE
  8
0
  6
CONTINUOUS
 62
3
 10
25.361936696136013
 20
-330.953343227660980
 11
169.036434179648840
 21
-335.970567236124910
  0
LINE
  8
0
  6
CONTINUOUS
 62
3
 10
50.361936696136013
 20
-71.805260099447196
 11
65.861936696136013
 21
-71.805260099447196
  0
LINE
  8
0
  6
CONTINUOUS
 62
3
 10
50.361936696136013
 20
-71.805260099447196
 11
34.861936696136013
 21
-71.805260099447196
  0
LINE
  8
0
  6
CONTINUOUS
 62
3
 10
34.361936696136013
 20
-72.305260099447196
 11
34.361936696136013
 21
-80.305260099447196
  0
LINE
  8
0
  6
CONTINUOUS
 62
3
 10
33.844484289698698
 20
-80.805260099447196
 11
139.872060964254960
 21
-78.954541864411340
  0
LINE
  8
0
  6
CONTINUOUS
 62
3
 10
173.861936696135560
 20
-380.953362936871370
 11
173.861936696136010
 21
-14.953323518449906
  0
LINE
  8
0
  6
CONTINUOUS
 62
3
 10
25.361936696136013
 20
-82.953323518449679
 11
25.361936696136013
 21
-389.953343227660980
  0
LINE
  8
0
  6
CONTINUOUS
 62
3
 10
193.861936696136010
 20
-197.953343227660980
 11
193.861936696136010
 21
-382.953343227660980
  0
LINE
  8
0
  6
CONTINUOUS
 62
3
 10
193.861936696136010
 20
-12.953323518449906
 11
175.861936696136010
 21
-12.953323518449906
  0
LINE
  8
0
  6
CONTINUOUS
 62
3
 10
193.861936696136010
 20
-197.953343227660980
 11
193.861936696136010
 21
-12.953323518449906
  0
LINE
  8
0
  6
CONTINUOUS
 62
3
 10
145.895647542327310
 20
-76.392357232008635
 11
173.192063715058230
 21
-29.113577556293876
  0
LINE
  8
0
  6
CONTINUOUS
 62
3
 10
25.361936696136013
 20
-82.953323518449679
 11
160.526730861213650
 21
-78.233264898011839
  0
LINE
  8
0
  6
CONTINUOUS
 62
3
 10
197.861936696136010
 20
-197.953343227660980
 11
197.861936696136010
 21
-28.953323518449906
  0
LINE
  8
0
  6
CONTINUOUS
 62
3
 10
196.861936696136010
 20
-27.953323518449906
 11
193.861936696136010
 21
-27.953323518449906
  0
LINE
  8
0
  6
CONTINUOUS
 62
3
 10
196.861936696136010
 20
-27.953323518449906
 11
197.861936696136010
 21
-28.953323518449906
  0
LINE
  8
0
  6
CONTINUOUS
 62
3
 10
197.861936696136010
 20
-197.953343227660980
 11
197.861936696136010
 21
-366.953343227660980
  0
LINE
  8
0
  6
DASHDOT
 62
4
 10
45.361936696136013
 20
-281.953343227660980
 11
45.361936696136013
 21
-329.953343227660980
  0
LINE
  8
0
  6
DASHDOT
 62
4
 10
69.361936696136013
 20
-305.953343227660980
 11
21.361936696136013
 21
-305.953343227660980
  0
LINE
  8
0
  6
CONTINUOUS
 62
3
 10
155.367553527520040
 20
-380.927304387997760
 11
173.218748278385530
 21
-381.862845862439600
  0
LINE
  8
0
  6
CONTINUOUS
 62
3
 10
137.361936696136010
 20
-361.953343227660980
 11
137.361936696136010
 21
-354.535143617790480
  0
LINE
  8
0
  6
CONTINUOUS
 62
3
 10
132.361936696136010
 20
-349.535143617790480
 11
168.861936696136010
 21
-349.535143617790480
  0
LINE
  8
0
  6
CONTINUOUS
 62
3
 10
175.853057706614320
 20
-382.953343227660980
 11
193.861936696136010
 21
-382.953343227660980
  0
LINE
  8
0
  6
CONTINUOUS
 62
3
 10
179.861936696136010
 20
-386.953343227660980
 11
179.861936696136010
 21
-390.953343227660980
  0
LINE
  8
0
  6
CONTINUOUS
 62
3
 10
175.861936696136010
 20
-394.953343227660980
 11
25.361936696136013
 21
-389.953343227660980
  0
LINE
  8
0
  6
CONTINUOUS
 62
3
 10
193.861936696136010
 20
-367.953343227660980
 11
196.861936696136010
 21
-367.953343227660980
  0
LINE
  8
0
  6
CONTINUOUS
 62
3
 10
196.861936696136010
 20
-367.953343227660980
 11
197.861936696136010
 21
-366.953343227660980
  0
LINE
  8
0
  6
DASHDOT
 62
4
 10
156.361936696136010
 20
-342.041973741379250
 11
156.361936696136010
 21
-389.383135882115080
  0
LINE
  8
0
  6
DASHDOT
 62
4
 10
182.126989925614340
 20
-361.953343227660980
 11
124.672034054812110
 21
-361.953343227660980
  0
LINE
  8
0
  6
DASHDOT
 62
4
 10
206.723564714910370
 20
-38.854317460687753
 11
159.593420656107240
 21
-38.854317460687753
  0
LINE
  8
0
  6
DASHDOT
 62
4
 10
206.723564714910370
 20
-357.052368994634210
 11
159.593420656107240
 21
-357.052368994634210
  0
LINE
  8
0
  6
CONTINUOUS
 62
3
 10
168.428702015026260
 20
-105.468883988627790
 11
148.957803593275800
 21
-105.468883988627790
  0
LINE
  8
0
  6
CONTINUOUS
 62
3
 10
146.010077956663620
 20
-95.913792691279241
 11
172.726279453055550
 21
-63.374849575855706
  0
LINE
  8
0
  6
CONTINUOUS
 62
3
 10
146.010077956663620
 20
-103.641714752637420
 11
172.726279453055550
 21
-71.102771637213891
  0
LINE
  8
0
  6
CONTINUOUS
 62
3
 10
145.895647542327310
 20
-76.392357232008862
 11
173.192063715058230
 21
-29.113577556294103
  0
LINE
  8
0
  6
CONTINUOUS
 62
3
 10
25.361936696136013
 20
-82.953343227660980
 11
4.861936696136013
 21
-82.953343227660980
  0
LINE
  8
0
  6
CONTINUOUS
 62
3
 10
15.861936696136013
 20
-389.953343227660980
 11
25.361936696136013
 21
-389.953343227660980
  0
LINE
  8
0
  6
CONTINUOUS
 62
3
 10
201.061936696136290
 20
-168.953343227661660
 11
197.861936696136010
 21
-168.953343227661660
  0
LINE
  8
0
  6
CONTINUOUS
 62
3
 10
201.061936696136290
 20
-226.953343227661890
 11
197.861936696136010
 21
-226.953343227661890
  0
LINE
  8
0
  6
DASHDOT
 62
4
 10
288.939571635209750
 20
-197.953343227660980
 11
150.197206314659870
 21
-197.953343227660980
  0
INSERT
  8
0
  2
SYM10
 10
-2.638063303866716
 20
-95.953343227660980
  0
INSERT
  8
0
  2
SYM9
 10
12.861935735607744
 20
-379.014586451256720
  0
INSERT
  8
0
  2
SYM9
 10
12.861935735607744
 20
-277.867522831890480
  0
INSERT
  8
0
  2
SYM9
 10
12.861935735607744
 20
-177.867522831890480
  0
INSERT
  8
0
  2
SYM9
 10
12.861935735607744
 20
-102.367522831890480
  0
ENDSEC
  0
EOF
