  0
SECTION
  2
HEADER
  9
$FILLMODE
 70
1
  9
$TEXTSTYLE
  7
STANDARD1
  9
$ACADVER
  1
AC1009
  9
$DIMASZ
 40
1.931851648807023
  9
$DIMEXE
 40
2.000000000000000
  9
$DIMEXO
 40
1.000000000000000
  9
$DIMLFAC
 40
1.000000000000000
  9
$DIMSCALE
 40
1.000000000000000
  9
$DIMTAD
 70
1
  9
$DIMTFAC
 40
0.714285731315613
  9
$DIMTXT
 40
3.200000047683716
  9
$LUPREC
 70
3
  9
$TEXTSIZE
 40
3.299999952316284
  9
$REGENMODE
 70
1
  0
ENDSEC
  0
SECTION
  2
TABLES
  0
TABLE
  2
LTYPE
 70
4
  0
LTYPE
  2
CONTINUOUS
 70
64
  3
Solid line
 72
65
 73
0
 40
0.0
  0
LTYPE
  2
DASHED
 70
64
  3
-- -- -- -- -- -- -- -- -- -- -- -- -- -- --
 72
65
 73
2
 40
0.75
 49
0.5
 49
-0.25
  0
LTYPE
  2
DASHDOT
 70
64
  3
__ . __ . __ . __ . __ . __ . __ . __ . __ . __
 72
65
 73
4
 40
1.0
 49
0.5
 49
-0.25
 49
0.0
 49
-0.25
  0
LTYPE
  2
DIVIDE
 70
64
  3
__ . . __ . . __ . . __ . . __ . . __ . . __
 72
65
 73
6
 40
1.25
 49
0.5
 49
-0.25
 49
0.0
 49
-0.25
 49
0.0
 49
-0.25
  0
ENDTAB
  0
TABLE
  2
LAYER
 70
1
  0
LAYER
  2
0
 70
64
 62
2
  6
CONTINUOUS
  0
ENDTAB
  0
TABLE
  2
STYLE
 70
4
  0
STYLE
  2
STANDARD1
 70
64
 40
0.0
 41
1.0
 50
0.0
 71
0
 42
3.299999952316284
  3
MONOTXT
  4
BIGFONT
  0
STYLE
  2
STANDARD2
 70
68
 40
0.0
 41
1.0
 50
0.0
 71
0
 42
3.299999952316284
  3
MONOTXT
  4
BIGFONT
  0
STYLE
  2
STANDARD3
 70
64
 40
0.0
 41
1.0
 50
0.0
 71
0
 42
3.299999952316284
  3
MONOTXT
  4

  0
STYLE
  2
STANDARD4
 70
68
 40
0.0
 41
1.0
 50
0.0
 71
0
 42
3.299999952316284
  3
MONOTXT
  4

  0
ENDTAB
  0
TABLE
  2
VIEW
 70
0
  0
ENDTAB
  0
ENDSEC
  0
SECTION
  2
BLOCKS
  0
BLOCK
  8
0
  2
SYM1
 70
64
 10
0.000000000000000
 20
0.000000000000000
  0
ARC
  8
0
  6
CONTINUOUS
 62
3
 10
4.250000000000000
 20
-0.000017508195015
 40
9.750000000000000
 50
157.379852817599810
 51
202.619583464422590
  0
ARC
  8
0
  6
CONTINUOUS
 62
3
 10
-2.779975891113281
 20
5.625011444091797
 40
2.720000267028809
 50
179.999745461767870
 51
223.599738934167330
  0
ARC
  8
0
  6
CONTINUOUS
 62
3
 10
-2.780022621154785
 20
-5.624988555908203
 40
2.720000267028809
 50
136.399751989368410
 51
179.999745461767870
  0
LINE
  8
0
  6
CONTINUOUS
 62
3
 10
-4.749979019169359
 20
3.750014305102241
 11
0.000017610677105
 21
3.749996185290124
  0
LINE
  8
0
  6
CONTINUOUS
 62
3
 10
-4.750011996199395
 20
-3.749974250803856
 11
-0.000011530566302
 21
-3.749994277972148
  0
LINE
  8
0
  6
CONTINUOUS
 62
3
 10
0.000030896794669
 20
7.500000000000000
 11
-0.000030896794669
 21
-7.500000000000000
  0
LINE
  8
0
  6
CONTINUOUS
 62
3
 10
-4.749964714019825
 20
7.500017166133830
 11
0.000031348552056
 21
7.499999046315238
  0
LINE
  8
0
  6
CONTINUOUS
 62
3
 10
-5.499983083855739
 20
6.300024529816085
 11
-4.749977372865317
 21
7.500023360260684
  0
LINE
  8
0
  6
CONTINUOUS
 62
3
 10
-5.500023365026398
 20
-6.299976341312318
 11
-5.499970912939614
 21
6.300019271785827
  0
LINE
  8
0
  6
CONTINUOUS
 62
3
 10
-4.750049139977591
 20
-7.499993996888350
 11
-5.500046248261697
 21
-6.299990408291990
  0
LINE
  8
0
  6
CONTINUOUS
 62
3
 10
-0.000030423851130
 20
-7.499999046330735
 11
-4.750025899805295
 21
-7.499979019174840
  0
POINT
  8
0
  6
CONTINUOUS
 62
3
 10
0.000000000000000
 20
0.000000000000000
  0
ENDBLK
  8
0
  0
BLOCK
  8
0
  2
SYM2
 70
64
 10
0.000000000000000
 20
0.000000000000000
  0
POINT
  8
0
  6
CONTINUOUS
 62
3
 10
0.000000000000000
 20
0.000000000000000
  0
LINE
  8
0
  6
CONTINUOUS
 62
3
 10
0.000000000000000
 20
8.000000000000000
 11
0.000000000000000
 21
-8.000000000000000
  0
LINE
  8
0
  6
CONTINUOUS
 62
3
 10
-10.000000476827037
 20
6.960612565696465
 11
-9.999999523152582
 21
-6.960911482155097
  0
LINE
  8
0
  6
CONTINUOUS
 62
3
 10
0.000000000000000
 20
8.000000000000000
 11
-9.399999618530273
 21
8.000000000000000
  0
LINE
  8
0
  6
CONTINUOUS
 62
3
 10
-0.000000000000000
 20
-8.000000000000000
 11
-9.399999618530273
 21
-8.000000000000000
  0
POINT
  8
0
  6
CONTINUOUS
 62
3
 10
0.000000000000000
 20
0.000000000000000
  0
LINE
  8
0
  6
CONTINUOUS
 62
3
 10
-9.399995837072993
 20
7.999998091430371
 11
-9.999996234594676
 21
6.960609445139085
  0
LINE
  8
0
  6
CONTINUOUS
 62
3
 10
-9.399998831389837
 20
-7.999998896492343
 11
-9.999998372115272
 21
-6.960910396167719
  0
LINE
  8
0
  6
CONTINUOUS
 62
3
 10
-9.399999618530273
 20
8.000000000000000
 11
-9.399999618530273
 21
-8.000000000000000
  0
ENDBLK
  8
0
  0
BLOCK
  8
0
  2
SYM3
 70
64
 10
0.000000000000000
 20
0.000000000000000
  0
POINT
  8
0
  6
CONTINUOUS
 62
3
 10
0.000000000000000
 20
0.000000000000000
  0
LINE
  8
0
  6
CONTINUOUS
 62
3
 10
0.000000000000000
 20
-6.500000000000000
 11
-0.000000000000000
 21
6.500000000000000
  0
LINE
  8
0
  6
CONTINUOUS
 62
3
 10
-7.999999046325684
 20
5.633875846862793
 11
-7.999999046325684
 21
-5.634070396423340
  0
LINE
  8
0
  6
CONTINUOUS
 62
3
 10
0.000000000000000
 20
6.500000000000000
 11
-7.499999046325684
 21
6.500000000000000
  0
LINE
  8
0
  6
CONTINUOUS
 62
3
 10
-0.000000000000000
 20
-6.500000000000000
 11
-7.499998092651367
 21
-6.500000000000000
  0
LINE
  8
0
  6
CONTINUOUS
 62
3
 10
-7.499999203818277
 20
6.499999909101064
 11
-7.999999021366804
 21
5.633876130311293
  0
LINE
  8
0
  6
CONTINUOUS
 62
3
 10
-7.499997911632022
 20
-6.499999445138201
 11
-7.999998623386432
 21
-5.634070287011241
  0
LINE
  8
0
  6
CONTINUOUS
 62
3
 10
-7.499999046325684
 20
6.500000000000000
 11
-7.499999046325684
 21
-6.500000000000000
  0
ENDBLK
  8
0
  0
BLOCK
  8
0
  2
SYM4
 70
64
 10
0.000000000000000
 20
0.000000000000000
  0
CIRCLE
  8
0
  6
CONTINUOUS
 62
3
 10
0.000000000000000
 20
0.000000000000000
 40
5.633955001831055
  0
CIRCLE
  8
0
  6
CONTINUOUS
 62
3
 10
0.000000000000000
 20
0.000000000000000
 40
6.500000000000000
  0
POINT
  8
0
  6
CONTINUOUS
 62
3
 10
0.000000000000000
 20
0.000000000000000
  0
LINE
  8
0
  6
CONTINUOUS
 62
3
 10
-2.999996662140960
 20
-1.732045999551255
 11
-2.999997615815242
 21
1.732051977133316
  0
LINE
  8
0
  6
CONTINUOUS
 62
3
 10
2.999996662140697
 20
1.732046953225571
 11
2.999997615814979
 21
-1.732051023458999
  0
LINE
  8
0
  6
CONTINUOUS
 62
3
 10
0.000006701720849
 20
3.464096999935236
 11
-2.999997939551520
 21
1.732051821705568
  0
LINE
  8
0
  6
CONTINUOUS
 62
3
 10
2.999998112093635
 20
-1.732051392778772
 11
-0.000004464412200
 21
-3.464098365415111
  0
LINE
  8
0
  6
CONTINUOUS
 62
3
 10
0.000006618601731
 20
3.464096896385627
 11
2.999997425948948
 21
1.732046782136365
  0
LINE
  8
0
  6
CONTINUOUS
 62
3
 10
-0.000004704988612
 20
-3.464098175748802
 11
-2.999997577100373
 21
-1.732046218032735
  0
POINT
  8
0
  6
CONTINUOUS
 62
3
 10
0.500000119209290
 20
6.500000000000000
  0
POINT
  8
0
  6
CONTINUOUS
 62
3
 10
0.000000000000000
 20
5.633955001831055
  0
ENDBLK
  8
0
  0
BLOCK
  8
0
  2
SYM5
 70
64
 10
0.000000000000000
 20
0.000000000000000
  0
CIRCLE
  8
0
  6
CONTINUOUS
 62
3
 10
0.000000000000000
 20
0.000000000000000
 40
6.960738182067871
  0
CIRCLE
  8
0
  6
CONTINUOUS
 62
3
 10
0.000000000000000
 20
0.000000000000000
 40
8.000000000000000
  0
POINT
  8
0
  6
CONTINUOUS
 62
3
 10
0.000000000000000
 20
0.000000000000000
  0
LINE
  8
0
  6
CONTINUOUS
 62
3
 10
-3.999997139938404
 20
-2.309395532903077
 11
-3.999999047287009
 21
2.314052838984130
  0
LINE
  8
0
  6
CONTINUOUS
 62
3
 10
3.999998569010026
 20
2.314043870120289
 11
3.999999522684329
 21
-2.309402594418285
  0
LINE
  8
0
  6
CONTINUOUS
 62
3
 10
3.999998221725946
 20
2.314044355750525
 11
0.000007450274552
 21
4.623449687881021
  0
LINE
  8
0
  6
CONTINUOUS
 62
3
 10
-0.000006538738603
 20
-4.618798907292330
 11
-3.999997310189656
 21
-2.309395428508765
  0
LINE
  8
0
  6
CONTINUOUS
 62
3
 10
-3.999998875528718
 20
2.314052870410592
 11
0.000007037532896
 21
4.623449279581905
  0
LINE
  8
0
  6
CONTINUOUS
 62
3
 10
3.999999097720604
 20
-2.309402025869701
 11
-0.000006540038783
 21
-4.618798985645469
  0
ENDBLK
  8
0
  0
BLOCK
  8
0
  2
SYM6
 70
64
 10
0.000000000000000
 20
0.000000000000000
  0
POINT
  8
0
  6
CONTINUOUS
 62
3
 10
0.000000000000000
 20
0.000000000000000
  0
LINE
  8
0
  6
CONTINUOUS
 62
3
 10
0.002401208367701
 20
-7.504162813807056
 11
-6.495187652077846
 21
-3.749994904254493
  0
LINE
  8
0
  6
CONTINUOUS
 62
3
 10
-6.495189094719432
 20
-3.749993872743451
 11
-6.497592351816327
 21
3.754165100950397
  0
LINE
  8
0
  6
CONTINUOUS
 62
3
 10
-6.497593715787616
 20
3.754167812298078
 11
-0.002401379516073
 21
7.504164176415429
  0
LINE
  8
0
  6
CONTINUOUS
 62
3
 10
-0.002401208367701
 20
7.504162813807056
 11
6.495187652077846
 21
3.749994904254493
  0
LINE
  8
0
  6
CONTINUOUS
 62
3
 10
6.495189094719432
 20
3.749993872743451
 11
6.497592351816327
 21
-3.754165100950397
  0
LINE
  8
0
  6
CONTINUOUS
 62
3
 10
6.497593715787616
 20
-3.754167812298078
 11
0.002401379516073
 21
-7.504164176415429
  0
CIRCLE
  8
0
  6
CONTINUOUS
 62
3
 10
0.000000000000000
 20
0.000000000000000
 40
6.500000000000000
  0
ENDBLK
  8
0
  0
BLOCK
  8
0
  2
SYM7
 70
64
 10
0.000000000000000
 20
0.000000000000000
  0
POINT
  8
0
  6
CONTINUOUS
 62
3
 10
0.000000000000000
 20
0.000000000000000
  0
LINE
  8
0
  6
CONTINUOUS
 62
3
 10
0.002401208367701
 20
-7.504162813807056
 11
-6.495187652077846
 21
-3.749994904254493
  0
LINE
  8
0
  6
CONTINUOUS
 62
3
 10
-6.495189094719432
 20
-3.749993872743451
 11
-6.497592351816327
 21
3.754165100950397
  0
LINE
  8
0
  6
CONTINUOUS
 62
3
 10
-6.497593715787616
 20
3.754167812298078
 11
-0.002401379516073
 21
7.504164176415429
  0
LINE
  8
0
  6
CONTINUOUS
 62
3
 10
-0.002401208367701
 20
7.504162813807056
 11
6.495187652077846
 21
3.749994904254493
  0
LINE
  8
0
  6
CONTINUOUS
 62
3
 10
6.495189094719432
 20
3.749993872743451
 11
6.497592351816327
 21
-3.754165100950397
  0
LINE
  8
0
  6
CONTINUOUS
 62
3
 10
6.497593715787616
 20
-3.754167812298078
 11
0.002401379516073
 21
-7.504164176415429
  0
CIRCLE
  8
0
  6
CONTINUOUS
 62
3
 10
0.000000000000000
 20
0.000000000000000
 40
6.500000000000000
  0
ENDBLK
  8
0
  0
ENDSEC
  0
SECTION
  2
ENTITIES
  0
LINE
  8
0
  6
CONTINUOUS
 62
3
 10
467.115671633631340
 20
-209.552217022675900
 11
477.115671633631340
 21
-209.552217022675900
  0
LINE
  8
0
  6
CONTINUOUS
 62
3
 10
467.115671633631340
 20
-193.552217022675900
 11
477.115671633631340
 21
-193.552217022675900
  0
LINE
  8
0
  6
CONTINUOUS
 62
3
 10
467.115671633631340
 20
-193.552217022675900
 11
467.115671633631340
 21
-209.552217022675900
  0
LINE
  8
0
  6
CONTINUOUS
 62
3
 10
477.115671633631340
 20
-193.552217022675900
 11
477.115671633631340
 21
-209.552217022675900
  0
ARC
  8
0
  6
CONTINUOUS
 62
3
 10
498.615671633631340
 20
-201.552217022675900
 40
27.499999999999982
 50
196.912389803425840
 51
163.087610196574160
  0
ARC
  8
0
  6
CONTINUOUS
 62
3
 10
-548.923548595250050
 20
-163.625452882865740
 40
6.099999427795394
 50
84.601927898109537
 51
185.398089404735120
  0
POINT
  8
0
  6
CONTINUOUS
 62
3
 10
-551.186290160177120
 20
-161.362711317938700
  0
LINE
  8
0
  6
CONTINUOUS
 62
3
 10
-554.509691896883960
 20
-164.686113054645570
 11
-547.862888423470280
 21
-158.039309581231830
  0
LINE
  8
0
  6
CONTINUOUS
 62
3
 10
-554.822830505852720
 20
-164.433566103795190
 11
-548.145731203379800
 21
-157.756466801322260
  0
LINE
  8
0
  6
CONTINUOUS
 62
3
 10
-547.862888423470280
 20
-158.039309581231830
 11
-548.349691815175900
 21
-157.552506189526240
  0
LINE
  8
0
  6
CONTINUOUS
 62
3
 10
-554.509691896883960
 20
-164.686113054645570
 11
-554.996495288589590
 21
-164.199309662939950
  0
ARC
  8
0
  6
CONTINUOUS
 62
3
 10
-548.923548595250050
 20
-262.478981162485070
 40
6.099999427795400
 50
174.601910595264630
 51
275.398072101890420
  0
POINT
  8
0
  6
CONTINUOUS
 62
3
 10
-551.186290160177120
 20
-264.741722727412080
  0
LINE
  8
0
  6
CONTINUOUS
 62
3
 10
-554.509691896883960
 20
-261.418320990705240
 11
-547.862888423470280
 21
-268.065124464118920
  0
LINE
  8
0
  6
CONTINUOUS
 62
3
 10
-554.822830505852720
 20
-261.670867941555570
 11
-548.145731203379800
 21
-268.347967244028500
  0
LINE
  8
0
  6
CONTINUOUS
 62
3
 10
-547.862888423470280
 20
-268.065124464118920
 11
-548.349691815175900
 21
-268.551927855824540
  0
LINE
  8
0
  6
CONTINUOUS
 62
3
 10
-554.509691896883960
 20
-261.418320990705240
 11
-554.996495288589590
 21
-261.905124382410860
  0
ARC
  8
0
  6
CONTINUOUS
 62
3
 10
-450.070020315630930
 20
-262.478981162485070
 40
6.099999427795406
 50
264.601927898108500
 51
5.398089404735375
  0
POINT
  8
0
  6
CONTINUOUS
 62
3
 10
-447.807278750703920
 20
-264.741722727412080
  0
LINE
  8
0
  6
CONTINUOUS
 62
3
 10
-444.483877013997070
 20
-261.418320990705240
 11
-451.130680487410760
 21
-268.065124464118920
  0
LINE
  8
0
  6
CONTINUOUS
 62
3
 10
-444.170738405028260
 20
-261.670867941555570
 11
-450.847837707501180
 21
-268.347967244028500
  0
LINE
  8
0
  6
CONTINUOUS
 62
3
 10
-451.130680487410760
 20
-268.065124464118920
 11
-450.643877095705140
 21
-268.551927855824540
  0
LINE
  8
0
  6
CONTINUOUS
 62
3
 10
-444.483877013997070
 20
-261.418320990705240
 11
-443.997073622291450
 21
-261.905124382410860
  0
ARC
  8
0
  6
CONTINUOUS
 62
3
 10
-450.070020315630930
 20
-163.625452882865740
 40
6.099999427795398
 50
354.601910595264880
 51
95.398072101891529
  0
POINT
  8
0
  6
CONTINUOUS
 62
3
 10
-447.807278750703920
 20
-161.362711317938700
  0
LINE
  8
0
  6
CONTINUOUS
 62
3
 10
-444.483877013997070
 20
-164.686113054645570
 11
-451.130680487410760
 21
-158.039309581231830
  0
LINE
  8
0
  6
CONTINUOUS
 62
3
 10
-444.170738405028260
 20
-164.433566103795190
 11
-450.847837707501180
 21
-157.756466801322260
  0
LINE
  8
0
  6
CONTINUOUS
 62
3
 10
-451.130680487410760
 20
-158.039309581231830
 11
-450.643877095705140
 21
-157.552506189526240
  0
LINE
  8
0
  6
CONTINUOUS
 62
3
 10
-444.483877013997070
 20
-164.686113054645570
 11
-443.997073622291450
 21
-164.199309662939950
  0
ARC
  8
0
  6
CONTINUOUS
 62
3
 10
-27.964450706532375
 20
-345.195995621605450
 40
5.000000000000000
 50
0.000000000000000
 51
27.575223151408750
  0
ARC
  8
0
  6
CONTINUOUS
 62
3
 10
-55.782201972534381
 20
-287.608986374806930
 40
2.999999999999671
 50
27.575223151409268
 51
90.000000000000000
  0
LINE
  8
0
  6
CONTINUOUS
 62
3
 10
-45.876282133103700
 20
-284.608986374806820
 11
-53.122990443585536
 21
-284.608986374806930
  0
LINE
  8
0
  6
CONTINUOUS
 62
3
 10
-56.964450706533512
 20
-283.921932823832550
 11
-56.964450706532830
 21
-238.037281955160890
  0
LINE
  8
0
  6
CONTINUOUS
 62
3
 10
-48.771729105097279
 20
-294.552217022675110
 11
-51.964450706532375
 21
-294.552217022675110
  0
LINE
  8
0
  6
CONTINUOUS
 62
3
 10
-43.674725655495536
 20
-286.175108921927630
 11
-28.464432851547031
 21
-318.793687102971830
  0
LINE
  8
0
  6
CONTINUOUS
 62
3
 10
-56.964450706532375
 20
-283.921932823832440
 11
-56.964450706532375
 21
-289.552217022675110
  0
ARC
  8
0
  6
CONTINUOUS
 62
3
 10
-51.964450706532375
 20
-289.552217022675110
 40
5.000000000000000
 50
180.000000000000000
 51
270.000000000000000
  0
ARC
  8
0
  6
CONTINUOUS
 62
3
 10
-61.964450706533285
 20
-283.921932823832440
 40
5.000000000000909
 50
0.000000000000000
 51
87.999999999998934
  0
ARC
  8
0
  6
CONTINUOUS
 62
3
 10
-75.464450706533739
 20
-275.028004074216480
 40
3.000000000000000
 50
0.000000000000000
 51
86.999999999998678
  0
LINE
  8
0
  6
CONTINUOUS
 62
3
 10
-61.789953223020689
 20
-278.924978688737040
 11
-69.569149196641206
 21
-278.653323179311090
  0
LINE
  8
0
  6
CONTINUOUS
 62
3
 10
-72.464450706533739
 20
-275.655150698253810
 11
-72.464450706533739
 21
-275.028004074216480
  0
LINE
  8
0
  6
CONTINUOUS
 62
3
 10
-59.807442837804388
 20
-272.844436048841200
 11
-84.464450706536013
 21
-271.552217022674880
  0
ARC
  8
0
  6
CONTINUOUS
 62
3
 10
-69.464450706533739
 20
-275.655150698253810
 40
3.000000000000000
 50
180.000000000000000
 51
268.000000000000680
  0
ARC
  8
0
  6
CONTINUOUS
 62
3
 10
-59.964450706533285
 20
-275.840324653104860
 40
3.000000000000000
 50
359.999999999997780
 51
86.999999999998678
  0
LINE
  8
0
  6
CONTINUOUS
 62
3
 10
-26.646694105960592
 20
-322.691840422560180
 11
-22.964450706532375
 21
-330.588436875634780
  0
LINE
  8
0
  6
CONTINUOUS
 62
3
 10
-53.122990443585536
 20
-286.220248082577770
 11
-23.532431491617245
 21
-342.881431801223360
  0
LINE
  8
0
  6
DASHDOT
 62
4
 10
-324.900282139721870
 20
-376.148719338390090
 11
-358.575442369848470
 21
-342.473559108263320
  0
ARC
  8
0
  6
DASHDOT
 62
4
 10
-499.496784455440490
 20
-201.552217022671390
 40
225.000000000000030
 50
308.322603677395250
 51
321.350396911734040
  0
LINE
  8
0
  6
DASHDOT
 62
4
 10
-324.900282139721870
 20
-26.955714706953152
 11
-358.575442369848470
 21
-60.630874937079923
  0
ARC
  8
0
  6
DASHDOT
 62
4
 10
-499.496784455440490
 20
-201.552217022671840
 40
224.999999999999940
 50
38.649603088265962
 51
51.677396322604757
  0
LINE
  8
0
  6
DASHDOT
 62
4
 10
-674.093286771159110
 20
-26.955714706953131
 11
-640.418126541032510
 21
-60.630874937079909
  0
ARC
  8
0
  6
DASHDOT
 62
4
 10
-499.496784455440490
 20
-201.552217022671840
 40
225.000000000000030
 50
128.322603677395250
 51
141.350396911734040
  0
ARC
  8
0
  6
DASHDOT
 62
4
 10
-499.496784455440490
 20
-201.552217022671390
 40
224.999999999999970
 50
218.649603088265960
 51
231.677396322604750
  0
LINE
  8
0
  6
DASHDOT
 62
4
 10
-674.093286771159110
 20
-376.148719338390090
 11
-640.418126541032510
 21
-342.473559108263320
  0
LINE
  8
0
  6
DASHDOT
 62
4
 10
7.259768053911102
 20
-99.552217022675677
 11
-23.248990944084653
 21
-99.552217022675677
  0
LINE
  8
0
  6
CONTINUOUS
 62
3
 10
-84.464450706532489
 20
-154.552217022675450
 11
-84.464450706532489
 21
-271.552217022675450
  0
INSERT
  8
0
  2
SYM1
 10
-22.964450706532489
 20
-315.191827329464790
 41
-1.000000000000000
 50
180.000000000000000
  0
INSERT
  8
0
  2
SYM1
 10
-22.964450706532489
 20
-187.912606715886570
  0
INSERT
  8
0
  2
SYM2
 10
12.535548332939015
 20
-105.966396626905180
  0
INSERT
  8
0
  2
SYM2
 10
12.535548332939015
 20
-181.466396626905180
  0
INSERT
  8
0
  2
SYM2
 10
12.535548332939015
 20
-281.466396626905180
  0
INSERT
  8
0
  2
SYM2
 10
12.535548332939015
 20
-382.613460246271420
  0
INSERT
  8
0
  2
SYM3
 10
-2.964450706535445
 20
-99.552217022675677
  0
LINE
  8
0
  6
CONTINUOUS
 62
3
 10
24.535549293467284
 20
-251.552217022675680
 11
24.535549293467284
 21
-393.552217022675680
  0
ARC
  8
0
  6
CONTINUOUS
 62
3
 10
15.535549293467284
 20
-390.552217022675680
 40
3.000000000000000
 50
180.000000000000000
 51
270.000000000000000
  0
LINE
  8
0
  6
CONTINUOUS
 62
3
 10
6.535549293467284
 20
-261.552217022675680
 11
6.535549293467284
 21
-241.552217022675680
  0
ARC
  8
0
  6
CONTINUOUS
 62
3
 10
9.535549293467284
 20
-241.552217022675680
 40
3.000000000000000
 50
90.000000000000000
 51
180.000000000000000
  0
ARC
  8
0
  6
CONTINUOUS
 62
3
 10
9.535549293467284
 20
-261.552217022675680
 40
3.000000000000000
 50
180.000000000000000
 51
270.000000000000000
  0
ARC
  8
0
  6
CONTINUOUS
 62
3
 10
9.535549293467284
 20
-235.552217022675680
 40
3.000000000000000
 50
270.000000000000000
 51
0.000000000000000
  0
ARC
  8
0
  6
CONTINUOUS
 62
3
 10
9.535549293467284
 20
-267.552217022675680
 40
3.000000000000000
 50
0.000000000000000
 51
90.000000000000000
  0
ARC
  8
0
  6
CONTINUOUS
 62
3
 10
15.535549293467284
 20
-89.552217022675677
 40
3.000000000000000
 50
90.000000000000000
 51
180.000000000000000
  0
LINE
  8
0
  6
CONTINUOUS
 62
3
 10
24.535549293467284
 20
-251.552217022675680
 11
24.535549293467284
 21
-86.552217022675677
  0
LINE
  8
0
  6
CONTINUOUS
 62
3
 10
12.535549293467284
 20
-390.552217022675680
 11
12.535549293467284
 21
-267.552217022675680
  0
LINE
  8
0
  6
CONTINUOUS
 62
3
 10
12.535549293467284
 20
-235.552217022675680
 11
12.535549293467284
 21
-89.552217022675677
  0
ARC
  8
0
  6
CONTINUOUS
 62
3
 10
7.535549293467284
 20
-357.528622669402240
 40
5.000000000000000
 50
0.000000000000000
 51
86.999999999994429
  0
LINE
  8
0
  6
CONTINUOUS
 62
3
 10
7.797229074682491
 20
-352.535474995629330
 11
-12.964450706532716
 21
-351.447401464109820
  0
ARC
  8
0
  6
CONTINUOUS
 62
3
 10
-0.464450706532716
 20
-145.995073610214380
 40
5.000000000000066
 50
273.000000000005570
 51
0.000000000000000
  0
ARC
  8
0
  6
CONTINUOUS
 62
3
 10
4.535549293467284
 20
-89.552217022675677
 40
3.000000000000000
 50
90.000000000000000
 51
180.000000000000000
  0
LINE
  8
0
  6
CONTINUOUS
 62
3
 10
4.535549293467284
 20
-145.995073610214380
 11
4.535549293467284
 21
-114.797215021074180
  0
LINE
  8
0
  6
CONTINUOUS
 62
3
 10
7.797229074682491
 20
-150.568959049722930
 11
-12.964450706532716
 21
-151.657032581242450
  0
ARC
  8
0
  6
CONTINUOUS
 62
3
 10
-0.464450706532716
 20
-114.797215021074180
 40
5.000000000000000
 50
0.000000000000000
 51
9.564841603927883
  0
LINE
  8
0
  6
CONTINUOUS
 62
3
 10
1.535549293467341
 20
-109.552217022675670
 11
1.535549293467284
 21
-89.552217022675677
  0
ARC
  8
0
  6
CONTINUOUS
 62
3
 10
7.535549293467284
 20
-145.575811375950020
 40
5.000000000000066
 50
273.000000000005570
 51
0.000000000000000
  0
LINE
  8
0
  6
CONTINUOUS
 62
3
 10
-2.964450706536354
 20
-109.552217022675670
 11
-2.964450706532716
 21
-51.552217022675677
  0
LINE
  8
0
  6
CONTINUOUS
 62
3
 10
1.535549293467284
 20
-51.552217022675677
 11
1.535549293467284
 21
-97.966396626905180
  0
LINE
  8
0
  6
CONTINUOUS
 62
3
 10
-2.964450706536354
 20
-109.552217022675670
 11
1.535549293467398
 21
-109.552217022675670
  0
LINE
  8
0
  6
CONTINUOUS
 62
3
 10
7.797229074682491
 20
-153.464143491157070
 11
-12.964450706532716
 21
-154.552217022676590
  0
ARC
  8
0
  6
CONTINUOUS
 62
3
 10
7.535549293467284
 20
-148.470995817384160
 40
5.000000000000066
 50
273.000000000005570
 51
0.000000000000000
  0
LINE
  8
0
  6
CONTINUOUS
 62
3
 10
25.035549293467284
 20
-334.552217022675680
 11
168.710046776980110
 21
-339.569441031139600
  0
LINE
  8
0
  6
CONTINUOUS
 62
3
 10
25.035549293467284
 20
-86.552197313464376
 11
25.035549293467284
 21
-393.552217022675680
  0
LINE
  8
0
  6
CONTINUOUS
 62
3
 10
25.035549293467284
 20
-86.552197313464376
 11
160.200343458544920
 21
-81.832138693026536
  0
LINE
  8
0
  6
DASHDOT
 62
4
 10
69.035549293467284
 20
-309.552217022675680
 11
21.035549293467284
 21
-309.552217022675680
  0
LINE
  8
0
  6
CONTINUOUS
 62
3
 10
175.535549293467280
 20
-398.552217022675680
 11
25.035549293467284
 21
-393.552217022675680
  0
LINE
  8
0
  6
CONTINUOUS
 62
3
 10
25.035549293467284
 20
-86.552217022675677
 11
4.535549293467284
 21
-86.552217022675677
  0
LINE
  8
0
  6
CONTINUOUS
 62
3
 10
15.535549293467284
 20
-393.552217022675680
 11
25.035549293467284
 21
-393.552217022675680
  0
LINE
  8
0
  6
CONTINUOUS
 62
3
 10
-84.464450706532489
 20
-154.552217022675680
 11
-84.464450706532489
 21
-271.552217022675790
  0
LINE
  8
0
  6
CONTINUOUS
 62
3
 10
-120.014450706533580
 20
-170.455609382069330
 11
-155.464450706532380
 21
-170.455609382069330
  0
ARC
  8
0
  6
CONTINUOUS
 62
3
 10
-120.014450706533580
 20
-181.455609382069330
 40
11.000000000000000
 50
0.000000000000000
 51
90.000000000000000
  0
ARC
  8
0
  6
CONTINUOUS
 62
4
 10
-120.414450706533210
 20
-188.052217022675050
 40
5.000000000000000
 50
0.000000000000000
 51
90.000000000000000
  0
LINE
  8
0
  6
CONTINUOUS
 62
4
 10
-155.464450706532380
 20
-183.052217022675050
 11
-120.414450706533210
 21
-183.052217022675050
  0
ARC
  8
0
  6
CONTINUOUS
 62
3
 10
-120.414450706533210
 20
-181.550427585567890
 40
5.000000000000000
 50
0.000000000000000
 51
90.000000000000000
  0
LINE
  8
0
  6
CONTINUOUS
 62
3
 10
-155.464450706532380
 20
-176.550427585567890
 11
-120.414450706533210
 21
-176.550427585567890
  0
LINE
  8
0
  6
CONTINUOUS
 62
3
 10
-109.014450706533580
 20
-181.455609382069330
 11
-109.014450706533580
 21
-263.058328750325070
  0
LINE
  8
0
  6
CONTINUOUS
 62
3
 10
-115.414450706533210
 20
-181.550427585567890
 11
-115.414450706533210
 21
-257.628171792227990
  0
ARC
  8
0
  6
CONTINUOUS
 62
3
 10
-120.414450706533210
 20
-257.628171792227990
 40
5.000000000000000
 50
270.000000000000000
 51
0.000000000000000
  0
LINE
  8
0
  6
CONTINUOUS
 62
3
 10
-120.014450706533580
 20
-272.838118821097910
 11
-155.464450706532380
 21
-272.838118821097910
  0
LINE
  8
0
  6
CONTINUOUS
 62
3
 10
-120.014450706533580
 20
-274.058328750325070
 11
-155.464450706532380
 21
-274.058328750325070
  0
ARC
  8
0
  6
CONTINUOUS
 62
3
 10
-120.014450706533580
 20
-263.058328750325070
 40
11.000000000000000
 50
270.000000000000000
 51
0.000000000000000
  0
ARC
  8
0
  6
CONTINUOUS
 62
3
 10
-120.014450706533580
 20
-261.838118821097910
 40
11.000000000000000
 50
270.000000000000000
 51
0.000000000000000
  0
ARC
  8
0
  6
CONTINUOUS
 62
3
 10
-146.204232525919110
 20
-258.628171805078240
 40
4.000000000000156
 50
221.178434371117250
 51
270.000000000000000
  0
LINE
  8
0
  6
CONTINUOUS
 62
3
 10
-146.976976489139020
 20
-262.628171792227990
 11
-120.414450706533210
 21
-262.628171792227990
  0
LINE
  8
0
  6
CONTINUOUS
 62
4
 10
-141.030693976792580
 20
-231.285064266969190
 11
-155.464450706532380
 21
-231.285064266969190
  0
LINE
  8
0
  6
CONTINUOUS
 62
4
 10
-133.813815611922220
 20
-243.785064266969190
 11
-148.247572341662930
 21
-243.785064266969190
  0
LINE
  8
0
  6
CONTINUOUS
 62
4
 10
-141.030693976792580
 20
-231.285064266969190
 11
-133.813815611922220
 21
-243.785064266969190
  0
LINE
  8
0
  6
CONTINUOUS
 62
4
 10
-109.014450706533690
 20
-182.769782696106010
 11
-84.464450706532375
 21
-182.769782696106010
  0
LINE
  8
0
  6
CONTINUOUS
 62
4
 10
-109.014450706533690
 20
-188.222163565544920
 11
-84.464450706532375
 21
-188.222163565544920
  0
LINE
  8
0
  6
CONTINUOUS
 62
4
 10
-109.014450706533690
 20
-186.860283230195650
 11
-84.464450706532375
 21
-186.860283230195650
  0
LINE
  8
0
  6
CONTINUOUS
 62
4
 10
-109.014450706533690
 20
-193.052217022675280
 11
-84.464450706532375
 21
-193.052217022675280
  0
LINE
  8
0
  6
CONTINUOUS
 62
4
 10
-181.464450706532260
 20
-156.052217022675280
 11
-84.464450706532375
 21
-156.052217022675280
  0
LINE
  8
0
  6
CONTINUOUS
 62
4
 10
-181.464450706532260
 20
-155.552217022675280
 11
-84.464450706532375
 21
-155.552217022675280
  0
LINE
  8
0
  6
CONTINUOUS
 62
4
 10
-181.464450706532260
 20
-157.052217022675280
 11
-84.464450706532375
 21
-157.052217022675280
  0
LINE
  8
0
  6
CONTINUOUS
 62
4
 10
-181.464450706532260
 20
-158.052217022675280
 11
-84.464450706532375
 21
-158.052217022675280
  0
LINE
  8
0
  6
CONTINUOUS
 62
4
 10
-181.464450706532260
 20
-162.736682835899790
 11
-84.464450706532375
 21
-162.736682835899790
  0
LINE
  8
0
  6
CONTINUOUS
 62
4
 10
-181.464450706532260
 20
-167.686430304205540
 11
-84.464450706532375
 21
-167.686430304205540
  0
LINE
  8
0
  6
CONTINUOUS
 62
4
 10
-110.620191410141720
 20
-175.733031966939340
 11
-84.464450706532375
 21
-175.733031966939340
  0
LINE
  8
0
  6
CONTINUOUS
 62
4
 10
-109.814320480081160
 20
-177.337679882501390
 11
-84.464450706532375
 21
-177.337679882501390
  0
LINE
  8
0
  6
CONTINUOUS
 62
4
 10
-109.014450706533690
 20
-181.301425306300930
 11
-84.464450706532375
 21
-181.301425306300930
  0
LINE
  8
0
  6
CONTINUOUS
 62
3
 10
-84.464450706532375
 20
-154.552217022675280
 11
-181.464450706532260
 21
-154.552217022675280
  0
LINE
  8
0
  6
CONTINUOUS
 62
3
 10
-84.464450706532375
 20
-154.552217022675280
 11
-84.464450706532375
 21
-213.052217022675280
  0
LINE
  8
0
  6
CONTINUOUS
 62
4
 10
-109.014450706533690
 20
-243.334651349244550
 11
-84.464450706532375
 21
-243.334651349244550
  0
LINE
  8
0
  6
CONTINUOUS
 62
4
 10
-109.014450706533690
 20
-237.882270479805640
 11
-84.464450706532375
 21
-237.882270479805640
  0
LINE
  8
0
  6
CONTINUOUS
 62
4
 10
-109.014450706533690
 20
-239.244150815154910
 11
-84.464450706532375
 21
-239.244150815154910
  0
LINE
  8
0
  6
CONTINUOUS
 62
4
 10
-109.014450706533690
 20
-233.052217022675280
 11
-84.464450706532375
 21
-233.052217022675280
  0
LINE
  8
0
  6
CONTINUOUS
 62
4
 10
-111.524131111024640
 20
-270.052217022675280
 11
-84.464450706532375
 21
-270.052217022675280
  0
LINE
  8
0
  6
CONTINUOUS
 62
4
 10
-111.962020106923770
 20
-270.552217022675280
 11
-84.464450706532375
 21
-270.552217022675280
  0
LINE
  8
0
  6
CONTINUOUS
 62
4
 10
-110.790931672098730
 20
-269.052217022675280
 11
-84.464450706532375
 21
-269.052217022675280
  0
LINE
  8
0
  6
CONTINUOUS
 62
4
 10
-110.213375259253210
 20
-268.052217022675280
 11
-84.464450706532375
 21
-268.052217022675280
  0
LINE
  8
0
  6
CONTINUOUS
 62
4
 10
-109.014450706533690
 20
-263.367751209450770
 11
-84.464450706532375
 21
-263.367751209450770
  0
LINE
  8
0
  6
CONTINUOUS
 62
4
 10
-109.014450706533690
 20
-258.418003741145010
 11
-84.464450706532375
 21
-258.418003741145010
  0
LINE
  8
0
  6
CONTINUOUS
 62
4
 10
-109.014450706533690
 20
-250.371402078411220
 11
-84.464450706532375
 21
-250.371402078411220
  0
LINE
  8
0
  6
CONTINUOUS
 62
4
 10
-109.014450706533690
 20
-248.766754162849170
 11
-84.464450706532375
 21
-248.766754162849170
  0
LINE
  8
0
  6
CONTINUOUS
 62
4
 10
-109.014450706533690
 20
-244.803008739049630
 11
-84.464450706532375
 21
-244.803008739049630
  0
LINE
  8
0
  6
DASHDOT
 62
4
 10
-76.488453343143533
 20
-213.052217022675280
 11
-294.393663244878890
 21
-213.052217022675280
  0
LINE
  8
0
  6
CONTINUOUS
 62
3
 10
-84.464450706532375
 20
-271.552217022675280
 11
-113.024896928442210
 21
-271.552217022675280
  0
LINE
  8
0
  6
CONTINUOUS
 62
3
 10
-84.464450706532375
 20
-271.552217022675280
 11
-84.464450706532375
 21
-213.052217022675280
  0
ARC
  8
0
  6
CONTINUOUS
 62
3
 10
4.535549293467284
 20
-109.552217022675670
 40
3.000000000000000
 50
180.000000000000000
 51
228.189670711319850
  0
POINT
  8
0
  6
CONTINUOUS
 62
3
 10
-22.964450706532375
 20
-346.552217022674820
  0
LINE
  8
0
  6
DASHDOT
 62
4
 10
-42.964450706532375
 20
-179.296329014393960
 11
-42.964450706532375
 21
-150.656426753578500
  0
LINE
  8
0
  6
CONTINUOUS
 62
3
 10
-12.964450706532375
 20
-351.552217022674820
 11
-12.964450706532375
 21
-332.552217022674600
  0
ARC
  8
0
  6
CONTINUOUS
 62
3
 10
-19.964450706532375
 20
-348.552217022674820
 40
3.000000000000000
 50
180.000000000000000
 51
270.000000000000000
  0
LINE
  8
0
  6
CONTINUOUS
 62
3
 10
-19.964450706532375
 20
-351.552217022674820
 11
-12.964450706532375
 21
-351.552217022674820
  0
LINE
  8
0
  6
CONTINUOUS
 62
3
 10
-22.964450706532375
 20
-330.588436875634500
 11
-22.964450706532375
 21
-348.552217022674820
  0
LINE
  8
0
  6
CONTINUOUS
 62
3
 10
-12.964450706532375
 20
-180.552217022675050
 11
-12.964450706532375
 21
-335.052217022674820
  0
LINE
  8
0
  6
CONTINUOUS
 62
3
 10
-12.964450706532375
 20
-168.052217022674820
 11
-12.964450706532375
 21
-180.552217022675050
  0
ARC
  8
0
  6
CONTINUOUS
 62
3
 10
-19.964450706532375
 20
-154.552217022674820
 40
3.000000000000000
 50
90.000000000000000
 51
149.999999999998380
  0
LINE
  8
0
  6
CONTINUOUS
 62
3
 10
-60.464450706534024
 20
-201.552217022674820
 11
-25.964450706532375
 21
-201.552217022674820
  0
LINE
  8
0
  6
CONTINUOUS
 62
3
 10
-19.964450706532375
 20
-151.552217022674820
 11
-12.964450706532375
 21
-151.552217022674820
  0
LINE
  8
0
  6
CONTINUOUS
 62
3
 10
-12.964450706532375
 20
-151.552217022674820
 11
-12.964450706532375
 21
-198.834937450768450
  0
ARC
  8
0
  6
CONTINUOUS
 62
3
 10
-61.964450706532375
 20
-238.037281955160610
 40
4.999999999999545
 50
359.999999999998690
 51
90.000000000000000
  0
LINE
  8
0
  6
CONTINUOUS
 62
3
 10
-84.464450706531935
 20
-233.037281955160610
 11
-61.964450706532375
 21
-233.037281955160610
  0
LINE
  8
0
  6
CONTINUOUS
 62
3
 10
-65.464450706533839
 20
-193.052217022679260
 11
-84.464450706531935
 21
-193.052217022679260
  0
LINE
  8
0
  6
CONTINUOUS
 62
3
 10
-25.160603129238893
 20
-154.552217022674820
 11
-84.464450706532389
 21
-154.552217022674820
  0
ARC
  8
0
  6
CONTINUOUS
 62
3
 10
-25.964450706532375
 20
-198.552217022674820
 40
3.000000000000000
 50
270.000000000000000
 51
0.000000000000000
  0
ARC
  8
0
  6
CONTINUOUS
 62
3
 10
-60.464450706534024
 20
-196.552217022674820
 40
5.000000000000014
 50
179.999999999997410
 51
270.000000000000000
  0
ARC
  8
0
  6
CONTINUOUS
 62
3
 10
-25.160603129238893
 20
-151.552217022674820
 40
3.000000000000000
 50
270.000000000000000
 51
330.000000000000570
  0
LINE
  8
0
  6
CONTINUOUS
 62
3
 10
-84.464450706532389
 20
-154.552217022675280
 11
-84.464450706532389
 21
-271.552217022675390
  0
ARC
  8
0
  6
CONTINUOUS
 62
3
 10
-27.964450706532375
 20
-163.552217022675050
 40
5.000000000000000
 50
270.000000000000000
 51
0.000000000000000
  0
LINE
  8
0
  6
CONTINUOUS
 62
3
 10
-65.464450706534038
 20
-196.552217022674600
 11
-65.464450706531935
 21
-159.552217022675050
  0
ARC
  8
0
  6
CONTINUOUS
 62
3
 10
-60.464450706532830
 20
-163.552217022675050
 40
5.000000000000014
 50
179.999999999997410
 51
270.000000000000000
  0
ARC
  8
0
  6
CONTINUOUS
 62
3
 10
-70.464450706531935
 20
-159.552217022674820
 40
5.000000000000000
 50
359.999999999997390
 51
90.000000000000000
  0
LINE
  8
0
  6
CONTINUOUS
 62
3
 10
-27.964450706532375
 20
-168.552217022675050
 11
-60.964450706532830
 21
-168.552217022675050
  0
LINE
  8
0
  6
CONTINUOUS
 62
3
 10
-19.964450706532375
 20
-154.552217022674820
 11
-12.964450706532375
 21
-154.552217022674820
  0
ARC
  8
0
  6
CONTINUOUS
 62
3
 10
-19.964450706532375
 20
-157.552217022674820
 40
3.000000000000000
 50
90.000000000000000
 51
180.000000000000000
  0
LINE
  8
0
  6
CONTINUOUS
 62
3
 10
-22.964450706532375
 20
-153.595967138574510
 11
-22.964450706532375
 21
-157.552217022674820
  0
LINE
  8
0
  6
CONTINUOUS
 62
3
 10
-22.964450706532375
 20
-157.552217022674820
 11
-22.964450706532375
 21
-330.588436875634500
  0
ARC
  8
0
  6
CONTINUOUS
 62
3
 10
-19.964450706532375
 20
-345.552217022674820
 40
3.000000000000000
 50
180.000000000000000
 51
270.000000000000000
  0
LINE
  8
0
  6
CONTINUOUS
 62
3
 10
-19.964450706532375
 20
-348.552217022674820
 11
-12.964450706532375
 21
-348.552217022674820
  0
LINE
  8
0
  6
DASHDOT
 62
4
 10
-76.488453343143760
 20
186.947782977324720
 11
-294.393663244879120
 21
186.947782977324720
  0
LINE
  8
0
  6
CONTINUOUS
 62
3
 10
-181.464450706532490
 20
246.447782977324490
 11
-84.464450706532602
 21
246.447782977324490
  0
LINE
  8
0
  6
CONTINUOUS
 62
3
 10
-181.596659185740690
 20
127.447782977324720
 11
-84.464450706532602
 21
127.447782977324720
  0
LINE
  8
0
  6
CONTINUOUS
 62
4
 10
-181.464450706532490
 20
129.947782977324720
 11
-84.464450706532602
 21
129.947782977324720
  0
LINE
  8
0
  6
CONTINUOUS
 62
4
 10
-181.464450706532490
 20
130.947782977324720
 11
-84.464450706532602
 21
130.947782977324720
  0
LINE
  8
0
  6
CONTINUOUS
 62
4
 10
-181.464450706532490
 20
131.947782977324720
 11
-84.464450706532602
 21
131.947782977324720
  0
LINE
  8
0
  6
CONTINUOUS
 62
4
 10
-181.464450706532490
 20
136.632248790549000
 11
-84.464450706532602
 21
136.632248790549000
  0
LINE
  8
0
  6
CONTINUOUS
 62
4
 10
-181.464450706532490
 20
141.581996258854760
 11
-84.464450706532602
 21
141.581996258854760
  0
LINE
  8
0
  6
CONTINUOUS
 62
4
 10
-181.464450706532490
 20
149.628597921588780
 11
-84.464450706532602
 21
149.628597921588780
  0
LINE
  8
0
  6
CONTINUOUS
 62
4
 10
-181.464450706532490
 20
151.233245837150830
 11
-84.464450706532602
 21
151.233245837150830
  0
LINE
  8
0
  6
CONTINUOUS
 62
4
 10
-181.464450706532490
 20
155.196991260950370
 11
-84.464450706532602
 21
155.196991260950370
  0
LINE
  8
0
  6
CONTINUOUS
 62
4
 10
-181.464450706532490
 20
156.665348650754990
 11
-84.464450706532602
 21
156.665348650754990
  0
LINE
  8
0
  6
CONTINUOUS
 62
4
 10
-181.464450706532490
 20
160.755849184844860
 11
-84.464450706532602
 21
160.755849184844860
  0
LINE
  8
0
  6
CONTINUOUS
 62
4
 10
-181.464450706532490
 20
162.117729520194130
 11
-84.464450706532602
 21
162.117729520194130
  0
LINE
  8
0
  6
CONTINUOUS
 62
4
 10
-181.464450706532490
 20
166.308283251736330
 11
-84.464450706532602
 21
166.308283251736330
  0
LINE
  8
0
  6
CONTINUOUS
 62
4
 10
-181.464450706532490
 20
167.574521167823550
 11
-84.464450706532602
 21
167.574521167823550
  0
LINE
  8
0
  6
CONTINUOUS
 62
4
 10
-181.464450706532490
 20
224.266968033060660
 11
-84.464450706532602
 21
224.266968033060660
  0
LINE
  8
0
  6
CONTINUOUS
 62
4
 10
-181.464450706532490
 20
222.662320117498610
 11
-84.464450706532602
 21
222.662320117498610
  0
LINE
  8
0
  6
CONTINUOUS
 62
4
 10
-181.464450706532490
 20
218.698574693699070
 11
-84.464450706532602
 21
218.698574693699070
  0
LINE
  8
0
  6
CONTINUOUS
 62
4
 10
-181.464450706532490
 20
217.230217303894450
 11
-84.464450706532602
 21
217.230217303894450
  0
LINE
  8
0
  6
CONTINUOUS
 62
4
 10
-181.464450706532490
 20
213.139716769804580
 11
-84.464450706532602
 21
213.139716769804580
  0
LINE
  8
0
  6
CONTINUOUS
 62
4
 10
-181.464450706532490
 20
211.777836434455310
 11
-84.464450706532602
 21
211.777836434455310
  0
LINE
  8
0
  6
CONTINUOUS
 62
4
 10
-181.464450706532490
 20
207.587282702913110
 11
-84.464450706532602
 21
207.587282702913110
  0
LINE
  8
0
  6
CONTINUOUS
 62
4
 10
-181.464450706532490
 20
206.321044786825890
 11
-84.464450706532602
 21
206.321044786825890
  0
LINE
  8
0
  6
CONTINUOUS
 62
4
 10
-181.464450706532490
 20
232.313569695794680
 11
-84.464450706532602
 21
232.313569695794680
  0
LINE
  8
0
  6
CONTINUOUS
 62
4
 10
-181.464450706532490
 20
237.263317164100440
 11
-84.464450706532602
 21
237.263317164100440
  0
LINE
  8
0
  6
CONTINUOUS
 62
4
 10
-181.464450706532490
 20
241.947782977324720
 11
-84.464450706532602
 21
241.947782977324720
  0
LINE
  8
0
  6
CONTINUOUS
 62
4
 10
-181.464450706532490
 20
242.947782977324720
 11
-84.464450706532602
 21
242.947782977324720
  0
LINE
  8
0
  6
CONTINUOUS
 62
4
 10
-181.464450706532490
 20
243.947782977324720
 11
-84.464450706532602
 21
243.947782977324720
  0
LINE
  8
0
  6
CONTINUOUS
 62
3
 10
-114.464450706532480
 20
246.447782977324720
 11
-84.464450706532602
 21
246.447782977324720
  0
LINE
  8
0
  6
DASHDOT
 62
4
 10
304.699121268115500
 20
186.947782977324720
 11
-247.029027021003000
 21
186.947782977324720
  0
INSERT
  8
0
  2
SYM1
 10
-22.964450706533000
 20
250.587393284113830
  0
LINE
  8
0
  6
CONTINUOUS
 62
3
 10
-22.964450706533000
 20
281.947782977325630
 11
-22.964450706533000
 21
186.947782977324720
  0
LINE
  8
0
  6
CONTINUOUS
 62
3
 10
-22.964450706533000
 20
196.884274650428490
 11
-12.964450706533000
 21
196.884274650428490
  0
LINE
  8
0
  6
CONTINUOUS
 62
3
 10
-28.464465078246207
 20
246.447782977324720
 11
-84.464450706532546
 21
246.447782977324720
  0
LINE
  8
0
  6
CONTINUOUS
 62
3
 10
-22.964450706533000
 20
177.011291304220950
 11
-12.964450706533000
 21
177.011291304220950
  0
ARC
  8
0
  6
CONTINUOUS
 62
3
 10
-19.964450706533000
 20
91.947782977323811
 40
3.000000000000000
 50
180.000000000000000
 51
270.000000000000000
  0
LINE
  8
0
  6
CONTINUOUS
 62
3
 10
-19.964450706533000
 20
88.947782977323811
 11
-12.964450706533000
 21
88.947782977323811
  0
LINE
  8
0
  6
CONTINUOUS
 62
3
 10
-28.464960459238309
 20
127.447782977324720
 11
-84.464450706532546
 21
127.447782977324720
  0
LINE
  8
0
  6
CONTINUOUS
 62
3
 10
-84.464450706532546
 20
127.447782977324720
 11
-84.464450706532546
 21
186.947782977324720
  0
LINE
  8
0
  6
CONTINUOUS
 62
3
 10
-22.964450706533000
 20
91.947782977323811
 11
-22.964450706533000
 21
186.947782977324720
  0
INSERT
  8
0
  2
SYM1
 10
-22.964450706533000
 20
123.308172670535610
 41
-1.000000000000000
 50
180.000000000000000
  0
LINE
  8
0
  6
CONTINUOUS
 62
3
 10
-84.464450706532546
 20
246.447782977324490
 11
-84.464450706532546
 21
186.947782977324720
  0
ARC
  8
0
  6
CONTINUOUS
 62
3
 10
-68.464450706531608
 20
243.447782977324780
 40
3.000000000000000
 50
0.000000000000000
 51
90.000000000000000
  0
LINE
  8
0
  6
CONTINUOUS
 62
3
 10
-65.464450706531608
 20
204.947782977324780
 11
-65.464450706531608
 21
243.447782977324780
  0
ARC
  8
0
  6
CONTINUOUS
 62
3
 10
-62.464450706531608
 20
204.947782977324780
 40
3.000000000000000
 50
180.000000000000000
 51
270.000000000000000
  0
ARC
  8
0
  6
CONTINUOUS
 62
3
 10
-62.464450706531622
 20
168.947782977324780
 40
3.000000000000000
 50
90.000000000000000
 51
180.000000000000000
  0
LINE
  8
0
  6
CONTINUOUS
 62
3
 10
-65.464450706531608
 20
130.447782977324780
 11
-65.464450706531608
 21
168.947782977324780
  0
ARC
  8
0
  6
CONTINUOUS
 62
3
 10
-68.464450706531622
 20
130.447782977324780
 40
3.000000000000000
 50
270.000000000000000
 51
0.000000000000000
  0
CIRCLE
  8
0
  6
CONTINUOUS
 62
3
 10
-42.964450706532375
 20
186.947782977324780
 40
10.500000000000000
  0
ARC
  8
0
  6
CONTINUOUS
 62
3
 10
-25.964450706532375
 20
204.947782977324780
 40
3.000000000000000
 50
270.000000000000000
 51
0.000000000000000
  0
LINE
  8
0
  6
CONTINUOUS
 62
3
 10
-62.464450706531608
 20
201.947782977324780
 11
-25.964450706532375
 21
201.947782977324780
  0
ARC
  8
0
  6
CONTINUOUS
 62
3
 10
-25.964450706532375
 20
168.947782977324780
 40
3.000000000000000
 50
0.000000000000000
 51
90.000000000000000
  0
LINE
  8
0
  6
CONTINUOUS
 62
3
 10
-62.464450706531622
 20
171.947782977324780
 11
-25.964450706532375
 21
171.947782977324780
  0
LINE
  8
0
  6
DASHDOT
 62
4
 10
-42.964450706532375
 20
200.368133609117650
 11
-42.964450706532375
 21
173.235060780251160
  0
LINE
  8
0
  6
CONTINUOUS
 62
4
 10
-181.464450706532490
 20
201.947782977324720
 11
-62.464450706531608
 21
201.947782977324720
  0
LINE
  8
0
  6
CONTINUOUS
 62
4
 10
-181.464450706532490
 20
171.947782977324720
 11
-62.464450706531622
 21
171.947782977324720
  0
ARC
  8
0
  6
CONTINUOUS
 62
3
 10
-518.996784455440550
 20
-293.214550130648210
 40
3.000000000000187
 50
64.918118014292446
 51
180.000000000000000
  0
ARC
  8
0
  6
CONTINUOUS
 62
3
 10
-529.996784455440550
 20
-285.986937872418650
 40
3.000000000000000
 50
0.000000000000000
 51
48.467599117492242
  0
ARC
  8
0
  6
CONTINUOUS
 62
3
 10
-499.496784455440550
 20
-251.552217022671640
 40
43.000000000000071
 50
206.245931860254020
 51
333.754068139745930
  0
ARC
  8
0
  6
CONTINUOUS
 62
3
 10
-479.996784455440550
 20
-293.214550130648210
 40
3.000000000000000
 50
0.000000000000000
 51
115.081881985707550
  0
ARC
  8
0
  6
CONTINUOUS
 62
3
 10
-468.996784455440550
 20
-285.986937872418650
 40
2.999999999999987
 50
131.532400882507740
 51
180.000000000000000
  0
INSERT
  8
0
  2
SYM4
 10
-509.996784455440490
 20
-99.552217022671613
 41
-1.000000000000000
  0
INSERT
  8
0
  2
SYM5
 10
-559.496784455440770
 20
-106.052217022671610
 41
-1.000000000000000
  0
INSERT
  8
0
  2
SYM5
 10
-631.496784455440770
 20
-181.552217022671610
 41
-1.000000000000000
  0
INSERT
  8
0
  2
SYM5
 10
-634.496784455440550
 20
-281.552217022672100
 41
-1.000000000000000
  0
INSERT
  8
0
  2
SYM5
 10
-575.496784455440770
 20
-382.552217022671410
 41
-1.000000000000000
  0
INSERT
  8
0
  2
SYM5
 10
-423.496784455440490
 20
-382.552217022671410
  0
INSERT
  8
0
  2
SYM5
 10
-364.496784455440950
 20
-281.552217022672100
  0
INSERT
  8
0
  2
SYM5
 10
-367.496784455440490
 20
-181.552217022671610
  0
INSERT
  8
0
  2
SYM5
 10
-439.496784455440490
 20
-106.052217022671610
  0
INSERT
  8
0
  2
SYM4
 10
-488.996784455440490
 20
-99.552217022671613
  0
INSERT
  8
0
  2
SYM6
 10
-563.136394762230110
 20
-315.191827329460750
 41
-1.000000000000000
  0
INSERT
  8
0
  2
SYM7
 10
-435.857174148650930
 20
-315.191827329460750
  0
LINE
  8
0
  6
DASHDOT
 62
4
 10
-419.496784455440950
 20
-100.552217022671380
 11
-419.496784455440950
 21
-159.552217022671390
  0
LINE
  8
0
  6
DASHDOT
 62
4
 10
-389.996784455440950
 20
-130.052217022671610
 11
-448.996784455440950
 21
-130.052217022671610
  0
ARC
  8
0
  6
CONTINUOUS
 62
3
 10
-508.496784455440490
 20
-79.552217022671385
 40
4.999999999999576
 50
347.176787679740470
 51
0.000000000000000
  0
ARC
  8
0
  6
CONTINUOUS
 62
3
 10
-490.496784455440490
 20
-79.552217022671385
 40
5.000000000000000
 50
180.000000000000000
 51
192.823212320258360
  0
LINE
  8
0
  6
CONTINUOUS
 62
3
 10
-503.496784455440490
 20
-62.387072593623799
 11
-503.496784455440490
 21
-79.552217022671385
  0
LINE
  8
0
  6
CONTINUOUS
 62
3
 10
-503.496784455440490
 20
-36.614527701610342
 11
-503.496784455440490
 21
-51.552223983535470
  0
LINE
  8
0
  6
CONTINUOUS
 62
3
 10
-495.496784455440490
 20
-62.387072593623799
 11
-495.496784455440490
 21
-79.552217022671385
  0
LINE
  8
0
  6
CONTINUOUS
 62
3
 10
-495.496784455440490
 20
-36.614527701610342
 11
-495.496784455440490
 21
-51.552223983535470
  0
ARC
  8
0
  6
CONTINUOUS
 62
3
 10
-575.496784455440770
 20
-382.552217022671410
 40
12.000000000000041
 50
196.601549599019710
 51
246.443535690898870
  0
ARC
  8
0
  6
CONTINUOUS
 62
3
 10
-423.496784455440490
 20
-382.552217022671410
 40
11.999999999999810
 50
293.556464309099170
 51
343.398450400978620
  0
LINE
  8
0
  6
CONTINUOUS
 62
3
 10
-382.496784455440950
 20
-353.134017412801140
 11
-382.496784455440950
 21
-382.552217022671410
  0
ARC
  8
0
  6
CONTINUOUS
 62
3
 10
-384.496784455440950
 20
-382.552217022671410
 40
2.000000000000000
 50
270.000000000000000
 51
0.000000000000000
  0
ARC
  8
0
  6
CONTINUOUS
 62
3
 10
-410.080376590442200
 20
-386.552217022671410
 40
2.000000000000000
 50
90.000000000000000
 51
163.398450400982800
  0
LINE
  8
0
  6
CONTINUOUS
 62
3
 10
-410.080376590442200
 20
-384.552217022671410
 11
-384.496784455440950
 21
-384.552217022671410
  0
CIRCLE
  8
0
  6
CONTINUOUS
 62
3
 10
-340.397758688467720
 20
-360.651242789644870
 40
12.000000000000000
  0
CIRCLE
  8
0
  6
CONTINUOUS
 62
3
 10
-658.595810222414000
 20
-42.453191255697931
 40
12.000000000000000
  0
ARC
  8
0
  6
CONTINUOUS
 62
3
 10
-664.496784455440770
 20
-36.552217022671385
 40
20.000000000000000
 50
90.000000000000000
 51
180.000000000000000
  0
CIRCLE
  8
0
  6
CONTINUOUS
 62
3
 10
-340.397758688467720
 20
-42.453191255697931
 40
12.000000000000000
  0
ARC
  8
0
  6
CONTINUOUS
 62
3
 10
-334.496784455440950
 20
-36.552217022671385
 40
20.000000000000000
 50
0.000000000000000
 51
90.000000000000000
  0
ARC
  8
0
  6
CONTINUOUS
 62
3
 10
-334.496784455440950
 20
-366.552217022671410
 40
20.000000000000000
 50
270.000000000000000
 51
0.000000000000000
  0
CIRCLE
  8
0
  6
CONTINUOUS
 62
3
 10
-658.595810222414000
 20
-360.651242789644870
 40
12.000000000000000
  0
ARC
  8
0
  6
CONTINUOUS
 62
3
 10
-664.496784455440770
 20
-366.552217022671410
 40
20.000000000000000
 50
180.000000000000000
 51
270.000000000000000
  0
ARC
  8
0
  6
CONTINUOUS
 62
3
 10
-490.496784455440490
 20
-36.614527701610342
 40
5.000000000000037
 50
89.206648471056738
 51
180.000000000000000
  0
ARC
  8
0
  6
CONTINUOUS
 62
3
 10
-508.496784455440490
 20
-36.614527701610342
 40
5.000000000000000
 50
0.000000000000000
 51
90.793351528948477
  0
ARC
  8
0
  6
CONTINUOUS
 62
3
 10
-408.530154908345310
 20
-392.552217022671410
 40
6.000000000000000
 50
90.000000000000000
 51
146.251011404110950
  0
ARC
  8
0
  6
CONTINUOUS
 62
3
 10
-622.730527468525000
 20
-65.590551948229205
 40
5.000000000000041
 50
135.000000000001820
 51
225.000000000000000
  0
ARC
  8
0
  6
CONTINUOUS
 62
3
 10
-589.493621544874260
 20
-98.827457871880171
 40
5.000000000000201
 50
225.000000000000000
 51
299.734043498263130
  0
ARC
  8
0
  6
CONTINUOUS
 62
3
 10
-604.709165755831920
 20
-109.067757783638200
 40
4.999999999999975
 50
308.148300951607780
 51
45.000000000000000
  0
ARC
  8
0
  6
CONTINUOUS
 62
3
 10
-635.458449529882960
 20
-78.318474009586936
 40
4.999999999999879
 50
45.000000000000000
 51
135.000000000000000
  0
ARC
  8
0
  6
CONTINUOUS
 62
3
 10
-363.535119380998540
 20
-78.318474009586936
 40
4.999999999999718
 50
45.000000000001855
 51
135.000000000001820
  0
ARC
  8
0
  6
CONTINUOUS
 62
3
 10
-376.263041442356720
 20
-65.590551948229205
 40
5.000000000000201
 50
315.000000000000000
 51
44.999999999998167
  0
ARC
  8
0
  6
CONTINUOUS
 62
3
 10
-409.499947366007460
 20
-98.827457871880171
 40
4.999999999999925
 50
240.265956501736890
 51
315.000000000000000
  0
ARC
  8
0
  6
CONTINUOUS
 62
3
 10
-394.284403155049570
 20
-109.067757783638200
 40
5.000000000000041
 50
135.000000000001820
 51
231.851699048390170
  0
ARC
  8
0
  6
CONTINUOUS
 62
3
 10
-588.913192320439520
 20
-386.552217022671410
 40
1.999999999999902
 50
16.601549599017194
 51
90.000000000000000
  0
ARC
  8
0
  6
CONTINUOUS
 62
3
 10
-614.496784455440770
 20
-382.552217022671410
 40
2.000000000000000
 50
180.000000000000000
 51
270.000000000000000
  0
LINE
  8
0
  6
CONTINUOUS
 62
3
 10
-586.810492954425630
 20
-386.552217022671410
 11
-664.496784455440770
 21
-386.552217022671410
  0
LINE
  8
0
  6
CONTINUOUS
 62
3
 10
-408.530154908345310
 20
-386.552217022671410
 11
-334.496784455440950
 21
-386.552217022671410
  0
LINE
  8
0
  6
CONTINUOUS
 62
3
 10
-499.496784455440490
 20
-393.552217022671410
 11
-418.700952932128250
 21
-393.552217022671410
  0
LINE
  8
0
  6
CONTINUOUS
 62
3
 10
-499.496784455440490
 20
-393.552217022671410
 11
-580.292615978753470
 21
-393.552217022671410
  0
LINE
  8
0
  6
CONTINUOUS
 62
3
 10
-664.496784455440770
 20
-16.552217022671385
 11
-334.496784455440950
 21
-16.552217022671385
  0
LINE
  8
0
  6
CONTINUOUS
 62
3
 10
-314.496784455440950
 20
-36.552217022671385
 11
-314.496784455440950
 21
-366.552217022671410
  0
LINE
  8
0
  6
CONTINUOUS
 62
3
 10
-684.496784455440770
 20
-36.552217022671385
 11
-684.496784455440770
 21
-366.552217022671410
  0
LINE
  8
0
  6
CONTINUOUS
 62
3
 10
-626.266061374457880
 20
-69.126085854162085
 11
-593.029155450807140
 21
-102.362991777813050
  0
LINE
  8
0
  6
CONTINUOUS
 62
3
 10
-631.922915623950300
 20
-74.782940103654283
 11
-601.173631849899270
 21
-105.532223877705540
  0
LINE
  8
0
  6
CONTINUOUS
 62
3
 10
-372.727507536423840
 20
-69.126085854162085
 11
-405.964413460074580
 21
-102.362991777813050
  0
LINE
  8
0
  6
CONTINUOUS
 62
3
 10
-367.070653286931420
 20
-74.782940103654283
 11
-397.819937060982450
 21
-105.532223877705540
  0
LINE
  8
0
  6
CONTINUOUS
 62
3
 10
-588.913192320439520
 20
-384.552217022671410
 11
-614.496784455440770
 21
-384.552217022671410
  0
LINE
  8
0
  6
CONTINUOUS
 62
3
 10
-616.496784455440770
 20
-353.134017412801140
 11
-616.496784455440770
 21
-382.552217022671410
  0
ARC
  8
0
  6
CONTINUOUS
 62
3
 10
-499.496784455441400
 20
-686.552217022671580
 40
600.000000000000110
 50
86.655847795544247
 51
88.042013127606594
  0
ARC
  8
0
  6
CONTINUOUS
 62
3
 10
-499.496784455441400
 20
-686.552217022671580
 40
600.000000000000000
 50
91.957986872393249
 51
93.344152204455597
  0
LINE
  8
0
  6
CONTINUOUS
 62
3
 10
-519.996784455440550
 20
-86.902527620600750
 11
-519.996784455440550
 21
-108.552217022671610
  0
LINE
  8
0
  6
CONTINUOUS
 62
3
 10
-478.996784455440490
 20
-86.902527620600750
 11
-478.996784455440490
 21
-108.552217022671610
  0
CIRCLE
  8
0
  6
CONTINUOUS
 62
3
 10
-499.496784455440490
 20
-71.552223983535470
 40
10.000000000000000
  0
LINE
  8
0
  6
CONTINUOUS
 62
3
 10
-488.996784455440490
 20
-51.552223983535470
 11
-509.996784455440490
 21
-51.552223983535470
  0
LINE
  8
0
  6
CONTINUOUS
 62
3
 10
-519.996784455440550
 20
-61.552223983535470
 11
-519.996784455440550
 21
-86.902527620599386
  0
LINE
  8
0
  6
DASHDOT
 62
4
 10
-476.328871456558940
 20
-71.552223983535470
 11
-523.351385358093690
 21
-71.552223983535470
  0
ARC
  8
0
  6
CONTINUOUS
 62
3
 10
-509.996784455440490
 20
-61.552223983535470
 40
10.000000000000000
 50
90.000000000000000
 51
180.000000000000000
  0
ARC
  8
0
  6
CONTINUOUS
 62
3
 10
-488.996784455440490
 20
-61.552223983535470
 40
10.000000000000000
 50
0.000000000000000
 51
90.000000000000000
  0
LINE
  8
0
  6
CONTINUOUS
 62
3
 10
-478.996784455440490
 20
-61.552223983535470
 11
-478.996784455440490
 21
-86.902527620599386
  0
LINE
  8
0
  6
DASHDOT
 62
4
 10
-541.238547360946090
 20
-201.552217022671610
 11
-449.827003379868240
 21
-201.552217022671610
  0
ARC
  8
0
  6
CONTINUOUS
 62
3
 10
-645.496784455440770
 20
-266.552217022671640
 40
2.000000000000000
 50
90.000000000000000
 51
180.000000000000000
  0
ARC
  8
0
  6
CONTINUOUS
 62
3
 10
-634.496784455440770
 20
-251.552217022671640
 40
13.000000000000000
 50
270.000000000000000
 51
90.000000000000000
  0
ARC
  8
0
  6
CONTINUOUS
 62
3
 10
-645.496784455440770
 20
-236.552217022671610
 40
2.000000000000000
 50
180.000000000000000
 51
270.000000000000000
  0
CIRCLE
  8
0
  6
CONTINUOUS
 62
3
 10
-419.496784455440950
 20
-130.052217022671610
 40
17.500000000000000
  0
ARC
  8
0
  6
CONTINUOUS
 62
3
 10
-553.242854079181600
 20
-300.952217022671730
 40
82.000000000000028
 50
210.000000000000000
 51
242.076948146074130
  0
ARC
  8
0
  6
CONTINUOUS
 62
3
 10
-445.750714831700120
 20
-300.952217022671730
 40
81.999999999999872
 50
297.923051853925760
 51
330.000000000000060
  0
ARC
  8
0
  6
CONTINUOUS
 62
3
 10
-637.496784455440770
 20
-299.020128873619850
 40
10.000000000000000
 50
180.000000000000000
 51
209.999999999999890
  0
ARC
  8
0
  6
CONTINUOUS
 62
3
 10
-575.496784455440770
 20
-382.552217022671640
 40
11.999999999999956
 50
174.036080546870270
 51
246.443535690898870
  0
ARC
  8
0
  6
CONTINUOUS
 62
3
 10
-595.388534901263940
 20
-380.474173663860540
 40
8.000000000000169
 50
354.036080546867080
 51
62.076948146072816
  0
ARC
  8
0
  6
CONTINUOUS
 62
3
 10
-527.496784455440550
 20
-207.369579607666790
 40
120.000000000000070
 50
93.344152204455767
 51
180.000000000000000
  0
ARC
  8
0
  6
CONTINUOUS
 62
3
 10
-471.496784455440490
 20
-207.369579607666790
 40
120.000000000000000
 50
359.999999999999890
 51
86.655847795544332
  0
ARC
  8
0
  6
CONTINUOUS
 62
3
 10
-403.605034009617780
 20
-380.474173663860540
 40
7.999999999999868
 50
117.923051853927200
 51
185.963919453132860
  0
ARC
  8
0
  6
CONTINUOUS
 62
3
 10
-423.496784455440490
 20
-382.552217022671640
 40
11.999999999999991
 50
293.556464309101160
 51
5.963919453129976
  0
ARC
  8
0
  6
CONTINUOUS
 62
3
 10
-508.496784455440490
 20
-116.552217022671610
 40
5.000000000000000
 50
0.000000000000000
 51
90.000000000000000
  0
ARC
  8
0
  6
CONTINUOUS
 62
3
 10
-490.496784455440490
 20
-116.552217022671610
 40
5.000000000000000
 50
90.000000000000000
 51
180.000000000000000
  0
ARC
  8
0
  6
CONTINUOUS
 62
3
 10
-621.974216674612990
 20
-141.802706864857810
 40
5.000000000000201
 50
45.000000000000000
 51
145.239542415999670
  0
ARC
  8
0
  6
CONTINUOUS
 62
3
 10
-610.523073462610450
 20
-127.798005954144420
 40
4.999999999999995
 50
136.217179784905970
 51
225.000000000001850
  0
ARC
  8
0
  6
CONTINUOUS
 62
3
 10
-400.513928010349620
 20
-363.262995529120470
 40
4.999999999999892
 50
305.979144815322340
 51
45.000000000003688
  0
ARC
  8
0
  6
CONTINUOUS
 62
3
 10
-611.719470285578150
 20
-351.046980791450840
 40
4.999999999999976
 50
220.585447346048710
 51
314.999999999998120
  0
ARC
  8
0
  6
CONTINUOUS
 62
3
 10
-598.479640900531880
 20
-363.262995529120250
 40
4.999999999999879
 50
135.000000000000000
 51
234.020855184679220
  0
ARC
  8
0
  6
CONTINUOUS
 62
3
 10
-583.178083783897140
 20
-180.598839755573440
 40
4.999999999999943
 50
320.598880246796680
 51
45.000000000000000
  0
ARC
  8
0
  6
CONTINUOUS
 62
3
 10
-570.343677035888500
 20
-167.977402380866610
 40
4.999999999999879
 50
225.000000000000000
 51
308.442443111785170
  0
ARC
  8
0
  6
CONTINUOUS
 62
3
 10
-508.496784455440490
 20
-146.624013792396250
 40
4.999999999999869
 50
278.213210701733890
 51
0.000000000000000
  0
ARC
  8
0
  6
CONTINUOUS
 62
3
 10
-490.496784455440490
 20
-146.624013792396250
 40
5.000000000000000
 50
180.000000000000000
 51
261.786789298255770
  0
ARC
  8
0
  6
CONTINUOUS
 62
3
 10
-465.127904231563380
 20
-309.198768626319010
 40
48.000000000000206
 50
242.620744204633890
 51
349.431241352001900
  0
ARC
  8
0
  6
CONTINUOUS
 62
3
 10
-553.242854079182280
 20
-300.952217022671730
 40
37.999999999999758
 50
179.474123357936550
 51
264.903782261258470
  0
ARC
  8
0
  6
CONTINUOUS
 62
3
 10
-413.027022458206550
 20
-318.919782896378420
 40
4.999999999999986
 50
143.661143755957770
 51
169.431241352001680
  0
ARC
  8
0
  6
CONTINUOUS
 62
3
 10
-489.501455028369660
 20
-356.261811680880380
 40
4.999999999999739
 50
62.620744204635855
 51
106.561661668955390
  0
ARC
  8
0
  6
CONTINUOUS
 62
3
 10
-557.062481518545610
 20
-343.782235073385270
 40
4.999999999999996
 50
62.258787150595815
 51
84.903782261257945
  0
ARC
  8
0
  6
CONTINUOUS
 62
3
 10
-596.241042914634590
 20
-300.557556572688160
 40
5.000000000000207
 50
359.474123357936720
 51
22.119118468600291
  0
ARC
  8
0
  6
CONTINUOUS
 62
3
 10
-587.549160711136660
 20
-326.876671217009350
 40
5.000000000000041
 50
314.999999999998120
 51
37.077467885865147
  0
ARC
  8
0
  6
CONTINUOUS
 62
3
 10
-573.888382150514640
 20
-338.671736779103010
 40
4.999999999999982
 50
61.306201207325230
 51
135.000000000000000
  0
ARC
  8
0
  6
CONTINUOUS
 62
3
 10
-422.749448918602580
 20
-341.027474620867280
 40
5.000000000000041
 50
44.999999999998167
 51
143.091301640805400
  0
ARC
  8
0
  6
CONTINUOUS
 62
3
 10
-414.255679310343740
 20
-324.065400106410440
 40
5.000000000000076
 50
163.709803389738140
 51
224.999999999998180
  0
CIRCLE
  8
0
  6
CONTINUOUS
 62
4
 10
-419.496784455440950
 20
-130.052217022671610
 40
10.500000000000000
  0
CIRCLE
  8
0
  6
CONTINUOUS
 62
3
 10
-419.496784455440950
 20
-130.052217022671610
 40
9.350000000000023
  0
LINE
  8
0
  6
CONTINUOUS
 62
3
 10
-390.809632531235990
 20
-354.582514697383710
 11
-417.791213216276620
 21
-327.600934012343090
  0
LINE
  8
0
  6
CONTINUOUS
 62
3
 10
-396.978394104417190
 20
-359.727461623187590
 11
-419.213915012669700
 21
-337.491940714934630
  0
LINE
  8
0
  6
CONTINUOUS
 62
3
 10
-608.183936379645500
 20
-354.582514697383710
 11
-584.013626805204010
 21
-330.412205122942230
  0
LINE
  8
0
  6
CONTINUOUS
 62
3
 10
-602.015174806464530
 20
-359.727461623187590
 11
-577.423916056447300
 21
-335.136202873170360
  0
LINE
  8
0
  6
CONTINUOUS
 62
3
 10
-380.554886142201380
 20
-138.267172958924930
 11
-419.351019032917240
 21
-177.063305849641010
  0
LINE
  8
0
  6
CONTINUOUS
 62
3
 10
-384.934961542338160
 20
-131.333539860077310
 11
-425.114357969060340
 21
-171.512936286799490
  0
LINE
  8
0
  6
CONTINUOUS
 62
3
 10
-499.496784455440490
 20
-393.552217022671640
 11
-580.292615978753470
 21
-393.552217022671640
  0
LINE
  8
0
  6
CONTINUOUS
 62
3
 10
-499.496784455440490
 20
-393.552217022671640
 11
-418.700952932127790
 21
-393.552217022671640
  0
LINE
  8
0
  6
CONTINUOUS
 62
3
 10
-646.157038493285200
 20
-304.020128873619850
 11
-624.256937189505610
 21
-341.952217022671730
  0
LINE
  8
0
  6
CONTINUOUS
 62
3
 10
-647.496784455440770
 20
-207.369579607666790
 11
-647.496784455440770
 21
-299.020128873619850
  0
LINE
  8
0
  6
CONTINUOUS
 62
3
 10
-503.496784455440490
 20
-116.552217022671610
 11
-503.496784455440490
 21
-146.624013792396250
  0
LINE
  8
0
  6
CONTINUOUS
 62
3
 10
-495.496784455440490
 20
-116.552217022671610
 11
-495.496784455440490
 21
-146.624013792396250
  0
LINE
  8
0
  6
CONTINUOUS
 62
3
 10
-614.058607368543110
 20
-131.333539860077310
 11
-573.879210941821160
 21
-171.512936286799260
  0
LINE
  8
0
  6
CONTINUOUS
 62
3
 10
-618.438682768680110
 20
-138.267172958924930
 11
-579.642549877964480
 21
-177.063305849640780
  0
LINE
  8
0
  6
CONTINUOUS
 62
3
 10
-634.496784455440770
 20
-238.552217022671610
 11
-645.496784455440770
 21
-238.552217022671610
  0
LINE
  8
0
  6
CONTINUOUS
 62
3
 10
-634.496784455440770
 20
-264.552217022671640
 11
-645.496784455440770
 21
-264.552217022671640
  0
ARC
  8
0
  6
CONTINUOUS
 62
3
 10
-364.496784455440490
 20
-251.552217022671640
 40
13.000000000000028
 50
90.000000000000000
 51
270.000000000000000
  0
ARC
  8
0
  6
CONTINUOUS
 62
3
 10
-516.996784455440550
 20
-108.552217022671610
 40
3.000000000000000
 50
180.000000000000000
 51
270.000000000000000
  0
ARC
  8
0
  6
CONTINUOUS
 62
3
 10
-481.996784455440490
 20
-108.552217022671610
 40
3.000000000000000
 50
270.000000000000000
 51
0.000000000000000
  0
ARC
  8
0
  6
CONTINUOUS
 62
3
 10
-361.496784455440490
 20
-299.020128873619850
 40
10.000000000000032
 50
330.000000000000110
 51
0.000000000000000
  0
ARC
  8
0
  6
CONTINUOUS
 62
3
 10
-354.496784455440490
 20
-267.552217022671640
 40
3.000000000000000
 50
0.000000000000000
 51
90.000000000000000
  0
ARC
  8
0
  6
CONTINUOUS
 62
3
 10
-354.496784455440490
 20
-235.552217022671610
 40
3.000000000000000
 50
270.000000000000000
 51
0.000000000000000
  0
ARC
  8
0
  6
CONTINUOUS
 62
3
 10
-388.470495448271040
 20
-127.798005954144420
 40
5.000000000000201
 50
315.000000000000000
 51
43.782820215092215
  0
ARC
  8
0
  6
CONTINUOUS
 62
3
 10
-377.019352236268500
 20
-141.802706864857810
 40
5.000000000000163
 50
34.760457583998857
 51
135.000000000000000
  0
ARC
  8
0
  6
CONTINUOUS
 62
3
 10
-387.274098625303110
 20
-351.046980791450840
 40
5.000000000000201
 50
225.000000000000000
 51
319.414552653949610
  0
LINE
  8
0
  6
CONTINUOUS
 62
3
 10
-352.836530417596070
 20
-304.020128873619850
 11
-374.736631721376110
 21
-341.952217022671730
  0
LINE
  8
0
  6
CONTINUOUS
 62
3
 10
-351.496784455440490
 20
-207.369579607667020
 11
-351.496784455440490
 21
-299.020128873619850
  0
LINE
  8
0
  6
CONTINUOUS
 62
3
 10
-516.996784455440550
 20
-111.552217022671610
 11
-499.496784455440490
 21
-111.552217022671610
  0
LINE
  8
0
  6
CONTINUOUS
 62
3
 10
-481.996784455440490
 20
-111.552217022671610
 11
-499.496784455440490
 21
-111.552217022671610
  0
LINE
  8
0
  6
CONTINUOUS
 62
3
 10
-364.496784455440490
 20
-238.552217022671610
 11
-354.496784455440490
 21
-238.552217022671610
  0
LINE
  8
0
  6
CONTINUOUS
 62
3
 10
-364.496784455440490
 20
-264.552217022671640
 11
-354.496784455440490
 21
-264.552217022671640
  0
LINE
  8
0
  6
CONTINUOUS
 62
3
 10
-563.133993553862410
 20
-180.408443902075330
 11
-569.631582414307790
 21
-184.162611811628070
  0
LINE
  8
0
  6
CONTINUOUS
 62
3
 10
-569.631583856949650
 20
-184.162612843138990
 11
-569.633987114046480
 21
-191.666771816832830
  0
LINE
  8
0
  6
CONTINUOUS
 62
3
 10
-499.496784455440490
 20
-351.552217022671640
 11
-491.496784455440950
 21
-351.552217022671640
  0
LINE
  8
0
  6
CONTINUOUS
 62
3
 10
-499.496784455440490
 20
-351.552217022671640
 11
-507.496784455440490
 21
-351.552217022671640
  0
ARC
  8
0
  6
CONTINUOUS
 62
3
 10
-507.496784455440490
 20
-349.552217022671640
 40
2.000000000000063
 50
194.477512185929440
 51
270.000000000000000
  0
ARC
  8
0
  6
CONTINUOUS
 62
3
 10
-491.496784455440950
 20
-349.552217022671640
 40
2.000000000000000
 50
270.000000000000000
 51
345.522487814070530
  0
ARC
  8
0
  6
CONTINUOUS
 62
3
 10
-481.496784455440040
 20
-268.552217022671640
 40
80.000000000000043
 50
279.172054809625190
 51
323.661143755959020
  0
ARC
  8
0
  6
CONTINUOUS
 62
3
 10
-511.369767801648040
 20
-350.552217022671640
 40
2.000000000000063
 50
14.477512185929456
 51
90.000000000000000
  0
ARC
  8
0
  6
CONTINUOUS
 62
3
 10
-517.496784455441460
 20
-268.552217022671640
 40
80.000000000000000
 50
180.000000000000000
 51
202.119118468599990
  0
ARC
  8
0
  6
CONTINUOUS
 62
3
 10
-487.623801109233400
 20
-350.552217022671640
 40
2.000000000000000
 50
90.000000000000000
 51
165.522487814070560
  0
ARC
  8
0
  6
CONTINUOUS
 62
3
 10
-481.496784455440040
 20
-268.552217022671640
 40
80.000000000000000
 50
270.000000000000000
 51
279.172054809625190
  0
ARC
  8
0
  6
CONTINUOUS
 62
3
 10
-491.496784455440950
 20
-153.552217022671610
 40
2.000000000000063
 50
14.477512185929456
 51
90.000000000000000
  0
ARC
  8
0
  6
CONTINUOUS
 62
3
 10
-507.496784455440490
 20
-153.552217022671610
 40
2.000000000000000
 50
90.000000000000000
 51
165.522487814070560
  0
ARC
  8
0
  6
CONTINUOUS
 62
3
 10
-481.496784455440040
 20
-268.552217022671640
 40
80.000000000000199
 50
323.661143755959020
 51
0.000000000000000
  0
ARC
  8
0
  6
CONTINUOUS
 62
3
 10
-517.496784455441460
 20
-268.552217022671640
 40
79.999999999999943
 50
242.258787150595110
 51
270.000000000000000
  0
ARC
  8
0
  6
CONTINUOUS
 62
3
 10
-517.496784455441460
 20
-268.552217022671640
 40
79.999999999999986
 50
202.119118468599990
 51
242.258787150595110
  0
LINE
  8
0
  6
CONTINUOUS
 62
3
 10
-597.496784455441460
 20
-251.552217022671640
 11
-597.496784455441460
 21
-234.552217022671610
  0
LINE
  8
0
  6
CONTINUOUS
 62
3
 10
-597.496784455441460
 20
-251.552217022671640
 11
-597.496784455441460
 21
-268.552217022671640
  0
LINE
  8
0
  6
CONTINUOUS
 62
3
 10
-487.623801109233400
 20
-348.552217022671640
 11
-481.496784455440040
 21
-348.552217022671640
  0
LINE
  8
0
  6
CONTINUOUS
 62
3
 10
-511.369767801648040
 20
-348.552217022671640
 11
-517.496784455441460
 21
-348.552217022671640
  0
LINE
  8
0
  6
DIVIDE
 62
4
 10
-401.496784455440040
 20
-261.406635751013080
 11
-401.496784455440040
 21
-268.552217022671640
  0
LINE
  8
0
  6
CONTINUOUS
 62
3
 10
-499.496784455440490
 20
-151.552217022671610
 11
-491.496784455440950
 21
-151.552217022671610
  0
LINE
  8
0
  6
CONTINUOUS
 62
3
 10
-499.496784455440490
 20
-151.552217022671610
 11
-507.496784455440490
 21
-151.552217022671610
  0
ARC
  8
0
  6
CONTINUOUS
 62
3
 10
-569.427024539038260
 20
-198.131607499282860
 40
2.000000000000040
 50
58.384308452260875
 51
142.623325274950420
  0
ARC
  8
0
  6
CONTINUOUS
 62
3
 10
-569.427024539038260
 20
-198.131607499282860
 40
2.000000000000040
 50
58.384308452260875
 51
142.623325274950420
  0
ARC
  8
0
  6
CONTINUOUS
 62
3
 10
-552.917393978829980
 20
-321.482457106268900
 40
1.999999999999921
 50
148.384308452266400
 51
232.623325274950420
  0
ARC
  8
0
  6
CONTINUOUS
 62
3
 10
-569.427024539038260
 20
-304.972826546060390
 40
1.999999999999958
 50
217.376674725049580
 51
301.615691547739120
  0
ARC
  8
0
  6
CONTINUOUS
 62
3
 10
-563.136394762230110
 20
-315.191827329460520
 40
10.000000000000108
 50
328.384308452266620
 51
121.615691547731100
  0
ARC
  8
0
  6
CONTINUOUS
 62
3
 10
-446.076174932051060
 20
-321.482457106268900
 40
1.999999999999958
 50
307.376674725049550
 51
31.615691547733597
  0
ARC
  8
0
  6
CONTINUOUS
 62
3
 10
-429.566544371842780
 20
-304.972826546060390
 40
2.000000000000040
 50
238.384308452260910
 51
322.623325274950450
  0
ARC
  8
0
  6
CONTINUOUS
 62
3
 10
-435.857174148650930
 20
-315.191827329460520
 40
9.999999999999870
 50
58.384308452268890
 51
211.615691547733350
  0
ARC
  8
0
  6
CONTINUOUS
 62
3
 10
-531.996784455440550
 20
-339.948117447359040
 40
5.000000000000106
 50
262.722986123431950
 51
0.000000000000000
  0
ARC
  8
0
  6
CONTINUOUS
 62
3
 10
-516.996784455440550
 20
-340.552217022671640
 40
5.000000000000000
 50
180.000000000000000
 51
270.000000000000000
  0
ARC
  8
0
  6
CONTINUOUS
 62
3
 10
-481.996784455440490
 20
-340.552217022671640
 40
5.000000000000000
 50
270.000000000000000
 51
0.000000000000000
  0
ARC
  8
0
  6
CONTINUOUS
 62
3
 10
-466.996784455440490
 20
-339.948117447359040
 40
5.000000000000000
 50
180.000000000000000
 51
277.277013876567990
  0
LINE
  8
0
  6
CONTINUOUS
 62
3
 10
-526.996784455440550
 20
-339.948117447359040
 11
-526.996784455440550
 21
-285.986937872418650
  0
LINE
  8
0
  6
CONTINUOUS
 62
3
 10
-521.996784455440550
 20
-340.552217022671640
 11
-521.996784455440550
 21
-293.214550130648210
  0
LINE
  8
0
  6
CONTINUOUS
 62
3
 10
-476.996784455440490
 20
-340.552217022671640
 11
-476.996784455440490
 21
-293.214550130648210
  0
LINE
  8
0
  6
CONTINUOUS
 62
3
 10
-471.996784455440490
 20
-339.948117447359040
 11
-471.996784455440490
 21
-285.986937872418650
  0
LINE
  8
0
  6
CONTINUOUS
 62
4
 10
-386.068843425820380
 20
-269.678958957926680
 11
-389.905734347919350
 21
-271.387252858844990
  0
LINE
  8
0
  6
CONTINUOUS
 62
4
 10
-387.411074347970900
 20
-266.664258947706060
 11
-391.247965270069640
 21
-268.372552848624370
  0
LINE
  8
0
  6
CONTINUOUS
 62
3
 10
-391.070582184971220
 20
-267.910454113372960
 11
-391.247965270069640
 21
-268.372552848624370
  0
LINE
  8
0
  6
CONTINUOUS
 62
3
 10
-389.443635612668170
 20
-271.564635943942960
 11
-389.905734347919580
 21
-271.387252858844530
  0
LINE
  8
0
  6
CONTINUOUS
 62
3
 10
-391.247965270069640
 20
-268.372552848624370
 11
-389.905734347919580
 21
-271.387252858844530
  0
POINT
  8
0
  6
CONTINUOUS
 62
3
 10
-383.268486147853710
 20
-266.626009709128140
  0
LINE
  8
0
  6
CONTINUOUS
 62
3
 10
-384.692064398619270
 20
-263.428600607379000
 11
-381.844907897088380
 21
-269.823418810877290
  0
LINE
  8
0
  6
CONTINUOUS
 62
3
 10
-384.692064398619270
 20
-263.428600607379000
 11
-381.844907897088380
 21
-269.823418810877290
  0
LINE
  8
0
  6
CONTINUOUS
 62
3
 10
-381.844907897088380
 20
-269.823418810877290
 11
-380.950523777411890
 21
-269.425213345112810
  0
LINE
  8
0
  6
CONTINUOUS
 62
3
 10
-384.692064398619270
 20
-263.428600607379000
 11
-383.797680278942780
 21
-263.030395141614750
  0
ARC
  8
0
  6
CONTINUOUS
 62
3
 10
-383.268922953259730
 20
-264.218003539570250
 40
1.299999237060495
 50
40.601531107483851
 51
114.000000683246080
  0
ARC
  8
0
  6
CONTINUOUS
 62
3
 10
-982.996784455440550
 20
-213.052217022675480
 40
600.000000000000910
 50
355.284875165908370
 51
1.682768801133146
  0
ARC
  8
0
  6
CONTINUOUS
 62
3
 10
-384.030735463128790
 20
-262.455376380561860
 40
0.999999999999983
 50
175.284875165916760
 51
204.000000000003580
  0
LINE
  8
0
  6
CONTINUOUS
 62
3
 10
-381.416222432580240
 20
-273.244855464173550
 11
-383.974149713980010
 21
-274.383718064785680
  0
ARC
  8
0
  6
CONTINUOUS
 62
3
 10
-381.822959075656570
 20
-272.331310006530940
 40
1.000000000000226
 50
294.000000000027340
 51
23.999999999991683
  0
ARC
  8
0
  6
CONTINUOUS
 62
3
 10
-385.202097191741980
 20
-259.824454862553980
 40
0.999999999999856
 50
113.999999999979760
 51
204.000000000003580
  0
ARC
  8
0
  6
CONTINUOUS
 62
3
 10
-386.626770859021410
 20
-257.174851610912410
 40
2.000000000000451
 50
294.000000000027340
 51
355.768661925113970
  0
LINE
  8
0
  6
CONTINUOUS
 62
3
 10
-387.553432173047380
 20
-266.344518037531150
 11
-391.070582184971220
 21
-267.910454113372960
  0
LINE
  8
0
  6
CONTINUOUS
 62
3
 10
-385.926485600744120
 20
-269.998699868101140
 11
-389.443635612668170
 21
-271.564635943942960
  0
ARC
  8
0
  6
CONTINUOUS
 62
3
 10
-982.996784455440550
 20
-213.052217022675480
 40
600.799999999999950
 50
357.158610984636650
 51
0.587807867706883
  0
ARC
  8
0
  6
CONTINUOUS
 62
3
 10
-383.934185226655870
 20
-242.785064266969190
 40
1.000000000000147
 50
303.952126946381380
 51
357.158610984632960
  0
ARC
  8
0
  6
CONTINUOUS
 62
3
 10
-382.817185202043390
 20
-244.444073291964340
 40
0.999999999999769
 50
123.952126946395960
 51
177.005923909151190
  0
ARC
  8
0
  6
CONTINUOUS
 62
3
 10
-382.046976785890310
 20
-205.285064266969190
 40
0.999999999999967
 50
180.740494943192910
 51
233.794291905968890
  0
ARC
  8
0
  6
CONTINUOUS
 62
3
 10
-383.228348902166720
 20
-206.898867205027330
 40
1.000000000000077
 50
0.587807867721716
 51
53.794291905958382
  0
ARC
  8
0
  6
CONTINUOUS
 62
3
 10
-381.479281103095160
 20
-268.237604947157310
 40
1.299999237060559
 50
293.999982013920090
 51
7.398451589679256
  0
ARC
  8
0
  6
CONTINUOUS
 62
3
 10
-389.115176728276480
 20
-269.229124069655940
 40
9.000000000000234
 50
7.398451589678908
 51
40.601531107483503
  0
ARC
  8
0
  6
CONTINUOUS
 62
4
 10
-263.896784455440350
 20
-213.052217022675250
 40
289.397000000000220
 50
180.000000000000000
 51
186.051985358668530
  0
ARC
  8
0
  6
CONTINUOUS
 62
4
 10
-536.369685380650940
 20
-241.940246747813550
 40
15.397000000000052
 50
186.051985358668840
 51
225.000000000000000
  0
LINE
  8
0
  6
CONTINUOUS
 62
4
 10
-542.680943097941740
 20
-257.403635250381570
 11
-547.257008490580350
 21
-252.827569857742960
  0
ARC
  8
0
  6
CONTINUOUS
 62
4
 10
-538.438302410822640
 20
-253.160994563262020
 40
6.000000000000049
 50
225.000000000003070
 51
262.102011327574360
  0
ARC
  8
0
  6
CONTINUOUS
 62
4
 10
-499.496784455440260
 20
27.547782977324630
 40
289.396999999999820
 50
262.102011327572200
 51
270.000000000000000
  0
ARC
  8
0
  6
CONTINUOUS
 62
4
 10
-735.096784455440460
 20
-213.052217022675250
 40
289.397000000000220
 50
353.948014641331500
 51
0.000000000000000
  0
ARC
  8
0
  6
CONTINUOUS
 62
4
 10
-462.623883530229880
 20
-241.940246747813550
 40
15.396999999999876
 50
315.000000000000000
 51
353.948014641331160
  0
LINE
  8
0
  6
CONTINUOUS
 62
4
 10
-456.312625812939070
 20
-257.403635250381570
 11
-451.736560420300460
 21
-252.827569857742960
  0
ARC
  8
0
  6
CONTINUOUS
 62
4
 10
-460.555266500058170
 20
-253.160994563262020
 40
5.999999999999923
 50
277.897988672425640
 51
314.999999999996870
  0
ARC
  8
0
  6
CONTINUOUS
 62
4
 10
-499.496784455440490
 20
27.547782977324630
 40
289.396999999999930
 50
270.000000000000000
 51
277.897988672427800
  0
ARC
  8
0
  6
CONTINUOUS
 62
4
 10
-735.096784455440460
 20
-213.052217022675250
 40
289.397000000000220
 50
0.000000000000000
 51
6.051985358668501
  0
ARC
  8
0
  6
CONTINUOUS
 62
4
 10
-462.623883530229880
 20
-184.164187297537010
 40
15.397000000000052
 50
6.051985358668849
 51
45.000000000000000
  0
LINE
  8
0
  6
CONTINUOUS
 62
4
 10
-456.312625812939070
 20
-168.700798794968990
 11
-451.736560420300460
 21
-173.276864187607600
  0
ARC
  8
0
  6
CONTINUOUS
 62
4
 10
-460.555266500058170
 20
-172.943439482088540
 40
6.000000000000049
 50
45.000000000003077
 51
82.102011327574374
  0
ARC
  8
0
  6
CONTINUOUS
 62
4
 10
-499.496784455440490
 20
-453.652217022675190
 40
289.396999999999820
 50
82.102011327572214
 51
90.000000000000000
  0
ARC
  8
0
  6
CONTINUOUS
 62
4
 10
-263.896784455440580
 20
-213.052217022675250
 40
289.396999999999990
 50
173.948014641331500
 51
180.000000000000000
  0
LINE
  8
0
  6
CONTINUOUS
 62
4
 10
-542.680943097941740
 20
-168.700798794968990
 11
-547.257008490580350
 21
-173.276864187607600
  0
ARC
  8
0
  6
CONTINUOUS
 62
4
 10
-536.369685380650940
 20
-184.164187297537010
 40
15.396999999999876
 50
135.000000000000000
 51
173.948014641331160
  0
ARC
  8
0
  6
CONTINUOUS
 62
3
 10
-462.623883530229880
 20
-241.940246747813550
 40
26.599999999999955
 50
315.000000000001020
 51
353.948014641331380
  0
LINE
  8
0
  6
CONTINUOUS
 62
3
 10
-450.881292269326820
 20
-267.815736246034990
 11
-443.814843150667400
 21
-260.749287127375340
  0
ARC
  8
0
  6
CONTINUOUS
 62
3
 10
-735.096784455440460
 20
-213.052217022675250
 40
300.600000000000140
 50
353.948014641331500
 51
6.051985358668493
  0
ARC
  8
0
  6
CONTINUOUS
 62
3
 10
-536.369685380650940
 20
-241.940246747813550
 40
26.599999999999969
 50
186.051985358668590
 51
224.999999999998980
  0
ARC
  8
0
  6
CONTINUOUS
 62
3
 10
-263.896784455440470
 20
-213.052217022675250
 40
300.600000000000020
 50
173.948014641331500
 51
186.051985358668500
  0
LINE
  8
0
  6
CONTINUOUS
 62
3
 10
-548.112276641554220
 20
-267.815736246034990
 11
-555.178725760213410
 21
-260.749287127375340
  0
ARC
  8
0
  6
CONTINUOUS
 62
3
 10
-536.369685380650940
 20
-184.164187297537010
 40
26.600000000000119
 50
135.000000000000000
 51
173.948014641331410
  0
LINE
  8
0
  6
CONTINUOUS
 62
3
 10
-548.112276641554220
 20
-158.288697799315800
 11
-555.178725760213180
 21
-165.355146917974760
  0
ARC
  8
0
  6
CONTINUOUS
 62
3
 10
-462.623883530230100
 20
-184.164187297537010
 40
26.600000000000193
 50
6.051985358668552
 51
45.000000000000000
  0
LINE
  8
0
  6
CONTINUOUS
 62
3
 10
-450.881292269326820
 20
-158.288697799315800
 11
-443.814843150667850
 21
-165.355146917974760
  0
ARC
  8
0
  6
CONTINUOUS
 62
3
 10
-543.445371885723030
 20
-263.148831490203800
 40
6.599999999999957
 50
225.000000000000000
 51
261.402917762751090
  0
ARC
  8
0
  6
CONTINUOUS
 62
3
 10
-499.496784455440490
 20
27.547782977324857
 40
300.600000000000080
 50
261.402917762750920
 51
270.000000000000000
  0
ARC
  8
0
  6
CONTINUOUS
 62
3
 10
-455.548197025158000
 20
-263.148831490203800
 40
6.599999999999747
 50
278.597082237248910
 51
315.000000000000000
  0
ARC
  8
0
  6
CONTINUOUS
 62
3
 10
-499.496784455440490
 20
-453.652217022675190
 40
300.599999999999800
 50
81.402917762750931
 51
90.000000000000000
  0
ARC
  8
0
  6
CONTINUOUS
 62
3
 10
-455.548197025158000
 20
-162.955602555146980
 40
6.600000000000118
 50
45.000000000001400
 51
81.402917762751386
  0
ARC
  8
0
  6
CONTINUOUS
 62
3
 10
-499.496784455440490
 20
27.547782977324857
 40
300.600000000000140
 50
270.000000000000000
 51
278.597082237249080
  0
ARC
  8
0
  6
CONTINUOUS
 62
3
 10
-499.496784455440490
 20
-453.652217022675190
 40
300.599999999999910
 50
90.000000000000000
 51
98.597082237249083
  0
ARC
  8
0
  6
CONTINUOUS
 62
3
 10
-495.496784455440490
 20
-171.745437918029720
 40
1.500000000000203
 50
84.468928475159132
 51
180.000000000000000
  0
ARC
  8
0
  6
CONTINUOUS
 62
3
 10
-503.496784455440490
 20
-171.745437918029490
 40
1.500000000000000
 50
0.000000000000000
 51
95.531071524841693
  0
ARC
  8
0
  6
CONTINUOUS
 62
3
 10
-499.496784455440260
 20
-213.052217022674800
 40
17.999999999999901
 50
41.837004155893254
 51
78.162995844107286
  0
ARC
  8
0
  6
CONTINUOUS
 62
3
 10
-499.496784455440720
 20
-213.052217022674800
 40
27.499999999999787
 50
97.928141766201691
 51
142.071858233798000
  0
LINE
  8
0
  6
CONTINUOUS
 62
3
 10
-496.996784455440490
 20
-171.745437918029720
 11
-496.996784455440490
 21
-174.760573025583710
  0
LINE
  8
0
  6
CONTINUOUS
 62
3
 10
-467.585248001289700
 20
-191.741331514668500
 11
-464.974064402305600
 21
-190.233763960891390
  0
LINE
  8
0
  6
CONTINUOUS
 62
3
 10
-496.996784455440490
 20
-181.303201289900300
 11
-496.996784455440490
 21
-184.329403789984840
  0
ARC
  8
0
  6
CONTINUOUS
 62
3
 10
-495.496784455440490
 20
-181.303201289900300
 40
1.499999999999998
 50
82.819244218541712
 51
180.000000000000000
  0
ARC
  8
0
  6
CONTINUOUS
 62
3
 10
-495.496784455440490
 20
-174.760573025583710
 40
1.500000000000000
 50
180.000000000000000
 51
264.036429881682580
  0
ARC
  8
0
  6
CONTINUOUS
 62
3
 10
-465.724064402305600
 20
-188.934725855214590
 40
1.500000000000123
 50
299.999999999997270
 51
35.531071524839192
  0
ARC
  8
0
  6
CONTINUOUS
 62
3
 10
-499.496784455440950
 20
-213.052217022675250
 40
42.999999999999893
 50
35.531071524839213
 51
84.468928475160212
  0
ARC
  8
0
  6
CONTINUOUS
 62
3
 10
-461.724064402305150
 20
-195.862929085490630
 40
1.500000000000034
 50
24.468928475159590
 51
119.999999999997270
  0
LINE
  8
0
  6
CONTINUOUS
 62
3
 10
-465.085248001289470
 20
-196.071458533590940
 11
-462.474064402305150
 21
-194.563890979813830
  0
ARC
  8
0
  6
CONTINUOUS
 62
3
 10
-464.335248001289470
 20
-197.370496639267740
 40
1.500000000000123
 50
119.999999999997270
 51
204.036429881680680
  0
ARC
  8
0
  6
CONTINUOUS
 62
3
 10
-499.496784455440720
 20
-213.052217022675710
 40
36.999999999999972
 50
335.963570118321740
 51
24.036429881678828
  0
ARC
  8
0
  6
CONTINUOUS
 62
3
 10
-499.496784455440720
 20
-213.052217022675710
 40
42.999999999999936
 50
335.531071524839770
 51
24.468928475160730
  0
ARC
  8
0
  6
CONTINUOUS
 62
3
 10
-461.724064402305150
 20
-230.241504959860120
 40
1.500000000000320
 50
240.000000000007050
 51
335.531071524832500
  0
LINE
  8
0
  6
CONTINUOUS
 62
3
 10
-462.474064402305150
 20
-231.540543065537150
 11
-465.085248001289240
 21
-230.032975511759820
  0
ARC
  8
0
  6
CONTINUOUS
 62
3
 10
-464.335248001289240
 20
-228.733937406083240
 40
1.500000000000063
 50
155.963570118322880
 51
239.999999999998410
  0
ARC
  8
0
  6
CONTINUOUS
 62
3
 10
-465.724064402305150
 20
-237.169708190135940
 40
1.499999999999844
 50
324.468928475167900
 51
59.999999999998380
  0
LINE
  8
0
  6
CONTINUOUS
 62
3
 10
-464.974064402305150
 20
-235.870670084459360
 11
-467.585248001289240
 21
-234.363102530682030
  0
LINE
  8
0
  6
CONTINUOUS
 62
3
 10
-501.996784455440490
 20
-171.745437918029490
 11
-501.996784455440490
 21
-174.760573025583710
  0
ARC
  8
0
  6
CONTINUOUS
 62
3
 10
-503.496784455440490
 20
-174.760573025583710
 40
1.499999999999933
 50
275.963570118318330
 51
0.000000000000000
  0
LINE
  8
0
  6
CONTINUOUS
 62
3
 10
-501.996784455440490
 20
-181.303201289900300
 11
-501.996784455440490
 21
-184.329403789984840
  0
ARC
  8
0
  6
CONTINUOUS
 62
3
 10
-503.496784455440490
 20
-181.303201289900300
 40
1.500000000000000
 50
0.000000000000000
 51
97.180755781458288
  0
ARC
  8
0
  6
CONTINUOUS
 62
3
 10
-499.496784455440950
 20
-213.052217022674800
 40
23.999999999999872
 50
100.240348321185690
 51
139.759651678813700
  0
ARC
  8
0
  6
CONTINUOUS
 62
3
 10
-516.671963724485520
 20
-198.517320494794890
 40
1.499999999999802
 50
139.759651678811420
 51
239.999999999998410
  0
LINE
  8
0
  6
CONTINUOUS
 62
3
 10
-514.775169131506350
 20
-201.344486171217620
 11
-517.421963724485520
 21
-199.816358600471460
  0
ARC
  8
0
  6
CONTINUOUS
 62
3
 10
-514.025169131506350
 20
-200.045448065541050
 40
1.499999999999926
 50
239.999999999998410
 51
318.162995844106720
  0
ARC
  8
0
  6
CONTINUOUS
 62
3
 10
-499.496784455440950
 20
-213.052217022674800
 40
17.999999999999801
 50
101.837004155892000
 51
138.162995844106380
  0
ARC
  8
0
  6
CONTINUOUS
 62
3
 10
-503.496784455440490
 20
-193.966882338682640
 40
1.499999999999954
 50
281.837004155896690
 51
0.000000000000000
  0
LINE
  8
0
  6
CONTINUOUS
 62
3
 10
-501.996784455440490
 20
-190.910627197190310
 11
-501.996784455440490
 21
-193.966882338682640
  0
ARC
  8
0
  6
CONTINUOUS
 62
3
 10
-503.496784455440490
 20
-190.910627197190310
 40
1.500000000000000
 50
0.000000000000000
 51
100.240348321194510
  0
ARC
  8
0
  6
CONTINUOUS
 62
3
 10
-499.496784455440950
 20
-213.052217022674800
 40
14.499999999999954
 50
107.920213139390880
 51
132.079786860607670
  0
ARC
  8
0
  6
CONTINUOUS
 62
3
 10
-508.208927098255060
 20
-203.403456969110550
 40
1.499999999999792
 50
132.079786860611680
 51
239.999999999998410
  0
LINE
  8
0
  6
CONTINUOUS
 62
3
 10
-506.184038388634410
 20
-206.304577818258000
 11
-508.958927098255060
 21
-204.702495074787120
  0
ARC
  8
0
  6
CONTINUOUS
 62
3
 10
-505.434038388634410
 20
-205.005539712581420
 40
1.499999999999926
 50
239.999999999998410
 51
306.421821521797600
  0
ARC
  8
0
  6
CONTINUOUS
 62
3
 10
-499.496784455440950
 20
-213.052217022674800
 40
8.499999999999853
 50
113.578178478199570
 51
126.421821521797450
  0
ARC
  8
0
  6
CONTINUOUS
 62
3
 10
-503.496784455440490
 20
-203.887065632762930
 40
1.500000000000139
 50
293.578178478195700
 51
0.000000000000000
  0
LINE
  8
0
  6
CONTINUOUS
 62
3
 10
-501.996784455440490
 20
-200.682900145821860
 11
-501.996784455440490
 21
-203.887065632762930
  0
ARC
  8
0
  6
CONTINUOUS
 62
3
 10
-503.496784455440490
 20
-200.682900145821860
 40
1.500000000000000
 50
0.000000000000000
 51
107.920213139394770
  0
ARC
  8
0
  6
CONTINUOUS
 62
3
 10
-499.496784455440490
 20
-213.052217022675250
 40
23.999999999999716
 50
280.240348321186270
 51
319.759651678814690
  0
ARC
  8
0
  6
CONTINUOUS
 62
3
 10
-495.496784455440490
 20
-235.193806848159770
 40
1.500000000000000
 50
180.000000000000000
 51
280.240348321187530
  0
LINE
  8
0
  6
CONTINUOUS
 62
3
 10
-496.996784455440490
 20
-232.137551706667440
 11
-496.996784455440490
 21
-235.193806848159770
  0
ARC
  8
0
  6
CONTINUOUS
 62
3
 10
-495.496784455440490
 20
-232.137551706667440
 40
1.499999999999731
 50
101.837004155898450
 51
180.000000000000000
  0
ARC
  8
0
  6
CONTINUOUS
 62
3
 10
-499.496784455440490
 20
-213.052217022675250
 40
18.000000000000146
 50
281.837004155893230
 51
318.162995844107680
  0
ARC
  8
0
  6
CONTINUOUS
 62
3
 10
-484.968399779374690
 20
-226.058985979809020
 40
1.499999999999926
 50
59.999999999998380
 51
138.162995844100240
  0
LINE
  8
0
  6
CONTINUOUS
 62
3
 10
-481.571605186395740
 20
-226.288075444878610
 11
-484.218399779374690
 21
-224.759947874132450
  0
ARC
  8
0
  6
CONTINUOUS
 62
3
 10
-482.321605186395740
 20
-227.587113550555190
 40
1.499999999999828
 50
319.759651678823670
 51
59.999999999998380
  0
ARC
  8
0
  6
CONTINUOUS
 62
3
 10
-499.496784455440490
 20
-213.052217022675250
 40
14.500000000000121
 50
287.920213139392560
 51
312.079786860608860
  0
ARC
  8
0
  6
CONTINUOUS
 62
3
 10
-495.496784455440490
 20
-225.421533899527990
 40
1.500000000000000
 50
180.000000000000000
 51
287.920213139392100
  0
LINE
  8
0
  6
CONTINUOUS
 62
3
 10
-496.996784455440490
 20
-222.217368412586690
 11
-496.996784455440490
 21
-225.421533899527990
  0
ARC
  8
0
  6
CONTINUOUS
 62
3
 10
-495.496784455440490
 20
-222.217368412587150
 40
1.500000000000139
 50
113.578178478195690
 51
179.999999999982630
  0
ARC
  8
0
  6
CONTINUOUS
 62
3
 10
-499.496784455440490
 20
-213.052217022675250
 40
8.500000000000060
 50
293.578178478202350
 51
306.421821521799190
  0
ARC
  8
0
  6
CONTINUOUS
 62
3
 10
-493.559530522246580
 20
-221.098894332768650
 40
1.499999999999926
 50
59.999999999998380
 51
126.421821521801260
  0
LINE
  8
0
  6
CONTINUOUS
 62
3
 10
-490.034641812626150
 20
-221.401938970562500
 11
-492.809530522246580
 21
-219.799856227092080
  0
ARC
  8
0
  6
CONTINUOUS
 62
3
 10
-490.784641812626150
 20
-222.700977076239520
 40
1.499999999999944
 50
312.079786860618130
 51
60.000000000007070
  0
ARC
  8
0
  6
CONTINUOUS
 62
3
 10
-499.496784455440490
 20
-213.052217022675250
 40
23.999999999999886
 50
220.240348321185220
 51
259.759651678813730
  0
ARC
  8
0
  6
CONTINUOUS
 62
3
 10
-503.496784455440490
 20
-235.193806848159770
 40
1.499999999999728
 50
259.759651678812470
 51
0.000000000000000
  0
LINE
  8
0
  6
CONTINUOUS
 62
3
 10
-501.996784455440490
 20
-232.137551706667440
 11
-501.996784455440490
 21
-235.193806848159770
  0
ARC
  8
0
  6
CONTINUOUS
 62
3
 10
-503.496784455440490
 20
-232.137551706667440
 40
1.500000000000000
 50
0.000000000000000
 51
78.162995844101530
  0
ARC
  8
0
  6
CONTINUOUS
 62
3
 10
-499.496784455440490
 20
-213.052217022675250
 40
17.999999999999982
 50
221.837004155892170
 51
258.162995844106770
  0
ARC
  8
0
  6
CONTINUOUS
 62
3
 10
-514.025169131506350
 20
-226.058985979809020
 40
1.500000000000118
 50
41.837004155899741
 51
120.000000000001620
  0
LINE
  8
0
  6
CONTINUOUS
 62
3
 10
-517.421963724485290
 20
-226.288075444878610
 11
-514.775169131506350
 21
-224.759947874132450
  0
ARC
  8
0
  6
CONTINUOUS
 62
3
 10
-516.671963724485290
 20
-227.587113550555190
 40
1.499999999999926
 50
120.000000000001620
 51
220.240348321176330
  0
ARC
  8
0
  6
CONTINUOUS
 62
3
 10
-499.496784455440490
 20
-213.052217022675250
 40
14.500000000000011
 50
227.920213139391080
 51
252.079786860607410
  0
ARC
  8
0
  6
CONTINUOUS
 62
3
 10
-503.496784455440490
 20
-225.421533899527990
 40
1.500000000000355
 50
252.079786860607900
 51
0.000000000000000
  0
LINE
  8
0
  6
CONTINUOUS
 62
3
 10
-501.996784455440490
 20
-222.217368412586690
 11
-501.996784455440490
 21
-225.421533899527990
  0
ARC
  8
0
  6
CONTINUOUS
 62
3
 10
-503.496784455440490
 20
-222.217368412587150
 40
1.500000000000000
 50
0.000000000017370
 51
66.421821521804304
  0
ARC
  8
0
  6
CONTINUOUS
 62
3
 10
-499.496784455440490
 20
-213.052217022675250
 40
8.499999999999870
 50
233.578178478199590
 51
246.421821521797680
  0
ARC
  8
0
  6
CONTINUOUS
 62
3
 10
-505.434038388634410
 20
-221.098894332768650
 40
1.500000000000059
 50
53.578178478205707
 51
120.000000000001620
  0
LINE
  8
0
  6
CONTINUOUS
 62
3
 10
-508.958927098254830
 20
-221.401938970562500
 11
-506.184038388634410
 21
-219.799856227092080
  0
ARC
  8
0
  6
CONTINUOUS
 62
3
 10
-508.208927098254830
 20
-222.700977076239520
 40
1.500000000000320
 50
119.999999999992930
 51
227.920213139381870
  0
ARC
  8
0
  6
CONTINUOUS
 62
3
 10
-499.496784455440950
 20
-213.052217022674800
 40
23.999999999999968
 50
160.240348321186020
 51
199.759651678814070
  0
ARC
  8
0
  6
CONTINUOUS
 62
3
 10
-520.671963724485520
 20
-205.445523725070250
 40
1.499999999999926
 50
59.999999999998380
 51
160.240348321185250
  0
LINE
  8
0
  6
CONTINUOUS
 62
3
 10
-517.275169131506350
 20
-205.674613190139840
 11
-519.921963724485520
 21
-204.146485619393670
  0
ARC
  8
0
  6
CONTINUOUS
 62
3
 10
-518.025169131506350
 20
-206.973651295816410
 40
1.500000000000038
 50
341.837004155895390
 51
59.999999999998380
  0
ARC
  8
0
  6
CONTINUOUS
 62
3
 10
-499.496784455440950
 20
-213.052217022674800
 40
17.999999999999773
 50
161.837004155893280
 51
198.162995844106830
  0
ARC
  8
0
  6
CONTINUOUS
 62
3
 10
-518.025169131506350
 20
-219.130782749533210
 40
1.500000000000320
 50
299.999999999992950
 51
18.162995844104589
  0
LINE
  8
0
  6
CONTINUOUS
 62
3
 10
-519.921963724485290
 20
-221.957948425955950
 11
-517.275169131506350
 21
-220.429820855210240
  0
ARC
  8
0
  6
CONTINUOUS
 62
3
 10
-520.671963724485290
 20
-220.658910320279380
 40
1.500000000000246
 50
199.759651678811820
 51
300.000000000001590
  0
ARC
  8
0
  6
CONTINUOUS
 62
3
 10
-499.496784455440950
 20
-213.052217022674800
 40
14.499999999999906
 50
167.920213139392900
 51
192.079786860608860
  0
ARC
  8
0
  6
CONTINUOUS
 62
3
 10
-512.208927098255120
 20
-210.331660199385880
 40
1.499999999999955
 50
59.999999999996497
 51
167.920213139405550
  0
LINE
  8
0
  6
CONTINUOUS
 62
3
 10
-508.684038388634410
 20
-210.634704837180180
 11
-511.458927098255060
 21
-209.032622093709310
  0
ARC
  8
0
  6
CONTINUOUS
 62
3
 10
-509.434038388634410
 20
-211.933742942856750
 40
1.499999999999873
 50
353.578178478198030
 51
59.999999999998380
  0
ARC
  8
0
  6
CONTINUOUS
 62
3
 10
-499.496784455440950
 20
-213.052217022674800
 40
8.499999999999813
 50
173.578178478202550
 51
186.421821521800500
  0
ARC
  8
0
  6
CONTINUOUS
 62
3
 10
-509.434038388634410
 20
-214.170691102493290
 40
1.499999999999926
 50
300.000000000001590
 51
6.421821521801967
  0
LINE
  8
0
  6
CONTINUOUS
 62
3
 10
-511.458927098254830
 20
-217.071811951640290
 11
-508.684038388634410
 21
-215.469729208169870
  0
ARC
  8
0
  6
CONTINUOUS
 62
3
 10
-512.208927098254890
 20
-215.772773845963710
 40
1.500000000000287
 50
192.079786860609600
 51
300.000000000003520
  0
ARC
  8
0
  6
CONTINUOUS
 62
3
 10
-499.496784455440260
 20
-213.052217022674800
 40
24.000000000000139
 50
340.240348321186050
 51
19.759651678813860
  0
ARC
  8
0
  6
CONTINUOUS
 62
3
 10
-478.321605186395740
 20
-205.445523725070250
 40
1.500000000000246
 50
19.759651678811824
 51
120.000000000001620
  0
LINE
  8
0
  6
CONTINUOUS
 62
3
 10
-481.718399779374690
 20
-205.674613190139840
 11
-479.071605186395740
 21
-204.146485619393670
  0
ARC
  8
0
  6
CONTINUOUS
 62
3
 10
-480.968399779374690
 20
-206.973651295816410
 40
1.499999999999926
 50
120.000000000001620
 51
198.162995844104590
  0
ARC
  8
0
  6
CONTINUOUS
 62
3
 10
-499.496784455440260
 20
-213.052217022674800
 40
17.999999999999943
 50
341.837004155893340
 51
18.162995844106561
  0
ARC
  8
0
  6
CONTINUOUS
 62
3
 10
-480.968399779374690
 20
-219.130782749533210
 40
1.500000000000038
 50
161.837004155895410
 51
240.000000000007050
  0
LINE
  8
0
  6
CONTINUOUS
 62
3
 10
-479.071605186395740
 20
-221.957948425955950
 11
-481.718399779374690
 21
-220.429820855210240
  0
ARC
  8
0
  6
CONTINUOUS
 62
3
 10
-478.321605186395740
 20
-220.658910320279380
 40
1.499999999999926
 50
239.999999999998410
 51
340.240348321188210
  0
ARC
  8
0
  6
CONTINUOUS
 62
3
 10
-499.496784455440260
 20
-213.052217022674800
 40
14.500000000000169
 50
347.920213139391310
 51
12.079786860606980
  0
ARC
  8
0
  6
CONTINUOUS
 62
3
 10
-486.784641812626150
 20
-210.331660199385880
 40
1.500000000000192
 50
12.079786860592611
 51
120.000000000001620
  0
LINE
  8
0
  6
CONTINUOUS
 62
3
 10
-490.309530522246580
 20
-210.634704837180180
 11
-487.534641812626150
 21
-209.032622093709310
  0
ARC
  8
0
  6
CONTINUOUS
 62
3
 10
-489.559530522246580
 20
-211.933742942856750
 40
1.499999999999926
 50
120.000000000001620
 51
186.421821521801010
  0
ARC
  8
0
  6
CONTINUOUS
 62
3
 10
-499.496784455440260
 20
-213.052217022674800
 40
8.499999999999865
 50
353.578178478199500
 51
6.421821521797448
  0
ARC
  8
0
  6
CONTINUOUS
 62
3
 10
-489.559530522246580
 20
-214.170691102493290
 40
1.500000000000099
 50
173.578178478198990
 51
239.999999999998410
  0
LINE
  8
0
  6
CONTINUOUS
 62
3
 10
-487.534641812626150
 20
-217.071811951640290
 11
-490.309530522246580
 21
-215.469729208169870
  0
ARC
  8
0
  6
CONTINUOUS
 62
3
 10
-486.784641812626150
 20
-215.772773845963710
 40
1.499999999999926
 50
239.999999999998410
 51
347.920213139390400
  0
ARC
  8
0
  6
CONTINUOUS
 62
3
 10
-499.496784455440260
 20
-213.052217022674800
 40
8.500000000000078
 50
53.578178478202538
 51
66.421821521799018
  0
ARC
  8
0
  6
CONTINUOUS
 62
3
 10
-499.496784455440260
 20
-213.052217022674800
 40
23.999999999999797
 50
40.240348321186033
 51
79.759651678814308
  0
LINE
  8
0
  6
CONTINUOUS
 62
3
 10
-492.809530522246580
 20
-206.304577818258000
 11
-490.034641812626150
 21
-204.702495074787120
  0
LINE
  8
0
  6
CONTINUOUS
 62
3
 10
-496.996784455440490
 20
-190.910627197190310
 11
-496.996784455440490
 21
-193.966882338682640
  0
LINE
  8
0
  6
CONTINUOUS
 62
3
 10
-496.996784455440490
 20
-200.682900145821860
 11
-496.996784455440490
 21
-203.887065632762930
  0
ARC
  8
0
  6
CONTINUOUS
 62
3
 10
-499.496784455440260
 20
-213.052217022674800
 40
14.499999999999837
 50
47.920213139391684
 51
72.079786860608266
  0
LINE
  8
0
  6
CONTINUOUS
 62
3
 10
-484.218399779374690
 20
-201.344486171217620
 11
-481.571605186395740
 21
-199.816358600471460
  0
ARC
  8
0
  6
CONTINUOUS
 62
3
 10
-490.784641812626150
 20
-203.403456969110550
 40
1.499999999999926
 50
300.000000000001590
 51
47.920213139381872
  0
ARC
  8
0
  6
CONTINUOUS
 62
3
 10
-495.496784455440490
 20
-190.910627197190310
 40
1.499999999999952
 50
79.759651678814024
 51
180.000000000000000
  0
ARC
  8
0
  6
CONTINUOUS
 62
3
 10
-484.968399779374690
 20
-200.045448065541050
 40
1.499999999999967
 50
221.837004155893280
 51
300.000000000001590
  0
ARC
  8
0
  6
CONTINUOUS
 62
3
 10
-495.496784455440490
 20
-193.966882338682640
 40
1.500000000000000
 50
180.000000000000000
 51
258.162995844103310
  0
ARC
  8
0
  6
CONTINUOUS
 62
3
 10
-495.496784455440490
 20
-200.682900145821860
 40
1.500000000000138
 50
72.079786860605225
 51
180.000000000000000
  0
ARC
  8
0
  6
CONTINUOUS
 62
3
 10
-482.321605186395740
 20
-198.517320494794890
 40
1.499999999999926
 50
300.000000000001590
 51
40.240348321182964
  0
ARC
  8
0
  6
CONTINUOUS
 62
3
 10
-495.496784455440490
 20
-203.887065632762930
 40
1.500000000000000
 50
180.000000000000000
 51
246.421821521804280
  0
ARC
  8
0
  6
CONTINUOUS
 62
3
 10
-493.559530522246580
 20
-205.005539712581420
 40
1.499999999999693
 50
233.578178478195410
 51
300.000000000001590
  0
CIRCLE
  8
0
  6
CONTINUOUS
 62
3
 10
-499.496784455440490
 20
-213.052217022674800
 40
5.000000000000000
  0
ARC
  8
0
  6
CONTINUOUS
 62
3
 10
-476.622098527774770
 20
-195.226708791192150
 40
1.499999999999843
 50
217.928141766204990
 51
300.000000000001590
  0
LINE
  8
0
  6
CONTINUOUS
 62
3
 10
-475.872098527774770
 20
-196.525746896868720
 11
-473.251330285705930
 21
-195.012645646826570
  0
ARC
  8
0
  6
CONTINUOUS
 62
3
 10
-495.496784455440490
 20
-184.329403789984840
 40
1.500000000000000
 50
180.000000000000000
 51
262.071858233795980
  0
ARC
  8
0
  6
CONTINUOUS
 62
3
 10
-499.496784455440260
 20
-213.052217022674800
 40
27.500000000000043
 50
37.928141766201769
 51
82.071858233798309
  0
ARC
  8
0
  6
CONTINUOUS
 62
3
 10
-474.001330285705930
 20
-193.713607541150000
 40
1.499999999999926
 50
300.000000000001590
 51
37.180755781457485
  0
ARC
  8
0
  6
CONTINUOUS
 62
3
 10
-468.335248001289700
 20
-190.442293408991700
 40
1.500000000000102
 50
215.963570118316280
 51
299.999999999997270
  0
ARC
  8
0
  6
CONTINUOUS
 62
3
 10
-499.496784455440950
 20
-213.052217022675250
 40
36.999999999999922
 50
35.963570118321151
 51
84.036429881678160
  0
ARC
  8
0
  6
CONTINUOUS
 62
3
 10
-499.496784455440950
 20
-213.052217022675250
 40
33.500000000000057
 50
37.180755781458217
 51
82.819244218540916
  0
LINE
  8
0
  6
CONTINUOUS
 62
3
 10
-473.372098527774540
 20
-200.855873915791390
 11
-470.751330285705710
 21
-199.342772665749240
  0
ARC
  8
0
  6
CONTINUOUS
 62
3
 10
-470.001330285705710
 20
-200.641810771426040
 40
1.499999999999948
 50
22.819244218550043
 51
119.999999999997270
  0
ARC
  8
0
  6
CONTINUOUS
 62
3
 10
-472.622098527774540
 20
-202.154912021467960
 40
1.499999999999926
 50
120.000000000001620
 51
202.071858233797370
  0
ARC
  8
0
  6
CONTINUOUS
 62
3
 10
-499.496784455440040
 20
-213.052217022675250
 40
27.499999999999886
 50
337.928141766202200
 51
22.071858233797755
  0
ARC
  8
0
  6
CONTINUOUS
 62
3
 10
-499.496784455440720
 20
-213.052217022675710
 40
33.500000000000128
 50
337.180755781459030
 51
22.819244218541922
  0
ARC
  8
0
  6
CONTINUOUS
 62
3
 10
-472.622098527774770
 20
-223.949522023882570
 40
1.499999999999899
 50
157.928141766199360
 51
240.000000000007050
  0
LINE
  8
0
  6
CONTINUOUS
 62
3
 10
-470.751330285705480
 20
-226.761661379601520
 11
-473.372098527774770
 21
-225.248560129559590
  0
ARC
  8
0
  6
CONTINUOUS
 62
3
 10
-470.001330285705480
 20
-225.462623273924950
 40
1.499999999999926
 50
239.999999999998410
 51
337.180755781453340
  0
ARC
  8
0
  6
CONTINUOUS
 62
3
 10
-495.496784455440260
 20
-254.358996127320380
 40
1.500000000000000
 50
180.000000000000000
 51
275.531071524831360
  0
LINE
  8
0
  6
CONTINUOUS
 62
3
 10
-496.996784455440260
 20
-251.343861019766170
 11
-496.996784455440260
 21
-254.358996127320380
  0
LINE
  8
0
  6
CONTINUOUS
 62
3
 10
-496.996784455440260
 20
-241.775030255365720
 11
-496.996784455440260
 21
-244.801232755450030
  0
ARC
  8
0
  6
CONTINUOUS
 62
3
 10
-495.496784455440260
 20
-251.343861019766620
 40
1.500000000000182
 50
95.963570118326047
 51
179.999999999982630
  0
ARC
  8
0
  6
CONTINUOUS
 62
3
 10
-495.496784455440260
 20
-244.801232755450030
 40
1.500000000000000
 50
180.000000000000000
 51
277.180755781458290
  0
ARC
  8
0
  6
CONTINUOUS
 62
3
 10
-495.496784455440260
 20
-241.775030255365720
 40
1.499999999999995
 50
97.928141766195282
 51
180.000000000000000
  0
ARC
  8
0
  6
CONTINUOUS
 62
3
 10
-499.496784455440260
 20
-213.052217022675710
 40
27.499999999999879
 50
277.928141766202600
 51
322.071858233798930
  0
ARC
  8
0
  6
CONTINUOUS
 62
3
 10
-499.496784455440260
 20
-213.052217022674800
 40
37.000000000000057
 50
275.963570118320770
 51
324.036429881678030
  0
ARC
  8
0
  6
CONTINUOUS
 62
3
 10
-499.496784455440260
 20
-213.052217022674800
 40
43.000000000000227
 50
275.531071524838860
 51
324.468928475160340
  0
ARC
  8
0
  6
CONTINUOUS
 62
3
 10
-499.496784455440260
 20
-213.052217022674800
 40
33.500000000000149
 50
277.180755781458230
 51
322.819244218540860
  0
ARC
  8
0
  6
CONTINUOUS
 62
3
 10
-476.622098527774770
 20
-230.877725254158380
 40
1.500000000000320
 50
60.000000000007070
 51
142.071858233781280
  0
ARC
  8
0
  6
CONTINUOUS
 62
3
 10
-468.335248001289240
 20
-235.662140636358600
 40
1.499999999999926
 50
59.999999999998380
 51
144.036429881690740
  0
LINE
  8
0
  6
CONTINUOUS
 62
3
 10
-473.251330285705480
 20
-231.091788398523730
 11
-475.872098527774770
 21
-229.578687148481350
  0
ARC
  8
0
  6
CONTINUOUS
 62
3
 10
-474.001330285705480
 20
-232.390826504200310
 40
1.500000000000240
 50
322.819244218535570
 51
59.999999999998380
  0
ARC
  8
0
  6
CONTINUOUS
 62
3
 10
-503.496784455440720
 20
-254.358996127320380
 40
1.500000000000430
 50
264.468928475160000
 51
0.000000000000000
  0
LINE
  8
0
  6
CONTINUOUS
 62
3
 10
-501.996784455440720
 20
-251.343861019766170
 11
-501.996784455440720
 21
-254.358996127320380
  0
LINE
  8
0
  6
CONTINUOUS
 62
3
 10
-501.996784455440720
 20
-241.775030255365720
 11
-501.996784455440720
 21
-244.801232755450030
  0
ARC
  8
0
  6
CONTINUOUS
 62
3
 10
-503.496784455440720
 20
-251.343861019766620
 40
1.500000000000000
 50
0.000000000017370
 51
84.036429881682594
  0
ARC
  8
0
  6
CONTINUOUS
 62
3
 10
-503.496784455440720
 20
-244.801232755450030
 40
1.499999999999998
 50
262.819244218541710
 51
0.000000000000000
  0
ARC
  8
0
  6
CONTINUOUS
 62
3
 10
-503.496784455440720
 20
-241.775030255365720
 40
1.500000000000000
 50
0.000000000000000
 51
82.071858233804718
  0
ARC
  8
0
  6
CONTINUOUS
 62
3
 10
-499.496784455440720
 20
-213.052217022675710
 40
27.499999999999826
 50
217.928141766201010
 51
262.071858233797400
  0
ARC
  8
0
  6
CONTINUOUS
 62
3
 10
-499.496784455440720
 20
-213.052217022674800
 40
37.000000000000071
 50
215.963570118321910
 51
264.036429881678940
  0
ARC
  8
0
  6
CONTINUOUS
 62
3
 10
-499.496784455440720
 20
-213.052217022674800
 40
42.999999999999901
 50
215.531071524839630
 51
264.468928475160850
  0
ARC
  8
0
  6
CONTINUOUS
 62
3
 10
-499.496784455440720
 20
-213.052217022674800
 40
33.500000000000213
 50
217.180755781459060
 51
262.819244218541770
  0
ARC
  8
0
  6
CONTINUOUS
 62
3
 10
-522.371470383106270
 20
-230.877725254158380
 40
1.500000000000122
 50
37.928141766218701
 51
119.999999999992930
  0
ARC
  8
0
  6
CONTINUOUS
 62
3
 10
-533.269504508575890
 20
-237.169708190135940
 40
1.499999999999926
 50
120.000000000001620
 51
215.531071524832130
  0
LINE
  8
0
  6
CONTINUOUS
 62
3
 10
-534.019504508575890
 20
-235.870670084459360
 11
-531.408320909591790
 21
-234.363102530682030
  0
ARC
  8
0
  6
CONTINUOUS
 62
3
 10
-530.658320909591790
 20
-235.662140636358600
 40
1.499999999999968
 50
35.963570118309242
 51
120.000000000001620
  0
LINE
  8
0
  6
CONTINUOUS
 62
3
 10
-525.742238625175560
 20
-231.091788398523730
 11
-523.121470383106270
 21
-229.578687148481350
  0
ARC
  8
0
  6
CONTINUOUS
 62
3
 10
-524.992238625175560
 20
-232.390826504200310
 40
1.499999999999926
 50
120.000000000001620
 51
217.180755781464400
  0
ARC
  8
0
  6
CONTINUOUS
 62
3
 10
-537.269504508575890
 20
-195.862929085490630
 40
1.499999999999926
 50
59.999999999998380
 51
155.531071524840400
  0
LINE
  8
0
  6
CONTINUOUS
 62
3
 10
-533.908320909591340
 20
-196.071458533591170
 11
-536.519504508575890
 21
-194.563890979814060
  0
LINE
  8
0
  6
CONTINUOUS
 62
3
 10
-525.621470383106500
 20
-200.855873915791390
 11
-528.242238625175330
 21
-199.342772665749240
  0
ARC
  8
0
  6
CONTINUOUS
 62
3
 10
-534.658320909591570
 20
-197.370496639267740
 40
1.499999999999855
 50
335.963570118319300
 51
59.999999999990862
  0
ARC
  8
0
  6
CONTINUOUS
 62
3
 10
-528.992238625175330
 20
-200.641810771426040
 40
1.500000000000123
 50
60.000000000002721
 51
157.180755781457980
  0
ARC
  8
0
  6
CONTINUOUS
 62
3
 10
-526.371470383106500
 20
-202.154912021467960
 40
1.500000000000110
 50
337.928141766202600
 51
59.999999999998380
  0
ARC
  8
0
  6
CONTINUOUS
 62
3
 10
-499.496784455440950
 20
-213.052217022675250
 40
27.499999999999929
 50
157.928141766202290
 51
202.071858233798650
  0
ARC
  8
0
  6
CONTINUOUS
 62
3
 10
-499.496784455440260
 20
-213.052217022675710
 40
37.000000000000192
 50
155.963570118321200
 51
204.036429881678170
  0
ARC
  8
0
  6
CONTINUOUS
 62
3
 10
-499.496784455440260
 20
-213.052217022675710
 40
43.000000000000163
 50
155.531071524839290
 51
204.468928475160170
  0
ARC
  8
0
  6
CONTINUOUS
 62
3
 10
-499.496784455440260
 20
-213.052217022675710
 40
33.499999999999844
 50
157.180755781458460
 51
202.819244218540920
  0
ARC
  8
0
  6
CONTINUOUS
 62
3
 10
-526.371470383106270
 20
-223.949522023882570
 40
1.500000000000320
 50
299.999999999992950
 51
22.071858233784546
  0
ARC
  8
0
  6
CONTINUOUS
 62
3
 10
-537.269504508575890
 20
-230.241504959860120
 40
1.500000000000128
 50
204.468928475167470
 51
299.999999999992950
  0
LINE
  8
0
  6
CONTINUOUS
 62
3
 10
-536.519504508575890
 20
-231.540543065537150
 11
-533.908320909591790
 21
-230.032975511759820
  0
ARC
  8
0
  6
CONTINUOUS
 62
3
 10
-534.658320909591790
 20
-228.733937406083240
 40
1.499999999999926
 50
300.000000000001590
 51
24.036429881677126
  0
LINE
  8
0
  6
CONTINUOUS
 62
3
 10
-528.242238625175560
 20
-226.761661379601520
 11
-525.621470383106270
 21
-225.248560129559590
  0
ARC
  8
0
  6
CONTINUOUS
 62
3
 10
-528.992238625175560
 20
-225.462623273924950
 40
1.500000000000157
 50
202.819244218546660
 51
300.000000000001590
  0
ARC
  8
0
  6
CONTINUOUS
 62
3
 10
-533.269504508575440
 20
-188.934725855214590
 40
1.499999999999976
 50
144.468928475160790
 51
240.000000000002730
  0
LINE
  8
0
  6
CONTINUOUS
 62
3
 10
-531.408320909591340
 20
-191.741331514668500
 11
-534.019504508575440
 21
-190.233763960891390
  0
LINE
  8
0
  6
CONTINUOUS
 62
3
 10
-523.121470383106270
 20
-196.525746896868720
 11
-525.742238625175100
 21
-195.012645646826570
  0
ARC
  8
0
  6
CONTINUOUS
 62
3
 10
-530.658320909591340
 20
-190.442293408991700
 40
1.500000000000123
 50
240.000000000002730
 51
324.036429881683720
  0
ARC
  8
0
  6
CONTINUOUS
 62
3
 10
-524.992238625175100
 20
-193.713607541150000
 40
1.500000000000103
 50
142.819244218542510
 51
239.999999999998410
  0
ARC
  8
0
  6
CONTINUOUS
 62
3
 10
-522.371470383106270
 20
-195.226708791192150
 40
1.499999999999926
 50
239.999999999998410
 51
322.071858233800300
  0
ARC
  8
0
  6
CONTINUOUS
 62
3
 10
-499.496784455440040
 20
-213.052217022675250
 40
37.000000000000071
 50
95.963570118321798
 51
144.036429881678880
  0
ARC
  8
0
  6
CONTINUOUS
 62
3
 10
-499.496784455440040
 20
-213.052217022675250
 40
43.000000000000007
 50
95.531071524839788
 51
144.468928475160820
  0
ARC
  8
0
  6
CONTINUOUS
 62
3
 10
-499.496784455440040
 20
-213.052217022675250
 40
33.499999999999922
 50
97.180755781459084
 51
142.819244218541850
  0
ARC
  8
0
  6
CONTINUOUS
 62
3
 10
-503.496784455440490
 20
-184.329403789984840
 40
1.499999999999998
 50
277.928141766204020
 51
0.000000000000000
  0
ARC
  8
0
  6
CONTINUOUS
 62
3
 10
-543.445371885723030
 20
-162.955602555146980
 40
6.599999999999971
 50
98.597082237248614
 51
134.999999999998610
  0
ARC
  8
0
  6
CONTINUOUS
 62
4
 10
-538.438302410822640
 20
-172.943439482088540
 40
5.999999999999923
 50
97.897988672425626
 51
134.999999999996930
  0
ARC
  8
0
  6
CONTINUOUS
 62
4
 10
-499.496784455440490
 20
-453.652217022675190
 40
289.396999999999930
 50
90.000000000000000
 51
97.897988672427758
  0
LINE
  8
0
  6
CONTINUOUS
 62
3
 10
-435.996784455440490
 20
-245.656960708952000
 11
-432.970607507132570
 21
-245.577717476729220
  0
ARC
  8
0
  6
CONTINUOUS
 62
3
 10
-432.996784455440490
 20
-244.578060151753620
 40
1.000000000000045
 50
271.500000000002670
 51
0.000000000000000
  0
ARC
  8
0
  6
CONTINUOUS
 62
3
 10
-432.996784455440490
 20
-181.526373893596940
 40
1.000000000000000
 50
0.000000000000000
 51
88.499999999997257
  0
LINE
  8
0
  6
CONTINUOUS
 62
3
 10
-431.996784455440490
 20
-244.578060151753620
 11
-431.996784455440490
 21
-181.526373893596940
  0
LINE
  8
0
  6
CONTINUOUS
 62
3
 10
-435.996784455440490
 20
-183.059717960408480
 11
-435.996784455440490
 21
-180.447473336398560
  0
LINE
  8
0
  6
CONTINUOUS
 62
3
 10
-435.996784455440490
 20
-243.044716084942080
 11
-435.996784455440490
 21
-245.656960708952000
  0
LINE
  8
0
  6
CONTINUOUS
 62
3
 10
-431.996784455440490
 20
-213.052217022675250
 11
-431.996784455440490
 21
-182.052217022675280
  0
LINE
  8
0
  6
CONTINUOUS
 62
3
 10
-431.996784455440490
 20
-213.052217022675250
 11
-431.996784455440490
 21
-244.052217022675280
  0
ARC
  8
0
  6
CONTINUOUS
 62
3
 10
-426.726684471225040
 20
-171.475891482787860
 40
1.000000000000041
 50
24.000000000003585
 51
113.999999999979760
  0
LINE
  8
0
  6
CONTINUOUS
 62
3
 10
-428.937355456287780
 20
-173.394704494954170
 11
-429.362187616033850
 21
-174.395546343569610
  0
LINE
  8
0
  6
CONTINUOUS
 62
3
 10
-428.492441711077790
 20
-174.393997127911520
 11
-428.625783733271820
 21
-174.708131246360890
  0
LINE
  8
0
  6
CONTINUOUS
 62
3
 10
-429.362187616033850
 20
-174.395546343569610
 11
-428.625783733271820
 21
-174.708131246360890
  0
LINE
  8
0
  6
CONTINUOUS
 62
3
 10
-425.813139013582430
 20
-171.069154839711980
 11
-407.121075432633630
 21
-213.052217022675250
  0
ARC
  8
0
  6
CONTINUOUS
 62
3
 10
-421.290223191787110
 20
-173.852010094014360
 40
3.000000000000030
 50
203.999999999999630
 51
260.681876880317470
  0
LINE
  8
0
  6
CONTINUOUS
 62
3
 10
-421.775971082225790
 20
-176.812423745336500
 11
-395.820333988689700
 21
-181.071252898329530
  0
ARC
  8
0
  6
CONTINUOUS
 62
3
 10
-398.249073440881320
 20
-195.873321154940470
 40
15.000000000000393
 50
1.682768801133086
 51
80.681876880324481
  0
LINE
  8
0
  6
CONTINUOUS
 62
3
 10
-427.133421114300460
 20
-170.562346025145250
 11
-429.691348395699780
 21
-171.701208625757370
  0
LINE
  8
0
  6
CONTINUOUS
 62
3
 10
-427.413623194480070
 20
-176.817063188558280
 11
-429.216994384666750
 21
-177.619975772688410
  0
ARC
  8
0
  6
CONTINUOUS
 62
3
 10
-427.996784455440490
 20
-180.360612145616240
 40
2.999999999999567
 50
113.999999999979760
 51
180.000000000000000
  0
LINE
  8
0
  6
CONTINUOUS
 62
3
 10
-431.996784455440490
 20
-182.052217022675280
 11
-430.996784455440490
 21
-182.052217022675280
  0
ARC
  8
0
  6
CONTINUOUS
 62
3
 10
-425.996784455440490
 20
-254.552217022675280
 40
5.000000000000000
 50
180.000000000000000
 51
270.000000000000000
  0
LINE
  8
0
  6
CONTINUOUS
 62
3
 10
-425.996784455440490
 20
-259.552217022675280
 11
-390.577559424111710
 21
-259.552217022675280
  0
LINE
  8
0
  6
CONTINUOUS
 62
3
 10
-407.121075432636810
 20
-213.052217022675250
 11
-380.909413618013960
 21
-271.924573363455290
  0
LINE
  8
0
  6
CONTINUOUS
 62
3
 10
-431.996784455440490
 20
-244.052217022675280
 11
-430.996784455440490
 21
-244.052217022675280
  0
LINE
  8
0
  6
CONTINUOUS
 62
3
 10
-430.996784455440490
 20
-180.360612145616240
 11
-430.996784455440490
 21
-254.552217022675280
  0
LINE
  8
0
  6
CONTINUOUS
 62
3
 10
-429.691348395705010
 20
-171.701208625759650
 11
-383.974149713980010
 21
-274.383718064785680
  0
LINE
  8
0
  6
DASHDOT
 62
4
 10
-406.996784455440490
 20
-245.169693242969570
 11
-406.996784455440490
 21
-268.038202418733190
  0
ARC
  8
0
  6
CONTINUOUS
 62
3
 10
-499.496784455440490
 20
-251.552217022671640
 40
27.000000000000000
 50
270.000000000000000
 51
308.867683836605860
  0
ARC
  8
0
  6
CONTINUOUS
 62
3
 10
-499.496784455440490
 20
-251.552217022671640
 40
27.000000000000089
 50
231.132316163394020
 51
270.000000000000000
  0
LINE
  8
0
  6
CONTINUOUS
 62
3
 10
-562.735032354956390
 20
-180.638782508795170
 11
-563.133993382714150
 21
-180.408442539467190
  0
LINE
  8
0
  6
CONTINUOUS
 62
3
 10
-569.633988478017500
 20
-191.666774528180700
 11
-563.951095747789170
 21
-194.947790081333270
  0
ARC
  8
0
  6
CONTINUOUS
 62
3
 10
-563.136394762230110
 20
-187.912606715882500
 40
6.499999999999999
 50
87.278340775294154
 51
263.116633603636160
  0
ARC
  8
0
  6
CONTINUOUS
 62
3
 10
-563.136394762230110
 20
-187.912606715882730
 40
9.999999999999870
 50
238.384308452268900
 51
264.396233075981170
  0
ARC
  8
0
  6
CONTINUOUS
 62
3
 10
-517.496784455441460
 20
-234.552217022671610
 40
79.999999999999972
 50
117.992427283752490
 51
180.000000000000000
  0
ARC
  8
0
  6
CONTINUOUS
 62
3
 10
-511.369767801648040
 20
-152.552217022671610
 40
2.000000000000059
 50
340.550513054509000
 51
345.522487814070530
  0
ARC
  8
0
  6
CONTINUOUS
 62
3
 10
-487.623801109233400
 20
-152.552217022671610
 40
2.000000000000063
 50
194.477512185929440
 51
199.449486945498250
  0
ARC
  8
0
  6
CONTINUOUS
 62
3
 10
-428.649891874993220
 20
-167.977402380866610
 40
5.000000000000005
 50
231.557556888218500
 51
264.448527036889120
  0
ARC
  8
0
  6
CONTINUOUS
 62
3
 10
-428.649891874993220
 20
-167.977402380866610
 40
5.000000000000036
 50
309.473623557055420
 51
315.000000000000000
  0
ARC
  8
0
  6
CONTINUOUS
 62
3
 10
-481.496784455440040
 20
-234.552217022671610
 40
80.000000000000014
 50
48.337970458517773
 51
48.574982614211528
  0
ARC
  8
0
  6
CONTINUOUS
 62
3
 10
-415.815485126984360
 20
-180.598839755573660
 40
5.000000000000041
 50
135.000000000001820
 51
137.021362958702530
  0
LINE
  8
0
  6
CONTINUOUS
 62
3
 10
-435.859575357018630
 20
-180.408443902075330
 11
-435.782303882397230
 21
-180.453089707862400
  0
LINE
  8
0
  6
CONTINUOUS
 62
3
 10
-435.996784455440490
 20
-180.447473336398560
 11
-432.970607507132570
 21
-180.526716568621400
  0
ARC
  8
0
  6
CONTINUOUS
 62
3
 10
-481.496784455440040
 20
-234.552217022671610
 40
80.000000000000043
 50
49.177852779626662
 51
62.030006033939010
  0
LINE
  8
0
  6
CONTINUOUS
 62
3
 10
-435.930198948394320
 20
-180.449216939263750
 11
-435.859575528166890
 21
-180.408442539467190
  0
LINE
  8
0
  6
CONTINUOUS
 62
3
 10
-436.258536555924650
 20
-180.638782508795200
 11
-435.996784455440490
 21
-180.487660051707340
  0
ARC
  8
0
  6
CONTINUOUS
 62
3
 10
-435.857174148650930
 20
-187.912606715882500
 40
6.500000000000008
 50
91.230722540682024
 51
92.721659224705846
  0
LINE
  8
0
  6
CONTINUOUS
 62
3
 10
-401.496784455440040
 20
-259.552217022675280
 11
-401.496784455440040
 21
-268.552217022671640
  0
LINE
  8
0
  6
DASHDOT
 62
4
 10
-694.471866172287260
 20
-213.052217022675250
 11
-304.321045818996940
 21
-213.052217022675250
  0
LINE
  8
0
  6
DASHDOT
 62
4
 10
-499.496784455440490
 20
-408.227811882828920
 11
-499.496784455440490
 21
-11.563305065985332
  0
ARC
  8
0
  6
CONTINUOUS
 62
3
 10
-509.996784455440490
 20
-99.552217022675848
 40
10.000000000000057
 50
180.000000000000000
 51
270.000000000000000
  0
LINE
  8
0
  6
CONTINUOUS
 62
3
 10
-488.996784455440490
 20
-109.552217022675840
 11
-509.996784455440490
 21
-109.552217022675840
  0
ARC
  8
0
  6
CONTINUOUS
 62
3
 10
-488.996784455440490
 20
-99.552217022675848
 40
10.000000000000000
 50
270.000000000000000
 51
0.000000000000000
  0
TEXT
  8
0
  6
CONTINUOUS
 62
3
 10
-504.646972656250000
 20
231.881240844726560
 40
16.000000000000000
  1
Ｄ０９３
 50
0.000002504478167
 41
0.833333333333333
  7
STANDARD1
  0
TEXT
  8
0
  6
CONTINUOUS
 62
3
 10
-504.646972656250000
 20
210.681243896484380
 40
16.000000000000000
  1
三菱ギヤードモートル
 50
0.000002504478167
 41
0.833333333333333
  7
STANDARD1
  0
TEXT
  8
0
  6
CONTINUOUS
 62
3
 10
-504.646972656250000
 20
189.481246948242190
 40
16.000000000000000
  1
ＧＭ－ＤＦＢ
 50
0.000002504478167
 41
0.833333333333333
  7
STANDARD1
  0
TEXT
  8
0
  6
CONTINUOUS
 62
3
 10
-504.646972656250000
 20
168.281234741210940
 40
16.000000000000000
  1
０．４（kＷ）
 50
0.000002504478167
 41
0.804878051688032
  7
STANDARD1
  0
TEXT
  8
0
  6
CONTINUOUS
 62
3
 10
-504.646972656250000
 20
147.081237792968750
 40
16.000000000000000
  1
１／１２００
 50
0.000002504478167
 41
0.833333333333333
  7
STANDARD1
  0
TEXT
  8
0
  6
CONTINUOUS
 62
3
 10
-504.646972656250000
 20
125.881240844726560
 40
16.000000000000000
  1
ＳＣＡＬＥ　１／１
 50
0.000002504478167
 41
0.833333333333333
  7
STANDARD1
  0
ARC
  8
0
  6
CONTINUOUS
 62
3
 10
-19.964450706533000
 20
281.947782977325630
 40
3.000000000000000
 50
90.000000000000000
 51
180.000000000000000
  0
LINE
  8
0
  6
CONTINUOUS
 62
3
 10
-19.964450706533000
 20
284.947782977325630
 11
-12.964450706533000
 21
284.947782977325630
  0
INSERT
  8
0
  2
SYM3
 10
-2.964450706534592
 20
197.447782977324720
 41
-1.000000000000000
 50
180.000000000000030
  0
INSERT
  8
0
  2
SYM2
 10
12.535549293467284
 20
247.035952255002200
 41
-1.000000000000000
 50
180.000000000000030
  0
INSERT
  8
0
  2
SYM3
 10
-2.964450706534592
 20
176.447782977324950
  0
INSERT
  8
0
  2
SYM2
 10
12.535549293467284
 20
126.859613699647460
  0
LINE
  8
0
  6
CONTINUOUS
 62
3
 10
201.535549293467280
 20
186.947782977324720
 11
201.535549293467280
 21
215.147782977325450
  0
LINE
  8
0
  6
CONTINUOUS
 62
3
 10
201.535549293467280
 20
215.147782977325450
 11
201.535549293467280
 21
186.947782977324720
  0
LINE
  8
0
  6
CONTINUOUS
 62
3
 10
282.735549293467560
 20
214.447782977324720
 11
204.095356914602690
 21
214.447782977324720
  0
LINE
  8
0
  6
CONTINUOUS
 62
3
 10
203.535549293466830
 20
214.297782977325080
 11
202.335549293467470
 21
214.297782977325080
  0
LINE
  8
0
  6
CONTINUOUS
 62
3
 10
203.535549293467280
 20
214.297782977325080
 11
204.095356914602690
 21
214.447782977324720
  0
ARC
  8
0
  6
CONTINUOUS
 62
3
 10
202.335549293467470
 20
215.097782977325270
 40
0.800000000000182
 50
180.000000000000000
 51
270.000000000000000
  0
LINE
  8
0
  6
CONTINUOUS
 62
3
 10
200.735549293467560
 20
215.947782977324720
 11
201.535549293467280
 21
215.147782977325450
  0
LINE
  8
0
  6
CONTINUOUS
 62
3
 10
283.535549293467280
 20
155.447782977324720
 11
212.535549293467280
 21
155.447782977324720
  0
LINE
  8
0
  6
CONTINUOUS
 62
3
 10
212.535549293467280
 20
159.447782977324720
 11
212.535549293467280
 21
155.447782977324720
  0
LINE
  8
0
  6
CONTINUOUS
 62
3
 10
200.735549293467560
 20
157.947782977324720
 11
201.535549293467280
 21
158.747782977324900
  0
ARC
  8
0
  6
CONTINUOUS
 62
3
 10
202.335549293467470
 20
158.797782977325080
 40
0.800000000000182
 50
90.000000000000000
 51
180.000000000000000
  0
LINE
  8
0
  6
CONTINUOUS
 62
3
 10
203.535549293467280
 20
159.597782977325270
 11
204.095356914602690
 21
159.447782977324720
  0
LINE
  8
0
  6
CONTINUOUS
 62
3
 10
203.535549293466830
 20
159.597782977325270
 11
202.335549293467470
 21
159.597782977325270
  0
LINE
  8
0
  6
CONTINUOUS
 62
3
 10
201.535549293467280
 20
158.747782977325810
 11
201.535549293467280
 21
186.947782977324720
  0
LINE
  8
0
  6
CONTINUOUS
 62
3
 10
201.535549293467280
 20
186.947782977324720
 11
201.535549293467280
 21
158.747782977325810
  0
LINE
  8
0
  6
CONTINUOUS
 62
3
 10
219.535549293467280
 20
159.447782977324720
 11
211.535549293467280
 21
159.447782977324720
  0
LINE
  8
0
  6
CONTINUOUS
 62
3
 10
211.535549293467280
 20
159.447782977324720
 11
204.095356914602690
 21
159.447782977324720
  0
LINE
  8
0
  6
CONTINUOUS
 62
3
 10
282.735549293467560
 20
159.447782977324720
 11
219.535549293467280
 21
159.447782977324720
  0
CIRCLE
  8
0
  6
CONTINUOUS
 62
3
 10
50.035549293467739
 20
186.947782977324720
 40
16.000000000000227
  0
LINE
  8
0
  6
CONTINUOUS
 62
3
 10
186.535549293467280
 20
186.947782977324720
 11
186.535549293467280
 21
46.374189848517460
  0
LINE
  8
0
  6
CONTINUOUS
 62
3
 10
186.535549293467280
 20
186.947782977324720
 11
186.535549293467280
 21
327.521376106131530
  0
ARC
  8
0
  6
CONTINUOUS
 62
3
 10
136.545673561620330
 20
207.708747389062130
 40
3.000000000000000
 50
270.000000000000000
 51
0.000000000000000
  0
LINE
  8
0
  6
CONTINUOUS
 62
3
 10
50.035549293467739
 20
204.708747389062130
 11
136.545673561620330
 21
204.708747389062130
  0
ARC
  8
0
  6
CONTINUOUS
 62
3
 10
136.545673561620330
 20
166.708747389062130
 40
3.000000000000000
 50
0.000000000000000
 51
90.000000000000000
  0
LINE
  8
0
  6
CONTINUOUS
 62
3
 10
50.035549293467739
 20
169.708747389062130
 11
136.545673561620330
 21
169.708747389062130
  0
ARC
  8
0
  6
CONTINUOUS
 62
3
 10
50.035549293467739
 20
186.947782977324720
 40
19.999999999999982
 50
300.463560013368920
 51
62.629002634512737
  0
ARC
  8
0
  6
CONTINUOUS
 62
3
 10
50.035549293467739
 20
187.208747389062130
 40
17.500000000000000
 50
90.000000000000000
 51
270.000000000000000
  0
LINE
  8
0
  6
DASHDOT
 62
4
 10
50.035549293467739
 20
213.243790707032250
 11
50.035549293467739
 21
161.173704071092000
  0
LINE
  8
0
  6
CONTINUOUS
 62
3
 10
25.035549293467284
 20
334.947782977324720
 11
25.035549293467284
 21
38.947782977324721
  0
LINE
  8
0
  6
CONTINUOUS
 62
3
 10
173.535549293466830
 20
3.947763268113874
 11
173.535549293467280
 21
369.947802686535570
  0
LINE
  8
0
  6
CONTINUOUS
 62
3
 10
197.535549293467280
 20
186.947782977324720
 11
197.535549293467280
 21
17.947782977324721
  0
LINE
  8
0
  6
CONTINUOUS
 62
3
 10
193.535549293467280
 20
186.947782977324720
 11
193.535549293467280
 21
1.947782977324721
  0
LINE
  8
0
  6
CONTINUOUS
 62
3
 10
197.535549293467280
 20
186.947782977324720
 11
197.535549293467280
 21
355.947802686535570
  0
LINE
  8
0
  6
CONTINUOUS
 62
3
 10
193.535549293467280
 20
186.947782977324720
 11
193.535549293467280
 21
371.947802686535570
  0
LINE
  8
0
  6
CONTINUOUS
 62
3
 10
193.535549293467740
 20
293.454977286176640
 11
188.535549293467280
 21
293.454977286176640
  0
LINE
  8
0
  6
CONTINUOUS
 62
3
 10
193.535549293467740
 20
329.521376106131530
 11
188.535549293467280
 21
329.521376106131530
  0
ARC
  8
0
  6
CONTINUOUS
 62
3
 10
188.535549293467280
 20
327.521376106131530
 40
2.000000000000000
 50
90.000000000000000
 51
180.000000000000000
  0
ARC
  8
0
  6
CONTINUOUS
 62
3
 10
188.535549293467280
 20
291.454977286176640
 40
2.000000000000000
 50
90.000000000000000
 51
180.000000000000000
  0
LINE
  8
0
  6
CONTINUOUS
 62
3
 10
25.035549293467284
 20
334.947782977324720
 11
168.710046776979650
 21
339.965006985788650
  0
ARC
  8
0
  6
CONTINUOUS
 62
3
 10
168.535549293467280
 20
344.961961120884500
 40
4.999999999999925
 50
272.000000000003690
 51
0.000000000000000
  0
ARC
  8
0
  6
CONTINUOUS
 62
3
 10
175.535549293467280
 20
369.947782977335630
 40
2.000000000000000
 50
90.000000000000000
 51
180.000000000000000
  0
LINE
  8
0
  6
CONTINUOUS
 62
3
 10
193.535549293467280
 20
371.947782977335630
 11
175.535549293467280
 21
371.947782977335630
  0
LINE
  8
0
  6
CONTINUOUS
 62
3
 10
196.535549293467280
 20
356.947802686535570
 11
193.535549293467280
 21
356.947802686535570
  0
LINE
  8
0
  6
CONTINUOUS
 62
3
 10
196.535549293467280
 20
356.947802686535570
 11
197.535549293467280
 21
355.947802686535570
  0
LINE
  8
0
  6
CONTINUOUS
 62
3
 10
193.535549293467740
 20
80.440588668472344
 11
188.535549293467280
 21
80.440588668472344
  0
LINE
  8
0
  6
CONTINUOUS
 62
3
 10
193.535549293467740
 20
44.374189848517460
 11
188.535549293467280
 21
44.374189848517460
  0
ARC
  8
0
  6
CONTINUOUS
 62
3
 10
188.535549293467280
 20
46.374189848517460
 40
2.000000000000000
 50
180.000000000000000
 51
270.000000000000000
  0
ARC
  8
0
  6
CONTINUOUS
 62
3
 10
188.535549293467280
 20
82.440588668472344
 40
2.000000000000000
 50
180.000000000000000
 51
270.000000000000000
  0
LINE
  8
0
  6
CONTINUOUS
 62
3
 10
25.035549293467284
 20
38.947782977324493
 11
168.710046776979650
 21
33.930558968860566
  0
ARC
  8
0
  6
CONTINUOUS
 62
3
 10
168.535549293467280
 20
28.933604833764718
 40
5.000000000000000
 50
0.000000000000000
 51
87.999999999996319
  0
LINE
  8
0
  6
CONTINUOUS
 62
3
 10
175.526670303945590
 20
1.947782977324721
 11
193.535549293467280
 21
1.947782977324721
  0
ARC
  8
0
  6
CONTINUOUS
 62
3
 10
175.535549293467280
 20
3.947763268113874
 40
2.000000000000000
 50
180.000000000000000
 51
270.000000000000000
  0
LINE
  8
0
  6
CONTINUOUS
 62
3
 10
193.535549293467280
 20
16.947782977324721
 11
196.535549293467280
 21
16.947782977324721
  0
LINE
  8
0
  6
CONTINUOUS
 62
3
 10
196.535549293467280
 20
16.947782977324721
 11
197.535549293467280
 21
17.947782977324721
  0
LINE
  8
0
  6
DASHDOT
 62
4
 10
206.397177312241640
 20
346.046808744297950
 11
159.267033253438510
 21
346.046808744297950
  0
LINE
  8
0
  6
DASHDOT
 62
4
 10
206.397177312241640
 20
27.848757210351494
 11
159.267033253438510
 21
27.848757210351494
  0
LINE
  8
0
  6
CONTINUOUS
 62
3
 10
168.660092836582860
 20
96.159461669386189
 11
147.879238442447330
 21
96.159461669386189
  0
ARC
  8
0
  6
CONTINUOUS
 62
3
 10
168.535549293467280
 20
49.260009569102010
 40
4.999999999999545
 50
0.000000000000000
 51
38.091566507328714
  0
LINE
  8
0
  6
CONTINUOUS
 62
3
 10
145.684897591031130
 20
86.516139796771029
 11
172.470678475033310
 21
52.344609757843671
  0
ARC
  8
0
  6
CONTINUOUS
 62
3
 10
141.749768409464650
 20
83.431539608028913
 40
5.000000000000397
 50
38.091566507329595
 51
90.000000000000000
  0
ARC
  8
0
  6
CONTINUOUS
 62
3
 10
168.535549293467280
 20
56.987931630459286
 40
4.999999999999545
 50
0.000000000000000
 51
38.091566507328714
  0
LINE
  8
0
  6
CONTINUOUS
 62
3
 10
145.684897591031130
 20
94.244061858128305
 11
172.470678475033310
 21
60.072531819200947
  0
ARC
  8
0
  6
CONTINUOUS
 62
3
 10
141.749768409464650
 20
91.159461669386189
 40
5.000000000000397
 50
38.091566507329595
 51
90.000000000000000
  0
ARC
  8
0
  6
CONTINUOUS
 62
3
 10
168.535549293467280
 20
195.947782977324720
 40
5.000000000000000
 50
270.000000000000000
 51
0.000000000000000
  0
LINE
  8
0
  6
CONTINUOUS
 62
3
 10
168.535549293467280
 20
190.947782977324720
 11
149.183487511026670
 21
190.947782977324720
  0
ARC
  8
0
  6
CONTINUOUS
 62
3
 10
168.535549293467280
 20
177.947782977324720
 40
5.000000000000000
 50
0.000000000000000
 51
90.000000000000000
  0
LINE
  8
0
  6
CONTINUOUS
 62
3
 10
168.535549293467280
 20
182.947782977324720
 11
149.183487511026670
 21
182.947782977324720
  0
ARC
  8
0
  6
CONTINUOUS
 62
3
 10
149.183487511026670
 20
177.947782977324720
 40
5.000000000000000
 50
90.000000000000000
 51
180.000000000000000
  0
ARC
  8
0
  6
CONTINUOUS
 62
3
 10
149.183487511026670
 20
195.947782977324720
 40
5.000000000000000
 50
180.000000000000000
 51
270.000000000000000
  0
LINE
  8
0
  6
CONTINUOUS
 62
3
 10
168.660092836582860
 20
277.736104285263250
 11
147.879238442447330
 21
277.736104285263250
  0
ARC
  8
0
  6
CONTINUOUS
 62
3
 10
168.535549293467280
 20
324.635556385547430
 40
4.999999999999759
 50
321.908433492671290
 51
0.000000000000000
  0
LINE
  8
0
  6
CONTINUOUS
 62
3
 10
145.684897591031130
 20
287.379426157878410
 11
172.470678475033310
 21
321.550956196805770
  0
ARC
  8
0
  6
CONTINUOUS
 62
3
 10
141.749768409464650
 20
290.464026346620530
 40
5.000000000000000
 50
270.000000000000000
 51
321.908433492670440
  0
ARC
  8
0
  6
CONTINUOUS
 62
3
 10
168.535549293467280
 20
316.907634324190160
 40
4.999999999999759
 50
321.908433492671290
 51
0.000000000000000
  0
LINE
  8
0
  6
CONTINUOUS
 62
3
 10
145.684897591031130
 20
279.651504096521140
 11
172.470678475033310
 21
313.823034135448490
  0
ARC
  8
0
  6
CONTINUOUS
 62
3
 10
141.749768409464650
 20
282.736104285263250
 40
5.000000000000000
 50
270.000000000000000
 51
321.908433492670440
  0
LINE
  8
0
  6
CONTINUOUS
 62
3
 10
-8.151391705794197
 20
258.089893063369290
 11
12.535549293467284
 21
258.089893063369290
  0
LINE
  8
0
  6
CONTINUOUS
 62
3
 10
1.768829836510065
 20
287.615105933573600
 11
-12.964450706532773
 21
286.842967418758860
  0
ARC
  8
0
  6
CONTINUOUS
 62
3
 10
9.535549293467227
 20
305.947782977324720
 40
3.000000000000004
 50
46.028108457828694
 51
90.000000000000000
  0
LINE
  8
0
  6
CONTINUOUS
 62
3
 10
-9.147154593369180
 20
264.904897234884570
 11
12.239417450996370
 21
309.398686832793090
  0
ARC
  8
0
  6
CONTINUOUS
 62
3
 10
9.535549293467227
 20
310.698339473578190
 40
2.999999999999954
 50
334.328072254076630
 51
0.000000000000000
  0
ARC
  8
0
  6
CONTINUOUS
 62
3
 10
-11.851022750898267
 20
266.204549875669670
 40
3.000000000000000
 50
270.000000000000000
 51
334.328072254076120
  0
ARC
  8
0
  6
CONTINUOUS
 62
3
 10
-11.851022750898267
 20
261.089893063369290
 40
3.000000000000000
 50
270.000000000000000
 51
334.328072254076120
  0
LINE
  8
0
  6
CONTINUOUS
 62
3
 10
-9.147154593369180
 20
259.790240422584190
 11
12.239417450996370
 21
304.284030020492710
  0
ARC
  8
0
  6
CONTINUOUS
 62
3
 10
9.535549293467227
 20
305.583682661277810
 40
2.999999999999954
 50
334.328072254076630
 51
0.000000000000000
  0
LINE
  8
0
  6
CONTINUOUS
 62
3
 10
-12.964450706532773
 20
186.947782977324720
 11
-12.964450706532773
 21
286.842967418758860
  0
LINE
  8
0
  6
CONTINUOUS
 62
3
 10
-2.964450706534592
 20
186.947782977324720
 11
-2.964450706534592
 21
207.447782977324720
  0
LINE
  8
0
  6
CONTINUOUS
 62
3
 10
4.535549293467227
 20
207.447782977324720
 11
9.535549293467227
 21
207.447782977324720
  0
LINE
  8
0
  6
CONTINUOUS
 62
3
 10
-2.964450706534592
 20
207.447782977324720
 11
1.535549293467227
 21
207.447782977324720
  0
LINE
  8
0
  6
CONTINUOUS
 62
3
 10
1.535549293467227
 20
186.947782977324720
 11
1.535549293467227
 21
207.447782977324720
  0
ARC
  8
0
  6
CONTINUOUS
 62
3
 10
4.535549293467227
 20
204.447782977324720
 40
3.000000000000000
 50
90.000000000000000
 51
180.000000000000000
  0
ARC
  8
0
  6
CONTINUOUS
 62
3
 10
9.535549293467227
 20
210.447782977324490
 40
2.999999999999773
 50
270.000000000000000
 51
0.000000000000000
  0
LINE
  8
0
  6
CONTINUOUS
 62
3
 10
12.535549293467284
 20
331.947782977324720
 11
12.535549293467284
 21
210.447782977324490
  0
LINE
  8
0
  6
CONTINUOUS
 62
3
 10
3.135549674936954
 20
310.947782977324490
 11
3.135549674936954
 21
326.947782977324490
  0
LINE
  8
0
  6
CONTINUOUS
 62
3
 10
3.135549980748181
 20
326.947782056645740
 11
2.535550559244655
 21
325.908693762790510
  0
LINE
  8
0
  6
CONTINUOUS
 62
3
 10
3.135553216073220
 20
310.947784452983510
 11
2.535552818551366
 21
311.987173099274680
  0
LINE
  8
0
  6
CONTINUOUS
 62
3
 10
12.535549293467284
 20
326.947782977324490
 11
3.135549674936954
 21
326.947782977324490
  0
LINE
  8
0
  6
CONTINUOUS
 62
3
 10
12.535549293467284
 20
310.947782977324490
 11
3.135549674936954
 21
310.947782977324490
  0
LINE
  8
0
  6
CONTINUOUS
 62
3
 10
2.535548816640073
 20
311.987170582887020
 11
2.535549770314390
 21
325.908694630738580
  0
LINE
  8
0
  6
CONTINUOUS
 62
3
 10
6.535549293467227
 20
326.947782977324720
 11
6.535549293467227
 21
331.947782977324720
  0
ARC
  8
0
  6
CONTINUOUS
 62
3
 10
9.535549293467227
 20
311.947782977324720
 40
3.000000000000097
 50
199.471220634494640
 51
270.000000000000000
  0
ARC
  8
0
  6
CONTINUOUS
 62
3
 10
9.535549293467227
 20
331.947782977324720
 40
3.000000000000000
 50
90.000000000000000
 51
180.000000000000000
  0
ARC
  8
0
  6
CONTINUOUS
 62
3
 10
15.535549293467284
 20
331.947782977324720
 40
3.000000000000000
 50
90.000000000000000
 51
180.000000000000000
  0
LINE
  8
0
  6
CONTINUOUS
 62
3
 10
24.535549293467284
 20
186.947782977324720
 11
24.535549293467284
 21
334.947782977324720
  0
LINE
  8
0
  6
CONTINUOUS
 62
3
 10
-8.151391705794197
 20
115.805672891280380
 11
12.535549293467284
 21
115.805672891280380
  0
LINE
  8
0
  6
CONTINUOUS
 62
3
 10
1.768829836510065
 20
86.280460021076067
 11
-12.964450706532773
 21
87.052598535890809
  0
ARC
  8
0
  6
CONTINUOUS
 62
3
 10
9.535549293467227
 20
67.947782977324948
 40
3.000000000000000
 50
270.000000000000000
 51
313.971891542171310
  0
LINE
  8
0
  6
CONTINUOUS
 62
3
 10
-9.147154593369180
 20
108.990668719765090
 11
12.239417450996370
 21
64.496879121856580
  0
ARC
  8
0
  6
CONTINUOUS
 62
3
 10
9.535549293467227
 20
63.197226481071482
 40
3.000000000000057
 50
0.000000000000000
 51
25.671927745923391
  0
ARC
  8
0
  6
CONTINUOUS
 62
3
 10
-11.851022750898267
 20
107.691016078979990
 40
2.999999999999903
 50
25.671927745923867
 51
90.000000000000000
  0
ARC
  8
0
  6
CONTINUOUS
 62
3
 10
-11.851022750898267
 20
112.805672891280380
 40
2.999999999999903
 50
25.671927745923867
 51
90.000000000000000
  0
LINE
  8
0
  6
CONTINUOUS
 62
3
 10
-9.147154593369180
 20
114.105325532065470
 11
12.239417450996370
 21
69.611535934156962
  0
ARC
  8
0
  6
CONTINUOUS
 62
3
 10
9.535549293467227
 20
68.311883293371864
 40
3.000000000000057
 50
0.000000000000000
 51
25.671927745923391
  0
LINE
  8
0
  6
CONTINUOUS
 62
3
 10
-12.964450706532773
 20
186.947782977324950
 11
-12.964450706532773
 21
87.052598535890809
  0
LINE
  8
0
  6
CONTINUOUS
 62
3
 10
-2.964450706534592
 20
186.947782977324950
 11
-2.964450706534592
 21
166.447782977324950
  0
LINE
  8
0
  6
CONTINUOUS
 62
3
 10
4.535549293467227
 20
166.447782977324950
 11
9.535549293467227
 21
166.447782977324950
  0
LINE
  8
0
  6
CONTINUOUS
 62
3
 10
-2.964450706534592
 20
166.447782977324950
 11
1.535549293467227
 21
166.447782977324950
  0
LINE
  8
0
  6
CONTINUOUS
 62
3
 10
1.535549293467227
 20
186.947782977324950
 11
1.535549293467227
 21
166.447782977324950
  0
ARC
  8
0
  6
CONTINUOUS
 62
3
 10
4.535549293467227
 20
169.447782977324950
 40
3.000000000000000
 50
180.000000000000000
 51
270.000000000000000
  0
ARC
  8
0
  6
CONTINUOUS
 62
3
 10
9.535549293467227
 20
163.447782977325180
 40
3.000000000000057
 50
0.000000000000000
 51
90.000000000000000
  0
LINE
  8
0
  6
CONTINUOUS
 62
3
 10
12.535549293467284
 20
41.947782977324948
 11
12.535549293467284
 21
163.447782977325180
  0
LINE
  8
0
  6
CONTINUOUS
 62
3
 10
3.135549674936954
 20
62.947782977325176
 11
3.135549674936954
 21
46.947782977325176
  0
LINE
  8
0
  6
CONTINUOUS
 62
3
 10
3.135549980748181
 20
46.947783898003934
 11
2.535550559244655
 21
47.986872191859163
  0
LINE
  8
0
  6
CONTINUOUS
 62
3
 10
3.135553216073220
 20
62.947781501666157
 11
2.535552818551366
 21
61.908392855374984
  0
LINE
  8
0
  6
CONTINUOUS
 62
3
 10
12.535549293467284
 20
46.947782977325176
 11
3.135549674936954
 21
46.947782977325176
  0
LINE
  8
0
  6
CONTINUOUS
 62
3
 10
12.535549293467284
 20
62.947782977325176
 11
3.135549674936954
 21
62.947782977325176
  0
LINE
  8
0
  6
CONTINUOUS
 62
3
 10
2.535548816640073
 20
61.908395371762651
 11
2.535549770314390
 21
47.986871323911089
  0
LINE
  8
0
  6
CONTINUOUS
 62
3
 10
6.535549293467227
 20
46.947782977324948
 11
6.535549293467227
 21
41.947782977324948
  0
ARC
  8
0
  6
CONTINUOUS
 62
3
 10
9.535549293467227
 20
61.947782977324948
 40
3.000000000000000
 50
90.000000000000000
 51
160.528779365505360
  0
ARC
  8
0
  6
CONTINUOUS
 62
3
 10
9.535549293467227
 20
41.947782977324948
 40
3.000000000000000
 50
180.000000000000000
 51
270.000000000000000
  0
ARC
  8
0
  6
CONTINUOUS
 62
3
 10
15.535549293467284
 20
41.947782977324948
 40
3.000000000000000
 50
180.000000000000000
 51
270.000000000000000
  0
LINE
  8
0
  6
CONTINUOUS
 62
3
 10
24.535549293467284
 20
186.947782977324950
 11
24.535549293467284
 21
38.947782977324948
  0
LINE
  8
0
  6
CONTINUOUS
 62
3
 10
9.535549293467227
 20
334.947782977324720
 11
25.035549293467284
 21
334.947782977324720
  0
LINE
  8
0
  6
CONTINUOUS
 62
3
 10
9.535549293467227
 20
38.947782977324948
 11
25.035549293467284
 21
38.947782977324948
  0
LINE
  8
0
  6
CONTINUOUS
 62
3
 10
200.735549293467560
 20
215.947782977324720
 11
197.535549293467280
 21
215.947782977324720
  0
LINE
  8
0
  6
CONTINUOUS
 62
3
 10
200.735549293467560
 20
157.947782977324720
 11
197.535549293467280
 21
157.947782977324720
  0
LINE
  8
0
  6
CONTINUOUS
 62
3
 10
283.535549293467280
 20
186.947782977324720
 11
283.535549293467280
 21
213.647782977325450
  0
ARC
  8
0
  6
CONTINUOUS
 62
3
 10
282.735549293467560
 20
213.647782977325450
 40
0.799999999999727
 50
0.000000000000000
 51
90.000000000000000
  0
LINE
  8
0
  6
CONTINUOUS
 62
3
 10
283.535549293467280
 20
155.447782977324720
 11
283.535549293467280
 21
160.247782977323990
  0
ARC
  8
0
  6
CONTINUOUS
 62
3
 10
282.735549293467560
 20
160.247782977324900
 40
0.800000000000182
 50
270.000000000000000
 51
0.000000000000000
  0
LINE
  8
0
  6
CONTINUOUS
 62
3
 10
283.535549293467280
 20
186.947782977324720
 11
283.535549293467280
 21
160.247782977324900
  0
ARC
  8
0
  6
DASHDOT
 62
4
 10
498.615671633631340
 20
-201.552217022675900
 40
225.000000000000000
 50
219.433916000642600
 51
230.781465509278210
  0
ARC
  8
0
  6
DASHDOT
 62
4
 10
498.615671633631340
 20
-201.552217022675900
 40
225.000000000000000
 50
39.321580347926030
 51
50.838424914005451
  0
ARC
  8
0
  6
CONTINUOUS
 62
3
 10
-188.464450706532380
 20
122.328562060451920
 40
3.000000000000000
 50
90.000000000000000
 51
180.000000000000000
  0
ARC
  8
0
  6
CONTINUOUS
 62
3
 10
-184.464450706532490
 20
128.328562060451930
 40
3.000000000000000
 50
270.000000000000000
 51
0.000000000000000
  0
LINE
  8
0
  6
CONTINUOUS
 62
3
 10
-191.464450706532380
 20
121.947782977324720
 11
-191.464450706532380
 21
122.328562060451920
  0
LINE
  8
0
  6
CONTINUOUS
 62
3
 10
-188.464450706532380
 20
125.328562060451920
 11
-184.464450706532490
 21
125.328562060451920
  0
ARC
  8
0
  6
CONTINUOUS
 62
3
 10
-262.158474928952840
 20
141.947782977324720
 40
20.000000000000007
 50
234.999999999999740
 51
270.000000000000000
  0
LINE
  8
0
  6
CONTINUOUS
 62
3
 10
-191.464450706532380
 20
121.947782977324720
 11
-262.158474928952840
 21
121.947782977324720
  0
ARC
  8
0
  6
CONTINUOUS
 62
3
 10
-281.864450706482220
 20
134.504577920079270
 40
2.600000000000136
 50
180.000000000000000
 51
234.999999999998610
  0
LINE
  8
0
  6
CONTINUOUS
 62
3
 10
-273.630003655973840
 20
125.564742091544920
 11
-283.355749440994830
 21
132.374782604928160
  0
LINE
  8
0
  6
CONTINUOUS
 62
3
 10
-284.464450706482350
 20
186.947782977324720
 11
-284.464450706482350
 21
134.504577920079270
  0
LINE
  8
0
  6
CONTINUOUS
 62
3
 10
-181.464450706532490
 20
186.947782977324720
 11
-181.464450706532490
 21
128.328562060451930
  0
ARC
  8
0
  6
CONTINUOUS
 62
3
 10
-281.864450706482220
 20
239.390988034570170
 40
2.599999999999721
 50
125.000000000001370
 51
180.000000000000000
  0
LINE
  8
0
  6
CONTINUOUS
 62
3
 10
-273.630003655973840
 20
248.330823863104510
 11
-283.355749440994830
 21
241.520783349721280
  0
ARC
  8
0
  6
CONTINUOUS
 62
3
 10
-262.158474928952840
 20
231.947782977324720
 40
20.000000000000000
 50
90.000000000000000
 51
125.000000000000240
  0
LINE
  8
0
  6
CONTINUOUS
 62
3
 10
-284.464450706482350
 20
186.947782977324720
 11
-284.464450706482350
 21
239.390988034570170
  0
LINE
  8
0
  6
CONTINUOUS
 62
3
 10
-181.464450706532490
 20
251.947782977324720
 11
-262.158474928952840
 21
251.947782977324720
  0
LINE
  8
0
  6
CONTINUOUS
 62
3
 10
-181.464450706532490
 20
186.947782977324720
 11
-181.464450706532490
 21
251.947782977324720
  0
LINE
  8
0
  6
CONTINUOUS
 62
3
 10
-192.464450706531920
 20
240.687898077762330
 11
-194.464450706531920
 21
239.035256438638900
  0
LINE
  8
0
  6
CONTINUOUS
 62
3
 10
-190.464450706531920
 20
241.863683563385110
 11
-192.464450706531920
 21
240.687898077762330
  0
LINE
  8
0
  6
CONTINUOUS
 62
3
 10
-192.464450706531920
 20
240.687898077762330
 11
-190.464450706531920
 21
239.035256438638900
  0
LINE
  8
0
  6
CONTINUOUS
 62
3
 10
-194.464450706531920
 20
241.863683563385110
 11
-192.464450706531920
 21
240.687898077762330
  0
POLYLINE
  8
0
  6
CONTINUOUS
 62
3
 66
1
 70
1
  0
VERTEX
  8
0
  6
CONTINUOUS
 62
3
 10
-187.764450706531930
 20
238.871308009384790
  0
VERTEX
  8
0
  6
CONTINUOUS
 62
3
 10
-187.854759888636750
 20
239.574264975585150
  0
VERTEX
  8
0
  6
CONTINUOUS
 62
3
 10
-188.122216903728880
 20
240.250207699797240
  0
VERTEX
  8
0
  6
CONTINUOUS
 62
3
 10
-188.556543528709970
 20
240.873160082202650
  0
VERTEX
  8
0
  6
CONTINUOUS
 62
3
 10
-189.141048834955140
 20
241.419182412101240
  0
VERTEX
  8
0
  6
CONTINUOUS
 62
3
 10
-189.853270611339810
 20
241.867291357567860
  0
VERTEX
  8
0
  6
CONTINUOUS
 62
3
 10
-190.665838574416000
 20
242.200266343130610
  0
VERTEX
  8
0
  6
CONTINUOUS
 62
3
 10
-191.547526193056110
 20
242.405311326828870
  0
VERTEX
  8
0
  6
CONTINUOUS
 62
3
 10
-192.464450706531920
 20
242.474546544929640
  0
VERTEX
  8
0
  6
CONTINUOUS
 62
3
 10
-193.381375220007730
 20
242.405311326828870
  0
VERTEX
  8
0
  6
CONTINUOUS
 62
3
 10
-194.263062838647840
 20
242.200266343130610
  0
VERTEX
  8
0
  6
CONTINUOUS
 62
3
 10
-195.075630801724030
 20
241.867291357567860
  0
VERTEX
  8
0
  6
CONTINUOUS
 62
3
 10
-195.787852578108700
 20
241.419182412101240
  0
VERTEX
  8
0
  6
CONTINUOUS
 62
3
 10
-196.372357884353870
 20
240.873160082202650
  0
VERTEX
  8
0
  6
CONTINUOUS
 62
3
 10
-196.806684509334960
 20
240.250207699797240
  0
VERTEX
  8
0
  6
CONTINUOUS
 62
3
 10
-197.074141524427090
 20
239.574264975585150
  0
VERTEX
  8
0
  6
CONTINUOUS
 62
3
 10
-197.164450706531910
 20
238.871308009384790
  0
VERTEX
  8
0
  6
CONTINUOUS
 62
3
 10
-197.074141524427090
 20
238.168351043184430
  0
VERTEX
  8
0
  6
CONTINUOUS
 62
3
 10
-196.806684509334960
 20
237.492408318972340
  0
VERTEX
  8
0
  6
CONTINUOUS
 62
3
 10
-196.372357884353870
 20
236.869455936566940
  0
VERTEX
  8
0
  6
CONTINUOUS
 62
3
 10
-195.787852578108670
 20
236.323433606668350
  0
VERTEX
  8
0
  6
CONTINUOUS
 62
3
 10
-195.075630801724030
 20
235.875324661201720
  0
VERTEX
  8
0
  6
CONTINUOUS
 62
3
 10
-194.263062838647840
 20
235.542349675638970
  0
VERTEX
  8
0
  6
CONTINUOUS
 62
3
 10
-193.381375220007730
 20
235.337304691940720
  0
VERTEX
  8
0
  6
CONTINUOUS
 62
3
 10
-192.464450706531920
 20
235.268069473839940
  0
VERTEX
  8
0
  6
CONTINUOUS
 62
3
 10
-191.547526193056110
 20
235.337304691940720
  0
VERTEX
  8
0
  6
CONTINUOUS
 62
3
 10
-190.665838574416000
 20
235.542349675638970
  0
VERTEX
  8
0
  6
CONTINUOUS
 62
3
 10
-189.853270611339810
 20
235.875324661201720
  0
VERTEX
  8
0
  6
CONTINUOUS
 62
3
 10
-189.141048834955170
 20
236.323433606668350
  0
VERTEX
  8
0
  6
CONTINUOUS
 62
3
 10
-188.556543528709970
 20
236.869455936566940
  0
VERTEX
  8
0
  6
CONTINUOUS
 62
3
 10
-188.122216903728880
 20
237.492408318972340
  0
VERTEX
  8
0
  6
CONTINUOUS
 62
3
 10
-187.854759888636750
 20
238.168351043184430
  0
SEQEND
  8
0
  6
CONTINUOUS
 62
3
  0
LINE
  8
0
  6
CONTINUOUS
 62
3
 10
-192.464450706531920
 20
133.207667876886890
 11
-194.464450706531920
 21
134.860309516010320
  0
LINE
  8
0
  6
CONTINUOUS
 62
3
 10
-190.464450706531920
 20
132.031882391264560
 11
-192.464450706531920
 21
133.207667876886890
  0
LINE
  8
0
  6
CONTINUOUS
 62
3
 10
-192.464450706531920
 20
133.207667876886890
 11
-190.464450706531920
 21
134.860309516010320
  0
LINE
  8
0
  6
CONTINUOUS
 62
3
 10
-194.464450706531920
 20
132.031882391264560
 11
-192.464450706531920
 21
133.207667876886890
  0
POLYLINE
  8
0
  6
CONTINUOUS
 62
3
 66
1
 70
1
  0
VERTEX
  8
0
  6
CONTINUOUS
 62
3
 10
-187.764450706531930
 20
135.024257945264880
  0
VERTEX
  8
0
  6
CONTINUOUS
 62
3
 10
-187.854759888636750
 20
135.727214911465240
  0
VERTEX
  8
0
  6
CONTINUOUS
 62
3
 10
-188.122216903728880
 20
136.403157635677330
  0
VERTEX
  8
0
  6
CONTINUOUS
 62
3
 10
-188.556543528709970
 20
137.026110018082730
  0
VERTEX
  8
0
  6
CONTINUOUS
 62
3
 10
-189.141048834955140
 20
137.572132347981320
  0
VERTEX
  8
0
  6
CONTINUOUS
 62
3
 10
-189.853270611339810
 20
138.020241293447950
  0
VERTEX
  8
0
  6
CONTINUOUS
 62
3
 10
-190.665838574416000
 20
138.353216279010700
  0
VERTEX
  8
0
  6
CONTINUOUS
 62
3
 10
-191.547526193056110
 20
138.558261262708950
  0
VERTEX
  8
0
  6
CONTINUOUS
 62
3
 10
-192.464450706531920
 20
138.627496480809730
  0
VERTEX
  8
0
  6
CONTINUOUS
 62
3
 10
-193.381375220007730
 20
138.558261262708950
  0
VERTEX
  8
0
  6
CONTINUOUS
 62
3
 10
-194.263062838647840
 20
138.353216279010700
  0
VERTEX
  8
0
  6
CONTINUOUS
 62
3
 10
-195.075630801724030
 20
138.020241293447950
  0
VERTEX
  8
0
  6
CONTINUOUS
 62
3
 10
-195.787852578108700
 20
137.572132347981320
  0
VERTEX
  8
0
  6
CONTINUOUS
 62
3
 10
-196.372357884353870
 20
137.026110018082730
  0
VERTEX
  8
0
  6
CONTINUOUS
 62
3
 10
-196.806684509334960
 20
136.403157635677330
  0
VERTEX
  8
0
  6
CONTINUOUS
 62
3
 10
-197.074141524427090
 20
135.727214911465240
  0
VERTEX
  8
0
  6
CONTINUOUS
 62
3
 10
-197.164450706531910
 20
135.024257945264880
  0
VERTEX
  8
0
  6
CONTINUOUS
 62
3
 10
-197.074141524427090
 20
134.321300979064520
  0
VERTEX
  8
0
  6
CONTINUOUS
 62
3
 10
-196.806684509334960
 20
133.645358254852430
  0
VERTEX
  8
0
  6
CONTINUOUS
 62
3
 10
-196.372357884353870
 20
133.022405872447020
  0
VERTEX
  8
0
  6
CONTINUOUS
 62
3
 10
-195.787852578108670
 20
132.476383542548430
  0
VERTEX
  8
0
  6
CONTINUOUS
 62
3
 10
-195.075630801724030
 20
132.028274597081800
  0
VERTEX
  8
0
  6
CONTINUOUS
 62
3
 10
-194.263062838647840
 20
131.695299611519060
  0
VERTEX
  8
0
  6
CONTINUOUS
 62
3
 10
-193.381375220007730
 20
131.490254627820800
  0
VERTEX
  8
0
  6
CONTINUOUS
 62
3
 10
-192.464450706531920
 20
131.421019409720030
  0
VERTEX
  8
0
  6
CONTINUOUS
 62
3
 10
-191.547526193056110
 20
131.490254627820800
  0
VERTEX
  8
0
  6
CONTINUOUS
 62
3
 10
-190.665838574416000
 20
131.695299611519060
  0
VERTEX
  8
0
  6
CONTINUOUS
 62
3
 10
-189.853270611339810
 20
132.028274597081800
  0
VERTEX
  8
0
  6
CONTINUOUS
 62
3
 10
-189.141048834955170
 20
132.476383542548430
  0
VERTEX
  8
0
  6
CONTINUOUS
 62
3
 10
-188.556543528709970
 20
133.022405872447020
  0
VERTEX
  8
0
  6
CONTINUOUS
 62
3
 10
-188.122216903728880
 20
133.645358254852430
  0
VERTEX
  8
0
  6
CONTINUOUS
 62
3
 10
-187.854759888636750
 20
134.321300979064520
  0
SEQEND
  8
0
  6
CONTINUOUS
 62
3
  0
LINE
  8
0
  6
CONTINUOUS
 62
3
 10
-182.127215151336710
 20
126.447782977324720
 11
-118.714450706532600
 21
126.447782977324720
  0
LINE
  8
0
  6
CONTINUOUS
 62
3
 10
-118.714450706532600
 20
126.447782977324720
 11
-118.714450706532600
 21
127.447782977324720
  0
LINE
  8
0
  6
CONTINUOUS
 62
3
 10
-187.964450706532600
 20
119.447782977324720
 11
-187.964450706532600
 21
125.286601952001710
  0
LINE
  8
0
  6
CONTINUOUS
 62
3
 10
-122.964450706532480
 20
119.447782977324720
 11
-122.964450706532600
 21
126.447782977324720
  0
LINE
  8
0
  6
CONTINUOUS
 62
3
 10
-187.964450706532600
 20
119.447782977324720
 11
-122.964450706532480
 21
119.447782977324720
  0
LINE
  8
0
  6
CONTINUOUS
 62
3
 10
-183.627126471712590
 20
125.447782977324720
 11
-122.964450706532480
 21
125.447782977324720
  0
LINE
  8
0
  6
CONTINUOUS
 62
3
 10
-187.964450706532600
 20
123.447782977324720
 11
-122.964450706532480
 21
123.447782977324720
  0
LINE
  8
0
  6
DASHDOT
 62
4
 10
-155.464450706532600
 20
125.281496313477470
 11
-155.464450706532600
 21
63.219082796841292
  0
LINE
  8
0
  6
CONTINUOUS
 62
3
 10
-190.914450706531510
 20
68.273957597540800
 11
-158.521706912428840
 21
68.273957597540800
  0
LINE
  8
0
  6
CONTINUOUS
 62
3
 10
-190.914450706531510
 20
117.142346917589120
 11
-120.014450706533800
 21
117.142346917589000
  0
LINE
  8
0
  6
CONTINUOUS
 62
3
 10
-190.914450706531510
 20
113.670874178542300
 11
-120.014450706533800
 21
113.670874178542300
  0
LINE
  8
0
  6
CONTINUOUS
 62
3
 10
-109.014450706533800
 20
106.142346917589000
 11
-109.014450706533800
 21
79.273957597540800
  0
LINE
  8
0
  6
CONTINUOUS
 62
3
 10
-201.914450706531510
 20
106.142346917589230
 11
-201.914450706531510
 21
79.273957597540800
  0
LINE
  8
0
  6
CONTINUOUS
 62
3
 10
-115.414450706533440
 20
76.247782977324675
 11
-115.414450706533440
 21
105.823717677011410
  0
LINE
  8
0
  6
CONTINUOUS
 62
3
 10
-195.514450706531870
 20
76.247782977324675
 11
-195.514450706531870
 21
105.823717677011640
  0
LINE
  8
0
  6
CONTINUOUS
 62
3
 10
-190.514450706531870
 20
110.823717677011530
 11
-120.414450706533440
 21
110.823717677011410
  0
ARC
  8
0
  6
CONTINUOUS
 62
3
 10
-120.414450706533440
 20
105.823717677011410
 40
5.000000000000000
 50
0.000000000000000
 51
90.000000000000000
  0
ARC
  8
0
  6
CONTINUOUS
 62
3
 10
-190.514450706531870
 20
105.823717677011640
 40
4.999999999999886
 50
90.000000000000000
 51
180.000000000000000
  0
ARC
  8
0
  6
CONTINUOUS
 62
3
 10
-120.014450706533800
 20
79.273957597540800
 40
11.000000000000000
 50
270.000000000000000
 51
0.000000000000000
  0
ARC
  8
0
  6
CONTINUOUS
 62
3
 10
-190.914450706531510
 20
79.273957597540800
 40
11.000000000000000
 50
180.000000000000000
 51
270.000000000000000
  0
LINE
  8
0
  6
CONTINUOUS
 62
3
 10
-189.714450706532150
 20
70.447782977324721
 11
-121.214450706533390
 21
70.447782977324721
  0
ARC
  8
0
  6
CONTINUOUS
 62
3
 10
-121.214450706533390
 20
76.247782977324675
 40
5.799999999999955
 50
270.000000000000000
 51
0.000000000000000
  0
ARC
  8
0
  6
CONTINUOUS
 62
3
 10
-189.714450706532150
 20
76.247782977324675
 40
5.799999999999727
 50
180.000000000000000
 51
270.000000000000000
  0
ARC
  8
0
  6
CONTINUOUS
 62
3
 10
-120.014450706533800
 20
102.670874178542300
 40
11.000000000000000
 50
0.000000000000000
 51
90.000000000000000
  0
ARC
  8
0
  6
CONTINUOUS
 62
3
 10
-120.014450706533800
 20
106.142346917589000
 40
11.000000000000000
 50
0.000000000000000
 51
90.000000000000000
  0
ARC
  8
0
  6
CONTINUOUS
 62
3
 10
-190.914450706531510
 20
102.670874178542300
 40
11.000000000000000
 50
90.000000000000000
 51
180.000000000000000
  0
ARC
  8
0
  6
CONTINUOUS
 62
3
 10
-190.914450706531510
 20
106.142346917589230
 40
10.999999999999886
 50
90.000000000000000
 51
180.000000000000000
  0
LINE
  8
0
  6
CONTINUOUS
 62
3
 10
-176.515085801142850
 20
69.647782977324766
 11
-134.813815611922450
 21
69.647782977324766
  0
ARC
  8
0
  6
CONTINUOUS
 62
3
 10
-134.813815611922450
 20
70.647782977324766
 40
1.000000000000000
 50
270.000000000000000
 51
323.130102354140380
  0
ARC
  8
0
  6
CONTINUOUS
 62
3
 10
-133.213815611922540
 20
69.447782977324721
 40
1.000000000000000
 50
90.000000000000000
 51
143.130102354166380
  0
ARC
  8
0
  6
CONTINUOUS
 62
3
 10
-178.115085801142750
 20
69.447782977324721
 40
0.999999999999727
 50
36.869897645849235
 51
90.000000000000000
  0
ARC
  8
0
  6
CONTINUOUS
 62
3
 10
-176.515085801142850
 20
70.647782977324766
 40
1.000000000000227
 50
216.869897645844020
 51
270.000000000000000
  0
LINE
  8
0
  6
CONTINUOUS
 62
3
 10
-189.264450706532780
 20
118.447782977324720
 11
-121.664450706532760
 21
118.447782977324600
  0
ARC
  8
0
  6
CONTINUOUS
 62
3
 10
-121.664450706532760
 20
113.447782977324600
 40
5.000000000000008
 50
44.925956400534659
 51
90.000000000000000
  0
ARC
  8
0
  6
CONTINUOUS
 62
3
 10
-189.264450706532780
 20
113.447782977324720
 40
5.000000000000000
 50
90.000000000000000
 51
135.074043599465310
  0
LINE
  8
0
  6
CONTINUOUS
 62
3
 10
-124.464450706532710
 20
119.447782977324600
 11
-124.464450706532710
 21
118.447782977324600
  0
LINE
  8
0
  6
CONTINUOUS
 62
3
 10
-186.464450706532600
 20
119.447782977324720
 11
-186.464450706532600
 21
118.447782977324720
  0
LINE
  8
0
  6
DASHDOT
 62
4
 10
-178.288082337844460
 20
94.447782977324721
 11
-134.000364299446010
 21
94.447782977324721
  0
CIRCLE
  8
0
  6
DASHED
 62
4
 10
-155.464450706532600
 20
94.447782977324493
 40
13.500000000000000
  0
ARC
  8
0
  6
CONTINUOUS
 62
3
 10
-157.664451469472060
 20
69.251255465070869
 40
1.299999237060699
 50
162.240552086452960
 51
253.398468892505180
  0
ARC
  8
0
  6
CONTINUOUS
 62
3
 10
-155.464450706532600
 20
76.630280387918617
 40
8.999999999999858
 50
253.398468892518050
 51
286.601548410325050
  0
ARC
  8
0
  6
CONTINUOUS
 62
3
 10
-153.264449943593150
 20
69.251255465070869
 40
1.299999237060351
 50
286.601548410324710
 51
17.759447913550098
  0
LINE
  8
0
  6
CONTINUOUS
 62
3
 10
-152.407194500636590
 20
68.273957597540800
 11
-120.014450706533800
 21
68.273957597540800
  0
ARC
  8
0
  6
DASHED
 62
3
 10
381.229059269608800
 20
-214.779170446563280
 40
0.999999999999769
 50
303.952126946395940
 51
338.810578218621570
  0
ARC
  8
0
  6
DASHED
 62
3
 10
382.346059294221280
 20
-216.438179471558440
 40
1.000000000000147
 50
123.952126946381410
 51
177.158610984633010
  0
ARC
  8
0
  6
DASHED
 62
3
 10
427.115671633631340
 20
-189.860612145680990
 40
3.000000000000000
 50
0.000000000000000
 51
66.000000000020236
  0
ARC
  8
0
  6
DASHED
 62
3
 10
397.367960619072160
 20
-205.373321155005210
 40
15.000000000000041
 50
99.318123119675519
 51
178.317231198866920
  0
ARC
  8
0
  6
DASHED
 62
3
 10
420.409110369977950
 20
-183.352010094079110
 40
3.000000000000022
 50
279.318123119682530
 51
336.000000000000400
  0
ARC
  8
0
  6
DASHED
 62
3
 10
425.845571649415890
 20
-180.975891482852600
 40
0.999999999999856
 50
66.000000000020236
 51
155.999999999996390
  0
LINE
  8
0
  6
DASHED
 62
3
 10
426.532510372670910
 20
-186.317063188623020
 11
428.335881562857590
 21
-187.119975772753150
  0
LINE
  8
0
  6
DASHED
 62
3
 10
426.252308292491310
 20
-180.062346025209990
 11
428.810235573890620
 21
-181.201208625822120
  0
LINE
  8
0
  6
DASHED
 62
3
 10
420.894858260416640
 20
-186.312423745401250
 11
394.939221166880540
 21
-190.571252898394280
  0
LINE
  8
0
  6
DASHED
 62
3
 10
424.932026191773280
 20
-180.569154839776730
 11
406.239962610824480
 21
-222.552217022740020
  0
LINE
  8
0
  6
DASHED
 62
3
 10
428.481074794224700
 20
-183.895546343634350
 11
427.744670911462660
 21
-184.208131246425640
  0
LINE
  8
0
  6
DASHED
 62
3
 10
427.611328889268630
 20
-183.893997127976260
 11
427.744670911462660
 21
-184.208131246425640
  0
LINE
  8
0
  6
DASHED
 62
3
 10
428.056242634478620
 20
-182.894704495018910
 11
428.481074794224700
 21
-183.895546343634350
  0
ARC
  8
0
  6
DASHED
 62
3
 10
388.234063906467330
 20
-278.729124069720680
 40
9.000000000000075
 50
139.398468892516490
 51
172.601548410321070
  0
ARC
  8
0
  6
DASHED
 62
3
 10
380.598168281286010
 20
-277.737604947222050
 40
1.299999237060687
 50
172.601548410320760
 51
246.000017986079880
  0
ARC
  8
0
  6
DASHED
 62
3
 10
381.936072380234240
 20
-253.944073292029090
 40
1.000000000000008
 50
2.994076090848812
 51
56.047873053604029
  0
ARC
  8
0
  6
DASHED
 62
3
 10
383.053072404846720
 20
-252.285064267033930
 40
0.999999999999988
 50
182.841389015366990
 51
236.047873053618590
  0
ARC
  8
0
  6
DASHED
 62
3
 10
982.115671633631340
 20
-222.552217022740250
 40
600.799999999999950
 50
179.412192132293110
 51
182.841389015363350
  0
ARC
  8
0
  6
DASHED
 62
3
 10
385.745658037212250
 20
-266.674851610977160
 40
2.000000000000632
 50
184.231338074886000
 51
245.999999999972630
  0
ARC
  8
0
  6
DASHED
 62
3
 10
384.320984369932830
 20
-269.324454862618720
 40
1.000000000000041
 50
335.999999999996420
 51
66.000000000020236
  0
ARC
  8
0
  6
DASHED
 62
3
 10
380.941846253847420
 20
-281.831310006595690
 40
0.999999999999948
 50
156.000000000008300
 51
245.999999999972630
  0
ARC
  8
0
  6
DASHED
 62
3
 10
425.115671633631340
 20
-264.052217022740020
 40
5.000000000000000
 50
270.000000000000000
 51
0.000000000000000
  0
ARC
  8
0
  6
DASHED
 62
3
 10
383.149622641319640
 20
-271.955376380626600
 40
1.000000000000041
 50
335.999999999996420
 51
4.715124834083239
  0
ARC
  8
0
  6
DASHED
 62
3
 10
982.115671633631340
 20
-222.552217022740250
 40
600.000000000001140
 50
178.317231198866840
 51
184.715124834091600
  0
ARC
  8
0
  6
DASHED
 62
3
 10
382.387810131450580
 20
-273.718003539634990
 40
1.299999237060620
 50
65.999999316753915
 51
139.398468892516150
  0
LINE
  8
0
  6
DASHDOT
 62
4
 10
406.115671633631340
 20
-254.669693243034320
 11
406.115671633631340
 21
-277.538202418797940
  0
LINE
  8
0
  6
DASHED
 62
3
 10
428.810235573895850
 20
-181.201208625824390
 11
383.093036892170860
 21
-283.883718064850430
  0
LINE
  8
0
  6
DASHED
 62
3
 10
430.115671633631340
 20
-189.860612145680990
 11
430.115671633631340
 21
-264.052217022740020
  0
LINE
  8
0
  6
DASHED
 62
3
 10
385.045372778934960
 20
-279.498699868165890
 11
388.562522790859020
 21
-281.064635944007700
  0
LINE
  8
0
  6
DASHED
 62
3
 10
386.672319351238230
 20
-275.844518037595890
 11
390.189469363162060
 21
-277.410454113437710
  0
LINE
  8
0
  6
DASHED
 62
3
 10
406.239962610827660
 20
-222.552217022740020
 11
380.028300796204800
 21
-281.424573363520040
  0
LINE
  8
0
  6
DASHED
 62
3
 10
380.535109610771090
 20
-282.744855464238300
 11
383.093036892170860
 21
-283.883718064850430
  0
LINE
  8
0
  6
DASHED
 62
3
 10
425.115671633631340
 20
-269.052217022740020
 11
389.696446602302560
 21
-269.052217022740020
  0
LINE
  8
0
  6
DASHED
 62
3
 10
383.810951576810110
 20
-272.928600607443740
 11
382.916567457133620
 21
-272.530395141679490
  0
LINE
  8
0
  6
DASHED
 62
3
 10
380.963795075279220
 20
-279.323418810942030
 11
380.069410955602730
 21
-278.925213345177550
  0
LINE
  8
0
  6
DASHED
 62
3
 10
383.810951576810110
 20
-272.928600607443740
 11
380.963795075279220
 21
-279.323418810942030
  0
LINE
  8
0
  6
DASHED
 62
3
 10
383.810951576810110
 20
-272.928600607443740
 11
380.963795075279220
 21
-279.323418810942030
  0
LINE
  8
0
  6
DASHED
 62
3
 10
390.366852448260490
 20
-277.872552848689110
 11
389.024621526110420
 21
-280.887252858909280
  0
LINE
  8
0
  6
DASHED
 62
3
 10
388.562522790859020
 20
-281.064635944007700
 11
389.024621526110420
 21
-280.887252858909280
  0
LINE
  8
0
  6
DASHED
 62
3
 10
390.189469363162060
 20
-277.410454113437710
 11
390.366852448260490
 21
-277.872552848689110
  0
LINE
  8
0
  6
DASHED
 62
3
 10
386.529961526161740
 20
-276.164258947770800
 11
390.366852448260490
 21
-277.872552848689110
  0
LINE
  8
0
  6
DASHED
 62
3
 10
385.187730604011220
 20
-279.178958957991430
 11
389.024621526110200
 21
-280.887252858909730
  0
LINE
  8
0
  6
CONTINUOUS
 62
3
 10
-192.464450706531690
 20
-159.312101922237670
 11
-194.464450706531690
 21
-160.964743561361100
  0
LINE
  8
0
  6
CONTINUOUS
 62
3
 10
-190.464450706531690
 20
-158.136316436614890
 11
-192.464450706531690
 21
-159.312101922237670
  0
LINE
  8
0
  6
CONTINUOUS
 62
3
 10
-192.464450706531690
 20
-159.312101922237670
 11
-190.464450706531690
 21
-160.964743561361100
  0
LINE
  8
0
  6
CONTINUOUS
 62
3
 10
-194.464450706531690
 20
-158.136316436614890
 11
-192.464450706531690
 21
-159.312101922237670
  0
POLYLINE
  8
0
  6
CONTINUOUS
 62
3
 66
1
 70
1
  0
VERTEX
  8
0
  6
CONTINUOUS
 62
3
 10
-187.764450706531700
 20
-161.128691990615210
  0
VERTEX
  8
0
  6
CONTINUOUS
 62
3
 10
-187.854759888636520
 20
-160.425735024414850
  0
VERTEX
  8
0
  6
CONTINUOUS
 62
3
 10
-188.122216903728660
 20
-159.749792300202760
  0
VERTEX
  8
0
  6
CONTINUOUS
 62
3
 10
-188.556543528709740
 20
-159.126839917797350
  0
VERTEX
  8
0
  6
CONTINUOUS
 62
3
 10
-189.141048834954920
 20
-158.580817587898760
  0
VERTEX
  8
0
  6
CONTINUOUS
 62
3
 10
-189.853270611339580
 20
-158.132708642432140
  0
VERTEX
  8
0
  6
CONTINUOUS
 62
3
 10
-190.665838574415770
 20
-157.799733656869390
  0
VERTEX
  8
0
  6
CONTINUOUS
 62
3
 10
-191.547526193055890
 20
-157.594688673171130
  0
VERTEX
  8
0
  6
CONTINUOUS
 62
3
 10
-192.464450706531690
 20
-157.525453455070360
  0
VERTEX
  8
0
  6
CONTINUOUS
 62
3
 10
-193.381375220007500
 20
-157.594688673171130
  0
VERTEX
  8
0
  6
CONTINUOUS
 62
3
 10
-194.263062838647610
 20
-157.799733656869390
  0
VERTEX
  8
0
  6
CONTINUOUS
 62
3
 10
-195.075630801723800
 20
-158.132708642432140
  0
VERTEX
  8
0
  6
CONTINUOUS
 62
3
 10
-195.787852578108470
 20
-158.580817587898760
  0
VERTEX
  8
0
  6
CONTINUOUS
 62
3
 10
-196.372357884353650
 20
-159.126839917797350
  0
VERTEX
  8
0
  6
CONTINUOUS
 62
3
 10
-196.806684509334730
 20
-159.749792300202760
  0
VERTEX
  8
0
  6
CONTINUOUS
 62
3
 10
-197.074141524426860
 20
-160.425735024414850
  0
VERTEX
  8
0
  6
CONTINUOUS
 62
3
 10
-197.164450706531680
 20
-161.128691990615210
  0
VERTEX
  8
0
  6
CONTINUOUS
 62
3
 10
-197.074141524426860
 20
-161.831648956815570
  0
VERTEX
  8
0
  6
CONTINUOUS
 62
3
 10
-196.806684509334730
 20
-162.507591681027660
  0
VERTEX
  8
0
  6
CONTINUOUS
 62
3
 10
-196.372357884353650
 20
-163.130544063433060
  0
VERTEX
  8
0
  6
CONTINUOUS
 62
3
 10
-195.787852578108440
 20
-163.676566393331650
  0
VERTEX
  8
0
  6
CONTINUOUS
 62
3
 10
-195.075630801723800
 20
-164.124675338798280
  0
VERTEX
  8
0
  6
CONTINUOUS
 62
3
 10
-194.263062838647610
 20
-164.457650324361030
  0
VERTEX
  8
0
  6
CONTINUOUS
 62
3
 10
-193.381375220007500
 20
-164.662695308059280
  0
VERTEX
  8
0
  6
CONTINUOUS
 62
3
 10
-192.464450706531690
 20
-164.731930526160060
  0
VERTEX
  8
0
  6
CONTINUOUS
 62
3
 10
-191.547526193055890
 20
-164.662695308059280
  0
VERTEX
  8
0
  6
CONTINUOUS
 62
3
 10
-190.665838574415770
 20
-164.457650324361030
  0
VERTEX
  8
0
  6
CONTINUOUS
 62
3
 10
-189.853270611339580
 20
-164.124675338798280
  0
VERTEX
  8
0
  6
CONTINUOUS
 62
3
 10
-189.141048834954940
 20
-163.676566393331650
  0
VERTEX
  8
0
  6
CONTINUOUS
 62
3
 10
-188.556543528709740
 20
-163.130544063433060
  0
VERTEX
  8
0
  6
CONTINUOUS
 62
3
 10
-188.122216903728660
 20
-162.507591681027660
  0
VERTEX
  8
0
  6
CONTINUOUS
 62
3
 10
-187.854759888636520
 20
-161.831648956815570
  0
SEQEND
  8
0
  6
CONTINUOUS
 62
3
  0
ARC
  8
0
  6
CONTINUOUS
 62
3
 10
-281.864450706481990
 20
-260.495422079920730
 40
2.600000000000136
 50
180.000000000000000
 51
234.999999999998610
  0
LINE
  8
0
  6
CONTINUOUS
 62
3
 10
-273.630003655973610
 20
-269.435257908455070
 11
-283.355749440994600
 21
-262.625217395071840
  0
ARC
  8
0
  6
CONTINUOUS
 62
3
 10
-262.158474928952610
 20
-253.052217022675280
 40
20.000000000000007
 50
234.999999999999740
 51
270.000000000000000
  0
LINE
  8
0
  6
CONTINUOUS
 62
3
 10
-284.464450706482130
 20
-213.052217022675280
 11
-284.464450706482130
 21
-260.495422079920730
  0
LINE
  8
0
  6
CONTINUOUS
 62
3
 10
-195.510339869661830
 20
-273.052217022675280
 11
-262.158474928952610
 21
-273.052217022675280
  0
ARC
  8
0
  6
CONTINUOUS
 62
3
 10
-281.864450706481990
 20
-165.609011965429830
 40
2.599999999999721
 50
125.000000000001370
 51
180.000000000000000
  0
LINE
  8
0
  6
CONTINUOUS
 62
3
 10
-273.630003655973610
 20
-156.669176136895490
 11
-283.355749440994600
 21
-163.479216650278720
  0
ARC
  8
0
  6
CONTINUOUS
 62
3
 10
-262.158474928952610
 20
-173.052217022675280
 40
20.000000000000000
 50
90.000000000000000
 51
125.000000000000240
  0
LINE
  8
0
  6
CONTINUOUS
 62
3
 10
-284.464450706482130
 20
-213.052217022675280
 11
-284.464450706482130
 21
-165.609011965429830
  0
LINE
  8
0
  6
CONTINUOUS
 62
3
 10
-181.464450706532260
 20
-153.052217022675280
 11
-262.158474928952610
 21
-153.052217022675280
  0
LINE
  8
0
  6
CONTINUOUS
 62
3
 10
-181.464450706532260
 20
-170.455609382069330
 11
-181.464450706532260
 21
-153.052217022675280
  0
LINE
  8
0
  6
CONTINUOUS
 62
3
 10
-201.914450706531280
 20
-181.455609382069330
 11
-201.914450706531280
 21
-263.058328750325070
  0
LINE
  8
0
  6
CONTINUOUS
 62
3
 10
-195.514450706531650
 20
-181.550427585567890
 11
-195.514450706531650
 21
-257.628171792227990
  0
ARC
  8
0
  6
CONTINUOUS
 62
4
 10
-190.514450706531650
 20
-188.052217022675050
 40
5.000000000000000
 50
90.000000000000000
 51
180.000000000000000
  0
LINE
  8
0
  6
CONTINUOUS
 62
4
 10
-155.464450706532380
 20
-183.052217022675050
 11
-190.514450706531650
 21
-183.052217022675050
  0
ARC
  8
0
  6
CONTINUOUS
 62
3
 10
-190.514450706531650
 20
-181.550427585567890
 40
5.000000000000000
 50
90.000000000000000
 51
180.000000000000000
  0
LINE
  8
0
  6
CONTINUOUS
 62
3
 10
-155.464450706532380
 20
-176.550427585567890
 11
-190.514450706531650
 21
-176.550427585567890
  0
ARC
  8
0
  6
CONTINUOUS
 62
3
 10
-190.914450706531280
 20
-181.455609382069330
 40
11.000000000000000
 50
90.000000000000000
 51
180.000000000000000
  0
LINE
  8
0
  6
CONTINUOUS
 62
3
 10
-190.914450706531280
 20
-170.455609382069330
 11
-155.464450706532380
 21
-170.455609382069330
  0
LINE
  8
0
  6
CONTINUOUS
 62
4
 10
-177.115085801142530
 20
-243.785064266969190
 11
-162.681329071401820
 21
-243.785064266969190
  0
LINE
  8
0
  6
CONTINUOUS
 62
4
 10
-155.464450706532380
 20
-231.285064266969190
 11
-162.681329071401820
 21
-243.785064266969190
  0
LINE
  8
0
  6
CONTINUOUS
 62
4
 10
-169.898207436272170
 20
-231.285064266969190
 11
-177.115085801142530
 21
-243.785064266969190
  0
LINE
  8
0
  6
CONTINUOUS
 62
4
 10
-169.898207436272170
 20
-231.285064266969190
 11
-155.464450706532380
 21
-231.285064266969190
  0
LINE
  8
0
  6
CONTINUOUS
 62
4
 10
-162.681329071402730
 20
-218.785064266969410
 11
-155.464450706532380
 21
-231.285064266969190
  0
LINE
  8
0
  6
CONTINUOUS
 62
4
 10
-155.464450706532380
 20
-206.285064266969190
 11
-162.681329071402730
 21
-218.785064266969190
  0
LINE
  8
0
  6
CONTINUOUS
 62
4
 10
-155.464450706532380
 20
-206.285064266969190
 11
-148.247572341662020
 21
-218.785064266969190
  0
LINE
  8
0
  6
CONTINUOUS
 62
4
 10
-148.247572341662020
 20
-218.785064266969410
 11
-155.464450706532380
 21
-231.285064266969190
  0
LINE
  8
0
  6
CONTINUOUS
 62
4
 10
-155.464450706532380
 20
-231.285064266969190
 11
-148.247572341662930
 21
-243.785064266969190
  0
LINE
  8
0
  6
DASHDOT
 62
4
 10
-155.464450706532380
 20
-167.552617189883280
 11
-155.464450706532380
 21
-280.206336615119940
  0
ARC
  8
0
  6
CONTINUOUS
 62
3
 10
-190.514450706531650
 20
-257.628171792227990
 40
5.000000000000000
 50
180.000000000000000
 51
270.000000000000000
  0
LINE
  8
0
  6
CONTINUOUS
 62
3
 10
-163.951924923925960
 20
-262.628171792227990
 11
-190.514450706531650
 21
-262.628171792227990
  0
ARC
  8
0
  6
CONTINUOUS
 62
3
 10
-190.914450706531280
 20
-263.058328750325070
 40
11.000000000000000
 50
180.000000000000000
 51
270.000000000000000
  0
ARC
  8
0
  6
CONTINUOUS
 62
3
 10
-190.914450706531280
 20
-261.838118821097910
 40
11.000000000000000
 50
180.000000000000000
 51
270.000000000000000
  0
LINE
  8
0
  6
CONTINUOUS
 62
3
 10
-190.914450706531280
 20
-272.838118821097910
 11
-155.464450706532380
 21
-272.838118821097910
  0
LINE
  8
0
  6
CONTINUOUS
 62
3
 10
-190.914450706531280
 20
-274.058328750325070
 11
-155.464450706532380
 21
-274.058328750325070
  0
ARC
  8
0
  6
CONTINUOUS
 62
3
 10
-164.724668887145640
 20
-258.628171805078240
 40
3.999999987149749
 50
270.000000000000000
 51
318.821565628880590
  0
POLYLINE
  8
0
  6
CONTINUOUS
 62
3
 66
1
  0
VERTEX
  8
0
  6
CONTINUOUS
 62
3
 10
-155.464450706532380
 20
-258.515942009240690
  0
VERTEX
  8
0
  6
CONTINUOUS
 62
3
 10
-156.891301993947250
 20
-258.633124677891710
  0
VERTEX
  8
0
  6
CONTINUOUS
 62
3
 10
-158.272396871478920
 20
-258.980914858298830
  0
VERTEX
  8
0
  6
CONTINUOUS
 62
3
 10
-159.563446250375560
 20
-259.548159580150240
  0
VERTEX
  8
0
  6
CONTINUOUS
 62
3
 10
-160.723048629947270
 20
-260.316668382935970
  0
VERTEX
  8
0
  6
CONTINUOUS
 62
3
 10
-161.714017765033650
 20
-261.261796649456470
  0
SEQEND
  8
0
  6
CONTINUOUS
 62
3
  0
ARC
  8
0
  6
CONTINUOUS
 62
3
 10
-163.951924922252720
 20
-258.628171798451660
 40
3.999999993776328
 50
270.000000000000000
 51
313.301579148531630
  0
POLYLINE
  8
0
  6
CONTINUOUS
 62
3
 66
1
  0
VERTEX
  8
0
  6
CONTINUOUS
 62
3
 10
-155.464450706532380
 20
-259.317646047987410
  0
VERTEX
  8
0
  6
CONTINUOUS
 62
3
 10
-156.740491096452100
 20
-259.411214203906240
  0
VERTEX
  8
0
  6
CONTINUOUS
 62
3
 10
-157.983857483900490
 20
-259.689522786562350
  0
VERTEX
  8
0
  6
CONTINUOUS
 62
3
 10
-159.162712509545370
 20
-260.145445489148020
  0
VERTEX
  8
0
  6
CONTINUOUS
 62
3
 10
-160.246870677437300
 20
-260.767308057753610
  0
VERTEX
  8
0
  6
CONTINUOUS
 62
3
 10
-161.208571278011850
 20
-261.539187219680230
  0
SEQEND
  8
0
  6
CONTINUOUS
 62
3
  0
LINE
  8
0
  6
CONTINUOUS
 62
3
 10
-153.464450706532380
 20
-267.487115426903130
 11
-157.464450706532380
 21
-263.832933596332680
  0
LINE
  8
0
  6
CONTINUOUS
 62
3
 10
-157.464450706532380
 20
-267.487115426903130
 11
-153.464450706532380
 21
-263.832933596332680
  0
POLYLINE
  8
0
  6
CONTINUOUS
 62
3
 66
1
 70
1
  0
VERTEX
  8
0
  6
CONTINUOUS
 62
3
 10
-151.964450706532380
 20
-266.370711556693610
  0
VERTEX
  8
0
  6
CONTINUOUS
 62
3
 10
-152.031702225121080
 20
-265.697121786647470
  0
VERTEX
  8
0
  6
CONTINUOUS
 62
3
 10
-152.230872342742880
 20
-265.049417693710720
  0
VERTEX
  8
0
  6
CONTINUOUS
 62
3
 10
-152.554307063473460
 20
-264.452490182938220
  0
VERTEX
  8
0
  6
CONTINUOUS
 62
3
 10
-152.989576972379470
 20
-263.929278843808280
  0
VERTEX
  8
0
  6
CONTINUOUS
 62
3
 10
-153.519954890963760
 20
-263.499890394663230
  0
VERTEX
  8
0
  6
CONTINUOUS
 62
3
 10
-154.125058693254570
 20
-263.180825992799950
  0
VERTEX
  8
0
  6
CONTINUOUS
 62
3
 10
-154.781634579475930
 20
-262.984347104248680
  0
VERTEX
  8
0
  6
CONTINUOUS
 62
3
 10
-155.464450706532380
 20
-262.918004302509810
  0
VERTEX
  8
0
  6
CONTINUOUS
 62
3
 10
-156.147266833588820
 20
-262.984347104248680
  0
VERTEX
  8
0
  6
CONTINUOUS
 62
3
 10
-156.803842719810180
 20
-263.180825992799950
  0
VERTEX
  8
0
  6
CONTINUOUS
 62
3
 10
-157.408946522100990
 20
-263.499890394663230
  0
VERTEX
  8
0
  6
CONTINUOUS
 62
3
 10
-157.939324440685280
 20
-263.929278843808280
  0
VERTEX
  8
0
  6
CONTINUOUS
 62
3
 10
-158.374594349591290
 20
-264.452490182938220
  0
VERTEX
  8
0
  6
CONTINUOUS
 62
3
 10
-158.698029070321870
 20
-265.049417693710720
  0
VERTEX
  8
0
  6
CONTINUOUS
 62
3
 10
-158.897199187943670
 20
-265.697121786647470
  0
VERTEX
  8
0
  6
CONTINUOUS
 62
3
 10
-158.964450706532380
 20
-266.370711556693610
  0
VERTEX
  8
0
  6
CONTINUOUS
 62
3
 10
-158.897199187943670
 20
-267.044301326739740
  0
VERTEX
  8
0
  6
CONTINUOUS
 62
3
 10
-158.698029070321870
 20
-267.692005419676490
  0
VERTEX
  8
0
  6
CONTINUOUS
 62
3
 10
-158.374594349591290
 20
-268.288932930448990
  0
VERTEX
  8
0
  6
CONTINUOUS
 62
3
 10
-157.939324440685280
 20
-268.812144269578940
  0
VERTEX
  8
0
  6
CONTINUOUS
 62
3
 10
-157.408946522100990
 20
-269.241532718723990
  0
VERTEX
  8
0
  6
CONTINUOUS
 62
3
 10
-156.803842719810180
 20
-269.560597120587260
  0
VERTEX
  8
0
  6
CONTINUOUS
 62
3
 10
-156.147266833588820
 20
-269.757076009138530
  0
VERTEX
  8
0
  6
CONTINUOUS
 62
3
 10
-155.464450706532380
 20
-269.823418810877400
  0
VERTEX
  8
0
  6
CONTINUOUS
 62
3
 10
-154.781634579475930
 20
-269.757076009138530
  0
VERTEX
  8
0
  6
CONTINUOUS
 62
3
 10
-154.125058693254570
 20
-269.560597120587260
  0
VERTEX
  8
0
  6
CONTINUOUS
 62
3
 10
-153.519954890963760
 20
-269.241532718723990
  0
VERTEX
  8
0
  6
CONTINUOUS
 62
3
 10
-152.989576972379470
 20
-268.812144269578940
  0
VERTEX
  8
0
  6
CONTINUOUS
 62
3
 10
-152.554307063473460
 20
-268.288932930448990
  0
VERTEX
  8
0
  6
CONTINUOUS
 62
3
 10
-152.230872342742880
 20
-267.692005419676490
  0
VERTEX
  8
0
  6
CONTINUOUS
 62
3
 10
-152.031702225121080
 20
-267.044301326739740
  0
SEQEND
  8
0
  6
CONTINUOUS
 62
3
  0
POLYLINE
  8
0
  6
CONTINUOUS
 62
3
 66
1
  0
VERTEX
  8
0
  6
CONTINUOUS
 62
3
 10
-149.720330135052900
 20
-261.539187219680230
  0
VERTEX
  8
0
  6
CONTINUOUS
 62
3
 10
-150.682030735627450
 20
-260.767308057753610
  0
VERTEX
  8
0
  6
CONTINUOUS
 62
3
 10
-151.766188903519380
 20
-260.145445489148020
  0
VERTEX
  8
0
  6
CONTINUOUS
 62
3
 10
-152.945043929164260
 20
-259.689522786562350
  0
VERTEX
  8
0
  6
CONTINUOUS
 62
3
 10
-154.188410316612650
 20
-259.411214203906240
  0
VERTEX
  8
0
  6
CONTINUOUS
 62
3
 10
-155.464450706532380
 20
-259.317646047987410
  0
SEQEND
  8
0
  6
CONTINUOUS
 62
3
  0
ARC
  8
0
  6
CONTINUOUS
 62
3
 10
-146.976976490812260
 20
-258.628171798451660
 40
3.999999999999828
 50
226.698420851470790
 51
270.000000000000000
  0
POLYLINE
  8
0
  6
CONTINUOUS
 62
3
 66
1
  0
VERTEX
  8
0
  6
CONTINUOUS
 62
3
 10
-149.214883648031330
 20
-261.261796649456240
  0
VERTEX
  8
0
  6
CONTINUOUS
 62
3
 10
-150.205852783117710
 20
-260.316668382935800
  0
VERTEX
  8
0
  6
CONTINUOUS
 62
3
 10
-151.365455162689390
 20
-259.548159580150130
  0
VERTEX
  8
0
  6
CONTINUOUS
 62
3
 10
-152.656504541585950
 20
-258.980914858298770
  0
VERTEX
  8
0
  6
CONTINUOUS
 62
3
 10
-154.037599419117560
 20
-258.633124677891660
  0
VERTEX
  8
0
  6
CONTINUOUS
 62
3
 10
-155.464450706532380
 20
-258.515942009240690
  0
SEQEND
  8
0
  6
CONTINUOUS
 62
3
  0
LINE
  8
0
  6
DASHDOT
 62
4
 10
289.538294767156910
 20
-201.552217022675680
 11
149.870818911991140
 21
-201.552217022675680
  0
LINE
  8
0
  6
CONTINUOUS
 62
3
 10
200.735549293467560
 20
-230.552217022676590
 11
197.535549293467280
 21
-230.552217022676590
  0
LINE
  8
0
  6
CONTINUOUS
 62
3
 10
200.735549293467560
 20
-172.552217022676360
 11
197.535549293467280
 21
-172.552217022676360
  0
ARC
  8
0
  6
DASHDOT
 62
4
 10
498.615671633631340
 20
-201.552217022675900
 40
225.000000000000200
 50
308.728212855906290
 51
320.944594227328990
  0
LINE
  8
0
  6
DASHDOT
 62
4
 10
324.224265706593540
 20
-375.943622949714150
 11
356.848827552086500
 21
-343.319061104220960
  0
LINE
  8
0
  6
DASHDOT
 62
4
 10
673.007077560669360
 20
-375.943622949714150
 11
640.382515715176400
 21
-343.319061104220960
  0
LINE
  8
0
  6
DASHDOT
 62
4
 10
673.007077560669360
 20
-27.160811095637655
 11
640.382515715176400
 21
-59.785372941130845
  0
ARC
  8
0
  6
DASHDOT
 62
4
 10
498.615671633631340
 20
-201.552217022675900
 40
225.000000000000060
 50
128.728212855906260
 51
140.944594227328990
  0
LINE
  8
0
  6
DASHDOT
 62
4
 10
324.224265706593540
 20
-27.160811095637655
 11
356.848827552086500
 21
-59.785372941130845
  0
LINE
  8
0
  6
CONTINUOUS
 62
3
 10
498.615671633631340
 20
-398.552217022675900
 11
578.884862854577930
 21
-398.552217022675900
  0
LINE
  8
0
  6
CONTINUOUS
 62
3
 10
498.615671633631340
 20
-398.552217022675900
 11
418.346480412684740
 21
-398.552217022675900
  0
CIRCLE
  8
0
  6
CONTINUOUS
 62
4
 10
498.615671633631340
 20
-201.552217022675900
 40
4.000000000000000
  0
CIRCLE
  8
0
  6
CONTINUOUS
 62
3
 10
498.615671633631340
 20
-201.552217022675900
 40
3.324999999999989
  0
LINE
  8
0
  6
DASHDOT
 62
4
 10
453.755021052968460
 20
-213.052217022693180
 11
540.086266780816460
 21
-213.052217022693180
  0
ARC
  8
0
  6
CONTINUOUS
 62
3
 10
578.107809609660080
 20
-192.552217022675900
 40
4.999999999999898
 50
186.459449777355220
 51
270.000000000000000
  0
ARC
  8
0
  6
CONTINUOUS
 62
3
 10
578.107809609660080
 20
-210.552217022675900
 40
5.000000000000000
 50
90.000000000000000
 51
173.540550222644780
  0
ARC
  8
0
  6
CONTINUOUS
 62
3
 10
655.357497576804690
 20
-210.552217022675900
 40
4.999999999999621
 50
356.713727026906380
 51
90.000000000000000
  0
ARC
  8
0
  6
CONTINUOUS
 62
3
 10
655.357497576804690
 20
-192.552217022675900
 40
5.000000000000000
 50
270.000000000000000
 51
3.286272973093636
  0
ARC
  8
0
  6
CONTINUOUS
 62
3
 10
489.615671633631340
 20
-122.060079046647160
 40
4.999999999999898
 50
276.459449777355190
 51
0.000000000000000
  0
ARC
  8
0
  6
CONTINUOUS
 62
3
 10
507.615671633631340
 20
-122.060079046647160
 40
5.000000000000000
 50
180.000000000000000
 51
263.540550222644810
  0
ARC
  8
0
  6
CONTINUOUS
 62
3
 10
507.615671633631340
 20
-44.810391079502779
 40
5.000000000000075
 50
86.713727026906653
 51
180.000000000000000
  0
ARC
  8
0
  6
CONTINUOUS
 62
3
 10
489.615671633631340
 20
-44.810391079502779
 40
5.000000000000000
 50
0.000000000000000
 51
93.286272973093347
  0
ARC
  8
0
  6
CONTINUOUS
 62
3
 10
419.123533657602590
 20
-210.552217022675900
 40
4.999999999999898
 50
6.459449777355209
 51
90.000000000000000
  0
ARC
  8
0
  6
CONTINUOUS
 62
3
 10
419.123533657602590
 20
-192.552217022675900
 40
5.000000000000000
 50
270.000000000000000
 51
353.540550222644810
  0
ARC
  8
0
  6
CONTINUOUS
 62
3
 10
341.873845690458210
 20
-192.552217022675900
 40
5.000000000000075
 50
176.713727026906670
 51
270.000000000000000
  0
ARC
  8
0
  6
CONTINUOUS
 62
3
 10
341.873845690458210
 20
-210.552217022675900
 40
5.000000000000000
 50
90.000000000000000
 51
183.286272973093330
  0
ARC
  8
0
  6
CONTINUOUS
 62
3
 10
393.273016068750390
 20
-311.128331749101790
 40
10.000000000000169
 50
226.128463455825110
 51
1.557316013168583
  0
ARC
  8
0
  6
CONTINUOUS
 62
3
 10
427.659331258567590
 20
-248.351765744625250
 40
10.000000000000110
 50
301.018601945962130
 51
33.407013332929751
  0
ARC
  8
0
  6
CONTINUOUS
 62
3
 10
574.952101290283740
 20
-238.938705320922960
 40
10.000000000000165
 50
153.906260770664370
 51
249.984265829160960
  0
ARC
  8
0
  6
CONTINUOUS
 62
3
 10
618.133218690853030
 20
-295.464707914062500
 40
10.000000000000158
 50
184.769310518984470
 51
321.841040431514390
  0
ARC
  8
0
  6
CONTINUOUS
 62
3
 10
464.246791409753770
 20
-309.198768626323270
 40
60.999999999999908
 50
121.018601945962600
 51
181.557316013169160
  0
ARC
  8
0
  6
CONTINUOUS
 62
3
 10
552.361741257372160
 20
-300.952217022675770
 40
55.999999999999815
 50
4.769310518983685
 51
69.984265829160805
  0
ARC
  8
0
  6
CONTINUOUS
 62
3
 10
498.615671633631340
 20
-201.552217022675900
 40
174.999999999999890
 50
57.486889814159468
 51
90.000000000000000
  0
ARC
  8
0
  6
CONTINUOUS
 62
3
 10
598.051798130617040
 20
-45.547548030765711
 40
10.000000000000139
 50
237.486889814160800
 51
315.000000000000910
  0
ARC
  8
0
  6
CONTINUOUS
 62
3
 10
399.179545136645170
 20
-45.547548030765711
 40
9.999999999999920
 50
225.000000000000910
 51
302.513110185840330
  0
ARC
  8
0
  6
CONTINUOUS
 62
3
 10
498.615671633631340
 20
-201.552217022675900
 40
175.000000000000000
 50
90.000000000000000
 51
122.513110185840580
  0
ARC
  8
0
  6
CONTINUOUS
 62
3
 10
342.611002641721370
 20
-102.116090525689510
 40
10.000000000000261
 50
327.486889814159670
 51
44.999999999999083
  0
ARC
  8
0
  6
CONTINUOUS
 62
3
 10
498.615671633631340
 20
-201.552217022675900
 40
174.999999999999940
 50
147.486889814159300
 51
177.424041072347680
  0
ARC
  8
0
  6
CONTINUOUS
 62
3
 10
318.615671633631110
 20
-346.196877963348920
 40
4.999999999999718
 50
135.000000000001820
 51
180.000000000000000
  0
ARC
  8
0
  6
CONTINUOUS
 62
3
 10
399.179545136645170
 20
-357.556886014585870
 40
9.999999999999877
 50
57.486889814158296
 51
135.000000000000000
  0
ARC
  8
0
  6
CONTINUOUS
 62
3
 10
498.615671633631340
 20
-201.552217022675900
 40
175.000000000000200
 50
237.486889814159440
 51
270.000000000000000
  0
ARC
  8
0
  6
CONTINUOUS
 62
3
 10
342.611002641721370
 20
-300.988343519662290
 40
10.000000000000242
 50
315.000000000000910
 51
32.513110185840311
  0
ARC
  8
0
  6
CONTINUOUS
 62
3
 10
498.615671633631340
 20
-201.552217022675900
 40
174.999999999999970
 50
182.575958927652320
 51
212.513110185840700
  0
ARC
  8
0
  6
CONTINUOUS
 62
3
 10
678.615671633631340
 20
-346.196877963348920
 40
5.000000000000000
 50
0.000000000000000
 51
44.999999999996326
  0
ARC
  8
0
  6
CONTINUOUS
 62
3
 10
598.051798130617040
 20
-357.556886014585870
 40
10.000000000000082
 50
44.999999999998167
 51
122.513110185840580
  0
ARC
  8
0
  6
CONTINUOUS
 62
3
 10
498.615671633631340
 20
-201.552217022675900
 40
175.000000000000000
 50
270.000000000000000
 51
302.513110185840450
  0
ARC
  8
0
  6
CONTINUOUS
 62
3
 10
654.620340625541300
 20
-300.988343519662290
 40
10.000000000000261
 50
147.486889814159700
 51
224.999999999999090
  0
ARC
  8
0
  6
CONTINUOUS
 62
3
 10
498.615671633631340
 20
-201.552217022675900
 40
174.999999999999940
 50
327.486889814159270
 51
357.424041072347680
  0
CIRCLE
  8
0
  6
CONTINUOUS
 62
3
 10
498.615671633631340
 20
-201.552217022675900
 40
162.000000000000000
  0
ARC
  8
0
  6
CONTINUOUS
 62
3
 10
552.361741257372160
 20
-300.952217022675770
 40
47.999999999999979
 50
356.272298631503650
 51
71.211528718408644
  0
ARC
  8
0
  6
CONTINUOUS
 62
3
 10
571.042103410347410
 20
-246.042800072268390
 40
9.999999999999828
 50
148.438153310684640
 51
251.211528718409170
  0
ARC
  8
0
  6
CONTINUOUS
 62
3
 10
464.246791409753770
 20
-309.198768626323270
 40
53.000000000000036
 50
120.369210364658620
 51
188.851634271285040
  0
ARC
  8
0
  6
CONTINUOUS
 62
3
 10
432.395869248203780
 20
-254.843283553895840
 40
9.999999999999940
 50
300.369210364658160
 51
38.825729699929447
  0
ARC
  8
0
  6
CONTINUOUS
 62
3
 10
401.997114406085980
 20
-318.892978905610560
 40
9.999999999999806
 50
230.531908102796110
 51
8.851634271286279
  0
ARC
  8
0
  6
CONTINUOUS
 62
3
 10
353.971010692959230
 20
-21.552217022675677
 40
4.999999999999558
 50
45.000000000000000
 51
90.000000000000000
  0
ARC
  8
0
  6
CONTINUOUS
 62
3
 10
318.615671633631110
 20
-56.907556082002657
 40
4.999999999999773
 50
180.000000000000000
 51
225.000000000001850
  0
CIRCLE
  8
0
  6
CONTINUOUS
 62
3
 10
339.516645866658340
 20
-42.453191255702450
 40
12.000000000000000
  0
ARC
  8
0
  6
CONTINUOUS
 62
3
 10
333.615671633631340
 20
-36.552217022675904
 40
20.000000000000000
 50
90.000000000000000
 51
180.000000000000000
  0
ARC
  8
0
  6
CONTINUOUS
 62
3
 10
498.615671633631340
 20
-201.552217022675900
 40
175.000000000000200
 50
2.575958927652314
 51
32.513110185840702
  0
ARC
  8
0
  6
CONTINUOUS
 62
3
 10
654.620340625541300
 20
-102.116090525689510
 40
10.000000000000242
 50
135.000000000000910
 51
212.513110185840300
  0
ARC
  8
0
  6
CONTINUOUS
 62
3
 10
678.615671633631340
 20
-56.907556082002657
 40
5.000000000000201
 50
315.000000000000000
 51
0.000000000000000
  0
ARC
  8
0
  6
CONTINUOUS
 62
3
 10
643.260332574303450
 20
-21.552217022675677
 40
4.999999999999773
 50
90.000000000000000
 51
135.000000000000000
  0
CIRCLE
  8
0
  6
CONTINUOUS
 62
3
 10
498.615671633631340
 20
-201.552217022675900
 40
170.000000000000000
  0
CIRCLE
  8
0
  6
CONTINUOUS
 62
3
 10
657.714697400604110
 20
-42.453191255702450
 40
12.000000000000000
  0
ARC
  8
0
  6
CONTINUOUS
 62
3
 10
663.615671633631340
 20
-36.552217022675904
 40
20.000000000000000
 50
0.000000000000000
 51
90.000000000000000
  0
ARC
  8
0
  6
CONTINUOUS
 62
3
 10
643.260332574303450
 20
-381.552217022675900
 40
4.999999999999879
 50
225.000000000003690
 51
270.000000000000000
  0
CIRCLE
  8
0
  6
CONTINUOUS
 62
3
 10
657.714697400604110
 20
-360.651242789649360
 40
12.000000000000000
  0
ARC
  8
0
  6
CONTINUOUS
 62
3
 10
663.615671633631340
 20
-366.552217022675900
 40
20.000000000000000
 50
270.000000000000000
 51
0.000000000000000
  0
ARC
  8
0
  6
CONTINUOUS
 62
3
 10
353.971010692959230
 20
-381.552217022675900
 40
5.000000000000000
 50
270.000000000000000
 51
314.999999999996310
  0
CIRCLE
  8
0
  6
CONTINUOUS
 62
3
 10
339.516645866658340
 20
-360.651242789649360
 40
12.000000000000000
  0
ARC
  8
0
  6
CONTINUOUS
 62
3
 10
333.615671633631340
 20
-366.552217022675900
 40
20.000000000000000
 50
180.000000000000000
 51
270.000000000000000
  0
CIRCLE
  8
0
  6
CONTINUOUS
 62
3
 10
498.615671633631340
 20
-201.552217022675900
 40
75.000000000000000
  0
CIRCLE
  8
0
  6
CONTINUOUS
 62
3
 10
498.615671633631340
 20
-201.552217022675900
 40
40.000000000000000
  0
ARC
  8
0
  6
CONTINUOUS
 62
3
 10
359.299572305886610
 20
-211.552217022675900
 40
6.000000000000000
 50
90.000000000000000
 51
180.000000000000000
  0
ARC
  8
0
  6
CONTINUOUS
 62
3
 10
360.283459726074620
 20
-191.552217022675900
 40
5.999999999999981
 50
171.841594723735940
 51
270.000000000000000
  0
ARC
  8
0
  6
CONTINUOUS
 62
3
 10
508.615671633631340
 20
-95.176515820278610
 40
5.999999999999671
 50
89.031236499823578
 51
180.000000000000000
  0
ARC
  8
0
  6
CONTINUOUS
 62
3
 10
488.615671633631340
 20
-95.176515820278610
 40
6.000000000000000
 50
0.000000000000000
 51
90.968763500176422
  0
ARC
  8
0
  6
CONTINUOUS
 62
3
 10
636.947883541187820
 20
-191.552217022675900
 40
6.000000000000000
 50
270.000000000000000
 51
8.158405276263428
  0
ARC
  8
0
  6
CONTINUOUS
 62
3
 10
637.931770961376060
 20
-211.552217022675900
 40
6.000000000000000
 50
0.000000000000000
 51
90.000000000000000
  0
ARC
  8
0
  6
CONTINUOUS
 62
3
 10
594.077707001361430
 20
-392.552217022675900
 40
6.000000000000000
 50
90.000000000000000
 51
153.460895067216400
  0
ARC
  8
0
  6
CONTINUOUS
 62
3
 10
403.153636265901240
 20
-392.552217022675900
 40
6.000000000000113
 50
26.539104932783616
 51
90.000000000000000
  0
ARC
  8
0
  6
CONTINUOUS
 62
3
 10
610.239030747531160
 20
-304.723073857972620
 40
9.999999999999805
 50
176.272298631503730
 51
317.253519503884210
  0
ARC
  8
0
  6
CONTINUOUS
 62
3
 10
573.053910959732780
 20
-382.052217022675900
 40
17.499999999999950
 50
289.462950946314780
 51
333.460895067215570
  0
ARC
  8
0
  6
CONTINUOUS
 62
3
 10
676.435805476793120
 20
-193.552217022675900
 40
2.999999999999728
 50
182.575958927652410
 51
270.000000000000000
  0
ARC
  8
0
  6
CONTINUOUS
 62
3
 10
676.435805476793120
 20
-209.552217022675900
 40
3.000000000000000
 50
90.000000000000000
 51
177.424041072347590
  0
ARC
  8
0
  6
CONTINUOUS
 62
3
 10
681.615671633631340
 20
-204.552217022675900
 40
2.000000000000000
 50
270.000000000000000
 51
0.000000000000000
  0
ARC
  8
0
  6
CONTINUOUS
 62
3
 10
681.615671633631340
 20
-198.552217022675900
 40
2.000000000000000
 50
0.000000000000000
 51
90.000000000000000
  0
ARC
  8
0
  6
CONTINUOUS
 62
3
 10
320.795537790469550
 20
-193.552217022675900
 40
3.000000000000000
 50
270.000000000000000
 51
357.424041072347790
  0
ARC
  8
0
  6
CONTINUOUS
 62
3
 10
315.615671633631340
 20
-198.552217022675900
 40
2.000000000000000
 50
90.000000000000000
 51
180.000000000000000
  0
ARC
  8
0
  6
CONTINUOUS
 62
3
 10
320.795537790469550
 20
-209.552217022675900
 40
2.999999999999955
 50
2.575958927652206
 51
90.000000000000000
  0
ARC
  8
0
  6
CONTINUOUS
 62
3
 10
315.615671633631340
 20
-204.552217022675900
 40
2.000000000000000
 50
180.000000000000000
 51
270.000000000000000
  0
ARC
  8
0
  6
CONTINUOUS
 62
3
 10
424.177432307529900
 20
-382.052217022675900
 40
17.499999999999904
 50
206.539104932784450
 51
250.537049053685220
  0
ARC
  8
0
  6
CONTINUOUS
 62
3
 10
498.615671633631340
 20
-686.552217022675680
 40
597.460243780278690
 50
86.655847795544346
 51
89.031236499825098
  0
ARC
  8
0
  6
CONTINUOUS
 62
3
 10
526.615671633631340
 20
-207.369579607671080
 40
117.460243780279120
 50
8.158405276263403
 51
86.655847795544418
  0
ARC
  8
0
  6
CONTINUOUS
 62
3
 10
637.931770961376060
 20
-271.744983516824050
 40
5.999999999999756
 50
333.259290973381890
 51
0.000000000000000
  0
ARC
  8
0
  6
CONTINUOUS
 62
3
 10
498.615671633631340
 20
-686.552217022675680
 40
597.460243780278460
 50
90.968763500174902
 51
93.344152204455654
  0
ARC
  8
0
  6
CONTINUOUS
 62
3
 10
470.615671633631340
 20
-207.369579607671080
 40
117.460243780278770
 50
93.344152204455582
 51
171.841594723736590
  0
ARC
  8
0
  6
CONTINUOUS
 62
3
 10
359.299572305886610
 20
-271.744983516824050
 40
6.000000000000000
 50
180.000000000000000
 51
206.740709026617080
  0
CIRCLE
  8
0
  6
CONTINUOUS
 62
3
 10
498.615671633631340
 20
-201.552217022675900
 40
50.000000000000000
  0
LINE
  8
0
  6
CONTINUOUS
 62
3
 10
498.615671633631340
 20
-386.552217022675900
 11
333.615671633631340
 21
-386.552217022675900
  0
LINE
  8
0
  6
CONTINUOUS
 62
3
 10
498.615671633631340
 20
-386.552217022675900
 11
663.615671633631340
 21
-386.552217022675900
  0
LINE
  8
0
  6
CONTINUOUS
 62
3
 10
315.080137727698460
 20
-342.661344057416500
 11
349.682070453587130
 21
-308.059411331527830
  0
LINE
  8
0
  6
CONTINUOUS
 62
3
 10
682.151205539564220
 20
-342.661344057416500
 11
647.549272813675540
 21
-308.059411331527830
  0
LINE
  8
0
  6
CONTINUOUS
 62
3
 10
341.873845690458210
 20
-205.552217022675900
 11
419.123533657602590
 21
-205.552217022675900
  0
LINE
  8
0
  6
CONTINUOUS
 62
3
 10
341.873845690458210
 20
-197.552217022675900
 11
419.123533657602590
 21
-197.552217022675900
  0
LINE
  8
0
  6
CONTINUOUS
 62
3
 10
357.506544598891650
 20
-18.016683116743252
 11
392.108477324779870
 21
-52.618615842631243
  0
LINE
  8
0
  6
CONTINUOUS
 62
3
 10
315.080137727698460
 20
-60.443089987935537
 11
349.682070453587130
 21
-95.045022713823982
  0
LINE
  8
0
  6
CONTINUOUS
 62
3
 10
333.615671633631340
 20
-16.552217022675904
 11
663.615671633631340
 21
-16.552217022675904
  0
LINE
  8
0
  6
CONTINUOUS
 62
3
 10
639.724798668371020
 20
-18.016683116743252
 11
605.122865942482800
 21
-52.618615842631243
  0
LINE
  8
0
  6
CONTINUOUS
 62
3
 10
682.151205539564220
 20
-60.443089987935537
 11
647.549272813675540
 21
-95.045022713823982
  0
LINE
  8
0
  6
CONTINUOUS
 62
3
 10
683.615671633631340
 20
-36.552217022675904
 11
683.615671633631340
 21
-366.552217022675900
  0
LINE
  8
0
  6
CONTINUOUS
 62
3
 10
639.724798668371020
 20
-385.087750928608780
 11
605.122865942482800
 21
-350.485818202720570
  0
LINE
  8
0
  6
CONTINUOUS
 62
3
 10
357.506544598891650
 20
-385.087750928608780
 11
392.108477324779870
 21
-350.485818202720570
  0
LINE
  8
0
  6
DASHDOT
 62
4
 10
498.615671633631340
 20
-201.552217022675900
 11
498.615671633631340
 21
-420.019919878910510
  0
LINE
  8
0
  6
DASHDOT
 62
4
 10
699.929541044688900
 20
-201.552217022675900
 11
498.615671633631340
 21
-201.552217022675900
  0
LINE
  8
0
  6
CONTINUOUS
 62
3
 10
313.615671633631340
 20
-36.552217022675904
 11
313.615671633631340
 21
-366.552217022675900
  0
LINE
  8
0
  6
DASHDOT
 62
4
 10
297.301802222573770
 20
-201.552217022675900
 11
498.615671633631340
 21
-201.552217022675900
  0
LINE
  8
0
  6
DASHDOT
 62
4
 10
498.615671633631340
 20
3.712267390887064
 11
498.615671633631340
 21
-201.552217022675900
  0
LINE
  8
0
  6
CONTINUOUS
 62
3
 10
494.615671633631340
 20
-44.810391079502779
 11
494.615671633631340
 21
-122.060079046647160
  0
LINE
  8
0
  6
CONTINUOUS
 62
3
 10
502.615671633631340
 20
-44.810391079502779
 11
502.615671633631340
 21
-122.060079046647160
  0
LINE
  8
0
  6
CONTINUOUS
 62
3
 10
655.357497576804690
 20
-197.552217022675900
 11
578.107809609660080
 21
-197.552217022675900
  0
LINE
  8
0
  6
CONTINUOUS
 62
3
 10
655.357497576804690
 20
-205.552217022675900
 11
578.107809609660080
 21
-205.552217022675900
  0
LINE
  8
0
  6
CONTINUOUS
 62
3
 10
681.615671633631340
 20
-196.552217022675900
 11
676.435805476793120
 21
-196.552217022675900
  0
LINE
  8
0
  6
CONTINUOUS
 62
3
 10
681.615671633631340
 20
-206.552217022675900
 11
676.435805476793120
 21
-206.552217022675900
  0
LINE
  8
0
  6
CONTINUOUS
 62
3
 10
315.615671633631340
 20
-196.552217022675900
 11
320.795537790469550
 21
-196.552217022675900
  0
LINE
  8
0
  6
CONTINUOUS
 62
3
 10
315.615671633631340
 20
-206.552217022675900
 11
320.795537790469550
 21
-206.552217022675900
  0
LINE
  8
0
  6
CONTINUOUS
 62
3
 10
643.931770961376060
 20
-211.552217022675900
 11
643.931770961376060
 21
-271.744983516824050
  0
LINE
  8
0
  6
CONTINUOUS
 62
3
 10
353.299572305886610
 20
-211.552217022675900
 11
353.299572305886610
 21
-271.744983516824050
  0
ARC
  8
0
  6
CONTINUOUS
 62
3
 10
141.239133120736820
 20
-77.491231027023559
 40
4.999999999999682
 50
271.999999999998580
 51
329.999999999997500
  0
ARC
  8
0
  6
CONTINUOUS
 62
3
 10
168.535549293467280
 20
-71.528814668218956
 40
5.000000000000246
 50
320.612185745701710
 51
0.000000000000000
  0
ARC
  8
0
  6
CONTINUOUS
 62
3
 10
168.535549293467280
 20
-63.800892606860771
 40
5.000000000000246
 50
320.612185745701710
 51
0.000000000000000
  0
LINE
  8
0
  6
CONTINUOUS
 62
3
 10
145.569260139658580
 20
-79.991231027023559
 11
172.865676312389500
 21
-32.712451351308800
  0
ARC
  8
0
  6
CONTINUOUS
 62
3
 10
168.535549293467280
 20
-30.212451351308800
 40
5.000000000000016
 50
330.000000000000110
 51
0.000000000000000
  0
LINE
  8
0
  6
CONTINUOUS
 62
3
 10
145.683690553994890
 20
-107.240588547652120
 11
172.399892050386820
 21
-74.701645432228588
  0
ARC
  8
0
  6
CONTINUOUS
 62
3
 10
141.819347797075350
 20
-104.067757783642030
 40
5.000000000000455
 50
270.000000000000000
 51
320.612185745697730
  0
ARC
  8
0
  6
CONTINUOUS
 62
3
 10
141.819347797075350
 20
-96.339835722283851
 40
5.000000000000455
 50
270.000000000000000
 51
320.612185745697730
  0
LINE
  8
0
  6
CONTINUOUS
 62
3
 10
145.683690553994890
 20
-99.512666486293938
 11
172.399892050386820
 21
-66.973723370870403
  0
LINE
  8
0
  6
CONTINUOUS
 62
3
 10
168.102314612357530
 20
-109.067757783642490
 11
148.631416190607070
 21
-109.067757783642490
  0
LINE
  8
0
  6
DASHDOT
 62
4
 10
206.397177312241640
 20
-360.651242789648900
 11
159.267033253438510
 21
-360.651242789648900
  0
LINE
  8
0
  6
DASHDOT
 62
4
 10
206.397177312241640
 20
-42.453191255702450
 11
159.267033253438510
 21
-42.453191255702450
  0
LINE
  8
0
  6
DASHDOT
 62
4
 10
181.800602522945610
 20
-365.552217022675680
 11
124.345646652143380
 21
-365.552217022675680
  0
LINE
  8
0
  6
DASHDOT
 62
4
 10
156.035549293467280
 20
-345.640847536393950
 11
156.035549293467280
 21
-392.982009677129780
  0
CIRCLE
  8
0
  6
CONTINUOUS
 62
3
 10
156.035549293467280
 20
-365.345585841418820
 40
9.315499999999986
  0
CIRCLE
  8
0
  6
CONTINUOUS
 62
4
 10
156.035549293467280
 20
-365.345585841418820
 40
10.477499999999992
  0
LINE
  8
0
  6
CONTINUOUS
 62
3
 10
196.535549293467280
 20
-371.552217022675680
 11
197.535549293467280
 21
-370.552217022675680
  0
LINE
  8
0
  6
CONTINUOUS
 62
3
 10
193.535549293467280
 20
-371.552217022675680
 11
196.535549293467280
 21
-371.552217022675680
  0
LINE
  8
0
  6
CONTINUOUS
 62
3
 10
179.535549293467280
 20
-390.552217022675680
 11
179.535549293467280
 21
-394.552217022675680
  0
LINE
  8
0
  6
CONTINUOUS
 62
3
 10
175.526670303945590
 20
-386.552217022675680
 11
193.535549293467280
 21
-386.552217022675680
  0
ARC
  8
0
  6
CONTINUOUS
 62
3
 10
183.535549293467280
 20
-390.552217022675680
 40
4.000000000000000
 50
90.000000000000000
 51
180.000000000000000
  0
ARC
  8
0
  6
CONTINUOUS
 62
3
 10
175.535549293467280
 20
-394.552217022675680
 40
4.000000000000000
 50
270.000000000000000
 51
0.000000000000000
  0
ARC
  8
0
  6
CONTINUOUS
 62
3
 10
172.787688963231180
 20
-387.458978726963100
 40
1.999999999999825
 50
46.609653602427549
 51
87.000000000006906
  0
LINE
  8
0
  6
CONTINUOUS
 62
3
 10
132.035549293467280
 20
-353.134017412805180
 11
168.535549293467280
 21
-353.134017412805180
  0
LINE
  8
0
  6
CONTINUOUS
 62
3
 10
137.035549293467280
 20
-365.552217022675680
 11
137.035549293467280
 21
-358.134017412805180
  0
LINE
  8
0
  6
CONTINUOUS
 62
3
 10
155.041166124851320
 20
-384.526178183012460
 11
172.892360875716800
 21
-385.461719657454300
  0
ARC
  8
0
  6
CONTINUOUS
 62
3
 10
132.035549293467280
 20
-358.134017412805180
 40
5.000000000000000
 50
0.000000000000000
 51
90.000000000000000
  0
ARC
  8
0
  6
CONTINUOUS
 62
3
 10
156.035549293467280
 20
-365.552217022675680
 40
19.000000000000000
 50
180.000000000000000
 51
266.999999999999890
  0
ARC
  8
0
  6
CONTINUOUS
 62
3
 10
168.535549293467280
 20
-348.134017412805180
 40
5.000000000000000
 50
270.000000000000000
 51
0.000000000000000
  0
ARC
  8
0
  6
CONTINUOUS
 62
3
 10
175.535549293467280
 20
-384.552236731886070
 40
2.000000000000000
 50
180.000000000000000
 51
270.000000000000000
  0
LINE
  8
0
  6
DASHDOT
 62
4
 10
45.035549293467284
 20
-285.552217022675680
 11
45.035549293467284
 21
-333.552217022675680
  0
LINE
  8
0
  6
CONTINUOUS
 62
3
 10
197.535549293467280
 20
-201.552217022675680
 11
197.535549293467280
 21
-370.552217022675680
  0
LINE
  8
0
  6
CONTINUOUS
 62
3
 10
196.535549293467280
 20
-31.552197313464603
 11
197.535549293467280
 21
-32.552197313464603
  0
LINE
  8
0
  6
CONTINUOUS
 62
3
 10
196.535549293467280
 20
-31.552197313464603
 11
193.535549293467280
 21
-31.552197313464603
  0
LINE
  8
0
  6
CONTINUOUS
 62
3
 10
197.535549293467280
 20
-201.552217022675680
 11
197.535549293467280
 21
-32.552197313464603
  0
LINE
  8
0
  6
CONTINUOUS
 62
3
 10
145.569260139658580
 20
-79.991231027023332
 11
172.865676312389500
 21
-32.712451351308573
  0
LINE
  8
0
  6
CONTINUOUS
 62
3
 10
193.535549293467280
 20
-201.552217022675680
 11
193.535549293467280
 21
-16.552197313464603
  0
LINE
  8
0
  6
CONTINUOUS
 62
3
 10
193.535549293467280
 20
-16.552197313464603
 11
175.535549293467280
 21
-16.552197313464603
  0
LINE
  8
0
  6
CONTINUOUS
 62
3
 10
193.535549293467280
 20
-201.552217022675680
 11
193.535549293467280
 21
-386.552217022675680
  0
CIRCLE
  8
0
  6
CONTINUOUS
 62
3
 10
45.035549293467284
 20
-309.552217022675680
 40
15.000000000000000
  0
ARC
  8
0
  6
CONTINUOUS
 62
3
 10
141.239133120736820
 20
-77.491231027023332
 40
4.999999999999909
 50
271.999999999998470
 51
329.999999999997500
  0
ARC
  8
0
  6
CONTINUOUS
 62
3
 10
168.535549293467280
 20
-30.212451351308800
 40
4.999999999999902
 50
330.000000000002390
 51
0.000000000000000
  0
ARC
  8
0
  6
CONTINUOUS
 62
3
 10
175.535549293467280
 20
-18.552197313464603
 40
2.000000000000000
 50
90.000000000000000
 51
180.000000000000000
  0
LINE
  8
0
  6
CONTINUOUS
 62
3
 10
173.535549293466830
 20
-384.552236731886070
 11
173.535549293467280
 21
-18.552197313464603
  0
LINE
  8
0
  6
CONTINUOUS
 62
3
 10
33.518096887029969
 20
-84.404133894461893
 11
139.545673561586230
 21
-82.553415659426037
  0
ARC
  8
0
  6
CONTINUOUS
 62
3
 10
33.535549293467284
 20
-85.403981589618297
 40
1.000000000000014
 50
91.000000000001762
 51
178.726075913068680
  0
ARC
  8
0
  6
CONTINUOUS
 62
3
 10
31.536043631405846
 20
-85.359516913935067
 40
0.999999999999934
 50
287.183957065598410
 51
358.726075913069280
  0
LINE
  8
0
  6
CONTINUOUS
 62
3
 10
34.035549293467284
 20
-75.904133894461893
 11
34.035549293467284
 21
-83.904133894461893
  0
ARC
  8
0
  6
CONTINUOUS
 62
3
 10
34.535549293467284
 20
-75.904133894461893
 40
0.500000000000000
 50
90.000000000000000
 51
180.000000000000000
  0
ARC
  8
0
  6
CONTINUOUS
 62
3
 10
168.535549293467280
 20
-344.566395166235220
 40
5.000000000000000
 50
0.000000000000000
 51
87.999999999996405
  0
LINE
  8
0
  6
CONTINUOUS
 62
3
 10
50.035549293467284
 20
-75.404133894461893
 11
34.535549293467284
 21
-75.404133894461893
  0
ARC
  8
0
  6
CONTINUOUS
 62
3
 10
65.535549293467284
 20
-75.904133894461893
 40
0.500000000000000
 50
0.000000000000000
 51
90.000000000000000
  0
LINE
  8
0
  6
CONTINUOUS
 62
3
 10
50.035549293467284
 20
-75.404133894461893
 11
65.535549293467284
 21
-75.404133894461893
  0
LINE
  8
0
  6
CONTINUOUS
 62
3
 10
66.035549293467284
 20
-75.904133894461893
 11
66.035549293467284
 21
-83.836539651407065
  0
ARC
  8
0
  6
CONTINUOUS
 62
3
 10
188.535549293467280
 20
-208.552217022675680
 40
2.000000000000000
 50
90.000000000000000
 51
180.000000000000000
  0
ARC
  8
0
  6
CONTINUOUS
 62
3
 10
188.535549293467280
 20
-306.059411331527600
 40
2.000000000000000
 50
180.000000000000000
 51
270.000000000000000
  0
LINE
  8
0
  6
CONTINUOUS
 62
3
 10
186.535549293467280
 20
-208.552217022675680
 11
186.535549293467280
 21
-342.125810151482480
  0
ARC
  8
0
  6
CONTINUOUS
 62
3
 10
188.535549293467280
 20
-342.125810151482480
 40
2.000000000000000
 50
180.000000000000000
 51
270.000000000000000
  0
LINE
  8
0
  6
CONTINUOUS
 62
3
 10
193.535549293467740
 20
-344.125810151482480
 11
188.535549293467280
 21
-344.125810151482480
  0
LINE
  8
0
  6
CONTINUOUS
 62
3
 10
193.535549293467740
 20
-308.059411331527600
 11
188.535549293467280
 21
-308.059411331527600
  0
LINE
  8
0
  6
CONTINUOUS
 62
3
 10
193.535549293467740
 20
-206.552217022675680
 11
188.535549293467280
 21
-206.552217022675680
  0
ARC
  8
0
  6
CONTINUOUS
 62
3
 10
188.535549293467280
 20
-194.552217022675680
 40
2.000000000000000
 50
180.000000000000000
 51
270.000000000000000
  0
ARC
  8
0
  6
CONTINUOUS
 62
3
 10
188.535549293467280
 20
-97.045022713823300
 40
2.000000000000000
 50
90.000000000000000
 51
180.000000000000000
  0
LINE
  8
0
  6
CONTINUOUS
 62
3
 10
186.535549293467280
 20
-194.552217022675680
 11
186.535549293467280
 21
-60.978623893868416
  0
ARC
  8
0
  6
CONTINUOUS
 62
3
 10
188.535549293467280
 20
-60.978623893868416
 40
2.000000000000000
 50
90.000000000000000
 51
180.000000000000000
  0
LINE
  8
0
  6
CONTINUOUS
 62
3
 10
193.535549293467740
 20
-58.978623893868416
 11
188.535549293467280
 21
-58.978623893868416
  0
LINE
  8
0
  6
CONTINUOUS
 62
3
 10
193.535549293467740
 20
-95.045022713823300
 11
188.535549293467280
 21
-95.045022713823300
  0
LINE
  8
0
  6
CONTINUOUS
 62
3
 10
193.535549293467740
 20
-196.552217022675680
 11
188.535549293467280
 21
-196.552217022675680
  0
ARC
  8
0
  6
CONTINUOUS
 62
3
 10
34.535549293466829
 20
-83.904133894461893
 40
0.499999999999545
 50
180.000000000000000
 51
255.651500191095270
  0
LINE
  8
0
  6
CONTINUOUS
 62
3
 10
282.735549293467560
 20
-229.052217022676590
 11
219.535549293467280
 21
-229.052217022676590
  0
LINE
  8
0
  6
CONTINUOUS
 62
3
 10
283.535549293467280
 20
-201.552217022676590
 11
283.535549293467280
 21
-228.252217022676400
  0
ARC
  8
0
  6
CONTINUOUS
 62
3
 10
282.735549293467560
 20
-228.252217022676400
 40
0.800000000000182
 50
270.000000000000000
 51
0.000000000000000
  0
LINE
  8
0
  6
CONTINUOUS
 62
3
 10
211.535549293467280
 20
-229.052217022676590
 11
204.095356914602690
 21
-229.052217022676590
  0
LINE
  8
0
  6
CONTINUOUS
 62
3
 10
219.535549293467280
 20
-229.052217022676590
 11
211.535549293467280
 21
-229.052217022676590
  0
LINE
  8
0
  6
CONTINUOUS
 62
3
 10
201.535549293467280
 20
-201.552217022676590
 11
201.535549293467280
 21
-229.752217022675500
  0
LINE
  8
0
  6
CONTINUOUS
 62
3
 10
201.535549293467280
 20
-229.752217022675500
 11
201.535549293467280
 21
-201.552217022676590
  0
LINE
  8
0
  6
CONTINUOUS
 62
3
 10
203.535549293466830
 20
-228.902217022676040
 11
202.335549293467470
 21
-228.902217022676040
  0
LINE
  8
0
  6
CONTINUOUS
 62
3
 10
203.535549293467280
 20
-228.902217022676040
 11
204.095356914602690
 21
-229.052217022676590
  0
ARC
  8
0
  6
CONTINUOUS
 62
3
 10
202.335549293467470
 20
-229.702217022676220
 40
0.800000000000182
 50
90.000000000000000
 51
180.000000000000000
  0
LINE
  8
0
  6
CONTINUOUS
 62
3
 10
200.735549293467560
 20
-230.552217022676590
 11
201.535549293467280
 21
-229.752217022676400
  0
LINE
  8
0
  6
CONTINUOUS
 62
3
 10
201.535549293467280
 20
-201.552217022676590
 11
201.535549293467280
 21
-173.352217022675630
  0
LINE
  8
0
  6
CONTINUOUS
 62
3
 10
201.535549293467280
 20
-173.352217022675630
 11
201.535549293467280
 21
-201.552217022676590
  0
LINE
  8
0
  6
CONTINUOUS
 62
3
 10
282.735549293467560
 20
-174.052217022676360
 11
204.095356914602690
 21
-174.052217022676360
  0
LINE
  8
0
  6
CONTINUOUS
 62
3
 10
203.535549293466830
 20
-174.202217022676000
 11
202.335549293467470
 21
-174.202217022676000
  0
LINE
  8
0
  6
CONTINUOUS
 62
3
 10
203.535549293467280
 20
-174.202217022676000
 11
204.095356914602690
 21
-174.052217022676360
  0
ARC
  8
0
  6
CONTINUOUS
 62
3
 10
202.335549293467470
 20
-173.402217022675810
 40
0.800000000000182
 50
180.000000000000000
 51
270.000000000000000
  0
LINE
  8
0
  6
CONTINUOUS
 62
3
 10
200.735549293467560
 20
-172.552217022676360
 11
201.535549293467280
 21
-173.352217022675630
  0
LINE
  8
0
  6
CONTINUOUS
 62
3
 10
283.535549293467280
 20
-201.552217022676590
 11
283.535549293467280
 21
-174.852217022675630
  0
ARC
  8
0
  6
CONTINUOUS
 62
3
 10
282.735549293467560
 20
-174.852217022675630
 40
0.799999999999727
 50
0.000000000000000
 51
90.000000000000000
  0
LINE
  8
0
  6
CONTINUOUS
 62
3
 10
220.535549293467280
 20
-193.552217022675680
 11
283.535549293467280
 21
-193.552217022675680
  0
LINE
  8
0
  6
CONTINUOUS
 62
3
 10
220.535549293467280
 20
-209.552217022675680
 11
283.535549293467280
 21
-209.552217022676590
  0
ARC
  8
0
  6
CONTINUOUS
 62
3
 10
220.535549293467280
 20
-201.552217022675680
 40
8.000000000000000
 50
90.000000000000000
 51
270.000000000000000
  0
LINE
  8
0
  6
DASHDOT
 62
4
 10
50.035549293467284
 20
-94.280462433184539
 11
50.035549293467284
 21
-62.112354198849744
  0
LINE
  8
0
  6
CONTINUOUS
 62
3
 10
-2.964450706532716
 20
-51.552217022675677
 11
1.535549293467284
 21
-51.552217022675677
  0
LINE
  8
0
  6
DASHDOT
 62
4
 10
-8.694698107350177
 20
-71.552217022675677
 11
9.404567907941328
 21
-71.552217022675677
  0
ENDSEC
  0
EOF
