  0
SECTION
  2
HEADER
  9
$ACADVER
  1
AC1015
  9
$ACADMAINTVER
 70
     6
  9
$DWGCODEPAGE
  3
ANSI_932
  9
$INSBASE
 10
0.0
 20
0.0
 30
0.0
  9
$EXTMIN
 10
1.000000E+20
 20
1.000000E+20
 30
1.000000E+20
  9
$EXTMAX
 10
-1.000000E+20
 20
-1.000000E+20
 30
-1.000000E+20
  9
$LIMMIN
 10
0.0
 20
0.0
  9
$LIMMAX
 10
0.0
 20
0.0
  9
$ORTHOMODE
 70
     0
  9
$REGENMODE
 70
     1
  9
$FILLMODE
 70
     1
  9
$QTEXTMODE
 70
     0
  9
$MIRRTEXT
 70
     1
  9
$LTSCALE
 40
1.0
  9
$ATTMODE
 70
     1
  9
$TEXTSIZE
 40
3.2
  9
$TRACEWID
 40
0.05
  9
$TEXTSTYLE
  7
Standard
  9
$CLAYER
  8
0
  9
$CELTYPE
  6
Continuous
  9
$CECOLOR
 62
   256
  9
$CELTSCALE
 40
1.0
  9
$DISPSILH
 70
     0
  9
$DIMSCALE
 40
1.0
  9
$DIMASZ
 40
3.863703
  9
$DIMEXO
 40
1.0
  9
$DIMDLI
 40
0.38
  9
$DIMRND
 40
0.0
  9
$DIMDLE
 40
0.0
  9
$DIMEXE
 40
2.0
  9
$DIMTP
 40
0.0
  9
$DIMTM
 40
0.0
  9
$DIMTXT
 40
3.2
  9
$DIMCEN
 40
0.09
  9
$DIMTSZ
 40
0.0
  9
$DIMTOL
 70
     0
  9
$DIMLIM
 70
     0
  9
$DIMTIH
 70
     1
  9
$DIMTOH
 70
     1
  9
$DIMSE1
 70
     0
  9
$DIMSE2
 70
     0
  9
$DIMTAD
 70
     1
  9
$DIMZIN
 70
     0
  9
$DIMBLK
  1

  9
$DIMASO
 70
     1
  9
$DIMSHO
 70
     1
  9
$DIMPOST
  1

  9
$DIMAPOST
  1

  9
$DIMALT
 70
     0
  9
$DIMALTD
 70
     2
  9
$DIMALTF
 40
25.4
  9
$DIMLFAC
 40
1.0
  9
$DIMTOFL
 70
     0
  9
$DIMTVP
 40
0.0
  9
$DIMTIX
 70
     0
  9
$DIMSOXD
 70
     0
  9
$DIMSAH
 70
     0
  9
$DIMBLK1
  1

  9
$DIMBLK2
  1

  9
$DIMSTYLE
  2
Standard
  9
$DIMCLRD
 70
     0
  9
$DIMCLRE
 70
     0
  9
$DIMCLRT
 70
     0
  9
$DIMTFAC
 40
0.625
  9
$DIMGAP
 40
0.09
  9
$DIMJUST
 70
     0
  9
$DIMSD1
 70
     0
  9
$DIMSD2
 70
     0
  9
$DIMTOLJ
 70
     1
  9
$DIMTZIN
 70
     0
  9
$DIMALTZ
 70
     0
  9
$DIMALTTZ
 70
     0
  9
$DIMUPT
 70
     0
  9
$DIMDEC
 70
     4
  9
$DIMTDEC
 70
     4
  9
$DIMALTU
 70
     2
  9
$DIMALTTD
 70
     2
  9
$DIMTXSTY
  7
Standard
  9
$DIMAUNIT
 70
     0
  9
$DIMADEC
 70
     0
  9
$DIMALTRND
 40
0.0
  9
$DIMAZIN
 70
     0
  9
$DIMDSEP
 70
     0
  9
$DIMATFIT
 70
     3
  9
$DIMFRAC
 70
     0
  9
$DIMLDRBLK
  1

  9
$DIMLUNIT
 70
     2
  9
$DIMLWD
 70
     0
  9
$DIMLWE
 70
     0
  9
$DIMTMOVE
 70
     0
  9
$LUNITS
 70
     2
  9
$LUPREC
 70
     3
  9
$SKETCHINC
 40
0.1
  9
$FILLETRAD
 40
0.0
  9
$AUNITS
 70
     0
  9
$AUPREC
 70
     0
  9
$MENU
  1
acad
  9
$ELEVATION
 40
0.0
  9
$PELEVATION
 40
0.0
  9
$THICKNESS
 40
0.0
  9
$LIMCHECK
 70
     0
  9
$CHAMFERA
 40
0.0
  9
$CHAMFERB
 40
0.0
  9
$CHAMFERC
 40
0.0
  9
$CHAMFERD
 40
0.0
  9
$SKPOLY
 70
     0
  9
$TDCREATE
 40
0.000000000
  9
$TDUCREATE
 40
0.000000000
  9
$TDUPDATE
 40
0.000000000
  9
$TDUUPDATE
 40
0.000000000
  9
$TDINDWG
 40
0.0000000000
  9
$TDUSRTIMER
 40
0.0000000000
  9
$USRTIMER
 70
     1
  9
$ANGBASE
 50
0.0
  9
$ANGDIR
 70
     0
  9
$PDMODE
 70
     0
  9
$PDSIZE
 40
0.0
  9
$PLINEWID
 40
0.0
  9
$SPLFRAME
 70
     0
  9
$SPLINETYPE
 70
     6
  9
$SPLINESEGS
 70
     8
  9
$HANDSEED
  5
4E7
  9
$SURFTAB1
 70
     6
  9
$SURFTAB2
 70
     6
  9
$SURFTYPE
 70
     6
  9
$SURFU
 70
     6
  9
$SURFV
 70
     6
  9
$UCSBASE
  2

  9
$UCSNAME
  2

  9
$UCSORG
 10
0.0
 20
0.0
 30
0.0
  9
$UCSXDIR
 10
1.0
 20
0.0
 30
0.0
  9
$UCSYDIR
 10
0.0
 20
1.0
 30
0.0
  9
$UCSORTHOREF
  2

  9
$UCSORTHOVIEW
 70
     0
  9
$UCSORGTOP
 10
0.0
 20
0.0
 30
0.0
  9
$UCSORGBOTTOM
 10
0.0
 20
0.0
 30
0.0
  9
$UCSORGLEFT
 10
0.0
 20
0.0
 30
0.0
  9
$UCSORGRIGHT
 10
0.0
 20
0.0
 30
0.0
  9
$UCSORGFRONT
 10
0.0
 20
0.0
 30
0.0
  9
$UCSORGBACK
 10
0.0
 20
0.0
 30
0.0
  9
$PUCSBASE
  2

  9
$PUCSNAME
  2

  9
$PUCSORG
 10
0.0
 20
0.0
 30
0.0
  9
$PUCSXDIR
 10
1.0
 20
0.0
 30
0.0
  9
$PUCSYDIR
 10
0.0
 20
1.0
 30
0.0
  9
$PUCSORTHOREF
  2

  9
$PUCSORTHOVIEW
 70
     0
  9
$PUCSORGTOP
 10
0.0
 20
0.0
 30
0.0
  9
$PUCSORGBOTTOM
 10
0.0
 20
0.0
 30
0.0
  9
$PUCSORGLEFT
 10
0.0
 20
0.0
 30
0.0
  9
$PUCSORGRIGHT
 10
0.0
 20
0.0
 30
0.0
  9
$PUCSORGFRONT
 10
0.0
 20
0.0
 30
0.0
  9
$PUCSORGBACK
 10
0.0
 20
0.0
 30
0.0
  9
$USERI1
 70
     0
  9
$USERI2
 70
     0
  9
$USERI3
 70
     0
  9
$USERI4
 70
     0
  9
$USERI5
 70
     0
  9
$USERR1
 40
0.0
  9
$USERR2
 40
0.0
  9
$USERR3
 40
0.0
  9
$USERR4
 40
0.0
  9
$USERR5
 40
0.0
  9
$WORLDVIEW
 70
     1
  9
$SHADEDGE
 70
     3
  9
$SHADEDIF
 70
    70
  9
$TILEMODE
 70
     1
  9
$MAXACTVP
 70
    16
  9
$PINSBASE
 10
0.0
 20
0.0
 30
0.0
  9
$PLIMCHECK
 70
     0
  9
$PEXTMIN
 10
1.000000E+20
 20
1.000000E+20
 30
1.000000E+20
  9
$PEXTMAX
 10
-1.000000E+20
 20
-1.000000E+20
 30
-1.000000E+20
  9
$PLIMMIN
 10
0.0
 20
0.0
  9
$PLIMMAX
 10
12.0
 20
9.0
  9
$UNITMODE
 70
     0
  9
$VISRETAIN
 70
     0
  9
$PLINEGEN
 70
     1
  9
$PSLTSCALE
 70
     0
  9
$TREEDEPTH
 70
  3020
  9
$CMLSTYLE
  2
Standard
  9
$CMLJUST
 70
     0
  9
$CMLSCALE
 40
1.0
  9
$PROXYGRAPHICS
 70
     0
  9
$MEASUREMENT
 70
     0
  9
$CELWEIGHT
370
     0
  9
$ENDCAPS
280
     0
  9
$JOINSTYLE
280
     0
  9
$LWDISPLAY
290
     0
  9
$INSUNITS
 70
     0
  9
$HYPERLINKBASE
  1

  9
$STYLESHEET
  1

  9
$XEDIT
290
     1
  9
$CEPSNTYPE
380
     0
  9
$PSTYLEMODE
290
     1
  9
$FINGERPRINTGUID
  2

  9
$VERSIONGUID
  2

  9
$EXTNAMES
290
     1
  9
$PSVPSCALE
 40
0.0
  0
ENDSEC
  0
SECTION
  2
CLASSES
  0
CLASS
  1
LWPOLYLINE
  2
AcDbPolyline
  3
AutoCAD 2000
 90
        0
280
     0
281
     1
  0
CLASS
  1
IMAGE
  2
AcDbRasterImage
  3
ISM
 90
      127
280
     0
281
     1
  0
CLASS
  1
OLE2FRAME
  2
AcDbOle2Frame
  3
AutoCAD 2000
 90
        0
280
     0
281
     1
  0
CLASS
  1
HATCH
  2
AcDbHatch
  3
AutoCAD 2000
 90
        0
280
     0
281
     1
  0
CLASS
  1
DICTIONARYVAR
  2
AcDbDictionaryVar
  3
AutoCAD 2000
 90
        0
280
     0
281
     0
  0
CLASS
  1
RASTERVARIABLES
  2
AcDbRasterVariables
  3
ISM
 90
        0
280
     0
281
     0
  0
CLASS
  1
IMAGEDEF
  2
AcDbRasterImageDef
  3
ISM
 90
        0
280
     0
281
     0
  0
CLASS
  1
IMAGEDEF_REACTOR
  2
AcDbRasterImageDefReactor
  3
ISM
 90
        1
280
     0
281
     0
  0
CLASS
  1
IDBUFFER
  2
AcDbIdBuffer
  3
AutoCAD 2000
 90
        0
280
     0
281
     0
  0
CLASS
  1
SPATIAL_FILTER
  2
AcDbSpatialFilter
  3
AutoCAD 2000
 90
        0
280
     0
281
     0
  0
CLASS
  1
XRECORD
  2
AcDbXrecord
  3
AutoCAD 2000
 90
        0
280
     0
281
     0
  0
CLASS
  1
SORTENTSTABLE
  2
AcDbSortentsTable
  3
AutoCAD 2000
 90
        0
280
     0
281
     0
  0
CLASS
  1
LAYER_INDEX
  2
AcDbLayerIndex
  3
AutoCAD 2000
 90
        0
280
     0
281
     0
  0
CLASS
  1
SPATIAL_INDEX
  2
AcDbSpatialIndex
  3
AutoCAD 2000
 90
        0
280
     0
281
     0
  0
CLASS
  1
OBJECT_PTR
  2
CAseDLPNTableRecord
  3
"ASE-LPNTableRecord"
 90
        1
280
     0
281
     0
  0
CLASS
  1
LAYOUT
  2
AcDbLayout
  3
AutoCAD 2000
 90
        0
280
     0
281
     0
  0
CLASS
  1
PLOTSETTINGS
  2
AcDbPlotSettings
  3
AutoCAD 2000
 90
        0
280
     0
281
     0
  0
CLASS
  1
ACDBDICTIONARYWDFLT
  2
AcDbDictionaryWithDefault
  3
AutoCAD 2000
 90
        0
280
     0
281
     0
  0
CLASS
  1
ACDBPLACEHOLDER
  2
AcDbPlaceHolder
  3
AutoCAD 2000
 90
        0
280
     0
281
     0
  0
CLASS
  1
VBA_PROJECT
  2
AcDbVbaProject
  3
acadvba
 90
        0
280
     0
281
     0
  0
CLASS
  1
WIPEOUT
  2
AcDbWipeout
  3
WipeOut|AutoCAD Express Tool|expresstools@autodesk.com
 90
      127
280
     0
281
     1
  0
CLASS
  1
WIPEOUTVARIABLES
  2
AcDbWipeoutVariables
  3
WipeOut|AutoCAD Express Tool|expresstools@autodesk.com
 90
        0
280
     0
281
     0
  0
CLASS
  1
RTEXT
  2
RText
  3
RText|AutoCAD Express Tool|expresstools@autodesk.com
 90
        0
280
     0
281
     1
  0
CLASS
  1
ARCALIGNEDTEXT
  2
AcDbArcAlignedText
  3
ATEXT|AutoCAD Express Tool|expresstools@autodesk.com
 90
        0
280
     0
281
     1
  0
ENDSEC
  0
SECTION
  2
TABLES
  0
TABLE
  2
VPORT
  5
7
100
AcDbSymbolTable
 70
     1
  0
VPORT
  5
15
100
AcDbSymbolTableRecord
100
AcDbViewportTableRecord
  2
*ACTIVE
 70
     0
 10
0.0
 20
0.0
 11
1.0
 21
1.0
 12
0.0
 22
0.0
 13
0.0
 23
0.0
 14
1.0
 24
1.0
 15
0.0
 25
0.0
 16
0.0
 26
0.0
 36
1.0
 17
0.0
 27
0.0
 37
0.0
 40
100.0
 41
1.0
 42
50.0
 43
0.0
 44
0.0
 50
0.0
 51
0.0
 71
     0
 72
   100
 73
     1
 74
     1
 75
     0
 76
     0
 77
     0
 78
     0
281
     0
 65
     0
110
0.0
120
0.0
130
0.0
111
1.0
121
0.0
131
0.0
112
0.0
122
1.0
132
0.0
345
0
346
0
 79
     0
146
0.0
  0
ENDTAB
  0
TABLE
  2
LTYPE
  5
4
100
AcDbSymbolTable
 70
     7
  0
LTYPE
  5
11
100
AcDbSymbolTableRecord
100
AcDbLinetypeTableRecord
  2
ByBlock
 70
    64
  3

 72
    65
 73
     0
 40
0.0
  0
LTYPE
  5
12
100
AcDbSymbolTableRecord
100
AcDbLinetypeTableRecord
  2
ByLayer
 70
    64
  3

 72
    65
 73
     0
 40
0.0
  0
LTYPE
  5
13
100
AcDbSymbolTableRecord
100
AcDbLinetypeTableRecord
  2
Continuous
 70
    64
  3
Solid line
 72
    65
 73
     0
 40
0.0
  0
LTYPE
  5
24
100
AcDbSymbolTableRecord
100
AcDbLinetypeTableRecord
  2
DASHED
 70
    64
  3
Dashed __ __ __ __ __ __ __ __ __ __ __ __ __ _
 72
    65
 73
     2
 40
0.75
 49
0.5
 74
     0
 49
-0.25
 74
     0
  0
LTYPE
  5
25
100
AcDbSymbolTableRecord
100
AcDbLinetypeTableRecord
  2
CENTER
 70
    64
  3
Center ____ _ ____ _ ____ _ ____ _ ____ _ ____
 72
    65
 73
     4
 40
1.0
 49
0.5
 74
     0
 49
-0.25
 74
     0
 49
0.0
 74
     0
 49
-0.25
 74
     0
  0
LTYPE
  5
26
100
AcDbSymbolTableRecord
100
AcDbLinetypeTableRecord
  2
DIVIDE
 70
    64
  3
Divide ____ . . ____ . . ____ . . ____ . . ____
 72
    65
 73
     6
 40
1.25
 49
0.5
 74
     0
 49
-0.25
 74
     0
 49
0.0
 74
     0
 49
-0.25
 74
     0
 49
0.0
 74
     0
 49
-0.25
 74
     0
  0
LTYPE
  5
27
100
AcDbSymbolTableRecord
100
AcDbLinetypeTableRecord
  2
PHANTOM
 70
    64
  3
Phantom ______  __  __  ______  __  __  ______
 72
    65
 73
     6
 40
9.0
 49
4.3
 74
     0
 49
-0.7
 74
     0
 49
1.3
 74
     0
 49
-0.7
 74
     0
 49
1.3
 74
     0
 49
-0.7
 74
     0
  0
ENDTAB
  0
TABLE
  2
LAYER
  5
2
100
AcDbSymbolTable
 70
     1
  0
LAYER
  5
14
100
AcDbSymbolTableRecord
100
AcDbLayerTableRecord
  2
0
 70
    64
 62
     3
  6
Continuous
290
     1
370
    -3
390
1D
  0
ENDTAB
  0
TABLE
  2
STYLE
  5
3
100
AcDbSymbolTable
 70
     2
  0
STYLE
  5
17
100
AcDbSymbolTableRecord
100
AcDbTextStyleTableRecord
  2
Standard
 70
     0
 40
0.0
 41
1.0
 50
0.0
 71
     0
 42
0.0
  3
txt
  4

  0
STYLE
  5
161
100
AcDbSymbolTableRecord
100
AcDbTextStyleTableRecord
  2
ZU_SHPTB00001
 70
     0
 40
0.0
 41
1.0
 50
0.0
 71
     0
 42
0.0
  3
monotxt
  4
bigfont
  0
ENDTAB
  0
TABLE
  2
VIEW
  5
5
100
AcDbSymbolTable
 70
     0
  0
ENDTAB
  0
TABLE
  2
UCS
  5
6
100
AcDbSymbolTable
 70
     0
  0
ENDTAB
  0
TABLE
  2
APPID
  5
8
100
AcDbSymbolTable
 70
     1
  0
APPID
  5
16
100
AcDbSymbolTableRecord
100
AcDbRegAppTableRecord
  2
ACAD
 70
     0
  0
ENDTAB
  0
TABLE
  2
DIMSTYLE
  5
9
100
AcDbSymbolTable
 70
     1
100
AcDbDimStyleTable
 71
     0
  0
DIMSTYLE
105
18
100
AcDbSymbolTableRecord
100
AcDbDimStyleTableRecord
  2
Standard
 70
     0
  3

  4

 40
1.0
 41
0.18
 42
0.0625
 43
0.38
 44
0.18
 45
0.0
 46
0.0
 47
0.0
 48
0.0
 71
     0
 72
     0
 73
     1
 74
     1
 75
     0
 76
     0
 77
     0
 78
     0
 79
     0
140
0.18
141
0.09
142
0.0
143
25.4
144
1.0
145
0.0
146
1.0
147
0.09
148
0.0
170
     0
171
     2
172
     0
173
     0
174
     0
175
     0
176
     0
177
     0
178
     0
179
     0
271
     4
272
     4
273
     2
274
     2
275
     0
276
     0
277
     2
278
    46
279
     0
280
     0
281
     0
282
     0
283
     1
284
     0
285
     0
286
     0
288
     0
289
     3
340
17
341
0
342
0
343
0
344
0
371
    -2
372
    -2
  0
ENDTAB
  0
TABLE
  2
BLOCK_RECORD
  5
1
100
AcDbSymbolTable
 70
     5
  0
BLOCK_RECORD
  5
A
100
AcDbSymbolTableRecord
100
AcDbBlockTableRecord
  2
*MODEL_SPACE
340
20
  0
BLOCK_RECORD
  5
B
100
AcDbSymbolTableRecord
100
AcDbBlockTableRecord
  2
*PAPER_SPACE
340
21
  0
BLOCK_RECORD
  5
167
100
AcDbSymbolTableRecord
100
AcDbBlockTableRecord
  2
ZU_SYM__USERS_HOME_SYMBOL_POO_SYM_B21_21
340
0
102
{BLKREFS
331
177
102
}
  0
BLOCK_RECORD
  5
178
100
AcDbSymbolTableRecord
100
AcDbBlockTableRecord
  2
ZU_SYM__USERS_HOME_SYMBOL_POO_SYM_B21_0000121
340
0
102
{BLKREFS
331
188
102
}
  0
BLOCK_RECORD
  5
189
100
AcDbSymbolTableRecord
100
AcDbBlockTableRecord
  2
ZU_SYM__USERS_HOME_SYMBOL_POO_SYM_B21_0000221
340
0
102
{BLKREFS
331
199
102
}
  0
BLOCK_RECORD
  5
19A
100
AcDbSymbolTableRecord
100
AcDbBlockTableRecord
  2
ZU_SYM__USERS_HOME_SYMBOL_POO_SYM_B21_0000321
340
0
102
{BLKREFS
331
1AA
102
}
  0
BLOCK_RECORD
  5
1AB
100
AcDbSymbolTableRecord
100
AcDbBlockTableRecord
  2
ZU_SYM__USERS_HOME_SYMBOL_POO_SYM_B21_0000421
340
0
102
{BLKREFS
331
1BB
102
}
  0
ENDTAB
  0
ENDSEC
  0
SECTION
  2
BLOCKS
  0
BLOCK
  5
D
100
AcDbEntity
  8
0
390
0
100
AcDbBlockBegin
  2
*MODEL_SPACE
 70
     0
 10
0.0
 20
0.0
 30
0.0
  3
*MODEL_SPACE
  1

  0
ENDBLK
  5
E
100
AcDbEntity
  8
0
390
0
100
AcDbBlockEnd
  0
BLOCK
  5
F
100
AcDbEntity
 67
     1
  8
0
390
0
100
AcDbBlockBegin
  2
*PAPER_SPACE
 70
     0
 10
0.0
 20
0.0
 30
0.0
  3
*PAPER_SPACE
  1

  0
ENDBLK
  5
10
100
AcDbEntity
 67
     1
  8
0
390
0
100
AcDbBlockEnd
  0
BLOCK
  5
168
100
AcDbEntity
  8
0
390
0
100
AcDbBlockBegin
  2
ZU_SYM__USERS_HOME_SYMBOL_POO_SYM_B21_21
 70
    64
 10
0.0
 20
0.0
 30
0.0
  3
ZU_SYM__USERS_HOME_SYMBOL_POO_SYM_B21_21
  1

  0
POINT
  5
169
100
AcDbEntity
  8
0
370
    -3
390
0
  6
Continuous
100
AcDbPoint
 10
0.0
 20
0.0
 30
0.0
  0
LINE
  5
16A
100
AcDbEntity
  8
0
370
    -3
390
0
  6
Continuous
100
AcDbLine
 10
0.0
 20
14.0
 30
0.0
 11
0.0
 21
-14.0
 31
0.0
  0
LINE
  5
16B
100
AcDbEntity
  8
0
370
    -3
390
0
  6
Continuous
100
AcDbLine
 10
-4.0
 20
-14.0
 30
0.0
 11
-4.0
 21
14.0
 31
0.0
  0
LINE
  5
16C
100
AcDbEntity
  8
0
370
    -3
390
0
  6
Continuous
100
AcDbLine
 10
-19.999962
 20
-10.268356
 30
0.0
 11
-19.999977
 21
10.267579
 31
0.0
  0
LINE
  5
16D
100
AcDbEntity
  8
0
370
    -3
390
0
  6
Continuous
100
AcDbLine
 10
-4.0
 20
12.0
 30
0.0
 11
-18.999985
 21
12.0
 31
0.0
  0
LINE
  5
16E
100
AcDbEntity
  8
0
370
    -3
390
0
  6
Continuous
100
AcDbLine
 10
-4.0
 20
-12.0
 30
0.0
 11
-18.999969
 21
-12.0
 31
0.0
  0
LINE
  5
16F
100
AcDbEntity
  8
0
370
    -3
390
0
  6
Continuous
100
AcDbLine
 10
0.0
 20
14.0
 30
0.0
 11
-4.0
 21
14.0
 31
0.0
  0
LINE
  5
170
100
AcDbEntity
  8
0
370
    -3
390
0
  6
Continuous
100
AcDbLine
 10
0.0
 20
-14.0
 30
0.0
 11
-4.0
 21
-14.0
 31
0.0
  0
LINE
  5
171
100
AcDbEntity
  8
0
370
    -3
390
0
  6
Continuous
100
AcDbLine
 10
-18.999981
 20
11.999997
 30
0.0
 11
-19.999966
 21
10.267576
 31
0.0
  0
LINE
  5
172
100
AcDbEntity
  8
0
370
    -3
390
0
  6
Continuous
100
AcDbLine
 10
-18.999973
 20
-12.0
 30
0.0
 11
-19.999958
 21
-10.268356
 31
0.0
  0
LINE
  5
173
100
AcDbEntity
  8
0
370
    -3
390
0
  6
Continuous
100
AcDbLine
 10
-18.999985
 20
12.0
 30
0.0
 11
-18.999985
 21
-12.0
 31
0.0
  0
LINE
  5
174
100
AcDbEntity
  8
0
370
    -3
390
0
  6
Continuous
100
AcDbLine
 10
0.000001
 20
0.182041
 30
0.0
 11
-3.999999
 21
-1.273837
 31
0.0
  0
LINE
  5
175
100
AcDbEntity
  8
0
370
    -3
390
0
  6
Continuous
100
AcDbLine
 10
-4.0
 20
-0.222603
 30
0.0
 11
0.000001
 21
1.233275
 31
0.0
  0
ENDBLK
  5
176
100
AcDbEntity
  8
0
390
0
100
AcDbBlockEnd
  0
BLOCK
  5
179
100
AcDbEntity
  8
0
390
0
100
AcDbBlockBegin
  2
ZU_SYM__USERS_HOME_SYMBOL_POO_SYM_B21_0000121
 70
    64
 10
0.0
 20
0.0
 30
0.0
  3
ZU_SYM__USERS_HOME_SYMBOL_POO_SYM_B21_0000121
  1

  0
POINT
  5
17A
100
AcDbEntity
  8
0
370
    -3
390
0
  6
Continuous
100
AcDbPoint
 10
0.0
 20
0.0
 30
0.0
  0
LINE
  5
17B
100
AcDbEntity
  8
0
370
    -3
390
0
  6
Continuous
100
AcDbLine
 10
0.0
 20
14.0
 30
0.0
 11
0.0
 21
-14.0
 31
0.0
  0
LINE
  5
17C
100
AcDbEntity
  8
0
370
    -3
390
0
  6
Continuous
100
AcDbLine
 10
-4.0
 20
-14.0
 30
0.0
 11
-4.0
 21
14.0
 31
0.0
  0
LINE
  5
17D
100
AcDbEntity
  8
0
370
    -3
390
0
  6
Continuous
100
AcDbLine
 10
-19.999962
 20
-10.268356
 30
0.0
 11
-19.999977
 21
10.267579
 31
0.0
  0
LINE
  5
17E
100
AcDbEntity
  8
0
370
    -3
390
0
  6
Continuous
100
AcDbLine
 10
-4.0
 20
12.0
 30
0.0
 11
-18.999985
 21
12.0
 31
0.0
  0
LINE
  5
17F
100
AcDbEntity
  8
0
370
    -3
390
0
  6
Continuous
100
AcDbLine
 10
-4.0
 20
-12.0
 30
0.0
 11
-18.999969
 21
-12.0
 31
0.0
  0
LINE
  5
180
100
AcDbEntity
  8
0
370
    -3
390
0
  6
Continuous
100
AcDbLine
 10
0.0
 20
14.0
 30
0.0
 11
-4.0
 21
14.0
 31
0.0
  0
LINE
  5
181
100
AcDbEntity
  8
0
370
    -3
390
0
  6
Continuous
100
AcDbLine
 10
0.0
 20
-14.0
 30
0.0
 11
-4.0
 21
-14.0
 31
0.0
  0
LINE
  5
182
100
AcDbEntity
  8
0
370
    -3
390
0
  6
Continuous
100
AcDbLine
 10
-18.999981
 20
11.999997
 30
0.0
 11
-19.999966
 21
10.267576
 31
0.0
  0
LINE
  5
183
100
AcDbEntity
  8
0
370
    -3
390
0
  6
Continuous
100
AcDbLine
 10
-18.999973
 20
-12.0
 30
0.0
 11
-19.999958
 21
-10.268356
 31
0.0
  0
LINE
  5
184
100
AcDbEntity
  8
0
370
    -3
390
0
  6
Continuous
100
AcDbLine
 10
-18.999985
 20
12.0
 30
0.0
 11
-18.999985
 21
-12.0
 31
0.0
  0
LINE
  5
185
100
AcDbEntity
  8
0
370
    -3
390
0
  6
Continuous
100
AcDbLine
 10
0.000001
 20
0.182041
 30
0.0
 11
-3.999999
 21
-1.273837
 31
0.0
  0
LINE
  5
186
100
AcDbEntity
  8
0
370
    -3
390
0
  6
Continuous
100
AcDbLine
 10
-4.0
 20
-0.222603
 30
0.0
 11
0.000001
 21
1.233275
 31
0.0
  0
ENDBLK
  5
187
100
AcDbEntity
  8
0
390
0
100
AcDbBlockEnd
  0
BLOCK
  5
18A
100
AcDbEntity
  8
0
390
0
100
AcDbBlockBegin
  2
ZU_SYM__USERS_HOME_SYMBOL_POO_SYM_B21_0000221
 70
    64
 10
0.0
 20
0.0
 30
0.0
  3
ZU_SYM__USERS_HOME_SYMBOL_POO_SYM_B21_0000221
  1

  0
POINT
  5
18B
100
AcDbEntity
  8
0
370
    -3
390
0
  6
Continuous
100
AcDbPoint
 10
0.0
 20
0.0
 30
0.0
  0
LINE
  5
18C
100
AcDbEntity
  8
0
370
    -3
390
0
  6
Continuous
100
AcDbLine
 10
0.0
 20
14.0
 30
0.0
 11
0.0
 21
-14.0
 31
0.0
  0
LINE
  5
18D
100
AcDbEntity
  8
0
370
    -3
390
0
  6
Continuous
100
AcDbLine
 10
-4.0
 20
-14.0
 30
0.0
 11
-4.0
 21
14.0
 31
0.0
  0
LINE
  5
18E
100
AcDbEntity
  8
0
370
    -3
390
0
  6
Continuous
100
AcDbLine
 10
-19.999962
 20
-10.268356
 30
0.0
 11
-19.999977
 21
10.267579
 31
0.0
  0
LINE
  5
18F
100
AcDbEntity
  8
0
370
    -3
390
0
  6
Continuous
100
AcDbLine
 10
-4.0
 20
12.0
 30
0.0
 11
-18.999985
 21
12.0
 31
0.0
  0
LINE
  5
190
100
AcDbEntity
  8
0
370
    -3
390
0
  6
Continuous
100
AcDbLine
 10
-4.0
 20
-12.0
 30
0.0
 11
-18.999969
 21
-12.0
 31
0.0
  0
LINE
  5
191
100
AcDbEntity
  8
0
370
    -3
390
0
  6
Continuous
100
AcDbLine
 10
0.0
 20
14.0
 30
0.0
 11
-4.0
 21
14.0
 31
0.0
  0
LINE
  5
192
100
AcDbEntity
  8
0
370
    -3
390
0
  6
Continuous
100
AcDbLine
 10
0.0
 20
-14.0
 30
0.0
 11
-4.0
 21
-14.0
 31
0.0
  0
LINE
  5
193
100
AcDbEntity
  8
0
370
    -3
390
0
  6
Continuous
100
AcDbLine
 10
-18.999981
 20
11.999997
 30
0.0
 11
-19.999966
 21
10.267576
 31
0.0
  0
LINE
  5
194
100
AcDbEntity
  8
0
370
    -3
390
0
  6
Continuous
100
AcDbLine
 10
-18.999973
 20
-12.0
 30
0.0
 11
-19.999958
 21
-10.268356
 31
0.0
  0
LINE
  5
195
100
AcDbEntity
  8
0
370
    -3
390
0
  6
Continuous
100
AcDbLine
 10
-18.999985
 20
12.0
 30
0.0
 11
-18.999985
 21
-12.0
 31
0.0
  0
LINE
  5
196
100
AcDbEntity
  8
0
370
    -3
390
0
  6
Continuous
100
AcDbLine
 10
0.000001
 20
0.182041
 30
0.0
 11
-3.999999
 21
-1.273837
 31
0.0
  0
LINE
  5
197
100
AcDbEntity
  8
0
370
    -3
390
0
  6
Continuous
100
AcDbLine
 10
-4.0
 20
-0.222603
 30
0.0
 11
0.000001
 21
1.233275
 31
0.0
  0
ENDBLK
  5
198
100
AcDbEntity
  8
0
390
0
100
AcDbBlockEnd
  0
BLOCK
  5
19B
100
AcDbEntity
  8
0
390
0
100
AcDbBlockBegin
  2
ZU_SYM__USERS_HOME_SYMBOL_POO_SYM_B21_0000321
 70
    64
 10
0.0
 20
0.0
 30
0.0
  3
ZU_SYM__USERS_HOME_SYMBOL_POO_SYM_B21_0000321
  1

  0
POINT
  5
19C
100
AcDbEntity
  8
0
370
    -3
390
0
  6
Continuous
100
AcDbPoint
 10
0.0
 20
0.0
 30
0.0
  0
LINE
  5
19D
100
AcDbEntity
  8
0
370
    -3
390
0
  6
Continuous
100
AcDbLine
 10
0.0
 20
14.0
 30
0.0
 11
0.0
 21
-14.0
 31
0.0
  0
LINE
  5
19E
100
AcDbEntity
  8
0
370
    -3
390
0
  6
Continuous
100
AcDbLine
 10
-4.0
 20
-14.0
 30
0.0
 11
-4.0
 21
14.0
 31
0.0
  0
LINE
  5
19F
100
AcDbEntity
  8
0
370
    -3
390
0
  6
Continuous
100
AcDbLine
 10
-19.999962
 20
-10.268356
 30
0.0
 11
-19.999977
 21
10.267579
 31
0.0
  0
LINE
  5
1A0
100
AcDbEntity
  8
0
370
    -3
390
0
  6
Continuous
100
AcDbLine
 10
-4.0
 20
12.0
 30
0.0
 11
-18.999985
 21
12.0
 31
0.0
  0
LINE
  5
1A1
100
AcDbEntity
  8
0
370
    -3
390
0
  6
Continuous
100
AcDbLine
 10
-4.0
 20
-12.0
 30
0.0
 11
-18.999969
 21
-12.0
 31
0.0
  0
LINE
  5
1A2
100
AcDbEntity
  8
0
370
    -3
390
0
  6
Continuous
100
AcDbLine
 10
0.0
 20
14.0
 30
0.0
 11
-4.0
 21
14.0
 31
0.0
  0
LINE
  5
1A3
100
AcDbEntity
  8
0
370
    -3
390
0
  6
Continuous
100
AcDbLine
 10
0.0
 20
-14.0
 30
0.0
 11
-4.0
 21
-14.0
 31
0.0
  0
LINE
  5
1A4
100
AcDbEntity
  8
0
370
    -3
390
0
  6
Continuous
100
AcDbLine
 10
-18.999981
 20
11.999997
 30
0.0
 11
-19.999966
 21
10.267576
 31
0.0
  0
LINE
  5
1A5
100
AcDbEntity
  8
0
370
    -3
390
0
  6
Continuous
100
AcDbLine
 10
-18.999973
 20
-12.0
 30
0.0
 11
-19.999958
 21
-10.268356
 31
0.0
  0
LINE
  5
1A6
100
AcDbEntity
  8
0
370
    -3
390
0
  6
Continuous
100
AcDbLine
 10
-18.999985
 20
12.0
 30
0.0
 11
-18.999985
 21
-12.0
 31
0.0
  0
LINE
  5
1A7
100
AcDbEntity
  8
0
370
    -3
390
0
  6
Continuous
100
AcDbLine
 10
0.000001
 20
0.182041
 30
0.0
 11
-3.999999
 21
-1.273837
 31
0.0
  0
LINE
  5
1A8
100
AcDbEntity
  8
0
370
    -3
390
0
  6
Continuous
100
AcDbLine
 10
-4.0
 20
-0.222603
 30
0.0
 11
0.000001
 21
1.233275
 31
0.0
  0
ENDBLK
  5
1A9
100
AcDbEntity
  8
0
390
0
100
AcDbBlockEnd
  0
BLOCK
  5
1AC
100
AcDbEntity
  8
0
390
0
100
AcDbBlockBegin
  2
ZU_SYM__USERS_HOME_SYMBOL_POO_SYM_B21_0000421
 70
    64
 10
0.0
 20
0.0
 30
0.0
  3
ZU_SYM__USERS_HOME_SYMBOL_POO_SYM_B21_0000421
  1

  0
POINT
  5
1AD
100
AcDbEntity
  8
0
370
    -3
390
0
  6
Continuous
100
AcDbPoint
 10
0.0
 20
0.0
 30
0.0
  0
LINE
  5
1AE
100
AcDbEntity
  8
0
370
    -3
390
0
  6
Continuous
100
AcDbLine
 10
0.0
 20
14.0
 30
0.0
 11
0.0
 21
-14.0
 31
0.0
  0
LINE
  5
1AF
100
AcDbEntity
  8
0
370
    -3
390
0
  6
Continuous
100
AcDbLine
 10
-4.0
 20
-14.0
 30
0.0
 11
-4.0
 21
14.0
 31
0.0
  0
LINE
  5
1B0
100
AcDbEntity
  8
0
370
    -3
390
0
  6
Continuous
100
AcDbLine
 10
-19.999962
 20
-10.268356
 30
0.0
 11
-19.999977
 21
10.267579
 31
0.0
  0
LINE
  5
1B1
100
AcDbEntity
  8
0
370
    -3
390
0
  6
Continuous
100
AcDbLine
 10
-4.0
 20
12.0
 30
0.0
 11
-18.999985
 21
12.0
 31
0.0
  0
LINE
  5
1B2
100
AcDbEntity
  8
0
370
    -3
390
0
  6
Continuous
100
AcDbLine
 10
-4.0
 20
-12.0
 30
0.0
 11
-18.999969
 21
-12.0
 31
0.0
  0
LINE
  5
1B3
100
AcDbEntity
  8
0
370
    -3
390
0
  6
Continuous
100
AcDbLine
 10
0.0
 20
14.0
 30
0.0
 11
-4.0
 21
14.0
 31
0.0
  0
LINE
  5
1B4
100
AcDbEntity
  8
0
370
    -3
390
0
  6
Continuous
100
AcDbLine
 10
0.0
 20
-14.0
 30
0.0
 11
-4.0
 21
-14.0
 31
0.0
  0
LINE
  5
1B5
100
AcDbEntity
  8
0
370
    -3
390
0
  6
Continuous
100
AcDbLine
 10
-18.999981
 20
11.999997
 30
0.0
 11
-19.999966
 21
10.267576
 31
0.0
  0
LINE
  5
1B6
100
AcDbEntity
  8
0
370
    -3
390
0
  6
Continuous
100
AcDbLine
 10
-18.999973
 20
-12.0
 30
0.0
 11
-19.999958
 21
-10.268356
 31
0.0
  0
LINE
  5
1B7
100
AcDbEntity
  8
0
370
    -3
390
0
  6
Continuous
100
AcDbLine
 10
-18.999985
 20
12.0
 30
0.0
 11
-18.999985
 21
-12.0
 31
0.0
  0
LINE
  5
1B8
100
AcDbEntity
  8
0
370
    -3
390
0
  6
Continuous
100
AcDbLine
 10
0.000001
 20
0.182041
 30
0.0
 11
-3.999999
 21
-1.273837
 31
0.0
  0
LINE
  5
1B9
100
AcDbEntity
  8
0
370
    -3
390
0
  6
Continuous
100
AcDbLine
 10
-4.0
 20
-0.222603
 30
0.0
 11
0.000001
 21
1.233275
 31
0.0
  0
ENDBLK
  5
1BA
100
AcDbEntity
  8
0
390
0
100
AcDbBlockEnd
  0
ENDSEC
  0
SECTION
  2
ENTITIES
  0
LINE
  5
28
100
AcDbEntity
  8
0
370
    -3
390
0
  6
Continuous
100
AcDbLine
 10
-401.29276
 20
430.280403
 30
0.0
 11
-378.79276
 21
430.280403
 31
0.0
  0
LINE
  5
29
100
AcDbEntity
  8
0
370
    -3
390
0
  6
Continuous
100
AcDbLine
 10
-401.29276
 20
317.881485
 30
0.0
 11
-378.79276
 21
317.881485
 31
0.0
  0
ARC
  5
2A
100
AcDbEntity
  8
0
370
    -3
390
0
  6
Continuous
100
AcDbCircle
 10
-392.29276
 20
411.985075
 30
0.0
 40
6.0
100
AcDbArc
 50
90.0
 51
180.0
  0
ARC
  5
2B
100
AcDbEntity
  8
0
370
    -3
390
0
  6
Continuous
100
AcDbCircle
 10
-392.29276
 20
336.176813
 30
0.0
 40
6.0
100
AcDbArc
 50
180.0
 51
270.0
  0
LINE
  5
2C
100
AcDbEntity
  8
0
370
    -3
390
0
  6
Continuous
100
AcDbLine
 10
-392.29276
 20
330.176813
 30
0.0
 11
-378.79276
 21
330.176813
 31
0.0
  0
LINE
  5
2D
100
AcDbEntity
  8
0
370
    -3
390
0
  6
Continuous
100
AcDbLine
 10
-378.79276
 20
417.985075
 30
0.0
 11
-392.29276
 21
417.985075
 31
0.0
  0
LINE
  5
2E
100
AcDbEntity
  8
0
370
    -3
390
0
  6
Continuous
100
AcDbLine
 10
-398.29276
 20
336.176813
 30
0.0
 11
-398.29276
 21
411.985075
 31
0.0
  0
LINE
  5
2F
100
AcDbEntity
  8
0
370
    -3
390
0
  6
CENTER
100
AcDbLine
 10
-416.613155
 20
-156.391453
 30
0.0
 11
-441.983202
 21
-156.391453
 31
0.0
  0
LINE
  5
30
100
AcDbEntity
  8
0
370
    -3
390
0
  6
Continuous
100
AcDbLine
 10
-424.292759
 20
-156.614055
 30
0.0
 11
-420.292759
 21
-155.158178
 31
0.0
  0
LINE
  5
31
100
AcDbEntity
  8
0
370
    -3
390
0
  6
Continuous
100
AcDbLine
 10
-420.292759
 20
-156.209412
 30
0.0
 11
-424.292759
 21
-157.66529
 31
0.0
  0
LINE
  5
32
100
AcDbEntity
  8
0
370
    -3
390
0
  6
Continuous
100
AcDbLine
 10
-439.292744
 20
-144.391453
 30
0.0
 11
-439.292744
 21
-168.391453
 31
0.0
  0
LINE
  5
33
100
AcDbEntity
  8
0
370
    -3
390
0
  6
Continuous
100
AcDbLine
 10
-439.292733
 20
-168.391453
 30
0.0
 11
-440.292718
 21
-166.659809
 31
0.0
  0
LINE
  5
34
100
AcDbEntity
  8
0
370
    -3
390
0
  6
Continuous
100
AcDbLine
 10
-439.292741
 20
-144.391456
 30
0.0
 11
-440.292726
 21
-146.123877
 31
0.0
  0
LINE
  5
35
100
AcDbEntity
  8
0
370
    -3
390
0
  6
Continuous
100
AcDbLine
 10
-420.29276
 20
-170.391453
 30
0.0
 11
-424.29276
 21
-170.391453
 31
0.0
  0
LINE
  5
36
100
AcDbEntity
  8
0
370
    -3
390
0
  6
Continuous
100
AcDbLine
 10
-420.29276
 20
-142.391453
 30
0.0
 11
-424.29276
 21
-142.391453
 31
0.0
  0
LINE
  5
37
100
AcDbEntity
  8
0
370
    -3
390
0
  6
Continuous
100
AcDbLine
 10
-424.29276
 20
-168.391453
 30
0.0
 11
-439.292729
 21
-168.391453
 31
0.0
  0
LINE
  5
38
100
AcDbEntity
  8
0
370
    -3
390
0
  6
Continuous
100
AcDbLine
 10
-424.29276
 20
-144.391453
 30
0.0
 11
-439.292744
 21
-144.391453
 31
0.0
  0
LINE
  5
39
100
AcDbEntity
  8
0
370
    -3
390
0
  6
Continuous
100
AcDbLine
 10
-440.292722
 20
-166.659809
 30
0.0
 11
-440.292737
 21
-146.123873
 31
0.0
  0
LINE
  5
3A
100
AcDbEntity
  8
0
370
    -3
390
0
  6
Continuous
100
AcDbLine
 10
-424.29276
 20
-170.391453
 30
0.0
 11
-424.29276
 21
-142.391453
 31
0.0
  0
LINE
  5
3B
100
AcDbEntity
  8
0
370
    -3
390
0
  6
Continuous
100
AcDbLine
 10
-420.29276
 20
-142.391453
 30
0.0
 11
-420.29276
 21
-170.391453
 31
0.0
  0
POINT
  5
3C
100
AcDbEntity
  8
0
370
    -3
390
0
  6
Continuous
100
AcDbPoint
 10
-420.29276
 20
-156.391453
 30
0.0
  0
LINE
  5
3D
100
AcDbEntity
  8
0
370
    -3
390
0
  6
Continuous
100
AcDbLine
 10
-446.592736
 20
-132.391453
 30
0.0
 11
-446.592736
 21
-150.391453
 31
0.0
  0
LINE
  5
3E
100
AcDbEntity
  8
0
370
    -3
390
0
  6
Continuous
100
AcDbLine
 10
-446.592721
 20
-150.391455
 30
0.0
 11
-447.292717
 21
-149.179191
 31
0.0
  0
LINE
  5
3F
100
AcDbEntity
  8
0
370
    -3
390
0
  6
Continuous
100
AcDbLine
 10
-446.592736
 20
-132.391455
 30
0.0
 11
-447.292733
 21
-133.604115
 31
0.0
  0
LINE
  5
40
100
AcDbEntity
  8
0
370
    -3
390
0
  6
Continuous
100
AcDbLine
 10
-435.29276
 20
-132.391453
 30
0.0
 11
-446.592736
 21
-132.391453
 31
0.0
  0
LINE
  5
41
100
AcDbEntity
  8
0
370
    -3
390
0
  6
Continuous
100
AcDbLine
 10
-440.29273
 20
-150.391453
 30
0.0
 11
-446.592721
 21
-150.391453
 31
0.0
  0
LINE
  5
42
100
AcDbEntity
  8
0
370
    -3
390
0
  6
Continuous
100
AcDbLine
 10
-447.292718
 20
-149.179188
 30
0.0
 11
-447.292733
 21
-133.604113
 31
0.0
  0
LINE
  5
43
100
AcDbEntity
  8
0
370
    -3
390
0
  6
Continuous
100
AcDbLine
 10
-435.29276
 20
-137.391453
 30
0.0
 11
-435.29276
 21
-144.391453
 31
0.0
  0
LINE
  5
44
100
AcDbEntity
  8
0
370
    -3
390
0
  6
Continuous
100
AcDbLine
 10
-382.792759
 20
152.30323
 30
0.0
 11
-378.792759
 21
150.847353
 31
0.0
  0
LINE
  5
45
100
AcDbEntity
  8
0
370
    -3
390
0
  6
Continuous
100
AcDbLine
 10
-378.792759
 20
151.898587
 30
0.0
 11
-382.792759
 21
153.354465
 31
0.0
  0
LINE
  5
46
100
AcDbEntity
  8
0
370
    -3
390
0
  6
Continuous
100
AcDbLine
 10
-397.792744
 20
140.080627
 30
0.0
 11
-397.792744
 21
164.080627
 31
0.0
  0
LINE
  5
47
100
AcDbEntity
  8
0
370
    -3
390
0
  6
Continuous
100
AcDbLine
 10
-397.792733
 20
164.080627
 30
0.0
 11
-398.792718
 21
162.348984
 31
0.0
  0
LINE
  5
48
100
AcDbEntity
  8
0
370
    -3
390
0
  6
Continuous
100
AcDbLine
 10
-397.792741
 20
140.08063
 30
0.0
 11
-398.792726
 21
141.813052
 31
0.0
  0
LINE
  5
49
100
AcDbEntity
  8
0
370
    -3
390
0
  6
Continuous
100
AcDbLine
 10
-378.79276
 20
166.080627
 30
0.0
 11
-382.79276
 21
166.080627
 31
0.0
  0
LINE
  5
4A
100
AcDbEntity
  8
0
370
    -3
390
0
  6
Continuous
100
AcDbLine
 10
-378.79276
 20
138.080627
 30
0.0
 11
-382.79276
 21
138.080627
 31
0.0
  0
LINE
  5
4B
100
AcDbEntity
  8
0
370
    -3
390
0
  6
Continuous
100
AcDbLine
 10
-382.79276
 20
164.080627
 30
0.0
 11
-397.792729
 21
164.080627
 31
0.0
  0
LINE
  5
4C
100
AcDbEntity
  8
0
370
    -3
390
0
  6
Continuous
100
AcDbLine
 10
-382.79276
 20
140.080627
 30
0.0
 11
-397.792744
 21
140.080627
 31
0.0
  0
LINE
  5
4D
100
AcDbEntity
  8
0
370
    -3
390
0
  6
Continuous
100
AcDbLine
 10
-398.792722
 20
162.348983
 30
0.0
 11
-398.792737
 21
141.813048
 31
0.0
  0
LINE
  5
4E
100
AcDbEntity
  8
0
370
    -3
390
0
  6
Continuous
100
AcDbLine
 10
-382.79276
 20
166.080627
 30
0.0
 11
-382.79276
 21
138.080627
 31
0.0
  0
LINE
  5
4F
100
AcDbEntity
  8
0
370
    -3
390
0
  6
Continuous
100
AcDbLine
 10
-378.79276
 20
138.080627
 30
0.0
 11
-378.79276
 21
166.080627
 31
0.0
  0
POINT
  5
50
100
AcDbEntity
  8
0
370
    -3
390
0
  6
Continuous
100
AcDbPoint
 10
-378.79276
 20
152.080627
 30
0.0
  0
LINE
  5
51
100
AcDbEntity
  8
0
370
    -3
390
0
  6
Continuous
100
AcDbLine
 10
-424.292759
 20
217.858025
 30
0.0
 11
-420.292759
 21
219.313902
 31
0.0
  0
LINE
  5
52
100
AcDbEntity
  8
0
370
    -3
390
0
  6
Continuous
100
AcDbLine
 10
-420.292759
 20
218.262668
 30
0.0
 11
-424.292759
 21
216.80679
 31
0.0
  0
LINE
  5
53
100
AcDbEntity
  8
0
370
    -3
390
0
  6
Continuous
100
AcDbLine
 10
-439.292744
 20
230.080627
 30
0.0
 11
-439.292744
 21
206.080627
 31
0.0
  0
LINE
  5
54
100
AcDbEntity
  8
0
370
    -3
390
0
  6
Continuous
100
AcDbLine
 10
-439.292733
 20
206.080627
 30
0.0
 11
-440.292718
 21
207.812271
 31
0.0
  0
LINE
  5
55
100
AcDbEntity
  8
0
370
    -3
390
0
  6
Continuous
100
AcDbLine
 10
-439.292741
 20
230.080625
 30
0.0
 11
-440.292726
 21
228.348203
 31
0.0
  0
LINE
  5
56
100
AcDbEntity
  8
0
370
    -3
390
0
  6
Continuous
100
AcDbLine
 10
-420.29276
 20
204.080627
 30
0.0
 11
-424.29276
 21
204.080627
 31
0.0
  0
LINE
  5
57
100
AcDbEntity
  8
0
370
    -3
390
0
  6
Continuous
100
AcDbLine
 10
-420.29276
 20
232.080627
 30
0.0
 11
-424.29276
 21
232.080627
 31
0.0
  0
LINE
  5
58
100
AcDbEntity
  8
0
370
    -3
390
0
  6
Continuous
100
AcDbLine
 10
-424.29276
 20
206.080627
 30
0.0
 11
-439.292729
 21
206.080627
 31
0.0
  0
LINE
  5
59
100
AcDbEntity
  8
0
370
    -3
390
0
  6
Continuous
100
AcDbLine
 10
-424.29276
 20
230.080627
 30
0.0
 11
-439.292744
 21
230.080627
 31
0.0
  0
LINE
  5
5A
100
AcDbEntity
  8
0
370
    -3
390
0
  6
Continuous
100
AcDbLine
 10
-440.292722
 20
207.812272
 30
0.0
 11
-440.292737
 21
228.348207
 31
0.0
  0
LINE
  5
5B
100
AcDbEntity
  8
0
370
    -3
390
0
  6
Continuous
100
AcDbLine
 10
-424.29276
 20
204.080627
 30
0.0
 11
-424.29276
 21
232.080627
 31
0.0
  0
LINE
  5
5C
100
AcDbEntity
  8
0
370
    -3
390
0
  6
Continuous
100
AcDbLine
 10
-420.29276
 20
232.080627
 30
0.0
 11
-420.29276
 21
204.080627
 31
0.0
  0
POINT
  5
5D
100
AcDbEntity
  8
0
370
    -3
390
0
  6
Continuous
100
AcDbPoint
 10
-420.29276
 20
218.080627
 30
0.0
  0
LINE
  5
5E
100
AcDbEntity
  8
0
370
    -3
390
0
  6
Continuous
100
AcDbLine
 10
-382.792759
 20
204.30323
 30
0.0
 11
-378.792759
 21
202.847353
 31
0.0
  0
LINE
  5
5F
100
AcDbEntity
  8
0
370
    -3
390
0
  6
Continuous
100
AcDbLine
 10
-378.792759
 20
203.898587
 30
0.0
 11
-382.792759
 21
205.354465
 31
0.0
  0
LINE
  5
60
100
AcDbEntity
  8
0
370
    -3
390
0
  6
Continuous
100
AcDbLine
 10
-397.792744
 20
192.080627
 30
0.0
 11
-397.792744
 21
216.080627
 31
0.0
  0
LINE
  5
61
100
AcDbEntity
  8
0
370
    -3
390
0
  6
Continuous
100
AcDbLine
 10
-397.792733
 20
216.080627
 30
0.0
 11
-398.792718
 21
214.348984
 31
0.0
  0
LINE
  5
62
100
AcDbEntity
  8
0
370
    -3
390
0
  6
Continuous
100
AcDbLine
 10
-397.792741
 20
192.08063
 30
0.0
 11
-398.792726
 21
193.813052
 31
0.0
  0
LINE
  5
63
100
AcDbEntity
  8
0
370
    -3
390
0
  6
Continuous
100
AcDbLine
 10
-378.79276
 20
218.080627
 30
0.0
 11
-382.79276
 21
218.080627
 31
0.0
  0
LINE
  5
64
100
AcDbEntity
  8
0
370
    -3
390
0
  6
Continuous
100
AcDbLine
 10
-378.79276
 20
190.080627
 30
0.0
 11
-382.79276
 21
190.080627
 31
0.0
  0
LINE
  5
65
100
AcDbEntity
  8
0
370
    -3
390
0
  6
Continuous
100
AcDbLine
 10
-382.79276
 20
216.080627
 30
0.0
 11
-397.792729
 21
216.080627
 31
0.0
  0
LINE
  5
66
100
AcDbEntity
  8
0
370
    -3
390
0
  6
Continuous
100
AcDbLine
 10
-382.79276
 20
192.080627
 30
0.0
 11
-397.792744
 21
192.080627
 31
0.0
  0
LINE
  5
67
100
AcDbEntity
  8
0
370
    -3
390
0
  6
Continuous
100
AcDbLine
 10
-398.792722
 20
214.348983
 30
0.0
 11
-398.792737
 21
193.813048
 31
0.0
  0
LINE
  5
68
100
AcDbEntity
  8
0
370
    -3
390
0
  6
Continuous
100
AcDbLine
 10
-382.79276
 20
218.080627
 30
0.0
 11
-382.79276
 21
190.080627
 31
0.0
  0
LINE
  5
69
100
AcDbEntity
  8
0
370
    -3
390
0
  6
Continuous
100
AcDbLine
 10
-378.79276
 20
190.080627
 30
0.0
 11
-378.79276
 21
218.080627
 31
0.0
  0
POINT
  5
6A
100
AcDbEntity
  8
0
370
    -3
390
0
  6
Continuous
100
AcDbPoint
 10
-378.79276
 20
204.080627
 30
0.0
  0
LINE
  5
6B
100
AcDbEntity
  8
0
370
    -3
390
0
  6
Continuous
100
AcDbLine
 10
-424.292759
 20
530.30323
 30
0.0
 11
-420.292759
 21
528.847353
 31
0.0
  0
LINE
  5
6C
100
AcDbEntity
  8
0
370
    -3
390
0
  6
Continuous
100
AcDbLine
 10
-420.292759
 20
529.898587
 30
0.0
 11
-424.292759
 21
531.354465
 31
0.0
  0
LINE
  5
6D
100
AcDbEntity
  8
0
370
    -3
390
0
  6
Continuous
100
AcDbLine
 10
-439.292744
 20
518.080627
 30
0.0
 11
-439.292744
 21
542.080627
 31
0.0
  0
LINE
  5
6E
100
AcDbEntity
  8
0
370
    -3
390
0
  6
Continuous
100
AcDbLine
 10
-439.292733
 20
542.080627
 30
0.0
 11
-440.292718
 21
540.348984
 31
0.0
  0
LINE
  5
6F
100
AcDbEntity
  8
0
370
    -3
390
0
  6
Continuous
100
AcDbLine
 10
-439.292741
 20
518.08063
 30
0.0
 11
-440.292726
 21
519.813052
 31
0.0
  0
LINE
  5
70
100
AcDbEntity
  8
0
370
    -3
390
0
  6
Continuous
100
AcDbLine
 10
-420.29276
 20
544.080627
 30
0.0
 11
-424.29276
 21
544.080627
 31
0.0
  0
LINE
  5
71
100
AcDbEntity
  8
0
370
    -3
390
0
  6
Continuous
100
AcDbLine
 10
-420.29276
 20
516.080627
 30
0.0
 11
-424.29276
 21
516.080627
 31
0.0
  0
LINE
  5
72
100
AcDbEntity
  8
0
370
    -3
390
0
  6
Continuous
100
AcDbLine
 10
-424.29276
 20
542.080627
 30
0.0
 11
-439.292729
 21
542.080627
 31
0.0
  0
LINE
  5
73
100
AcDbEntity
  8
0
370
    -3
390
0
  6
Continuous
100
AcDbLine
 10
-424.29276
 20
518.080627
 30
0.0
 11
-439.292744
 21
518.080627
 31
0.0
  0
LINE
  5
74
100
AcDbEntity
  8
0
370
    -3
390
0
  6
Continuous
100
AcDbLine
 10
-440.292722
 20
540.348983
 30
0.0
 11
-440.292737
 21
519.813048
 31
0.0
  0
LINE
  5
75
100
AcDbEntity
  8
0
370
    -3
390
0
  6
Continuous
100
AcDbLine
 10
-424.29276
 20
544.080627
 30
0.0
 11
-424.29276
 21
516.080627
 31
0.0
  0
LINE
  5
76
100
AcDbEntity
  8
0
370
    -3
390
0
  6
Continuous
100
AcDbLine
 10
-420.29276
 20
516.080627
 30
0.0
 11
-420.29276
 21
544.080627
 31
0.0
  0
POINT
  5
77
100
AcDbEntity
  8
0
370
    -3
390
0
  6
Continuous
100
AcDbPoint
 10
-420.29276
 20
530.080627
 30
0.0
  0
LINE
  5
78
100
AcDbEntity
  8
0
370
    -3
390
0
  6
Continuous
100
AcDbLine
 10
-382.792759
 20
543.858025
 30
0.0
 11
-378.792759
 21
545.313902
 31
0.0
  0
LINE
  5
79
100
AcDbEntity
  8
0
370
    -3
390
0
  6
Continuous
100
AcDbLine
 10
-378.792759
 20
544.262668
 30
0.0
 11
-382.792759
 21
542.80679
 31
0.0
  0
LINE
  5
7A
100
AcDbEntity
  8
0
370
    -3
390
0
  6
Continuous
100
AcDbLine
 10
-397.792744
 20
556.080627
 30
0.0
 11
-397.792744
 21
532.080627
 31
0.0
  0
LINE
  5
7B
100
AcDbEntity
  8
0
370
    -3
390
0
  6
Continuous
100
AcDbLine
 10
-397.792733
 20
532.080627
 30
0.0
 11
-398.792718
 21
533.812271
 31
0.0
  0
LINE
  5
7C
100
AcDbEntity
  8
0
370
    -3
390
0
  6
Continuous
100
AcDbLine
 10
-397.792741
 20
556.080625
 30
0.0
 11
-398.792726
 21
554.348203
 31
0.0
  0
LINE
  5
7D
100
AcDbEntity
  8
0
370
    -3
390
0
  6
Continuous
100
AcDbLine
 10
-378.79276
 20
530.080627
 30
0.0
 11
-382.79276
 21
530.080627
 31
0.0
  0
LINE
  5
7E
100
AcDbEntity
  8
0
370
    -3
390
0
  6
Continuous
100
AcDbLine
 10
-378.79276
 20
558.080627
 30
0.0
 11
-382.79276
 21
558.080627
 31
0.0
  0
LINE
  5
7F
100
AcDbEntity
  8
0
370
    -3
390
0
  6
Continuous
100
AcDbLine
 10
-382.79276
 20
532.080627
 30
0.0
 11
-397.792729
 21
532.080627
 31
0.0
  0
LINE
  5
80
100
AcDbEntity
  8
0
370
    -3
390
0
  6
Continuous
100
AcDbLine
 10
-382.79276
 20
556.080627
 30
0.0
 11
-397.792744
 21
556.080627
 31
0.0
  0
LINE
  5
81
100
AcDbEntity
  8
0
370
    -3
390
0
  6
Continuous
100
AcDbLine
 10
-398.792722
 20
533.812272
 30
0.0
 11
-398.792737
 21
554.348207
 31
0.0
  0
LINE
  5
82
100
AcDbEntity
  8
0
370
    -3
390
0
  6
Continuous
100
AcDbLine
 10
-382.79276
 20
530.080627
 30
0.0
 11
-382.79276
 21
558.080627
 31
0.0
  0
LINE
  5
83
100
AcDbEntity
  8
0
370
    -3
390
0
  6
Continuous
100
AcDbLine
 10
-378.79276
 20
558.080627
 30
0.0
 11
-378.79276
 21
530.080627
 31
0.0
  0
POINT
  5
84
100
AcDbEntity
  8
0
370
    -3
390
0
  6
Continuous
100
AcDbPoint
 10
-378.79276
 20
544.080627
 30
0.0
  0
LINE
  5
85
100
AcDbEntity
  8
0
370
    -3
390
0
  6
Continuous
100
AcDbLine
 10
-382.792759
 20
595.858025
 30
0.0
 11
-378.792759
 21
597.313902
 31
0.0
  0
LINE
  5
86
100
AcDbEntity
  8
0
370
    -3
390
0
  6
Continuous
100
AcDbLine
 10
-378.792759
 20
596.262668
 30
0.0
 11
-382.792759
 21
594.80679
 31
0.0
  0
LINE
  5
87
100
AcDbEntity
  8
0
370
    -3
390
0
  6
Continuous
100
AcDbLine
 10
-397.792744
 20
608.080627
 30
0.0
 11
-397.792744
 21
584.080627
 31
0.0
  0
LINE
  5
88
100
AcDbEntity
  8
0
370
    -3
390
0
  6
Continuous
100
AcDbLine
 10
-397.792733
 20
584.080627
 30
0.0
 11
-398.792718
 21
585.812271
 31
0.0
  0
LINE
  5
89
100
AcDbEntity
  8
0
370
    -3
390
0
  6
Continuous
100
AcDbLine
 10
-397.792741
 20
608.080625
 30
0.0
 11
-398.792726
 21
606.348203
 31
0.0
  0
LINE
  5
8A
100
AcDbEntity
  8
0
370
    -3
390
0
  6
Continuous
100
AcDbLine
 10
-378.79276
 20
582.080627
 30
0.0
 11
-382.79276
 21
582.080627
 31
0.0
  0
LINE
  5
8B
100
AcDbEntity
  8
0
370
    -3
390
0
  6
Continuous
100
AcDbLine
 10
-378.79276
 20
610.080627
 30
0.0
 11
-382.79276
 21
610.080627
 31
0.0
  0
LINE
  5
8C
100
AcDbEntity
  8
0
370
    -3
390
0
  6
Continuous
100
AcDbLine
 10
-382.79276
 20
584.080627
 30
0.0
 11
-397.792729
 21
584.080627
 31
0.0
  0
LINE
  5
8D
100
AcDbEntity
  8
0
370
    -3
390
0
  6
Continuous
100
AcDbLine
 10
-382.79276
 20
608.080627
 30
0.0
 11
-397.792744
 21
608.080627
 31
0.0
  0
LINE
  5
8E
100
AcDbEntity
  8
0
370
    -3
390
0
  6
Continuous
100
AcDbLine
 10
-398.792722
 20
585.812272
 30
0.0
 11
-398.792737
 21
606.348207
 31
0.0
  0
LINE
  5
8F
100
AcDbEntity
  8
0
370
    -3
390
0
  6
Continuous
100
AcDbLine
 10
-382.79276
 20
582.080627
 30
0.0
 11
-382.79276
 21
610.080627
 31
0.0
  0
LINE
  5
90
100
AcDbEntity
  8
0
370
    -3
390
0
  6
Continuous
100
AcDbLine
 10
-378.79276
 20
610.080627
 30
0.0
 11
-378.79276
 21
582.080627
 31
0.0
  0
POINT
  5
91
100
AcDbEntity
  8
0
370
    -3
390
0
  6
Continuous
100
AcDbPoint
 10
-378.79276
 20
596.080627
 30
0.0
  0
LINE
  5
92
100
AcDbEntity
  8
0
370
    -3
390
0
  6
Continuous
100
AcDbLine
 10
-355.29276
 20
135.080627
 30
0.0
 11
-355.29276
 21
374.080627
 31
0.0
  0
LINE
  5
93
100
AcDbEntity
  8
0
370
    -3
390
0
  6
Continuous
100
AcDbLine
 10
-355.29276
 20
613.080627
 30
0.0
 11
-355.29276
 21
374.080627
 31
0.0
  0
CIRCLE
  5
94
100
AcDbEntity
  8
0
370
    -3
390
0
  6
Continuous
100
AcDbCircle
 10
-314.79276
 20
374.080627
 30
0.0
 40
16.0
  0
LINE
  5
95
100
AcDbEntity
  8
0
370
    -3
390
0
  6
CENTER
100
AcDbLine
 10
-314.79276
 20
353.126978
 30
0.0
 11
-314.79276
 21
395.720394
 31
0.0
  0
ARC
  5
96
100
AcDbEntity
  8
0
370
    -3
390
0
  6
Continuous
100
AcDbCircle
 10
-555.79276
 20
179.080627
 30
0.0
 40
14.0
100
AcDbArc
 50
151.845085
 51
28.154915
  0
LINE
  5
97
100
AcDbEntity
  8
0
370
    -3
390
0
  6
CENTER
100
AcDbLine
 10
-395.605673
 20
218.080627
 30
0.0
 11
-448.934987
 21
218.080627
 31
0.0
  0
ARC
  5
98
100
AcDbEntity
  8
0
370
    -3
390
0
  6
Continuous
100
AcDbCircle
 10
-417.29276
 20
197.080627
 30
0.0
 40
3.0
100
AcDbArc
 50
180.0
 51
270.0
  0
LINE
  5
99
100
AcDbEntity
  8
0
370
    -3
390
0
  6
Continuous
100
AcDbLine
 10
-401.29276
 20
194.080627
 30
0.0
 11
-417.29276
 21
194.080627
 31
0.0
  0
LINE
  5
9A
100
AcDbEntity
  8
0
370
    -3
390
0
  6
CENTER
100
AcDbLine
 10
-396.105673
 20
530.080627
 30
0.0
 11
-449.434987
 21
530.080627
 31
0.0
  0
ARC
  5
9B
100
AcDbEntity
  8
0
370
    -3
390
0
  6
Continuous
100
AcDbCircle
 10
-417.29276
 20
551.080627
 30
0.0
 40
3.0
100
AcDbArc
 50
90.0
 51
180.0
  0
LINE
  5
9C
100
AcDbEntity
  8
0
370
    -3
390
0
  6
Continuous
100
AcDbLine
 10
-401.29276
 20
554.080627
 30
0.0
 11
-417.29276
 21
554.080627
 31
0.0
  0
ARC
  5
9D
100
AcDbEntity
  8
0
370
    -3
390
0
  6
Continuous
100
AcDbCircle
 10
-387.79276
 20
223.146394
 30
0.0
 40
3.0
100
AcDbArc
 50
0.0
 51
90.0
  0
LINE
  5
9E
100
AcDbEntity
  8
0
370
    -3
390
0
  6
Continuous
100
AcDbLine
 10
-387.79276
 20
226.146394
 30
0.0
 11
-378.79276
 21
226.146394
 31
0.0
  0
LINE
  5
9F
100
AcDbEntity
  8
0
370
    -3
390
0
  6
Continuous
100
AcDbLine
 10
-401.29276
 20
229.286688
 30
0.0
 11
-378.79276
 21
229.286688
 31
0.0
  0
ARC
  5
A0
100
AcDbEntity
  8
0
370
    -3
390
0
  6
Continuous
100
AcDbCircle
 10
-377.29276
 20
190.080627
 30
0.0
 40
6.0
100
AcDbArc
 50
270.0
 51
0.0
  0
LINE
  5
A1
100
AcDbEntity
  8
0
370
    -3
390
0
  6
Continuous
100
AcDbLine
 10
-378.79276
 20
184.080627
 30
0.0
 11
-377.29276
 21
184.080627
 31
0.0
  0
ARC
  5
A2
100
AcDbEntity
  8
0
370
    -3
390
0
  6
Continuous
100
AcDbCircle
 10
-375.79276
 20
167.080627
 30
0.0
 40
3.0
100
AcDbArc
 50
180.0
 51
270.0
  0
LINE
  5
A3
100
AcDbEntity
  8
0
370
    -3
390
0
  6
Continuous
100
AcDbLine
 10
-375.79276
 20
164.080627
 30
0.0
 11
-355.29276
 21
164.080627
 31
0.0
  0
ARC
  5
A4
100
AcDbEntity
  8
0
370
    -3
390
0
  6
Continuous
100
AcDbCircle
 10
-375.79276
 20
138.080627
 30
0.0
 40
3.0
100
AcDbArc
 50
180.0
 51
270.0
  0
LINE
  5
A5
100
AcDbEntity
  8
0
370
    -3
390
0
  6
Continuous
100
AcDbLine
 10
-375.79276
 20
135.080627
 30
0.0
 11
-354.79276
 21
135.080627
 31
0.0
  0
LINE
  5
A6
100
AcDbEntity
  8
0
370
    -3
390
0
  6
CENTER
100
AcDbLine
 10
-364.291683
 20
204.080627
 30
0.0
 11
-404.519314
 21
204.080627
 31
0.0
  0
LINE
  5
A7
100
AcDbEntity
  8
0
370
    -3
390
0
  6
CENTER
100
AcDbLine
 10
-364.291683
 20
184.080627
 30
0.0
 11
-404.519314
 21
184.080627
 31
0.0
  0
LINE
  5
A8
100
AcDbEntity
  8
0
370
    -3
390
0
  6
CENTER
100
AcDbLine
 10
-363.791683
 20
152.080627
 30
0.0
 11
-404.019314
 21
152.080627
 31
0.0
  0
LINE
  5
A9
100
AcDbEntity
  8
0
370
    -3
390
0
  6
Continuous
100
AcDbLine
 10
-401.29276
 20
175.080627
 30
0.0
 11
-398.792736
 21
175.080627
 31
0.0
  0
LINE
  5
AA
100
AcDbEntity
  8
0
370
    -3
390
0
  6
Continuous
100
AcDbLine
 10
-380.35663
 20
170.080627
 30
0.0
 11
-378.79276
 21
165.344419
 31
0.0
  0
LINE
  5
AB
100
AcDbEntity
  8
0
370
    -3
390
0
  6
Continuous
100
AcDbLine
 10
-384.79276
 20
216.080627
 30
0.0
 11
-384.79276
 21
223.146394
 31
0.0
  0
LINE
  5
AC
100
AcDbEntity
  8
0
370
    -3
390
0
  6
Continuous
100
AcDbLine
 10
-382.792759
 20
184.30323
 30
0.0
 11
-378.792759
 21
182.847353
 31
0.0
  0
LINE
  5
AD
100
AcDbEntity
  8
0
370
    -3
390
0
  6
Continuous
100
AcDbLine
 10
-378.792759
 20
183.898587
 30
0.0
 11
-382.792759
 21
185.354465
 31
0.0
  0
LINE
  5
AE
100
AcDbEntity
  8
0
370
    -3
390
0
  6
Continuous
100
AcDbLine
 10
-397.792744
 20
172.080627
 30
0.0
 11
-397.792744
 21
196.080627
 31
0.0
  0
LINE
  5
AF
100
AcDbEntity
  8
0
370
    -3
390
0
  6
Continuous
100
AcDbLine
 10
-397.792741
 20
172.08063
 30
0.0
 11
-398.792726
 21
173.813052
 31
0.0
  0
LINE
  5
B0
100
AcDbEntity
  8
0
370
    -3
390
0
  6
Continuous
100
AcDbLine
 10
-378.79276
 20
170.080627
 30
0.0
 11
-382.79276
 21
170.080627
 31
0.0
  0
LINE
  5
B1
100
AcDbEntity
  8
0
370
    -3
390
0
  6
Continuous
100
AcDbLine
 10
-382.79276
 20
172.080627
 30
0.0
 11
-397.792744
 21
172.080627
 31
0.0
  0
LINE
  5
B2
100
AcDbEntity
  8
0
370
    -3
390
0
  6
Continuous
100
AcDbLine
 10
-398.792722
 20
194.348983
 30
0.0
 11
-398.792737
 21
173.813048
 31
0.0
  0
LINE
  5
B3
100
AcDbEntity
  8
0
370
    -3
390
0
  6
Continuous
100
AcDbLine
 10
-382.79276
 20
198.080627
 30
0.0
 11
-382.79276
 21
170.080627
 31
0.0
  0
LINE
  5
B4
100
AcDbEntity
  8
0
370
    -3
390
0
  6
Continuous
100
AcDbLine
 10
-378.79276
 20
170.080627
 30
0.0
 11
-378.79276
 21
198.080627
 31
0.0
  0
POINT
  5
B5
100
AcDbEntity
  8
0
370
    -3
390
0
  6
Continuous
100
AcDbPoint
 10
-378.79276
 20
184.080627
 30
0.0
  0
ARC
  5
B6
100
AcDbEntity
  8
0
370
    -3
390
0
  6
Continuous
100
AcDbCircle
 10
-387.79276
 20
525.014861
 30
0.0
 40
3.0
100
AcDbArc
 50
270.0
 51
0.0
  0
LINE
  5
B7
100
AcDbEntity
  8
0
370
    -3
390
0
  6
Continuous
100
AcDbLine
 10
-387.79276
 20
522.014861
 30
0.0
 11
-378.79276
 21
522.014861
 31
0.0
  0
LINE
  5
B8
100
AcDbEntity
  8
0
370
    -3
390
0
  6
Continuous
100
AcDbLine
 10
-401.29276
 20
518.874567
 30
0.0
 11
-378.79276
 21
518.874567
 31
0.0
  0
ARC
  5
B9
100
AcDbEntity
  8
0
370
    -3
390
0
  6
Continuous
100
AcDbCircle
 10
-381.79276
 20
511.923687
 30
0.0
 40
3.0
100
AcDbArc
 50
338.796137
 51
0.0
  0
ARC
  5
BA
100
AcDbEntity
  8
0
370
    -3
390
0
  6
Continuous
100
AcDbCircle
 10
-377.29276
 20
558.080627
 30
0.0
 40
6.0
100
AcDbArc
 50
0.0
 51
90.0
  0
LINE
  5
BB
100
AcDbEntity
  8
0
370
    -3
390
0
  6
Continuous
100
AcDbLine
 10
-378.79276
 20
564.080627
 30
0.0
 11
-377.29276
 21
564.080627
 31
0.0
  0
ARC
  5
BC
100
AcDbEntity
  8
0
370
    -3
390
0
  6
Continuous
100
AcDbCircle
 10
-375.79276
 20
581.080627
 30
0.0
 40
3.0
100
AcDbArc
 50
90.0
 51
180.0
  0
LINE
  5
BD
100
AcDbEntity
  8
0
370
    -3
390
0
  6
Continuous
100
AcDbLine
 10
-375.79276
 20
584.080627
 30
0.0
 11
-355.29276
 21
584.080627
 31
0.0
  0
ARC
  5
BE
100
AcDbEntity
  8
0
370
    -3
390
0
  6
Continuous
100
AcDbCircle
 10
-375.79276
 20
610.080627
 30
0.0
 40
3.0
100
AcDbArc
 50
90.0
 51
180.0
  0
LINE
  5
BF
100
AcDbEntity
  8
0
370
    -3
390
0
  6
Continuous
100
AcDbLine
 10
-375.79276
 20
613.080627
 30
0.0
 11
-354.79276
 21
613.080627
 31
0.0
  0
LINE
  5
C0
100
AcDbEntity
  8
0
370
    -3
390
0
  6
CENTER
100
AcDbLine
 10
-364.291683
 20
544.080627
 30
0.0
 11
-404.519314
 21
544.080627
 31
0.0
  0
LINE
  5
C1
100
AcDbEntity
  8
0
370
    -3
390
0
  6
CENTER
100
AcDbLine
 10
-364.291683
 20
564.080627
 30
0.0
 11
-404.519314
 21
564.080627
 31
0.0
  0
LINE
  5
C2
100
AcDbEntity
  8
0
370
    -3
390
0
  6
CENTER
100
AcDbLine
 10
-364.291683
 20
596.080627
 30
0.0
 11
-404.519314
 21
596.080627
 31
0.0
  0
LINE
  5
C3
100
AcDbEntity
  8
0
370
    -3
390
0
  6
Continuous
100
AcDbLine
 10
-401.29276
 20
573.080627
 30
0.0
 11
-398.792736
 21
573.080627
 31
0.0
  0
LINE
  5
C4
100
AcDbEntity
  8
0
370
    -3
390
0
  6
Continuous
100
AcDbLine
 10
-380.35663
 20
578.080627
 30
0.0
 11
-378.79276
 21
582.816835
 31
0.0
  0
LINE
  5
C5
100
AcDbEntity
  8
0
370
    -3
390
0
  6
Continuous
100
AcDbLine
 10
-384.79276
 20
532.080627
 30
0.0
 11
-384.79276
 21
525.014861
 31
0.0
  0
LINE
  5
C6
100
AcDbEntity
  8
0
370
    -3
390
0
  6
Continuous
100
AcDbLine
 10
-382.792759
 20
563.858025
 30
0.0
 11
-378.792759
 21
565.313902
 31
0.0
  0
LINE
  5
C7
100
AcDbEntity
  8
0
370
    -3
390
0
  6
Continuous
100
AcDbLine
 10
-378.792759
 20
564.262668
 30
0.0
 11
-382.792759
 21
562.80679
 31
0.0
  0
LINE
  5
C8
100
AcDbEntity
  8
0
370
    -3
390
0
  6
Continuous
100
AcDbLine
 10
-397.792744
 20
576.080627
 30
0.0
 11
-397.792744
 21
552.080627
 31
0.0
  0
LINE
  5
C9
100
AcDbEntity
  8
0
370
    -3
390
0
  6
Continuous
100
AcDbLine
 10
-397.792741
 20
576.080625
 30
0.0
 11
-398.792726
 21
574.348203
 31
0.0
  0
LINE
  5
CA
100
AcDbEntity
  8
0
370
    -3
390
0
  6
Continuous
100
AcDbLine
 10
-378.79276
 20
578.080627
 30
0.0
 11
-382.79276
 21
578.080627
 31
0.0
  0
LINE
  5
CB
100
AcDbEntity
  8
0
370
    -3
390
0
  6
Continuous
100
AcDbLine
 10
-382.79276
 20
576.080627
 30
0.0
 11
-397.792744
 21
576.080627
 31
0.0
  0
LINE
  5
CC
100
AcDbEntity
  8
0
370
    -3
390
0
  6
Continuous
100
AcDbLine
 10
-398.792722
 20
553.812272
 30
0.0
 11
-398.792737
 21
574.348207
 31
0.0
  0
LINE
  5
CD
100
AcDbEntity
  8
0
370
    -3
390
0
  6
Continuous
100
AcDbLine
 10
-382.79276
 20
550.080627
 30
0.0
 11
-382.79276
 21
578.080627
 31
0.0
  0
LINE
  5
CE
100
AcDbEntity
  8
0
370
    -3
390
0
  6
Continuous
100
AcDbLine
 10
-378.79276
 20
578.080627
 30
0.0
 11
-378.79276
 21
550.080627
 31
0.0
  0
POINT
  5
CF
100
AcDbEntity
  8
0
370
    -3
390
0
  6
Continuous
100
AcDbPoint
 10
-378.79276
 20
564.080627
 30
0.0
  0
ARC
  5
D0
100
AcDbEntity
  8
0
370
    -3
390
0
  6
Continuous
100
AcDbCircle
 10
-76.79276
 20
374.080627
 30
0.0
 40
11.0
100
AcDbArc
 50
90.0
 51
270.0
  0
LINE
  5
D1
100
AcDbEntity
  8
0
370
    -3
390
0
  6
Continuous
100
AcDbLine
 10
-76.79276
 20
385.080627
 30
0.0
 11
-76.79276
 21
363.080627
 31
0.0
  0
LINE
  5
D2
100
AcDbEntity
  8
0
370
    -3
390
0
  6
Continuous
100
AcDbLine
 10
14.20724
 20
363.080627
 30
0.0
 11
-76.79276
 21
363.080627
 31
0.0
  0
LINE
  5
D3
100
AcDbEntity
  8
0
370
    -3
390
0
  6
Continuous
100
AcDbLine
 10
14.20724
 20
385.080627
 30
0.0
 11
-76.79276
 21
385.080627
 31
0.0
  0
LINE
  5
D4
100
AcDbEntity
  8
0
370
    -3
390
0
  6
Continuous
100
AcDbLine
 10
14.20724
 20
414.080627
 30
0.0
 11
14.20724
 21
334.080627
 31
0.0
  0
LINE
  5
D5
100
AcDbEntity
  8
0
370
    -3
390
0
  6
Continuous
100
AcDbLine
 10
-115.79276
 20
334.080627
 30
0.0
 11
14.20724
 21
334.080627
 31
0.0
  0
LINE
  5
D6
100
AcDbEntity
  8
0
370
    -3
390
0
  6
Continuous
100
AcDbLine
 10
-120.79276
 20
331.580627
 30
0.0
 11
-115.79276
 21
331.580627
 31
0.0
  0
LINE
  5
D7
100
AcDbEntity
  8
0
370
    -3
390
0
  6
Continuous
100
AcDbLine
 10
-115.79276
 20
416.580627
 30
0.0
 11
-115.79276
 21
331.580627
 31
0.0
  0
LINE
  5
D8
100
AcDbEntity
  8
0
370
    -3
390
0
  6
Continuous
100
AcDbLine
 10
-115.79276
 20
414.080627
 30
0.0
 11
14.20724
 21
414.080627
 31
0.0
  0
LINE
  5
D9
100
AcDbEntity
  8
0
370
    -3
390
0
  6
Continuous
100
AcDbLine
 10
-120.79276
 20
416.580627
 30
0.0
 11
-115.79276
 21
416.580627
 31
0.0
  0
ARC
  5
DA
100
AcDbEntity
  8
0
370
    -3
390
0
  6
Continuous
100
AcDbCircle
 10
-333.79276
 20
353.580627
 30
0.0
 40
3.0
100
AcDbArc
 50
90.0
 51
180.0
  0
ARC
  5
DB
100
AcDbEntity
  8
0
370
    -3
390
0
  6
Continuous
100
AcDbCircle
 10
-333.79276
 20
394.580627
 30
0.0
 40
3.0
100
AcDbArc
 50
180.0
 51
270.0
  0
LINE
  5
DC
100
AcDbEntity
  8
0
370
    -3
390
0
  6
Continuous
100
AcDbLine
 10
-333.79276
 20
356.580627
 30
0.0
 11
-314.79276
 21
356.580627
 31
0.0
  0
LINE
  5
DD
100
AcDbEntity
  8
0
370
    -3
390
0
  6
Continuous
100
AcDbLine
 10
-333.79276
 20
391.580627
 30
0.0
 11
-314.79276
 21
391.580627
 31
0.0
  0
ARC
  5
DE
100
AcDbEntity
  8
0
370
    -3
390
0
  6
Continuous
100
AcDbCircle
 10
-314.79276
 20
374.080627
 30
0.0
 40
17.5
100
AcDbArc
 50
270.0
 51
90.0
  0
LINE
  5
DF
100
AcDbEntity
  8
0
370
    -3
390
0
  6
Continuous
100
AcDbLine
 10
14.20724
 20
-152.391453
 30
0.0
 11
14.20724
 21
-237.391453
 31
0.0
  0
LINE
  5
E0
100
AcDbEntity
  8
0
370
    -3
390
0
  6
Continuous
100
AcDbLine
 10
-142.79276
 20
379.080627
 30
0.0
 11
-166.79276
 21
379.080627
 31
0.0
  0
ARC
  5
E1
100
AcDbEntity
  8
0
370
    -3
390
0
  6
Continuous
100
AcDbCircle
 10
-166.79276
 20
384.080627
 30
0.0
 40
5.0
100
AcDbArc
 50
180.0
 51
270.0
  0
LINE
  5
E2
100
AcDbEntity
  8
0
370
    -3
390
0
  6
Continuous
100
AcDbLine
 10
-139.79276
 20
474.080627
 30
0.0
 11
-163.79276
 21
474.080627
 31
0.0
  0
LINE
  5
E3
100
AcDbEntity
  8
0
370
    -3
390
0
  6
Continuous
100
AcDbLine
 10
-124.79276
 20
439.080627
 30
0.0
 11
-126.79276
 21
439.080627
 31
0.0
  0
ARC
  5
E4
100
AcDbEntity
  8
0
370
    -3
390
0
  6
Continuous
100
AcDbCircle
 10
-126.79276
 20
444.080627
 30
0.0
 40
5.0
100
AcDbArc
 50
180.0
 51
270.0
  0
ARC
  5
E5
100
AcDbEntity
  8
0
370
    -3
390
0
  6
Continuous
100
AcDbCircle
 10
-163.79276
 20
482.080627
 30
0.0
 40
8.0
100
AcDbArc
 50
180.0
 51
270.0
  0
ARC
  5
E6
100
AcDbEntity
  8
0
370
    -3
390
0
  6
Continuous
100
AcDbCircle
 10
-139.79276
 20
466.080627
 30
0.0
 40
8.0
100
AcDbArc
 50
0.0
 51
90.0
  0
ARC
  5
E7
100
AcDbEntity
  8
0
370
    -3
390
0
  6
Continuous
100
AcDbCircle
 10
-142.79276
 20
385.080627
 30
0.0
 40
6.0
100
AcDbArc
 50
270.0
 51
0.0
  0
ARC
  5
E8
100
AcDbEntity
  8
0
370
    -3
390
0
  6
Continuous
100
AcDbCircle
 10
-164.79276
 20
522.080627
 30
0.0
 40
33.0
100
AcDbArc
 50
0.0
 51
90.0
  0
ARC
  5
E9
100
AcDbEntity
  8
0
370
    -3
390
0
  6
Continuous
100
AcDbCircle
 10
-179.79276
 20
547.080627
 30
0.0
 40
8.0
100
AcDbArc
 50
0.0
 51
90.0
  0
ARC
  5
EA
100
AcDbEntity
  8
0
370
    -3
390
0
  6
Continuous
100
AcDbCircle
 10
-124.79276
 20
434.080627
 30
0.0
 40
5.0
100
AcDbArc
 50
36.869898
 51
90.0
  0
LINE
  5
EB
100
AcDbEntity
  8
0
370
    -3
390
0
  6
Continuous
100
AcDbLine
 10
-120.79276
 20
437.080627
 30
0.0
 11
-120.79276
 21
374.080627
 31
0.0
  0
LINE
  5
EC
100
AcDbEntity
  8
0
370
    -3
390
0
  6
Continuous
100
AcDbLine
 10
-131.79276
 20
522.080627
 30
0.0
 11
-131.79276
 21
374.080627
 31
0.0
  0
LINE
  5
ED
100
AcDbEntity
  8
0
370
    -3
390
0
  6
Continuous
100
AcDbLine
 10
-136.79276
 20
385.080627
 30
0.0
 11
-136.79276
 21
374.080627
 31
0.0
  0
LINE
  5
EE
100
AcDbEntity
  8
0
370
    -3
390
0
  6
Continuous
100
AcDbLine
 10
-171.79276
 20
547.080627
 30
0.0
 11
-171.79276
 21
374.080627
 31
0.0
  0
LINE
  5
EF
100
AcDbEntity
  8
0
370
    -3
390
0
  6
Continuous
100
AcDbLine
 10
-354.79276
 20
619.080627
 30
0.0
 11
-354.79276
 21
374.080627
 31
0.0
  0
LINE
  5
F0
100
AcDbEntity
  8
0
370
    -3
390
0
  6
Continuous
100
AcDbLine
 10
-354.79276
 20
564.080627
 30
0.0
 11
-339.79276
 21
564.080627
 31
0.0
  0
ARC
  5
F1
100
AcDbEntity
  8
0
370
    -3
390
0
  6
Continuous
100
AcDbCircle
 10
-339.79276
 20
561.080627
 30
0.0
 40
3.0
100
AcDbArc
 50
0.0
 51
90.0
  0
ARC
  5
F2
100
AcDbEntity
  8
0
370
    -3
390
0
  6
Continuous
100
AcDbCircle
 10
-233.79276
 20
581.080627
 30
0.0
 40
3.0
100
AcDbArc
 50
0.0
 51
90.0
  0
ARC
  5
F3
100
AcDbEntity
  8
0
370
    -3
390
0
  6
Continuous
100
AcDbCircle
 10
-233.79276
 20
587.080627
 30
0.0
 40
3.0
100
AcDbArc
 50
270.0
 51
0.0
  0
LINE
  5
F4
100
AcDbEntity
  8
0
370
    -3
390
0
  6
Continuous
100
AcDbLine
 10
-236.79276
 20
619.080627
 30
0.0
 11
-354.79276
 21
619.080627
 31
0.0
  0
ARC
  5
F5
100
AcDbEntity
  8
0
370
    -3
390
0
  6
Continuous
100
AcDbCircle
 10
-236.79276
 20
613.080627
 30
0.0
 40
6.0
100
AcDbArc
 50
0.0
 51
90.0
  0
LINE
  5
F6
100
AcDbEntity
  8
0
370
    -3
390
0
  6
Continuous
100
AcDbLine
 10
-320.79276
 20
441.119146
 30
0.0
 11
-354.79276
 21
441.119146
 31
0.0
  0
ARC
  5
F7
100
AcDbEntity
  8
0
370
    -3
390
0
  6
Continuous
100
AcDbCircle
 10
-320.79276
 20
447.119146
 30
0.0
 40
6.0
100
AcDbArc
 50
270.0
 51
0.0
  0
LINE
  5
F8
100
AcDbEntity
  8
0
370
    -3
390
0
  6
Continuous
100
AcDbLine
 10
-314.79276
 20
463.116856
 30
0.0
 11
-314.79276
 21
447.119146
 31
0.0
  0
ARC
  5
F9
100
AcDbEntity
  8
0
370
    -3
390
0
  6
Continuous
100
AcDbCircle
 10
-320.79276
 20
463.116856
 30
0.0
 40
6.0
100
AcDbArc
 50
0.0
 51
90.0
  0
LINE
  5
FA
100
AcDbEntity
  8
0
370
    -3
390
0
  6
Continuous
100
AcDbLine
 10
-320.79276
 20
469.116856
 30
0.0
 11
-354.79276
 21
469.116856
 31
0.0
  0
LINE
  5
FB
100
AcDbEntity
  8
0
370
    -3
390
0
  6
Continuous
100
AcDbLine
 10
-320.79276
 20
550.487098
 30
0.0
 11
-354.79276
 21
550.487098
 31
0.0
  0
ARC
  5
FC
100
AcDbEntity
  8
0
370
    -3
390
0
  6
Continuous
100
AcDbCircle
 10
-320.79276
 20
556.487098
 30
0.0
 40
6.0
100
AcDbArc
 50
270.0
 51
0.0
  0
LINE
  5
FD
100
AcDbEntity
  8
0
370
    -3
390
0
  6
Continuous
100
AcDbLine
 10
-320.79276
 20
561.080627
 30
0.0
 11
-354.79276
 21
561.080627
 31
0.0
  0
ARC
  5
FE
100
AcDbEntity
  8
0
370
    -3
390
0
  6
Continuous
100
AcDbCircle
 10
-320.79276
 20
555.080627
 30
0.0
 40
6.0
100
AcDbArc
 50
0.0
 51
90.0
  0
LINE
  5
FF
100
AcDbEntity
  8
0
370
    -3
390
0
  6
Continuous
100
AcDbLine
 10
-336.79276
 20
550.487098
 30
0.0
 11
-336.79276
 21
469.116856
 31
0.0
  0
LINE
  5
100
100
AcDbEntity
  8
0
370
    -3
390
0
  6
Continuous
100
AcDbLine
 10
-336.79276
 20
441.119146
 30
0.0
 11
-336.79276
 21
374.080627
 31
0.0
  0
LINE
  5
101
100
AcDbEntity
  8
0
370
    -3
390
0
  6
Continuous
100
AcDbLine
 10
-230.79276
 20
581.080627
 30
0.0
 11
-230.79276
 21
558.080627
 31
0.0
  0
ARC
  5
102
100
AcDbEntity
  8
0
370
    -3
390
0
  6
Continuous
100
AcDbCircle
 10
-227.79276
 20
558.080627
 30
0.0
 40
3.0
100
AcDbArc
 50
180.0
 51
270.0
  0
LINE
  5
103
100
AcDbEntity
  8
0
370
    -3
390
0
  6
Continuous
100
AcDbLine
 10
-314.959935
 20
555.080627
 30
0.0
 11
-164.79276
 21
555.080627
 31
0.0
  0
LINE
  5
104
100
AcDbEntity
  8
0
370
    -3
390
0
  6
Continuous
100
AcDbLine
 10
-233.79276
 20
584.080627
 30
0.0
 11
-354.79276
 21
584.080627
 31
0.0
  0
LINE
  5
105
100
AcDbEntity
  8
0
370
    -3
390
0
  6
Continuous
100
AcDbLine
 10
-236.79276
 20
619.080627
 30
0.0
 11
-126.79276
 21
619.080627
 31
0.0
  0
ARC
  5
106
100
AcDbEntity
  8
0
370
    -3
390
0
  6
Continuous
100
AcDbCircle
 10
-126.79276
 20
613.080627
 30
0.0
 40
6.0
100
AcDbArc
 50
0.0
 51
90.0
  0
LINE
  5
107
100
AcDbEntity
  8
0
370
    -3
390
0
  6
Continuous
100
AcDbLine
 10
-354.79276
 20
619.080627
 30
0.0
 11
-584.79276
 21
619.080627
 31
0.0
  0
ARC
  5
108
100
AcDbEntity
  8
0
370
    -3
390
0
  6
Continuous
100
AcDbCircle
 10
-584.79276
 20
613.080627
 30
0.0
 40
6.0
100
AcDbArc
 50
90.0
 51
180.0
  0
LINE
  5
109
100
AcDbEntity
  8
0
370
    -3
390
0
  6
Continuous
100
AcDbLine
 10
-590.79276
 20
613.080627
 30
0.0
 11
-590.79276
 21
563.222763
 31
0.0
  0
ARC
  5
10A
100
AcDbEntity
  8
0
370
    -3
390
0
  6
Continuous
100
AcDbCircle
 10
-580.79276
 20
563.222763
 30
0.0
 40
10.0
100
AcDbArc
 50
180.0
 51
225.0
  0
LINE
  5
10B
100
AcDbEntity
  8
0
370
    -3
390
0
  6
Continuous
100
AcDbLine
 10
-550.129447
 20
522.391419
 30
0.0
 11
-440.292736
 21
520.52978
 31
0.0
  0
ARC
  5
10C
100
AcDbEntity
  8
0
370
    -3
390
0
  6
Continuous
100
AcDbCircle
 10
-549.959979
 20
532.389983
 30
0.0
 40
10.0
100
AcDbArc
 50
225.0
 51
269.028978
  0
ARC
  5
10D
100
AcDbEntity
  8
0
370
    -3
390
0
  6
Continuous
100
AcDbCircle
 10
-126.79276
 20
525.080627
 30
0.0
 40
6.0
100
AcDbArc
 50
270.0
 51
0.0
  0
LINE
  5
10E
100
AcDbEntity
  8
0
370
    -3
390
0
  6
Continuous
100
AcDbLine
 10
-120.79276
 20
613.080627
 30
0.0
 11
-120.79276
 21
545.080627
 31
0.0
  0
ARC
  5
10F
100
AcDbEntity
  8
0
370
    -3
390
0
  6
Continuous
100
AcDbCircle
 10
-126.79276
 20
545.080627
 30
0.0
 40
6.0
100
AcDbArc
 50
270.0
 51
0.0
  0
ARC
  5
110
100
AcDbEntity
  8
0
370
    -3
390
0
  6
Continuous
100
AcDbCircle
 10
-126.79276
 20
533.080627
 30
0.0
 40
6.0
100
AcDbArc
 50
0.0
 51
90.0
  0
LINE
  5
111
100
AcDbEntity
  8
0
370
    -3
390
0
  6
Continuous
100
AcDbLine
 10
-136.508488
 20
539.080627
 30
0.0
 11
-126.79276
 21
539.080627
 31
0.0
  0
LINE
  5
112
100
AcDbEntity
  8
0
370
    -3
390
0
  6
Continuous
100
AcDbLine
 10
-131.79276
 20
519.080627
 30
0.0
 11
-126.79276
 21
519.080627
 31
0.0
  0
LINE
  5
113
100
AcDbEntity
  8
0
370
    -3
390
0
  6
Continuous
100
AcDbLine
 10
-587.863828
 20
556.151695
 30
0.0
 11
-557.031047
 21
525.318915
 31
0.0
  0
ARC
  5
114
100
AcDbEntity
  8
0
370
    -3
390
0
  6
Continuous
100
AcDbCircle
 10
-566.650624
 20
549.080627
 30
0.0
 40
10.0
100
AcDbArc
 50
225.0
 51
270.0
  0
LINE
  5
115
100
AcDbEntity
  8
0
370
    -3
390
0
  6
Continuous
100
AcDbLine
 10
-440.292723
 20
539.080627
 30
0.0
 11
-566.650624
 21
539.080627
 31
0.0
  0
LINE
  5
116
100
AcDbEntity
  8
0
370
    -3
390
0
  6
Continuous
100
AcDbLine
 10
-120.79276
 20
525.080627
 30
0.0
 11
-120.79276
 21
545.080627
 31
0.0
  0
LINE
  5
117
100
AcDbEntity
  8
0
370
    -3
390
0
  6
Continuous
100
AcDbLine
 10
-398.792733
 20
601.080627
 30
0.0
 11
-515.79276
 21
601.080627
 31
0.0
  0
ARC
  5
118
100
AcDbEntity
  8
0
370
    -3
390
0
  6
Continuous
100
AcDbCircle
 10
-195.79276
 20
596.080627
 30
0.0
 40
5.0
100
AcDbArc
 50
0.0
 51
90.0
  0
LINE
  5
119
100
AcDbEntity
  8
0
370
    -3
390
0
  6
Continuous
100
AcDbLine
 10
-515.79276
 20
619.080627
 30
0.0
 11
-515.79276
 21
601.080627
 31
0.0
  0
LINE
  5
11A
100
AcDbEntity
  8
0
370
    -3
390
0
  6
Continuous
100
AcDbLine
 10
-195.79276
 20
619.080627
 30
0.0
 11
-195.79276
 21
601.080627
 31
0.0
  0
LINE
  5
11B
100
AcDbEntity
  8
0
370
    -3
390
0
  6
Continuous
100
AcDbLine
 10
-230.79276
 20
613.080627
 30
0.0
 11
-230.79276
 21
587.080627
 31
0.0
  0
LINE
  5
11C
100
AcDbEntity
  8
0
370
    -3
390
0
  6
Continuous
100
AcDbLine
 10
-230.79276
 20
601.080627
 30
0.0
 11
-195.79276
 21
601.080627
 31
0.0
  0
ARC
  5
11D
100
AcDbEntity
  8
0
370
    -3
390
0
  6
Continuous
100
AcDbCircle
 10
-515.79276
 20
589.080627
 30
0.0
 40
12.0
100
AcDbArc
 50
90.0
 51
148.059957
  0
CIRCLE
  5
11E
100
AcDbEntity
  8
0
370
    -3
390
0
  6
Continuous
100
AcDbCircle
 10
-555.79276
 20
569.080627
 30
0.0
 40
14.0
  0
CIRCLE
  5
11F
100
AcDbEntity
  8
0
370
    -3
390
0
  6
Continuous
100
AcDbCircle
 10
-155.79276
 20
569.080627
 30
0.0
 40
14.0
  0
LINE
  5
120
100
AcDbEntity
  8
0
370
    -3
390
0
  6
CENTER
100
AcDbLine
 10
-555.79276
 20
593.016554
 30
0.0
 11
-555.79276
 21
544.688518
 31
0.0
  0
LINE
  5
121
100
AcDbEntity
  8
0
370
    -3
390
0
  6
CENTER
100
AcDbLine
 10
-528.837386
 20
569.080627
 30
0.0
 11
-579.337468
 21
569.080627
 31
0.0
  0
LINE
  5
122
100
AcDbEntity
  8
0
370
    -3
390
0
  6
CENTER
100
AcDbLine
 10
-155.79276
 20
596.274624
 30
0.0
 11
-155.79276
 21
555.080627
 31
0.0
  0
LINE
  5
123
100
AcDbEntity
  8
0
370
    -3
390
0
  6
CENTER
100
AcDbLine
 10
-130.809857
 20
569.080627
 30
0.0
 11
-180.766928
 21
569.080627
 31
0.0
  0
CIRCLE
  5
124
100
AcDbEntity
  8
0
370
    -3
390
0
  6
Continuous
100
AcDbCircle
 10
-155.79276
 20
179.080627
 30
0.0
 40
14.0
  0
ARC
  5
125
100
AcDbEntity
  8
0
370
    -3
390
0
  6
DASHED
100
AcDbCircle
 10
-555.79276
 20
179.080627
 30
0.0
 40
14.0
100
AcDbArc
 50
28.154915
 51
151.845085
  0
LINE
  5
126
100
AcDbEntity
  8
0
370
    -3
390
0
  6
CENTER
100
AcDbLine
 10
-155.79276
 20
151.886631
 30
0.0
 11
-155.79276
 21
193.080627
 31
0.0
  0
LINE
  5
127
100
AcDbEntity
  8
0
370
    -3
390
0
  6
CENTER
100
AcDbLine
 10
-555.79276
 20
155.144701
 30
0.0
 11
-555.79276
 21
203.472737
 31
0.0
  0
LINE
  5
128
100
AcDbEntity
  8
0
370
    -3
390
0
  6
CENTER
100
AcDbLine
 10
-528.837386
 20
179.080627
 30
0.0
 11
-579.337468
 21
179.080627
 31
0.0
  0
LINE
  5
129
100
AcDbEntity
  8
0
370
    -3
390
0
  6
CENTER
100
AcDbLine
 10
-130.809857
 20
179.080627
 30
0.0
 11
-180.766928
 21
179.080627
 31
0.0
  0
ARC
  5
12A
100
AcDbEntity
  8
0
370
    -3
390
0
  6
Continuous
100
AcDbCircle
 10
-195.79276
 20
152.080627
 30
0.0
 40
5.0
100
AcDbArc
 50
270.0
 51
0.0
  0
ARC
  5
12B
100
AcDbEntity
  8
0
370
    -3
390
0
  6
Continuous
100
AcDbCircle
 10
-515.79276
 20
159.080627
 30
0.0
 40
12.0
100
AcDbArc
 50
211.940043
 51
270.0
  0
LINE
  5
12C
100
AcDbEntity
  8
0
370
    -3
390
0
  6
Continuous
100
AcDbLine
 10
-515.79276
 20
129.080627
 30
0.0
 11
-515.79276
 21
147.080627
 31
0.0
  0
LINE
  5
12D
100
AcDbEntity
  8
0
370
    -3
390
0
  6
Continuous
100
AcDbLine
 10
-195.79276
 20
129.080627
 30
0.0
 11
-195.79276
 21
147.080627
 31
0.0
  0
LINE
  5
12E
100
AcDbEntity
  8
0
370
    -3
390
0
  6
Continuous
100
AcDbLine
 10
-230.79276
 20
147.080627
 30
0.0
 11
-195.79276
 21
147.080627
 31
0.0
  0
LINE
  5
12F
100
AcDbEntity
  8
0
370
    -3
390
0
  6
Continuous
100
AcDbLine
 10
-398.792733
 20
147.080627
 30
0.0
 11
-515.79276
 21
147.080627
 31
0.0
  0
ARC
  5
130
100
AcDbEntity
  8
0
370
    -3
390
0
  6
Continuous
100
AcDbCircle
 10
-126.79276
 20
215.080627
 30
0.0
 40
6.0
100
AcDbArc
 50
270.0
 51
0.0
  0
LINE
  5
131
100
AcDbEntity
  8
0
370
    -3
390
0
  6
Continuous
100
AcDbLine
 10
-120.79276
 20
223.080627
 30
0.0
 11
-120.79276
 21
203.080627
 31
0.0
  0
ARC
  5
132
100
AcDbEntity
  8
0
370
    -3
390
0
  6
Continuous
100
AcDbCircle
 10
-126.79276
 20
203.080627
 30
0.0
 40
6.0
100
AcDbArc
 50
0.0
 51
90.0
  0
ARC
  5
133
100
AcDbEntity
  8
0
370
    -3
390
0
  6
Continuous
100
AcDbCircle
 10
-126.79276
 20
223.080627
 30
0.0
 40
6.0
100
AcDbArc
 50
0.0
 51
90.0
  0
LINE
  5
134
100
AcDbEntity
  8
0
370
    -3
390
0
  6
Continuous
100
AcDbLine
 10
-131.79276
 20
229.080627
 30
0.0
 11
-126.79276
 21
229.080627
 31
0.0
  0
LINE
  5
135
100
AcDbEntity
  8
0
370
    -3
390
0
  6
Continuous
100
AcDbLine
 10
-136.508488
 20
209.080627
 30
0.0
 11
-126.79276
 21
209.080627
 31
0.0
  0
ARC
  5
136
100
AcDbEntity
  8
0
370
    -3
390
0
  6
Continuous
100
AcDbCircle
 10
-584.79276
 20
135.080627
 30
0.0
 40
6.0
100
AcDbArc
 50
180.0
 51
270.0
  0
ARC
  5
137
100
AcDbEntity
  8
0
370
    -3
390
0
  6
Continuous
100
AcDbCircle
 10
-126.79276
 20
135.080627
 30
0.0
 40
6.0
100
AcDbArc
 50
270.0
 51
0.0
  0
LINE
  5
138
100
AcDbEntity
  8
0
370
    -3
390
0
  6
Continuous
100
AcDbLine
 10
-236.79276
 20
129.080627
 30
0.0
 11
-126.79276
 21
129.080627
 31
0.0
  0
LINE
  5
139
100
AcDbEntity
  8
0
370
    -3
390
0
  6
Continuous
100
AcDbLine
 10
-354.79276
 20
129.080627
 30
0.0
 11
-584.79276
 21
129.080627
 31
0.0
  0
LINE
  5
13A
100
AcDbEntity
  8
0
370
    -3
390
0
  6
Continuous
100
AcDbLine
 10
-120.79276
 20
135.080627
 30
0.0
 11
-120.79276
 21
203.080627
 31
0.0
  0
ARC
  5
13B
100
AcDbEntity
  8
0
370
    -3
390
0
  6
Continuous
100
AcDbCircle
 10
-227.79276
 20
190.080627
 30
0.0
 40
3.0
100
AcDbArc
 50
90.0
 51
180.0
  0
LINE
  5
13C
100
AcDbEntity
  8
0
370
    -3
390
0
  6
Continuous
100
AcDbLine
 10
-336.79276
 20
307.042109
 30
0.0
 11
-336.79276
 21
374.080627
 31
0.0
  0
ARC
  5
13D
100
AcDbEntity
  8
0
370
    -3
390
0
  6
Continuous
100
AcDbCircle
 10
-320.79276
 20
193.080627
 30
0.0
 40
6.0
100
AcDbArc
 50
270.0
 51
0.0
  0
ARC
  5
13E
100
AcDbEntity
  8
0
370
    -3
390
0
  6
Continuous
100
AcDbCircle
 10
-320.79276
 20
191.674157
 30
0.0
 40
6.0
100
AcDbArc
 50
0.0
 51
90.0
  0
LINE
  5
13F
100
AcDbEntity
  8
0
370
    -3
390
0
  6
Continuous
100
AcDbLine
 10
-320.79276
 20
187.080627
 30
0.0
 11
-354.79276
 21
187.080627
 31
0.0
  0
ARC
  5
140
100
AcDbEntity
  8
0
370
    -3
390
0
  6
Continuous
100
AcDbCircle
 10
-320.79276
 20
285.044399
 30
0.0
 40
6.0
100
AcDbArc
 50
270.0
 51
0.0
  0
ARC
  5
141
100
AcDbEntity
  8
0
370
    -3
390
0
  6
Continuous
100
AcDbCircle
 10
-320.79276
 20
301.042109
 30
0.0
 40
6.0
100
AcDbArc
 50
0.0
 51
90.0
  0
LINE
  5
142
100
AcDbEntity
  8
0
370
    -3
390
0
  6
Continuous
100
AcDbLine
 10
-314.79276
 20
285.044399
 30
0.0
 11
-314.79276
 21
301.042109
 31
0.0
  0
LINE
  5
143
100
AcDbEntity
  8
0
370
    -3
390
0
  6
Continuous
100
AcDbLine
 10
-320.79276
 20
307.042109
 30
0.0
 11
-354.79276
 21
307.042109
 31
0.0
  0
LINE
  5
144
100
AcDbEntity
  8
0
370
    -3
390
0
  6
Continuous
100
AcDbLine
 10
-320.79276
 20
279.044399
 30
0.0
 11
-354.79276
 21
279.044399
 31
0.0
  0
LINE
  5
145
100
AcDbEntity
  8
0
370
    -3
390
0
  6
Continuous
100
AcDbLine
 10
-320.79276
 20
197.674157
 30
0.0
 11
-354.79276
 21
197.674157
 31
0.0
  0
ARC
  5
146
100
AcDbEntity
  8
0
370
    -3
390
0
  6
Continuous
100
AcDbCircle
 10
-236.79276
 20
135.080627
 30
0.0
 40
6.0
100
AcDbArc
 50
270.0
 51
0.0
  0
ARC
  5
147
100
AcDbEntity
  8
0
370
    -3
390
0
  6
Continuous
100
AcDbCircle
 10
-233.79276
 20
161.080627
 30
0.0
 40
3.0
100
AcDbArc
 50
0.0
 51
90.0
  0
ARC
  5
148
100
AcDbEntity
  8
0
370
    -3
390
0
  6
Continuous
100
AcDbCircle
 10
-233.79276
 20
167.080627
 30
0.0
 40
3.0
100
AcDbArc
 50
270.0
 51
0.0
  0
LINE
  5
149
100
AcDbEntity
  8
0
370
    -3
390
0
  6
Continuous
100
AcDbLine
 10
-230.79276
 20
167.080627
 30
0.0
 11
-230.79276
 21
190.080627
 31
0.0
  0
LINE
  5
14A
100
AcDbEntity
  8
0
370
    -3
390
0
  6
Continuous
100
AcDbLine
 10
-230.79276
 20
135.080627
 30
0.0
 11
-230.79276
 21
161.080627
 31
0.0
  0
ARC
  5
14B
100
AcDbEntity
  8
0
370
    -3
390
0
  6
Continuous
100
AcDbCircle
 10
-339.79276
 20
187.080627
 30
0.0
 40
3.0
100
AcDbArc
 50
270.0
 51
0.0
  0
LINE
  5
14C
100
AcDbEntity
  8
0
370
    -3
390
0
  6
Continuous
100
AcDbLine
 10
-354.79276
 20
184.080627
 30
0.0
 11
-339.79276
 21
184.080627
 31
0.0
  0
LINE
  5
14D
100
AcDbEntity
  8
0
370
    -3
390
0
  6
Continuous
100
AcDbLine
 10
-336.79276
 20
197.674157
 30
0.0
 11
-336.79276
 21
279.044399
 31
0.0
  0
LINE
  5
14E
100
AcDbEntity
  8
0
370
    -3
390
0
  6
Continuous
100
AcDbLine
 10
-354.79276
 20
129.080627
 30
0.0
 11
-354.79276
 21
374.080627
 31
0.0
  0
LINE
  5
14F
100
AcDbEntity
  8
0
370
    -3
390
0
  6
Continuous
100
AcDbLine
 10
-236.79276
 20
129.080627
 30
0.0
 11
-354.79276
 21
129.080627
 31
0.0
  0
LINE
  5
150
100
AcDbEntity
  8
0
370
    -3
390
0
  6
Continuous
100
AcDbLine
 10
-233.79276
 20
164.080627
 30
0.0
 11
-354.79276
 21
164.080627
 31
0.0
  0
LINE
  5
151
100
AcDbEntity
  8
0
370
    -3
390
0
  6
Continuous
100
AcDbLine
 10
-120.79276
 20
311.080627
 30
0.0
 11
-120.79276
 21
374.080627
 31
0.0
  0
LINE
  5
152
100
AcDbEntity
  8
0
370
    -3
390
0
  6
Continuous
100
AcDbLine
 10
-171.79276
 20
201.080627
 30
0.0
 11
-171.79276
 21
374.080627
 31
0.0
  0
LINE
  5
153
100
AcDbEntity
  8
0
370
    -3
390
0
  6
Continuous
100
AcDbLine
 10
-142.79276
 20
369.080627
 30
0.0
 11
-166.79276
 21
369.080627
 31
0.0
  0
ARC
  5
154
100
AcDbEntity
  8
0
370
    -3
390
0
  6
Continuous
100
AcDbCircle
 10
-166.79276
 20
364.080627
 30
0.0
 40
5.0
100
AcDbArc
 50
90.0
 51
180.0
  0
LINE
  5
155
100
AcDbEntity
  8
0
370
    -3
390
0
  6
Continuous
100
AcDbLine
 10
-139.79276
 20
274.080627
 30
0.0
 11
-163.79276
 21
274.080627
 31
0.0
  0
LINE
  5
156
100
AcDbEntity
  8
0
370
    -3
390
0
  6
Continuous
100
AcDbLine
 10
-131.79276
 20
226.080627
 30
0.0
 11
-131.79276
 21
374.080627
 31
0.0
  0
LINE
  5
157
100
AcDbEntity
  8
0
370
    -3
390
0
  6
Continuous
100
AcDbLine
 10
-124.79276
 20
309.080627
 30
0.0
 11
-126.79276
 21
309.080627
 31
0.0
  0
ARC
  5
158
100
AcDbEntity
  8
0
370
    -3
390
0
  6
Continuous
100
AcDbCircle
 10
-124.79276
 20
314.080627
 30
0.0
 40
5.0
100
AcDbArc
 50
270.0
 51
323.130102
  0
ARC
  5
159
100
AcDbEntity
  8
0
370
    -3
390
0
  6
Continuous
100
AcDbCircle
 10
-126.79276
 20
304.080627
 30
0.0
 40
5.0
100
AcDbArc
 50
90.0
 51
180.0
  0
ARC
  5
15A
100
AcDbEntity
  8
0
370
    -3
390
0
  6
Continuous
100
AcDbCircle
 10
-163.79276
 20
266.080627
 30
0.0
 40
8.0
100
AcDbArc
 50
90.0
 51
180.0
  0
ARC
  5
15B
100
AcDbEntity
  8
0
370
    -3
390
0
  6
Continuous
100
AcDbCircle
 10
-139.79276
 20
282.080627
 30
0.0
 40
8.0
100
AcDbArc
 50
270.0
 51
0.0
  0
LINE
  5
15C
100
AcDbEntity
  8
0
370
    -3
390
0
  6
Continuous
100
AcDbLine
 10
-136.79276
 20
363.080627
 30
0.0
 11
-136.79276
 21
374.080627
 31
0.0
  0
ARC
  5
15D
100
AcDbEntity
  8
0
370
    -3
390
0
  6
Continuous
100
AcDbCircle
 10
-142.79276
 20
363.080627
 30
0.0
 40
6.0
100
AcDbArc
 50
0.0
 51
90.0
  0
ARC
  5
15E
100
AcDbEntity
  8
0
370
    -3
390
0
  6
Continuous
100
AcDbCircle
 10
-164.79276
 20
226.080627
 30
0.0
 40
33.0
100
AcDbArc
 50
270.0
 51
0.0
  0
ARC
  5
15F
100
AcDbEntity
  8
0
370
    -3
390
0
  6
Continuous
100
AcDbCircle
 10
-179.79276
 20
201.080627
 30
0.0
 40
8.0
100
AcDbArc
 50
270.0
 51
0.0
  0
LINE
  5
160
100
AcDbEntity
  8
0
370
    -3
390
0
  6
Continuous
100
AcDbLine
 10
-314.959935
 20
193.080627
 30
0.0
 11
-164.79276
 21
193.080627
 31
0.0
  0
MTEXT
  5
162
100
AcDbEntity
  8
0
370
    -3
390
0
  6
Continuous
100
AcDbMText
 10
286.084137
 20
281.83078
 30
0.0
 40
16.0
 41
0.0
 71
     7
 72
     1
  1
\W0.83;三菱ギヤードモータ  
  7
ZU_SHPTB00001
 11
1.0
 21
0.0
 31
0.0
 73
     1
 44
1.0
  0
MTEXT
  5
163
100
AcDbEntity
  8
0
370
    -3
390
0
  6
Continuous
100
AcDbMText
 10
286.084137
 20
260.630798
 30
0.0
 40
16.0
 41
0.0
 71
     7
 72
     1
  1
\W0.60;GM-DP
  7
ZU_SHPTB00001
 11
1.0
 21
0.0
 31
0.0
 73
     1
 44
1.0
  0
MTEXT
  5
164
100
AcDbEntity
  8
0
370
    -3
390
0
  6
Continuous
100
AcDbMText
 10
286.084137
 20
239.430786
 30
0.0
 40
16.0
 41
0.0
 71
     7
 72
     1
  1
\W0.60;3.7(kW)
  7
ZU_SHPTB00001
 11
1.0
 21
0.0
 31
0.0
 73
     1
 44
1.0
  0
MTEXT
  5
165
100
AcDbEntity
  8
0
370
    -3
390
0
  6
Continuous
100
AcDbMText
 10
286.084137
 20
218.230789
 30
0.0
 40
16.0
 41
0.0
 71
     7
 72
     1
  1
\W0.60;1/120
  7
ZU_SHPTB00001
 11
1.0
 21
0.0
 31
0.0
 73
     1
 44
1.0
  0
MTEXT
  5
166
100
AcDbEntity
  8
0
370
    -3
390
0
  6
Continuous
100
AcDbMText
 10
286.084137
 20
197.030792
 30
0.0
 40
16.0
 41
0.0
 71
     7
 72
     1
  1
\W0.60;SCALE\W1.00; \W0.60;1/1
  7
ZU_SHPTB00001
 11
1.0
 21
0.0
 31
0.0
 73
     1
 44
1.0
  0
INSERT
  5
177
100
AcDbEntity
  8
0
390
0
100
AcDbBlockReference
  2
ZU_SYM__USERS_HOME_SYMBOL_POO_SYM_B21_21
 10
-420.29276
 20
-296.391453
 30
0.0
  0
INSERT
  5
188
100
AcDbEntity
  8
0
390
0
100
AcDbBlockReference
  2
ZU_SYM__USERS_HOME_SYMBOL_POO_SYM_B21_0000121
 10
-378.79276
 20
-119.391453
 30
0.0
  0
INSERT
  5
199
100
AcDbEntity
  8
0
390
0
100
AcDbBlockReference
  2
ZU_SYM__USERS_HOME_SYMBOL_POO_SYM_B21_0000221
 10
-378.79276
 20
-34.391453
 30
0.0
  0
INSERT
  5
1AA
100
AcDbEntity
  8
0
390
0
100
AcDbBlockReference
  2
ZU_SYM__USERS_HOME_SYMBOL_POO_SYM_B21_0000321
 10
-378.79276
 20
-232.391453
 30
0.0
  0
INSERT
  5
1BB
100
AcDbEntity
  8
0
390
0
100
AcDbBlockReference
  2
ZU_SYM__USERS_HOME_SYMBOL_POO_SYM_B21_0000421
 10
-378.79276
 20
-339.391453
 30
0.0
  0
LINE
  5
1BC
100
AcDbEntity
  8
0
370
    -3
390
0
  6
Continuous
100
AcDbLine
 10
-417.29276
 20
-380.745665
 30
0.0
 11
-401.29276
 21
-380.745665
 31
0.0
  0
ARC
  5
1BD
100
AcDbEntity
  8
0
370
    -3
390
0
  6
Continuous
100
AcDbCircle
 10
-417.29276
 20
-377.745665
 30
0.0
 40
3.0
100
AcDbArc
 50
180.0
 51
270.0
  0
LINE
  5
1BE
100
AcDbEntity
  8
0
370
    -3
390
0
  6
Continuous
100
AcDbLine
 10
-417.29276
 20
-341.165381
 30
0.0
 11
-401.29276
 21
-341.165381
 31
0.0
  0
ARC
  5
1BF
100
AcDbEntity
  8
0
370
    -3
390
0
  6
Continuous
100
AcDbCircle
 10
-417.29276
 20
-338.165381
 30
0.0
 40
3.0
100
AcDbArc
 50
180.0
 51
270.0
  0
LINE
  5
1C0
100
AcDbEntity
  8
0
370
    -3
390
0
  6
Continuous
100
AcDbLine
 10
-417.29276
 20
-326.391453
 30
0.0
 11
-401.29276
 21
-326.391453
 31
0.0
  0
ARC
  5
1C1
100
AcDbEntity
  8
0
370
    -3
390
0
  6
Continuous
100
AcDbCircle
 10
-417.29276
 20
-323.391453
 30
0.0
 40
3.0
100
AcDbArc
 50
180.0
 51
270.0
  0
LINE
  5
1C2
100
AcDbEntity
  8
0
370
    -3
390
0
  6
Continuous
100
AcDbLine
 10
-417.29276
 20
-277.391453
 30
0.0
 11
-401.29276
 21
-277.391453
 31
0.0
  0
ARC
  5
1C3
100
AcDbEntity
  8
0
370
    -3
390
0
  6
Continuous
100
AcDbCircle
 10
-417.29276
 20
-280.391453
 30
0.0
 40
3.0
100
AcDbArc
 50
90.0
 51
180.0
  0
ARC
  5
1C4
100
AcDbEntity
  8
0
370
    -3
390
0
  6
Continuous
100
AcDbCircle
 10
-417.29276
 20
-215.553548
 30
0.0
 40
3.0
100
AcDbArc
 50
90.0
 51
180.0
  0
LINE
  5
1C5
100
AcDbEntity
  8
0
370
    -3
390
0
  6
Continuous
100
AcDbLine
 10
-417.29276
 20
-212.553548
 30
0.0
 11
-401.29276
 21
-212.553548
 31
0.0
  0
LINE
  5
1C6
100
AcDbEntity
  8
0
370
    -3
390
0
  6
Continuous
100
AcDbLine
 10
-324.29276
 20
-17.391453
 30
0.0
 11
-314.79276
 21
-17.391453
 31
0.0
  0
LINE
  5
1C7
100
AcDbEntity
  8
0
370
    -3
390
0
  6
Continuous
100
AcDbLine
 10
-305.29276
 20
-17.391453
 30
0.0
 11
-314.79276
 21
-17.391453
 31
0.0
  0
LINE
  5
1C8
100
AcDbEntity
  8
0
370
    -3
390
0
  6
CENTER
100
AcDbLine
 10
-314.79276
 20
7.078656
 30
0.0
 11
-314.79276
 21
-31.289778
 31
0.0
  0
LINE
  5
1C9
100
AcDbEntity
  8
0
370
    -3
390
0
  6
Continuous
100
AcDbLine
 10
-330.04276
 20
-14.391453
 30
0.0
 11
-314.79276
 21
-14.391453
 31
0.0
  0
LINE
  5
1CA
100
AcDbEntity
  8
0
370
    -3
390
0
  6
Continuous
100
AcDbLine
 10
-327.79276
 20
2.608547
 30
0.0
 11
-329.29276
 21
0.608547
 31
0.0
  0
LINE
  5
1CB
100
AcDbEntity
  8
0
370
    -3
390
0
  6
Continuous
100
AcDbLine
 10
-330.79276
 20
-10.391453
 30
0.0
 11
-330.79276
 21
0.608547
 31
0.0
  0
LINE
  5
1CC
100
AcDbEntity
  8
0
370
    -3
390
0
  6
Continuous
100
AcDbLine
 10
-330.79276
 20
-10.391453
 30
0.0
 11
-314.79276
 21
-10.391453
 31
0.0
  0
LINE
  5
1CD
100
AcDbEntity
  8
0
370
    -3
390
0
  6
Continuous
100
AcDbLine
 10
-327.79276
 20
2.608547
 30
0.0
 11
-329.29276
 21
0.608547
 31
0.0
  0
LINE
  5
1CE
100
AcDbEntity
  8
0
370
    -3
390
0
  6
Continuous
100
AcDbLine
 10
-330.79276
 20
-10.391453
 30
0.0
 11
-330.79276
 21
0.608547
 31
0.0
  0
LINE
  5
1CF
100
AcDbEntity
  8
0
370
    -3
390
0
  6
Continuous
100
AcDbLine
 10
-301.79276
 20
2.608547
 30
0.0
 11
-314.79276
 21
2.608547
 31
0.0
  0
LINE
  5
1D0
100
AcDbEntity
  8
0
370
    -3
390
0
  6
Continuous
100
AcDbLine
 10
-330.79276
 20
-9.391453
 30
0.0
 11
-330.309426
 21
-9.391453
 31
0.0
  0
LINE
  5
1D1
100
AcDbEntity
  8
0
370
    -3
390
0
  6
Continuous
100
AcDbLine
 10
-330.04276
 20
-11.391453
 30
0.0
 11
-330.04276
 21
-14.391453
 31
0.0
  0
ARC
  5
1D2
100
AcDbEntity
  8
0
370
    -3
390
0
  6
Continuous
100
AcDbCircle
 10
-324.29276
 20
-15.891453
 30
0.0
 40
1.5
100
AcDbArc
 50
180.0
 51
270.0
  0
ARC
  5
1D3
100
AcDbEntity
  8
0
370
    -3
390
0
  6
Continuous
100
AcDbCircle
 10
-324.29276
 20
-15.891453
 30
0.0
 40
1.5
100
AcDbArc
 50
90.0
 51
180.0
  0
LINE
  5
1D4
100
AcDbEntity
  8
0
370
    -3
390
0
  6
Continuous
100
AcDbLine
 10
-318.695714
 20
0.608547
 30
0.0
 11
-318.695714
 21
-9.391453
 31
0.0
  0
LINE
  5
1D5
100
AcDbEntity
  8
0
370
    -3
390
0
  6
Continuous
100
AcDbLine
 10
-323.004894
 20
0.608547
 30
0.0
 11
-323.004894
 21
-9.391453
 31
0.0
  0
LINE
  5
1D6
100
AcDbEntity
  8
0
370
    -3
390
0
  6
Continuous
100
AcDbLine
 10
-328.524506
 20
0.608547
 30
0.0
 11
-328.524506
 21
-9.391453
 31
0.0
  0
LINE
  5
1D7
100
AcDbEntity
  8
0
370
    -3
390
0
  6
Continuous
100
AcDbLine
 10
-330.309426
 20
0.608547
 30
0.0
 11
-330.309426
 21
-9.391453
 31
0.0
  0
LINE
  5
1D8
100
AcDbEntity
  8
0
370
    -3
390
0
  6
Continuous
100
AcDbLine
 10
-328.524506
 20
-9.391453
 30
0.0
 11
-323.004894
 21
-9.391453
 31
0.0
  0
LINE
  5
1D9
100
AcDbEntity
  8
0
370
    -3
390
0
  6
Continuous
100
AcDbLine
 10
-327.79276
 20
-11.391453
 30
0.0
 11
-327.79276
 21
-10.391453
 31
0.0
  0
LINE
  5
1DA
100
AcDbEntity
  8
0
370
    -3
390
0
  6
Continuous
100
AcDbLine
 10
-327.79276
 20
2.608547
 30
0.0
 11
-314.79276
 21
2.608547
 31
0.0
  0
LINE
  5
1DB
100
AcDbEntity
  8
0
370
    -3
390
0
  6
Continuous
100
AcDbLine
 10
-330.04276
 20
-11.391453
 30
0.0
 11
-314.79276
 21
-11.391453
 31
0.0
  0
LINE
  5
1DC
100
AcDbEntity
  8
0
370
    -3
390
0
  6
Continuous
100
AcDbLine
 10
-318.695714
 20
-9.391453
 30
0.0
 11
-314.79276
 21
-9.391453
 31
0.0
  0
LINE
  5
1DD
100
AcDbEntity
  8
0
370
    -3
390
0
  6
Continuous
100
AcDbLine
 10
-330.79276
 20
0.608547
 30
0.0
 11
-314.79276
 21
0.608547
 31
0.0
  0
LINE
  5
1DE
100
AcDbEntity
  8
0
370
    -3
390
0
  6
Continuous
100
AcDbLine
 10
-299.54276
 20
-14.391453
 30
0.0
 11
-314.79276
 21
-14.391453
 31
0.0
  0
LINE
  5
1DF
100
AcDbEntity
  8
0
370
    -3
390
0
  6
Continuous
100
AcDbLine
 10
-301.79276
 20
2.608547
 30
0.0
 11
-300.29276
 21
0.608547
 31
0.0
  0
LINE
  5
1E0
100
AcDbEntity
  8
0
370
    -3
390
0
  6
Continuous
100
AcDbLine
 10
-298.79276
 20
-10.391453
 30
0.0
 11
-298.79276
 21
0.608547
 31
0.0
  0
LINE
  5
1E1
100
AcDbEntity
  8
0
370
    -3
390
0
  6
Continuous
100
AcDbLine
 10
-298.79276
 20
-10.391453
 30
0.0
 11
-314.79276
 21
-10.391453
 31
0.0
  0
LINE
  5
1E2
100
AcDbEntity
  8
0
370
    -3
390
0
  6
Continuous
100
AcDbLine
 10
-301.79276
 20
2.608547
 30
0.0
 11
-300.29276
 21
0.608547
 31
0.0
  0
LINE
  5
1E3
100
AcDbEntity
  8
0
370
    -3
390
0
  6
Continuous
100
AcDbLine
 10
-298.79276
 20
-10.391453
 30
0.0
 11
-298.79276
 21
0.608547
 31
0.0
  0
LINE
  5
1E4
100
AcDbEntity
  8
0
370
    -3
390
0
  6
Continuous
100
AcDbLine
 10
-298.79276
 20
-9.391453
 30
0.0
 11
-299.276093
 21
-9.391453
 31
0.0
  0
LINE
  5
1E5
100
AcDbEntity
  8
0
370
    -3
390
0
  6
Continuous
100
AcDbLine
 10
-299.54276
 20
-11.391453
 30
0.0
 11
-299.54276
 21
-14.391453
 31
0.0
  0
LINE
  5
1E6
100
AcDbEntity
  8
0
370
    -3
390
0
  6
Continuous
100
AcDbLine
 10
-299.54276
 20
-11.391453
 30
0.0
 11
-314.79276
 21
-11.391453
 31
0.0
  0
ARC
  5
1E7
100
AcDbEntity
  8
0
370
    -3
390
0
  6
Continuous
100
AcDbCircle
 10
-305.29276
 20
-15.891453
 30
0.0
 40
1.5
100
AcDbArc
 50
270.0
 51
0.0
  0
ARC
  5
1E8
100
AcDbEntity
  8
0
370
    -3
390
0
  6
Continuous
100
AcDbCircle
 10
-305.29276
 20
-15.891453
 30
0.0
 40
1.5
100
AcDbArc
 50
0.0
 51
90.0
  0
LINE
  5
1E9
100
AcDbEntity
  8
0
370
    -3
390
0
  6
Continuous
100
AcDbLine
 10
-310.889805
 20
0.608547
 30
0.0
 11
-310.889805
 21
-9.391453
 31
0.0
  0
LINE
  5
1EA
100
AcDbEntity
  8
0
370
    -3
390
0
  6
Continuous
100
AcDbLine
 10
-306.580625
 20
0.608547
 30
0.0
 11
-306.580625
 21
-9.391453
 31
0.0
  0
LINE
  5
1EB
100
AcDbEntity
  8
0
370
    -3
390
0
  6
Continuous
100
AcDbLine
 10
-310.889805
 20
-9.391453
 30
0.0
 11
-314.79276
 21
-9.391453
 31
0.0
  0
LINE
  5
1EC
100
AcDbEntity
  8
0
370
    -3
390
0
  6
Continuous
100
AcDbLine
 10
-298.79276
 20
0.608547
 30
0.0
 11
-314.79276
 21
0.608547
 31
0.0
  0
LINE
  5
1ED
100
AcDbEntity
  8
0
370
    -3
390
0
  6
Continuous
100
AcDbLine
 10
-301.061014
 20
0.608547
 30
0.0
 11
-301.061014
 21
-9.391453
 31
0.0
  0
LINE
  5
1EE
100
AcDbEntity
  8
0
370
    -3
390
0
  6
Continuous
100
AcDbLine
 10
-299.276093
 20
0.608547
 30
0.0
 11
-299.276093
 21
-9.391453
 31
0.0
  0
LINE
  5
1EF
100
AcDbEntity
  8
0
370
    -3
390
0
  6
Continuous
100
AcDbLine
 10
-301.061014
 20
-9.391453
 30
0.0
 11
-306.580625
 21
-9.391453
 31
0.0
  0
LINE
  5
1F0
100
AcDbEntity
  8
0
370
    -3
390
0
  6
Continuous
100
AcDbLine
 10
-301.79276
 20
-11.391453
 30
0.0
 11
-301.79276
 21
-10.391453
 31
0.0
  0
LINE
  5
1F1
100
AcDbEntity
  8
0
370
    -3
390
0
  6
DASHED
100
AcDbLine
 10
-435.29276
 20
-79.391453
 30
0.0
 11
-423.29276
 21
-79.391453
 31
0.0
  0
LINE
  5
1F2
100
AcDbEntity
  8
0
370
    -3
390
0
  6
DASHED
100
AcDbLine
 10
-435.29276
 20
-115.391453
 30
0.0
 11
-423.29276
 21
-115.391453
 31
0.0
  0
ARC
  5
1F3
100
AcDbEntity
  8
0
370
    -3
390
0
  6
Continuous
100
AcDbCircle
 10
-420.29276
 20
-127.391453
 30
0.0
 40
3.0
100
AcDbArc
 50
90.0
 51
180.0
  0
LINE
  5
1F4
100
AcDbEntity
  8
0
370
    -3
390
0
  6
Continuous
100
AcDbLine
 10
-435.29276
 20
-66.391453
 30
0.0
 11
-423.29276
 21
-66.391453
 31
0.0
  0
LINE
  5
1F5
100
AcDbEntity
  8
0
370
    -3
390
0
  6
CENTER
100
AcDbLine
 10
-440.35875
 20
-97.391453
 30
0.0
 11
-420.845818
 21
-97.391453
 31
0.0
  0
LINE
  5
1F6
100
AcDbEntity
  8
0
370
    -3
390
0
  6
CENTER
100
AcDbLine
 10
-449.960263
 20
-141.391453
 30
0.0
 11
-428.152418
 21
-141.391453
 31
0.0
  0
LINE
  5
1F7
100
AcDbEntity
  8
0
370
    -3
390
0
  6
Continuous
100
AcDbLine
 10
-435.29276
 20
-66.391453
 30
0.0
 11
-435.29276
 21
-144.391453
 31
0.0
  0
LINE
  5
1F8
100
AcDbEntity
  8
0
370
    -3
390
0
  6
Continuous
100
AcDbLine
 10
-423.29276
 20
-66.391453
 30
0.0
 11
-423.29276
 21
-142.391453
 31
0.0
  0
LINE
  5
1F9
100
AcDbEntity
  8
0
370
    -3
390
0
  6
Continuous
100
AcDbLine
 10
-420.29276
 20
-124.391453
 30
0.0
 11
-401.29276
 21
-124.391453
 31
0.0
  0
LINE
  5
1FA
100
AcDbEntity
  8
0
370
    -3
390
0
  6
Continuous
100
AcDbLine
 10
-423.29276
 20
-186.391182
 30
0.0
 11
-425.29276
 21
-186.391182
 31
0.0
  0
LINE
  5
1FB
100
AcDbEntity
  8
0
370
    -3
390
0
  6
Continuous
100
AcDbLine
 10
-401.29276
 20
-136.007438
 30
0.0
 11
-417.29276
 21
-136.007438
 31
0.0
  0
ARC
  5
1FC
100
AcDbEntity
  8
0
370
    -3
390
0
  6
Continuous
100
AcDbCircle
 10
-417.29276
 20
-139.007438
 30
0.0
 40
3.0
100
AcDbArc
 50
90.0
 51
180.0
  0
ARC
  5
1FD
100
AcDbEntity
  8
0
370
    -3
390
0
  6
Continuous
100
AcDbCircle
 10
-423.29276
 20
-183.391182
 30
0.0
 40
3.0
100
AcDbArc
 50
270.0
 51
0.0
  0
ARC
  5
1FE
100
AcDbEntity
  8
0
370
    -3
390
0
  6
Continuous
100
AcDbCircle
 10
-423.29276
 20
-409.391724
 30
0.0
 40
3.0
100
AcDbArc
 50
50.916847
 51
90.0
  0
LINE
  5
1FF
100
AcDbEntity
  8
0
370
    -3
390
0
  6
Continuous
100
AcDbLine
 10
-423.29276
 20
-406.391724
 30
0.0
 11
-425.29276
 21
-406.391724
 31
0.0
  0
LINE
  5
200
100
AcDbEntity
  8
0
370
    -3
390
0
  6
Continuous
100
AcDbLine
 10
-401.29276
 20
-296.391453
 30
0.0
 11
-401.29276
 21
-136.007438
 31
0.0
  0
LINE
  5
201
100
AcDbEntity
  8
0
370
    -3
390
0
  6
Continuous
100
AcDbLine
 10
-420.29276
 20
-139.007438
 30
0.0
 11
-420.29276
 21
-296.391453
 31
0.0
  0
LINE
  5
202
100
AcDbEntity
  8
0
370
    -3
390
0
  6
Continuous
100
AcDbLine
 10
-425.29276
 20
-186.391182
 30
0.0
 11
-425.29276
 21
-284.391453
 31
0.0
  0
LINE
  5
203
100
AcDbEntity
  8
0
370
    -3
390
0
  6
Continuous
100
AcDbLine
 10
-420.29276
 20
-406.53363
 30
0.0
 11
-420.29276
 21
-296.391453
 31
0.0
  0
LINE
  5
204
100
AcDbEntity
  8
0
370
    -3
390
0
  6
Continuous
100
AcDbLine
 10
-425.29276
 20
-391.391453
 30
0.0
 11
-425.29276
 21
-308.391453
 31
0.0
  0
LINE
  5
205
100
AcDbEntity
  8
0
370
    -3
390
0
  6
Continuous
100
AcDbLine
 10
-425.29276
 20
-408.921195
 30
0.0
 11
-425.29276
 21
-308.391453
 31
0.0
  0
LINE
  5
206
100
AcDbEntity
  8
0
370
    -3
390
0
  6
Continuous
100
AcDbLine
 10
-460.79276
 20
-497.391453
 30
0.0
 11
-590.79276
 21
-497.391453
 31
0.0
  0
ARC
  5
207
100
AcDbEntity
  8
0
370
    -3
390
0
  6
Continuous
100
AcDbCircle
 10
-255.79276
 20
-497.391453
 30
0.0
 40
5.0
100
AcDbArc
 50
0.0
 51
90.0
  0
LINE
  5
208
100
AcDbEntity
  8
0
370
    -3
390
0
  6
Continuous
100
AcDbLine
 10
-255.79276
 20
-492.391453
 30
0.0
 11
-455.79276
 21
-492.391453
 31
0.0
  0
ARC
  5
209
100
AcDbEntity
  8
0
370
    -3
390
0
  6
Continuous
100
AcDbCircle
 10
-455.79276
 20
-497.391453
 30
0.0
 40
5.0
100
AcDbArc
 50
90.0
 51
180.0
  0
LINE
  5
20A
100
AcDbEntity
  8
0
370
    -3
390
0
  6
Continuous
100
AcDbLine
 10
-355.29276
 20
-14.391453
 30
0.0
 11
-355.29276
 21
-375.495287
 31
0.0
  0
LINE
  5
20B
100
AcDbEntity
  8
0
370
    -3
390
0
  6
Continuous
100
AcDbLine
 10
-76.79276
 20
-152.391453
 30
0.0
 11
-76.79276
 21
-157.391453
 31
0.0
  0
LINE
  5
20C
100
AcDbEntity
  8
0
370
    -3
390
0
  6
Continuous
100
AcDbLine
 10
-76.79276
 20
-152.391453
 30
0.0
 11
14.20724
 21
-152.391453
 31
0.0
  0
LINE
  5
20D
100
AcDbEntity
  8
0
370
    -3
390
0
  6
Continuous
100
AcDbLine
 10
-120.79276
 20
-239.891453
 30
0.0
 11
-115.79276
 21
-239.891453
 31
0.0
  0
LINE
  5
20E
100
AcDbEntity
  8
0
370
    -3
390
0
  6
Continuous
100
AcDbLine
 10
-120.79276
 20
-154.891453
 30
0.0
 11
-115.79276
 21
-154.891453
 31
0.0
  0
LINE
  5
20F
100
AcDbEntity
  8
0
370
    -3
390
0
  6
Continuous
100
AcDbLine
 10
-115.79276
 20
-154.891453
 30
0.0
 11
-115.79276
 21
-239.891453
 31
0.0
  0
LINE
  5
210
100
AcDbEntity
  8
0
370
    -3
390
0
  6
Continuous
100
AcDbLine
 10
-115.79276
 20
-237.391453
 30
0.0
 11
14.20724
 21
-237.391453
 31
0.0
  0
LINE
  5
211
100
AcDbEntity
  8
0
370
    -3
390
0
  6
Continuous
100
AcDbLine
 10
-115.79276
 20
-157.391453
 30
0.0
 11
14.20724
 21
-157.391453
 31
0.0
  0
ARC
  5
212
100
AcDbEntity
  8
0
370
    -3
390
0
  6
Continuous
100
AcDbCircle
 10
-387.79276
 20
-274.391453
 30
0.0
 40
3.0
100
AcDbArc
 50
270.0
 51
0.0
  0
LINE
  5
213
100
AcDbEntity
  8
0
370
    -3
390
0
  6
Continuous
100
AcDbLine
 10
-384.79276
 20
-248.325687
 30
0.0
 11
-384.79276
 21
-274.391453
 31
0.0
  0
ARC
  5
214
100
AcDbEntity
  8
0
370
    -3
390
0
  6
Continuous
100
AcDbCircle
 10
-395.29276
 20
-358.271882
 30
0.0
 40
3.0
100
AcDbArc
 50
180.0
 51
206.463782
  0
LINE
  5
215
100
AcDbEntity
  8
0
370
    -3
390
0
  6
Continuous
100
AcDbLine
 10
-397.978408
 20
-359.608778
 30
0.0
 11
-383.391163
 21
-388.912639
 31
0.0
  0
LINE
  5
216
100
AcDbEntity
  8
0
370
    -3
390
0
  6
Continuous
100
AcDbLine
 10
-378.79276
 20
-296.391453
 30
0.0
 11
-378.79276
 21
-386.716842
 31
0.0
  0
ARC
  5
217
100
AcDbEntity
  8
0
370
    -3
390
0
  6
Continuous
100
AcDbCircle
 10
-401.29276
 20
-383.887063
 30
0.0
 40
3.0
100
AcDbArc
 50
270.0
 51
0.0
  0
LINE
  5
218
100
AcDbEntity
  8
0
370
    -3
390
0
  6
Continuous
100
AcDbLine
 10
-401.29276
 20
-296.391453
 30
0.0
 11
-401.29276
 21
-397.460884
 31
0.0
  0
LINE
  5
219
100
AcDbEntity
  8
0
370
    -3
390
0
  6
Continuous
100
AcDbLine
 10
-398.29276
 20
-358.977287
 30
0.0
 11
-378.79276
 21
-358.977287
 31
0.0
  0
LINE
  5
21A
100
AcDbEntity
  8
0
370
    -3
390
0
  6
Continuous
100
AcDbLine
 10
-401.29276
 20
-277.391453
 30
0.0
 11
-378.79276
 21
-277.391453
 31
0.0
  0
ARC
  5
21B
100
AcDbEntity
  8
0
370
    -3
390
0
  6
Continuous
100
AcDbCircle
 10
-377.29276
 20
-109.883833
 30
0.0
 40
6.0
100
AcDbArc
 50
270.0
 51
0.0
  0
LINE
  5
21C
100
AcDbEntity
  8
0
370
    -3
390
0
  6
Continuous
100
AcDbLine
 10
-378.79276
 20
-115.883833
 30
0.0
 11
-377.29276
 21
-115.883833
 31
0.0
  0
ARC
  5
21D
100
AcDbEntity
  8
0
370
    -3
390
0
  6
Continuous
100
AcDbCircle
 10
-381.79276
 20
-46.272595
 30
0.0
 40
3.0
100
AcDbArc
 50
347.057178
 51
0.0
  0
LINE
  5
21E
100
AcDbEntity
  8
0
370
    -3
390
0
  6
Continuous
100
AcDbLine
 10
-401.29276
 20
-118.78759
 30
0.0
 11
-401.29276
 21
-296.391453
 31
0.0
  0
LINE
  5
21F
100
AcDbEntity
  8
0
370
    -3
390
0
  6
Continuous
100
AcDbLine
 10
-375.79276
 20
-17.391453
 30
0.0
 11
-371.29276
 21
-17.391453
 31
0.0
  0
LINE
  5
220
100
AcDbEntity
  8
0
370
    -3
390
0
  6
Continuous
100
AcDbLine
 10
-378.79276
 20
-20.391453
 30
0.0
 11
-378.79276
 21
-296.391453
 31
0.0
  0
ARC
  5
221
100
AcDbEntity
  8
0
370
    -3
390
0
  6
Continuous
100
AcDbCircle
 10
-375.79276
 20
-20.391453
 30
0.0
 40
3.0
100
AcDbArc
 50
90.0
 51
180.0
  0
LINE
  5
222
100
AcDbEntity
  8
0
370
    -3
390
0
  6
Continuous
100
AcDbLine
 10
-371.29276
 20
-17.391453
 30
0.0
 11
-371.29276
 21
-109.883833
 31
0.0
  0
ARC
  5
223
100
AcDbEntity
  8
0
370
    -3
390
0
  6
Continuous
100
AcDbCircle
 10
-370.79276
 20
-31.391453
 30
0.0
 40
8.0
100
AcDbArc
 50
108.553005
 51
180.0
  0
ARC
  5
224
100
AcDbEntity
  8
0
370
    -3
390
0
  6
Continuous
100
AcDbCircle
 10
-368.29276
 20
-17.391453
 30
0.0
 40
3.0
100
AcDbArc
 50
90.0
 51
180.0
  0
ARC
  5
225
100
AcDbEntity
  8
0
370
    -3
390
0
  6
Continuous
100
AcDbCircle
 10
-374.29276
 20
-20.963126
 30
0.0
 40
3.0
100
AcDbArc
 50
288.553005
 51
0.0
  0
LINE
  5
226
100
AcDbEntity
  8
0
370
    -3
390
0
  6
Continuous
100
AcDbLine
 10
-354.79276
 20
-127.391453
 30
0.0
 11
-354.79276
 21
-267.391453
 31
0.0
  0
LINE
  5
227
100
AcDbEntity
  8
0
370
    -3
390
0
  6
Continuous
100
AcDbLine
 10
-368.29276
 20
-14.391453
 30
0.0
 11
-354.79276
 21
-14.391453
 31
0.0
  0
LINE
  5
228
100
AcDbEntity
  8
0
370
    -3
390
0
  6
CENTER
100
AcDbLine
 10
-405.98698
 20
-119.391453
 30
0.0
 11
-360.029889
 21
-119.391453
 31
0.0
  0
LINE
  5
229
100
AcDbEntity
  8
0
370
    -3
390
0
  6
Continuous
100
AcDbLine
 10
-401.29276
 20
-118.78759
 30
0.0
 11
-398.79273
 21
-118.78759
 31
0.0
  0
LINE
  5
22A
100
AcDbEntity
  8
0
370
    -3
390
0
  6
Continuous
100
AcDbLine
 10
-378.868978
 20
-46.944531
 30
0.0
 11
-392.760726
 21
-107.391453
 31
0.0
  0
LINE
  5
22B
100
AcDbEntity
  8
0
370
    -3
390
0
  6
CENTER
100
AcDbLine
 10
-405.98698
 20
-34.391453
 30
0.0
 11
-360.029889
 21
-34.391453
 31
0.0
  0
LINE
  5
22C
100
AcDbEntity
  8
0
370
    -3
390
0
  6
CENTER
100
AcDbLine
 10
-405.98698
 20
-232.391453
 30
0.0
 11
-360.029889
 21
-232.391453
 31
0.0
  0
LINE
  5
22D
100
AcDbEntity
  8
0
370
    -3
390
0
  6
CENTER
100
AcDbLine
 10
-405.98698
 20
-339.391453
 30
0.0
 11
-360.029889
 21
-339.391453
 31
0.0
  0
ARC
  5
22E
100
AcDbEntity
  8
0
370
    -3
390
0
  6
Continuous
100
AcDbCircle
 10
-381.79276
 20
-248.325687
 30
0.0
 40
3.0
100
AcDbArc
 50
109.471221
 51
180.0
  0
LINE
  5
22F
100
AcDbEntity
  8
0
370
    -3
390
0
  6
Continuous
100
AcDbLine
 10
-401.29276
 20
-326.391453
 30
0.0
 11
-382.79276
 21
-326.391453
 31
0.0
  0
ARC
  5
230
100
AcDbEntity
  8
0
370
    -3
390
0
  6
Continuous
100
AcDbCircle
 10
-401.29276
 20
-345.367251
 30
0.0
 40
3.0
100
AcDbArc
 50
33.556145
 51
90.0
  0
LINE
  5
231
100
AcDbEntity
  8
0
370
    -3
390
0
  6
Continuous
100
AcDbLine
 10
-398.29276
 20
-350.525572
 30
0.0
 11
-398.29276
 21
-383.887063
 31
0.0
  0
LINE
  5
232
100
AcDbEntity
  8
0
370
    -3
390
0
  6
CENTER
100
AcDbLine
 10
-289.29276
 20
-457.391453
 30
0.0
 11
-324.29276
 21
-457.391453
 31
0.0
  0
LINE
  5
233
100
AcDbEntity
  8
0
370
    -3
390
0
  6
CENTER
100
AcDbLine
 10
-306.79276
 20
-439.891453
 30
0.0
 11
-306.79276
 21
-474.891453
 31
0.0
  0
LINE
  5
234
100
AcDbEntity
  8
0
370
    -3
390
0
  6
CENTER
100
AcDbLine
 10
-176.497147
 20
-358.391453
 30
0.0
 11
-213.750997
 21
-358.391453
 31
0.0
  0
LINE
  5
235
100
AcDbEntity
  8
0
370
    -3
390
0
  6
CENTER
100
AcDbLine
 10
-194.79276
 20
-340.41857
 30
0.0
 11
-194.79276
 21
-377.404407
 31
0.0
  0
CIRCLE
  5
236
100
AcDbEntity
  8
0
370
    -3
390
0
  6
Continuous
100
AcDbCircle
 10
-306.79276
 20
-457.391453
 30
0.0
 40
12.5
  0
LINE
  5
237
100
AcDbEntity
  8
0
370
    -3
390
0
  6
Continuous
100
AcDbLine
 10
-120.79276
 20
-497.391453
 30
0.0
 11
-250.79276
 21
-497.391453
 31
0.0
  0
CIRCLE
  5
238
100
AcDbEntity
  8
0
370
    -3
390
0
  6
Continuous
100
AcDbCircle
 10
-194.792935
 20
-358.391479
 30
0.0
 40
15.0
  0
LINE
  5
239
100
AcDbEntity
  8
0
370
    -3
390
0
  6
CENTER
100
AcDbLine
 10
-155.79276
 20
-444.001473
 30
0.0
 11
-155.79276
 21
-514.845099
 31
0.0
  0
LINE
  5
23A
100
AcDbEntity
  8
0
370
    -3
390
0
  6
CENTER
100
AcDbLine
 10
-555.79276
 20
-443.300051
 30
0.0
 11
-555.79276
 21
-512.03941
 31
0.0
  0
ARC
  5
23B
100
AcDbEntity
  8
0
370
    -3
390
0
  6
Continuous
100
AcDbCircle
 10
-317.79276
 20
-23.459755
 30
0.0
 40
3.0
100
AcDbArc
 50
270.0
 51
0.0
  0
ARC
  5
23C
100
AcDbEntity
  8
0
370
    -3
390
0
  6
Continuous
100
AcDbCircle
 10
-317.79276
 20
-20.391453
 30
0.0
 40
3.0
100
AcDbArc
 50
0.0
 51
90.0
  0
LINE
  5
23D
100
AcDbEntity
  8
0
370
    -3
390
0
  6
Continuous
100
AcDbLine
 10
-314.79276
 20
-23.459755
 30
0.0
 11
-314.79276
 21
-20.391453
 31
0.0
  0
LINE
  5
23E
100
AcDbEntity
  8
0
370
    -3
390
0
  6
Continuous
100
AcDbLine
 10
-354.79276
 20
-17.391453
 30
0.0
 11
-317.79276
 21
-17.391453
 31
0.0
  0
LINE
  5
23F
100
AcDbEntity
  8
0
370
    -3
390
0
  6
Continuous
100
AcDbLine
 10
-317.79276
 20
-26.459755
 30
0.0
 11
-354.79276
 21
-26.459755
 31
0.0
  0
ARC
  5
240
100
AcDbEntity
  8
0
370
    -3
390
0
  6
Continuous
100
AcDbCircle
 10
-317.79276
 20
-129.387032
 30
0.0
 40
3.0
100
AcDbArc
 50
270.0
 51
0.0
  0
ARC
  5
241
100
AcDbEntity
  8
0
370
    -3
390
0
  6
Continuous
100
AcDbCircle
 10
-317.79276
 20
-106.644798
 30
0.0
 40
3.0
100
AcDbArc
 50
0.0
 51
90.0
  0
LINE
  5
242
100
AcDbEntity
  8
0
370
    -3
390
0
  6
Continuous
100
AcDbLine
 10
-314.79276
 20
-106.644798
 30
0.0
 11
-314.79276
 21
-129.387032
 31
0.0
  0
ARC
  5
243
100
AcDbEntity
  8
0
370
    -3
390
0
  6
Continuous
100
AcDbCircle
 10
-194.79276
 20
-358.391453
 30
0.0
 40
20.0
100
AcDbArc
 50
270.0
 51
90.0
  0
LINE
  5
244
100
AcDbEntity
  8
0
370
    -3
390
0
  6
Continuous
100
AcDbLine
 10
-194.79276
 20
-378.391453
 30
0.0
 11
-230.79276
 21
-378.391453
 31
0.0
  0
LINE
  5
245
100
AcDbEntity
  8
0
370
    -3
390
0
  6
Continuous
100
AcDbLine
 10
-194.79276
 20
-338.391453
 30
0.0
 11
-230.79276
 21
-338.391453
 31
0.0
  0
LINE
  5
246
100
AcDbEntity
  8
0
370
    -3
390
0
  6
Continuous
100
AcDbLine
 10
-336.79276
 20
-132.387032
 30
0.0
 11
-336.79276
 21
-178.391453
 31
0.0
  0
LINE
  5
247
100
AcDbEntity
  8
0
370
    -3
390
0
  6
Continuous
100
AcDbLine
 10
-317.79276
 20
-132.387032
 30
0.0
 11
-354.79276
 21
-132.387032
 31
0.0
  0
LINE
  5
248
100
AcDbEntity
  8
0
370
    -3
390
0
  6
Continuous
100
AcDbLine
 10
-317.79276
 20
-103.644798
 30
0.0
 11
-354.79276
 21
-103.644798
 31
0.0
  0
LINE
  5
249
100
AcDbEntity
  8
0
370
    -3
390
0
  6
Continuous
100
AcDbLine
 10
-336.79276
 20
-26.459755
 30
0.0
 11
-336.79276
 21
-103.644798
 31
0.0
  0
LINE
  5
24A
100
AcDbEntity
  8
0
370
    -3
390
0
  6
Continuous
100
AcDbLine
 10
-120.79276
 20
-260.391453
 30
0.0
 11
-120.79276
 21
-197.391453
 31
0.0
  0
LINE
  5
24B
100
AcDbEntity
  8
0
370
    -3
390
0
  6
Continuous
100
AcDbLine
 10
-120.79276
 20
-134.391453
 30
0.0
 11
-120.79276
 21
-197.391453
 31
0.0
  0
LINE
  5
24C
100
AcDbEntity
  8
0
370
    -3
390
0
  6
Continuous
100
AcDbLine
 10
-354.79276
 20
-14.391453
 30
0.0
 11
-354.79276
 21
-375.215993
 31
0.0
  0
LINE
  5
24D
100
AcDbEntity
  8
0
370
    -3
390
0
  6
CENTER
100
AcDbLine
 10
-355.68804
 20
-197.391453
 30
0.0
 11
26.820951
 21
-197.391453
 31
0.0
  0
LINE
  5
24E
100
AcDbEntity
  8
0
370
    -3
390
0
  6
Continuous
100
AcDbLine
 10
-120.79276
 20
-458.391453
 30
0.0
 11
-120.79276
 21
-497.391453
 31
0.0
  0
LINE
  5
24F
100
AcDbEntity
  8
0
370
    -3
390
0
  6
Continuous
100
AcDbLine
 10
-190.79276
 20
-452.391453
 30
0.0
 11
-141.913637
 21
-452.391453
 31
0.0
  0
ARC
  5
250
100
AcDbEntity
  8
0
370
    -3
390
0
  6
Continuous
100
AcDbCircle
 10
-126.79276
 20
-458.391453
 30
0.0
 40
6.0
100
AcDbArc
 50
0.0
 51
90.0
  0
LINE
  5
251
100
AcDbEntity
  8
0
370
    -3
390
0
  6
Continuous
100
AcDbLine
 10
-590.79276
 20
-461.317534
 30
0.0
 11
-590.79276
 21
-497.391453
 31
0.0
  0
LINE
  5
252
100
AcDbEntity
  8
0
370
    -3
390
0
  6
Continuous
100
AcDbLine
 10
-348.79276
 20
-254.391453
 30
0.0
 11
-348.79276
 21
-364.823688
 31
0.0
  0
LINE
  5
253
100
AcDbEntity
  8
0
370
    -3
390
0
  6
Continuous
100
AcDbLine
 10
-584.867134
 20
-455.317995
 30
0.0
 11
-523.432557
 21
-454.556409
 31
0.0
  0
ARC
  5
254
100
AcDbEntity
  8
0
370
    -3
390
0
  6
Continuous
100
AcDbCircle
 10
-584.79276
 20
-461.317534
 30
0.0
 40
6.0
100
AcDbArc
 50
90.710242
 51
180.0
  0
LINE
  5
255
100
AcDbEntity
  8
0
370
    -3
390
0
  6
Continuous
100
AcDbLine
 10
-126.79276
 20
-132.391453
 30
0.0
 11
-124.79276
 21
-132.391453
 31
0.0
  0
LINE
  5
256
100
AcDbEntity
  8
0
370
    -3
390
0
  6
Continuous
100
AcDbLine
 10
-163.796949
 20
-97.39564
 30
0.0
 11
-139.788571
 21
-97.40821
 31
0.0
  0
ARC
  5
257
100
AcDbEntity
  8
0
370
    -3
390
0
  6
Continuous
100
AcDbCircle
 10
-124.79276
 20
-137.391453
 30
0.0
 40
5.0
100
AcDbArc
 50
36.869898
 51
90.0
  0
LINE
  5
258
100
AcDbEntity
  8
0
370
    -3
390
0
  6
Continuous
100
AcDbLine
 10
-131.79276
 20
-105.408209
 30
0.0
 11
-131.79276
 21
-127.391453
 31
0.0
  0
LINE
  5
259
100
AcDbEntity
  8
0
370
    -3
390
0
  6
Continuous
100
AcDbLine
 10
-171.79276
 20
-36.735052
 30
0.0
 11
-171.79276
 21
-89.395641
 31
0.0
  0
ARC
  5
25A
100
AcDbEntity
  8
0
370
    -3
390
0
  6
Continuous
100
AcDbCircle
 10
-139.79276
 20
-105.408209
 30
0.0
 40
8.0
100
AcDbArc
 50
0.0
 51
89.97
  0
ARC
  5
25B
100
AcDbEntity
  8
0
370
    -3
390
0
  6
Continuous
100
AcDbCircle
 10
-163.79276
 20
-89.395641
 30
0.0
 40
8.0
100
AcDbArc
 50
180.0
 51
269.97
  0
ARC
  5
25C
100
AcDbEntity
  8
0
370
    -3
390
0
  6
Continuous
100
AcDbCircle
 10
-126.79276
 20
-127.391453
 30
0.0
 40
5.0
100
AcDbArc
 50
180.0
 51
270.0
  0
LINE
  5
25D
100
AcDbEntity
  8
0
370
    -3
390
0
  6
Continuous
100
AcDbLine
 10
-354.79276
 20
-14.391453
 30
0.0
 11
-338.79276
 21
-14.391453
 31
0.0
  0
ARC
  5
25E
100
AcDbEntity
  8
0
370
    -3
390
0
  6
Continuous
100
AcDbCircle
 10
-338.79276
 20
-16.391453
 30
0.0
 40
2.0
100
AcDbArc
 50
0.0
 51
90.0
  0
LINE
  5
25F
100
AcDbEntity
  8
0
370
    -3
390
0
  6
Continuous
100
AcDbLine
 10
-354.79276
 20
-17.391453
 30
0.0
 11
-299.29276
 21
-17.391453
 31
0.0
  0
LINE
  5
260
100
AcDbEntity
  8
0
370
    -3
390
0
  6
Continuous
100
AcDbLine
 10
-297.29276
 20
-19.391453
 30
0.0
 11
-297.29276
 21
-23.265553
 31
0.0
  0
ARC
  5
261
100
AcDbEntity
  8
0
370
    -3
390
0
  6
Continuous
100
AcDbCircle
 10
-299.29276
 20
-19.391453
 30
0.0
 40
2.0
100
AcDbArc
 50
0.0
 51
90.0
  0
ARC
  5
262
100
AcDbEntity
  8
0
370
    -3
390
0
  6
Continuous
100
AcDbCircle
 10
-334.919776
 20
-15.391453
 30
0.0
 40
2.0
100
AcDbArc
 50
194.477512
 51
270.0
  0
ARC
  5
263
100
AcDbEntity
  8
0
370
    -3
390
0
  6
Continuous
100
AcDbCircle
 10
-124.79276
 20
-257.391453
 30
0.0
 40
5.0
100
AcDbArc
 50
270.0
 51
323.130102
  0
LINE
  5
264
100
AcDbEntity
  8
0
370
    -3
390
0
  6
Continuous
100
AcDbLine
 10
-131.79276
 20
-425.797506
 30
0.0
 11
-131.79276
 21
-267.391453
 31
0.0
  0
LINE
  5
265
100
AcDbEntity
  8
0
370
    -3
390
0
  6
Continuous
100
AcDbLine
 10
-126.79276
 20
-262.391453
 30
0.0
 11
-124.79276
 21
-262.391453
 31
0.0
  0
ARC
  5
266
100
AcDbEntity
  8
0
370
    -3
390
0
  6
Continuous
100
AcDbCircle
 10
-126.79276
 20
-267.391453
 30
0.0
 40
5.0
100
AcDbArc
 50
90.0
 51
180.0
  0
LINE
  5
267
100
AcDbEntity
  8
0
370
    -3
390
0
  6
Continuous
100
AcDbLine
 10
-314.79276
 20
-24.681453
 30
0.0
 11
-295.352733
 21
-25.264654
 31
0.0
  0
LINE
  5
268
100
AcDbEntity
  8
0
370
    -3
390
0
  6
Continuous
100
AcDbLine
 10
-295.352733
 20
-25.264654
 30
0.0
 11
-179.552868
 21
-28.73865
 31
0.0
  0
ARC
  5
269
100
AcDbEntity
  8
0
370
    -3
390
0
  6
Continuous
100
AcDbCircle
 10
-295.29276
 20
-23.265553
 30
0.0
 40
2.0
100
AcDbArc
 50
180.0
 51
268.281642
  0
ARC
  5
26A
100
AcDbEntity
  8
0
370
    -3
390
0
  6
Continuous
100
AcDbCircle
 10
-179.79276
 20
-36.735052
 30
0.0
 40
8.0
100
AcDbArc
 50
0.0
 51
88.281642
  0
ARC
  5
26B
100
AcDbEntity
  8
0
370
    -3
390
0
  6
Continuous
100
AcDbCircle
 10
-171.79276
 20
-425.797506
 30
0.0
 40
40.0
100
AcDbArc
 50
318.329283
 51
0.0
  0
LINE
  5
26C
100
AcDbEntity
  8
0
370
    -3
390
0
  6
Continuous
100
AcDbLine
 10
-141.913637
 20
-452.391453
 30
0.0
 11
-126.79276
 21
-452.391453
 31
0.0
  0
LINE
  5
26D
100
AcDbEntity
  8
0
370
    -3
390
0
  6
Continuous
100
AcDbLine
 10
-354.79276
 20
-178.391453
 30
0.0
 11
-236.79276
 21
-178.391453
 31
0.0
  0
LINE
  5
26E
100
AcDbEntity
  8
0
370
    -3
390
0
  6
Continuous
100
AcDbLine
 10
-230.79276
 20
-184.391453
 30
0.0
 11
-230.79276
 21
-412.391453
 31
0.0
  0
ARC
  5
26F
100
AcDbEntity
  8
0
370
    -3
390
0
  6
Continuous
100
AcDbCircle
 10
-190.79276
 20
-412.391453
 30
0.0
 40
40.0
100
AcDbArc
 50
180.0
 51
270.0
  0
ARC
  5
270
100
AcDbEntity
  8
0
370
    -3
390
0
  6
Continuous
100
AcDbCircle
 10
-236.79276
 20
-184.391453
 30
0.0
 40
6.0
100
AcDbArc
 50
0.0
 51
90.0
  0
LINE
  5
271
100
AcDbEntity
  8
0
370
    -3
390
0
  6
Continuous
100
AcDbLine
 10
-355.68804
 20
-251.391453
 30
0.0
 11
-238.79276
 21
-251.391453
 31
0.0
  0
ARC
  5
272
100
AcDbEntity
  8
0
370
    -3
390
0
  6
Continuous
100
AcDbCircle
 10
-238.79276
 20
-243.391453
 30
0.0
 40
8.0
100
AcDbArc
 50
270.0
 51
0.0
  0
ARC
  5
273
100
AcDbEntity
  8
0
370
    -3
390
0
  6
Continuous
100
AcDbCircle
 10
-238.79276
 20
-259.391453
 30
0.0
 40
8.0
100
AcDbArc
 50
0.0
 51
90.0
  0
LINE
  5
274
100
AcDbEntity
  8
0
370
    -3
390
0
  6
Continuous
100
AcDbLine
 10
-340.79276
 20
-286.391453
 30
0.0
 11
-238.79276
 21
-286.391453
 31
0.0
  0
ARC
  5
275
100
AcDbEntity
  8
0
370
    -3
390
0
  6
Continuous
100
AcDbCircle
 10
-238.79276
 20
-278.391453
 30
0.0
 40
8.0
100
AcDbArc
 50
270.0
 51
0.0
  0
ARC
  5
276
100
AcDbEntity
  8
0
370
    -3
390
0
  6
Continuous
100
AcDbCircle
 10
-238.79276
 20
-294.391453
 30
0.0
 40
8.0
100
AcDbArc
 50
0.0
 51
90.0
  0
ARC
  5
277
100
AcDbEntity
  8
0
370
    -3
390
0
  6
Continuous
100
AcDbCircle
 10
-340.79276
 20
-294.391453
 30
0.0
 40
8.0
100
AcDbArc
 50
90.0
 51
180.0
  0
ARC
  5
278
100
AcDbEntity
  8
0
370
    -3
390
0
  6
Continuous
100
AcDbCircle
 10
-340.79276
 20
-278.391453
 30
0.0
 40
8.0
100
AcDbArc
 50
180.0
 51
270.0
  0
ARC
  5
279
100
AcDbEntity
  8
0
370
    -3
390
0
  6
Continuous
100
AcDbCircle
 10
-351.79276
 20
-254.391453
 30
0.0
 40
3.0
100
AcDbArc
 50
0.0
 51
90.0
  0
LINE
  5
27A
100
AcDbEntity
  8
0
370
    -3
390
0
  6
Continuous
100
AcDbLine
 10
-155.265723
 20
-238.252536
 30
0.0
 11
-138.403574
 21
-241.225788
 31
0.0
  0
ARC
  5
27B
100
AcDbEntity
  8
0
370
    -3
390
0
  6
Continuous
100
AcDbCircle
 10
-139.79276
 20
-249.10425
 30
0.0
 40
8.0
100
AcDbArc
 50
0.0
 51
80.0
  0
LINE
  5
27C
100
AcDbEntity
  8
0
370
    -3
390
0
  6
Continuous
100
AcDbLine
 10
-131.79276
 20
-267.391453
 30
0.0
 11
-131.79276
 21
-127.391453
 31
0.0
  0
LINE
  5
27D
100
AcDbEntity
  8
0
370
    -3
390
0
  6
Continuous
100
AcDbLine
 10
-171.79276
 20
-218.556381
 30
0.0
 11
-171.79276
 21
-89.395641
 31
0.0
  0
ARC
  5
27E
100
AcDbEntity
  8
0
370
    -3
390
0
  6
Continuous
100
AcDbCircle
 10
-151.79276
 20
-218.556381
 30
0.0
 40
20.0
100
AcDbArc
 50
180.0
 51
260.0
  0
LINE
  5
27F
100
AcDbEntity
  8
0
370
    -3
390
0
  6
Continuous
100
AcDbLine
 10
-355.621886
 20
-375.652449
 30
0.0
 11
-518.410432
 21
-453.386092
 31
0.0
  0
ARC
  5
280
100
AcDbEntity
  8
0
370
    -3
390
0
  6
Continuous
100
AcDbCircle
 10
-360.79276
 20
-364.823688
 30
0.0
 40
12.0
100
AcDbArc
 50
295.525081
 51
0.0
  0
ARC
  5
281
100
AcDbEntity
  8
0
370
    -3
390
0
  6
Continuous
100
AcDbCircle
 10
-523.581306
 20
-442.557331
 30
0.0
 40
12.0
100
AcDbArc
 50
270.710242
 51
295.525081
  0
LINE
  5
282
100
AcDbEntity
  8
0
370
    -3
390
0
  6
Continuous
100
AcDbLine
 10
-172.458676
 20
-32.797982
 30
0.0
 11
-134.8024
 21
-99.155505
 31
0.0
  0
ARC
  5
283
100
AcDbEntity
  8
0
370
    -3
390
0
  6
Continuous
100
AcDbCircle
 10
-179.416438
 20
-36.746342
 30
0.0
 40
8.0
100
AcDbArc
 50
29.573854
 51
88.281642
  0
LINE
  5
284
100
AcDbEntity
  8
0
370
    -3
390
0
  6
Continuous
100
AcDbLine
 10
-722.19276
 20
-396.32868
 30
0.0
 11
-706.494269
 21
-405.392208
 31
0.0
  0
ARC
  5
285
100
AcDbEntity
  8
0
370
    -3
390
0
  6
Continuous
100
AcDbCircle
 10
-719.09276
 20
-390.959322
 30
0.0
 40
6.2
100
AcDbArc
 50
180.0
 51
240.0
  0
ARC
  5
286
100
AcDbEntity
  8
0
370
    -3
390
0
  6
Continuous
100
AcDbCircle
 10
-675.894269
 20
-352.391453
 30
0.0
 40
61.2
100
AcDbArc
 50
240.0
 51
270.0
  0
LINE
  5
287
100
AcDbEntity
  8
0
370
    -3
390
0
  6
Continuous
100
AcDbLine
 10
-630.29276
 20
-413.591453
 30
0.0
 11
-675.894269
 21
-413.591453
 31
0.0
  0
LINE
  5
288
100
AcDbEntity
  8
0
370
    -3
390
0
  6
Continuous
100
AcDbLine
 10
-630.29276
 20
-357.397565
 30
0.0
 11
-630.29276
 21
-413.591453
 31
0.0
  0
LINE
  5
289
100
AcDbEntity
  8
0
370
    -3
390
0
  6
Continuous
100
AcDbLine
 10
-676.29276
 20
-383.955835
 30
0.0
 11
-676.29276
 21
-385.241933
 31
0.0
  0
LINE
  5
28A
100
AcDbEntity
  8
0
370
    -3
390
0
  6
Continuous
100
AcDbLine
 10
-664.29276
 20
-383.955835
 30
0.0
 11
-664.29276
 21
-385.241933
 31
0.0
  0
ELLIPSE
  5
28B
100
AcDbEntity
  8
0
370
    -3
390
0
  6
Continuous
100
AcDbEllipse
 10
-670.29276
 20
-385.241933
 30
0.0
 11
6.0
 21
0.0
 31
0.0
210
0.0
220
0.0
230
1.0
 40
0.689848
 41
3.1415926535897931
 42
3.9729303421147302
  0
ELLIPSE
  5
28C
100
AcDbEntity
  8
0
370
    -3
390
0
  6
Continuous
100
AcDbEllipse
 10
-670.29276
 20
-383.955835
 30
0.0
 11
6.0
 21
0.0
 31
0.0
210
0.0
220
0.0
230
1.0
 40
0.707107
 41
0.0
 42
3.1415926535897931
  0
LINE
  5
28D
100
AcDbEntity
  8
0
370
    -3
390
0
  6
Continuous
100
AcDbLine
 10
-675.29276
 20
-385.628329
 30
0.0
 11
-675.29276
 21
-385.911172
 31
0.0
  0
LINE
  5
28E
100
AcDbEntity
  8
0
370
    -3
390
0
  6
Continuous
100
AcDbLine
 10
-665.29276
 20
-385.628329
 30
0.0
 11
-665.29276
 21
-385.911172
 31
0.0
  0
ELLIPSE
  5
28F
100
AcDbEntity
  8
0
370
    -3
390
0
  6
Continuous
100
AcDbEllipse
 10
-670.29276
 20
-385.911172
 30
0.0
 11
5.0
 21
0.0
 31
0.0
210
0.0
220
0.0
230
1.0
 40
0.707107
 41
5.7540333991808303
 42
3.670744561588549
  0
ELLIPSE
  5
290
100
AcDbEntity
  8
0
370
    -3
390
0
  6
Continuous
100
AcDbEllipse
 10
-670.29276
 20
-385.628329
 30
0.0
 11
5.0
 21
0.0
 31
0.0
210
0.0
220
0.0
230
1.0
 40
0.763675
 41
0.0
 42
3.1415926535897931
  0
ELLIPSE
  5
291
100
AcDbEntity
  8
0
370
    -3
390
0
  6
Continuous
100
AcDbEllipse
 10
-670.29276
 20
-386.600684
 30
0.0
 11
4.5
 21
0.0
 31
0.0
210
0.0
220
0.0
230
1.0
 40
0.860332
 41
0.0
 42
6.2831853071795862
  0
ELLIPSE
  5
292
100
AcDbEntity
  8
0
370
    -3
390
0
  6
Continuous
100
AcDbEllipse
 10
-670.29276
 20
-385.241933
 30
0.0
 11
6.0
 21
0.0
 31
0.0
210
0.0
220
0.0
230
1.0
 40
0.689848
 41
5.4518476186546492
 42
0.0
  0
ELLIPSE
  5
293
100
AcDbEntity
  8
0
370
    -3
390
0
  6
Continuous
100
AcDbEllipse
 10
-670.29276
 20
-385.241933
 30
0.0
 11
6.0
 21
0.0
 31
0.0
210
0.0
220
0.0
230
1.0
 40
0.689848
 41
0.0
 42
3.1415926535897931
  0
LINE
  5
294
100
AcDbEntity
  8
0
370
    -3
390
0
  6
Continuous
100
AcDbLine
 10
-670.29276
 20
-388.244625
 30
0.0
 11
-672.29276
 21
-389.540157
 31
0.0
  0
LINE
  5
295
100
AcDbEntity
  8
0
370
    -3
390
0
  6
Continuous
100
AcDbLine
 10
-670.29276
 20
-388.244625
 30
0.0
 11
-672.29276
 21
-386.71173
 31
0.0
  0
LINE
  5
296
100
AcDbEntity
  8
0
370
    -3
390
0
  6
Continuous
100
AcDbLine
 10
-670.29276
 20
-388.244625
 30
0.0
 11
-668.29276
 21
-386.71173
 31
0.0
  0
LINE
  5
297
100
AcDbEntity
  8
0
370
    -3
390
0
  6
Continuous
100
AcDbLine
 10
-670.29276
 20
-388.244625
 30
0.0
 11
-668.29276
 21
-389.540157
 31
0.0
  0
LINE
  5
298
100
AcDbEntity
  8
0
370
    -3
390
0
  6
Continuous
100
AcDbLine
 10
-630.29276
 20
-383.49987
 30
0.0
 11
-425.29276
 21
-383.49987
 31
0.0
  0
LINE
  5
299
100
AcDbEntity
  8
0
370
    -3
390
0
  6
Continuous
100
AcDbLine
 10
-630.29276
 20
-396.391453
 30
0.0
 11
-425.29276
 21
-396.391453
 31
0.0
  0
LINE
  5
29A
100
AcDbEntity
  8
0
370
    -3
390
0
  6
Continuous
100
AcDbLine
 10
-630.29276
 20
-401.891453
 30
0.0
 11
-425.29276
 21
-401.891453
 31
0.0
  0
LINE
  5
29B
100
AcDbEntity
  8
0
370
    -3
390
0
  6
Continuous
100
AcDbLine
 10
-630.29276
 20
-406.391453
 30
0.0
 11
-425.29276
 21
-406.391453
 31
0.0
  0
LINE
  5
29C
100
AcDbEntity
  8
0
370
    -3
390
0
  6
Continuous
100
AcDbLine
 10
-630.29276
 20
-405.391453
 30
0.0
 11
-425.29276
 21
-405.391453
 31
0.0
  0
LINE
  5
29D
100
AcDbEntity
  8
0
370
    -3
390
0
  6
Continuous
100
AcDbLine
 10
-630.29276
 20
-410.391453
 30
0.0
 11
-428.371749
 21
-410.391453
 31
0.0
  0
LINE
  5
29E
100
AcDbEntity
  8
0
370
    -3
390
0
  6
Continuous
100
AcDbLine
 10
-725.29276
 20
-390.959322
 30
0.0
 11
-725.29276
 21
-201.823583
 31
0.0
  0
LINE
  5
29F
100
AcDbEntity
  8
0
370
    -3
390
0
  6
Continuous
100
AcDbLine
 10
-630.29276
 20
-253.794845
 30
0.0
 11
-630.29276
 21
-179.191453
 31
0.0
  0
LINE
  5
2A0
100
AcDbEntity
  8
0
370
    -3
390
0
  6
Continuous
100
AcDbLine
 10
-630.29276
 20
-179.191453
 30
0.0
 11
-675.894269
 21
-179.191453
 31
0.0
  0
ARC
  5
2A1
100
AcDbEntity
  8
0
370
    -3
390
0
  6
Continuous
100
AcDbCircle
 10
-675.894269
 20
-240.391453
 30
0.0
 40
61.2
100
AcDbArc
 50
90.0
 51
120.0
  0
LINE
  5
2A2
100
AcDbEntity
  8
0
370
    -3
390
0
  6
Continuous
100
AcDbLine
 10
-722.19276
 20
-196.454226
 30
0.0
 11
-706.494269
 21
-187.390698
 31
0.0
  0
ARC
  5
2A3
100
AcDbEntity
  8
0
370
    -3
390
0
  6
Continuous
100
AcDbCircle
 10
-719.09276
 20
-201.823583
 30
0.0
 40
6.2
100
AcDbArc
 50
120.0
 51
180.0
  0
LINE
  5
2A4
100
AcDbEntity
  8
0
370
    -3
390
0
  6
Continuous
100
AcDbLine
 10
-676.29276
 20
-208.827071
 30
0.0
 11
-676.29276
 21
-207.540973
 31
0.0
  0
LINE
  5
2A5
100
AcDbEntity
  8
0
370
    -3
390
0
  6
Continuous
100
AcDbLine
 10
-664.29276
 20
-208.827071
 30
0.0
 11
-664.29276
 21
-207.540973
 31
0.0
  0
ELLIPSE
  5
2A6
100
AcDbEntity
  8
0
370
    -3
390
0
  6
Continuous
100
AcDbEllipse
 10
-670.29276
 20
-207.540973
 30
0.0
 11
6.0
 21
0.0
 31
0.0
210
0.0
220
0.0
230
1.0
 40
0.689848
 41
2.3102549650648596
 42
3.1415926535897931
  0
ELLIPSE
  5
2A7
100
AcDbEntity
  8
0
370
    -3
390
0
  6
Continuous
100
AcDbEllipse
 10
-670.29276
 20
-208.827071
 30
0.0
 11
6.0
 21
0.0
 31
0.0
210
0.0
220
0.0
230
1.0
 40
0.707107
 41
3.1415926535897931
 42
0.0
  0
LINE
  5
2A8
100
AcDbEntity
  8
0
370
    -3
390
0
  6
Continuous
100
AcDbLine
 10
-675.29276
 20
-207.154577
 30
0.0
 11
-675.29276
 21
-206.871734
 31
0.0
  0
LINE
  5
2A9
100
AcDbEntity
  8
0
370
    -3
390
0
  6
Continuous
100
AcDbLine
 10
-665.29276
 20
-207.154577
 30
0.0
 11
-665.29276
 21
-206.871734
 31
0.0
  0
ELLIPSE
  5
2AA
100
AcDbEntity
  8
0
370
    -3
390
0
  6
Continuous
100
AcDbEllipse
 10
-670.29276
 20
-206.871734
 30
0.0
 11
5.0
 21
0.0
 31
0.0
210
0.0
220
0.0
230
1.0
 40
0.707107
 41
2.6124407455910408
 42
0.5291519079987521
  0
ELLIPSE
  5
2AB
100
AcDbEntity
  8
0
370
    -3
390
0
  6
Continuous
100
AcDbEllipse
 10
-670.29276
 20
-207.154577
 30
0.0
 11
5.0
 21
0.0
 31
0.0
210
0.0
220
0.0
230
1.0
 40
0.763675
 41
3.1415926535897931
 42
0.0
  0
ELLIPSE
  5
2AC
100
AcDbEntity
  8
0
370
    -3
390
0
  6
Continuous
100
AcDbEllipse
 10
-670.29276
 20
-206.182222
 30
0.0
 11
4.5
 21
0.0
 31
0.0
210
0.0
220
0.0
230
1.0
 40
0.860332
 41
0.0
 42
6.2831853071795862
  0
ELLIPSE
  5
2AD
100
AcDbEntity
  8
0
370
    -3
390
0
  6
Continuous
100
AcDbEllipse
 10
-670.29276
 20
-207.540973
 30
0.0
 11
6.0
 21
0.0
 31
0.0
210
0.0
220
0.0
230
1.0
 40
0.689848
 41
0.0
 42
0.8313376885249334
  0
ELLIPSE
  5
2AE
100
AcDbEntity
  8
0
370
    -3
390
0
  6
Continuous
100
AcDbEllipse
 10
-670.29276
 20
-207.540973
 30
0.0
 11
6.0
 21
0.0
 31
0.0
210
0.0
220
0.0
230
1.0
 40
0.689848
 41
3.1415926535897931
 42
0.0
  0
LINE
  5
2AF
100
AcDbEntity
  8
0
370
    -3
390
0
  6
Continuous
100
AcDbLine
 10
-670.29276
 20
-204.538281
 30
0.0
 11
-672.29276
 21
-203.242749
 31
0.0
  0
LINE
  5
2B0
100
AcDbEntity
  8
0
370
    -3
390
0
  6
Continuous
100
AcDbLine
 10
-670.29276
 20
-204.538281
 30
0.0
 11
-672.29276
 21
-206.071176
 31
0.0
  0
LINE
  5
2B1
100
AcDbEntity
  8
0
370
    -3
390
0
  6
Continuous
100
AcDbLine
 10
-670.29276
 20
-204.538281
 30
0.0
 11
-668.29276
 21
-206.071176
 31
0.0
  0
LINE
  5
2B2
100
AcDbEntity
  8
0
370
    -3
390
0
  6
Continuous
100
AcDbLine
 10
-670.29276
 20
-204.538281
 30
0.0
 11
-668.29276
 21
-203.242749
 31
0.0
  0
LINE
  5
2B3
100
AcDbEntity
  8
0
370
    -3
390
0
  6
Continuous
100
AcDbLine
 10
-630.29276
 20
-218.475424
 30
0.0
 11
-425.29276
 21
-218.475424
 31
0.0
  0
LINE
  5
2B4
100
AcDbEntity
  8
0
370
    -3
390
0
  6
Continuous
100
AcDbLine
 10
-630.29276
 20
-209.283035
 30
0.0
 11
-425.29276
 21
-209.283035
 31
0.0
  0
LINE
  5
2B5
100
AcDbEntity
  8
0
370
    -3
390
0
  6
Continuous
100
AcDbLine
 10
-630.29276
 20
-196.391453
 30
0.0
 11
-425.29276
 21
-196.391453
 31
0.0
  0
LINE
  5
2B6
100
AcDbEntity
  8
0
370
    -3
390
0
  6
Continuous
100
AcDbLine
 10
-630.29276
 20
-190.891453
 30
0.0
 11
-425.29276
 21
-190.891453
 31
0.0
  0
LINE
  5
2B7
100
AcDbEntity
  8
0
370
    -3
390
0
  6
Continuous
100
AcDbLine
 10
-630.29276
 20
-186.391453
 30
0.0
 11
-425.29276
 21
-186.391453
 31
0.0
  0
LINE
  5
2B8
100
AcDbEntity
  8
0
370
    -3
390
0
  6
Continuous
100
AcDbLine
 10
-630.29276
 20
-187.391453
 30
0.0
 11
-425.29276
 21
-187.391453
 31
0.0
  0
LINE
  5
2B9
100
AcDbEntity
  8
0
370
    -3
390
0
  6
Continuous
100
AcDbLine
 10
-630.29276
 20
-182.391453
 30
0.0
 11
-425.29276
 21
-182.391453
 31
0.0
  0
LINE
  5
2BA
100
AcDbEntity
  8
0
370
    -3
390
0
  6
Continuous
100
AcDbLine
 10
-568.84276
 20
-345.879504
 30
0.0
 11
-425.29276
 21
-345.879504
 31
0.0
  0
LINE
  5
2BB
100
AcDbEntity
  8
0
370
    -3
390
0
  6
Continuous
100
AcDbLine
 10
-572.873535
 20
-354.908141
 30
0.0
 11
-425.29276
 21
-354.908141
 31
0.0
  0
LINE
  5
2BC
100
AcDbEntity
  8
0
370
    -3
390
0
  6
Continuous
100
AcDbLine
 10
-568.84276
 20
-342.963946
 30
0.0
 11
-425.29276
 21
-342.963946
 31
0.0
  0
LINE
  5
2BD
100
AcDbEntity
  8
0
370
    -3
390
0
  6
Continuous
100
AcDbLine
 10
-568.84276
 20
-331.105141
 30
0.0
 11
-425.29276
 21
-331.105141
 31
0.0
  0
LINE
  5
2BE
100
AcDbEntity
  8
0
370
    -3
390
0
  6
Continuous
100
AcDbLine
 10
-568.84276
 20
-333.710167
 30
0.0
 11
-425.29276
 21
-333.710167
 31
0.0
  0
LINE
  5
2BF
100
AcDbEntity
  8
0
370
    -3
390
0
  6
Continuous
100
AcDbLine
 10
-568.84276
 20
-320.391453
 30
0.0
 11
-425.29276
 21
-320.391453
 31
0.0
  0
LINE
  5
2C0
100
AcDbEntity
  8
0
370
    -3
390
0
  6
Continuous
100
AcDbLine
 10
-630.29276
 20
-357.862621
 30
0.0
 11
-425.29276
 21
-357.862621
 31
0.0
  0
LINE
  5
2C1
100
AcDbEntity
  8
0
370
    -3
390
0
  6
Continuous
100
AcDbLine
 10
-630.29276
 20
-374.307482
 30
0.0
 11
-425.29276
 21
-374.307482
 31
0.0
  0
LINE
  5
2C2
100
AcDbEntity
  8
0
370
    -3
390
0
  6
Continuous
100
AcDbLine
 10
-568.84276
 20
-272.391453
 30
0.0
 11
-425.29276
 21
-272.391453
 31
0.0
  0
LINE
  5
2C3
100
AcDbEntity
  8
0
370
    -3
390
0
  6
Continuous
100
AcDbLine
 10
-569.293645
 20
-261.677765
 30
0.0
 11
-425.29276
 21
-261.677765
 31
0.0
  0
LINE
  5
2C4
100
AcDbEntity
  8
0
370
    -3
390
0
  6
Continuous
100
AcDbLine
 10
-570.448214
 20
-259.072739
 30
0.0
 11
-425.29276
 21
-259.072739
 31
0.0
  0
LINE
  5
2C5
100
AcDbEntity
  8
0
370
    -3
390
0
  6
Continuous
100
AcDbLine
 10
-630.29276
 20
-249.81896
 30
0.0
 11
-425.29276
 21
-249.81896
 31
0.0
  0
LINE
  5
2C6
100
AcDbEntity
  8
0
370
    -3
390
0
  6
Continuous
100
AcDbLine
 10
-630.29276
 20
-246.903402
 30
0.0
 11
-425.29276
 21
-246.903402
 31
0.0
  0
LINE
  5
2C7
100
AcDbEntity
  8
0
370
    -3
390
0
  6
Continuous
100
AcDbLine
 10
-630.29276
 20
-237.874765
 30
0.0
 11
-425.29276
 21
-237.874765
 31
0.0
  0
LINE
  5
2C8
100
AcDbEntity
  8
0
370
    -3
390
0
  6
Continuous
100
AcDbLine
 10
-630.29276
 20
-234.920285
 30
0.0
 11
-425.29276
 21
-234.920285
 31
0.0
  0
LINE
  5
2C9
100
AcDbEntity
  8
0
370
    -3
390
0
  6
Continuous
100
AcDbLine
 10
-425.29276
 20
-284.391453
 30
0.0
 11
-425.29276
 21
-182.391453
 31
0.0
  0
ARC
  5
2CA
100
AcDbEntity
  8
0
370
    -3
390
0
  6
Continuous
100
AcDbCircle
 10
-650.34276
 20
-271.391453
 30
0.0
 40
5.0
100
AcDbArc
 50
90.0
 51
180.0
  0
LINE
  5
2CB
100
AcDbEntity
  8
0
370
    -3
390
0
  6
Continuous
100
AcDbLine
 10
-650.74276
 20
-253.794845
 30
0.0
 11
-615.29276
 21
-253.794845
 31
0.0
  0
ARC
  5
2CC
100
AcDbEntity
  8
0
370
    -3
390
0
  6
Continuous
100
AcDbCircle
 10
-650.74276
 20
-264.794845
 30
0.0
 40
11.0
100
AcDbArc
 50
90.0
 51
180.0
  0
LINE
  5
2CD
100
AcDbEntity
  8
0
370
    -3
390
0
  6
Continuous
100
AcDbLine
 10
-615.29276
 20
-259.889663
 30
0.0
 11
-650.34276
 21
-259.889663
 31
0.0
  0
ARC
  5
2CE
100
AcDbEntity
  8
0
370
    -3
390
0
  6
Continuous
100
AcDbCircle
 10
-650.34276
 20
-264.889663
 30
0.0
 40
5.0
100
AcDbArc
 50
90.0
 51
180.0
  0
LINE
  5
2CF
100
AcDbEntity
  8
0
370
    -3
390
0
  6
Continuous
100
AcDbLine
 10
-655.34276
 20
-264.889663
 30
0.0
 11
-655.34276
 21
-340.967408
 31
0.0
  0
LINE
  5
2D0
100
AcDbEntity
  8
0
370
    -3
390
0
  6
Continuous
100
AcDbLine
 10
-661.74276
 20
-264.794845
 30
0.0
 11
-661.74276
 21
-346.397565
 31
0.0
  0
LINE
  5
2D1
100
AcDbEntity
  8
0
370
    -3
390
0
  6
Continuous
100
AcDbLine
 10
-650.34276
 20
-266.391453
 30
0.0
 11
-580.24276
 21
-266.391453
 31
0.0
  0
LINE
  5
2D2
100
AcDbEntity
  8
0
370
    -3
390
0
  6
Continuous
100
AcDbLine
 10
-650.74276
 20
-357.397565
 30
0.0
 11
-615.29276
 21
-357.397565
 31
0.0
  0
LINE
  5
2D3
100
AcDbEntity
  8
0
370
    -3
390
0
  6
Continuous
100
AcDbLine
 10
-650.74276
 20
-356.177355
 30
0.0
 11
-615.29276
 21
-356.177355
 31
0.0
  0
ARC
  5
2D4
100
AcDbEntity
  8
0
370
    -3
390
0
  6
Continuous
100
AcDbCircle
 10
-650.74276
 20
-345.177355
 30
0.0
 40
11.0
100
AcDbArc
 50
180.0
 51
270.0
  0
ARC
  5
2D5
100
AcDbEntity
  8
0
370
    -3
390
0
  6
Continuous
100
AcDbCircle
 10
-650.74276
 20
-346.397565
 30
0.0
 40
11.0
100
AcDbArc
 50
180.0
 51
270.0
  0
LINE
  5
2D6
100
AcDbEntity
  8
0
370
    -3
390
0
  6
Continuous
100
AcDbLine
 10
-623.780234
 20
-345.967408
 30
0.0
 11
-650.34276
 21
-345.967408
 31
0.0
  0
ARC
  5
2D7
100
AcDbEntity
  8
0
370
    -3
390
0
  6
Continuous
100
AcDbCircle
 10
-650.34276
 20
-340.967408
 30
0.0
 40
5.0
100
AcDbArc
 50
180.0
 51
270.0
  0
ARC
  5
2D8
100
AcDbEntity
  8
0
370
    -3
390
0
  6
Continuous
100
AcDbCircle
 10
-606.032542
 20
-341.967408
 30
0.0
 40
4.0
100
AcDbArc
 50
221.178434
 51
270.0
  0
ELLIPSE
  5
2D9
100
AcDbEntity
  8
0
370
    -3
390
0
  6
Continuous
100
AcDbEllipse
 10
-615.29276
 20
-349.163542
 30
0.0
 11
8.0
 21
0.0
 31
0.0
210
0.0
220
0.0
230
1.0
 40
0.913545
 41
0.6742171987028656
 42
1.5707963267948966
  0
ARC
  5
2DA
100
AcDbEntity
  8
0
370
    -3
390
0
  6
Continuous
100
AcDbCircle
 10
-606.805286
 20
-341.967408
 30
0.0
 40
4.0
100
AcDbArc
 50
226.698421
 51
270.0
  0
ELLIPSE
  5
2DB
100
AcDbEntity
  8
0
370
    -3
390
0
  6
Continuous
100
AcDbEllipse
 10
-615.29276
 20
-349.965246
 30
0.0
 11
8.0
 21
0.0
 31
0.0
210
0.0
220
0.0
230
1.0
 40
0.913545
 41
0.7698500149202718
 42
1.5707963267948966
  0
ELLIPSE
  5
2DC
100
AcDbEntity
  8
0
370
    -3
390
0
  6
Continuous
100
AcDbEllipse
 10
-615.29276
 20
-349.709947
 30
0.0
 11
3.5
 21
0.0
 31
0.0
210
0.0
220
0.0
230
1.0
 40
0.986488
 41
0.0
 42
6.2831853071795862
  0
LINE
  5
2DD
100
AcDbEntity
  8
0
370
    -3
390
0
  6
Continuous
100
AcDbLine
 10
-617.29276
 20
-350.826351
 30
0.0
 11
-613.29276
 21
-347.172169
 31
0.0
  0
LINE
  5
2DE
100
AcDbEntity
  8
0
370
    -3
390
0
  6
Continuous
100
AcDbLine
 10
-613.29276
 20
-350.826351
 30
0.0
 11
-617.29276
 21
-347.172169
 31
0.0
  0
ELLIPSE
  5
2DF
100
AcDbEntity
  8
0
370
    -3
390
0
  6
Continuous
100
AcDbEllipse
 10
-615.29276
 20
-349.965246
 30
0.0
 11
8.0
 21
0.0
 31
0.0
210
0.0
220
0.0
230
1.0
 40
0.913545
 41
1.5707963267948966
 42
2.3717426386695215
  0
ARC
  5
2E0
100
AcDbEntity
  8
0
370
    -3
390
0
  6
Continuous
100
AcDbCircle
 10
-623.780234
 20
-341.967408
 30
0.0
 40
4.0
100
AcDbArc
 50
270.0
 51
313.301579
  0
ELLIPSE
  5
2E1
100
AcDbEntity
  8
0
370
    -3
390
0
  6
Continuous
100
AcDbEllipse
 10
-615.29276
 20
-349.163542
 30
0.0
 11
8.0
 21
0.0
 31
0.0
210
0.0
220
0.0
230
1.0
 40
0.913545
 41
1.5707963267948966
 42
2.4673754548869451
  0
ARC
  5
2E2
100
AcDbEntity
  8
0
370
    -3
390
0
  6
Continuous
100
AcDbCircle
 10
-624.552978
 20
-341.967408
 30
0.0
 40
4.0
100
AcDbArc
 50
270.0
 51
318.821566
  0
LINE
  5
2E3
100
AcDbEntity
  8
0
370
    -3
390
0
  6
Continuous
100
AcDbLine
 10
-606.805286
 20
-345.967408
 30
0.0
 11
-580.24276
 21
-345.967408
 31
0.0
  0
LINE
  5
2E4
100
AcDbEntity
  8
0
370
    -3
390
0
  6
CENTER
100
AcDbLine
 10
-615.29276
 20
-250.891853
 30
0.0
 11
-615.29276
 21
-363.545572
 31
0.0
  0
POINT
  5
2E5
100
AcDbEntity
  8
0
370
    -3
390
0
  6
CENTER
100
AcDbPoint
 10
-601.79276
 20
-356.177355
 30
0.0
  0
POINT
  5
2E6
100
AcDbEntity
  8
0
370
    -3
390
0
  6
CENTER
100
AcDbPoint
 10
-628.79276
 20
-356.177355
 30
0.0
  0
LINE
  5
2E7
100
AcDbEntity
  8
0
370
    -3
390
0
  6
Continuous
100
AcDbLine
 10
-579.84276
 20
-253.794845
 30
0.0
 11
-615.29276
 21
-253.794845
 31
0.0
  0
ARC
  5
2E8
100
AcDbEntity
  8
0
370
    -3
390
0
  6
Continuous
100
AcDbCircle
 10
-579.84276
 20
-264.794845
 30
0.0
 40
11.0
100
AcDbArc
 50
0.0
 51
90.0
  0
ARC
  5
2E9
100
AcDbEntity
  8
0
370
    -3
390
0
  6
Continuous
100
AcDbCircle
 10
-580.24276
 20
-271.391453
 30
0.0
 40
5.0
100
AcDbArc
 50
0.0
 51
90.0
  0
ARC
  5
2EA
100
AcDbEntity
  8
0
370
    -3
390
0
  6
Continuous
100
AcDbCircle
 10
-580.24276
 20
-264.889663
 30
0.0
 40
5.0
100
AcDbArc
 50
0.0
 51
90.0
  0
LINE
  5
2EB
100
AcDbEntity
  8
0
370
    -3
390
0
  6
Continuous
100
AcDbLine
 10
-615.29276
 20
-259.889663
 30
0.0
 11
-580.24276
 21
-259.889663
 31
0.0
  0
LINE
  5
2EC
100
AcDbEntity
  8
0
370
    -3
390
0
  6
Continuous
100
AcDbLine
 10
-575.24276
 20
-264.889663
 30
0.0
 11
-575.24276
 21
-340.967408
 31
0.0
  0
LINE
  5
2ED
100
AcDbEntity
  8
0
370
    -3
390
0
  6
Continuous
100
AcDbLine
 10
-568.84276
 20
-264.794845
 30
0.0
 11
-568.84276
 21
-346.397565
 31
0.0
  0
LINE
  5
2EE
100
AcDbEntity
  8
0
370
    -3
390
0
  6
Continuous
100
AcDbLine
 10
-579.84276
 20
-357.397565
 30
0.0
 11
-615.29276
 21
-357.397565
 31
0.0
  0
LINE
  5
2EF
100
AcDbEntity
  8
0
370
    -3
390
0
  6
Continuous
100
AcDbLine
 10
-579.84276
 20
-356.177355
 30
0.0
 11
-615.29276
 21
-356.177355
 31
0.0
  0
ARC
  5
2F0
100
AcDbEntity
  8
0
370
    -3
390
0
  6
Continuous
100
AcDbCircle
 10
-579.84276
 20
-346.397565
 30
0.0
 40
11.0
100
AcDbArc
 50
270.0
 51
0.0
  0
ARC
  5
2F1
100
AcDbEntity
  8
0
370
    -3
390
0
  6
Continuous
100
AcDbCircle
 10
-579.84276
 20
-345.177355
 30
0.0
 40
11.0
100
AcDbArc
 50
270.0
 51
0.0
  0
ARC
  5
2F2
100
AcDbEntity
  8
0
370
    -3
390
0
  6
Continuous
100
AcDbCircle
 10
-580.24276
 20
-340.967408
 30
0.0
 40
5.0
100
AcDbArc
 50
270.0
 51
0.0
  0
LINE
  5
2F3
100
AcDbEntity
  8
0
370
    -3
390
0
  6
CENTER
100
AcDbLine
 10
352.405642
 20
3.823017
 30
0.0
 11
352.405642
 21
-518.203938
 31
0.0
  0
LINE
  5
2F4
100
AcDbEntity
  8
0
370
    -3
390
0
  6
Continuous
100
AcDbLine
 10
361.905642
 20
-17.391453
 30
0.0
 11
352.405642
 21
-17.391453
 31
0.0
  0
LINE
  5
2F5
100
AcDbEntity
  8
0
370
    -3
390
0
  6
Continuous
100
AcDbLine
 10
342.905642
 20
-17.391453
 30
0.0
 11
352.405642
 21
-17.391453
 31
0.0
  0
LINE
  5
2F6
100
AcDbEntity
  8
0
370
    -3
390
0
  6
Continuous
100
AcDbLine
 10
367.655642
 20
-14.391453
 30
0.0
 11
352.405642
 21
-14.391453
 31
0.0
  0
ARC
  5
2F7
100
AcDbEntity
  8
0
370
    -3
390
0
  6
Continuous
100
AcDbCircle
 10
361.905642
 20
-15.891453
 30
0.0
 40
1.5
100
AcDbArc
 50
270.0
 51
0.0
  0
ARC
  5
2F8
100
AcDbEntity
  8
0
370
    -3
390
0
  6
Continuous
100
AcDbCircle
 10
361.905642
 20
-15.891453
 30
0.0
 40
1.5
100
AcDbArc
 50
0.0
 51
90.0
  0
LINE
  5
2F9
100
AcDbEntity
  8
0
370
    -3
390
0
  6
Continuous
100
AcDbLine
 10
365.405642
 20
2.608547
 30
0.0
 11
352.405642
 21
2.608547
 31
0.0
  0
LINE
  5
2FA
100
AcDbEntity
  8
0
370
    -3
390
0
  6
Continuous
100
AcDbLine
 10
365.405642
 20
2.608547
 30
0.0
 11
366.905642
 21
0.608547
 31
0.0
  0
LINE
  5
2FB
100
AcDbEntity
  8
0
370
    -3
390
0
  6
Continuous
100
AcDbLine
 10
368.405642
 20
-10.391453
 30
0.0
 11
368.405642
 21
0.608547
 31
0.0
  0
LINE
  5
2FC
100
AcDbEntity
  8
0
370
    -3
390
0
  6
Continuous
100
AcDbLine
 10
368.405642
 20
-10.391453
 30
0.0
 11
352.405642
 21
-10.391453
 31
0.0
  0
LINE
  5
2FD
100
AcDbEntity
  8
0
370
    -3
390
0
  6
Continuous
100
AcDbLine
 10
365.405642
 20
2.608547
 30
0.0
 11
366.905642
 21
0.608547
 31
0.0
  0
LINE
  5
2FE
100
AcDbEntity
  8
0
370
    -3
390
0
  6
Continuous
100
AcDbLine
 10
368.405642
 20
-10.391453
 30
0.0
 11
368.405642
 21
0.608547
 31
0.0
  0
LINE
  5
2FF
100
AcDbEntity
  8
0
370
    -3
390
0
  6
Continuous
100
AcDbLine
 10
368.405642
 20
-9.391453
 30
0.0
 11
367.922309
 21
-9.391453
 31
0.0
  0
LINE
  5
300
100
AcDbEntity
  8
0
370
    -3
390
0
  6
Continuous
100
AcDbLine
 10
367.655642
 20
-11.391453
 30
0.0
 11
367.655642
 21
-14.391453
 31
0.0
  0
LINE
  5
301
100
AcDbEntity
  8
0
370
    -3
390
0
  6
Continuous
100
AcDbLine
 10
367.655642
 20
-11.391453
 30
0.0
 11
352.405642
 21
-11.391453
 31
0.0
  0
LINE
  5
302
100
AcDbEntity
  8
0
370
    -3
390
0
  6
Continuous
100
AcDbLine
 10
356.308597
 20
0.608547
 30
0.0
 11
356.308597
 21
-9.391453
 31
0.0
  0
LINE
  5
303
100
AcDbEntity
  8
0
370
    -3
390
0
  6
Continuous
100
AcDbLine
 10
360.617777
 20
0.608547
 30
0.0
 11
360.617777
 21
-9.391453
 31
0.0
  0
LINE
  5
304
100
AcDbEntity
  8
0
370
    -3
390
0
  6
Continuous
100
AcDbLine
 10
356.308597
 20
-9.391453
 30
0.0
 11
352.405642
 21
-9.391453
 31
0.0
  0
LINE
  5
305
100
AcDbEntity
  8
0
370
    -3
390
0
  6
Continuous
100
AcDbLine
 10
368.405642
 20
0.608547
 30
0.0
 11
352.405642
 21
0.608547
 31
0.0
  0
LINE
  5
306
100
AcDbEntity
  8
0
370
    -3
390
0
  6
Continuous
100
AcDbLine
 10
366.137388
 20
0.608547
 30
0.0
 11
366.137388
 21
-9.391453
 31
0.0
  0
LINE
  5
307
100
AcDbEntity
  8
0
370
    -3
390
0
  6
Continuous
100
AcDbLine
 10
367.922309
 20
0.608547
 30
0.0
 11
367.922309
 21
-9.391453
 31
0.0
  0
LINE
  5
308
100
AcDbEntity
  8
0
370
    -3
390
0
  6
Continuous
100
AcDbLine
 10
366.137388
 20
-9.391453
 30
0.0
 11
360.617777
 21
-9.391453
 31
0.0
  0
LINE
  5
309
100
AcDbEntity
  8
0
370
    -3
390
0
  6
Continuous
100
AcDbLine
 10
365.405642
 20
-11.391453
 30
0.0
 11
365.405642
 21
-10.391453
 31
0.0
  0
LINE
  5
30A
100
AcDbEntity
  8
0
370
    -3
390
0
  6
Continuous
100
AcDbLine
 10
348.502687
 20
0.608547
 30
0.0
 11
348.502687
 21
-9.391453
 31
0.0
  0
LINE
  5
30B
100
AcDbEntity
  8
0
370
    -3
390
0
  6
Continuous
100
AcDbLine
 10
348.502687
 20
-9.391453
 30
0.0
 11
352.405642
 21
-9.391453
 31
0.0
  0
LINE
  5
30C
100
AcDbEntity
  8
0
370
    -3
390
0
  6
Continuous
100
AcDbLine
 10
336.405642
 20
-10.391453
 30
0.0
 11
352.405642
 21
-10.391453
 31
0.0
  0
LINE
  5
30D
100
AcDbEntity
  8
0
370
    -3
390
0
  6
Continuous
100
AcDbLine
 10
339.405642
 20
2.608547
 30
0.0
 11
352.405642
 21
2.608547
 31
0.0
  0
LINE
  5
30E
100
AcDbEntity
  8
0
370
    -3
390
0
  6
Continuous
100
AcDbLine
 10
337.155642
 20
-11.391453
 30
0.0
 11
352.405642
 21
-11.391453
 31
0.0
  0
LINE
  5
30F
100
AcDbEntity
  8
0
370
    -3
390
0
  6
Continuous
100
AcDbLine
 10
336.405642
 20
0.608547
 30
0.0
 11
352.405642
 21
0.608547
 31
0.0
  0
LINE
  5
310
100
AcDbEntity
  8
0
370
    -3
390
0
  6
Continuous
100
AcDbLine
 10
337.155642
 20
-14.391453
 30
0.0
 11
352.405642
 21
-14.391453
 31
0.0
  0
ARC
  5
311
100
AcDbEntity
  8
0
370
    -3
390
0
  6
Continuous
100
AcDbCircle
 10
342.905642
 20
-15.891453
 30
0.0
 40
1.5
100
AcDbArc
 50
180.0
 51
270.0
  0
ARC
  5
312
100
AcDbEntity
  8
0
370
    -3
390
0
  6
Continuous
100
AcDbCircle
 10
342.905642
 20
-15.891453
 30
0.0
 40
1.5
100
AcDbArc
 50
90.0
 51
180.0
  0
LINE
  5
313
100
AcDbEntity
  8
0
370
    -3
390
0
  6
Continuous
100
AcDbLine
 10
339.405642
 20
2.608547
 30
0.0
 11
337.905642
 21
0.608547
 31
0.0
  0
LINE
  5
314
100
AcDbEntity
  8
0
370
    -3
390
0
  6
Continuous
100
AcDbLine
 10
336.405642
 20
-10.391453
 30
0.0
 11
336.405642
 21
0.608547
 31
0.0
  0
LINE
  5
315
100
AcDbEntity
  8
0
370
    -3
390
0
  6
Continuous
100
AcDbLine
 10
339.405642
 20
2.608547
 30
0.0
 11
337.905642
 21
0.608547
 31
0.0
  0
LINE
  5
316
100
AcDbEntity
  8
0
370
    -3
390
0
  6
Continuous
100
AcDbLine
 10
336.405642
 20
-10.391453
 30
0.0
 11
336.405642
 21
0.608547
 31
0.0
  0
LINE
  5
317
100
AcDbEntity
  8
0
370
    -3
390
0
  6
Continuous
100
AcDbLine
 10
336.405642
 20
-9.391453
 30
0.0
 11
336.888975
 21
-9.391453
 31
0.0
  0
LINE
  5
318
100
AcDbEntity
  8
0
370
    -3
390
0
  6
Continuous
100
AcDbLine
 10
337.155642
 20
-11.391453
 30
0.0
 11
337.155642
 21
-14.391453
 31
0.0
  0
LINE
  5
319
100
AcDbEntity
  8
0
370
    -3
390
0
  6
Continuous
100
AcDbLine
 10
344.193508
 20
0.608547
 30
0.0
 11
344.193508
 21
-9.391453
 31
0.0
  0
LINE
  5
31A
100
AcDbEntity
  8
0
370
    -3
390
0
  6
Continuous
100
AcDbLine
 10
338.673896
 20
0.608547
 30
0.0
 11
338.673896
 21
-9.391453
 31
0.0
  0
LINE
  5
31B
100
AcDbEntity
  8
0
370
    -3
390
0
  6
Continuous
100
AcDbLine
 10
336.888975
 20
0.608547
 30
0.0
 11
336.888975
 21
-9.391453
 31
0.0
  0
LINE
  5
31C
100
AcDbEntity
  8
0
370
    -3
390
0
  6
Continuous
100
AcDbLine
 10
338.673896
 20
-9.391453
 30
0.0
 11
344.193508
 21
-9.391453
 31
0.0
  0
LINE
  5
31D
100
AcDbEntity
  8
0
370
    -3
390
0
  6
Continuous
100
AcDbLine
 10
339.405642
 20
-11.391453
 30
0.0
 11
339.405642
 21
-10.391453
 31
0.0
  0
ARC
  5
31E
100
AcDbEntity
  8
0
370
    -3
390
0
  6
DASHED
100
AcDbCircle
 10
224.405642
 20
-337.891453
 30
0.0
 40
5.0
100
AcDbArc
 50
270.0
 51
0.0
  0
LINE
  5
31F
100
AcDbEntity
  8
0
370
    -3
390
0
  6
DASHED
100
AcDbLine
 10
224.405642
 20
-342.891453
 30
0.0
 11
188.986417
 21
-342.891453
 31
0.0
  0
LINE
  5
320
100
AcDbEntity
  8
0
370
    -3
390
0
  6
DASHED
100
AcDbLine
 10
228.100206
 20
-255.040445
 30
0.0
 11
182.383007
 21
-357.722954
 31
0.0
  0
LINE
  5
321
100
AcDbEntity
  8
0
370
    -3
390
0
  6
DASHED
100
AcDbLine
 10
229.405642
 20
-263.699848
 30
0.0
 11
229.405642
 21
-337.891453
 31
0.0
  0
ARC
  5
322
100
AcDbEntity
  8
0
370
    -3
390
0
  6
DASHED
100
AcDbCircle
 10
225.135542
 20
-254.815127
 30
0.0
 40
1.0
100
AcDbArc
 50
66.0
 51
156.0
  0
LINE
  5
323
100
AcDbEntity
  8
0
370
    -3
390
0
  6
DASHED
100
AcDbLine
 10
227.346213
 20
-256.73394
 30
0.0
 11
227.771045
 21
-257.734782
 31
0.0
  0
LINE
  5
324
100
AcDbEntity
  8
0
370
    -3
390
0
  6
DASHED
100
AcDbLine
 10
226.901299
 20
-257.733233
 30
0.0
 11
227.034641
 21
-258.047367
 31
0.0
  0
LINE
  5
325
100
AcDbEntity
  8
0
370
    -3
390
0
  6
DASHED
100
AcDbLine
 10
227.771045
 20
-257.734782
 30
0.0
 11
227.034641
 21
-258.047367
 31
0.0
  0
LINE
  5
326
100
AcDbEntity
  8
0
370
    -3
390
0
  6
DASHED
100
AcDbLine
 10
224.221997
 20
-254.408391
 30
0.0
 11
205.529933
 21
-296.391453
 31
0.0
  0
LINE
  5
327
100
AcDbEntity
  8
0
370
    -3
390
0
  6
DASHED
100
AcDbLine
 10
225.542279
 20
-253.901582
 30
0.0
 11
228.100206
 21
-255.040445
 31
0.0
  0
LINE
  5
328
100
AcDbEntity
  8
0
370
    -3
390
0
  6
DASHED
100
AcDbLine
 10
225.822481
 20
-260.156299
 30
0.0
 11
227.625852
 21
-260.959212
 31
0.0
  0
ARC
  5
329
100
AcDbEntity
  8
0
370
    -3
390
0
  6
DASHED
100
AcDbCircle
 10
226.405642
 20
-263.699848
 30
0.0
 40
3.0
100
AcDbArc
 50
0.0
 51
66.0
  0
LINE
  5
32A
100
AcDbEntity
  8
0
370
    -3
390
0
  6
DASHED
100
AcDbLine
 10
220.184829
 20
-260.15166
 30
0.0
 11
194.229192
 21
-264.410489
 31
0.0
  0
ARC
  5
32B
100
AcDbEntity
  8
0
370
    -3
390
0
  6
DASHED
100
AcDbCircle
 10
219.699081
 20
-257.191246
 30
0.0
 40
3.0
100
AcDbArc
 50
279.318123
 51
336.0
  0
LINE
  5
32C
100
AcDbEntity
  8
0
370
    -3
390
0
  6
DASHED
100
AcDbLine
 10
184.477701
 20
-353.018195
 30
0.0
 11
188.314592
 21
-354.726489
 31
0.0
  0
LINE
  5
32D
100
AcDbEntity
  8
0
370
    -3
390
0
  6
DASHED
100
AcDbLine
 10
185.819932
 20
-350.003495
 30
0.0
 11
189.656823
 21
-351.711789
 31
0.0
  0
LINE
  5
32E
100
AcDbEntity
  8
0
370
    -3
390
0
  6
DASHED
100
AcDbLine
 10
189.47944
 20
-351.24969
 30
0.0
 11
189.656823
 21
-351.711789
 31
0.0
  0
LINE
  5
32F
100
AcDbEntity
  8
0
370
    -3
390
0
  6
DASHED
100
AcDbLine
 10
187.852493
 20
-354.903872
 30
0.0
 11
188.314592
 21
-354.726489
 31
0.0
  0
LINE
  5
330
100
AcDbEntity
  8
0
370
    -3
390
0
  6
DASHED
100
AcDbLine
 10
189.656823
 20
-351.711789
 30
0.0
 11
188.314592
 21
-354.726489
 31
0.0
  0
POINT
  5
331
100
AcDbEntity
  8
0
370
    -3
390
0
  6
DASHED
100
AcDbPoint
 10
181.677344
 20
-349.965246
 30
0.0
  0
LINE
  5
332
100
AcDbEntity
  8
0
370
    -3
390
0
  6
DASHED
100
AcDbLine
 10
205.529933
 20
-296.391453
 30
0.0
 11
179.318271
 21
-355.263809
 31
0.0
  0
LINE
  5
333
100
AcDbEntity
  8
0
370
    -3
390
0
  6
DASHED
100
AcDbLine
 10
180.253766
 20
-353.162655
 30
0.0
 11
179.359381
 21
-352.764449
 31
0.0
  0
LINE
  5
334
100
AcDbEntity
  8
0
370
    -3
390
0
  6
DASHED
100
AcDbLine
 10
183.100922
 20
-346.767836
 30
0.0
 11
182.206538
 21
-346.369631
 31
0.0
  0
ARC
  5
335
100
AcDbEntity
  8
0
370
    -3
390
0
  6
DASHED
100
AcDbCircle
 10
181.677781
 20
-347.557239
 30
0.0
 40
1.299999
100
AcDbArc
 50
65.999999
 51
139.398469
  0
ARC
  5
336
100
AcDbEntity
  8
0
370
    -3
390
0
  6
DASHED
100
AcDbCircle
 10
781.405642
 20
-296.391453
 30
0.0
 40
600.0
100
AcDbArc
 50
178.317231
 51
184.715125
  0
ARC
  5
337
100
AcDbEntity
  8
0
370
    -3
390
0
  6
DASHED
100
AcDbCircle
 10
182.439593
 20
-345.794612
 30
0.0
 40
1.0
100
AcDbArc
 50
336.0
 51
4.715125
  0
LINE
  5
338
100
AcDbEntity
  8
0
370
    -3
390
0
  6
DASHED
100
AcDbLine
 10
179.82508
 20
-356.584091
 30
0.0
 11
182.383007
 21
-357.722954
 31
0.0
  0
ARC
  5
339
100
AcDbEntity
  8
0
370
    -3
390
0
  6
DASHED
100
AcDbCircle
 10
180.231817
 20
-355.670546
 30
0.0
 40
1.0
100
AcDbArc
 50
156.0
 51
246.0
  0
ARC
  5
33A
100
AcDbEntity
  8
0
370
    -3
390
0
  6
DASHED
100
AcDbCircle
 10
183.610955
 20
-343.163691
 30
0.0
 40
1.0
100
AcDbArc
 50
336.0
 51
66.0
  0
ARC
  5
33B
100
AcDbEntity
  8
0
370
    -3
390
0
  6
DASHED
100
AcDbCircle
 10
185.035629
 20
-340.514087
 30
0.0
 40
2.0
100
AcDbArc
 50
184.231338
 51
246.0
  0
LINE
  5
33C
100
AcDbEntity
  8
0
370
    -3
390
0
  6
DASHED
100
AcDbLine
 10
185.96229
 20
-349.683754
 30
0.0
 11
189.47944
 21
-351.24969
 31
0.0
  0
LINE
  5
33D
100
AcDbEntity
  8
0
370
    -3
390
0
  6
DASHED
100
AcDbLine
 10
184.335343
 20
-353.337936
 30
0.0
 11
187.852493
 21
-354.903872
 31
0.0
  0
LINE
  5
33E
100
AcDbEntity
  8
0
370
    -3
390
0
  6
CENTER
100
AcDbLine
 10
205.405642
 20
-328.508929
 30
0.0
 11
205.405642
 21
-351.377438
 31
0.0
  0
ARC
  5
33F
100
AcDbEntity
  8
0
370
    -3
390
0
  6
DASHED
100
AcDbCircle
 10
179.888139
 20
-351.576841
 30
0.0
 40
1.299999
100
AcDbArc
 50
172.601548
 51
246.000018
  0
ARC
  5
340
100
AcDbEntity
  8
0
370
    -3
390
0
  6
DASHED
100
AcDbCircle
 10
187.524034
 20
-352.56836
 30
0.0
 40
9.0
100
AcDbArc
 50
139.398469
 51
172.601548
  0
ARC
  5
341
100
AcDbEntity
  8
0
370
    -3
390
0
  6
DASHED
100
AcDbCircle
 10
196.657931
 20
-279.212557
 30
0.0
 40
15.0
100
AcDbArc
 50
99.318123
 51
178.317231
  0
LINE
  5
342
100
AcDbEntity
  8
0
370
    -3
390
0
  6
CENTER
100
AcDbLine
 10
387.562029
 20
-296.391453
 30
0.0
 11
315.309973
 21
-296.391453
 31
0.0
  0
ARC
  5
343
100
AcDbEntity
  8
0
370
    -3
390
0
  6
Continuous
100
AcDbCircle
 10
352.405642
 20
-197.391453
 30
0.0
 40
40.0
100
AcDbArc
 50
105.962014
 51
270.0
  0
LINE
  5
344
100
AcDbEntity
  8
0
370
    -3
390
0
  6
Continuous
100
AcDbLine
 10
341.405642
 20
-152.391453
 30
0.0
 11
341.405642
 21
-166.391453
 31
0.0
  0
LINE
  5
345
100
AcDbEntity
  8
0
370
    -3
390
0
  6
Continuous
100
AcDbLine
 10
352.405642
 20
-152.391453
 30
0.0
 11
341.405642
 21
-152.391453
 31
0.0
  0
LINE
  5
346
100
AcDbEntity
  8
0
370
    -3
390
0
  6
Continuous
100
AcDbLine
 10
352.405642
 20
-166.391453
 30
0.0
 11
341.405642
 21
-166.391453
 31
0.0
  0
LINE
  5
347
100
AcDbEntity
  8
0
370
    -3
390
0
  6
Continuous
100
AcDbLine
 10
363.405642
 20
-152.391453
 30
0.0
 11
363.405642
 21
-166.391453
 31
0.0
  0
LINE
  5
348
100
AcDbEntity
  8
0
370
    -3
390
0
  6
Continuous
100
AcDbLine
 10
352.405642
 20
-152.391453
 30
0.0
 11
363.405642
 21
-152.391453
 31
0.0
  0
LINE
  5
349
100
AcDbEntity
  8
0
370
    -3
390
0
  6
Continuous
100
AcDbLine
 10
352.405642
 20
-166.391453
 30
0.0
 11
363.405642
 21
-166.391453
 31
0.0
  0
ARC
  5
34A
100
AcDbEntity
  8
0
370
    -3
390
0
  6
Continuous
100
AcDbCircle
 10
352.405642
 20
-197.391453
 30
0.0
 40
40.0
100
AcDbArc
 50
270.0
 51
74.037986
  0
ARC
  5
34B
100
AcDbEntity
  8
0
370
    -3
390
0
  6
Continuous
100
AcDbCircle
 10
187.529998
 20
-458.391453
 30
0.0
 40
6.0
100
AcDbArc
 50
60.0
 51
90.0
  0
ARC
  5
34C
100
AcDbEntity
  8
0
370
    -3
390
0
  6
Continuous
100
AcDbCircle
 10
183.36419
 20
-446.391453
 30
0.0
 40
6.0
100
AcDbArc
 50
270.0
 51
330.0
  0
ARC
  5
34D
100
AcDbEntity
  8
0
370
    -3
390
0
  6
Continuous
100
AcDbCircle
 10
517.281287
 20
-458.391453
 30
0.0
 40
6.0
100
AcDbArc
 50
90.0
 51
120.0
  0
ARC
  5
34E
100
AcDbEntity
  8
0
370
    -3
390
0
  6
Continuous
100
AcDbCircle
 10
521.447094
 20
-446.391453
 30
0.0
 40
6.0
100
AcDbArc
 50
210.0
 51
270.0
  0
LINE
  5
34F
100
AcDbEntity
  8
0
370
    -3
390
0
  6
Continuous
100
AcDbLine
 10
597.405642
 20
-497.391453
 30
0.0
 11
497.405642
 21
-497.391453
 31
0.0
  0
LINE
  5
350
100
AcDbEntity
  8
0
370
    -3
390
0
  6
Continuous
100
AcDbLine
 10
107.405642
 20
-497.391453
 30
0.0
 11
207.405642
 21
-497.391453
 31
0.0
  0
LINE
  5
351
100
AcDbEntity
  8
0
370
    -3
390
0
  6
CENTER
100
AcDbLine
 10
547.405642
 20
-435.956518
 30
0.0
 11
547.405642
 21
-519.589547
 31
0.0
  0
LINE
  5
352
100
AcDbEntity
  8
0
370
    -3
390
0
  6
CENTER
100
AcDbLine
 10
157.405642
 20
-435.011962
 30
0.0
 11
157.405642
 21
-521.247546
 31
0.0
  0
CIRCLE
  5
353
100
AcDbEntity
  8
0
370
    -3
390
0
  6
Continuous
100
AcDbCircle
 10
352.405642
 20
-197.391453
 30
0.0
 40
55.0
  0
ARC
  5
354
100
AcDbEntity
  8
0
370
    -3
390
0
  6
Continuous
100
AcDbCircle
 10
352.405642
 20
-476.391453
 30
0.0
 40
17.0
100
AcDbArc
 50
270.0
 51
353.107897
  0
ARC
  5
355
100
AcDbEntity
  8
0
370
    -3
390
0
  6
Continuous
100
AcDbCircle
 10
374.337354
 20
-488.391453
 30
0.0
 40
8.0
100
AcDbArc
 50
90.0
 51
151.314598
  0
ARC
  5
356
100
AcDbEntity
  8
0
370
    -3
390
0
  6
Continuous
100
AcDbCircle
 10
503.405642
 20
-466.40256
 30
0.0
 40
6.0
100
AcDbArc
 50
120.0
 51
180.0
  0
LINE
  5
357
100
AcDbEntity
  8
0
370
    -3
390
0
  6
Continuous
100
AcDbLine
 10
514.281287
 20
-453.1953
 30
0.0
 11
500.405642
 21
-461.206407
 31
0.0
  0
LINE
  5
358
100
AcDbEntity
  8
0
370
    -3
390
0
  6
Continuous
100
AcDbLine
 10
497.405642
 20
-466.40256
 30
0.0
 11
497.405642
 21
-497.391453
 31
0.0
  0
ARC
  5
359
100
AcDbEntity
  8
0
370
    -3
390
0
  6
Continuous
100
AcDbCircle
 10
492.405642
 20
-498.391453
 30
0.0
 40
5.0
100
AcDbArc
 50
0.0
 51
90.0
  0
LINE
  5
35A
100
AcDbEntity
  8
0
370
    -3
390
0
  6
Continuous
100
AcDbLine
 10
492.405642
 20
-493.391453
 30
0.0
 11
460.405642
 21
-493.391453
 31
0.0
  0
ARC
  5
35B
100
AcDbEntity
  8
0
370
    -3
390
0
  6
Continuous
100
AcDbCircle
 10
421.405642
 20
-359.391453
 30
0.0
 40
112.0
100
AcDbArc
 50
270.0
 51
0.0
  0
ARC
  5
35C
100
AcDbEntity
  8
0
370
    -3
390
0
  6
Continuous
100
AcDbCircle
 10
438.47393
 20
-488.391453
 30
0.0
 40
8.0
100
AcDbArc
 50
28.685402
 51
90.0
  0
LINE
  5
35D
100
AcDbEntity
  8
0
370
    -3
390
0
  6
Continuous
100
AcDbLine
 10
438.47393
 20
-480.391453
 30
0.0
 11
374.337354
 21
-480.391453
 31
0.0
  0
ARC
  5
35E
100
AcDbEntity
  8
0
370
    -3
390
0
  6
Continuous
100
AcDbCircle
 10
460.405642
 20
-476.391453
 30
0.0
 40
17.0
100
AcDbArc
 50
184.978205
 51
320.27629
  0
LINE
  5
35F
100
AcDbEntity
  8
0
370
    -3
390
0
  6
Continuous
100
AcDbLine
 10
591.405642
 20
-452.391453
 30
0.0
 11
517.281287
 21
-452.391453
 31
0.0
  0
ARC
  5
360
100
AcDbEntity
  8
0
370
    -3
390
0
  6
Continuous
100
AcDbCircle
 10
591.405642
 20
-458.391453
 30
0.0
 40
6.0
100
AcDbArc
 50
0.0
 51
90.0
  0
LINE
  5
361
100
AcDbEntity
  8
0
370
    -3
390
0
  6
Continuous
100
AcDbLine
 10
579.405642
 20
-297.989433
 30
0.0
 11
579.405642
 21
-422.391453
 31
0.0
  0
ARC
  5
362
100
AcDbEntity
  8
0
370
    -3
390
0
  6
Continuous
100
AcDbCircle
 10
549.405642
 20
-422.391453
 30
0.0
 40
30.0
100
AcDbArc
 50
270.0
 51
0.0
  0
ARC
  5
363
100
AcDbEntity
  8
0
370
    -3
390
0
  6
Continuous
100
AcDbCircle
 10
574.405642
 20
-246.42089
 30
0.0
 40
12.0
100
AcDbArc
 50
180.0
 51
225.0
  0
LINE
  5
364
100
AcDbEntity
  8
0
370
    -3
390
0
  6
Continuous
100
AcDbLine
 10
593.890924
 20
-282.876734
 30
0.0
 11
565.920361
 21
-254.906172
 31
0.0
  0
ARC
  5
365
100
AcDbEntity
  8
0
370
    -3
390
0
  6
Continuous
100
AcDbCircle
 10
585.405642
 20
-291.362016
 30
0.0
 40
12.0
100
AcDbArc
 50
0.0
 51
45.0
  0
LINE
  5
366
100
AcDbEntity
  8
0
370
    -3
390
0
  6
Continuous
100
AcDbLine
 10
597.405642
 20
-291.362016
 30
0.0
 11
597.405642
 21
-497.391453
 31
0.0
  0
ARC
  5
367
100
AcDbEntity
  8
0
370
    -3
390
0
  6
Continuous
100
AcDbCircle
 10
525.405642
 20
-250.391453
 30
0.0
 40
8.0
100
AcDbArc
 50
0.0
 51
90.0
  0
ARC
  5
368
100
AcDbEntity
  8
0
370
    -3
390
0
  6
Continuous
100
AcDbCircle
 10
472.405642
 20
-222.391453
 30
0.0
 40
20.0
100
AcDbArc
 50
180.0
 51
270.0
  0
LINE
  5
369
100
AcDbEntity
  8
0
370
    -3
390
0
  6
Continuous
100
AcDbLine
 10
452.405642
 20
-222.391453
 30
0.0
 11
452.405642
 21
-197.391453
 31
0.0
  0
LINE
  5
36A
100
AcDbEntity
  8
0
370
    -3
390
0
  6
Continuous
100
AcDbLine
 10
525.405642
 20
-242.391453
 30
0.0
 11
472.405642
 21
-242.391453
 31
0.0
  0
LINE
  5
36B
100
AcDbEntity
  8
0
370
    -3
390
0
  6
Continuous
100
AcDbLine
 10
562.405642
 20
-186.391453
 30
0.0
 11
562.405642
 21
-246.42089
 31
0.0
  0
ARC
  5
36C
100
AcDbEntity
  8
0
370
    -3
390
0
  6
Continuous
100
AcDbCircle
 10
554.405642
 20
-186.391453
 30
0.0
 40
8.0
100
AcDbArc
 50
0.0
 51
90.0
  0
ARC
  5
36D
100
AcDbEntity
  8
0
370
    -3
390
0
  6
Continuous
100
AcDbCircle
 10
552.405642
 20
-168.391453
 30
0.0
 40
10.0
100
AcDbArc
 50
180.0
 51
270.0
  0
LINE
  5
36E
100
AcDbEntity
  8
0
370
    -3
390
0
  6
Continuous
100
AcDbLine
 10
554.405642
 20
-178.391453
 30
0.0
 11
541.405642
 21
-178.391453
 31
0.0
  0
ARC
  5
36F
100
AcDbEntity
  8
0
370
    -3
390
0
  6
Continuous
100
AcDbCircle
 10
522.405642
 20
-119.391453
 30
0.0
 40
17.0
100
AcDbArc
 50
310.142285
 51
67.861225
  0
LINE
  5
370
100
AcDbEntity
  8
0
370
    -3
390
0
  6
Continuous
100
AcDbLine
 10
533.405642
 20
-135.391453
 30
0.0
 11
533.405642
 21
-359.391453
 31
0.0
  0
LINE
  5
371
100
AcDbEntity
  8
0
370
    -3
390
0
  6
Continuous
100
AcDbLine
 10
542.405642
 20
-135.391453
 30
0.0
 11
542.405642
 21
-168.391453
 31
0.0
  0
ARC
  5
372
100
AcDbEntity
  8
0
370
    -3
390
0
  6
Continuous
100
AcDbCircle
 10
352.405642
 20
-197.391453
 30
0.0
 40
100.0
100
AcDbArc
 50
0.0
 51
90.0
  0
ARC
  5
373
100
AcDbEntity
  8
0
370
    -3
390
0
  6
Continuous
100
AcDbCircle
 10
432.405642
 20
-34.391453
 30
0.0
 40
17.0
100
AcDbArc
 50
27.811907
 51
139.679785
  0
ARC
  5
374
100
AcDbEntity
  8
0
370
    -3
390
0
  6
Continuous
100
AcDbCircle
 10
421.405642
 20
-135.391453
 30
0.0
 40
121.0
100
AcDbArc
 50
0.0
 51
90.0
  0
ARC
  5
375
100
AcDbEntity
  8
0
370
    -3
390
0
  6
Continuous
100
AcDbCircle
 10
421.405642
 20
-135.391453
 30
0.0
 40
112.0
100
AcDbArc
 50
0.0
 51
90.0
  0
LINE
  5
376
100
AcDbEntity
  8
0
370
    -3
390
0
  6
Continuous
100
AcDbLine
 10
421.405642
 20
-23.391453
 30
0.0
 11
352.405642
 21
-23.391453
 31
0.0
  0
LINE
  5
377
100
AcDbEntity
  8
0
370
    -3
390
0
  6
Continuous
100
AcDbLine
 10
421.405642
 20
-14.391453
 30
0.0
 11
367.655642
 21
-14.391453
 31
0.0
  0
ARC
  5
378
100
AcDbEntity
  8
0
370
    -3
390
0
  6
Continuous
100
AcDbCircle
 10
532.621648
 20
-379.391453
 30
0.0
 40
1.0
100
AcDbArc
 50
90.0
 51
169.805448
  0
LINE
  5
379
100
AcDbEntity
  8
0
370
    -3
390
0
  6
Continuous
100
AcDbLine
 10
533.405642
 20
-378.391453
 30
0.0
 11
532.621648
 21
-378.391453
 31
0.0
  0
ARC
  5
37A
100
AcDbEntity
  8
0
370
    -3
390
0
  6
Continuous
100
AcDbCircle
 10
533.405642
 20
-377.391453
 30
0.0
 40
1.0
100
AcDbArc
 50
270.0
 51
0.0
  0
LINE
  5
37B
100
AcDbEntity
  8
0
370
    -3
390
0
  6
Continuous
100
AcDbLine
 10
534.405642
 20
-339.391453
 30
0.0
 11
534.405642
 21
-377.391453
 31
0.0
  0
ARC
  5
37C
100
AcDbEntity
  8
0
370
    -3
390
0
  6
Continuous
100
AcDbCircle
 10
534.405642
 20
-337.659402
 30
0.0
 40
1.0
100
AcDbArc
 50
180.0
 51
240.0
  0
ARC
  5
37D
100
AcDbEntity
  8
0
370
    -3
390
0
  6
Continuous
100
AcDbCircle
 10
533.405642
 20
-339.391453
 30
0.0
 40
1.0
100
AcDbArc
 50
0.0
 51
60.0
  0
LINE
  5
37E
100
AcDbEntity
  8
0
370
    -3
390
0
  6
Continuous
100
AcDbLine
 10
459.300524
 20
-471.391453
 30
0.0
 11
352.405642
 21
-471.391453
 31
0.0
  0
LINE
  5
37F
100
AcDbEntity
  8
0
370
    -3
390
0
  6
Continuous
100
AcDbLine
 10
548.807662
 20
-267.391453
 30
0.0
 11
543.405642
 21
-267.391453
 31
0.0
  0
LINE
  5
380
100
AcDbEntity
  8
0
370
    -3
390
0
  6
Continuous
100
AcDbLine
 10
576.47671
 20
-290.918365
 30
0.0
 11
555.87873
 21
-270.320385
 31
0.0
  0
ARC
  5
381
100
AcDbEntity
  8
0
370
    -3
390
0
  6
Continuous
100
AcDbCircle
 10
569.405642
 20
-297.989433
 30
0.0
 40
10.0
100
AcDbArc
 50
0.0
 51
45.0
  0
ARC
  5
382
100
AcDbEntity
  8
0
370
    -3
390
0
  6
Continuous
100
AcDbCircle
 10
548.807662
 20
-277.391453
 30
0.0
 40
10.0
100
AcDbArc
 50
45.0
 51
90.0
  0
ARC
  5
383
100
AcDbEntity
  8
0
370
    -3
390
0
  6
Continuous
100
AcDbCircle
 10
543.405642
 20
-277.391453
 30
0.0
 40
10.0
100
AcDbArc
 50
90.0
 51
180.0
  0
LINE
  5
384
100
AcDbEntity
  8
0
370
    -3
390
0
  6
Continuous
100
AcDbLine
 10
358.405642
 20
-29.391453
 30
0.0
 11
358.405642
 21
-92.072889
 31
0.0
  0
ARC
  5
385
100
AcDbEntity
  8
0
370
    -3
390
0
  6
Continuous
100
AcDbCircle
 10
364.405642
 20
-92.072889
 30
0.0
 40
6.0
100
AcDbArc
 50
180.0
 51
263.49975
  0
ARC
  5
386
100
AcDbEntity
  8
0
370
    -3
390
0
  6
Continuous
100
AcDbCircle
 10
364.405642
 20
-29.391453
 30
0.0
 40
6.0
100
AcDbArc
 50
90.0
 51
180.0
  0
LINE
  5
387
100
AcDbEntity
  8
0
370
    -3
390
0
  6
Continuous
100
AcDbLine
 10
369.905642
 20
-19.391453
 30
0.0
 11
369.905642
 21
-21.391453
 31
0.0
  0
ARC
  5
388
100
AcDbEntity
  8
0
370
    -3
390
0
  6
Continuous
100
AcDbCircle
 10
367.905642
 20
-19.391453
 30
0.0
 40
2.0
100
AcDbArc
 50
0.0
 51
90.0
  0
ARC
  5
389
100
AcDbEntity
  8
0
370
    -3
390
0
  6
Continuous
100
AcDbCircle
 10
371.905642
 20
-21.391453
 30
0.0
 40
2.0
100
AcDbArc
 50
180.0
 51
270.0
  0
LINE
  5
38A
100
AcDbEntity
  8
0
370
    -3
390
0
  6
Continuous
100
AcDbLine
 10
494.405642
 20
-491.659402
 30
0.0
 11
454.110773
 21
-468.395148
 31
0.0
  0
LINE
  5
38B
100
AcDbEntity
  8
0
370
    -3
390
0
  6
Continuous
100
AcDbLine
 10
513.064689
 20
-443.872702
 30
0.0
 11
516.250942
 21
-449.391453
 31
0.0
  0
ARC
  5
38C
100
AcDbEntity
  8
0
370
    -3
390
0
  6
Continuous
100
AcDbCircle
 10
491.405642
 20
-496.855555
 30
0.0
 40
6.0
100
AcDbArc
 50
0.0
 51
60.0
  0
ARC
  5
38D
100
AcDbEntity
  8
0
370
    -3
390
0
  6
Continuous
100
AcDbCircle
 10
451.110773
 20
-473.591301
 30
0.0
 40
6.0
100
AcDbArc
 50
60.0
 51
104.580405
  0
ARC
  5
38E
100
AcDbEntity
  8
0
370
    -3
390
0
  6
Continuous
100
AcDbCircle
 10
479.634021
 20
-492.368607
 30
0.0
 40
8.0
100
AcDbArc
 50
60.0
 51
140.27629
  0
ARC
  5
38F
100
AcDbEntity
  8
0
370
    -3
390
0
  6
Continuous
100
AcDbCircle
 10
541.405642
 20
-170.391453
 30
0.0
 40
8.0
100
AcDbArc
 50
180.0
 51
270.0
  0
ARC
  5
390
100
AcDbEntity
  8
0
370
    -3
390
0
  6
Continuous
100
AcDbCircle
 10
530.385198
 20
-433.872702
 30
0.0
 40
20.0
100
AcDbArc
 50
145.649643
 51
210.0
  0
ARC
  5
391
100
AcDbEntity
  8
0
370
    -3
390
0
  6
Continuous
100
AcDbCircle
 10
377.224989
 20
-479.391453
 30
0.0
 40
8.0
100
AcDbArc
 50
90.0
 51
173.107897
  0
ARC
  5
392
100
AcDbEntity
  8
0
370
    -3
390
0
  6
Continuous
100
AcDbCircle
 10
435.499948
 20
-478.560872
 30
0.0
 40
8.0
100
AcDbArc
 50
4.978205
 51
96.745104
  0
LINE
  5
393
100
AcDbEntity
  8
0
370
    -3
390
0
  6
Continuous
100
AcDbLine
 10
367.905642
 20
-17.391453
 30
0.0
 11
352.405642
 21
-17.391453
 31
0.0
  0
LINE
  5
394
100
AcDbEntity
  8
0
370
    -3
390
0
  6
CENTER
100
AcDbLine
 10
134.976585
 20
-197.391453
 30
0.0
 11
352.405642
 21
-197.391453
 31
0.0
  0
LINE
  5
395
100
AcDbEntity
  8
0
370
    -3
390
0
  6
CENTER
100
AcDbLine
 10
581.389063
 20
-197.391453
 30
0.0
 11
352.405642
 21
-197.391453
 31
0.0
  0
ARC
  5
396
100
AcDbEntity
  8
0
370
    -3
390
0
  6
Continuous
100
AcDbCircle
 10
352.405642
 20
-476.391453
 30
0.0
 40
17.0
100
AcDbArc
 50
186.892103
 51
270.0
  0
ARC
  5
397
100
AcDbEntity
  8
0
370
    -3
390
0
  6
Continuous
100
AcDbCircle
 10
330.47393
 20
-488.391453
 30
0.0
 40
8.0
100
AcDbArc
 50
28.685402
 51
90.0
  0
ARC
  5
398
100
AcDbEntity
  8
0
370
    -3
390
0
  6
Continuous
100
AcDbCircle
 10
201.405642
 20
-466.40256
 30
0.0
 40
6.0
100
AcDbArc
 50
0.0
 51
60.0
  0
LINE
  5
399
100
AcDbEntity
  8
0
370
    -3
390
0
  6
Continuous
100
AcDbLine
 10
190.529998
 20
-453.1953
 30
0.0
 11
204.405642
 21
-461.206407
 31
0.0
  0
LINE
  5
39A
100
AcDbEntity
  8
0
370
    -3
390
0
  6
Continuous
100
AcDbLine
 10
207.405642
 20
-466.40256
 30
0.0
 11
207.405642
 21
-497.391453
 31
0.0
  0
ARC
  5
39B
100
AcDbEntity
  8
0
370
    -3
390
0
  6
Continuous
100
AcDbCircle
 10
212.405642
 20
-498.391453
 30
0.0
 40
5.0
100
AcDbArc
 50
90.0
 51
180.0
  0
LINE
  5
39C
100
AcDbEntity
  8
0
370
    -3
390
0
  6
Continuous
100
AcDbLine
 10
212.405642
 20
-493.391453
 30
0.0
 11
244.405642
 21
-493.391453
 31
0.0
  0
ARC
  5
39D
100
AcDbEntity
  8
0
370
    -3
390
0
  6
Continuous
100
AcDbCircle
 10
283.405642
 20
-359.391453
 30
0.0
 40
112.0
100
AcDbArc
 50
180.0
 51
270.0
  0
ARC
  5
39E
100
AcDbEntity
  8
0
370
    -3
390
0
  6
Continuous
100
AcDbCircle
 10
266.337354
 20
-488.391453
 30
0.0
 40
8.0
100
AcDbArc
 50
90.0
 51
151.314598
  0
LINE
  5
39F
100
AcDbEntity
  8
0
370
    -3
390
0
  6
Continuous
100
AcDbLine
 10
266.337354
 20
-480.391453
 30
0.0
 11
330.47393
 21
-480.391453
 31
0.0
  0
ARC
  5
3A0
100
AcDbEntity
  8
0
370
    -3
390
0
  6
Continuous
100
AcDbCircle
 10
244.405642
 20
-476.391453
 30
0.0
 40
17.0
100
AcDbArc
 50
219.72371
 51
355.021795
  0
LINE
  5
3A1
100
AcDbEntity
  8
0
370
    -3
390
0
  6
Continuous
100
AcDbLine
 10
113.405642
 20
-452.391453
 30
0.0
 11
187.529998
 21
-452.391453
 31
0.0
  0
ARC
  5
3A2
100
AcDbEntity
  8
0
370
    -3
390
0
  6
Continuous
100
AcDbCircle
 10
113.405642
 20
-458.391453
 30
0.0
 40
6.0
100
AcDbArc
 50
90.0
 51
180.0
  0
LINE
  5
3A3
100
AcDbEntity
  8
0
370
    -3
390
0
  6
Continuous
100
AcDbLine
 10
125.405642
 20
-297.989433
 30
0.0
 11
125.405642
 21
-422.391453
 31
0.0
  0
ARC
  5
3A4
100
AcDbEntity
  8
0
370
    -3
390
0
  6
Continuous
100
AcDbCircle
 10
155.405642
 20
-422.391453
 30
0.0
 40
30.0
100
AcDbArc
 50
180.0
 51
270.0
  0
ARC
  5
3A5
100
AcDbEntity
  8
0
370
    -3
390
0
  6
Continuous
100
AcDbCircle
 10
130.405642
 20
-246.42089
 30
0.0
 40
12.0
100
AcDbArc
 50
315.0
 51
0.0
  0
LINE
  5
3A6
100
AcDbEntity
  8
0
370
    -3
390
0
  6
Continuous
100
AcDbLine
 10
110.920361
 20
-282.876734
 30
0.0
 11
138.890924
 21
-254.906172
 31
0.0
  0
ARC
  5
3A7
100
AcDbEntity
  8
0
370
    -3
390
0
  6
Continuous
100
AcDbCircle
 10
119.405642
 20
-291.362016
 30
0.0
 40
12.0
100
AcDbArc
 50
135.0
 51
180.0
  0
LINE
  5
3A8
100
AcDbEntity
  8
0
370
    -3
390
0
  6
Continuous
100
AcDbLine
 10
107.405642
 20
-291.362016
 30
0.0
 11
107.405642
 21
-497.391453
 31
0.0
  0
ARC
  5
3A9
100
AcDbEntity
  8
0
370
    -3
390
0
  6
Continuous
100
AcDbCircle
 10
179.405642
 20
-250.391453
 30
0.0
 40
8.0
100
AcDbArc
 50
90.0
 51
180.0
  0
ARC
  5
3AA
100
AcDbEntity
  8
0
370
    -3
390
0
  6
Continuous
100
AcDbCircle
 10
232.405642
 20
-222.391453
 30
0.0
 40
20.0
100
AcDbArc
 50
270.0
 51
0.0
  0
LINE
  5
3AB
100
AcDbEntity
  8
0
370
    -3
390
0
  6
Continuous
100
AcDbLine
 10
252.405642
 20
-222.391453
 30
0.0
 11
252.405642
 21
-197.391453
 31
0.0
  0
LINE
  5
3AC
100
AcDbEntity
  8
0
370
    -3
390
0
  6
Continuous
100
AcDbLine
 10
179.405642
 20
-242.391453
 30
0.0
 11
232.405642
 21
-242.391453
 31
0.0
  0
LINE
  5
3AD
100
AcDbEntity
  8
0
370
    -3
390
0
  6
Continuous
100
AcDbLine
 10
142.405642
 20
-186.391453
 30
0.0
 11
142.405642
 21
-246.42089
 31
0.0
  0
ARC
  5
3AE
100
AcDbEntity
  8
0
370
    -3
390
0
  6
Continuous
100
AcDbCircle
 10
150.405642
 20
-186.391453
 30
0.0
 40
8.0
100
AcDbArc
 50
90.0
 51
180.0
  0
ARC
  5
3AF
100
AcDbEntity
  8
0
370
    -3
390
0
  6
Continuous
100
AcDbCircle
 10
152.405642
 20
-168.391453
 30
0.0
 40
10.0
100
AcDbArc
 50
270.0
 51
0.0
  0
LINE
  5
3B0
100
AcDbEntity
  8
0
370
    -3
390
0
  6
Continuous
100
AcDbLine
 10
150.405642
 20
-178.391453
 30
0.0
 11
163.405642
 21
-178.391453
 31
0.0
  0
ARC
  5
3B1
100
AcDbEntity
  8
0
370
    -3
390
0
  6
Continuous
100
AcDbCircle
 10
182.405642
 20
-119.391453
 30
0.0
 40
17.0
100
AcDbArc
 50
112.138775
 51
229.857715
  0
LINE
  5
3B2
100
AcDbEntity
  8
0
370
    -3
390
0
  6
Continuous
100
AcDbLine
 10
171.405642
 20
-135.391453
 30
0.0
 11
171.405642
 21
-359.391453
 31
0.0
  0
LINE
  5
3B3
100
AcDbEntity
  8
0
370
    -3
390
0
  6
Continuous
100
AcDbLine
 10
162.405642
 20
-135.391453
 30
0.0
 11
162.405642
 21
-168.391453
 31
0.0
  0
ARC
  5
3B4
100
AcDbEntity
  8
0
370
    -3
390
0
  6
Continuous
100
AcDbCircle
 10
352.405642
 20
-197.391453
 30
0.0
 40
100.0
100
AcDbArc
 50
90.0
 51
180.0
  0
ARC
  5
3B5
100
AcDbEntity
  8
0
370
    -3
390
0
  6
Continuous
100
AcDbCircle
 10
272.405642
 20
-34.391453
 30
0.0
 40
17.0
100
AcDbArc
 50
40.320215
 51
152.188093
  0
ARC
  5
3B6
100
AcDbEntity
  8
0
370
    -3
390
0
  6
Continuous
100
AcDbCircle
 10
283.405642
 20
-135.391453
 30
0.0
 40
121.0
100
AcDbArc
 50
90.0
 51
180.0
  0
ARC
  5
3B7
100
AcDbEntity
  8
0
370
    -3
390
0
  6
Continuous
100
AcDbCircle
 10
283.405642
 20
-135.391453
 30
0.0
 40
112.0
100
AcDbArc
 50
90.0
 51
180.0
  0
LINE
  5
3B8
100
AcDbEntity
  8
0
370
    -3
390
0
  6
Continuous
100
AcDbLine
 10
283.405642
 20
-23.391453
 30
0.0
 11
352.405642
 21
-23.391453
 31
0.0
  0
LINE
  5
3B9
100
AcDbEntity
  8
0
370
    -3
390
0
  6
Continuous
100
AcDbLine
 10
283.405642
 20
-14.391453
 30
0.0
 11
337.155642
 21
-14.391453
 31
0.0
  0
ARC
  5
3BA
100
AcDbEntity
  8
0
370
    -3
390
0
  6
Continuous
100
AcDbCircle
 10
172.189636
 20
-379.391453
 30
0.0
 40
1.0
100
AcDbArc
 50
10.194552
 51
90.0
  0
LINE
  5
3BB
100
AcDbEntity
  8
0
370
    -3
390
0
  6
Continuous
100
AcDbLine
 10
171.405642
 20
-378.391453
 30
0.0
 11
172.189636
 21
-378.391453
 31
0.0
  0
ARC
  5
3BC
100
AcDbEntity
  8
0
370
    -3
390
0
  6
Continuous
100
AcDbCircle
 10
171.405642
 20
-377.391453
 30
0.0
 40
1.0
100
AcDbArc
 50
180.0
 51
270.0
  0
LINE
  5
3BD
100
AcDbEntity
  8
0
370
    -3
390
0
  6
Continuous
100
AcDbLine
 10
170.405642
 20
-339.391453
 30
0.0
 11
170.405642
 21
-377.391453
 31
0.0
  0
ARC
  5
3BE
100
AcDbEntity
  8
0
370
    -3
390
0
  6
Continuous
100
AcDbCircle
 10
170.405642
 20
-337.659402
 30
0.0
 40
1.0
100
AcDbArc
 50
300.0
 51
0.0
  0
ARC
  5
3BF
100
AcDbEntity
  8
0
370
    -3
390
0
  6
Continuous
100
AcDbCircle
 10
171.405642
 20
-339.391453
 30
0.0
 40
1.0
100
AcDbArc
 50
120.0
 51
180.0
  0
LINE
  5
3C0
100
AcDbEntity
  8
0
370
    -3
390
0
  6
Continuous
100
AcDbLine
 10
245.51076
 20
-471.391453
 30
0.0
 11
352.405642
 21
-471.391453
 31
0.0
  0
LINE
  5
3C1
100
AcDbEntity
  8
0
370
    -3
390
0
  6
Continuous
100
AcDbLine
 10
156.003622
 20
-267.391453
 30
0.0
 11
161.405642
 21
-267.391453
 31
0.0
  0
LINE
  5
3C2
100
AcDbEntity
  8
0
370
    -3
390
0
  6
Continuous
100
AcDbLine
 10
128.334574
 20
-290.918365
 30
0.0
 11
148.932554
 21
-270.320385
 31
0.0
  0
ARC
  5
3C3
100
AcDbEntity
  8
0
370
    -3
390
0
  6
Continuous
100
AcDbCircle
 10
135.405642
 20
-297.989433
 30
0.0
 40
10.0
100
AcDbArc
 50
135.0
 51
180.0
  0
ARC
  5
3C4
100
AcDbEntity
  8
0
370
    -3
390
0
  6
Continuous
100
AcDbCircle
 10
156.003622
 20
-277.391453
 30
0.0
 40
10.0
100
AcDbArc
 50
90.0
 51
135.0
  0
ARC
  5
3C5
100
AcDbEntity
  8
0
370
    -3
390
0
  6
Continuous
100
AcDbCircle
 10
161.405642
 20
-277.391453
 30
0.0
 40
10.0
100
AcDbArc
 50
0.0
 51
90.0
  0
LINE
  5
3C6
100
AcDbEntity
  8
0
370
    -3
390
0
  6
Continuous
100
AcDbLine
 10
346.405642
 20
-29.391453
 30
0.0
 11
346.405642
 21
-92.072889
 31
0.0
  0
ARC
  5
3C7
100
AcDbEntity
  8
0
370
    -3
390
0
  6
Continuous
100
AcDbCircle
 10
340.405642
 20
-92.072889
 30
0.0
 40
6.0
100
AcDbArc
 50
276.50025
 51
0.0
  0
ARC
  5
3C8
100
AcDbEntity
  8
0
370
    -3
390
0
  6
Continuous
100
AcDbCircle
 10
340.405642
 20
-29.391453
 30
0.0
 40
6.0
100
AcDbArc
 50
0.0
 51
90.0
  0
LINE
  5
3C9
100
AcDbEntity
  8
0
370
    -3
390
0
  6
Continuous
100
AcDbLine
 10
336.905642
 20
-17.391453
 30
0.0
 11
352.405642
 21
-17.391453
 31
0.0
  0
LINE
  5
3CA
100
AcDbEntity
  8
0
370
    -3
390
0
  6
Continuous
100
AcDbLine
 10
334.905642
 20
-19.391453
 30
0.0
 11
334.905642
 21
-21.391453
 31
0.0
  0
ARC
  5
3CB
100
AcDbEntity
  8
0
370
    -3
390
0
  6
Continuous
100
AcDbCircle
 10
336.905642
 20
-19.391453
 30
0.0
 40
2.0
100
AcDbArc
 50
90.0
 51
180.0
  0
ARC
  5
3CC
100
AcDbEntity
  8
0
370
    -3
390
0
  6
Continuous
100
AcDbCircle
 10
332.905642
 20
-21.391453
 30
0.0
 40
2.0
100
AcDbArc
 50
270.0
 51
0.0
  0
LINE
  5
3CD
100
AcDbEntity
  8
0
370
    -3
390
0
  6
Continuous
100
AcDbLine
 10
210.405642
 20
-491.659402
 30
0.0
 11
250.700512
 21
-468.395148
 31
0.0
  0
LINE
  5
3CE
100
AcDbEntity
  8
0
370
    -3
390
0
  6
Continuous
100
AcDbLine
 10
191.746595
 20
-443.872702
 30
0.0
 11
188.560343
 21
-449.391453
 31
0.0
  0
ARC
  5
3CF
100
AcDbEntity
  8
0
370
    -3
390
0
  6
Continuous
100
AcDbCircle
 10
213.405642
 20
-496.855555
 30
0.0
 40
6.0
100
AcDbArc
 50
120.0
 51
180.0
  0
ARC
  5
3D0
100
AcDbEntity
  8
0
370
    -3
390
0
  6
Continuous
100
AcDbCircle
 10
253.700512
 20
-473.591301
 30
0.0
 40
6.0
100
AcDbArc
 50
75.419595
 51
120.0
  0
ARC
  5
3D1
100
AcDbEntity
  8
0
370
    -3
390
0
  6
Continuous
100
AcDbCircle
 10
225.177263
 20
-492.368607
 30
0.0
 40
8.0
100
AcDbArc
 50
39.72371
 51
120.0
  0
CIRCLE
  5
3D2
100
AcDbEntity
  8
0
370
    -3
390
0
  6
Continuous
100
AcDbCircle
 10
352.405642
 20
-197.391453
 30
0.0
 40
65.0
  0
ARC
  5
3D3
100
AcDbEntity
  8
0
370
    -3
390
0
  6
Continuous
100
AcDbCircle
 10
163.405642
 20
-170.391453
 30
0.0
 40
8.0
100
AcDbArc
 50
270.0
 51
0.0
  0
ARC
  5
3D4
100
AcDbEntity
  8
0
370
    -3
390
0
  6
Continuous
100
AcDbCircle
 10
174.426087
 20
-433.872702
 30
0.0
 40
20.0
100
AcDbArc
 50
330.0
 51
34.350357
  0
ARC
  5
3D5
100
AcDbEntity
  8
0
370
    -3
390
0
  6
Continuous
100
AcDbCircle
 10
327.586295
 20
-479.391453
 30
0.0
 40
8.0
100
AcDbArc
 50
6.892103
 51
90.0
  0
ARC
  5
3D6
100
AcDbEntity
  8
0
370
    -3
390
0
  6
Continuous
100
AcDbCircle
 10
269.311337
 20
-478.560872
 30
0.0
 40
8.0
100
AcDbArc
 50
83.254896
 51
175.021795
  0
CIRCLE
  5
3D7
100
AcDbEntity
  8
0
370
    -3
390
0
  6
Continuous
100
AcDbCircle
 10
352.405642
 20
-197.391453
 30
0.0
 40
5.0
  0
CIRCLE
  5
3D8
100
AcDbEntity
  8
0
370
    -3
390
0
  6
Continuous
100
AcDbCircle
 10
352.405642
 20
-197.391453
 30
0.0
 40
6.0
  0
LINE
  5
3D9
100
AcDbEntity
  8
0
370
    -3
390
0
  6
CENTER
100
AcDbLine
 10
237.042586
 20
-296.391453
 30
0.0
 11
177.259009
 21
-296.391453
 31
0.0
  0
LINE
  5
3DA
100
AcDbEntity
  8
0
370
    -3
390
0
  6
CENTER
100
AcDbLine
 10
178.734842
 20
-348.655159
 30
0.0
 11
189.55499
 21
-353.4726
 31
0.0
  0
LINE
  5
3DB
100
AcDbEntity
  8
0
370
    -3
390
0
  6
CENTER
100
AcDbLine
 10
-752.979137
 20
-296.391453
 30
0.0
 11
-346.326655
 21
-296.391453
 31
0.0
  0
LINE
  5
3DC
100
AcDbEntity
  8
0
370
    -3
390
0
  6
Continuous
100
AcDbLine
 10
-605.29276
 20
268.080627
 30
0.0
 11
-605.29276
 21
267.080627
 31
0.0
  0
LINE
  5
3DD
100
AcDbEntity
  8
0
370
    -3
390
0
  6
Continuous
100
AcDbLine
 10
-477.79276
 20
226.995882
 30
0.0
 11
-440.292736
 21
227.631475
 31
0.0
  0
LINE
  5
3DE
100
AcDbEntity
  8
0
370
    -3
390
0
  6
Continuous
100
AcDbLine
 10
-440.292723
 20
209.080627
 30
0.0
 11
-477.79276
 21
209.080627
 31
0.0
  0
ARC
  5
3DF
100
AcDbEntity
  8
0
370
    -3
390
0
  6
Continuous
100
AcDbCircle
 10
-549.959979
 20
215.771272
 30
0.0
 40
10.0
100
AcDbArc
 50
90.971022
 51
135.0
  0
LINE
  5
3E0
100
AcDbEntity
  8
0
370
    -3
390
0
  6
Continuous
100
AcDbLine
 10
-550.129447
 20
225.769836
 30
0.0
 11
-477.79276
 21
226.995882
 31
0.0
  0
LINE
  5
3E1
100
AcDbEntity
  8
0
370
    -3
390
0
  6
Continuous
100
AcDbLine
 10
-477.79276
 20
209.080627
 30
0.0
 11
-566.650624
 21
209.080627
 31
0.0
  0
ARC
  5
3E2
100
AcDbEntity
  8
0
370
    -3
390
0
  6
Continuous
100
AcDbCircle
 10
-580.79276
 20
184.938492
 30
0.0
 40
10.0
100
AcDbArc
 50
135.0
 51
180.0
  0
LINE
  5
3E3
100
AcDbEntity
  8
0
370
    -3
390
0
  6
Continuous
100
AcDbLine
 10
-590.79276
 20
135.080627
 30
0.0
 11
-590.79276
 21
184.938492
 31
0.0
  0
ARC
  5
3E4
100
AcDbEntity
  8
0
370
    -3
390
0
  6
Continuous
100
AcDbCircle
 10
-593.89276
 20
263.880627
 30
0.0
 40
3.2
100
AcDbArc
 50
0.0
 51
90.0
  0
LINE
  5
3E5
100
AcDbEntity
  8
0
370
    -3
390
0
  6
Continuous
100
AcDbLine
 10
-590.69276
 20
255.680627
 30
0.0
 11
-590.69276
 21
263.880627
 31
0.0
  0
ARC
  5
3E6
100
AcDbEntity
  8
0
370
    -3
390
0
  6
Continuous
100
AcDbCircle
 10
-588.69276
 20
255.680627
 30
0.0
 40
2.0
100
AcDbArc
 50
180.0
 51
270.0
  0
LINE
  5
3E7
100
AcDbEntity
  8
0
370
    -3
390
0
  6
Continuous
100
AcDbLine
 10
-568.84276
 20
238.775191
 30
0.0
 11
-568.84276
 21
211.906802
 31
0.0
  0
LINE
  5
3E8
100
AcDbEntity
  8
0
370
    -3
390
0
  6
Continuous
100
AcDbLine
 10
-575.24276
 20
208.880627
 30
0.0
 11
-575.24276
 21
238.456562
 31
0.0
  0
ARC
  5
3E9
100
AcDbEntity
  8
0
370
    -3
390
0
  6
Continuous
100
AcDbCircle
 10
-579.84276
 20
238.775191
 30
0.0
 40
11.0
100
AcDbArc
 50
0.0
 51
90.0
  0
ARC
  5
3EA
100
AcDbEntity
  8
0
370
    -3
390
0
  6
Continuous
100
AcDbCircle
 10
-581.49276
 20
246.080627
 30
0.0
 40
5.0
100
AcDbArc
 50
44.925956
 51
90.0
  0
LINE
  5
3EB
100
AcDbEntity
  8
0
370
    -3
390
0
  6
Continuous
100
AcDbLine
 10
-584.29276
 20
252.080627
 30
0.0
 11
-584.29276
 21
251.080627
 31
0.0
  0
LINE
  5
3EC
100
AcDbEntity
  8
0
370
    -3
390
0
  6
Continuous
100
AcDbLine
 10
-584.29276
 20
252.080627
 30
0.0
 11
-584.29276
 21
253.680627
 31
0.0
  0
ARC
  5
3ED
100
AcDbEntity
  8
0
370
    -3
390
0
  6
Continuous
100
AcDbCircle
 10
-580.24276
 20
238.456562
 30
0.0
 40
5.0
100
AcDbArc
 50
0.0
 51
90.0
  0
ARC
  5
3EE
100
AcDbEntity
  8
0
370
    -3
390
0
  6
Continuous
100
AcDbCircle
 10
-579.84276
 20
211.906802
 30
0.0
 40
11.0
100
AcDbArc
 50
270.0
 51
0.0
  0
ARC
  5
3EF
100
AcDbEntity
  8
0
370
    -3
390
0
  6
Continuous
100
AcDbCircle
 10
-581.04276
 20
208.880627
 30
0.0
 40
5.8
100
AcDbArc
 50
270.0
 51
0.0
  0
ARC
  5
3F0
100
AcDbEntity
  8
0
370
    -3
390
0
  6
Continuous
100
AcDbCircle
 10
-579.84276
 20
235.303719
 30
0.0
 40
11.0
100
AcDbArc
 50
0.0
 51
90.0
  0
ARC
  5
3F1
100
AcDbEntity
  8
0
370
    -3
390
0
  6
Continuous
100
AcDbCircle
 10
-675.894269
 20
318.080627
 30
0.0
 40
61.2
100
AcDbArc
 50
240.0
 51
270.0
  0
ARC
  5
3F2
100
AcDbEntity
  8
0
370
    -3
390
0
  6
Continuous
100
AcDbCircle
 10
-719.09276
 20
279.512758
 30
0.0
 40
6.2
100
AcDbArc
 50
180.0
 51
240.0
  0
LINE
  5
3F3
100
AcDbEntity
  8
0
370
    -3
390
0
  6
Continuous
100
AcDbLine
 10
-722.19276
 20
274.1434
 30
0.0
 11
-706.494269
 21
265.079873
 31
0.0
  0
ARC
  5
3F4
100
AcDbEntity
  8
0
370
    -3
390
0
  6
Continuous
100
AcDbCircle
 10
-675.894269
 20
430.080627
 30
0.0
 40
61.2
100
AcDbArc
 50
90.0
 51
120.0
  0
ARC
  5
3F5
100
AcDbEntity
  8
0
370
    -3
390
0
  6
Continuous
100
AcDbCircle
 10
-719.09276
 20
468.648497
 30
0.0
 40
6.2
100
AcDbArc
 50
120.0
 51
180.0
  0
LINE
  5
3F6
100
AcDbEntity
  8
0
370
    -3
390
0
  6
Continuous
100
AcDbLine
 10
-722.19276
 20
474.017854
 30
0.0
 11
-706.494269
 21
483.081382
 31
0.0
  0
LINE
  5
3F7
100
AcDbEntity
  8
0
370
    -3
390
0
  6
Continuous
100
AcDbLine
 10
-725.29276
 20
279.512758
 30
0.0
 11
-725.29276
 21
468.648497
 31
0.0
  0
LINE
  5
3F8
100
AcDbEntity
  8
0
370
    -3
390
0
  6
Continuous
100
AcDbLine
 10
-670.29276
 20
465.933799
 30
0.0
 11
-668.29276
 21
467.229332
 31
0.0
  0
LINE
  5
3F9
100
AcDbEntity
  8
0
370
    -3
390
0
  6
Continuous
100
AcDbLine
 10
-670.29276
 20
465.933799
 30
0.0
 11
-668.29276
 21
464.400905
 31
0.0
  0
LINE
  5
3FA
100
AcDbEntity
  8
0
370
    -3
390
0
  6
Continuous
100
AcDbLine
 10
-670.29276
 20
465.933799
 30
0.0
 11
-672.29276
 21
464.400905
 31
0.0
  0
LINE
  5
3FB
100
AcDbEntity
  8
0
370
    -3
390
0
  6
Continuous
100
AcDbLine
 10
-670.29276
 20
465.933799
 30
0.0
 11
-672.29276
 21
467.229332
 31
0.0
  0
ELLIPSE
  5
3FC
100
AcDbEntity
  8
0
370
    -3
390
0
  6
Continuous
100
AcDbEllipse
 10
-670.29276
 20
462.931107
 30
0.0
 11
6.0
 21
0.0
 31
0.0
210
0.0
220
0.0
230
1.0
 40
0.689848
 41
3.1415926535897931
 42
0.0
  0
ELLIPSE
  5
3FD
100
AcDbEntity
  8
0
370
    -3
390
0
  6
Continuous
100
AcDbEllipse
 10
-670.29276
 20
462.931107
 30
0.0
 11
6.0
 21
0.0
 31
0.0
210
0.0
220
0.0
230
1.0
 40
0.689848
 41
0.0
 42
0.8313376885249183
  0
ELLIPSE
  5
3FE
100
AcDbEntity
  8
0
370
    -3
390
0
  6
Continuous
100
AcDbEllipse
 10
-670.29276
 20
464.289858
 30
0.0
 11
4.5
 21
0.0
 31
0.0
210
0.0
220
0.0
230
1.0
 40
0.860332
 41
0.0
 42
6.2831853071795862
  0
ELLIPSE
  5
3FF
100
AcDbEntity
  8
0
370
    -3
390
0
  6
Continuous
100
AcDbEllipse
 10
-670.29276
 20
463.317503
 30
0.0
 11
5.0
 21
0.0
 31
0.0
210
0.0
220
0.0
230
1.0
 40
0.763675
 41
3.1415926535897931
 42
0.0
  0
ELLIPSE
  5
400
100
AcDbEntity
  8
0
370
    -3
390
0
  6
Continuous
100
AcDbEllipse
 10
-670.29276
 20
463.600346
 30
0.0
 11
5.0
 21
0.0
 31
0.0
210
0.0
220
0.0
230
1.0
 40
0.707107
 41
2.6124407455910101
 42
0.5291519079987834
  0
LINE
  5
401
100
AcDbEntity
  8
0
370
    -3
390
0
  6
Continuous
100
AcDbLine
 10
-665.29276
 20
463.317503
 30
0.0
 11
-665.29276
 21
463.600346
 31
0.0
  0
LINE
  5
402
100
AcDbEntity
  8
0
370
    -3
390
0
  6
Continuous
100
AcDbLine
 10
-675.29276
 20
463.317503
 30
0.0
 11
-675.29276
 21
463.600346
 31
0.0
  0
ELLIPSE
  5
403
100
AcDbEntity
  8
0
370
    -3
390
0
  6
Continuous
100
AcDbEllipse
 10
-670.29276
 20
461.64501
 30
0.0
 11
6.0
 21
0.0
 31
0.0
210
0.0
220
0.0
230
1.0
 40
0.707107
 41
3.1415926535897931
 42
0.0
  0
ELLIPSE
  5
404
100
AcDbEntity
  8
0
370
    -3
390
0
  6
Continuous
100
AcDbEllipse
 10
-670.29276
 20
462.931107
 30
0.0
 11
6.0
 21
0.0
 31
0.0
210
0.0
220
0.0
230
1.0
 40
0.689848
 41
2.3102549650648752
 42
3.1415926535897931
  0
LINE
  5
405
100
AcDbEntity
  8
0
370
    -3
390
0
  6
Continuous
100
AcDbLine
 10
-664.29276
 20
461.64501
 30
0.0
 11
-664.29276
 21
462.931107
 31
0.0
  0
LINE
  5
406
100
AcDbEntity
  8
0
370
    -3
390
0
  6
Continuous
100
AcDbLine
 10
-676.29276
 20
461.64501
 30
0.0
 11
-676.29276
 21
462.931107
 31
0.0
  0
LINE
  5
407
100
AcDbEntity
  8
0
370
    -3
390
0
  6
Continuous
100
AcDbLine
 10
-670.29276
 20
282.227456
 30
0.0
 11
-668.29276
 21
280.931923
 31
0.0
  0
LINE
  5
408
100
AcDbEntity
  8
0
370
    -3
390
0
  6
Continuous
100
AcDbLine
 10
-670.29276
 20
282.227456
 30
0.0
 11
-668.29276
 21
283.76035
 31
0.0
  0
LINE
  5
409
100
AcDbEntity
  8
0
370
    -3
390
0
  6
Continuous
100
AcDbLine
 10
-670.29276
 20
282.227456
 30
0.0
 11
-672.29276
 21
283.76035
 31
0.0
  0
LINE
  5
40A
100
AcDbEntity
  8
0
370
    -3
390
0
  6
Continuous
100
AcDbLine
 10
-670.29276
 20
282.227456
 30
0.0
 11
-672.29276
 21
280.931923
 31
0.0
  0
ELLIPSE
  5
40B
100
AcDbEntity
  8
0
370
    -3
390
0
  6
Continuous
100
AcDbEllipse
 10
-670.29276
 20
285.230148
 30
0.0
 11
6.0
 21
0.0
 31
0.0
210
0.0
220
0.0
230
1.0
 40
0.689848
 41
0.0
 42
3.1415926535897931
  0
ELLIPSE
  5
40C
100
AcDbEntity
  8
0
370
    -3
390
0
  6
Continuous
100
AcDbEllipse
 10
-670.29276
 20
285.230148
 30
0.0
 11
6.0
 21
0.0
 31
0.0
210
0.0
220
0.0
230
1.0
 40
0.689848
 41
5.4518476186546678
 42
0.0
  0
ELLIPSE
  5
40D
100
AcDbEntity
  8
0
370
    -3
390
0
  6
Continuous
100
AcDbEllipse
 10
-670.29276
 20
283.871397
 30
0.0
 11
4.5
 21
0.0
 31
0.0
210
0.0
220
0.0
230
1.0
 40
0.860332
 41
0.0
 42
6.2831853071795862
  0
ELLIPSE
  5
40E
100
AcDbEntity
  8
0
370
    -3
390
0
  6
Continuous
100
AcDbEllipse
 10
-670.29276
 20
284.843752
 30
0.0
 11
5.0
 21
0.0
 31
0.0
210
0.0
220
0.0
230
1.0
 40
0.763675
 41
0.0
 42
3.1415926535897931
  0
ELLIPSE
  5
40F
100
AcDbEntity
  8
0
370
    -3
390
0
  6
Continuous
100
AcDbEllipse
 10
-670.29276
 20
284.560909
 30
0.0
 11
5.0
 21
0.0
 31
0.0
210
0.0
220
0.0
230
1.0
 40
0.707107
 41
5.7540333991808028
 42
3.6707445615885761
  0
LINE
  5
410
100
AcDbEntity
  8
0
370
    -3
390
0
  6
Continuous
100
AcDbLine
 10
-665.29276
 20
284.843752
 30
0.0
 11
-665.29276
 21
284.560909
 31
0.0
  0
LINE
  5
411
100
AcDbEntity
  8
0
370
    -3
390
0
  6
Continuous
100
AcDbLine
 10
-675.29276
 20
284.843752
 30
0.0
 11
-675.29276
 21
284.560909
 31
0.0
  0
ELLIPSE
  5
412
100
AcDbEntity
  8
0
370
    -3
390
0
  6
Continuous
100
AcDbEllipse
 10
-670.29276
 20
286.516245
 30
0.0
 11
6.0
 21
0.0
 31
0.0
210
0.0
220
0.0
230
1.0
 40
0.707107
 41
0.0
 42
3.1415926535897931
  0
ELLIPSE
  5
413
100
AcDbEntity
  8
0
370
    -3
390
0
  6
Continuous
100
AcDbEllipse
 10
-670.29276
 20
285.230148
 30
0.0
 11
6.0
 21
0.0
 31
0.0
210
0.0
220
0.0
230
1.0
 40
0.689848
 41
3.1415926535897931
 42
3.9729303421147111
  0
LINE
  5
414
100
AcDbEntity
  8
0
370
    -3
390
0
  6
Continuous
100
AcDbLine
 10
-664.29276
 20
286.516245
 30
0.0
 11
-664.29276
 21
285.230148
 31
0.0
  0
LINE
  5
415
100
AcDbEntity
  8
0
370
    -3
390
0
  6
Continuous
100
AcDbLine
 10
-676.29276
 20
286.516245
 30
0.0
 11
-676.29276
 21
285.230148
 31
0.0
  0
LINE
  5
416
100
AcDbEntity
  8
0
370
    -3
390
0
  6
Continuous
100
AcDbLine
 10
-615.29276
 20
267.080627
 30
0.0
 11
-630.29276
 21
267.080627
 31
0.0
  0
LINE
  5
417
100
AcDbEntity
  8
0
370
    -3
390
0
  6
Continuous
100
AcDbLine
 10
-615.29276
 20
267.080627
 30
0.0
 11
-591.29276
 21
267.080627
 31
0.0
  0
LINE
  5
418
100
AcDbEntity
  8
0
370
    -3
390
0
  6
Continuous
100
AcDbLine
 10
-584.29276
 20
253.680627
 30
0.0
 11
-646.29276
 21
253.680627
 31
0.0
  0
ARC
  5
419
100
AcDbEntity
  8
0
370
    -3
390
0
  6
Continuous
100
AcDbCircle
 10
-641.89276
 20
255.680627
 30
0.0
 40
2.0
100
AcDbArc
 50
270.0
 51
0.0
  0
LINE
  5
41A
100
AcDbEntity
  8
0
370
    -3
390
0
  6
CENTER
100
AcDbLine
 10
-615.29276
 20
257.914341
 30
0.0
 11
-615.29276
 21
195.851927
 31
0.0
  0
LINE
  5
41B
100
AcDbEntity
  8
0
370
    -3
390
0
  6
Continuous
100
AcDbLine
 10
-650.74276
 20
200.906802
 30
0.0
 11
-618.350016
 21
200.906802
 31
0.0
  0
LINE
  5
41C
100
AcDbEntity
  8
0
370
    -3
390
0
  6
Continuous
100
AcDbLine
 10
-650.74276
 20
249.775191
 30
0.0
 11
-579.84276
 21
249.775191
 31
0.0
  0
LINE
  5
41D
100
AcDbEntity
  8
0
370
    -3
390
0
  6
Continuous
100
AcDbLine
 10
-650.74276
 20
246.303719
 30
0.0
 11
-579.84276
 21
246.303719
 31
0.0
  0
LINE
  5
41E
100
AcDbEntity
  8
0
370
    -3
390
0
  6
Continuous
100
AcDbLine
 10
-655.34276
 20
208.880627
 30
0.0
 11
-655.34276
 21
238.456562
 31
0.0
  0
LINE
  5
41F
100
AcDbEntity
  8
0
370
    -3
390
0
  6
Continuous
100
AcDbLine
 10
-650.34276
 20
243.456562
 30
0.0
 11
-580.24276
 21
243.456562
 31
0.0
  0
ARC
  5
420
100
AcDbEntity
  8
0
370
    -3
390
0
  6
Continuous
100
AcDbCircle
 10
-650.34276
 20
238.456562
 30
0.0
 40
5.0
100
AcDbArc
 50
90.0
 51
180.0
  0
ARC
  5
421
100
AcDbEntity
  8
0
370
    -3
390
0
  6
Continuous
100
AcDbCircle
 10
-650.74276
 20
211.906802
 30
0.0
 40
11.0
100
AcDbArc
 50
180.0
 51
270.0
  0
LINE
  5
422
100
AcDbEntity
  8
0
370
    -3
390
0
  6
Continuous
100
AcDbLine
 10
-649.54276
 20
203.080627
 30
0.0
 11
-581.04276
 21
203.080627
 31
0.0
  0
ARC
  5
423
100
AcDbEntity
  8
0
370
    -3
390
0
  6
Continuous
100
AcDbCircle
 10
-649.54276
 20
208.880627
 30
0.0
 40
5.8
100
AcDbArc
 50
180.0
 51
270.0
  0
ARC
  5
424
100
AcDbEntity
  8
0
370
    -3
390
0
  6
Continuous
100
AcDbCircle
 10
-650.74276
 20
235.303719
 30
0.0
 40
11.0
100
AcDbArc
 50
90.0
 51
180.0
  0
ARC
  5
425
100
AcDbEntity
  8
0
370
    -3
390
0
  6
Continuous
100
AcDbCircle
 10
-650.74276
 20
238.775191
 30
0.0
 40
11.0
100
AcDbArc
 50
90.0
 51
180.0
  0
ARC
  5
426
100
AcDbEntity
  8
0
370
    -3
390
0
  6
Continuous
100
AcDbCircle
 10
-649.09276
 20
246.080627
 30
0.0
 40
5.0
100
AcDbArc
 50
90.0
 51
135.074044
  0
LINE
  5
427
100
AcDbEntity
  8
0
370
    -3
390
0
  6
CENTER
100
AcDbLine
 10
-638.116391
 20
227.080627
 30
0.0
 11
-593.828673
 21
227.080627
 31
0.0
  0
CIRCLE
  5
428
100
AcDbEntity
  8
0
370
    -3
390
0
  6
DASHED
100
AcDbCircle
 10
-615.29276
 20
227.080627
 30
0.0
 40
13.5
  0
LINE
  5
429
100
AcDbEntity
  8
0
370
    -3
390
0
  6
Continuous
100
AcDbLine
 10
-612.235504
 20
200.906802
 30
0.0
 11
-579.84276
 21
200.906802
 31
0.0
  0
LINE
  5
42A
100
AcDbEntity
  8
0
370
    -3
390
0
  6
Continuous
100
AcDbLine
 10
-661.74276
 20
238.775191
 30
0.0
 11
-661.74276
 21
211.906802
 31
0.0
  0
LINE
  5
42B
100
AcDbEntity
  8
0
370
    -3
390
0
  6
Continuous
100
AcDbLine
 10
-649.09276
 20
251.080627
 30
0.0
 11
-581.49276
 21
251.080627
 31
0.0
  0
LINE
  5
42C
100
AcDbEntity
  8
0
370
    -3
390
0
  6
Continuous
100
AcDbLine
 10
-646.29276
 20
252.080627
 30
0.0
 11
-646.29276
 21
251.080627
 31
0.0
  0
LINE
  5
42D
100
AcDbEntity
  8
0
370
    -3
390
0
  6
Continuous
100
AcDbLine
 10
-646.29276
 20
252.080627
 30
0.0
 11
-646.29276
 21
253.680627
 31
0.0
  0
LINE
  5
42E
100
AcDbEntity
  8
0
370
    -3
390
0
  6
Continuous
100
AcDbLine
 10
-630.29276
 20
491.280627
 30
0.0
 11
-675.894269
 21
491.280627
 31
0.0
  0
LINE
  5
42F
100
AcDbEntity
  8
0
370
    -3
390
0
  6
Continuous
100
AcDbLine
 10
-630.29276
 20
491.280627
 30
0.0
 11
-630.29276
 21
260.807538
 31
0.0
  0
ARC
  5
430
100
AcDbEntity
  8
0
370
    -3
390
0
  6
Continuous
100
AcDbCircle
 10
-633.29276
 20
260.807538
 30
0.0
 40
3.0
100
AcDbArc
 50
270.0
 51
0.0
  0
LINE
  5
431
100
AcDbEntity
  8
0
370
    -3
390
0
  6
Continuous
100
AcDbLine
 10
-644.29276
 20
257.807538
 30
0.0
 11
-633.29276
 21
257.807538
 31
0.0
  0
LINE
  5
432
100
AcDbEntity
  8
0
370
    -3
390
0
  6
Continuous
100
AcDbLine
 10
-645.290085
 20
256.880627
 30
0.0
 11
-675.894269
 21
256.880627
 31
0.0
  0
ARC
  5
433
100
AcDbEntity
  8
0
370
    -3
390
0
  6
Continuous
100
AcDbCircle
 10
-644.29276
 20
256.807538
 30
0.0
 40
1.0
100
AcDbArc
 50
90.0
 51
175.808572
  0
LINE
  5
434
100
AcDbEntity
  8
0
370
    -3
390
0
  6
Continuous
100
AcDbLine
 10
-639.89276
 20
255.680627
 30
0.0
 11
-639.89276
 21
257.807538
 31
0.0
  0
ARC
  5
435
100
AcDbEntity
  8
0
370
    -3
390
0
  6
Continuous
100
AcDbCircle
 10
-615.29276
 20
209.263125
 30
0.0
 40
9.0
100
AcDbArc
 50
253.398469
 51
286.601548
  0
LINE
  5
436
100
AcDbEntity
  8
0
370
    -3
390
0
  6
Continuous
100
AcDbLine
 10
-618.79276
 20
201.8841
 30
0.0
 11
-618.79276
 21
202.280627
 31
0.0
  0
ARC
  5
437
100
AcDbEntity
  8
0
370
    -3
390
0
  6
Continuous
100
AcDbCircle
 10
-617.49276
 20
201.8841
 30
0.0
 40
1.299999
100
AcDbArc
 50
180.0
 51
253.398469
  0
ARC
  5
438
100
AcDbEntity
  8
0
370
    -3
390
0
  6
Continuous
100
AcDbCircle
 10
-617.29276
 20
202.280627
 30
0.0
 40
1.5
100
AcDbArc
 50
147.769047
 51
180.0
  0
ARC
  5
439
100
AcDbEntity
  8
0
370
    -3
390
0
  6
Continuous
100
AcDbCircle
 10
-613.092759
 20
201.8841
 30
0.0
 40
1.299999
100
AcDbArc
 50
286.601531
 51
0.0
  0
LINE
  5
43A
100
AcDbEntity
  8
0
370
    -3
390
0
  6
Continuous
100
AcDbLine
 10
-611.79276
 20
201.8841
 30
0.0
 11
-611.79276
 21
202.280627
 31
0.0
  0
ARC
  5
43B
100
AcDbEntity
  8
0
370
    -3
390
0
  6
Continuous
100
AcDbCircle
 10
-613.29276
 20
202.280627
 30
0.0
 40
1.5
100
AcDbArc
 50
0.0
 51
32.230953
  0
LINE
  5
43C
100
AcDbEntity
  8
0
370
    -3
390
0
  6
Continuous
100
AcDbLine
 10
-587.863828
 20
192.00956
 30
0.0
 11
-578.966585
 21
200.906802
 31
0.0
  0
ARC
  5
43D
100
AcDbEntity
  8
0
370
    -3
390
0
  6
Continuous
100
AcDbCircle
 10
-566.650624
 20
199.080627
 30
0.0
 40
10.0
100
AcDbArc
 50
90.0
 51
105.450807
  0
LINE
  5
43E
100
AcDbEntity
  8
0
370
    -3
390
0
  6
Continuous
100
AcDbLine
 10
-568.880817
 20
210.99257
 30
0.0
 11
-557.031047
 21
222.84234
 31
0.0
  0
LINE
  5
43F
100
AcDbEntity
  8
0
370
    -3
390
0
  6
Continuous
100
AcDbLine
 10
-382.792759
 20
294.30323
 30
0.0
 11
-378.792759
 21
292.847353
 31
0.0
  0
LINE
  5
440
100
AcDbEntity
  8
0
370
    -3
390
0
  6
Continuous
100
AcDbLine
 10
-378.792759
 20
293.898587
 30
0.0
 11
-382.792759
 21
295.354465
 31
0.0
  0
LINE
  5
441
100
AcDbEntity
  8
0
370
    -3
390
0
  6
Continuous
100
AcDbLine
 10
-397.792744
 20
282.080627
 30
0.0
 11
-397.792744
 21
306.080627
 31
0.0
  0
LINE
  5
442
100
AcDbEntity
  8
0
370
    -3
390
0
  6
Continuous
100
AcDbLine
 10
-397.792733
 20
306.080627
 30
0.0
 11
-398.792718
 21
304.348984
 31
0.0
  0
LINE
  5
443
100
AcDbEntity
  8
0
370
    -3
390
0
  6
Continuous
100
AcDbLine
 10
-397.792741
 20
282.08063
 30
0.0
 11
-398.792726
 21
283.813052
 31
0.0
  0
LINE
  5
444
100
AcDbEntity
  8
0
370
    -3
390
0
  6
Continuous
100
AcDbLine
 10
-378.79276
 20
308.080627
 30
0.0
 11
-382.79276
 21
308.080627
 31
0.0
  0
LINE
  5
445
100
AcDbEntity
  8
0
370
    -3
390
0
  6
Continuous
100
AcDbLine
 10
-378.79276
 20
280.080627
 30
0.0
 11
-382.79276
 21
280.080627
 31
0.0
  0
LINE
  5
446
100
AcDbEntity
  8
0
370
    -3
390
0
  6
Continuous
100
AcDbLine
 10
-382.79276
 20
306.080627
 30
0.0
 11
-397.792729
 21
306.080627
 31
0.0
  0
LINE
  5
447
100
AcDbEntity
  8
0
370
    -3
390
0
  6
Continuous
100
AcDbLine
 10
-382.79276
 20
282.080627
 30
0.0
 11
-397.792744
 21
282.080627
 31
0.0
  0
LINE
  5
448
100
AcDbEntity
  8
0
370
    -3
390
0
  6
Continuous
100
AcDbLine
 10
-398.792722
 20
304.348983
 30
0.0
 11
-398.792737
 21
283.813048
 31
0.0
  0
LINE
  5
449
100
AcDbEntity
  8
0
370
    -3
390
0
  6
Continuous
100
AcDbLine
 10
-382.79276
 20
308.080627
 30
0.0
 11
-382.79276
 21
280.080627
 31
0.0
  0
LINE
  5
44A
100
AcDbEntity
  8
0
370
    -3
390
0
  6
Continuous
100
AcDbLine
 10
-378.79276
 20
280.080627
 30
0.0
 11
-378.79276
 21
308.080627
 31
0.0
  0
POINT
  5
44B
100
AcDbEntity
  8
0
370
    -3
390
0
  6
Continuous
100
AcDbPoint
 10
-378.79276
 20
294.080627
 30
0.0
  0
LINE
  5
44C
100
AcDbEntity
  8
0
370
    -3
390
0
  6
Continuous
100
AcDbLine
 10
-424.292759
 20
307.930025
 30
0.0
 11
-420.292759
 21
309.385902
 31
0.0
  0
LINE
  5
44D
100
AcDbEntity
  8
0
370
    -3
390
0
  6
Continuous
100
AcDbLine
 10
-420.292759
 20
308.334668
 30
0.0
 11
-424.292759
 21
306.87879
 31
0.0
  0
LINE
  5
44E
100
AcDbEntity
  8
0
370
    -3
390
0
  6
Continuous
100
AcDbLine
 10
-439.292744
 20
320.152627
 30
0.0
 11
-439.292744
 21
296.152627
 31
0.0
  0
LINE
  5
44F
100
AcDbEntity
  8
0
370
    -3
390
0
  6
Continuous
100
AcDbLine
 10
-439.292733
 20
296.152627
 30
0.0
 11
-440.292718
 21
297.884271
 31
0.0
  0
LINE
  5
450
100
AcDbEntity
  8
0
370
    -3
390
0
  6
Continuous
100
AcDbLine
 10
-439.292741
 20
320.152625
 30
0.0
 11
-440.292726
 21
318.420203
 31
0.0
  0
LINE
  5
451
100
AcDbEntity
  8
0
370
    -3
390
0
  6
Continuous
100
AcDbLine
 10
-420.29276
 20
294.152627
 30
0.0
 11
-424.29276
 21
294.152627
 31
0.0
  0
LINE
  5
452
100
AcDbEntity
  8
0
370
    -3
390
0
  6
Continuous
100
AcDbLine
 10
-420.29276
 20
322.152627
 30
0.0
 11
-424.29276
 21
322.152627
 31
0.0
  0
LINE
  5
453
100
AcDbEntity
  8
0
370
    -3
390
0
  6
Continuous
100
AcDbLine
 10
-424.29276
 20
296.152627
 30
0.0
 11
-439.292729
 21
296.152627
 31
0.0
  0
LINE
  5
454
100
AcDbEntity
  8
0
370
    -3
390
0
  6
Continuous
100
AcDbLine
 10
-424.29276
 20
320.152627
 30
0.0
 11
-439.292744
 21
320.152627
 31
0.0
  0
LINE
  5
455
100
AcDbEntity
  8
0
370
    -3
390
0
  6
Continuous
100
AcDbLine
 10
-440.292722
 20
297.884272
 30
0.0
 11
-440.292737
 21
318.420207
 31
0.0
  0
LINE
  5
456
100
AcDbEntity
  8
0
370
    -3
390
0
  6
Continuous
100
AcDbLine
 10
-424.29276
 20
294.152627
 30
0.0
 11
-424.29276
 21
322.152627
 31
0.0
  0
LINE
  5
457
100
AcDbEntity
  8
0
370
    -3
390
0
  6
Continuous
100
AcDbLine
 10
-420.29276
 20
322.152627
 30
0.0
 11
-420.29276
 21
294.152627
 31
0.0
  0
POINT
  5
458
100
AcDbEntity
  8
0
370
    -3
390
0
  6
Continuous
100
AcDbPoint
 10
-420.29276
 20
308.152627
 30
0.0
  0
LINE
  5
459
100
AcDbEntity
  8
0
370
    -3
390
0
  6
Continuous
100
AcDbLine
 10
-382.792759
 20
453.858025
 30
0.0
 11
-378.792759
 21
455.313902
 31
0.0
  0
LINE
  5
45A
100
AcDbEntity
  8
0
370
    -3
390
0
  6
Continuous
100
AcDbLine
 10
-378.792759
 20
454.262668
 30
0.0
 11
-382.792759
 21
452.80679
 31
0.0
  0
LINE
  5
45B
100
AcDbEntity
  8
0
370
    -3
390
0
  6
Continuous
100
AcDbLine
 10
-397.792744
 20
466.080627
 30
0.0
 11
-397.792744
 21
442.080627
 31
0.0
  0
LINE
  5
45C
100
AcDbEntity
  8
0
370
    -3
390
0
  6
Continuous
100
AcDbLine
 10
-397.792733
 20
442.080627
 30
0.0
 11
-398.792718
 21
443.812271
 31
0.0
  0
LINE
  5
45D
100
AcDbEntity
  8
0
370
    -3
390
0
  6
Continuous
100
AcDbLine
 10
-397.792741
 20
466.080625
 30
0.0
 11
-398.792726
 21
464.348203
 31
0.0
  0
LINE
  5
45E
100
AcDbEntity
  8
0
370
    -3
390
0
  6
Continuous
100
AcDbLine
 10
-378.79276
 20
440.080627
 30
0.0
 11
-382.79276
 21
440.080627
 31
0.0
  0
LINE
  5
45F
100
AcDbEntity
  8
0
370
    -3
390
0
  6
Continuous
100
AcDbLine
 10
-378.79276
 20
468.080627
 30
0.0
 11
-382.79276
 21
468.080627
 31
0.0
  0
LINE
  5
460
100
AcDbEntity
  8
0
370
    -3
390
0
  6
Continuous
100
AcDbLine
 10
-382.79276
 20
442.080627
 30
0.0
 11
-397.792729
 21
442.080627
 31
0.0
  0
LINE
  5
461
100
AcDbEntity
  8
0
370
    -3
390
0
  6
Continuous
100
AcDbLine
 10
-382.79276
 20
466.080627
 30
0.0
 11
-397.792744
 21
466.080627
 31
0.0
  0
LINE
  5
462
100
AcDbEntity
  8
0
370
    -3
390
0
  6
Continuous
100
AcDbLine
 10
-398.792722
 20
443.812272
 30
0.0
 11
-398.792737
 21
464.348207
 31
0.0
  0
LINE
  5
463
100
AcDbEntity
  8
0
370
    -3
390
0
  6
Continuous
100
AcDbLine
 10
-382.79276
 20
440.080627
 30
0.0
 11
-382.79276
 21
468.080627
 31
0.0
  0
LINE
  5
464
100
AcDbEntity
  8
0
370
    -3
390
0
  6
Continuous
100
AcDbLine
 10
-378.79276
 20
468.080627
 30
0.0
 11
-378.79276
 21
440.080627
 31
0.0
  0
POINT
  5
465
100
AcDbEntity
  8
0
370
    -3
390
0
  6
Continuous
100
AcDbPoint
 10
-378.79276
 20
454.080627
 30
0.0
  0
LINE
  5
466
100
AcDbEntity
  8
0
370
    -3
390
0
  6
Continuous
100
AcDbLine
 10
-424.292759
 20
440.23123
 30
0.0
 11
-420.292759
 21
438.775353
 31
0.0
  0
LINE
  5
467
100
AcDbEntity
  8
0
370
    -3
390
0
  6
Continuous
100
AcDbLine
 10
-420.292759
 20
439.826587
 30
0.0
 11
-424.292759
 21
441.282465
 31
0.0
  0
LINE
  5
468
100
AcDbEntity
  8
0
370
    -3
390
0
  6
Continuous
100
AcDbLine
 10
-439.292744
 20
428.008627
 30
0.0
 11
-439.292744
 21
452.008627
 31
0.0
  0
LINE
  5
469
100
AcDbEntity
  8
0
370
    -3
390
0
  6
Continuous
100
AcDbLine
 10
-439.292733
 20
452.008627
 30
0.0
 11
-440.292718
 21
450.276984
 31
0.0
  0
LINE
  5
46A
100
AcDbEntity
  8
0
370
    -3
390
0
  6
Continuous
100
AcDbLine
 10
-439.292741
 20
428.00863
 30
0.0
 11
-440.292726
 21
429.741052
 31
0.0
  0
LINE
  5
46B
100
AcDbEntity
  8
0
370
    -3
390
0
  6
Continuous
100
AcDbLine
 10
-420.29276
 20
454.008627
 30
0.0
 11
-424.29276
 21
454.008627
 31
0.0
  0
LINE
  5
46C
100
AcDbEntity
  8
0
370
    -3
390
0
  6
Continuous
100
AcDbLine
 10
-420.29276
 20
426.008627
 30
0.0
 11
-424.29276
 21
426.008627
 31
0.0
  0
LINE
  5
46D
100
AcDbEntity
  8
0
370
    -3
390
0
  6
Continuous
100
AcDbLine
 10
-424.29276
 20
452.008627
 30
0.0
 11
-439.292729
 21
452.008627
 31
0.0
  0
LINE
  5
46E
100
AcDbEntity
  8
0
370
    -3
390
0
  6
Continuous
100
AcDbLine
 10
-424.29276
 20
428.008627
 30
0.0
 11
-439.292744
 21
428.008627
 31
0.0
  0
LINE
  5
46F
100
AcDbEntity
  8
0
370
    -3
390
0
  6
Continuous
100
AcDbLine
 10
-440.292722
 20
450.276983
 30
0.0
 11
-440.292737
 21
429.741048
 31
0.0
  0
LINE
  5
470
100
AcDbEntity
  8
0
370
    -3
390
0
  6
Continuous
100
AcDbLine
 10
-424.29276
 20
454.008627
 30
0.0
 11
-424.29276
 21
426.008627
 31
0.0
  0
LINE
  5
471
100
AcDbEntity
  8
0
370
    -3
390
0
  6
Continuous
100
AcDbLine
 10
-420.29276
 20
426.008627
 30
0.0
 11
-420.29276
 21
454.008627
 31
0.0
  0
POINT
  5
472
100
AcDbEntity
  8
0
370
    -3
390
0
  6
Continuous
100
AcDbPoint
 10
-420.29276
 20
440.008627
 30
0.0
  0
LINE
  5
473
100
AcDbEntity
  8
0
370
    -3
390
0
  6
CENTER
100
AcDbLine
 10
-396.105673
 20
308.152627
 30
0.0
 11
-449.434987
 21
308.152627
 31
0.0
  0
LINE
  5
474
100
AcDbEntity
  8
0
370
    -3
390
0
  6
Continuous
100
AcDbLine
 10
-401.29276
 20
321.40378
 30
0.0
 11
-420.29276
 21
321.40378
 31
0.0
  0
LINE
  5
475
100
AcDbEntity
  8
0
370
    -3
390
0
  6
Continuous
100
AcDbLine
 10
-401.29276
 20
256.161999
 30
0.0
 11
-418.29276
 21
256.161999
 31
0.0
  0
ARC
  5
476
100
AcDbEntity
  8
0
370
    -3
390
0
  6
Continuous
100
AcDbCircle
 10
-418.29276
 20
258.161999
 30
0.0
 40
2.0
100
AcDbArc
 50
180.0
 51
270.0
  0
LINE
  5
477
100
AcDbEntity
  8
0
370
    -3
390
0
  6
Continuous
100
AcDbLine
 10
-401.29276
 20
426.757475
 30
0.0
 11
-420.29276
 21
426.757475
 31
0.0
  0
LINE
  5
478
100
AcDbEntity
  8
0
370
    -3
390
0
  6
Continuous
100
AcDbLine
 10
-401.29276
 20
491.999256
 30
0.0
 11
-418.29276
 21
491.999256
 31
0.0
  0
ARC
  5
479
100
AcDbEntity
  8
0
370
    -3
390
0
  6
Continuous
100
AcDbCircle
 10
-418.29276
 20
489.999256
 30
0.0
 40
2.0
100
AcDbArc
 50
90.0
 51
180.0
  0
ARC
  5
47A
100
AcDbEntity
  8
0
370
    -3
390
0
  6
Continuous
100
AcDbCircle
 10
-376.79276
 20
308.328704
 30
0.0
 40
2.0
100
AcDbArc
 50
90.0
 51
180.0
  0
ARC
  5
47B
100
AcDbEntity
  8
0
370
    -3
390
0
  6
Continuous
100
AcDbCircle
 10
-373.29276
 20
312.328704
 30
0.0
 40
2.0
100
AcDbArc
 50
270.0
 51
0.0
  0
ARC
  5
47C
100
AcDbEntity
  8
0
370
    -3
390
0
  6
Continuous
100
AcDbCircle
 10
-373.29276
 20
274.083475
 30
0.0
 40
2.0
100
AcDbArc
 50
0.0
 51
90.0
  0
ARC
  5
47D
100
AcDbEntity
  8
0
370
    -3
390
0
  6
Continuous
100
AcDbCircle
 10
-376.79276
 20
278.083475
 30
0.0
 40
2.0
100
AcDbArc
 50
180.0
 51
270.0
  0
LINE
  5
47E
100
AcDbEntity
  8
0
370
    -3
390
0
  6
Continuous
100
AcDbLine
 10
-371.29276
 20
312.328704
 30
0.0
 11
-371.29276
 21
374.080627
 31
0.0
  0
LINE
  5
47F
100
AcDbEntity
  8
0
370
    -3
390
0
  6
Continuous
100
AcDbLine
 10
-371.29276
 20
274.083475
 30
0.0
 11
-371.29276
 21
312.328704
 31
0.0
  0
LINE
  5
480
100
AcDbEntity
  8
0
370
    -3
390
0
  6
Continuous
100
AcDbLine
 10
-378.79276
 20
278.083475
 30
0.0
 11
-378.79276
 21
308.328704
 31
0.0
  0
LINE
  5
481
100
AcDbEntity
  8
0
370
    -3
390
0
  6
Continuous
100
AcDbLine
 10
-378.79276
 20
308.328704
 30
0.0
 11
-378.79276
 21
374.080627
 31
0.0
  0
LINE
  5
482
100
AcDbEntity
  8
0
370
    -3
390
0
  6
Continuous
100
AcDbLine
 10
-376.79276
 20
276.083475
 30
0.0
 11
-373.29276
 21
276.083475
 31
0.0
  0
LINE
  5
483
100
AcDbEntity
  8
0
370
    -3
390
0
  6
Continuous
100
AcDbLine
 10
-376.79276
 20
310.328704
 30
0.0
 11
-373.29276
 21
310.328704
 31
0.0
  0
ARC
  5
484
100
AcDbEntity
  8
0
370
    -3
390
0
  6
Continuous
100
AcDbCircle
 10
-381.79276
 20
236.237568
 30
0.0
 40
3.0
100
AcDbArc
 50
0.0
 51
21.203863
  0
ARC
  5
485
100
AcDbEntity
  8
0
370
    -3
390
0
  6
Continuous
100
AcDbCircle
 10
-378.79276
 20
359.580627
 30
0.0
 40
3.0
100
AcDbArc
 50
180.0
 51
270.0
  0
LINE
  5
486
100
AcDbEntity
  8
0
370
    -3
390
0
  6
Continuous
100
AcDbLine
 10
-381.79276
 20
359.580627
 30
0.0
 11
-381.79276
 21
374.080627
 31
0.0
  0
LINE
  5
487
100
AcDbEntity
  8
0
370
    -3
390
0
  6
Continuous
100
AcDbLine
 10
-401.29276
 20
175.080627
 30
0.0
 11
-401.29276
 21
374.080627
 31
0.0
  0
LINE
  5
488
100
AcDbEntity
  8
0
370
    -3
390
0
  6
Continuous
100
AcDbLine
 10
-371.29276
 20
190.080627
 30
0.0
 11
-371.29276
 21
274.083475
 31
0.0
  0
LINE
  5
489
100
AcDbEntity
  8
0
370
    -3
390
0
  6
Continuous
100
AcDbLine
 10
-378.79276
 20
138.080627
 30
0.0
 11
-378.79276
 21
278.083475
 31
0.0
  0
LINE
  5
48A
100
AcDbEntity
  8
0
370
    -3
390
0
  6
CENTER
100
AcDbLine
 10
-364.291683
 20
294.080627
 30
0.0
 11
-404.519314
 21
294.080627
 31
0.0
  0
LINE
  5
48B
100
AcDbEntity
  8
0
370
    -3
390
0
  6
Continuous
100
AcDbLine
 10
-396.359816
 20
282.080627
 30
0.0
 11
-378.995861
 21
237.32263
 31
0.0
  0
ARC
  5
48C
100
AcDbEntity
  8
0
370
    -3
390
0
  6
Continuous
100
AcDbCircle
 10
-376.79276
 20
439.832551
 30
0.0
 40
2.0
100
AcDbArc
 50
180.0
 51
270.0
  0
ARC
  5
48D
100
AcDbEntity
  8
0
370
    -3
390
0
  6
Continuous
100
AcDbCircle
 10
-373.29276
 20
435.832551
 30
0.0
 40
2.0
100
AcDbArc
 50
0.0
 51
90.0
  0
ARC
  5
48E
100
AcDbEntity
  8
0
370
    -3
390
0
  6
Continuous
100
AcDbCircle
 10
-373.29276
 20
474.07778
 30
0.0
 40
2.0
100
AcDbArc
 50
270.0
 51
0.0
  0
ARC
  5
48F
100
AcDbEntity
  8
0
370
    -3
390
0
  6
Continuous
100
AcDbCircle
 10
-376.79276
 20
470.07778
 30
0.0
 40
2.0
100
AcDbArc
 50
90.0
 51
180.0
  0
LINE
  5
490
100
AcDbEntity
  8
0
370
    -3
390
0
  6
Continuous
100
AcDbLine
 10
-371.29276
 20
435.832551
 30
0.0
 11
-371.29276
 21
374.080627
 31
0.0
  0
LINE
  5
491
100
AcDbEntity
  8
0
370
    -3
390
0
  6
Continuous
100
AcDbLine
 10
-371.29276
 20
474.07778
 30
0.0
 11
-371.29276
 21
435.832551
 31
0.0
  0
LINE
  5
492
100
AcDbEntity
  8
0
370
    -3
390
0
  6
Continuous
100
AcDbLine
 10
-378.79276
 20
470.07778
 30
0.0
 11
-378.79276
 21
439.832551
 31
0.0
  0
LINE
  5
493
100
AcDbEntity
  8
0
370
    -3
390
0
  6
Continuous
100
AcDbLine
 10
-378.79276
 20
439.832551
 30
0.0
 11
-378.79276
 21
374.080627
 31
0.0
  0
LINE
  5
494
100
AcDbEntity
  8
0
370
    -3
390
0
  6
Continuous
100
AcDbLine
 10
-376.79276
 20
472.07778
 30
0.0
 11
-373.29276
 21
472.07778
 31
0.0
  0
LINE
  5
495
100
AcDbEntity
  8
0
370
    -3
390
0
  6
Continuous
100
AcDbLine
 10
-376.79276
 20
437.832551
 30
0.0
 11
-373.29276
 21
437.832551
 31
0.0
  0
ARC
  5
496
100
AcDbEntity
  8
0
370
    -3
390
0
  6
Continuous
100
AcDbCircle
 10
-378.79276
 20
388.580627
 30
0.0
 40
3.0
100
AcDbArc
 50
90.0
 51
180.0
  0
LINE
  5
497
100
AcDbEntity
  8
0
370
    -3
390
0
  6
Continuous
100
AcDbLine
 10
-381.79276
 20
388.580627
 30
0.0
 11
-381.79276
 21
374.080627
 31
0.0
  0
LINE
  5
498
100
AcDbEntity
  8
0
370
    -3
390
0
  6
Continuous
100
AcDbLine
 10
-401.29276
 20
573.080627
 30
0.0
 11
-401.29276
 21
374.080627
 31
0.0
  0
LINE
  5
499
100
AcDbEntity
  8
0
370
    -3
390
0
  6
Continuous
100
AcDbLine
 10
-371.29276
 20
558.080627
 30
0.0
 11
-371.29276
 21
474.07778
 31
0.0
  0
LINE
  5
49A
100
AcDbEntity
  8
0
370
    -3
390
0
  6
Continuous
100
AcDbLine
 10
-378.79276
 20
610.080627
 30
0.0
 11
-378.79276
 21
470.07778
 31
0.0
  0
LINE
  5
49B
100
AcDbEntity
  8
0
370
    -3
390
0
  6
CENTER
100
AcDbLine
 10
-364.291683
 20
454.080627
 30
0.0
 11
-404.519314
 21
454.080627
 31
0.0
  0
LINE
  5
49C
100
AcDbEntity
  8
0
370
    -3
390
0
  6
Continuous
100
AcDbLine
 10
-396.359816
 20
466.080627
 30
0.0
 11
-378.995861
 21
510.838624
 31
0.0
  0
LINE
  5
49D
100
AcDbEntity
  8
0
370
    -3
390
0
  6
CENTER
100
AcDbLine
 10
-396.105673
 20
440.008627
 30
0.0
 11
-449.434987
 21
440.008627
 31
0.0
  0
LINE
  5
49E
100
AcDbEntity
  8
0
370
    -3
390
0
  6
Continuous
100
AcDbLine
 10
-423.29276
 20
264.080627
 30
0.0
 11
-425.29276
 21
264.080627
 31
0.0
  0
ARC
  5
49F
100
AcDbEntity
  8
0
370
    -3
390
0
  6
Continuous
100
AcDbCircle
 10
-423.29276
 20
261.080627
 30
0.0
 40
3.0
100
AcDbArc
 50
0.0
 51
90.0
  0
ARC
  5
4A0
100
AcDbEntity
  8
0
370
    -3
390
0
  6
Continuous
100
AcDbCircle
 10
-423.29276
 20
487.080627
 30
0.0
 40
3.0
100
AcDbArc
 50
270.0
 51
0.0
  0
LINE
  5
4A1
100
AcDbEntity
  8
0
370
    -3
390
0
  6
Continuous
100
AcDbLine
 10
-423.29276
 20
484.080627
 30
0.0
 11
-425.29276
 21
484.080627
 31
0.0
  0
LINE
  5
4A2
100
AcDbEntity
  8
0
370
    -3
390
0
  6
Continuous
100
AcDbLine
 10
-630.29276
 20
268.080627
 30
0.0
 11
-425.29276
 21
268.080627
 31
0.0
  0
LINE
  5
4A3
100
AcDbEntity
  8
0
370
    -3
390
0
  6
Continuous
100
AcDbLine
 10
-630.29276
 20
268.580627
 30
0.0
 11
-425.29276
 21
268.580627
 31
0.0
  0
LINE
  5
4A4
100
AcDbEntity
  8
0
370
    -3
390
0
  6
Continuous
100
AcDbLine
 10
-425.29276
 20
339.457701
 30
0.0
 11
-630.29276
 21
339.457701
 31
0.0
  0
LINE
  5
4A5
100
AcDbEntity
  8
0
370
    -3
390
0
  6
Continuous
100
AcDbLine
 10
-425.29276
 20
336.669184
 30
0.0
 11
-630.29276
 21
336.669184
 31
0.0
  0
LINE
  5
4A6
100
AcDbEntity
  8
0
370
    -3
390
0
  6
Continuous
100
AcDbLine
 10
-425.29276
 20
327.508134
 30
0.0
 11
-630.29276
 21
327.508134
 31
0.0
  0
LINE
  5
4A7
100
AcDbEntity
  8
0
370
    -3
390
0
  6
Continuous
100
AcDbLine
 10
-425.29276
 20
324.592576
 30
0.0
 11
-630.29276
 21
324.592576
 31
0.0
  0
LINE
  5
4A8
100
AcDbEntity
  8
0
370
    -3
390
0
  6
Continuous
100
AcDbLine
 10
-425.29276
 20
286.97221
 30
0.0
 11
-630.29276
 21
286.97221
 31
0.0
  0
LINE
  5
4A9
100
AcDbEntity
  8
0
370
    -3
390
0
  6
Continuous
100
AcDbLine
 10
-425.29276
 20
274.080627
 30
0.0
 11
-630.29276
 21
274.080627
 31
0.0
  0
LINE
  5
4AA
100
AcDbEntity
  8
0
370
    -3
390
0
  6
Continuous
100
AcDbLine
 10
-630.29276
 20
480.080627
 30
0.0
 11
-425.29276
 21
480.080627
 31
0.0
  0
LINE
  5
4AB
100
AcDbEntity
  8
0
370
    -3
390
0
  6
Continuous
100
AcDbLine
 10
-630.29276
 20
479.580627
 30
0.0
 11
-425.29276
 21
479.580627
 31
0.0
  0
LINE
  5
4AC
100
AcDbEntity
  8
0
370
    -3
390
0
  6
Continuous
100
AcDbLine
 10
-425.29276
 20
408.703554
 30
0.0
 11
-630.29276
 21
408.703554
 31
0.0
  0
LINE
  5
4AD
100
AcDbEntity
  8
0
370
    -3
390
0
  6
Continuous
100
AcDbLine
 10
-425.29276
 20
411.492071
 30
0.0
 11
-630.29276
 21
411.492071
 31
0.0
  0
LINE
  5
4AE
100
AcDbEntity
  8
0
370
    -3
390
0
  6
Continuous
100
AcDbLine
 10
-425.29276
 20
420.653121
 30
0.0
 11
-630.29276
 21
420.653121
 31
0.0
  0
LINE
  5
4AF
100
AcDbEntity
  8
0
370
    -3
390
0
  6
Continuous
100
AcDbLine
 10
-425.29276
 20
423.568679
 30
0.0
 11
-630.29276
 21
423.568679
 31
0.0
  0
LINE
  5
4B0
100
AcDbEntity
  8
0
370
    -3
390
0
  6
Continuous
100
AcDbLine
 10
-425.29276
 20
461.189045
 30
0.0
 11
-630.29276
 21
461.189045
 31
0.0
  0
LINE
  5
4B1
100
AcDbEntity
  8
0
370
    -3
390
0
  6
Continuous
100
AcDbLine
 10
-425.29276
 20
474.080627
 30
0.0
 11
-630.29276
 21
474.080627
 31
0.0
  0
ARC
  5
4B2
100
AcDbEntity
  8
0
370
    -3
390
0
  6
Continuous
100
AcDbCircle
 10
-420.29276
 20
407.080627
 30
0.0
 40
3.0
100
AcDbArc
 50
90.0
 51
180.0
  0
LINE
  5
4B3
100
AcDbEntity
  8
0
370
    -3
390
0
  6
Continuous
100
AcDbLine
 10
-420.29276
 20
410.080627
 30
0.0
 11
-401.29276
 21
410.080627
 31
0.0
  0
LINE
  5
4B4
100
AcDbEntity
  8
0
370
    -3
390
0
  6
Continuous
100
AcDbLine
 10
-401.29276
 20
410.080627
 30
0.0
 11
-401.29276
 21
338.080627
 31
0.0
  0
LINE
  5
4B5
100
AcDbEntity
  8
0
370
    -3
390
0
  6
Continuous
100
AcDbLine
 10
-420.29276
 20
338.080627
 30
0.0
 11
-401.29276
 21
338.080627
 31
0.0
  0
LINE
  5
4B6
100
AcDbEntity
  8
0
370
    -3
390
0
  6
Continuous
100
AcDbLine
 10
-423.29276
 20
341.080627
 30
0.0
 11
-423.29276
 21
407.080627
 31
0.0
  0
ARC
  5
4B7
100
AcDbEntity
  8
0
370
    -3
390
0
  6
Continuous
100
AcDbCircle
 10
-420.29276
 20
341.080627
 30
0.0
 40
3.0
100
AcDbArc
 50
180.0
 51
270.0
  0
LINE
  5
4B8
100
AcDbEntity
  8
0
370
    -3
390
0
  6
Continuous
100
AcDbLine
 10
-435.29276
 20
365.580627
 30
0.0
 11
-446.57276
 21
365.580627
 31
0.0
  0
LINE
  5
4B9
100
AcDbEntity
  8
0
370
    -3
390
0
  6
Continuous
100
AcDbLine
 10
-446.57276
 20
365.580627
 30
0.0
 11
-447.29276
 21
364.333551
 31
0.0
  0
LINE
  5
4BA
100
AcDbEntity
  8
0
370
    -3
390
0
  6
Continuous
100
AcDbLine
 10
-447.29276
 20
364.333551
 30
0.0
 11
-447.29276
 21
348.827704
 31
0.0
  0
LINE
  5
4BB
100
AcDbEntity
  8
0
370
    -3
390
0
  6
Continuous
100
AcDbLine
 10
-446.57276
 20
365.580627
 30
0.0
 11
-446.57276
 21
347.580627
 31
0.0
  0
LINE
  5
4BC
100
AcDbEntity
  8
0
370
    -3
390
0
  6
Continuous
100
AcDbLine
 10
-446.57276
 20
347.580627
 30
0.0
 11
-435.29276
 21
347.580627
 31
0.0
  0
LINE
  5
4BD
100
AcDbEntity
  8
0
370
    -3
390
0
  6
Continuous
100
AcDbLine
 10
-447.29276
 20
348.827704
 30
0.0
 11
-446.57276
 21
347.580627
 31
0.0
  0
LINE
  5
4BE
100
AcDbEntity
  8
0
370
    -3
390
0
  6
Continuous
100
AcDbLine
 10
-423.29276
 20
341.580627
 30
0.0
 11
-423.29276
 21
351.580627
 31
0.0
  0
LINE
  5
4BF
100
AcDbEntity
  8
0
370
    -3
390
0
  6
Continuous
100
AcDbLine
 10
-435.29276
 20
341.580627
 30
0.0
 11
-423.29276
 21
341.580627
 31
0.0
  0
LINE
  5
4C0
100
AcDbEntity
  8
0
370
    -3
390
0
  6
Continuous
100
AcDbLine
 10
-435.29276
 20
341.580627
 30
0.0
 11
-435.29276
 21
351.580627
 31
0.0
  0
LINE
  5
4C1
100
AcDbEntity
  8
0
370
    -3
390
0
  6
Continuous
100
AcDbLine
 10
-423.29276
 20
351.580627
 30
0.0
 11
-423.29276
 21
396.580627
 31
0.0
  0
LINE
  5
4C2
100
AcDbEntity
  8
0
370
    -3
390
0
  6
Continuous
100
AcDbLine
 10
-423.29276
 20
396.580627
 30
0.0
 11
-423.29276
 21
406.580627
 31
0.0
  0
LINE
  5
4C3
100
AcDbEntity
  8
0
370
    -3
390
0
  6
Continuous
100
AcDbLine
 10
-435.29276
 20
351.580627
 30
0.0
 11
-435.29276
 21
396.580627
 31
0.0
  0
LINE
  5
4C4
100
AcDbEntity
  8
0
370
    -3
390
0
  6
Continuous
100
AcDbLine
 10
-446.57276
 20
382.580627
 30
0.0
 11
-435.29276
 21
382.580627
 31
0.0
  0
LINE
  5
4C5
100
AcDbEntity
  8
0
370
    -3
390
0
  6
Continuous
100
AcDbLine
 10
-447.29276
 20
383.827704
 30
0.0
 11
-446.57276
 21
382.580627
 31
0.0
  0
LINE
  5
4C6
100
AcDbEntity
  8
0
370
    -3
390
0
  6
Continuous
100
AcDbLine
 10
-446.57276
 20
400.580627
 30
0.0
 11
-446.57276
 21
382.580627
 31
0.0
  0
LINE
  5
4C7
100
AcDbEntity
  8
0
370
    -3
390
0
  6
Continuous
100
AcDbLine
 10
-447.29276
 20
399.333551
 30
0.0
 11
-447.29276
 21
383.827704
 31
0.0
  0
LINE
  5
4C8
100
AcDbEntity
  8
0
370
    -3
390
0
  6
Continuous
100
AcDbLine
 10
-446.57276
 20
400.580627
 30
0.0
 11
-447.29276
 21
399.333551
 31
0.0
  0
LINE
  5
4C9
100
AcDbEntity
  8
0
370
    -3
390
0
  6
Continuous
100
AcDbLine
 10
-435.29276
 20
400.580627
 30
0.0
 11
-446.57276
 21
400.580627
 31
0.0
  0
LINE
  5
4CA
100
AcDbEntity
  8
0
370
    -3
390
0
  6
Continuous
100
AcDbLine
 10
-435.29276
 20
406.580627
 30
0.0
 11
-423.29276
 21
406.580627
 31
0.0
  0
LINE
  5
4CB
100
AcDbEntity
  8
0
370
    -3
390
0
  6
Continuous
100
AcDbLine
 10
-435.29276
 20
396.580627
 30
0.0
 11
-435.29276
 21
406.580627
 31
0.0
  0
LINE
  5
4CC
100
AcDbEntity
  8
0
370
    -3
390
0
  6
Continuous
100
AcDbLine
 10
-420.29276
 20
551.080627
 30
0.0
 11
-420.29276
 21
410.080627
 31
0.0
  0
LINE
  5
4CD
100
AcDbEntity
  8
0
370
    -3
390
0
  6
Continuous
100
AcDbLine
 10
-420.29276
 20
197.080627
 30
0.0
 11
-420.29276
 21
338.080627
 31
0.0
  0
LINE
  5
4CE
100
AcDbEntity
  8
0
370
    -3
390
0
  6
Continuous
100
AcDbLine
 10
-401.29276
 20
294.901475
 30
0.0
 11
-420.29276
 21
294.901475
 31
0.0
  0
LINE
  5
4CF
100
AcDbEntity
  8
0
370
    -3
390
0
  6
Continuous
100
AcDbLine
 10
-425.29276
 20
264.080627
 30
0.0
 11
-425.29276
 21
296.164598
 31
0.0
  0
LINE
  5
4D0
100
AcDbEntity
  8
0
370
    -3
390
0
  6
Continuous
100
AcDbLine
 10
-440.292735
 20
315.56394
 30
0.0
 11
-630.29276
 21
315.56394
 31
0.0
  0
LINE
  5
4D1
100
AcDbEntity
  8
0
370
    -3
390
0
  6
Continuous
100
AcDbLine
 10
-440.292733
 20
312.609459
 30
0.0
 11
-630.29276
 21
312.609459
 31
0.0
  0
LINE
  5
4D2
100
AcDbEntity
  8
0
370
    -3
390
0
  6
Continuous
100
AcDbLine
 10
-435.29276
 20
368.830627
 30
0.0
 11
-630.29276
 21
368.830627
 31
0.0
  0
LINE
  5
4D3
100
AcDbEntity
  8
0
370
    -3
390
0
  6
Continuous
100
AcDbLine
 10
-435.29276
 20
379.330627
 30
0.0
 11
-630.29276
 21
379.330627
 31
0.0
  0
LINE
  5
4D4
100
AcDbEntity
  8
0
370
    -3
390
0
  6
Continuous
100
AcDbLine
 10
-425.29276
 20
451.996657
 30
0.0
 11
-425.29276
 21
484.080627
 31
0.0
  0
LINE
  5
4D5
100
AcDbEntity
  8
0
370
    -3
390
0
  6
Continuous
100
AcDbLine
 10
-440.292733
 20
435.551795
 30
0.0
 11
-630.29276
 21
435.551795
 31
0.0
  0
LINE
  5
4D6
100
AcDbEntity
  8
0
370
    -3
390
0
  6
Continuous
100
AcDbLine
 10
-440.292735
 20
432.597315
 30
0.0
 11
-630.29276
 21
432.597315
 31
0.0
  0
LINE
  5
4D7
100
AcDbEntity
  8
0
370
    -3
390
0
  6
Continuous
100
AcDbLine
 10
-447.29276
 20
396.771586
 30
0.0
 11
-630.29276
 21
396.771586
 31
0.0
  0
LINE
  5
4D8
100
AcDbEntity
  8
0
370
    -3
390
0
  6
Continuous
100
AcDbLine
 10
-447.29276
 20
389.870757
 30
0.0
 11
-630.29276
 21
389.870757
 31
0.0
  0
LINE
  5
4D9
100
AcDbEntity
  8
0
370
    -3
390
0
  6
Continuous
100
AcDbLine
 10
-447.29276
 20
387.080627
 30
0.0
 11
-630.29276
 21
387.080627
 31
0.0
  0
LINE
  5
4DA
100
AcDbEntity
  8
0
370
    -3
390
0
  6
Continuous
100
AcDbLine
 10
-447.253247
 20
399.401989
 30
0.0
 11
-630.29276
 21
399.401989
 31
0.0
  0
LINE
  5
4DB
100
AcDbEntity
  8
0
370
    -3
390
0
  6
Continuous
100
AcDbLine
 10
-447.29276
 20
361.080627
 30
0.0
 11
-630.29276
 21
361.080627
 31
0.0
  0
LINE
  5
4DC
100
AcDbEntity
  8
0
370
    -3
390
0
  6
Continuous
100
AcDbLine
 10
-447.29276
 20
358.290498
 30
0.0
 11
-630.29276
 21
358.290498
 31
0.0
  0
LINE
  5
4DD
100
AcDbEntity
  8
0
370
    -3
390
0
  6
Continuous
100
AcDbLine
 10
-447.29276
 20
351.389668
 30
0.0
 11
-630.29276
 21
351.389668
 31
0.0
  0
LINE
  5
4DE
100
AcDbEntity
  8
0
370
    -3
390
0
  6
Continuous
100
AcDbLine
 10
-447.253247
 20
348.759266
 30
0.0
 11
-630.29276
 21
348.759266
 31
0.0
  0
LINE
  5
4DF
100
AcDbEntity
  8
0
370
    -3
390
0
  6
Continuous
100
AcDbLine
 10
-425.29276
 20
406.580627
 30
0.0
 11
-425.29276
 21
428.008627
 31
0.0
  0
LINE
  5
4E0
100
AcDbEntity
  8
0
370
    -3
390
0
  6
Continuous
100
AcDbLine
 10
-425.29276
 20
320.152627
 30
0.0
 11
-425.29276
 21
341.580627
 31
0.0
  0
LINE
  5
4E1
100
AcDbEntity
  8
0
370
    -3
390
0
  6
CENTER
100
AcDbLine
 10
-452.327396
 20
391.580627
 30
0.0
 11
-403.940098
 21
391.580627
 31
0.0
  0
LINE
  5
4E2
100
AcDbEntity
  8
0
370
    -3
390
0
  6
CENTER
100
AcDbLine
 10
-452.327396
 20
356.580627
 30
0.0
 11
-403.940098
 21
356.580627
 31
0.0
  0
LINE
  5
4E3
100
AcDbEntity
  8
0
370
    -3
390
0
  6
CENTER
100
AcDbLine
 10
25.429053
 20
374.080627
 30
0.0
 11
-738.553097
 21
374.080627
 31
0.0
  0
LINE
  5
4E4
100
AcDbEntity
  8
0
370
    -3
390
0
  6
Continuous
100
AcDbLine
 10
-439.299646
 20
451.996657
 30
0.0
 11
-630.29276
 21
451.996657
 31
0.0
  0
LINE
  5
4E5
100
AcDbEntity
  8
0
370
    -3
390
0
  6
Continuous
100
AcDbLine
 10
-439.299646
 20
296.164598
 30
0.0
 11
-630.29276
 21
296.164598
 31
0.0
  0
ENDSEC
  0
SECTION
  2
OBJECTS
  0
DICTIONARY
  5
19
100
AcDbDictionary
280
     0
281
     1
  3
ACAD_GROUP
350
1A
  3
ACAD_MLINESTYLE
350
1B
  3
ACAD_LAYOUT
350
1E
  3
ACAD_PLOTSETTINGS
350
22
  3
ACAD_PLOTSTYLENAME
350
1F
  3
ACAD_WIPEOUT_VARS
350
23
  3
DWGPROPS
350
4E6
  0
DICTIONARY
  5
1A
102
{ACAD_REACTORS
330
19
102
}
100
AcDbDictionary
280
     0
281
     1
  0
DICTIONARY
  5
1B
102
{ACAD_REACTORS
330
19
102
}
100
AcDbDictionary
280
     0
281
     1
  3
Standard
350
1C
  0
MLINESTYLE
  5
1C
102
{ACAD_REACTORS
330
1B
102
}
100
AcDbMlineStyle
  2
Standard
 70
     0
  3

 62
     0
 51
90.0
 52
90.0
 71
     2
 49
0.5
 62
   256
  6
ByLayer
 49
-0.5
 62
   256
  6
ByLayer
  0
ACDBDICTIONARYWDFLT
  5
1F
102
{ACAD_REACTORS
330
19
102
}
100
AcDbDictionary
281
     1
  3
Normal
350
1D
100
AcDbDictionaryWithDefault
340
1D
  0
ACDBPLACEHOLDER
  5
1D
102
{ACAD_REACTORS
330
1F
102
}
  0
LAYOUT
  5
20
102
{ACAD_REACTORS
330
1E
102
}
100
AcDbPlotSettings
  1

  2

  4

  6

 40
0.0
 41
0.0
 42
0.0
 43
0.0
 44
0.0
 45
0.0
 46
0.0
 47
0.0
 48
0.0
 49
0.0
140
0.0
141
0.0
142
1.0
143
1.0
 70
  1024
 72
     0
 73
     0
 74
     0
  7

 75
     0
147
1.0
148
0.0
149
0.0
100
AcDbLayout
  1
Model
 70
     0
 71
     0
 10
0.0
 20
0.0
 11
0.0
 21
0.0
 12
0.0
 22
0.0
 32
0.0
 14
0.0
 24
0.0
 34
0.0
 15
0.0
 25
0.0
 35
0.0
146
0.0
 13
0.0
 23
0.0
 33
0.0
 16
0.0
 26
0.0
 36
0.0
 17
0.0
 27
0.0
 37
0.0
 76
     0
330
A
331
0
345
0
346
0
  0
LAYOUT
  5
21
102
{ACAD_REACTORS
330
1E
102
}
100
AcDbPlotSettings
  1

  2

  4

  6

 40
0.0
 41
0.0
 42
0.0
 43
0.0
 44
0.0
 45
0.0
 46
0.0
 47
0.0
 48
0.0
 49
0.0
140
0.0
141
0.0
142
1.0
143
1.0
 70
     0
 72
     0
 73
     0
 74
     0
  7

 75
     0
147
1.0
148
0.0
149
0.0
100
AcDbLayout
  1
Layout1
 70
     0
 71
     0
 10
0.0
 20
0.0
 11
0.0
 21
0.0
 12
0.0
 22
0.0
 32
0.0
 14
0.0
 24
0.0
 34
0.0
 15
0.0
 25
0.0
 35
0.0
146
0.0
 13
0.0
 23
0.0
 33
0.0
 16
0.0
 26
0.0
 36
0.0
 17
0.0
 27
0.0
 37
0.0
 76
     0
330
B
331
0
345
0
346
0
  0
DICTIONARY
  5
1E
102
{ACAD_REACTORS
330
19
102
}
100
AcDbDictionary
280
     0
281
     1
  3
Layout1
350
21
  3
Model
350
20
  0
DICTIONARY
  5
22
102
{ACAD_REACTORS
330
19
102
}
100
AcDbDictionary
280
     0
281
     1
  0
WIPEOUTVARIABLES
  5
23
100
AcDbWipeoutVariables
 70
     1
  0
XRECORD
  5
4E6
100
AcDbXrecord
280
     1
  1
DWGPROPS COOKIE
  2

  3

  4

  6

  7

  8
YP81315
  9

300
=
301
=
302
=
303
=
304
=
305
=
306
=
307
=
308
=
309
=
 40
0.0
 41
2456812.581863
 42
2456812.581863
  1

 90
        0
  0
ENDSEC
  0
EOF
