  0
SECTION
  2
HEADER
  9
$ACADVER
  1
AC1015
  9
$ACADMAINTVER
 70
     6
  9
$DWGCODEPAGE
  3
ANSI_932
  9
$INSBASE
 10
0.0
 20
0.0
 30
0.0
  9
$EXTMIN
 10
1.000000E+20
 20
1.000000E+20
 30
1.000000E+20
  9
$EXTMAX
 10
-1.000000E+20
 20
-1.000000E+20
 30
-1.000000E+20
  9
$LIMMIN
 10
0.0
 20
0.0
  9
$LIMMAX
 10
0.0
 20
0.0
  9
$ORTHOMODE
 70
     0
  9
$REGENMODE
 70
     1
  9
$FILLMODE
 70
     1
  9
$QTEXTMODE
 70
     0
  9
$MIRRTEXT
 70
     1
  9
$LTSCALE
 40
1.0
  9
$ATTMODE
 70
     1
  9
$TEXTSIZE
 40
3.3
  9
$TRACEWID
 40
0.05
  9
$TEXTSTYLE
  7
Standard
  9
$CLAYER
  8
0
  9
$CELTYPE
  6
Continuous
  9
$CECOLOR
 62
   256
  9
$CELTSCALE
 40
1.0
  9
$DISPSILH
 70
     0
  9
$DIMSCALE
 40
1.0
  9
$DIMASZ
 40
1.931852
  9
$DIMEXO
 40
1.0
  9
$DIMDLI
 40
0.38
  9
$DIMRND
 40
0.0
  9
$DIMDLE
 40
0.0
  9
$DIMEXE
 40
2.0
  9
$DIMTP
 40
0.0
  9
$DIMTM
 40
0.0
  9
$DIMTXT
 40
3.2
  9
$DIMCEN
 40
0.09
  9
$DIMTSZ
 40
0.0
  9
$DIMTOL
 70
     0
  9
$DIMLIM
 70
     0
  9
$DIMTIH
 70
     1
  9
$DIMTOH
 70
     1
  9
$DIMSE1
 70
     0
  9
$DIMSE2
 70
     0
  9
$DIMTAD
 70
     1
  9
$DIMZIN
 70
     0
  9
$DIMBLK
  1

  9
$DIMASO
 70
     1
  9
$DIMSHO
 70
     1
  9
$DIMPOST
  1

  9
$DIMAPOST
  1

  9
$DIMALT
 70
     0
  9
$DIMALTD
 70
     2
  9
$DIMALTF
 40
25.4
  9
$DIMLFAC
 40
1.0
  9
$DIMTOFL
 70
     0
  9
$DIMTVP
 40
0.0
  9
$DIMTIX
 70
     0
  9
$DIMSOXD
 70
     0
  9
$DIMSAH
 70
     0
  9
$DIMBLK1
  1

  9
$DIMBLK2
  1

  9
$DIMSTYLE
  2
Standard
  9
$DIMCLRD
 70
     0
  9
$DIMCLRE
 70
     0
  9
$DIMCLRT
 70
     0
  9
$DIMTFAC
 40
0.714286
  9
$DIMGAP
 40
0.09
  9
$DIMJUST
 70
     0
  9
$DIMSD1
 70
     0
  9
$DIMSD2
 70
     0
  9
$DIMTOLJ
 70
     1
  9
$DIMTZIN
 70
     0
  9
$DIMALTZ
 70
     0
  9
$DIMALTTZ
 70
     0
  9
$DIMUPT
 70
     0
  9
$DIMDEC
 70
     4
  9
$DIMTDEC
 70
     4
  9
$DIMALTU
 70
     2
  9
$DIMALTTD
 70
     2
  9
$DIMTXSTY
  7
Standard
  9
$DIMAUNIT
 70
     0
  9
$DIMADEC
 70
     0
  9
$DIMALTRND
 40
0.0
  9
$DIMAZIN
 70
     0
  9
$DIMDSEP
 70
     0
  9
$DIMATFIT
 70
     3
  9
$DIMFRAC
 70
     0
  9
$DIMLDRBLK
  1

  9
$DIMLUNIT
 70
     2
  9
$DIMLWD
 70
     0
  9
$DIMLWE
 70
     0
  9
$DIMTMOVE
 70
     0
  9
$LUNITS
 70
     2
  9
$LUPREC
 70
     3
  9
$SKETCHINC
 40
0.1
  9
$FILLETRAD
 40
0.0
  9
$AUNITS
 70
     0
  9
$AUPREC
 70
     0
  9
$MENU
  1
acad
  9
$ELEVATION
 40
0.0
  9
$PELEVATION
 40
0.0
  9
$THICKNESS
 40
0.0
  9
$LIMCHECK
 70
     0
  9
$CHAMFERA
 40
0.0
  9
$CHAMFERB
 40
0.0
  9
$CHAMFERC
 40
0.0
  9
$CHAMFERD
 40
0.0
  9
$SKPOLY
 70
     0
  9
$TDCREATE
 40
0.000000000
  9
$TDUCREATE
 40
0.000000000
  9
$TDUPDATE
 40
0.000000000
  9
$TDUUPDATE
 40
0.000000000
  9
$TDINDWG
 40
0.0000000000
  9
$TDUSRTIMER
 40
0.0000000000
  9
$USRTIMER
 70
     1
  9
$ANGBASE
 50
0.0
  9
$ANGDIR
 70
     0
  9
$PDMODE
 70
     0
  9
$PDSIZE
 40
0.0
  9
$PLINEWID
 40
0.0
  9
$SPLFRAME
 70
     0
  9
$SPLINETYPE
 70
     6
  9
$SPLINESEGS
 70
     8
  9
$HANDSEED
  5
592
  9
$SURFTAB1
 70
     6
  9
$SURFTAB2
 70
     6
  9
$SURFTYPE
 70
     6
  9
$SURFU
 70
     6
  9
$SURFV
 70
     6
  9
$UCSBASE
  2

  9
$UCSNAME
  2

  9
$UCSORG
 10
0.0
 20
0.0
 30
0.0
  9
$UCSXDIR
 10
1.0
 20
0.0
 30
0.0
  9
$UCSYDIR
 10
0.0
 20
1.0
 30
0.0
  9
$UCSORTHOREF
  2

  9
$UCSORTHOVIEW
 70
     0
  9
$UCSORGTOP
 10
0.0
 20
0.0
 30
0.0
  9
$UCSORGBOTTOM
 10
0.0
 20
0.0
 30
0.0
  9
$UCSORGLEFT
 10
0.0
 20
0.0
 30
0.0
  9
$UCSORGRIGHT
 10
0.0
 20
0.0
 30
0.0
  9
$UCSORGFRONT
 10
0.0
 20
0.0
 30
0.0
  9
$UCSORGBACK
 10
0.0
 20
0.0
 30
0.0
  9
$PUCSBASE
  2

  9
$PUCSNAME
  2

  9
$PUCSORG
 10
0.0
 20
0.0
 30
0.0
  9
$PUCSXDIR
 10
1.0
 20
0.0
 30
0.0
  9
$PUCSYDIR
 10
0.0
 20
1.0
 30
0.0
  9
$PUCSORTHOREF
  2

  9
$PUCSORTHOVIEW
 70
     0
  9
$PUCSORGTOP
 10
0.0
 20
0.0
 30
0.0
  9
$PUCSORGBOTTOM
 10
0.0
 20
0.0
 30
0.0
  9
$PUCSORGLEFT
 10
0.0
 20
0.0
 30
0.0
  9
$PUCSORGRIGHT
 10
0.0
 20
0.0
 30
0.0
  9
$PUCSORGFRONT
 10
0.0
 20
0.0
 30
0.0
  9
$PUCSORGBACK
 10
0.0
 20
0.0
 30
0.0
  9
$USERI1
 70
     0
  9
$USERI2
 70
     0
  9
$USERI3
 70
     0
  9
$USERI4
 70
     0
  9
$USERI5
 70
     0
  9
$USERR1
 40
0.0
  9
$USERR2
 40
0.0
  9
$USERR3
 40
0.0
  9
$USERR4
 40
0.0
  9
$USERR5
 40
0.0
  9
$WORLDVIEW
 70
     1
  9
$SHADEDGE
 70
     3
  9
$SHADEDIF
 70
    70
  9
$TILEMODE
 70
     1
  9
$MAXACTVP
 70
    16
  9
$PINSBASE
 10
0.0
 20
0.0
 30
0.0
  9
$PLIMCHECK
 70
     0
  9
$PEXTMIN
 10
1.000000E+20
 20
1.000000E+20
 30
1.000000E+20
  9
$PEXTMAX
 10
-1.000000E+20
 20
-1.000000E+20
 30
-1.000000E+20
  9
$PLIMMIN
 10
0.0
 20
0.0
  9
$PLIMMAX
 10
12.0
 20
9.0
  9
$UNITMODE
 70
     0
  9
$VISRETAIN
 70
     0
  9
$PLINEGEN
 70
     1
  9
$PSLTSCALE
 70
     0
  9
$TREEDEPTH
 70
  3020
  9
$CMLSTYLE
  2
Standard
  9
$CMLJUST
 70
     0
  9
$CMLSCALE
 40
1.0
  9
$PROXYGRAPHICS
 70
     0
  9
$MEASUREMENT
 70
     0
  9
$CELWEIGHT
370
     0
  9
$ENDCAPS
280
     0
  9
$JOINSTYLE
280
     0
  9
$LWDISPLAY
290
     0
  9
$INSUNITS
 70
     0
  9
$HYPERLINKBASE
  1

  9
$STYLESHEET
  1

  9
$XEDIT
290
     1
  9
$CEPSNTYPE
380
     0
  9
$PSTYLEMODE
290
     1
  9
$FINGERPRINTGUID
  2

  9
$VERSIONGUID
  2

  9
$EXTNAMES
290
     1
  9
$PSVPSCALE
 40
0.0
  0
ENDSEC
  0
SECTION
  2
CLASSES
  0
CLASS
  1
LWPOLYLINE
  2
AcDbPolyline
  3
AutoCAD 2000
 90
        0
280
     0
281
     1
  0
CLASS
  1
IMAGE
  2
AcDbRasterImage
  3
ISM
 90
      127
280
     0
281
     1
  0
CLASS
  1
OLE2FRAME
  2
AcDbOle2Frame
  3
AutoCAD 2000
 90
        0
280
     0
281
     1
  0
CLASS
  1
HATCH
  2
AcDbHatch
  3
AutoCAD 2000
 90
        0
280
     0
281
     1
  0
CLASS
  1
DICTIONARYVAR
  2
AcDbDictionaryVar
  3
AutoCAD 2000
 90
        0
280
     0
281
     0
  0
CLASS
  1
RASTERVARIABLES
  2
AcDbRasterVariables
  3
ISM
 90
        0
280
     0
281
     0
  0
CLASS
  1
IMAGEDEF
  2
AcDbRasterImageDef
  3
ISM
 90
        0
280
     0
281
     0
  0
CLASS
  1
IMAGEDEF_REACTOR
  2
AcDbRasterImageDefReactor
  3
ISM
 90
        1
280
     0
281
     0
  0
CLASS
  1
IDBUFFER
  2
AcDbIdBuffer
  3
AutoCAD 2000
 90
        0
280
     0
281
     0
  0
CLASS
  1
SPATIAL_FILTER
  2
AcDbSpatialFilter
  3
AutoCAD 2000
 90
        0
280
     0
281
     0
  0
CLASS
  1
XRECORD
  2
AcDbXrecord
  3
AutoCAD 2000
 90
        0
280
     0
281
     0
  0
CLASS
  1
SORTENTSTABLE
  2
AcDbSortentsTable
  3
AutoCAD 2000
 90
        0
280
     0
281
     0
  0
CLASS
  1
LAYER_INDEX
  2
AcDbLayerIndex
  3
AutoCAD 2000
 90
        0
280
     0
281
     0
  0
CLASS
  1
SPATIAL_INDEX
  2
AcDbSpatialIndex
  3
AutoCAD 2000
 90
        0
280
     0
281
     0
  0
CLASS
  1
OBJECT_PTR
  2
CAseDLPNTableRecord
  3
"ASE-LPNTableRecord"
 90
        1
280
     0
281
     0
  0
CLASS
  1
LAYOUT
  2
AcDbLayout
  3
AutoCAD 2000
 90
        0
280
     0
281
     0
  0
CLASS
  1
PLOTSETTINGS
  2
AcDbPlotSettings
  3
AutoCAD 2000
 90
        0
280
     0
281
     0
  0
CLASS
  1
ACDBDICTIONARYWDFLT
  2
AcDbDictionaryWithDefault
  3
AutoCAD 2000
 90
        0
280
     0
281
     0
  0
CLASS
  1
ACDBPLACEHOLDER
  2
AcDbPlaceHolder
  3
AutoCAD 2000
 90
        0
280
     0
281
     0
  0
CLASS
  1
VBA_PROJECT
  2
AcDbVbaProject
  3
acadvba
 90
        0
280
     0
281
     0
  0
CLASS
  1
WIPEOUT
  2
AcDbWipeout
  3
WipeOut|AutoCAD Express Tool|expresstools@autodesk.com
 90
      127
280
     0
281
     1
  0
CLASS
  1
WIPEOUTVARIABLES
  2
AcDbWipeoutVariables
  3
WipeOut|AutoCAD Express Tool|expresstools@autodesk.com
 90
        0
280
     0
281
     0
  0
CLASS
  1
RTEXT
  2
RText
  3
RText|AutoCAD Express Tool|expresstools@autodesk.com
 90
        0
280
     0
281
     1
  0
CLASS
  1
ARCALIGNEDTEXT
  2
AcDbArcAlignedText
  3
ATEXT|AutoCAD Express Tool|expresstools@autodesk.com
 90
        0
280
     0
281
     1
  0
ENDSEC
  0
SECTION
  2
TABLES
  0
TABLE
  2
VPORT
  5
7
100
AcDbSymbolTable
 70
     1
  0
VPORT
  5
15
100
AcDbSymbolTableRecord
100
AcDbViewportTableRecord
  2
*ACTIVE
 70
     0
 10
0.0
 20
0.0
 11
1.0
 21
1.0
 12
0.0
 22
0.0
 13
0.0
 23
0.0
 14
1.0
 24
1.0
 15
0.0
 25
0.0
 16
0.0
 26
0.0
 36
1.0
 17
0.0
 27
0.0
 37
0.0
 40
100.0
 41
1.0
 42
50.0
 43
0.0
 44
0.0
 50
0.0
 51
0.0
 71
     0
 72
   100
 73
     1
 74
     1
 75
     0
 76
     0
 77
     0
 78
     0
281
     0
 65
     0
110
0.0
120
0.0
130
0.0
111
1.0
121
0.0
131
0.0
112
0.0
122
1.0
132
0.0
345
0
346
0
 79
     0
146
0.0
  0
ENDTAB
  0
TABLE
  2
LTYPE
  5
4
100
AcDbSymbolTable
 70
     7
  0
LTYPE
  5
11
100
AcDbSymbolTableRecord
100
AcDbLinetypeTableRecord
  2
ByBlock
 70
    64
  3

 72
    65
 73
     0
 40
0.0
  0
LTYPE
  5
12
100
AcDbSymbolTableRecord
100
AcDbLinetypeTableRecord
  2
ByLayer
 70
    64
  3

 72
    65
 73
     0
 40
0.0
  0
LTYPE
  5
13
100
AcDbSymbolTableRecord
100
AcDbLinetypeTableRecord
  2
Continuous
 70
    64
  3
Solid line
 72
    65
 73
     0
 40
0.0
  0
LTYPE
  5
24
100
AcDbSymbolTableRecord
100
AcDbLinetypeTableRecord
  2
DASHED
 70
    64
  3
Dashed __ __ __ __ __ __ __ __ __ __ __ __ __ _
 72
    65
 73
     2
 40
0.75
 49
0.5
 74
     0
 49
-0.25
 74
     0
  0
LTYPE
  5
25
100
AcDbSymbolTableRecord
100
AcDbLinetypeTableRecord
  2
CENTER
 70
    64
  3
Center ____ _ ____ _ ____ _ ____ _ ____ _ ____
 72
    65
 73
     4
 40
1.0
 49
0.5
 74
     0
 49
-0.25
 74
     0
 49
0.0
 74
     0
 49
-0.25
 74
     0
  0
LTYPE
  5
26
100
AcDbSymbolTableRecord
100
AcDbLinetypeTableRecord
  2
DIVIDE
 70
    64
  3
Divide ____ . . ____ . . ____ . . ____ . . ____
 72
    65
 73
     6
 40
1.25
 49
0.5
 74
     0
 49
-0.25
 74
     0
 49
0.0
 74
     0
 49
-0.25
 74
     0
 49
0.0
 74
     0
 49
-0.25
 74
     0
  0
LTYPE
  5
27
100
AcDbSymbolTableRecord
100
AcDbLinetypeTableRecord
  2
PHANTOM
 70
    64
  3
Phantom ______  __  __  ______  __  __  ______
 72
    65
 73
     6
 40
9.0
 49
4.3
 74
     0
 49
-0.7
 74
     0
 49
1.3
 74
     0
 49
-0.7
 74
     0
 49
1.3
 74
     0
 49
-0.7
 74
     0
  0
ENDTAB
  0
TABLE
  2
LAYER
  5
2
100
AcDbSymbolTable
 70
     2
  0
LAYER
  5
14
100
AcDbSymbolTableRecord
100
AcDbLayerTableRecord
  2
0
 70
    64
 62
   102
  6
Continuous
290
     1
370
    -3
390
1D
  0
LAYER
  5
28
100
AcDbSymbolTableRecord
100
AcDbLayerTableRecord
  2
1
 70
    64
 62
    42
  6
Continuous
290
     1
370
    -3
390
1D
  0
ENDTAB
  0
TABLE
  2
STYLE
  5
3
100
AcDbSymbolTable
 70
     2
  0
STYLE
  5
17
100
AcDbSymbolTableRecord
100
AcDbTextStyleTableRecord
  2
Standard
 70
     0
 40
0.0
 41
1.0
 50
0.0
 71
     0
 42
0.0
  3
txt
  4

  0
STYLE
  5
360
100
AcDbSymbolTableRecord
100
AcDbTextStyleTableRecord
  2
ZU_SHPTB00001
 70
     0
 40
0.0
 41
1.0
 50
0.0
 71
     0
 42
0.0
  3
monotxt
  4
bigfont
  0
ENDTAB
  0
TABLE
  2
VIEW
  5
5
100
AcDbSymbolTable
 70
     0
  0
ENDTAB
  0
TABLE
  2
UCS
  5
6
100
AcDbSymbolTable
 70
     0
  0
ENDTAB
  0
TABLE
  2
APPID
  5
8
100
AcDbSymbolTable
 70
     1
  0
APPID
  5
16
100
AcDbSymbolTableRecord
100
AcDbRegAppTableRecord
  2
ACAD
 70
     0
  0
ENDTAB
  0
TABLE
  2
DIMSTYLE
  5
9
100
AcDbSymbolTable
 70
     1
100
AcDbDimStyleTable
 71
     0
  0
DIMSTYLE
105
18
100
AcDbSymbolTableRecord
100
AcDbDimStyleTableRecord
  2
Standard
 70
     0
  3

  4

 40
1.0
 41
0.18
 42
0.0625
 43
0.38
 44
0.18
 45
0.0
 46
0.0
 47
0.0
 48
0.0
 71
     0
 72
     0
 73
     1
 74
     1
 75
     0
 76
     0
 77
     0
 78
     0
 79
     0
140
0.18
141
0.09
142
0.0
143
25.4
144
1.0
145
0.0
146
1.0
147
0.09
148
0.0
170
     0
171
     2
172
     0
173
     0
174
     0
175
     0
176
     0
177
     0
178
     0
179
     0
271
     4
272
     4
273
     2
274
     2
275
     0
276
     0
277
     2
278
    46
279
     0
280
     0
281
     0
282
     0
283
     1
284
     0
285
     0
286
     0
288
     0
289
     3
340
17
341
0
342
0
343
0
344
0
371
    -2
372
    -2
  0
ENDTAB
  0
TABLE
  2
BLOCK_RECORD
  5
1
100
AcDbSymbolTable
 70
    12
  0
BLOCK_RECORD
  5
A
100
AcDbSymbolTableRecord
100
AcDbBlockTableRecord
  2
*MODEL_SPACE
340
20
  0
BLOCK_RECORD
  5
B
100
AcDbSymbolTableRecord
100
AcDbBlockTableRecord
  2
*PAPER_SPACE
340
21
  0
BLOCK_RECORD
  5
E8
100
AcDbSymbolTableRecord
100
AcDbBlockTableRecord
  2
ZU_SYM__USERS_HOME_SYMBOL_POO_SYM_B20_18
340
0
102
{BLKREFS
331
F3
102
}
  0
BLOCK_RECORD
  5
11A
100
AcDbSymbolTableRecord
100
AcDbBlockTableRecord
  2
ZU_SYM__USERS_HOME_SYMBOL_POO_SYM_B20_19
340
0
102
{BLKREFS
331
126
102
}
  0
BLOCK_RECORD
  5
127
100
AcDbSymbolTableRecord
100
AcDbBlockTableRecord
  2
ZU_SYM__USERS_HOME_SYMBOL_POO_SYM_B20_0000119
340
0
102
{BLKREFS
331
133
102
}
  0
BLOCK_RECORD
  5
134
100
AcDbSymbolTableRecord
100
AcDbBlockTableRecord
  2
ZU_SYM__USERS_HOME_SYMBOL_POO_SYM_B20_0000219
340
0
102
{BLKREFS
331
140
102
}
  0
BLOCK_RECORD
  5
296
100
AcDbSymbolTableRecord
100
AcDbBlockTableRecord
  2
ZU_SYM__USERS_HOME_SYMBOL_POO_SYM_B20_0000318
340
0
102
{BLKREFS
331
2A1
102
}
  0
BLOCK_RECORD
  5
2A2
100
AcDbSymbolTableRecord
100
AcDbBlockTableRecord
  2
ZU_SYM__USERS_HOME_SYMBOL_POO_SYM_B20_0000419
340
0
102
{BLKREFS
331
2AE
102
}
  0
BLOCK_RECORD
  5
2C5
100
AcDbSymbolTableRecord
100
AcDbBlockTableRecord
  2
ZU_SYM__USERS_HOME_SYMBOL_POO_SYM_B20_0000518
340
0
102
{BLKREFS
331
2D0
102
}
  0
BLOCK_RECORD
  5
2D1
100
AcDbSymbolTableRecord
100
AcDbBlockTableRecord
  2
ZU_SYM__USERS_HOME_SYMBOL_POO_SYM_B20_0000619
340
0
102
{BLKREFS
331
2DD
102
}
  0
BLOCK_RECORD
  5
323
100
AcDbSymbolTableRecord
100
AcDbBlockTableRecord
  2
ZU_SYM__USERS_HOME_SYMBOL_POO_SYM_B20_06
340
0
102
{BLKREFS
331
32F
102
}
  0
BLOCK_RECORD
  5
330
100
AcDbSymbolTableRecord
100
AcDbBlockTableRecord
  2
ZU_SYM__USERS_HOME_SYMBOL_POO_SYM_B20_05
340
0
102
{BLKREFS
331
33C
102
}
  0
BLOCK_RECORD
  5
33D
100
AcDbSymbolTableRecord
100
AcDbBlockTableRecord
  2
ZU_SYM__USERS_HOME_SYMBOL_POO_SYM_B20_0000705
340
0
102
{BLKREFS
331
349
102
}
  0
BLOCK_RECORD
  5
34A
100
AcDbSymbolTableRecord
100
AcDbBlockTableRecord
  2
ZU_SYM__USERS_HOME_SYMBOL_POO_SYM_B20_0000806
340
0
102
{BLKREFS
331
356
102
}
  0
ENDTAB
  0
ENDSEC
  0
SECTION
  2
BLOCKS
  0
BLOCK
  5
D
100
AcDbEntity
  8
0
390
0
100
AcDbBlockBegin
  2
*MODEL_SPACE
 70
     0
 10
0.0
 20
0.0
 30
0.0
  3
*MODEL_SPACE
  1

  0
ENDBLK
  5
E
100
AcDbEntity
  8
0
390
0
100
AcDbBlockEnd
  0
BLOCK
  5
F
100
AcDbEntity
 67
     1
  8
0
390
0
100
AcDbBlockBegin
  2
*PAPER_SPACE
 70
     0
 10
0.0
 20
0.0
 30
0.0
  3
*PAPER_SPACE
  1

  0
ENDBLK
  5
10
100
AcDbEntity
 67
     1
  8
0
390
0
100
AcDbBlockEnd
  0
BLOCK
  5
E9
100
AcDbEntity
  8
0
390
0
100
AcDbBlockBegin
  2
ZU_SYM__USERS_HOME_SYMBOL_POO_SYM_B20_18
 70
    64
 10
0.0
 20
0.0
 30
0.0
  3
ZU_SYM__USERS_HOME_SYMBOL_POO_SYM_B20_18
  1

  0
POINT
  5
EA
100
AcDbEntity
  8
0
370
    -3
390
0
  6
Continuous
100
AcDbPoint
 10
0.0
 20
0.0
 30
0.0
  0
LINE
  5
EB
100
AcDbEntity
  8
0
370
    -3
390
0
  6
Continuous
100
AcDbLine
 10
0.0
 20
-6.5
 30
0.0
 11
0.0
 21
6.5
 31
0.0
  0
LINE
  5
EC
100
AcDbEntity
  8
0
370
    -3
390
0
  6
Continuous
100
AcDbLine
 10
-7.999999
 20
5.633876
 30
0.0
 11
-7.999999
 21
-5.63407
 31
0.0
  0
LINE
  5
ED
100
AcDbEntity
  8
0
370
    -3
390
0
  6
Continuous
100
AcDbLine
 10
0.0
 20
6.5
 30
0.0
 11
-7.499999
 21
6.5
 31
0.0
  0
LINE
  5
EE
100
AcDbEntity
  8
0
370
    -3
390
0
  6
Continuous
100
AcDbLine
 10
0.0
 20
-6.5
 30
0.0
 11
-7.499998
 21
-6.5
 31
0.0
  0
LINE
  5
EF
100
AcDbEntity
  8
0
370
    -3
390
0
  6
Continuous
100
AcDbLine
 10
-7.499999
 20
6.5
 30
0.0
 11
-7.999999
 21
5.633876
 31
0.0
  0
LINE
  5
F0
100
AcDbEntity
  8
0
370
    -3
390
0
  6
Continuous
100
AcDbLine
 10
-7.499998
 20
-6.499999
 30
0.0
 11
-7.999999
 21
-5.63407
 31
0.0
  0
LINE
  5
F1
100
AcDbEntity
  8
0
370
    -3
390
0
  6
Continuous
100
AcDbLine
 10
-7.499999
 20
6.5
 30
0.0
 11
-7.499999
 21
-6.5
 31
0.0
  0
ENDBLK
  5
F2
100
AcDbEntity
  8
0
390
0
100
AcDbBlockEnd
  0
BLOCK
  5
11B
100
AcDbEntity
  8
0
390
0
100
AcDbBlockBegin
  2
ZU_SYM__USERS_HOME_SYMBOL_POO_SYM_B20_19
 70
    64
 10
0.0
 20
0.0
 30
0.0
  3
ZU_SYM__USERS_HOME_SYMBOL_POO_SYM_B20_19
  1

  0
POINT
  5
11C
100
AcDbEntity
  8
0
370
    -3
390
0
  6
Continuous
100
AcDbPoint
 10
0.0
 20
0.0
 30
0.0
  0
LINE
  5
11D
100
AcDbEntity
  8
0
370
    -3
390
0
  6
Continuous
100
AcDbLine
 10
0.0
 20
8.0
 30
0.0
 11
0.0
 21
-8.0
 31
0.0
  0
LINE
  5
11E
100
AcDbEntity
  8
0
370
    -3
390
0
  6
Continuous
100
AcDbLine
 10
-10.0
 20
6.960613
 30
0.0
 11
-10.0
 21
-6.960911
 31
0.0
  0
LINE
  5
11F
100
AcDbEntity
  8
0
370
    -3
390
0
  6
Continuous
100
AcDbLine
 10
0.0
 20
8.0
 30
0.0
 11
-9.4
 21
8.0
 31
0.0
  0
LINE
  5
120
100
AcDbEntity
  8
0
370
    -3
390
0
  6
Continuous
100
AcDbLine
 10
0.0
 20
-8.0
 30
0.0
 11
-9.4
 21
-8.0
 31
0.0
  0
POINT
  5
121
100
AcDbEntity
  8
0
370
    -3
390
0
  6
Continuous
100
AcDbPoint
 10
0.0
 20
0.0
 30
0.0
  0
LINE
  5
122
100
AcDbEntity
  8
0
370
    -3
390
0
  6
Continuous
100
AcDbLine
 10
-9.399996
 20
7.999998
 30
0.0
 11
-9.999996
 21
6.960609
 31
0.0
  0
LINE
  5
123
100
AcDbEntity
  8
0
370
    -3
390
0
  6
Continuous
100
AcDbLine
 10
-9.399999
 20
-7.999999
 30
0.0
 11
-9.999998
 21
-6.96091
 31
0.0
  0
LINE
  5
124
100
AcDbEntity
  8
0
370
    -3
390
0
  6
Continuous
100
AcDbLine
 10
-9.4
 20
8.0
 30
0.0
 11
-9.4
 21
-8.0
 31
0.0
  0
ENDBLK
  5
125
100
AcDbEntity
  8
0
390
0
100
AcDbBlockEnd
  0
BLOCK
  5
128
100
AcDbEntity
  8
0
390
0
100
AcDbBlockBegin
  2
ZU_SYM__USERS_HOME_SYMBOL_POO_SYM_B20_0000119
 70
    64
 10
0.0
 20
0.0
 30
0.0
  3
ZU_SYM__USERS_HOME_SYMBOL_POO_SYM_B20_0000119
  1

  0
POINT
  5
129
100
AcDbEntity
  8
0
370
    -3
390
0
  6
Continuous
100
AcDbPoint
 10
0.0
 20
0.0
 30
0.0
  0
LINE
  5
12A
100
AcDbEntity
  8
0
370
    -3
390
0
  6
Continuous
100
AcDbLine
 10
0.0
 20
8.0
 30
0.0
 11
0.0
 21
-8.0
 31
0.0
  0
LINE
  5
12B
100
AcDbEntity
  8
0
370
    -3
390
0
  6
Continuous
100
AcDbLine
 10
-10.0
 20
6.960613
 30
0.0
 11
-10.0
 21
-6.960911
 31
0.0
  0
LINE
  5
12C
100
AcDbEntity
  8
0
370
    -3
390
0
  6
Continuous
100
AcDbLine
 10
0.0
 20
8.0
 30
0.0
 11
-9.4
 21
8.0
 31
0.0
  0
LINE
  5
12D
100
AcDbEntity
  8
0
370
    -3
390
0
  6
Continuous
100
AcDbLine
 10
0.0
 20
-8.0
 30
0.0
 11
-9.4
 21
-8.0
 31
0.0
  0
POINT
  5
12E
100
AcDbEntity
  8
0
370
    -3
390
0
  6
Continuous
100
AcDbPoint
 10
0.0
 20
0.0
 30
0.0
  0
LINE
  5
12F
100
AcDbEntity
  8
0
370
    -3
390
0
  6
Continuous
100
AcDbLine
 10
-9.399996
 20
7.999998
 30
0.0
 11
-9.999996
 21
6.960609
 31
0.0
  0
LINE
  5
130
100
AcDbEntity
  8
0
370
    -3
390
0
  6
Continuous
100
AcDbLine
 10
-9.399999
 20
-7.999999
 30
0.0
 11
-9.999998
 21
-6.96091
 31
0.0
  0
LINE
  5
131
100
AcDbEntity
  8
0
370
    -3
390
0
  6
Continuous
100
AcDbLine
 10
-9.4
 20
8.0
 30
0.0
 11
-9.4
 21
-8.0
 31
0.0
  0
ENDBLK
  5
132
100
AcDbEntity
  8
0
390
0
100
AcDbBlockEnd
  0
BLOCK
  5
135
100
AcDbEntity
  8
0
390
0
100
AcDbBlockBegin
  2
ZU_SYM__USERS_HOME_SYMBOL_POO_SYM_B20_0000219
 70
    64
 10
0.0
 20
0.0
 30
0.0
  3
ZU_SYM__USERS_HOME_SYMBOL_POO_SYM_B20_0000219
  1

  0
POINT
  5
136
100
AcDbEntity
  8
0
370
    -3
390
0
  6
Continuous
100
AcDbPoint
 10
0.0
 20
0.0
 30
0.0
  0
LINE
  5
137
100
AcDbEntity
  8
0
370
    -3
390
0
  6
Continuous
100
AcDbLine
 10
0.0
 20
8.0
 30
0.0
 11
0.0
 21
-8.0
 31
0.0
  0
LINE
  5
138
100
AcDbEntity
  8
0
370
    -3
390
0
  6
Continuous
100
AcDbLine
 10
-10.0
 20
6.960613
 30
0.0
 11
-10.0
 21
-6.960911
 31
0.0
  0
LINE
  5
139
100
AcDbEntity
  8
0
370
    -3
390
0
  6
Continuous
100
AcDbLine
 10
0.0
 20
8.0
 30
0.0
 11
-9.4
 21
8.0
 31
0.0
  0
LINE
  5
13A
100
AcDbEntity
  8
0
370
    -3
390
0
  6
Continuous
100
AcDbLine
 10
0.0
 20
-8.0
 30
0.0
 11
-9.4
 21
-8.0
 31
0.0
  0
POINT
  5
13B
100
AcDbEntity
  8
0
370
    -3
390
0
  6
Continuous
100
AcDbPoint
 10
0.0
 20
0.0
 30
0.0
  0
LINE
  5
13C
100
AcDbEntity
  8
0
370
    -3
390
0
  6
Continuous
100
AcDbLine
 10
-9.399996
 20
7.999998
 30
0.0
 11
-9.999996
 21
6.960609
 31
0.0
  0
LINE
  5
13D
100
AcDbEntity
  8
0
370
    -3
390
0
  6
Continuous
100
AcDbLine
 10
-9.399999
 20
-7.999999
 30
0.0
 11
-9.999998
 21
-6.96091
 31
0.0
  0
LINE
  5
13E
100
AcDbEntity
  8
0
370
    -3
390
0
  6
Continuous
100
AcDbLine
 10
-9.4
 20
8.0
 30
0.0
 11
-9.4
 21
-8.0
 31
0.0
  0
ENDBLK
  5
13F
100
AcDbEntity
  8
0
390
0
100
AcDbBlockEnd
  0
BLOCK
  5
297
100
AcDbEntity
  8
0
390
0
100
AcDbBlockBegin
  2
ZU_SYM__USERS_HOME_SYMBOL_POO_SYM_B20_0000318
 70
    64
 10
0.0
 20
0.0
 30
0.0
  3
ZU_SYM__USERS_HOME_SYMBOL_POO_SYM_B20_0000318
  1

  0
POINT
  5
298
100
AcDbEntity
  8
0
370
    -3
390
0
  6
Continuous
100
AcDbPoint
 10
0.0
 20
0.0
 30
0.0
  0
LINE
  5
299
100
AcDbEntity
  8
0
370
    -3
390
0
  6
Continuous
100
AcDbLine
 10
0.0
 20
-6.5
 30
0.0
 11
0.0
 21
6.5
 31
0.0
  0
LINE
  5
29A
100
AcDbEntity
  8
0
370
    -3
390
0
  6
Continuous
100
AcDbLine
 10
-7.999999
 20
5.633876
 30
0.0
 11
-7.999999
 21
-5.63407
 31
0.0
  0
LINE
  5
29B
100
AcDbEntity
  8
0
370
    -3
390
0
  6
Continuous
100
AcDbLine
 10
0.0
 20
6.5
 30
0.0
 11
-7.499999
 21
6.5
 31
0.0
  0
LINE
  5
29C
100
AcDbEntity
  8
0
370
    -3
390
0
  6
Continuous
100
AcDbLine
 10
0.0
 20
-6.5
 30
0.0
 11
-7.499998
 21
-6.5
 31
0.0
  0
LINE
  5
29D
100
AcDbEntity
  8
0
370
    -3
390
0
  6
Continuous
100
AcDbLine
 10
-7.499999
 20
6.5
 30
0.0
 11
-7.999999
 21
5.633876
 31
0.0
  0
LINE
  5
29E
100
AcDbEntity
  8
0
370
    -3
390
0
  6
Continuous
100
AcDbLine
 10
-7.499998
 20
-6.499999
 30
0.0
 11
-7.999999
 21
-5.63407
 31
0.0
  0
LINE
  5
29F
100
AcDbEntity
  8
0
370
    -3
390
0
  6
Continuous
100
AcDbLine
 10
-7.499999
 20
6.5
 30
0.0
 11
-7.499999
 21
-6.5
 31
0.0
  0
ENDBLK
  5
2A0
100
AcDbEntity
  8
0
390
0
100
AcDbBlockEnd
  0
BLOCK
  5
2A3
100
AcDbEntity
  8
0
390
0
100
AcDbBlockBegin
  2
ZU_SYM__USERS_HOME_SYMBOL_POO_SYM_B20_0000419
 70
    64
 10
0.0
 20
0.0
 30
0.0
  3
ZU_SYM__USERS_HOME_SYMBOL_POO_SYM_B20_0000419
  1

  0
POINT
  5
2A4
100
AcDbEntity
  8
0
370
    -3
390
0
  6
Continuous
100
AcDbPoint
 10
0.0
 20
0.0
 30
0.0
  0
LINE
  5
2A5
100
AcDbEntity
  8
0
370
    -3
390
0
  6
Continuous
100
AcDbLine
 10
0.0
 20
8.0
 30
0.0
 11
0.0
 21
-8.0
 31
0.0
  0
LINE
  5
2A6
100
AcDbEntity
  8
0
370
    -3
390
0
  6
Continuous
100
AcDbLine
 10
-10.0
 20
6.960613
 30
0.0
 11
-10.0
 21
-6.960911
 31
0.0
  0
LINE
  5
2A7
100
AcDbEntity
  8
0
370
    -3
390
0
  6
Continuous
100
AcDbLine
 10
0.0
 20
8.0
 30
0.0
 11
-9.4
 21
8.0
 31
0.0
  0
LINE
  5
2A8
100
AcDbEntity
  8
0
370
    -3
390
0
  6
Continuous
100
AcDbLine
 10
0.0
 20
-8.0
 30
0.0
 11
-9.4
 21
-8.0
 31
0.0
  0
POINT
  5
2A9
100
AcDbEntity
  8
0
370
    -3
390
0
  6
Continuous
100
AcDbPoint
 10
0.0
 20
0.0
 30
0.0
  0
LINE
  5
2AA
100
AcDbEntity
  8
0
370
    -3
390
0
  6
Continuous
100
AcDbLine
 10
-9.399996
 20
7.999998
 30
0.0
 11
-9.999996
 21
6.960609
 31
0.0
  0
LINE
  5
2AB
100
AcDbEntity
  8
0
370
    -3
390
0
  6
Continuous
100
AcDbLine
 10
-9.399999
 20
-7.999999
 30
0.0
 11
-9.999998
 21
-6.96091
 31
0.0
  0
LINE
  5
2AC
100
AcDbEntity
  8
0
370
    -3
390
0
  6
Continuous
100
AcDbLine
 10
-9.4
 20
8.0
 30
0.0
 11
-9.4
 21
-8.0
 31
0.0
  0
ENDBLK
  5
2AD
100
AcDbEntity
  8
0
390
0
100
AcDbBlockEnd
  0
BLOCK
  5
2C6
100
AcDbEntity
  8
0
390
0
100
AcDbBlockBegin
  2
ZU_SYM__USERS_HOME_SYMBOL_POO_SYM_B20_0000518
 70
    64
 10
0.0
 20
0.0
 30
0.0
  3
ZU_SYM__USERS_HOME_SYMBOL_POO_SYM_B20_0000518
  1

  0
POINT
  5
2C7
100
AcDbEntity
  8
0
370
    -3
390
0
  6
Continuous
100
AcDbPoint
 10
0.0
 20
0.0
 30
0.0
  0
LINE
  5
2C8
100
AcDbEntity
  8
0
370
    -3
390
0
  6
Continuous
100
AcDbLine
 10
0.0
 20
-6.5
 30
0.0
 11
0.0
 21
6.5
 31
0.0
  0
LINE
  5
2C9
100
AcDbEntity
  8
0
370
    -3
390
0
  6
Continuous
100
AcDbLine
 10
-7.999999
 20
5.633876
 30
0.0
 11
-7.999999
 21
-5.63407
 31
0.0
  0
LINE
  5
2CA
100
AcDbEntity
  8
0
370
    -3
390
0
  6
Continuous
100
AcDbLine
 10
0.0
 20
6.5
 30
0.0
 11
-7.499999
 21
6.5
 31
0.0
  0
LINE
  5
2CB
100
AcDbEntity
  8
0
370
    -3
390
0
  6
Continuous
100
AcDbLine
 10
0.0
 20
-6.5
 30
0.0
 11
-7.499998
 21
-6.5
 31
0.0
  0
LINE
  5
2CC
100
AcDbEntity
  8
0
370
    -3
390
0
  6
Continuous
100
AcDbLine
 10
-7.499999
 20
6.5
 30
0.0
 11
-7.999999
 21
5.633876
 31
0.0
  0
LINE
  5
2CD
100
AcDbEntity
  8
0
370
    -3
390
0
  6
Continuous
100
AcDbLine
 10
-7.499998
 20
-6.499999
 30
0.0
 11
-7.999999
 21
-5.63407
 31
0.0
  0
LINE
  5
2CE
100
AcDbEntity
  8
0
370
    -3
390
0
  6
Continuous
100
AcDbLine
 10
-7.499999
 20
6.5
 30
0.0
 11
-7.499999
 21
-6.5
 31
0.0
  0
ENDBLK
  5
2CF
100
AcDbEntity
  8
0
390
0
100
AcDbBlockEnd
  0
BLOCK
  5
2D2
100
AcDbEntity
  8
0
390
0
100
AcDbBlockBegin
  2
ZU_SYM__USERS_HOME_SYMBOL_POO_SYM_B20_0000619
 70
    64
 10
0.0
 20
0.0
 30
0.0
  3
ZU_SYM__USERS_HOME_SYMBOL_POO_SYM_B20_0000619
  1

  0
POINT
  5
2D3
100
AcDbEntity
  8
0
370
    -3
390
0
  6
Continuous
100
AcDbPoint
 10
0.0
 20
0.0
 30
0.0
  0
LINE
  5
2D4
100
AcDbEntity
  8
0
370
    -3
390
0
  6
Continuous
100
AcDbLine
 10
0.0
 20
8.0
 30
0.0
 11
0.0
 21
-8.0
 31
0.0
  0
LINE
  5
2D5
100
AcDbEntity
  8
0
370
    -3
390
0
  6
Continuous
100
AcDbLine
 10
-10.0
 20
6.960613
 30
0.0
 11
-10.0
 21
-6.960911
 31
0.0
  0
LINE
  5
2D6
100
AcDbEntity
  8
0
370
    -3
390
0
  6
Continuous
100
AcDbLine
 10
0.0
 20
8.0
 30
0.0
 11
-9.4
 21
8.0
 31
0.0
  0
LINE
  5
2D7
100
AcDbEntity
  8
0
370
    -3
390
0
  6
Continuous
100
AcDbLine
 10
0.0
 20
-8.0
 30
0.0
 11
-9.4
 21
-8.0
 31
0.0
  0
POINT
  5
2D8
100
AcDbEntity
  8
0
370
    -3
390
0
  6
Continuous
100
AcDbPoint
 10
0.0
 20
0.0
 30
0.0
  0
LINE
  5
2D9
100
AcDbEntity
  8
0
370
    -3
390
0
  6
Continuous
100
AcDbLine
 10
-9.399996
 20
7.999998
 30
0.0
 11
-9.999996
 21
6.960609
 31
0.0
  0
LINE
  5
2DA
100
AcDbEntity
  8
0
370
    -3
390
0
  6
Continuous
100
AcDbLine
 10
-9.399999
 20
-7.999999
 30
0.0
 11
-9.999998
 21
-6.96091
 31
0.0
  0
LINE
  5
2DB
100
AcDbEntity
  8
0
370
    -3
390
0
  6
Continuous
100
AcDbLine
 10
-9.4
 20
8.0
 30
0.0
 11
-9.4
 21
-8.0
 31
0.0
  0
ENDBLK
  5
2DC
100
AcDbEntity
  8
0
390
0
100
AcDbBlockEnd
  0
BLOCK
  5
324
100
AcDbEntity
  8
0
390
0
100
AcDbBlockBegin
  2
ZU_SYM__USERS_HOME_SYMBOL_POO_SYM_B20_06
 70
    64
 10
0.0
 20
0.0
 30
0.0
  3
ZU_SYM__USERS_HOME_SYMBOL_POO_SYM_B20_06
  1

  0
CIRCLE
  5
325
100
AcDbEntity
  8
0
370
    -3
390
0
  6
Continuous
100
AcDbCircle
 10
0.0
 20
0.0
 30
0.0
 40
6.960738
  0
CIRCLE
  5
326
100
AcDbEntity
  8
0
370
    -3
390
0
  6
Continuous
100
AcDbCircle
 10
0.0
 20
0.0
 30
0.0
 40
8.0
  0
POINT
  5
327
100
AcDbEntity
  8
0
370
    -3
390
0
  6
Continuous
100
AcDbPoint
 10
0.0
 20
0.0
 30
0.0
  0
LINE
  5
328
100
AcDbEntity
  8
0
370
    -3
390
0
  6
Continuous
100
AcDbLine
 10
-3.999997
 20
-2.309396
 30
0.0
 11
-3.999999
 21
2.314053
 31
0.0
  0
LINE
  5
329
100
AcDbEntity
  8
0
370
    -3
390
0
  6
Continuous
100
AcDbLine
 10
3.999999
 20
2.314044
 30
0.0
 11
4.0
 21
-2.309403
 31
0.0
  0
LINE
  5
32A
100
AcDbEntity
  8
0
370
    -3
390
0
  6
Continuous
100
AcDbLine
 10
3.999998
 20
2.314044
 30
0.0
 11
0.000007
 21
4.62345
 31
0.0
  0
LINE
  5
32B
100
AcDbEntity
  8
0
370
    -3
390
0
  6
Continuous
100
AcDbLine
 10
-0.000007
 20
-4.618799
 30
0.0
 11
-3.999997
 21
-2.309395
 31
0.0
  0
LINE
  5
32C
100
AcDbEntity
  8
0
370
    -3
390
0
  6
Continuous
100
AcDbLine
 10
-3.999999
 20
2.314053
 30
0.0
 11
0.000007
 21
4.623449
 31
0.0
  0
LINE
  5
32D
100
AcDbEntity
  8
0
370
    -3
390
0
  6
Continuous
100
AcDbLine
 10
3.999999
 20
-2.309402
 30
0.0
 11
-0.000007
 21
-4.618799
 31
0.0
  0
ENDBLK
  5
32E
100
AcDbEntity
  8
0
390
0
100
AcDbBlockEnd
  0
BLOCK
  5
331
100
AcDbEntity
  8
0
390
0
100
AcDbBlockBegin
  2
ZU_SYM__USERS_HOME_SYMBOL_POO_SYM_B20_05
 70
    64
 10
0.0
 20
0.0
 30
0.0
  3
ZU_SYM__USERS_HOME_SYMBOL_POO_SYM_B20_05
  1

  0
CIRCLE
  5
332
100
AcDbEntity
  8
0
370
    -3
390
0
  6
Continuous
100
AcDbCircle
 10
0.0
 20
0.0
 30
0.0
 40
5.633955
  0
CIRCLE
  5
333
100
AcDbEntity
  8
0
370
    -3
390
0
  6
Continuous
100
AcDbCircle
 10
0.0
 20
0.0
 30
0.0
 40
6.5
  0
POINT
  5
334
100
AcDbEntity
  8
0
370
    -3
390
0
  6
Continuous
100
AcDbPoint
 10
0.0
 20
0.0
 30
0.0
  0
LINE
  5
335
100
AcDbEntity
  8
0
370
    -3
390
0
  6
Continuous
100
AcDbLine
 10
-2.999997
 20
-1.732046
 30
0.0
 11
-2.999998
 21
1.732052
 31
0.0
  0
LINE
  5
336
100
AcDbEntity
  8
0
370
    -3
390
0
  6
Continuous
100
AcDbLine
 10
2.999997
 20
1.732047
 30
0.0
 11
2.999998
 21
-1.732051
 31
0.0
  0
LINE
  5
337
100
AcDbEntity
  8
0
370
    -3
390
0
  6
Continuous
100
AcDbLine
 10
0.000007
 20
3.464097
 30
0.0
 11
-2.999998
 21
1.732052
 31
0.0
  0
LINE
  5
338
100
AcDbEntity
  8
0
370
    -3
390
0
  6
Continuous
100
AcDbLine
 10
2.999998
 20
-1.732051
 30
0.0
 11
-0.000004
 21
-3.464098
 31
0.0
  0
LINE
  5
339
100
AcDbEntity
  8
0
370
    -3
390
0
  6
Continuous
100
AcDbLine
 10
0.000007
 20
3.464097
 30
0.0
 11
2.999997
 21
1.732047
 31
0.0
  0
LINE
  5
33A
100
AcDbEntity
  8
0
370
    -3
390
0
  6
Continuous
100
AcDbLine
 10
-0.000005
 20
-3.464098
 30
0.0
 11
-2.999998
 21
-1.732046
 31
0.0
  0
ENDBLK
  5
33B
100
AcDbEntity
  8
0
390
0
100
AcDbBlockEnd
  0
BLOCK
  5
33E
100
AcDbEntity
  8
0
390
0
100
AcDbBlockBegin
  2
ZU_SYM__USERS_HOME_SYMBOL_POO_SYM_B20_0000705
 70
    64
 10
0.0
 20
0.0
 30
0.0
  3
ZU_SYM__USERS_HOME_SYMBOL_POO_SYM_B20_0000705
  1

  0
CIRCLE
  5
33F
100
AcDbEntity
  8
0
370
    -3
390
0
  6
Continuous
100
AcDbCircle
 10
0.0
 20
0.0
 30
0.0
 40
5.633955
  0
CIRCLE
  5
340
100
AcDbEntity
  8
0
370
    -3
390
0
  6
Continuous
100
AcDbCircle
 10
0.0
 20
0.0
 30
0.0
 40
6.5
  0
POINT
  5
341
100
AcDbEntity
  8
0
370
    -3
390
0
  6
Continuous
100
AcDbPoint
 10
0.0
 20
0.0
 30
0.0
  0
LINE
  5
342
100
AcDbEntity
  8
0
370
    -3
390
0
  6
Continuous
100
AcDbLine
 10
-2.999997
 20
-1.732046
 30
0.0
 11
-2.999998
 21
1.732052
 31
0.0
  0
LINE
  5
343
100
AcDbEntity
  8
0
370
    -3
390
0
  6
Continuous
100
AcDbLine
 10
2.999997
 20
1.732047
 30
0.0
 11
2.999998
 21
-1.732051
 31
0.0
  0
LINE
  5
344
100
AcDbEntity
  8
0
370
    -3
390
0
  6
Continuous
100
AcDbLine
 10
0.000007
 20
3.464097
 30
0.0
 11
-2.999998
 21
1.732052
 31
0.0
  0
LINE
  5
345
100
AcDbEntity
  8
0
370
    -3
390
0
  6
Continuous
100
AcDbLine
 10
2.999998
 20
-1.732051
 30
0.0
 11
-0.000004
 21
-3.464098
 31
0.0
  0
LINE
  5
346
100
AcDbEntity
  8
0
370
    -3
390
0
  6
Continuous
100
AcDbLine
 10
0.000007
 20
3.464097
 30
0.0
 11
2.999997
 21
1.732047
 31
0.0
  0
LINE
  5
347
100
AcDbEntity
  8
0
370
    -3
390
0
  6
Continuous
100
AcDbLine
 10
-0.000005
 20
-3.464098
 30
0.0
 11
-2.999998
 21
-1.732046
 31
0.0
  0
ENDBLK
  5
348
100
AcDbEntity
  8
0
390
0
100
AcDbBlockEnd
  0
BLOCK
  5
34B
100
AcDbEntity
  8
0
390
0
100
AcDbBlockBegin
  2
ZU_SYM__USERS_HOME_SYMBOL_POO_SYM_B20_0000806
 70
    64
 10
0.0
 20
0.0
 30
0.0
  3
ZU_SYM__USERS_HOME_SYMBOL_POO_SYM_B20_0000806
  1

  0
CIRCLE
  5
34C
100
AcDbEntity
  8
0
370
    -3
390
0
  6
Continuous
100
AcDbCircle
 10
0.0
 20
0.0
 30
0.0
 40
6.960738
  0
CIRCLE
  5
34D
100
AcDbEntity
  8
0
370
    -3
390
0
  6
Continuous
100
AcDbCircle
 10
0.0
 20
0.0
 30
0.0
 40
8.0
  0
POINT
  5
34E
100
AcDbEntity
  8
0
370
    -3
390
0
  6
Continuous
100
AcDbPoint
 10
0.0
 20
0.0
 30
0.0
  0
LINE
  5
34F
100
AcDbEntity
  8
0
370
    -3
390
0
  6
Continuous
100
AcDbLine
 10
-3.999997
 20
-2.309396
 30
0.0
 11
-3.999999
 21
2.314053
 31
0.0
  0
LINE
  5
350
100
AcDbEntity
  8
0
370
    -3
390
0
  6
Continuous
100
AcDbLine
 10
3.999999
 20
2.314044
 30
0.0
 11
4.0
 21
-2.309403
 31
0.0
  0
LINE
  5
351
100
AcDbEntity
  8
0
370
    -3
390
0
  6
Continuous
100
AcDbLine
 10
3.999998
 20
2.314044
 30
0.0
 11
0.000007
 21
4.62345
 31
0.0
  0
LINE
  5
352
100
AcDbEntity
  8
0
370
    -3
390
0
  6
Continuous
100
AcDbLine
 10
-0.000007
 20
-4.618799
 30
0.0
 11
-3.999997
 21
-2.309395
 31
0.0
  0
LINE
  5
353
100
AcDbEntity
  8
0
370
    -3
390
0
  6
Continuous
100
AcDbLine
 10
-3.999999
 20
2.314053
 30
0.0
 11
0.000007
 21
4.623449
 31
0.0
  0
LINE
  5
354
100
AcDbEntity
  8
0
370
    -3
390
0
  6
Continuous
100
AcDbLine
 10
3.999999
 20
-2.309402
 30
0.0
 11
-0.000007
 21
-4.618799
 31
0.0
  0
ENDBLK
  5
355
100
AcDbEntity
  8
0
390
0
100
AcDbBlockEnd
  0
ENDSEC
  0
SECTION
  2
ENTITIES
  0
LINE
  5
29
100
AcDbEntity
  8
0
370
    -3
390
0
  6
Continuous
100
AcDbLine
 10
-574.279278
 20
-22.363297
 30
0.0
 11
-583.818668
 21
-22.363297
 31
0.0
  0
LINE
  5
2A
100
AcDbEntity
  8
0
370
    -3
390
0
  6
Continuous
100
AcDbLine
 10
-575.158418
 20
-20.363297
 30
0.0
 11
-583.818668
 21
-20.363297
 31
0.0
  0
LINE
  5
2B
100
AcDbEntity
  8
0
370
    -3
390
0
  6
Continuous
100
AcDbLine
 10
-592.478918
 20
-20.363297
 30
0.0
 11
-583.818668
 21
-20.363297
 31
0.0
  0
LINE
  5
2C
100
AcDbEntity
  8
0
370
    -3
390
0
  6
Continuous
100
AcDbLine
 10
-593.358058
 20
-22.363297
 30
0.0
 11
-583.818668
 21
-22.363297
 31
0.0
  0
LINE
  5
2D
100
AcDbEntity
  8
0
370
    -3
390
0
  6
Continuous
100
AcDbLine
 10
-592.030802
 20
-22.363297
 30
0.0
 11
-592.030802
 21
-31.069515
 31
0.0
  0
LINE
  5
2E
100
AcDbEntity
  8
0
370
    -3
390
0
  6
Continuous
100
AcDbLine
 10
-575.606533
 20
-22.363297
 30
0.0
 11
-575.606533
 21
-31.069515
 31
0.0
  0
LINE
  5
2F
100
AcDbEntity
  8
0
370
    -3
390
0
  6
Continuous
100
AcDbLine
 10
-577.818658
 20
-33.363297
 30
0.0
 11
-583.818668
 21
-33.363297
 31
0.0
  0
LINE
  5
30
100
AcDbEntity
  8
0
370
    -3
390
0
  6
Continuous
100
AcDbLine
 10
-579.459754
 20
-34.363297
 30
0.0
 11
-583.818668
 21
-34.363297
 31
0.0
  0
LINE
  5
31
100
AcDbEntity
  8
0
370
    -3
390
0
  6
Continuous
100
AcDbLine
 10
-588.177581
 20
-34.363297
 30
0.0
 11
-583.818668
 21
-34.363297
 31
0.0
  0
LINE
  5
32
100
AcDbEntity
  8
0
370
    -3
390
0
  6
Continuous
100
AcDbLine
 10
-589.818677
 20
-33.363297
 30
0.0
 11
-583.818668
 21
-33.363297
 31
0.0
  0
LINE
  5
33
100
AcDbEntity
  8
0
370
    -3
390
0
  6
Continuous
100
AcDbLine
 10
-579.915713
 20
-22.363297
 30
0.0
 11
-579.915713
 21
-32.363297
 31
0.0
  0
LINE
  5
34
100
AcDbEntity
  8
0
370
    -3
390
0
  6
Continuous
100
AcDbLine
 10
-587.721622
 20
-22.363297
 30
0.0
 11
-587.721622
 21
-32.363297
 31
0.0
  0
LINE
  5
35
100
AcDbEntity
  8
0
370
    -3
390
0
  6
Continuous
100
AcDbLine
 10
-579.915713
 20
-32.363297
 30
0.0
 11
-583.818668
 21
-32.363297
 31
0.0
  0
LINE
  5
36
100
AcDbEntity
  8
0
370
    -3
390
0
  6
Continuous
100
AcDbLine
 10
-587.721622
 20
-32.363297
 30
0.0
 11
-583.818668
 21
-32.363297
 31
0.0
  0
ARC
  5
37
100
AcDbEntity
  8
0
370
    -3
390
0
  6
Continuous
100
AcDbCircle
 10
-185.299237
 20
2.862043
 30
0.0
 40
1.299999
100
AcDbArc
 50
228.744149
 51
253.398469
  0
ARC
  5
38
100
AcDbEntity
  8
0
370
    -3
390
0
  6
Continuous
100
AcDbCircle
 10
-180.899236
 20
2.862043
 30
0.0
 40
1.299999
100
AcDbArc
 50
286.601531
 51
311.255851
  0
ARC
  5
39
100
AcDbEntity
  8
0
370
    -3
390
0
  6
Continuous
100
AcDbCircle
 10
-183.099237
 20
10.241068
 30
0.0
 40
9.0
100
AcDbArc
 50
253.398469
 51
286.601548
  0
CIRCLE
  5
3A
100
AcDbEntity
  8
0
370
    -3
390
0
  6
Continuous
100
AcDbCircle
 10
133.400763
 20
194.636703
 30
0.0
 40
16.0
  0
LINE
  5
3B
100
AcDbEntity
  8
0
370
    -3
390
0
  6
Continuous
100
AcDbLine
 10
441.551216
 20
-181.571763
 30
0.0
 11
400.054113
 21
-270.562587
 31
0.0
  0
LINE
  5
3C
100
AcDbEntity
  8
0
370
    -3
390
0
  6
Continuous
100
AcDbLine
 10
405.276428
 20
-259.363297
 30
0.0
 11
441.551216
 21
-259.363297
 31
0.0
  0
ARC
  5
3D
100
AcDbEntity
  8
0
370
    -3
390
0
  6
Continuous
100
AcDbCircle
 10
399.315101
 20
-260.839267
 30
0.0
 40
1.299999
100
AcDbArc
 50
73.864553
 51
138.398452
  0
ARC
  5
3E
100
AcDbEntity
  8
0
370
    -3
390
0
  6
Continuous
100
AcDbCircle
 10
997.599252
 20
-200.863297
 30
0.0
 40
600.8
100
AcDbArc
 50
178.668513
 51
185.829691
  0
LINE
  5
3F
100
AcDbEntity
  8
0
370
    -3
390
0
  6
Continuous
100
AcDbLine
 10
441.551216
 20
-172.580197
 30
0.0
 11
397.159547
 21
-267.778438
 31
0.0
  0
LINE
  5
40
100
AcDbEntity
  8
0
370
    -3
390
0
  6
CENTER
100
AcDbLine
 10
421.551216
 20
-250.645389
 30
0.0
 11
421.551216
 21
-263.680774
 31
0.0
  0
ARC
  5
41
100
AcDbEntity
  8
0
370
    -3
390
0
  6
Continuous
100
AcDbCircle
 10
397.45558
 20
-264.827023
 30
0.0
 40
1.299999
100
AcDbArc
 50
171.601531
 51
245.000001
  0
LINE
  5
42
100
AcDbEntity
  8
0
370
    -3
390
0
  6
Continuous
100
AcDbLine
 10
397.793474
 20
-266.418976
 30
0.0
 11
396.906176
 21
-266.005222
 31
0.0
  0
POINT
  5
43
100
AcDbEntity
  8
0
370
    -3
390
0
  6
Continuous
100
AcDbPoint
 10
399.272638
 20
-263.246899
 30
0.0
  0
ARC
  5
44
100
AcDbEntity
  8
0
370
    -3
390
0
  6
Continuous
100
AcDbCircle
 10
405.073008
 20
-265.951656
 30
0.0
 40
9.0
100
AcDbArc
 50
138.398452
 51
171.601531
  0
ARC
  5
45
100
AcDbEntity
  8
0
370
    -3
390
0
  6
Continuous
100
AcDbCircle
 10
518.65335
 20
-458.955344
 30
0.0
 40
300.8
100
AcDbArc
 50
104.852028
 51
113.260322
  0
ARC
  5
46
100
AcDbEntity
  8
0
370
    -3
390
0
  6
Continuous
100
AcDbCircle
 10
401.760177
 20
-187.014199
 30
0.0
 40
4.8
100
AcDbArc
 50
113.260322
 51
178.668513
  0
LINE
  5
47
100
AcDbEntity
  8
0
370
    -3
390
0
  6
CENTER
100
AcDbLine
 10
407.20738
 20
-266.94693
 30
0.0
 11
396.049825
 21
-261.744077
 31
0.0
  0
LINE
  5
48
100
AcDbEntity
  8
0
370
    -3
390
0
  6
Continuous
100
AcDbLine
 10
397.788343
 20
-269.506042
 30
0.0
 11
400.054113
 21
-270.562587
 31
0.0
  0
ARC
  5
49
100
AcDbEntity
  8
0
370
    -3
390
0
  6
Continuous
100
AcDbCircle
 10
398.337747
 20
-268.327842
 30
0.0
 40
1.3
100
AcDbArc
 50
155.0
 51
245.0
  0
ARC
  5
4A
100
AcDbEntity
  8
0
370
    -3
390
0
  6
Continuous
100
AcDbCircle
 10
589.551216
 20
-25.363303
 30
0.0
 40
10.0
100
AcDbArc
 50
30.000046
 51
149.999954
  0
LINE
  5
4B
100
AcDbEntity
  8
0
370
    -3
390
0
  6
Continuous
100
AcDbLine
 10
575.81947
 20
-32.363297
 30
0.0
 11
581.339081
 21
-32.363297
 31
0.0
  0
LINE
  5
4C
100
AcDbEntity
  8
0
370
    -3
390
0
  6
Continuous
100
AcDbLine
 10
585.648261
 20
-32.363297
 30
0.0
 11
589.551216
 21
-32.363297
 31
0.0
  0
LINE
  5
4D
100
AcDbEntity
  8
0
370
    -3
390
0
  6
Continuous
100
AcDbLine
 10
574.034549
 20
-22.363297
 30
0.0
 11
574.034549
 21
-32.363297
 31
0.0
  0
LINE
  5
4E
100
AcDbEntity
  8
0
370
    -3
390
0
  6
Continuous
100
AcDbLine
 10
575.81947
 20
-22.363297
 30
0.0
 11
575.81947
 21
-32.363297
 31
0.0
  0
LINE
  5
4F
100
AcDbEntity
  8
0
370
    -3
390
0
  6
Continuous
100
AcDbLine
 10
581.339081
 20
-22.363297
 30
0.0
 11
581.339081
 21
-32.363297
 31
0.0
  0
LINE
  5
50
100
AcDbEntity
  8
0
370
    -3
390
0
  6
Continuous
100
AcDbLine
 10
585.648261
 20
-22.363297
 30
0.0
 11
585.648261
 21
-32.363297
 31
0.0
  0
ARC
  5
51
100
AcDbEntity
  8
0
370
    -3
390
0
  6
Continuous
100
AcDbCircle
 10
580.051216
 20
-38.863297
 30
0.0
 40
1.5
100
AcDbArc
 50
90.0
 51
180.0
  0
LINE
  5
52
100
AcDbEntity
  8
0
370
    -3
390
0
  6
Continuous
100
AcDbLine
 10
574.301216
 20
-34.363297
 30
0.0
 11
574.301216
 21
-37.363297
 31
0.0
  0
LINE
  5
53
100
AcDbEntity
  8
0
370
    -3
390
0
  6
Continuous
100
AcDbLine
 10
574.301216
 20
-34.363297
 30
0.0
 11
589.551216
 21
-34.363297
 31
0.0
  0
LINE
  5
54
100
AcDbEntity
  8
0
370
    -3
390
0
  6
Continuous
100
AcDbLine
 10
573.551216
 20
-32.363297
 30
0.0
 11
574.034549
 21
-32.363297
 31
0.0
  0
LINE
  5
55
100
AcDbEntity
  8
0
370
    -3
390
0
  6
Continuous
100
AcDbLine
 10
573.551216
 20
-33.363297
 30
0.0
 11
573.551216
 21
-22.363297
 31
0.0
  0
LINE
  5
56
100
AcDbEntity
  8
0
370
    -3
390
0
  6
Continuous
100
AcDbLine
 10
576.551216
 20
-20.363297
 30
0.0
 11
575.051216
 21
-22.363297
 31
0.0
  0
LINE
  5
57
100
AcDbEntity
  8
0
370
    -3
390
0
  6
Continuous
100
AcDbLine
 10
573.551216
 20
-33.363297
 30
0.0
 11
589.551216
 21
-33.363297
 31
0.0
  0
LINE
  5
58
100
AcDbEntity
  8
0
370
    -3
390
0
  6
Continuous
100
AcDbLine
 10
573.551216
 20
-33.363297
 30
0.0
 11
573.551216
 21
-22.363297
 31
0.0
  0
LINE
  5
59
100
AcDbEntity
  8
0
370
    -3
390
0
  6
Continuous
100
AcDbLine
 10
576.551216
 20
-20.363297
 30
0.0
 11
575.051216
 21
-22.363297
 31
0.0
  0
LINE
  5
5A
100
AcDbEntity
  8
0
370
    -3
390
0
  6
Continuous
100
AcDbLine
 10
573.551216
 20
-22.363297
 30
0.0
 11
589.551216
 21
-22.363297
 31
0.0
  0
LINE
  5
5B
100
AcDbEntity
  8
0
370
    -3
390
0
  6
Continuous
100
AcDbLine
 10
574.301216
 20
-37.363297
 30
0.0
 11
589.551216
 21
-37.363297
 31
0.0
  0
LINE
  5
5C
100
AcDbEntity
  8
0
370
    -3
390
0
  6
Continuous
100
AcDbLine
 10
576.551216
 20
-20.363297
 30
0.0
 11
589.551216
 21
-20.363297
 31
0.0
  0
ARC
  5
5D
100
AcDbEntity
  8
0
370
    -3
390
0
  6
Continuous
100
AcDbCircle
 10
580.051216
 20
-38.863297
 30
0.0
 40
1.5
100
AcDbArc
 50
180.0
 51
270.0
  0
LINE
  5
5E
100
AcDbEntity
  8
0
370
    -3
390
0
  6
Continuous
100
AcDbLine
 10
580.051216
 20
-40.363297
 30
0.0
 11
589.551216
 21
-40.363297
 31
0.0
  0
LINE
  5
5F
100
AcDbEntity
  8
0
370
    -3
390
0
  6
Continuous
100
AcDbLine
 10
604.801216
 20
-34.363297
 30
0.0
 11
589.551216
 21
-34.363297
 31
0.0
  0
LINE
  5
60
100
AcDbEntity
  8
0
370
    -3
390
0
  6
Continuous
100
AcDbLine
 10
593.454171
 20
-32.363297
 30
0.0
 11
589.551216
 21
-32.363297
 31
0.0
  0
LINE
  5
61
100
AcDbEntity
  8
0
370
    -3
390
0
  6
Continuous
100
AcDbLine
 10
605.551216
 20
-22.363297
 30
0.0
 11
589.551216
 21
-22.363297
 31
0.0
  0
LINE
  5
62
100
AcDbEntity
  8
0
370
    -3
390
0
  6
Continuous
100
AcDbLine
 10
602.551216
 20
-20.363297
 30
0.0
 11
589.551216
 21
-20.363297
 31
0.0
  0
LINE
  5
63
100
AcDbEntity
  8
0
370
    -3
390
0
  6
Continuous
100
AcDbLine
 10
603.282962
 20
-32.363297
 30
0.0
 11
597.76335
 21
-32.363297
 31
0.0
  0
LINE
  5
64
100
AcDbEntity
  8
0
370
    -3
390
0
  6
Continuous
100
AcDbLine
 10
605.067883
 20
-22.363297
 30
0.0
 11
605.067883
 21
-32.363297
 31
0.0
  0
LINE
  5
65
100
AcDbEntity
  8
0
370
    -3
390
0
  6
Continuous
100
AcDbLine
 10
603.282962
 20
-22.363297
 30
0.0
 11
603.282962
 21
-32.363297
 31
0.0
  0
LINE
  5
66
100
AcDbEntity
  8
0
370
    -3
390
0
  6
Continuous
100
AcDbLine
 10
597.76335
 20
-22.363297
 30
0.0
 11
597.76335
 21
-32.363297
 31
0.0
  0
LINE
  5
67
100
AcDbEntity
  8
0
370
    -3
390
0
  6
Continuous
100
AcDbLine
 10
593.454171
 20
-22.363297
 30
0.0
 11
593.454171
 21
-32.363297
 31
0.0
  0
ARC
  5
68
100
AcDbEntity
  8
0
370
    -3
390
0
  6
Continuous
100
AcDbCircle
 10
599.051216
 20
-38.863297
 30
0.0
 40
1.5
100
AcDbArc
 50
0.0
 51
90.0
  0
LINE
  5
69
100
AcDbEntity
  8
0
370
    -3
390
0
  6
Continuous
100
AcDbLine
 10
604.801216
 20
-34.363297
 30
0.0
 11
604.801216
 21
-37.363297
 31
0.0
  0
LINE
  5
6A
100
AcDbEntity
  8
0
370
    -3
390
0
  6
Continuous
100
AcDbLine
 10
605.551216
 20
-32.363297
 30
0.0
 11
605.067883
 21
-32.363297
 31
0.0
  0
LINE
  5
6B
100
AcDbEntity
  8
0
370
    -3
390
0
  6
Continuous
100
AcDbLine
 10
605.551216
 20
-33.363297
 30
0.0
 11
605.551216
 21
-22.363297
 31
0.0
  0
LINE
  5
6C
100
AcDbEntity
  8
0
370
    -3
390
0
  6
Continuous
100
AcDbLine
 10
602.551216
 20
-20.363297
 30
0.0
 11
604.051216
 21
-22.363297
 31
0.0
  0
LINE
  5
6D
100
AcDbEntity
  8
0
370
    -3
390
0
  6
Continuous
100
AcDbLine
 10
605.551216
 20
-33.363297
 30
0.0
 11
589.551216
 21
-33.363297
 31
0.0
  0
LINE
  5
6E
100
AcDbEntity
  8
0
370
    -3
390
0
  6
Continuous
100
AcDbLine
 10
605.551216
 20
-33.363297
 30
0.0
 11
605.551216
 21
-22.363297
 31
0.0
  0
LINE
  5
6F
100
AcDbEntity
  8
0
370
    -3
390
0
  6
Continuous
100
AcDbLine
 10
602.551216
 20
-20.363297
 30
0.0
 11
604.051216
 21
-22.363297
 31
0.0
  0
LINE
  5
70
100
AcDbEntity
  8
0
370
    -3
390
0
  6
Continuous
100
AcDbLine
 10
604.801216
 20
-37.363297
 30
0.0
 11
589.551216
 21
-37.363297
 31
0.0
  0
ARC
  5
71
100
AcDbEntity
  8
0
370
    -3
390
0
  6
Continuous
100
AcDbCircle
 10
599.051216
 20
-38.863297
 30
0.0
 40
1.5
100
AcDbArc
 50
270.0
 51
0.0
  0
LINE
  5
72
100
AcDbEntity
  8
0
370
    -3
390
0
  6
Continuous
100
AcDbLine
 10
599.051216
 20
-40.363297
 30
0.0
 11
589.551216
 21
-40.363297
 31
0.0
  0
LINE
  5
73
100
AcDbEntity
  8
0
370
    -3
390
0
  6
Continuous
100
AcDbLine
 10
119.669017
 20
-33.061499
 30
0.0
 11
125.188629
 21
-33.061499
 31
0.0
  0
LINE
  5
74
100
AcDbEntity
  8
0
370
    -3
390
0
  6
Continuous
100
AcDbLine
 10
129.497809
 20
-33.061499
 30
0.0
 11
133.400763
 21
-33.061499
 31
0.0
  0
LINE
  5
75
100
AcDbEntity
  8
0
370
    -3
390
0
  6
Continuous
100
AcDbLine
 10
117.884097
 20
-23.061499
 30
0.0
 11
117.884097
 21
-33.061499
 31
0.0
  0
LINE
  5
76
100
AcDbEntity
  8
0
370
    -3
390
0
  6
Continuous
100
AcDbLine
 10
119.669017
 20
-23.061499
 30
0.0
 11
119.669017
 21
-33.061499
 31
0.0
  0
LINE
  5
77
100
AcDbEntity
  8
0
370
    -3
390
0
  6
Continuous
100
AcDbLine
 10
125.188629
 20
-23.061499
 30
0.0
 11
125.188629
 21
-33.061499
 31
0.0
  0
LINE
  5
78
100
AcDbEntity
  8
0
370
    -3
390
0
  6
Continuous
100
AcDbLine
 10
129.497809
 20
-23.061499
 30
0.0
 11
129.497809
 21
-33.061499
 31
0.0
  0
ARC
  5
79
100
AcDbEntity
  8
0
370
    -3
390
0
  6
Continuous
100
AcDbCircle
 10
123.900763
 20
-39.561499
 30
0.0
 40
1.5
100
AcDbArc
 50
90.0
 51
180.0
  0
LINE
  5
7A
100
AcDbEntity
  8
0
370
    -3
390
0
  6
Continuous
100
AcDbLine
 10
118.150763
 20
-35.061499
 30
0.0
 11
118.150763
 21
-38.061499
 31
0.0
  0
LINE
  5
7B
100
AcDbEntity
  8
0
370
    -3
390
0
  6
Continuous
100
AcDbLine
 10
118.150763
 20
-35.061499
 30
0.0
 11
133.400763
 21
-35.061499
 31
0.0
  0
LINE
  5
7C
100
AcDbEntity
  8
0
370
    -3
390
0
  6
Continuous
100
AcDbLine
 10
117.400763
 20
-33.061499
 30
0.0
 11
117.884097
 21
-33.061499
 31
0.0
  0
LINE
  5
7D
100
AcDbEntity
  8
0
370
    -3
390
0
  6
Continuous
100
AcDbLine
 10
117.400763
 20
-34.061499
 30
0.0
 11
117.400763
 21
-23.061499
 31
0.0
  0
LINE
  5
7E
100
AcDbEntity
  8
0
370
    -3
390
0
  6
Continuous
100
AcDbLine
 10
120.400763
 20
-21.061499
 30
0.0
 11
118.900763
 21
-23.061499
 31
0.0
  0
LINE
  5
7F
100
AcDbEntity
  8
0
370
    -3
390
0
  6
Continuous
100
AcDbLine
 10
117.400763
 20
-34.061499
 30
0.0
 11
133.400763
 21
-34.061499
 31
0.0
  0
LINE
  5
80
100
AcDbEntity
  8
0
370
    -3
390
0
  6
Continuous
100
AcDbLine
 10
117.400763
 20
-34.061499
 30
0.0
 11
117.400763
 21
-23.061499
 31
0.0
  0
LINE
  5
81
100
AcDbEntity
  8
0
370
    -3
390
0
  6
Continuous
100
AcDbLine
 10
120.400763
 20
-21.061499
 30
0.0
 11
118.900763
 21
-23.061499
 31
0.0
  0
LINE
  5
82
100
AcDbEntity
  8
0
370
    -3
390
0
  6
Continuous
100
AcDbLine
 10
117.400763
 20
-23.061499
 30
0.0
 11
133.400763
 21
-23.061499
 31
0.0
  0
LINE
  5
83
100
AcDbEntity
  8
0
370
    -3
390
0
  6
Continuous
100
AcDbLine
 10
118.150763
 20
-38.061499
 30
0.0
 11
133.400763
 21
-38.061499
 31
0.0
  0
LINE
  5
84
100
AcDbEntity
  8
0
370
    -3
390
0
  6
Continuous
100
AcDbLine
 10
120.400763
 20
-21.061499
 30
0.0
 11
133.400763
 21
-21.061499
 31
0.0
  0
ARC
  5
85
100
AcDbEntity
  8
0
370
    -3
390
0
  6
Continuous
100
AcDbCircle
 10
123.900763
 20
-39.561499
 30
0.0
 40
1.5
100
AcDbArc
 50
180.0
 51
241.787395
  0
LINE
  5
86
100
AcDbEntity
  8
0
370
    -3
390
0
  6
Continuous
100
AcDbLine
 10
148.650763
 20
-35.061499
 30
0.0
 11
133.400763
 21
-35.061499
 31
0.0
  0
LINE
  5
87
100
AcDbEntity
  8
0
370
    -3
390
0
  6
Continuous
100
AcDbLine
 10
137.303718
 20
-33.061499
 30
0.0
 11
133.400763
 21
-33.061499
 31
0.0
  0
LINE
  5
88
100
AcDbEntity
  8
0
370
    -3
390
0
  6
Continuous
100
AcDbLine
 10
149.400763
 20
-23.061499
 30
0.0
 11
133.400763
 21
-23.061499
 31
0.0
  0
LINE
  5
89
100
AcDbEntity
  8
0
370
    -3
390
0
  6
Continuous
100
AcDbLine
 10
146.400763
 20
-21.061499
 30
0.0
 11
133.400763
 21
-21.061499
 31
0.0
  0
LINE
  5
8A
100
AcDbEntity
  8
0
370
    -3
390
0
  6
Continuous
100
AcDbLine
 10
147.132509
 20
-33.061499
 30
0.0
 11
141.612898
 21
-33.061499
 31
0.0
  0
LINE
  5
8B
100
AcDbEntity
  8
0
370
    -3
390
0
  6
Continuous
100
AcDbLine
 10
148.91743
 20
-23.061499
 30
0.0
 11
148.91743
 21
-33.061499
 31
0.0
  0
LINE
  5
8C
100
AcDbEntity
  8
0
370
    -3
390
0
  6
Continuous
100
AcDbLine
 10
147.132509
 20
-23.061499
 30
0.0
 11
147.132509
 21
-33.061499
 31
0.0
  0
LINE
  5
8D
100
AcDbEntity
  8
0
370
    -3
390
0
  6
Continuous
100
AcDbLine
 10
141.612898
 20
-23.061499
 30
0.0
 11
141.612898
 21
-33.061499
 31
0.0
  0
LINE
  5
8E
100
AcDbEntity
  8
0
370
    -3
390
0
  6
Continuous
100
AcDbLine
 10
137.303718
 20
-23.061499
 30
0.0
 11
137.303718
 21
-33.061499
 31
0.0
  0
ARC
  5
8F
100
AcDbEntity
  8
0
370
    -3
390
0
  6
Continuous
100
AcDbCircle
 10
142.900763
 20
-39.561499
 30
0.0
 40
1.5
100
AcDbArc
 50
0.0
 51
90.0
  0
LINE
  5
90
100
AcDbEntity
  8
0
370
    -3
390
0
  6
Continuous
100
AcDbLine
 10
148.650763
 20
-35.061499
 30
0.0
 11
148.650763
 21
-38.061499
 31
0.0
  0
LINE
  5
91
100
AcDbEntity
  8
0
370
    -3
390
0
  6
Continuous
100
AcDbLine
 10
149.400763
 20
-33.061499
 30
0.0
 11
148.91743
 21
-33.061499
 31
0.0
  0
LINE
  5
92
100
AcDbEntity
  8
0
370
    -3
390
0
  6
Continuous
100
AcDbLine
 10
149.400763
 20
-34.061499
 30
0.0
 11
149.400763
 21
-23.061499
 31
0.0
  0
LINE
  5
93
100
AcDbEntity
  8
0
370
    -3
390
0
  6
Continuous
100
AcDbLine
 10
146.400763
 20
-21.061499
 30
0.0
 11
147.900763
 21
-23.061499
 31
0.0
  0
LINE
  5
94
100
AcDbEntity
  8
0
370
    -3
390
0
  6
Continuous
100
AcDbLine
 10
149.400763
 20
-34.061499
 30
0.0
 11
133.400763
 21
-34.061499
 31
0.0
  0
LINE
  5
95
100
AcDbEntity
  8
0
370
    -3
390
0
  6
Continuous
100
AcDbLine
 10
149.400763
 20
-34.061499
 30
0.0
 11
149.400763
 21
-23.061499
 31
0.0
  0
LINE
  5
96
100
AcDbEntity
  8
0
370
    -3
390
0
  6
Continuous
100
AcDbLine
 10
146.400763
 20
-21.061499
 30
0.0
 11
147.900763
 21
-23.061499
 31
0.0
  0
LINE
  5
97
100
AcDbEntity
  8
0
370
    -3
390
0
  6
Continuous
100
AcDbLine
 10
148.650763
 20
-38.061499
 30
0.0
 11
133.400763
 21
-38.061499
 31
0.0
  0
ARC
  5
98
100
AcDbEntity
  8
0
370
    -3
390
0
  6
Continuous
100
AcDbCircle
 10
142.900763
 20
-39.561499
 30
0.0
 40
1.5
100
AcDbArc
 50
270.0
 51
0.0
  0
LINE
  5
99
100
AcDbEntity
  8
0
370
    -3
390
0
  6
Continuous
100
AcDbLine
 10
142.900763
 20
-41.061499
 30
0.0
 11
133.400763
 21
-41.061499
 31
0.0
  0
LINE
  5
9A
100
AcDbEntity
  8
0
370
    -3
390
0
  6
CENTER
100
AcDbLine
 10
133.400763
 20
-50.222496
 30
0.0
 11
133.400763
 21
-18.737491
 31
0.0
  0
LINE
  5
9B
100
AcDbEntity
  8
0
370
    -3
390
0
  6
CENTER
100
AcDbLine
 10
747.83615
 20
-155.363297
 30
0.0
 11
433.268112
 21
-155.363297
 31
0.0
  0
ARC
  5
9C
100
AcDbEntity
  8
0
370
    -3
390
0
  6
Continuous
100
AcDbCircle
 10
561.551216
 20
-161.180659
 30
0.0
 40
120.0
100
AcDbArc
 50
93.344152
 51
180.0
  0
LINE
  5
9D
100
AcDbEntity
  8
0
370
    -3
390
0
  6
Continuous
100
AcDbLine
 10
441.551216
 20
-161.180659
 30
0.0
 11
441.551216
 21
-323.891161
 31
0.0
  0
LINE
  5
9E
100
AcDbEntity
  8
0
370
    -3
390
0
  6
Continuous
100
AcDbLine
 10
455.958564
 20
-155.363297
 30
0.0
 11
455.958564
 21
-320.363297
 31
0.0
  0
LINE
  5
9F
100
AcDbEntity
  8
0
370
    -3
390
0
  6
Continuous
100
AcDbLine
 10
484.757493
 20
-155.363297
 30
0.0
 11
484.757493
 21
-320.363297
 31
0.0
  0
ELLIPSE
  5
A0
100
AcDbEntity
  8
0
370
    -3
390
0
  6
Continuous
100
AcDbEllipse
 10
470.358029
 20
-161.180659
 30
0.0
 11
0.0
 21
35.000000000000057
 31
0.0
210
0.0
220
0.0
230
1.0
 40
0.411413
 41
4.8793742978269599
 42
1.4038110093526268
  0
ARC
  5
A1
100
AcDbEntity
  8
0
370
    -3
390
0
  6
Continuous
100
AcDbCircle
 10
584.551216
 20
-205.363297
 30
0.0
 40
131.5
100
AcDbArc
 50
180.0
 51
180.010286
  0
LINE
  5
A2
100
AcDbEntity
  8
0
370
    -3
390
0
  6
Continuous
100
AcDbLine
 10
609.707872
 20
-15.363303
 30
0.0
 11
609.707872
 21
-40.713607
 31
0.0
  0
ARC
  5
A3
100
AcDbEntity
  8
0
370
    -3
390
0
  6
Continuous
100
AcDbCircle
 10
599.707872
 20
-15.363303
 30
0.0
 40
10.0
100
AcDbArc
 50
0.0
 51
90.0
  0
LINE
  5
A4
100
AcDbEntity
  8
0
370
    -3
390
0
  6
Continuous
100
AcDbLine
 10
599.707872
 20
-5.363303
 30
0.0
 11
578.707872
 21
-5.363303
 31
0.0
  0
LINE
  5
A5
100
AcDbEntity
  8
0
370
    -3
390
0
  6
Continuous
100
AcDbLine
 10
568.707872
 20
-15.363303
 30
0.0
 11
568.707872
 21
-40.713607
 31
0.0
  0
ARC
  5
A6
100
AcDbEntity
  8
0
370
    -3
390
0
  6
Continuous
100
AcDbCircle
 10
578.707872
 20
-15.363303
 30
0.0
 40
10.0
100
AcDbArc
 50
90.0
 51
180.0
  0
LINE
  5
A7
100
AcDbEntity
  8
0
370
    -3
390
0
  6
CENTER
100
AcDbLine
 10
44.900763
 20
-321.436335
 30
0.0
 11
44.900763
 21
-358.774559
 31
0.0
  0
LINE
  5
A8
100
AcDbEntity
  8
0
370
    -3
390
0
  6
Continuous
100
AcDbLine
 10
69.900763
 20
-323.791862
 30
0.0
 11
28.898327
 21
-325.223699
 31
0.0
  0
LINE
  5
A9
100
AcDbEntity
  8
0
370
    -3
390
0
  6
CENTER
100
AcDbLine
 10
121.096757
 20
-205.363297
 30
0.0
 11
-328.931325
 21
-205.363297
 31
0.0
  0
LINE
  5
AA
100
AcDbEntity
  8
0
370
    -3
390
0
  6
Continuous
100
AcDbLine
 10
26.900763
 20
-72.363297
 30
0.0
 11
26.900763
 21
-325.899195
 31
0.0
  0
LINE
  5
AB
100
AcDbEntity
  8
0
370
    -3
390
0
  6
Continuous
100
AcDbLine
 10
93.505462
 20
-322.967568
 30
0.0
 11
69.900763
 21
-323.791862
 31
0.0
  0
LINE
  5
AC
100
AcDbEntity
  8
0
370
    -3
390
0
  6
Continuous
100
AcDbLine
 10
264.900763
 20
-329.304464
 30
0.0
 11
264.900763
 21
-350.363297
 31
0.0
  0
LINE
  5
AD
100
AcDbEntity
  8
0
370
    -3
390
0
  6
Continuous
100
AcDbLine
 10
24.900763
 20
-350.363297
 30
0.0
 11
264.900763
 21
-350.363297
 31
0.0
  0
LINE
  5
AE
100
AcDbEntity
  8
0
370
    -3
390
0
  6
CENTER
100
AcDbLine
 10
244.900763
 20
-321.436335
 30
0.0
 11
244.900763
 21
-358.774559
 31
0.0
  0
LINE
  5
AF
100
AcDbEntity
  8
0
370
    -3
390
0
  6
Continuous
100
AcDbLine
 10
439.551216
 20
-308.835432
 30
0.0
 11
439.551216
 21
-350.363297
 31
0.0
  0
LINE
  5
B0
100
AcDbEntity
  8
0
370
    -3
390
0
  6
Continuous
100
AcDbLine
 10
739.551216
 20
-308.835432
 30
0.0
 11
739.551216
 21
-350.363297
 31
0.0
  0
ARC
  5
B1
100
AcDbEntity
  8
0
370
    -3
390
0
  6
Continuous
100
AcDbCircle
 10
736.551216
 20
-328.363297
 30
0.0
 40
3.0
100
AcDbArc
 50
0.0
 51
90.0
  0
LINE
  5
B2
100
AcDbEntity
  8
0
370
    -3
390
0
  6
Continuous
100
AcDbLine
 10
589.551216
 20
-325.363297
 30
0.0
 11
736.551216
 21
-325.363297
 31
0.0
  0
LINE
  5
B3
100
AcDbEntity
  8
0
370
    -3
390
0
  6
CENTER
100
AcDbLine
 10
719.551216
 20
-317.629395
 30
0.0
 11
719.551216
 21
-354.995235
 31
0.0
  0
LINE
  5
B4
100
AcDbEntity
  8
0
370
    -3
390
0
  6
Continuous
100
AcDbLine
 10
679.551216
 20
-350.363297
 30
0.0
 11
739.551216
 21
-350.363297
 31
0.0
  0
LINE
  5
B5
100
AcDbEntity
  8
0
370
    -3
390
0
  6
Continuous
100
AcDbLine
 10
589.551216
 20
-347.363297
 30
0.0
 11
676.551216
 21
-347.363297
 31
0.0
  0
ARC
  5
B6
100
AcDbEntity
  8
0
370
    -3
390
0
  6
Continuous
100
AcDbCircle
 10
676.551216
 20
-350.363297
 30
0.0
 40
3.0
100
AcDbArc
 50
0.0
 51
90.0
  0
LINE
  5
B7
100
AcDbEntity
  8
0
370
    -3
390
0
  6
Continuous
100
AcDbLine
 10
739.551216
 20
-328.363297
 30
0.0
 11
739.551216
 21
-350.363297
 31
0.0
  0
ARC
  5
B8
100
AcDbEntity
  8
0
370
    -3
390
0
  6
Continuous
100
AcDbCircle
 10
740.551216
 20
-323.891161
 30
0.0
 40
3.0
100
AcDbArc
 50
180.0
 51
228.189685
  0
ARC
  5
B9
100
AcDbEntity
  8
0
370
    -3
390
0
  6
Continuous
100
AcDbCircle
 10
442.551216
 20
-328.363297
 30
0.0
 40
3.0
100
AcDbArc
 50
90.0
 51
180.0
  0
ARC
  5
BA
100
AcDbEntity
  8
0
370
    -3
390
0
  6
Continuous
100
AcDbCircle
 10
438.551216
 20
-323.891161
 30
0.0
 40
3.0
100
AcDbArc
 50
311.810315
 51
0.0
  0
LINE
  5
BB
100
AcDbEntity
  8
0
370
    -3
390
0
  6
Continuous
100
AcDbLine
 10
589.551216
 20
-325.363297
 30
0.0
 11
442.551216
 21
-325.363297
 31
0.0
  0
LINE
  5
BC
100
AcDbEntity
  8
0
370
    -3
390
0
  6
CENTER
100
AcDbLine
 10
459.551216
 20
-317.629395
 30
0.0
 11
459.551216
 21
-354.995235
 31
0.0
  0
LINE
  5
BD
100
AcDbEntity
  8
0
370
    -3
390
0
  6
Continuous
100
AcDbLine
 10
499.551216
 20
-350.363297
 30
0.0
 11
439.551216
 21
-350.363297
 31
0.0
  0
LINE
  5
BE
100
AcDbEntity
  8
0
370
    -3
390
0
  6
Continuous
100
AcDbLine
 10
589.551216
 20
-347.363297
 30
0.0
 11
502.551216
 21
-347.363297
 31
0.0
  0
ARC
  5
BF
100
AcDbEntity
  8
0
370
    -3
390
0
  6
Continuous
100
AcDbCircle
 10
502.551216
 20
-350.363297
 30
0.0
 40
3.0
100
AcDbArc
 50
90.0
 51
180.0
  0
LINE
  5
C0
100
AcDbEntity
  8
0
370
    -3
390
0
  6
Continuous
100
AcDbLine
 10
439.551216
 20
-328.363297
 30
0.0
 11
439.551216
 21
-350.363297
 31
0.0
  0
ARC
  5
C1
100
AcDbEntity
  8
0
370
    -3
390
0
  6
Continuous
100
AcDbCircle
 10
138.400763
 20
-325.363297
 30
0.0
 40
18.0
100
AcDbArc
 50
16.541484
 51
90.0
  0
LINE
  5
C2
100
AcDbEntity
  8
0
370
    -3
390
0
  6
CENTER
100
AcDbLine
 10
138.400763
 20
-311.22273
 30
0.0
 11
138.400763
 21
-340.67587
 31
0.0
  0
CIRCLE
  5
C3
100
AcDbEntity
  8
0
370
    -3
390
0
  6
Continuous
100
AcDbCircle
 10
138.400763
 20
-325.363297
 30
0.0
 40
9.0
  0
CIRCLE
  5
C4
100
AcDbEntity
  8
0
370
    -3
390
0
  6
Continuous
100
AcDbCircle
 10
138.400763
 20
-325.363297
 30
0.0
 40
10.5
  0
LINE
  5
C5
100
AcDbEntity
  8
0
370
    -3
390
0
  6
CENTER
100
AcDbLine
 10
152.639327
 20
-325.363297
 30
0.0
 11
124.136288
 21
-325.363297
 31
0.0
  0
LINE
  5
C6
100
AcDbEntity
  8
0
370
    -3
390
0
  6
Continuous
100
AcDbLine
 10
589.551216
 20
-316.363297
 30
0.0
 11
512.051216
 21
-316.363297
 31
0.0
  0
LINE
  5
C7
100
AcDbEntity
  8
0
370
    -3
390
0
  6
Continuous
100
AcDbLine
 10
589.551216
 20
-316.363297
 30
0.0
 11
667.051216
 21
-316.363297
 31
0.0
  0
LINE
  5
C8
100
AcDbEntity
  8
0
370
    -3
390
0
  6
Continuous
100
AcDbLine
 10
93.400763
 20
-273.363297
 30
0.0
 11
94.400763
 21
-273.363297
 31
0.0
  0
ARC
  5
C9
100
AcDbEntity
  8
0
370
    -3
390
0
  6
Continuous
100
AcDbCircle
 10
94.400763
 20
-289.729021
 30
0.0
 40
2.0
100
AcDbArc
 50
324.808447
 51
0.0
  0
LINE
  5
CA
100
AcDbEntity
  8
0
370
    -3
390
0
  6
Continuous
100
AcDbLine
 10
96.400763
 20
-275.363297
 30
0.0
 11
96.400763
 21
-289.729021
 31
0.0
  0
LINE
  5
CB
100
AcDbEntity
  8
0
370
    -3
390
0
  6
Continuous
100
AcDbLine
 10
74.617583
 20
-321.25259
 30
0.0
 11
96.035223
 21
-290.881645
 31
0.0
  0
ARC
  5
CC
100
AcDbEntity
  8
0
370
    -3
390
0
  6
Continuous
100
AcDbCircle
 10
69.714204
 20
-317.794719
 30
0.0
 40
6.0
100
AcDbArc
 50
272.0
 51
324.808447
  0
ARC
  5
CD
100
AcDbEntity
  8
0
370
    -3
390
0
  6
Continuous
100
AcDbCircle
 10
94.400763
 20
-275.363297
 30
0.0
 40
2.0
100
AcDbArc
 50
0.0
 51
90.0
  0
LINE
  5
CE
100
AcDbEntity
  8
0
370
    -3
390
0
  6
Continuous
100
AcDbLine
 10
160.3748
 20
-323.81443
 30
0.0
 11
219.900763
 21
-324.696486
 31
0.0
  0
ARC
  5
CF
100
AcDbEntity
  8
0
370
    -3
390
0
  6
Continuous
100
AcDbCircle
 10
265.900763
 20
-324.405484
 30
0.0
 40
3.0
100
AcDbArc
 50
180.0
 51
224.415309
  0
ARC
  5
D0
100
AcDbEntity
  8
0
370
    -3
390
0
  6
Continuous
100
AcDbCircle
 10
260.900763
 20
-329.304464
 30
0.0
 40
4.0
100
AcDbArc
 50
0.0
 51
89.151053
  0
ARC
  5
D1
100
AcDbEntity
  8
0
370
    -3
390
0
  6
Continuous
100
AcDbCircle
 10
223.375531
 20
-321.747646
 30
0.0
 40
3.0
100
AcDbArc
 50
180.0
 51
269.151053
  0
ARC
  5
D2
100
AcDbEntity
  8
0
370
    -3
390
0
  6
Continuous
100
AcDbCircle
 10
259.933649
 20
-322.289364
 30
0.0
 40
3.0
100
AcDbArc
 50
180.0
 51
269.151053
  0
ARC
  5
D3
100
AcDbEntity
  8
0
370
    -3
390
0
  6
Continuous
100
AcDbCircle
 10
442.551216
 20
-308.835432
 30
0.0
 40
3.0
100
AcDbArc
 50
131.810315
 51
180.0
  0
ARC
  5
D4
100
AcDbEntity
  8
0
370
    -3
390
0
  6
Continuous
100
AcDbCircle
 10
438.551216
 20
-304.363297
 30
0.0
 40
3.0
100
AcDbArc
 50
311.810315
 51
0.0
  0
ARC
  5
D5
100
AcDbEntity
  8
0
370
    -3
390
0
  6
Continuous
100
AcDbCircle
 10
736.551216
 20
-308.835432
 30
0.0
 40
3.0
100
AcDbArc
 50
0.0
 51
48.189685
  0
ARC
  5
D6
100
AcDbEntity
  8
0
370
    -3
390
0
  6
Continuous
100
AcDbCircle
 10
740.551216
 20
-304.363297
 30
0.0
 40
3.0
100
AcDbArc
 50
180.0
 51
228.189685
  0
LINE
  5
D7
100
AcDbEntity
  8
0
370
    -3
390
0
  6
Continuous
100
AcDbLine
 10
219.900763
 20
-324.696486
 30
0.0
 11
260.960029
 21
-325.304903
 31
0.0
  0
ARC
  5
D8
100
AcDbEntity
  8
0
370
    -3
390
0
  6
Continuous
100
AcDbCircle
 10
512.051216
 20
-307.363297
 30
0.0
 40
9.0
100
AcDbArc
 50
180.0
 51
270.0
  0
ARC
  5
D9
100
AcDbEntity
  8
0
370
    -3
390
0
  6
Continuous
100
AcDbCircle
 10
667.051216
 20
-307.363297
 30
0.0
 40
9.0
100
AcDbArc
 50
270.0
 51
0.0
  0
ARC
  5
DA
100
AcDbEntity
  8
0
370
    -3
390
0
  6
Continuous
100
AcDbCircle
 10
728.143868
 20
-320.363297
 30
0.0
 40
5.0
100
AcDbArc
 50
180.0
 51
270.0
  0
ARC
  5
DB
100
AcDbEntity
  8
0
370
    -3
390
0
  6
Continuous
100
AcDbCircle
 10
699.344939
 20
-320.363297
 30
0.0
 40
5.0
100
AcDbArc
 50
180.0
 51
270.0
  0
ARC
  5
DC
100
AcDbEntity
  8
0
370
    -3
390
0
  6
Continuous
100
AcDbCircle
 10
690.07771
 20
-320.363297
 30
0.0
 40
5.0
100
AcDbArc
 50
180.0
 51
270.0
  0
ARC
  5
DD
100
AcDbEntity
  8
0
370
    -3
390
0
  6
Continuous
100
AcDbCircle
 10
489.024722
 20
-320.363297
 30
0.0
 40
5.0
100
AcDbArc
 50
270.0
 51
0.0
  0
ARC
  5
DE
100
AcDbEntity
  8
0
370
    -3
390
0
  6
Continuous
100
AcDbCircle
 10
479.757493
 20
-320.363297
 30
0.0
 40
5.0
100
AcDbArc
 50
270.0
 51
0.0
  0
ARC
  5
DF
100
AcDbEntity
  8
0
370
    -3
390
0
  6
Continuous
100
AcDbCircle
 10
450.958564
 20
-320.363297
 30
0.0
 40
5.0
100
AcDbArc
 50
270.0
 51
0.0
  0
ARC
  5
E0
100
AcDbEntity
  8
0
370
    -3
390
0
  6
Continuous
100
AcDbCircle
 10
160.448882
 20
-318.814978
 30
0.0
 40
5.0
100
AcDbArc
 50
196.541484
 51
269.151053
  0
LINE
  5
E1
100
AcDbEntity
  8
0
370
    -3
390
0
  6
Continuous
100
AcDbLine
 10
138.400763
 20
-307.363297
 30
0.0
 11
96.400763
 21
-306.630184
 31
0.0
  0
LINE
  5
E2
100
AcDbEntity
  8
0
370
    -3
390
0
  6
Continuous
100
AcDbLine
 10
96.400763
 20
-306.630184
 30
0.0
 11
96.400763
 21
-319.969395
 31
0.0
  0
ARC
  5
E3
100
AcDbEntity
  8
0
370
    -3
390
0
  6
Continuous
100
AcDbCircle
 10
93.400763
 20
-319.969395
 30
0.0
 40
3.0
100
AcDbArc
 50
272.0
 51
0.0
  0
ARC
  5
E4
100
AcDbEntity
  8
0
370
    -3
390
0
  6
Continuous
100
AcDbCircle
 10
28.900763
 20
-329.363297
 30
0.0
 40
4.0
100
AcDbArc
 50
90.0
 51
180.0
  0
LINE
  5
E5
100
AcDbEntity
  8
0
370
    -3
390
0
  6
Continuous
100
AcDbLine
 10
24.900763
 20
-329.363297
 30
0.0
 11
24.900763
 21
-350.363297
 31
0.0
  0
ARC
  5
E6
100
AcDbEntity
  8
0
370
    -3
390
0
  6
Continuous
100
AcDbCircle
 10
26.900763
 20
-317.363297
 30
0.0
 40
2.0
100
AcDbArc
 50
0.0
 51
90.0
  0
LINE
  5
E7
100
AcDbEntity
  8
0
370
    -3
390
0
  6
CENTER
100
AcDbLine
 10
612.719129
 20
-25.363303
 30
0.0
 11
565.696615
 21
-25.363303
 31
0.0
  0
INSERT
  5
F3
100
AcDbEntity
  8
0
390
0
100
AcDbBlockReference
  2
ZU_SYM__USERS_HOME_SYMBOL_POO_SYM_B20_18
 10
65.400763
 20
-53.363297
 30
0.0
  0
LINE
  5
F4
100
AcDbEntity
  8
0
370
    -3
390
0
  6
CENTER
100
AcDbLine
 10
59.670516
 20
-25.363297
 30
0.0
 11
77.769782
 21
-25.363297
 31
0.0
  0
LINE
  5
F5
100
AcDbEntity
  8
0
370
    -3
390
0
  6
Continuous
100
AcDbLine
 10
65.400763
 20
-63.363297
 30
0.0
 11
65.400763
 21
-5.363297
 31
0.0
  0
LINE
  5
F6
100
AcDbEntity
  8
0
370
    -3
390
0
  6
Continuous
100
AcDbLine
 10
65.400763
 20
-5.363297
 30
0.0
 11
69.900763
 21
-5.363297
 31
0.0
  0
LINE
  5
F7
100
AcDbEntity
  8
0
370
    -3
390
0
  6
Continuous
100
AcDbLine
 10
65.400763
 20
-63.363297
 30
0.0
 11
69.900763
 21
-63.363297
 31
0.0
  0
LINE
  5
F8
100
AcDbEntity
  8
0
370
    -3
390
0
  6
Continuous
100
AcDbLine
 10
69.900763
 20
-5.363297
 30
0.0
 11
69.900763
 21
-65.469755
 31
0.0
  0
LINE
  5
F9
100
AcDbEntity
  8
0
370
    -3
390
0
  6
Continuous
100
AcDbLine
 10
558.051216
 20
-147.363297
 30
0.0
 11
558.051216
 21
-163.363297
 31
0.0
  0
LINE
  5
FA
100
AcDbEntity
  8
0
370
    -3
390
0
  6
Continuous
100
AcDbLine
 10
558.051216
 20
-163.363297
 30
0.0
 11
568.051216
 21
-163.363297
 31
0.0
  0
LINE
  5
FB
100
AcDbEntity
  8
0
370
    -3
390
0
  6
Continuous
100
AcDbLine
 10
568.051216
 20
-147.363297
 30
0.0
 11
568.051216
 21
-163.363297
 31
0.0
  0
LINE
  5
FC
100
AcDbEntity
  8
0
370
    -3
390
0
  6
Continuous
100
AcDbLine
 10
558.051216
 20
-147.363297
 30
0.0
 11
568.051216
 21
-147.363297
 31
0.0
  0
ARC
  5
FD
100
AcDbEntity
  8
0
370
    -3
390
0
  6
Continuous
100
AcDbCircle
 10
589.551216
 20
-155.363297
 30
0.0
 40
27.5
100
AcDbArc
 50
196.91239
 51
163.08761
  0
CIRCLE
  5
FE
100
AcDbEntity
  8
0
370
    -3
390
0
  6
Continuous
100
AcDbCircle
 10
589.551216
 20
-155.363297
 30
0.0
 40
4.188
  0
CIRCLE
  5
FF
100
AcDbEntity
  8
0
370
    -3
390
0
  6
Continuous
100
AcDbCircle
 10
589.551216
 20
-155.363297
 30
0.0
 40
5.0
  0
LINE
  5
100
100
AcDbEntity
  8
0
370
    -3
390
0
  6
CENTER
100
AcDbLine
 10
589.551216
 20
0.230385
 30
0.0
 11
589.551216
 21
-354.638598
 31
0.0
  0
ARC
  5
101
100
AcDbEntity
  8
0
370
    -3
390
0
  6
Continuous
100
AcDbCircle
 10
288.900763
 20
-155.363297
 30
0.0
 40
8.0
100
AcDbArc
 50
90.0
 51
270.0
  0
LINE
  5
102
100
AcDbEntity
  8
0
370
    -3
390
0
  6
Continuous
100
AcDbLine
 10
288.900763
 20
-163.363297
 30
0.0
 11
351.900763
 21
-163.363297
 31
0.0
  0
LINE
  5
103
100
AcDbEntity
  8
0
370
    -3
390
0
  6
Continuous
100
AcDbLine
 10
288.900763
 20
-147.363297
 30
0.0
 11
351.900763
 21
-147.363297
 31
0.0
  0
ARC
  5
104
100
AcDbEntity
  8
0
370
    -3
390
0
  6
Continuous
100
AcDbCircle
 10
351.100763
 20
-128.663297
 30
0.0
 40
0.8
100
AcDbArc
 50
0.0
 51
90.0
  0
LINE
  5
105
100
AcDbEntity
  8
0
370
    -3
390
0
  6
Continuous
100
AcDbLine
 10
351.900763
 20
-155.363297
 30
0.0
 11
351.900763
 21
-128.663297
 31
0.0
  0
LINE
  5
106
100
AcDbEntity
  8
0
370
    -3
390
0
  6
Continuous
100
AcDbLine
 10
269.100763
 20
-126.363297
 30
0.0
 11
264.900763
 21
-126.363297
 31
0.0
  0
LINE
  5
107
100
AcDbEntity
  8
0
370
    -3
390
0
  6
Continuous
100
AcDbLine
 10
269.100763
 20
-126.363297
 30
0.0
 11
269.900763
 21
-127.163297
 31
0.0
  0
ARC
  5
108
100
AcDbEntity
  8
0
370
    -3
390
0
  6
Continuous
100
AcDbCircle
 10
270.700763
 20
-127.213297
 30
0.0
 40
0.8
100
AcDbArc
 50
180.0
 51
270.0
  0
LINE
  5
109
100
AcDbEntity
  8
0
370
    -3
390
0
  6
Continuous
100
AcDbLine
 10
271.900763
 20
-128.013297
 30
0.0
 11
272.460571
 21
-127.863297
 31
0.0
  0
LINE
  5
10A
100
AcDbEntity
  8
0
370
    -3
390
0
  6
Continuous
100
AcDbLine
 10
271.900763
 20
-128.013297
 30
0.0
 11
270.700763
 21
-128.013297
 31
0.0
  0
LINE
  5
10B
100
AcDbEntity
  8
0
370
    -3
390
0
  6
Continuous
100
AcDbLine
 10
351.100763
 20
-127.863297
 30
0.0
 11
272.460571
 21
-127.863297
 31
0.0
  0
LINE
  5
10C
100
AcDbEntity
  8
0
370
    -3
390
0
  6
Continuous
100
AcDbLine
 10
269.900763
 20
-127.163297
 30
0.0
 11
269.900763
 21
-155.363297
 31
0.0
  0
LINE
  5
10D
100
AcDbEntity
  8
0
370
    -3
390
0
  6
Continuous
100
AcDbLine
 10
269.900763
 20
-155.363297
 30
0.0
 11
269.900763
 21
-127.163297
 31
0.0
  0
LINE
  5
10E
100
AcDbEntity
  8
0
370
    -3
390
0
  6
Continuous
100
AcDbLine
 10
269.100763
 20
-184.363297
 30
0.0
 11
269.900763
 21
-183.563297
 31
0.0
  0
ARC
  5
10F
100
AcDbEntity
  8
0
370
    -3
390
0
  6
Continuous
100
AcDbCircle
 10
270.700763
 20
-183.513297
 30
0.0
 40
0.8
100
AcDbArc
 50
90.0
 51
180.0
  0
LINE
  5
110
100
AcDbEntity
  8
0
370
    -3
390
0
  6
Continuous
100
AcDbLine
 10
271.900763
 20
-182.713297
 30
0.0
 11
272.460571
 21
-182.863297
 31
0.0
  0
LINE
  5
111
100
AcDbEntity
  8
0
370
    -3
390
0
  6
Continuous
100
AcDbLine
 10
271.900763
 20
-182.713297
 30
0.0
 11
270.700763
 21
-182.713297
 31
0.0
  0
LINE
  5
112
100
AcDbEntity
  8
0
370
    -3
390
0
  6
Continuous
100
AcDbLine
 10
269.900763
 20
-183.563297
 30
0.0
 11
269.900763
 21
-155.363297
 31
0.0
  0
LINE
  5
113
100
AcDbEntity
  8
0
370
    -3
390
0
  6
Continuous
100
AcDbLine
 10
269.100763
 20
-184.363297
 30
0.0
 11
264.900763
 21
-184.363297
 31
0.0
  0
LINE
  5
114
100
AcDbEntity
  8
0
370
    -3
390
0
  6
Continuous
100
AcDbLine
 10
269.900763
 20
-155.363297
 30
0.0
 11
269.900763
 21
-183.563297
 31
0.0
  0
LINE
  5
115
100
AcDbEntity
  8
0
370
    -3
390
0
  6
Continuous
100
AcDbLine
 10
287.900763
 20
-182.863297
 30
0.0
 11
279.900763
 21
-182.863297
 31
0.0
  0
LINE
  5
116
100
AcDbEntity
  8
0
370
    -3
390
0
  6
Continuous
100
AcDbLine
 10
279.900763
 20
-182.863297
 30
0.0
 11
272.460571
 21
-182.863297
 31
0.0
  0
ARC
  5
117
100
AcDbEntity
  8
0
370
    -3
390
0
  6
Continuous
100
AcDbCircle
 10
351.100763
 20
-182.063297
 30
0.0
 40
0.8
100
AcDbArc
 50
270.0
 51
0.0
  0
LINE
  5
118
100
AcDbEntity
  8
0
370
    -3
390
0
  6
Continuous
100
AcDbLine
 10
351.900763
 20
-155.363297
 30
0.0
 11
351.900763
 21
-182.063297
 31
0.0
  0
LINE
  5
119
100
AcDbEntity
  8
0
370
    -3
390
0
  6
Continuous
100
AcDbLine
 10
351.100763
 20
-182.863297
 30
0.0
 11
287.900763
 21
-182.863297
 31
0.0
  0
INSERT
  5
126
100
AcDbEntity
  8
0
390
0
100
AcDbBlockReference
  2
ZU_SYM__USERS_HOME_SYMBOL_POO_SYM_B20_19
 10
80.900763
 20
-235.363297
 30
0.0
  0
INSERT
  5
133
100
AcDbEntity
  8
0
390
0
100
AcDbBlockReference
  2
ZU_SYM__USERS_HOME_SYMBOL_POO_SYM_B20_0000119
 10
80.900763
 20
-135.742307
 30
0.0
  0
INSERT
  5
140
100
AcDbEntity
  8
0
390
0
100
AcDbBlockReference
  2
ZU_SYM__USERS_HOME_SYMBOL_POO_SYM_B20_0000219
 10
80.900763
 20
-60.242307
 30
0.0
  0
ARC
  5
141
100
AcDbEntity
  8
0
370
    -3
390
0
  6
Continuous
100
AcDbCircle
 10
26.900763
 20
-93.363297
 30
0.0
 40
2.0
100
AcDbArc
 50
270.0
 51
0.0
  0
ARC
  5
142
100
AcDbEntity
  8
0
370
    -3
390
0
  6
Continuous
100
AcDbCircle
 10
30.900763
 20
-74.261226
 30
0.0
 40
2.0
100
AcDbArc
 50
93.0
 51
180.0
  0
ARC
  5
143
100
AcDbEntity
  8
0
370
    -3
390
0
  6
Continuous
100
AcDbCircle
 10
72.900763
 20
-43.363297
 30
0.0
 40
3.0
100
AcDbArc
 50
90.0
 51
180.0
  0
LINE
  5
144
100
AcDbEntity
  8
0
370
    -3
390
0
  6
Continuous
100
AcDbLine
 10
92.900763
 20
-40.363297
 30
0.0
 11
72.900763
 21
-40.363297
 31
0.0
  0
LINE
  5
145
100
AcDbEntity
  8
0
370
    -3
390
0
  6
Continuous
100
AcDbLine
 10
92.900763
 20
-205.363297
 30
0.0
 11
92.900763
 21
-40.363297
 31
0.0
  0
LINE
  5
146
100
AcDbEntity
  8
0
370
    -3
390
0
  6
Continuous
100
AcDbLine
 10
92.900763
 20
-205.363297
 30
0.0
 11
92.900763
 21
-295.326416
 31
0.0
  0
LINE
  5
147
100
AcDbEntity
  8
0
370
    -3
390
0
  6
Continuous
100
AcDbLine
 10
26.900763
 20
-95.363297
 30
0.0
 11
26.900763
 21
-205.363297
 31
0.0
  0
LINE
  5
148
100
AcDbEntity
  8
0
370
    -3
390
0
  6
Continuous
100
AcDbLine
 10
26.900763
 20
-315.363297
 30
0.0
 11
26.900763
 21
-205.363297
 31
0.0
  0
LINE
  5
149
100
AcDbEntity
  8
0
370
    -3
390
0
  6
Continuous
100
AcDbLine
 10
28.900763
 20
-74.261226
 30
0.0
 11
28.900763
 21
-205.363297
 31
0.0
  0
LINE
  5
14A
100
AcDbEntity
  8
0
370
    -3
390
0
  6
Continuous
100
AcDbLine
 10
28.900763
 20
-325.223613
 30
0.0
 11
28.900763
 21
-205.363297
 31
0.0
  0
LINE
  5
14B
100
AcDbEntity
  8
0
370
    -3
390
0
  6
Continuous
100
AcDbLine
 10
30.796091
 20
-72.263967
 30
0.0
 11
76.162443
 21
-69.886417
 31
0.0
  0
ARC
  5
14C
100
AcDbEntity
  8
0
370
    -3
390
0
  6
Continuous
100
AcDbCircle
 10
83.900763
 20
-43.363297
 30
0.0
 40
3.0
100
AcDbArc
 50
90.0
 51
180.0
  0
LINE
  5
14D
100
AcDbEntity
  8
0
370
    -3
390
0
  6
Continuous
100
AcDbLine
 10
80.900763
 20
-312.342826
 30
0.0
 11
80.900763
 21
-43.363297
 31
0.0
  0
ARC
  5
14E
100
AcDbEntity
  8
0
370
    -3
390
0
  6
Continuous
100
AcDbCircle
 10
77.900763
 20
-195.363297
 30
0.0
 40
3.0
100
AcDbArc
 50
90.0
 51
180.0
  0
LINE
  5
14F
100
AcDbEntity
  8
0
370
    -3
390
0
  6
Continuous
100
AcDbLine
 10
74.900763
 20
-215.363297
 30
0.0
 11
74.900763
 21
-195.363297
 31
0.0
  0
ARC
  5
150
100
AcDbEntity
  8
0
370
    -3
390
0
  6
Continuous
100
AcDbCircle
 10
77.900763
 20
-215.363297
 30
0.0
 40
3.0
100
AcDbArc
 50
180.0
 51
270.0
  0
ARC
  5
151
100
AcDbEntity
  8
0
370
    -3
390
0
  6
Continuous
100
AcDbCircle
 10
77.900763
 20
-189.363297
 30
0.0
 40
3.0
100
AcDbArc
 50
270.0
 51
0.0
  0
ARC
  5
152
100
AcDbEntity
  8
0
370
    -3
390
0
  6
Continuous
100
AcDbCircle
 10
77.900763
 20
-221.363297
 30
0.0
 40
3.0
100
AcDbArc
 50
0.0
 51
90.0
  0
ARC
  5
153
100
AcDbEntity
  8
0
370
    -3
390
0
  6
Continuous
100
AcDbCircle
 10
64.900763
 20
-65.469755
 30
0.0
 40
5.0
100
AcDbArc
 50
273.0
 51
0.0
  0
ARC
  5
154
100
AcDbEntity
  8
0
370
    -3
390
0
  6
Continuous
100
AcDbCircle
 10
75.900763
 20
-64.893269
 30
0.0
 40
5.0
100
AcDbArc
 50
273.0
 51
317.94778
  0
ARC
  5
155
100
AcDbEntity
  8
0
370
    -3
390
0
  6
Continuous
100
AcDbCircle
 10
651.478593
 20
-158.363297
 30
0.0
 40
3.0
100
AcDbArc
 50
90.0
 51
177.226541
  0
ARC
  5
156
100
AcDbEntity
  8
0
370
    -3
390
0
  6
Continuous
100
AcDbCircle
 10
527.623839
 20
-158.363297
 30
0.0
 40
3.0
100
AcDbArc
 50
2.773459
 51
90.0
  0
ARC
  5
157
100
AcDbEntity
  8
0
370
    -3
390
0
  6
Continuous
100
AcDbCircle
 10
589.551216
 20
-155.363297
 30
0.0
 40
59.0
100
AcDbArc
 50
182.773459
 51
357.226541
  0
LINE
  5
158
100
AcDbEntity
  8
0
370
    -3
390
0
  6
Continuous
100
AcDbLine
 10
263.900763
 20
-205.363297
 30
0.0
 11
264.900763
 21
-205.363297
 31
0.0
  0
LINE
  5
159
100
AcDbEntity
  8
0
370
    -3
390
0
  6
Continuous
100
AcDbLine
 10
263.900763
 20
-105.363297
 30
0.0
 11
264.900763
 21
-105.363297
 31
0.0
  0
LINE
  5
15A
100
AcDbEntity
  8
0
370
    -3
390
0
  6
Continuous
100
AcDbLine
 10
685.07771
 20
-161.180659
 30
0.0
 11
685.07771
 21
-320.363297
 31
0.0
  0
ARC
  5
15B
100
AcDbEntity
  8
0
370
    -3
390
0
  6
Continuous
100
AcDbCircle
 10
617.551216
 20
-161.180659
 30
0.0
 40
67.526494
100
AcDbArc
 50
0.0
 51
86.655848
  0
ARC
  5
15C
100
AcDbEntity
  8
0
370
    -3
390
0
  6
Continuous
100
AcDbCircle
 10
589.551216
 20
-640.363297
 30
0.0
 40
547.526494
100
AcDbArc
 50
86.655848
 51
90.0
  0
ARC
  5
15D
100
AcDbEntity
  8
0
370
    -3
390
0
  6
Continuous
100
AcDbCircle
 10
589.551216
 20
-640.363297
 30
0.0
 40
547.526494
100
AcDbArc
 50
90.0
 51
93.344152
  0
ARC
  5
15E
100
AcDbEntity
  8
0
370
    -3
390
0
  6
Continuous
100
AcDbCircle
 10
561.551216
 20
-161.180659
 30
0.0
 40
67.526494
100
AcDbArc
 50
93.344152
 51
180.0
  0
LINE
  5
15F
100
AcDbEntity
  8
0
370
    -3
390
0
  6
Continuous
100
AcDbLine
 10
494.024722
 20
-161.180659
 30
0.0
 11
494.024722
 21
-320.363297
 31
0.0
  0
LINE
  5
160
100
AcDbEntity
  8
0
370
    -3
390
0
  6
Continuous
100
AcDbLine
 10
676.051216
 20
-160.363297
 30
0.0
 11
676.051216
 21
-307.363297
 31
0.0
  0
ARC
  5
161
100
AcDbEntity
  8
0
370
    -3
390
0
  6
Continuous
100
AcDbCircle
 10
671.051216
 20
-160.363297
 30
0.0
 40
5.0
100
AcDbArc
 50
0.0
 51
90.0
  0
LINE
  5
162
100
AcDbEntity
  8
0
370
    -3
390
0
  6
Continuous
100
AcDbLine
 10
651.478593
 20
-155.363297
 30
0.0
 11
671.051216
 21
-155.363297
 31
0.0
  0
ARC
  5
163
100
AcDbEntity
  8
0
370
    -3
390
0
  6
Continuous
100
AcDbCircle
 10
508.051216
 20
-160.363297
 30
0.0
 40
5.0
100
AcDbArc
 50
90.0
 51
180.0
  0
LINE
  5
164
100
AcDbEntity
  8
0
370
    -3
390
0
  6
Continuous
100
AcDbLine
 10
527.623839
 20
-155.363297
 30
0.0
 11
508.051216
 21
-155.363297
 31
0.0
  0
LINE
  5
165
100
AcDbEntity
  8
0
370
    -3
390
0
  6
Continuous
100
AcDbLine
 10
503.051216
 20
-160.363297
 30
0.0
 11
503.051216
 21
-307.363297
 31
0.0
  0
ARC
  5
166
100
AcDbEntity
  8
0
370
    -3
390
0
  6
Continuous
100
AcDbCircle
 10
259.900763
 20
-93.528316
 30
0.0
 40
3.0
100
AcDbArc
 50
0.0
 51
26.186216
  0
ARC
  5
167
100
AcDbEntity
  8
0
370
    -3
390
0
  6
Continuous
100
AcDbCircle
 10
181.830047
 20
-131.920545
 30
0.0
 40
90.0
100
AcDbArc
 50
26.186216
 51
89.0
  0
ELLIPSE
  5
168
100
AcDbEntity
  8
0
370
    -3
390
0
  6
Continuous
100
AcDbEllipse
 10
238.65459
 20
-161.180659
 30
0.0
 11
0.0
 21
35.000000000000057
 31
0.0
210
0.0
220
0.0
230
1.0
 40
0.522259
 41
4.7123889803846897
 42
1.5707963267948968
  0
LINE
  5
169
100
AcDbEntity
  8
0
370
    -3
390
0
  6
Continuous
100
AcDbLine
 10
256.933649
 20
-161.180659
 30
0.0
 11
256.933649
 21
-322.289364
 31
0.0
  0
LINE
  5
16A
100
AcDbEntity
  8
0
370
    -3
390
0
  6
Continuous
100
AcDbLine
 10
220.375531
 20
-161.180659
 30
0.0
 11
220.375531
 21
-321.747646
 31
0.0
  0
LINE
  5
16B
100
AcDbEntity
  8
0
370
    -3
390
0
  6
CENTER
100
AcDbLine
 10
100.14623
 20
-263.363297
 30
0.0
 11
136.962655
 21
-263.363297
 31
0.0
  0
LINE
  5
16C
100
AcDbEntity
  8
0
370
    -3
390
0
  6
CENTER
100
AcDbLine
 10
118.400763
 20
-245.428214
 30
0.0
 11
118.400763
 21
-282.957216
 31
0.0
  0
CIRCLE
  5
16D
100
AcDbEntity
  8
0
370
    -3
390
0
  6
Continuous
100
AcDbCircle
 10
118.400763
 20
-263.363297
 30
0.0
 40
15.0
  0
LINE
  5
16E
100
AcDbEntity
  8
0
370
    -3
390
0
  6
Continuous
100
AcDbLine
 10
694.344939
 20
-155.363297
 30
0.0
 11
694.344939
 21
-320.363297
 31
0.0
  0
LINE
  5
16F
100
AcDbEntity
  8
0
370
    -3
390
0
  6
Continuous
100
AcDbLine
 10
723.143868
 20
-155.363297
 30
0.0
 11
723.143868
 21
-320.363297
 31
0.0
  0
ELLIPSE
  5
170
100
AcDbEntity
  8
0
370
    -3
390
0
  6
Continuous
100
AcDbEllipse
 10
708.744403
 20
-161.180659
 30
0.0
 11
0.0
 21
35.000000000000057
 31
0.0
210
0.0
220
0.0
230
1.0
 40
0.411413
 41
4.8793742978269545
 42
1.4038110093526217
  0
LINE
  5
171
100
AcDbEntity
  8
0
370
    -3
390
0
  6
CENTER
100
AcDbLine
 10
627.276905
 20
-205.363297
 30
0.0
 11
550.046064
 21
-205.363297
 31
0.0
  0
ARC
  5
172
100
AcDbEntity
  8
0
370
    -3
390
0
  6
Continuous
100
AcDbCircle
 10
589.551216
 20
-640.363297
 30
0.0
 40
600.0
100
AcDbArc
 50
90.0
 51
93.344152
  0
ARC
  5
173
100
AcDbEntity
  8
0
370
    -3
390
0
  6
Continuous
100
AcDbCircle
 10
617.551216
 20
-161.180659
 30
0.0
 40
120.0
100
AcDbArc
 50
0.0
 51
86.655848
  0
ARC
  5
174
100
AcDbEntity
  8
0
370
    -3
390
0
  6
Continuous
100
AcDbCircle
 10
589.551216
 20
-640.363297
 30
0.0
 40
600.0
100
AcDbArc
 50
86.655848
 51
90.0
  0
LINE
  5
175
100
AcDbEntity
  8
0
370
    -3
390
0
  6
Continuous
100
AcDbLine
 10
737.551216
 20
-161.180659
 30
0.0
 11
737.551216
 21
-323.891161
 31
0.0
  0
LINE
  5
176
100
AcDbEntity
  8
0
370
    -3
390
0
  6
Continuous
100
AcDbLine
 10
93.400763
 20
-40.363297
 30
0.0
 11
183.400763
 21
-41.934252
 31
0.0
  0
LINE
  5
177
100
AcDbEntity
  8
0
370
    -3
390
0
  6
Continuous
100
AcDbLine
 10
262.900763
 20
-155.363297
 30
0.0
 11
262.900763
 21
-93.528316
 31
0.0
  0
LINE
  5
178
100
AcDbEntity
  8
0
370
    -3
390
0
  6
Continuous
100
AcDbLine
 10
93.400763
 20
-40.363297
 30
0.0
 11
93.400763
 21
-294.617399
 31
0.0
  0
LINE
  5
179
100
AcDbEntity
  8
0
370
    -3
390
0
  6
Continuous
100
AcDbLine
 10
264.900763
 20
-155.363297
 30
0.0
 11
264.900763
 21
-205.363297
 31
0.0
  0
LINE
  5
17A
100
AcDbEntity
  8
0
370
    -3
390
0
  6
CENTER
100
AcDbLine
 10
355.824299
 20
-155.363297
 30
0.0
 11
190.542303
 21
-155.363297
 31
0.0
  0
LINE
  5
17B
100
AcDbEntity
  8
0
370
    -3
390
0
  6
Continuous
100
AcDbLine
 10
264.900763
 20
-155.363297
 30
0.0
 11
264.900763
 21
-105.363297
 31
0.0
  0
ARC
  5
17C
100
AcDbEntity
  8
0
370
    -3
390
0
  6
Continuous
100
AcDbCircle
 10
263.900763
 20
-104.363297
 30
0.0
 40
1.0
100
AcDbArc
 50
180.0
 51
270.0
  0
ARC
  5
17D
100
AcDbEntity
  8
0
370
    -3
390
0
  6
Continuous
100
AcDbCircle
 10
263.900763
 20
-206.363297
 30
0.0
 40
1.0
100
AcDbArc
 50
90.0
 51
180.0
  0
LINE
  5
17E
100
AcDbEntity
  8
0
370
    -3
390
0
  6
Continuous
100
AcDbLine
 10
262.900763
 20
-155.363297
 30
0.0
 11
262.900763
 21
-324.405484
 31
0.0
  0
CIRCLE
  5
17F
100
AcDbEntity
  8
0
370
    -3
390
0
  6
Continuous
100
AcDbCircle
 10
589.551216
 20
-155.363297
 30
0.0
 40
50.0
  0
CIRCLE
  5
180
100
AcDbEntity
  8
0
370
    -3
390
0
  6
Continuous
100
AcDbCircle
 10
589.551216
 20
-155.363297
 30
0.0
 40
40.0
  0
LINE
  5
181
100
AcDbEntity
  8
0
370
    -3
390
0
  6
Continuous
100
AcDbLine
 10
-203.099237
 20
-270.562587
 30
0.0
 11
-203.099237
 21
-342.563297
 31
0.0
  0
LINE
  5
182
100
AcDbEntity
  8
0
370
    -3
390
0
  6
Continuous
100
AcDbLine
 10
-203.099237
 20
-165.52137
 30
0.0
 11
-203.099237
 21
-68.163297
 31
0.0
  0
LINE
  5
183
100
AcDbEntity
  8
0
370
    -3
390
0
  6
Continuous
100
AcDbLine
 10
-320.099237
 20
-205.363297
 30
0.0
 11
-320.099237
 21
-91.950128
 31
0.0
  0
LINE
  5
184
100
AcDbEntity
  8
0
370
    -3
390
0
  6
Continuous
100
AcDbLine
 10
-320.099237
 20
-205.363297
 30
0.0
 11
-320.099237
 21
-318.776465
 31
0.0
  0
LINE
  5
185
100
AcDbEntity
  8
0
370
    -3
390
0
  6
Continuous
100
AcDbLine
 10
-258.304317
 20
-68.163297
 30
0.0
 11
-203.099237
 21
-68.163297
 31
0.0
  0
ARC
  5
186
100
AcDbEntity
  8
0
370
    -3
390
0
  6
Continuous
100
AcDbCircle
 10
-313.899237
 20
-91.950128
 30
0.0
 40
6.2
100
AcDbArc
 50
120.0
 51
180.0
  0
ARC
  5
187
100
AcDbEntity
  8
0
370
    -3
390
0
  6
Continuous
100
AcDbCircle
 10
-257.982778
 20
-169.363297
 30
0.0
 40
101.2
100
AcDbArc
 50
90.0
 51
120.0
  0
LINE
  5
188
100
AcDbEntity
  8
0
370
    -3
390
0
  6
Continuous
100
AcDbLine
 10
-308.582778
 20
-81.721526
 30
0.0
 11
-316.999237
 21
-86.58077
 31
0.0
  0
LINE
  5
189
100
AcDbEntity
  8
0
370
    -3
390
0
  6
Continuous
100
AcDbLine
 10
-258.304317
 20
-342.563297
 30
0.0
 11
-203.099237
 21
-342.563297
 31
0.0
  0
LINE
  5
18A
100
AcDbEntity
  8
0
370
    -3
390
0
  6
Continuous
100
AcDbLine
 10
-248.00641
 20
-316.090583
 30
0.0
 11
-245.099237
 21
-314.257741
 31
0.0
  0
LINE
  5
18B
100
AcDbEntity
  8
0
370
    -3
390
0
  6
Continuous
100
AcDbLine
 10
-245.099237
 20
-314.257741
 30
0.0
 11
-248.099237
 21
-311.906466
 31
0.0
  0
LINE
  5
18C
100
AcDbEntity
  8
0
370
    -3
390
0
  6
Continuous
100
AcDbLine
 10
-242.192063
 20
-316.090583
 30
0.0
 11
-245.099237
 21
-314.257741
 31
0.0
  0
LINE
  5
18D
100
AcDbEntity
  8
0
370
    -3
390
0
  6
Continuous
100
AcDbLine
 10
-245.099237
 20
-314.257741
 30
0.0
 11
-242.099237
 21
-311.906466
 31
0.0
  0
ELLIPSE
  5
18E
100
AcDbEntity
  8
0
370
    -3
390
0
  6
Continuous
100
AcDbEllipse
 10
-245.099237
 20
-311.500024
 30
0.0
 11
6.25
 21
0.0
 31
0.0
210
0.0
220
0.0
230
1.0
 40
0.707107
 41
5.5424010803725476
 42
3.8823768803968313
  0
ELLIPSE
  5
18F
100
AcDbEntity
  8
0
370
    -3
390
0
  6
Continuous
100
AcDbEllipse
 10
-245.099237
 20
-312.318155
 30
0.0
 11
5.25
 21
0.0
 31
0.0
210
0.0
220
0.0
230
1.0
 40
0.862941
 41
0.0
 42
6.2831853071795862
  0
LINE
  5
190
100
AcDbEntity
  8
0
370
    -3
390
0
  6
Continuous
100
AcDbLine
 10
-251.349237
 20
-310.368654
 30
0.0
 11
-251.349237
 21
-311.500024
 31
0.0
  0
LINE
  5
191
100
AcDbEntity
  8
0
370
    -3
390
0
  6
Continuous
100
AcDbLine
 10
-238.849237
 20
-310.368654
 30
0.0
 11
-238.849237
 21
-311.500024
 31
0.0
  0
ELLIPSE
  5
192
100
AcDbEntity
  8
0
370
    -3
390
0
  6
Continuous
100
AcDbEllipse
 10
-245.099237
 20
-310.368654
 30
0.0
 11
6.25
 21
0.0
 31
0.0
210
0.0
220
0.0
230
1.0
 40
0.707107
 41
0.0
 42
3.1415926535897931
  0
ELLIPSE
  5
193
100
AcDbEntity
  8
0
370
    -3
390
0
  6
Continuous
100
AcDbEllipse
 10
-245.099237
 20
-310.2651
 30
0.0
 11
7.0
 21
0.0
 31
0.0
210
0.0
220
0.0
230
1.0
 40
0.692313
 41
3.1415926535897931
 42
3.6880322699881529
  0
ELLIPSE
  5
194
100
AcDbEntity
  8
0
370
    -3
390
0
  6
Continuous
100
AcDbEllipse
 10
-245.099237
 20
-310.2651
 30
0.0
 11
7.0
 21
0.0
 31
0.0
210
0.0
220
0.0
230
1.0
 40
0.692313
 41
5.7367456907812269
 42
0.0
  0
ELLIPSE
  5
195
100
AcDbEntity
  8
0
370
    -3
390
0
  6
Continuous
100
AcDbEllipse
 10
-245.099237
 20
-310.2651
 30
0.0
 11
7.0
 21
0.0
 31
0.0
210
0.0
220
0.0
230
1.0
 40
0.692313
 41
0.0
 42
3.1415926535897931
  0
ELLIPSE
  5
196
100
AcDbEntity
  8
0
370
    -3
390
0
  6
Continuous
100
AcDbEllipse
 10
-245.099237
 20
-308.623744
 30
0.0
 11
7.0
 21
0.0
 31
0.0
210
0.0
220
0.0
230
1.0
 40
0.707107
 41
0.0
 42
3.1415926535897931
  0
LINE
  5
197
100
AcDbEntity
  8
0
370
    -3
390
0
  6
Continuous
100
AcDbLine
 10
-252.099237
 20
-308.623744
 30
0.0
 11
-252.099237
 21
-310.2651
 31
0.0
  0
LINE
  5
198
100
AcDbEntity
  8
0
370
    -3
390
0
  6
Continuous
100
AcDbLine
 10
-238.099237
 20
-308.623744
 30
0.0
 11
-238.099237
 21
-310.2651
 31
0.0
  0
ARC
  5
199
100
AcDbEntity
  8
0
370
    -3
390
0
  6
Continuous
100
AcDbCircle
 10
-313.899237
 20
-318.776465
 30
0.0
 40
6.2
100
AcDbArc
 50
180.0
 51
240.0
  0
ARC
  5
19A
100
AcDbEntity
  8
0
370
    -3
390
0
  6
Continuous
100
AcDbCircle
 10
-257.982778
 20
-241.363297
 30
0.0
 40
101.2
100
AcDbArc
 50
240.0
 51
270.0
  0
LINE
  5
19B
100
AcDbEntity
  8
0
370
    -3
390
0
  6
Continuous
100
AcDbLine
 10
-308.582778
 20
-329.005067
 30
0.0
 11
-316.999237
 21
-324.145823
 31
0.0
  0
LINE
  5
19C
100
AcDbEntity
  8
0
370
    -3
390
0
  6
Continuous
100
AcDbLine
 10
-248.00641
 20
-94.63601
 30
0.0
 11
-245.099237
 21
-96.468852
 31
0.0
  0
LINE
  5
19D
100
AcDbEntity
  8
0
370
    -3
390
0
  6
Continuous
100
AcDbLine
 10
-245.099237
 20
-96.468852
 30
0.0
 11
-248.099237
 21
-98.820127
 31
0.0
  0
LINE
  5
19E
100
AcDbEntity
  8
0
370
    -3
390
0
  6
Continuous
100
AcDbLine
 10
-242.192063
 20
-94.63601
 30
0.0
 11
-245.099237
 21
-96.468852
 31
0.0
  0
LINE
  5
19F
100
AcDbEntity
  8
0
370
    -3
390
0
  6
Continuous
100
AcDbLine
 10
-245.099237
 20
-96.468852
 30
0.0
 11
-242.099237
 21
-98.820127
 31
0.0
  0
ELLIPSE
  5
1A0
100
AcDbEntity
  8
0
370
    -3
390
0
  6
Continuous
100
AcDbEllipse
 10
-245.099237
 20
-99.226569
 30
0.0
 11
6.25
 21
0.0
 31
0.0
210
0.0
220
0.0
230
1.0
 40
0.707107
 41
2.4008084267827927
 42
0.7407842268070005
  0
ELLIPSE
  5
1A1
100
AcDbEntity
  8
0
370
    -3
390
0
  6
Continuous
100
AcDbEllipse
 10
-245.099237
 20
-98.408438
 30
0.0
 11
5.25
 21
0.0
 31
0.0
210
0.0
220
0.0
230
1.0
 40
0.862941
 41
0.0
 42
6.2831853071795862
  0
LINE
  5
1A2
100
AcDbEntity
  8
0
370
    -3
390
0
  6
Continuous
100
AcDbLine
 10
-251.349237
 20
-100.35794
 30
0.0
 11
-251.349237
 21
-99.226569
 31
0.0
  0
LINE
  5
1A3
100
AcDbEntity
  8
0
370
    -3
390
0
  6
Continuous
100
AcDbLine
 10
-238.849237
 20
-100.35794
 30
0.0
 11
-238.849237
 21
-99.226569
 31
0.0
  0
ELLIPSE
  5
1A4
100
AcDbEntity
  8
0
370
    -3
390
0
  6
Continuous
100
AcDbEllipse
 10
-245.099237
 20
-100.35794
 30
0.0
 11
6.25
 21
0.0
 31
0.0
210
0.0
220
0.0
230
1.0
 40
0.707107
 41
3.1415926535897931
 42
0.0
  0
ELLIPSE
  5
1A5
100
AcDbEntity
  8
0
370
    -3
390
0
  6
Continuous
100
AcDbEllipse
 10
-245.099237
 20
-100.461493
 30
0.0
 11
7.0
 21
0.0
 31
0.0
210
0.0
220
0.0
230
1.0
 40
0.692313
 41
2.595153037191436
 42
3.1415926535897931
  0
ELLIPSE
  5
1A6
100
AcDbEntity
  8
0
370
    -3
390
0
  6
Continuous
100
AcDbEllipse
 10
-245.099237
 20
-100.461493
 30
0.0
 11
7.0
 21
0.0
 31
0.0
210
0.0
220
0.0
230
1.0
 40
0.692313
 41
0.0
 42
0.5464396163983571
  0
ELLIPSE
  5
1A7
100
AcDbEntity
  8
0
370
    -3
390
0
  6
Continuous
100
AcDbEllipse
 10
-245.099237
 20
-100.461493
 30
0.0
 11
7.0
 21
0.0
 31
0.0
210
0.0
220
0.0
230
1.0
 40
0.692313
 41
3.1415926535897931
 42
0.0
  0
ELLIPSE
  5
1A8
100
AcDbEntity
  8
0
370
    -3
390
0
  6
Continuous
100
AcDbEllipse
 10
-245.099237
 20
-102.102849
 30
0.0
 11
7.0
 21
0.0
 31
0.0
210
0.0
220
0.0
230
1.0
 40
0.707107
 41
3.1415926535897931
 42
0.0
  0
LINE
  5
1A9
100
AcDbEntity
  8
0
370
    -3
390
0
  6
Continuous
100
AcDbLine
 10
-252.099237
 20
-102.102849
 30
0.0
 11
-252.099237
 21
-100.461493
 31
0.0
  0
LINE
  5
1AA
100
AcDbEntity
  8
0
370
    -3
390
0
  6
Continuous
100
AcDbLine
 10
-238.099237
 20
-102.102849
 30
0.0
 11
-238.099237
 21
-100.461493
 31
0.0
  0
LINE
  5
1AB
100
AcDbEntity
  8
0
370
    -3
390
0
  6
Continuous
100
AcDbLine
 10
-203.099237
 20
-72.363297
 30
0.0
 11
26.900763
 21
-72.363297
 31
0.0
  0
LINE
  5
1AC
100
AcDbEntity
  8
0
370
    -3
390
0
  6
Continuous
100
AcDbLine
 10
-203.099237
 20
-75.863297
 30
0.0
 11
26.900763
 21
-75.863297
 31
0.0
  0
LINE
  5
1AD
100
AcDbEntity
  8
0
370
    -3
390
0
  6
Continuous
100
AcDbLine
 10
-203.099237
 20
-77.363297
 30
0.0
 11
26.900763
 21
-77.363297
 31
0.0
  0
LINE
  5
1AE
100
AcDbEntity
  8
0
370
    -3
390
0
  6
Continuous
100
AcDbLine
 10
-203.099237
 20
-81.363297
 30
0.0
 11
26.900763
 21
-81.363297
 31
0.0
  0
LINE
  5
1AF
100
AcDbEntity
  8
0
370
    -3
390
0
  6
Continuous
100
AcDbLine
 10
-203.099237
 20
-87.363297
 30
0.0
 11
26.900763
 21
-87.363297
 31
0.0
  0
LINE
  5
1B0
100
AcDbEntity
  8
0
370
    -3
390
0
  6
Continuous
100
AcDbLine
 10
-203.099237
 20
-100.655797
 30
0.0
 11
26.900763
 21
-100.655797
 31
0.0
  0
LINE
  5
1B1
100
AcDbEntity
  8
0
370
    -3
390
0
  6
Continuous
100
AcDbLine
 10
-203.099237
 20
-113.383719
 30
0.0
 11
26.900763
 21
-113.383719
 31
0.0
  0
LINE
  5
1B2
100
AcDbEntity
  8
0
370
    -3
390
0
  6
Continuous
100
AcDbLine
 10
-203.099237
 20
-133.783356
 30
0.0
 11
26.900763
 21
-133.783356
 31
0.0
  0
LINE
  5
1B3
100
AcDbEntity
  8
0
370
    -3
390
0
  6
Continuous
100
AcDbLine
 10
-203.099237
 20
-137.020083
 30
0.0
 11
26.900763
 21
-137.020083
 31
0.0
  0
LINE
  5
1B4
100
AcDbEntity
  8
0
370
    -3
390
0
  6
Continuous
100
AcDbLine
 10
-203.099237
 20
-147.720525
 30
0.0
 11
26.900763
 21
-147.720525
 31
0.0
  0
LINE
  5
1B5
100
AcDbEntity
  8
0
370
    -3
390
0
  6
Continuous
100
AcDbLine
 10
-203.099237
 20
-150.939939
 30
0.0
 11
26.900763
 21
-150.939939
 31
0.0
  0
LINE
  5
1B6
100
AcDbEntity
  8
0
370
    -3
390
0
  6
Continuous
100
AcDbLine
 10
-203.099237
 20
-164.772318
 30
0.0
 11
26.900763
 21
-164.772318
 31
0.0
  0
LINE
  5
1B7
100
AcDbEntity
  8
0
370
    -3
390
0
  6
Continuous
100
AcDbLine
 10
-203.099237
 20
-161.918685
 30
0.0
 11
26.900763
 21
-161.918685
 31
0.0
  0
LINE
  5
1B8
100
AcDbEntity
  8
0
370
    -3
390
0
  6
Continuous
100
AcDbLine
 10
-134.099237
 20
-181.363297
 30
0.0
 11
26.900763
 21
-181.363297
 31
0.0
  0
LINE
  5
1B9
100
AcDbEntity
  8
0
370
    -3
390
0
  6
Continuous
100
AcDbLine
 10
-203.099237
 20
-276.943237
 30
0.0
 11
26.900763
 21
-276.943237
 31
0.0
  0
LINE
  5
1BA
100
AcDbEntity
  8
0
370
    -3
390
0
  6
Continuous
100
AcDbLine
 10
-203.099237
 20
-273.70651
 30
0.0
 11
26.900763
 21
-273.70651
 31
0.0
  0
LINE
  5
1BB
100
AcDbEntity
  8
0
370
    -3
390
0
  6
Continuous
100
AcDbLine
 10
-134.099237
 20
-229.363297
 30
0.0
 11
26.900763
 21
-229.363297
 31
0.0
  0
LINE
  5
1BC
100
AcDbEntity
  8
0
370
    -3
390
0
  6
Continuous
100
AcDbLine
 10
-134.099237
 20
-245.954275
 30
0.0
 11
26.900763
 21
-245.954275
 31
0.0
  0
LINE
  5
1BD
100
AcDbEntity
  8
0
370
    -3
390
0
  6
Continuous
100
AcDbLine
 10
-134.099237
 20
-248.807908
 30
0.0
 11
26.900763
 21
-248.807908
 31
0.0
  0
LINE
  5
1BE
100
AcDbEntity
  8
0
370
    -3
390
0
  6
Continuous
100
AcDbLine
 10
-134.099237
 20
-259.786654
 30
0.0
 11
26.900763
 21
-259.786654
 31
0.0
  0
LINE
  5
1BF
100
AcDbEntity
  8
0
370
    -3
390
0
  6
Continuous
100
AcDbLine
 10
-134.187534
 20
-263.006068
 30
0.0
 11
26.900763
 21
-263.006068
 31
0.0
  0
LINE
  5
1C0
100
AcDbEntity
  8
0
370
    -3
390
0
  6
Continuous
100
AcDbLine
 10
-203.099237
 20
-310.070796
 30
0.0
 11
26.900763
 21
-310.070796
 31
0.0
  0
LINE
  5
1C1
100
AcDbEntity
  8
0
370
    -3
390
0
  6
Continuous
100
AcDbLine
 10
-203.099237
 20
-323.363297
 30
0.0
 11
26.900763
 21
-323.363297
 31
0.0
  0
LINE
  5
1C2
100
AcDbEntity
  8
0
370
    -3
390
0
  6
Continuous
100
AcDbLine
 10
-203.099237
 20
-329.363297
 30
0.0
 11
24.900763
 21
-329.363297
 31
0.0
  0
LINE
  5
1C3
100
AcDbEntity
  8
0
370
    -3
390
0
  6
Continuous
100
AcDbLine
 10
-203.099237
 20
-333.363297
 30
0.0
 11
24.900763
 21
-333.363297
 31
0.0
  0
LINE
  5
1C4
100
AcDbEntity
  8
0
370
    -3
390
0
  6
Continuous
100
AcDbLine
 10
-203.099237
 20
-338.363297
 30
0.0
 11
24.900763
 21
-338.363297
 31
0.0
  0
LINE
  5
1C5
100
AcDbEntity
  8
0
370
    -3
390
0
  6
Continuous
100
AcDbLine
 10
-203.099237
 20
-334.863297
 30
0.0
 11
24.900763
 21
-334.863297
 31
0.0
  0
LINE
  5
1C6
100
AcDbEntity
  8
0
370
    -3
390
0
  6
Continuous
100
AcDbLine
 10
-203.099237
 20
-297.342874
 30
0.0
 11
26.900763
 21
-297.342874
 31
0.0
  0
LINE
  5
1C7
100
AcDbEntity
  8
0
370
    -3
390
0
  6
CENTER
100
AcDbLine
 10
449.312678
 20
-205.363297
 30
0.0
 11
390.743636
 21
-205.363297
 31
0.0
  0
LINE
  5
1C8
100
AcDbEntity
  8
0
370
    -3
390
0
  6
DASHED
100
AcDbLine
 10
403.530081
 20
-263.025758
 30
0.0
 11
407.047231
 21
-264.591694
 31
0.0
  0
LINE
  5
1C9
100
AcDbEntity
  8
0
370
    -3
390
0
  6
DASHED
100
AcDbLine
 10
407.224614
 20
-265.053792
 30
0.0
 11
405.882383
 21
-268.068492
 31
0.0
  0
LINE
  5
1CA
100
AcDbEntity
  8
0
370
    -3
390
0
  6
DASHED
100
AcDbLine
 10
407.047231
 20
-264.591694
 30
0.0
 11
407.224614
 21
-265.053792
 31
0.0
  0
LINE
  5
1CB
100
AcDbEntity
  8
0
370
    -3
390
0
  6
DASHED
100
AcDbLine
 10
403.387723
 20
-263.345498
 30
0.0
 11
407.224614
 21
-265.053792
 31
0.0
  0
LINE
  5
1CC
100
AcDbEntity
  8
0
370
    -3
390
0
  6
DASHED
100
AcDbLine
 10
401.903135
 20
-266.679939
 30
0.0
 11
405.420285
 21
-268.245875
 31
0.0
  0
LINE
  5
1CD
100
AcDbEntity
  8
0
370
    -3
390
0
  6
DASHED
100
AcDbLine
 10
405.420285
 20
-268.245875
 30
0.0
 11
405.882383
 21
-268.068492
 31
0.0
  0
LINE
  5
1CE
100
AcDbEntity
  8
0
370
    -3
390
0
  6
DASHED
100
AcDbLine
 10
402.045492
 20
-266.360198
 30
0.0
 11
405.882383
 21
-268.068492
 31
0.0
  0
LINE
  5
1CF
100
AcDbEntity
  8
0
370
    -3
390
0
  6
Continuous
100
AcDbLine
 10
120.400763
 20
-35.061499
 30
0.0
 11
120.400763
 21
-34.061499
 31
0.0
  0
LINE
  5
1D0
100
AcDbEntity
  8
0
370
    -3
390
0
  6
Continuous
100
AcDbLine
 10
146.400763
 20
-35.061499
 30
0.0
 11
146.400763
 21
-34.061499
 31
0.0
  0
LINE
  5
1D1
100
AcDbEntity
  8
0
370
    -3
390
0
  6
Continuous
100
AcDbLine
 10
576.551216
 20
-34.363297
 30
0.0
 11
576.551216
 21
-33.363297
 31
0.0
  0
LINE
  5
1D2
100
AcDbEntity
  8
0
370
    -3
390
0
  6
Continuous
100
AcDbLine
 10
602.551216
 20
-34.363297
 30
0.0
 11
602.551216
 21
-33.363297
 31
0.0
  0
ARC
  5
1D3
100
AcDbEntity
  8
0
370
    -3
390
0
  6
Continuous
100
AcDbCircle
 10
-142.899237
 20
-174.32137
 30
0.0
 40
8.8
100
AcDbArc
 50
0.0
 51
90.0
  0
ARC
  5
1D4
100
AcDbEntity
  8
0
370
    -3
390
0
  6
Continuous
100
AcDbCircle
 10
-141.099237
 20
-172.398673
 30
0.0
 40
4.8
100
AcDbArc
 50
0.0
 51
90.0
  0
ARC
  5
1D5
100
AcDbEntity
  8
0
370
    -3
390
0
  6
Continuous
100
AcDbCircle
 10
-141.099237
 20
-188.635407
 30
0.0
 40
4.8
100
AcDbArc
 50
0.0
 51
90.0
  0
LINE
  5
1D6
100
AcDbEntity
  8
0
370
    -3
390
0
  6
Continuous
100
AcDbLine
 10
-134.099237
 20
-174.32137
 30
0.0
 11
-134.099237
 21
-261.762587
 31
0.0
  0
LINE
  5
1D7
100
AcDbEntity
  8
0
370
    -3
390
0
  6
Continuous
100
AcDbLine
 10
-136.299237
 20
-172.398673
 30
0.0
 11
-136.299237
 21
-257.087654
 31
0.0
  0
ARC
  5
1D8
100
AcDbEntity
  8
0
370
    -3
390
0
  6
Continuous
100
AcDbCircle
 10
-142.899237
 20
-261.762587
 30
0.0
 40
8.8
100
AcDbArc
 50
270.0
 51
0.0
  0
ARC
  5
1D9
100
AcDbEntity
  8
0
370
    -3
390
0
  6
Continuous
100
AcDbCircle
 10
-142.899237
 20
-260.156638
 30
0.0
 40
8.8
100
AcDbArc
 50
270.0
 51
0.0
  0
ARC
  5
1DA
100
AcDbEntity
  8
0
370
    -3
390
0
  6
Continuous
100
AcDbCircle
 10
-141.099237
 20
-257.087654
 30
0.0
 40
4.8
100
AcDbArc
 50
270.0
 51
0.0
  0
LINE
  5
1DB
100
AcDbEntity
  8
0
370
    -3
390
0
  6
Continuous
100
AcDbLine
 10
-223.299237
 20
-270.562587
 30
0.0
 11
-142.899237
 21
-270.562587
 31
0.0
  0
ARC
  5
1DC
100
AcDbEntity
  8
0
370
    -3
390
0
  6
Continuous
100
AcDbCircle
 10
-223.299237
 20
-261.762587
 30
0.0
 40
8.8
100
AcDbArc
 50
180.0
 51
270.0
  0
ARC
  5
1DD
100
AcDbEntity
  8
0
370
    -3
390
0
  6
Continuous
100
AcDbCircle
 10
-223.299237
 20
-260.156638
 30
0.0
 40
8.8
100
AcDbArc
 50
180.0
 51
270.0
  0
LINE
  5
1DE
100
AcDbEntity
  8
0
370
    -3
390
0
  6
Continuous
100
AcDbLine
 10
-142.899237
 20
-268.956638
 30
0.0
 11
-223.299237
 21
-268.956638
 31
0.0
  0
ARC
  5
1DF
100
AcDbEntity
  8
0
370
    -3
390
0
  6
Continuous
100
AcDbCircle
 10
-225.099237
 20
-257.087654
 30
0.0
 40
4.8
100
AcDbArc
 50
180.0
 51
270.0
  0
ARC
  5
1E0
100
AcDbEntity
  8
0
370
    -3
390
0
  6
Continuous
100
AcDbCircle
 10
-171.781451
 20
-257.887654
 30
0.0
 40
4.0
100
AcDbArc
 50
200.586606
 51
270.0
  0
LINE
  5
1E1
100
AcDbEntity
  8
0
370
    -3
390
0
  6
Continuous
100
AcDbLine
 10
-141.099237
 20
-261.887654
 30
0.0
 11
-172.545584
 21
-261.887654
 31
0.0
  0
ARC
  5
1E2
100
AcDbEntity
  8
0
370
    -3
390
0
  6
Continuous
100
AcDbCircle
 10
-172.545584
 20
-257.887654
 30
0.0
 40
4.0
100
AcDbArc
 50
209.986604
 51
270.0
  0
ELLIPSE
  5
1E3
100
AcDbEntity
  8
0
370
    -3
390
0
  6
Continuous
100
AcDbEllipse
 10
-183.099237
 20
-263.246899
 30
0.0
 11
8.0
 21
0.0
 31
0.0
210
0.0
220
0.0
230
1.0
 40
0.906308
 41
0.4818578688787102
 42
2.6597347847155328
  0
ARC
  5
1E4
100
AcDbEntity
  8
0
370
    -3
390
0
  6
Continuous
100
AcDbCircle
 10
-193.65289
 20
-257.887654
 30
0.0
 40
4.0
100
AcDbArc
 50
270.0
 51
330.013396
  0
LINE
  5
1E5
100
AcDbEntity
  8
0
370
    -3
390
0
  6
Continuous
100
AcDbLine
 10
-194.417023
 20
-261.887654
 30
0.0
 11
-225.099237
 21
-261.887654
 31
0.0
  0
ELLIPSE
  5
1E6
100
AcDbEntity
  8
0
370
    -3
390
0
  6
Continuous
100
AcDbEllipse
 10
-183.099237
 20
-261.630654
 30
0.0
 11
8.0
 21
0.0
 31
0.0
210
0.0
220
0.0
230
1.0
 40
0.906308
 41
0.3281121824263537
 42
2.8134804711640675
  0
ARC
  5
1E7
100
AcDbEntity
  8
0
370
    -3
390
0
  6
Continuous
100
AcDbCircle
 10
-194.417023
 20
-257.887654
 30
0.0
 40
4.0
100
AcDbArc
 50
270.0
 51
339.413394
  0
ELLIPSE
  5
1E8
100
AcDbEntity
  8
0
370
    -3
390
0
  6
Continuous
100
AcDbEllipse
 10
-183.099237
 20
-262.979122
 30
0.0
 11
3.5
 21
0.0
 31
0.0
210
0.0
220
0.0
230
1.0
 40
0.982815
 41
0.0
 42
6.2831853071795862
  0
LINE
  5
1E9
100
AcDbEntity
  8
0
370
    -3
390
0
  6
Continuous
100
AcDbLine
 10
-181.099237
 20
-264.055811
 30
0.0
 11
-183.099237
 21
-262.148091
 31
0.0
  0
LINE
  5
1EA
100
AcDbEntity
  8
0
370
    -3
390
0
  6
Continuous
100
AcDbLine
 10
-183.099237
 20
-262.148091
 30
0.0
 11
-185.099237
 21
-260.43058
 31
0.0
  0
LINE
  5
1EB
100
AcDbEntity
  8
0
370
    -3
390
0
  6
Continuous
100
AcDbLine
 10
-181.099237
 20
-260.43058
 30
0.0
 11
-183.099237
 21
-262.148091
 31
0.0
  0
LINE
  5
1EC
100
AcDbEntity
  8
0
370
    -3
390
0
  6
Continuous
100
AcDbLine
 10
-183.099237
 20
-262.148091
 30
0.0
 11
-185.099237
 21
-264.055811
 31
0.0
  0
LINE
  5
1ED
100
AcDbEntity
  8
0
370
    -3
390
0
  6
CENTER
100
AcDbLine
 10
-183.099237
 20
-158.711565
 30
0.0
 11
-183.099237
 21
-279.351645
 31
0.0
  0
POINT
  5
1EE
100
AcDbEntity
  8
0
370
    -3
390
0
  6
CENTER
100
AcDbPoint
 10
-196.48043
 20
-268.608991
 30
0.0
  0
POINT
  5
1EF
100
AcDbEntity
  8
0
370
    -3
390
0
  6
CENTER
100
AcDbPoint
 10
-169.48043
 20
-268.608991
 30
0.0
  0
LINE
  5
1F0
100
AcDbEntity
  8
0
370
    -3
390
0
  6
Continuous
100
AcDbLine
 10
-232.099237
 20
-174.32137
 30
0.0
 11
-232.099237
 21
-261.762587
 31
0.0
  0
LINE
  5
1F1
100
AcDbEntity
  8
0
370
    -3
390
0
  6
Continuous
100
AcDbLine
 10
-223.299237
 20
-165.52137
 30
0.0
 11
-142.899237
 21
-165.52137
 31
0.0
  0
ARC
  5
1F2
100
AcDbEntity
  8
0
370
    -3
390
0
  6
Continuous
100
AcDbCircle
 10
-223.299237
 20
-174.32137
 30
0.0
 40
8.8
100
AcDbArc
 50
90.0
 51
180.0
  0
LINE
  5
1F3
100
AcDbEntity
  8
0
370
    -3
390
0
  6
Continuous
100
AcDbLine
 10
-229.899237
 20
-172.398673
 30
0.0
 11
-229.899237
 21
-257.087654
 31
0.0
  0
ARC
  5
1F4
100
AcDbEntity
  8
0
370
    -3
390
0
  6
Continuous
100
AcDbCircle
 10
-225.099237
 20
-172.398673
 30
0.0
 40
4.8
100
AcDbArc
 50
90.0
 51
180.0
  0
LINE
  5
1F5
100
AcDbEntity
  8
0
370
    -3
390
0
  6
Continuous
100
AcDbLine
 10
-225.099237
 20
-167.598673
 30
0.0
 11
-141.099237
 21
-167.598673
 31
0.0
  0
LINE
  5
1F6
100
AcDbEntity
  8
0
370
    -3
390
0
  6
Continuous
100
AcDbLine
 10
-225.099237
 20
-183.835407
 30
0.0
 11
-141.099237
 21
-183.835407
 31
0.0
  0
ARC
  5
1F7
100
AcDbEntity
  8
0
370
    -3
390
0
  6
Continuous
100
AcDbCircle
 10
-225.099237
 20
-188.635407
 30
0.0
 40
4.8
100
AcDbArc
 50
90.0
 51
180.0
  0
ARC
  5
1F8
100
AcDbEntity
  8
0
370
    -3
390
0
  6
Continuous
100
AcDbCircle
 10
-573.318668
 20
-53.363297
 30
0.0
 40
10.0
100
AcDbArc
 50
270.0
 51
0.0
  0
ARC
  5
1F9
100
AcDbEntity
  8
0
370
    -3
390
0
  6
Continuous
100
AcDbCircle
 10
-594.318668
 20
-53.363297
 30
0.0
 40
10.0
100
AcDbArc
 50
180.0
 51
270.0
  0
LINE
  5
1FA
100
AcDbEntity
  8
0
370
    -3
390
0
  6
Continuous
100
AcDbLine
 10
-573.318668
 20
-63.363297
 30
0.0
 11
-594.318668
 21
-63.363297
 31
0.0
  0
ARC
  5
1FB
100
AcDbEntity
  8
0
370
    -3
390
0
  6
Continuous
100
AcDbCircle
 10
-503.818668
 20
-83.863297
 30
0.0
 40
17.5
100
AcDbArc
 50
325.579115
 51
152.44043
  0
ARC
  5
1FC
100
AcDbEntity
  8
0
370
    -3
390
0
  6
Continuous
100
AcDbCircle
 10
-503.818668
 20
-83.863297
 30
0.0
 40
9.35
100
AcDbArc
 50
329.119421
 51
148.81049
  0
ARC
  5
1FD
100
AcDbEntity
  8
0
370
    -3
390
0
  6
Continuous
100
AcDbCircle
 10
-503.818668
 20
-83.863297
 30
0.0
 40
10.5
100
AcDbArc
 50
328.484266
 51
149.445645
  0
LINE
  5
1FE
100
AcDbEntity
  8
0
370
    -3
390
0
  6
CENTER
100
AcDbLine
 10
-503.818668
 20
-83.329151
 30
0.0
 11
-503.818668
 21
-58.361774
 31
0.0
  0
LINE
  5
1FF
100
AcDbEntity
  8
0
370
    -3
390
0
  6
CENTER
100
AcDbLine
 10
-502.935689
 20
-83.863297
 30
0.0
 11
-464.047074
 21
-83.863297
 31
0.0
  0
LINE
  5
200
100
AcDbEntity
  8
0
370
    -3
390
0
  6
Continuous
100
AcDbLine
 10
-435.818668
 20
-259.363297
 30
0.0
 11
-435.818668
 21
-304.363297
 31
0.0
  0
LINE
  5
201
100
AcDbEntity
  8
0
370
    -3
390
0
  6
Continuous
100
AcDbLine
 10
-444.818669
 20
-237.672699
 30
0.0
 11
-447.609381
 21
-239.283912
 31
0.0
  0
LINE
  5
202
100
AcDbEntity
  8
0
370
    -3
390
0
  6
Continuous
100
AcDbLine
 10
-444.81867
 20
-233.049252
 30
0.0
 11
-447.214158
 21
-231.66621
 31
0.0
  0
LINE
  5
203
100
AcDbEntity
  8
0
370
    -3
390
0
  6
Continuous
100
AcDbLine
 10
-444.818669
 20
-233.049253
 30
0.0
 11
-444.818668
 21
-237.672699
 31
0.0
  0
ARC
  5
204
100
AcDbEntity
  8
0
370
    -3
390
0
  6
Continuous
100
AcDbCircle
 10
-448.818668
 20
-235.363297
 30
0.0
 40
8.0
100
AcDbArc
 50
276.421798
 51
331.044976
  0
ARC
  5
205
100
AcDbEntity
  8
0
370
    -3
390
0
  6
Continuous
100
AcDbCircle
 10
-448.818668
 20
-235.363297
 30
0.0
 40
6.960738
100
AcDbArc
 50
278.203715
 51
351.74014
  0
LINE
  5
206
100
AcDbEntity
  8
0
370
    -3
390
0
  6
Continuous
100
AcDbLine
 10
-503.818669
 20
-338.672699
 30
0.0
 11
-507.818674
 21
-340.982095
 31
0.0
  0
LINE
  5
207
100
AcDbEntity
  8
0
370
    -3
390
0
  6
Continuous
100
AcDbLine
 10
-511.818667
 20
-334.049244
 30
0.0
 11
-507.818661
 21
-331.739847
 31
0.0
  0
LINE
  5
208
100
AcDbEntity
  8
0
370
    -3
390
0
  6
Continuous
100
AcDbLine
 10
-507.818674
 20
-340.982095
 30
0.0
 11
-511.818665
 21
-338.672692
 31
0.0
  0
LINE
  5
209
100
AcDbEntity
  8
0
370
    -3
390
0
  6
Continuous
100
AcDbLine
 10
-503.81867
 20
-334.049252
 30
0.0
 11
-507.81866
 21
-331.739847
 31
0.0
  0
LINE
  5
20A
100
AcDbEntity
  8
0
370
    -3
390
0
  6
Continuous
100
AcDbLine
 10
-503.818669
 20
-334.049253
 30
0.0
 11
-503.818668
 21
-338.672699
 31
0.0
  0
LINE
  5
20B
100
AcDbEntity
  8
0
370
    -3
390
0
  6
Continuous
100
AcDbLine
 10
-511.818665
 20
-338.672692
 30
0.0
 11
-511.818667
 21
-334.049244
 31
0.0
  0
ARC
  5
20C
100
AcDbEntity
  8
0
370
    -3
390
0
  6
Continuous
100
AcDbCircle
 10
-507.818668
 20
-336.363297
 30
0.0
 40
8.0
100
AcDbArc
 50
157.141668
 51
76.015477
  0
ARC
  5
20D
100
AcDbEntity
  8
0
370
    -3
390
0
  6
Continuous
100
AcDbCircle
 10
-507.818668
 20
-336.363297
 30
0.0
 40
6.960738
100
AcDbArc
 50
146.958504
 51
86.198641
  0
LINE
  5
20E
100
AcDbEntity
  8
0
370
    -3
390
0
  6
Continuous
100
AcDbLine
 10
-663.818667
 20
-338.672699
 30
0.0
 11
-659.818661
 21
-340.982095
 31
0.0
  0
LINE
  5
20F
100
AcDbEntity
  8
0
370
    -3
390
0
  6
Continuous
100
AcDbLine
 10
-655.818669
 20
-334.049244
 30
0.0
 11
-659.818675
 21
-331.739847
 31
0.0
  0
LINE
  5
210
100
AcDbEntity
  8
0
370
    -3
390
0
  6
Continuous
100
AcDbLine
 10
-659.818661
 20
-340.982095
 30
0.0
 11
-655.81867
 21
-338.672692
 31
0.0
  0
LINE
  5
211
100
AcDbEntity
  8
0
370
    -3
390
0
  6
Continuous
100
AcDbLine
 10
-663.818666
 20
-334.049252
 30
0.0
 11
-659.818675
 21
-331.739847
 31
0.0
  0
LINE
  5
212
100
AcDbEntity
  8
0
370
    -3
390
0
  6
Continuous
100
AcDbLine
 10
-663.818666
 20
-334.049253
 30
0.0
 11
-663.818667
 21
-338.672699
 31
0.0
  0
LINE
  5
213
100
AcDbEntity
  8
0
370
    -3
390
0
  6
Continuous
100
AcDbLine
 10
-655.818671
 20
-338.672692
 30
0.0
 11
-655.818669
 21
-334.049244
 31
0.0
  0
ARC
  5
214
100
AcDbEntity
  8
0
370
    -3
390
0
  6
Continuous
100
AcDbCircle
 10
-659.818668
 20
-336.363297
 30
0.0
 40
8.0
100
AcDbArc
 50
103.984523
 51
22.858332
  0
ARC
  5
215
100
AcDbEntity
  8
0
370
    -3
390
0
  6
Continuous
100
AcDbCircle
 10
-659.818668
 20
-336.363297
 30
0.0
 40
6.960738
100
AcDbArc
 50
93.801359
 51
33.041496
  0
LINE
  5
216
100
AcDbEntity
  8
0
370
    -3
390
0
  6
Continuous
100
AcDbLine
 10
-722.818667
 20
-237.672699
 30
0.0
 11
-720.027955
 21
-239.283912
 31
0.0
  0
LINE
  5
217
100
AcDbEntity
  8
0
370
    -3
390
0
  6
Continuous
100
AcDbLine
 10
-722.818666
 20
-233.049252
 30
0.0
 11
-720.423177
 21
-231.66621
 31
0.0
  0
LINE
  5
218
100
AcDbEntity
  8
0
370
    -3
390
0
  6
Continuous
100
AcDbLine
 10
-722.818666
 20
-233.049253
 30
0.0
 11
-722.818667
 21
-237.672699
 31
0.0
  0
ARC
  5
219
100
AcDbEntity
  8
0
370
    -3
390
0
  6
Continuous
100
AcDbCircle
 10
-718.818668
 20
-235.363297
 30
0.0
 40
8.0
100
AcDbArc
 50
102.825617
 51
263.578202
  0
ARC
  5
21A
100
AcDbEntity
  8
0
370
    -3
390
0
  6
Continuous
100
AcDbCircle
 10
-718.818668
 20
-235.363297
 30
0.0
 40
6.960738
100
AcDbArc
 50
104.428521
 51
261.796285
  0
LINE
  5
21B
100
AcDbEntity
  8
0
370
    -3
390
0
  6
Continuous
100
AcDbLine
 10
-719.818667
 20
-137.672699
 30
0.0
 11
-715.818661
 21
-139.982095
 31
0.0
  0
LINE
  5
21C
100
AcDbEntity
  8
0
370
    -3
390
0
  6
Continuous
100
AcDbLine
 10
-711.818669
 20
-133.049244
 30
0.0
 11
-715.818675
 21
-130.739847
 31
0.0
  0
LINE
  5
21D
100
AcDbEntity
  8
0
370
    -3
390
0
  6
Continuous
100
AcDbLine
 10
-715.818661
 20
-139.982095
 30
0.0
 11
-712.212003
 21
-137.899783
 31
0.0
  0
LINE
  5
21E
100
AcDbEntity
  8
0
370
    -3
390
0
  6
Continuous
100
AcDbLine
 10
-719.818666
 20
-133.049252
 30
0.0
 11
-715.818675
 21
-130.739847
 31
0.0
  0
LINE
  5
21F
100
AcDbEntity
  8
0
370
    -3
390
0
  6
Continuous
100
AcDbLine
 10
-719.818666
 20
-133.049253
 30
0.0
 11
-719.818667
 21
-137.672699
 31
0.0
  0
LINE
  5
220
100
AcDbEntity
  8
0
370
    -3
390
0
  6
Continuous
100
AcDbLine
 10
-711.81867
 20
-136.981926
 30
0.0
 11
-711.818669
 21
-133.049244
 31
0.0
  0
ARC
  5
221
100
AcDbEntity
  8
0
370
    -3
390
0
  6
Continuous
100
AcDbCircle
 10
-715.818668
 20
-135.363297
 30
0.0
 40
8.0
100
AcDbArc
 50
32.10056
 51
281.058995
  0
ARC
  5
222
100
AcDbEntity
  8
0
370
    -3
390
0
  6
Continuous
100
AcDbCircle
 10
-715.818668
 20
-135.363297
 30
0.0
 40
6.960738
100
AcDbArc
 50
26.784663
 51
286.374892
  0
LINE
  5
223
100
AcDbEntity
  8
0
370
    -3
390
0
  6
Continuous
100
AcDbLine
 10
-447.818669
 20
-137.672699
 30
0.0
 11
-451.818674
 21
-139.982095
 31
0.0
  0
LINE
  5
224
100
AcDbEntity
  8
0
370
    -3
390
0
  6
Continuous
100
AcDbLine
 10
-455.818667
 20
-133.049244
 30
0.0
 11
-451.818661
 21
-130.739847
 31
0.0
  0
LINE
  5
225
100
AcDbEntity
  8
0
370
    -3
390
0
  6
Continuous
100
AcDbLine
 10
-451.818674
 20
-139.982095
 30
0.0
 11
-455.425332
 21
-137.899783
 31
0.0
  0
LINE
  5
226
100
AcDbEntity
  8
0
370
    -3
390
0
  6
Continuous
100
AcDbLine
 10
-447.81867
 20
-133.049252
 30
0.0
 11
-451.81866
 21
-130.739847
 31
0.0
  0
LINE
  5
227
100
AcDbEntity
  8
0
370
    -3
390
0
  6
Continuous
100
AcDbLine
 10
-447.818669
 20
-133.049253
 30
0.0
 11
-447.818668
 21
-137.672699
 31
0.0
  0
LINE
  5
228
100
AcDbEntity
  8
0
370
    -3
390
0
  6
Continuous
100
AcDbLine
 10
-455.818665
 20
-136.981926
 30
0.0
 11
-455.818667
 21
-133.049244
 31
0.0
  0
ARC
  5
229
100
AcDbEntity
  8
0
370
    -3
390
0
  6
Continuous
100
AcDbCircle
 10
-451.818668
 20
-135.363297
 30
0.0
 40
8.0
100
AcDbArc
 50
258.941005
 51
147.89944
  0
ARC
  5
22A
100
AcDbEntity
  8
0
370
    -3
390
0
  6
Continuous
100
AcDbCircle
 10
-451.818668
 20
-135.363297
 30
0.0
 40
6.960738
100
AcDbArc
 50
253.625108
 51
153.215337
  0
LINE
  5
22B
100
AcDbEntity
  8
0
370
    -3
390
0
  6
Continuous
100
AcDbLine
 10
351.100763
 20
167.136703
 30
0.0
 11
287.900763
 21
167.136703
 31
0.0
  0
LINE
  5
22C
100
AcDbEntity
  8
0
370
    -3
390
0
  6
Continuous
100
AcDbLine
 10
351.900763
 20
194.636703
 30
0.0
 11
351.900763
 21
167.936703
 31
0.0
  0
ARC
  5
22D
100
AcDbEntity
  8
0
370
    -3
390
0
  6
Continuous
100
AcDbCircle
 10
351.100763
 20
167.936703
 30
0.0
 40
0.8
100
AcDbArc
 50
270.0
 51
0.0
  0
LINE
  5
22E
100
AcDbEntity
  8
0
370
    -3
390
0
  6
Continuous
100
AcDbLine
 10
279.900763
 20
167.136703
 30
0.0
 11
272.460571
 21
167.136703
 31
0.0
  0
LINE
  5
22F
100
AcDbEntity
  8
0
370
    -3
390
0
  6
Continuous
100
AcDbLine
 10
287.900763
 20
167.136703
 30
0.0
 11
279.900763
 21
167.136703
 31
0.0
  0
LINE
  5
230
100
AcDbEntity
  8
0
370
    -3
390
0
  6
Continuous
100
AcDbLine
 10
269.900763
 20
194.636703
 30
0.0
 11
269.900763
 21
166.436703
 31
0.0
  0
LINE
  5
231
100
AcDbEntity
  8
0
370
    -3
390
0
  6
Continuous
100
AcDbLine
 10
269.100763
 20
165.636703
 30
0.0
 11
264.900763
 21
165.636703
 31
0.0
  0
LINE
  5
232
100
AcDbEntity
  8
0
370
    -3
390
0
  6
Continuous
100
AcDbLine
 10
269.900763
 20
166.436703
 30
0.0
 11
269.900763
 21
194.636703
 31
0.0
  0
LINE
  5
233
100
AcDbEntity
  8
0
370
    -3
390
0
  6
Continuous
100
AcDbLine
 10
271.900763
 20
167.286703
 30
0.0
 11
270.700763
 21
167.286703
 31
0.0
  0
LINE
  5
234
100
AcDbEntity
  8
0
370
    -3
390
0
  6
Continuous
100
AcDbLine
 10
271.900763
 20
167.286703
 30
0.0
 11
272.460571
 21
167.136703
 31
0.0
  0
ARC
  5
235
100
AcDbEntity
  8
0
370
    -3
390
0
  6
Continuous
100
AcDbCircle
 10
270.700763
 20
166.486703
 30
0.0
 40
0.8
100
AcDbArc
 50
90.0
 51
180.0
  0
LINE
  5
236
100
AcDbEntity
  8
0
370
    -3
390
0
  6
Continuous
100
AcDbLine
 10
269.100763
 20
165.636703
 30
0.0
 11
269.900763
 21
166.436703
 31
0.0
  0
LINE
  5
237
100
AcDbEntity
  8
0
370
    -3
390
0
  6
Continuous
100
AcDbLine
 10
269.900763
 20
194.636703
 30
0.0
 11
269.900763
 21
222.836703
 31
0.0
  0
LINE
  5
238
100
AcDbEntity
  8
0
370
    -3
390
0
  6
Continuous
100
AcDbLine
 10
269.900763
 20
222.836703
 30
0.0
 11
269.900763
 21
194.636703
 31
0.0
  0
LINE
  5
239
100
AcDbEntity
  8
0
370
    -3
390
0
  6
Continuous
100
AcDbLine
 10
351.100763
 20
222.136703
 30
0.0
 11
272.460571
 21
222.136703
 31
0.0
  0
LINE
  5
23A
100
AcDbEntity
  8
0
370
    -3
390
0
  6
Continuous
100
AcDbLine
 10
271.900763
 20
221.986703
 30
0.0
 11
270.700763
 21
221.986703
 31
0.0
  0
LINE
  5
23B
100
AcDbEntity
  8
0
370
    -3
390
0
  6
Continuous
100
AcDbLine
 10
271.900763
 20
221.986703
 30
0.0
 11
272.460571
 21
222.136703
 31
0.0
  0
ARC
  5
23C
100
AcDbEntity
  8
0
370
    -3
390
0
  6
Continuous
100
AcDbCircle
 10
270.700763
 20
222.786703
 30
0.0
 40
0.8
100
AcDbArc
 50
180.0
 51
270.0
  0
LINE
  5
23D
100
AcDbEntity
  8
0
370
    -3
390
0
  6
Continuous
100
AcDbLine
 10
269.100763
 20
223.636703
 30
0.0
 11
269.900763
 21
222.836703
 31
0.0
  0
LINE
  5
23E
100
AcDbEntity
  8
0
370
    -3
390
0
  6
Continuous
100
AcDbLine
 10
269.100763
 20
223.636703
 30
0.0
 11
264.900763
 21
223.636703
 31
0.0
  0
LINE
  5
23F
100
AcDbEntity
  8
0
370
    -3
390
0
  6
Continuous
100
AcDbLine
 10
280.900763
 20
167.136703
 30
0.0
 11
280.900763
 21
163.136703
 31
0.0
  0
LINE
  5
240
100
AcDbEntity
  8
0
370
    -3
390
0
  6
Continuous
100
AcDbLine
 10
351.900763
 20
163.136703
 30
0.0
 11
280.900763
 21
163.136703
 31
0.0
  0
LINE
  5
241
100
AcDbEntity
  8
0
370
    -3
390
0
  6
Continuous
100
AcDbLine
 10
351.900763
 20
194.636703
 30
0.0
 11
351.900763
 21
221.336703
 31
0.0
  0
LINE
  5
242
100
AcDbEntity
  8
0
370
    -3
390
0
  6
Continuous
100
AcDbLine
 10
351.900763
 20
163.136703
 30
0.0
 11
351.900763
 21
167.936703
 31
0.0
  0
ARC
  5
243
100
AcDbEntity
  8
0
370
    -3
390
0
  6
Continuous
100
AcDbCircle
 10
351.100763
 20
221.336703
 30
0.0
 40
0.8
100
AcDbArc
 50
0.0
 51
90.0
  0
ARC
  5
244
100
AcDbEntity
  8
0
370
    -3
390
0
  6
Continuous
100
AcDbCircle
 10
245.116041
 20
324.636703
 30
0.0
 40
25.0
100
AcDbArc
 50
180.0
 51
270.0
  0
LINE
  5
245
100
AcDbEntity
  8
0
370
    -3
390
0
  6
Continuous
100
AcDbLine
 10
220.010181
 20
330.701442
 30
0.0
 11
220.131271
 21
323.764216
 31
0.0
  0
LINE
  5
246
100
AcDbEntity
  8
0
370
    -3
390
0
  6
Continuous
100
AcDbLine
 10
245.116041
 20
299.636703
 30
0.0
 11
256.118222
 21
299.44466
 31
0.0
  0
ARC
  5
247
100
AcDbEntity
  8
0
370
    -3
390
0
  6
Continuous
100
AcDbCircle
 10
245.116041
 20
64.636703
 30
0.0
 40
25.0
100
AcDbArc
 50
90.0
 51
180.0
  0
LINE
  5
248
100
AcDbEntity
  8
0
370
    -3
390
0
  6
Continuous
100
AcDbLine
 10
220.010181
 20
58.571965
 30
0.0
 11
220.131271
 21
65.509191
 31
0.0
  0
LINE
  5
249
100
AcDbEntity
  8
0
370
    -3
390
0
  6
Continuous
100
AcDbLine
 10
245.116041
 20
89.636703
 30
0.0
 11
256.118222
 21
89.828747
 31
0.0
  0
LINE
  5
24A
100
AcDbEntity
  8
0
370
    -3
390
0
  6
Continuous
100
AcDbLine
 10
24.900763
 20
339.850438
 30
0.0
 11
24.900763
 21
319.636703
 31
0.0
  0
LINE
  5
24B
100
AcDbEntity
  8
0
370
    -3
390
0
  6
Continuous
100
AcDbLine
 10
262.900763
 20
289.471684
 30
0.0
 11
262.900763
 21
194.636703
 31
0.0
  0
LINE
  5
24C
100
AcDbEntity
  8
0
370
    -3
390
0
  6
Continuous
100
AcDbLine
 10
264.900763
 20
339.723217
 30
0.0
 11
264.900763
 21
194.636703
 31
0.0
  0
ARC
  5
24D
100
AcDbEntity
  8
0
370
    -3
390
0
  6
Continuous
100
AcDbCircle
 10
44.900763
 20
324.636703
 30
0.0
 40
9.5
100
AcDbArc
 50
8.056886
 51
177.943114
  0
CIRCLE
  5
24E
100
AcDbEntity
  8
0
370
    -3
390
0
  6
Continuous
100
AcDbCircle
 10
244.901041
 20
324.636703
 30
0.0
 40
9.5
  0
ARC
  5
24F
100
AcDbEntity
  8
0
370
    -3
390
0
  6
Continuous
100
AcDbCircle
 10
263.900763
 20
246.476983
 30
0.0
 40
1.0
100
AcDbArc
 50
180.0
 51
270.0
  0
LINE
  5
250
100
AcDbEntity
  8
0
370
    -3
390
0
  6
CENTER
100
AcDbLine
 10
60.796592
 20
324.636703
 30
0.0
 11
28.574378
 21
324.636703
 31
0.0
  0
LINE
  5
251
100
AcDbEntity
  8
0
370
    -3
390
0
  6
CENTER
100
AcDbLine
 10
44.900763
 20
341.044199
 30
0.0
 11
44.900763
 21
307.974032
 31
0.0
  0
LINE
  5
252
100
AcDbEntity
  8
0
370
    -3
390
0
  6
Continuous
100
AcDbLine
 10
93.400763
 20
342.636703
 30
0.0
 11
93.400763
 21
194.636703
 31
0.0
  0
LINE
  5
253
100
AcDbEntity
  8
0
370
    -3
390
0
  6
CENTER
100
AcDbLine
 10
260.796871
 20
324.636703
 30
0.0
 11
228.574656
 21
324.636703
 31
0.0
  0
LINE
  5
254
100
AcDbEntity
  8
0
370
    -3
390
0
  6
CENTER
100
AcDbLine
 10
244.901041
 20
341.044199
 30
0.0
 11
244.901041
 21
306.3123
 31
0.0
  0
LINE
  5
255
100
AcDbEntity
  8
0
370
    -3
390
0
  6
Continuous
100
AcDbLine
 10
93.400763
 20
342.636703
 30
0.0
 11
183.400763
 21
341.065748
 31
0.0
  0
LINE
  5
256
100
AcDbEntity
  8
0
370
    -3
390
0
  6
CENTER
100
AcDbLine
 10
370.838397
 20
194.636703
 30
0.0
 11
-361.31509
 21
194.636703
 31
0.0
  0
LINE
  5
257
100
AcDbEntity
  8
0
370
    -3
390
0
  6
Continuous
100
AcDbLine
 10
24.900763
 20
49.435255
 30
0.0
 11
24.900763
 21
69.636703
 31
0.0
  0
LINE
  5
258
100
AcDbEntity
  8
0
370
    -3
390
0
  6
Continuous
100
AcDbLine
 10
93.400763
 20
46.636703
 30
0.0
 11
93.400763
 21
194.636703
 31
0.0
  0
ARC
  5
259
100
AcDbEntity
  8
0
370
    -3
390
0
  6
Continuous
100
AcDbCircle
 10
44.900763
 20
64.636703
 30
0.0
 40
9.5
100
AcDbArc
 50
182.056886
 51
351.943114
  0
LINE
  5
25A
100
AcDbEntity
  8
0
370
    -3
390
0
  6
CENTER
100
AcDbLine
 10
60.796592
 20
64.636703
 30
0.0
 11
28.574378
 21
64.636703
 31
0.0
  0
LINE
  5
25B
100
AcDbEntity
  8
0
370
    -3
390
0
  6
CENTER
100
AcDbLine
 10
44.900763
 20
48.229208
 30
0.0
 11
44.900763
 21
81.299375
 31
0.0
  0
LINE
  5
25C
100
AcDbEntity
  8
0
370
    -3
390
0
  6
Continuous
100
AcDbLine
 10
93.400763
 20
46.636703
 30
0.0
 11
183.400763
 21
48.207659
 31
0.0
  0
LINE
  5
25D
100
AcDbEntity
  8
0
370
    -3
390
0
  6
Continuous
100
AcDbLine
 10
264.900763
 20
49.55019
 30
0.0
 11
264.900763
 21
194.636703
 31
0.0
  0
LINE
  5
25E
100
AcDbEntity
  8
0
370
    -3
390
0
  6
Continuous
100
AcDbLine
 10
262.900763
 20
99.801723
 30
0.0
 11
262.900763
 21
194.636703
 31
0.0
  0
CIRCLE
  5
25F
100
AcDbEntity
  8
0
370
    -3
390
0
  6
Continuous
100
AcDbCircle
 10
244.901041
 20
64.636703
 30
0.0
 40
9.5
  0
LINE
  5
260
100
AcDbEntity
  8
0
370
    -3
390
0
  6
CENTER
100
AcDbLine
 10
260.796871
 20
64.636703
 30
0.0
 11
228.574656
 21
64.636703
 31
0.0
  0
LINE
  5
261
100
AcDbEntity
  8
0
370
    -3
390
0
  6
CENTER
100
AcDbLine
 10
244.901041
 20
48.229208
 30
0.0
 11
244.901041
 21
84.366033
 31
0.0
  0
ARC
  5
262
100
AcDbEntity
  8
0
370
    -3
390
0
  6
Continuous
100
AcDbCircle
 10
263.900763
 20
144.476983
 30
0.0
 40
1.0
100
AcDbArc
 50
90.0
 51
180.0
  0
ARC
  5
263
100
AcDbEntity
  8
0
370
    -3
390
0
  6
Continuous
100
AcDbCircle
 10
217.010638
 20
330.649085
 30
0.0
 40
3.0
100
AcDbArc
 50
1.0
 51
66.148057
  0
ARC
  5
264
100
AcDbEntity
  8
0
370
    -3
390
0
  6
Continuous
100
AcDbCircle
 10
181.830047
 20
251.079455
 30
0.0
 40
90.0
100
AcDbArc
 50
66.148057
 51
89.0
  0
ARC
  5
265
100
AcDbEntity
  8
0
370
    -3
390
0
  6
Continuous
100
AcDbCircle
 10
256.065865
 20
296.445117
 30
0.0
 40
3.0
100
AcDbArc
 50
31.429188
 51
89.0
  0
ARC
  5
266
100
AcDbEntity
  8
0
370
    -3
390
0
  6
Continuous
100
AcDbCircle
 10
181.830047
 20
251.079455
 30
0.0
 40
90.0
100
AcDbArc
 50
26.186216
 51
31.429188
  0
ARC
  5
267
100
AcDbEntity
  8
0
370
    -3
390
0
  6
Continuous
100
AcDbCircle
 10
259.900763
 20
289.471684
 30
0.0
 40
3.0
100
AcDbArc
 50
0.0
 51
26.186216
  0
ARC
  5
268
100
AcDbEntity
  8
0
370
    -3
390
0
  6
Continuous
100
AcDbCircle
 10
217.010638
 20
58.624322
 30
0.0
 40
3.0
100
AcDbArc
 50
293.851943
 51
359.0
  0
ARC
  5
269
100
AcDbEntity
  8
0
370
    -3
390
0
  6
Continuous
100
AcDbCircle
 10
181.830047
 20
138.193952
 30
0.0
 40
90.0
100
AcDbArc
 50
271.0
 51
293.851943
  0
ARC
  5
26A
100
AcDbEntity
  8
0
370
    -3
390
0
  6
Continuous
100
AcDbCircle
 10
256.065865
 20
92.82829
 30
0.0
 40
3.0
100
AcDbArc
 50
271.0
 51
328.570812
  0
ARC
  5
26B
100
AcDbEntity
  8
0
370
    -3
390
0
  6
Continuous
100
AcDbCircle
 10
181.830047
 20
138.193952
 30
0.0
 40
90.0
100
AcDbArc
 50
328.570812
 51
333.813784
  0
ARC
  5
26C
100
AcDbEntity
  8
0
370
    -3
390
0
  6
Continuous
100
AcDbCircle
 10
259.900763
 20
99.801723
 30
0.0
 40
3.0
100
AcDbArc
 50
333.813784
 51
0.0
  0
LINE
  5
26D
100
AcDbEntity
  8
0
370
    -3
390
0
  6
Continuous
100
AcDbLine
 10
96.400763
 20
342.636703
 30
0.0
 11
96.400763
 21
347.630247
 31
0.0
  0
ARC
  5
26E
100
AcDbEntity
  8
0
370
    -3
390
0
  6
Continuous
100
AcDbCircle
 10
153.328722
 20
343.583744
 30
0.0
 40
3.0
100
AcDbArc
 50
8.663969
 51
89.0
  0
ARC
  5
26F
100
AcDbEntity
  8
0
370
    -3
390
0
  6
Continuous
100
AcDbCircle
 10
159.260255
 20
344.487579
 30
0.0
 40
3.0
100
AcDbArc
 50
188.663969
 51
269.0
  0
LINE
  5
270
100
AcDbEntity
  8
0
370
    -3
390
0
  6
Continuous
100
AcDbLine
 10
96.400763
 20
46.636703
 30
0.0
 11
96.400763
 21
41.64316
 31
0.0
  0
ARC
  5
271
100
AcDbEntity
  8
0
370
    -3
390
0
  6
Continuous
100
AcDbCircle
 10
159.260255
 20
44.785828
 30
0.0
 40
3.0
100
AcDbArc
 50
91.0
 51
171.336031
  0
ARC
  5
272
100
AcDbEntity
  8
0
370
    -3
390
0
  6
Continuous
100
AcDbCircle
 10
153.328722
 20
45.689663
 30
0.0
 40
3.0
100
AcDbArc
 50
271.0
 51
351.336031
  0
LINE
  5
273
100
AcDbEntity
  8
0
370
    -3
390
0
  6
Continuous
100
AcDbLine
 10
263.900763
 20
245.476983
 30
0.0
 11
264.900763
 21
245.476983
 31
0.0
  0
LINE
  5
274
100
AcDbEntity
  8
0
370
    -3
390
0
  6
Continuous
100
AcDbLine
 10
263.900763
 20
145.476983
 30
0.0
 11
264.900763
 21
145.476983
 31
0.0
  0
LINE
  5
275
100
AcDbEntity
  8
0
370
    -3
390
0
  6
CENTER
100
AcDbLine
 10
133.400763
 20
169.866174
 30
0.0
 11
133.400763
 21
219.680148
 31
0.0
  0
LINE
  5
276
100
AcDbEntity
  8
0
370
    -3
390
0
  6
Continuous
100
AcDbLine
 10
259.988025
 20
344.722456
 30
0.0
 11
93.400763
 21
347.630247
 31
0.0
  0
LINE
  5
277
100
AcDbEntity
  8
0
370
    -3
390
0
  6
Continuous
100
AcDbLine
 10
29.682465
 20
344.84567
 30
0.0
 11
93.400763
 21
347.630247
 31
0.0
  0
LINE
  5
278
100
AcDbEntity
  8
0
370
    -3
390
0
  6
Continuous
100
AcDbLine
 10
259.988025
 20
44.550951
 30
0.0
 11
96.400763
 21
41.695525
 31
0.0
  0
LINE
  5
279
100
AcDbEntity
  8
0
370
    -3
390
0
  6
Continuous
100
AcDbLine
 10
29.69526
 20
44.43948
 30
0.0
 11
96.400763
 21
41.695525
 31
0.0
  0
ARC
  5
27A
100
AcDbEntity
  8
0
370
    -3
390
0
  6
Continuous
100
AcDbCircle
 10
259.900763
 20
49.55019
 30
0.0
 40
5.0
100
AcDbArc
 50
271.0
 51
0.0
  0
ARC
  5
27B
100
AcDbEntity
  8
0
370
    -3
390
0
  6
Continuous
100
AcDbCircle
 10
259.900763
 20
339.723217
 30
0.0
 40
5.0
100
AcDbArc
 50
0.0
 51
89.0
  0
ARC
  5
27C
100
AcDbEntity
  8
0
370
    -3
390
0
  6
Continuous
100
AcDbCircle
 10
29.900763
 20
49.435255
 30
0.0
 40
5.0
100
AcDbArc
 50
180.0
 51
267.644445
  0
ARC
  5
27D
100
AcDbEntity
  8
0
370
    -3
390
0
  6
Continuous
100
AcDbCircle
 10
29.900763
 20
339.850438
 30
0.0
 40
5.0
100
AcDbArc
 50
92.502312
 51
180.0
  0
LINE
  5
27E
100
AcDbEntity
  8
0
370
    -3
390
0
  6
Continuous
100
AcDbLine
 10
28.900763
 20
322.738774
 30
0.0
 11
28.900763
 21
194.636703
 31
0.0
  0
ARC
  5
27F
100
AcDbEntity
  8
0
370
    -3
390
0
  6
Continuous
100
AcDbCircle
 10
30.900763
 20
322.738774
 30
0.0
 40
2.0
100
AcDbArc
 50
93.0
 51
180.0
  0
LINE
  5
280
100
AcDbEntity
  8
0
370
    -3
390
0
  6
Continuous
100
AcDbLine
 10
32.609699
 20
324.831081
 30
0.0
 11
70.900763
 21
326.83783
 31
0.0
  0
LINE
  5
281
100
AcDbEntity
  8
0
370
    -3
390
0
  6
Continuous
100
AcDbLine
 10
30.796091
 20
324.736033
 30
0.0
 11
32.609699
 21
324.831081
 31
0.0
  0
ARC
  5
282
100
AcDbEntity
  8
0
370
    -3
390
0
  6
Continuous
100
AcDbCircle
 10
26.900763
 20
306.636703
 30
0.0
 40
2.0
100
AcDbArc
 50
270.0
 51
0.0
  0
LINE
  5
283
100
AcDbEntity
  8
0
370
    -3
390
0
  6
Continuous
100
AcDbLine
 10
26.900763
 20
304.636703
 30
0.0
 11
26.900763
 21
194.636703
 31
0.0
  0
LINE
  5
284
100
AcDbEntity
  8
0
370
    -3
390
0
  6
Continuous
100
AcDbLine
 10
65.400763
 20
194.636703
 30
0.0
 11
65.400763
 21
215.136703
 31
0.0
  0
LINE
  5
285
100
AcDbEntity
  8
0
370
    -3
390
0
  6
Continuous
100
AcDbLine
 10
72.900763
 20
215.136703
 30
0.0
 11
77.900763
 21
215.136703
 31
0.0
  0
LINE
  5
286
100
AcDbEntity
  8
0
370
    -3
390
0
  6
Continuous
100
AcDbLine
 10
65.400763
 20
215.136703
 30
0.0
 11
69.900763
 21
215.136703
 31
0.0
  0
LINE
  5
287
100
AcDbEntity
  8
0
370
    -3
390
0
  6
Continuous
100
AcDbLine
 10
69.900763
 20
194.636703
 30
0.0
 11
69.900763
 21
215.136703
 31
0.0
  0
ARC
  5
288
100
AcDbEntity
  8
0
370
    -3
390
0
  6
Continuous
100
AcDbCircle
 10
72.900763
 20
212.136703
 30
0.0
 40
3.0
100
AcDbArc
 50
90.0
 51
180.0
  0
ARC
  5
289
100
AcDbEntity
  8
0
370
    -3
390
0
  6
Continuous
100
AcDbCircle
 10
77.900763
 20
218.136703
 30
0.0
 40
3.0
100
AcDbArc
 50
270.0
 51
0.0
  0
LINE
  5
28A
100
AcDbEntity
  8
0
370
    -3
390
0
  6
Continuous
100
AcDbLine
 10
80.900763
 20
339.636703
 30
0.0
 11
80.900763
 21
218.136703
 31
0.0
  0
LINE
  5
28B
100
AcDbEntity
  8
0
370
    -3
390
0
  6
Continuous
100
AcDbLine
 10
71.500764
 20
318.636703
 30
0.0
 11
71.500764
 21
334.636703
 31
0.0
  0
LINE
  5
28C
100
AcDbEntity
  8
0
370
    -3
390
0
  6
Continuous
100
AcDbLine
 10
71.500764
 20
334.636703
 30
0.0
 11
70.900765
 21
333.597614
 31
0.0
  0
LINE
  5
28D
100
AcDbEntity
  8
0
370
    -3
390
0
  6
Continuous
100
AcDbLine
 10
71.500767
 20
318.636705
 30
0.0
 11
70.900767
 21
319.676094
 31
0.0
  0
LINE
  5
28E
100
AcDbEntity
  8
0
370
    -3
390
0
  6
Continuous
100
AcDbLine
 10
80.900763
 20
334.636703
 30
0.0
 11
71.500764
 21
334.636703
 31
0.0
  0
LINE
  5
28F
100
AcDbEntity
  8
0
370
    -3
390
0
  6
Continuous
100
AcDbLine
 10
80.900763
 20
318.636703
 30
0.0
 11
71.500764
 21
318.636703
 31
0.0
  0
LINE
  5
290
100
AcDbEntity
  8
0
370
    -3
390
0
  6
Continuous
100
AcDbLine
 10
70.900763
 20
319.676091
 30
0.0
 11
70.900764
 21
333.597615
 31
0.0
  0
LINE
  5
291
100
AcDbEntity
  8
0
370
    -3
390
0
  6
Continuous
100
AcDbLine
 10
74.900763
 20
334.636703
 30
0.0
 11
74.900763
 21
339.636703
 31
0.0
  0
ARC
  5
292
100
AcDbEntity
  8
0
370
    -3
390
0
  6
Continuous
100
AcDbCircle
 10
77.900763
 20
339.636703
 30
0.0
 40
3.0
100
AcDbArc
 50
90.0
 51
180.0
  0
LINE
  5
293
100
AcDbEntity
  8
0
370
    -3
390
0
  6
Continuous
100
AcDbLine
 10
77.900763
 20
342.636703
 30
0.0
 11
93.400763
 21
342.636703
 31
0.0
  0
ARC
  5
294
100
AcDbEntity
  8
0
370
    -3
390
0
  6
Continuous
100
AcDbCircle
 10
83.900763
 20
339.636703
 30
0.0
 40
3.0
100
AcDbArc
 50
90.0
 51
180.0
  0
LINE
  5
295
100
AcDbEntity
  8
0
370
    -3
390
0
  6
Continuous
100
AcDbLine
 10
92.900763
 20
194.636703
 30
0.0
 11
92.900763
 21
342.636703
 31
0.0
  0
INSERT
  5
2A1
100
AcDbEntity
  8
0
390
0
100
AcDbBlockReference
  2
ZU_SYM__USERS_HOME_SYMBOL_POO_SYM_B20_0000318
 10
65.400763
 20
205.136703
 30
0.0
 41
-1.0
 50
180.0
  0
INSERT
  5
2AE
100
AcDbEntity
  8
0
390
0
100
AcDbBlockReference
  2
ZU_SYM__USERS_HOME_SYMBOL_POO_SYM_B20_0000419
 10
80.900763
 20
254.724873
 30
0.0
 41
-1.0
 50
180.0
  0
LINE
  5
2AF
100
AcDbEntity
  8
0
370
    -3
390
0
  6
Continuous
100
AcDbLine
 10
28.900763
 20
66.534633
 30
0.0
 11
28.900763
 21
194.636703
 31
0.0
  0
ARC
  5
2B0
100
AcDbEntity
  8
0
370
    -3
390
0
  6
Continuous
100
AcDbCircle
 10
30.900763
 20
66.534633
 30
0.0
 40
2.0
100
AcDbArc
 50
180.0
 51
267.0
  0
LINE
  5
2B1
100
AcDbEntity
  8
0
370
    -3
390
0
  6
Continuous
100
AcDbLine
 10
30.796091
 20
64.537374
 30
0.0
 11
70.900763
 21
62.435577
 31
0.0
  0
ARC
  5
2B2
100
AcDbEntity
  8
0
370
    -3
390
0
  6
Continuous
100
AcDbCircle
 10
26.900763
 20
82.636703
 30
0.0
 40
2.0
100
AcDbArc
 50
0.0
 51
90.0
  0
LINE
  5
2B3
100
AcDbEntity
  8
0
370
    -3
390
0
  6
Continuous
100
AcDbLine
 10
26.900763
 20
84.636703
 30
0.0
 11
26.900763
 21
194.636703
 31
0.0
  0
LINE
  5
2B4
100
AcDbEntity
  8
0
370
    -3
390
0
  6
Continuous
100
AcDbLine
 10
65.400763
 20
194.636703
 30
0.0
 11
65.400763
 21
174.136703
 31
0.0
  0
LINE
  5
2B5
100
AcDbEntity
  8
0
370
    -3
390
0
  6
Continuous
100
AcDbLine
 10
72.900763
 20
174.136703
 30
0.0
 11
77.900763
 21
174.136703
 31
0.0
  0
LINE
  5
2B6
100
AcDbEntity
  8
0
370
    -3
390
0
  6
Continuous
100
AcDbLine
 10
65.400763
 20
174.136703
 30
0.0
 11
69.900763
 21
174.136703
 31
0.0
  0
LINE
  5
2B7
100
AcDbEntity
  8
0
370
    -3
390
0
  6
Continuous
100
AcDbLine
 10
69.900763
 20
194.636703
 30
0.0
 11
69.900763
 21
174.136703
 31
0.0
  0
ARC
  5
2B8
100
AcDbEntity
  8
0
370
    -3
390
0
  6
Continuous
100
AcDbCircle
 10
72.900763
 20
177.136703
 30
0.0
 40
3.0
100
AcDbArc
 50
180.0
 51
270.0
  0
ARC
  5
2B9
100
AcDbEntity
  8
0
370
    -3
390
0
  6
Continuous
100
AcDbCircle
 10
77.900763
 20
171.136703
 30
0.0
 40
3.0
100
AcDbArc
 50
0.0
 51
90.0
  0
LINE
  5
2BA
100
AcDbEntity
  8
0
370
    -3
390
0
  6
Continuous
100
AcDbLine
 10
80.900763
 20
49.636703
 30
0.0
 11
80.900763
 21
171.136703
 31
0.0
  0
LINE
  5
2BB
100
AcDbEntity
  8
0
370
    -3
390
0
  6
Continuous
100
AcDbLine
 10
71.500764
 20
70.636703
 30
0.0
 11
71.500764
 21
54.636703
 31
0.0
  0
LINE
  5
2BC
100
AcDbEntity
  8
0
370
    -3
390
0
  6
Continuous
100
AcDbLine
 10
71.500764
 20
54.636704
 30
0.0
 11
70.900765
 21
55.675793
 31
0.0
  0
LINE
  5
2BD
100
AcDbEntity
  8
0
370
    -3
390
0
  6
Continuous
100
AcDbLine
 10
71.500767
 20
70.636702
 30
0.0
 11
70.900767
 21
69.597313
 31
0.0
  0
LINE
  5
2BE
100
AcDbEntity
  8
0
370
    -3
390
0
  6
Continuous
100
AcDbLine
 10
80.900763
 20
54.636703
 30
0.0
 11
71.500764
 21
54.636703
 31
0.0
  0
LINE
  5
2BF
100
AcDbEntity
  8
0
370
    -3
390
0
  6
Continuous
100
AcDbLine
 10
80.900763
 20
70.636703
 30
0.0
 11
71.500764
 21
70.636703
 31
0.0
  0
LINE
  5
2C0
100
AcDbEntity
  8
0
370
    -3
390
0
  6
Continuous
100
AcDbLine
 10
70.900763
 20
69.597316
 30
0.0
 11
70.900764
 21
55.675792
 31
0.0
  0
LINE
  5
2C1
100
AcDbEntity
  8
0
370
    -3
390
0
  6
Continuous
100
AcDbLine
 10
74.900763
 20
54.636703
 30
0.0
 11
74.900763
 21
49.636703
 31
0.0
  0
ARC
  5
2C2
100
AcDbEntity
  8
0
370
    -3
390
0
  6
Continuous
100
AcDbCircle
 10
77.900763
 20
49.636703
 30
0.0
 40
3.0
100
AcDbArc
 50
180.0
 51
270.0
  0
LINE
  5
2C3
100
AcDbEntity
  8
0
370
    -3
390
0
  6
Continuous
100
AcDbLine
 10
77.900763
 20
46.636703
 30
0.0
 11
93.400763
 21
46.636703
 31
0.0
  0
ARC
  5
2C4
100
AcDbEntity
  8
0
370
    -3
390
0
  6
Continuous
100
AcDbCircle
 10
83.900763
 20
49.636703
 30
0.0
 40
3.0
100
AcDbArc
 50
180.0
 51
270.0
  0
INSERT
  5
2D0
100
AcDbEntity
  8
0
390
0
100
AcDbBlockReference
  2
ZU_SYM__USERS_HOME_SYMBOL_POO_SYM_B20_0000518
 10
65.400763
 20
184.136703
 30
0.0
  0
INSERT
  5
2DD
100
AcDbEntity
  8
0
390
0
100
AcDbBlockReference
  2
ZU_SYM__USERS_HOME_SYMBOL_POO_SYM_B20_0000619
 10
80.900763
 20
134.548534
 30
0.0
  0
LINE
  5
2DE
100
AcDbEntity
  8
0
370
    -3
390
0
  6
Continuous
100
AcDbLine
 10
92.900763
 20
194.636703
 30
0.0
 11
92.900763
 21
46.636703
 31
0.0
  0
ARC
  5
2DF
100
AcDbEntity
  8
0
370
    -3
390
0
  6
Continuous
100
AcDbCircle
 10
-729.818668
 20
-220.363297
 30
0.0
 40
2.0
100
AcDbArc
 50
90.0
 51
180.0
  0
ARC
  5
2E0
100
AcDbEntity
  8
0
370
    -3
390
0
  6
Continuous
100
AcDbCircle
 10
-729.818668
 20
-190.363297
 30
0.0
 40
2.0
100
AcDbArc
 50
180.0
 51
270.0
  0
ARC
  5
2E1
100
AcDbEntity
  8
0
370
    -3
390
0
  6
Continuous
100
AcDbCircle
 10
-721.818668
 20
-252.831208
 30
0.0
 40
10.0
100
AcDbArc
 50
180.0
 51
210.0
  0
ARC
  5
2E2
100
AcDbEntity
  8
0
370
    -3
390
0
  6
Continuous
100
AcDbCircle
 10
-583.818668
 20
-640.363297
 30
0.0
 40
600.0
100
AcDbArc
 50
91.957987
 51
93.344152
  0
ARC
  5
2E3
100
AcDbEntity
  8
0
370
    -3
390
0
  6
Continuous
100
AcDbCircle
 10
-611.818668
 20
-161.180659
 30
0.0
 40
120.0
100
AcDbArc
 50
93.344152
 51
180.0
  0
ARC
  5
2E4
100
AcDbEntity
  8
0
370
    -3
390
0
  6
Continuous
100
AcDbCircle
 10
-555.818668
 20
-161.180659
 30
0.0
 40
120.0
100
AcDbArc
 50
0.0
 51
86.655848
  0
ARC
  5
2E5
100
AcDbEntity
  8
0
370
    -3
390
0
  6
Continuous
100
AcDbCircle
 10
-583.818668
 20
-640.363297
 30
0.0
 40
600.0
100
AcDbArc
 50
86.655848
 51
88.042013
  0
LINE
  5
2E6
100
AcDbEntity
  8
0
370
    -3
390
0
  6
Continuous
100
AcDbLine
 10
-563.318668
 20
-40.713607
 30
0.0
 11
-563.318668
 21
-67.363297
 31
0.0
  0
LINE
  5
2E7
100
AcDbEntity
  8
0
370
    -3
390
0
  6
Continuous
100
AcDbLine
 10
-604.318668
 20
-40.713607
 30
0.0
 11
-604.318668
 21
-67.363297
 31
0.0
  0
LINE
  5
2E8
100
AcDbEntity
  8
0
370
    -3
390
0
  6
Continuous
100
AcDbLine
 10
-720.873261
 20
-218.363297
 30
0.0
 11
-729.818668
 21
-218.363297
 31
0.0
  0
LINE
  5
2E9
100
AcDbEntity
  8
0
370
    -3
390
0
  6
Continuous
100
AcDbLine
 10
-720.873261
 20
-192.363297
 30
0.0
 11
-729.818668
 21
-192.363297
 31
0.0
  0
LINE
  5
2EA
100
AcDbEntity
  8
0
370
    -3
390
0
  6
Continuous
100
AcDbLine
 10
-435.818668
 20
-161.180659
 30
0.0
 11
-435.818668
 21
-168.204762
 31
0.0
  0
LINE
  5
2EB
100
AcDbEntity
  8
0
370
    -3
390
0
  6
Continuous
100
AcDbLine
 10
-437.719912
 20
-258.803752
 30
0.0
 11
-459.058515
 21
-295.763297
 31
0.0
  0
LINE
  5
2EC
100
AcDbEntity
  8
0
370
    -3
390
0
  6
Continuous
100
AcDbLine
 10
-730.478922
 20
-257.831208
 30
0.0
 11
-708.57882
 21
-295.763297
 31
0.0
  0
LINE
  5
2ED
100
AcDbEntity
  8
0
370
    -3
390
0
  6
CENTER
100
AcDbLine
 10
-583.818668
 20
-354.58149
 30
0.0
 11
-583.818668
 21
7.65834
 31
0.0
  0
LINE
  5
2EE
100
AcDbEntity
  8
0
370
    -3
390
0
  6
CENTER
100
AcDbLine
 10
-385.041596
 20
-205.363297
 30
0.0
 11
-752.966907
 21
-205.363297
 31
0.0
  0
POINT
  5
2EF
100
AcDbEntity
  8
0
370
    -3
390
0
  6
Continuous
100
AcDbPoint
 10
-583.818668
 20
-155.363297
 30
0.0
  0
POINT
  5
2F0
100
AcDbEntity
  8
0
370
    -3
390
0
  6
Continuous
100
AcDbPoint
 10
-583.818668
 20
-205.363297
 30
0.0
  0
POINT
  5
2F1
100
AcDbEntity
  8
0
370
    -3
390
0
  6
DASHED
100
AcDbPoint
 10
-583.818668
 20
-155.363297
 30
0.0
  0
POINT
  5
2F2
100
AcDbEntity
  8
0
370
    -3
390
0
  6
DASHED
100
AcDbPoint
 10
-583.818668
 20
-205.363297
 30
0.0
  0
ARC
  5
2F3
100
AcDbEntity
  8
0
370
    -3
390
0
  6
Continuous
100
AcDbCircle
 10
-681.79892
 20
-335.431364
 30
0.0
 40
10.0
100
AcDbArc
 50
357.572191
 51
61.261922
  0
ARC
  5
2F4
100
AcDbEntity
  8
0
370
    -3
390
0
  6
Continuous
100
AcDbCircle
 10
-637.564737
 20
-254.763297
 30
0.0
 40
82.0
100
AcDbArc
 50
210.0
 51
241.261922
  0
ARC
  5
2F5
100
AcDbEntity
  8
0
370
    -3
390
0
  6
Continuous
100
AcDbCircle
 10
-659.818668
 20
-336.363297
 30
0.0
 40
12.0
100
AcDbArc
 50
177.572191
 51
246.443536
  0
ARC
  5
2F6
100
AcDbEntity
  8
0
370
    -3
390
0
  6
Continuous
100
AcDbCircle
 10
-485.838415
 20
-335.431364
 30
0.0
 40
10.0
100
AcDbArc
 50
118.738078
 51
182.427809
  0
ARC
  5
2F7
100
AcDbEntity
  8
0
370
    -3
390
0
  6
Continuous
100
AcDbCircle
 10
-507.818668
 20
-336.363297
 30
0.0
 40
12.0
100
AcDbArc
 50
293.556464
 51
2.427809
  0
ARC
  5
2F8
100
AcDbEntity
  8
0
370
    -3
390
0
  6
Continuous
100
AcDbCircle
 10
-530.072598
 20
-254.763297
 30
0.0
 40
82.0
100
AcDbArc
 50
298.738078
 51
330.0
  0
LINE
  5
2F9
100
AcDbEntity
  8
0
370
    -3
390
0
  6
Continuous
100
AcDbLine
 10
-491.061454
 20
-334.72636
 30
0.0
 11
-493.818668
 21
-350.363297
 31
0.0
  0
LINE
  5
2FA
100
AcDbEntity
  8
0
370
    -3
390
0
  6
Continuous
100
AcDbLine
 10
-583.818668
 20
-347.363297
 30
0.0
 11
-670.818668
 21
-347.363297
 31
0.0
  0
POINT
  5
2FB
100
AcDbEntity
  8
0
370
    -3
390
0
  6
DASHED
100
AcDbPoint
 10
-493.818668
 20
-350.363297
 30
0.0
  0
LINE
  5
2FC
100
AcDbEntity
  8
0
370
    -3
390
0
  6
CENTER
100
AcDbLine
 10
-453.818668
 20
-317.629395
 30
0.0
 11
-453.818668
 21
-354.995235
 31
0.0
  0
LINE
  5
2FD
100
AcDbEntity
  8
0
370
    -3
390
0
  6
Continuous
100
AcDbLine
 10
-493.818668
 20
-350.363297
 30
0.0
 11
-433.818668
 21
-350.363297
 31
0.0
  0
LINE
  5
2FE
100
AcDbEntity
  8
0
370
    -3
390
0
  6
Continuous
100
AcDbLine
 10
-583.818668
 20
-347.363297
 30
0.0
 11
-496.818668
 21
-347.363297
 31
0.0
  0
ARC
  5
2FF
100
AcDbEntity
  8
0
370
    -3
390
0
  6
Continuous
100
AcDbCircle
 10
-496.818668
 20
-350.363297
 30
0.0
 40
3.0
100
AcDbArc
 50
0.0
 51
90.0
  0
LINE
  5
300
100
AcDbEntity
  8
0
370
    -3
390
0
  6
Continuous
100
AcDbLine
 10
-433.818668
 20
-308.835432
 30
0.0
 11
-433.818668
 21
-350.363297
 31
0.0
  0
POINT
  5
301
100
AcDbEntity
  8
0
370
    -3
390
0
  6
DIVIDE
100
AcDbPoint
 10
-583.818668
 20
-155.363297
 30
0.0
  0
POINT
  5
302
100
AcDbEntity
  8
0
370
    -3
390
0
  6
DIVIDE
100
AcDbPoint
 10
-583.818668
 20
-205.363297
 30
0.0
  0
LINE
  5
303
100
AcDbEntity
  8
0
370
    -3
390
0
  6
Continuous
100
AcDbLine
 10
-445.66857
 20
-290.363297
 30
0.0
 11
-443.818668
 21
-290.363297
 31
0.0
  0
ARC
  5
304
100
AcDbEntity
  8
0
370
    -3
390
0
  6
Continuous
100
AcDbCircle
 10
-445.66857
 20
-298.363297
 30
0.0
 40
8.0
100
AcDbArc
 50
90.0
 51
152.680796
  0
ARC
  5
305
100
AcDbEntity
  8
0
370
    -3
390
0
  6
Continuous
100
AcDbCircle
 10
-443.818668
 20
-298.363297
 30
0.0
 40
8.0
100
AcDbArc
 50
0.0
 51
90.0
  0
LINE
  5
306
100
AcDbEntity
  8
0
370
    -3
390
0
  6
Continuous
100
AcDbLine
 10
-721.968766
 20
-290.363297
 30
0.0
 11
-723.818668
 21
-290.363297
 31
0.0
  0
ARC
  5
307
100
AcDbEntity
  8
0
370
    -3
390
0
  6
Continuous
100
AcDbCircle
 10
-721.968766
 20
-298.363297
 30
0.0
 40
8.0
100
AcDbArc
 50
27.319204
 51
90.0
  0
ARC
  5
308
100
AcDbEntity
  8
0
370
    -3
390
0
  6
Continuous
100
AcDbCircle
 10
-723.818668
 20
-298.363297
 30
0.0
 40
8.0
100
AcDbArc
 50
90.0
 51
180.0
  0
ARC
  5
309
100
AcDbEntity
  8
0
370
    -3
390
0
  6
Continuous
100
AcDbCircle
 10
-432.818668
 20
-304.363297
 30
0.0
 40
3.0
100
AcDbArc
 50
180.0
 51
228.189685
  0
ARC
  5
30A
100
AcDbEntity
  8
0
370
    -3
390
0
  6
Continuous
100
AcDbCircle
 10
-436.818668
 20
-308.835432
 30
0.0
 40
3.0
100
AcDbArc
 50
0.0
 51
48.189685
  0
ARC
  5
30B
100
AcDbEntity
  8
0
370
    -3
390
0
  6
Continuous
100
AcDbCircle
 10
-730.818668
 20
-308.835432
 30
0.0
 40
3.0
100
AcDbArc
 50
131.810315
 51
180.0
  0
ARC
  5
30C
100
AcDbEntity
  8
0
370
    -3
390
0
  6
Continuous
100
AcDbCircle
 10
-734.818668
 20
-304.363297
 30
0.0
 40
3.0
100
AcDbArc
 50
311.810315
 51
0.0
  0
LINE
  5
30D
100
AcDbEntity
  8
0
370
    -3
390
0
  6
Continuous
100
AcDbLine
 10
-731.818668
 20
-161.180659
 30
0.0
 11
-731.818668
 21
-304.363297
 31
0.0
  0
POINT
  5
30E
100
AcDbEntity
  8
0
370
    -3
390
0
  6
DASHED
100
AcDbPoint
 10
-673.818668
 20
-350.363297
 30
0.0
  0
POINT
  5
30F
100
AcDbEntity
  8
0
370
    -3
390
0
  6
DASHED
100
AcDbPoint
 10
-583.818668
 20
-205.363297
 30
0.0
  0
POINT
  5
310
100
AcDbEntity
  8
0
370
    -3
390
0
  6
DASHED
100
AcDbPoint
 10
-583.818668
 20
-155.363297
 30
0.0
  0
ARC
  5
311
100
AcDbEntity
  8
0
370
    -3
390
0
  6
Continuous
100
AcDbCircle
 10
-730.818668
 20
-328.363297
 30
0.0
 40
3.0
100
AcDbArc
 50
90.0
 51
180.0
  0
POINT
  5
312
100
AcDbEntity
  8
0
370
    -3
390
0
  6
Continuous
100
AcDbPoint
 10
-583.818668
 20
-205.363297
 30
0.0
  0
POINT
  5
313
100
AcDbEntity
  8
0
370
    -3
390
0
  6
Continuous
100
AcDbPoint
 10
-583.818668
 20
-155.363297
 30
0.0
  0
LINE
  5
314
100
AcDbEntity
  8
0
370
    -3
390
0
  6
Continuous
100
AcDbLine
 10
-689.992211
 20
-325.363297
 30
0.0
 11
-730.818668
 21
-325.363297
 31
0.0
  0
LINE
  5
315
100
AcDbEntity
  8
0
370
    -3
390
0
  6
CENTER
100
AcDbLine
 10
-713.818668
 20
-317.629395
 30
0.0
 11
-713.818668
 21
-354.995235
 31
0.0
  0
LINE
  5
316
100
AcDbEntity
  8
0
370
    -3
390
0
  6
Continuous
100
AcDbLine
 10
-673.818668
 20
-350.363297
 30
0.0
 11
-733.818668
 21
-350.363297
 31
0.0
  0
ARC
  5
317
100
AcDbEntity
  8
0
370
    -3
390
0
  6
Continuous
100
AcDbCircle
 10
-670.818668
 20
-350.363297
 30
0.0
 40
3.0
100
AcDbArc
 50
90.0
 51
180.0
  0
LINE
  5
318
100
AcDbEntity
  8
0
370
    -3
390
0
  6
Continuous
100
AcDbLine
 10
-733.818668
 20
-308.835432
 30
0.0
 11
-733.818668
 21
-350.363297
 31
0.0
  0
ARC
  5
319
100
AcDbEntity
  8
0
370
    -3
390
0
  6
Continuous
100
AcDbCircle
 10
-637.564737
 20
-254.763297
 30
0.0
 40
87.0
100
AcDbArc
 50
207.319204
 51
241.474076
  0
ARC
  5
31A
100
AcDbEntity
  8
0
370
    -3
390
0
  6
Continuous
100
AcDbCircle
 10
-689.992211
 20
-330.363297
 30
0.0
 40
5.0
100
AcDbArc
 50
55.259268
 51
90.0
  0
ARC
  5
31B
100
AcDbEntity
  8
0
370
    -3
390
0
  6
Continuous
100
AcDbCircle
 10
-681.49992
 20
-335.5946
 30
0.0
 40
5.0
100
AcDbArc
 50
10.0
 51
61.474076
  0
ARC
  5
31C
100
AcDbEntity
  8
0
370
    -3
390
0
  6
Continuous
100
AcDbCircle
 10
-530.072598
 20
-254.763297
 30
0.0
 40
87.0
100
AcDbArc
 50
298.525924
 51
332.680796
  0
ARC
  5
31D
100
AcDbEntity
  8
0
370
    -3
390
0
  6
Continuous
100
AcDbCircle
 10
-436.818668
 20
-328.363297
 30
0.0
 40
3.0
100
AcDbArc
 50
0.0
 51
90.0
  0
ARC
  5
31E
100
AcDbEntity
  8
0
370
    -3
390
0
  6
Continuous
100
AcDbCircle
 10
-486.137415
 20
-335.5946
 30
0.0
 40
5.0
100
AcDbArc
 50
118.525924
 51
170.0
  0
LINE
  5
31F
100
AcDbEntity
  8
0
370
    -3
390
0
  6
Continuous
100
AcDbLine
 10
-676.575882
 20
-334.72636
 30
0.0
 11
-673.818668
 21
-350.363297
 31
0.0
  0
ARC
  5
320
100
AcDbEntity
  8
0
370
    -3
390
0
  6
Continuous
100
AcDbCircle
 10
-477.645124
 20
-330.363297
 30
0.0
 40
5.0
100
AcDbArc
 50
90.0
 51
124.740732
  0
LINE
  5
321
100
AcDbEntity
  8
0
370
    -3
390
0
  6
Continuous
100
AcDbLine
 10
-477.645124
 20
-325.363297
 30
0.0
 11
-436.818668
 21
-325.363297
 31
0.0
  0
LINE
  5
322
100
AcDbEntity
  8
0
370
    -3
390
0
  6
CENTER
100
AcDbLine
 10
-623.409841
 20
-155.363297
 30
0.0
 11
-543.114394
 21
-155.363297
 31
0.0
  0
INSERT
  5
32F
100
AcDbEntity
  8
0
390
0
100
AcDbBlockReference
  2
ZU_SYM__USERS_HOME_SYMBOL_POO_SYM_B20_06
 10
-523.818668
 20
-59.863297
 30
0.0
  0
INSERT
  5
33C
100
AcDbEntity
  8
0
390
0
100
AcDbBlockReference
  2
ZU_SYM__USERS_HOME_SYMBOL_POO_SYM_B20_05
 10
-573.318668
 20
-53.363297
 30
0.0
  0
INSERT
  5
349
100
AcDbEntity
  8
0
390
0
100
AcDbBlockReference
  2
ZU_SYM__USERS_HOME_SYMBOL_POO_SYM_B20_0000705
 10
-594.318668
 20
-53.363297
 30
0.0
 41
-1.0
  0
INSERT
  5
356
100
AcDbEntity
  8
0
390
0
100
AcDbBlockReference
  2
ZU_SYM__USERS_HOME_SYMBOL_POO_SYM_B20_0000806
 10
-643.818668
 20
-59.863297
 30
0.0
 41
-1.0
  0
ARC
  5
357
100
AcDbEntity
  8
0
370
    -3
390
0
  6
Continuous
100
AcDbCircle
 10
-594.318668
 20
-15.363303
 30
0.0
 40
10.0
100
AcDbArc
 50
90.0
 51
180.0
  0
LINE
  5
358
100
AcDbEntity
  8
0
370
    -3
390
0
  6
CENTER
100
AcDbLine
 10
-560.650755
 20
-25.363303
 30
0.0
 11
-607.673269
 21
-25.363303
 31
0.0
  0
CIRCLE
  5
359
100
AcDbEntity
  8
0
370
    -3
390
0
  6
Continuous
100
AcDbCircle
 10
-583.818668
 20
-25.363303
 30
0.0
 40
10.0
  0
LINE
  5
35A
100
AcDbEntity
  8
0
370
    -3
390
0
  6
Continuous
100
AcDbLine
 10
-573.318668
 20
-5.363303
 30
0.0
 11
-594.318668
 21
-5.363303
 31
0.0
  0
LINE
  5
35B
100
AcDbEntity
  8
0
370
    -3
390
0
  6
Continuous
100
AcDbLine
 10
-604.318668
 20
-15.363303
 30
0.0
 11
-604.318668
 21
-40.713607
 31
0.0
  0
ARC
  5
35C
100
AcDbEntity
  8
0
370
    -3
390
0
  6
Continuous
100
AcDbCircle
 10
-573.318668
 20
-15.363303
 30
0.0
 40
10.0
100
AcDbArc
 50
0.0
 51
90.0
  0
LINE
  5
35D
100
AcDbEntity
  8
0
370
    -3
390
0
  6
Continuous
100
AcDbLine
 10
-563.318668
 20
-15.363303
 30
0.0
 11
-563.318668
 21
-40.713607
 31
0.0
  0
ARC
  5
35E
100
AcDbEntity
  8
0
370
    -3
390
0
  6
Continuous
100
AcDbCircle
 10
-568.318668
 20
-67.363297
 30
0.0
 40
5.0
100
AcDbArc
 50
346.621947
 51
0.0
  0
ARC
  5
35F
100
AcDbEntity
  8
0
370
    -3
390
0
  6
Continuous
100
AcDbCircle
 10
-599.318668
 20
-67.363297
 30
0.0
 40
5.0
100
AcDbArc
 50
180.0
 51
193.378053
  0
MTEXT
  5
361
100
AcDbEntity
  8
0
370
    -3
390
0
  6
Continuous
100
AcDbMText
 10
-612.443237
 20
217.818817
 30
0.0
 40
16.0
 41
0.0
 71
     7
 72
     1
  1
\W0.83;三菱ギヤードモータ  
  7
ZU_SHPTB00001
 11
1.0
 21
0.0
 31
0.0
 73
     1
 44
1.0
  0
MTEXT
  5
362
100
AcDbEntity
  8
0
370
    -3
390
0
  6
Continuous
100
AcDbMText
 10
-612.443237
 20
196.61882
 30
0.0
 40
16.0
 41
0.0
 71
     7
 72
     1
  1
\W0.60;GM-DP
  7
ZU_SHPTB00001
 11
1.0
 21
0.0
 31
0.0
 73
     1
 44
1.0
  0
MTEXT
  5
363
100
AcDbEntity
  8
0
370
    -3
390
0
  6
Continuous
100
AcDbMText
 10
-612.443237
 20
175.418808
 30
0.0
 40
16.0
 41
0.0
 71
     7
 72
     1
  1
\W0.60;5.5(kW)
  7
ZU_SHPTB00001
 11
1.0
 21
0.0
 31
0.0
 73
     1
 44
1.0
  0
MTEXT
  5
364
100
AcDbEntity
  8
0
370
    -3
390
0
  6
Continuous
100
AcDbMText
 10
-612.443237
 20
154.218811
 30
0.0
 40
16.0
 41
0.0
 71
     7
 72
     1
  1
\W0.60;1/3\W0.83;～\W0.60;1/30
  7
ZU_SHPTB00001
 11
1.0
 21
0.0
 31
0.0
 73
     1
 44
1.0
  0
MTEXT
  5
365
100
AcDbEntity
  8
0
370
    -3
390
0
  6
Continuous
100
AcDbMText
 10
-612.443237
 20
133.018814
 30
0.0
 40
16.0
 41
0.0
 71
     7
 72
     1
  1
\W0.60;SCALE\W1.00; \W0.60;1/1
  7
ZU_SHPTB00001
 11
1.0
 21
0.0
 31
0.0
 73
     1
 44
1.0
  0
LINE
  5
366
100
AcDbEntity
  8
0
370
    -3
390
0
  6
CENTER
100
AcDbLine
 10
-183.099237
 20
70.636703
 30
0.0
 11
-183.099237
 21
-5.067089
 31
0.0
  0
LINE
  5
367
100
AcDbEntity
  8
0
370
    -3
390
0
  6
CENTER
100
AcDbLine
 10
-165.659781
 20
26.636703
 30
0.0
 11
-200.662986
 21
26.636703
 31
0.0
  0
CIRCLE
  5
368
100
AcDbEntity
  8
0
370
    -3
390
0
  6
DASHED
100
AcDbCircle
 10
-183.099237
 20
26.636703
 30
0.0
 40
13.5
  0
LINE
  5
369
100
AcDbEntity
  8
0
370
    -3
390
0
  6
Continuous
100
AcDbLine
 10
26.900763
 20
194.636703
 30
0.0
 11
26.900763
 21
319.636703
 31
0.0
  0
LINE
  5
36A
100
AcDbEntity
  8
0
370
    -3
390
0
  6
Continuous
100
AcDbLine
 10
-203.099237
 20
319.636703
 30
0.0
 11
26.900763
 21
319.636703
 31
0.0
  0
LINE
  5
36B
100
AcDbEntity
  8
0
370
    -3
390
0
  6
Continuous
100
AcDbLine
 10
-203.099237
 20
286.616281
 30
0.0
 11
26.900763
 21
286.616281
 31
0.0
  0
LINE
  5
36C
100
AcDbEntity
  8
0
370
    -3
390
0
  6
Continuous
100
AcDbLine
 10
-203.099237
 20
266.216644
 30
0.0
 11
26.900763
 21
266.216644
 31
0.0
  0
LINE
  5
36D
100
AcDbEntity
  8
0
370
    -3
390
0
  6
Continuous
100
AcDbLine
 10
-203.099237
 20
262.979917
 30
0.0
 11
26.900763
 21
262.979917
 31
0.0
  0
LINE
  5
36E
100
AcDbEntity
  8
0
370
    -3
390
0
  6
Continuous
100
AcDbLine
 10
-203.099237
 20
252.279475
 30
0.0
 11
26.900763
 21
252.279475
 31
0.0
  0
LINE
  5
36F
100
AcDbEntity
  8
0
370
    -3
390
0
  6
Continuous
100
AcDbLine
 10
-203.099237
 20
249.060061
 30
0.0
 11
26.900763
 21
249.060061
 31
0.0
  0
LINE
  5
370
100
AcDbEntity
  8
0
370
    -3
390
0
  6
Continuous
100
AcDbLine
 10
-203.099237
 20
238.187293
 30
0.0
 11
26.900763
 21
238.187293
 31
0.0
  0
LINE
  5
371
100
AcDbEntity
  8
0
370
    -3
390
0
  6
Continuous
100
AcDbLine
 10
-203.099237
 20
235.123974
 30
0.0
 11
26.900763
 21
235.123974
 31
0.0
  0
LINE
  5
372
100
AcDbEntity
  8
0
370
    -3
390
0
  6
Continuous
100
AcDbLine
 10
-203.099237
 20
212.456013
 30
0.0
 11
26.900763
 21
212.456013
 31
0.0
  0
LINE
  5
373
100
AcDbEntity
  8
0
370
    -3
390
0
  6
Continuous
100
AcDbLine
 10
-203.099237
 20
221.196724
 30
0.0
 11
26.900763
 21
221.196724
 31
0.0
  0
LINE
  5
374
100
AcDbEntity
  8
0
370
    -3
390
0
  6
Continuous
100
AcDbLine
 10
-203.099237
 20
224.091099
 30
0.0
 11
26.900763
 21
224.091099
 31
0.0
  0
LINE
  5
375
100
AcDbEntity
  8
0
370
    -3
390
0
  6
Continuous
100
AcDbLine
 10
-203.099237
 20
209.636703
 30
0.0
 11
26.900763
 21
209.636703
 31
0.0
  0
LINE
  5
376
100
AcDbEntity
  8
0
370
    -3
390
0
  6
Continuous
100
AcDbLine
 10
-203.099237
 20
200.886703
 30
0.0
 11
26.900763
 21
200.886703
 31
0.0
  0
LINE
  5
377
100
AcDbEntity
  8
0
370
    -3
390
0
  6
Continuous
100
AcDbLine
 10
-203.099237
 20
299.344203
 30
0.0
 11
26.900763
 21
299.344203
 31
0.0
  0
LINE
  5
378
100
AcDbEntity
  8
0
370
    -3
390
0
  6
Continuous
100
AcDbLine
 10
-203.099237
 20
312.636703
 30
0.0
 11
26.900763
 21
312.636703
 31
0.0
  0
LINE
  5
379
100
AcDbEntity
  8
0
370
    -3
390
0
  6
Continuous
100
AcDbLine
 10
-203.099237
 20
318.636703
 30
0.0
 11
26.900763
 21
318.636703
 31
0.0
  0
LINE
  5
37A
100
AcDbEntity
  8
0
370
    -3
390
0
  6
Continuous
100
AcDbLine
 10
-152.099237
 20
53.636703
 30
0.0
 11
-152.099237
 21
55.236703
 31
0.0
  0
LINE
  5
37B
100
AcDbEntity
  8
0
370
    -3
390
0
  6
Continuous
100
AcDbLine
 10
-214.099237
 20
53.636703
 30
0.0
 11
-214.099237
 21
55.236703
 31
0.0
  0
LINE
  5
37C
100
AcDbEntity
  8
0
370
    -3
390
0
  6
Continuous
100
AcDbLine
 10
-214.099237
 20
53.636703
 30
0.0
 11
-152.099237
 21
53.636703
 31
0.0
  0
LINE
  5
37D
100
AcDbEntity
  8
0
370
    -3
390
0
  6
Continuous
100
AcDbLine
 10
-214.099237
 20
53.636703
 30
0.0
 11
-214.099237
 21
53.571653
 31
0.0
  0
LINE
  5
37E
100
AcDbEntity
  8
0
370
    -3
390
0
  6
Continuous
100
AcDbLine
 10
-152.099237
 20
53.636703
 30
0.0
 11
-152.099237
 21
53.571653
 31
0.0
  0
LINE
  5
37F
100
AcDbEntity
  8
0
370
    -3
390
0
  6
Continuous
100
AcDbLine
 10
-172.599237
 20
52.358905
 30
0.0
 11
-193.599237
 21
52.358905
 31
0.0
  0
LINE
  5
380
100
AcDbEntity
  8
0
370
    -3
390
0
  6
Continuous
100
AcDbLine
 10
-172.599237
 20
52.620372
 30
0.0
 11
-193.599237
 21
52.620372
 31
0.0
  0
LINE
  5
381
100
AcDbEntity
  8
0
370
    -3
390
0
  6
Continuous
100
AcDbLine
 10
-172.599237
 20
52.620372
 30
0.0
 11
-172.599237
 21
52.071653
 31
0.0
  0
LINE
  5
382
100
AcDbEntity
  8
0
370
    -3
390
0
  6
Continuous
100
AcDbLine
 10
-171.599237
 20
52.071653
 30
0.0
 11
-172.599237
 21
52.071653
 31
0.0
  0
LINE
  5
383
100
AcDbEntity
  8
0
370
    -3
390
0
  6
Continuous
100
AcDbLine
 10
-171.599237
 20
53.571653
 30
0.0
 11
-171.599237
 21
52.071653
 31
0.0
  0
LINE
  5
384
100
AcDbEntity
  8
0
370
    -3
390
0
  6
Continuous
100
AcDbLine
 10
-193.599237
 20
52.620372
 30
0.0
 11
-193.599237
 21
52.071653
 31
0.0
  0
LINE
  5
385
100
AcDbEntity
  8
0
370
    -3
390
0
  6
Continuous
100
AcDbLine
 10
-142.899237
 20
53.571653
 30
0.0
 11
-171.599237
 21
53.571653
 31
0.0
  0
LINE
  5
386
100
AcDbEntity
  8
0
370
    -3
390
0
  6
Continuous
100
AcDbLine
 10
-194.599237
 20
52.071653
 30
0.0
 11
-193.599237
 21
52.071653
 31
0.0
  0
LINE
  5
387
100
AcDbEntity
  8
0
370
    -3
390
0
  6
Continuous
100
AcDbLine
 10
-194.599237
 20
53.571653
 30
0.0
 11
-194.599237
 21
52.071653
 31
0.0
  0
LINE
  5
388
100
AcDbEntity
  8
0
370
    -3
390
0
  6
Continuous
100
AcDbLine
 10
-223.299237
 20
53.571653
 30
0.0
 11
-194.599237
 21
53.571653
 31
0.0
  0
ARC
  5
389
100
AcDbEntity
  8
0
370
    -3
390
0
  6
Continuous
100
AcDbCircle
 10
-221.099237
 20
40.159626
 30
0.0
 40
8.8
100
AcDbArc
 50
90.0
 51
180.0
  0
LINE
  5
38A
100
AcDbEntity
  8
0
370
    -3
390
0
  6
Continuous
100
AcDbLine
 10
-229.899237
 20
40.159626
 30
0.0
 11
-229.899237
 21
10.484739
 31
0.0
  0
LINE
  5
38B
100
AcDbEntity
  8
0
370
    -3
390
0
  6
Continuous
100
AcDbLine
 10
-221.099237
 20
48.959626
 30
0.0
 11
-145.099237
 21
48.959626
 31
0.0
  0
LINE
  5
38C
100
AcDbEntity
  8
0
370
    -3
390
0
  6
Continuous
100
AcDbLine
 10
-136.299237
 20
40.159626
 30
0.0
 11
-136.299237
 21
10.484739
 31
0.0
  0
ARC
  5
38D
100
AcDbEntity
  8
0
370
    -3
390
0
  6
Continuous
100
AcDbCircle
 10
-145.099237
 20
40.159626
 30
0.0
 40
8.8
100
AcDbArc
 50
0.0
 51
90.0
  0
ARC
  5
38E
100
AcDbEntity
  8
0
370
    -3
390
0
  6
Continuous
100
AcDbCircle
 10
-142.899237
 20
41.327684
 30
0.0
 40
8.8
100
AcDbArc
 50
0.0
 51
90.0
  0
ARC
  5
38F
100
AcDbEntity
  8
0
370
    -3
390
0
  6
Continuous
100
AcDbCircle
 10
-223.299237
 20
41.327684
 30
0.0
 40
8.8
100
AcDbArc
 50
90.0
 51
180.0
  0
LINE
  5
390
100
AcDbEntity
  8
0
370
    -3
390
0
  6
Continuous
100
AcDbLine
 10
-223.299237
 20
50.127684
 30
0.0
 11
-142.899237
 21
50.127684
 31
0.0
  0
LINE
  5
391
100
AcDbEntity
  8
0
370
    -3
390
0
  6
Continuous
100
AcDbLine
 10
-134.099237
 20
44.771653
 30
0.0
 11
-134.099237
 21
10.723235
 31
0.0
  0
ARC
  5
392
100
AcDbEntity
  8
0
370
    -3
390
0
  6
Continuous
100
AcDbCircle
 10
-223.299237
 20
44.771653
 30
0.0
 40
8.8
100
AcDbArc
 50
90.0
 51
180.0
  0
LINE
  5
393
100
AcDbEntity
  8
0
370
    -3
390
0
  6
Continuous
100
AcDbLine
 10
-232.099237
 20
44.771653
 30
0.0
 11
-232.099237
 21
10.723235
 31
0.0
  0
ARC
  5
394
100
AcDbEntity
  8
0
370
    -3
390
0
  6
Continuous
100
AcDbCircle
 10
-142.899237
 20
44.771653
 30
0.0
 40
8.8
100
AcDbArc
 50
0.0
 51
90.0
  0
LINE
  5
395
100
AcDbEntity
  8
0
370
    -3
390
0
  6
Continuous
100
AcDbLine
 10
-142.887958
 20
2.123235
 30
0.0
 11
-142.699237
 21
2.123235
 31
0.0
  0
LINE
  5
396
100
AcDbEntity
  8
0
370
    -3
390
0
  6
Continuous
100
AcDbLine
 10
-223.499237
 20
2.123235
 30
0.0
 11
-223.310515
 21
2.123235
 31
0.0
  0
ARC
  5
397
100
AcDbEntity
  8
0
370
    -3
390
0
  6
Continuous
100
AcDbCircle
 10
-221.299237
 20
10.484739
 30
0.0
 40
8.6
100
AcDbArc
 50
180.0
 51
270.0
  0
LINE
  5
398
100
AcDbEntity
  8
0
370
    -3
390
0
  6
Continuous
100
AcDbLine
 10
-221.299237
 20
1.884739
 30
0.0
 11
-144.899237
 21
1.884739
 31
0.0
  0
ARC
  5
399
100
AcDbEntity
  8
0
370
    -3
390
0
  6
Continuous
100
AcDbCircle
 10
-144.899237
 20
10.484739
 30
0.0
 40
8.6
100
AcDbArc
 50
270.0
 51
0.0
  0
ARC
  5
39A
100
AcDbEntity
  8
0
370
    -3
390
0
  6
Continuous
100
AcDbCircle
 10
-223.499237
 20
10.723235
 30
0.0
 40
8.6
100
AcDbArc
 50
180.0
 51
270.0
  0
ARC
  5
39B
100
AcDbEntity
  8
0
370
    -3
390
0
  6
Continuous
100
AcDbCircle
 10
-142.699237
 20
10.723235
 30
0.0
 40
8.6
100
AcDbArc
 50
270.0
 51
0.0
  0
LINE
  5
39C
100
AcDbEntity
  8
0
370
    -3
390
0
  6
Continuous
100
AcDbLine
 10
-203.099237
 20
331.836703
 30
0.0
 11
-203.099237
 21
61.21148
 31
0.0
  0
LINE
  5
39D
100
AcDbEntity
  8
0
370
    -3
390
0
  6
Continuous
100
AcDbLine
 10
-207.699237
 20
57.236703
 30
0.0
 11
-207.699237
 21
58.21148
 31
0.0
  0
LINE
  5
39E
100
AcDbEntity
  8
0
370
    -3
390
0
  6
Continuous
100
AcDbLine
 10
-203.099237
 20
68.636703
 30
0.0
 11
-183.099237
 21
68.636703
 31
0.0
  0
ARC
  5
39F
100
AcDbEntity
  8
0
370
    -3
390
0
  6
Continuous
100
AcDbCircle
 10
-206.099237
 20
61.21148
 30
0.0
 40
3.0
100
AcDbArc
 50
270.0
 51
0.0
  0
LINE
  5
3A0
100
AcDbEntity
  8
0
370
    -3
390
0
  6
Continuous
100
AcDbLine
 10
-206.099237
 20
58.21148
 30
0.0
 11
-217.099237
 21
58.21148
 31
0.0
  0
LINE
  5
3A1
100
AcDbEntity
  8
0
370
    -3
390
0
  6
Continuous
100
AcDbLine
 10
-258.304317
 20
57.436703
 30
0.0
 11
-218.073544
 21
57.436703
 31
0.0
  0
ARC
  5
3A2
100
AcDbEntity
  8
0
370
    -3
390
0
  6
Continuous
100
AcDbCircle
 10
-217.099237
 20
57.21148
 30
0.0
 40
1.0
100
AcDbArc
 50
90.0
 51
166.983983
  0
LINE
  5
3A3
100
AcDbEntity
  8
0
370
    -3
390
0
  6
Continuous
100
AcDbLine
 10
-152.099237
 20
55.236703
 30
0.0
 11
-183.099237
 21
55.236703
 31
0.0
  0
LINE
  5
3A4
100
AcDbEntity
  8
0
370
    -3
390
0
  6
Continuous
100
AcDbLine
 10
-183.099237
 20
53.636703
 30
0.0
 11
-152.099237
 21
53.636703
 31
0.0
  0
ARC
  5
3A5
100
AcDbEntity
  8
0
370
    -3
390
0
  6
Continuous
100
AcDbCircle
 10
-156.499237
 20
57.236703
 30
0.0
 40
2.0
100
AcDbArc
 50
180.0
 51
270.0
  0
LINE
  5
3A6
100
AcDbEntity
  8
0
370
    -3
390
0
  6
Continuous
100
AcDbLine
 10
-159.099237
 20
68.636703
 30
0.0
 11
-183.099237
 21
68.636703
 31
0.0
  0
ARC
  5
3A7
100
AcDbEntity
  8
0
370
    -3
390
0
  6
Continuous
100
AcDbCircle
 10
-161.699237
 20
65.436703
 30
0.0
 40
3.2
100
AcDbArc
 50
0.0
 51
90.0
  0
LINE
  5
3A8
100
AcDbEntity
  8
0
370
    -3
390
0
  6
Continuous
100
AcDbLine
 10
-159.099237
 20
68.636703
 30
0.0
 11
-159.099237
 21
69.636703
 31
0.0
  0
LINE
  5
3A9
100
AcDbEntity
  8
0
370
    -3
390
0
  6
Continuous
100
AcDbLine
 10
-158.499237
 20
57.236703
 30
0.0
 11
-158.499237
 21
65.436703
 31
0.0
  0
LINE
  5
3AA
100
AcDbEntity
  8
0
370
    -3
390
0
  6
Continuous
100
AcDbLine
 10
-214.099237
 20
55.236703
 30
0.0
 11
-183.099237
 21
55.236703
 31
0.0
  0
LINE
  5
3AB
100
AcDbEntity
  8
0
370
    -3
390
0
  6
Continuous
100
AcDbLine
 10
-183.099237
 20
53.636703
 30
0.0
 11
-214.099237
 21
53.636703
 31
0.0
  0
ARC
  5
3AC
100
AcDbEntity
  8
0
370
    -3
390
0
  6
Continuous
100
AcDbCircle
 10
-209.699237
 20
57.236703
 30
0.0
 40
2.0
100
AcDbArc
 50
270.0
 51
0.0
  0
LINE
  5
3AD
100
AcDbEntity
  8
0
370
    -3
390
0
  6
Continuous
100
AcDbLine
 10
26.900763
 20
194.636703
 30
0.0
 11
26.900763
 21
69.636703
 31
0.0
  0
LINE
  5
3AE
100
AcDbEntity
  8
0
370
    -3
390
0
  6
Continuous
100
AcDbLine
 10
-203.099237
 20
69.636703
 30
0.0
 11
26.900763
 21
69.636703
 31
0.0
  0
LINE
  5
3AF
100
AcDbEntity
  8
0
370
    -3
390
0
  6
Continuous
100
AcDbLine
 10
-203.099237
 20
102.657126
 30
0.0
 11
26.900763
 21
102.657126
 31
0.0
  0
LINE
  5
3B0
100
AcDbEntity
  8
0
370
    -3
390
0
  6
Continuous
100
AcDbLine
 10
-203.099237
 20
123.056763
 30
0.0
 11
26.900763
 21
123.056763
 31
0.0
  0
LINE
  5
3B1
100
AcDbEntity
  8
0
370
    -3
390
0
  6
Continuous
100
AcDbLine
 10
-203.099237
 20
126.29349
 30
0.0
 11
26.900763
 21
126.29349
 31
0.0
  0
LINE
  5
3B2
100
AcDbEntity
  8
0
370
    -3
390
0
  6
Continuous
100
AcDbLine
 10
-203.099237
 20
136.993932
 30
0.0
 11
26.900763
 21
136.993932
 31
0.0
  0
LINE
  5
3B3
100
AcDbEntity
  8
0
370
    -3
390
0
  6
Continuous
100
AcDbLine
 10
-203.099237
 20
140.213346
 30
0.0
 11
26.900763
 21
140.213346
 31
0.0
  0
LINE
  5
3B4
100
AcDbEntity
  8
0
370
    -3
390
0
  6
Continuous
100
AcDbLine
 10
-203.099237
 20
151.086114
 30
0.0
 11
26.900763
 21
151.086114
 31
0.0
  0
LINE
  5
3B5
100
AcDbEntity
  8
0
370
    -3
390
0
  6
Continuous
100
AcDbLine
 10
-203.099237
 20
154.149433
 30
0.0
 11
26.900763
 21
154.149433
 31
0.0
  0
LINE
  5
3B6
100
AcDbEntity
  8
0
370
    -3
390
0
  6
Continuous
100
AcDbLine
 10
-203.099237
 20
176.817394
 30
0.0
 11
26.900763
 21
176.817394
 31
0.0
  0
LINE
  5
3B7
100
AcDbEntity
  8
0
370
    -3
390
0
  6
Continuous
100
AcDbLine
 10
-203.099237
 20
168.076683
 30
0.0
 11
26.900763
 21
168.076683
 31
0.0
  0
LINE
  5
3B8
100
AcDbEntity
  8
0
370
    -3
390
0
  6
Continuous
100
AcDbLine
 10
-203.099237
 20
165.182308
 30
0.0
 11
26.900763
 21
165.182308
 31
0.0
  0
LINE
  5
3B9
100
AcDbEntity
  8
0
370
    -3
390
0
  6
Continuous
100
AcDbLine
 10
-203.099237
 20
179.636703
 30
0.0
 11
26.900763
 21
179.636703
 31
0.0
  0
LINE
  5
3BA
100
AcDbEntity
  8
0
370
    -3
390
0
  6
Continuous
100
AcDbLine
 10
-203.099237
 20
188.386703
 30
0.0
 11
26.900763
 21
188.386703
 31
0.0
  0
LINE
  5
3BB
100
AcDbEntity
  8
0
370
    -3
390
0
  6
Continuous
100
AcDbLine
 10
-203.099237
 20
89.929204
 30
0.0
 11
26.900763
 21
89.929204
 31
0.0
  0
LINE
  5
3BC
100
AcDbEntity
  8
0
370
    -3
390
0
  6
Continuous
100
AcDbLine
 10
-203.099237
 20
76.636703
 30
0.0
 11
26.900763
 21
76.636703
 31
0.0
  0
LINE
  5
3BD
100
AcDbEntity
  8
0
370
    -3
390
0
  6
Continuous
100
AcDbLine
 10
-203.099237
 20
70.636703
 30
0.0
 11
26.900763
 21
70.636703
 31
0.0
  0
LINE
  5
3BE
100
AcDbEntity
  8
0
370
    -3
390
0
  6
Continuous
100
AcDbLine
 10
-320.099237
 20
194.636703
 30
0.0
 11
-320.099237
 21
308.049872
 31
0.0
  0
LINE
  5
3BF
100
AcDbEntity
  8
0
370
    -3
390
0
  6
Continuous
100
AcDbLine
 10
-320.099237
 20
194.636703
 30
0.0
 11
-320.099237
 21
81.223535
 31
0.0
  0
LINE
  5
3C0
100
AcDbEntity
  8
0
370
    -3
390
0
  6
Continuous
100
AcDbLine
 10
-258.304317
 20
331.836703
 30
0.0
 11
-203.099237
 21
331.836703
 31
0.0
  0
ARC
  5
3C1
100
AcDbEntity
  8
0
370
    -3
390
0
  6
Continuous
100
AcDbCircle
 10
-313.899237
 20
308.049872
 30
0.0
 40
6.2
100
AcDbArc
 50
120.0
 51
180.0
  0
ARC
  5
3C2
100
AcDbEntity
  8
0
370
    -3
390
0
  6
Continuous
100
AcDbCircle
 10
-257.982778
 20
230.636703
 30
0.0
 40
101.2
100
AcDbArc
 50
90.0
 51
120.0
  0
LINE
  5
3C3
100
AcDbEntity
  8
0
370
    -3
390
0
  6
Continuous
100
AcDbLine
 10
-308.582778
 20
318.278474
 30
0.0
 11
-316.999237
 21
313.41923
 31
0.0
  0
LINE
  5
3C4
100
AcDbEntity
  8
0
370
    -3
390
0
  6
Continuous
100
AcDbLine
 10
-248.00641
 20
83.909417
 30
0.0
 11
-245.099237
 21
85.742259
 31
0.0
  0
LINE
  5
3C5
100
AcDbEntity
  8
0
370
    -3
390
0
  6
Continuous
100
AcDbLine
 10
-245.099237
 20
85.742259
 30
0.0
 11
-248.099237
 21
88.093534
 31
0.0
  0
LINE
  5
3C6
100
AcDbEntity
  8
0
370
    -3
390
0
  6
Continuous
100
AcDbLine
 10
-242.192063
 20
83.909417
 30
0.0
 11
-245.099237
 21
85.742259
 31
0.0
  0
LINE
  5
3C7
100
AcDbEntity
  8
0
370
    -3
390
0
  6
Continuous
100
AcDbLine
 10
-245.099237
 20
85.742259
 30
0.0
 11
-242.099237
 21
88.093534
 31
0.0
  0
ELLIPSE
  5
3C8
100
AcDbEntity
  8
0
370
    -3
390
0
  6
Continuous
100
AcDbEllipse
 10
-245.099237
 20
88.499976
 30
0.0
 11
6.25
 21
0.0
 31
0.0
210
0.0
220
0.0
230
1.0
 40
0.707107
 41
5.5424010803725476
 42
3.8823768803968313
  0
ELLIPSE
  5
3C9
100
AcDbEntity
  8
0
370
    -3
390
0
  6
Continuous
100
AcDbEllipse
 10
-245.099237
 20
87.681845
 30
0.0
 11
5.25
 21
0.0
 31
0.0
210
0.0
220
0.0
230
1.0
 40
0.862941
 41
0.0
 42
6.2831853071795862
  0
LINE
  5
3CA
100
AcDbEntity
  8
0
370
    -3
390
0
  6
Continuous
100
AcDbLine
 10
-251.349237
 20
89.631346
 30
0.0
 11
-251.349237
 21
88.499976
 31
0.0
  0
LINE
  5
3CB
100
AcDbEntity
  8
0
370
    -3
390
0
  6
Continuous
100
AcDbLine
 10
-238.849237
 20
89.631346
 30
0.0
 11
-238.849237
 21
88.499976
 31
0.0
  0
ELLIPSE
  5
3CC
100
AcDbEntity
  8
0
370
    -3
390
0
  6
Continuous
100
AcDbEllipse
 10
-245.099237
 20
89.631346
 30
0.0
 11
6.25
 21
0.0
 31
0.0
210
0.0
220
0.0
230
1.0
 40
0.707107
 41
0.0
 42
3.1415926535897931
  0
ELLIPSE
  5
3CD
100
AcDbEntity
  8
0
370
    -3
390
0
  6
Continuous
100
AcDbEllipse
 10
-245.099237
 20
89.7349
 30
0.0
 11
7.0
 21
0.0
 31
0.0
210
0.0
220
0.0
230
1.0
 40
0.692313
 41
3.1415926535897931
 42
3.6880322699881103
  0
ELLIPSE
  5
3CE
100
AcDbEntity
  8
0
370
    -3
390
0
  6
Continuous
100
AcDbEllipse
 10
-245.099237
 20
89.7349
 30
0.0
 11
7.0
 21
0.0
 31
0.0
210
0.0
220
0.0
230
1.0
 40
0.692313
 41
5.7367456907812695
 42
0.0
  0
ELLIPSE
  5
3CF
100
AcDbEntity
  8
0
370
    -3
390
0
  6
Continuous
100
AcDbEllipse
 10
-245.099237
 20
89.7349
 30
0.0
 11
7.0
 21
0.0
 31
0.0
210
0.0
220
0.0
230
1.0
 40
0.692313
 41
0.0
 42
3.1415926535897931
  0
ELLIPSE
  5
3D0
100
AcDbEntity
  8
0
370
    -3
390
0
  6
Continuous
100
AcDbEllipse
 10
-245.099237
 20
91.376256
 30
0.0
 11
7.0
 21
0.0
 31
0.0
210
0.0
220
0.0
230
1.0
 40
0.707107
 41
0.0
 42
3.1415926535897931
  0
LINE
  5
3D1
100
AcDbEntity
  8
0
370
    -3
390
0
  6
Continuous
100
AcDbLine
 10
-252.099237
 20
91.376256
 30
0.0
 11
-252.099237
 21
89.7349
 31
0.0
  0
LINE
  5
3D2
100
AcDbEntity
  8
0
370
    -3
390
0
  6
Continuous
100
AcDbLine
 10
-238.099237
 20
91.376256
 30
0.0
 11
-238.099237
 21
89.7349
 31
0.0
  0
ARC
  5
3D3
100
AcDbEntity
  8
0
370
    -3
390
0
  6
Continuous
100
AcDbCircle
 10
-313.899237
 20
81.223535
 30
0.0
 40
6.2
100
AcDbArc
 50
180.0
 51
240.0
  0
ARC
  5
3D4
100
AcDbEntity
  8
0
370
    -3
390
0
  6
Continuous
100
AcDbCircle
 10
-257.982778
 20
158.636703
 30
0.0
 40
101.2
100
AcDbArc
 50
240.0
 51
270.0
  0
LINE
  5
3D5
100
AcDbEntity
  8
0
370
    -3
390
0
  6
Continuous
100
AcDbLine
 10
-308.582778
 20
70.994933
 30
0.0
 11
-316.999237
 21
75.854177
 31
0.0
  0
LINE
  5
3D6
100
AcDbEntity
  8
0
370
    -3
390
0
  6
Continuous
100
AcDbLine
 10
-248.00641
 20
305.36399
 30
0.0
 11
-245.099237
 21
303.531148
 31
0.0
  0
LINE
  5
3D7
100
AcDbEntity
  8
0
370
    -3
390
0
  6
Continuous
100
AcDbLine
 10
-245.099237
 20
303.531148
 30
0.0
 11
-248.099237
 21
301.179873
 31
0.0
  0
LINE
  5
3D8
100
AcDbEntity
  8
0
370
    -3
390
0
  6
Continuous
100
AcDbLine
 10
-242.192063
 20
305.36399
 30
0.0
 11
-245.099237
 21
303.531148
 31
0.0
  0
LINE
  5
3D9
100
AcDbEntity
  8
0
370
    -3
390
0
  6
Continuous
100
AcDbLine
 10
-245.099237
 20
303.531148
 30
0.0
 11
-242.099237
 21
301.179873
 31
0.0
  0
ELLIPSE
  5
3DA
100
AcDbEntity
  8
0
370
    -3
390
0
  6
Continuous
100
AcDbEllipse
 10
-245.099237
 20
300.773431
 30
0.0
 11
6.25
 21
0.0
 31
0.0
210
0.0
220
0.0
230
1.0
 40
0.707107
 41
2.400808426782755
 42
0.7407842268070384
  0
ELLIPSE
  5
3DB
100
AcDbEntity
  8
0
370
    -3
390
0
  6
Continuous
100
AcDbEllipse
 10
-245.099237
 20
301.591562
 30
0.0
 11
5.25
 21
0.0
 31
0.0
210
0.0
220
0.0
230
1.0
 40
0.862941
 41
0.0
 42
6.2831853071795862
  0
LINE
  5
3DC
100
AcDbEntity
  8
0
370
    -3
390
0
  6
Continuous
100
AcDbLine
 10
-251.349237
 20
299.64206
 30
0.0
 11
-251.349237
 21
300.773431
 31
0.0
  0
LINE
  5
3DD
100
AcDbEntity
  8
0
370
    -3
390
0
  6
Continuous
100
AcDbLine
 10
-238.849237
 20
299.64206
 30
0.0
 11
-238.849237
 21
300.773431
 31
0.0
  0
ELLIPSE
  5
3DE
100
AcDbEntity
  8
0
370
    -3
390
0
  6
Continuous
100
AcDbEllipse
 10
-245.099237
 20
299.64206
 30
0.0
 11
6.25
 21
0.0
 31
0.0
210
0.0
220
0.0
230
1.0
 40
0.707107
 41
3.1415926535897931
 42
0.0
  0
ELLIPSE
  5
3DF
100
AcDbEntity
  8
0
370
    -3
390
0
  6
Continuous
100
AcDbEllipse
 10
-245.099237
 20
299.538507
 30
0.0
 11
7.0
 21
0.0
 31
0.0
210
0.0
220
0.0
230
1.0
 40
0.692313
 41
2.5951530371914737
 42
3.1415926535897931
  0
ELLIPSE
  5
3E0
100
AcDbEntity
  8
0
370
    -3
390
0
  6
Continuous
100
AcDbEllipse
 10
-245.099237
 20
299.538507
 30
0.0
 11
7.0
 21
0.0
 31
0.0
210
0.0
220
0.0
230
1.0
 40
0.692313
 41
0.0
 42
0.5464396163983196
  0
ELLIPSE
  5
3E1
100
AcDbEntity
  8
0
370
    -3
390
0
  6
Continuous
100
AcDbEllipse
 10
-245.099237
 20
299.538507
 30
0.0
 11
7.0
 21
0.0
 31
0.0
210
0.0
220
0.0
230
1.0
 40
0.692313
 41
3.1415926535897931
 42
0.0
  0
ELLIPSE
  5
3E2
100
AcDbEntity
  8
0
370
    -3
390
0
  6
Continuous
100
AcDbEllipse
 10
-245.099237
 20
297.897151
 30
0.0
 11
7.0
 21
0.0
 31
0.0
210
0.0
220
0.0
230
1.0
 40
0.707107
 41
3.1415926535897931
 42
0.0
  0
LINE
  5
3E3
100
AcDbEntity
  8
0
370
    -3
390
0
  6
Continuous
100
AcDbLine
 10
-252.099237
 20
297.897151
 30
0.0
 11
-252.099237
 21
299.538507
 31
0.0
  0
LINE
  5
3E4
100
AcDbEntity
  8
0
370
    -3
390
0
  6
Continuous
100
AcDbLine
 10
-238.099237
 20
297.897151
 30
0.0
 11
-238.099237
 21
299.538507
 31
0.0
  0
LINE
  5
3E5
100
AcDbEntity
  8
0
370
    -3
390
0
  6
Continuous
100
AcDbLine
 10
-482.101357
 20
-315.919442
 30
0.0
 11
-473.262523
 21
-307.080607
 31
0.0
  0
LINE
  5
3E6
100
AcDbEntity
  8
0
370
    -3
390
0
  6
Continuous
100
AcDbLine
 10
-474.217117
 20
-305.772459
 30
0.0
 11
-483.409505
 21
-314.964848
 31
0.0
  0
LINE
  5
3E7
100
AcDbEntity
  8
0
370
    -3
390
0
  6
Continuous
100
AcDbLine
 10
-483.232728
 20
-314.788071
 30
0.0
 11
-482.101357
 21
-315.919442
 31
0.0
  0
ARC
  5
3E8
100
AcDbEntity
  8
0
370
    -3
390
0
  6
Continuous
100
AcDbCircle
 10
-483.763058
 20
-314.611294
 30
0.0
 40
0.5
100
AcDbArc
 50
225.0
 51
315.0
  0
ARC
  5
3E9
100
AcDbEntity
  8
0
370
    -3
390
0
  6
Continuous
100
AcDbCircle
 10
-478.970983
 20
-314.948596
 30
0.0
 40
1.9
100
AcDbArc
 50
224.999982
 51
298.927108
  0
LINE
  5
3EA
100
AcDbEntity
  8
0
370
    -3
390
0
  6
Continuous
100
AcDbLine
 10
-481.39425
 20
-315.212334
 30
0.0
 11
-480.314486
 21
-316.292098
 31
0.0
  0
ARC
  5
3EB
100
AcDbEntity
  8
0
370
    -3
390
0
  6
Continuous
100
AcDbCircle
 10
-474.233369
 20
-310.210981
 30
0.0
 40
1.9
100
AcDbArc
 50
331.07282
 51
45.000001
  0
ARC
  5
3EC
100
AcDbEntity
  8
0
370
    -3
390
0
  6
Continuous
100
AcDbCircle
 10
-484.823718
 20
-304.358246
 30
0.0
 40
14.0
100
AcDbArc
 50
298.927163
 51
331.07282
  0
LINE
  5
3ED
100
AcDbEntity
  8
0
370
    -3
390
0
  6
Continuous
100
AcDbLine
 10
-474.393893
 20
-305.949236
 30
0.0
 11
-473.262523
 21
-307.080607
 31
0.0
  0
LINE
  5
3EE
100
AcDbEntity
  8
0
370
    -3
390
0
  6
Continuous
100
AcDbLine
 10
-474.217117
 20
-305.065353
 30
0.0
 11
-475.608473
 21
-303.673996
 31
0.0
  0
ARC
  5
3EF
100
AcDbEntity
  8
0
370
    -3
390
0
  6
Continuous
100
AcDbCircle
 10
-474.57067
 20
-305.418906
 30
0.0
 40
0.5
100
AcDbArc
 50
315.0
 51
45.0
  0
LINE
  5
3F0
100
AcDbEntity
  8
0
370
    -3
390
0
  6
Continuous
100
AcDbLine
 10
-473.96963
 20
-307.787714
 30
0.0
 11
-472.889866
 21
-308.867478
 31
0.0
  0
LINE
  5
3F1
100
AcDbEntity
  8
0
370
    -3
390
0
  6
Continuous
100
AcDbLine
 10
-484.116612
 20
-314.964848
 30
0.0
 11
-485.507968
 21
-313.573491
 31
0.0
  0
LINE
  5
3F2
100
AcDbEntity
  8
0
370
    -3
390
0
  6
Continuous
100
AcDbLine
 10
-685.535978
 20
-315.919442
 30
0.0
 11
-694.374813
 21
-307.080607
 31
0.0
  0
LINE
  5
3F3
100
AcDbEntity
  8
0
370
    -3
390
0
  6
Continuous
100
AcDbLine
 10
-693.420219
 20
-305.772459
 30
0.0
 11
-684.227831
 21
-314.964848
 31
0.0
  0
LINE
  5
3F4
100
AcDbEntity
  8
0
370
    -3
390
0
  6
Continuous
100
AcDbLine
 10
-684.404607
 20
-314.788071
 30
0.0
 11
-685.535978
 21
-315.919442
 31
0.0
  0
ARC
  5
3F5
100
AcDbEntity
  8
0
370
    -3
390
0
  6
Continuous
100
AcDbCircle
 10
-683.874277
 20
-314.611294
 30
0.0
 40
0.5
100
AcDbArc
 50
225.0
 51
315.0
  0
ARC
  5
3F6
100
AcDbEntity
  8
0
370
    -3
390
0
  6
Continuous
100
AcDbCircle
 10
-688.666352
 20
-314.948596
 30
0.0
 40
1.9
100
AcDbArc
 50
241.072892
 51
315.000018
  0
LINE
  5
3F7
100
AcDbEntity
  8
0
370
    -3
390
0
  6
Continuous
100
AcDbLine
 10
-686.243086
 20
-315.212334
 30
0.0
 11
-687.32285
 21
-316.292098
 31
0.0
  0
ARC
  5
3F8
100
AcDbEntity
  8
0
370
    -3
390
0
  6
Continuous
100
AcDbCircle
 10
-693.403967
 20
-310.210981
 30
0.0
 40
1.9
100
AcDbArc
 50
134.999999
 51
208.92718
  0
ARC
  5
3F9
100
AcDbEntity
  8
0
370
    -3
390
0
  6
Continuous
100
AcDbCircle
 10
-682.813618
 20
-304.358246
 30
0.0
 40
14.0
100
AcDbArc
 50
208.92718
 51
241.072837
  0
LINE
  5
3FA
100
AcDbEntity
  8
0
370
    -3
390
0
  6
Continuous
100
AcDbLine
 10
-693.243442
 20
-305.949236
 30
0.0
 11
-694.374813
 21
-307.080607
 31
0.0
  0
LINE
  5
3FB
100
AcDbEntity
  8
0
370
    -3
390
0
  6
Continuous
100
AcDbLine
 10
-693.420219
 20
-305.065353
 30
0.0
 11
-692.028863
 21
-303.673996
 31
0.0
  0
ARC
  5
3FC
100
AcDbEntity
  8
0
370
    -3
390
0
  6
Continuous
100
AcDbCircle
 10
-693.066665
 20
-305.418906
 30
0.0
 40
0.5
100
AcDbArc
 50
135.0
 51
225.0
  0
LINE
  5
3FD
100
AcDbEntity
  8
0
370
    -3
390
0
  6
Continuous
100
AcDbLine
 10
-693.667706
 20
-307.787714
 30
0.0
 11
-694.747469
 21
-308.867478
 31
0.0
  0
LINE
  5
3FE
100
AcDbEntity
  8
0
370
    -3
390
0
  6
Continuous
100
AcDbLine
 10
-683.520724
 20
-314.964848
 30
0.0
 11
-682.129368
 21
-313.573491
 31
0.0
  0
LINE
  5
3FF
100
AcDbEntity
  8
0
370
    -3
390
0
  6
Continuous
100
AcDbLine
 10
-685.535978
 20
-94.807151
 30
0.0
 11
-694.374813
 21
-103.645986
 31
0.0
  0
LINE
  5
400
100
AcDbEntity
  8
0
370
    -3
390
0
  6
Continuous
100
AcDbLine
 10
-693.420219
 20
-104.954134
 30
0.0
 11
-684.227831
 21
-95.761745
 31
0.0
  0
LINE
  5
401
100
AcDbEntity
  8
0
370
    -3
390
0
  6
Continuous
100
AcDbLine
 10
-684.404607
 20
-95.938522
 30
0.0
 11
-685.535978
 21
-94.807151
 31
0.0
  0
ARC
  5
402
100
AcDbEntity
  8
0
370
    -3
390
0
  6
Continuous
100
AcDbCircle
 10
-683.874277
 20
-96.115299
 30
0.0
 40
0.5
100
AcDbArc
 50
45.0
 51
135.0
  0
ARC
  5
403
100
AcDbEntity
  8
0
370
    -3
390
0
  6
Continuous
100
AcDbCircle
 10
-688.666352
 20
-95.777998
 30
0.0
 40
1.9
100
AcDbArc
 50
44.999982
 51
118.927108
  0
LINE
  5
404
100
AcDbEntity
  8
0
370
    -3
390
0
  6
Continuous
100
AcDbLine
 10
-686.243086
 20
-95.514259
 30
0.0
 11
-687.32285
 21
-94.434495
 31
0.0
  0
ARC
  5
405
100
AcDbEntity
  8
0
370
    -3
390
0
  6
Continuous
100
AcDbCircle
 10
-693.403967
 20
-100.515612
 30
0.0
 40
1.9
100
AcDbArc
 50
151.07282
 51
225.000001
  0
ARC
  5
406
100
AcDbEntity
  8
0
370
    -3
390
0
  6
Continuous
100
AcDbCircle
 10
-682.813618
 20
-106.368347
 30
0.0
 40
14.0
100
AcDbArc
 50
118.927163
 51
151.07282
  0
LINE
  5
407
100
AcDbEntity
  8
0
370
    -3
390
0
  6
Continuous
100
AcDbLine
 10
-693.243442
 20
-104.777357
 30
0.0
 11
-694.374813
 21
-103.645986
 31
0.0
  0
LINE
  5
408
100
AcDbEntity
  8
0
370
    -3
390
0
  6
Continuous
100
AcDbLine
 10
-693.420219
 20
-105.66124
 30
0.0
 11
-692.028863
 21
-107.052597
 31
0.0
  0
ARC
  5
409
100
AcDbEntity
  8
0
370
    -3
390
0
  6
Continuous
100
AcDbCircle
 10
-693.066665
 20
-105.307687
 30
0.0
 40
0.5
100
AcDbArc
 50
135.0
 51
225.0
  0
LINE
  5
40A
100
AcDbEntity
  8
0
370
    -3
390
0
  6
Continuous
100
AcDbLine
 10
-693.667706
 20
-102.938879
 30
0.0
 11
-694.747469
 21
-101.859115
 31
0.0
  0
LINE
  5
40B
100
AcDbEntity
  8
0
370
    -3
390
0
  6
Continuous
100
AcDbLine
 10
-683.520724
 20
-95.761745
 30
0.0
 11
-682.129368
 21
-97.153102
 31
0.0
  0
ARC
  5
40C
100
AcDbEntity
  8
0
370
    -3
390
0
  6
Continuous
100
AcDbCircle
 10
-583.818668
 20
-205.363297
 30
0.0
 40
146.2
100
AcDbArc
 50
128.578295
 51
141.421705
  0
CIRCLE
  5
40D
100
AcDbEntity
  8
0
370
    -3
390
0
  6
Continuous
100
AcDbCircle
 10
-583.818668
 20
-205.363297
 30
0.0
 40
7.5
  0
ARC
  5
40E
100
AcDbEntity
  8
0
370
    -3
390
0
  6
Continuous
100
AcDbCircle
 10
-583.818668
 20
-96.863297
 30
0.0
 40
1.5
100
AcDbArc
 50
0.0
 51
180.0
  0
LINE
  5
40F
100
AcDbEntity
  8
0
370
    -3
390
0
  6
Continuous
100
AcDbLine
 10
-582.318668
 20
-96.863297
 30
0.0
 11
-582.318668
 21
-188.863297
 31
0.0
  0
ARC
  5
410
100
AcDbEntity
  8
0
370
    -3
390
0
  6
Continuous
100
AcDbCircle
 10
-583.818668
 20
-188.863297
 30
0.0
 40
1.5
100
AcDbArc
 50
180.0
 51
0.0
  0
LINE
  5
411
100
AcDbEntity
  8
0
370
    -3
390
0
  6
Continuous
100
AcDbLine
 10
-585.318668
 20
-96.863297
 30
0.0
 11
-585.318668
 21
-188.863297
 31
0.0
  0
ARC
  5
412
100
AcDbEntity
  8
0
370
    -3
390
0
  6
Continuous
100
AcDbCircle
 10
-677.782424
 20
-259.613297
 30
0.0
 40
1.5
100
AcDbArc
 50
120.0
 51
300.0
  0
LINE
  5
413
100
AcDbEntity
  8
0
370
    -3
390
0
  6
Continuous
100
AcDbLine
 10
-678.532424
 20
-258.314258
 30
0.0
 11
-598.858087
 21
-212.314258
 31
0.0
  0
LINE
  5
414
100
AcDbEntity
  8
0
370
    -3
390
0
  6
Continuous
100
AcDbLine
 10
-677.032424
 20
-260.912335
 30
0.0
 11
-597.358087
 21
-214.912335
 31
0.0
  0
ARC
  5
415
100
AcDbEntity
  8
0
370
    -3
390
0
  6
Continuous
100
AcDbCircle
 10
-598.108087
 20
-213.613297
 30
0.0
 40
1.5
100
AcDbArc
 50
300.0
 51
120.0
  0
ARC
  5
416
100
AcDbEntity
  8
0
370
    -3
390
0
  6
Continuous
100
AcDbCircle
 10
-489.854911
 20
-259.613297
 30
0.0
 40
1.5
100
AcDbArc
 50
240.0
 51
60.0
  0
LINE
  5
417
100
AcDbEntity
  8
0
370
    -3
390
0
  6
Continuous
100
AcDbLine
 10
-490.604911
 20
-260.912335
 30
0.0
 11
-570.279249
 21
-214.912335
 31
0.0
  0
LINE
  5
418
100
AcDbEntity
  8
0
370
    -3
390
0
  6
Continuous
100
AcDbLine
 10
-489.104911
 20
-258.314258
 30
0.0
 11
-568.779249
 21
-212.314258
 31
0.0
  0
ARC
  5
419
100
AcDbEntity
  8
0
370
    -3
390
0
  6
Continuous
100
AcDbCircle
 10
-569.529249
 20
-213.613297
 30
0.0
 40
1.5
100
AcDbArc
 50
60.0
 51
240.0
  0
ARC
  5
41A
100
AcDbEntity
  8
0
370
    -3
390
0
  6
Continuous
100
AcDbCircle
 10
-583.818668
 20
-205.363297
 30
0.0
 40
100.0
100
AcDbArc
 50
94.434512
 51
146.157713
  0
ARC
  5
41B
100
AcDbEntity
  8
0
370
    -3
390
0
  6
Continuous
100
AcDbCircle
 10
-591.318668
 20
-108.65368
 30
0.0
 40
3.0
100
AcDbArc
 50
0.0
 51
94.434512
  0
ARC
  5
41C
100
AcDbEntity
  8
0
370
    -3
390
0
  6
Continuous
100
AcDbCircle
 10
-664.384314
 20
-151.343146
 30
0.0
 40
3.0
100
AcDbArc
 50
146.157713
 51
240.0
  0
LINE
  5
41D
100
AcDbEntity
  8
0
370
    -3
390
0
  6
Continuous
100
AcDbLine
 10
-665.884314
 20
-153.941222
 30
0.0
 11
-665.016317
 21
-154.44236
 31
0.0
  0
ARC
  5
41E
100
AcDbEntity
  8
0
370
    -3
390
0
  6
Continuous
100
AcDbCircle
 10
-663.516317
 20
-151.844284
 30
0.0
 40
3.0
100
AcDbArc
 50
240.0
 51
326.117628
  0
LINE
  5
41F
100
AcDbEntity
  8
0
370
    -3
390
0
  6
Continuous
100
AcDbLine
 10
-588.318668
 20
-108.65368
 30
0.0
 11
-588.318668
 21
-109.656714
 31
0.0
  0
ARC
  5
420
100
AcDbEntity
  8
0
370
    -3
390
0
  6
Continuous
100
AcDbCircle
 10
-583.818668
 20
-205.363297
 30
0.0
 40
93.0
100
AcDbArc
 50
94.480799
 51
146.117628
  0
ARC
  5
421
100
AcDbEntity
  8
0
370
    -3
390
0
  6
Continuous
100
AcDbCircle
 10
-591.318668
 20
-109.656714
 30
0.0
 40
3.0
100
AcDbArc
 50
274.480799
 51
0.0
  0
ARC
  5
422
100
AcDbEntity
  8
0
370
    -3
390
0
  6
Continuous
100
AcDbCircle
 10
-653.09668
 20
-157.860064
 30
0.0
 40
3.0
100
AcDbArc
 50
145.561961
 51
240.0
  0
LINE
  5
423
100
AcDbEntity
  8
0
370
    -3
390
0
  6
Continuous
100
AcDbLine
 10
-654.59668
 20
-160.45814
 30
0.0
 11
-651.121637
 21
-162.464457
 31
0.0
  0
ARC
  5
424
100
AcDbEntity
  8
0
370
    -3
390
0
  6
Continuous
100
AcDbCircle
 10
-649.621637
 20
-159.866381
 30
0.0
 40
3.0
100
AcDbArc
 50
240.0
 51
325.339581
  0
ARC
  5
425
100
AcDbEntity
  8
0
370
    -3
390
0
  6
Continuous
100
AcDbCircle
 10
-640.058688
 20
-165.387552
 30
0.0
 40
3.0
100
AcDbArc
 50
144.594556
 51
240.0
  0
LINE
  5
426
100
AcDbEntity
  8
0
370
    -3
390
0
  6
Continuous
100
AcDbLine
 10
-641.558688
 20
-167.985628
 30
0.0
 11
-638.078154
 21
-169.995116
 31
0.0
  0
ARC
  5
427
100
AcDbEntity
  8
0
370
    -3
390
0
  6
Continuous
100
AcDbCircle
 10
-636.578154
 20
-167.39704
 30
0.0
 40
3.0
100
AcDbArc
 50
240.0
 51
324.26083
  0
ARC
  5
428
100
AcDbEntity
  8
0
370
    -3
390
0
  6
Continuous
100
AcDbCircle
 10
-626.994011
 20
-172.930447
 30
0.0
 40
3.0
100
AcDbArc
 50
143.086522
 51
240.0
  0
LINE
  5
429
100
AcDbEntity
  8
0
370
    -3
390
0
  6
Continuous
100
AcDbLine
 10
-628.494011
 20
-175.528523
 30
0.0
 11
-625.002483
 21
-177.544358
 31
0.0
  0
ARC
  5
42A
100
AcDbEntity
  8
0
370
    -3
390
0
  6
Continuous
100
AcDbCircle
 10
-623.502483
 20
-174.946282
 30
0.0
 40
3.0
100
AcDbArc
 50
240.0
 51
322.530408
  0
ARC
  5
42B
100
AcDbEntity
  8
0
370
    -3
390
0
  6
Continuous
100
AcDbCircle
 10
-613.871258
 20
-180.506872
 30
0.0
 40
3.0
100
AcDbArc
 50
140.405932
 51
240.0
  0
LINE
  5
42C
100
AcDbEntity
  8
0
370
    -3
390
0
  6
Continuous
100
AcDbLine
 10
-615.371258
 20
-183.104948
 30
0.0
 11
-611.852262
 21
-185.136641
 31
0.0
  0
ARC
  5
42D
100
AcDbEntity
  8
0
370
    -3
390
0
  6
Continuous
100
AcDbCircle
 10
-610.352262
 20
-182.538565
 30
0.0
 40
3.0
100
AcDbArc
 50
240.0
 51
319.29722
  0
ARC
  5
42E
100
AcDbEntity
  8
0
370
    -3
390
0
  6
Continuous
100
AcDbCircle
 10
-583.818668
 20
-205.363297
 30
0.0
 40
32.0
100
AcDbArc
 50
102.373625
 51
139.29722
  0
ARC
  5
42F
100
AcDbEntity
  8
0
370
    -3
390
0
  6
Continuous
100
AcDbCircle
 10
-591.318668
 20
-171.176311
 30
0.0
 40
3.0
100
AcDbArc
 50
282.373625
 51
0.0
  0
ARC
  5
430
100
AcDbEntity
  8
0
370
    -3
390
0
  6
Continuous
100
AcDbCircle
 10
-583.818668
 20
-205.363297
 30
0.0
 40
42.0
100
AcDbArc
 50
101.087489
 51
140.405932
  0
LINE
  5
431
100
AcDbEntity
  8
0
370
    -3
390
0
  6
Continuous
100
AcDbLine
 10
-588.318668
 20
-167.091244
 30
0.0
 11
-588.318668
 21
-171.176311
 31
0.0
  0
ARC
  5
432
100
AcDbEntity
  8
0
370
    -3
390
0
  6
Continuous
100
AcDbCircle
 10
-591.318668
 20
-167.091244
 30
0.0
 40
3.0
100
AcDbArc
 50
0.0
 51
101.087489
  0
ARC
  5
433
100
AcDbEntity
  8
0
370
    -3
390
0
  6
Continuous
100
AcDbCircle
 10
-591.318668
 20
-182.56527
 30
0.0
 40
3.0
100
AcDbArc
 50
0.0
 51
108.209957
  0
LINE
  5
434
100
AcDbEntity
  8
0
370
    -3
390
0
  6
Continuous
100
AcDbLine
 10
-588.318668
 20
-182.56527
 30
0.0
 11
-588.318668
 21
-186.8228
 31
0.0
  0
ARC
  5
435
100
AcDbEntity
  8
0
370
    -3
390
0
  6
Continuous
100
AcDbCircle
 10
-591.318668
 20
-186.8228
 30
0.0
 40
3.0
100
AcDbArc
 50
292.024313
 51
0.0
  0
ARC
  5
436
100
AcDbEntity
  8
0
370
    -3
390
0
  6
Continuous
100
AcDbCircle
 10
-583.818668
 20
-205.363297
 30
0.0
 40
17.0
100
AcDbArc
 50
112.024313
 51
131.034425
  0
ARC
  5
437
100
AcDbEntity
  8
0
370
    -3
390
0
  6
Continuous
100
AcDbCircle
 10
-596.948915
 20
-190.276991
 30
0.0
 40
3.0
100
AcDbArc
 50
240.0
 51
311.034425
  0
ARC
  5
438
100
AcDbEntity
  8
0
370
    -3
390
0
  6
Continuous
100
AcDbCircle
 10
-583.818668
 20
-205.363297
 30
0.0
 40
27.0
100
AcDbArc
 50
108.209957
 51
134.286139
  0
LINE
  5
439
100
AcDbEntity
  8
0
370
    -3
390
0
  6
Continuous
100
AcDbLine
 10
-602.076479
 20
-190.780693
 30
0.0
 11
-598.448915
 21
-192.875067
 31
0.0
  0
ARC
  5
43A
100
AcDbEntity
  8
0
370
    -3
390
0
  6
Continuous
100
AcDbCircle
 10
-600.576479
 20
-188.182616
 30
0.0
 40
3.0
100
AcDbArc
 50
134.286139
 51
240.0
  0
ARC
  5
43B
100
AcDbEntity
  8
0
370
    -3
390
0
  6
Continuous
100
AcDbCircle
 10
-583.818668
 20
-205.363297
 30
0.0
 40
47.0
100
AcDbArc
 50
98.626927
 51
142.530408
  0
ARC
  5
43C
100
AcDbEntity
  8
0
370
    -3
390
0
  6
Continuous
100
AcDbCircle
 10
-591.318668
 20
-155.928997
 30
0.0
 40
3.0
100
AcDbArc
 50
278.626927
 51
360.0
  0
ARC
  5
43D
100
AcDbEntity
  8
0
370
    -3
390
0
  6
Continuous
100
AcDbCircle
 10
-583.818668
 20
-205.363297
 30
0.0
 40
57.0
100
AcDbArc
 50
97.983556
 51
143.086522
  0
LINE
  5
43E
100
AcDbEntity
  8
0
370
    -3
390
0
  6
Continuous
100
AcDbLine
 10
-588.318668
 20
-151.886666
 30
0.0
 11
-588.318668
 21
-155.928997
 31
0.0
  0
ARC
  5
43F
100
AcDbEntity
  8
0
370
    -3
390
0
  6
Continuous
100
AcDbCircle
 10
-591.318668
 20
-151.886666
 30
0.0
 40
3.0
100
AcDbArc
 50
0.0
 51
97.983556
  0
ARC
  5
440
100
AcDbEntity
  8
0
370
    -3
390
0
  6
Continuous
100
AcDbCircle
 10
-583.818668
 20
-205.363297
 30
0.0
 40
62.0
100
AcDbArc
 50
96.62581
 51
144.26083
  0
ARC
  5
441
100
AcDbEntity
  8
0
370
    -3
390
0
  6
Continuous
100
AcDbCircle
 10
-591.318668
 20
-140.797439
 30
0.0
 40
3.0
100
AcDbArc
 50
276.62581
 51
0.0
  0
ARC
  5
442
100
AcDbEntity
  8
0
370
    -3
390
0
  6
Continuous
100
AcDbCircle
 10
-583.818668
 20
-205.363297
 30
0.0
 40
72.0
100
AcDbArc
 50
96.240131
 51
144.594556
  0
LINE
  5
443
100
AcDbEntity
  8
0
370
    -3
390
0
  6
Continuous
100
AcDbLine
 10
-588.318668
 20
-136.772116
 30
0.0
 11
-588.318668
 21
-140.797439
 31
0.0
  0
ARC
  5
444
100
AcDbEntity
  8
0
370
    -3
390
0
  6
Continuous
100
AcDbCircle
 10
-591.318668
 20
-136.772116
 30
0.0
 40
3.0
100
AcDbArc
 50
0.0
 51
96.240131
  0
ARC
  5
445
100
AcDbEntity
  8
0
370
    -3
390
0
  6
Continuous
100
AcDbCircle
 10
-583.818668
 20
-205.363297
 30
0.0
 40
77.0
100
AcDbArc
 50
95.379379
 51
145.339581
  0
ARC
  5
446
100
AcDbEntity
  8
0
370
    -3
390
0
  6
Continuous
100
AcDbCircle
 10
-591.318668
 20
-125.715635
 30
0.0
 40
3.0
100
AcDbArc
 50
275.379379
 51
0.0
  0
ARC
  5
447
100
AcDbEntity
  8
0
370
    -3
390
0
  6
Continuous
100
AcDbCircle
 10
-583.818668
 20
-205.363297
 30
0.0
 40
87.0
100
AcDbArc
 50
95.122516
 51
145.561961
  0
LINE
  5
448
100
AcDbEntity
  8
0
370
    -3
390
0
  6
Continuous
100
AcDbLine
 10
-588.318668
 20
-121.698788
 30
0.0
 11
-588.318668
 21
-125.715635
 31
0.0
  0
ARC
  5
449
100
AcDbEntity
  8
0
370
    -3
390
0
  6
Continuous
100
AcDbCircle
 10
-591.318668
 20
-121.698788
 30
0.0
 40
3.0
100
AcDbArc
 50
0.0
 51
95.122516
  0
ARC
  5
44A
100
AcDbEntity
  8
0
370
    -3
390
0
  6
Continuous
100
AcDbCircle
 10
-583.818668
 20
-205.363297
 30
0.0
 40
100.0
100
AcDbArc
 50
33.842287
 51
85.565488
  0
ARC
  5
44B
100
AcDbEntity
  8
0
370
    -3
390
0
  6
Continuous
100
AcDbCircle
 10
-576.318668
 20
-108.65368
 30
0.0
 40
3.0
100
AcDbArc
 50
85.565488
 51
180.0
  0
ARC
  5
44C
100
AcDbEntity
  8
0
370
    -3
390
0
  6
Continuous
100
AcDbCircle
 10
-503.253022
 20
-151.343146
 30
0.0
 40
3.0
100
AcDbArc
 50
300.0
 51
33.842287
  0
LINE
  5
44D
100
AcDbEntity
  8
0
370
    -3
390
0
  6
Continuous
100
AcDbLine
 10
-501.753022
 20
-153.941222
 30
0.0
 11
-502.621019
 21
-154.44236
 31
0.0
  0
ARC
  5
44E
100
AcDbEntity
  8
0
370
    -3
390
0
  6
Continuous
100
AcDbCircle
 10
-504.121019
 20
-151.844284
 30
0.0
 40
3.0
100
AcDbArc
 50
213.882372
 51
300.0
  0
LINE
  5
44F
100
AcDbEntity
  8
0
370
    -3
390
0
  6
Continuous
100
AcDbLine
 10
-579.318668
 20
-108.65368
 30
0.0
 11
-579.318668
 21
-109.656714
 31
0.0
  0
ARC
  5
450
100
AcDbEntity
  8
0
370
    -3
390
0
  6
Continuous
100
AcDbCircle
 10
-583.818668
 20
-205.363297
 30
0.0
 40
93.0
100
AcDbArc
 50
33.882372
 51
85.519201
  0
ARC
  5
451
100
AcDbEntity
  8
0
370
    -3
390
0
  6
Continuous
100
AcDbCircle
 10
-576.318668
 20
-109.656714
 30
0.0
 40
3.0
100
AcDbArc
 50
180.0
 51
265.519201
  0
ARC
  5
452
100
AcDbEntity
  8
0
370
    -3
390
0
  6
Continuous
100
AcDbCircle
 10
-514.540656
 20
-157.860064
 30
0.0
 40
3.0
100
AcDbArc
 50
300.0
 51
34.438039
  0
LINE
  5
453
100
AcDbEntity
  8
0
370
    -3
390
0
  6
Continuous
100
AcDbLine
 10
-513.040656
 20
-160.45814
 30
0.0
 11
-516.515699
 21
-162.464457
 31
0.0
  0
ARC
  5
454
100
AcDbEntity
  8
0
370
    -3
390
0
  6
Continuous
100
AcDbCircle
 10
-518.015699
 20
-159.866381
 30
0.0
 40
3.0
100
AcDbArc
 50
214.660419
 51
300.0
  0
ARC
  5
455
100
AcDbEntity
  8
0
370
    -3
390
0
  6
Continuous
100
AcDbCircle
 10
-527.578648
 20
-165.387552
 30
0.0
 40
3.0
100
AcDbArc
 50
300.0
 51
35.405444
  0
LINE
  5
456
100
AcDbEntity
  8
0
370
    -3
390
0
  6
Continuous
100
AcDbLine
 10
-526.078648
 20
-167.985628
 30
0.0
 11
-529.559182
 21
-169.995116
 31
0.0
  0
ARC
  5
457
100
AcDbEntity
  8
0
370
    -3
390
0
  6
Continuous
100
AcDbCircle
 10
-531.059182
 20
-167.39704
 30
0.0
 40
3.0
100
AcDbArc
 50
215.73917
 51
300.0
  0
ARC
  5
458
100
AcDbEntity
  8
0
370
    -3
390
0
  6
Continuous
100
AcDbCircle
 10
-540.643324
 20
-172.930447
 30
0.0
 40
3.0
100
AcDbArc
 50
300.0
 51
36.913478
  0
LINE
  5
459
100
AcDbEntity
  8
0
370
    -3
390
0
  6
Continuous
100
AcDbLine
 10
-539.143324
 20
-175.528523
 30
0.0
 11
-542.634852
 21
-177.544358
 31
0.0
  0
ARC
  5
45A
100
AcDbEntity
  8
0
370
    -3
390
0
  6
Continuous
100
AcDbCircle
 10
-544.134852
 20
-174.946282
 30
0.0
 40
3.0
100
AcDbArc
 50
217.469592
 51
300.0
  0
ARC
  5
45B
100
AcDbEntity
  8
0
370
    -3
390
0
  6
Continuous
100
AcDbCircle
 10
-553.766078
 20
-180.506872
 30
0.0
 40
3.0
100
AcDbArc
 50
300.0
 51
39.594068
  0
LINE
  5
45C
100
AcDbEntity
  8
0
370
    -3
390
0
  6
Continuous
100
AcDbLine
 10
-552.266078
 20
-183.104948
 30
0.0
 11
-555.785073
 21
-185.136641
 31
0.0
  0
ARC
  5
45D
100
AcDbEntity
  8
0
370
    -3
390
0
  6
Continuous
100
AcDbCircle
 10
-557.285073
 20
-182.538565
 30
0.0
 40
3.0
100
AcDbArc
 50
220.70278
 51
300.0
  0
ARC
  5
45E
100
AcDbEntity
  8
0
370
    -3
390
0
  6
Continuous
100
AcDbCircle
 10
-583.818668
 20
-205.363297
 30
0.0
 40
32.0
100
AcDbArc
 50
40.70278
 51
77.626375
  0
ARC
  5
45F
100
AcDbEntity
  8
0
370
    -3
390
0
  6
Continuous
100
AcDbCircle
 10
-576.318668
 20
-171.176311
 30
0.0
 40
3.0
100
AcDbArc
 50
180.0
 51
257.626375
  0
ARC
  5
460
100
AcDbEntity
  8
0
370
    -3
390
0
  6
Continuous
100
AcDbCircle
 10
-583.818668
 20
-205.363297
 30
0.0
 40
42.0
100
AcDbArc
 50
39.594068
 51
78.912511
  0
LINE
  5
461
100
AcDbEntity
  8
0
370
    -3
390
0
  6
Continuous
100
AcDbLine
 10
-579.318668
 20
-167.091244
 30
0.0
 11
-579.318668
 21
-171.176311
 31
0.0
  0
ARC
  5
462
100
AcDbEntity
  8
0
370
    -3
390
0
  6
Continuous
100
AcDbCircle
 10
-576.318668
 20
-167.091244
 30
0.0
 40
3.0
100
AcDbArc
 50
78.912511
 51
180.0
  0
ARC
  5
463
100
AcDbEntity
  8
0
370
    -3
390
0
  6
Continuous
100
AcDbCircle
 10
-576.318668
 20
-182.56527
 30
0.0
 40
3.0
100
AcDbArc
 50
71.790043
 51
180.0
  0
LINE
  5
464
100
AcDbEntity
  8
0
370
    -3
390
0
  6
Continuous
100
AcDbLine
 10
-579.318668
 20
-182.56527
 30
0.0
 11
-579.318668
 21
-186.8228
 31
0.0
  0
ARC
  5
465
100
AcDbEntity
  8
0
370
    -3
390
0
  6
Continuous
100
AcDbCircle
 10
-576.318668
 20
-186.8228
 30
0.0
 40
3.0
100
AcDbArc
 50
180.0
 51
247.975687
  0
ARC
  5
466
100
AcDbEntity
  8
0
370
    -3
390
0
  6
Continuous
100
AcDbCircle
 10
-583.818668
 20
-205.363297
 30
0.0
 40
17.0
100
AcDbArc
 50
48.965575
 51
67.975687
  0
ARC
  5
467
100
AcDbEntity
  8
0
370
    -3
390
0
  6
Continuous
100
AcDbCircle
 10
-570.688421
 20
-190.276991
 30
0.0
 40
3.0
100
AcDbArc
 50
228.965575
 51
300.0
  0
ARC
  5
468
100
AcDbEntity
  8
0
370
    -3
390
0
  6
Continuous
100
AcDbCircle
 10
-583.818668
 20
-205.363297
 30
0.0
 40
27.0
100
AcDbArc
 50
45.713861
 51
71.790043
  0
LINE
  5
469
100
AcDbEntity
  8
0
370
    -3
390
0
  6
Continuous
100
AcDbLine
 10
-565.560857
 20
-190.780693
 30
0.0
 11
-569.188421
 21
-192.875067
 31
0.0
  0
ARC
  5
46A
100
AcDbEntity
  8
0
370
    -3
390
0
  6
Continuous
100
AcDbCircle
 10
-567.060857
 20
-188.182616
 30
0.0
 40
3.0
100
AcDbArc
 50
300.0
 51
45.713861
  0
ARC
  5
46B
100
AcDbEntity
  8
0
370
    -3
390
0
  6
Continuous
100
AcDbCircle
 10
-583.818668
 20
-205.363297
 30
0.0
 40
47.0
100
AcDbArc
 50
37.469592
 51
81.373073
  0
ARC
  5
46C
100
AcDbEntity
  8
0
370
    -3
390
0
  6
Continuous
100
AcDbCircle
 10
-576.318668
 20
-155.928997
 30
0.0
 40
3.0
100
AcDbArc
 50
180.0
 51
261.373073
  0
ARC
  5
46D
100
AcDbEntity
  8
0
370
    -3
390
0
  6
Continuous
100
AcDbCircle
 10
-583.818668
 20
-205.363297
 30
0.0
 40
57.0
100
AcDbArc
 50
36.913478
 51
82.016444
  0
LINE
  5
46E
100
AcDbEntity
  8
0
370
    -3
390
0
  6
Continuous
100
AcDbLine
 10
-579.318668
 20
-151.886666
 30
0.0
 11
-579.318668
 21
-155.928997
 31
0.0
  0
ARC
  5
46F
100
AcDbEntity
  8
0
370
    -3
390
0
  6
Continuous
100
AcDbCircle
 10
-576.318668
 20
-151.886666
 30
0.0
 40
3.0
100
AcDbArc
 50
82.016444
 51
180.0
  0
ARC
  5
470
100
AcDbEntity
  8
0
370
    -3
390
0
  6
Continuous
100
AcDbCircle
 10
-583.818668
 20
-205.363297
 30
0.0
 40
62.0
100
AcDbArc
 50
35.73917
 51
83.37419
  0
ARC
  5
471
100
AcDbEntity
  8
0
370
    -3
390
0
  6
Continuous
100
AcDbCircle
 10
-576.318668
 20
-140.797439
 30
0.0
 40
3.0
100
AcDbArc
 50
180.0
 51
263.37419
  0
ARC
  5
472
100
AcDbEntity
  8
0
370
    -3
390
0
  6
Continuous
100
AcDbCircle
 10
-583.818668
 20
-205.363297
 30
0.0
 40
72.0
100
AcDbArc
 50
35.405444
 51
83.759869
  0
LINE
  5
473
100
AcDbEntity
  8
0
370
    -3
390
0
  6
Continuous
100
AcDbLine
 10
-579.318668
 20
-136.772116
 30
0.0
 11
-579.318668
 21
-140.797439
 31
0.0
  0
ARC
  5
474
100
AcDbEntity
  8
0
370
    -3
390
0
  6
Continuous
100
AcDbCircle
 10
-576.318668
 20
-136.772116
 30
0.0
 40
3.0
100
AcDbArc
 50
83.759869
 51
180.0
  0
ARC
  5
475
100
AcDbEntity
  8
0
370
    -3
390
0
  6
Continuous
100
AcDbCircle
 10
-583.818668
 20
-205.363297
 30
0.0
 40
77.0
100
AcDbArc
 50
34.660419
 51
84.620621
  0
ARC
  5
476
100
AcDbEntity
  8
0
370
    -3
390
0
  6
Continuous
100
AcDbCircle
 10
-576.318668
 20
-125.715635
 30
0.0
 40
3.0
100
AcDbArc
 50
180.0
 51
264.620621
  0
ARC
  5
477
100
AcDbEntity
  8
0
370
    -3
390
0
  6
Continuous
100
AcDbCircle
 10
-583.818668
 20
-205.363297
 30
0.0
 40
87.0
100
AcDbArc
 50
34.438039
 51
84.877484
  0
LINE
  5
478
100
AcDbEntity
  8
0
370
    -3
390
0
  6
Continuous
100
AcDbLine
 10
-579.318668
 20
-121.698788
 30
0.0
 11
-579.318668
 21
-125.715635
 31
0.0
  0
ARC
  5
479
100
AcDbEntity
  8
0
370
    -3
390
0
  6
Continuous
100
AcDbCircle
 10
-576.318668
 20
-121.698788
 30
0.0
 40
3.0
100
AcDbArc
 50
84.877484
 51
180.0
  0
ARC
  5
47A
100
AcDbEntity
  8
0
370
    -3
390
0
  6
Continuous
100
AcDbCircle
 10
-583.818668
 20
-205.363297
 30
0.0
 40
100.0
100
AcDbArc
 50
334.434512
 51
26.157713
  0
ARC
  5
47B
100
AcDbEntity
  8
0
370
    -3
390
0
  6
Continuous
100
AcDbCircle
 10
-496.315683
 20
-247.222914
 30
0.0
 40
3.0
100
AcDbArc
 50
240.0
 51
334.434512
  0
ARC
  5
47C
100
AcDbEntity
  8
0
370
    -3
390
0
  6
Continuous
100
AcDbCircle
 10
-496.753022
 20
-162.601476
 30
0.0
 40
3.0
100
AcDbArc
 50
26.157713
 51
120.0
  0
LINE
  5
47D
100
AcDbEntity
  8
0
370
    -3
390
0
  6
Continuous
100
AcDbLine
 10
-498.253022
 20
-160.0034
 30
0.0
 11
-499.121019
 21
-160.504538
 31
0.0
  0
ARC
  5
47E
100
AcDbEntity
  8
0
370
    -3
390
0
  6
Continuous
100
AcDbCircle
 10
-497.621019
 20
-163.102614
 30
0.0
 40
3.0
100
AcDbArc
 50
120.0
 51
206.117628
  0
LINE
  5
47F
100
AcDbEntity
  8
0
370
    -3
390
0
  6
Continuous
100
AcDbLine
 10
-497.815683
 20
-249.820991
 30
0.0
 11
-498.684336
 21
-249.319474
 31
0.0
  0
ARC
  5
480
100
AcDbEntity
  8
0
370
    -3
390
0
  6
Continuous
100
AcDbCircle
 10
-583.818668
 20
-205.363297
 30
0.0
 40
93.0
100
AcDbArc
 50
334.480799
 51
26.117628
  0
ARC
  5
481
100
AcDbEntity
  8
0
370
    -3
390
0
  6
Continuous
100
AcDbCircle
 10
-497.184336
 20
-246.721397
 30
0.0
 40
3.0
100
AcDbArc
 50
154.480799
 51
240.0
  0
ARC
  5
482
100
AcDbEntity
  8
0
370
    -3
390
0
  6
Continuous
100
AcDbCircle
 10
-508.040656
 20
-169.118394
 30
0.0
 40
3.0
100
AcDbArc
 50
25.561961
 51
120.0
  0
LINE
  5
483
100
AcDbEntity
  8
0
370
    -3
390
0
  6
Continuous
100
AcDbLine
 10
-509.540656
 20
-166.520318
 30
0.0
 11
-513.015699
 21
-168.526635
 31
0.0
  0
ARC
  5
484
100
AcDbEntity
  8
0
370
    -3
390
0
  6
Continuous
100
AcDbCircle
 10
-511.515699
 20
-171.124712
 30
0.0
 40
3.0
100
AcDbArc
 50
120.0
 51
205.339581
  0
ARC
  5
485
100
AcDbEntity
  8
0
370
    -3
390
0
  6
Continuous
100
AcDbCircle
 10
-521.078648
 20
-176.645882
 30
0.0
 40
3.0
100
AcDbArc
 50
24.594556
 51
120.0
  0
LINE
  5
486
100
AcDbEntity
  8
0
370
    -3
390
0
  6
Continuous
100
AcDbLine
 10
-522.578648
 20
-174.047806
 30
0.0
 11
-526.059182
 21
-176.057294
 31
0.0
  0
ARC
  5
487
100
AcDbEntity
  8
0
370
    -3
390
0
  6
Continuous
100
AcDbCircle
 10
-524.559182
 20
-178.65537
 30
0.0
 40
3.0
100
AcDbArc
 50
120.0
 51
204.26083
  0
ARC
  5
488
100
AcDbEntity
  8
0
370
    -3
390
0
  6
Continuous
100
AcDbCircle
 10
-534.143324
 20
-184.188777
 30
0.0
 40
3.0
100
AcDbArc
 50
23.086522
 51
120.0
  0
LINE
  5
489
100
AcDbEntity
  8
0
370
    -3
390
0
  6
Continuous
100
AcDbLine
 10
-535.643324
 20
-181.590701
 30
0.0
 11
-539.134852
 21
-183.606536
 31
0.0
  0
ARC
  5
48A
100
AcDbEntity
  8
0
370
    -3
390
0
  6
Continuous
100
AcDbCircle
 10
-537.634852
 20
-186.204612
 30
0.0
 40
3.0
100
AcDbArc
 50
120.0
 51
202.530408
  0
ARC
  5
48B
100
AcDbEntity
  8
0
370
    -3
390
0
  6
Continuous
100
AcDbCircle
 10
-547.266078
 20
-191.765202
 30
0.0
 40
3.0
100
AcDbArc
 50
20.405932
 51
120.0
  0
LINE
  5
48C
100
AcDbEntity
  8
0
370
    -3
390
0
  6
Continuous
100
AcDbLine
 10
-548.766078
 20
-189.167126
 30
0.0
 11
-552.285073
 21
-191.198819
 31
0.0
  0
ARC
  5
48D
100
AcDbEntity
  8
0
370
    -3
390
0
  6
Continuous
100
AcDbCircle
 10
-550.785073
 20
-193.796895
 30
0.0
 40
3.0
100
AcDbArc
 50
120.0
 51
199.29722
  0
ARC
  5
48E
100
AcDbEntity
  8
0
370
    -3
390
0
  6
Continuous
100
AcDbCircle
 10
-583.818668
 20
-205.363297
 30
0.0
 40
32.0
100
AcDbArc
 50
342.373625
 51
19.29722
  0
ARC
  5
48F
100
AcDbEntity
  8
0
370
    -3
390
0
  6
Continuous
100
AcDbCircle
 10
-550.46187
 20
-215.961599
 30
0.0
 40
3.0
100
AcDbArc
 50
162.373625
 51
240.0
  0
ARC
  5
490
100
AcDbEntity
  8
0
370
    -3
390
0
  6
Continuous
100
AcDbCircle
 10
-583.818668
 20
-205.363297
 30
0.0
 40
42.0
100
AcDbArc
 50
341.087489
 51
20.405932
  0
LINE
  5
491
100
AcDbEntity
  8
0
370
    -3
390
0
  6
Continuous
100
AcDbLine
 10
-548.424098
 20
-220.602208
 30
0.0
 11
-551.96187
 21
-218.559675
 31
0.0
  0
ARC
  5
492
100
AcDbEntity
  8
0
370
    -3
390
0
  6
Continuous
100
AcDbCircle
 10
-546.924098
 20
-218.004132
 30
0.0
 40
3.0
100
AcDbArc
 50
240.0
 51
341.087489
  0
ARC
  5
493
100
AcDbEntity
  8
0
370
    -3
390
0
  6
Continuous
100
AcDbCircle
 10
-560.324998
 20
-210.267119
 30
0.0
 40
3.0
100
AcDbArc
 50
240.0
 51
348.209957
  0
LINE
  5
494
100
AcDbEntity
  8
0
370
    -3
390
0
  6
Continuous
100
AcDbLine
 10
-561.824998
 20
-212.865195
 30
0.0
 11
-565.512127
 21
-210.73643
 31
0.0
  0
ARC
  5
495
100
AcDbEntity
  8
0
370
    -3
390
0
  6
Continuous
100
AcDbCircle
 10
-564.012127
 20
-208.138354
 30
0.0
 40
3.0
100
AcDbArc
 50
172.024313
 51
240.0
  0
ARC
  5
496
100
AcDbEntity
  8
0
370
    -3
390
0
  6
Continuous
100
AcDbCircle
 10
-583.818668
 20
-205.363297
 30
0.0
 40
17.0
100
AcDbArc
 50
352.024313
 51
11.034425
  0
ARC
  5
497
100
AcDbEntity
  8
0
370
    -3
390
0
  6
Continuous
100
AcDbCircle
 10
-564.188421
 20
-201.535321
 30
0.0
 40
3.0
100
AcDbArc
 50
120.0
 51
191.034425
  0
ARC
  5
498
100
AcDbEntity
  8
0
370
    -3
390
0
  6
Continuous
100
AcDbCircle
 10
-583.818668
 20
-205.363297
 30
0.0
 40
27.0
100
AcDbArc
 50
348.209957
 51
14.286139
  0
LINE
  5
499
100
AcDbEntity
  8
0
370
    -3
390
0
  6
Continuous
100
AcDbLine
 10
-562.060857
 20
-196.84287
 30
0.0
 11
-565.688421
 21
-198.937245
 31
0.0
  0
ARC
  5
49A
100
AcDbEntity
  8
0
370
    -3
390
0
  6
Continuous
100
AcDbCircle
 10
-560.560857
 20
-199.440947
 30
0.0
 40
3.0
100
AcDbArc
 50
14.286139
 51
120.0
  0
ARC
  5
49B
100
AcDbEntity
  8
0
370
    -3
390
0
  6
Continuous
100
AcDbCircle
 10
-583.818668
 20
-205.363297
 30
0.0
 40
47.0
100
AcDbArc
 50
338.626927
 51
22.530408
  0
ARC
  5
49C
100
AcDbEntity
  8
0
370
    -3
390
0
  6
Continuous
100
AcDbCircle
 10
-537.257308
 20
-223.585256
 30
0.0
 40
3.0
100
AcDbArc
 50
158.626927
 51
240.0
  0
ARC
  5
49D
100
AcDbEntity
  8
0
370
    -3
390
0
  6
Continuous
100
AcDbCircle
 10
-583.818668
 20
-205.363297
 30
0.0
 40
57.0
100
AcDbArc
 50
337.983556
 51
23.086522
  0
LINE
  5
49E
100
AcDbEntity
  8
0
370
    -3
390
0
  6
Continuous
100
AcDbLine
 10
-535.256547
 20
-228.204497
 30
0.0
 11
-538.757308
 21
-226.183332
 31
0.0
  0
ARC
  5
49F
100
AcDbEntity
  8
0
370
    -3
390
0
  6
Continuous
100
AcDbCircle
 10
-533.756547
 20
-225.606421
 30
0.0
 40
3.0
100
AcDbArc
 50
240.0
 51
337.983556
  0
ARC
  5
4A0
100
AcDbEntity
  8
0
370
    -3
390
0
  6
Continuous
100
AcDbCircle
 10
-583.818668
 20
-205.363297
 30
0.0
 40
62.0
100
AcDbArc
 50
336.62581
 51
24.26083
  0
ARC
  5
4A1
100
AcDbEntity
  8
0
370
    -3
390
0
  6
Continuous
100
AcDbCircle
 10
-524.152995
 20
-231.151035
 30
0.0
 40
3.0
100
AcDbArc
 50
156.62581
 51
240.0
  0
ARC
  5
4A2
100
AcDbEntity
  8
0
370
    -3
390
0
  6
Continuous
100
AcDbCircle
 10
-583.818668
 20
-205.363297
 30
0.0
 40
72.0
100
AcDbArc
 50
336.240131
 51
24.594556
  0
LINE
  5
4A3
100
AcDbEntity
  8
0
370
    -3
390
0
  6
Continuous
100
AcDbLine
 10
-522.166963
 20
-235.761772
 30
0.0
 11
-525.652995
 21
-233.749111
 31
0.0
  0
ARC
  5
4A4
100
AcDbEntity
  8
0
370
    -3
390
0
  6
Continuous
100
AcDbCircle
 10
-520.666963
 20
-233.163696
 30
0.0
 40
3.0
100
AcDbArc
 50
240.0
 51
336.240131
  0
ARC
  5
4A5
100
AcDbEntity
  8
0
370
    -3
390
0
  6
Continuous
100
AcDbCircle
 10
-583.818668
 20
-205.363297
 30
0.0
 40
77.0
100
AcDbArc
 50
335.379379
 51
25.339581
  0
ARC
  5
4A6
100
AcDbEntity
  8
0
370
    -3
390
0
  6
Continuous
100
AcDbCircle
 10
-511.091769
 20
-238.691937
 30
0.0
 40
3.0
100
AcDbArc
 50
155.379379
 51
240.0
  0
ARC
  5
4A7
100
AcDbEntity
  8
0
370
    -3
390
0
  6
Continuous
100
AcDbCircle
 10
-583.818668
 20
-205.363297
 30
0.0
 40
87.0
100
AcDbArc
 50
335.122516
 51
25.561961
  0
LINE
  5
4A8
100
AcDbEntity
  8
0
370
    -3
390
0
  6
Continuous
100
AcDbLine
 10
-509.113078
 20
-243.298436
 30
0.0
 11
-512.591769
 21
-241.290013
 31
0.0
  0
ARC
  5
4A9
100
AcDbEntity
  8
0
370
    -3
390
0
  6
Continuous
100
AcDbCircle
 10
-507.613078
 20
-240.70036
 30
0.0
 40
3.0
100
AcDbArc
 50
240.0
 51
335.122516
  0
ARC
  5
4AA
100
AcDbEntity
  8
0
370
    -3
390
0
  6
Continuous
100
AcDbCircle
 10
-583.818668
 20
-205.363297
 30
0.0
 40
100.0
100
AcDbArc
 50
273.842287
 51
325.565488
  0
ARC
  5
4AB
100
AcDbEntity
  8
0
370
    -3
390
0
  6
Continuous
100
AcDbCircle
 10
-503.815683
 20
-260.213295
 30
0.0
 40
3.0
100
AcDbArc
 50
325.565488
 51
60.0
  0
ARC
  5
4AC
100
AcDbEntity
  8
0
370
    -3
390
0
  6
Continuous
100
AcDbCircle
 10
-577.318668
 20
-302.145268
 30
0.0
 40
3.0
100
AcDbArc
 50
180.0
 51
273.842287
  0
LINE
  5
4AD
100
AcDbEntity
  8
0
370
    -3
390
0
  6
Continuous
100
AcDbLine
 10
-580.318668
 20
-302.145268
 30
0.0
 11
-580.318668
 21
-301.142992
 31
0.0
  0
ARC
  5
4AE
100
AcDbEntity
  8
0
370
    -3
390
0
  6
Continuous
100
AcDbCircle
 10
-577.318668
 20
-301.142992
 30
0.0
 40
3.0
100
AcDbArc
 50
93.882372
 51
180.0
  0
LINE
  5
4AF
100
AcDbEntity
  8
0
370
    -3
390
0
  6
Continuous
100
AcDbLine
 10
-502.315683
 20
-257.615219
 30
0.0
 11
-503.184336
 21
-257.113702
 31
0.0
  0
ARC
  5
4B0
100
AcDbEntity
  8
0
370
    -3
390
0
  6
Continuous
100
AcDbCircle
 10
-583.818668
 20
-205.363297
 30
0.0
 40
93.0
100
AcDbArc
 50
273.882372
 51
325.519201
  0
ARC
  5
4B1
100
AcDbEntity
  8
0
370
    -3
390
0
  6
Continuous
100
AcDbCircle
 10
-504.684336
 20
-259.711778
 30
0.0
 40
3.0
100
AcDbArc
 50
60.0
 51
145.519201
  0
ARC
  5
4B2
100
AcDbEntity
  8
0
370
    -3
390
0
  6
Continuous
100
AcDbCircle
 10
-577.318668
 20
-289.111431
 30
0.0
 40
3.0
100
AcDbArc
 50
180.0
 51
274.438039
  0
LINE
  5
4B3
100
AcDbEntity
  8
0
370
    -3
390
0
  6
Continuous
100
AcDbLine
 10
-580.318668
 20
-289.111431
 30
0.0
 11
-580.318668
 21
-285.098797
 31
0.0
  0
ARC
  5
4B4
100
AcDbEntity
  8
0
370
    -3
390
0
  6
Continuous
100
AcDbCircle
 10
-577.318668
 20
-285.098797
 30
0.0
 40
3.0
100
AcDbArc
 50
94.660419
 51
180.0
  0
ARC
  5
4B5
100
AcDbEntity
  8
0
370
    -3
390
0
  6
Continuous
100
AcDbCircle
 10
-577.318668
 20
-274.056455
 30
0.0
 40
3.0
100
AcDbArc
 50
180.0
 51
275.405444
  0
LINE
  5
4B6
100
AcDbEntity
  8
0
370
    -3
390
0
  6
Continuous
100
AcDbLine
 10
-580.318668
 20
-274.056455
 30
0.0
 11
-580.318668
 21
-270.03748
 31
0.0
  0
ARC
  5
4B7
100
AcDbEntity
  8
0
370
    -3
390
0
  6
Continuous
100
AcDbCircle
 10
-577.318668
 20
-270.03748
 30
0.0
 40
3.0
100
AcDbArc
 50
95.73917
 51
180.0
  0
ARC
  5
4B8
100
AcDbEntity
  8
0
370
    -3
390
0
  6
Continuous
100
AcDbCircle
 10
-577.318668
 20
-258.970665
 30
0.0
 40
3.0
100
AcDbArc
 50
180.0
 51
276.913478
  0
LINE
  5
4B9
100
AcDbEntity
  8
0
370
    -3
390
0
  6
Continuous
100
AcDbLine
 10
-580.318668
 20
-258.970665
 30
0.0
 11
-580.318668
 21
-254.938996
 31
0.0
  0
ARC
  5
4BA
100
AcDbEntity
  8
0
370
    -3
390
0
  6
Continuous
100
AcDbCircle
 10
-577.318668
 20
-254.938996
 30
0.0
 40
3.0
100
AcDbArc
 50
97.469592
 51
180.0
  0
ARC
  5
4BB
100
AcDbEntity
  8
0
370
    -3
390
0
  6
Continuous
100
AcDbCircle
 10
-577.318668
 20
-243.817815
 30
0.0
 40
3.0
100
AcDbArc
 50
180.0
 51
279.594068
  0
LINE
  5
4BC
100
AcDbEntity
  8
0
370
    -3
390
0
  6
Continuous
100
AcDbLine
 10
-580.318668
 20
-243.817815
 30
0.0
 11
-580.318668
 21
-239.754429
 31
0.0
  0
ARC
  5
4BD
100
AcDbEntity
  8
0
370
    -3
390
0
  6
Continuous
100
AcDbCircle
 10
-577.318668
 20
-239.754429
 30
0.0
 40
3.0
100
AcDbArc
 50
100.70278
 51
180.0
  0
ARC
  5
4BE
100
AcDbEntity
  8
0
370
    -3
390
0
  6
Continuous
100
AcDbCircle
 10
-583.818668
 20
-205.363297
 30
0.0
 40
32.0
100
AcDbArc
 50
280.70278
 51
317.626375
  0
ARC
  5
4BF
100
AcDbEntity
  8
0
370
    -3
390
0
  6
Continuous
100
AcDbCircle
 10
-557.96187
 20
-228.95198
 30
0.0
 40
3.0
100
AcDbArc
 50
60.0
 51
137.626375
  0
ARC
  5
4C0
100
AcDbEntity
  8
0
370
    -3
390
0
  6
Continuous
100
AcDbCircle
 10
-583.818668
 20
-205.363297
 30
0.0
 40
42.0
100
AcDbArc
 50
279.594068
 51
318.912511
  0
LINE
  5
4C1
100
AcDbEntity
  8
0
370
    -3
390
0
  6
Continuous
100
AcDbLine
 10
-552.924098
 20
-228.396437
 30
0.0
 11
-556.46187
 21
-226.353904
 31
0.0
  0
ARC
  5
4C2
100
AcDbEntity
  8
0
370
    -3
390
0
  6
Continuous
100
AcDbCircle
 10
-554.424098
 20
-230.994513
 30
0.0
 40
3.0
100
AcDbArc
 50
318.912511
 51
60.0
  0
ARC
  5
4C3
100
AcDbEntity
  8
0
370
    -3
390
0
  6
Continuous
100
AcDbCircle
 10
-567.824998
 20
-223.2575
 30
0.0
 40
3.0
100
AcDbArc
 50
311.790043
 51
60.0
  0
LINE
  5
4C4
100
AcDbEntity
  8
0
370
    -3
390
0
  6
Continuous
100
AcDbLine
 10
-566.324998
 20
-220.659424
 30
0.0
 11
-570.012127
 21
-218.530659
 31
0.0
  0
ARC
  5
4C5
100
AcDbEntity
  8
0
370
    -3
390
0
  6
Continuous
100
AcDbCircle
 10
-571.512127
 20
-221.128735
 30
0.0
 40
3.0
100
AcDbArc
 50
60.0
 51
127.975687
  0
ARC
  5
4C6
100
AcDbEntity
  8
0
370
    -3
390
0
  6
Continuous
100
AcDbCircle
 10
-583.818668
 20
-205.363297
 30
0.0
 40
17.0
100
AcDbArc
 50
288.965575
 51
307.975687
  0
ARC
  5
4C7
100
AcDbEntity
  8
0
370
    -3
390
0
  6
Continuous
100
AcDbCircle
 10
-577.318668
 20
-224.277577
 30
0.0
 40
3.0
100
AcDbArc
 50
108.965575
 51
180.0
  0
ARC
  5
4C8
100
AcDbEntity
  8
0
370
    -3
390
0
  6
Continuous
100
AcDbCircle
 10
-583.818668
 20
-205.363297
 30
0.0
 40
27.0
100
AcDbArc
 50
285.713861
 51
311.790043
  0
LINE
  5
4C9
100
AcDbEntity
  8
0
370
    -3
390
0
  6
Continuous
100
AcDbLine
 10
-580.318668
 20
-228.466327
 30
0.0
 11
-580.318668
 21
-224.277577
 31
0.0
  0
ARC
  5
4CA
100
AcDbEntity
  8
0
370
    -3
390
0
  6
Continuous
100
AcDbCircle
 10
-577.318668
 20
-228.466327
 30
0.0
 40
3.0
100
AcDbArc
 50
180.0
 51
285.713861
  0
ARC
  5
4CB
100
AcDbEntity
  8
0
370
    -3
390
0
  6
Continuous
100
AcDbCircle
 10
-583.818668
 20
-205.363297
 30
0.0
 40
47.0
100
AcDbArc
 50
277.469592
 51
321.373073
  0
ARC
  5
4CC
100
AcDbEntity
  8
0
370
    -3
390
0
  6
Continuous
100
AcDbCircle
 10
-544.757308
 20
-236.575637
 30
0.0
 40
3.0
100
AcDbArc
 50
60.0
 51
141.373073
  0
ARC
  5
4CD
100
AcDbEntity
  8
0
370
    -3
390
0
  6
Continuous
100
AcDbCircle
 10
-583.818668
 20
-205.363297
 30
0.0
 40
57.0
100
AcDbArc
 50
276.913478
 51
322.016444
  0
LINE
  5
4CE
100
AcDbEntity
  8
0
370
    -3
390
0
  6
Continuous
100
AcDbLine
 10
-539.756547
 20
-235.998726
 30
0.0
 11
-543.257308
 21
-233.977561
 31
0.0
  0
ARC
  5
4CF
100
AcDbEntity
  8
0
370
    -3
390
0
  6
Continuous
100
AcDbCircle
 10
-541.256547
 20
-238.596802
 30
0.0
 40
3.0
100
AcDbArc
 50
322.016444
 51
60.0
  0
ARC
  5
4D0
100
AcDbEntity
  8
0
370
    -3
390
0
  6
Continuous
100
AcDbCircle
 10
-583.818668
 20
-205.363297
 30
0.0
 40
62.0
100
AcDbArc
 50
275.73917
 51
323.37419
  0
ARC
  5
4D1
100
AcDbEntity
  8
0
370
    -3
390
0
  6
Continuous
100
AcDbCircle
 10
-531.652995
 20
-244.141416
 30
0.0
 40
3.0
100
AcDbArc
 50
60.0
 51
143.37419
  0
ARC
  5
4D2
100
AcDbEntity
  8
0
370
    -3
390
0
  6
Continuous
100
AcDbCircle
 10
-583.818668
 20
-205.363297
 30
0.0
 40
72.0
100
AcDbArc
 50
275.405444
 51
323.759869
  0
LINE
  5
4D3
100
AcDbEntity
  8
0
370
    -3
390
0
  6
Continuous
100
AcDbLine
 10
-526.666963
 20
-243.556001
 30
0.0
 11
-530.152995
 21
-241.54334
 31
0.0
  0
ARC
  5
4D4
100
AcDbEntity
  8
0
370
    -3
390
0
  6
Continuous
100
AcDbCircle
 10
-528.166963
 20
-246.154077
 30
0.0
 40
3.0
100
AcDbArc
 50
323.759869
 51
60.0
  0
ARC
  5
4D5
100
AcDbEntity
  8
0
370
    -3
390
0
  6
Continuous
100
AcDbCircle
 10
-583.818668
 20
-205.363297
 30
0.0
 40
77.0
100
AcDbArc
 50
274.660419
 51
324.620621
  0
ARC
  5
4D6
100
AcDbEntity
  8
0
370
    -3
390
0
  6
Continuous
100
AcDbCircle
 10
-518.591769
 20
-251.682318
 30
0.0
 40
3.0
100
AcDbArc
 50
60.0
 51
144.620621
  0
ARC
  5
4D7
100
AcDbEntity
  8
0
370
    -3
390
0
  6
Continuous
100
AcDbCircle
 10
-583.818668
 20
-205.363297
 30
0.0
 40
87.0
100
AcDbArc
 50
274.438039
 51
324.877484
  0
LINE
  5
4D8
100
AcDbEntity
  8
0
370
    -3
390
0
  6
Continuous
100
AcDbLine
 10
-513.613078
 20
-251.092665
 30
0.0
 11
-517.091769
 21
-249.084242
 31
0.0
  0
ARC
  5
4D9
100
AcDbEntity
  8
0
370
    -3
390
0
  6
Continuous
100
AcDbCircle
 10
-515.113078
 20
-253.690741
 30
0.0
 40
3.0
100
AcDbArc
 50
324.877484
 51
60.0
  0
ARC
  5
4DA
100
AcDbEntity
  8
0
370
    -3
390
0
  6
Continuous
100
AcDbCircle
 10
-583.818668
 20
-205.363297
 30
0.0
 40
100.0
100
AcDbArc
 50
214.434512
 51
266.157713
  0
ARC
  5
4DB
100
AcDbEntity
  8
0
370
    -3
390
0
  6
Continuous
100
AcDbCircle
 10
-663.821653
 20
-260.213295
 30
0.0
 40
3.0
100
AcDbArc
 50
120.0
 51
214.434512
  0
ARC
  5
4DC
100
AcDbEntity
  8
0
370
    -3
390
0
  6
Continuous
100
AcDbCircle
 10
-590.318668
 20
-302.145268
 30
0.0
 40
3.0
100
AcDbArc
 50
266.157713
 51
0.0
  0
LINE
  5
4DD
100
AcDbEntity
  8
0
370
    -3
390
0
  6
Continuous
100
AcDbLine
 10
-587.318668
 20
-302.145268
 30
0.0
 11
-587.318668
 21
-301.142992
 31
0.0
  0
ARC
  5
4DE
100
AcDbEntity
  8
0
370
    -3
390
0
  6
Continuous
100
AcDbCircle
 10
-590.318668
 20
-301.142992
 30
0.0
 40
3.0
100
AcDbArc
 50
0.0
 51
86.117628
  0
LINE
  5
4DF
100
AcDbEntity
  8
0
370
    -3
390
0
  6
Continuous
100
AcDbLine
 10
-665.321653
 20
-257.615219
 30
0.0
 11
-664.453
 21
-257.113702
 31
0.0
  0
ARC
  5
4E0
100
AcDbEntity
  8
0
370
    -3
390
0
  6
Continuous
100
AcDbCircle
 10
-583.818668
 20
-205.363297
 30
0.0
 40
93.0
100
AcDbArc
 50
214.480799
 51
266.117628
  0
ARC
  5
4E1
100
AcDbEntity
  8
0
370
    -3
390
0
  6
Continuous
100
AcDbCircle
 10
-662.953
 20
-259.711778
 30
0.0
 40
3.0
100
AcDbArc
 50
34.480799
 51
120.0
  0
ARC
  5
4E2
100
AcDbEntity
  8
0
370
    -3
390
0
  6
Continuous
100
AcDbCircle
 10
-590.318668
 20
-289.111431
 30
0.0
 40
3.0
100
AcDbArc
 50
265.561961
 51
0.0
  0
LINE
  5
4E3
100
AcDbEntity
  8
0
370
    -3
390
0
  6
Continuous
100
AcDbLine
 10
-587.318668
 20
-289.111431
 30
0.0
 11
-587.318668
 21
-285.098797
 31
0.0
  0
ARC
  5
4E4
100
AcDbEntity
  8
0
370
    -3
390
0
  6
Continuous
100
AcDbCircle
 10
-590.318668
 20
-285.098797
 30
0.0
 40
3.0
100
AcDbArc
 50
0.0
 51
85.339581
  0
ARC
  5
4E5
100
AcDbEntity
  8
0
370
    -3
390
0
  6
Continuous
100
AcDbCircle
 10
-590.318668
 20
-274.056455
 30
0.0
 40
3.0
100
AcDbArc
 50
264.594556
 51
0.0
  0
LINE
  5
4E6
100
AcDbEntity
  8
0
370
    -3
390
0
  6
Continuous
100
AcDbLine
 10
-587.318668
 20
-274.056455
 30
0.0
 11
-587.318668
 21
-270.03748
 31
0.0
  0
ARC
  5
4E7
100
AcDbEntity
  8
0
370
    -3
390
0
  6
Continuous
100
AcDbCircle
 10
-590.318668
 20
-270.03748
 30
0.0
 40
3.0
100
AcDbArc
 50
0.0
 51
84.26083
  0
ARC
  5
4E8
100
AcDbEntity
  8
0
370
    -3
390
0
  6
Continuous
100
AcDbCircle
 10
-590.318668
 20
-258.970665
 30
0.0
 40
3.0
100
AcDbArc
 50
263.086522
 51
0.0
  0
LINE
  5
4E9
100
AcDbEntity
  8
0
370
    -3
390
0
  6
Continuous
100
AcDbLine
 10
-587.318668
 20
-258.970665
 30
0.0
 11
-587.318668
 21
-254.938996
 31
0.0
  0
ARC
  5
4EA
100
AcDbEntity
  8
0
370
    -3
390
0
  6
Continuous
100
AcDbCircle
 10
-590.318668
 20
-254.938996
 30
0.0
 40
3.0
100
AcDbArc
 50
360.0
 51
82.530408
  0
ARC
  5
4EB
100
AcDbEntity
  8
0
370
    -3
390
0
  6
Continuous
100
AcDbCircle
 10
-590.318668
 20
-243.817815
 30
0.0
 40
3.0
100
AcDbArc
 50
260.405932
 51
0.0
  0
LINE
  5
4EC
100
AcDbEntity
  8
0
370
    -3
390
0
  6
Continuous
100
AcDbLine
 10
-587.318668
 20
-243.817815
 30
0.0
 11
-587.318668
 21
-239.754429
 31
0.0
  0
ARC
  5
4ED
100
AcDbEntity
  8
0
370
    -3
390
0
  6
Continuous
100
AcDbCircle
 10
-590.318668
 20
-239.754429
 30
0.0
 40
3.0
100
AcDbArc
 50
0.0
 51
79.29722
  0
ARC
  5
4EE
100
AcDbEntity
  8
0
370
    -3
390
0
  6
Continuous
100
AcDbCircle
 10
-583.818668
 20
-205.363297
 30
0.0
 40
32.0
100
AcDbArc
 50
222.373625
 51
259.29722
  0
ARC
  5
4EF
100
AcDbEntity
  8
0
370
    -3
390
0
  6
Continuous
100
AcDbCircle
 10
-609.675466
 20
-228.95198
 30
0.0
 40
3.0
100
AcDbArc
 50
42.373625
 51
120.0
  0
ARC
  5
4F0
100
AcDbEntity
  8
0
370
    -3
390
0
  6
Continuous
100
AcDbCircle
 10
-583.818668
 20
-205.363297
 30
0.0
 40
42.0
100
AcDbArc
 50
221.087489
 51
260.405932
  0
LINE
  5
4F1
100
AcDbEntity
  8
0
370
    -3
390
0
  6
Continuous
100
AcDbLine
 10
-614.713237
 20
-228.396437
 30
0.0
 11
-611.175466
 21
-226.353904
 31
0.0
  0
ARC
  5
4F2
100
AcDbEntity
  8
0
370
    -3
390
0
  6
Continuous
100
AcDbCircle
 10
-613.213237
 20
-230.994513
 30
0.0
 40
3.0
100
AcDbArc
 50
120.0
 51
221.087489
  0
ARC
  5
4F3
100
AcDbEntity
  8
0
370
    -3
390
0
  6
Continuous
100
AcDbCircle
 10
-599.812338
 20
-223.2575
 30
0.0
 40
3.0
100
AcDbArc
 50
120.0
 51
228.209957
  0
LINE
  5
4F4
100
AcDbEntity
  8
0
370
    -3
390
0
  6
Continuous
100
AcDbLine
 10
-601.312338
 20
-220.659424
 30
0.0
 11
-597.625208
 21
-218.530659
 31
0.0
  0
ARC
  5
4F5
100
AcDbEntity
  8
0
370
    -3
390
0
  6
Continuous
100
AcDbCircle
 10
-596.125208
 20
-221.128735
 30
0.0
 40
3.0
100
AcDbArc
 50
52.024313
 51
120.0
  0
ARC
  5
4F6
100
AcDbEntity
  8
0
370
    -3
390
0
  6
Continuous
100
AcDbCircle
 10
-583.818668
 20
-205.363297
 30
0.0
 40
17.0
100
AcDbArc
 50
232.024313
 51
251.034425
  0
ARC
  5
4F7
100
AcDbEntity
  8
0
370
    -3
390
0
  6
Continuous
100
AcDbCircle
 10
-590.318668
 20
-224.277577
 30
0.0
 40
3.0
100
AcDbArc
 50
0.0
 51
71.034425
  0
ARC
  5
4F8
100
AcDbEntity
  8
0
370
    -3
390
0
  6
Continuous
100
AcDbCircle
 10
-583.818668
 20
-205.363297
 30
0.0
 40
27.0
100
AcDbArc
 50
228.209957
 51
254.286139
  0
LINE
  5
4F9
100
AcDbEntity
  8
0
370
    -3
390
0
  6
Continuous
100
AcDbLine
 10
-587.318668
 20
-228.466327
 30
0.0
 11
-587.318668
 21
-224.277577
 31
0.0
  0
ARC
  5
4FA
100
AcDbEntity
  8
0
370
    -3
390
0
  6
Continuous
100
AcDbCircle
 10
-590.318668
 20
-228.466327
 30
0.0
 40
3.0
100
AcDbArc
 50
254.286139
 51
0.0
  0
ARC
  5
4FB
100
AcDbEntity
  8
0
370
    -3
390
0
  6
Continuous
100
AcDbCircle
 10
-583.818668
 20
-205.363297
 30
0.0
 40
47.0
100
AcDbArc
 50
218.626927
 51
262.530408
  0
ARC
  5
4FC
100
AcDbEntity
  8
0
370
    -3
390
0
  6
Continuous
100
AcDbCircle
 10
-622.880027
 20
-236.575637
 30
0.0
 40
3.0
100
AcDbArc
 50
38.626927
 51
120.0
  0
ARC
  5
4FD
100
AcDbEntity
  8
0
370
    -3
390
0
  6
Continuous
100
AcDbCircle
 10
-583.818668
 20
-205.363297
 30
0.0
 40
57.0
100
AcDbArc
 50
217.983556
 51
263.086522
  0
LINE
  5
4FE
100
AcDbEntity
  8
0
370
    -3
390
0
  6
Continuous
100
AcDbLine
 10
-627.880788
 20
-235.998726
 30
0.0
 11
-624.380027
 21
-233.977561
 31
0.0
  0
ARC
  5
4FF
100
AcDbEntity
  8
0
370
    -3
390
0
  6
Continuous
100
AcDbCircle
 10
-626.380788
 20
-238.596802
 30
0.0
 40
3.0
100
AcDbArc
 50
120.0
 51
217.983556
  0
ARC
  5
500
100
AcDbEntity
  8
0
370
    -3
390
0
  6
Continuous
100
AcDbCircle
 10
-583.818668
 20
-205.363297
 30
0.0
 40
62.0
100
AcDbArc
 50
216.62581
 51
264.26083
  0
ARC
  5
501
100
AcDbEntity
  8
0
370
    -3
390
0
  6
Continuous
100
AcDbCircle
 10
-635.984341
 20
-244.141416
 30
0.0
 40
3.0
100
AcDbArc
 50
36.62581
 51
120.0
  0
ARC
  5
502
100
AcDbEntity
  8
0
370
    -3
390
0
  6
Continuous
100
AcDbCircle
 10
-583.818668
 20
-205.363297
 30
0.0
 40
72.0
100
AcDbArc
 50
216.240131
 51
264.594556
  0
LINE
  5
503
100
AcDbEntity
  8
0
370
    -3
390
0
  6
Continuous
100
AcDbLine
 10
-640.970372
 20
-243.556001
 30
0.0
 11
-637.484341
 21
-241.54334
 31
0.0
  0
ARC
  5
504
100
AcDbEntity
  8
0
370
    -3
390
0
  6
Continuous
100
AcDbCircle
 10
-639.470372
 20
-246.154077
 30
0.0
 40
3.0
100
AcDbArc
 50
120.0
 51
216.240131
  0
ARC
  5
505
100
AcDbEntity
  8
0
370
    -3
390
0
  6
Continuous
100
AcDbCircle
 10
-583.818668
 20
-205.363297
 30
0.0
 40
77.0
100
AcDbArc
 50
215.379379
 51
265.339581
  0
ARC
  5
506
100
AcDbEntity
  8
0
370
    -3
390
0
  6
Continuous
100
AcDbCircle
 10
-649.045566
 20
-251.682318
 30
0.0
 40
3.0
100
AcDbArc
 50
35.379379
 51
120.0
  0
ARC
  5
507
100
AcDbEntity
  8
0
370
    -3
390
0
  6
Continuous
100
AcDbCircle
 10
-583.818668
 20
-205.363297
 30
0.0
 40
87.0
100
AcDbArc
 50
215.122516
 51
265.561961
  0
LINE
  5
508
100
AcDbEntity
  8
0
370
    -3
390
0
  6
Continuous
100
AcDbLine
 10
-654.024258
 20
-251.092665
 30
0.0
 11
-650.545566
 21
-249.084242
 31
0.0
  0
ARC
  5
509
100
AcDbEntity
  8
0
370
    -3
390
0
  6
Continuous
100
AcDbCircle
 10
-652.524258
 20
-253.690741
 30
0.0
 40
3.0
100
AcDbArc
 50
120.0
 51
215.122516
  0
ARC
  5
50A
100
AcDbEntity
  8
0
370
    -3
390
0
  6
Continuous
100
AcDbCircle
 10
-660.024258
 20
-240.70036
 30
0.0
 40
3.0
100
AcDbArc
 50
204.877484
 51
300.0
  0
ARC
  5
50B
100
AcDbEntity
  8
0
370
    -3
390
0
  6
Continuous
100
AcDbCircle
 10
-656.545566
 20
-238.691937
 30
0.0
 40
3.0
100
AcDbArc
 50
300.0
 51
24.620621
  0
ARC
  5
50C
100
AcDbEntity
  8
0
370
    -3
390
0
  6
Continuous
100
AcDbCircle
 10
-646.970372
 20
-233.163696
 30
0.0
 40
3.0
100
AcDbArc
 50
203.759869
 51
300.0
  0
ARC
  5
50D
100
AcDbEntity
  8
0
370
    -3
390
0
  6
Continuous
100
AcDbCircle
 10
-643.484341
 20
-231.151035
 30
0.0
 40
3.0
100
AcDbArc
 50
300.0
 51
23.37419
  0
ARC
  5
50E
100
AcDbEntity
  8
0
370
    -3
390
0
  6
Continuous
100
AcDbCircle
 10
-633.880788
 20
-225.606421
 30
0.0
 40
3.0
100
AcDbArc
 50
202.016444
 51
300.0
  0
ARC
  5
50F
100
AcDbEntity
  8
0
370
    -3
390
0
  6
Continuous
100
AcDbCircle
 10
-630.380027
 20
-223.585256
 30
0.0
 40
3.0
100
AcDbArc
 50
300.0
 51
21.373073
  0
ARC
  5
510
100
AcDbEntity
  8
0
370
    -3
390
0
  6
Continuous
100
AcDbCircle
 10
-607.076479
 20
-199.440947
 30
0.0
 40
3.0
100
AcDbArc
 50
60.0
 51
165.713861
  0
ARC
  5
511
100
AcDbEntity
  8
0
370
    -3
390
0
  6
Continuous
100
AcDbCircle
 10
-603.448915
 20
-201.535321
 30
0.0
 40
3.0
100
AcDbArc
 50
348.965575
 51
60.0
  0
ARC
  5
512
100
AcDbEntity
  8
0
370
    -3
390
0
  6
Continuous
100
AcDbCircle
 10
-603.625208
 20
-208.138354
 30
0.0
 40
3.0
100
AcDbArc
 50
300.0
 51
7.975687
  0
ARC
  5
513
100
AcDbEntity
  8
0
370
    -3
390
0
  6
Continuous
100
AcDbCircle
 10
-607.312338
 20
-210.267119
 30
0.0
 40
3.0
100
AcDbArc
 50
191.790043
 51
300.0
  0
ARC
  5
514
100
AcDbEntity
  8
0
370
    -3
390
0
  6
Continuous
100
AcDbCircle
 10
-620.713237
 20
-218.004132
 30
0.0
 40
3.0
100
AcDbArc
 50
198.912511
 51
300.0
  0
ARC
  5
515
100
AcDbEntity
  8
0
370
    -3
390
0
  6
Continuous
100
AcDbCircle
 10
-617.175466
 20
-215.961599
 30
0.0
 40
3.0
100
AcDbArc
 50
300.0
 51
17.626375
  0
ARC
  5
516
100
AcDbEntity
  8
0
370
    -3
390
0
  6
Continuous
100
AcDbCircle
 10
-616.852262
 20
-193.796895
 30
0.0
 40
3.0
100
AcDbArc
 50
340.70278
 51
60.0
  0
ARC
  5
517
100
AcDbEntity
  8
0
370
    -3
390
0
  6
Continuous
100
AcDbCircle
 10
-620.371258
 20
-191.765202
 30
0.0
 40
3.0
100
AcDbArc
 50
60.0
 51
159.594068
  0
ARC
  5
518
100
AcDbEntity
  8
0
370
    -3
390
0
  6
Continuous
100
AcDbCircle
 10
-630.002483
 20
-186.204612
 30
0.0
 40
3.0
100
AcDbArc
 50
337.469592
 51
60.0
  0
ARC
  5
519
100
AcDbEntity
  8
0
370
    -3
390
0
  6
Continuous
100
AcDbCircle
 10
-633.494011
 20
-184.188777
 30
0.0
 40
3.0
100
AcDbArc
 50
60.0
 51
156.913478
  0
ARC
  5
51A
100
AcDbEntity
  8
0
370
    -3
390
0
  6
Continuous
100
AcDbCircle
 10
-643.078154
 20
-178.65537
 30
0.0
 40
3.0
100
AcDbArc
 50
335.73917
 51
60.0
  0
ARC
  5
51B
100
AcDbEntity
  8
0
370
    -3
390
0
  6
Continuous
100
AcDbCircle
 10
-646.558688
 20
-176.645882
 30
0.0
 40
3.0
100
AcDbArc
 50
60.0
 51
155.405444
  0
ARC
  5
51C
100
AcDbEntity
  8
0
370
    -3
390
0
  6
Continuous
100
AcDbCircle
 10
-656.121637
 20
-171.124712
 30
0.0
 40
3.0
100
AcDbArc
 50
334.660419
 51
60.0
  0
ARC
  5
51D
100
AcDbEntity
  8
0
370
    -3
390
0
  6
Continuous
100
AcDbCircle
 10
-659.59668
 20
-169.118394
 30
0.0
 40
3.0
100
AcDbArc
 50
60.0
 51
154.438039
  0
ARC
  5
51E
100
AcDbEntity
  8
0
370
    -3
390
0
  6
Continuous
100
AcDbCircle
 10
-583.818668
 20
-205.363297
 30
0.0
 40
17.0
100
AcDbArc
 50
168.965575
 51
187.975687
  0
ARC
  5
51F
100
AcDbEntity
  8
0
370
    -3
390
0
  6
Continuous
100
AcDbCircle
 10
-583.818668
 20
-205.363297
 30
0.0
 40
27.0
100
AcDbArc
 50
165.713861
 51
191.790043
  0
ARC
  5
520
100
AcDbEntity
  8
0
370
    -3
390
0
  6
Continuous
100
AcDbCircle
 10
-583.818668
 20
-205.363297
 30
0.0
 40
32.0
100
AcDbArc
 50
160.70278
 51
197.626375
  0
ARC
  5
521
100
AcDbEntity
  8
0
370
    -3
390
0
  6
Continuous
100
AcDbCircle
 10
-583.818668
 20
-205.363297
 30
0.0
 40
42.0
100
AcDbArc
 50
159.594068
 51
198.912511
  0
ARC
  5
522
100
AcDbEntity
  8
0
370
    -3
390
0
  6
Continuous
100
AcDbCircle
 10
-583.818668
 20
-205.363297
 30
0.0
 40
47.0
100
AcDbArc
 50
157.469592
 51
201.373073
  0
ARC
  5
523
100
AcDbEntity
  8
0
370
    -3
390
0
  6
Continuous
100
AcDbCircle
 10
-583.818668
 20
-205.363297
 30
0.0
 40
57.0
100
AcDbArc
 50
156.913478
 51
202.016444
  0
ARC
  5
524
100
AcDbEntity
  8
0
370
    -3
390
0
  6
Continuous
100
AcDbCircle
 10
-583.818668
 20
-205.363297
 30
0.0
 40
62.0
100
AcDbArc
 50
155.73917
 51
203.37419
  0
ARC
  5
525
100
AcDbEntity
  8
0
370
    -3
390
0
  6
Continuous
100
AcDbCircle
 10
-583.818668
 20
-205.363297
 30
0.0
 40
72.0
100
AcDbArc
 50
155.405444
 51
203.759869
  0
ARC
  5
526
100
AcDbEntity
  8
0
370
    -3
390
0
  6
Continuous
100
AcDbCircle
 10
-583.818668
 20
-205.363297
 30
0.0
 40
77.0
100
AcDbArc
 50
154.660419
 51
204.620621
  0
ARC
  5
527
100
AcDbEntity
  8
0
370
    -3
390
0
  6
Continuous
100
AcDbCircle
 10
-583.818668
 20
-205.363297
 30
0.0
 40
87.0
100
AcDbArc
 50
154.438039
 51
204.877484
  0
ARC
  5
528
100
AcDbEntity
  8
0
370
    -3
390
0
  6
Continuous
100
AcDbCircle
 10
-670.453
 20
-246.721397
 30
0.0
 40
3.0
100
AcDbArc
 50
300.0
 51
25.519201
  0
ARC
  5
529
100
AcDbEntity
  8
0
370
    -3
390
0
  6
Continuous
100
AcDbCircle
 10
-670.016317
 20
-163.102614
 30
0.0
 40
3.0
100
AcDbArc
 50
333.882372
 51
60.0
  0
ARC
  5
52A
100
AcDbEntity
  8
0
370
    -3
390
0
  6
Continuous
100
AcDbCircle
 10
-583.818668
 20
-205.363297
 30
0.0
 40
93.0
100
AcDbArc
 50
153.882372
 51
205.519201
  0
ARC
  5
52B
100
AcDbEntity
  8
0
370
    -3
390
0
  6
Continuous
100
AcDbCircle
 10
-583.818668
 20
-649.363297
 30
0.0
 40
560.993
100
AcDbArc
 50
90.0
 51
93.351477
  0
ARC
  5
52C
100
AcDbEntity
  8
0
370
    -3
390
0
  6
Continuous
100
AcDbCircle
 10
-583.818668
 20
-205.363297
 30
0.0
 40
125.993
100
AcDbArc
 50
128.578295
 51
141.421705
  0
ARC
  5
52D
100
AcDbEntity
  8
0
370
    -3
390
0
  6
Continuous
100
AcDbCircle
 10
-611.879925
 20
-170.184242
 30
0.0
 40
80.993
100
AcDbArc
 50
93.351477
 51
128.578295
  0
ARC
  5
52E
100
AcDbEntity
  8
0
370
    -3
390
0
  6
Continuous
100
AcDbCircle
 10
-618.997722
 20
-177.302039
 30
0.0
 40
80.993
100
AcDbArc
 50
141.421705
 51
176.648523
  0
ARC
  5
52F
100
AcDbEntity
  8
0
370
    -3
390
0
  6
Continuous
100
AcDbCircle
 10
-139.818668
 20
-205.363297
 30
0.0
 40
560.993
100
AcDbArc
 50
176.648523
 51
180.0
  0
ARC
  5
530
100
AcDbEntity
  8
0
370
    -3
390
0
  6
Continuous
100
AcDbCircle
 10
-583.818668
 20
-649.363297
 30
0.0
 40
560.993
100
AcDbArc
 50
86.648523
 51
90.0
  0
ARC
  5
531
100
AcDbEntity
  8
0
370
    -3
390
0
  6
Continuous
100
AcDbCircle
 10
-583.818668
 20
-205.363297
 30
0.0
 40
125.993
100
AcDbArc
 50
38.578295
 51
51.421705
  0
ARC
  5
532
100
AcDbEntity
  8
0
370
    -3
390
0
  6
Continuous
100
AcDbCircle
 10
-555.757411
 20
-170.184242
 30
0.0
 40
80.993
100
AcDbArc
 50
51.421705
 51
86.648523
  0
ARC
  5
533
100
AcDbEntity
  8
0
370
    -3
390
0
  6
Continuous
100
AcDbCircle
 10
-548.639614
 20
-177.302039
 30
0.0
 40
80.993
100
AcDbArc
 50
3.351477
 51
38.578295
  0
ARC
  5
534
100
AcDbEntity
  8
0
370
    -3
390
0
  6
Continuous
100
AcDbCircle
 10
-1027.818668
 20
-205.363297
 30
0.0
 40
560.993
100
AcDbArc
 50
0.0
 51
3.351477
  0
ARC
  5
535
100
AcDbEntity
  8
0
370
    -3
390
0
  6
Continuous
100
AcDbCircle
 10
-583.818668
 20
238.636703
 30
0.0
 40
560.993
100
AcDbArc
 50
270.0
 51
273.351477
  0
ARC
  5
536
100
AcDbEntity
  8
0
370
    -3
390
0
  6
Continuous
100
AcDbCircle
 10
-583.818668
 20
-205.363297
 30
0.0
 40
125.993
100
AcDbArc
 50
308.578295
 51
321.421705
  0
ARC
  5
537
100
AcDbEntity
  8
0
370
    -3
390
0
  6
Continuous
100
AcDbCircle
 10
-555.757411
 20
-240.542351
 30
0.0
 40
80.993
100
AcDbArc
 50
273.351477
 51
308.578295
  0
ARC
  5
538
100
AcDbEntity
  8
0
370
    -3
390
0
  6
Continuous
100
AcDbCircle
 10
-548.639614
 20
-233.424554
 30
0.0
 40
80.993
100
AcDbArc
 50
321.421705
 51
356.648523
  0
ARC
  5
539
100
AcDbEntity
  8
0
370
    -3
390
0
  6
Continuous
100
AcDbCircle
 10
-1027.818668
 20
-205.363297
 30
0.0
 40
560.993
100
AcDbArc
 50
356.648523
 51
360.0
  0
ARC
  5
53A
100
AcDbEntity
  8
0
370
    -3
390
0
  6
Continuous
100
AcDbCircle
 10
-139.818668
 20
-205.363297
 30
0.0
 40
560.993
100
AcDbArc
 50
180.0
 51
183.351477
  0
ARC
  5
53B
100
AcDbEntity
  8
0
370
    -3
390
0
  6
Continuous
100
AcDbCircle
 10
-618.997722
 20
-233.424554
 30
0.0
 40
80.993
100
AcDbArc
 50
183.351477
 51
218.578295
  0
ARC
  5
53C
100
AcDbEntity
  8
0
370
    -3
390
0
  6
Continuous
100
AcDbCircle
 10
-583.818668
 20
-205.363297
 30
0.0
 40
125.993
100
AcDbArc
 50
218.578295
 51
231.421705
  0
ARC
  5
53D
100
AcDbEntity
  8
0
370
    -3
390
0
  6
Continuous
100
AcDbCircle
 10
-611.879925
 20
-240.542351
 30
0.0
 40
80.993
100
AcDbArc
 50
231.421705
 51
266.648523
  0
ARC
  5
53E
100
AcDbEntity
  8
0
370
    -3
390
0
  6
Continuous
100
AcDbCircle
 10
-583.818668
 20
238.636703
 30
0.0
 40
560.993
100
AcDbArc
 50
266.648523
 51
270.0
  0
ARC
  5
53F
100
AcDbEntity
  8
0
370
    -3
390
0
  6
Continuous
100
AcDbCircle
 10
-1027.818668
 20
-205.363297
 30
0.0
 40
581.2
100
AcDbArc
 50
0.0
 51
3.351477
  0
ARC
  5
540
100
AcDbEntity
  8
0
370
    -3
390
0
  6
Continuous
100
AcDbCircle
 10
-548.639614
 20
-177.302039
 30
0.0
 40
101.2
100
AcDbArc
 50
3.351477
 51
38.578295
  0
ARC
  5
541
100
AcDbEntity
  8
0
370
    -3
390
0
  6
Continuous
100
AcDbCircle
 10
-583.818668
 20
-205.363297
 30
0.0
 40
146.2
100
AcDbArc
 50
38.578295
 51
51.421705
  0
ARC
  5
542
100
AcDbEntity
  8
0
370
    -3
390
0
  6
Continuous
100
AcDbCircle
 10
-555.757411
 20
-170.184242
 30
0.0
 40
101.2
100
AcDbArc
 50
51.421705
 51
86.648523
  0
ARC
  5
543
100
AcDbEntity
  8
0
370
    -3
390
0
  6
Continuous
100
AcDbCircle
 10
-583.818668
 20
-649.363297
 30
0.0
 40
581.2
100
AcDbArc
 50
86.648523
 51
90.0
  0
LINE
  5
544
100
AcDbEntity
  8
0
370
    -3
390
0
  6
Continuous
100
AcDbLine
 10
-658.09668
 20
-166.520318
 30
0.0
 11
-654.621637
 21
-168.526635
 31
0.0
  0
LINE
  5
545
100
AcDbEntity
  8
0
370
    -3
390
0
  6
Continuous
100
AcDbLine
 10
-669.384314
 20
-160.0034
 30
0.0
 11
-668.516317
 21
-160.504538
 31
0.0
  0
ARC
  5
546
100
AcDbEntity
  8
0
370
    -3
390
0
  6
Continuous
100
AcDbCircle
 10
-670.884314
 20
-162.601476
 30
0.0
 40
3.0
100
AcDbArc
 50
60.0
 51
153.842287
  0
ARC
  5
547
100
AcDbEntity
  8
0
370
    -3
390
0
  6
Continuous
100
AcDbCircle
 10
-671.321653
 20
-247.222914
 30
0.0
 40
3.0
100
AcDbArc
 50
205.565488
 51
300.0
  0
LINE
  5
548
100
AcDbEntity
  8
0
370
    -3
390
0
  6
Continuous
100
AcDbLine
 10
-669.821653
 20
-249.820991
 30
0.0
 11
-668.953
 21
-249.319474
 31
0.0
  0
LINE
  5
549
100
AcDbEntity
  8
0
370
    -3
390
0
  6
Continuous
100
AcDbLine
 10
-658.524258
 20
-243.298436
 30
0.0
 11
-655.045566
 21
-241.290013
 31
0.0
  0
ARC
  5
54A
100
AcDbEntity
  8
0
370
    -3
390
0
  6
Continuous
100
AcDbCircle
 10
-583.818668
 20
-205.363297
 30
0.0
 40
100.0
100
AcDbArc
 50
153.842287
 51
205.565488
  0
LINE
  5
54B
100
AcDbEntity
  8
0
370
    -3
390
0
  6
Continuous
100
AcDbLine
 10
-618.871258
 20
-189.167126
 30
0.0
 11
-615.352262
 21
-191.198819
 31
0.0
  0
LINE
  5
54C
100
AcDbEntity
  8
0
370
    -3
390
0
  6
Continuous
100
AcDbLine
 10
-631.994011
 20
-181.590701
 30
0.0
 11
-628.502483
 21
-183.606536
 31
0.0
  0
LINE
  5
54D
100
AcDbEntity
  8
0
370
    -3
390
0
  6
Continuous
100
AcDbLine
 10
-645.058688
 20
-174.047806
 30
0.0
 11
-641.578154
 21
-176.057294
 31
0.0
  0
LINE
  5
54E
100
AcDbEntity
  8
0
370
    -3
390
0
  6
Continuous
100
AcDbLine
 10
-645.470372
 20
-235.761772
 30
0.0
 11
-641.984341
 21
-233.749111
 31
0.0
  0
LINE
  5
54F
100
AcDbEntity
  8
0
370
    -3
390
0
  6
Continuous
100
AcDbLine
 10
-632.380788
 20
-228.204497
 30
0.0
 11
-628.880027
 21
-226.183332
 31
0.0
  0
LINE
  5
550
100
AcDbEntity
  8
0
370
    -3
390
0
  6
Continuous
100
AcDbLine
 10
-619.213237
 20
-220.602208
 30
0.0
 11
-615.675466
 21
-218.559675
 31
0.0
  0
LINE
  5
551
100
AcDbEntity
  8
0
370
    -3
390
0
  6
Continuous
100
AcDbLine
 10
-605.812338
 20
-212.865195
 30
0.0
 11
-602.125208
 21
-210.73643
 31
0.0
  0
LINE
  5
552
100
AcDbEntity
  8
0
370
    -3
390
0
  6
Continuous
100
AcDbLine
 10
-605.576479
 20
-196.84287
 30
0.0
 11
-601.948915
 21
-198.937245
 31
0.0
  0
ARC
  5
553
100
AcDbEntity
  8
0
370
    -3
390
0
  6
Continuous
100
AcDbCircle
 10
-611.879925
 20
-170.184242
 30
0.0
 40
101.2
100
AcDbArc
 50
93.351477
 51
128.578295
  0
ARC
  5
554
100
AcDbEntity
  8
0
370
    -3
390
0
  6
Continuous
100
AcDbCircle
 10
-583.818668
 20
-649.363297
 30
0.0
 40
581.2
100
AcDbArc
 50
90.0
 51
93.351477
  0
ARC
  5
555
100
AcDbEntity
  8
0
370
    -3
390
0
  6
Continuous
100
AcDbCircle
 10
-618.997722
 20
-177.302039
 30
0.0
 40
101.2
100
AcDbArc
 50
141.421705
 51
176.648523
  0
ARC
  5
556
100
AcDbEntity
  8
0
370
    -3
390
0
  6
Continuous
100
AcDbCircle
 10
-139.818668
 20
-205.363297
 30
0.0
 40
581.2
100
AcDbArc
 50
176.648523
 51
180.0
  0
ARC
  5
557
100
AcDbEntity
  8
0
370
    -3
390
0
  6
Continuous
100
AcDbCircle
 10
-611.879925
 20
-240.542351
 30
0.0
 40
101.2
100
AcDbArc
 50
231.421705
 51
266.648523
  0
ARC
  5
558
100
AcDbEntity
  8
0
370
    -3
390
0
  6
Continuous
100
AcDbCircle
 10
-583.818668
 20
238.636703
 30
0.0
 40
581.2
100
AcDbArc
 50
266.648523
 51
270.0
  0
ARC
  5
559
100
AcDbEntity
  8
0
370
    -3
390
0
  6
Continuous
100
AcDbCircle
 10
-583.818668
 20
-205.363297
 30
0.0
 40
146.2
100
AcDbArc
 50
218.578295
 51
231.421705
  0
ARC
  5
55A
100
AcDbEntity
  8
0
370
    -3
390
0
  6
Continuous
100
AcDbCircle
 10
-618.997722
 20
-233.424554
 30
0.0
 40
101.2
100
AcDbArc
 50
183.351477
 51
218.578295
  0
ARC
  5
55B
100
AcDbEntity
  8
0
370
    -3
390
0
  6
Continuous
100
AcDbCircle
 10
-139.818668
 20
-205.363297
 30
0.0
 40
581.2
100
AcDbArc
 50
180.0
 51
183.351477
  0
ARC
  5
55C
100
AcDbEntity
  8
0
370
    -3
390
0
  6
Continuous
100
AcDbCircle
 10
-555.757411
 20
-240.542351
 30
0.0
 40
101.2
100
AcDbArc
 50
273.351477
 51
308.578295
  0
ARC
  5
55D
100
AcDbEntity
  8
0
370
    -3
390
0
  6
Continuous
100
AcDbCircle
 10
-583.818668
 20
238.636703
 30
0.0
 40
581.2
100
AcDbArc
 50
270.0
 51
273.351477
  0
ARC
  5
55E
100
AcDbEntity
  8
0
370
    -3
390
0
  6
Continuous
100
AcDbCircle
 10
-583.818668
 20
-205.363297
 30
0.0
 40
146.2
100
AcDbArc
 50
308.578295
 51
321.421705
  0
ARC
  5
55F
100
AcDbEntity
  8
0
370
    -3
390
0
  6
Continuous
100
AcDbCircle
 10
-548.639614
 20
-233.424554
 30
0.0
 40
101.2
100
AcDbArc
 50
321.421705
 51
356.648523
  0
ARC
  5
560
100
AcDbEntity
  8
0
370
    -3
390
0
  6
Continuous
100
AcDbCircle
 10
-1027.818668
 20
-205.363297
 30
0.0
 40
581.2
100
AcDbArc
 50
356.648523
 51
360.0
  0
LINE
  5
561
100
AcDbEntity
  8
0
370
    -3
390
0
  6
Continuous
100
AcDbLine
 10
-482.101357
 20
-94.807151
 30
0.0
 11
-473.262523
 21
-103.645986
 31
0.0
  0
LINE
  5
562
100
AcDbEntity
  8
0
370
    -3
390
0
  6
Continuous
100
AcDbLine
 10
-474.217117
 20
-104.954134
 30
0.0
 11
-483.409505
 21
-95.761745
 31
0.0
  0
LINE
  5
563
100
AcDbEntity
  8
0
370
    -3
390
0
  6
Continuous
100
AcDbLine
 10
-446.418668
 20
-229.963297
 30
0.0
 11
-447.139514
 21
-229.963297
 31
0.0
  0
LINE
  5
564
100
AcDbEntity
  8
0
370
    -3
390
0
  6
Continuous
100
AcDbLine
 10
-446.418668
 20
-180.763297
 30
0.0
 11
-447.139514
 21
-180.763297
 31
0.0
  0
LINE
  5
565
100
AcDbEntity
  8
0
370
    -3
390
0
  6
Continuous
100
AcDbLine
 10
-442.753618
 20
-166.699715
 30
0.0
 11
-394.321565
 21
-270.562587
 31
0.0
  0
LINE
  5
566
100
AcDbEntity
  8
0
370
    -3
390
0
  6
Continuous
100
AcDbLine
 10
-399.54388
 20
-259.363297
 30
0.0
 11
-435.018668
 21
-259.363297
 31
0.0
  0
ARC
  5
567
100
AcDbEntity
  8
0
370
    -3
390
0
  6
Continuous
100
AcDbCircle
 10
-393.582552
 20
-260.839267
 30
0.0
 40
1.299999
100
AcDbArc
 50
41.601548
 51
106.135447
  0
ARC
  5
568
100
AcDbEntity
  8
0
370
    -3
390
0
  6
Continuous
100
AcDbCircle
 10
-991.866704
 20
-200.863297
 30
0.0
 40
600.8
100
AcDbArc
 50
354.170309
 51
1.331487
  0
LINE
  5
569
100
AcDbEntity
  8
0
370
    -3
390
0
  6
Continuous
100
AcDbLine
 10
-438.760244
 20
-166.271966
 30
0.0
 11
-391.426999
 21
-267.778438
 31
0.0
  0
LINE
  5
56A
100
AcDbEntity
  8
0
370
    -3
390
0
  6
CENTER
100
AcDbLine
 10
-415.818668
 20
-250.645389
 30
0.0
 11
-415.818668
 21
-269.453779
 31
0.0
  0
LINE
  5
56B
100
AcDbEntity
  8
0
370
    -3
390
0
  6
CENTER
100
AcDbLine
 10
-435.878505
 20
-205.363297
 30
0.0
 11
-447.850405
 21
-205.363297
 31
0.0
  0
ARC
  5
56C
100
AcDbEntity
  8
0
370
    -3
390
0
  6
Continuous
100
AcDbCircle
 10
-391.723031
 20
-264.827023
 30
0.0
 40
1.299999
100
AcDbArc
 50
294.999999
 51
8.398469
  0
LINE
  5
56D
100
AcDbEntity
  8
0
370
    -3
390
0
  6
Continuous
100
AcDbLine
 10
-392.060926
 20
-266.418976
 30
0.0
 11
-391.173628
 21
-266.005222
 31
0.0
  0
POINT
  5
56E
100
AcDbEntity
  8
0
370
    -3
390
0
  6
Continuous
100
AcDbPoint
 10
-393.54009
 20
-263.246899
 30
0.0
  0
ARC
  5
56F
100
AcDbEntity
  8
0
370
    -3
390
0
  6
Continuous
100
AcDbCircle
 10
-399.34046
 20
-265.951656
 30
0.0
 40
9.0
100
AcDbArc
 50
8.398469
 51
41.601548
  0
ARC
  5
570
100
AcDbEntity
  8
0
370
    -3
390
0
  6
Continuous
100
AcDbCircle
 10
-512.920802
 20
-458.955344
 30
0.0
 40
300.8
100
AcDbArc
 50
66.739678
 51
75.515443
  0
ARC
  5
571
100
AcDbEntity
  8
0
370
    -3
390
0
  6
Continuous
100
AcDbCircle
 10
-396.027629
 20
-187.014199
 30
0.0
 40
4.8
100
AcDbArc
 50
1.331487
 51
66.739678
  0
LINE
  5
572
100
AcDbEntity
  8
0
370
    -3
390
0
  6
Continuous
100
AcDbLine
 10
-392.055795
 20
-269.506042
 30
0.0
 11
-394.321565
 21
-270.562587
 31
0.0
  0
ARC
  5
573
100
AcDbEntity
  8
0
370
    -3
390
0
  6
Continuous
100
AcDbCircle
 10
-392.605199
 20
-268.327842
 30
0.0
 40
1.3
100
AcDbArc
 50
295.0
 51
25.0
  0
ARC
  5
574
100
AcDbEntity
  8
0
370
    -3
390
0
  6
Continuous
100
AcDbCircle
 10
-435.018668
 20
-252.563297
 30
0.0
 40
6.8
100
AcDbArc
 50
180.0
 51
270.0
  0
LINE
  5
575
100
AcDbEntity
  8
0
370
    -3
390
0
  6
Continuous
100
AcDbLine
 10
-440.487848
 20
-165.643169
 30
0.0
 11
-442.753618
 21
-166.699715
 31
0.0
  0
ARC
  5
576
100
AcDbEntity
  8
0
370
    -3
390
0
  6
Continuous
100
AcDbCircle
 10
-439.938444
 20
-166.82137
 30
0.0
 40
1.3
100
AcDbArc
 50
25.0
 51
115.0
  0
LINE
  5
577
100
AcDbEntity
  8
0
370
    -3
390
0
  6
Continuous
100
AcDbLine
 10
-441.802336
 20
-169.122785
 30
0.0
 11
-441.616124
 21
-169.139077
 31
0.0
  0
LINE
  5
578
100
AcDbEntity
  8
0
370
    -3
390
0
  6
Continuous
100
AcDbLine
 10
-441.774119
 20
-168.800257
 30
0.0
 11
-441.802336
 21
-169.122785
 31
0.0
  0
ARC
  5
579
100
AcDbEntity
  8
0
370
    -3
390
0
  6
Continuous
100
AcDbCircle
 10
-439.018668
 20
-172.240374
 30
0.0
 40
2.8
100
AcDbArc
 50
136.879375
 51
180.0
  0
LINE
  5
57A
100
AcDbEntity
  8
0
370
    -3
390
0
  6
Continuous
100
AcDbLine
 10
-441.818668
 20
-174.363297
 30
0.0
 11
-442.818668
 21
-174.363297
 31
0.0
  0
LINE
  5
57B
100
AcDbEntity
  8
0
370
    -3
390
0
  6
Continuous
100
AcDbLine
 10
-441.818668
 20
-236.363297
 30
0.0
 11
-442.818668
 21
-236.363297
 31
0.0
  0
LINE
  5
57C
100
AcDbEntity
  8
0
370
    -3
390
0
  6
Continuous
100
AcDbLine
 10
-442.818668
 20
-174.363297
 30
0.0
 11
-442.818668
 21
-236.363297
 31
0.0
  0
ARC
  5
57D
100
AcDbEntity
  8
0
370
    -3
390
0
  6
Continuous
100
AcDbCircle
 10
-437.434874
 20
-166.748029
 30
0.0
 40
1.0
100
AcDbArc
 50
205.0
 51
255.515443
  0
LINE
  5
57E
100
AcDbEntity
  8
0
370
    -3
390
0
  6
Continuous
100
AcDbLine
 10
-441.818668
 20
-172.240374
 30
0.0
 11
-441.818668
 21
-252.563297
 31
0.0
  0
LINE
  5
57F
100
AcDbEntity
  8
0
370
    -3
390
0
  6
Continuous
100
AcDbLine
 10
-442.818668
 20
-174.363297
 30
0.0
 11
-444.418668
 21
-174.363297
 31
0.0
  0
LINE
  5
580
100
AcDbEntity
  8
0
370
    -3
390
0
  6
Continuous
100
AcDbLine
 10
-444.418668
 20
-174.363297
 30
0.0
 11
-444.418668
 21
-236.363297
 31
0.0
  0
LINE
  5
581
100
AcDbEntity
  8
0
370
    -3
390
0
  6
Continuous
100
AcDbLine
 10
-442.818668
 20
-236.363297
 30
0.0
 11
-442.818668
 21
-174.363297
 31
0.0
  0
ARC
  5
582
100
AcDbEntity
  8
0
370
    -3
390
0
  6
Continuous
100
AcDbCircle
 10
-446.418668
 20
-178.763297
 30
0.0
 40
2.0
100
AcDbArc
 50
270.0
 51
0.0
  0
LINE
  5
583
100
AcDbEntity
  8
0
370
    -3
390
0
  6
Continuous
100
AcDbLine
 10
-442.818668
 20
-236.363297
 30
0.0
 11
-444.418668
 21
-236.363297
 31
0.0
  0
ARC
  5
584
100
AcDbEntity
  8
0
370
    -3
390
0
  6
Continuous
100
AcDbCircle
 10
-446.418668
 20
-231.963297
 30
0.0
 40
2.0
100
AcDbArc
 50
0.0
 51
90.0
  0
LINE
  5
585
100
AcDbEntity
  8
0
370
    -3
390
0
  6
Continuous
100
AcDbLine
 10
-483.232728
 20
-95.938522
 30
0.0
 11
-482.101357
 21
-94.807151
 31
0.0
  0
LINE
  5
586
100
AcDbEntity
  8
0
370
    -3
390
0
  6
Continuous
100
AcDbLine
 10
-474.393893
 20
-104.777357
 30
0.0
 11
-473.262523
 21
-103.645986
 31
0.0
  0
LINE
  5
587
100
AcDbEntity
  8
0
370
    -3
390
0
  6
Continuous
100
AcDbLine
 10
-474.217117
 20
-105.66124
 30
0.0
 11
-475.608473
 21
-107.052597
 31
0.0
  0
LINE
  5
588
100
AcDbEntity
  8
0
370
    -3
390
0
  6
Continuous
100
AcDbLine
 10
-484.116612
 20
-95.761745
 30
0.0
 11
-485.507968
 21
-97.153102
 31
0.0
  0
ARC
  5
589
100
AcDbEntity
  8
0
370
    -3
390
0
  6
Continuous
100
AcDbCircle
 10
-483.763058
 20
-96.115299
 30
0.0
 40
0.5
100
AcDbArc
 50
45.0
 51
135.0
  0
ARC
  5
58A
100
AcDbEntity
  8
0
370
    -3
390
0
  6
Continuous
100
AcDbCircle
 10
-474.57067
 20
-105.307687
 30
0.0
 40
0.5
100
AcDbArc
 50
315.0
 51
45.0
  0
ARC
  5
58B
100
AcDbEntity
  8
0
370
    -3
390
0
  6
Continuous
100
AcDbCircle
 10
-474.233369
 20
-100.515612
 30
0.0
 40
1.9
100
AcDbArc
 50
314.999999
 51
28.92718
  0
ARC
  5
58C
100
AcDbEntity
  8
0
370
    -3
390
0
  6
Continuous
100
AcDbCircle
 10
-478.970983
 20
-95.777998
 30
0.0
 40
1.9
100
AcDbArc
 50
61.072892
 51
135.000018
  0
LINE
  5
58D
100
AcDbEntity
  8
0
370
    -3
390
0
  6
Continuous
100
AcDbLine
 10
-481.39425
 20
-95.514259
 30
0.0
 11
-480.314486
 21
-94.434495
 31
0.0
  0
LINE
  5
58E
100
AcDbEntity
  8
0
370
    -3
390
0
  6
Continuous
100
AcDbLine
 10
-473.96963
 20
-102.938879
 30
0.0
 11
-472.889866
 21
-101.859115
 31
0.0
  0
ARC
  5
58F
100
AcDbEntity
  8
0
370
    -3
390
0
  6
Continuous
100
AcDbCircle
 10
-484.823718
 20
-106.368347
 30
0.0
 40
14.0
100
AcDbArc
 50
28.92718
 51
61.072837
  0
ARC
  5
590
100
AcDbEntity
  8
0
370
    -3
390
0
  6
Continuous
100
AcDbCircle
 10
-578.818668
 20
-205.363297
 30
0.0
 40
131.5
100
AcDbArc
 50
359.989714
 51
0.0
  0
ENDSEC
  0
SECTION
  2
OBJECTS
  0
DICTIONARY
  5
19
100
AcDbDictionary
280
     0
281
     1
  3
ACAD_GROUP
350
1A
  3
ACAD_MLINESTYLE
350
1B
  3
ACAD_LAYOUT
350
1E
  3
ACAD_PLOTSETTINGS
350
22
  3
ACAD_PLOTSTYLENAME
350
1F
  3
ACAD_WIPEOUT_VARS
350
23
  3
DWGPROPS
350
591
  0
DICTIONARY
  5
1A
102
{ACAD_REACTORS
330
19
102
}
100
AcDbDictionary
280
     0
281
     1
  0
DICTIONARY
  5
1B
102
{ACAD_REACTORS
330
19
102
}
100
AcDbDictionary
280
     0
281
     1
  3
Standard
350
1C
  0
MLINESTYLE
  5
1C
102
{ACAD_REACTORS
330
1B
102
}
100
AcDbMlineStyle
  2
Standard
 70
     0
  3

 62
     0
 51
90.0
 52
90.0
 71
     2
 49
0.5
 62
   256
  6
ByLayer
 49
-0.5
 62
   256
  6
ByLayer
  0
ACDBDICTIONARYWDFLT
  5
1F
102
{ACAD_REACTORS
330
19
102
}
100
AcDbDictionary
281
     1
  3
Normal
350
1D
100
AcDbDictionaryWithDefault
340
1D
  0
ACDBPLACEHOLDER
  5
1D
102
{ACAD_REACTORS
330
1F
102
}
  0
LAYOUT
  5
20
102
{ACAD_REACTORS
330
1E
102
}
100
AcDbPlotSettings
  1

  2

  4

  6

 40
0.0
 41
0.0
 42
0.0
 43
0.0
 44
0.0
 45
0.0
 46
0.0
 47
0.0
 48
0.0
 49
0.0
140
0.0
141
0.0
142
1.0
143
1.0
 70
  1024
 72
     0
 73
     0
 74
     0
  7

 75
     0
147
1.0
148
0.0
149
0.0
100
AcDbLayout
  1
Model
 70
     0
 71
     0
 10
0.0
 20
0.0
 11
0.0
 21
0.0
 12
0.0
 22
0.0
 32
0.0
 14
0.0
 24
0.0
 34
0.0
 15
0.0
 25
0.0
 35
0.0
146
0.0
 13
0.0
 23
0.0
 33
0.0
 16
0.0
 26
0.0
 36
0.0
 17
0.0
 27
0.0
 37
0.0
 76
     0
330
A
331
0
345
0
346
0
  0
LAYOUT
  5
21
102
{ACAD_REACTORS
330
1E
102
}
100
AcDbPlotSettings
  1

  2

  4

  6

 40
0.0
 41
0.0
 42
0.0
 43
0.0
 44
0.0
 45
0.0
 46
0.0
 47
0.0
 48
0.0
 49
0.0
140
0.0
141
0.0
142
1.0
143
1.0
 70
     0
 72
     0
 73
     0
 74
     0
  7

 75
     0
147
1.0
148
0.0
149
0.0
100
AcDbLayout
  1
Layout1
 70
     0
 71
     0
 10
0.0
 20
0.0
 11
0.0
 21
0.0
 12
0.0
 22
0.0
 32
0.0
 14
0.0
 24
0.0
 34
0.0
 15
0.0
 25
0.0
 35
0.0
146
0.0
 13
0.0
 23
0.0
 33
0.0
 16
0.0
 26
0.0
 36
0.0
 17
0.0
 27
0.0
 37
0.0
 76
     0
330
B
331
0
345
0
346
0
  0
DICTIONARY
  5
1E
102
{ACAD_REACTORS
330
19
102
}
100
AcDbDictionary
280
     0
281
     1
  3
Layout1
350
21
  3
Model
350
20
  0
DICTIONARY
  5
22
102
{ACAD_REACTORS
330
19
102
}
100
AcDbDictionary
280
     0
281
     1
  0
WIPEOUTVARIABLES
  5
23
100
AcDbWipeoutVariables
 70
     1
  0
XRECORD
  5
591
100
AcDbXrecord
280
     1
  1
DWGPROPS COOKIE
  2

  3

  4

  6

  7

  8
YP81315
  9

300
=
301
=
302
=
303
=
304
=
305
=
306
=
307
=
308
=
309
=
 40
0.0
 41
2456812.581887
 42
2456812.581887
  1

 90
        0
  0
ENDSEC
  0
EOF
