  0
SECTION
  2
HEADER
  9
$ACADVER
  1
AC1015
  9
$ACADMAINTVER
 70
     6
  9
$DWGCODEPAGE
  3
ANSI_932
  9
$INSBASE
 10
0.0
 20
0.0
 30
0.0
  9
$EXTMIN
 10
1.000000E+20
 20
1.000000E+20
 30
1.000000E+20
  9
$EXTMAX
 10
-1.000000E+20
 20
-1.000000E+20
 30
-1.000000E+20
  9
$LIMMIN
 10
0.0
 20
0.0
  9
$LIMMAX
 10
0.0
 20
0.0
  9
$ORTHOMODE
 70
     0
  9
$REGENMODE
 70
     1
  9
$FILLMODE
 70
     1
  9
$QTEXTMODE
 70
     0
  9
$MIRRTEXT
 70
     1
  9
$LTSCALE
 40
1.0
  9
$ATTMODE
 70
     1
  9
$TEXTSIZE
 40
3.2
  9
$TRACEWID
 40
0.05
  9
$TEXTSTYLE
  7
Standard
  9
$CLAYER
  8
0
  9
$CELTYPE
  6
Continuous
  9
$CECOLOR
 62
   256
  9
$CELTSCALE
 40
1.0
  9
$DISPSILH
 70
     0
  9
$DIMSCALE
 40
1.0
  9
$DIMASZ
 40
1.931852
  9
$DIMEXO
 40
1.0
  9
$DIMDLI
 40
0.38
  9
$DIMRND
 40
0.0
  9
$DIMDLE
 40
0.0
  9
$DIMEXE
 40
2.0
  9
$DIMTP
 40
0.0
  9
$DIMTM
 40
0.0
  9
$DIMTXT
 40
2.8
  9
$DIMCEN
 40
0.09
  9
$DIMTSZ
 40
0.0
  9
$DIMTOL
 70
     0
  9
$DIMLIM
 70
     0
  9
$DIMTIH
 70
     1
  9
$DIMTOH
 70
     1
  9
$DIMSE1
 70
     0
  9
$DIMSE2
 70
     0
  9
$DIMTAD
 70
     1
  9
$DIMZIN
 70
     0
  9
$DIMBLK
  1

  9
$DIMASO
 70
     1
  9
$DIMSHO
 70
     1
  9
$DIMPOST
  1

  9
$DIMAPOST
  1

  9
$DIMALT
 70
     0
  9
$DIMALTD
 70
     2
  9
$DIMALTF
 40
25.4
  9
$DIMLFAC
 40
1.0
  9
$DIMTOFL
 70
     0
  9
$DIMTVP
 40
0.0
  9
$DIMTIX
 70
     0
  9
$DIMSOXD
 70
     0
  9
$DIMSAH
 70
     0
  9
$DIMBLK1
  1

  9
$DIMBLK2
  1

  9
$DIMSTYLE
  2
Standard
  9
$DIMCLRD
 70
     0
  9
$DIMCLRE
 70
     0
  9
$DIMCLRT
 70
     0
  9
$DIMTFAC
 40
0.625
  9
$DIMGAP
 40
0.09
  9
$DIMJUST
 70
     0
  9
$DIMSD1
 70
     0
  9
$DIMSD2
 70
     0
  9
$DIMTOLJ
 70
     1
  9
$DIMTZIN
 70
     0
  9
$DIMALTZ
 70
     0
  9
$DIMALTTZ
 70
     0
  9
$DIMUPT
 70
     0
  9
$DIMDEC
 70
     4
  9
$DIMTDEC
 70
     4
  9
$DIMALTU
 70
     2
  9
$DIMALTTD
 70
     2
  9
$DIMTXSTY
  7
Standard
  9
$DIMAUNIT
 70
     0
  9
$DIMADEC
 70
     0
  9
$DIMALTRND
 40
0.0
  9
$DIMAZIN
 70
     0
  9
$DIMDSEP
 70
     0
  9
$DIMATFIT
 70
     3
  9
$DIMFRAC
 70
     0
  9
$DIMLDRBLK
  1

  9
$DIMLUNIT
 70
     2
  9
$DIMLWD
 70
     0
  9
$DIMLWE
 70
     0
  9
$DIMTMOVE
 70
     0
  9
$LUNITS
 70
     2
  9
$LUPREC
 70
     3
  9
$SKETCHINC
 40
0.1
  9
$FILLETRAD
 40
0.0
  9
$AUNITS
 70
     0
  9
$AUPREC
 70
     0
  9
$MENU
  1
acad
  9
$ELEVATION
 40
0.0
  9
$PELEVATION
 40
0.0
  9
$THICKNESS
 40
0.0
  9
$LIMCHECK
 70
     0
  9
$CHAMFERA
 40
0.0
  9
$CHAMFERB
 40
0.0
  9
$CHAMFERC
 40
0.0
  9
$CHAMFERD
 40
0.0
  9
$SKPOLY
 70
     0
  9
$TDCREATE
 40
0.000000000
  9
$TDUCREATE
 40
0.000000000
  9
$TDUPDATE
 40
0.000000000
  9
$TDUUPDATE
 40
0.000000000
  9
$TDINDWG
 40
0.0000000000
  9
$TDUSRTIMER
 40
0.0000000000
  9
$USRTIMER
 70
     1
  9
$ANGBASE
 50
0.0
  9
$ANGDIR
 70
     0
  9
$PDMODE
 70
     0
  9
$PDSIZE
 40
0.0
  9
$PLINEWID
 40
0.0
  9
$SPLFRAME
 70
     0
  9
$SPLINETYPE
 70
     6
  9
$SPLINESEGS
 70
     8
  9
$HANDSEED
  5
4CF
  9
$SURFTAB1
 70
     6
  9
$SURFTAB2
 70
     6
  9
$SURFTYPE
 70
     6
  9
$SURFU
 70
     6
  9
$SURFV
 70
     6
  9
$UCSBASE
  2

  9
$UCSNAME
  2

  9
$UCSORG
 10
0.0
 20
0.0
 30
0.0
  9
$UCSXDIR
 10
1.0
 20
0.0
 30
0.0
  9
$UCSYDIR
 10
0.0
 20
1.0
 30
0.0
  9
$UCSORTHOREF
  2

  9
$UCSORTHOVIEW
 70
     0
  9
$UCSORGTOP
 10
0.0
 20
0.0
 30
0.0
  9
$UCSORGBOTTOM
 10
0.0
 20
0.0
 30
0.0
  9
$UCSORGLEFT
 10
0.0
 20
0.0
 30
0.0
  9
$UCSORGRIGHT
 10
0.0
 20
0.0
 30
0.0
  9
$UCSORGFRONT
 10
0.0
 20
0.0
 30
0.0
  9
$UCSORGBACK
 10
0.0
 20
0.0
 30
0.0
  9
$PUCSBASE
  2

  9
$PUCSNAME
  2

  9
$PUCSORG
 10
0.0
 20
0.0
 30
0.0
  9
$PUCSXDIR
 10
1.0
 20
0.0
 30
0.0
  9
$PUCSYDIR
 10
0.0
 20
1.0
 30
0.0
  9
$PUCSORTHOREF
  2

  9
$PUCSORTHOVIEW
 70
     0
  9
$PUCSORGTOP
 10
0.0
 20
0.0
 30
0.0
  9
$PUCSORGBOTTOM
 10
0.0
 20
0.0
 30
0.0
  9
$PUCSORGLEFT
 10
0.0
 20
0.0
 30
0.0
  9
$PUCSORGRIGHT
 10
0.0
 20
0.0
 30
0.0
  9
$PUCSORGFRONT
 10
0.0
 20
0.0
 30
0.0
  9
$PUCSORGBACK
 10
0.0
 20
0.0
 30
0.0
  9
$USERI1
 70
     0
  9
$USERI2
 70
     0
  9
$USERI3
 70
     0
  9
$USERI4
 70
     0
  9
$USERI5
 70
     0
  9
$USERR1
 40
0.0
  9
$USERR2
 40
0.0
  9
$USERR3
 40
0.0
  9
$USERR4
 40
0.0
  9
$USERR5
 40
0.0
  9
$WORLDVIEW
 70
     1
  9
$SHADEDGE
 70
     3
  9
$SHADEDIF
 70
    70
  9
$TILEMODE
 70
     1
  9
$MAXACTVP
 70
    16
  9
$PINSBASE
 10
0.0
 20
0.0
 30
0.0
  9
$PLIMCHECK
 70
     0
  9
$PEXTMIN
 10
1.000000E+20
 20
1.000000E+20
 30
1.000000E+20
  9
$PEXTMAX
 10
-1.000000E+20
 20
-1.000000E+20
 30
-1.000000E+20
  9
$PLIMMIN
 10
0.0
 20
0.0
  9
$PLIMMAX
 10
12.0
 20
9.0
  9
$UNITMODE
 70
     0
  9
$VISRETAIN
 70
     0
  9
$PLINEGEN
 70
     1
  9
$PSLTSCALE
 70
     0
  9
$TREEDEPTH
 70
  3020
  9
$CMLSTYLE
  2
Standard
  9
$CMLJUST
 70
     0
  9
$CMLSCALE
 40
1.0
  9
$PROXYGRAPHICS
 70
     0
  9
$MEASUREMENT
 70
     0
  9
$CELWEIGHT
370
     0
  9
$ENDCAPS
280
     0
  9
$JOINSTYLE
280
     0
  9
$LWDISPLAY
290
     0
  9
$INSUNITS
 70
     0
  9
$HYPERLINKBASE
  1

  9
$STYLESHEET
  1

  9
$XEDIT
290
     1
  9
$CEPSNTYPE
380
     0
  9
$PSTYLEMODE
290
     1
  9
$FINGERPRINTGUID
  2

  9
$VERSIONGUID
  2

  9
$EXTNAMES
290
     1
  9
$PSVPSCALE
 40
0.0
  0
ENDSEC
  0
SECTION
  2
CLASSES
  0
CLASS
  1
LWPOLYLINE
  2
AcDbPolyline
  3
AutoCAD 2000
 90
        0
280
     0
281
     1
  0
CLASS
  1
IMAGE
  2
AcDbRasterImage
  3
ISM
 90
      127
280
     0
281
     1
  0
CLASS
  1
OLE2FRAME
  2
AcDbOle2Frame
  3
AutoCAD 2000
 90
        0
280
     0
281
     1
  0
CLASS
  1
HATCH
  2
AcDbHatch
  3
AutoCAD 2000
 90
        0
280
     0
281
     1
  0
CLASS
  1
DICTIONARYVAR
  2
AcDbDictionaryVar
  3
AutoCAD 2000
 90
        0
280
     0
281
     0
  0
CLASS
  1
RASTERVARIABLES
  2
AcDbRasterVariables
  3
ISM
 90
        0
280
     0
281
     0
  0
CLASS
  1
IMAGEDEF
  2
AcDbRasterImageDef
  3
ISM
 90
        0
280
     0
281
     0
  0
CLASS
  1
IMAGEDEF_REACTOR
  2
AcDbRasterImageDefReactor
  3
ISM
 90
        1
280
     0
281
     0
  0
CLASS
  1
IDBUFFER
  2
AcDbIdBuffer
  3
AutoCAD 2000
 90
        0
280
     0
281
     0
  0
CLASS
  1
SPATIAL_FILTER
  2
AcDbSpatialFilter
  3
AutoCAD 2000
 90
        0
280
     0
281
     0
  0
CLASS
  1
XRECORD
  2
AcDbXrecord
  3
AutoCAD 2000
 90
        0
280
     0
281
     0
  0
CLASS
  1
SORTENTSTABLE
  2
AcDbSortentsTable
  3
AutoCAD 2000
 90
        0
280
     0
281
     0
  0
CLASS
  1
LAYER_INDEX
  2
AcDbLayerIndex
  3
AutoCAD 2000
 90
        0
280
     0
281
     0
  0
CLASS
  1
SPATIAL_INDEX
  2
AcDbSpatialIndex
  3
AutoCAD 2000
 90
        0
280
     0
281
     0
  0
CLASS
  1
OBJECT_PTR
  2
CAseDLPNTableRecord
  3
"ASE-LPNTableRecord"
 90
        1
280
     0
281
     0
  0
CLASS
  1
LAYOUT
  2
AcDbLayout
  3
AutoCAD 2000
 90
        0
280
     0
281
     0
  0
CLASS
  1
PLOTSETTINGS
  2
AcDbPlotSettings
  3
AutoCAD 2000
 90
        0
280
     0
281
     0
  0
CLASS
  1
ACDBDICTIONARYWDFLT
  2
AcDbDictionaryWithDefault
  3
AutoCAD 2000
 90
        0
280
     0
281
     0
  0
CLASS
  1
ACDBPLACEHOLDER
  2
AcDbPlaceHolder
  3
AutoCAD 2000
 90
        0
280
     0
281
     0
  0
CLASS
  1
VBA_PROJECT
  2
AcDbVbaProject
  3
acadvba
 90
        0
280
     0
281
     0
  0
CLASS
  1
WIPEOUT
  2
AcDbWipeout
  3
WipeOut|AutoCAD Express Tool|expresstools@autodesk.com
 90
      127
280
     0
281
     1
  0
CLASS
  1
WIPEOUTVARIABLES
  2
AcDbWipeoutVariables
  3
WipeOut|AutoCAD Express Tool|expresstools@autodesk.com
 90
        0
280
     0
281
     0
  0
CLASS
  1
RTEXT
  2
RText
  3
RText|AutoCAD Express Tool|expresstools@autodesk.com
 90
        0
280
     0
281
     1
  0
CLASS
  1
ARCALIGNEDTEXT
  2
AcDbArcAlignedText
  3
ATEXT|AutoCAD Express Tool|expresstools@autodesk.com
 90
        0
280
     0
281
     1
  0
ENDSEC
  0
SECTION
  2
TABLES
  0
TABLE
  2
VPORT
  5
7
100
AcDbSymbolTable
 70
     1
  0
VPORT
  5
15
100
AcDbSymbolTableRecord
100
AcDbViewportTableRecord
  2
*ACTIVE
 70
     0
 10
0.0
 20
0.0
 11
1.0
 21
1.0
 12
0.0
 22
0.0
 13
0.0
 23
0.0
 14
1.0
 24
1.0
 15
0.0
 25
0.0
 16
0.0
 26
0.0
 36
1.0
 17
0.0
 27
0.0
 37
0.0
 40
100.0
 41
1.0
 42
50.0
 43
0.0
 44
0.0
 50
0.0
 51
0.0
 71
     0
 72
   100
 73
     1
 74
     1
 75
     0
 76
     0
 77
     0
 78
     0
281
     0
 65
     0
110
0.0
120
0.0
130
0.0
111
1.0
121
0.0
131
0.0
112
0.0
122
1.0
132
0.0
345
0
346
0
 79
     0
146
0.0
  0
ENDTAB
  0
TABLE
  2
LTYPE
  5
4
100
AcDbSymbolTable
 70
     7
  0
LTYPE
  5
11
100
AcDbSymbolTableRecord
100
AcDbLinetypeTableRecord
  2
ByBlock
 70
    64
  3

 72
    65
 73
     0
 40
0.0
  0
LTYPE
  5
12
100
AcDbSymbolTableRecord
100
AcDbLinetypeTableRecord
  2
ByLayer
 70
    64
  3

 72
    65
 73
     0
 40
0.0
  0
LTYPE
  5
13
100
AcDbSymbolTableRecord
100
AcDbLinetypeTableRecord
  2
Continuous
 70
    64
  3
Solid line
 72
    65
 73
     0
 40
0.0
  0
LTYPE
  5
24
100
AcDbSymbolTableRecord
100
AcDbLinetypeTableRecord
  2
DASHED
 70
    64
  3
Dashed __ __ __ __ __ __ __ __ __ __ __ __ __ _
 72
    65
 73
     2
 40
0.75
 49
0.5
 74
     0
 49
-0.25
 74
     0
  0
LTYPE
  5
25
100
AcDbSymbolTableRecord
100
AcDbLinetypeTableRecord
  2
CENTER
 70
    64
  3
Center ____ _ ____ _ ____ _ ____ _ ____ _ ____
 72
    65
 73
     4
 40
1.0
 49
0.5
 74
     0
 49
-0.25
 74
     0
 49
0.0
 74
     0
 49
-0.25
 74
     0
  0
LTYPE
  5
26
100
AcDbSymbolTableRecord
100
AcDbLinetypeTableRecord
  2
DIVIDE
 70
    64
  3
Divide ____ . . ____ . . ____ . . ____ . . ____
 72
    65
 73
     6
 40
1.25
 49
0.5
 74
     0
 49
-0.25
 74
     0
 49
0.0
 74
     0
 49
-0.25
 74
     0
 49
0.0
 74
     0
 49
-0.25
 74
     0
  0
LTYPE
  5
27
100
AcDbSymbolTableRecord
100
AcDbLinetypeTableRecord
  2
PHANTOM
 70
    64
  3
Phantom ______  __  __  ______  __  __  ______
 72
    65
 73
     6
 40
9.0
 49
4.3
 74
     0
 49
-0.7
 74
     0
 49
1.3
 74
     0
 49
-0.7
 74
     0
 49
1.3
 74
     0
 49
-0.7
 74
     0
  0
ENDTAB
  0
TABLE
  2
LAYER
  5
2
100
AcDbSymbolTable
 70
     3
  0
LAYER
  5
14
100
AcDbSymbolTableRecord
100
AcDbLayerTableRecord
  2
0
 70
    64
 62
     3
  6
Continuous
290
     1
370
    -3
390
1D
  0
LAYER
  5
28
100
AcDbSymbolTableRecord
100
AcDbLayerTableRecord
  2
1
 70
    64
 62
    42
  6
Continuous
290
     1
370
    -3
390
1D
  0
LAYER
  5
29
100
AcDbSymbolTableRecord
100
AcDbLayerTableRecord
  2
2
 70
    64
 62
     7
  6
Continuous
290
     1
370
    -3
390
1D
  0
ENDTAB
  0
TABLE
  2
STYLE
  5
3
100
AcDbSymbolTable
 70
     2
  0
STYLE
  5
17
100
AcDbSymbolTableRecord
100
AcDbTextStyleTableRecord
  2
Standard
 70
     0
 40
0.0
 41
1.0
 50
0.0
 71
     0
 42
0.0
  3
txt
  4

  0
STYLE
  5
4C8
100
AcDbSymbolTableRecord
100
AcDbTextStyleTableRecord
  2
ZU_SHPTB00001
 70
     0
 40
0.0
 41
1.0
 50
0.0
 71
     0
 42
0.0
  3
monotxt
  4
bigfont
  0
ENDTAB
  0
TABLE
  2
VIEW
  5
5
100
AcDbSymbolTable
 70
     0
  0
ENDTAB
  0
TABLE
  2
UCS
  5
6
100
AcDbSymbolTable
 70
     0
  0
ENDTAB
  0
TABLE
  2
APPID
  5
8
100
AcDbSymbolTable
 70
     1
  0
APPID
  5
16
100
AcDbSymbolTableRecord
100
AcDbRegAppTableRecord
  2
ACAD
 70
     0
  0
ENDTAB
  0
TABLE
  2
DIMSTYLE
  5
9
100
AcDbSymbolTable
 70
     1
100
AcDbDimStyleTable
 71
     0
  0
DIMSTYLE
105
18
100
AcDbSymbolTableRecord
100
AcDbDimStyleTableRecord
  2
Standard
 70
     0
  3

  4

 40
1.0
 41
0.18
 42
0.0625
 43
0.38
 44
0.18
 45
0.0
 46
0.0
 47
0.0
 48
0.0
 71
     0
 72
     0
 73
     1
 74
     1
 75
     0
 76
     0
 77
     0
 78
     0
 79
     0
140
0.18
141
0.09
142
0.0
143
25.4
144
1.0
145
0.0
146
1.0
147
0.09
148
0.0
170
     0
171
     2
172
     0
173
     0
174
     0
175
     0
176
     0
177
     0
178
     0
179
     0
271
     4
272
     4
273
     2
274
     2
275
     0
276
     0
277
     2
278
    46
279
     0
280
     0
281
     0
282
     0
283
     1
284
     0
285
     0
286
     0
288
     0
289
     3
340
17
341
0
342
0
343
0
344
0
371
    -2
372
    -2
  0
ENDTAB
  0
TABLE
  2
BLOCK_RECORD
  5
1
100
AcDbSymbolTable
 70
     5
  0
BLOCK_RECORD
  5
A
100
AcDbSymbolTableRecord
100
AcDbBlockTableRecord
  2
*MODEL_SPACE
340
20
  0
BLOCK_RECORD
  5
B
100
AcDbSymbolTableRecord
100
AcDbBlockTableRecord
  2
*PAPER_SPACE
340
21
  0
BLOCK_RECORD
  5
96
100
AcDbSymbolTableRecord
100
AcDbBlockTableRecord
  2
ZU_SYM__USERS_HOME_SYMBOL_POO_SYM_B21_21
340
0
102
{BLKREFS
331
A6
102
}
  0
BLOCK_RECORD
  5
157
100
AcDbSymbolTableRecord
100
AcDbBlockTableRecord
  2
ZU_SYM__USERS_HOME_SYMBOL_POO_SYM_B21_0000121
340
0
102
{BLKREFS
331
167
102
}
  0
BLOCK_RECORD
  5
189
100
AcDbSymbolTableRecord
100
AcDbBlockTableRecord
  2
ZU_SYM__USERS_HOME_SYMBOL_POO_SYM_B21_0000221
340
0
102
{BLKREFS
331
199
102
}
  0
BLOCK_RECORD
  5
19A
100
AcDbSymbolTableRecord
100
AcDbBlockTableRecord
  2
ZU_SYM__USERS_HOME_SYMBOL_POO_SYM_B21_0000321
340
0
102
{BLKREFS
331
1AA
102
}
  0
BLOCK_RECORD
  5
1CC
100
AcDbSymbolTableRecord
100
AcDbBlockTableRecord
  2
ZU_SYM__USERS_HOME_SYMBOL_POO_SYM_B21_0000421
340
0
102
{BLKREFS
331
1DC
102
}
  0
ENDTAB
  0
ENDSEC
  0
SECTION
  2
BLOCKS
  0
BLOCK
  5
D
100
AcDbEntity
  8
0
390
0
100
AcDbBlockBegin
  2
*MODEL_SPACE
 70
     0
 10
0.0
 20
0.0
 30
0.0
  3
*MODEL_SPACE
  1

  0
ENDBLK
  5
E
100
AcDbEntity
  8
0
390
0
100
AcDbBlockEnd
  0
BLOCK
  5
F
100
AcDbEntity
 67
     1
  8
0
390
0
100
AcDbBlockBegin
  2
*PAPER_SPACE
 70
     0
 10
0.0
 20
0.0
 30
0.0
  3
*PAPER_SPACE
  1

  0
ENDBLK
  5
10
100
AcDbEntity
 67
     1
  8
0
390
0
100
AcDbBlockEnd
  0
BLOCK
  5
97
100
AcDbEntity
  8
0
390
0
100
AcDbBlockBegin
  2
ZU_SYM__USERS_HOME_SYMBOL_POO_SYM_B21_21
 70
    64
 10
0.0
 20
0.0
 30
0.0
  3
ZU_SYM__USERS_HOME_SYMBOL_POO_SYM_B21_21
  1

  0
LINE
  5
98
100
AcDbEntity
  8
0
370
    -3
390
0
  6
Continuous
100
AcDbLine
 10
-4.0
 20
-0.222603
 30
0.0
 11
0.000001
 21
1.233275
 31
0.0
  0
LINE
  5
99
100
AcDbEntity
  8
0
370
    -3
390
0
  6
Continuous
100
AcDbLine
 10
0.000001
 20
0.182041
 30
0.0
 11
-3.999999
 21
-1.273837
 31
0.0
  0
LINE
  5
9A
100
AcDbEntity
  8
0
370
    -3
390
0
  6
Continuous
100
AcDbLine
 10
-18.999985
 20
12.0
 30
0.0
 11
-18.999985
 21
-12.0
 31
0.0
  0
LINE
  5
9B
100
AcDbEntity
  8
0
370
    -3
390
0
  6
Continuous
100
AcDbLine
 10
-18.999973
 20
-12.0
 30
0.0
 11
-19.999958
 21
-10.268356
 31
0.0
  0
LINE
  5
9C
100
AcDbEntity
  8
0
370
    -3
390
0
  6
Continuous
100
AcDbLine
 10
-18.999981
 20
11.999997
 30
0.0
 11
-19.999966
 21
10.267576
 31
0.0
  0
LINE
  5
9D
100
AcDbEntity
  8
0
370
    -3
390
0
  6
Continuous
100
AcDbLine
 10
0.0
 20
-14.0
 30
0.0
 11
-4.0
 21
-14.0
 31
0.0
  0
LINE
  5
9E
100
AcDbEntity
  8
0
370
    -3
390
0
  6
Continuous
100
AcDbLine
 10
0.0
 20
14.0
 30
0.0
 11
-4.0
 21
14.0
 31
0.0
  0
LINE
  5
9F
100
AcDbEntity
  8
0
370
    -3
390
0
  6
Continuous
100
AcDbLine
 10
-4.0
 20
-12.0
 30
0.0
 11
-18.999969
 21
-12.0
 31
0.0
  0
LINE
  5
A0
100
AcDbEntity
  8
0
370
    -3
390
0
  6
Continuous
100
AcDbLine
 10
-4.0
 20
12.0
 30
0.0
 11
-18.999985
 21
12.0
 31
0.0
  0
LINE
  5
A1
100
AcDbEntity
  8
0
370
    -3
390
0
  6
Continuous
100
AcDbLine
 10
-19.999962
 20
-10.268356
 30
0.0
 11
-19.999977
 21
10.267579
 31
0.0
  0
LINE
  5
A2
100
AcDbEntity
  8
0
370
    -3
390
0
  6
Continuous
100
AcDbLine
 10
-4.0
 20
-14.0
 30
0.0
 11
-4.0
 21
14.0
 31
0.0
  0
LINE
  5
A3
100
AcDbEntity
  8
0
370
    -3
390
0
  6
Continuous
100
AcDbLine
 10
0.0
 20
14.0
 30
0.0
 11
0.0
 21
-14.0
 31
0.0
  0
POINT
  5
A4
100
AcDbEntity
  8
0
370
    -3
390
0
  6
Continuous
100
AcDbPoint
 10
0.0
 20
0.0
 30
0.0
  0
ENDBLK
  5
A5
100
AcDbEntity
  8
0
390
0
100
AcDbBlockEnd
  0
BLOCK
  5
158
100
AcDbEntity
  8
0
390
0
100
AcDbBlockBegin
  2
ZU_SYM__USERS_HOME_SYMBOL_POO_SYM_B21_0000121
 70
    64
 10
0.0
 20
0.0
 30
0.0
  3
ZU_SYM__USERS_HOME_SYMBOL_POO_SYM_B21_0000121
  1

  0
POINT
  5
159
100
AcDbEntity
  8
0
370
    -3
390
0
  6
Continuous
100
AcDbPoint
 10
0.0
 20
0.0
 30
0.0
  0
LINE
  5
15A
100
AcDbEntity
  8
0
370
    -3
390
0
  6
Continuous
100
AcDbLine
 10
0.0
 20
14.0
 30
0.0
 11
0.0
 21
-14.0
 31
0.0
  0
LINE
  5
15B
100
AcDbEntity
  8
0
370
    -3
390
0
  6
Continuous
100
AcDbLine
 10
-4.0
 20
-14.0
 30
0.0
 11
-4.0
 21
14.0
 31
0.0
  0
LINE
  5
15C
100
AcDbEntity
  8
0
370
    -3
390
0
  6
Continuous
100
AcDbLine
 10
-19.999962
 20
-10.268356
 30
0.0
 11
-19.999977
 21
10.267579
 31
0.0
  0
LINE
  5
15D
100
AcDbEntity
  8
0
370
    -3
390
0
  6
Continuous
100
AcDbLine
 10
-4.0
 20
12.0
 30
0.0
 11
-18.999985
 21
12.0
 31
0.0
  0
LINE
  5
15E
100
AcDbEntity
  8
0
370
    -3
390
0
  6
Continuous
100
AcDbLine
 10
-4.0
 20
-12.0
 30
0.0
 11
-18.999969
 21
-12.0
 31
0.0
  0
LINE
  5
15F
100
AcDbEntity
  8
0
370
    -3
390
0
  6
Continuous
100
AcDbLine
 10
0.0
 20
14.0
 30
0.0
 11
-4.0
 21
14.0
 31
0.0
  0
LINE
  5
160
100
AcDbEntity
  8
0
370
    -3
390
0
  6
Continuous
100
AcDbLine
 10
0.0
 20
-14.0
 30
0.0
 11
-4.0
 21
-14.0
 31
0.0
  0
LINE
  5
161
100
AcDbEntity
  8
0
370
    -3
390
0
  6
Continuous
100
AcDbLine
 10
-18.999981
 20
11.999997
 30
0.0
 11
-19.999966
 21
10.267576
 31
0.0
  0
LINE
  5
162
100
AcDbEntity
  8
0
370
    -3
390
0
  6
Continuous
100
AcDbLine
 10
-18.999973
 20
-12.0
 30
0.0
 11
-19.999958
 21
-10.268356
 31
0.0
  0
LINE
  5
163
100
AcDbEntity
  8
0
370
    -3
390
0
  6
Continuous
100
AcDbLine
 10
-18.999985
 20
12.0
 30
0.0
 11
-18.999985
 21
-12.0
 31
0.0
  0
LINE
  5
164
100
AcDbEntity
  8
0
370
    -3
390
0
  6
Continuous
100
AcDbLine
 10
0.000001
 20
0.182041
 30
0.0
 11
-3.999999
 21
-1.273837
 31
0.0
  0
LINE
  5
165
100
AcDbEntity
  8
0
370
    -3
390
0
  6
Continuous
100
AcDbLine
 10
-4.0
 20
-0.222603
 30
0.0
 11
0.000001
 21
1.233275
 31
0.0
  0
ENDBLK
  5
166
100
AcDbEntity
  8
0
390
0
100
AcDbBlockEnd
  0
BLOCK
  5
18A
100
AcDbEntity
  8
0
390
0
100
AcDbBlockBegin
  2
ZU_SYM__USERS_HOME_SYMBOL_POO_SYM_B21_0000221
 70
    64
 10
0.0
 20
0.0
 30
0.0
  3
ZU_SYM__USERS_HOME_SYMBOL_POO_SYM_B21_0000221
  1

  0
LINE
  5
18B
100
AcDbEntity
  8
0
370
    -3
390
0
  6
Continuous
100
AcDbLine
 10
-4.0
 20
-0.222603
 30
0.0
 11
0.000001
 21
1.233275
 31
0.0
  0
LINE
  5
18C
100
AcDbEntity
  8
0
370
    -3
390
0
  6
Continuous
100
AcDbLine
 10
0.000001
 20
0.182041
 30
0.0
 11
-3.999999
 21
-1.273837
 31
0.0
  0
LINE
  5
18D
100
AcDbEntity
  8
0
370
    -3
390
0
  6
Continuous
100
AcDbLine
 10
-18.999985
 20
12.0
 30
0.0
 11
-18.999985
 21
-12.0
 31
0.0
  0
LINE
  5
18E
100
AcDbEntity
  8
0
370
    -3
390
0
  6
Continuous
100
AcDbLine
 10
-18.999973
 20
-12.0
 30
0.0
 11
-19.999958
 21
-10.268356
 31
0.0
  0
LINE
  5
18F
100
AcDbEntity
  8
0
370
    -3
390
0
  6
Continuous
100
AcDbLine
 10
-18.999981
 20
11.999997
 30
0.0
 11
-19.999966
 21
10.267576
 31
0.0
  0
LINE
  5
190
100
AcDbEntity
  8
0
370
    -3
390
0
  6
Continuous
100
AcDbLine
 10
0.0
 20
-14.0
 30
0.0
 11
-4.0
 21
-14.0
 31
0.0
  0
LINE
  5
191
100
AcDbEntity
  8
0
370
    -3
390
0
  6
Continuous
100
AcDbLine
 10
0.0
 20
14.0
 30
0.0
 11
-4.0
 21
14.0
 31
0.0
  0
LINE
  5
192
100
AcDbEntity
  8
0
370
    -3
390
0
  6
Continuous
100
AcDbLine
 10
-4.0
 20
-12.0
 30
0.0
 11
-18.999969
 21
-12.0
 31
0.0
  0
LINE
  5
193
100
AcDbEntity
  8
0
370
    -3
390
0
  6
Continuous
100
AcDbLine
 10
-4.0
 20
12.0
 30
0.0
 11
-18.999985
 21
12.0
 31
0.0
  0
LINE
  5
194
100
AcDbEntity
  8
0
370
    -3
390
0
  6
Continuous
100
AcDbLine
 10
-19.999962
 20
-10.268356
 30
0.0
 11
-19.999977
 21
10.267579
 31
0.0
  0
LINE
  5
195
100
AcDbEntity
  8
0
370
    -3
390
0
  6
Continuous
100
AcDbLine
 10
-4.0
 20
-14.0
 30
0.0
 11
-4.0
 21
14.0
 31
0.0
  0
LINE
  5
196
100
AcDbEntity
  8
0
370
    -3
390
0
  6
Continuous
100
AcDbLine
 10
0.0
 20
14.0
 30
0.0
 11
0.0
 21
-14.0
 31
0.0
  0
POINT
  5
197
100
AcDbEntity
  8
0
370
    -3
390
0
  6
Continuous
100
AcDbPoint
 10
0.0
 20
0.0
 30
0.0
  0
ENDBLK
  5
198
100
AcDbEntity
  8
0
390
0
100
AcDbBlockEnd
  0
BLOCK
  5
19B
100
AcDbEntity
  8
0
390
0
100
AcDbBlockBegin
  2
ZU_SYM__USERS_HOME_SYMBOL_POO_SYM_B21_0000321
 70
    64
 10
0.0
 20
0.0
 30
0.0
  3
ZU_SYM__USERS_HOME_SYMBOL_POO_SYM_B21_0000321
  1

  0
LINE
  5
19C
100
AcDbEntity
  8
0
370
    -3
390
0
  6
Continuous
100
AcDbLine
 10
-4.0
 20
-0.222603
 30
0.0
 11
0.000001
 21
1.233275
 31
0.0
  0
LINE
  5
19D
100
AcDbEntity
  8
0
370
    -3
390
0
  6
Continuous
100
AcDbLine
 10
0.000001
 20
0.182041
 30
0.0
 11
-3.999999
 21
-1.273837
 31
0.0
  0
LINE
  5
19E
100
AcDbEntity
  8
0
370
    -3
390
0
  6
Continuous
100
AcDbLine
 10
-18.999985
 20
12.0
 30
0.0
 11
-18.999985
 21
-12.0
 31
0.0
  0
LINE
  5
19F
100
AcDbEntity
  8
0
370
    -3
390
0
  6
Continuous
100
AcDbLine
 10
-18.999973
 20
-12.0
 30
0.0
 11
-19.999958
 21
-10.268356
 31
0.0
  0
LINE
  5
1A0
100
AcDbEntity
  8
0
370
    -3
390
0
  6
Continuous
100
AcDbLine
 10
-18.999981
 20
11.999997
 30
0.0
 11
-19.999966
 21
10.267576
 31
0.0
  0
LINE
  5
1A1
100
AcDbEntity
  8
0
370
    -3
390
0
  6
Continuous
100
AcDbLine
 10
0.0
 20
-14.0
 30
0.0
 11
-4.0
 21
-14.0
 31
0.0
  0
LINE
  5
1A2
100
AcDbEntity
  8
0
370
    -3
390
0
  6
Continuous
100
AcDbLine
 10
0.0
 20
14.0
 30
0.0
 11
-4.0
 21
14.0
 31
0.0
  0
LINE
  5
1A3
100
AcDbEntity
  8
0
370
    -3
390
0
  6
Continuous
100
AcDbLine
 10
-4.0
 20
-12.0
 30
0.0
 11
-18.999969
 21
-12.0
 31
0.0
  0
LINE
  5
1A4
100
AcDbEntity
  8
0
370
    -3
390
0
  6
Continuous
100
AcDbLine
 10
-4.0
 20
12.0
 30
0.0
 11
-18.999985
 21
12.0
 31
0.0
  0
LINE
  5
1A5
100
AcDbEntity
  8
0
370
    -3
390
0
  6
Continuous
100
AcDbLine
 10
-19.999962
 20
-10.268356
 30
0.0
 11
-19.999977
 21
10.267579
 31
0.0
  0
LINE
  5
1A6
100
AcDbEntity
  8
0
370
    -3
390
0
  6
Continuous
100
AcDbLine
 10
-4.0
 20
-14.0
 30
0.0
 11
-4.0
 21
14.0
 31
0.0
  0
LINE
  5
1A7
100
AcDbEntity
  8
0
370
    -3
390
0
  6
Continuous
100
AcDbLine
 10
0.0
 20
14.0
 30
0.0
 11
0.0
 21
-14.0
 31
0.0
  0
POINT
  5
1A8
100
AcDbEntity
  8
0
370
    -3
390
0
  6
Continuous
100
AcDbPoint
 10
0.0
 20
0.0
 30
0.0
  0
ENDBLK
  5
1A9
100
AcDbEntity
  8
0
390
0
100
AcDbBlockEnd
  0
BLOCK
  5
1CD
100
AcDbEntity
  8
0
390
0
100
AcDbBlockBegin
  2
ZU_SYM__USERS_HOME_SYMBOL_POO_SYM_B21_0000421
 70
    64
 10
0.0
 20
0.0
 30
0.0
  3
ZU_SYM__USERS_HOME_SYMBOL_POO_SYM_B21_0000421
  1

  0
POINT
  5
1CE
100
AcDbEntity
  8
0
370
    -3
390
0
  6
Continuous
100
AcDbPoint
 10
0.0
 20
0.0
 30
0.0
  0
LINE
  5
1CF
100
AcDbEntity
  8
0
370
    -3
390
0
  6
Continuous
100
AcDbLine
 10
0.0
 20
14.0
 30
0.0
 11
0.0
 21
-14.0
 31
0.0
  0
LINE
  5
1D0
100
AcDbEntity
  8
0
370
    -3
390
0
  6
Continuous
100
AcDbLine
 10
-4.0
 20
-14.0
 30
0.0
 11
-4.0
 21
14.0
 31
0.0
  0
LINE
  5
1D1
100
AcDbEntity
  8
0
370
    -3
390
0
  6
Continuous
100
AcDbLine
 10
-19.999962
 20
-10.268356
 30
0.0
 11
-19.999977
 21
10.267579
 31
0.0
  0
LINE
  5
1D2
100
AcDbEntity
  8
0
370
    -3
390
0
  6
Continuous
100
AcDbLine
 10
-4.0
 20
12.0
 30
0.0
 11
-18.999985
 21
12.0
 31
0.0
  0
LINE
  5
1D3
100
AcDbEntity
  8
0
370
    -3
390
0
  6
Continuous
100
AcDbLine
 10
-4.0
 20
-12.0
 30
0.0
 11
-18.999969
 21
-12.0
 31
0.0
  0
LINE
  5
1D4
100
AcDbEntity
  8
0
370
    -3
390
0
  6
Continuous
100
AcDbLine
 10
0.0
 20
14.0
 30
0.0
 11
-4.0
 21
14.0
 31
0.0
  0
LINE
  5
1D5
100
AcDbEntity
  8
0
370
    -3
390
0
  6
Continuous
100
AcDbLine
 10
0.0
 20
-14.0
 30
0.0
 11
-4.0
 21
-14.0
 31
0.0
  0
LINE
  5
1D6
100
AcDbEntity
  8
0
370
    -3
390
0
  6
Continuous
100
AcDbLine
 10
-18.999981
 20
11.999997
 30
0.0
 11
-19.999966
 21
10.267576
 31
0.0
  0
LINE
  5
1D7
100
AcDbEntity
  8
0
370
    -3
390
0
  6
Continuous
100
AcDbLine
 10
-18.999973
 20
-12.0
 30
0.0
 11
-19.999958
 21
-10.268356
 31
0.0
  0
LINE
  5
1D8
100
AcDbEntity
  8
0
370
    -3
390
0
  6
Continuous
100
AcDbLine
 10
-18.999985
 20
12.0
 30
0.0
 11
-18.999985
 21
-12.0
 31
0.0
  0
LINE
  5
1D9
100
AcDbEntity
  8
0
370
    -3
390
0
  6
Continuous
100
AcDbLine
 10
0.000001
 20
0.182041
 30
0.0
 11
-3.999999
 21
-1.273837
 31
0.0
  0
LINE
  5
1DA
100
AcDbEntity
  8
0
370
    -3
390
0
  6
Continuous
100
AcDbLine
 10
-4.0
 20
-0.222603
 30
0.0
 11
0.000001
 21
1.233275
 31
0.0
  0
ENDBLK
  5
1DB
100
AcDbEntity
  8
0
390
0
100
AcDbBlockEnd
  0
ENDSEC
  0
SECTION
  2
ENTITIES
  0
ARC
  5
2A
100
AcDbEntity
  8
0
370
    -3
390
0
  6
Continuous
100
AcDbCircle
 10
-29.231346
 20
496.376123
 30
0.0
 40
6.0
100
AcDbArc
 50
0.0
 51
90.0
  0
LINE
  5
2B
100
AcDbEntity
  8
0
370
    -3
390
0
  6
Continuous
100
AcDbLine
 10
-36.191968
 20
-508.986615
 30
0.0
 11
-27.231346
 21
-508.986615
 31
0.0
  0
ARC
  5
2C
100
AcDbEntity
  8
0
370
    -3
390
0
  6
Continuous
100
AcDbCircle
 10
-28.231346
 20
-513.986615
 30
0.0
 40
5.0
100
AcDbArc
 50
0.0
 51
90.0
  0
LINE
  5
2D
100
AcDbEntity
  8
0
370
    -3
390
0
  6
Continuous
100
AcDbLine
 10
-23.231346
 20
-513.986615
 30
0.0
 11
-23.231346
 21
-548.986615
 31
0.0
  0
LINE
  5
2E
100
AcDbEntity
  8
0
370
    -3
390
0
  6
CENTER
100
AcDbLine
 10
-53.231346
 20
-498.418004
 30
0.0
 11
-53.231346
 21
-562.855968
 31
0.0
  0
POINT
  5
2F
100
AcDbEntity
  8
0
370
    -3
390
0
  6
CENTER
100
AcDbPoint
 10
278.916101
 20
-515.918556
 30
0.0
  0
ARC
  5
30
100
AcDbEntity
  8
0
370
    -3
390
0
  6
Continuous
100
AcDbCircle
 10
263.193553
 20
-498.986615
 30
0.0
 40
10.0
100
AcDbArc
 50
270.0
 51
330.0
  0
LINE
  5
31
100
AcDbEntity
  8
0
370
    -3
390
0
  6
Continuous
100
AcDbLine
 10
274.263959
 20
-499.812109
 30
0.0
 11
271.853807
 21
-503.986615
 31
0.0
  0
ARC
  5
32
100
AcDbEntity
  8
0
370
    -3
390
0
  6
Continuous
100
AcDbCircle
 10
205.967056
 20
-513.986615
 30
0.0
 40
5.0
100
AcDbArc
 50
90.0
 51
180.0
  0
LINE
  5
33
100
AcDbEntity
  8
0
370
    -3
390
0
  6
Continuous
100
AcDbLine
 10
205.967056
 20
-508.986615
 30
0.0
 11
265.62731
 21
-508.986615
 31
0.0
  0
ARC
  5
34
100
AcDbEntity
  8
0
370
    -3
390
0
  6
Continuous
100
AcDbCircle
 10
265.62731
 20
-513.986615
 30
0.0
 40
5.0
100
AcDbArc
 50
60.0
 51
90.0
  0
LINE
  5
35
100
AcDbEntity
  8
0
370
    -3
390
0
  6
Continuous
100
AcDbLine
 10
268.12731
 20
-509.656488
 30
0.0
 11
278.467056
 21
-515.626143
 31
0.0
  0
ARC
  5
36
100
AcDbEntity
  8
0
370
    -3
390
0
  6
Continuous
100
AcDbCircle
 10
275.967056
 20
-519.95627
 30
0.0
 40
5.0
100
AcDbArc
 50
0.0
 51
60.0
  0
LINE
  5
37
100
AcDbEntity
  8
0
370
    -3
390
0
  6
Continuous
100
AcDbLine
 10
280.967056
 20
-519.95627
 30
0.0
 11
280.967056
 21
-548.986615
 31
0.0
  0
LINE
  5
38
100
AcDbEntity
  8
0
370
    -3
390
0
  6
CENTER
100
AcDbLine
 10
240.967056
 20
-493.310187
 30
0.0
 11
240.967056
 21
-562.791092
 31
0.0
  0
LINE
  5
39
100
AcDbEntity
  8
0
370
    -3
390
0
  6
DASHED
100
AcDbLine
 10
276.967056
 20
-350.79501
 30
0.0
 11
276.967056
 21
-424.986615
 31
0.0
  0
ARC
  5
3A
100
AcDbEntity
  8
0
370
    -3
390
0
  6
DASHED
100
AcDbCircle
 10
273.967056
 20
-350.79501
 30
0.0
 40
3.0
100
AcDbArc
 50
0.0
 51
66.0
  0
LINE
  5
3B
100
AcDbEntity
  8
0
370
    -3
390
0
  6
CENTER
100
AcDbLine
 10
-161.231346
 20
-508.986615
 30
0.0
 11
-196.231346
 21
-508.986615
 31
0.0
  0
LINE
  5
3C
100
AcDbEntity
  8
0
370
    -3
390
0
  6
CENTER
100
AcDbLine
 10
-178.731346
 20
-491.486615
 30
0.0
 11
-178.731346
 21
-526.486615
 31
0.0
  0
CIRCLE
  5
3D
100
AcDbEntity
  8
0
370
    -3
390
0
  6
Continuous
100
AcDbCircle
 10
-178.731346
 20
-508.986615
 30
0.0
 40
12.5
  0
LINE
  5
3E
100
AcDbEntity
  8
0
370
    -3
390
0
  6
CENTER
100
AcDbLine
 10
-403.231346
 20
-498.418004
 30
0.0
 11
-403.231346
 21
-563.726752
 31
0.0
  0
LINE
  5
3F
100
AcDbEntity
  8
0
370
    -3
390
0
  6
Continuous
100
AcDbLine
 10
-433.231346
 20
-517.986615
 30
0.0
 11
-433.231346
 21
-548.986615
 31
0.0
  0
LINE
  5
40
100
AcDbEntity
  8
0
370
    -3
390
0
  6
Continuous
100
AcDbLine
 10
-92.731346
 20
-508.986615
 30
0.0
 11
-36.191968
 21
-508.986615
 31
0.0
  0
ARC
  5
41
100
AcDbEntity
  8
0
370
    -3
390
0
  6
Continuous
100
AcDbCircle
 10
-428.231346
 20
-517.986615
 30
0.0
 40
5.0
100
AcDbArc
 50
90.0
 51
180.0
  0
LINE
  5
42
100
AcDbEntity
  8
0
370
    -3
390
0
  6
Continuous
100
AcDbLine
 10
-428.231346
 20
-512.986615
 30
0.0
 11
-373.326761
 21
-510.316483
 31
0.0
  0
ARC
  5
43
100
AcDbEntity
  8
0
370
    -3
390
0
  6
Continuous
100
AcDbCircle
 10
-374.793435
 20
-500.424625
 30
0.0
 40
10.0
100
AcDbArc
 50
272.784227
 51
296.270955
  0
LINE
  5
44
100
AcDbEntity
  8
0
370
    -3
390
0
  6
Continuous
100
AcDbLine
 10
-587.436427
 20
-513.186615
 30
0.0
 11
-532.231346
 21
-513.186615
 31
0.0
  0
ARC
  5
45
100
AcDbEntity
  8
0
370
    -3
390
0
  6
Continuous
100
AcDbCircle
 10
-587.114888
 20
-411.986615
 30
0.0
 40
101.2
100
AcDbArc
 50
240.0
 51
270.0
  0
LINE
  5
46
100
AcDbEntity
  8
0
370
    -3
390
0
  6
Continuous
100
AcDbLine
 10
-637.714888
 20
-499.628386
 30
0.0
 11
-646.131346
 21
-494.769142
 31
0.0
  0
LINE
  5
47
100
AcDbEntity
  8
0
370
    -3
390
0
  6
Continuous
100
AcDbLine
 10
-532.231346
 20
-493.986615
 30
0.0
 11
-339.157559
 21
-493.986615
 31
0.0
  0
LINE
  5
48
100
AcDbEntity
  8
0
370
    -3
390
0
  6
Continuous
100
AcDbLine
 10
-532.231346
 20
-499.986615
 30
0.0
 11
-351.313145
 21
-499.986615
 31
0.0
  0
LINE
  5
49
100
AcDbEntity
  8
0
370
    -3
390
0
  6
Continuous
100
AcDbLine
 10
-532.231346
 20
-503.986615
 30
0.0
 11
-359.41687
 21
-503.986615
 31
0.0
  0
LINE
  5
4A
100
AcDbEntity
  8
0
370
    -3
390
0
  6
Continuous
100
AcDbLine
 10
-532.231346
 20
-508.986615
 30
0.0
 11
-369.546526
 21
-508.986615
 31
0.0
  0
LINE
  5
4B
100
AcDbEntity
  8
0
370
    -3
390
0
  6
Continuous
100
AcDbLine
 10
-532.231346
 20
-505.486615
 30
0.0
 11
-362.455767
 21
-505.486615
 31
0.0
  0
ARC
  5
4C
100
AcDbEntity
  8
0
370
    -3
390
0
  6
Continuous
100
AcDbCircle
 10
-427.231346
 20
496.376123
 30
0.0
 40
6.0
100
AcDbArc
 50
90.0
 51
180.0
  0
ARC
  5
4D
100
AcDbEntity
  8
0
370
    -3
390
0
  6
Continuous
100
AcDbCircle
 10
-132.731346
 20
496.376123
 30
0.0
 40
6.0
100
AcDbArc
 50
0.0
 51
90.0
  0
LINE
  5
4E
100
AcDbEntity
  8
0
370
    -3
390
0
  6
Continuous
100
AcDbLine
 10
-278.231319
 20
486.376123
 30
0.0
 11
-373.231346
 21
486.376123
 31
0.0
  0
LINE
  5
4F
100
AcDbEntity
  8
0
370
    -3
390
0
  6
Continuous
100
AcDbLine
 10
-373.231346
 20
502.376123
 30
0.0
 11
-373.231346
 21
486.376123
 31
0.0
  0
LINE
  5
50
100
AcDbEntity
  8
0
370
    -3
390
0
  6
Continuous
100
AcDbLine
 10
-86.731346
 20
486.376123
 30
0.0
 11
-126.731346
 21
486.376123
 31
0.0
  0
LINE
  5
51
100
AcDbEntity
  8
0
370
    -3
390
0
  6
Continuous
100
AcDbLine
 10
-86.731346
 20
502.376123
 30
0.0
 11
-86.731346
 21
486.376123
 31
0.0
  0
ARC
  5
52
100
AcDbEntity
  8
0
370
    -3
390
0
  6
Continuous
100
AcDbCircle
 10
-256.231346
 20
497.376123
 30
0.0
 40
2.0
100
AcDbArc
 50
90.0
 51
180.0
  0
LINE
  5
53
100
AcDbEntity
  8
0
370
    -3
390
0
  6
Continuous
100
AcDbLine
 10
-277.231327
 20
494.376121
 30
0.0
 11
-278.231312
 21
492.643699
 31
0.0
  0
LINE
  5
54
100
AcDbEntity
  8
0
370
    -3
390
0
  6
Continuous
100
AcDbLine
 10
-258.231346
 20
496.376123
 30
0.0
 11
-262.231346
 21
496.376123
 31
0.0
  0
LINE
  5
55
100
AcDbEntity
  8
0
370
    -3
390
0
  6
Continuous
100
AcDbLine
 10
-262.231346
 20
494.376123
 30
0.0
 11
-277.231331
 21
494.376123
 31
0.0
  0
ARC
  5
56
100
AcDbEntity
  8
0
370
    -3
390
0
  6
Continuous
100
AcDbCircle
 10
6.768654
 20
282.376123
 30
0.0
 40
10.0
100
AcDbArc
 50
90.0
 51
270.0
  0
LINE
  5
57
100
AcDbEntity
  8
0
370
    -3
390
0
  6
Continuous
100
AcDbLine
 10
86.768654
 20
272.376123
 30
0.0
 11
6.768654
 21
272.376123
 31
0.0
  0
LINE
  5
58
100
AcDbEntity
  8
0
370
    -3
390
0
  6
Continuous
100
AcDbLine
 10
86.768654
 20
292.376123
 30
0.0
 11
6.768654
 21
292.376123
 31
0.0
  0
LINE
  5
59
100
AcDbEntity
  8
0
370
    -3
390
0
  6
Continuous
100
AcDbLine
 10
-18.231346
 20
244.876123
 30
0.0
 11
-23.231346
 21
244.876123
 31
0.0
  0
LINE
  5
5A
100
AcDbEntity
  8
0
370
    -3
390
0
  6
Continuous
100
AcDbLine
 10
-18.231346
 20
319.876123
 30
0.0
 11
-23.231346
 21
319.876123
 31
0.0
  0
LINE
  5
5B
100
AcDbEntity
  8
0
370
    -3
390
0
  6
Continuous
100
AcDbLine
 10
-18.231346
 20
319.876123
 30
0.0
 11
-18.231346
 21
244.876123
 31
0.0
  0
LINE
  5
5C
100
AcDbEntity
  8
0
370
    -3
390
0
  6
Continuous
100
AcDbLine
 10
6.768654
 20
292.376123
 30
0.0
 11
6.768654
 21
272.376123
 31
0.0
  0
LINE
  5
5D
100
AcDbEntity
  8
0
370
    -3
390
0
  6
Continuous
100
AcDbLine
 10
86.768654
 20
247.376123
 30
0.0
 11
-18.231346
 21
247.376123
 31
0.0
  0
LINE
  5
5E
100
AcDbEntity
  8
0
370
    -3
390
0
  6
Continuous
100
AcDbLine
 10
86.768654
 20
317.376123
 30
0.0
 11
-18.231346
 21
317.376123
 31
0.0
  0
LINE
  5
5F
100
AcDbEntity
  8
0
370
    -3
390
0
  6
Continuous
100
AcDbLine
 10
86.768654
 20
317.376123
 30
0.0
 11
86.768654
 21
247.376123
 31
0.0
  0
LINE
  5
60
100
AcDbEntity
  8
0
370
    -3
390
0
  6
Continuous
100
AcDbLine
 10
-25.231346
 20
347.376123
 30
0.0
 11
-30.231346
 21
347.376123
 31
0.0
  0
ARC
  5
61
100
AcDbEntity
  8
0
370
    -3
390
0
  6
Continuous
100
AcDbCircle
 10
-25.231346
 20
344.376123
 30
0.0
 40
3.0
100
AcDbArc
 50
48.189685
 51
90.0
  0
LINE
  5
62
100
AcDbEntity
  8
0
370
    -3
390
0
  6
Continuous
100
AcDbLine
 10
-23.231346
 20
346.612191
 30
0.0
 11
-23.231346
 21
282.376123
 31
0.0
  0
ARC
  5
63
100
AcDbEntity
  8
0
370
    -3
390
0
  6
Continuous
100
AcDbCircle
 10
-29.231346
 20
428.376123
 30
0.0
 40
6.0
100
AcDbArc
 50
270.0
 51
0.0
  0
ARC
  5
64
100
AcDbEntity
  8
0
370
    -3
390
0
  6
Continuous
100
AcDbCircle
 10
-29.231346
 20
443.715869
 30
0.0
 40
6.0
100
AcDbArc
 50
270.0
 51
0.0
  0
LINE
  5
65
100
AcDbEntity
  8
0
370
    -3
390
0
  6
Continuous
100
AcDbLine
 10
-23.231346
 20
431.715869
 30
0.0
 11
-23.231346
 21
428.376123
 31
0.0
  0
ARC
  5
66
100
AcDbEntity
  8
0
370
    -3
390
0
  6
Continuous
100
AcDbCircle
 10
-29.231346
 20
431.715869
 30
0.0
 40
6.0
100
AcDbArc
 50
0.0
 51
90.0
  0
LINE
  5
67
100
AcDbEntity
  8
0
370
    -3
390
0
  6
Continuous
100
AcDbLine
 10
-23.231346
 20
496.376123
 30
0.0
 11
-23.231346
 21
431.715869
 31
0.0
  0
ARC
  5
68
100
AcDbEntity
  8
0
370
    -3
390
0
  6
Continuous
100
AcDbCircle
 10
-29.231346
 20
133.036377
 30
0.0
 40
6.0
100
AcDbArc
 50
270.0
 51
0.0
  0
ARC
  5
69
100
AcDbEntity
  8
0
370
    -3
390
0
  6
Continuous
100
AcDbCircle
 10
-29.231346
 20
121.036377
 30
0.0
 40
6.0
100
AcDbArc
 50
0.0
 51
90.0
  0
LINE
  5
6A
100
AcDbEntity
  8
0
370
    -3
390
0
  6
Continuous
100
AcDbLine
 10
-23.231346
 20
133.036377
 30
0.0
 11
-23.231346
 21
136.376123
 31
0.0
  0
ARC
  5
6B
100
AcDbEntity
  8
0
370
    -3
390
0
  6
Continuous
100
AcDbCircle
 10
-29.231346
 20
136.376123
 30
0.0
 40
6.0
100
AcDbArc
 50
0.0
 51
90.0
  0
ARC
  5
6C
100
AcDbEntity
  8
0
370
    -3
390
0
  6
Continuous
100
AcDbCircle
 10
-29.231346
 20
68.376123
 30
0.0
 40
6.0
100
AcDbArc
 50
270.0
 51
0.0
  0
LINE
  5
6D
100
AcDbEntity
  8
0
370
    -3
390
0
  6
Continuous
100
AcDbLine
 10
-23.231346
 20
68.376123
 30
0.0
 11
-23.231346
 21
133.036377
 31
0.0
  0
LINE
  5
6E
100
AcDbEntity
  8
0
370
    -3
390
0
  6
Continuous
100
AcDbLine
 10
-23.231346
 20
218.140055
 30
0.0
 11
-23.231346
 21
282.376123
 31
0.0
  0
LINE
  5
6F
100
AcDbEntity
  8
0
370
    -3
390
0
  6
Continuous
100
AcDbLine
 10
-25.231346
 20
217.376123
 30
0.0
 11
-30.231346
 21
217.376123
 31
0.0
  0
ARC
  5
70
100
AcDbEntity
  8
0
370
    -3
390
0
  6
Continuous
100
AcDbCircle
 10
-25.231346
 20
220.376123
 30
0.0
 40
3.0
100
AcDbArc
 50
270.0
 51
311.810315
  0
LINE
  5
71
100
AcDbEntity
  8
0
370
    -3
390
0
  6
CENTER
100
AcDbLine
 10
226.513302
 20
-435.846957
 30
0.0
 11
236.87383
 21
-440.459761
 31
0.0
  0
LINE
  5
72
100
AcDbEntity
  8
0
370
    -3
390
0
  6
CENTER
100
AcDbLine
 10
281.189395
 20
-375.986615
 30
0.0
 11
226.069867
 21
-375.986615
 31
0.0
  0
ARC
  5
73
100
AcDbEntity
  8
0
370
    -3
390
0
  6
Continuous
100
AcDbCircle
 10
-31.823245
 20
-189.044914
 30
0.0
 40
8.0
100
AcDbArc
 50
208.979478
 51
233.984342
  0
ARC
  5
74
100
AcDbEntity
  8
0
370
    -3
390
0
  6
Continuous
100
AcDbCircle
 10
-76.840522
 20
-140.786939
 30
0.0
 40
8.0
100
AcDbArc
 50
28.979478
 51
88.281642
  0
LINE
  5
75
100
AcDbEntity
  8
0
370
    -3
390
0
  6
Continuous
100
AcDbLine
 10
-69.842175
 20
-136.910969
 30
0.0
 11
-38.821591
 21
-192.920884
 31
0.0
  0
ARC
  5
76
100
AcDbEntity
  8
0
370
    -3
390
0
  6
Continuous
100
AcDbCircle
 10
-68.231346
 20
-489.919918
 30
0.0
 40
35.0
100
AcDbArc
 50
326.991546
 51
0.0
  0
ARC
  5
77
100
AcDbEntity
  8
0
370
    -3
390
0
  6
Continuous
100
AcDbCircle
 10
-77.231346
 20
-140.775214
 30
0.0
 40
8.0
100
AcDbArc
 50
0.0
 51
88.281642
  0
ARC
  5
78
100
AcDbEntity
  8
0
370
    -3
390
0
  6
Continuous
100
AcDbCircle
 10
-51.231346
 20
-302.535051
 30
0.0
 40
18.0
100
AcDbArc
 50
180.0
 51
260.0
  0
LINE
  5
79
100
AcDbEntity
  8
0
370
    -3
390
0
  6
Continuous
100
AcDbLine
 10
-69.231346
 20
-302.535051
 30
0.0
 11
-69.231346
 21
-185.986615
 31
0.0
  0
LINE
  5
7A
100
AcDbEntity
  8
0
370
    -3
390
0
  6
Continuous
100
AcDbLine
 10
-33.231346
 20
-351.986615
 30
0.0
 11
-33.231346
 21
-329.021213
 31
0.0
  0
ARC
  5
7B
100
AcDbEntity
  8
0
370
    -3
390
0
  6
Continuous
100
AcDbCircle
 10
-39.231346
 20
-329.021213
 30
0.0
 40
6.0
100
AcDbArc
 50
0.0
 51
80.0
  0
LINE
  5
7C
100
AcDbEntity
  8
0
370
    -3
390
0
  6
Continuous
100
AcDbLine
 10
-54.357013
 20
-320.26159
 30
0.0
 11
-38.189457
 21
-323.112366
 31
0.0
  0
LINE
  5
7D
100
AcDbEntity
  8
0
370
    -3
390
0
  6
Continuous
100
AcDbLine
 10
-33.231346
 20
-443.986615
 30
0.0
 11
-33.231346
 21
-489.919918
 31
0.0
  0
LINE
  5
7E
100
AcDbEntity
  8
0
370
    -3
390
0
  6
Continuous
100
AcDbLine
 10
-33.231346
 20
-443.986615
 30
0.0
 11
-33.231346
 21
-351.986615
 31
0.0
  0
ARC
  5
7F
100
AcDbEntity
  8
0
370
    -3
390
0
  6
Continuous
100
AcDbCircle
 10
-30.231346
 20
-351.986615
 30
0.0
 40
3.0
100
AcDbArc
 50
90.0
 51
180.0
  0
LINE
  5
80
100
AcDbEntity
  8
0
370
    -3
390
0
  6
Continuous
100
AcDbLine
 10
-30.231346
 20
-348.986615
 30
0.0
 11
-25.231346
 21
-348.986615
 31
0.0
  0
ARC
  5
81
100
AcDbEntity
  8
0
370
    -3
390
0
  6
Continuous
100
AcDbCircle
 10
-25.231346
 20
-345.986615
 30
0.0
 40
3.0
100
AcDbArc
 50
270.0
 51
311.810315
  0
ARC
  5
82
100
AcDbEntity
  8
0
370
    -3
390
0
  6
Continuous
100
AcDbCircle
 10
-61.231346
 20
-185.986615
 30
0.0
 40
8.0
100
AcDbArc
 50
180.0
 51
270.0
  0
ARC
  5
83
100
AcDbEntity
  8
0
370
    -3
390
0
  6
Continuous
100
AcDbCircle
 10
-41.231346
 20
-201.986615
 30
0.0
 40
8.0
100
AcDbArc
 50
0.0
 51
90.0
  0
ARC
  5
84
100
AcDbEntity
  8
0
370
    -3
390
0
  6
Continuous
100
AcDbCircle
 10
-30.231346
 20
-215.986615
 30
0.0
 40
3.0
100
AcDbArc
 50
180.0
 51
270.0
  0
ARC
  5
85
100
AcDbEntity
  8
0
370
    -3
390
0
  6
Continuous
100
AcDbCircle
 10
-25.231346
 20
-221.986615
 30
0.0
 40
3.0
100
AcDbArc
 50
48.189685
 51
90.0
  0
LINE
  5
86
100
AcDbEntity
  8
0
370
    -3
390
0
  6
Continuous
100
AcDbLine
 10
-69.231346
 20
-140.775214
 30
0.0
 11
-69.231346
 21
-185.986615
 31
0.0
  0
LINE
  5
87
100
AcDbEntity
  8
0
370
    -3
390
0
  6
Continuous
100
AcDbLine
 10
-61.231346
 20
-193.986615
 30
0.0
 11
-41.231346
 21
-193.986615
 31
0.0
  0
LINE
  5
88
100
AcDbEntity
  8
0
370
    -3
390
0
  6
Continuous
100
AcDbLine
 10
-33.231346
 20
-201.986615
 30
0.0
 11
-33.231346
 21
-348.986615
 31
0.0
  0
LINE
  5
89
100
AcDbEntity
  8
0
370
    -3
390
0
  6
Continuous
100
AcDbLine
 10
-30.231346
 20
-218.986615
 30
0.0
 11
-25.231346
 21
-218.986615
 31
0.0
  0
LINE
  5
8A
100
AcDbEntity
  8
0
370
    -3
390
0
  6
Continuous
100
AcDbLine
 10
-23.231346
 20
-219.750547
 30
0.0
 11
-23.231346
 21
-283.986615
 31
0.0
  0
LINE
  5
8B
100
AcDbEntity
  8
0
370
    -3
390
0
  6
Continuous
100
AcDbLine
 10
-23.231346
 20
-348.222683
 30
0.0
 11
-23.231346
 21
-283.986615
 31
0.0
  0
LINE
  5
8C
100
AcDbEntity
  8
0
370
    -3
390
0
  6
Continuous
100
AcDbLine
 10
86.768654
 20
-244.486615
 30
0.0
 11
86.768654
 21
-318.986615
 31
0.0
  0
LINE
  5
8D
100
AcDbEntity
  8
0
370
    -3
390
0
  6
Continuous
100
AcDbLine
 10
-18.231346
 20
-248.986615
 30
0.0
 11
86.768654
 21
-248.986615
 31
0.0
  0
LINE
  5
8E
100
AcDbEntity
  8
0
370
    -3
390
0
  6
Continuous
100
AcDbLine
 10
-18.231346
 20
-318.986615
 30
0.0
 11
86.768654
 21
-318.986615
 31
0.0
  0
LINE
  5
8F
100
AcDbEntity
  8
0
370
    -3
390
0
  6
Continuous
100
AcDbLine
 10
6.768654
 20
-244.486615
 30
0.0
 11
6.768654
 21
-248.986615
 31
0.0
  0
LINE
  5
90
100
AcDbEntity
  8
0
370
    -3
390
0
  6
Continuous
100
AcDbLine
 10
-18.231346
 20
-246.486615
 30
0.0
 11
-18.231346
 21
-321.486615
 31
0.0
  0
LINE
  5
91
100
AcDbEntity
  8
0
370
    -3
390
0
  6
Continuous
100
AcDbLine
 10
6.768654
 20
-244.486615
 30
0.0
 11
86.768654
 21
-244.486615
 31
0.0
  0
LINE
  5
92
100
AcDbEntity
  8
0
370
    -3
390
0
  6
Continuous
100
AcDbLine
 10
-23.231346
 20
-246.486615
 30
0.0
 11
-18.231346
 21
-246.486615
 31
0.0
  0
LINE
  5
93
100
AcDbEntity
  8
0
370
    -3
390
0
  6
Continuous
100
AcDbLine
 10
-23.231346
 20
-321.486615
 30
0.0
 11
-18.231346
 21
-321.486615
 31
0.0
  0
LINE
  5
94
100
AcDbEntity
  8
0
370
    -3
390
0
  6
CENTER
100
AcDbLine
 10
-284.929243
 20
-138.986615
 30
0.0
 11
-240.548636
 21
-138.986615
 31
0.0
  0
LINE
  5
95
100
AcDbEntity
  8
0
370
    -3
390
0
  6
Continuous
100
AcDbLine
 10
-260.231346
 20
-152.986615
 30
0.0
 11
-260.231346
 21
-164.217671
 31
0.0
  0
INSERT
  5
A6
100
AcDbEntity
  8
0
390
0
100
AcDbBlockReference
  2
ZU_SYM__USERS_HOME_SYMBOL_POO_SYM_B21_21
 10
-258.231346
 20
-138.986615
 30
0.0
  0
ARC
  5
A7
100
AcDbEntity
  8
0
370
    -3
390
0
  6
Continuous
100
AcDbCircle
 10
-256.231346
 20
-153.986615
 30
0.0
 40
2.0
100
AcDbArc
 50
180.0
 51
270.0
  0
LINE
  5
A8
100
AcDbEntity
  8
0
370
    -3
390
0
  6
Continuous
100
AcDbLine
 10
-255.231346
 20
-118.986615
 30
0.0
 11
-233.731346
 21
-118.986615
 31
0.0
  0
LINE
  5
A9
100
AcDbEntity
  8
0
370
    -3
390
0
  6
Continuous
100
AcDbLine
 10
-258.231346
 20
-121.986615
 30
0.0
 11
-258.231346
 21
-153.986615
 31
0.0
  0
ARC
  5
AA
100
AcDbEntity
  8
0
370
    -3
390
0
  6
Continuous
100
AcDbCircle
 10
-253.231346
 20
-121.986615
 30
0.0
 40
3.0
100
AcDbArc
 50
90.0
 51
180.0
  0
ARC
  5
AB
100
AcDbEntity
  8
0
370
    -3
390
0
  6
Continuous
100
AcDbCircle
 10
-255.231346
 20
-121.986615
 30
0.0
 40
3.0
100
AcDbArc
 50
90.0
 51
180.0
  0
LINE
  5
AC
100
AcDbEntity
  8
0
370
    -3
390
0
  6
Continuous
100
AcDbLine
 10
-250.231346
 20
-121.986615
 30
0.0
 11
-250.231346
 21
-126.188656
 31
0.0
  0
ARC
  5
AD
100
AcDbEntity
  8
0
370
    -3
390
0
  6
Continuous
100
AcDbCircle
 10
-247.231346
 20
-121.986615
 30
0.0
 40
3.0
100
AcDbArc
 50
90.0
 51
180.0
  0
ARC
  5
AE
100
AcDbEntity
  8
0
370
    -3
390
0
  6
Continuous
100
AcDbCircle
 10
-248.231346
 20
-135.986615
 30
0.0
 40
8.0
100
AcDbArc
 50
117.035692
 51
180.0
  0
ARC
  5
AF
100
AcDbEntity
  8
0
370
    -3
390
0
  6
Continuous
100
AcDbCircle
 10
-253.231346
 20
-126.188656
 30
0.0
 40
3.0
100
AcDbArc
 50
297.035692
 51
0.0
  0
ARC
  5
B0
100
AcDbEntity
  8
0
370
    -3
390
0
  6
Continuous
100
AcDbCircle
 10
360.967056
 20
-227.986615
 30
0.0
 40
109.0
100
AcDbArc
 50
90.0
 51
180.0
  0
ARC
  5
B1
100
AcDbEntity
  8
0
370
    -3
390
0
  6
Continuous
100
AcDbCircle
 10
360.967056
 20
-227.986615
 30
0.0
 40
100.0
100
AcDbArc
 50
90.0
 51
180.0
  0
ARC
  5
B2
100
AcDbEntity
  8
0
370
    -3
390
0
  6
Continuous
100
AcDbCircle
 10
254.967056
 20
-258.986615
 30
0.0
 40
6.0
100
AcDbArc
 50
270.0
 51
0.0
  0
ARC
  5
B3
100
AcDbEntity
  8
0
370
    -3
390
0
  6
Continuous
100
AcDbCircle
 10
261.408028
 20
-446.986615
 30
0.0
 40
1.0
100
AcDbArc
 50
9.68997
 51
90.0
  0
ARC
  5
B4
100
AcDbEntity
  8
0
370
    -3
390
0
  6
Continuous
100
AcDbCircle
 10
260.967056
 20
-444.986615
 30
0.0
 40
1.0
100
AcDbArc
 50
180.0
 51
270.0
  0
LINE
  5
B5
100
AcDbEntity
  8
0
370
    -3
390
0
  6
Continuous
100
AcDbLine
 10
260.967056
 20
-445.986615
 30
0.0
 11
261.408028
 21
-445.986615
 31
0.0
  0
LINE
  5
B6
100
AcDbEntity
  8
0
370
    -3
390
0
  6
Continuous
100
AcDbLine
 10
259.967056
 20
-444.986615
 30
0.0
 11
259.967056
 21
-425.986615
 31
0.0
  0
ARC
  5
B7
100
AcDbEntity
  8
0
370
    -3
390
0
  6
Continuous
100
AcDbCircle
 10
259.967056
 20
-405.254564
 30
0.0
 40
1.0
100
AcDbArc
 50
300.0
 51
0.0
  0
ARC
  5
B8
100
AcDbEntity
  8
0
370
    -3
390
0
  6
Continuous
100
AcDbCircle
 10
260.967056
 20
-406.986615
 30
0.0
 40
1.0
100
AcDbArc
 50
120.0
 51
180.0
  0
LINE
  5
B9
100
AcDbEntity
  8
0
370
    -3
390
0
  6
Continuous
100
AcDbLine
 10
259.967056
 20
-406.986615
 30
0.0
 11
259.967056
 21
-425.986615
 31
0.0
  0
ARC
  5
BA
100
AcDbEntity
  8
0
370
    -3
390
0
  6
Continuous
100
AcDbCircle
 10
256.943451
 20
-489.812109
 30
0.0
 40
20.0
100
AcDbArc
 50
330.0
 51
29.903836
  0
ARC
  5
BB
100
AcDbEntity
  8
0
370
    -3
390
0
  6
Continuous
100
AcDbCircle
 10
231.908181
 20
-371.986615
 30
0.0
 40
8.0
100
AcDbArc
 50
90.0
 51
135.0
  0
ARC
  5
BC
100
AcDbEntity
  8
0
370
    -3
390
0
  6
Continuous
100
AcDbCircle
 10
224.967056
 20
-378.927741
 30
0.0
 40
8.0
100
AcDbArc
 50
135.0
 51
180.0
  0
LINE
  5
BD
100
AcDbEntity
  8
0
370
    -3
390
0
  6
Continuous
100
AcDbLine
 10
219.310201
 20
-373.270886
 30
0.0
 11
226.251327
 21
-366.329761
 31
0.0
  0
ARC
  5
BE
100
AcDbEntity
  8
0
370
    -3
390
0
  6
Continuous
100
AcDbCircle
 10
252.967056
 20
-371.986615
 30
0.0
 40
8.0
100
AcDbArc
 50
0.0
 51
90.0
  0
LINE
  5
BF
100
AcDbEntity
  8
0
370
    -3
390
0
  6
Continuous
100
AcDbLine
 10
231.908181
 20
-363.986615
 30
0.0
 11
252.967056
 21
-363.986615
 31
0.0
  0
ARC
  5
C0
100
AcDbEntity
  8
0
370
    -3
390
0
  6
Continuous
100
AcDbCircle
 10
268.967056
 20
-331.986615
 30
0.0
 40
8.0
100
AcDbArc
 50
90.0
 51
180.0
  0
LINE
  5
C1
100
AcDbEntity
  8
0
370
    -3
390
0
  6
Continuous
100
AcDbLine
 10
268.967056
 20
-323.986615
 30
0.0
 11
312.967056
 21
-323.986615
 31
0.0
  0
LINE
  5
C2
100
AcDbEntity
  8
0
370
    -3
390
0
  6
CENTER
100
AcDbLine
 10
203.537998
 20
-283.986615
 30
0.0
 11
420.967056
 21
-283.986615
 31
0.0
  0
LINE
  5
C3
100
AcDbEntity
  8
0
370
    -3
390
0
  6
Continuous
100
AcDbLine
 10
216.967056
 20
-378.927741
 30
0.0
 11
216.967056
 21
-480.986615
 31
0.0
  0
ARC
  5
C4
100
AcDbEntity
  8
0
370
    -3
390
0
  6
Continuous
100
AcDbCircle
 10
244.967056
 20
-480.986615
 30
0.0
 40
28.0
100
AcDbArc
 50
180.0
 51
270.0
  0
LINE
  5
C5
100
AcDbEntity
  8
0
370
    -3
390
0
  6
Continuous
100
AcDbLine
 10
200.967056
 20
-373.128751
 30
0.0
 11
200.967056
 21
-548.986615
 31
0.0
  0
ARC
  5
C6
100
AcDbEntity
  8
0
370
    -3
390
0
  6
Continuous
100
AcDbCircle
 10
210.967056
 20
-373.128751
 30
0.0
 40
10.0
100
AcDbArc
 50
135.0
 51
180.0
  0
LINE
  5
C7
100
AcDbEntity
  8
0
370
    -3
390
0
  6
Continuous
100
AcDbLine
 10
203.895988
 20
-366.057683
 30
0.0
 11
229.038124
 21
-340.915547
 31
0.0
  0
ARC
  5
C8
100
AcDbEntity
  8
0
370
    -3
390
0
  6
Continuous
100
AcDbCircle
 10
221.967056
 20
-333.84448
 30
0.0
 40
10.0
100
AcDbArc
 50
315.0
 51
0.0
  0
LINE
  5
C9
100
AcDbEntity
  8
0
370
    -3
390
0
  6
Continuous
100
AcDbLine
 10
231.967056
 20
-270.986615
 30
0.0
 11
231.967056
 21
-333.84448
 31
0.0
  0
ARC
  5
CA
100
AcDbEntity
  8
0
370
    -3
390
0
  6
Continuous
100
AcDbCircle
 10
237.967056
 20
-270.986615
 30
0.0
 40
6.0
100
AcDbArc
 50
90.0
 51
180.0
  0
LINE
  5
CB
100
AcDbEntity
  8
0
370
    -3
390
0
  6
Continuous
100
AcDbLine
 10
237.967056
 20
-264.986615
 30
0.0
 11
254.967056
 21
-264.986615
 31
0.0
  0
ARC
  5
CC
100
AcDbEntity
  8
0
370
    -3
390
0
  6
Continuous
100
AcDbCircle
 10
243.967056
 20
-256.986615
 30
0.0
 40
8.0
100
AcDbArc
 50
270.0
 51
0.0
  0
LINE
  5
CD
100
AcDbEntity
  8
0
370
    -3
390
0
  6
Continuous
100
AcDbLine
 10
251.967056
 20
-227.986615
 30
0.0
 11
251.967056
 21
-256.986615
 31
0.0
  0
ARC
  5
CE
100
AcDbEntity
  8
0
370
    -3
390
0
  6
Continuous
100
AcDbCircle
 10
360.967056
 20
-429.986615
 30
0.0
 40
100.0
100
AcDbArc
 50
180.0
 51
270.0
  0
LINE
  5
CF
100
AcDbEntity
  8
0
370
    -3
390
0
  6
Continuous
100
AcDbLine
 10
260.967056
 20
-227.986615
 30
0.0
 11
260.967056
 21
-429.986615
 31
0.0
  0
LINE
  5
D0
100
AcDbEntity
  8
0
370
    -3
390
0
  6
CENTER
100
AcDbLine
 10
252.967056
 20
-421.268707
 30
0.0
 11
252.967056
 21
-434.304092
 31
0.0
  0
ARC
  5
D1
100
AcDbEntity
  8
0
370
    -3
390
0
  6
DASHED
100
AcDbCircle
 10
271.967056
 20
-424.986615
 30
0.0
 40
5.0
100
AcDbArc
 50
270.0
 51
0.0
  0
ARC
  5
D2
100
AcDbEntity
  8
0
370
    -3
390
0
  6
DASHED
100
AcDbCircle
 10
272.696956
 20
-341.91029
 30
0.0
 40
1.0
100
AcDbArc
 50
66.0
 51
156.0
  0
LINE
  5
D3
100
AcDbEntity
  8
0
370
    -3
390
0
  6
DASHED
100
AcDbLine
 10
274.907627
 20
-343.829103
 30
0.0
 11
275.332459
 21
-344.829945
 31
0.0
  0
LINE
  5
D4
100
AcDbEntity
  8
0
370
    -3
390
0
  6
DASHED
100
AcDbLine
 10
274.462713
 20
-344.828395
 30
0.0
 11
274.596055
 21
-345.142529
 31
0.0
  0
LINE
  5
D5
100
AcDbEntity
  8
0
370
    -3
390
0
  6
DASHED
100
AcDbLine
 10
275.332459
 20
-344.829945
 30
0.0
 11
274.596055
 21
-345.142529
 31
0.0
  0
LINE
  5
D6
100
AcDbEntity
  8
0
370
    -3
390
0
  6
DASHED
100
AcDbLine
 10
271.78341
 20
-341.503553
 30
0.0
 11
253.091347
 21
-383.486615
 31
0.0
  0
LINE
  5
D7
100
AcDbEntity
  8
0
370
    -3
390
0
  6
DASHED
100
AcDbLine
 10
273.103692
 20
-340.996744
 30
0.0
 11
275.66162
 21
-342.135607
 31
0.0
  0
LINE
  5
D8
100
AcDbEntity
  8
0
370
    -3
390
0
  6
DASHED
100
AcDbLine
 10
273.383894
 20
-347.251461
 30
0.0
 11
275.187266
 21
-348.054374
 31
0.0
  0
LINE
  5
D9
100
AcDbEntity
  8
0
370
    -3
390
0
  6
DASHED
100
AcDbLine
 10
267.746242
 20
-347.246822
 30
0.0
 11
241.790605
 21
-351.505651
 31
0.0
  0
ARC
  5
DA
100
AcDbEntity
  8
0
370
    -3
390
0
  6
DASHED
100
AcDbCircle
 10
267.260494
 20
-344.286408
 30
0.0
 40
3.0
100
AcDbArc
 50
279.318123
 51
336.0
  0
LINE
  5
DB
100
AcDbEntity
  8
0
370
    -3
390
0
  6
DASHED
100
AcDbLine
 10
275.66162
 20
-342.135607
 30
0.0
 11
229.944421
 21
-444.818116
 31
0.0
  0
LINE
  5
DC
100
AcDbEntity
  8
0
370
    -3
390
0
  6
DASHED
100
AcDbLine
 10
232.039115
 20
-440.113357
 30
0.0
 11
235.876006
 21
-441.821651
 31
0.0
  0
LINE
  5
DD
100
AcDbEntity
  8
0
370
    -3
390
0
  6
DASHED
100
AcDbLine
 10
233.381346
 20
-437.098657
 30
0.0
 11
237.218237
 21
-438.806951
 31
0.0
  0
LINE
  5
DE
100
AcDbEntity
  8
0
370
    -3
390
0
  6
DASHED
100
AcDbLine
 10
237.040853
 20
-438.344852
 30
0.0
 11
237.218237
 21
-438.806951
 31
0.0
  0
LINE
  5
DF
100
AcDbEntity
  8
0
370
    -3
390
0
  6
DASHED
100
AcDbLine
 10
235.413907
 20
-441.999034
 30
0.0
 11
235.876006
 21
-441.821651
 31
0.0
  0
LINE
  5
E0
100
AcDbEntity
  8
0
370
    -3
390
0
  6
DASHED
100
AcDbLine
 10
237.218237
 20
-438.806951
 30
0.0
 11
235.876006
 21
-441.821651
 31
0.0
  0
POINT
  5
E1
100
AcDbEntity
  8
0
370
    -3
390
0
  6
DASHED
100
AcDbPoint
 10
229.238757
 20
-437.060408
 30
0.0
  0
LINE
  5
E2
100
AcDbEntity
  8
0
370
    -3
390
0
  6
DASHED
100
AcDbLine
 10
230.662336
 20
-433.862999
 30
0.0
 11
227.815179
 21
-440.257817
 31
0.0
  0
LINE
  5
E3
100
AcDbEntity
  8
0
370
    -3
390
0
  6
DASHED
100
AcDbLine
 10
230.662336
 20
-433.862999
 30
0.0
 11
227.815179
 21
-440.257817
 31
0.0
  0
LINE
  5
E4
100
AcDbEntity
  8
0
370
    -3
390
0
  6
DASHED
100
AcDbLine
 10
227.815179
 20
-440.257817
 30
0.0
 11
226.920795
 21
-439.859612
 31
0.0
  0
LINE
  5
E5
100
AcDbEntity
  8
0
370
    -3
390
0
  6
DASHED
100
AcDbLine
 10
230.662336
 20
-433.862999
 30
0.0
 11
229.767952
 21
-433.464793
 31
0.0
  0
ARC
  5
E6
100
AcDbEntity
  8
0
370
    -3
390
0
  6
DASHED
100
AcDbCircle
 10
229.239194
 20
-434.652402
 30
0.0
 40
1.299999
100
AcDbArc
 50
65.999999
 51
139.398469
  0
ARC
  5
E7
100
AcDbEntity
  8
0
370
    -3
390
0
  6
DASHED
100
AcDbCircle
 10
828.967056
 20
-383.486615
 30
0.0
 40
600.0
100
AcDbArc
 50
178.317231
 51
184.715125
  0
ARC
  5
E8
100
AcDbEntity
  8
0
370
    -3
390
0
  6
DASHED
100
AcDbCircle
 10
230.001007
 20
-432.889775
 30
0.0
 40
1.0
100
AcDbArc
 50
336.0
 51
4.715125
  0
LINE
  5
E9
100
AcDbEntity
  8
0
370
    -3
390
0
  6
DASHED
100
AcDbLine
 10
271.967056
 20
-429.986615
 30
0.0
 11
236.547831
 21
-429.986615
 31
0.0
  0
LINE
  5
EA
100
AcDbEntity
  8
0
370
    -3
390
0
  6
DASHED
100
AcDbLine
 10
227.386494
 20
-443.679254
 30
0.0
 11
229.944421
 21
-444.818116
 31
0.0
  0
ARC
  5
EB
100
AcDbEntity
  8
0
370
    -3
390
0
  6
DASHED
100
AcDbCircle
 10
227.79323
 20
-442.765708
 30
0.0
 40
1.0
100
AcDbArc
 50
156.0
 51
246.0
  0
LINE
  5
EC
100
AcDbEntity
  8
0
370
    -3
390
0
  6
DASHED
100
AcDbLine
 10
253.091347
 20
-383.486615
 30
0.0
 11
226.879685
 21
-442.358972
 31
0.0
  0
ARC
  5
ED
100
AcDbEntity
  8
0
370
    -3
390
0
  6
DASHED
100
AcDbCircle
 10
231.172368
 20
-430.258853
 30
0.0
 40
1.0
100
AcDbArc
 50
336.0
 51
66.0
  0
ARC
  5
EE
100
AcDbEntity
  8
0
370
    -3
390
0
  6
DASHED
100
AcDbCircle
 10
232.597042
 20
-427.60925
 30
0.0
 40
2.0
100
AcDbArc
 50
184.231338
 51
246.0
  0
LINE
  5
EF
100
AcDbEntity
  8
0
370
    -3
390
0
  6
DASHED
100
AcDbLine
 10
233.523703
 20
-436.778916
 30
0.0
 11
237.040853
 21
-438.344852
 31
0.0
  0
LINE
  5
F0
100
AcDbEntity
  8
0
370
    -3
390
0
  6
DASHED
100
AcDbLine
 10
231.896757
 20
-440.433098
 30
0.0
 11
235.413907
 21
-441.999034
 31
0.0
  0
ARC
  5
F1
100
AcDbEntity
  8
0
370
    -3
390
0
  6
DASHED
100
AcDbCircle
 10
227.449552
 20
-438.672003
 30
0.0
 40
1.299999
100
AcDbArc
 50
172.601548
 51
246.000018
  0
ARC
  5
F2
100
AcDbEntity
  8
0
370
    -3
390
0
  6
DASHED
100
AcDbCircle
 10
235.085448
 20
-439.663522
 30
0.0
 40
9.0
100
AcDbArc
 50
139.398469
 51
172.601548
  0
ARC
  5
F3
100
AcDbEntity
  8
0
370
    -3
390
0
  6
DASHED
100
AcDbCircle
 10
244.219345
 20
-366.307719
 30
0.0
 40
15.0
100
AcDbArc
 50
99.318123
 51
178.317231
  0
LINE
  5
F4
100
AcDbEntity
  8
0
370
    -3
390
0
  6
Continuous
100
AcDbLine
 10
-206.731346
 20
-101.986615
 30
0.0
 11
-208.231346
 21
-103.986615
 31
0.0
  0
LINE
  5
F5
100
AcDbEntity
  8
0
370
    -3
390
0
  6
Continuous
100
AcDbLine
 10
-206.731346
 20
-101.986615
 30
0.0
 11
-208.231346
 21
-103.986615
 31
0.0
  0
LINE
  5
F6
100
AcDbEntity
  8
0
370
    -3
390
0
  6
Continuous
100
AcDbLine
 10
-180.731346
 20
-101.986615
 30
0.0
 11
-193.731346
 21
-101.986615
 31
0.0
  0
LINE
  5
F7
100
AcDbEntity
  8
0
370
    -3
390
0
  6
Continuous
100
AcDbLine
 10
-206.731346
 20
-101.986615
 30
0.0
 11
-193.731346
 21
-101.986615
 31
0.0
  0
LINE
  5
F8
100
AcDbEntity
  8
0
370
    -3
390
0
  6
Continuous
100
AcDbLine
 10
-209.731346
 20
-103.986615
 30
0.0
 11
-193.731346
 21
-103.986615
 31
0.0
  0
LINE
  5
F9
100
AcDbEntity
  8
0
370
    -3
390
0
  6
Continuous
100
AcDbLine
 10
-180.731346
 20
-101.986615
 30
0.0
 11
-179.231346
 21
-103.986615
 31
0.0
  0
LINE
  5
FA
100
AcDbEntity
  8
0
370
    -3
390
0
  6
Continuous
100
AcDbLine
 10
-180.731346
 20
-101.986615
 30
0.0
 11
-179.231346
 21
-103.986615
 31
0.0
  0
LINE
  5
FB
100
AcDbEntity
  8
0
370
    -3
390
0
  6
Continuous
100
AcDbLine
 10
-177.731346
 20
-103.986615
 30
0.0
 11
-193.731346
 21
-103.986615
 31
0.0
  0
LINE
  5
FC
100
AcDbEntity
  8
0
370
    -3
390
0
  6
Continuous
100
AcDbLine
 10
-233.731346
 20
-118.986615
 30
0.0
 11
-196.731346
 21
-118.986615
 31
0.0
  0
LINE
  5
FD
100
AcDbEntity
  8
0
370
    -3
390
0
  6
Continuous
100
AcDbLine
 10
-196.731346
 20
-118.986615
 30
0.0
 11
-193.731346
 21
-118.986615
 31
0.0
  0
LINE
  5
FE
100
AcDbEntity
  8
0
370
    -3
390
0
  6
Continuous
100
AcDbLine
 10
-176.231346
 20
-123.986615
 30
0.0
 11
-176.231346
 21
-127.860715
 31
0.0
  0
LINE
  5
FF
100
AcDbEntity
  8
0
370
    -3
390
0
  6
Continuous
100
AcDbLine
 10
-193.731346
 20
-121.986615
 30
0.0
 11
-178.231346
 21
-121.986615
 31
0.0
  0
ARC
  5
100
100
AcDbEntity
  8
0
370
    -3
390
0
  6
Continuous
100
AcDbCircle
 10
-178.231346
 20
-123.986615
 30
0.0
 40
2.0
100
AcDbArc
 50
0.0
 51
90.0
  0
LINE
  5
101
100
AcDbEntity
  8
0
370
    -3
390
0
  6
Continuous
100
AcDbLine
 10
-180.731346
 20
-115.986615
 30
0.0
 11
-180.731346
 21
-114.986615
 31
0.0
  0
LINE
  5
102
100
AcDbEntity
  8
0
370
    -3
390
0
  6
Continuous
100
AcDbLine
 10
-179.9996
 20
-113.986615
 30
0.0
 11
-185.519212
 21
-113.986615
 31
0.0
  0
LINE
  5
103
100
AcDbEntity
  8
0
370
    -3
390
0
  6
Continuous
100
AcDbLine
 10
-178.214679
 20
-103.986615
 30
0.0
 11
-178.214679
 21
-113.986615
 31
0.0
  0
LINE
  5
104
100
AcDbEntity
  8
0
370
    -3
390
0
  6
Continuous
100
AcDbLine
 10
-179.9996
 20
-103.986615
 30
0.0
 11
-179.9996
 21
-113.986615
 31
0.0
  0
LINE
  5
105
100
AcDbEntity
  8
0
370
    -3
390
0
  6
Continuous
100
AcDbLine
 10
-189.828391
 20
-113.986615
 30
0.0
 11
-193.731346
 21
-113.986615
 31
0.0
  0
LINE
  5
106
100
AcDbEntity
  8
0
370
    -3
390
0
  6
Continuous
100
AcDbLine
 10
-185.519212
 20
-103.986615
 30
0.0
 11
-185.519212
 21
-113.986615
 31
0.0
  0
LINE
  5
107
100
AcDbEntity
  8
0
370
    -3
390
0
  6
Continuous
100
AcDbLine
 10
-189.828391
 20
-103.986615
 30
0.0
 11
-189.828391
 21
-113.986615
 31
0.0
  0
ARC
  5
108
100
AcDbEntity
  8
0
370
    -3
390
0
  6
Continuous
100
AcDbCircle
 10
-184.231346
 20
-120.486615
 30
0.0
 40
1.5
100
AcDbArc
 50
0.0
 51
90.0
  0
ARC
  5
109
100
AcDbEntity
  8
0
370
    -3
390
0
  6
Continuous
100
AcDbCircle
 10
-184.231346
 20
-120.486615
 30
0.0
 40
1.5
100
AcDbArc
 50
270.0
 51
0.0
  0
LINE
  5
10A
100
AcDbEntity
  8
0
370
    -3
390
0
  6
Continuous
100
AcDbLine
 10
-178.481346
 20
-115.986615
 30
0.0
 11
-193.731346
 21
-115.986615
 31
0.0
  0
LINE
  5
10B
100
AcDbEntity
  8
0
370
    -3
390
0
  6
Continuous
100
AcDbLine
 10
-178.481346
 20
-115.986615
 30
0.0
 11
-178.481346
 21
-118.986615
 31
0.0
  0
LINE
  5
10C
100
AcDbEntity
  8
0
370
    -3
390
0
  6
Continuous
100
AcDbLine
 10
-177.731346
 20
-113.986615
 30
0.0
 11
-178.214679
 21
-113.986615
 31
0.0
  0
LINE
  5
10D
100
AcDbEntity
  8
0
370
    -3
390
0
  6
Continuous
100
AcDbLine
 10
-177.731346
 20
-114.986615
 30
0.0
 11
-177.731346
 21
-103.986615
 31
0.0
  0
LINE
  5
10E
100
AcDbEntity
  8
0
370
    -3
390
0
  6
Continuous
100
AcDbLine
 10
-177.731346
 20
-114.986615
 30
0.0
 11
-193.731346
 21
-114.986615
 31
0.0
  0
LINE
  5
10F
100
AcDbEntity
  8
0
370
    -3
390
0
  6
Continuous
100
AcDbLine
 10
-177.731346
 20
-114.986615
 30
0.0
 11
-177.731346
 21
-103.986615
 31
0.0
  0
LINE
  5
110
100
AcDbEntity
  8
0
370
    -3
390
0
  6
Continuous
100
AcDbLine
 10
-178.481346
 20
-118.986615
 30
0.0
 11
-193.731346
 21
-118.986615
 31
0.0
  0
LINE
  5
111
100
AcDbEntity
  8
0
370
    -3
390
0
  6
Continuous
100
AcDbLine
 10
-197.634301
 20
-113.986615
 30
0.0
 11
-193.731346
 21
-113.986615
 31
0.0
  0
LINE
  5
112
100
AcDbEntity
  8
0
370
    -3
390
0
  6
Continuous
100
AcDbLine
 10
-208.981346
 20
-115.986615
 30
0.0
 11
-193.731346
 21
-115.986615
 31
0.0
  0
LINE
  5
113
100
AcDbEntity
  8
0
370
    -3
390
0
  6
Continuous
100
AcDbLine
 10
-206.731346
 20
-115.986615
 30
0.0
 11
-206.731346
 21
-114.986615
 31
0.0
  0
LINE
  5
114
100
AcDbEntity
  8
0
370
    -3
390
0
  6
Continuous
100
AcDbLine
 10
-207.463092
 20
-113.986615
 30
0.0
 11
-201.943481
 21
-113.986615
 31
0.0
  0
LINE
  5
115
100
AcDbEntity
  8
0
370
    -3
390
0
  6
Continuous
100
AcDbLine
 10
-209.248013
 20
-103.986615
 30
0.0
 11
-209.248013
 21
-113.986615
 31
0.0
  0
LINE
  5
116
100
AcDbEntity
  8
0
370
    -3
390
0
  6
Continuous
100
AcDbLine
 10
-207.463092
 20
-103.986615
 30
0.0
 11
-207.463092
 21
-113.986615
 31
0.0
  0
LINE
  5
117
100
AcDbEntity
  8
0
370
    -3
390
0
  6
Continuous
100
AcDbLine
 10
-201.943481
 20
-103.986615
 30
0.0
 11
-201.943481
 21
-113.986615
 31
0.0
  0
LINE
  5
118
100
AcDbEntity
  8
0
370
    -3
390
0
  6
Continuous
100
AcDbLine
 10
-197.634301
 20
-103.986615
 30
0.0
 11
-197.634301
 21
-113.986615
 31
0.0
  0
LINE
  5
119
100
AcDbEntity
  8
0
370
    -3
390
0
  6
Continuous
100
AcDbLine
 10
-208.981346
 20
-115.986615
 30
0.0
 11
-208.981346
 21
-118.986615
 31
0.0
  0
LINE
  5
11A
100
AcDbEntity
  8
0
370
    -3
390
0
  6
Continuous
100
AcDbLine
 10
-209.731346
 20
-113.986615
 30
0.0
 11
-209.248013
 21
-113.986615
 31
0.0
  0
LINE
  5
11B
100
AcDbEntity
  8
0
370
    -3
390
0
  6
Continuous
100
AcDbLine
 10
-209.731346
 20
-114.986615
 30
0.0
 11
-209.731346
 21
-103.986615
 31
0.0
  0
LINE
  5
11C
100
AcDbEntity
  8
0
370
    -3
390
0
  6
Continuous
100
AcDbLine
 10
-209.731346
 20
-114.986615
 30
0.0
 11
-193.731346
 21
-114.986615
 31
0.0
  0
LINE
  5
11D
100
AcDbEntity
  8
0
370
    -3
390
0
  6
Continuous
100
AcDbLine
 10
-209.731346
 20
-114.986615
 30
0.0
 11
-209.731346
 21
-103.986615
 31
0.0
  0
LINE
  5
11E
100
AcDbEntity
  8
0
370
    -3
390
0
  6
CENTER
100
AcDbLine
 10
-193.731346
 20
-97.516506
 30
0.0
 11
-193.731346
 21
-135.88494
 31
0.0
  0
LINE
  5
11F
100
AcDbEntity
  8
0
370
    -3
390
0
  6
Continuous
100
AcDbLine
 10
-184.231346
 20
-121.986615
 30
0.0
 11
-193.731346
 21
-121.986615
 31
0.0
  0
LINE
  5
120
100
AcDbEntity
  8
0
370
    -3
390
0
  6
Continuous
100
AcDbLine
 10
-193.731346
 20
-121.986615
 30
0.0
 11
-193.731346
 21
-124.986615
 31
0.0
  0
ARC
  5
121
100
AcDbEntity
  8
0
370
    -3
390
0
  6
Continuous
100
AcDbCircle
 10
-196.731346
 20
-121.986615
 30
0.0
 40
3.0
100
AcDbArc
 50
0.0
 51
90.0
  0
LINE
  5
122
100
AcDbEntity
  8
0
370
    -3
390
0
  6
Continuous
100
AcDbLine
 10
-233.731346
 20
-128.076615
 30
0.0
 11
-191.791319
 21
-129.334816
 31
0.0
  0
ARC
  5
123
100
AcDbEntity
  8
0
370
    -3
390
0
  6
Continuous
100
AcDbCircle
 10
-174.231346
 20
-127.860715
 30
0.0
 40
2.0
100
AcDbArc
 50
180.0
 51
268.281642
  0
LINE
  5
124
100
AcDbEntity
  8
0
370
    -3
390
0
  6
Continuous
100
AcDbLine
 10
-191.791319
 20
-129.334816
 30
0.0
 11
-174.291319
 21
-129.859816
 31
0.0
  0
LINE
  5
125
100
AcDbEntity
  8
0
370
    -3
390
0
  6
DASHED
100
AcDbLine
 10
-193.731346
 20
-124.986615
 30
0.0
 11
-193.731346
 21
-127.335715
 31
0.0
  0
LINE
  5
126
100
AcDbEntity
  8
0
370
    -3
390
0
  6
Continuous
100
AcDbLine
 10
-174.291319
 20
-129.859816
 30
0.0
 11
-76.600629
 21
-132.790537
 31
0.0
  0
ARC
  5
127
100
AcDbEntity
  8
0
370
    -3
390
0
  6
Continuous
100
AcDbCircle
 10
-191.731346
 20
-127.335715
 30
0.0
 40
2.0
100
AcDbArc
 50
180.0
 51
268.281642
  0
ARC
  5
128
100
AcDbEntity
  8
0
370
    -3
390
0
  6
Continuous
100
AcDbCircle
 10
-472.031346
 20
-344.944688
 30
0.0
 40
8.8
100
AcDbArc
 50
0.0
 51
90.0
  0
ARC
  5
129
100
AcDbEntity
  8
0
370
    -3
390
0
  6
Continuous
100
AcDbCircle
 10
-470.231346
 20
-343.021992
 30
0.0
 40
4.8
100
AcDbArc
 50
0.0
 51
90.0
  0
ARC
  5
12A
100
AcDbEntity
  8
0
370
    -3
390
0
  6
Continuous
100
AcDbCircle
 10
-470.231346
 20
-359.258726
 30
0.0
 40
4.8
100
AcDbArc
 50
0.0
 51
90.0
  0
LINE
  5
12B
100
AcDbEntity
  8
0
370
    -3
390
0
  6
Continuous
100
AcDbLine
 10
-463.231346
 20
-344.944688
 30
0.0
 11
-463.231346
 21
-432.385906
 31
0.0
  0
LINE
  5
12C
100
AcDbEntity
  8
0
370
    -3
390
0
  6
Continuous
100
AcDbLine
 10
-465.431346
 20
-343.021992
 30
0.0
 11
-465.431346
 21
-427.710973
 31
0.0
  0
ARC
  5
12D
100
AcDbEntity
  8
0
370
    -3
390
0
  6
Continuous
100
AcDbCircle
 10
-472.031346
 20
-432.385906
 30
0.0
 40
8.8
100
AcDbArc
 50
270.0
 51
0.0
  0
ARC
  5
12E
100
AcDbEntity
  8
0
370
    -3
390
0
  6
Continuous
100
AcDbCircle
 10
-472.031346
 20
-430.779957
 30
0.0
 40
8.8
100
AcDbArc
 50
270.0
 51
0.0
  0
ARC
  5
12F
100
AcDbEntity
  8
0
370
    -3
390
0
  6
Continuous
100
AcDbCircle
 10
-470.231346
 20
-427.710973
 30
0.0
 40
4.8
100
AcDbArc
 50
270.0
 51
0.0
  0
LINE
  5
130
100
AcDbEntity
  8
0
370
    -3
390
0
  6
Continuous
100
AcDbLine
 10
-552.431346
 20
-441.185906
 30
0.0
 11
-472.031346
 21
-441.185906
 31
0.0
  0
ARC
  5
131
100
AcDbEntity
  8
0
370
    -3
390
0
  6
Continuous
100
AcDbCircle
 10
-552.431346
 20
-432.385906
 30
0.0
 40
8.8
100
AcDbArc
 50
180.0
 51
270.0
  0
ARC
  5
132
100
AcDbEntity
  8
0
370
    -3
390
0
  6
Continuous
100
AcDbCircle
 10
-552.431346
 20
-430.779957
 30
0.0
 40
8.8
100
AcDbArc
 50
180.0
 51
270.0
  0
LINE
  5
133
100
AcDbEntity
  8
0
370
    -3
390
0
  6
Continuous
100
AcDbLine
 10
-472.031346
 20
-439.579957
 30
0.0
 11
-552.431346
 21
-439.579957
 31
0.0
  0
ARC
  5
134
100
AcDbEntity
  8
0
370
    -3
390
0
  6
Continuous
100
AcDbCircle
 10
-554.231346
 20
-427.710973
 30
0.0
 40
4.8
100
AcDbArc
 50
180.0
 51
270.0
  0
ARC
  5
135
100
AcDbEntity
  8
0
370
    -3
390
0
  6
Continuous
100
AcDbCircle
 10
-500.91356
 20
-428.510973
 30
0.0
 40
4.0
100
AcDbArc
 50
200.586606
 51
270.0
  0
LINE
  5
136
100
AcDbEntity
  8
0
370
    -3
390
0
  6
Continuous
100
AcDbLine
 10
-470.231346
 20
-432.510973
 30
0.0
 11
-501.677693
 21
-432.510973
 31
0.0
  0
ARC
  5
137
100
AcDbEntity
  8
0
370
    -3
390
0
  6
Continuous
100
AcDbCircle
 10
-501.677693
 20
-428.510973
 30
0.0
 40
4.0
100
AcDbArc
 50
209.986604
 51
270.0
  0
ELLIPSE
  5
138
100
AcDbEntity
  8
0
370
    -3
390
0
  6
Continuous
100
AcDbEllipse
 10
-512.231346
 20
-433.870218
 30
0.0
 11
8.0
 21
0.0
 31
0.0
210
0.0
220
0.0
230
1.0
 40
0.906308
 41
0.4818578688787102
 42
2.6597347847155328
  0
ARC
  5
139
100
AcDbEntity
  8
0
370
    -3
390
0
  6
Continuous
100
AcDbCircle
 10
-522.784999
 20
-428.510973
 30
0.0
 40
4.0
100
AcDbArc
 50
270.0
 51
330.013396
  0
LINE
  5
13A
100
AcDbEntity
  8
0
370
    -3
390
0
  6
Continuous
100
AcDbLine
 10
-523.549132
 20
-432.510973
 30
0.0
 11
-554.231346
 21
-432.510973
 31
0.0
  0
ELLIPSE
  5
13B
100
AcDbEntity
  8
0
370
    -3
390
0
  6
Continuous
100
AcDbEllipse
 10
-512.231346
 20
-432.253973
 30
0.0
 11
8.0
 21
0.0
 31
0.0
210
0.0
220
0.0
230
1.0
 40
0.906308
 41
0.3281121824263434
 42
2.8134804711640689
  0
ARC
  5
13C
100
AcDbEntity
  8
0
370
    -3
390
0
  6
Continuous
100
AcDbCircle
 10
-523.549132
 20
-428.510973
 30
0.0
 40
4.0
100
AcDbArc
 50
270.0
 51
339.413394
  0
ELLIPSE
  5
13D
100
AcDbEntity
  8
0
370
    -3
390
0
  6
Continuous
100
AcDbEllipse
 10
-512.231346
 20
-433.602441
 30
0.0
 11
3.5
 21
0.0
 31
0.0
210
0.0
220
0.0
230
1.0
 40
0.982815
 41
0.0
 42
6.2831853071795862
  0
LINE
  5
13E
100
AcDbEntity
  8
0
370
    -3
390
0
  6
Continuous
100
AcDbLine
 10
-510.231346
 20
-434.67913
 30
0.0
 11
-512.231346
 21
-432.77141
 31
0.0
  0
LINE
  5
13F
100
AcDbEntity
  8
0
370
    -3
390
0
  6
Continuous
100
AcDbLine
 10
-512.231346
 20
-432.77141
 30
0.0
 11
-514.231346
 21
-431.053899
 31
0.0
  0
LINE
  5
140
100
AcDbEntity
  8
0
370
    -3
390
0
  6
Continuous
100
AcDbLine
 10
-510.231346
 20
-431.053899
 30
0.0
 11
-512.231346
 21
-432.77141
 31
0.0
  0
LINE
  5
141
100
AcDbEntity
  8
0
370
    -3
390
0
  6
Continuous
100
AcDbLine
 10
-512.231346
 20
-432.77141
 30
0.0
 11
-514.231346
 21
-434.67913
 31
0.0
  0
LINE
  5
142
100
AcDbEntity
  8
0
370
    -3
390
0
  6
CENTER
100
AcDbLine
 10
-512.231346
 20
-329.334884
 30
0.0
 11
-512.231346
 21
-449.974964
 31
0.0
  0
POINT
  5
143
100
AcDbEntity
  8
0
370
    -3
390
0
  6
CENTER
100
AcDbPoint
 10
-525.612539
 20
-439.23231
 30
0.0
  0
POINT
  5
144
100
AcDbEntity
  8
0
370
    -3
390
0
  6
CENTER
100
AcDbPoint
 10
-498.612539
 20
-439.23231
 30
0.0
  0
LINE
  5
145
100
AcDbEntity
  8
0
370
    -3
390
0
  6
Continuous
100
AcDbLine
 10
-561.231346
 20
-344.944688
 30
0.0
 11
-561.231346
 21
-432.385906
 31
0.0
  0
LINE
  5
146
100
AcDbEntity
  8
0
370
    -3
390
0
  6
Continuous
100
AcDbLine
 10
-552.431346
 20
-336.144688
 30
0.0
 11
-472.031346
 21
-336.144688
 31
0.0
  0
ARC
  5
147
100
AcDbEntity
  8
0
370
    -3
390
0
  6
Continuous
100
AcDbCircle
 10
-552.431346
 20
-344.944688
 30
0.0
 40
8.8
100
AcDbArc
 50
90.0
 51
180.0
  0
LINE
  5
148
100
AcDbEntity
  8
0
370
    -3
390
0
  6
Continuous
100
AcDbLine
 10
-559.031346
 20
-343.021992
 30
0.0
 11
-559.031346
 21
-427.710973
 31
0.0
  0
ARC
  5
149
100
AcDbEntity
  8
0
370
    -3
390
0
  6
Continuous
100
AcDbCircle
 10
-554.231346
 20
-343.021992
 30
0.0
 40
4.8
100
AcDbArc
 50
90.0
 51
180.0
  0
LINE
  5
14A
100
AcDbEntity
  8
0
370
    -3
390
0
  6
Continuous
100
AcDbLine
 10
-554.231346
 20
-338.221992
 30
0.0
 11
-470.231346
 21
-338.221992
 31
0.0
  0
LINE
  5
14B
100
AcDbEntity
  8
0
370
    -3
390
0
  6
Continuous
100
AcDbLine
 10
-554.231346
 20
-354.458726
 30
0.0
 11
-470.231346
 21
-354.458726
 31
0.0
  0
ARC
  5
14C
100
AcDbEntity
  8
0
370
    -3
390
0
  6
Continuous
100
AcDbCircle
 10
-554.231346
 20
-359.258726
 30
0.0
 40
4.8
100
AcDbArc
 50
90.0
 51
180.0
  0
LINE
  5
14D
100
AcDbEntity
  8
0
370
    -3
390
0
  6
Continuous
100
AcDbLine
 10
-290.231346
 20
-292.578349
 30
0.0
 11
-278.231309
 21
-292.578349
 31
0.0
  0
ARC
  5
14E
100
AcDbEntity
  8
0
370
    -3
390
0
  6
Continuous
100
AcDbCircle
 10
-290.231346
 20
-289.578349
 30
0.0
 40
3.0
100
AcDbArc
 50
180.0
 51
270.0
  0
LINE
  5
14F
100
AcDbEntity
  8
0
370
    -3
390
0
  6
Continuous
100
AcDbLine
 10
-290.231346
 20
-356.986615
 30
0.0
 11
-274.231346
 21
-356.986615
 31
0.0
  0
ARC
  5
150
100
AcDbEntity
  8
0
370
    -3
390
0
  6
Continuous
100
AcDbCircle
 10
-290.231346
 20
-359.986615
 30
0.0
 40
3.0
100
AcDbArc
 50
90.0
 51
180.0
  0
LINE
  5
151
100
AcDbEntity
  8
0
370
    -3
390
0
  6
Continuous
100
AcDbLine
 10
-290.231346
 20
-405.986615
 30
0.0
 11
-278.231314
 21
-405.986615
 31
0.0
  0
ARC
  5
152
100
AcDbEntity
  8
0
370
    -3
390
0
  6
Continuous
100
AcDbCircle
 10
-290.231346
 20
-402.986615
 30
0.0
 40
3.0
100
AcDbArc
 50
180.0
 51
270.0
  0
LINE
  5
153
100
AcDbEntity
  8
0
370
    -3
390
0
  6
Continuous
100
AcDbLine
 10
-290.231346
 20
-420.145915
 30
0.0
 11
-274.231346
 21
-420.145915
 31
0.0
  0
ARC
  5
154
100
AcDbEntity
  8
0
370
    -3
390
0
  6
Continuous
100
AcDbCircle
 10
-290.231346
 20
-417.145915
 30
0.0
 40
3.0
100
AcDbArc
 50
180.0
 51
270.0
  0
LINE
  5
155
100
AcDbEntity
  8
0
370
    -3
390
0
  6
Continuous
100
AcDbLine
 10
-290.231346
 20
-458.524293
 30
0.0
 11
-274.231346
 21
-458.524293
 31
0.0
  0
ARC
  5
156
100
AcDbEntity
  8
0
370
    -3
390
0
  6
Continuous
100
AcDbCircle
 10
-290.231346
 20
-455.524293
 30
0.0
 40
3.0
100
AcDbArc
 50
180.0
 51
270.0
  0
INSERT
  5
167
100
AcDbEntity
  8
0
390
0
100
AcDbBlockReference
  2
ZU_SYM__USERS_HOME_SYMBOL_POO_SYM_B21_0000121
 10
-293.231346
 20
-375.986615
 30
0.0
  0
LINE
  5
168
100
AcDbEntity
  8
0
370
    -3
390
0
  6
Continuous
100
AcDbLine
 10
-302.231346
 20
-475.75983
 30
0.0
 11
-302.231346
 21
-387.986615
 31
0.0
  0
LINE
  5
169
100
AcDbEntity
  8
0
370
    -3
390
0
  6
Continuous
100
AcDbLine
 10
-302.231346
 20
-247.986615
 30
0.0
 11
-302.231346
 21
-363.986615
 31
0.0
  0
LINE
  5
16A
100
AcDbEntity
  8
0
370
    -3
390
0
  6
Continuous
100
AcDbLine
 10
-302.231346
 20
-387.986615
 30
0.0
 11
-302.231346
 21
-475.75983
 31
0.0
  0
LINE
  5
16B
100
AcDbEntity
  8
0
370
    -3
390
0
  6
Continuous
100
AcDbLine
 10
-299.231346
 20
-265.986344
 30
0.0
 11
-302.231346
 21
-265.986344
 31
0.0
  0
ARC
  5
16C
100
AcDbEntity
  8
0
370
    -3
390
0
  6
Continuous
100
AcDbCircle
 10
-299.231346
 20
-259.986344
 30
0.0
 40
6.0
100
AcDbArc
 50
270.0
 51
0.0
  0
LINE
  5
16D
100
AcDbEntity
  8
0
370
    -3
390
0
  6
Continuous
100
AcDbLine
 10
-274.231346
 20
-215.6026
 30
0.0
 11
-290.231346
 21
-215.6026
 31
0.0
  0
ARC
  5
16E
100
AcDbEntity
  8
0
370
    -3
390
0
  6
Continuous
100
AcDbCircle
 10
-290.231346
 20
-218.6026
 30
0.0
 40
3.0
100
AcDbArc
 50
90.0
 51
180.0
  0
LINE
  5
16F
100
AcDbEntity
  8
0
370
    -3
390
0
  6
Continuous
100
AcDbLine
 10
-293.231346
 20
-218.6026
 30
0.0
 11
-293.231346
 21
-375.986615
 31
0.0
  0
LINE
  5
170
100
AcDbEntity
  8
0
370
    -3
390
0
  6
Continuous
100
AcDbLine
 10
-302.231346
 20
-265.986344
 30
0.0
 11
-302.231346
 21
-363.986615
 31
0.0
  0
LINE
  5
171
100
AcDbEntity
  8
0
370
    -3
390
0
  6
Continuous
100
AcDbLine
 10
-293.231346
 20
-471.317428
 30
0.0
 11
-293.231346
 21
-375.986615
 31
0.0
  0
LINE
  5
172
100
AcDbEntity
  8
0
370
    -3
390
0
  6
Continuous
100
AcDbLine
 10
-302.231346
 20
-475.75983
 30
0.0
 11
-302.231346
 21
-387.986615
 31
0.0
  0
ARC
  5
173
100
AcDbEntity
  8
0
370
    -3
390
0
  6
Continuous
100
AcDbCircle
 10
-262.231346
 20
-235.986615
 30
0.0
 40
6.0
100
AcDbArc
 50
270.0
 51
0.0
  0
LINE
  5
174
100
AcDbEntity
  8
0
370
    -3
390
0
  6
Continuous
100
AcDbLine
 10
-262.231346
 20
-241.986615
 30
0.0
 11
-274.231346
 21
-241.986615
 31
0.0
  0
LINE
  5
175
100
AcDbEntity
  8
0
370
    -3
390
0
  6
Continuous
100
AcDbLine
 10
-274.231346
 20
-202.788495
 30
0.0
 11
-265.770438
 21
-202.788495
 31
0.0
  0
LINE
  5
176
100
AcDbEntity
  8
0
370
    -3
390
0
  6
Continuous
100
AcDbLine
 10
-256.231346
 20
-121.986615
 30
0.0
 11
-256.231346
 21
-375.986615
 31
0.0
  0
LINE
  5
177
100
AcDbEntity
  8
0
370
    -3
390
0
  6
Continuous
100
AcDbLine
 10
-233.731346
 20
-223.986615
 30
0.0
 11
-233.731346
 21
-343.986615
 31
0.0
  0
LINE
  5
178
100
AcDbEntity
  8
0
370
    -3
390
0
  6
Continuous
100
AcDbLine
 10
-273.890338
 20
-241.231239
 30
0.0
 11
-259.316913
 21
-241.231239
 31
0.0
  0
ARC
  5
179
100
AcDbEntity
  8
0
370
    -3
390
0
  6
Continuous
100
AcDbCircle
 10
-273.890338
 20
-238.231239
 30
0.0
 40
3.0
100
AcDbArc
 50
270.0
 51
353.103099
  0
LINE
  5
17A
100
AcDbEntity
  8
0
370
    -3
390
0
  6
Continuous
100
AcDbLine
 10
-258.231346
 20
-150.290902
 30
0.0
 11
-270.912046
 21
-238.591489
 31
0.0
  0
LINE
  5
17B
100
AcDbEntity
  8
0
370
    -3
390
0
  6
Continuous
100
AcDbLine
 10
-258.231346
 20
-266.986615
 30
0.0
 11
-258.231346
 21
-300.986615
 31
0.0
  0
ARC
  5
17C
100
AcDbEntity
  8
0
370
    -3
390
0
  6
Continuous
100
AcDbCircle
 10
-256.231346
 20
-266.986615
 30
0.0
 40
2.0
100
AcDbArc
 50
90.0
 51
180.0
  0
ARC
  5
17D
100
AcDbEntity
  8
0
370
    -3
390
0
  6
Continuous
100
AcDbCircle
 10
-256.231346
 20
-300.986615
 30
0.0
 40
2.0
100
AcDbArc
 50
180.0
 51
270.0
  0
LINE
  5
17E
100
AcDbEntity
  8
0
370
    -3
390
0
  6
Continuous
100
AcDbLine
 10
-258.231346
 20
-388.986615
 30
0.0
 11
-258.231346
 21
-418.986615
 31
0.0
  0
ARC
  5
17F
100
AcDbEntity
  8
0
370
    -3
390
0
  6
Continuous
100
AcDbCircle
 10
-256.231346
 20
-388.986615
 30
0.0
 40
2.0
100
AcDbArc
 50
90.0
 51
180.0
  0
ARC
  5
180
100
AcDbEntity
  8
0
370
    -3
390
0
  6
Continuous
100
AcDbCircle
 10
-256.231346
 20
-418.986615
 30
0.0
 40
2.0
100
AcDbArc
 50
180.0
 51
270.0
  0
LINE
  5
181
100
AcDbEntity
  8
0
370
    -3
390
0
  6
Continuous
100
AcDbLine
 10
-274.231346
 20
-356.986615
 30
0.0
 11
-261.231346
 21
-356.986615
 31
0.0
  0
ARC
  5
182
100
AcDbEntity
  8
0
370
    -3
390
0
  6
Continuous
100
AcDbCircle
 10
-261.231346
 20
-351.986615
 30
0.0
 40
5.0
100
AcDbArc
 50
270.0
 51
0.0
  0
LINE
  5
183
100
AcDbEntity
  8
0
370
    -3
390
0
  6
CENTER
100
AcDbLine
 10
-246.21926
 20
-375.986615
 30
0.0
 11
-659.331032
 21
-375.986615
 31
0.0
  0
LINE
  5
184
100
AcDbEntity
  8
0
370
    -3
390
0
  6
Continuous
100
AcDbLine
 10
-256.231346
 20
-375.986615
 30
0.0
 11
-256.231346
 21
-453.054221
 31
0.0
  0
LINE
  5
185
100
AcDbEntity
  8
0
370
    -3
390
0
  6
Continuous
100
AcDbLine
 10
-272.231346
 20
-432.696991
 30
0.0
 11
-256.231346
 21
-432.696991
 31
0.0
  0
LINE
  5
186
100
AcDbEntity
  8
0
370
    -3
390
0
  6
Continuous
100
AcDbLine
 10
-271.943568
 20
-433.305759
 30
0.0
 11
-261.401615
 21
-455.606266
 31
0.0
  0
LINE
  5
187
100
AcDbEntity
  8
0
370
    -3
390
0
  6
Continuous
100
AcDbLine
 10
-274.231346
 20
-461.368049
 30
0.0
 11
-273.074589
 21
-461.368049
 31
0.0
  0
ARC
  5
188
100
AcDbEntity
  8
0
370
    -3
390
0
  6
Continuous
100
AcDbCircle
 10
-269.231346
 20
-432.02363
 30
0.0
 40
3.0
100
AcDbArc
 50
180.0
 51
205.301157
  0
INSERT
  5
199
100
AcDbEntity
  8
0
390
0
100
AcDbBlockReference
  2
ZU_SYM__USERS_HOME_SYMBOL_POO_SYM_B21_0000221
 10
-258.231346
 20
-283.986615
 30
0.0
  0
INSERT
  5
1AA
100
AcDbEntity
  8
0
390
0
100
AcDbBlockReference
  2
ZU_SYM__USERS_HOME_SYMBOL_POO_SYM_B21_0000321
 10
-258.231346
 20
-403.986615
 30
0.0
  0
LINE
  5
1AB
100
AcDbEntity
  8
0
370
    -3
390
0
  6
CENTER
100
AcDbLine
 10
-284.248867
 20
-283.986615
 30
0.0
 11
105.283681
 21
-283.986615
 31
0.0
  0
LINE
  5
1AC
100
AcDbEntity
  8
0
370
    -3
390
0
  6
Continuous
100
AcDbLine
 10
-274.231346
 20
-202.788495
 30
0.0
 11
-274.231346
 21
-271.986615
 31
0.0
  0
LINE
  5
1AD
100
AcDbEntity
  8
0
370
    -3
390
0
  6
Continuous
100
AcDbLine
 10
-274.231346
 20
-295.986615
 30
0.0
 11
-274.231346
 21
-375.986615
 31
0.0
  0
LINE
  5
1AE
100
AcDbEntity
  8
0
370
    -3
390
0
  6
Continuous
100
AcDbLine
 10
-272.231346
 20
-415.986615
 30
0.0
 11
-272.231346
 21
-460.951824
 31
0.0
  0
LINE
  5
1AF
100
AcDbEntity
  8
0
370
    -3
390
0
  6
Continuous
100
AcDbLine
 10
-274.231346
 20
-375.986615
 30
0.0
 11
-274.231346
 21
-391.986615
 31
0.0
  0
LINE
  5
1B0
100
AcDbEntity
  8
0
370
    -3
390
0
  6
Continuous
100
AcDbLine
 10
-274.231346
 20
-415.986615
 30
0.0
 11
-274.231346
 21
-461.939024
 31
0.0
  0
LINE
  5
1B1
100
AcDbEntity
  8
0
370
    -3
390
0
  6
CENTER
100
AcDbLine
 10
-283.455432
 20
-403.986615
 30
0.0
 11
-240.548636
 21
-403.986615
 31
0.0
  0
LINE
  5
1B2
100
AcDbEntity
  8
0
370
    -3
390
0
  6
CENTER
100
AcDbLine
 10
-75.549902
 20
-425.986615
 30
0.0
 11
-114.533143
 21
-425.986615
 31
0.0
  0
LINE
  5
1B3
100
AcDbEntity
  8
0
370
    -3
390
0
  6
CENTER
100
AcDbLine
 10
-93.731346
 20
-406.734439
 30
0.0
 11
-93.731346
 21
-444.611773
 31
0.0
  0
ARC
  5
1B4
100
AcDbEntity
  8
0
370
    -3
390
0
  6
Continuous
100
AcDbCircle
 10
-93.731346
 20
-425.986615
 30
0.0
 40
20.0
100
AcDbArc
 50
270.0
 51
90.0
  0
LINE
  5
1B5
100
AcDbEntity
  8
0
370
    -3
390
0
  6
Continuous
100
AcDbLine
 10
-93.731346
 20
-445.986615
 30
0.0
 11
-126.731346
 21
-445.986615
 31
0.0
  0
LINE
  5
1B6
100
AcDbEntity
  8
0
370
    -3
390
0
  6
Continuous
100
AcDbLine
 10
-93.731346
 20
-405.986615
 30
0.0
 11
-126.731346
 21
-405.986615
 31
0.0
  0
CIRCLE
  5
1B7
100
AcDbEntity
  8
0
370
    -3
390
0
  6
Continuous
100
AcDbCircle
 10
-93.731346
 20
-425.986615
 30
0.0
 40
15.0
  0
LINE
  5
1B8
100
AcDbEntity
  8
0
370
    -3
390
0
  6
Continuous
100
AcDbLine
 10
-232.731346
 20
-332.986615
 30
0.0
 11
-233.731346
 21
-332.986615
 31
0.0
  0
LINE
  5
1B9
100
AcDbEntity
  8
0
370
    -3
390
0
  6
Continuous
100
AcDbLine
 10
-217.731346
 20
-128.556615
 30
0.0
 11
-217.731346
 21
-264.986615
 31
0.0
  0
LINE
  5
1BA
100
AcDbEntity
  8
0
370
    -3
390
0
  6
Continuous
100
AcDbLine
 10
-233.731346
 20
-118.986615
 30
0.0
 11
-233.731346
 21
-441.948216
 31
0.0
  0
LINE
  5
1BB
100
AcDbEntity
  8
0
370
    -3
390
0
  6
Continuous
100
AcDbLine
 10
-233.731346
 20
-264.986615
 30
0.0
 11
-128.731346
 21
-264.986615
 31
0.0
  0
LINE
  5
1BC
100
AcDbEntity
  8
0
370
    -3
390
0
  6
Continuous
100
AcDbLine
 10
-227.731346
 20
-337.986615
 30
0.0
 11
-128.731346
 21
-337.986615
 31
0.0
  0
LINE
  5
1BD
100
AcDbEntity
  8
0
370
    -3
390
0
  6
Continuous
100
AcDbLine
 10
-222.731346
 20
-368.986615
 30
0.0
 11
-128.731346
 21
-368.986615
 31
0.0
  0
LINE
  5
1BE
100
AcDbEntity
  8
0
370
    -3
390
0
  6
Continuous
100
AcDbLine
 10
-227.731346
 20
-432.8727
 30
0.0
 11
-227.731346
 21
-337.986615
 31
0.0
  0
LINE
  5
1BF
100
AcDbEntity
  8
0
370
    -3
390
0
  6
Continuous
100
AcDbLine
 10
-126.731346
 20
-468.986615
 30
0.0
 11
-126.731346
 21
-269.986615
 31
0.0
  0
ARC
  5
1C0
100
AcDbEntity
  8
0
370
    -3
390
0
  6
Continuous
100
AcDbCircle
 10
-131.731346
 20
-269.986615
 30
0.0
 40
5.0
100
AcDbArc
 50
0.0
 51
90.0
  0
ARC
  5
1C1
100
AcDbEntity
  8
0
370
    -3
390
0
  6
Continuous
100
AcDbCircle
 10
-131.731346
 20
-332.986615
 30
0.0
 40
5.0
100
AcDbArc
 50
270.0
 51
0.0
  0
ARC
  5
1C2
100
AcDbEntity
  8
0
370
    -3
390
0
  6
Continuous
100
AcDbCircle
 10
-131.731346
 20
-342.986615
 30
0.0
 40
5.0
100
AcDbArc
 50
0.0
 51
90.0
  0
ARC
  5
1C3
100
AcDbEntity
  8
0
370
    -3
390
0
  6
Continuous
100
AcDbCircle
 10
-131.731346
 20
-363.986615
 30
0.0
 40
5.0
100
AcDbArc
 50
270.0
 51
0.0
  0
ARC
  5
1C4
100
AcDbEntity
  8
0
370
    -3
390
0
  6
Continuous
100
AcDbCircle
 10
-131.731346
 20
-373.986615
 30
0.0
 40
5.0
100
AcDbArc
 50
0.0
 51
90.0
  0
ARC
  5
1C5
100
AcDbEntity
  8
0
370
    -3
390
0
  6
Continuous
100
AcDbCircle
 10
-232.731346
 20
-337.986615
 30
0.0
 40
5.0
100
AcDbArc
 50
0.0
 51
90.0
  0
ARC
  5
1C6
100
AcDbEntity
  8
0
370
    -3
390
0
  6
Continuous
100
AcDbCircle
 10
-222.731346
 20
-363.986615
 30
0.0
 40
5.0
100
AcDbArc
 50
180.0
 51
270.0
  0
ARC
  5
1C7
100
AcDbEntity
  8
0
370
    -3
390
0
  6
Continuous
100
AcDbCircle
 10
-222.731346
 20
-373.986615
 30
0.0
 40
5.0
100
AcDbArc
 50
90.0
 51
180.0
  0
ARC
  5
1C8
100
AcDbEntity
  8
0
370
    -3
390
0
  6
Continuous
100
AcDbCircle
 10
-86.731346
 20
-468.986615
 30
0.0
 40
40.0
100
AcDbArc
 50
180.0
 51
270.0
  0
ARC
  5
1C9
100
AcDbEntity
  8
0
370
    -3
390
0
  6
Continuous
100
AcDbCircle
 10
-237.731346
 20
-432.8727
 30
0.0
 40
10.0
100
AcDbArc
 50
304.024236
 51
0.0
  0
LINE
  5
1CA
100
AcDbEntity
  8
0
370
    -3
390
0
  6
Continuous
100
AcDbLine
 10
-232.135911
 20
-441.160709
 30
0.0
 11
-370.367268
 21
-509.391734
 31
0.0
  0
LINE
  5
1CB
100
AcDbEntity
  8
0
370
    -3
390
0
  6
Continuous
100
AcDbLine
 10
-234.231346
 20
-118.986615
 30
0.0
 11
-234.231346
 21
-442.195016
 31
0.0
  0
INSERT
  5
1DC
100
AcDbEntity
  8
0
390
0
100
AcDbBlockReference
  2
ZU_SYM__USERS_HOME_SYMBOL_POO_SYM_B21_0000421
 10
-293.231346
 20
-235.986615
 30
0.0
  0
LINE
  5
1DD
100
AcDbEntity
  8
0
370
    -3
390
0
  6
Continuous
100
AcDbLine
 10
-532.231346
 20
-441.185906
 30
0.0
 11
-532.231346
 21
-513.186615
 31
0.0
  0
LINE
  5
1DE
100
AcDbEntity
  8
0
370
    -3
390
0
  6
Continuous
100
AcDbLine
 10
-532.231346
 20
-336.144688
 30
0.0
 11
-532.231346
 21
-238.786615
 31
0.0
  0
LINE
  5
1DF
100
AcDbEntity
  8
0
370
    -3
390
0
  6
Continuous
100
AcDbLine
 10
-649.231346
 20
-375.986615
 30
0.0
 11
-649.231346
 21
-262.573446
 31
0.0
  0
LINE
  5
1E0
100
AcDbEntity
  8
0
370
    -3
390
0
  6
Continuous
100
AcDbLine
 10
-649.231346
 20
-375.986615
 30
0.0
 11
-649.231346
 21
-489.399784
 31
0.0
  0
LINE
  5
1E1
100
AcDbEntity
  8
0
370
    -3
390
0
  6
Continuous
100
AcDbLine
 10
-587.436427
 20
-238.786615
 30
0.0
 11
-532.231346
 21
-238.786615
 31
0.0
  0
ARC
  5
1E2
100
AcDbEntity
  8
0
370
    -3
390
0
  6
Continuous
100
AcDbCircle
 10
-643.031346
 20
-262.573446
 30
0.0
 40
6.2
100
AcDbArc
 50
120.0
 51
180.0
  0
ARC
  5
1E3
100
AcDbEntity
  8
0
370
    -3
390
0
  6
Continuous
100
AcDbCircle
 10
-587.114888
 20
-339.986615
 30
0.0
 40
101.2
100
AcDbArc
 50
90.0
 51
120.0
  0
LINE
  5
1E4
100
AcDbEntity
  8
0
370
    -3
390
0
  6
Continuous
100
AcDbLine
 10
-637.714888
 20
-252.344844
 30
0.0
 11
-646.131346
 21
-257.204089
 31
0.0
  0
LINE
  5
1E5
100
AcDbEntity
  8
0
370
    -3
390
0
  6
Continuous
100
AcDbLine
 10
-577.13852
 20
-486.713902
 30
0.0
 11
-574.231346
 21
-484.88106
 31
0.0
  0
LINE
  5
1E6
100
AcDbEntity
  8
0
370
    -3
390
0
  6
Continuous
100
AcDbLine
 10
-574.231346
 20
-484.88106
 30
0.0
 11
-577.231346
 21
-482.529784
 31
0.0
  0
LINE
  5
1E7
100
AcDbEntity
  8
0
370
    -3
390
0
  6
Continuous
100
AcDbLine
 10
-571.324173
 20
-486.713902
 30
0.0
 11
-574.231346
 21
-484.88106
 31
0.0
  0
LINE
  5
1E8
100
AcDbEntity
  8
0
370
    -3
390
0
  6
Continuous
100
AcDbLine
 10
-574.231346
 20
-484.88106
 30
0.0
 11
-571.231346
 21
-482.529784
 31
0.0
  0
ELLIPSE
  5
1E9
100
AcDbEntity
  8
0
370
    -3
390
0
  6
Continuous
100
AcDbEllipse
 10
-574.231346
 20
-482.123343
 30
0.0
 11
6.25
 21
0.0
 31
0.0
210
0.0
220
0.0
230
1.0
 40
0.707107
 41
5.5424010803725237
 42
3.8823768803968073
  0
ELLIPSE
  5
1EA
100
AcDbEntity
  8
0
370
    -3
390
0
  6
Continuous
100
AcDbEllipse
 10
-574.231346
 20
-482.941473
 30
0.0
 11
5.25
 21
0.0
 31
0.0
210
0.0
220
0.0
230
1.0
 40
0.862941
 41
0.0
 42
6.2831853071795862
  0
LINE
  5
1EB
100
AcDbEntity
  8
0
370
    -3
390
0
  6
Continuous
100
AcDbLine
 10
-580.481346
 20
-480.991972
 30
0.0
 11
-580.481346
 21
-482.123343
 31
0.0
  0
LINE
  5
1EC
100
AcDbEntity
  8
0
370
    -3
390
0
  6
Continuous
100
AcDbLine
 10
-567.981346
 20
-480.991972
 30
0.0
 11
-567.981346
 21
-482.123343
 31
0.0
  0
ELLIPSE
  5
1ED
100
AcDbEntity
  8
0
370
    -3
390
0
  6
Continuous
100
AcDbEllipse
 10
-574.231346
 20
-480.991972
 30
0.0
 11
6.25
 21
0.0
 31
0.0
210
0.0
220
0.0
230
1.0
 40
0.707107
 41
0.0
 42
3.1415926535897931
  0
ELLIPSE
  5
1EE
100
AcDbEntity
  8
0
370
    -3
390
0
  6
Continuous
100
AcDbEllipse
 10
-574.231346
 20
-480.888419
 30
0.0
 11
7.0
 21
0.0
 31
0.0
210
0.0
220
0.0
230
1.0
 40
0.692313
 41
3.1415926535897931
 42
3.6880322699881529
  0
ELLIPSE
  5
1EF
100
AcDbEntity
  8
0
370
    -3
390
0
  6
Continuous
100
AcDbEllipse
 10
-574.231346
 20
-480.888419
 30
0.0
 11
7.0
 21
0.0
 31
0.0
210
0.0
220
0.0
230
1.0
 40
0.692313
 41
5.7367456907812269
 42
0.0
  0
ELLIPSE
  5
1F0
100
AcDbEntity
  8
0
370
    -3
390
0
  6
Continuous
100
AcDbEllipse
 10
-574.231346
 20
-480.888419
 30
0.0
 11
7.0
 21
0.0
 31
0.0
210
0.0
220
0.0
230
1.0
 40
0.692313
 41
0.0
 42
3.1415926535897931
  0
ELLIPSE
  5
1F1
100
AcDbEntity
  8
0
370
    -3
390
0
  6
Continuous
100
AcDbEllipse
 10
-574.231346
 20
-479.247063
 30
0.0
 11
7.0
 21
0.0
 31
0.0
210
0.0
220
0.0
230
1.0
 40
0.707107
 41
0.0
 42
3.1415926535897931
  0
LINE
  5
1F2
100
AcDbEntity
  8
0
370
    -3
390
0
  6
Continuous
100
AcDbLine
 10
-581.231346
 20
-479.247063
 30
0.0
 11
-581.231346
 21
-480.888419
 31
0.0
  0
LINE
  5
1F3
100
AcDbEntity
  8
0
370
    -3
390
0
  6
Continuous
100
AcDbLine
 10
-567.231346
 20
-479.247063
 30
0.0
 11
-567.231346
 21
-480.888419
 31
0.0
  0
ARC
  5
1F4
100
AcDbEntity
  8
0
370
    -3
390
0
  6
Continuous
100
AcDbCircle
 10
-643.031346
 20
-489.399784
 30
0.0
 40
6.2
100
AcDbArc
 50
180.0
 51
240.0
  0
LINE
  5
1F5
100
AcDbEntity
  8
0
370
    -3
390
0
  6
Continuous
100
AcDbLine
 10
-577.13852
 20
-265.259328
 30
0.0
 11
-574.231346
 21
-267.092171
 31
0.0
  0
LINE
  5
1F6
100
AcDbEntity
  8
0
370
    -3
390
0
  6
Continuous
100
AcDbLine
 10
-574.231346
 20
-267.092171
 30
0.0
 11
-577.231346
 21
-269.443446
 31
0.0
  0
LINE
  5
1F7
100
AcDbEntity
  8
0
370
    -3
390
0
  6
Continuous
100
AcDbLine
 10
-571.324173
 20
-265.259328
 30
0.0
 11
-574.231346
 21
-267.092171
 31
0.0
  0
LINE
  5
1F8
100
AcDbEntity
  8
0
370
    -3
390
0
  6
Continuous
100
AcDbLine
 10
-574.231346
 20
-267.092171
 30
0.0
 11
-571.231346
 21
-269.443446
 31
0.0
  0
ELLIPSE
  5
1F9
100
AcDbEntity
  8
0
370
    -3
390
0
  6
Continuous
100
AcDbEllipse
 10
-574.231346
 20
-269.849887
 30
0.0
 11
6.25
 21
0.0
 31
0.0
210
0.0
220
0.0
230
1.0
 40
0.707107
 41
2.4008084267828176
 42
0.7407842268070249
  0
ELLIPSE
  5
1FA
100
AcDbEntity
  8
0
370
    -3
390
0
  6
Continuous
100
AcDbEllipse
 10
-574.231346
 20
-269.031757
 30
0.0
 11
5.25
 21
0.0
 31
0.0
210
0.0
220
0.0
230
1.0
 40
0.862941
 41
0.0
 42
6.2831853071795862
  0
LINE
  5
1FB
100
AcDbEntity
  8
0
370
    -3
390
0
  6
Continuous
100
AcDbLine
 10
-580.481346
 20
-270.981258
 30
0.0
 11
-580.481346
 21
-269.849887
 31
0.0
  0
LINE
  5
1FC
100
AcDbEntity
  8
0
370
    -3
390
0
  6
Continuous
100
AcDbLine
 10
-567.981346
 20
-270.981258
 30
0.0
 11
-567.981346
 21
-269.849887
 31
0.0
  0
ELLIPSE
  5
1FD
100
AcDbEntity
  8
0
370
    -3
390
0
  6
Continuous
100
AcDbEllipse
 10
-574.231346
 20
-270.981258
 30
0.0
 11
6.25
 21
0.0
 31
0.0
210
0.0
220
0.0
230
1.0
 40
0.707107
 41
3.1415926535897931
 42
0.0
  0
ELLIPSE
  5
1FE
100
AcDbEntity
  8
0
370
    -3
390
0
  6
Continuous
100
AcDbEllipse
 10
-574.231346
 20
-271.084812
 30
0.0
 11
7.0
 21
0.0
 31
0.0
210
0.0
220
0.0
230
1.0
 40
0.692313
 41
2.5951530371914333
 42
3.1415926535897931
  0
ELLIPSE
  5
1FF
100
AcDbEntity
  8
0
370
    -3
390
0
  6
Continuous
100
AcDbEllipse
 10
-574.231346
 20
-271.084812
 30
0.0
 11
7.0
 21
0.0
 31
0.0
210
0.0
220
0.0
230
1.0
 40
0.692313
 41
0.0
 42
0.5464396163983597
  0
ELLIPSE
  5
200
100
AcDbEntity
  8
0
370
    -3
390
0
  6
Continuous
100
AcDbEllipse
 10
-574.231346
 20
-271.084812
 30
0.0
 11
7.0
 21
0.0
 31
0.0
210
0.0
220
0.0
230
1.0
 40
0.692313
 41
3.1415926535897931
 42
0.0
  0
ELLIPSE
  5
201
100
AcDbEntity
  8
0
370
    -3
390
0
  6
Continuous
100
AcDbEllipse
 10
-574.231346
 20
-272.726168
 30
0.0
 11
7.0
 21
0.0
 31
0.0
210
0.0
220
0.0
230
1.0
 40
0.707107
 41
3.1415926535897931
 42
0.0
  0
LINE
  5
202
100
AcDbEntity
  8
0
370
    -3
390
0
  6
Continuous
100
AcDbLine
 10
-581.231346
 20
-272.726168
 30
0.0
 11
-581.231346
 21
-271.084812
 31
0.0
  0
LINE
  5
203
100
AcDbEntity
  8
0
370
    -3
390
0
  6
Continuous
100
AcDbLine
 10
-567.231346
 20
-272.726168
 30
0.0
 11
-567.231346
 21
-271.084812
 31
0.0
  0
LINE
  5
204
100
AcDbEntity
  8
0
370
    -3
390
0
  6
Continuous
100
AcDbLine
 10
-532.231346
 20
-242.986615
 30
0.0
 11
-313.23131
 21
-242.986615
 31
0.0
  0
LINE
  5
205
100
AcDbEntity
  8
0
370
    -3
390
0
  6
Continuous
100
AcDbLine
 10
-532.231346
 20
-246.486615
 30
0.0
 11
-313.097535
 21
-246.486615
 31
0.0
  0
LINE
  5
206
100
AcDbEntity
  8
0
370
    -3
390
0
  6
Continuous
100
AcDbLine
 10
-532.231346
 20
-247.986615
 30
0.0
 11
-312.23132
 21
-247.986615
 31
0.0
  0
LINE
  5
207
100
AcDbEntity
  8
0
370
    -3
390
0
  6
Continuous
100
AcDbLine
 10
-532.231346
 20
-251.986615
 30
0.0
 11
-302.231346
 21
-251.986615
 31
0.0
  0
LINE
  5
208
100
AcDbEntity
  8
0
370
    -3
390
0
  6
Continuous
100
AcDbLine
 10
-532.231346
 20
-257.986615
 30
0.0
 11
-302.231346
 21
-257.986615
 31
0.0
  0
LINE
  5
209
100
AcDbEntity
  8
0
370
    -3
390
0
  6
Continuous
100
AcDbLine
 10
-532.231346
 20
-271.279116
 30
0.0
 11
-302.231346
 21
-271.279116
 31
0.0
  0
LINE
  5
20A
100
AcDbEntity
  8
0
370
    -3
390
0
  6
Continuous
100
AcDbLine
 10
-532.231346
 20
-284.007038
 30
0.0
 11
-302.231346
 21
-284.007038
 31
0.0
  0
LINE
  5
20B
100
AcDbEntity
  8
0
370
    -3
390
0
  6
Continuous
100
AcDbLine
 10
-532.231346
 20
-304.406675
 30
0.0
 11
-302.231346
 21
-304.406675
 31
0.0
  0
LINE
  5
20C
100
AcDbEntity
  8
0
370
    -3
390
0
  6
Continuous
100
AcDbLine
 10
-532.231346
 20
-307.643402
 30
0.0
 11
-302.231346
 21
-307.643402
 31
0.0
  0
LINE
  5
20D
100
AcDbEntity
  8
0
370
    -3
390
0
  6
Continuous
100
AcDbLine
 10
-532.231346
 20
-318.343844
 30
0.0
 11
-302.231346
 21
-318.343844
 31
0.0
  0
LINE
  5
20E
100
AcDbEntity
  8
0
370
    -3
390
0
  6
Continuous
100
AcDbLine
 10
-532.231346
 20
-321.563257
 30
0.0
 11
-302.231346
 21
-321.563257
 31
0.0
  0
LINE
  5
20F
100
AcDbEntity
  8
0
370
    -3
390
0
  6
Continuous
100
AcDbLine
 10
-532.231346
 20
-335.395637
 30
0.0
 11
-302.231346
 21
-335.395637
 31
0.0
  0
LINE
  5
210
100
AcDbEntity
  8
0
370
    -3
390
0
  6
Continuous
100
AcDbLine
 10
-532.231346
 20
-332.542003
 30
0.0
 11
-302.231346
 21
-332.542003
 31
0.0
  0
LINE
  5
211
100
AcDbEntity
  8
0
370
    -3
390
0
  6
Continuous
100
AcDbLine
 10
-463.231346
 20
-351.986615
 30
0.0
 11
-302.231346
 21
-351.986615
 31
0.0
  0
LINE
  5
212
100
AcDbEntity
  8
0
370
    -3
390
0
  6
Continuous
100
AcDbLine
 10
-532.231346
 20
-447.566556
 30
0.0
 11
-302.231346
 21
-447.566556
 31
0.0
  0
LINE
  5
213
100
AcDbEntity
  8
0
370
    -3
390
0
  6
Continuous
100
AcDbLine
 10
-532.231346
 20
-444.329828
 30
0.0
 11
-302.231346
 21
-444.329828
 31
0.0
  0
LINE
  5
214
100
AcDbEntity
  8
0
370
    -3
390
0
  6
Continuous
100
AcDbLine
 10
-463.231346
 20
-399.986615
 30
0.0
 11
-302.231346
 21
-399.986615
 31
0.0
  0
LINE
  5
215
100
AcDbEntity
  8
0
370
    -3
390
0
  6
Continuous
100
AcDbLine
 10
-463.231346
 20
-416.577594
 30
0.0
 11
-302.231346
 21
-416.577594
 31
0.0
  0
LINE
  5
216
100
AcDbEntity
  8
0
370
    -3
390
0
  6
Continuous
100
AcDbLine
 10
-463.231346
 20
-419.431227
 30
0.0
 11
-302.231346
 21
-419.431227
 31
0.0
  0
LINE
  5
217
100
AcDbEntity
  8
0
370
    -3
390
0
  6
Continuous
100
AcDbLine
 10
-463.231346
 20
-430.409973
 30
0.0
 11
-302.231346
 21
-430.409973
 31
0.0
  0
LINE
  5
218
100
AcDbEntity
  8
0
370
    -3
390
0
  6
Continuous
100
AcDbLine
 10
-463.319644
 20
-433.629386
 30
0.0
 11
-302.231346
 21
-433.629386
 31
0.0
  0
LINE
  5
219
100
AcDbEntity
  8
0
370
    -3
390
0
  6
Continuous
100
AcDbLine
 10
-532.231346
 20
-480.694115
 30
0.0
 11
-312.227868
 21
-480.694115
 31
0.0
  0
LINE
  5
21A
100
AcDbEntity
  8
0
370
    -3
390
0
  6
Continuous
100
AcDbLine
 10
-532.231346
 20
-467.966193
 30
0.0
 11
-302.231346
 21
-467.966193
 31
0.0
  0
LINE
  5
21B
100
AcDbEntity
  8
0
370
    -3
390
0
  6
Continuous
100
AcDbLine
 10
-567.231346
 20
385.636571
 30
0.0
 11
-567.231346
 21
387.277927
 31
0.0
  0
LINE
  5
21C
100
AcDbEntity
  8
0
370
    -3
390
0
  6
Continuous
100
AcDbLine
 10
-581.231346
 20
385.636571
 30
0.0
 11
-581.231346
 21
387.277927
 31
0.0
  0
ELLIPSE
  5
21D
100
AcDbEntity
  8
0
370
    -3
390
0
  6
Continuous
100
AcDbEllipse
 10
-574.231346
 20
385.636571
 30
0.0
 11
7.0
 21
0.0
 31
0.0
210
0.0
220
0.0
230
1.0
 40
0.707107
 41
3.1415926535897931
 42
0.0
  0
ELLIPSE
  5
21E
100
AcDbEntity
  8
0
370
    -3
390
0
  6
Continuous
100
AcDbEllipse
 10
-574.231346
 20
387.277927
 30
0.0
 11
7.0
 21
0.0
 31
0.0
210
0.0
220
0.0
230
1.0
 40
0.692313
 41
3.1415926535897931
 42
0.0
  0
ELLIPSE
  5
21F
100
AcDbEntity
  8
0
370
    -3
390
0
  6
Continuous
100
AcDbEllipse
 10
-574.231346
 20
387.277927
 30
0.0
 11
7.0
 21
0.0
 31
0.0
210
0.0
220
0.0
230
1.0
 40
0.692313
 41
0.0
 42
0.5464396163983196
  0
ELLIPSE
  5
220
100
AcDbEntity
  8
0
370
    -3
390
0
  6
Continuous
100
AcDbEllipse
 10
-574.231346
 20
387.277927
 30
0.0
 11
7.0
 21
0.0
 31
0.0
210
0.0
220
0.0
230
1.0
 40
0.692313
 41
2.5951530371914737
 42
3.1415926535897931
  0
ELLIPSE
  5
221
100
AcDbEntity
  8
0
370
    -3
390
0
  6
Continuous
100
AcDbEllipse
 10
-574.231346
 20
387.38148
 30
0.0
 11
6.25
 21
0.0
 31
0.0
210
0.0
220
0.0
230
1.0
 40
0.707107
 41
3.1415926535897931
 42
0.0
  0
LINE
  5
222
100
AcDbEntity
  8
0
370
    -3
390
0
  6
Continuous
100
AcDbLine
 10
-567.981346
 20
387.38148
 30
0.0
 11
-567.981346
 21
388.512851
 31
0.0
  0
LINE
  5
223
100
AcDbEntity
  8
0
370
    -3
390
0
  6
Continuous
100
AcDbLine
 10
-580.481346
 20
387.38148
 30
0.0
 11
-580.481346
 21
388.512851
 31
0.0
  0
ELLIPSE
  5
224
100
AcDbEntity
  8
0
370
    -3
390
0
  6
Continuous
100
AcDbEllipse
 10
-574.231346
 20
389.330982
 30
0.0
 11
5.25
 21
0.0
 31
0.0
210
0.0
220
0.0
230
1.0
 40
0.862941
 41
0.0
 42
6.2831853071795862
  0
ELLIPSE
  5
225
100
AcDbEntity
  8
0
370
    -3
390
0
  6
Continuous
100
AcDbEllipse
 10
-574.231346
 20
388.512851
 30
0.0
 11
6.25
 21
0.0
 31
0.0
210
0.0
220
0.0
230
1.0
 40
0.707107
 41
2.400808426782755
 42
0.7407842268070384
  0
LINE
  5
226
100
AcDbEntity
  8
0
370
    -3
390
0
  6
Continuous
100
AcDbLine
 10
-574.231346
 20
391.270568
 30
0.0
 11
-571.231346
 21
388.919293
 31
0.0
  0
LINE
  5
227
100
AcDbEntity
  8
0
370
    -3
390
0
  6
Continuous
100
AcDbLine
 10
-571.324173
 20
393.10341
 30
0.0
 11
-574.231346
 21
391.270568
 31
0.0
  0
LINE
  5
228
100
AcDbEntity
  8
0
370
    -3
390
0
  6
Continuous
100
AcDbLine
 10
-574.231346
 20
391.270568
 30
0.0
 11
-577.231346
 21
388.919293
 31
0.0
  0
LINE
  5
229
100
AcDbEntity
  8
0
370
    -3
390
0
  6
Continuous
100
AcDbLine
 10
-577.13852
 20
393.10341
 30
0.0
 11
-574.231346
 21
391.270568
 31
0.0
  0
LINE
  5
22A
100
AcDbEntity
  8
0
370
    -3
390
0
  6
Continuous
100
AcDbLine
 10
-637.714888
 20
158.734353
 30
0.0
 11
-646.131346
 21
163.593597
 31
0.0
  0
ARC
  5
22B
100
AcDbEntity
  8
0
370
    -3
390
0
  6
Continuous
100
AcDbCircle
 10
-587.114888
 20
246.376123
 30
0.0
 40
101.2
100
AcDbArc
 50
240.0
 51
270.0
  0
ARC
  5
22C
100
AcDbEntity
  8
0
370
    -3
390
0
  6
Continuous
100
AcDbCircle
 10
-643.031346
 20
168.962955
 30
0.0
 40
6.2
100
AcDbArc
 50
180.0
 51
240.0
  0
LINE
  5
22D
100
AcDbEntity
  8
0
370
    -3
390
0
  6
Continuous
100
AcDbLine
 10
-567.231346
 20
179.115676
 30
0.0
 11
-567.231346
 21
177.47432
 31
0.0
  0
LINE
  5
22E
100
AcDbEntity
  8
0
370
    -3
390
0
  6
Continuous
100
AcDbLine
 10
-581.231346
 20
179.115676
 30
0.0
 11
-581.231346
 21
177.47432
 31
0.0
  0
ELLIPSE
  5
22F
100
AcDbEntity
  8
0
370
    -3
390
0
  6
Continuous
100
AcDbEllipse
 10
-574.231346
 20
179.115676
 30
0.0
 11
7.0
 21
0.0
 31
0.0
210
0.0
220
0.0
230
1.0
 40
0.707107
 41
0.0
 42
3.1415926535897931
  0
ELLIPSE
  5
230
100
AcDbEntity
  8
0
370
    -3
390
0
  6
Continuous
100
AcDbEllipse
 10
-574.231346
 20
177.47432
 30
0.0
 11
7.0
 21
0.0
 31
0.0
210
0.0
220
0.0
230
1.0
 40
0.692313
 41
0.0
 42
3.1415926535897931
  0
ELLIPSE
  5
231
100
AcDbEntity
  8
0
370
    -3
390
0
  6
Continuous
100
AcDbEllipse
 10
-574.231346
 20
177.47432
 30
0.0
 11
7.0
 21
0.0
 31
0.0
210
0.0
220
0.0
230
1.0
 40
0.692313
 41
5.7367456907812695
 42
0.0
  0
ELLIPSE
  5
232
100
AcDbEntity
  8
0
370
    -3
390
0
  6
Continuous
100
AcDbEllipse
 10
-574.231346
 20
177.47432
 30
0.0
 11
7.0
 21
0.0
 31
0.0
210
0.0
220
0.0
230
1.0
 40
0.692313
 41
3.1415926535897931
 42
3.6880322699881103
  0
ELLIPSE
  5
233
100
AcDbEntity
  8
0
370
    -3
390
0
  6
Continuous
100
AcDbEllipse
 10
-574.231346
 20
177.370766
 30
0.0
 11
6.25
 21
0.0
 31
0.0
210
0.0
220
0.0
230
1.0
 40
0.707107
 41
0.0
 42
3.1415926535897931
  0
LINE
  5
234
100
AcDbEntity
  8
0
370
    -3
390
0
  6
Continuous
100
AcDbLine
 10
-567.981346
 20
177.370766
 30
0.0
 11
-567.981346
 21
176.239396
 31
0.0
  0
LINE
  5
235
100
AcDbEntity
  8
0
370
    -3
390
0
  6
Continuous
100
AcDbLine
 10
-580.481346
 20
177.370766
 30
0.0
 11
-580.481346
 21
176.239396
 31
0.0
  0
ELLIPSE
  5
236
100
AcDbEntity
  8
0
370
    -3
390
0
  6
Continuous
100
AcDbEllipse
 10
-574.231346
 20
175.421265
 30
0.0
 11
5.25
 21
0.0
 31
0.0
210
0.0
220
0.0
230
1.0
 40
0.862941
 41
0.0
 42
6.2831853071795862
  0
ELLIPSE
  5
237
100
AcDbEntity
  8
0
370
    -3
390
0
  6
Continuous
100
AcDbEllipse
 10
-574.231346
 20
176.239396
 30
0.0
 11
6.25
 21
0.0
 31
0.0
210
0.0
220
0.0
230
1.0
 40
0.707107
 41
5.5424010803725476
 42
3.8823768803968313
  0
LINE
  5
238
100
AcDbEntity
  8
0
370
    -3
390
0
  6
Continuous
100
AcDbLine
 10
-574.231346
 20
173.481679
 30
0.0
 11
-571.231346
 21
175.832954
 31
0.0
  0
LINE
  5
239
100
AcDbEntity
  8
0
370
    -3
390
0
  6
Continuous
100
AcDbLine
 10
-571.324173
 20
171.648837
 30
0.0
 11
-574.231346
 21
173.481679
 31
0.0
  0
LINE
  5
23A
100
AcDbEntity
  8
0
370
    -3
390
0
  6
Continuous
100
AcDbLine
 10
-574.231346
 20
173.481679
 30
0.0
 11
-577.231346
 21
175.832954
 31
0.0
  0
LINE
  5
23B
100
AcDbEntity
  8
0
370
    -3
390
0
  6
Continuous
100
AcDbLine
 10
-577.13852
 20
171.648837
 30
0.0
 11
-574.231346
 21
173.481679
 31
0.0
  0
LINE
  5
23C
100
AcDbEntity
  8
0
370
    -3
390
0
  6
Continuous
100
AcDbLine
 10
-637.714888
 20
406.017894
 30
0.0
 11
-646.131346
 21
401.15865
 31
0.0
  0
ARC
  5
23D
100
AcDbEntity
  8
0
370
    -3
390
0
  6
Continuous
100
AcDbCircle
 10
-587.114888
 20
318.376123
 30
0.0
 40
101.2
100
AcDbArc
 50
90.0
 51
120.0
  0
ARC
  5
23E
100
AcDbEntity
  8
0
370
    -3
390
0
  6
Continuous
100
AcDbCircle
 10
-643.031346
 20
395.789292
 30
0.0
 40
6.2
100
AcDbArc
 50
120.0
 51
180.0
  0
LINE
  5
23F
100
AcDbEntity
  8
0
370
    -3
390
0
  6
Continuous
100
AcDbLine
 10
-587.436427
 20
419.576123
 30
0.0
 11
-532.231346
 21
419.576123
 31
0.0
  0
LINE
  5
240
100
AcDbEntity
  8
0
370
    -3
390
0
  6
Continuous
100
AcDbLine
 10
-649.231346
 20
282.376123
 30
0.0
 11
-649.231346
 21
168.962955
 31
0.0
  0
LINE
  5
241
100
AcDbEntity
  8
0
370
    -3
390
0
  6
Continuous
100
AcDbLine
 10
-649.231346
 20
282.376123
 30
0.0
 11
-649.231346
 21
395.789292
 31
0.0
  0
ARC
  5
242
100
AcDbEntity
  8
0
370
    -3
390
0
  6
Continuous
100
AcDbCircle
 10
-538.831346
 20
144.976123
 30
0.0
 40
2.0
100
AcDbArc
 50
270.0
 51
0.0
  0
LINE
  5
243
100
AcDbEntity
  8
0
370
    -3
390
0
  6
Continuous
100
AcDbLine
 10
-512.231346
 20
141.376123
 30
0.0
 11
-543.231346
 21
141.376123
 31
0.0
  0
LINE
  5
244
100
AcDbEntity
  8
0
370
    -3
390
0
  6
Continuous
100
AcDbLine
 10
-543.231346
 20
142.976123
 30
0.0
 11
-512.231346
 21
142.976123
 31
0.0
  0
ARC
  5
245
100
AcDbEntity
  8
0
370
    -3
390
0
  6
Continuous
100
AcDbCircle
 10
-546.231346
 20
144.9509
 30
0.0
 40
1.0
100
AcDbArc
 50
90.0
 51
166.983983
  0
LINE
  5
246
100
AcDbEntity
  8
0
370
    -3
390
0
  6
Continuous
100
AcDbLine
 10
-587.436427
 20
145.176123
 30
0.0
 11
-547.205653
 21
145.176123
 31
0.0
  0
LINE
  5
247
100
AcDbEntity
  8
0
370
    -3
390
0
  6
Continuous
100
AcDbLine
 10
-535.231346
 20
145.9509
 30
0.0
 11
-546.231346
 21
145.9509
 31
0.0
  0
ARC
  5
248
100
AcDbEntity
  8
0
370
    -3
390
0
  6
Continuous
100
AcDbCircle
 10
-535.231346
 20
148.9509
 30
0.0
 40
3.0
100
AcDbArc
 50
270.0
 51
0.0
  0
LINE
  5
249
100
AcDbEntity
  8
0
370
    -3
390
0
  6
Continuous
100
AcDbLine
 10
-532.231346
 20
156.376123
 30
0.0
 11
-512.231346
 21
156.376123
 31
0.0
  0
LINE
  5
24A
100
AcDbEntity
  8
0
370
    -3
390
0
  6
Continuous
100
AcDbLine
 10
-536.831346
 20
144.976123
 30
0.0
 11
-536.831346
 21
145.9509
 31
0.0
  0
LINE
  5
24B
100
AcDbEntity
  8
0
370
    -3
390
0
  6
Continuous
100
AcDbLine
 10
-532.231346
 20
419.576123
 30
0.0
 11
-532.231346
 21
148.9509
 31
0.0
  0
ARC
  5
24C
100
AcDbEntity
  8
0
370
    -3
390
0
  6
Continuous
100
AcDbCircle
 10
-552.631346
 20
98.462655
 30
0.0
 40
8.6
100
AcDbArc
 50
180.0
 51
270.0
  0
ARC
  5
24D
100
AcDbEntity
  8
0
370
    -3
390
0
  6
Continuous
100
AcDbCircle
 10
-550.431346
 20
98.224159
 30
0.0
 40
8.6
100
AcDbArc
 50
180.0
 51
270.0
  0
LINE
  5
24E
100
AcDbEntity
  8
0
370
    -3
390
0
  6
Continuous
100
AcDbLine
 10
-552.631346
 20
89.862655
 30
0.0
 11
-552.442624
 21
89.862655
 31
0.0
  0
LINE
  5
24F
100
AcDbEntity
  8
0
370
    -3
390
0
  6
Continuous
100
AcDbLine
 10
-561.231346
 20
132.511073
 30
0.0
 11
-561.231346
 21
98.462655
 31
0.0
  0
ARC
  5
250
100
AcDbEntity
  8
0
370
    -3
390
0
  6
Continuous
100
AcDbCircle
 10
-552.431346
 20
132.511073
 30
0.0
 40
8.8
100
AcDbArc
 50
90.0
 51
180.0
  0
ARC
  5
251
100
AcDbEntity
  8
0
370
    -3
390
0
  6
Continuous
100
AcDbCircle
 10
-552.431346
 20
129.067104
 30
0.0
 40
8.8
100
AcDbArc
 50
90.0
 51
180.0
  0
LINE
  5
252
100
AcDbEntity
  8
0
370
    -3
390
0
  6
Continuous
100
AcDbLine
 10
-559.031346
 20
127.899046
 30
0.0
 11
-559.031346
 21
98.224159
 31
0.0
  0
ARC
  5
253
100
AcDbEntity
  8
0
370
    -3
390
0
  6
Continuous
100
AcDbCircle
 10
-550.231346
 20
127.899046
 30
0.0
 40
8.8
100
AcDbArc
 50
90.0
 51
180.0
  0
LINE
  5
254
100
AcDbEntity
  8
0
370
    -3
390
0
  6
Continuous
100
AcDbLine
 10
-552.431346
 20
141.311073
 30
0.0
 11
-523.731346
 21
141.311073
 31
0.0
  0
LINE
  5
255
100
AcDbEntity
  8
0
370
    -3
390
0
  6
Continuous
100
AcDbLine
 10
-523.731346
 20
141.311073
 30
0.0
 11
-523.731346
 21
139.811073
 31
0.0
  0
LINE
  5
256
100
AcDbEntity
  8
0
370
    -3
390
0
  6
Continuous
100
AcDbLine
 10
-523.731346
 20
139.811073
 30
0.0
 11
-522.731346
 21
139.811073
 31
0.0
  0
LINE
  5
257
100
AcDbEntity
  8
0
370
    -3
390
0
  6
Continuous
100
AcDbLine
 10
-522.731346
 20
140.359792
 30
0.0
 11
-522.731346
 21
139.811073
 31
0.0
  0
LINE
  5
258
100
AcDbEntity
  8
0
370
    -3
390
0
  6
Continuous
100
AcDbLine
 10
-543.231346
 20
141.376123
 30
0.0
 11
-543.231346
 21
141.311073
 31
0.0
  0
LINE
  5
259
100
AcDbEntity
  8
0
370
    -3
390
0
  6
Continuous
100
AcDbLine
 10
-543.231346
 20
141.376123
 30
0.0
 11
-543.231346
 21
142.976123
 31
0.0
  0
LINE
  5
25A
100
AcDbEntity
  8
0
370
    -3
390
0
  6
CENTER
100
AcDbLine
 10
-512.231346
 20
158.376123
 30
0.0
 11
-512.231346
 21
82.672331
 31
0.0
  0
ARC
  5
25B
100
AcDbEntity
  8
0
370
    -3
390
0
  6
Continuous
100
AcDbCircle
 10
-512.231346
 20
97.980488
 30
0.0
 40
9.0
100
AcDbArc
 50
253.398469
 51
286.601548
  0
ARC
  5
25C
100
AcDbEntity
  8
0
370
    -3
390
0
  6
Continuous
100
AcDbCircle
 10
-510.031345
 20
90.601463
 30
0.0
 40
1.299999
100
AcDbArc
 50
286.601531
 51
311.255851
  0
ARC
  5
25D
100
AcDbEntity
  8
0
370
    -3
390
0
  6
Continuous
100
AcDbCircle
 10
-514.431347
 20
90.601463
 30
0.0
 40
1.299999
100
AcDbArc
 50
228.744149
 51
253.398469
  0
LINE
  5
25E
100
AcDbEntity
  8
0
370
    -3
390
0
  6
Continuous
100
AcDbLine
 10
-89.773052
 20
122.376123
 30
0.0
 11
-68.231346
 21
122.376123
 31
0.0
  0
ARC
  5
25F
100
AcDbEntity
  8
0
370
    -3
390
0
  6
Continuous
100
AcDbCircle
 10
-77.231346
 20
130.376123
 30
0.0
 40
8.0
100
AcDbArc
 50
270.0
 51
0.0
  0
ARC
  5
260
100
AcDbEntity
  8
0
370
    -3
390
0
  6
Continuous
100
AcDbCircle
 10
-68.231346
 20
157.376123
 30
0.0
 40
35.0
100
AcDbArc
 50
270.0
 51
0.0
  0
ARC
  5
261
100
AcDbEntity
  8
0
370
    -3
390
0
  6
Continuous
100
AcDbCircle
 10
-64.231346
 20
272.376123
 30
0.0
 40
5.0
100
AcDbArc
 50
90.0
 51
180.0
  0
ARC
  5
262
100
AcDbEntity
  8
0
370
    -3
390
0
  6
Continuous
100
AcDbCircle
 10
-43.231346
 20
272.376123
 30
0.0
 40
5.0
100
AcDbArc
 50
0.0
 51
90.0
  0
LINE
  5
263
100
AcDbEntity
  8
0
370
    -3
390
0
  6
Continuous
100
AcDbLine
 10
-38.231346
 20
272.376123
 30
0.0
 11
-38.231346
 21
282.376123
 31
0.0
  0
LINE
  5
264
100
AcDbEntity
  8
0
370
    -3
390
0
  6
Continuous
100
AcDbLine
 10
-43.231346
 20
277.376123
 30
0.0
 11
-64.231346
 21
277.376123
 31
0.0
  0
ARC
  5
265
100
AcDbEntity
  8
0
370
    -3
390
0
  6
Continuous
100
AcDbCircle
 10
-61.231346
 20
184.376123
 30
0.0
 40
8.0
100
AcDbArc
 50
90.0
 51
180.0
  0
ARC
  5
266
100
AcDbEntity
  8
0
370
    -3
390
0
  6
Continuous
100
AcDbCircle
 10
-41.231346
 20
200.376123
 30
0.0
 40
8.0
100
AcDbArc
 50
270.0
 51
0.0
  0
ARC
  5
267
100
AcDbEntity
  8
0
370
    -3
390
0
  6
Continuous
100
AcDbCircle
 10
-30.231346
 20
214.376123
 30
0.0
 40
3.0
100
AcDbArc
 50
90.0
 51
180.0
  0
LINE
  5
268
100
AcDbEntity
  8
0
370
    -3
390
0
  6
Continuous
100
AcDbLine
 10
-33.231346
 20
157.376123
 30
0.0
 11
-33.231346
 21
282.376123
 31
0.0
  0
LINE
  5
269
100
AcDbEntity
  8
0
370
    -3
390
0
  6
Continuous
100
AcDbLine
 10
-41.231346
 20
192.376123
 30
0.0
 11
-61.231346
 21
192.376123
 31
0.0
  0
LINE
  5
26A
100
AcDbEntity
  8
0
370
    -3
390
0
  6
Continuous
100
AcDbLine
 10
-69.231346
 20
130.376123
 30
0.0
 11
-69.231346
 21
282.376123
 31
0.0
  0
LINE
  5
26B
100
AcDbEntity
  8
0
370
    -3
390
0
  6
Continuous
100
AcDbLine
 10
-29.231346
 20
142.376123
 30
0.0
 11
-36.60857
 21
142.376123
 31
0.0
  0
LINE
  5
26C
100
AcDbEntity
  8
0
370
    -3
390
0
  6
Continuous
100
AcDbLine
 10
-29.231346
 20
127.036377
 30
0.0
 11
-50.781423
 21
127.036377
 31
0.0
  0
LINE
  5
26D
100
AcDbEntity
  8
0
370
    -3
390
0
  6
Continuous
100
AcDbLine
 10
-29.231346
 20
437.715869
 30
0.0
 11
-50.781423
 21
437.715869
 31
0.0
  0
LINE
  5
26E
100
AcDbEntity
  8
0
370
    -3
390
0
  6
Continuous
100
AcDbLine
 10
-29.231346
 20
422.376123
 30
0.0
 11
-36.60857
 21
422.376123
 31
0.0
  0
LINE
  5
26F
100
AcDbEntity
  8
0
370
    -3
390
0
  6
Continuous
100
AcDbLine
 10
-69.231346
 20
434.376123
 30
0.0
 11
-69.231346
 21
282.376123
 31
0.0
  0
LINE
  5
270
100
AcDbEntity
  8
0
370
    -3
390
0
  6
Continuous
100
AcDbLine
 10
-38.231346
 20
292.376123
 30
0.0
 11
-38.231346
 21
282.376123
 31
0.0
  0
LINE
  5
271
100
AcDbEntity
  8
0
370
    -3
390
0
  6
Continuous
100
AcDbLine
 10
-33.231346
 20
407.376123
 30
0.0
 11
-33.231346
 21
282.376123
 31
0.0
  0
LINE
  5
272
100
AcDbEntity
  8
0
370
    -3
390
0
  6
Continuous
100
AcDbLine
 10
-89.773052
 20
442.376123
 30
0.0
 11
-68.231346
 21
442.376123
 31
0.0
  0
ARC
  5
273
100
AcDbEntity
  8
0
370
    -3
390
0
  6
Continuous
100
AcDbCircle
 10
-77.231346
 20
434.376123
 30
0.0
 40
8.0
100
AcDbArc
 50
0.0
 51
90.0
  0
ARC
  5
274
100
AcDbEntity
  8
0
370
    -3
390
0
  6
Continuous
100
AcDbCircle
 10
-68.231346
 20
407.376123
 30
0.0
 40
35.0
100
AcDbArc
 50
0.0
 51
90.0
  0
ARC
  5
275
100
AcDbEntity
  8
0
370
    -3
390
0
  6
Continuous
100
AcDbCircle
 10
-64.231346
 20
292.376123
 30
0.0
 40
5.0
100
AcDbArc
 50
180.0
 51
270.0
  0
ARC
  5
276
100
AcDbEntity
  8
0
370
    -3
390
0
  6
Continuous
100
AcDbCircle
 10
-43.231346
 20
292.376123
 30
0.0
 40
5.0
100
AcDbArc
 50
270.0
 51
0.0
  0
LINE
  5
277
100
AcDbEntity
  8
0
370
    -3
390
0
  6
Continuous
100
AcDbLine
 10
-43.231346
 20
287.376123
 30
0.0
 11
-64.231346
 21
287.376123
 31
0.0
  0
ARC
  5
278
100
AcDbEntity
  8
0
370
    -3
390
0
  6
Continuous
100
AcDbCircle
 10
-61.231346
 20
380.376123
 30
0.0
 40
8.0
100
AcDbArc
 50
180.0
 51
270.0
  0
ARC
  5
279
100
AcDbEntity
  8
0
370
    -3
390
0
  6
Continuous
100
AcDbCircle
 10
-41.231346
 20
364.376123
 30
0.0
 40
8.0
100
AcDbArc
 50
0.0
 51
90.0
  0
ARC
  5
27A
100
AcDbEntity
  8
0
370
    -3
390
0
  6
Continuous
100
AcDbCircle
 10
-30.231346
 20
350.376123
 30
0.0
 40
3.0
100
AcDbArc
 50
180.0
 51
270.0
  0
LINE
  5
27B
100
AcDbEntity
  8
0
370
    -3
390
0
  6
Continuous
100
AcDbLine
 10
-41.231346
 20
372.376123
 30
0.0
 11
-61.231346
 21
372.376123
 31
0.0
  0
LINE
  5
27C
100
AcDbEntity
  8
0
370
    -3
390
0
  6
Continuous
100
AcDbLine
 10
-86.731346
 20
62.376123
 30
0.0
 11
-86.731346
 21
78.376123
 31
0.0
  0
LINE
  5
27D
100
AcDbEntity
  8
0
370
    -3
390
0
  6
Continuous
100
AcDbLine
 10
-81.731346
 20
83.376123
 30
0.0
 11
-81.731346
 21
90.376123
 31
0.0
  0
ARC
  5
27E
100
AcDbEntity
  8
0
370
    -3
390
0
  6
Continuous
100
AcDbCircle
 10
-86.731346
 20
83.376123
 30
0.0
 40
5.0
100
AcDbArc
 50
270.0
 51
0.0
  0
CIRCLE
  5
27F
100
AcDbEntity
  8
0
370
    -3
390
0
  6
Continuous
100
AcDbCircle
 10
-53.231346
 20
102.376123
 30
0.0
 40
14.0
  0
ARC
  5
280
100
AcDbEntity
  8
0
370
    -3
390
0
  6
Continuous
100
AcDbCircle
 10
-86.731346
 20
481.376123
 30
0.0
 40
5.0
100
AcDbArc
 50
0.0
 51
90.0
  0
LINE
  5
281
100
AcDbEntity
  8
0
370
    -3
390
0
  6
Continuous
100
AcDbLine
 10
-81.731346
 20
481.376123
 30
0.0
 11
-81.731346
 21
474.376123
 31
0.0
  0
CIRCLE
  5
282
100
AcDbEntity
  8
0
370
    -3
390
0
  6
Continuous
100
AcDbCircle
 10
-53.231346
 20
462.376123
 30
0.0
 40
14.0
  0
LINE
  5
283
100
AcDbEntity
  8
0
370
    -3
390
0
  6
CENTER
100
AcDbLine
 10
-72.231346
 20
462.376123
 30
0.0
 11
-34.231346
 21
462.376123
 31
0.0
  0
LINE
  5
284
100
AcDbEntity
  8
0
370
    -3
390
0
  6
CENTER
100
AcDbLine
 10
-53.231346
 20
481.376123
 30
0.0
 11
-53.231346
 21
443.376123
 31
0.0
  0
LINE
  5
285
100
AcDbEntity
  8
0
370
    -3
390
0
  6
CENTER
100
AcDbLine
 10
-72.231346
 20
102.376123
 30
0.0
 11
-34.231346
 21
102.376123
 31
0.0
  0
LINE
  5
286
100
AcDbEntity
  8
0
370
    -3
390
0
  6
CENTER
100
AcDbLine
 10
-53.231346
 20
121.376123
 30
0.0
 11
-53.231346
 21
83.376123
 31
0.0
  0
LINE
  5
287
100
AcDbEntity
  8
0
370
    -3
390
0
  6
Continuous
100
AcDbLine
 10
-293.231346
 20
-203.986615
 30
0.0
 11
-274.231346
 21
-203.986615
 31
0.0
  0
ARC
  5
288
100
AcDbEntity
  8
0
370
    -3
390
0
  6
Continuous
100
AcDbCircle
 10
-293.231346
 20
-206.986615
 30
0.0
 40
3.0
100
AcDbArc
 50
90.0
 51
180.0
  0
LINE
  5
289
100
AcDbEntity
  8
0
370
    -3
390
0
  6
Continuous
100
AcDbLine
 10
-296.231346
 20
-145.986615
 30
0.0
 11
-296.231346
 21
-221.986615
 31
0.0
  0
LINE
  5
28A
100
AcDbEntity
  8
0
370
    -3
390
0
  6
Continuous
100
AcDbLine
 10
-308.231346
 20
-145.986615
 30
0.0
 11
-308.231346
 21
-223.986615
 31
0.0
  0
LINE
  5
28B
100
AcDbEntity
  8
0
370
    -3
390
0
  6
CENTER
100
AcDbLine
 10
-313.297336
 20
-176.986615
 30
0.0
 11
-293.784404
 21
-176.986615
 31
0.0
  0
LINE
  5
28C
100
AcDbEntity
  8
0
370
    -3
390
0
  6
DASHED
100
AcDbLine
 10
-308.231346
 20
-194.986615
 30
0.0
 11
-296.231346
 21
-194.986615
 31
0.0
  0
LINE
  5
28D
100
AcDbEntity
  8
0
370
    -3
390
0
  6
DASHED
100
AcDbLine
 10
-308.231346
 20
-158.986615
 30
0.0
 11
-296.231346
 21
-158.986615
 31
0.0
  0
LINE
  5
28E
100
AcDbEntity
  8
0
370
    -3
390
0
  6
Continuous
100
AcDbLine
 10
-308.231346
 20
-145.986615
 30
0.0
 11
-296.231346
 21
-145.986615
 31
0.0
  0
LINE
  5
28F
100
AcDbEntity
  8
0
370
    -3
390
0
  6
Continuous
100
AcDbLine
 10
-313.231316
 20
-229.986615
 30
0.0
 11
-319.531307
 21
-229.986615
 31
0.0
  0
LINE
  5
290
100
AcDbEntity
  8
0
370
    -3
390
0
  6
Continuous
100
AcDbLine
 10
-319.531307
 20
-229.986617
 30
0.0
 11
-320.231304
 21
-228.774353
 31
0.0
  0
LINE
  5
291
100
AcDbEntity
  8
0
370
    -3
390
0
  6
CENTER
100
AcDbLine
 10
-322.898849
 20
-220.986615
 30
0.0
 11
-301.091004
 21
-220.986615
 31
0.0
  0
LINE
  5
292
100
AcDbEntity
  8
0
370
    -3
390
0
  6
Continuous
100
AcDbLine
 10
-320.231304
 20
-228.774351
 30
0.0
 11
-320.231319
 21
-213.199275
 31
0.0
  0
LINE
  5
293
100
AcDbEntity
  8
0
370
    -3
390
0
  6
Continuous
100
AcDbLine
 10
-308.231346
 20
-211.986615
 30
0.0
 11
-319.531323
 21
-211.986615
 31
0.0
  0
LINE
  5
294
100
AcDbEntity
  8
0
370
    -3
390
0
  6
Continuous
100
AcDbLine
 10
-319.531323
 20
-211.986617
 30
0.0
 11
-320.231319
 21
-213.199277
 31
0.0
  0
LINE
  5
295
100
AcDbEntity
  8
0
370
    -3
390
0
  6
Continuous
100
AcDbLine
 10
-319.531323
 20
-211.986615
 30
0.0
 11
-319.531323
 21
-229.986615
 31
0.0
  0
LINE
  5
296
100
AcDbEntity
  8
0
370
    -3
390
0
  6
CENTER
100
AcDbLine
 10
-289.551742
 20
-235.986615
 30
0.0
 11
-314.921789
 21
-235.986615
 31
0.0
  0
ARC
  5
297
100
AcDbEntity
  8
0
370
    -3
390
0
  6
Continuous
100
AcDbCircle
 10
-266.231346
 20
255.19937
 30
0.0
 40
5.0
100
AcDbArc
 50
180.0
 51
270.0
  0
ARC
  5
298
100
AcDbEntity
  8
0
370
    -3
390
0
  6
Continuous
100
AcDbCircle
 10
-266.231346
 20
309.552876
 30
0.0
 40
5.0
100
AcDbArc
 50
90.0
 51
180.0
  0
LINE
  5
299
100
AcDbEntity
  8
0
370
    -3
390
0
  6
Continuous
100
AcDbLine
 10
-266.231346
 20
250.19937
 30
0.0
 11
-256.231346
 21
250.19937
 31
0.0
  0
LINE
  5
29A
100
AcDbEntity
  8
0
370
    -3
390
0
  6
Continuous
100
AcDbLine
 10
-256.231346
 20
314.552876
 30
0.0
 11
-266.231346
 21
314.552876
 31
0.0
  0
LINE
  5
29B
100
AcDbEntity
  8
0
370
    -3
390
0
  6
Continuous
100
AcDbLine
 10
-274.231346
 20
234.202249
 30
0.0
 11
-256.231346
 21
234.202249
 31
0.0
  0
LINE
  5
29C
100
AcDbEntity
  8
0
370
    -3
390
0
  6
Continuous
100
AcDbLine
 10
-274.231346
 20
330.549997
 30
0.0
 11
-256.231346
 21
330.549997
 31
0.0
  0
LINE
  5
29D
100
AcDbEntity
  8
0
370
    -3
390
0
  6
Continuous
100
AcDbLine
 10
-271.231346
 20
255.19937
 30
0.0
 11
-271.231346
 21
309.552876
 31
0.0
  0
POINT
  5
29E
100
AcDbEntity
  8
0
370
    -3
390
0
  6
Continuous
100
AcDbPoint
 10
-258.231346
 20
82.376123
 30
0.0
  0
LINE
  5
29F
100
AcDbEntity
  8
0
370
    -3
390
0
  6
Continuous
100
AcDbLine
 10
-258.231346
 20
68.376123
 30
0.0
 11
-258.231346
 21
96.376123
 31
0.0
  0
LINE
  5
2A0
100
AcDbEntity
  8
0
370
    -3
390
0
  6
Continuous
100
AcDbLine
 10
-262.231346
 20
96.376123
 30
0.0
 11
-262.231346
 21
68.376123
 31
0.0
  0
LINE
  5
2A1
100
AcDbEntity
  8
0
370
    -3
390
0
  6
Continuous
100
AcDbLine
 10
-278.231308
 20
92.644479
 30
0.0
 11
-278.231323
 21
72.108544
 31
0.0
  0
LINE
  5
2A2
100
AcDbEntity
  8
0
370
    -3
390
0
  6
Continuous
100
AcDbLine
 10
-262.231346
 20
70.376123
 30
0.0
 11
-277.231331
 21
70.376123
 31
0.0
  0
LINE
  5
2A3
100
AcDbEntity
  8
0
370
    -3
390
0
  6
Continuous
100
AcDbLine
 10
-262.231346
 20
94.376123
 30
0.0
 11
-277.231316
 21
94.376123
 31
0.0
  0
LINE
  5
2A4
100
AcDbEntity
  8
0
370
    -3
390
0
  6
Continuous
100
AcDbLine
 10
-258.231346
 20
68.376123
 30
0.0
 11
-262.231346
 21
68.376123
 31
0.0
  0
LINE
  5
2A5
100
AcDbEntity
  8
0
370
    -3
390
0
  6
Continuous
100
AcDbLine
 10
-258.231346
 20
96.376123
 30
0.0
 11
-262.231346
 21
96.376123
 31
0.0
  0
LINE
  5
2A6
100
AcDbEntity
  8
0
370
    -3
390
0
  6
Continuous
100
AcDbLine
 10
-277.231327
 20
70.376126
 30
0.0
 11
-278.231312
 21
72.108548
 31
0.0
  0
LINE
  5
2A7
100
AcDbEntity
  8
0
370
    -3
390
0
  6
Continuous
100
AcDbLine
 10
-277.23132
 20
94.376123
 30
0.0
 11
-278.231304
 21
92.64448
 31
0.0
  0
LINE
  5
2A8
100
AcDbEntity
  8
0
370
    -3
390
0
  6
Continuous
100
AcDbLine
 10
-277.231331
 20
70.376123
 30
0.0
 11
-277.231331
 21
94.376123
 31
0.0
  0
LINE
  5
2A9
100
AcDbEntity
  8
0
370
    -3
390
0
  6
Continuous
100
AcDbLine
 10
-258.231345
 20
82.194083
 30
0.0
 11
-262.231345
 21
83.649961
 31
0.0
  0
LINE
  5
2AA
100
AcDbEntity
  8
0
370
    -3
390
0
  6
Continuous
100
AcDbLine
 10
-262.231346
 20
82.598726
 30
0.0
 11
-258.231345
 21
81.142849
 31
0.0
  0
POINT
  5
2AB
100
AcDbEntity
  8
0
370
    -3
390
0
  6
Continuous
100
AcDbPoint
 10
-293.231346
 20
126.376123
 30
0.0
  0
LINE
  5
2AC
100
AcDbEntity
  8
0
370
    -3
390
0
  6
Continuous
100
AcDbLine
 10
-293.231346
 20
140.376123
 30
0.0
 11
-293.231346
 21
112.376123
 31
0.0
  0
LINE
  5
2AD
100
AcDbEntity
  8
0
370
    -3
390
0
  6
Continuous
100
AcDbLine
 10
-297.231346
 20
112.376123
 30
0.0
 11
-297.231346
 21
140.376123
 31
0.0
  0
LINE
  5
2AE
100
AcDbEntity
  8
0
370
    -3
390
0
  6
Continuous
100
AcDbLine
 10
-313.231308
 20
116.107767
 30
0.0
 11
-313.231323
 21
136.643703
 31
0.0
  0
LINE
  5
2AF
100
AcDbEntity
  8
0
370
    -3
390
0
  6
Continuous
100
AcDbLine
 10
-297.231346
 20
138.376123
 30
0.0
 11
-312.231331
 21
138.376123
 31
0.0
  0
LINE
  5
2B0
100
AcDbEntity
  8
0
370
    -3
390
0
  6
Continuous
100
AcDbLine
 10
-297.231346
 20
114.376123
 30
0.0
 11
-312.231316
 21
114.376123
 31
0.0
  0
LINE
  5
2B1
100
AcDbEntity
  8
0
370
    -3
390
0
  6
Continuous
100
AcDbLine
 10
-293.231346
 20
140.376123
 30
0.0
 11
-297.231346
 21
140.376123
 31
0.0
  0
LINE
  5
2B2
100
AcDbEntity
  8
0
370
    -3
390
0
  6
Continuous
100
AcDbLine
 10
-293.231346
 20
112.376123
 30
0.0
 11
-297.231346
 21
112.376123
 31
0.0
  0
LINE
  5
2B3
100
AcDbEntity
  8
0
370
    -3
390
0
  6
Continuous
100
AcDbLine
 10
-312.231327
 20
138.376121
 30
0.0
 11
-313.231312
 21
136.643699
 31
0.0
  0
LINE
  5
2B4
100
AcDbEntity
  8
0
370
    -3
390
0
  6
Continuous
100
AcDbLine
 10
-312.23132
 20
114.376123
 30
0.0
 11
-313.231304
 21
116.107767
 31
0.0
  0
LINE
  5
2B5
100
AcDbEntity
  8
0
370
    -3
390
0
  6
Continuous
100
AcDbLine
 10
-312.231331
 20
138.376123
 30
0.0
 11
-312.231331
 21
114.376123
 31
0.0
  0
LINE
  5
2B6
100
AcDbEntity
  8
0
370
    -3
390
0
  6
Continuous
100
AcDbLine
 10
-293.231345
 20
126.558164
 30
0.0
 11
-297.231345
 21
125.102286
 31
0.0
  0
LINE
  5
2B7
100
AcDbEntity
  8
0
370
    -3
390
0
  6
Continuous
100
AcDbLine
 10
-297.231346
 20
126.153521
 30
0.0
 11
-293.231345
 21
127.609398
 31
0.0
  0
POINT
  5
2B8
100
AcDbEntity
  8
0
370
    -3
390
0
  6
Continuous
100
AcDbPoint
 10
-258.231346
 20
112.376123
 30
0.0
  0
LINE
  5
2B9
100
AcDbEntity
  8
0
370
    -3
390
0
  6
Continuous
100
AcDbLine
 10
-258.231346
 20
98.376123
 30
0.0
 11
-258.231346
 21
126.376123
 31
0.0
  0
LINE
  5
2BA
100
AcDbEntity
  8
0
370
    -3
390
0
  6
Continuous
100
AcDbLine
 10
-262.231346
 20
126.376123
 30
0.0
 11
-262.231346
 21
98.376123
 31
0.0
  0
LINE
  5
2BB
100
AcDbEntity
  8
0
370
    -3
390
0
  6
Continuous
100
AcDbLine
 10
-278.231308
 20
122.644479
 30
0.0
 11
-278.231323
 21
102.108544
 31
0.0
  0
LINE
  5
2BC
100
AcDbEntity
  8
0
370
    -3
390
0
  6
Continuous
100
AcDbLine
 10
-262.231346
 20
100.376123
 30
0.0
 11
-277.231331
 21
100.376123
 31
0.0
  0
LINE
  5
2BD
100
AcDbEntity
  8
0
370
    -3
390
0
  6
Continuous
100
AcDbLine
 10
-262.231346
 20
124.376123
 30
0.0
 11
-277.231316
 21
124.376123
 31
0.0
  0
LINE
  5
2BE
100
AcDbEntity
  8
0
370
    -3
390
0
  6
Continuous
100
AcDbLine
 10
-258.231346
 20
98.376123
 30
0.0
 11
-262.231346
 21
98.376123
 31
0.0
  0
LINE
  5
2BF
100
AcDbEntity
  8
0
370
    -3
390
0
  6
Continuous
100
AcDbLine
 10
-258.231346
 20
126.376123
 30
0.0
 11
-262.231346
 21
126.376123
 31
0.0
  0
LINE
  5
2C0
100
AcDbEntity
  8
0
370
    -3
390
0
  6
Continuous
100
AcDbLine
 10
-277.231327
 20
100.376126
 30
0.0
 11
-278.231312
 21
102.108548
 31
0.0
  0
LINE
  5
2C1
100
AcDbEntity
  8
0
370
    -3
390
0
  6
Continuous
100
AcDbLine
 10
-277.23132
 20
124.376123
 30
0.0
 11
-278.231304
 21
122.64448
 31
0.0
  0
LINE
  5
2C2
100
AcDbEntity
  8
0
370
    -3
390
0
  6
Continuous
100
AcDbLine
 10
-277.231331
 20
100.376123
 30
0.0
 11
-277.231331
 21
124.376123
 31
0.0
  0
LINE
  5
2C3
100
AcDbEntity
  8
0
370
    -3
390
0
  6
Continuous
100
AcDbLine
 10
-258.231345
 20
112.194083
 30
0.0
 11
-262.231345
 21
113.649961
 31
0.0
  0
LINE
  5
2C4
100
AcDbEntity
  8
0
370
    -3
390
0
  6
Continuous
100
AcDbLine
 10
-262.231346
 20
112.598726
 30
0.0
 11
-258.231345
 21
111.142849
 31
0.0
  0
POINT
  5
2C5
100
AcDbEntity
  8
0
370
    -3
390
0
  6
Continuous
100
AcDbPoint
 10
-258.231346
 20
198.376123
 30
0.0
  0
LINE
  5
2C6
100
AcDbEntity
  8
0
370
    -3
390
0
  6
Continuous
100
AcDbLine
 10
-258.231346
 20
184.376123
 30
0.0
 11
-258.231346
 21
212.376123
 31
0.0
  0
LINE
  5
2C7
100
AcDbEntity
  8
0
370
    -3
390
0
  6
Continuous
100
AcDbLine
 10
-262.231346
 20
212.376123
 30
0.0
 11
-262.231346
 21
184.376123
 31
0.0
  0
LINE
  5
2C8
100
AcDbEntity
  8
0
370
    -3
390
0
  6
Continuous
100
AcDbLine
 10
-278.231308
 20
208.644479
 30
0.0
 11
-278.231323
 21
188.108544
 31
0.0
  0
LINE
  5
2C9
100
AcDbEntity
  8
0
370
    -3
390
0
  6
Continuous
100
AcDbLine
 10
-262.231346
 20
186.376123
 30
0.0
 11
-277.231331
 21
186.376123
 31
0.0
  0
LINE
  5
2CA
100
AcDbEntity
  8
0
370
    -3
390
0
  6
Continuous
100
AcDbLine
 10
-262.231346
 20
210.376123
 30
0.0
 11
-277.231316
 21
210.376123
 31
0.0
  0
LINE
  5
2CB
100
AcDbEntity
  8
0
370
    -3
390
0
  6
Continuous
100
AcDbLine
 10
-258.231346
 20
184.376123
 30
0.0
 11
-262.231346
 21
184.376123
 31
0.0
  0
LINE
  5
2CC
100
AcDbEntity
  8
0
370
    -3
390
0
  6
Continuous
100
AcDbLine
 10
-258.231346
 20
212.376123
 30
0.0
 11
-262.231346
 21
212.376123
 31
0.0
  0
LINE
  5
2CD
100
AcDbEntity
  8
0
370
    -3
390
0
  6
Continuous
100
AcDbLine
 10
-277.231327
 20
186.376126
 30
0.0
 11
-278.231312
 21
188.108548
 31
0.0
  0
LINE
  5
2CE
100
AcDbEntity
  8
0
370
    -3
390
0
  6
Continuous
100
AcDbLine
 10
-277.23132
 20
210.376123
 30
0.0
 11
-278.231304
 21
208.64448
 31
0.0
  0
LINE
  5
2CF
100
AcDbEntity
  8
0
370
    -3
390
0
  6
Continuous
100
AcDbLine
 10
-277.231331
 20
186.376123
 30
0.0
 11
-277.231331
 21
210.376123
 31
0.0
  0
LINE
  5
2D0
100
AcDbEntity
  8
0
370
    -3
390
0
  6
Continuous
100
AcDbLine
 10
-258.231345
 20
198.194083
 30
0.0
 11
-262.231345
 21
199.649961
 31
0.0
  0
LINE
  5
2D1
100
AcDbEntity
  8
0
370
    -3
390
0
  6
Continuous
100
AcDbLine
 10
-262.231346
 20
198.598726
 30
0.0
 11
-258.231345
 21
197.142849
 31
0.0
  0
POINT
  5
2D2
100
AcDbEntity
  8
0
370
    -3
390
0
  6
Continuous
100
AcDbPoint
 10
-293.231346
 20
216.448123
 30
0.0
  0
LINE
  5
2D3
100
AcDbEntity
  8
0
370
    -3
390
0
  6
Continuous
100
AcDbLine
 10
-293.231346
 20
230.448123
 30
0.0
 11
-293.231346
 21
202.448123
 31
0.0
  0
LINE
  5
2D4
100
AcDbEntity
  8
0
370
    -3
390
0
  6
Continuous
100
AcDbLine
 10
-297.231346
 20
202.448123
 30
0.0
 11
-297.231346
 21
230.448123
 31
0.0
  0
LINE
  5
2D5
100
AcDbEntity
  8
0
370
    -3
390
0
  6
Continuous
100
AcDbLine
 10
-313.231308
 20
206.179767
 30
0.0
 11
-313.231323
 21
226.715703
 31
0.0
  0
LINE
  5
2D6
100
AcDbEntity
  8
0
370
    -3
390
0
  6
Continuous
100
AcDbLine
 10
-297.231346
 20
228.448123
 30
0.0
 11
-312.231331
 21
228.448123
 31
0.0
  0
LINE
  5
2D7
100
AcDbEntity
  8
0
370
    -3
390
0
  6
Continuous
100
AcDbLine
 10
-297.231346
 20
204.448123
 30
0.0
 11
-312.231316
 21
204.448123
 31
0.0
  0
LINE
  5
2D8
100
AcDbEntity
  8
0
370
    -3
390
0
  6
Continuous
100
AcDbLine
 10
-293.231346
 20
230.448123
 30
0.0
 11
-297.231346
 21
230.448123
 31
0.0
  0
LINE
  5
2D9
100
AcDbEntity
  8
0
370
    -3
390
0
  6
Continuous
100
AcDbLine
 10
-293.231346
 20
202.448123
 30
0.0
 11
-297.231346
 21
202.448123
 31
0.0
  0
LINE
  5
2DA
100
AcDbEntity
  8
0
370
    -3
390
0
  6
Continuous
100
AcDbLine
 10
-312.231327
 20
228.448121
 30
0.0
 11
-313.231312
 21
226.715699
 31
0.0
  0
LINE
  5
2DB
100
AcDbEntity
  8
0
370
    -3
390
0
  6
Continuous
100
AcDbLine
 10
-312.23132
 20
204.448123
 30
0.0
 11
-313.231304
 21
206.179767
 31
0.0
  0
LINE
  5
2DC
100
AcDbEntity
  8
0
370
    -3
390
0
  6
Continuous
100
AcDbLine
 10
-312.231331
 20
228.448123
 30
0.0
 11
-312.231331
 21
204.448123
 31
0.0
  0
LINE
  5
2DD
100
AcDbEntity
  8
0
370
    -3
390
0
  6
Continuous
100
AcDbLine
 10
-293.231345
 20
216.630164
 30
0.0
 11
-297.231345
 21
215.174286
 31
0.0
  0
LINE
  5
2DE
100
AcDbEntity
  8
0
370
    -3
390
0
  6
Continuous
100
AcDbLine
 10
-297.231346
 20
216.225521
 30
0.0
 11
-293.231345
 21
217.681398
 31
0.0
  0
POINT
  5
2DF
100
AcDbEntity
  8
0
370
    -3
390
0
  6
Continuous
100
AcDbPoint
 10
-258.231346
 20
366.376123
 30
0.0
  0
LINE
  5
2E0
100
AcDbEntity
  8
0
370
    -3
390
0
  6
Continuous
100
AcDbLine
 10
-258.231346
 20
380.376123
 30
0.0
 11
-258.231346
 21
352.376123
 31
0.0
  0
LINE
  5
2E1
100
AcDbEntity
  8
0
370
    -3
390
0
  6
Continuous
100
AcDbLine
 10
-262.231346
 20
352.376123
 30
0.0
 11
-262.231346
 21
380.376123
 31
0.0
  0
LINE
  5
2E2
100
AcDbEntity
  8
0
370
    -3
390
0
  6
Continuous
100
AcDbLine
 10
-278.231308
 20
356.107767
 30
0.0
 11
-278.231323
 21
376.643703
 31
0.0
  0
LINE
  5
2E3
100
AcDbEntity
  8
0
370
    -3
390
0
  6
Continuous
100
AcDbLine
 10
-262.231346
 20
378.376123
 30
0.0
 11
-277.231331
 21
378.376123
 31
0.0
  0
LINE
  5
2E4
100
AcDbEntity
  8
0
370
    -3
390
0
  6
Continuous
100
AcDbLine
 10
-262.231346
 20
354.376123
 30
0.0
 11
-277.231316
 21
354.376123
 31
0.0
  0
LINE
  5
2E5
100
AcDbEntity
  8
0
370
    -3
390
0
  6
Continuous
100
AcDbLine
 10
-258.231346
 20
380.376123
 30
0.0
 11
-262.231346
 21
380.376123
 31
0.0
  0
LINE
  5
2E6
100
AcDbEntity
  8
0
370
    -3
390
0
  6
Continuous
100
AcDbLine
 10
-258.231346
 20
352.376123
 30
0.0
 11
-262.231346
 21
352.376123
 31
0.0
  0
LINE
  5
2E7
100
AcDbEntity
  8
0
370
    -3
390
0
  6
Continuous
100
AcDbLine
 10
-277.231327
 20
378.376121
 30
0.0
 11
-278.231312
 21
376.643699
 31
0.0
  0
LINE
  5
2E8
100
AcDbEntity
  8
0
370
    -3
390
0
  6
Continuous
100
AcDbLine
 10
-277.23132
 20
354.376123
 30
0.0
 11
-278.231304
 21
356.107767
 31
0.0
  0
LINE
  5
2E9
100
AcDbEntity
  8
0
370
    -3
390
0
  6
Continuous
100
AcDbLine
 10
-277.231331
 20
378.376123
 30
0.0
 11
-277.231331
 21
354.376123
 31
0.0
  0
LINE
  5
2EA
100
AcDbEntity
  8
0
370
    -3
390
0
  6
Continuous
100
AcDbLine
 10
-258.231345
 20
366.558164
 30
0.0
 11
-262.231345
 21
365.102286
 31
0.0
  0
LINE
  5
2EB
100
AcDbEntity
  8
0
370
    -3
390
0
  6
Continuous
100
AcDbLine
 10
-262.231346
 20
366.153521
 30
0.0
 11
-258.231345
 21
367.609398
 31
0.0
  0
POINT
  5
2EC
100
AcDbEntity
  8
0
370
    -3
390
0
  6
Continuous
100
AcDbPoint
 10
-293.231346
 20
348.304123
 30
0.0
  0
LINE
  5
2ED
100
AcDbEntity
  8
0
370
    -3
390
0
  6
Continuous
100
AcDbLine
 10
-293.231346
 20
334.304123
 30
0.0
 11
-293.231346
 21
362.304123
 31
0.0
  0
LINE
  5
2EE
100
AcDbEntity
  8
0
370
    -3
390
0
  6
Continuous
100
AcDbLine
 10
-297.231346
 20
362.304123
 30
0.0
 11
-297.231346
 21
334.304123
 31
0.0
  0
LINE
  5
2EF
100
AcDbEntity
  8
0
370
    -3
390
0
  6
Continuous
100
AcDbLine
 10
-313.231308
 20
358.572479
 30
0.0
 11
-313.231323
 21
338.036544
 31
0.0
  0
LINE
  5
2F0
100
AcDbEntity
  8
0
370
    -3
390
0
  6
Continuous
100
AcDbLine
 10
-297.231346
 20
336.304123
 30
0.0
 11
-312.231331
 21
336.304123
 31
0.0
  0
LINE
  5
2F1
100
AcDbEntity
  8
0
370
    -3
390
0
  6
Continuous
100
AcDbLine
 10
-297.231346
 20
360.304123
 30
0.0
 11
-312.231316
 21
360.304123
 31
0.0
  0
LINE
  5
2F2
100
AcDbEntity
  8
0
370
    -3
390
0
  6
Continuous
100
AcDbLine
 10
-293.231346
 20
334.304123
 30
0.0
 11
-297.231346
 21
334.304123
 31
0.0
  0
LINE
  5
2F3
100
AcDbEntity
  8
0
370
    -3
390
0
  6
Continuous
100
AcDbLine
 10
-293.231346
 20
362.304123
 30
0.0
 11
-297.231346
 21
362.304123
 31
0.0
  0
LINE
  5
2F4
100
AcDbEntity
  8
0
370
    -3
390
0
  6
Continuous
100
AcDbLine
 10
-312.231327
 20
336.304126
 30
0.0
 11
-313.231312
 21
338.036548
 31
0.0
  0
LINE
  5
2F5
100
AcDbEntity
  8
0
370
    -3
390
0
  6
Continuous
100
AcDbLine
 10
-312.23132
 20
360.304123
 30
0.0
 11
-313.231304
 21
358.57248
 31
0.0
  0
LINE
  5
2F6
100
AcDbEntity
  8
0
370
    -3
390
0
  6
Continuous
100
AcDbLine
 10
-312.231331
 20
336.304123
 30
0.0
 11
-312.231331
 21
360.304123
 31
0.0
  0
LINE
  5
2F7
100
AcDbEntity
  8
0
370
    -3
390
0
  6
Continuous
100
AcDbLine
 10
-293.231345
 20
348.122083
 30
0.0
 11
-297.231345
 21
349.577961
 31
0.0
  0
LINE
  5
2F8
100
AcDbEntity
  8
0
370
    -3
390
0
  6
Continuous
100
AcDbLine
 10
-297.231346
 20
348.526726
 30
0.0
 11
-293.231345
 21
347.070849
 31
0.0
  0
POINT
  5
2F9
100
AcDbEntity
  8
0
370
    -3
390
0
  6
Continuous
100
AcDbPoint
 10
-293.231346
 20
438.376123
 30
0.0
  0
LINE
  5
2FA
100
AcDbEntity
  8
0
370
    -3
390
0
  6
Continuous
100
AcDbLine
 10
-293.231346
 20
424.376123
 30
0.0
 11
-293.231346
 21
452.376123
 31
0.0
  0
LINE
  5
2FB
100
AcDbEntity
  8
0
370
    -3
390
0
  6
Continuous
100
AcDbLine
 10
-297.231346
 20
452.376123
 30
0.0
 11
-297.231346
 21
424.376123
 31
0.0
  0
LINE
  5
2FC
100
AcDbEntity
  8
0
370
    -3
390
0
  6
Continuous
100
AcDbLine
 10
-313.231308
 20
448.644479
 30
0.0
 11
-313.231323
 21
428.108544
 31
0.0
  0
LINE
  5
2FD
100
AcDbEntity
  8
0
370
    -3
390
0
  6
Continuous
100
AcDbLine
 10
-297.231346
 20
426.376123
 30
0.0
 11
-312.231331
 21
426.376123
 31
0.0
  0
LINE
  5
2FE
100
AcDbEntity
  8
0
370
    -3
390
0
  6
Continuous
100
AcDbLine
 10
-297.231346
 20
450.376123
 30
0.0
 11
-312.231316
 21
450.376123
 31
0.0
  0
LINE
  5
2FF
100
AcDbEntity
  8
0
370
    -3
390
0
  6
Continuous
100
AcDbLine
 10
-293.231346
 20
424.376123
 30
0.0
 11
-297.231346
 21
424.376123
 31
0.0
  0
LINE
  5
300
100
AcDbEntity
  8
0
370
    -3
390
0
  6
Continuous
100
AcDbLine
 10
-293.231346
 20
452.376123
 30
0.0
 11
-297.231346
 21
452.376123
 31
0.0
  0
LINE
  5
301
100
AcDbEntity
  8
0
370
    -3
390
0
  6
Continuous
100
AcDbLine
 10
-312.231327
 20
426.376126
 30
0.0
 11
-313.231312
 21
428.108548
 31
0.0
  0
LINE
  5
302
100
AcDbEntity
  8
0
370
    -3
390
0
  6
Continuous
100
AcDbLine
 10
-312.23132
 20
450.376123
 30
0.0
 11
-313.231304
 21
448.64448
 31
0.0
  0
LINE
  5
303
100
AcDbEntity
  8
0
370
    -3
390
0
  6
Continuous
100
AcDbLine
 10
-312.231331
 20
426.376123
 30
0.0
 11
-312.231331
 21
450.376123
 31
0.0
  0
LINE
  5
304
100
AcDbEntity
  8
0
370
    -3
390
0
  6
Continuous
100
AcDbLine
 10
-293.231345
 20
438.194083
 30
0.0
 11
-297.231345
 21
439.649961
 31
0.0
  0
LINE
  5
305
100
AcDbEntity
  8
0
370
    -3
390
0
  6
Continuous
100
AcDbLine
 10
-297.231346
 20
438.598726
 30
0.0
 11
-293.231345
 21
437.142849
 31
0.0
  0
POINT
  5
306
100
AcDbEntity
  8
0
370
    -3
390
0
  6
Continuous
100
AcDbPoint
 10
-258.231346
 20
452.376123
 30
0.0
  0
LINE
  5
307
100
AcDbEntity
  8
0
370
    -3
390
0
  6
Continuous
100
AcDbLine
 10
-258.231346
 20
466.376123
 30
0.0
 11
-258.231346
 21
438.376123
 31
0.0
  0
LINE
  5
308
100
AcDbEntity
  8
0
370
    -3
390
0
  6
Continuous
100
AcDbLine
 10
-262.231346
 20
438.376123
 30
0.0
 11
-262.231346
 21
466.376123
 31
0.0
  0
LINE
  5
309
100
AcDbEntity
  8
0
370
    -3
390
0
  6
Continuous
100
AcDbLine
 10
-278.231308
 20
442.107767
 30
0.0
 11
-278.231323
 21
462.643703
 31
0.0
  0
LINE
  5
30A
100
AcDbEntity
  8
0
370
    -3
390
0
  6
Continuous
100
AcDbLine
 10
-262.231346
 20
464.376123
 30
0.0
 11
-277.231331
 21
464.376123
 31
0.0
  0
LINE
  5
30B
100
AcDbEntity
  8
0
370
    -3
390
0
  6
Continuous
100
AcDbLine
 10
-262.231346
 20
440.376123
 30
0.0
 11
-277.231316
 21
440.376123
 31
0.0
  0
LINE
  5
30C
100
AcDbEntity
  8
0
370
    -3
390
0
  6
Continuous
100
AcDbLine
 10
-258.231346
 20
466.376123
 30
0.0
 11
-262.231346
 21
466.376123
 31
0.0
  0
LINE
  5
30D
100
AcDbEntity
  8
0
370
    -3
390
0
  6
Continuous
100
AcDbLine
 10
-258.231346
 20
438.376123
 30
0.0
 11
-262.231346
 21
438.376123
 31
0.0
  0
LINE
  5
30E
100
AcDbEntity
  8
0
370
    -3
390
0
  6
Continuous
100
AcDbLine
 10
-277.231327
 20
464.376121
 30
0.0
 11
-278.231312
 21
462.643699
 31
0.0
  0
LINE
  5
30F
100
AcDbEntity
  8
0
370
    -3
390
0
  6
Continuous
100
AcDbLine
 10
-277.23132
 20
440.376123
 30
0.0
 11
-278.231304
 21
442.107767
 31
0.0
  0
LINE
  5
310
100
AcDbEntity
  8
0
370
    -3
390
0
  6
Continuous
100
AcDbLine
 10
-277.231331
 20
464.376123
 30
0.0
 11
-277.231331
 21
440.376123
 31
0.0
  0
LINE
  5
311
100
AcDbEntity
  8
0
370
    -3
390
0
  6
Continuous
100
AcDbLine
 10
-258.231345
 20
452.558164
 30
0.0
 11
-262.231345
 21
451.102286
 31
0.0
  0
LINE
  5
312
100
AcDbEntity
  8
0
370
    -3
390
0
  6
Continuous
100
AcDbLine
 10
-262.231346
 20
452.153521
 30
0.0
 11
-258.231345
 21
453.609398
 31
0.0
  0
POINT
  5
313
100
AcDbEntity
  8
0
370
    -3
390
0
  6
Continuous
100
AcDbPoint
 10
-258.231346
 20
482.376123
 30
0.0
  0
LINE
  5
314
100
AcDbEntity
  8
0
370
    -3
390
0
  6
Continuous
100
AcDbLine
 10
-258.231346
 20
496.376123
 30
0.0
 11
-258.231346
 21
468.376123
 31
0.0
  0
LINE
  5
315
100
AcDbEntity
  8
0
370
    -3
390
0
  6
Continuous
100
AcDbLine
 10
-262.231346
 20
468.376123
 30
0.0
 11
-262.231346
 21
496.376123
 31
0.0
  0
LINE
  5
316
100
AcDbEntity
  8
0
370
    -3
390
0
  6
Continuous
100
AcDbLine
 10
-278.231308
 20
472.107767
 30
0.0
 11
-278.231323
 21
492.643703
 31
0.0
  0
LINE
  5
317
100
AcDbEntity
  8
0
370
    -3
390
0
  6
Continuous
100
AcDbLine
 10
-262.231346
 20
470.376123
 30
0.0
 11
-277.231316
 21
470.376123
 31
0.0
  0
LINE
  5
318
100
AcDbEntity
  8
0
370
    -3
390
0
  6
Continuous
100
AcDbLine
 10
-258.231346
 20
468.376123
 30
0.0
 11
-262.231346
 21
468.376123
 31
0.0
  0
LINE
  5
319
100
AcDbEntity
  8
0
370
    -3
390
0
  6
Continuous
100
AcDbLine
 10
-277.23132
 20
470.376123
 30
0.0
 11
-278.231304
 21
472.107767
 31
0.0
  0
LINE
  5
31A
100
AcDbEntity
  8
0
370
    -3
390
0
  6
Continuous
100
AcDbLine
 10
-277.231331
 20
494.376123
 30
0.0
 11
-277.231331
 21
470.376123
 31
0.0
  0
LINE
  5
31B
100
AcDbEntity
  8
0
370
    -3
390
0
  6
Continuous
100
AcDbLine
 10
-258.231345
 20
482.558164
 30
0.0
 11
-262.231345
 21
481.102286
 31
0.0
  0
LINE
  5
31C
100
AcDbEntity
  8
0
370
    -3
390
0
  6
Continuous
100
AcDbLine
 10
-262.231346
 20
482.153521
 30
0.0
 11
-258.231345
 21
483.609398
 31
0.0
  0
LINE
  5
31D
100
AcDbEntity
  8
0
370
    -3
390
0
  6
CENTER
100
AcDbLine
 10
-268.544259
 20
126.376123
 30
0.0
 11
-321.873573
 21
126.376123
 31
0.0
  0
LINE
  5
31E
100
AcDbEntity
  8
0
370
    -3
390
0
  6
CENTER
100
AcDbLine
 10
-269.044259
 20
216.448123
 30
0.0
 11
-322.373573
 21
216.448123
 31
0.0
  0
LINE
  5
31F
100
AcDbEntity
  8
0
370
    -3
390
0
  6
Continuous
100
AcDbLine
 10
-293.231346
 20
105.376123
 30
0.0
 11
-293.231346
 21
247.376124
 31
0.0
  0
LINE
  5
320
100
AcDbEntity
  8
0
370
    -3
390
0
  6
Continuous
100
AcDbLine
 10
-274.231346
 20
229.699276
 30
0.0
 11
-293.231346
 21
229.699276
 31
0.0
  0
LINE
  5
321
100
AcDbEntity
  8
0
370
    -3
390
0
  6
Continuous
100
AcDbLine
 10
-274.231346
 20
164.457495
 30
0.0
 11
-291.231346
 21
164.457495
 31
0.0
  0
ARC
  5
322
100
AcDbEntity
  8
0
370
    -3
390
0
  6
Continuous
100
AcDbCircle
 10
-291.231346
 20
166.457495
 30
0.0
 40
2.0
100
AcDbArc
 50
180.0
 51
270.0
  0
ARC
  5
323
100
AcDbEntity
  8
0
370
    -3
390
0
  6
Continuous
100
AcDbCircle
 10
-290.231346
 20
105.376123
 30
0.0
 40
3.0
100
AcDbArc
 50
180.0
 51
270.0
  0
LINE
  5
324
100
AcDbEntity
  8
0
370
    -3
390
0
  6
Continuous
100
AcDbLine
 10
-278.231323
 20
102.376123
 30
0.0
 11
-290.231346
 21
102.376123
 31
0.0
  0
LINE
  5
325
100
AcDbEntity
  8
0
370
    -3
390
0
  6
CENTER
100
AcDbLine
 10
-269.044259
 20
438.376123
 30
0.0
 11
-322.373573
 21
438.376123
 31
0.0
  0
LINE
  5
326
100
AcDbEntity
  8
0
370
    -3
390
0
  6
CENTER
100
AcDbLine
 10
-269.044259
 20
348.304123
 30
0.0
 11
-322.373573
 21
348.304123
 31
0.0
  0
LINE
  5
327
100
AcDbEntity
  8
0
370
    -3
390
0
  6
Continuous
100
AcDbLine
 10
-293.231346
 20
459.376123
 30
0.0
 11
-293.231346
 21
317.376124
 31
0.0
  0
LINE
  5
328
100
AcDbEntity
  8
0
370
    -3
390
0
  6
Continuous
100
AcDbLine
 10
-274.231346
 20
335.052971
 30
0.0
 11
-293.231346
 21
335.052971
 31
0.0
  0
LINE
  5
329
100
AcDbEntity
  8
0
370
    -3
390
0
  6
Continuous
100
AcDbLine
 10
-274.231346
 20
400.294752
 30
0.0
 11
-291.231346
 21
400.294752
 31
0.0
  0
ARC
  5
32A
100
AcDbEntity
  8
0
370
    -3
390
0
  6
Continuous
100
AcDbCircle
 10
-291.231346
 20
398.294752
 30
0.0
 40
2.0
100
AcDbArc
 50
90.0
 51
180.0
  0
ARC
  5
32B
100
AcDbEntity
  8
0
370
    -3
390
0
  6
Continuous
100
AcDbCircle
 10
-290.231346
 20
459.376123
 30
0.0
 40
3.0
100
AcDbArc
 50
90.0
 51
180.0
  0
LINE
  5
32C
100
AcDbEntity
  8
0
370
    -3
390
0
  6
Continuous
100
AcDbLine
 10
-278.231323
 20
462.376123
 30
0.0
 11
-290.231346
 21
462.376123
 31
0.0
  0
ARC
  5
32D
100
AcDbEntity
  8
0
370
    -3
390
0
  6
Continuous
100
AcDbCircle
 10
-193.731346
 20
282.376123
 30
0.0
 40
17.5
100
AcDbArc
 50
270.0
 51
0.0
  0
ARC
  5
32E
100
AcDbEntity
  8
0
370
    -3
390
0
  6
Continuous
100
AcDbCircle
 10
-215.731346
 20
262.876123
 30
0.0
 40
2.0
100
AcDbArc
 50
90.0
 51
180.0
  0
LINE
  5
32F
100
AcDbEntity
  8
0
370
    -3
390
0
  6
Continuous
100
AcDbLine
 10
-193.731346
 20
264.876123
 30
0.0
 11
-215.731346
 21
264.876123
 31
0.0
  0
ARC
  5
330
100
AcDbEntity
  8
0
370
    -3
390
0
  6
Continuous
100
AcDbCircle
 10
-215.731346
 20
301.876123
 30
0.0
 40
2.0
100
AcDbArc
 50
180.0
 51
270.0
  0
LINE
  5
331
100
AcDbEntity
  8
0
370
    -3
390
0
  6
Continuous
100
AcDbLine
 10
-193.731346
 20
299.876123
 30
0.0
 11
-215.731346
 21
299.876123
 31
0.0
  0
CIRCLE
  5
332
100
AcDbEntity
  8
0
370
    -3
390
0
  6
Continuous
100
AcDbCircle
 10
-193.731346
 20
282.376123
 30
0.0
 40
16.0
  0
ARC
  5
333
100
AcDbEntity
  8
0
370
    -3
390
0
  6
Continuous
100
AcDbCircle
 10
-193.731346
 20
282.376123
 30
0.0
 40
17.5
100
AcDbArc
 50
0.0
 51
90.0
  0
LINE
  5
334
100
AcDbEntity
  8
0
370
    -3
390
0
  6
CENTER
100
AcDbLine
 10
-193.731346
 20
261.422474
 30
0.0
 11
-193.731346
 21
304.01589
 31
0.0
  0
LINE
  5
335
100
AcDbEntity
  8
0
370
    -3
390
0
  6
Continuous
100
AcDbLine
 10
-350.731346
 20
127.376123
 30
0.0
 11
-424.089211
 21
127.376123
 31
0.0
  0
LINE
  5
336
100
AcDbEntity
  8
0
370
    -3
390
0
  6
Continuous
100
AcDbLine
 10
-433.231346
 20
112.906123
 30
0.0
 11
-433.231346
 21
118.233988
 31
0.0
  0
LINE
  5
337
100
AcDbEntity
  8
0
370
    -3
390
0
  6
Continuous
100
AcDbLine
 10
-350.731346
 20
140.622975
 30
0.0
 11
-293.231346
 21
141.491992
 31
0.0
  0
LINE
  5
338
100
AcDbEntity
  8
0
370
    -3
390
0
  6
Continuous
100
AcDbLine
 10
-233.731346
 20
65.376123
 30
0.0
 11
-233.731346
 21
282.376123
 31
0.0
  0
LINE
  5
339
100
AcDbEntity
  8
0
370
    -3
390
0
  6
Continuous
100
AcDbLine
 10
-256.231346
 20
65.376123
 30
0.0
 11
-256.231346
 21
208.958861
 31
0.0
  0
LINE
  5
33A
100
AcDbEntity
  8
0
370
    -3
390
0
  6
Continuous
100
AcDbLine
 10
-258.231346
 20
183.376123
 30
0.0
 11
-258.231346
 21
213.376123
 31
0.0
  0
LINE
  5
33B
100
AcDbEntity
  8
0
370
    -3
390
0
  6
Continuous
100
AcDbLine
 10
-256.231346
 20
208.958861
 30
0.0
 11
-252.231346
 21
208.958861
 31
0.0
  0
LINE
  5
33C
100
AcDbEntity
  8
0
370
    -3
390
0
  6
Continuous
100
AcDbLine
 10
-256.231346
 20
182.376974
 30
0.0
 11
-252.231346
 21
182.376974
 31
0.0
  0
LINE
  5
33D
100
AcDbEntity
  8
0
370
    -3
390
0
  6
Continuous
100
AcDbLine
 10
-256.231346
 20
208.958861
 30
0.0
 11
-256.231346
 21
282.376123
 31
0.0
  0
LINE
  5
33E
100
AcDbEntity
  8
0
370
    -3
390
0
  6
Continuous
100
AcDbLine
 10
-260.231346
 20
267.876123
 30
0.0
 11
-260.231346
 21
296.876123
 31
0.0
  0
LINE
  5
33F
100
AcDbEntity
  8
0
370
    -3
390
0
  6
Continuous
100
AcDbLine
 10
-257.231346
 20
264.876123
 30
0.0
 11
-256.231346
 21
264.876123
 31
0.0
  0
ARC
  5
340
100
AcDbEntity
  8
0
370
    -3
390
0
  6
Continuous
100
AcDbCircle
 10
-257.231346
 20
267.876123
 30
0.0
 40
3.0
100
AcDbArc
 50
180.0
 51
270.0
  0
ARC
  5
341
100
AcDbEntity
  8
0
370
    -3
390
0
  6
Continuous
100
AcDbCircle
 10
-256.231346
 20
183.376123
 30
0.0
 40
2.0
100
AcDbArc
 50
180.0
 51
270.0
  0
ARC
  5
342
100
AcDbEntity
  8
0
370
    -3
390
0
  6
Continuous
100
AcDbCircle
 10
-256.231346
 20
213.376123
 30
0.0
 40
2.0
100
AcDbArc
 50
90.0
 51
180.0
  0
ARC
  5
343
100
AcDbEntity
  8
0
370
    -3
390
0
  6
Continuous
100
AcDbCircle
 10
-252.231346
 20
210.958861
 30
0.0
 40
2.0
100
AcDbArc
 50
270.0
 51
0.0
  0
ARC
  5
344
100
AcDbEntity
  8
0
370
    -3
390
0
  6
Continuous
100
AcDbCircle
 10
-252.231346
 20
180.376974
 30
0.0
 40
2.0
100
AcDbArc
 50
0.0
 51
90.0
  0
ARC
  5
345
100
AcDbEntity
  8
0
370
    -3
390
0
  6
Continuous
100
AcDbCircle
 10
-256.231346
 20
129.376123
 30
0.0
 40
2.0
100
AcDbArc
 50
90.0
 51
180.0
  0
LINE
  5
346
100
AcDbEntity
  8
0
370
    -3
390
0
  6
Continuous
100
AcDbLine
 10
-256.231346
 20
65.376123
 30
0.0
 11
-233.731346
 21
65.376123
 31
0.0
  0
ARC
  5
347
100
AcDbEntity
  8
0
370
    -3
390
0
  6
Continuous
100
AcDbCircle
 10
-256.231346
 20
67.376123
 30
0.0
 40
2.0
100
AcDbArc
 50
180.0
 51
270.0
  0
ARC
  5
348
100
AcDbEntity
  8
0
370
    -3
390
0
  6
Continuous
100
AcDbCircle
 10
-258.231346
 20
157.50158
 30
0.0
 40
2.0
100
AcDbArc
 50
0.0
 51
19.43891
  0
LINE
  5
349
100
AcDbEntity
  8
0
370
    -3
390
0
  6
Continuous
100
AcDbLine
 10
-274.231346
 20
164.457495
 30
0.0
 11
-258.565324
 21
164.457495
 31
0.0
  0
LINE
  5
34A
100
AcDbEntity
  8
0
370
    -3
390
0
  6
Continuous
100
AcDbLine
 10
-274.231346
 20
150.529912
 30
0.0
 11
-256.231346
 21
150.529912
 31
0.0
  0
LINE
  5
34B
100
AcDbEntity
  8
0
370
    -3
390
0
  6
Continuous
100
AcDbLine
 10
-250.231346
 20
116.376123
 30
0.0
 11
-250.231346
 21
282.376123
 31
0.0
  0
ARC
  5
34C
100
AcDbEntity
  8
0
370
    -3
390
0
  6
Continuous
100
AcDbCircle
 10
-253.231346
 20
116.376123
 30
0.0
 40
3.0
100
AcDbArc
 50
270.0
 51
0.0
  0
LINE
  5
34D
100
AcDbEntity
  8
0
370
    -3
390
0
  6
Continuous
100
AcDbLine
 10
-253.231346
 20
113.376123
 30
0.0
 11
-256.231346
 21
113.376123
 31
0.0
  0
LINE
  5
34E
100
AcDbEntity
  8
0
370
    -3
390
0
  6
Continuous
100
AcDbLine
 10
-266.300826
 20
186.376123
 30
0.0
 11
-256.345352
 21
158.167183
 31
0.0
  0
LINE
  5
34F
100
AcDbEntity
  8
0
370
    -3
390
0
  6
Continuous
100
AcDbLine
 10
-274.231346
 20
210.376123
 30
0.0
 11
-274.231346
 21
282.376123
 31
0.0
  0
LINE
  5
350
100
AcDbEntity
  8
0
370
    -3
390
0
  6
CENTER
100
AcDbLine
 10
-243.508593
 20
198.376123
 30
0.0
 11
-284.496944
 21
198.376123
 31
0.0
  0
LINE
  5
351
100
AcDbEntity
  8
0
370
    -3
390
0
  6
CENTER
100
AcDbLine
 10
-243.754032
 20
112.376123
 30
0.0
 11
-285.233262
 21
112.376123
 31
0.0
  0
LINE
  5
352
100
AcDbEntity
  8
0
370
    -3
390
0
  6
CENTER
100
AcDbLine
 10
-243.99035
 20
82.376123
 30
0.0
 11
-284.733262
 21
82.376123
 31
0.0
  0
LINE
  5
353
100
AcDbEntity
  8
0
370
    -3
390
0
  6
Continuous
100
AcDbLine
 10
-274.231346
 20
124.376123
 30
0.0
 11
-274.231346
 21
186.376123
 31
0.0
  0
LINE
  5
354
100
AcDbEntity
  8
0
370
    -3
390
0
  6
Continuous
100
AcDbLine
 10
-258.231346
 20
129.376123
 30
0.0
 11
-258.231346
 21
67.376123
 31
0.0
  0
ARC
  5
355
100
AcDbEntity
  8
0
370
    -3
390
0
  6
Continuous
100
AcDbCircle
 10
-256.231346
 20
95.376123
 30
0.0
 40
2.0
100
AcDbArc
 50
180.0
 51
270.0
  0
LINE
  5
356
100
AcDbEntity
  8
0
370
    -3
390
0
  6
Continuous
100
AcDbLine
 10
-233.731346
 20
499.376123
 30
0.0
 11
-233.731346
 21
282.376123
 31
0.0
  0
LINE
  5
357
100
AcDbEntity
  8
0
370
    -3
390
0
  6
Continuous
100
AcDbLine
 10
-256.231346
 20
499.376123
 30
0.0
 11
-256.231346
 21
355.793386
 31
0.0
  0
LINE
  5
358
100
AcDbEntity
  8
0
370
    -3
390
0
  6
Continuous
100
AcDbLine
 10
-258.231346
 20
381.376123
 30
0.0
 11
-258.231346
 21
351.376123
 31
0.0
  0
LINE
  5
359
100
AcDbEntity
  8
0
370
    -3
390
0
  6
Continuous
100
AcDbLine
 10
-256.231346
 20
355.793386
 30
0.0
 11
-252.231346
 21
355.793386
 31
0.0
  0
LINE
  5
35A
100
AcDbEntity
  8
0
370
    -3
390
0
  6
Continuous
100
AcDbLine
 10
-256.231346
 20
382.375273
 30
0.0
 11
-252.231346
 21
382.375273
 31
0.0
  0
LINE
  5
35B
100
AcDbEntity
  8
0
370
    -3
390
0
  6
Continuous
100
AcDbLine
 10
-256.231346
 20
355.793386
 30
0.0
 11
-256.231346
 21
282.376123
 31
0.0
  0
LINE
  5
35C
100
AcDbEntity
  8
0
370
    -3
390
0
  6
Continuous
100
AcDbLine
 10
-257.231346
 20
299.876123
 30
0.0
 11
-256.231346
 21
299.876123
 31
0.0
  0
ARC
  5
35D
100
AcDbEntity
  8
0
370
    -3
390
0
  6
Continuous
100
AcDbCircle
 10
-257.231346
 20
296.876123
 30
0.0
 40
3.0
100
AcDbArc
 50
90.0
 51
180.0
  0
ARC
  5
35E
100
AcDbEntity
  8
0
370
    -3
390
0
  6
Continuous
100
AcDbCircle
 10
-256.231346
 20
381.376123
 30
0.0
 40
2.0
100
AcDbArc
 50
90.0
 51
180.0
  0
ARC
  5
35F
100
AcDbEntity
  8
0
370
    -3
390
0
  6
Continuous
100
AcDbCircle
 10
-256.231346
 20
351.376123
 30
0.0
 40
2.0
100
AcDbArc
 50
180.0
 51
270.0
  0
ARC
  5
360
100
AcDbEntity
  8
0
370
    -3
390
0
  6
Continuous
100
AcDbCircle
 10
-252.231346
 20
353.793386
 30
0.0
 40
2.0
100
AcDbArc
 50
0.0
 51
90.0
  0
ARC
  5
361
100
AcDbEntity
  8
0
370
    -3
390
0
  6
Continuous
100
AcDbCircle
 10
-252.231346
 20
384.375273
 30
0.0
 40
2.0
100
AcDbArc
 50
270.0
 51
0.0
  0
ARC
  5
362
100
AcDbEntity
  8
0
370
    -3
390
0
  6
Continuous
100
AcDbCircle
 10
-256.231346
 20
435.376123
 30
0.0
 40
2.0
100
AcDbArc
 50
180.0
 51
270.0
  0
ARC
  5
363
100
AcDbEntity
  8
0
370
    -3
390
0
  6
Continuous
100
AcDbCircle
 10
-258.231346
 20
407.250667
 30
0.0
 40
2.0
100
AcDbArc
 50
340.56109
 51
0.0
  0
LINE
  5
364
100
AcDbEntity
  8
0
370
    -3
390
0
  6
Continuous
100
AcDbLine
 10
-274.231346
 20
400.294752
 30
0.0
 11
-258.565324
 21
400.294752
 31
0.0
  0
LINE
  5
365
100
AcDbEntity
  8
0
370
    -3
390
0
  6
Continuous
100
AcDbLine
 10
-274.231346
 20
414.222335
 30
0.0
 11
-256.231346
 21
414.222335
 31
0.0
  0
LINE
  5
366
100
AcDbEntity
  8
0
370
    -3
390
0
  6
Continuous
100
AcDbLine
 10
-250.231346
 20
448.376123
 30
0.0
 11
-250.231346
 21
282.376123
 31
0.0
  0
ARC
  5
367
100
AcDbEntity
  8
0
370
    -3
390
0
  6
Continuous
100
AcDbCircle
 10
-253.231346
 20
448.376123
 30
0.0
 40
3.0
100
AcDbArc
 50
0.0
 51
90.0
  0
LINE
  5
368
100
AcDbEntity
  8
0
370
    -3
390
0
  6
Continuous
100
AcDbLine
 10
-253.231346
 20
451.376123
 30
0.0
 11
-256.231346
 21
451.376123
 31
0.0
  0
LINE
  5
369
100
AcDbEntity
  8
0
370
    -3
390
0
  6
Continuous
100
AcDbLine
 10
-266.300826
 20
378.376123
 30
0.0
 11
-256.345352
 21
406.585063
 31
0.0
  0
LINE
  5
36A
100
AcDbEntity
  8
0
370
    -3
390
0
  6
Continuous
100
AcDbLine
 10
-274.231346
 20
354.376123
 30
0.0
 11
-274.231346
 21
282.376123
 31
0.0
  0
LINE
  5
36B
100
AcDbEntity
  8
0
370
    -3
390
0
  6
CENTER
100
AcDbLine
 10
-243.508593
 20
366.376123
 30
0.0
 11
-284.496944
 21
366.376123
 31
0.0
  0
LINE
  5
36C
100
AcDbEntity
  8
0
370
    -3
390
0
  6
CENTER
100
AcDbLine
 10
-243.754032
 20
452.376123
 30
0.0
 11
-285.233262
 21
452.376123
 31
0.0
  0
LINE
  5
36D
100
AcDbEntity
  8
0
370
    -3
390
0
  6
CENTER
100
AcDbLine
 10
-243.99035
 20
482.376123
 30
0.0
 11
-284.733262
 21
482.376123
 31
0.0
  0
LINE
  5
36E
100
AcDbEntity
  8
0
370
    -3
390
0
  6
Continuous
100
AcDbLine
 10
-274.231346
 20
440.376123
 30
0.0
 11
-274.231346
 21
378.376123
 31
0.0
  0
LINE
  5
36F
100
AcDbEntity
  8
0
370
    -3
390
0
  6
Continuous
100
AcDbLine
 10
-258.231346
 20
435.376123
 30
0.0
 11
-258.231346
 21
497.376123
 31
0.0
  0
ARC
  5
370
100
AcDbEntity
  8
0
370
    -3
390
0
  6
Continuous
100
AcDbCircle
 10
-256.231346
 20
469.376123
 30
0.0
 40
2.0
100
AcDbArc
 50
90.0
 51
180.0
  0
LINE
  5
371
100
AcDbEntity
  8
0
370
    -3
390
0
  6
CENTER
100
AcDbLine
 10
-403.231346
 20
121.376123
 30
0.0
 11
-403.231346
 21
83.376123
 31
0.0
  0
LINE
  5
372
100
AcDbEntity
  8
0
370
    -3
390
0
  6
CENTER
100
AcDbLine
 10
-422.231346
 20
102.376123
 30
0.0
 11
-384.231346
 21
102.376123
 31
0.0
  0
LINE
  5
373
100
AcDbEntity
  8
0
370
    -3
390
0
  6
CENTER
100
AcDbLine
 10
-403.231346
 20
481.376123
 30
0.0
 11
-403.231346
 21
443.376123
 31
0.0
  0
LINE
  5
374
100
AcDbEntity
  8
0
370
    -3
390
0
  6
CENTER
100
AcDbLine
 10
-422.231346
 20
462.376123
 30
0.0
 11
-384.231346
 21
462.376123
 31
0.0
  0
CIRCLE
  5
375
100
AcDbEntity
  8
0
370
    -3
390
0
  6
Continuous
100
AcDbCircle
 10
-403.231346
 20
462.376123
 30
0.0
 40
14.0
  0
ARC
  5
376
100
AcDbEntity
  8
0
370
    -3
390
0
  6
Continuous
100
AcDbCircle
 10
-373.231346
 20
476.376123
 30
0.0
 40
10.0
100
AcDbArc
 50
90.0
 51
180.0
  0
ARC
  5
377
100
AcDbEntity
  8
0
370
    -3
390
0
  6
Continuous
100
AcDbCircle
 10
-403.231346
 20
102.376123
 30
0.0
 40
14.0
100
AcDbArc
 50
323.16079
 51
216.83921
  0
LINE
  5
378
100
AcDbEntity
  8
0
370
    -3
390
0
  6
Continuous
100
AcDbLine
 10
-278.231319
 20
78.376123
 30
0.0
 11
-373.231346
 21
78.376123
 31
0.0
  0
ARC
  5
379
100
AcDbEntity
  8
0
370
    -3
390
0
  6
Continuous
100
AcDbCircle
 10
-373.231346
 20
88.376123
 30
0.0
 40
10.0
100
AcDbArc
 50
180.0
 51
270.0
  0
LINE
  5
37A
100
AcDbEntity
  8
0
370
    -3
390
0
  6
Continuous
100
AcDbLine
 10
-373.231346
 20
62.376123
 30
0.0
 11
-373.231346
 21
78.376123
 31
0.0
  0
LINE
  5
37B
100
AcDbEntity
  8
0
370
    -3
390
0
  6
Continuous
100
AcDbLine
 10
-86.731346
 20
78.376123
 30
0.0
 11
-126.731346
 21
78.376123
 31
0.0
  0
LINE
  5
37C
100
AcDbEntity
  8
0
370
    -3
390
0
  6
Continuous
100
AcDbLine
 10
-220.731346
 20
451.376123
 30
0.0
 11
-233.731346
 21
451.376123
 31
0.0
  0
ARC
  5
37D
100
AcDbEntity
  8
0
370
    -3
390
0
  6
Continuous
100
AcDbCircle
 10
-220.731346
 20
448.376123
 30
0.0
 40
3.0
100
AcDbArc
 50
0.0
 51
90.0
  0
LINE
  5
37E
100
AcDbEntity
  8
0
370
    -3
390
0
  6
Continuous
100
AcDbLine
 10
-217.731346
 20
448.376123
 30
0.0
 11
-217.731346
 21
445.376123
 31
0.0
  0
LINE
  5
37F
100
AcDbEntity
  8
0
370
    -3
390
0
  6
Continuous
100
AcDbLine
 10
-196.731346
 20
383.222904
 30
0.0
 11
-233.731346
 21
383.222904
 31
0.0
  0
ARC
  5
380
100
AcDbEntity
  8
0
370
    -3
390
0
  6
Continuous
100
AcDbCircle
 10
-196.731346
 20
380.222904
 30
0.0
 40
3.0
100
AcDbArc
 50
0.0
 51
90.0
  0
LINE
  5
381
100
AcDbEntity
  8
0
370
    -3
390
0
  6
Continuous
100
AcDbLine
 10
-193.731346
 20
380.222904
 30
0.0
 11
-193.731346
 21
355.958317
 31
0.0
  0
LINE
  5
382
100
AcDbEntity
  8
0
370
    -3
390
0
  6
Continuous
100
AcDbLine
 10
-196.731346
 20
352.958317
 30
0.0
 11
-233.731346
 21
352.958317
 31
0.0
  0
ARC
  5
383
100
AcDbEntity
  8
0
370
    -3
390
0
  6
Continuous
100
AcDbCircle
 10
-196.731346
 20
355.958317
 30
0.0
 40
3.0
100
AcDbArc
 50
270.0
 51
0.0
  0
LINE
  5
384
100
AcDbEntity
  8
0
370
    -3
390
0
  6
Continuous
100
AcDbLine
 10
-217.731346
 20
445.376123
 30
0.0
 11
-217.731346
 21
383.222904
 31
0.0
  0
LINE
  5
385
100
AcDbEntity
  8
0
370
    -3
390
0
  6
Continuous
100
AcDbLine
 10
-217.731346
 20
352.958317
 30
0.0
 11
-217.731346
 21
282.376123
 31
0.0
  0
LINE
  5
386
100
AcDbEntity
  8
0
370
    -3
390
0
  6
Continuous
100
AcDbLine
 10
-233.731346
 20
502.376123
 30
0.0
 11
-233.731346
 21
282.376123
 31
0.0
  0
ARC
  5
387
100
AcDbEntity
  8
0
370
    -3
390
0
  6
Continuous
100
AcDbCircle
 10
-118.731346
 20
450.376123
 30
0.0
 40
8.0
100
AcDbArc
 50
180.0
 51
270.0
  0
ARC
  5
388
100
AcDbEntity
  8
0
370
    -3
390
0
  6
Continuous
100
AcDbCircle
 10
-214.731346
 20
445.376123
 30
0.0
 40
3.0
100
AcDbArc
 50
180.0
 51
270.0
  0
LINE
  5
389
100
AcDbEntity
  8
0
370
    -3
390
0
  6
Continuous
100
AcDbLine
 10
-89.773052
 20
442.376123
 30
0.0
 11
-214.731346
 21
442.376123
 31
0.0
  0
LINE
  5
38A
100
AcDbEntity
  8
0
370
    -3
390
0
  6
Continuous
100
AcDbLine
 10
-129.731346
 20
471.376123
 30
0.0
 11
-233.731346
 21
471.376123
 31
0.0
  0
ARC
  5
38B
100
AcDbEntity
  8
0
370
    -3
390
0
  6
Continuous
100
AcDbCircle
 10
-129.731346
 20
468.376123
 30
0.0
 40
3.0
100
AcDbArc
 50
0.0
 51
90.0
  0
LINE
  5
38C
100
AcDbEntity
  8
0
370
    -3
390
0
  6
Continuous
100
AcDbLine
 10
-126.731346
 20
496.376123
 30
0.0
 11
-126.731346
 21
474.376123
 31
0.0
  0
ARC
  5
38D
100
AcDbEntity
  8
0
370
    -3
390
0
  6
Continuous
100
AcDbCircle
 10
-129.731346
 20
474.376123
 30
0.0
 40
3.0
100
AcDbArc
 50
270.0
 51
0.0
  0
LINE
  5
38E
100
AcDbEntity
  8
0
370
    -3
390
0
  6
Continuous
100
AcDbLine
 10
-126.731346
 20
474.376123
 30
0.0
 11
-126.731346
 21
450.376123
 31
0.0
  0
LINE
  5
38F
100
AcDbEntity
  8
0
370
    -3
390
0
  6
Continuous
100
AcDbLine
 10
-433.231346
 20
496.376123
 30
0.0
 11
-433.231346
 21
446.518259
 31
0.0
  0
ARC
  5
390
100
AcDbEntity
  8
0
370
    -3
390
0
  6
Continuous
100
AcDbCircle
 10
-423.231346
 20
446.518259
 30
0.0
 40
10.0
100
AcDbArc
 50
180.0
 51
225.0
  0
ARC
  5
391
100
AcDbEntity
  8
0
370
    -3
390
0
  6
Continuous
100
AcDbCircle
 10
-411.765938
 20
435.052851
 30
0.0
 40
10.0
100
AcDbArc
 50
225.0
 51
269.134135
  0
ARC
  5
392
100
AcDbEntity
  8
0
370
    -3
390
0
  6
Continuous
100
AcDbCircle
 10
-424.089211
 20
447.376123
 30
0.0
 40
10.0
100
AcDbArc
 50
225.0
 51
270.0
  0
LINE
  5
393
100
AcDbEntity
  8
0
370
    -3
390
0
  6
Continuous
100
AcDbLine
 10
-430.302414
 20
439.447191
 30
0.0
 11
-418.837006
 21
427.981783
 31
0.0
  0
LINE
  5
394
100
AcDbEntity
  8
0
370
    -3
390
0
  6
Continuous
100
AcDbLine
 10
-313.231316
 20
437.376123
 30
0.0
 11
-424.089211
 21
437.376123
 31
0.0
  0
LINE
  5
395
100
AcDbEntity
  8
0
370
    -3
390
0
  6
Continuous
100
AcDbLine
 10
-411.917055
 20
425.053993
 30
0.0
 11
-293.231346
 21
423.260254
 31
0.0
  0
ARC
  5
396
100
AcDbEntity
  8
0
370
    -3
390
0
  6
Continuous
100
AcDbCircle
 10
-424.089211
 20
117.376123
 30
0.0
 40
10.0
100
AcDbArc
 50
90.0
 51
135.0
  0
LINE
  5
397
100
AcDbEntity
  8
0
370
    -3
390
0
  6
Continuous
100
AcDbLine
 10
-430.302414
 20
125.305056
 30
0.0
 11
-418.837006
 21
136.770463
 31
0.0
  0
LINE
  5
398
100
AcDbEntity
  8
0
370
    -3
390
0
  6
Continuous
100
AcDbLine
 10
-313.231316
 20
127.376123
 30
0.0
 11
-350.731346
 21
127.376123
 31
0.0
  0
ARC
  5
399
100
AcDbEntity
  8
0
370
    -3
390
0
  6
Continuous
100
AcDbCircle
 10
-411.765938
 20
129.699396
 30
0.0
 40
10.0
100
AcDbArc
 50
90.865865
 51
135.0
  0
ARC
  5
39A
100
AcDbEntity
  8
0
370
    -3
390
0
  6
Continuous
100
AcDbCircle
 10
-423.231346
 20
118.233988
 30
0.0
 40
10.0
100
AcDbArc
 50
135.0
 51
180.0
  0
LINE
  5
39B
100
AcDbEntity
  8
0
370
    -3
390
0
  6
Continuous
100
AcDbLine
 10
-411.917055
 20
139.698254
 30
0.0
 11
-350.731346
 21
140.622975
 31
0.0
  0
ARC
  5
39C
100
AcDbEntity
  8
0
370
    -3
390
0
  6
Continuous
100
AcDbCircle
 10
-427.231346
 20
68.376123
 30
0.0
 40
6.0
100
AcDbArc
 50
180.0
 51
270.0
  0
LINE
  5
39D
100
AcDbEntity
  8
0
370
    -3
390
0
  6
Continuous
100
AcDbLine
 10
-433.231346
 20
68.376123
 30
0.0
 11
-433.231346
 21
93.982123
 31
0.0
  0
ARC
  5
39E
100
AcDbEntity
  8
0
370
    -3
390
0
  6
Continuous
100
AcDbCircle
 10
-129.731346
 20
90.376123
 30
0.0
 40
3.0
100
AcDbArc
 50
0.0
 51
90.0
  0
ARC
  5
39F
100
AcDbEntity
  8
0
370
    -3
390
0
  6
Continuous
100
AcDbCircle
 10
-129.731346
 20
96.376123
 30
0.0
 40
3.0
100
AcDbArc
 50
270.0
 51
0.0
  0
LINE
  5
3A0
100
AcDbEntity
  8
0
370
    -3
390
0
  6
Continuous
100
AcDbLine
 10
-126.731346
 20
90.376123
 30
0.0
 11
-126.731346
 21
114.376123
 31
0.0
  0
LINE
  5
3A1
100
AcDbEntity
  8
0
370
    -3
390
0
  6
Continuous
100
AcDbLine
 10
-129.731346
 20
93.376123
 30
0.0
 11
-233.731346
 21
93.376123
 31
0.0
  0
ARC
  5
3A2
100
AcDbEntity
  8
0
370
    -3
390
0
  6
Continuous
100
AcDbCircle
 10
-118.731346
 20
114.376123
 30
0.0
 40
8.0
100
AcDbArc
 50
90.0
 51
180.0
  0
ARC
  5
3A3
100
AcDbEntity
  8
0
370
    -3
390
0
  6
Continuous
100
AcDbCircle
 10
-132.731346
 20
68.376123
 30
0.0
 40
6.0
100
AcDbArc
 50
270.0
 51
0.0
  0
LINE
  5
3A4
100
AcDbEntity
  8
0
370
    -3
390
0
  6
Continuous
100
AcDbLine
 10
-126.731346
 20
68.376123
 30
0.0
 11
-126.731346
 21
90.376123
 31
0.0
  0
LINE
  5
3A5
100
AcDbEntity
  8
0
370
    -3
390
0
  6
Continuous
100
AcDbLine
 10
-217.731346
 20
211.793929
 30
0.0
 11
-217.731346
 21
282.376123
 31
0.0
  0
ARC
  5
3A6
100
AcDbEntity
  8
0
370
    -3
390
0
  6
Continuous
100
AcDbCircle
 10
-196.731346
 20
208.793929
 30
0.0
 40
3.0
100
AcDbArc
 50
0.0
 51
90.0
  0
ARC
  5
3A7
100
AcDbEntity
  8
0
370
    -3
390
0
  6
Continuous
100
AcDbCircle
 10
-196.731346
 20
184.529342
 30
0.0
 40
3.0
100
AcDbArc
 50
270.0
 51
0.0
  0
LINE
  5
3A8
100
AcDbEntity
  8
0
370
    -3
390
0
  6
Continuous
100
AcDbLine
 10
-193.731346
 20
184.529342
 30
0.0
 11
-193.731346
 21
208.793929
 31
0.0
  0
LINE
  5
3A9
100
AcDbEntity
  8
0
370
    -3
390
0
  6
Continuous
100
AcDbLine
 10
-196.731346
 20
211.793929
 30
0.0
 11
-233.731346
 21
211.793929
 31
0.0
  0
LINE
  5
3AA
100
AcDbEntity
  8
0
370
    -3
390
0
  6
Continuous
100
AcDbLine
 10
-196.731346
 20
181.529342
 30
0.0
 11
-233.731346
 21
181.529342
 31
0.0
  0
LINE
  5
3AB
100
AcDbEntity
  8
0
370
    -3
390
0
  6
Continuous
100
AcDbLine
 10
-217.731346
 20
119.376123
 30
0.0
 11
-217.731346
 21
181.529342
 31
0.0
  0
ARC
  5
3AC
100
AcDbEntity
  8
0
370
    -3
390
0
  6
Continuous
100
AcDbCircle
 10
-214.731346
 20
119.376123
 30
0.0
 40
3.0
100
AcDbArc
 50
90.0
 51
180.0
  0
ARC
  5
3AD
100
AcDbEntity
  8
0
370
    -3
390
0
  6
Continuous
100
AcDbCircle
 10
-220.731346
 20
116.376123
 30
0.0
 40
3.0
100
AcDbArc
 50
270.0
 51
0.0
  0
LINE
  5
3AE
100
AcDbEntity
  8
0
370
    -3
390
0
  6
Continuous
100
AcDbLine
 10
-220.731346
 20
113.376123
 30
0.0
 11
-233.731346
 21
113.376123
 31
0.0
  0
LINE
  5
3AF
100
AcDbEntity
  8
0
370
    -3
390
0
  6
Continuous
100
AcDbLine
 10
-217.731346
 20
116.376123
 30
0.0
 11
-217.731346
 21
119.376123
 31
0.0
  0
LINE
  5
3B0
100
AcDbEntity
  8
0
370
    -3
390
0
  6
Continuous
100
AcDbLine
 10
-89.773052
 20
122.376123
 30
0.0
 11
-214.731346
 21
122.376123
 31
0.0
  0
LINE
  5
3B1
100
AcDbEntity
  8
0
370
    -3
390
0
  6
Continuous
100
AcDbLine
 10
-233.731346
 20
62.376123
 30
0.0
 11
-233.731346
 21
282.376123
 31
0.0
  0
LINE
  5
3B2
100
AcDbEntity
  8
0
370
    -3
390
0
  6
Continuous
100
AcDbLine
 10
-29.231346
 20
62.376123
 30
0.0
 11
-427.231346
 21
62.376123
 31
0.0
  0
LINE
  5
3B3
100
AcDbEntity
  8
0
370
    -3
390
0
  6
CENTER
100
AcDbLine
 10
98.47517
 20
282.376123
 30
0.0
 11
-661.843465
 21
282.376123
 31
0.0
  0
ARC
  5
3B4
100
AcDbEntity
  8
0
370
    -3
390
0
  6
Continuous
100
AcDbCircle
 10
-403.231346
 20
102.376123
 30
0.0
 40
14.0
100
AcDbArc
 50
216.83921
 51
323.16079
  0
LINE
  5
3B5
100
AcDbEntity
  8
0
370
    -3
390
0
  6
Continuous
100
AcDbLine
 10
-433.231346
 20
93.982123
 30
0.0
 11
-433.231346
 21
112.906123
 31
0.0
  0
LINE
  5
3B6
100
AcDbEntity
  8
0
370
    -3
390
0
  6
Continuous
100
AcDbLine
 10
-234.231346
 20
65.376123
 30
0.0
 11
-234.231346
 21
282.376123
 31
0.0
  0
LINE
  5
3B7
100
AcDbEntity
  8
0
370
    -3
390
0
  6
Continuous
100
AcDbLine
 10
-234.231346
 20
499.376123
 30
0.0
 11
-234.231346
 21
282.376123
 31
0.0
  0
LINE
  5
3B8
100
AcDbEntity
  8
0
370
    -3
390
0
  6
CENTER
100
AcDbLine
 10
-494.791891
 20
114.376123
 30
0.0
 11
-529.795095
 21
114.376123
 31
0.0
  0
CIRCLE
  5
3B9
100
AcDbEntity
  8
0
370
    -3
390
0
  6
DASHED
100
AcDbCircle
 10
-512.231346
 20
114.376123
 30
0.0
 40
13.5
  0
LINE
  5
3BA
100
AcDbEntity
  8
0
370
    -3
390
0
  6
Continuous
100
AcDbLine
 10
-532.231346
 20
407.376123
 30
0.0
 11
-302.231346
 21
407.376123
 31
0.0
  0
LINE
  5
3BB
100
AcDbEntity
  8
0
370
    -3
390
0
  6
Continuous
100
AcDbLine
 10
-532.231346
 20
374.355701
 30
0.0
 11
-302.231346
 21
374.355701
 31
0.0
  0
LINE
  5
3BC
100
AcDbEntity
  8
0
370
    -3
390
0
  6
Continuous
100
AcDbLine
 10
-532.231346
 20
353.956064
 30
0.0
 11
-313.231311
 21
353.956064
 31
0.0
  0
LINE
  5
3BD
100
AcDbEntity
  8
0
370
    -3
390
0
  6
Continuous
100
AcDbLine
 10
-532.231346
 20
350.719337
 30
0.0
 11
-313.231314
 21
350.719337
 31
0.0
  0
LINE
  5
3BE
100
AcDbEntity
  8
0
370
    -3
390
0
  6
Continuous
100
AcDbLine
 10
-532.231346
 20
340.018895
 30
0.0
 11
-313.231322
 21
340.018895
 31
0.0
  0
LINE
  5
3BF
100
AcDbEntity
  8
0
370
    -3
390
0
  6
Continuous
100
AcDbLine
 10
-532.231346
 20
336.799481
 30
0.0
 11
-312.517255
 21
336.799481
 31
0.0
  0
LINE
  5
3C0
100
AcDbEntity
  8
0
370
    -3
390
0
  6
Continuous
100
AcDbLine
 10
-532.231346
 20
325.926713
 30
0.0
 11
-302.231346
 21
325.926713
 31
0.0
  0
LINE
  5
3C1
100
AcDbEntity
  8
0
370
    -3
390
0
  6
Continuous
100
AcDbLine
 10
-532.231346
 20
322.863394
 30
0.0
 11
-302.231346
 21
322.863394
 31
0.0
  0
LINE
  5
3C2
100
AcDbEntity
  8
0
370
    -3
390
0
  6
Continuous
100
AcDbLine
 10
-532.231346
 20
300.195433
 30
0.0
 11
-320.231346
 21
300.195433
 31
0.0
  0
LINE
  5
3C3
100
AcDbEntity
  8
0
370
    -3
390
0
  6
Continuous
100
AcDbLine
 10
-532.231346
 20
308.936144
 30
0.0
 11
-308.231346
 21
308.936144
 31
0.0
  0
LINE
  5
3C4
100
AcDbEntity
  8
0
370
    -3
390
0
  6
Continuous
100
AcDbLine
 10
-532.231346
 20
311.830519
 30
0.0
 11
-308.231346
 21
311.830519
 31
0.0
  0
LINE
  5
3C5
100
AcDbEntity
  8
0
370
    -3
390
0
  6
Continuous
100
AcDbLine
 10
-532.231346
 20
297.376123
 30
0.0
 11
-320.231346
 21
297.376123
 31
0.0
  0
LINE
  5
3C6
100
AcDbEntity
  8
0
370
    -3
390
0
  6
Continuous
100
AcDbLine
 10
-532.231346
 20
288.626123
 30
0.0
 11
-308.231346
 21
288.626123
 31
0.0
  0
LINE
  5
3C7
100
AcDbEntity
  8
0
370
    -3
390
0
  6
Continuous
100
AcDbLine
 10
-532.231346
 20
387.083623
 30
0.0
 11
-302.231346
 21
387.083623
 31
0.0
  0
LINE
  5
3C8
100
AcDbEntity
  8
0
370
    -3
390
0
  6
Continuous
100
AcDbLine
 10
-532.231346
 20
400.376123
 30
0.0
 11
-302.231346
 21
400.376123
 31
0.0
  0
LINE
  5
3C9
100
AcDbEntity
  8
0
370
    -3
390
0
  6
Continuous
100
AcDbLine
 10
-532.231346
 20
406.376123
 30
0.0
 11
-302.231346
 21
406.376123
 31
0.0
  0
LINE
  5
3CA
100
AcDbEntity
  8
0
370
    -3
390
0
  6
Continuous
100
AcDbLine
 10
-481.231346
 20
141.376123
 30
0.0
 11
-481.231346
 21
142.976123
 31
0.0
  0
LINE
  5
3CB
100
AcDbEntity
  8
0
370
    -3
390
0
  6
Continuous
100
AcDbLine
 10
-543.231346
 20
141.376123
 30
0.0
 11
-481.231346
 21
141.376123
 31
0.0
  0
LINE
  5
3CC
100
AcDbEntity
  8
0
370
    -3
390
0
  6
Continuous
100
AcDbLine
 10
-481.231346
 20
141.376123
 30
0.0
 11
-481.231346
 21
141.311073
 31
0.0
  0
LINE
  5
3CD
100
AcDbEntity
  8
0
370
    -3
390
0
  6
Continuous
100
AcDbLine
 10
-501.731346
 20
140.098325
 30
0.0
 11
-522.731346
 21
140.098325
 31
0.0
  0
LINE
  5
3CE
100
AcDbEntity
  8
0
370
    -3
390
0
  6
Continuous
100
AcDbLine
 10
-501.731346
 20
140.359792
 30
0.0
 11
-522.731346
 21
140.359792
 31
0.0
  0
LINE
  5
3CF
100
AcDbEntity
  8
0
370
    -3
390
0
  6
Continuous
100
AcDbLine
 10
-501.731346
 20
140.359792
 30
0.0
 11
-501.731346
 21
139.811073
 31
0.0
  0
LINE
  5
3D0
100
AcDbEntity
  8
0
370
    -3
390
0
  6
Continuous
100
AcDbLine
 10
-500.731346
 20
139.811073
 30
0.0
 11
-501.731346
 21
139.811073
 31
0.0
  0
LINE
  5
3D1
100
AcDbEntity
  8
0
370
    -3
390
0
  6
Continuous
100
AcDbLine
 10
-500.731346
 20
141.311073
 30
0.0
 11
-500.731346
 21
139.811073
 31
0.0
  0
LINE
  5
3D2
100
AcDbEntity
  8
0
370
    -3
390
0
  6
Continuous
100
AcDbLine
 10
-472.031346
 20
141.311073
 30
0.0
 11
-500.731346
 21
141.311073
 31
0.0
  0
LINE
  5
3D3
100
AcDbEntity
  8
0
370
    -3
390
0
  6
Continuous
100
AcDbLine
 10
-550.231346
 20
136.699046
 30
0.0
 11
-474.231346
 21
136.699046
 31
0.0
  0
LINE
  5
3D4
100
AcDbEntity
  8
0
370
    -3
390
0
  6
Continuous
100
AcDbLine
 10
-465.431346
 20
127.899046
 30
0.0
 11
-465.431346
 21
98.224159
 31
0.0
  0
ARC
  5
3D5
100
AcDbEntity
  8
0
370
    -3
390
0
  6
Continuous
100
AcDbCircle
 10
-474.231346
 20
127.899046
 30
0.0
 40
8.8
100
AcDbArc
 50
0.0
 51
90.0
  0
ARC
  5
3D6
100
AcDbEntity
  8
0
370
    -3
390
0
  6
Continuous
100
AcDbCircle
 10
-472.031346
 20
129.067104
 30
0.0
 40
8.8
100
AcDbArc
 50
0.0
 51
90.0
  0
LINE
  5
3D7
100
AcDbEntity
  8
0
370
    -3
390
0
  6
Continuous
100
AcDbLine
 10
-552.431346
 20
137.867104
 30
0.0
 11
-472.031346
 21
137.867104
 31
0.0
  0
LINE
  5
3D8
100
AcDbEntity
  8
0
370
    -3
390
0
  6
Continuous
100
AcDbLine
 10
-463.231346
 20
132.511073
 30
0.0
 11
-463.231346
 21
98.462655
 31
0.0
  0
ARC
  5
3D9
100
AcDbEntity
  8
0
370
    -3
390
0
  6
Continuous
100
AcDbCircle
 10
-472.031346
 20
132.511073
 30
0.0
 40
8.8
100
AcDbArc
 50
0.0
 51
90.0
  0
LINE
  5
3DA
100
AcDbEntity
  8
0
370
    -3
390
0
  6
Continuous
100
AcDbLine
 10
-472.020068
 20
89.862655
 30
0.0
 11
-471.831346
 21
89.862655
 31
0.0
  0
LINE
  5
3DB
100
AcDbEntity
  8
0
370
    -3
390
0
  6
Continuous
100
AcDbLine
 10
-550.431346
 20
89.624159
 30
0.0
 11
-474.031346
 21
89.624159
 31
0.0
  0
ARC
  5
3DC
100
AcDbEntity
  8
0
370
    -3
390
0
  6
Continuous
100
AcDbCircle
 10
-474.031346
 20
98.224159
 30
0.0
 40
8.6
100
AcDbArc
 50
270.0
 51
0.0
  0
ARC
  5
3DD
100
AcDbEntity
  8
0
370
    -3
390
0
  6
Continuous
100
AcDbCircle
 10
-471.831346
 20
98.462655
 30
0.0
 40
8.6
100
AcDbArc
 50
270.0
 51
0.0
  0
LINE
  5
3DE
100
AcDbEntity
  8
0
370
    -3
390
0
  6
Continuous
100
AcDbLine
 10
-481.231346
 20
142.976123
 30
0.0
 11
-512.231346
 21
142.976123
 31
0.0
  0
LINE
  5
3DF
100
AcDbEntity
  8
0
370
    -3
390
0
  6
Continuous
100
AcDbLine
 10
-512.231346
 20
141.376123
 30
0.0
 11
-481.231346
 21
141.376123
 31
0.0
  0
ARC
  5
3E0
100
AcDbEntity
  8
0
370
    -3
390
0
  6
Continuous
100
AcDbCircle
 10
-485.631346
 20
144.976123
 30
0.0
 40
2.0
100
AcDbArc
 50
180.0
 51
270.0
  0
LINE
  5
3E1
100
AcDbEntity
  8
0
370
    -3
390
0
  6
Continuous
100
AcDbLine
 10
-488.231346
 20
156.376123
 30
0.0
 11
-512.231346
 21
156.376123
 31
0.0
  0
ARC
  5
3E2
100
AcDbEntity
  8
0
370
    -3
390
0
  6
Continuous
100
AcDbCircle
 10
-490.831346
 20
153.176123
 30
0.0
 40
3.2
100
AcDbArc
 50
0.0
 51
90.0
  0
LINE
  5
3E3
100
AcDbEntity
  8
0
370
    -3
390
0
  6
Continuous
100
AcDbLine
 10
-488.231346
 20
156.376123
 30
0.0
 11
-488.231346
 21
157.376123
 31
0.0
  0
LINE
  5
3E4
100
AcDbEntity
  8
0
370
    -3
390
0
  6
Continuous
100
AcDbLine
 10
-487.631346
 20
144.976123
 30
0.0
 11
-487.631346
 21
153.176123
 31
0.0
  0
LINE
  5
3E5
100
AcDbEntity
  8
0
370
    -3
390
0
  6
Continuous
100
AcDbLine
 10
-532.231346
 20
157.376123
 30
0.0
 11
-302.231346
 21
157.376123
 31
0.0
  0
LINE
  5
3E6
100
AcDbEntity
  8
0
370
    -3
390
0
  6
Continuous
100
AcDbLine
 10
-532.231346
 20
190.396546
 30
0.0
 11
-302.231346
 21
190.396546
 31
0.0
  0
LINE
  5
3E7
100
AcDbEntity
  8
0
370
    -3
390
0
  6
Continuous
100
AcDbLine
 10
-532.231346
 20
210.796183
 30
0.0
 11
-313.231311
 21
210.796183
 31
0.0
  0
LINE
  5
3E8
100
AcDbEntity
  8
0
370
    -3
390
0
  6
Continuous
100
AcDbLine
 10
-532.231346
 20
214.03291
 30
0.0
 11
-313.231314
 21
214.03291
 31
0.0
  0
LINE
  5
3E9
100
AcDbEntity
  8
0
370
    -3
390
0
  6
Continuous
100
AcDbLine
 10
-532.231346
 20
224.733352
 30
0.0
 11
-313.231322
 21
224.733352
 31
0.0
  0
LINE
  5
3EA
100
AcDbEntity
  8
0
370
    -3
390
0
  6
Continuous
100
AcDbLine
 10
-532.231346
 20
227.952766
 30
0.0
 11
-312.517255
 21
227.952766
 31
0.0
  0
LINE
  5
3EB
100
AcDbEntity
  8
0
370
    -3
390
0
  6
Continuous
100
AcDbLine
 10
-532.231346
 20
238.825534
 30
0.0
 11
-302.231346
 21
238.825534
 31
0.0
  0
LINE
  5
3EC
100
AcDbEntity
  8
0
370
    -3
390
0
  6
Continuous
100
AcDbLine
 10
-532.231346
 20
241.888853
 30
0.0
 11
-302.231346
 21
241.888853
 31
0.0
  0
LINE
  5
3ED
100
AcDbEntity
  8
0
370
    -3
390
0
  6
Continuous
100
AcDbLine
 10
-532.231346
 20
264.556814
 30
0.0
 11
-320.231346
 21
264.556814
 31
0.0
  0
LINE
  5
3EE
100
AcDbEntity
  8
0
370
    -3
390
0
  6
Continuous
100
AcDbLine
 10
-532.231346
 20
255.816103
 30
0.0
 11
-308.231346
 21
255.816103
 31
0.0
  0
LINE
  5
3EF
100
AcDbEntity
  8
0
370
    -3
390
0
  6
Continuous
100
AcDbLine
 10
-532.231346
 20
252.921728
 30
0.0
 11
-308.231346
 21
252.921728
 31
0.0
  0
LINE
  5
3F0
100
AcDbEntity
  8
0
370
    -3
390
0
  6
Continuous
100
AcDbLine
 10
-532.231346
 20
267.376123
 30
0.0
 11
-320.231346
 21
267.376123
 31
0.0
  0
LINE
  5
3F1
100
AcDbEntity
  8
0
370
    -3
390
0
  6
Continuous
100
AcDbLine
 10
-532.231346
 20
276.126123
 30
0.0
 11
-308.231346
 21
276.126123
 31
0.0
  0
LINE
  5
3F2
100
AcDbEntity
  8
0
370
    -3
390
0
  6
Continuous
100
AcDbLine
 10
-532.231346
 20
177.668624
 30
0.0
 11
-302.231346
 21
177.668624
 31
0.0
  0
LINE
  5
3F3
100
AcDbEntity
  8
0
370
    -3
390
0
  6
Continuous
100
AcDbLine
 10
-532.231346
 20
164.376123
 30
0.0
 11
-302.231346
 21
164.376123
 31
0.0
  0
LINE
  5
3F4
100
AcDbEntity
  8
0
370
    -3
390
0
  6
Continuous
100
AcDbLine
 10
-532.231346
 20
158.376123
 30
0.0
 11
-302.231346
 21
158.376123
 31
0.0
  0
LINE
  5
3F5
100
AcDbEntity
  8
0
370
    -3
390
0
  6
Continuous
100
AcDbLine
 10
-274.231346
 20
252.376124
 30
0.0
 11
-274.231346
 21
247.376124
 31
0.0
  0
LINE
  5
3F6
100
AcDbEntity
  8
0
370
    -3
390
0
  6
CENTER
100
AcDbLine
 10
-325.265983
 20
299.876124
 30
0.0
 11
-276.878684
 21
299.876124
 31
0.0
  0
LINE
  5
3F7
100
AcDbEntity
  8
0
370
    -3
390
0
  6
CENTER
100
AcDbLine
 10
-325.265983
 20
264.876124
 30
0.0
 11
-276.878684
 21
264.876124
 31
0.0
  0
LINE
  5
3F8
100
AcDbEntity
  8
0
370
    -3
390
0
  6
Continuous
100
AcDbLine
 10
-302.231346
 20
392.376123
 30
0.0
 11
-302.231346
 21
360.304123
 31
0.0
  0
ARC
  5
3F9
100
AcDbEntity
  8
0
370
    -3
390
0
  6
Continuous
100
AcDbCircle
 10
-298.231346
 20
397.376123
 30
0.0
 40
5.0
100
AcDbArc
 50
270.0
 51
0.0
  0
LINE
  5
3FA
100
AcDbEntity
  8
0
370
    -3
390
0
  6
Continuous
100
AcDbLine
 10
-298.231346
 20
392.376123
 30
0.0
 11
-302.231346
 21
392.376123
 31
0.0
  0
LINE
  5
3FB
100
AcDbEntity
  8
0
370
    -3
390
0
  6
Continuous
100
AcDbLine
 10
-302.231346
 20
172.376123
 30
0.0
 11
-302.231346
 21
204.448123
 31
0.0
  0
ARC
  5
3FC
100
AcDbEntity
  8
0
370
    -3
390
0
  6
Continuous
100
AcDbCircle
 10
-298.231346
 20
167.376123
 30
0.0
 40
5.0
100
AcDbArc
 50
0.0
 51
90.0
  0
LINE
  5
3FD
100
AcDbEntity
  8
0
370
    -3
390
0
  6
Continuous
100
AcDbLine
 10
-302.231346
 20
172.376123
 30
0.0
 11
-298.231346
 21
172.376123
 31
0.0
  0
LINE
  5
3FE
100
AcDbEntity
  8
0
370
    -3
390
0
  6
Continuous
100
AcDbLine
 10
-302.231346
 20
336.304123
 30
0.0
 11
-302.231346
 21
314.876125
 31
0.0
  0
LINE
  5
3FF
100
AcDbEntity
  8
0
370
    -3
390
0
  6
Continuous
100
AcDbLine
 10
-302.231346
 20
228.448123
 30
0.0
 11
-302.231346
 21
249.876125
 31
0.0
  0
LINE
  5
400
100
AcDbEntity
  8
0
370
    -3
390
0
  6
Continuous
100
AcDbLine
 10
-302.231346
 20
407.376123
 30
0.0
 11
-302.231346
 21
392.376123
 31
0.0
  0
LINE
  5
401
100
AcDbEntity
  8
0
370
    -3
390
0
  6
Continuous
100
AcDbLine
 10
-302.231346
 20
157.376123
 30
0.0
 11
-302.231346
 21
172.376123
 31
0.0
  0
LINE
  5
402
100
AcDbEntity
  8
0
370
    -3
390
0
  6
Continuous
100
AcDbLine
 10
-293.231346
 20
317.376124
 30
0.0
 11
-274.231346
 21
317.376124
 31
0.0
  0
LINE
  5
403
100
AcDbEntity
  8
0
370
    -3
390
0
  6
Continuous
100
AcDbLine
 10
-296.231346
 20
282.376123
 30
0.0
 11
-296.231346
 21
314.876125
 31
0.0
  0
LINE
  5
404
100
AcDbEntity
  8
0
370
    -3
390
0
  6
Continuous
100
AcDbLine
 10
-308.231346
 20
314.876125
 30
0.0
 11
-296.231346
 21
314.876125
 31
0.0
  0
ARC
  5
405
100
AcDbEntity
  8
0
370
    -3
390
0
  6
Continuous
100
AcDbCircle
 10
-293.231346
 20
314.376124
 30
0.0
 40
3.0
100
AcDbArc
 50
90.0
 51
180.0
  0
LINE
  5
406
100
AcDbEntity
  8
0
370
    -3
390
0
  6
Continuous
100
AcDbLine
 10
-308.231346
 20
249.876125
 30
0.0
 11
-308.231346
 21
314.876125
 31
0.0
  0
LINE
  5
407
100
AcDbEntity
  8
0
370
    -3
390
0
  6
Continuous
100
AcDbLine
 10
-319.511346
 20
308.876124
 30
0.0
 11
-320.231346
 21
307.629048
 31
0.0
  0
LINE
  5
408
100
AcDbEntity
  8
0
370
    -3
390
0
  6
Continuous
100
AcDbLine
 10
-308.231346
 20
308.876124
 30
0.0
 11
-319.511346
 21
308.876124
 31
0.0
  0
LINE
  5
409
100
AcDbEntity
  8
0
370
    -3
390
0
  6
Continuous
100
AcDbLine
 10
-319.511346
 20
308.876124
 30
0.0
 11
-319.511346
 21
290.876124
 31
0.0
  0
LINE
  5
40A
100
AcDbEntity
  8
0
370
    -3
390
0
  6
Continuous
100
AcDbLine
 10
-320.231346
 20
307.629048
 30
0.0
 11
-320.231346
 21
292.123201
 31
0.0
  0
LINE
  5
40B
100
AcDbEntity
  8
0
370
    -3
390
0
  6
Continuous
100
AcDbLine
 10
-320.231346
 20
292.123201
 30
0.0
 11
-319.511346
 21
290.876124
 31
0.0
  0
LINE
  5
40C
100
AcDbEntity
  8
0
370
    -3
390
0
  6
Continuous
100
AcDbLine
 10
-319.511346
 20
290.876124
 30
0.0
 11
-308.231346
 21
290.876124
 31
0.0
  0
LINE
  5
40D
100
AcDbEntity
  8
0
370
    -3
390
0
  6
Continuous
100
AcDbLine
 10
-308.231346
 20
273.876124
 30
0.0
 11
-319.511346
 21
273.876124
 31
0.0
  0
LINE
  5
40E
100
AcDbEntity
  8
0
370
    -3
390
0
  6
Continuous
100
AcDbLine
 10
-319.511346
 20
273.876124
 30
0.0
 11
-320.231346
 21
272.629048
 31
0.0
  0
LINE
  5
40F
100
AcDbEntity
  8
0
370
    -3
390
0
  6
Continuous
100
AcDbLine
 10
-320.231346
 20
272.629048
 30
0.0
 11
-320.231346
 21
257.123201
 31
0.0
  0
LINE
  5
410
100
AcDbEntity
  8
0
370
    -3
390
0
  6
Continuous
100
AcDbLine
 10
-319.511346
 20
273.876124
 30
0.0
 11
-319.511346
 21
255.876124
 31
0.0
  0
LINE
  5
411
100
AcDbEntity
  8
0
370
    -3
390
0
  6
Continuous
100
AcDbLine
 10
-320.231346
 20
257.123201
 30
0.0
 11
-319.511346
 21
255.876124
 31
0.0
  0
LINE
  5
412
100
AcDbEntity
  8
0
370
    -3
390
0
  6
Continuous
100
AcDbLine
 10
-319.511346
 20
255.876124
 30
0.0
 11
-308.231346
 21
255.876124
 31
0.0
  0
LINE
  5
413
100
AcDbEntity
  8
0
370
    -3
390
0
  6
Continuous
100
AcDbLine
 10
-308.231346
 20
249.876125
 30
0.0
 11
-296.231346
 21
249.876125
 31
0.0
  0
LINE
  5
414
100
AcDbEntity
  8
0
370
    -3
390
0
  6
Continuous
100
AcDbLine
 10
-296.231346
 20
249.876125
 30
0.0
 11
-296.231346
 21
282.376123
 31
0.0
  0
ARC
  5
415
100
AcDbEntity
  8
0
370
    -3
390
0
  6
Continuous
100
AcDbCircle
 10
-293.231346
 20
250.376124
 30
0.0
 40
3.0
100
AcDbArc
 50
180.0
 51
270.0
  0
LINE
  5
416
100
AcDbEntity
  8
0
370
    -3
390
0
  6
Continuous
100
AcDbLine
 10
-293.231346
 20
247.376124
 30
0.0
 11
-274.231346
 21
247.376124
 31
0.0
  0
LINE
  5
417
100
AcDbEntity
  8
0
370
    -3
390
0
  6
Continuous
100
AcDbLine
 10
-302.231346
 20
-270.511684
 30
0.0
 11
-296.231346
 21
-270.511684
 31
0.0
  0
ARC
  5
418
100
AcDbEntity
  8
0
370
    -3
390
0
  6
Continuous
100
AcDbCircle
 10
-296.231346
 20
-267.511684
 30
0.0
 40
3.0
100
AcDbArc
 50
270.0
 51
0.0
  0
LINE
  5
419
100
AcDbEntity
  8
0
370
    -3
390
0
  6
Continuous
100
AcDbLine
 10
-302.231346
 20
-291.724887
 30
0.0
 11
-296.231346
 21
-291.724887
 31
0.0
  0
ARC
  5
41A
100
AcDbEntity
  8
0
370
    -3
390
0
  6
Continuous
100
AcDbCircle
 10
-296.231346
 20
-294.724887
 30
0.0
 40
3.0
100
AcDbArc
 50
0.0
 51
90.0
  0
LINE
  5
41B
100
AcDbEntity
  8
0
370
    -3
390
0
  6
Continuous
100
AcDbLine
 10
-302.231346
 20
-311.726185
 30
0.0
 11
-296.231346
 21
-311.726185
 31
0.0
  0
ARC
  5
41C
100
AcDbEntity
  8
0
370
    -3
390
0
  6
Continuous
100
AcDbCircle
 10
-296.231346
 20
-314.726185
 30
0.0
 40
3.0
100
AcDbArc
 50
0.0
 51
90.0
  0
LINE
  5
41D
100
AcDbEntity
  8
0
370
    -3
390
0
  6
Continuous
100
AcDbLine
 10
-302.231346
 20
-460.248343
 30
0.0
 11
-296.231346
 21
-460.248343
 31
0.0
  0
ARC
  5
41E
100
AcDbEntity
  8
0
370
    -3
390
0
  6
Continuous
100
AcDbCircle
 10
-296.231346
 20
-457.248343
 30
0.0
 40
3.0
100
AcDbArc
 50
270.0
 51
0.0
  0
LINE
  5
41F
100
AcDbEntity
  8
0
370
    -3
390
0
  6
Continuous
100
AcDbLine
 10
-302.231346
 20
-440.247046
 30
0.0
 11
-296.231346
 21
-440.247046
 31
0.0
  0
ARC
  5
420
100
AcDbEntity
  8
0
370
    -3
390
0
  6
Continuous
100
AcDbCircle
 10
-296.231346
 20
-437.247046
 30
0.0
 40
3.0
100
AcDbArc
 50
270.0
 51
0.0
  0
LINE
  5
421
100
AcDbEntity
  8
0
370
    -3
390
0
  6
Continuous
100
AcDbLine
 10
-302.231346
 20
387.851055
 30
0.0
 11
-296.231346
 21
387.851055
 31
0.0
  0
ARC
  5
422
100
AcDbEntity
  8
0
370
    -3
390
0
  6
Continuous
100
AcDbCircle
 10
-296.231346
 20
390.851055
 30
0.0
 40
3.0
100
AcDbArc
 50
270.0
 51
0.0
  0
LINE
  5
423
100
AcDbEntity
  8
0
370
    -3
390
0
  6
Continuous
100
AcDbLine
 10
-302.231346
 20
366.637852
 30
0.0
 11
-296.231346
 21
366.637852
 31
0.0
  0
ARC
  5
424
100
AcDbEntity
  8
0
370
    -3
390
0
  6
Continuous
100
AcDbCircle
 10
-296.231346
 20
363.637852
 30
0.0
 40
3.0
100
AcDbArc
 50
0.0
 51
90.0
  0
LINE
  5
425
100
AcDbEntity
  8
0
370
    -3
390
0
  6
Continuous
100
AcDbLine
 10
-302.231346
 20
198.114395
 30
0.0
 11
-296.231346
 21
198.114395
 31
0.0
  0
ARC
  5
426
100
AcDbEntity
  8
0
370
    -3
390
0
  6
Continuous
100
AcDbCircle
 10
-296.231346
 20
201.114395
 30
0.0
 40
3.0
100
AcDbArc
 50
270.0
 51
0.0
  0
LINE
  5
427
100
AcDbEntity
  8
0
370
    -3
390
0
  6
Continuous
100
AcDbLine
 10
-302.231346
 20
176.901192
 30
0.0
 11
-296.231346
 21
176.901192
 31
0.0
  0
ARC
  5
428
100
AcDbEntity
  8
0
370
    -3
390
0
  6
Continuous
100
AcDbCircle
 10
-296.231346
 20
173.901192
 30
0.0
 40
3.0
100
AcDbArc
 50
0.0
 51
90.0
  0
LINE
  5
429
100
AcDbEntity
  8
0
370
    -3
390
0
  6
Continuous
100
AcDbLine
 10
-256.231346
 20
499.376123
 30
0.0
 11
-233.731346
 21
499.376123
 31
0.0
  0
LINE
  5
42A
100
AcDbEntity
  8
0
370
    -3
390
0
  6
Continuous
100
AcDbLine
 10
-29.231346
 20
502.376123
 30
0.0
 11
-427.231346
 21
502.376123
 31
0.0
  0
LINE
  5
42B
100
AcDbEntity
  8
0
370
    -3
390
0
  6
Continuous
100
AcDbLine
 10
-23.231346
 20
-548.986615
 30
0.0
 11
-133.231346
 21
-548.986615
 31
0.0
  0
LINE
  5
42C
100
AcDbEntity
  8
0
370
    -3
390
0
  6
Continuous
100
AcDbLine
 10
-138.231346
 20
-543.986615
 30
0.0
 11
-318.231346
 21
-543.986615
 31
0.0
  0
LINE
  5
42D
100
AcDbEntity
  8
0
370
    -3
390
0
  6
Continuous
100
AcDbLine
 10
-323.231346
 20
-548.986615
 30
0.0
 11
-433.231346
 21
-548.986615
 31
0.0
  0
ARC
  5
42E
100
AcDbEntity
  8
0
370
    -3
390
0
  6
Continuous
100
AcDbCircle
 10
-138.231346
 20
-548.986615
 30
0.0
 40
5.0
100
AcDbArc
 50
0.0
 51
90.0
  0
ARC
  5
42F
100
AcDbEntity
  8
0
370
    -3
390
0
  6
Continuous
100
AcDbCircle
 10
-318.231346
 20
-548.986615
 30
0.0
 40
5.0
100
AcDbArc
 50
90.0
 51
180.0
  0
ARC
  5
430
100
AcDbEntity
  8
0
370
    -3
390
0
  6
Continuous
100
AcDbCircle
 10
440.340039
 20
-125.986615
 30
0.0
 40
2.0
100
AcDbArc
 50
194.477512
 51
270.0
  0
ARC
  5
431
100
AcDbEntity
  8
0
370
    -3
390
0
  6
Continuous
100
AcDbCircle
 10
440.340039
 20
-125.986615
 30
0.0
 40
2.0
100
AcDbArc
 50
194.477512
 51
270.0
  0
ARC
  5
432
100
AcDbEntity
  8
0
370
    -3
390
0
  6
Continuous
100
AcDbCircle
 10
436.467056
 20
-123.986615
 30
0.0
 40
2.0
100
AcDbArc
 50
14.477512
 51
90.0
  0
LINE
  5
433
100
AcDbEntity
  8
0
370
    -3
390
0
  6
Continuous
100
AcDbLine
 10
436.467056
 20
-121.986615
 30
0.0
 11
420.967056
 21
-121.986615
 31
0.0
  0
LINE
  5
434
100
AcDbEntity
  8
0
370
    -3
390
0
  6
Continuous
100
AcDbLine
 10
438.403547
 20
-123.486615
 30
0.0
 11
438.403547
 21
-126.486615
 31
0.0
  0
LINE
  5
435
100
AcDbEntity
  8
0
370
    -3
390
0
  6
Continuous
100
AcDbLine
 10
430.467056
 20
-121.986615
 30
0.0
 11
420.967056
 21
-121.986615
 31
0.0
  0
ARC
  5
436
100
AcDbEntity
  8
0
370
    -3
390
0
  6
Continuous
100
AcDbCircle
 10
430.467056
 20
-120.486615
 30
0.0
 40
1.5
100
AcDbArc
 50
270.0
 51
0.0
  0
ARC
  5
437
100
AcDbEntity
  8
0
370
    -3
390
0
  6
Continuous
100
AcDbCircle
 10
401.594072
 20
-125.986615
 30
0.0
 40
2.0
100
AcDbArc
 50
270.0
 51
345.522488
  0
ARC
  5
438
100
AcDbEntity
  8
0
370
    -3
390
0
  6
Continuous
100
AcDbCircle
 10
405.467056
 20
-123.986615
 30
0.0
 40
2.0
100
AcDbArc
 50
90.0
 51
165.522488
  0
LINE
  5
439
100
AcDbEntity
  8
0
370
    -3
390
0
  6
Continuous
100
AcDbLine
 10
405.467056
 20
-121.986615
 30
0.0
 11
420.967056
 21
-121.986615
 31
0.0
  0
LINE
  5
43A
100
AcDbEntity
  8
0
370
    -3
390
0
  6
Continuous
100
AcDbLine
 10
403.530564
 20
-123.486615
 30
0.0
 11
403.530564
 21
-126.486615
 31
0.0
  0
ARC
  5
43B
100
AcDbEntity
  8
0
370
    -3
390
0
  6
Continuous
100
AcDbCircle
 10
411.467056
 20
-120.486615
 30
0.0
 40
1.5
100
AcDbArc
 50
180.0
 51
270.0
  0
LINE
  5
43C
100
AcDbEntity
  8
0
370
    -3
390
0
  6
Continuous
100
AcDbLine
 10
411.467056
 20
-121.986615
 30
0.0
 11
420.967056
 21
-121.986615
 31
0.0
  0
LINE
  5
43D
100
AcDbEntity
  8
0
370
    -3
390
0
  6
Continuous
100
AcDbLine
 10
405.717056
 20
-118.986615
 30
0.0
 11
420.967056
 21
-118.986615
 31
0.0
  0
ARC
  5
43E
100
AcDbEntity
  8
0
370
    -3
390
0
  6
Continuous
100
AcDbCircle
 10
411.467056
 20
-120.486615
 30
0.0
 40
1.5
100
AcDbArc
 50
90.0
 51
180.0
  0
LINE
  5
43F
100
AcDbEntity
  8
0
370
    -3
390
0
  6
Continuous
100
AcDbLine
 10
404.967056
 20
-114.986615
 30
0.0
 11
404.967056
 21
-103.986615
 31
0.0
  0
LINE
  5
440
100
AcDbEntity
  8
0
370
    -3
390
0
  6
Continuous
100
AcDbLine
 10
404.967056
 20
-114.986615
 30
0.0
 11
404.967056
 21
-103.986615
 31
0.0
  0
LINE
  5
441
100
AcDbEntity
  8
0
370
    -3
390
0
  6
Continuous
100
AcDbLine
 10
404.967056
 20
-113.986615
 30
0.0
 11
405.450389
 21
-113.986615
 31
0.0
  0
LINE
  5
442
100
AcDbEntity
  8
0
370
    -3
390
0
  6
Continuous
100
AcDbLine
 10
405.717056
 20
-115.986615
 30
0.0
 11
405.717056
 21
-118.986615
 31
0.0
  0
LINE
  5
443
100
AcDbEntity
  8
0
370
    -3
390
0
  6
Continuous
100
AcDbLine
 10
407.23531
 20
-103.986615
 30
0.0
 11
407.23531
 21
-113.986615
 31
0.0
  0
LINE
  5
444
100
AcDbEntity
  8
0
370
    -3
390
0
  6
Continuous
100
AcDbLine
 10
405.450389
 20
-103.986615
 30
0.0
 11
405.450389
 21
-113.986615
 31
0.0
  0
LINE
  5
445
100
AcDbEntity
  8
0
370
    -3
390
0
  6
Continuous
100
AcDbLine
 10
407.967056
 20
-101.986615
 30
0.0
 11
420.967056
 21
-101.986615
 31
0.0
  0
LINE
  5
446
100
AcDbEntity
  8
0
370
    -3
390
0
  6
Continuous
100
AcDbLine
 10
407.967056
 20
-101.986615
 30
0.0
 11
406.467056
 21
-103.986615
 31
0.0
  0
LINE
  5
447
100
AcDbEntity
  8
0
370
    -3
390
0
  6
Continuous
100
AcDbLine
 10
407.967056
 20
-101.986615
 30
0.0
 11
406.467056
 21
-103.986615
 31
0.0
  0
LINE
  5
448
100
AcDbEntity
  8
0
370
    -3
390
0
  6
Continuous
100
AcDbLine
 10
404.967056
 20
-103.986615
 30
0.0
 11
420.967056
 21
-103.986615
 31
0.0
  0
LINE
  5
449
100
AcDbEntity
  8
0
370
    -3
390
0
  6
Continuous
100
AcDbLine
 10
404.967056
 20
-114.986615
 30
0.0
 11
420.967056
 21
-114.986615
 31
0.0
  0
LINE
  5
44A
100
AcDbEntity
  8
0
370
    -3
390
0
  6
Continuous
100
AcDbLine
 10
405.717056
 20
-115.986615
 30
0.0
 11
420.967056
 21
-115.986615
 31
0.0
  0
LINE
  5
44B
100
AcDbEntity
  8
0
370
    -3
390
0
  6
Continuous
100
AcDbLine
 10
417.064101
 20
-103.986615
 30
0.0
 11
417.064101
 21
-113.986615
 31
0.0
  0
LINE
  5
44C
100
AcDbEntity
  8
0
370
    -3
390
0
  6
Continuous
100
AcDbLine
 10
412.754921
 20
-103.986615
 30
0.0
 11
412.754921
 21
-113.986615
 31
0.0
  0
LINE
  5
44D
100
AcDbEntity
  8
0
370
    -3
390
0
  6
Continuous
100
AcDbLine
 10
417.064101
 20
-113.986615
 30
0.0
 11
420.967056
 21
-113.986615
 31
0.0
  0
LINE
  5
44E
100
AcDbEntity
  8
0
370
    -3
390
0
  6
Continuous
100
AcDbLine
 10
407.23531
 20
-113.986615
 30
0.0
 11
412.754921
 21
-113.986615
 31
0.0
  0
LINE
  5
44F
100
AcDbEntity
  8
0
370
    -3
390
0
  6
Continuous
100
AcDbLine
 10
407.967056
 20
-115.986615
 30
0.0
 11
407.967056
 21
-114.986615
 31
0.0
  0
LINE
  5
450
100
AcDbEntity
  8
0
370
    -3
390
0
  6
Continuous
100
AcDbLine
 10
436.967056
 20
-114.986615
 30
0.0
 11
436.967056
 21
-103.986615
 31
0.0
  0
LINE
  5
451
100
AcDbEntity
  8
0
370
    -3
390
0
  6
Continuous
100
AcDbLine
 10
436.967056
 20
-114.986615
 30
0.0
 11
436.967056
 21
-103.986615
 31
0.0
  0
LINE
  5
452
100
AcDbEntity
  8
0
370
    -3
390
0
  6
Continuous
100
AcDbLine
 10
436.967056
 20
-113.986615
 30
0.0
 11
436.483722
 21
-113.986615
 31
0.0
  0
LINE
  5
453
100
AcDbEntity
  8
0
370
    -3
390
0
  6
Continuous
100
AcDbLine
 10
436.217056
 20
-115.986615
 30
0.0
 11
436.217056
 21
-118.986615
 31
0.0
  0
LINE
  5
454
100
AcDbEntity
  8
0
370
    -3
390
0
  6
Continuous
100
AcDbLine
 10
434.698802
 20
-103.986615
 30
0.0
 11
434.698802
 21
-113.986615
 31
0.0
  0
LINE
  5
455
100
AcDbEntity
  8
0
370
    -3
390
0
  6
Continuous
100
AcDbLine
 10
436.483722
 20
-103.986615
 30
0.0
 11
436.483722
 21
-113.986615
 31
0.0
  0
LINE
  5
456
100
AcDbEntity
  8
0
370
    -3
390
0
  6
Continuous
100
AcDbLine
 10
433.967056
 20
-101.986615
 30
0.0
 11
420.967056
 21
-101.986615
 31
0.0
  0
LINE
  5
457
100
AcDbEntity
  8
0
370
    -3
390
0
  6
Continuous
100
AcDbLine
 10
433.967056
 20
-101.986615
 30
0.0
 11
435.467056
 21
-103.986615
 31
0.0
  0
LINE
  5
458
100
AcDbEntity
  8
0
370
    -3
390
0
  6
Continuous
100
AcDbLine
 10
433.967056
 20
-101.986615
 30
0.0
 11
435.467056
 21
-103.986615
 31
0.0
  0
LINE
  5
459
100
AcDbEntity
  8
0
370
    -3
390
0
  6
Continuous
100
AcDbLine
 10
436.967056
 20
-103.986615
 30
0.0
 11
420.967056
 21
-103.986615
 31
0.0
  0
LINE
  5
45A
100
AcDbEntity
  8
0
370
    -3
390
0
  6
Continuous
100
AcDbLine
 10
436.217056
 20
-118.986615
 30
0.0
 11
420.967056
 21
-118.986615
 31
0.0
  0
LINE
  5
45B
100
AcDbEntity
  8
0
370
    -3
390
0
  6
Continuous
100
AcDbLine
 10
436.967056
 20
-114.986615
 30
0.0
 11
420.967056
 21
-114.986615
 31
0.0
  0
LINE
  5
45C
100
AcDbEntity
  8
0
370
    -3
390
0
  6
Continuous
100
AcDbLine
 10
436.217056
 20
-115.986615
 30
0.0
 11
420.967056
 21
-115.986615
 31
0.0
  0
ARC
  5
45D
100
AcDbEntity
  8
0
370
    -3
390
0
  6
Continuous
100
AcDbCircle
 10
430.467056
 20
-120.486615
 30
0.0
 40
1.5
100
AcDbArc
 50
0.0
 51
90.0
  0
LINE
  5
45E
100
AcDbEntity
  8
0
370
    -3
390
0
  6
Continuous
100
AcDbLine
 10
424.87001
 20
-103.986615
 30
0.0
 11
424.87001
 21
-113.986615
 31
0.0
  0
LINE
  5
45F
100
AcDbEntity
  8
0
370
    -3
390
0
  6
Continuous
100
AcDbLine
 10
429.17919
 20
-103.986615
 30
0.0
 11
429.17919
 21
-113.986615
 31
0.0
  0
LINE
  5
460
100
AcDbEntity
  8
0
370
    -3
390
0
  6
Continuous
100
AcDbLine
 10
424.87001
 20
-113.986615
 30
0.0
 11
420.967056
 21
-113.986615
 31
0.0
  0
LINE
  5
461
100
AcDbEntity
  8
0
370
    -3
390
0
  6
Continuous
100
AcDbLine
 10
434.698802
 20
-113.986615
 30
0.0
 11
429.17919
 21
-113.986615
 31
0.0
  0
LINE
  5
462
100
AcDbEntity
  8
0
370
    -3
390
0
  6
Continuous
100
AcDbLine
 10
433.967056
 20
-115.986615
 30
0.0
 11
433.967056
 21
-114.986615
 31
0.0
  0
LINE
  5
463
100
AcDbEntity
  8
0
370
    -3
390
0
  6
CENTER
100
AcDbLine
 10
453.065995
 20
-375.986615
 30
0.0
 11
392.734873
 21
-375.986615
 31
0.0
  0
ARC
  5
464
100
AcDbEntity
  8
0
370
    -3
390
0
  6
Continuous
100
AcDbCircle
 10
420.967056
 20
-283.986615
 30
0.0
 40
35.0
100
AcDbArc
 50
106.60155
 51
270.0
  0
LINE
  5
465
100
AcDbEntity
  8
0
370
    -3
390
0
  6
Continuous
100
AcDbLine
 10
420.967056
 20
-256.486615
 30
0.0
 11
410.967056
 21
-256.486615
 31
0.0
  0
LINE
  5
466
100
AcDbEntity
  8
0
370
    -3
390
0
  6
Continuous
100
AcDbLine
 10
410.967056
 20
-244.486615
 30
0.0
 11
410.967056
 21
-256.486615
 31
0.0
  0
LINE
  5
467
100
AcDbEntity
  8
0
370
    -3
390
0
  6
Continuous
100
AcDbLine
 10
420.967056
 20
-244.486615
 30
0.0
 11
410.967056
 21
-244.486615
 31
0.0
  0
LINE
  5
468
100
AcDbEntity
  8
0
370
    -3
390
0
  6
Continuous
100
AcDbLine
 10
430.967056
 20
-244.486615
 30
0.0
 11
430.967056
 21
-256.486615
 31
0.0
  0
LINE
  5
469
100
AcDbEntity
  8
0
370
    -3
390
0
  6
Continuous
100
AcDbLine
 10
420.967056
 20
-244.486615
 30
0.0
 11
430.967056
 21
-244.486615
 31
0.0
  0
LINE
  5
46A
100
AcDbEntity
  8
0
370
    -3
390
0
  6
Continuous
100
AcDbLine
 10
420.967056
 20
-256.486615
 30
0.0
 11
430.967056
 21
-256.486615
 31
0.0
  0
ARC
  5
46B
100
AcDbEntity
  8
0
370
    -3
390
0
  6
Continuous
100
AcDbCircle
 10
420.967056
 20
-283.986615
 30
0.0
 40
35.0
100
AcDbArc
 50
270.0
 51
73.39845
  0
LINE
  5
46C
100
AcDbEntity
  8
0
370
    -3
390
0
  6
CENTER
100
AcDbLine
 10
600.967056
 20
-493.310187
 30
0.0
 11
600.967056
 21
-562.791092
 31
0.0
  0
LINE
  5
46D
100
AcDbEntity
  8
0
370
    -3
390
0
  6
Continuous
100
AcDbLine
 10
200.967056
 20
-548.986615
 30
0.0
 11
280.967056
 21
-548.986615
 31
0.0
  0
LINE
  5
46E
100
AcDbEntity
  8
0
370
    -3
390
0
  6
Continuous
100
AcDbLine
 10
640.967056
 20
-548.986615
 30
0.0
 11
560.967056
 21
-548.986615
 31
0.0
  0
CIRCLE
  5
46F
100
AcDbEntity
  8
0
370
    -3
390
0
  6
Continuous
100
AcDbCircle
 10
420.967056
 20
-283.986615
 30
0.0
 40
50.0
  0
LINE
  5
470
100
AcDbEntity
  8
0
370
    -3
390
0
  6
Continuous
100
AcDbLine
 10
306.947818
 20
-529.986615
 30
0.0
 11
420.967056
 21
-529.986615
 31
0.0
  0
LINE
  5
471
100
AcDbEntity
  8
0
370
    -3
390
0
  6
Continuous
100
AcDbLine
 10
333.458989
 20
-538.986615
 30
0.0
 11
420.967056
 21
-538.986615
 31
0.0
  0
ARC
  5
472
100
AcDbEntity
  8
0
370
    -3
390
0
  6
Continuous
100
AcDbCircle
 10
333.458989
 20
-544.986615
 30
0.0
 40
6.0
100
AcDbArc
 50
90.0
 51
132.342605
  0
ARC
  5
473
100
AcDbEntity
  8
0
370
    -3
390
0
  6
Continuous
100
AcDbCircle
 10
317.967056
 20
-527.986615
 30
0.0
 40
17.0
100
AcDbArc
 50
215.544998
 51
339.645594
  0
LINE
  5
474
100
AcDbEntity
  8
0
370
    -3
390
0
  6
Continuous
100
AcDbLine
 10
283.967056
 20
-544.986615
 30
0.0
 11
317.967056
 21
-544.986615
 31
0.0
  0
ARC
  5
475
100
AcDbEntity
  8
0
370
    -3
390
0
  6
Continuous
100
AcDbCircle
 10
283.967056
 20
-547.986615
 30
0.0
 40
3.0
100
AcDbArc
 50
90.0
 51
180.0
  0
LINE
  5
476
100
AcDbEntity
  8
0
370
    -3
390
0
  6
Continuous
100
AcDbLine
 10
330.967056
 20
-305.986615
 30
0.0
 11
330.967056
 21
-283.986615
 31
0.0
  0
ARC
  5
477
100
AcDbEntity
  8
0
370
    -3
390
0
  6
Continuous
100
AcDbCircle
 10
420.967056
 20
-283.986615
 30
0.0
 40
90.0
100
AcDbArc
 50
90.0
 51
180.0
  0
ARC
  5
478
100
AcDbEntity
  8
0
370
    -3
390
0
  6
Continuous
100
AcDbCircle
 10
339.530914
 20
-535.986615
 30
0.0
 40
6.0
100
AcDbArc
 50
90.0
 51
159.645594
  0
LINE
  5
479
100
AcDbEntity
  8
0
370
    -3
390
0
  6
Continuous
100
AcDbLine
 10
283.967056
 20
-543.254564
 30
0.0
 11
312.989966
 21
-526.498179
 31
0.0
  0
ARC
  5
47A
100
AcDbEntity
  8
0
370
    -3
390
0
  6
Continuous
100
AcDbCircle
 10
322.989966
 20
-543.818687
 30
0.0
 40
20.0
100
AcDbArc
 50
71.550074
 51
120.0
  0
ARC
  5
47B
100
AcDbEntity
  8
0
370
    -3
390
0
  6
Continuous
100
AcDbCircle
 10
286.967056
 20
-548.450717
 30
0.0
 40
6.0
100
AcDbArc
 50
120.0
 51
180.0
  0
ARC
  5
47C
100
AcDbEntity
  8
0
370
    -3
390
0
  6
Continuous
100
AcDbCircle
 10
299.252894
 20
-541.357485
 30
0.0
 40
6.0
100
AcDbArc
 50
35.544998
 51
120.0
  0
POINT
  5
47D
100
AcDbEntity
  8
0
370
    -3
390
0
  6
CENTER
100
AcDbPoint
 10
292.223502
 20
-502.611155
 30
0.0
  0
ARC
  5
47E
100
AcDbEntity
  8
0
370
    -3
390
0
  6
Continuous
100
AcDbCircle
 10
312.967056
 20
-305.986615
 30
0.0
 40
18.0
100
AcDbArc
 50
270.0
 51
0.0
  0
LINE
  5
47F
100
AcDbEntity
  8
0
370
    -3
390
0
  6
Continuous
100
AcDbLine
 10
360.967056
 20
-127.986615
 30
0.0
 11
420.967056
 21
-127.986615
 31
0.0
  0
LINE
  5
480
100
AcDbEntity
  8
0
370
    -3
390
0
  6
Continuous
100
AcDbLine
 10
360.967056
 20
-118.986615
 30
0.0
 11
404.967056
 21
-118.986615
 31
0.0
  0
ARC
  5
481
100
AcDbEntity
  8
0
370
    -3
390
0
  6
Continuous
100
AcDbCircle
 10
336.967056
 20
-138.986615
 30
0.0
 40
17.0
100
AcDbArc
 50
37.88147
 51
172.301675
  0
LINE
  5
482
100
AcDbEntity
  8
0
370
    -3
390
0
  6
Continuous
100
AcDbLine
 10
415.967056
 20
-132.986615
 30
0.0
 11
415.967056
 21
-189.514397
 31
0.0
  0
ARC
  5
483
100
AcDbEntity
  8
0
370
    -3
390
0
  6
Continuous
100
AcDbCircle
 10
410.967056
 20
-132.986615
 30
0.0
 40
5.0
100
AcDbArc
 50
0.0
 51
90.0
  0
ARC
  5
484
100
AcDbEntity
  8
0
370
    -3
390
0
  6
Continuous
100
AcDbCircle
 10
410.967056
 20
-189.514397
 30
0.0
 40
5.0
100
AcDbArc
 50
276.042328
 51
0.0
  0
LINE
  5
485
100
AcDbEntity
  8
0
370
    -3
390
0
  6
Continuous
100
AcDbLine
 10
480.967056
 20
-127.986615
 30
0.0
 11
420.967056
 21
-127.986615
 31
0.0
  0
ARC
  5
486
100
AcDbEntity
  8
0
370
    -3
390
0
  6
Continuous
100
AcDbCircle
 10
480.967056
 20
-227.986615
 30
0.0
 40
100.0
100
AcDbArc
 50
0.0
 51
90.0
  0
LINE
  5
487
100
AcDbEntity
  8
0
370
    -3
390
0
  6
Continuous
100
AcDbLine
 10
580.967056
 20
-227.986615
 30
0.0
 11
580.967056
 21
-429.986615
 31
0.0
  0
ARC
  5
488
100
AcDbEntity
  8
0
370
    -3
390
0
  6
Continuous
100
AcDbCircle
 10
480.967056
 20
-429.986615
 30
0.0
 40
100.0
100
AcDbArc
 50
270.0
 51
0.0
  0
LINE
  5
489
100
AcDbEntity
  8
0
370
    -3
390
0
  6
Continuous
100
AcDbLine
 10
534.986294
 20
-529.986615
 30
0.0
 11
420.967056
 21
-529.986615
 31
0.0
  0
LINE
  5
48A
100
AcDbEntity
  8
0
370
    -3
390
0
  6
Continuous
100
AcDbLine
 10
480.967056
 20
-118.986615
 30
0.0
 11
436.967056
 21
-118.986615
 31
0.0
  0
ARC
  5
48B
100
AcDbEntity
  8
0
370
    -3
390
0
  6
Continuous
100
AcDbCircle
 10
480.967056
 20
-227.986615
 30
0.0
 40
109.0
100
AcDbArc
 50
0.0
 51
90.0
  0
LINE
  5
48C
100
AcDbEntity
  8
0
370
    -3
390
0
  6
Continuous
100
AcDbLine
 10
589.967056
 20
-227.986615
 30
0.0
 11
589.967056
 21
-256.986615
 31
0.0
  0
ARC
  5
48D
100
AcDbEntity
  8
0
370
    -3
390
0
  6
Continuous
100
AcDbCircle
 10
597.967056
 20
-256.986615
 30
0.0
 40
8.0
100
AcDbArc
 50
180.0
 51
270.0
  0
LINE
  5
48E
100
AcDbEntity
  8
0
370
    -3
390
0
  6
Continuous
100
AcDbLine
 10
603.967056
 20
-264.986615
 30
0.0
 11
586.967056
 21
-264.986615
 31
0.0
  0
ARC
  5
48F
100
AcDbEntity
  8
0
370
    -3
390
0
  6
Continuous
100
AcDbCircle
 10
603.967056
 20
-270.986615
 30
0.0
 40
6.0
100
AcDbArc
 50
0.0
 51
90.0
  0
LINE
  5
490
100
AcDbEntity
  8
0
370
    -3
390
0
  6
Continuous
100
AcDbLine
 10
609.967056
 20
-270.986615
 30
0.0
 11
609.967056
 21
-333.84448
 31
0.0
  0
ARC
  5
491
100
AcDbEntity
  8
0
370
    -3
390
0
  6
Continuous
100
AcDbCircle
 10
619.967056
 20
-333.84448
 30
0.0
 40
10.0
100
AcDbArc
 50
180.0
 51
225.0
  0
LINE
  5
492
100
AcDbEntity
  8
0
370
    -3
390
0
  6
Continuous
100
AcDbLine
 10
638.038124
 20
-366.057683
 30
0.0
 11
612.895988
 21
-340.915547
 31
0.0
  0
ARC
  5
493
100
AcDbEntity
  8
0
370
    -3
390
0
  6
Continuous
100
AcDbCircle
 10
630.967056
 20
-373.128751
 30
0.0
 40
10.0
100
AcDbArc
 50
0.0
 51
45.0
  0
LINE
  5
494
100
AcDbEntity
  8
0
370
    -3
390
0
  6
Continuous
100
AcDbLine
 10
640.967056
 20
-373.128751
 30
0.0
 11
640.967056
 21
-548.986615
 31
0.0
  0
LINE
  5
495
100
AcDbEntity
  8
0
370
    -3
390
0
  6
Continuous
100
AcDbLine
 10
560.967056
 20
-519.95627
 30
0.0
 11
560.967056
 21
-548.986615
 31
0.0
  0
ARC
  5
496
100
AcDbEntity
  8
0
370
    -3
390
0
  6
Continuous
100
AcDbCircle
 10
565.967056
 20
-519.95627
 30
0.0
 40
5.0
100
AcDbArc
 50
120.0
 51
180.0
  0
LINE
  5
497
100
AcDbEntity
  8
0
370
    -3
390
0
  6
Continuous
100
AcDbLine
 10
573.806802
 20
-509.656488
 30
0.0
 11
563.467056
 21
-515.626143
 31
0.0
  0
ARC
  5
498
100
AcDbEntity
  8
0
370
    -3
390
0
  6
Continuous
100
AcDbCircle
 10
576.306802
 20
-513.986615
 30
0.0
 40
5.0
100
AcDbArc
 50
90.0
 51
120.0
  0
LINE
  5
499
100
AcDbEntity
  8
0
370
    -3
390
0
  6
Continuous
100
AcDbLine
 10
635.967056
 20
-508.986615
 30
0.0
 11
576.306802
 21
-508.986615
 31
0.0
  0
ARC
  5
49A
100
AcDbEntity
  8
0
370
    -3
390
0
  6
Continuous
100
AcDbCircle
 10
635.967056
 20
-513.986615
 30
0.0
 40
5.0
100
AcDbArc
 50
0.0
 51
90.0
  0
LINE
  5
49B
100
AcDbEntity
  8
0
370
    -3
390
0
  6
Continuous
100
AcDbLine
 10
508.475122
 20
-538.986615
 30
0.0
 11
420.967056
 21
-538.986615
 31
0.0
  0
ARC
  5
49C
100
AcDbEntity
  8
0
370
    -3
390
0
  6
Continuous
100
AcDbCircle
 10
508.475122
 20
-544.986615
 30
0.0
 40
6.0
100
AcDbArc
 50
47.657395
 51
90.0
  0
ARC
  5
49D
100
AcDbEntity
  8
0
370
    -3
390
0
  6
Continuous
100
AcDbCircle
 10
523.967056
 20
-527.986615
 30
0.0
 40
17.0
100
AcDbArc
 50
200.354406
 51
324.455002
  0
LINE
  5
49E
100
AcDbEntity
  8
0
370
    -3
390
0
  6
Continuous
100
AcDbLine
 10
557.967056
 20
-544.986615
 30
0.0
 11
523.967056
 21
-544.986615
 31
0.0
  0
ARC
  5
49F
100
AcDbEntity
  8
0
370
    -3
390
0
  6
Continuous
100
AcDbCircle
 10
557.967056
 20
-547.986615
 30
0.0
 40
3.0
100
AcDbArc
 50
0.0
 51
90.0
  0
ARC
  5
4A0
100
AcDbEntity
  8
0
370
    -3
390
0
  6
Continuous
100
AcDbCircle
 10
596.967056
 20
-480.986615
 30
0.0
 40
28.0
100
AcDbArc
 50
270.0
 51
0.0
  0
LINE
  5
4A1
100
AcDbEntity
  8
0
370
    -3
390
0
  6
Continuous
100
AcDbLine
 10
624.967056
 20
-378.927741
 30
0.0
 11
624.967056
 21
-480.986615
 31
0.0
  0
ARC
  5
4A2
100
AcDbEntity
  8
0
370
    -3
390
0
  6
Continuous
100
AcDbCircle
 10
504.967056
 20
-138.986615
 30
0.0
 40
17.0
100
AcDbArc
 50
7.698325
 51
142.11853
  0
LINE
  5
4A3
100
AcDbEntity
  8
0
370
    -3
390
0
  6
CENTER
100
AcDbLine
 10
420.967056
 20
-88.684385
 30
0.0
 11
420.967056
 21
-563.506469
 31
0.0
  0
LINE
  5
4A4
100
AcDbEntity
  8
0
370
    -3
390
0
  6
Continuous
100
AcDbLine
 10
572.967056
 20
-323.986615
 30
0.0
 11
528.967056
 21
-323.986615
 31
0.0
  0
ARC
  5
4A5
100
AcDbEntity
  8
0
370
    -3
390
0
  6
Continuous
100
AcDbCircle
 10
572.967056
 20
-331.986615
 30
0.0
 40
8.0
100
AcDbArc
 50
0.0
 51
90.0
  0
LINE
  5
4A6
100
AcDbEntity
  8
0
370
    -3
390
0
  6
Continuous
100
AcDbLine
 10
510.967056
 20
-305.986615
 30
0.0
 11
510.967056
 21
-283.986615
 31
0.0
  0
ARC
  5
4A7
100
AcDbEntity
  8
0
370
    -3
390
0
  6
Continuous
100
AcDbCircle
 10
420.967056
 20
-283.986615
 30
0.0
 40
90.0
100
AcDbArc
 50
0.0
 51
90.0
  0
ARC
  5
4A8
100
AcDbEntity
  8
0
370
    -3
390
0
  6
Continuous
100
AcDbCircle
 10
420.967056
 20
-283.986615
 30
0.0
 40
90.0
100
AcDbArc
 50
0.0
 51
90.0
  0
LINE
  5
4A9
100
AcDbEntity
  8
0
370
    -3
390
0
  6
Continuous
100
AcDbLine
 10
425.967056
 20
-132.986615
 30
0.0
 11
425.967056
 21
-189.514397
 31
0.0
  0
ARC
  5
4AA
100
AcDbEntity
  8
0
370
    -3
390
0
  6
Continuous
100
AcDbCircle
 10
430.967056
 20
-132.986615
 30
0.0
 40
5.0
100
AcDbArc
 50
90.0
 51
180.0
  0
ARC
  5
4AB
100
AcDbEntity
  8
0
370
    -3
390
0
  6
Continuous
100
AcDbCircle
 10
430.967056
 20
-189.514397
 30
0.0
 40
5.0
100
AcDbArc
 50
180.0
 51
263.957672
  0
LINE
  5
4AC
100
AcDbEntity
  8
0
370
    -3
390
0
  6
Continuous
100
AcDbLine
 10
610.02593
 20
-363.986615
 30
0.0
 11
588.967056
 21
-363.986615
 31
0.0
  0
LINE
  5
4AD
100
AcDbEntity
  8
0
370
    -3
390
0
  6
CENTER
100
AcDbLine
 10
638.559582
 20
-283.986615
 30
0.0
 11
420.967056
 21
-283.986615
 31
0.0
  0
ARC
  5
4AE
100
AcDbEntity
  8
0
370
    -3
390
0
  6
Continuous
100
AcDbCircle
 10
588.967056
 20
-371.986615
 30
0.0
 40
8.0
100
AcDbArc
 50
90.0
 51
180.0
  0
LINE
  5
4AF
100
AcDbEntity
  8
0
370
    -3
390
0
  6
Continuous
100
AcDbLine
 10
622.62391
 20
-373.270886
 30
0.0
 11
615.682784
 21
-366.329761
 31
0.0
  0
ARC
  5
4B0
100
AcDbEntity
  8
0
370
    -3
390
0
  6
Continuous
100
AcDbCircle
 10
616.967056
 20
-378.927741
 30
0.0
 40
8.0
100
AcDbArc
 50
0.0
 51
45.0
  0
ARC
  5
4B1
100
AcDbEntity
  8
0
370
    -3
390
0
  6
Continuous
100
AcDbCircle
 10
610.02593
 20
-371.986615
 30
0.0
 40
8.0
100
AcDbArc
 50
45.0
 51
90.0
  0
ARC
  5
4B2
100
AcDbEntity
  8
0
370
    -3
390
0
  6
Continuous
100
AcDbCircle
 10
502.403197
 20
-535.986615
 30
0.0
 40
6.0
100
AcDbArc
 50
20.354406
 51
90.0
  0
LINE
  5
4B3
100
AcDbEntity
  8
0
370
    -3
390
0
  6
Continuous
100
AcDbLine
 10
557.967056
 20
-543.254564
 30
0.0
 11
528.944145
 21
-526.498179
 31
0.0
  0
ARC
  5
4B4
100
AcDbEntity
  8
0
370
    -3
390
0
  6
Continuous
100
AcDbCircle
 10
518.944145
 20
-543.818687
 30
0.0
 40
20.0
100
AcDbArc
 50
60.0
 51
108.449926
  0
ARC
  5
4B5
100
AcDbEntity
  8
0
370
    -3
390
0
  6
Continuous
100
AcDbCircle
 10
554.967056
 20
-548.450717
 30
0.0
 40
6.0
100
AcDbArc
 50
0.0
 51
60.0
  0
LINE
  5
4B6
100
AcDbEntity
  8
0
370
    -3
390
0
  6
Continuous
100
AcDbLine
 10
567.670152
 20
-499.812109
 30
0.0
 11
570.080304
 21
-503.986615
 31
0.0
  0
ARC
  5
4B7
100
AcDbEntity
  8
0
370
    -3
390
0
  6
Continuous
100
AcDbCircle
 10
584.99066
 20
-489.812109
 30
0.0
 40
20.0
100
AcDbArc
 50
150.096164
 51
210.0
  0
ARC
  5
4B8
100
AcDbEntity
  8
0
370
    -3
390
0
  6
Continuous
100
AcDbCircle
 10
578.740558
 20
-498.986615
 30
0.0
 40
10.0
100
AcDbArc
 50
210.0
 51
270.0
  0
ARC
  5
4B9
100
AcDbEntity
  8
0
370
    -3
390
0
  6
Continuous
100
AcDbCircle
 10
542.681217
 20
-541.357485
 30
0.0
 40
6.0
100
AcDbArc
 50
60.0
 51
144.455002
  0
LINE
  5
4BA
100
AcDbEntity
  8
0
370
    -3
390
0
  6
Continuous
100
AcDbLine
 10
581.967056
 20
-406.986615
 30
0.0
 11
581.967056
 21
-425.986615
 31
0.0
  0
ARC
  5
4BB
100
AcDbEntity
  8
0
370
    -3
390
0
  6
Continuous
100
AcDbCircle
 10
580.967056
 20
-406.986615
 30
0.0
 40
1.0
100
AcDbArc
 50
0.0
 51
60.0
  0
ARC
  5
4BC
100
AcDbEntity
  8
0
370
    -3
390
0
  6
Continuous
100
AcDbCircle
 10
581.967056
 20
-405.254564
 30
0.0
 40
1.0
100
AcDbArc
 50
180.0
 51
240.0
  0
LINE
  5
4BD
100
AcDbEntity
  8
0
370
    -3
390
0
  6
Continuous
100
AcDbLine
 10
581.967056
 20
-444.986615
 30
0.0
 11
581.967056
 21
-425.986615
 31
0.0
  0
LINE
  5
4BE
100
AcDbEntity
  8
0
370
    -3
390
0
  6
Continuous
100
AcDbLine
 10
580.967056
 20
-445.986615
 30
0.0
 11
580.526083
 21
-445.986615
 31
0.0
  0
ARC
  5
4BF
100
AcDbEntity
  8
0
370
    -3
390
0
  6
Continuous
100
AcDbCircle
 10
580.967056
 20
-444.986615
 30
0.0
 40
1.0
100
AcDbArc
 50
270.0
 51
0.0
  0
ARC
  5
4C0
100
AcDbEntity
  8
0
370
    -3
390
0
  6
Continuous
100
AcDbCircle
 10
580.526083
 20
-446.986615
 30
0.0
 40
1.0
100
AcDbArc
 50
90.0
 51
170.31003
  0
POINT
  5
4C1
100
AcDbEntity
  8
0
370
    -3
390
0
  6
CENTER
100
AcDbPoint
 10
563.018011
 20
-515.918556
 30
0.0
  0
POINT
  5
4C2
100
AcDbEntity
  8
0
370
    -3
390
0
  6
CENTER
100
AcDbPoint
 10
549.71061
 20
-502.611155
 30
0.0
  0
ARC
  5
4C3
100
AcDbEntity
  8
0
370
    -3
390
0
  6
Continuous
100
AcDbCircle
 10
528.967056
 20
-305.986615
 30
0.0
 40
18.0
100
AcDbArc
 50
180.0
 51
270.0
  0
ARC
  5
4C4
100
AcDbEntity
  8
0
370
    -3
390
0
  6
Continuous
100
AcDbCircle
 10
586.967056
 20
-258.986615
 30
0.0
 40
6.0
100
AcDbArc
 50
180.0
 51
270.0
  0
CIRCLE
  5
4C5
100
AcDbEntity
  8
0
370
    -3
390
0
  6
Continuous
100
AcDbCircle
 10
420.967056
 20
-283.986615
 30
0.0
 40
65.0
  0
CIRCLE
  5
4C6
100
AcDbEntity
  8
0
370
    -3
390
0
  6
Continuous
100
AcDbCircle
 10
420.967056
 20
-283.986615
 30
0.0
 40
6.0
  0
CIRCLE
  5
4C7
100
AcDbEntity
  8
0
370
    -3
390
0
  6
Continuous
100
AcDbCircle
 10
420.967056
 20
-283.986615
 30
0.0
 40
5.0
  0
MTEXT
  5
4C9
100
AcDbEntity
  8
0
370
    -3
390
0
  6
Continuous
100
AcDbMText
 10
398.491943
 20
174.078979
 30
0.0
 40
16.0
 41
0.0
 71
     7
 72
     1
  1
\W0.83;三菱ギヤードモータ  
  7
ZU_SHPTB00001
 11
1.0
 21
0.0
 31
0.0
 73
     1
 44
1.0
  0
MTEXT
  5
4CA
100
AcDbEntity
  8
0
370
    -3
390
0
  6
Continuous
100
AcDbMText
 10
398.491943
 20
152.878983
 30
0.0
 40
16.0
 41
0.0
 71
     7
 72
     1
  1
\W0.60;GM-DP
  7
ZU_SHPTB00001
 11
1.0
 21
0.0
 31
0.0
 73
     1
 44
1.0
  0
MTEXT
  5
4CB
100
AcDbEntity
  8
0
370
    -3
390
0
  6
Continuous
100
AcDbMText
 10
398.491943
 20
131.678986
 30
0.0
 40
16.0
 41
0.0
 71
     7
 72
     1
  1
\W0.60;5.5(kW)
  7
ZU_SHPTB00001
 11
1.0
 21
0.0
 31
0.0
 73
     1
 44
1.0
  0
MTEXT
  5
4CC
100
AcDbEntity
  8
0
370
    -3
390
0
  6
Continuous
100
AcDbMText
 10
398.491943
 20
110.478981
 30
0.0
 40
16.0
 41
0.0
 71
     7
 72
     1
  1
\W0.60;1/60
  7
ZU_SHPTB00001
 11
1.0
 21
0.0
 31
0.0
 73
     1
 44
1.0
  0
MTEXT
  5
4CD
100
AcDbEntity
  8
0
370
    -3
390
0
  6
Continuous
100
AcDbMText
 10
398.491943
 20
89.278984
 30
0.0
 40
16.0
 41
0.0
 71
     7
 72
     1
  1
\W0.60;SCALE\W1.00; \W0.60;1/1
  7
ZU_SHPTB00001
 11
1.0
 21
0.0
 31
0.0
 73
     1
 44
1.0
  0
ENDSEC
  0
SECTION
  2
OBJECTS
  0
DICTIONARY
  5
19
100
AcDbDictionary
280
     0
281
     1
  3
ACAD_GROUP
350
1A
  3
ACAD_MLINESTYLE
350
1B
  3
ACAD_LAYOUT
350
1E
  3
ACAD_PLOTSETTINGS
350
22
  3
ACAD_PLOTSTYLENAME
350
1F
  3
ACAD_WIPEOUT_VARS
350
23
  3
DWGPROPS
350
4CE
  0
DICTIONARY
  5
1A
102
{ACAD_REACTORS
330
19
102
}
100
AcDbDictionary
280
     0
281
     1
  0
DICTIONARY
  5
1B
102
{ACAD_REACTORS
330
19
102
}
100
AcDbDictionary
280
     0
281
     1
  3
Standard
350
1C
  0
MLINESTYLE
  5
1C
102
{ACAD_REACTORS
330
1B
102
}
100
AcDbMlineStyle
  2
Standard
 70
     0
  3

 62
     0
 51
90.0
 52
90.0
 71
     2
 49
0.5
 62
   256
  6
ByLayer
 49
-0.5
 62
   256
  6
ByLayer
  0
ACDBDICTIONARYWDFLT
  5
1F
102
{ACAD_REACTORS
330
19
102
}
100
AcDbDictionary
281
     1
  3
Normal
350
1D
100
AcDbDictionaryWithDefault
340
1D
  0
ACDBPLACEHOLDER
  5
1D
102
{ACAD_REACTORS
330
1F
102
}
  0
LAYOUT
  5
20
102
{ACAD_REACTORS
330
1E
102
}
100
AcDbPlotSettings
  1

  2

  4

  6

 40
0.0
 41
0.0
 42
0.0
 43
0.0
 44
0.0
 45
0.0
 46
0.0
 47
0.0
 48
0.0
 49
0.0
140
0.0
141
0.0
142
1.0
143
1.0
 70
  1024
 72
     0
 73
     0
 74
     0
  7

 75
     0
147
1.0
148
0.0
149
0.0
100
AcDbLayout
  1
Model
 70
     0
 71
     0
 10
0.0
 20
0.0
 11
0.0
 21
0.0
 12
0.0
 22
0.0
 32
0.0
 14
0.0
 24
0.0
 34
0.0
 15
0.0
 25
0.0
 35
0.0
146
0.0
 13
0.0
 23
0.0
 33
0.0
 16
0.0
 26
0.0
 36
0.0
 17
0.0
 27
0.0
 37
0.0
 76
     0
330
A
331
0
345
0
346
0
  0
LAYOUT
  5
21
102
{ACAD_REACTORS
330
1E
102
}
100
AcDbPlotSettings
  1

  2

  4

  6

 40
0.0
 41
0.0
 42
0.0
 43
0.0
 44
0.0
 45
0.0
 46
0.0
 47
0.0
 48
0.0
 49
0.0
140
0.0
141
0.0
142
1.0
143
1.0
 70
     0
 72
     0
 73
     0
 74
     0
  7

 75
     0
147
1.0
148
0.0
149
0.0
100
AcDbLayout
  1
Layout1
 70
     0
 71
     0
 10
0.0
 20
0.0
 11
0.0
 21
0.0
 12
0.0
 22
0.0
 32
0.0
 14
0.0
 24
0.0
 34
0.0
 15
0.0
 25
0.0
 35
0.0
146
0.0
 13
0.0
 23
0.0
 33
0.0
 16
0.0
 26
0.0
 36
0.0
 17
0.0
 27
0.0
 37
0.0
 76
     0
330
B
331
0
345
0
346
0
  0
DICTIONARY
  5
1E
102
{ACAD_REACTORS
330
19
102
}
100
AcDbDictionary
280
     0
281
     1
  3
Layout1
350
21
  3
Model
350
20
  0
DICTIONARY
  5
22
102
{ACAD_REACTORS
330
19
102
}
100
AcDbDictionary
280
     0
281
     1
  0
WIPEOUTVARIABLES
  5
23
100
AcDbWipeoutVariables
 70
     1
  0
XRECORD
  5
4CE
100
AcDbXrecord
280
     1
  1
DWGPROPS COOKIE
  2

  3

  4

  6

  7

  8
YP81315
  9

300
=
301
=
302
=
303
=
304
=
305
=
306
=
307
=
308
=
309
=
 40
0.0
 41
2456812.581898
 42
2456812.581898
  1

 90
        0
  0
ENDSEC
  0
EOF
