  0
SECTION
  2
HEADER
  9
$ACADVER
  1
AC1015
  9
$ACADMAINTVER
 70
     6
  9
$DWGCODEPAGE
  3
ANSI_932
  9
$INSBASE
 10
0.0
 20
0.0
 30
0.0
  9
$EXTMIN
 10
1.000000E+20
 20
1.000000E+20
 30
1.000000E+20
  9
$EXTMAX
 10
-1.000000E+20
 20
-1.000000E+20
 30
-1.000000E+20
  9
$LIMMIN
 10
0.0
 20
0.0
  9
$LIMMAX
 10
0.0
 20
0.0
  9
$ORTHOMODE
 70
     0
  9
$REGENMODE
 70
     1
  9
$FILLMODE
 70
     1
  9
$QTEXTMODE
 70
     0
  9
$MIRRTEXT
 70
     1
  9
$LTSCALE
 40
1.0
  9
$ATTMODE
 70
     1
  9
$TEXTSIZE
 40
3.3
  9
$TRACEWID
 40
0.05
  9
$TEXTSTYLE
  7
Standard
  9
$CLAYER
  8
0
  9
$CELTYPE
  6
Continuous
  9
$CECOLOR
 62
   256
  9
$CELTSCALE
 40
1.0
  9
$DISPSILH
 70
     0
  9
$DIMSCALE
 40
1.0
  9
$DIMASZ
 40
1.931852
  9
$DIMEXO
 40
1.0
  9
$DIMDLI
 40
0.38
  9
$DIMRND
 40
0.0
  9
$DIMDLE
 40
0.0
  9
$DIMEXE
 40
2.0
  9
$DIMTP
 40
0.0
  9
$DIMTM
 40
0.0
  9
$DIMTXT
 40
3.2
  9
$DIMCEN
 40
0.09
  9
$DIMTSZ
 40
0.0
  9
$DIMTOL
 70
     0
  9
$DIMLIM
 70
     0
  9
$DIMTIH
 70
     1
  9
$DIMTOH
 70
     1
  9
$DIMSE1
 70
     0
  9
$DIMSE2
 70
     0
  9
$DIMTAD
 70
     1
  9
$DIMZIN
 70
     0
  9
$DIMBLK
  1

  9
$DIMASO
 70
     1
  9
$DIMSHO
 70
     1
  9
$DIMPOST
  1

  9
$DIMAPOST
  1

  9
$DIMALT
 70
     0
  9
$DIMALTD
 70
     2
  9
$DIMALTF
 40
25.4
  9
$DIMLFAC
 40
1.0
  9
$DIMTOFL
 70
     0
  9
$DIMTVP
 40
0.0
  9
$DIMTIX
 70
     0
  9
$DIMSOXD
 70
     0
  9
$DIMSAH
 70
     0
  9
$DIMBLK1
  1

  9
$DIMBLK2
  1

  9
$DIMSTYLE
  2
Standard
  9
$DIMCLRD
 70
     0
  9
$DIMCLRE
 70
     0
  9
$DIMCLRT
 70
     0
  9
$DIMTFAC
 40
0.714286
  9
$DIMGAP
 40
0.09
  9
$DIMJUST
 70
     0
  9
$DIMSD1
 70
     0
  9
$DIMSD2
 70
     0
  9
$DIMTOLJ
 70
     1
  9
$DIMTZIN
 70
     0
  9
$DIMALTZ
 70
     0
  9
$DIMALTTZ
 70
     0
  9
$DIMUPT
 70
     0
  9
$DIMDEC
 70
     4
  9
$DIMTDEC
 70
     4
  9
$DIMALTU
 70
     2
  9
$DIMALTTD
 70
     2
  9
$DIMTXSTY
  7
Standard
  9
$DIMAUNIT
 70
     0
  9
$DIMADEC
 70
     0
  9
$DIMALTRND
 40
0.0
  9
$DIMAZIN
 70
     0
  9
$DIMDSEP
 70
     0
  9
$DIMATFIT
 70
     3
  9
$DIMFRAC
 70
     0
  9
$DIMLDRBLK
  1

  9
$DIMLUNIT
 70
     2
  9
$DIMLWD
 70
     0
  9
$DIMLWE
 70
     0
  9
$DIMTMOVE
 70
     0
  9
$LUNITS
 70
     2
  9
$LUPREC
 70
     3
  9
$SKETCHINC
 40
0.1
  9
$FILLETRAD
 40
0.0
  9
$AUNITS
 70
     0
  9
$AUPREC
 70
     0
  9
$MENU
  1
acad
  9
$ELEVATION
 40
0.0
  9
$PELEVATION
 40
0.0
  9
$THICKNESS
 40
0.0
  9
$LIMCHECK
 70
     0
  9
$CHAMFERA
 40
0.0
  9
$CHAMFERB
 40
0.0
  9
$CHAMFERC
 40
0.0
  9
$CHAMFERD
 40
0.0
  9
$SKPOLY
 70
     0
  9
$TDCREATE
 40
0.000000000
  9
$TDUCREATE
 40
0.000000000
  9
$TDUPDATE
 40
0.000000000
  9
$TDUUPDATE
 40
0.000000000
  9
$TDINDWG
 40
0.0000000000
  9
$TDUSRTIMER
 40
0.0000000000
  9
$USRTIMER
 70
     1
  9
$ANGBASE
 50
0.0
  9
$ANGDIR
 70
     0
  9
$PDMODE
 70
     0
  9
$PDSIZE
 40
0.0
  9
$PLINEWID
 40
0.0
  9
$SPLFRAME
 70
     0
  9
$SPLINETYPE
 70
     6
  9
$SPLINESEGS
 70
     8
  9
$HANDSEED
  5
502
  9
$SURFTAB1
 70
     6
  9
$SURFTAB2
 70
     6
  9
$SURFTYPE
 70
     6
  9
$SURFU
 70
     6
  9
$SURFV
 70
     6
  9
$UCSBASE
  2

  9
$UCSNAME
  2

  9
$UCSORG
 10
0.0
 20
0.0
 30
0.0
  9
$UCSXDIR
 10
1.0
 20
0.0
 30
0.0
  9
$UCSYDIR
 10
0.0
 20
1.0
 30
0.0
  9
$UCSORTHOREF
  2

  9
$UCSORTHOVIEW
 70
     0
  9
$UCSORGTOP
 10
0.0
 20
0.0
 30
0.0
  9
$UCSORGBOTTOM
 10
0.0
 20
0.0
 30
0.0
  9
$UCSORGLEFT
 10
0.0
 20
0.0
 30
0.0
  9
$UCSORGRIGHT
 10
0.0
 20
0.0
 30
0.0
  9
$UCSORGFRONT
 10
0.0
 20
0.0
 30
0.0
  9
$UCSORGBACK
 10
0.0
 20
0.0
 30
0.0
  9
$PUCSBASE
  2

  9
$PUCSNAME
  2

  9
$PUCSORG
 10
0.0
 20
0.0
 30
0.0
  9
$PUCSXDIR
 10
1.0
 20
0.0
 30
0.0
  9
$PUCSYDIR
 10
0.0
 20
1.0
 30
0.0
  9
$PUCSORTHOREF
  2

  9
$PUCSORTHOVIEW
 70
     0
  9
$PUCSORGTOP
 10
0.0
 20
0.0
 30
0.0
  9
$PUCSORGBOTTOM
 10
0.0
 20
0.0
 30
0.0
  9
$PUCSORGLEFT
 10
0.0
 20
0.0
 30
0.0
  9
$PUCSORGRIGHT
 10
0.0
 20
0.0
 30
0.0
  9
$PUCSORGFRONT
 10
0.0
 20
0.0
 30
0.0
  9
$PUCSORGBACK
 10
0.0
 20
0.0
 30
0.0
  9
$USERI1
 70
     0
  9
$USERI2
 70
     0
  9
$USERI3
 70
     0
  9
$USERI4
 70
     0
  9
$USERI5
 70
     0
  9
$USERR1
 40
0.0
  9
$USERR2
 40
0.0
  9
$USERR3
 40
0.0
  9
$USERR4
 40
0.0
  9
$USERR5
 40
0.0
  9
$WORLDVIEW
 70
     1
  9
$SHADEDGE
 70
     3
  9
$SHADEDIF
 70
    70
  9
$TILEMODE
 70
     1
  9
$MAXACTVP
 70
    16
  9
$PINSBASE
 10
0.0
 20
0.0
 30
0.0
  9
$PLIMCHECK
 70
     0
  9
$PEXTMIN
 10
1.000000E+20
 20
1.000000E+20
 30
1.000000E+20
  9
$PEXTMAX
 10
-1.000000E+20
 20
-1.000000E+20
 30
-1.000000E+20
  9
$PLIMMIN
 10
0.0
 20
0.0
  9
$PLIMMAX
 10
12.0
 20
9.0
  9
$UNITMODE
 70
     0
  9
$VISRETAIN
 70
     0
  9
$PLINEGEN
 70
     1
  9
$PSLTSCALE
 70
     0
  9
$TREEDEPTH
 70
  3020
  9
$CMLSTYLE
  2
Standard
  9
$CMLJUST
 70
     0
  9
$CMLSCALE
 40
1.0
  9
$PROXYGRAPHICS
 70
     0
  9
$MEASUREMENT
 70
     0
  9
$CELWEIGHT
370
     0
  9
$ENDCAPS
280
     0
  9
$JOINSTYLE
280
     0
  9
$LWDISPLAY
290
     0
  9
$INSUNITS
 70
     0
  9
$HYPERLINKBASE
  1

  9
$STYLESHEET
  1

  9
$XEDIT
290
     1
  9
$CEPSNTYPE
380
     0
  9
$PSTYLEMODE
290
     1
  9
$FINGERPRINTGUID
  2

  9
$VERSIONGUID
  2

  9
$EXTNAMES
290
     1
  9
$PSVPSCALE
 40
0.0
  0
ENDSEC
  0
SECTION
  2
CLASSES
  0
CLASS
  1
LWPOLYLINE
  2
AcDbPolyline
  3
AutoCAD 2000
 90
        0
280
     0
281
     1
  0
CLASS
  1
IMAGE
  2
AcDbRasterImage
  3
ISM
 90
      127
280
     0
281
     1
  0
CLASS
  1
OLE2FRAME
  2
AcDbOle2Frame
  3
AutoCAD 2000
 90
        0
280
     0
281
     1
  0
CLASS
  1
HATCH
  2
AcDbHatch
  3
AutoCAD 2000
 90
        0
280
     0
281
     1
  0
CLASS
  1
DICTIONARYVAR
  2
AcDbDictionaryVar
  3
AutoCAD 2000
 90
        0
280
     0
281
     0
  0
CLASS
  1
RASTERVARIABLES
  2
AcDbRasterVariables
  3
ISM
 90
        0
280
     0
281
     0
  0
CLASS
  1
IMAGEDEF
  2
AcDbRasterImageDef
  3
ISM
 90
        0
280
     0
281
     0
  0
CLASS
  1
IMAGEDEF_REACTOR
  2
AcDbRasterImageDefReactor
  3
ISM
 90
        1
280
     0
281
     0
  0
CLASS
  1
IDBUFFER
  2
AcDbIdBuffer
  3
AutoCAD 2000
 90
        0
280
     0
281
     0
  0
CLASS
  1
SPATIAL_FILTER
  2
AcDbSpatialFilter
  3
AutoCAD 2000
 90
        0
280
     0
281
     0
  0
CLASS
  1
XRECORD
  2
AcDbXrecord
  3
AutoCAD 2000
 90
        0
280
     0
281
     0
  0
CLASS
  1
SORTENTSTABLE
  2
AcDbSortentsTable
  3
AutoCAD 2000
 90
        0
280
     0
281
     0
  0
CLASS
  1
LAYER_INDEX
  2
AcDbLayerIndex
  3
AutoCAD 2000
 90
        0
280
     0
281
     0
  0
CLASS
  1
SPATIAL_INDEX
  2
AcDbSpatialIndex
  3
AutoCAD 2000
 90
        0
280
     0
281
     0
  0
CLASS
  1
OBJECT_PTR
  2
CAseDLPNTableRecord
  3
"ASE-LPNTableRecord"
 90
        1
280
     0
281
     0
  0
CLASS
  1
LAYOUT
  2
AcDbLayout
  3
AutoCAD 2000
 90
        0
280
     0
281
     0
  0
CLASS
  1
PLOTSETTINGS
  2
AcDbPlotSettings
  3
AutoCAD 2000
 90
        0
280
     0
281
     0
  0
CLASS
  1
ACDBDICTIONARYWDFLT
  2
AcDbDictionaryWithDefault
  3
AutoCAD 2000
 90
        0
280
     0
281
     0
  0
CLASS
  1
ACDBPLACEHOLDER
  2
AcDbPlaceHolder
  3
AutoCAD 2000
 90
        0
280
     0
281
     0
  0
CLASS
  1
VBA_PROJECT
  2
AcDbVbaProject
  3
acadvba
 90
        0
280
     0
281
     0
  0
CLASS
  1
WIPEOUT
  2
AcDbWipeout
  3
WipeOut|AutoCAD Express Tool|expresstools@autodesk.com
 90
      127
280
     0
281
     1
  0
CLASS
  1
WIPEOUTVARIABLES
  2
AcDbWipeoutVariables
  3
WipeOut|AutoCAD Express Tool|expresstools@autodesk.com
 90
        0
280
     0
281
     0
  0
CLASS
  1
RTEXT
  2
RText
  3
RText|AutoCAD Express Tool|expresstools@autodesk.com
 90
        0
280
     0
281
     1
  0
CLASS
  1
ARCALIGNEDTEXT
  2
AcDbArcAlignedText
  3
ATEXT|AutoCAD Express Tool|expresstools@autodesk.com
 90
        0
280
     0
281
     1
  0
ENDSEC
  0
SECTION
  2
TABLES
  0
TABLE
  2
VPORT
  5
7
100
AcDbSymbolTable
 70
     1
  0
VPORT
  5
15
100
AcDbSymbolTableRecord
100
AcDbViewportTableRecord
  2
*ACTIVE
 70
     0
 10
0.0
 20
0.0
 11
1.0
 21
1.0
 12
0.0
 22
0.0
 13
0.0
 23
0.0
 14
1.0
 24
1.0
 15
0.0
 25
0.0
 16
0.0
 26
0.0
 36
1.0
 17
0.0
 27
0.0
 37
0.0
 40
100.0
 41
1.0
 42
50.0
 43
0.0
 44
0.0
 50
0.0
 51
0.0
 71
     0
 72
   100
 73
     1
 74
     1
 75
     0
 76
     0
 77
     0
 78
     0
281
     0
 65
     0
110
0.0
120
0.0
130
0.0
111
1.0
121
0.0
131
0.0
112
0.0
122
1.0
132
0.0
345
0
346
0
 79
     0
146
0.0
  0
ENDTAB
  0
TABLE
  2
LTYPE
  5
4
100
AcDbSymbolTable
 70
     7
  0
LTYPE
  5
11
100
AcDbSymbolTableRecord
100
AcDbLinetypeTableRecord
  2
ByBlock
 70
    64
  3

 72
    65
 73
     0
 40
0.0
  0
LTYPE
  5
12
100
AcDbSymbolTableRecord
100
AcDbLinetypeTableRecord
  2
ByLayer
 70
    64
  3

 72
    65
 73
     0
 40
0.0
  0
LTYPE
  5
13
100
AcDbSymbolTableRecord
100
AcDbLinetypeTableRecord
  2
Continuous
 70
    64
  3
Solid line
 72
    65
 73
     0
 40
0.0
  0
LTYPE
  5
24
100
AcDbSymbolTableRecord
100
AcDbLinetypeTableRecord
  2
DASHED
 70
    64
  3
Dashed __ __ __ __ __ __ __ __ __ __ __ __ __ _
 72
    65
 73
     2
 40
0.75
 49
0.5
 74
     0
 49
-0.25
 74
     0
  0
LTYPE
  5
25
100
AcDbSymbolTableRecord
100
AcDbLinetypeTableRecord
  2
CENTER
 70
    64
  3
Center ____ _ ____ _ ____ _ ____ _ ____ _ ____
 72
    65
 73
     4
 40
1.0
 49
0.5
 74
     0
 49
-0.25
 74
     0
 49
0.0
 74
     0
 49
-0.25
 74
     0
  0
LTYPE
  5
26
100
AcDbSymbolTableRecord
100
AcDbLinetypeTableRecord
  2
DIVIDE
 70
    64
  3
Divide ____ . . ____ . . ____ . . ____ . . ____
 72
    65
 73
     6
 40
1.25
 49
0.5
 74
     0
 49
-0.25
 74
     0
 49
0.0
 74
     0
 49
-0.25
 74
     0
 49
0.0
 74
     0
 49
-0.25
 74
     0
  0
LTYPE
  5
27
100
AcDbSymbolTableRecord
100
AcDbLinetypeTableRecord
  2
PHANTOM
 70
    64
  3
Phantom ______  __  __  ______  __  __  ______
 72
    65
 73
     6
 40
9.0
 49
4.3
 74
     0
 49
-0.7
 74
     0
 49
1.3
 74
     0
 49
-0.7
 74
     0
 49
1.3
 74
     0
 49
-0.7
 74
     0
  0
ENDTAB
  0
TABLE
  2
LAYER
  5
2
100
AcDbSymbolTable
 70
     3
  0
LAYER
  5
14
100
AcDbSymbolTableRecord
100
AcDbLayerTableRecord
  2
0
 70
    64
 62
   102
  6
Continuous
290
     1
370
    -3
390
1D
  0
LAYER
  5
28
100
AcDbSymbolTableRecord
100
AcDbLayerTableRecord
  2
1
 70
    64
 62
    42
  6
Continuous
290
     1
370
    -3
390
1D
  0
LAYER
  5
29
100
AcDbSymbolTableRecord
100
AcDbLayerTableRecord
  2
100
 70
    64
 62
    -3
  6
Continuous
290
     0
370
    -3
390
1D
  0
ENDTAB
  0
TABLE
  2
STYLE
  5
3
100
AcDbSymbolTable
 70
     2
  0
STYLE
  5
17
100
AcDbSymbolTableRecord
100
AcDbTextStyleTableRecord
  2
Standard
 70
     0
 40
0.0
 41
1.0
 50
0.0
 71
     0
 42
0.0
  3
txt
  4

  0
STYLE
  5
198
100
AcDbSymbolTableRecord
100
AcDbTextStyleTableRecord
  2
ZU_SHPTB00001
 70
     0
 40
0.0
 41
1.0
 50
0.0
 71
     0
 42
0.0
  3
monotxt
  4
bigfont
  0
ENDTAB
  0
TABLE
  2
VIEW
  5
5
100
AcDbSymbolTable
 70
     0
  0
ENDTAB
  0
TABLE
  2
UCS
  5
6
100
AcDbSymbolTable
 70
     0
  0
ENDTAB
  0
TABLE
  2
APPID
  5
8
100
AcDbSymbolTable
 70
     1
  0
APPID
  5
16
100
AcDbSymbolTableRecord
100
AcDbRegAppTableRecord
  2
ACAD
 70
     0
  0
ENDTAB
  0
TABLE
  2
DIMSTYLE
  5
9
100
AcDbSymbolTable
 70
     1
100
AcDbDimStyleTable
 71
     0
  0
DIMSTYLE
105
18
100
AcDbSymbolTableRecord
100
AcDbDimStyleTableRecord
  2
Standard
 70
     0
  3

  4

 40
1.0
 41
0.18
 42
0.0625
 43
0.38
 44
0.18
 45
0.0
 46
0.0
 47
0.0
 48
0.0
 71
     0
 72
     0
 73
     1
 74
     1
 75
     0
 76
     0
 77
     0
 78
     0
 79
     0
140
0.18
141
0.09
142
0.0
143
25.4
144
1.0
145
0.0
146
1.0
147
0.09
148
0.0
170
     0
171
     2
172
     0
173
     0
174
     0
175
     0
176
     0
177
     0
178
     0
179
     0
271
     4
272
     4
273
     2
274
     2
275
     0
276
     0
277
     2
278
    46
279
     0
280
     0
281
     0
282
     0
283
     1
284
     0
285
     0
286
     0
288
     0
289
     3
340
17
341
0
342
0
343
0
344
0
371
    -2
372
    -2
  0
ENDTAB
  0
TABLE
  2
BLOCK_RECORD
  5
1
100
AcDbSymbolTable
 70
    18
  0
BLOCK_RECORD
  5
A
100
AcDbSymbolTableRecord
100
AcDbBlockTableRecord
  2
*MODEL_SPACE
340
20
  0
BLOCK_RECORD
  5
B
100
AcDbSymbolTableRecord
100
AcDbBlockTableRecord
  2
*PAPER_SPACE
340
21
  0
BLOCK_RECORD
  5
D9
100
AcDbSymbolTableRecord
100
AcDbBlockTableRecord
  2
ZU_SYM__USERS_HOME_SYMBOL_POO_SYM_B20_18
340
0
102
{BLKREFS
331
E4
102
}
  0
BLOCK_RECORD
  5
E5
100
AcDbSymbolTableRecord
100
AcDbBlockTableRecord
  2
ZU_SYM__USERS_HOME_SYMBOL_POO_SYM_B20_0000118
340
0
102
{BLKREFS
331
F0
102
}
  0
BLOCK_RECORD
  5
F1
100
AcDbSymbolTableRecord
100
AcDbBlockTableRecord
  2
ZU_SYM__USERS_HOME_SYMBOL_POO_SYM_B20_0000218
340
0
102
{BLKREFS
331
FC
102
}
  0
BLOCK_RECORD
  5
212
100
AcDbSymbolTableRecord
100
AcDbBlockTableRecord
  2
ZU_SYM__USERS_HOME_SYMBOL_POO_SYM_S07_15
340
0
102
{BLKREFS
331
21D
102
}
  0
BLOCK_RECORD
  5
21E
100
AcDbSymbolTableRecord
100
AcDbBlockTableRecord
  2
ZU_SYM__USERS_HOME_SYMBOL_POO_SYM_S07_0000315
340
0
102
{BLKREFS
331
229
102
}
  0
BLOCK_RECORD
  5
22A
100
AcDbSymbolTableRecord
100
AcDbBlockTableRecord
  2
ZU_SYM__USERS_HOME_SYMBOL_POO_SYM_S07_0000415
340
0
102
{BLKREFS
331
235
102
}
  0
BLOCK_RECORD
  5
236
100
AcDbSymbolTableRecord
100
AcDbBlockTableRecord
  2
ZU_SYM__USERS_HOME_SYMBOL_POO_SYM_S07_0000515
340
0
102
{BLKREFS
331
241
102
}
  0
BLOCK_RECORD
  5
342
100
AcDbSymbolTableRecord
100
AcDbBlockTableRecord
  2
ZU_SYM__USERS_HOME_SYMBOL_POO_SYM_B20_05
340
0
102
{BLKREFS
331
34E
102
}
  0
BLOCK_RECORD
  5
34F
100
AcDbSymbolTableRecord
100
AcDbBlockTableRecord
  2
ZU_SYM__USERS_HOME_SYMBOL_POO_SYM_B20_0000605
340
0
102
{BLKREFS
331
35B
102
}
  0
BLOCK_RECORD
  5
35C
100
AcDbSymbolTableRecord
100
AcDbBlockTableRecord
  2
ZU_SYM__USERS_HOME_SYMBOL_POO_SYM_B20_0000705
340
0
102
{BLKREFS
331
368
102
}
  0
BLOCK_RECORD
  5
369
100
AcDbSymbolTableRecord
100
AcDbBlockTableRecord
  2
ZU_SYM__USERS_HOME_SYMBOL_POO_SYM_B20_0000805
340
0
102
{BLKREFS
331
375
102
}
  0
BLOCK_RECORD
  5
376
100
AcDbSymbolTableRecord
100
AcDbBlockTableRecord
  2
ZU_SYM__USERS_HOME_SYMBOL_POO_SYM_B20_0000905
340
0
102
{BLKREFS
331
382
102
}
  0
BLOCK_RECORD
  5
383
100
AcDbSymbolTableRecord
100
AcDbBlockTableRecord
  2
ZU_SYM__USERS_HOME_SYMBOL_POO_SYM_B20_0001005
340
0
102
{BLKREFS
331
38F
102
}
  0
BLOCK_RECORD
  5
390
100
AcDbSymbolTableRecord
100
AcDbBlockTableRecord
  2
ZU_SYM__USERS_HOME_SYMBOL_POO_SYM_B20_0001105
340
0
102
{BLKREFS
331
39C
102
}
  0
BLOCK_RECORD
  5
3E8
100
AcDbSymbolTableRecord
100
AcDbBlockTableRecord
  2
ZU_SYM__USERS_HOME_SYMBOL_POO_SYM_B20_0001218
340
0
102
{BLKREFS
331
3F3
102
}
  0
BLOCK_RECORD
  5
3F4
100
AcDbSymbolTableRecord
100
AcDbBlockTableRecord
  2
ZU_SYM__USERS_HOME_SYMBOL_POO_SYM_B20_0001318
340
0
102
{BLKREFS
331
3FF
102
}
  0
BLOCK_RECORD
  5
400
100
AcDbSymbolTableRecord
100
AcDbBlockTableRecord
  2
ZU_SYM__USERS_HOME_SYMBOL_POO_SYM_B20_0001418
340
0
102
{BLKREFS
331
40B
102
}
  0
BLOCK_RECORD
  5
40C
100
AcDbSymbolTableRecord
100
AcDbBlockTableRecord
  2
ZU_SYM__USERS_HOME_SYMBOL_POO_SYM_B20_0001518
340
0
102
{BLKREFS
331
417
102
}
  0
ENDTAB
  0
ENDSEC
  0
SECTION
  2
BLOCKS
  0
BLOCK
  5
D
100
AcDbEntity
  8
0
390
0
100
AcDbBlockBegin
  2
*MODEL_SPACE
 70
     0
 10
0.0
 20
0.0
 30
0.0
  3
*MODEL_SPACE
  1

  0
ENDBLK
  5
E
100
AcDbEntity
  8
0
390
0
100
AcDbBlockEnd
  0
BLOCK
  5
F
100
AcDbEntity
 67
     1
  8
0
390
0
100
AcDbBlockBegin
  2
*PAPER_SPACE
 70
     0
 10
0.0
 20
0.0
 30
0.0
  3
*PAPER_SPACE
  1

  0
ENDBLK
  5
10
100
AcDbEntity
 67
     1
  8
0
390
0
100
AcDbBlockEnd
  0
BLOCK
  5
DA
100
AcDbEntity
  8
0
390
0
100
AcDbBlockBegin
  2
ZU_SYM__USERS_HOME_SYMBOL_POO_SYM_B20_18
 70
    64
 10
0.0
 20
0.0
 30
0.0
  3
ZU_SYM__USERS_HOME_SYMBOL_POO_SYM_B20_18
  1

  0
POINT
  5
DB
100
AcDbEntity
  8
0
370
    -3
390
0
  6
Continuous
100
AcDbPoint
 10
0.0
 20
0.0
 30
0.0
  0
LINE
  5
DC
100
AcDbEntity
  8
0
370
    -3
390
0
  6
Continuous
100
AcDbLine
 10
0.0
 20
-6.5
 30
0.0
 11
0.0
 21
6.5
 31
0.0
  0
LINE
  5
DD
100
AcDbEntity
  8
0
370
    -3
390
0
  6
Continuous
100
AcDbLine
 10
-7.999999
 20
5.633876
 30
0.0
 11
-7.999999
 21
-5.63407
 31
0.0
  0
LINE
  5
DE
100
AcDbEntity
  8
0
370
    -3
390
0
  6
Continuous
100
AcDbLine
 10
0.0
 20
6.5
 30
0.0
 11
-7.499999
 21
6.5
 31
0.0
  0
LINE
  5
DF
100
AcDbEntity
  8
0
370
    -3
390
0
  6
Continuous
100
AcDbLine
 10
0.0
 20
-6.5
 30
0.0
 11
-7.499998
 21
-6.5
 31
0.0
  0
LINE
  5
E0
100
AcDbEntity
  8
0
370
    -3
390
0
  6
Continuous
100
AcDbLine
 10
-7.499999
 20
6.5
 30
0.0
 11
-7.999999
 21
5.633876
 31
0.0
  0
LINE
  5
E1
100
AcDbEntity
  8
0
370
    -3
390
0
  6
Continuous
100
AcDbLine
 10
-7.499998
 20
-6.499999
 30
0.0
 11
-7.999999
 21
-5.63407
 31
0.0
  0
LINE
  5
E2
100
AcDbEntity
  8
0
370
    -3
390
0
  6
Continuous
100
AcDbLine
 10
-7.499999
 20
6.5
 30
0.0
 11
-7.499999
 21
-6.5
 31
0.0
  0
ENDBLK
  5
E3
100
AcDbEntity
  8
0
390
0
100
AcDbBlockEnd
  0
BLOCK
  5
E6
100
AcDbEntity
  8
0
390
0
100
AcDbBlockBegin
  2
ZU_SYM__USERS_HOME_SYMBOL_POO_SYM_B20_0000118
 70
    64
 10
0.0
 20
0.0
 30
0.0
  3
ZU_SYM__USERS_HOME_SYMBOL_POO_SYM_B20_0000118
  1

  0
POINT
  5
E7
100
AcDbEntity
  8
0
370
    -3
390
0
  6
Continuous
100
AcDbPoint
 10
0.0
 20
0.0
 30
0.0
  0
LINE
  5
E8
100
AcDbEntity
  8
0
370
    -3
390
0
  6
Continuous
100
AcDbLine
 10
0.0
 20
-6.5
 30
0.0
 11
0.0
 21
6.5
 31
0.0
  0
LINE
  5
E9
100
AcDbEntity
  8
0
370
    -3
390
0
  6
Continuous
100
AcDbLine
 10
-7.999999
 20
5.633876
 30
0.0
 11
-7.999999
 21
-5.63407
 31
0.0
  0
LINE
  5
EA
100
AcDbEntity
  8
0
370
    -3
390
0
  6
Continuous
100
AcDbLine
 10
0.0
 20
6.5
 30
0.0
 11
-7.499999
 21
6.5
 31
0.0
  0
LINE
  5
EB
100
AcDbEntity
  8
0
370
    -3
390
0
  6
Continuous
100
AcDbLine
 10
0.0
 20
-6.5
 30
0.0
 11
-7.499998
 21
-6.5
 31
0.0
  0
LINE
  5
EC
100
AcDbEntity
  8
0
370
    -3
390
0
  6
Continuous
100
AcDbLine
 10
-7.499999
 20
6.5
 30
0.0
 11
-7.999999
 21
5.633876
 31
0.0
  0
LINE
  5
ED
100
AcDbEntity
  8
0
370
    -3
390
0
  6
Continuous
100
AcDbLine
 10
-7.499998
 20
-6.499999
 30
0.0
 11
-7.999999
 21
-5.63407
 31
0.0
  0
LINE
  5
EE
100
AcDbEntity
  8
0
370
    -3
390
0
  6
Continuous
100
AcDbLine
 10
-7.499999
 20
6.5
 30
0.0
 11
-7.499999
 21
-6.5
 31
0.0
  0
ENDBLK
  5
EF
100
AcDbEntity
  8
0
390
0
100
AcDbBlockEnd
  0
BLOCK
  5
F2
100
AcDbEntity
  8
0
390
0
100
AcDbBlockBegin
  2
ZU_SYM__USERS_HOME_SYMBOL_POO_SYM_B20_0000218
 70
    64
 10
0.0
 20
0.0
 30
0.0
  3
ZU_SYM__USERS_HOME_SYMBOL_POO_SYM_B20_0000218
  1

  0
POINT
  5
F3
100
AcDbEntity
  8
0
370
    -3
390
0
  6
Continuous
100
AcDbPoint
 10
0.0
 20
0.0
 30
0.0
  0
LINE
  5
F4
100
AcDbEntity
  8
0
370
    -3
390
0
  6
Continuous
100
AcDbLine
 10
0.0
 20
-6.5
 30
0.0
 11
0.0
 21
6.5
 31
0.0
  0
LINE
  5
F5
100
AcDbEntity
  8
0
370
    -3
390
0
  6
Continuous
100
AcDbLine
 10
-7.999999
 20
5.633876
 30
0.0
 11
-7.999999
 21
-5.63407
 31
0.0
  0
LINE
  5
F6
100
AcDbEntity
  8
0
370
    -3
390
0
  6
Continuous
100
AcDbLine
 10
0.0
 20
6.5
 30
0.0
 11
-7.499999
 21
6.5
 31
0.0
  0
LINE
  5
F7
100
AcDbEntity
  8
0
370
    -3
390
0
  6
Continuous
100
AcDbLine
 10
0.0
 20
-6.5
 30
0.0
 11
-7.499998
 21
-6.5
 31
0.0
  0
LINE
  5
F8
100
AcDbEntity
  8
0
370
    -3
390
0
  6
Continuous
100
AcDbLine
 10
-7.499999
 20
6.5
 30
0.0
 11
-7.999999
 21
5.633876
 31
0.0
  0
LINE
  5
F9
100
AcDbEntity
  8
0
370
    -3
390
0
  6
Continuous
100
AcDbLine
 10
-7.499998
 20
-6.499999
 30
0.0
 11
-7.999999
 21
-5.63407
 31
0.0
  0
LINE
  5
FA
100
AcDbEntity
  8
0
370
    -3
390
0
  6
Continuous
100
AcDbLine
 10
-7.499999
 20
6.5
 30
0.0
 11
-7.499999
 21
-6.5
 31
0.0
  0
ENDBLK
  5
FB
100
AcDbEntity
  8
0
390
0
100
AcDbBlockEnd
  0
BLOCK
  5
213
100
AcDbEntity
  8
0
390
0
100
AcDbBlockBegin
  2
ZU_SYM__USERS_HOME_SYMBOL_POO_SYM_S07_15
 70
    64
 10
0.0
 20
0.0
 30
0.0
  3
ZU_SYM__USERS_HOME_SYMBOL_POO_SYM_S07_15
  1

  0
ARC
  5
214
100
AcDbEntity
  8
0
370
    -3
390
0
  6
Continuous
100
AcDbCircle
 10
6.4
 20
0.0
 30
0.0
 40
9.0
100
AcDbArc
 50
163.398452
 51
196.601531
  0
POINT
  5
215
100
AcDbEntity
  8
0
370
    -3
390
0
  6
Continuous
100
AcDbPoint
 10
0.0
 20
0.0
 30
0.0
  0
LINE
  5
216
100
AcDbEntity
  8
0
370
    -3
390
0
  6
Continuous
100
AcDbLine
 10
0.0
 20
-3.5
 30
0.0
 11
0.0
 21
3.5
 31
0.0
  0
LINE
  5
217
100
AcDbEntity
  8
0
370
    -3
390
0
  6
Continuous
100
AcDbLine
 10
0.0
 20
-3.5
 30
0.0
 11
0.0
 21
3.5
 31
0.0
  0
LINE
  5
218
100
AcDbEntity
  8
0
370
    -3
390
0
  6
Continuous
100
AcDbLine
 10
0.0
 20
3.5
 30
0.0
 11
-0.979025
 21
3.5
 31
0.0
  0
LINE
  5
219
100
AcDbEntity
  8
0
370
    -3
390
0
  6
Continuous
100
AcDbLine
 10
0.0
 20
-3.5
 30
0.0
 11
-0.979025
 21
-3.5
 31
0.0
  0
ARC
  5
21A
100
AcDbEntity
  8
0
370
    -3
390
0
  6
Continuous
100
AcDbCircle
 10
-0.979025
 20
2.200001
 30
0.0
 40
1.299999
100
AcDbArc
 50
90.0
 51
163.398452
  0
ARC
  5
21B
100
AcDbEntity
  8
0
370
    -3
390
0
  6
Continuous
100
AcDbCircle
 10
-0.979025
 20
-2.200001
 30
0.0
 40
1.299999
100
AcDbArc
 50
196.601531
 51
270.0
  0
ENDBLK
  5
21C
100
AcDbEntity
  8
0
390
0
100
AcDbBlockEnd
  0
BLOCK
  5
21F
100
AcDbEntity
  8
0
390
0
100
AcDbBlockBegin
  2
ZU_SYM__USERS_HOME_SYMBOL_POO_SYM_S07_0000315
 70
    64
 10
0.0
 20
0.0
 30
0.0
  3
ZU_SYM__USERS_HOME_SYMBOL_POO_SYM_S07_0000315
  1

  0
ARC
  5
220
100
AcDbEntity
  8
0
370
    -3
390
0
  6
Continuous
100
AcDbCircle
 10
6.4
 20
0.0
 30
0.0
 40
9.0
100
AcDbArc
 50
163.398452
 51
196.601531
  0
POINT
  5
221
100
AcDbEntity
  8
0
370
    -3
390
0
  6
Continuous
100
AcDbPoint
 10
0.0
 20
0.0
 30
0.0
  0
LINE
  5
222
100
AcDbEntity
  8
0
370
    -3
390
0
  6
Continuous
100
AcDbLine
 10
0.0
 20
-3.5
 30
0.0
 11
0.0
 21
3.5
 31
0.0
  0
LINE
  5
223
100
AcDbEntity
  8
0
370
    -3
390
0
  6
Continuous
100
AcDbLine
 10
0.0
 20
-3.5
 30
0.0
 11
0.0
 21
3.5
 31
0.0
  0
LINE
  5
224
100
AcDbEntity
  8
0
370
    -3
390
0
  6
Continuous
100
AcDbLine
 10
0.0
 20
3.5
 30
0.0
 11
-0.979025
 21
3.5
 31
0.0
  0
LINE
  5
225
100
AcDbEntity
  8
0
370
    -3
390
0
  6
Continuous
100
AcDbLine
 10
0.0
 20
-3.5
 30
0.0
 11
-0.979025
 21
-3.5
 31
0.0
  0
ARC
  5
226
100
AcDbEntity
  8
0
370
    -3
390
0
  6
Continuous
100
AcDbCircle
 10
-0.979025
 20
2.200001
 30
0.0
 40
1.299999
100
AcDbArc
 50
90.0
 51
163.398452
  0
ARC
  5
227
100
AcDbEntity
  8
0
370
    -3
390
0
  6
Continuous
100
AcDbCircle
 10
-0.979025
 20
-2.200001
 30
0.0
 40
1.299999
100
AcDbArc
 50
196.601531
 51
270.0
  0
ENDBLK
  5
228
100
AcDbEntity
  8
0
390
0
100
AcDbBlockEnd
  0
BLOCK
  5
22B
100
AcDbEntity
  8
0
390
0
100
AcDbBlockBegin
  2
ZU_SYM__USERS_HOME_SYMBOL_POO_SYM_S07_0000415
 70
    64
 10
0.0
 20
0.0
 30
0.0
  3
ZU_SYM__USERS_HOME_SYMBOL_POO_SYM_S07_0000415
  1

  0
ARC
  5
22C
100
AcDbEntity
  8
0
370
    -3
390
0
  6
Continuous
100
AcDbCircle
 10
6.4
 20
0.0
 30
0.0
 40
9.0
100
AcDbArc
 50
163.398452
 51
196.601531
  0
POINT
  5
22D
100
AcDbEntity
  8
0
370
    -3
390
0
  6
Continuous
100
AcDbPoint
 10
0.0
 20
0.0
 30
0.0
  0
LINE
  5
22E
100
AcDbEntity
  8
0
370
    -3
390
0
  6
Continuous
100
AcDbLine
 10
0.0
 20
-3.5
 30
0.0
 11
0.0
 21
3.5
 31
0.0
  0
LINE
  5
22F
100
AcDbEntity
  8
0
370
    -3
390
0
  6
Continuous
100
AcDbLine
 10
0.0
 20
-3.5
 30
0.0
 11
0.0
 21
3.5
 31
0.0
  0
LINE
  5
230
100
AcDbEntity
  8
0
370
    -3
390
0
  6
Continuous
100
AcDbLine
 10
0.0
 20
3.5
 30
0.0
 11
-0.979025
 21
3.5
 31
0.0
  0
LINE
  5
231
100
AcDbEntity
  8
0
370
    -3
390
0
  6
Continuous
100
AcDbLine
 10
0.0
 20
-3.5
 30
0.0
 11
-0.979025
 21
-3.5
 31
0.0
  0
ARC
  5
232
100
AcDbEntity
  8
0
370
    -3
390
0
  6
Continuous
100
AcDbCircle
 10
-0.979025
 20
2.200001
 30
0.0
 40
1.299999
100
AcDbArc
 50
90.0
 51
163.398452
  0
ARC
  5
233
100
AcDbEntity
  8
0
370
    -3
390
0
  6
Continuous
100
AcDbCircle
 10
-0.979025
 20
-2.200001
 30
0.0
 40
1.299999
100
AcDbArc
 50
196.601531
 51
270.0
  0
ENDBLK
  5
234
100
AcDbEntity
  8
0
390
0
100
AcDbBlockEnd
  0
BLOCK
  5
237
100
AcDbEntity
  8
0
390
0
100
AcDbBlockBegin
  2
ZU_SYM__USERS_HOME_SYMBOL_POO_SYM_S07_0000515
 70
    64
 10
0.0
 20
0.0
 30
0.0
  3
ZU_SYM__USERS_HOME_SYMBOL_POO_SYM_S07_0000515
  1

  0
ARC
  5
238
100
AcDbEntity
  8
0
370
    -3
390
0
  6
Continuous
100
AcDbCircle
 10
6.4
 20
0.0
 30
0.0
 40
9.0
100
AcDbArc
 50
163.398452
 51
196.601531
  0
POINT
  5
239
100
AcDbEntity
  8
0
370
    -3
390
0
  6
Continuous
100
AcDbPoint
 10
0.0
 20
0.0
 30
0.0
  0
LINE
  5
23A
100
AcDbEntity
  8
0
370
    -3
390
0
  6
Continuous
100
AcDbLine
 10
0.0
 20
-3.5
 30
0.0
 11
0.0
 21
3.5
 31
0.0
  0
LINE
  5
23B
100
AcDbEntity
  8
0
370
    -3
390
0
  6
Continuous
100
AcDbLine
 10
0.0
 20
-3.5
 30
0.0
 11
0.0
 21
3.5
 31
0.0
  0
LINE
  5
23C
100
AcDbEntity
  8
0
370
    -3
390
0
  6
Continuous
100
AcDbLine
 10
0.0
 20
3.5
 30
0.0
 11
-0.979025
 21
3.5
 31
0.0
  0
LINE
  5
23D
100
AcDbEntity
  8
0
370
    -3
390
0
  6
Continuous
100
AcDbLine
 10
0.0
 20
-3.5
 30
0.0
 11
-0.979025
 21
-3.5
 31
0.0
  0
ARC
  5
23E
100
AcDbEntity
  8
0
370
    -3
390
0
  6
Continuous
100
AcDbCircle
 10
-0.979025
 20
2.200001
 30
0.0
 40
1.299999
100
AcDbArc
 50
90.0
 51
163.398452
  0
ARC
  5
23F
100
AcDbEntity
  8
0
370
    -3
390
0
  6
Continuous
100
AcDbCircle
 10
-0.979025
 20
-2.200001
 30
0.0
 40
1.299999
100
AcDbArc
 50
196.601531
 51
270.0
  0
ENDBLK
  5
240
100
AcDbEntity
  8
0
390
0
100
AcDbBlockEnd
  0
BLOCK
  5
343
100
AcDbEntity
  8
0
390
0
100
AcDbBlockBegin
  2
ZU_SYM__USERS_HOME_SYMBOL_POO_SYM_B20_05
 70
    64
 10
0.0
 20
0.0
 30
0.0
  3
ZU_SYM__USERS_HOME_SYMBOL_POO_SYM_B20_05
  1

  0
CIRCLE
  5
344
100
AcDbEntity
  8
0
370
    -3
390
0
  6
Continuous
100
AcDbCircle
 10
0.0
 20
0.0
 30
0.0
 40
5.633955
  0
CIRCLE
  5
345
100
AcDbEntity
  8
0
370
    -3
390
0
  6
Continuous
100
AcDbCircle
 10
0.0
 20
0.0
 30
0.0
 40
6.5
  0
POINT
  5
346
100
AcDbEntity
  8
0
370
    -3
390
0
  6
Continuous
100
AcDbPoint
 10
0.0
 20
0.0
 30
0.0
  0
LINE
  5
347
100
AcDbEntity
  8
0
370
    -3
390
0
  6
Continuous
100
AcDbLine
 10
-2.999997
 20
-1.732046
 30
0.0
 11
-2.999998
 21
1.732052
 31
0.0
  0
LINE
  5
348
100
AcDbEntity
  8
0
370
    -3
390
0
  6
Continuous
100
AcDbLine
 10
2.999997
 20
1.732047
 30
0.0
 11
2.999998
 21
-1.732051
 31
0.0
  0
LINE
  5
349
100
AcDbEntity
  8
0
370
    -3
390
0
  6
Continuous
100
AcDbLine
 10
0.000007
 20
3.464097
 30
0.0
 11
-2.999998
 21
1.732052
 31
0.0
  0
LINE
  5
34A
100
AcDbEntity
  8
0
370
    -3
390
0
  6
Continuous
100
AcDbLine
 10
2.999998
 20
-1.732051
 30
0.0
 11
-0.000004
 21
-3.464098
 31
0.0
  0
LINE
  5
34B
100
AcDbEntity
  8
0
370
    -3
390
0
  6
Continuous
100
AcDbLine
 10
0.000007
 20
3.464097
 30
0.0
 11
2.999997
 21
1.732047
 31
0.0
  0
LINE
  5
34C
100
AcDbEntity
  8
0
370
    -3
390
0
  6
Continuous
100
AcDbLine
 10
-0.000005
 20
-3.464098
 30
0.0
 11
-2.999998
 21
-1.732046
 31
0.0
  0
ENDBLK
  5
34D
100
AcDbEntity
  8
0
390
0
100
AcDbBlockEnd
  0
BLOCK
  5
350
100
AcDbEntity
  8
0
390
0
100
AcDbBlockBegin
  2
ZU_SYM__USERS_HOME_SYMBOL_POO_SYM_B20_0000605
 70
    64
 10
0.0
 20
0.0
 30
0.0
  3
ZU_SYM__USERS_HOME_SYMBOL_POO_SYM_B20_0000605
  1

  0
CIRCLE
  5
351
100
AcDbEntity
  8
0
370
    -3
390
0
  6
Continuous
100
AcDbCircle
 10
0.0
 20
0.0
 30
0.0
 40
5.633955
  0
CIRCLE
  5
352
100
AcDbEntity
  8
0
370
    -3
390
0
  6
Continuous
100
AcDbCircle
 10
0.0
 20
0.0
 30
0.0
 40
6.5
  0
POINT
  5
353
100
AcDbEntity
  8
0
370
    -3
390
0
  6
Continuous
100
AcDbPoint
 10
0.0
 20
0.0
 30
0.0
  0
LINE
  5
354
100
AcDbEntity
  8
0
370
    -3
390
0
  6
Continuous
100
AcDbLine
 10
-2.999997
 20
-1.732046
 30
0.0
 11
-2.999998
 21
1.732052
 31
0.0
  0
LINE
  5
355
100
AcDbEntity
  8
0
370
    -3
390
0
  6
Continuous
100
AcDbLine
 10
2.999997
 20
1.732047
 30
0.0
 11
2.999998
 21
-1.732051
 31
0.0
  0
LINE
  5
356
100
AcDbEntity
  8
0
370
    -3
390
0
  6
Continuous
100
AcDbLine
 10
0.000007
 20
3.464097
 30
0.0
 11
-2.999998
 21
1.732052
 31
0.0
  0
LINE
  5
357
100
AcDbEntity
  8
0
370
    -3
390
0
  6
Continuous
100
AcDbLine
 10
2.999998
 20
-1.732051
 30
0.0
 11
-0.000004
 21
-3.464098
 31
0.0
  0
LINE
  5
358
100
AcDbEntity
  8
0
370
    -3
390
0
  6
Continuous
100
AcDbLine
 10
0.000007
 20
3.464097
 30
0.0
 11
2.999997
 21
1.732047
 31
0.0
  0
LINE
  5
359
100
AcDbEntity
  8
0
370
    -3
390
0
  6
Continuous
100
AcDbLine
 10
-0.000005
 20
-3.464098
 30
0.0
 11
-2.999998
 21
-1.732046
 31
0.0
  0
ENDBLK
  5
35A
100
AcDbEntity
  8
0
390
0
100
AcDbBlockEnd
  0
BLOCK
  5
35D
100
AcDbEntity
  8
0
390
0
100
AcDbBlockBegin
  2
ZU_SYM__USERS_HOME_SYMBOL_POO_SYM_B20_0000705
 70
    64
 10
0.0
 20
0.0
 30
0.0
  3
ZU_SYM__USERS_HOME_SYMBOL_POO_SYM_B20_0000705
  1

  0
CIRCLE
  5
35E
100
AcDbEntity
  8
0
370
    -3
390
0
  6
Continuous
100
AcDbCircle
 10
0.0
 20
0.0
 30
0.0
 40
5.633955
  0
CIRCLE
  5
35F
100
AcDbEntity
  8
0
370
    -3
390
0
  6
Continuous
100
AcDbCircle
 10
0.0
 20
0.0
 30
0.0
 40
6.5
  0
POINT
  5
360
100
AcDbEntity
  8
0
370
    -3
390
0
  6
Continuous
100
AcDbPoint
 10
0.0
 20
0.0
 30
0.0
  0
LINE
  5
361
100
AcDbEntity
  8
0
370
    -3
390
0
  6
Continuous
100
AcDbLine
 10
-2.999997
 20
-1.732046
 30
0.0
 11
-2.999998
 21
1.732052
 31
0.0
  0
LINE
  5
362
100
AcDbEntity
  8
0
370
    -3
390
0
  6
Continuous
100
AcDbLine
 10
2.999997
 20
1.732047
 30
0.0
 11
2.999998
 21
-1.732051
 31
0.0
  0
LINE
  5
363
100
AcDbEntity
  8
0
370
    -3
390
0
  6
Continuous
100
AcDbLine
 10
0.000007
 20
3.464097
 30
0.0
 11
-2.999998
 21
1.732052
 31
0.0
  0
LINE
  5
364
100
AcDbEntity
  8
0
370
    -3
390
0
  6
Continuous
100
AcDbLine
 10
2.999998
 20
-1.732051
 30
0.0
 11
-0.000004
 21
-3.464098
 31
0.0
  0
LINE
  5
365
100
AcDbEntity
  8
0
370
    -3
390
0
  6
Continuous
100
AcDbLine
 10
0.000007
 20
3.464097
 30
0.0
 11
2.999997
 21
1.732047
 31
0.0
  0
LINE
  5
366
100
AcDbEntity
  8
0
370
    -3
390
0
  6
Continuous
100
AcDbLine
 10
-0.000005
 20
-3.464098
 30
0.0
 11
-2.999998
 21
-1.732046
 31
0.0
  0
ENDBLK
  5
367
100
AcDbEntity
  8
0
390
0
100
AcDbBlockEnd
  0
BLOCK
  5
36A
100
AcDbEntity
  8
0
390
0
100
AcDbBlockBegin
  2
ZU_SYM__USERS_HOME_SYMBOL_POO_SYM_B20_0000805
 70
    64
 10
0.0
 20
0.0
 30
0.0
  3
ZU_SYM__USERS_HOME_SYMBOL_POO_SYM_B20_0000805
  1

  0
CIRCLE
  5
36B
100
AcDbEntity
  8
0
370
    -3
390
0
  6
Continuous
100
AcDbCircle
 10
0.0
 20
0.0
 30
0.0
 40
5.633955
  0
CIRCLE
  5
36C
100
AcDbEntity
  8
0
370
    -3
390
0
  6
Continuous
100
AcDbCircle
 10
0.0
 20
0.0
 30
0.0
 40
6.5
  0
POINT
  5
36D
100
AcDbEntity
  8
0
370
    -3
390
0
  6
Continuous
100
AcDbPoint
 10
0.0
 20
0.0
 30
0.0
  0
LINE
  5
36E
100
AcDbEntity
  8
0
370
    -3
390
0
  6
Continuous
100
AcDbLine
 10
-2.999997
 20
-1.732046
 30
0.0
 11
-2.999998
 21
1.732052
 31
0.0
  0
LINE
  5
36F
100
AcDbEntity
  8
0
370
    -3
390
0
  6
Continuous
100
AcDbLine
 10
2.999997
 20
1.732047
 30
0.0
 11
2.999998
 21
-1.732051
 31
0.0
  0
LINE
  5
370
100
AcDbEntity
  8
0
370
    -3
390
0
  6
Continuous
100
AcDbLine
 10
0.000007
 20
3.464097
 30
0.0
 11
-2.999998
 21
1.732052
 31
0.0
  0
LINE
  5
371
100
AcDbEntity
  8
0
370
    -3
390
0
  6
Continuous
100
AcDbLine
 10
2.999998
 20
-1.732051
 30
0.0
 11
-0.000004
 21
-3.464098
 31
0.0
  0
LINE
  5
372
100
AcDbEntity
  8
0
370
    -3
390
0
  6
Continuous
100
AcDbLine
 10
0.000007
 20
3.464097
 30
0.0
 11
2.999997
 21
1.732047
 31
0.0
  0
LINE
  5
373
100
AcDbEntity
  8
0
370
    -3
390
0
  6
Continuous
100
AcDbLine
 10
-0.000005
 20
-3.464098
 30
0.0
 11
-2.999998
 21
-1.732046
 31
0.0
  0
ENDBLK
  5
374
100
AcDbEntity
  8
0
390
0
100
AcDbBlockEnd
  0
BLOCK
  5
377
100
AcDbEntity
  8
0
390
0
100
AcDbBlockBegin
  2
ZU_SYM__USERS_HOME_SYMBOL_POO_SYM_B20_0000905
 70
    64
 10
0.0
 20
0.0
 30
0.0
  3
ZU_SYM__USERS_HOME_SYMBOL_POO_SYM_B20_0000905
  1

  0
CIRCLE
  5
378
100
AcDbEntity
  8
0
370
    -3
390
0
  6
Continuous
100
AcDbCircle
 10
0.0
 20
0.0
 30
0.0
 40
5.633955
  0
CIRCLE
  5
379
100
AcDbEntity
  8
0
370
    -3
390
0
  6
Continuous
100
AcDbCircle
 10
0.0
 20
0.0
 30
0.0
 40
6.5
  0
POINT
  5
37A
100
AcDbEntity
  8
0
370
    -3
390
0
  6
Continuous
100
AcDbPoint
 10
0.0
 20
0.0
 30
0.0
  0
LINE
  5
37B
100
AcDbEntity
  8
0
370
    -3
390
0
  6
Continuous
100
AcDbLine
 10
-2.999997
 20
-1.732046
 30
0.0
 11
-2.999998
 21
1.732052
 31
0.0
  0
LINE
  5
37C
100
AcDbEntity
  8
0
370
    -3
390
0
  6
Continuous
100
AcDbLine
 10
2.999997
 20
1.732047
 30
0.0
 11
2.999998
 21
-1.732051
 31
0.0
  0
LINE
  5
37D
100
AcDbEntity
  8
0
370
    -3
390
0
  6
Continuous
100
AcDbLine
 10
0.000007
 20
3.464097
 30
0.0
 11
-2.999998
 21
1.732052
 31
0.0
  0
LINE
  5
37E
100
AcDbEntity
  8
0
370
    -3
390
0
  6
Continuous
100
AcDbLine
 10
2.999998
 20
-1.732051
 30
0.0
 11
-0.000004
 21
-3.464098
 31
0.0
  0
LINE
  5
37F
100
AcDbEntity
  8
0
370
    -3
390
0
  6
Continuous
100
AcDbLine
 10
0.000007
 20
3.464097
 30
0.0
 11
2.999997
 21
1.732047
 31
0.0
  0
LINE
  5
380
100
AcDbEntity
  8
0
370
    -3
390
0
  6
Continuous
100
AcDbLine
 10
-0.000005
 20
-3.464098
 30
0.0
 11
-2.999998
 21
-1.732046
 31
0.0
  0
ENDBLK
  5
381
100
AcDbEntity
  8
0
390
0
100
AcDbBlockEnd
  0
BLOCK
  5
384
100
AcDbEntity
  8
0
390
0
100
AcDbBlockBegin
  2
ZU_SYM__USERS_HOME_SYMBOL_POO_SYM_B20_0001005
 70
    64
 10
0.0
 20
0.0
 30
0.0
  3
ZU_SYM__USERS_HOME_SYMBOL_POO_SYM_B20_0001005
  1

  0
CIRCLE
  5
385
100
AcDbEntity
  8
0
370
    -3
390
0
  6
Continuous
100
AcDbCircle
 10
0.0
 20
0.0
 30
0.0
 40
5.633955
  0
CIRCLE
  5
386
100
AcDbEntity
  8
0
370
    -3
390
0
  6
Continuous
100
AcDbCircle
 10
0.0
 20
0.0
 30
0.0
 40
6.5
  0
POINT
  5
387
100
AcDbEntity
  8
0
370
    -3
390
0
  6
Continuous
100
AcDbPoint
 10
0.0
 20
0.0
 30
0.0
  0
LINE
  5
388
100
AcDbEntity
  8
0
370
    -3
390
0
  6
Continuous
100
AcDbLine
 10
-2.999997
 20
-1.732046
 30
0.0
 11
-2.999998
 21
1.732052
 31
0.0
  0
LINE
  5
389
100
AcDbEntity
  8
0
370
    -3
390
0
  6
Continuous
100
AcDbLine
 10
2.999997
 20
1.732047
 30
0.0
 11
2.999998
 21
-1.732051
 31
0.0
  0
LINE
  5
38A
100
AcDbEntity
  8
0
370
    -3
390
0
  6
Continuous
100
AcDbLine
 10
0.000007
 20
3.464097
 30
0.0
 11
-2.999998
 21
1.732052
 31
0.0
  0
LINE
  5
38B
100
AcDbEntity
  8
0
370
    -3
390
0
  6
Continuous
100
AcDbLine
 10
2.999998
 20
-1.732051
 30
0.0
 11
-0.000004
 21
-3.464098
 31
0.0
  0
LINE
  5
38C
100
AcDbEntity
  8
0
370
    -3
390
0
  6
Continuous
100
AcDbLine
 10
0.000007
 20
3.464097
 30
0.0
 11
2.999997
 21
1.732047
 31
0.0
  0
LINE
  5
38D
100
AcDbEntity
  8
0
370
    -3
390
0
  6
Continuous
100
AcDbLine
 10
-0.000005
 20
-3.464098
 30
0.0
 11
-2.999998
 21
-1.732046
 31
0.0
  0
ENDBLK
  5
38E
100
AcDbEntity
  8
0
390
0
100
AcDbBlockEnd
  0
BLOCK
  5
391
100
AcDbEntity
  8
0
390
0
100
AcDbBlockBegin
  2
ZU_SYM__USERS_HOME_SYMBOL_POO_SYM_B20_0001105
 70
    64
 10
0.0
 20
0.0
 30
0.0
  3
ZU_SYM__USERS_HOME_SYMBOL_POO_SYM_B20_0001105
  1

  0
CIRCLE
  5
392
100
AcDbEntity
  8
0
370
    -3
390
0
  6
Continuous
100
AcDbCircle
 10
0.0
 20
0.0
 30
0.0
 40
5.633955
  0
CIRCLE
  5
393
100
AcDbEntity
  8
0
370
    -3
390
0
  6
Continuous
100
AcDbCircle
 10
0.0
 20
0.0
 30
0.0
 40
6.5
  0
POINT
  5
394
100
AcDbEntity
  8
0
370
    -3
390
0
  6
Continuous
100
AcDbPoint
 10
0.0
 20
0.0
 30
0.0
  0
LINE
  5
395
100
AcDbEntity
  8
0
370
    -3
390
0
  6
Continuous
100
AcDbLine
 10
-2.999997
 20
-1.732046
 30
0.0
 11
-2.999998
 21
1.732052
 31
0.0
  0
LINE
  5
396
100
AcDbEntity
  8
0
370
    -3
390
0
  6
Continuous
100
AcDbLine
 10
2.999997
 20
1.732047
 30
0.0
 11
2.999998
 21
-1.732051
 31
0.0
  0
LINE
  5
397
100
AcDbEntity
  8
0
370
    -3
390
0
  6
Continuous
100
AcDbLine
 10
0.000007
 20
3.464097
 30
0.0
 11
-2.999998
 21
1.732052
 31
0.0
  0
LINE
  5
398
100
AcDbEntity
  8
0
370
    -3
390
0
  6
Continuous
100
AcDbLine
 10
2.999998
 20
-1.732051
 30
0.0
 11
-0.000004
 21
-3.464098
 31
0.0
  0
LINE
  5
399
100
AcDbEntity
  8
0
370
    -3
390
0
  6
Continuous
100
AcDbLine
 10
0.000007
 20
3.464097
 30
0.0
 11
2.999997
 21
1.732047
 31
0.0
  0
LINE
  5
39A
100
AcDbEntity
  8
0
370
    -3
390
0
  6
Continuous
100
AcDbLine
 10
-0.000005
 20
-3.464098
 30
0.0
 11
-2.999998
 21
-1.732046
 31
0.0
  0
ENDBLK
  5
39B
100
AcDbEntity
  8
0
390
0
100
AcDbBlockEnd
  0
BLOCK
  5
3E9
100
AcDbEntity
  8
0
390
0
100
AcDbBlockBegin
  2
ZU_SYM__USERS_HOME_SYMBOL_POO_SYM_B20_0001218
 70
    64
 10
0.0
 20
0.0
 30
0.0
  3
ZU_SYM__USERS_HOME_SYMBOL_POO_SYM_B20_0001218
  1

  0
POINT
  5
3EA
100
AcDbEntity
  8
0
370
    -3
390
0
  6
Continuous
100
AcDbPoint
 10
0.0
 20
0.0
 30
0.0
  0
LINE
  5
3EB
100
AcDbEntity
  8
0
370
    -3
390
0
  6
Continuous
100
AcDbLine
 10
0.0
 20
-6.5
 30
0.0
 11
0.0
 21
6.5
 31
0.0
  0
LINE
  5
3EC
100
AcDbEntity
  8
0
370
    -3
390
0
  6
Continuous
100
AcDbLine
 10
-7.999999
 20
5.633876
 30
0.0
 11
-7.999999
 21
-5.63407
 31
0.0
  0
LINE
  5
3ED
100
AcDbEntity
  8
0
370
    -3
390
0
  6
Continuous
100
AcDbLine
 10
0.0
 20
6.5
 30
0.0
 11
-7.499999
 21
6.5
 31
0.0
  0
LINE
  5
3EE
100
AcDbEntity
  8
0
370
    -3
390
0
  6
Continuous
100
AcDbLine
 10
0.0
 20
-6.5
 30
0.0
 11
-7.499998
 21
-6.5
 31
0.0
  0
LINE
  5
3EF
100
AcDbEntity
  8
0
370
    -3
390
0
  6
Continuous
100
AcDbLine
 10
-7.499999
 20
6.5
 30
0.0
 11
-7.999999
 21
5.633876
 31
0.0
  0
LINE
  5
3F0
100
AcDbEntity
  8
0
370
    -3
390
0
  6
Continuous
100
AcDbLine
 10
-7.499998
 20
-6.499999
 30
0.0
 11
-7.999999
 21
-5.63407
 31
0.0
  0
LINE
  5
3F1
100
AcDbEntity
  8
0
370
    -3
390
0
  6
Continuous
100
AcDbLine
 10
-7.499999
 20
6.5
 30
0.0
 11
-7.499999
 21
-6.5
 31
0.0
  0
ENDBLK
  5
3F2
100
AcDbEntity
  8
0
390
0
100
AcDbBlockEnd
  0
BLOCK
  5
3F5
100
AcDbEntity
  8
0
390
0
100
AcDbBlockBegin
  2
ZU_SYM__USERS_HOME_SYMBOL_POO_SYM_B20_0001318
 70
    64
 10
0.0
 20
0.0
 30
0.0
  3
ZU_SYM__USERS_HOME_SYMBOL_POO_SYM_B20_0001318
  1

  0
POINT
  5
3F6
100
AcDbEntity
  8
0
370
    -3
390
0
  6
Continuous
100
AcDbPoint
 10
0.0
 20
0.0
 30
0.0
  0
LINE
  5
3F7
100
AcDbEntity
  8
0
370
    -3
390
0
  6
Continuous
100
AcDbLine
 10
0.0
 20
-6.5
 30
0.0
 11
0.0
 21
6.5
 31
0.0
  0
LINE
  5
3F8
100
AcDbEntity
  8
0
370
    -3
390
0
  6
Continuous
100
AcDbLine
 10
-7.999999
 20
5.633876
 30
0.0
 11
-7.999999
 21
-5.63407
 31
0.0
  0
LINE
  5
3F9
100
AcDbEntity
  8
0
370
    -3
390
0
  6
Continuous
100
AcDbLine
 10
0.0
 20
6.5
 30
0.0
 11
-7.499999
 21
6.5
 31
0.0
  0
LINE
  5
3FA
100
AcDbEntity
  8
0
370
    -3
390
0
  6
Continuous
100
AcDbLine
 10
0.0
 20
-6.5
 30
0.0
 11
-7.499998
 21
-6.5
 31
0.0
  0
LINE
  5
3FB
100
AcDbEntity
  8
0
370
    -3
390
0
  6
Continuous
100
AcDbLine
 10
-7.499999
 20
6.5
 30
0.0
 11
-7.999999
 21
5.633876
 31
0.0
  0
LINE
  5
3FC
100
AcDbEntity
  8
0
370
    -3
390
0
  6
Continuous
100
AcDbLine
 10
-7.499998
 20
-6.499999
 30
0.0
 11
-7.999999
 21
-5.63407
 31
0.0
  0
LINE
  5
3FD
100
AcDbEntity
  8
0
370
    -3
390
0
  6
Continuous
100
AcDbLine
 10
-7.499999
 20
6.5
 30
0.0
 11
-7.499999
 21
-6.5
 31
0.0
  0
ENDBLK
  5
3FE
100
AcDbEntity
  8
0
390
0
100
AcDbBlockEnd
  0
BLOCK
  5
401
100
AcDbEntity
  8
0
390
0
100
AcDbBlockBegin
  2
ZU_SYM__USERS_HOME_SYMBOL_POO_SYM_B20_0001418
 70
    64
 10
0.0
 20
0.0
 30
0.0
  3
ZU_SYM__USERS_HOME_SYMBOL_POO_SYM_B20_0001418
  1

  0
POINT
  5
402
100
AcDbEntity
  8
0
370
    -3
390
0
  6
Continuous
100
AcDbPoint
 10
0.0
 20
0.0
 30
0.0
  0
LINE
  5
403
100
AcDbEntity
  8
0
370
    -3
390
0
  6
Continuous
100
AcDbLine
 10
0.0
 20
-6.5
 30
0.0
 11
0.0
 21
6.5
 31
0.0
  0
LINE
  5
404
100
AcDbEntity
  8
0
370
    -3
390
0
  6
Continuous
100
AcDbLine
 10
-7.999999
 20
5.633876
 30
0.0
 11
-7.999999
 21
-5.63407
 31
0.0
  0
LINE
  5
405
100
AcDbEntity
  8
0
370
    -3
390
0
  6
Continuous
100
AcDbLine
 10
0.0
 20
6.5
 30
0.0
 11
-7.499999
 21
6.5
 31
0.0
  0
LINE
  5
406
100
AcDbEntity
  8
0
370
    -3
390
0
  6
Continuous
100
AcDbLine
 10
0.0
 20
-6.5
 30
0.0
 11
-7.499998
 21
-6.5
 31
0.0
  0
LINE
  5
407
100
AcDbEntity
  8
0
370
    -3
390
0
  6
Continuous
100
AcDbLine
 10
-7.499999
 20
6.5
 30
0.0
 11
-7.999999
 21
5.633876
 31
0.0
  0
LINE
  5
408
100
AcDbEntity
  8
0
370
    -3
390
0
  6
Continuous
100
AcDbLine
 10
-7.499998
 20
-6.499999
 30
0.0
 11
-7.999999
 21
-5.63407
 31
0.0
  0
LINE
  5
409
100
AcDbEntity
  8
0
370
    -3
390
0
  6
Continuous
100
AcDbLine
 10
-7.499999
 20
6.5
 30
0.0
 11
-7.499999
 21
-6.5
 31
0.0
  0
ENDBLK
  5
40A
100
AcDbEntity
  8
0
390
0
100
AcDbBlockEnd
  0
BLOCK
  5
40D
100
AcDbEntity
  8
0
390
0
100
AcDbBlockBegin
  2
ZU_SYM__USERS_HOME_SYMBOL_POO_SYM_B20_0001518
 70
    64
 10
0.0
 20
0.0
 30
0.0
  3
ZU_SYM__USERS_HOME_SYMBOL_POO_SYM_B20_0001518
  1

  0
POINT
  5
40E
100
AcDbEntity
  8
0
370
    -3
390
0
  6
Continuous
100
AcDbPoint
 10
0.0
 20
0.0
 30
0.0
  0
LINE
  5
40F
100
AcDbEntity
  8
0
370
    -3
390
0
  6
Continuous
100
AcDbLine
 10
0.0
 20
-6.5
 30
0.0
 11
0.0
 21
6.5
 31
0.0
  0
LINE
  5
410
100
AcDbEntity
  8
0
370
    -3
390
0
  6
Continuous
100
AcDbLine
 10
-7.999999
 20
5.633876
 30
0.0
 11
-7.999999
 21
-5.63407
 31
0.0
  0
LINE
  5
411
100
AcDbEntity
  8
0
370
    -3
390
0
  6
Continuous
100
AcDbLine
 10
0.0
 20
6.5
 30
0.0
 11
-7.499999
 21
6.5
 31
0.0
  0
LINE
  5
412
100
AcDbEntity
  8
0
370
    -3
390
0
  6
Continuous
100
AcDbLine
 10
0.0
 20
-6.5
 30
0.0
 11
-7.499998
 21
-6.5
 31
0.0
  0
LINE
  5
413
100
AcDbEntity
  8
0
370
    -3
390
0
  6
Continuous
100
AcDbLine
 10
-7.499999
 20
6.5
 30
0.0
 11
-7.999999
 21
5.633876
 31
0.0
  0
LINE
  5
414
100
AcDbEntity
  8
0
370
    -3
390
0
  6
Continuous
100
AcDbLine
 10
-7.499998
 20
-6.499999
 30
0.0
 11
-7.999999
 21
-5.63407
 31
0.0
  0
LINE
  5
415
100
AcDbEntity
  8
0
370
    -3
390
0
  6
Continuous
100
AcDbLine
 10
-7.499999
 20
6.5
 30
0.0
 11
-7.499999
 21
-6.5
 31
0.0
  0
ENDBLK
  5
416
100
AcDbEntity
  8
0
390
0
100
AcDbBlockEnd
  0
ENDSEC
  0
SECTION
  2
ENTITIES
  0
ARC
  5
2A
100
AcDbEntity
  8
0
370
    -3
390
0
  6
Continuous
100
AcDbCircle
 10
-103.22337
 20
30.028214
 30
0.0
 40
1.5
100
AcDbArc
 50
0.0
 51
32.230953
  0
LINE
  5
2B
100
AcDbEntity
  8
0
370
    -3
390
0
  6
Continuous
100
AcDbLine
 10
-108.72337
 20
29.631686
 30
0.0
 11
-108.72337
 21
30.028214
 31
0.0
  0
ARC
  5
2C
100
AcDbEntity
  8
0
370
    -3
390
0
  6
Continuous
100
AcDbCircle
 10
-107.22337
 20
30.028214
 30
0.0
 40
1.5
100
AcDbArc
 50
147.769047
 51
180.0
  0
ARC
  5
2D
100
AcDbEntity
  8
0
370
    -3
390
0
  6
Continuous
100
AcDbCircle
 10
-103.023369
 20
29.631686
 30
0.0
 40
1.299999
100
AcDbArc
 50
286.601531
 51
0.0
  0
LINE
  5
2E
100
AcDbEntity
  8
0
370
    -3
390
0
  6
Continuous
100
AcDbLine
 10
-101.72337
 20
29.631686
 30
0.0
 11
-101.72337
 21
30.028214
 31
0.0
  0
ARC
  5
2F
100
AcDbEntity
  8
0
370
    -3
390
0
  6
Continuous
100
AcDbCircle
 10
-107.42337
 20
29.631686
 30
0.0
 40
1.299999
100
AcDbArc
 50
180.0
 51
253.398469
  0
ARC
  5
30
100
AcDbEntity
  8
0
370
    -3
390
0
  6
Continuous
100
AcDbCircle
 10
-105.22337
 20
37.010711
 30
0.0
 40
9.0
100
AcDbArc
 50
253.398469
 51
286.601548
  0
LINE
  5
31
100
AcDbEntity
  8
0
370
    -3
390
0
  6
Continuous
100
AcDbLine
 10
63.27663
 20
-33.421786
 30
0.0
 11
42.77663
 21
-33.421786
 31
0.0
  0
LINE
  5
32
100
AcDbEntity
  8
0
370
    -3
390
0
  6
CENTER
100
AcDbLine
 10
29.546383
 20
-18.421786
 30
0.0
 11
47.645649
 21
-18.421786
 31
0.0
  0
LINE
  5
33
100
AcDbEntity
  8
0
370
    -3
390
0
  6
Continuous
100
AcDbLine
 10
35.27663
 20
1.578214
 30
0.0
 11
39.77663
 21
1.578214
 31
0.0
  0
ARC
  5
34
100
AcDbEntity
  8
0
370
    -3
390
0
  6
Continuous
100
AcDbCircle
 10
472.065919
 20
-207.421786
 30
0.0
 40
3.0
100
AcDbArc
 50
180.0
 51
270.0
  0
ARC
  5
35
100
AcDbEntity
  8
0
370
    -3
390
0
  6
Continuous
100
AcDbCircle
 10
332.571919
 20
-207.421786
 30
0.0
 40
3.0
100
AcDbArc
 50
270.0
 51
0.0
  0
ARC
  5
36
100
AcDbEntity
  8
0
370
    -3
390
0
  6
Continuous
100
AcDbCircle
 10
491.109708
 20
-207.421786
 30
0.0
 40
3.0
100
AcDbArc
 50
180.0
 51
270.0
  0
ARC
  5
37
100
AcDbEntity
  8
0
370
    -3
390
0
  6
Continuous
100
AcDbCircle
 10
475.690393
 20
-207.421786
 30
0.0
 40
3.0
100
AcDbArc
 50
180.0
 51
270.0
  0
ARC
  5
38
100
AcDbEntity
  8
0
370
    -3
390
0
  6
Continuous
100
AcDbCircle
 10
328.947445
 20
-207.421786
 30
0.0
 40
3.0
100
AcDbArc
 50
270.0
 51
0.0
  0
ARC
  5
39
100
AcDbEntity
  8
0
370
    -3
390
0
  6
Continuous
100
AcDbCircle
 10
313.52813
 20
-207.421786
 30
0.0
 40
3.0
100
AcDbArc
 50
270.0
 51
0.0
  0
ARC
  5
3A
100
AcDbEntity
  8
0
370
    -3
390
0
  6
Continuous
100
AcDbCircle
 10
334.318919
 20
-228.421786
 30
0.0
 40
2.0
100
AcDbArc
 50
90.0
 51
180.0
  0
ARC
  5
3B
100
AcDbEntity
  8
0
370
    -3
390
0
  6
Continuous
100
AcDbCircle
 10
304.818919
 20
-212.921786
 30
0.0
 40
2.5
100
AcDbArc
 50
90.0
 51
180.0
  0
ARC
  5
3C
100
AcDbEntity
  8
0
370
    -3
390
0
  6
Continuous
100
AcDbCircle
 10
470.318919
 20
-228.421786
 30
0.0
 40
2.0
100
AcDbArc
 50
0.0
 51
90.0
  0
ARC
  5
3D
100
AcDbEntity
  8
0
370
    -3
390
0
  6
Continuous
100
AcDbCircle
 10
499.818919
 20
-212.921786
 30
0.0
 40
2.5
100
AcDbArc
 50
0.0
 51
90.0
  0
ARC
  5
3E
100
AcDbEntity
  8
0
370
    -3
390
0
  6
Continuous
100
AcDbCircle
 10
305.318919
 20
-207.421786
 30
0.0
 40
3.0
100
AcDbArc
 50
270.0
 51
0.0
  0
ARC
  5
3F
100
AcDbEntity
  8
0
370
    -3
390
0
  6
Continuous
100
AcDbCircle
 10
499.318919
 20
-207.421786
 30
0.0
 40
3.0
100
AcDbArc
 50
180.0
 51
270.0
  0
ARC
  5
40
100
AcDbEntity
  8
0
370
    -3
390
0
  6
Continuous
100
AcDbCircle
 10
416.318919
 20
-113.655184
 30
0.0
 40
80.0
100
AcDbArc
 50
0.0
 51
88.089787
  0
ARC
  5
41
100
AcDbEntity
  8
0
370
    -3
390
0
  6
Continuous
100
AcDbCircle
 10
402.318919
 20
-533.421786
 30
0.0
 40
500.0
100
AcDbArc
 50
88.089787
 51
90.0
  0
ARC
  5
42
100
AcDbEntity
  8
0
370
    -3
390
0
  6
Continuous
100
AcDbCircle
 10
402.318919
 20
-533.421786
 30
0.0
 40
500.0
100
AcDbArc
 50
90.0
 51
91.910213
  0
ARC
  5
43
100
AcDbEntity
  8
0
370
    -3
390
0
  6
Continuous
100
AcDbCircle
 10
402.318919
 20
-533.421786
 30
0.0
 40
472.74675
100
AcDbArc
 50
88.089787
 51
90.0
  0
ARC
  5
44
100
AcDbEntity
  8
0
370
    -3
390
0
  6
Continuous
100
AcDbCircle
 10
416.318919
 20
-113.655184
 30
0.0
 40
52.74675
100
AcDbArc
 50
0.0
 51
88.089787
  0
ARC
  5
45
100
AcDbEntity
  8
0
370
    -3
390
0
  6
Continuous
100
AcDbCircle
 10
402.318919
 20
-533.421786
 30
0.0
 40
472.74675
100
AcDbArc
 50
90.0
 51
91.910213
  0
LINE
  5
46
100
AcDbEntity
  8
0
370
    -3
390
0
  6
Continuous
100
AcDbLine
 10
469.065919
 20
-113.421786
 30
0.0
 11
469.065919
 21
-207.421786
 31
0.0
  0
LINE
  5
47
100
AcDbEntity
  8
0
370
    -3
390
0
  6
Continuous
100
AcDbLine
 10
488.109708
 20
-103.421786
 30
0.0
 11
488.109708
 21
-207.421786
 31
0.0
  0
LINE
  5
48
100
AcDbEntity
  8
0
370
    -3
390
0
  6
Continuous
100
AcDbLine
 10
472.690393
 20
-103.421787
 30
0.0
 11
472.690393
 21
-207.421786
 31
0.0
  0
LINE
  5
49
100
AcDbEntity
  8
0
370
    -3
390
0
  6
CENTER
100
AcDbLine
 10
265.634538
 20
-133.421786
 30
0.0
 11
324.931662
 21
-133.421786
 31
0.0
  0
LINE
  5
4A
100
AcDbEntity
  8
0
370
    -3
390
0
  6
Continuous
100
AcDbLine
 10
304.818919
 20
-210.421786
 30
0.0
 11
402.318919
 21
-210.421786
 31
0.0
  0
LINE
  5
4B
100
AcDbEntity
  8
0
370
    -3
390
0
  6
Continuous
100
AcDbLine
 10
302.318919
 20
-212.921786
 30
0.0
 11
302.318919
 21
-228.421786
 31
0.0
  0
LINE
  5
4C
100
AcDbEntity
  8
0
370
    -3
390
0
  6
CENTER
100
AcDbLine
 10
489.818919
 20
-206.261507
 30
0.0
 11
489.818919
 21
-232.838578
 31
0.0
  0
LINE
  5
4D
100
AcDbEntity
  8
0
370
    -3
390
0
  6
Continuous
100
AcDbLine
 10
502.318919
 20
-212.921786
 30
0.0
 11
502.318919
 21
-228.421786
 31
0.0
  0
LINE
  5
4E
100
AcDbEntity
  8
0
370
    -3
390
0
  6
Continuous
100
AcDbLine
 10
496.318919
 20
-113.655184
 30
0.0
 11
496.318919
 21
-207.421786
 31
0.0
  0
LINE
  5
4F
100
AcDbEntity
  8
0
370
    -3
390
0
  6
Continuous
100
AcDbLine
 10
334.318919
 20
-226.421786
 30
0.0
 11
402.318919
 21
-226.421786
 31
0.0
  0
LINE
  5
50
100
AcDbEntity
  8
0
370
    -3
390
0
  6
Continuous
100
AcDbLine
 10
499.818919
 20
-210.421786
 30
0.0
 11
402.318919
 21
-210.421786
 31
0.0
  0
LINE
  5
51
100
AcDbEntity
  8
0
370
    -3
390
0
  6
Continuous
100
AcDbLine
 10
470.318919
 20
-226.421786
 30
0.0
 11
402.318919
 21
-226.421786
 31
0.0
  0
LINE
  5
52
100
AcDbEntity
  8
0
370
    -3
390
0
  6
CENTER
100
AcDbLine
 10
314.818919
 20
-206.261507
 30
0.0
 11
314.818919
 21
-232.838578
 31
0.0
  0
LINE
  5
53
100
AcDbEntity
  8
0
370
    -3
390
0
  6
Continuous
100
AcDbLine
 10
349.318919
 20
-203.821786
 30
0.0
 11
402.318919
 21
-203.821786
 31
0.0
  0
ARC
  5
54
100
AcDbEntity
  8
0
370
    -3
390
0
  6
Continuous
100
AcDbCircle
 10
349.318919
 20
-196.821786
 30
0.0
 40
7.0
100
AcDbArc
 50
180.0
 51
270.0
  0
ARC
  5
55
100
AcDbEntity
  8
0
370
    -3
390
0
  6
Continuous
100
AcDbCircle
 10
402.318919
 20
-103.421786
 30
0.0
 40
40.0
100
AcDbArc
 50
184.00063
 51
270.0
  0
ARC
  5
56
100
AcDbEntity
  8
0
370
    -3
390
0
  6
Continuous
100
AcDbCircle
 10
359.423698
 20
-106.421786
 30
0.0
 40
3.0
100
AcDbArc
 50
4.00063
 51
90.0
  0
LINE
  5
57
100
AcDbEntity
  8
0
370
    -3
390
0
  6
Continuous
100
AcDbLine
 10
342.318919
 20
-106.921786
 30
0.0
 11
342.318919
 21
-196.821786
 31
0.0
  0
ARC
  5
58
100
AcDbEntity
  8
0
370
    -3
390
0
  6
Continuous
100
AcDbCircle
 10
345.818919
 20
-106.921786
 30
0.0
 40
3.5
100
AcDbArc
 50
90.0
 51
180.0
  0
LINE
  5
59
100
AcDbEntity
  8
0
370
    -3
390
0
  6
Continuous
100
AcDbLine
 10
359.423698
 20
-103.421786
 30
0.0
 11
345.818919
 21
-103.421786
 31
0.0
  0
ARC
  5
5A
100
AcDbEntity
  8
0
370
    -3
390
0
  6
Continuous
100
AcDbCircle
 10
445.21414
 20
-106.421786
 30
0.0
 40
3.0
100
AcDbArc
 50
90.0
 51
175.99937
  0
ARC
  5
5B
100
AcDbEntity
  8
0
370
    -3
390
0
  6
Continuous
100
AcDbCircle
 10
458.818919
 20
-106.921786
 30
0.0
 40
3.5
100
AcDbArc
 50
0.0
 51
90.0
  0
ARC
  5
5C
100
AcDbEntity
  8
0
370
    -3
390
0
  6
Continuous
100
AcDbCircle
 10
455.318919
 20
-196.821786
 30
0.0
 40
7.0
100
AcDbArc
 50
270.0
 51
0.0
  0
ARC
  5
5D
100
AcDbEntity
  8
0
370
    -3
390
0
  6
Continuous
100
AcDbCircle
 10
402.318919
 20
-103.421786
 30
0.0
 40
40.0
100
AcDbArc
 50
270.0
 51
355.99937
  0
LINE
  5
5E
100
AcDbEntity
  8
0
370
    -3
390
0
  6
Continuous
100
AcDbLine
 10
445.21414
 20
-103.421786
 30
0.0
 11
458.818919
 21
-103.421786
 31
0.0
  0
LINE
  5
5F
100
AcDbEntity
  8
0
370
    -3
390
0
  6
Continuous
100
AcDbLine
 10
462.318919
 20
-106.921786
 30
0.0
 11
462.318919
 21
-196.821786
 31
0.0
  0
LINE
  5
60
100
AcDbEntity
  8
0
370
    -3
390
0
  6
Continuous
100
AcDbLine
 10
455.318919
 20
-203.821786
 30
0.0
 11
402.318919
 21
-203.821786
 31
0.0
  0
ELLIPSE
  5
61
100
AcDbEntity
  8
0
370
    -3
390
0
  6
Continuous
100
AcDbEllipse
 10
480.400051
 20
-103.421786
 30
0.0
 11
0.0
 21
10.0
 31
0.0
210
0.0
220
0.0
230
1.0
 40
0.770966
 41
4.7123889803846897
 42
1.5707963868878492
  0
LINE
  5
62
100
AcDbEntity
  8
0
370
    -3
390
0
  6
Continuous
100
AcDbLine
 10
302.318919
 20
-228.421786
 30
0.0
 11
332.318919
 21
-228.421786
 31
0.0
  0
LINE
  5
63
100
AcDbEntity
  8
0
370
    -3
390
0
  6
Continuous
100
AcDbLine
 10
502.318919
 20
-228.421786
 30
0.0
 11
472.318919
 21
-228.421786
 31
0.0
  0
LINE
  5
64
100
AcDbEntity
  8
0
370
    -3
390
0
  6
Continuous
100
AcDbLine
 10
302.318919
 20
-228.421786
 30
0.0
 11
332.318919
 21
-228.421786
 31
0.0
  0
CIRCLE
  5
65
100
AcDbEntity
  8
0
370
    -3
390
0
  6
Continuous
100
AcDbCircle
 10
402.318919
 20
-103.421786
 30
0.0
 40
33.5
  0
CIRCLE
  5
66
100
AcDbEntity
  8
0
370
    -3
390
0
  6
Continuous
100
AcDbCircle
 10
402.318919
 20
-103.421786
 30
0.0
 40
23.5
  0
LINE
  5
67
100
AcDbEntity
  8
0
370
    -3
390
0
  6
Continuous
100
AcDbLine
 10
412.818919
 20
1.578214
 30
0.0
 11
391.818919
 21
1.578214
 31
0.0
  0
ARC
  5
68
100
AcDbEntity
  8
0
370
    -3
390
0
  6
Continuous
100
AcDbCircle
 10
391.818919
 20
-8.421786
 30
0.0
 40
10.0
100
AcDbArc
 50
90.0
 51
180.0
  0
LINE
  5
69
100
AcDbEntity
  8
0
370
    -3
390
0
  6
Continuous
100
AcDbLine
 10
381.818919
 20
-8.421786
 30
0.0
 11
381.818919
 21
-33.919684
 31
0.0
  0
CIRCLE
  5
6A
100
AcDbEntity
  8
0
370
    -3
390
0
  6
Continuous
100
AcDbCircle
 10
402.318919
 20
-18.421786
 30
0.0
 40
10.0
  0
LINE
  5
6B
100
AcDbEntity
  8
0
370
    -3
390
0
  6
Continuous
100
AcDbLine
 10
422.818919
 20
-8.421786
 30
0.0
 11
422.818919
 21
-33.421779
 31
0.0
  0
ARC
  5
6C
100
AcDbEntity
  8
0
370
    -3
390
0
  6
Continuous
100
AcDbCircle
 10
412.818919
 20
-8.421786
 30
0.0
 40
10.0
100
AcDbArc
 50
0.0
 51
90.0
  0
LINE
  5
6D
100
AcDbEntity
  8
0
370
    -3
390
0
  6
CENTER
100
AcDbLine
 10
425.486832
 20
-18.421786
 30
0.0
 11
378.464318
 21
-18.421786
 31
0.0
  0
LINE
  5
6E
100
AcDbEntity
  8
0
370
    -3
390
0
  6
Continuous
100
AcDbLine
 10
383.318919
 20
-98.421786
 30
0.0
 11
391.318919
 21
-98.421786
 31
0.0
  0
LINE
  5
6F
100
AcDbEntity
  8
0
370
    -3
390
0
  6
Continuous
100
AcDbLine
 10
383.318919
 20
-108.421786
 30
0.0
 11
383.318919
 21
-98.421786
 31
0.0
  0
ARC
  5
70
100
AcDbEntity
  8
0
370
    -3
390
0
  6
Continuous
100
AcDbCircle
 10
402.318919
 20
-103.421786
 30
0.0
 40
16.0
100
AcDbArc
 50
198.209957
 51
161.790043
  0
LINE
  5
71
100
AcDbEntity
  8
0
370
    -3
390
0
  6
Continuous
100
AcDbLine
 10
391.318919
 20
-108.421786
 30
0.0
 11
391.318919
 21
-98.421786
 31
0.0
  0
LINE
  5
72
100
AcDbEntity
  8
0
370
    -3
390
0
  6
Continuous
100
AcDbLine
 10
383.318919
 20
-108.421786
 30
0.0
 11
391.318919
 21
-108.421786
 31
0.0
  0
LINE
  5
73
100
AcDbEntity
  8
0
370
    -3
390
0
  6
CENTER
100
AcDbLine
 10
402.318919
 20
15.113184
 30
0.0
 11
402.318919
 21
-239.123864
 31
0.0
  0
ARC
  5
74
100
AcDbEntity
  8
0
370
    -3
390
0
  6
Continuous
100
AcDbCircle
 10
222.87663
 20
-119.021786
 30
0.0
 40
0.4
100
AcDbArc
 50
270.0
 51
0.0
  0
LINE
  5
75
100
AcDbEntity
  8
0
370
    -3
390
0
  6
Continuous
100
AcDbLine
 10
223.27663
 20
-103.421786
 30
0.0
 11
223.27663
 21
-119.021786
 31
0.0
  0
ARC
  5
76
100
AcDbEntity
  8
0
370
    -3
390
0
  6
Continuous
100
AcDbCircle
 10
222.87663
 20
-87.821786
 30
0.0
 40
0.4
100
AcDbArc
 50
0.0
 51
90.0
  0
ARC
  5
77
100
AcDbEntity
  8
0
370
    -3
390
0
  6
Continuous
100
AcDbCircle
 10
63.27663
 20
-172.367692
 30
0.0
 40
2.0
100
AcDbArc
 50
0.0
 51
90.0
  0
LINE
  5
78
100
AcDbEntity
  8
0
370
    -3
390
0
  6
Continuous
100
AcDbLine
 10
65.27663
 20
-172.367692
 30
0.0
 11
65.27663
 21
-189.518982
 31
0.0
  0
LINE
  5
79
100
AcDbEntity
  8
0
370
    -3
390
0
  6
Continuous
100
AcDbLine
 10
141.27663
 20
-209.374163
 30
0.0
 11
168.381329
 21
-210.32068
 31
0.0
  0
ARC
  5
7A
100
AcDbEntity
  8
0
370
    -3
390
0
  6
Continuous
100
AcDbCircle
 10
170.27663
 20
-68.671786
 30
0.0
 40
1.0
100
AcDbArc
 50
180.0
 51
270.0
  0
ARC
  5
7B
100
AcDbEntity
  8
0
370
    -3
390
0
  6
Continuous
100
AcDbCircle
 10
166.27663
 20
-61.737975
 30
0.0
 40
3.0
100
AcDbArc
 50
0.0
 51
39.469308
  0
ARC
  5
7C
100
AcDbEntity
  8
0
370
    -3
390
0
  6
Continuous
100
AcDbCircle
 10
168.27663
 20
-213.318852
 30
0.0
 40
3.0
100
AcDbArc
 50
0.0
 51
88.0
  0
ARC
  5
7D
100
AcDbEntity
  8
0
370
    -3
390
0
  6
Continuous
100
AcDbCircle
 10
171.27663
 20
-209.318852
 30
0.0
 40
2.0
100
AcDbArc
 50
180.0
 51
233.130102
  0
ARC
  5
7E
100
AcDbEntity
  8
0
370
    -3
390
0
  6
Continuous
100
AcDbCircle
 10
168.491515
 20
-207.322699
 30
0.0
 40
3.0
100
AcDbArc
 50
180.0
 51
268.0
  0
ARC
  5
7F
100
AcDbEntity
  8
0
370
    -3
390
0
  6
Continuous
100
AcDbCircle
 10
144.362772
 20
-206.480105
 30
0.0
 40
3.0
100
AcDbArc
 50
180.0
 51
268.0
  0
ARC
  5
80
100
AcDbEntity
  8
0
370
    -3
390
0
  6
Continuous
100
AcDbCircle
 10
170.27663
 20
-137.671775
 30
0.0
 40
1.0
100
AcDbArc
 50
90.0
 51
180.0
  0
ARC
  5
81
100
AcDbEntity
  8
0
370
    -3
390
0
  6
Continuous
100
AcDbCircle
 10
114.554962
 20
-104.327516
 30
0.0
 40
70.0
100
AcDbArc
 50
39.469308
 51
89.0
  0
LINE
  5
82
100
AcDbEntity
  8
0
370
    -3
390
0
  6
Continuous
100
AcDbLine
 10
63.27663
 20
-33.421786
 30
0.0
 11
63.27663
 21
-192.185703
 31
0.0
  0
LINE
  5
83
100
AcDbEntity
  8
0
370
    -3
390
0
  6
Continuous
100
AcDbLine
 10
141.362772
 20
-103.421786
 30
0.0
 11
141.362772
 21
-206.480105
 31
0.0
  0
LINE
  5
84
100
AcDbEntity
  8
0
370
    -3
390
0
  6
Continuous
100
AcDbLine
 10
165.491515
 20
-103.421786
 30
0.0
 11
165.491515
 21
-207.322699
 31
0.0
  0
LINE
  5
85
100
AcDbEntity
  8
0
370
    -3
390
0
  6
Continuous
100
AcDbLine
 10
65.195823
 20
-206.717363
 30
0.0
 11
141.27663
 21
-209.374163
 31
0.0
  0
LINE
  5
86
100
AcDbEntity
  8
0
370
    -3
390
0
  6
Continuous
100
AcDbLine
 10
170.27663
 20
-69.671786
 30
0.0
 11
171.27663
 21
-69.671786
 31
0.0
  0
LINE
  5
87
100
AcDbEntity
  8
0
370
    -3
390
0
  6
Continuous
100
AcDbLine
 10
171.27663
 20
-136.671775
 30
0.0
 11
170.27663
 21
-136.671775
 31
0.0
  0
LINE
  5
88
100
AcDbEntity
  8
0
370
    -3
390
0
  6
Continuous
100
AcDbLine
 10
171.27663
 20
-213.26868
 30
0.0
 11
171.27663
 21
-215.067959
 31
0.0
  0
LINE
  5
89
100
AcDbEntity
  8
0
370
    -3
390
0
  6
Continuous
100
AcDbLine
 10
169.27663
 20
-137.671775
 30
0.0
 11
169.27663
 21
-209.318852
 31
0.0
  0
LINE
  5
8A
100
AcDbEntity
  8
0
370
    -3
390
0
  6
CENTER
100
AcDbLine
 10
158.27663
 20
-206.199747
 30
0.0
 11
158.27663
 21
-234.64047
 31
0.0
  0
LINE
  5
8B
100
AcDbEntity
  8
0
370
    -3
390
0
  6
Continuous
100
AcDbLine
 10
171.27663
 20
-69.671786
 30
0.0
 11
171.27663
 21
-136.671775
 31
0.0
  0
LINE
  5
8C
100
AcDbEntity
  8
0
370
    -3
390
0
  6
Continuous
100
AcDbLine
 10
169.27663
 20
-137.671775
 30
0.0
 11
169.27663
 21
-68.671786
 31
0.0
  0
LINE
  5
8D
100
AcDbEntity
  8
0
370
    -3
390
0
  6
Continuous
100
AcDbLine
 10
63.27663
 20
-33.421786
 30
0.0
 11
115.77663
 21
-34.338177
 31
0.0
  0
LINE
  5
8E
100
AcDbEntity
  8
0
370
    -3
390
0
  6
Continuous
100
AcDbLine
 10
171.27663
 20
-213.318852
 30
0.0
 11
171.27663
 21
-228.421786
 31
0.0
  0
LINE
  5
8F
100
AcDbEntity
  8
0
370
    -3
390
0
  6
Continuous
100
AcDbLine
 10
169.27663
 20
-73.671786
 30
0.0
 11
169.27663
 21
-61.737975
 31
0.0
  0
ARC
  5
90
100
AcDbEntity
  8
0
370
    -3
390
0
  6
Continuous
100
AcDbCircle
 10
63.27663
 20
-189.518982
 30
0.0
 40
2.0
100
AcDbArc
 50
311.410958
 51
0.0
  0
ELLIPSE
  5
91
100
AcDbEntity
  8
0
370
    -3
390
0
  6
Continuous
100
AcDbEllipse
 10
153.427144
 20
-103.421786
 30
0.0
 11
12.064371545170616
 21
0.0
 31
0.0
210
0.0
220
0.0
230
1.0
 40
0.828887
 41
0.0
 42
3.1415926535897931
  0
LINE
  5
92
100
AcDbEntity
  8
0
370
    -3
390
0
  6
Continuous
100
AcDbLine
 10
171.27663
 20
-228.421786
 30
0.0
 11
54.27663
 21
-228.421786
 31
0.0
  0
LINE
  5
93
100
AcDbEntity
  8
0
370
    -3
390
0
  6
Continuous
100
AcDbLine
 10
54.27663
 20
-228.421786
 30
0.0
 11
10.27663
 21
-228.421786
 31
0.0
  0
LINE
  5
94
100
AcDbEntity
  8
0
370
    -3
390
0
  6
Continuous
100
AcDbLine
 10
223.27663
 20
-108.421786
 30
0.0
 11
183.27663
 21
-108.421786
 31
0.0
  0
LINE
  5
95
100
AcDbEntity
  8
0
370
    -3
390
0
  6
Continuous
100
AcDbLine
 10
223.27663
 20
-98.421786
 30
0.0
 11
183.27663
 21
-98.421786
 31
0.0
  0
CIRCLE
  5
96
100
AcDbEntity
  8
0
370
    -3
390
0
  6
Continuous
100
AcDbCircle
 10
402.318919
 20
-103.421786
 30
0.0
 40
4.0
  0
CIRCLE
  5
97
100
AcDbEntity
  8
0
370
    -3
390
0
  6
Continuous
100
AcDbCircle
 10
402.318919
 20
-103.421786
 30
0.0
 40
3.3235
  0
LINE
  5
98
100
AcDbEntity
  8
0
370
    -3
390
0
  6
Continuous
100
AcDbLine
 10
173.27663
 20
-120.221786
 30
0.0
 11
173.07663
 21
-120.421786
 31
0.0
  0
ARC
  5
99
100
AcDbEntity
  8
0
370
    -3
390
0
  6
Continuous
100
AcDbCircle
 10
174.07663
 20
-120.071786
 30
0.0
 40
0.8
100
AcDbArc
 50
90.0
 51
176.296803
  0
LINE
  5
9A
100
AcDbEntity
  8
0
370
    -3
390
0
  6
Continuous
100
AcDbLine
 10
173.27663
 20
-120.221786
 30
0.0
 11
173.27663
 21
-103.421786
 31
0.0
  0
LINE
  5
9B
100
AcDbEntity
  8
0
370
    -3
390
0
  6
Continuous
100
AcDbLine
 10
175.27663
 20
-119.271786
 30
0.0
 11
174.07663
 21
-119.271786
 31
0.0
  0
LINE
  5
9C
100
AcDbEntity
  8
0
370
    -3
390
0
  6
Continuous
100
AcDbLine
 10
222.87663
 20
-119.421786
 30
0.0
 11
175.836438
 21
-119.421786
 31
0.0
  0
LINE
  5
9D
100
AcDbEntity
  8
0
370
    -3
390
0
  6
Continuous
100
AcDbLine
 10
175.27663
 20
-119.271786
 30
0.0
 11
175.836438
 21
-119.421786
 31
0.0
  0
LINE
  5
9E
100
AcDbEntity
  8
0
370
    -3
390
0
  6
Continuous
100
AcDbLine
 10
173.27663
 20
-86.621786
 30
0.0
 11
173.07663
 21
-86.421786
 31
0.0
  0
ARC
  5
9F
100
AcDbEntity
  8
0
370
    -3
390
0
  6
Continuous
100
AcDbCircle
 10
174.07663
 20
-86.771786
 30
0.0
 40
0.8
100
AcDbArc
 50
183.703197
 51
270.0
  0
LINE
  5
A0
100
AcDbEntity
  8
0
370
    -3
390
0
  6
Continuous
100
AcDbLine
 10
173.27663
 20
-86.621786
 30
0.0
 11
173.27663
 21
-103.421786
 31
0.0
  0
LINE
  5
A1
100
AcDbEntity
  8
0
370
    -3
390
0
  6
Continuous
100
AcDbLine
 10
175.27663
 20
-87.571786
 30
0.0
 11
174.07663
 21
-87.571786
 31
0.0
  0
LINE
  5
A2
100
AcDbEntity
  8
0
370
    -3
390
0
  6
Continuous
100
AcDbLine
 10
175.27663
 20
-87.571786
 30
0.0
 11
175.836438
 21
-87.421786
 31
0.0
  0
LINE
  5
A3
100
AcDbEntity
  8
0
370
    -3
390
0
  6
Continuous
100
AcDbLine
 10
222.87663
 20
-87.421786
 30
0.0
 11
175.836438
 21
-87.421786
 31
0.0
  0
LINE
  5
A4
100
AcDbEntity
  8
0
370
    -3
390
0
  6
Continuous
100
AcDbLine
 10
171.27663
 20
-120.421786
 30
0.0
 11
173.07663
 21
-120.421786
 31
0.0
  0
LINE
  5
A5
100
AcDbEntity
  8
0
370
    -3
390
0
  6
Continuous
100
AcDbLine
 10
171.27663
 20
-86.421786
 30
0.0
 11
173.07663
 21
-86.421786
 31
0.0
  0
LINE
  5
A6
100
AcDbEntity
  8
0
370
    -3
390
0
  6
CENTER
100
AcDbLine
 10
120.206252
 20
-103.421786
 30
0.0
 11
226.200033
 21
-103.421786
 31
0.0
  0
LINE
  5
A7
100
AcDbEntity
  8
0
370
    -3
390
0
  6
Continuous
100
AcDbLine
 10
223.27663
 20
-103.421786
 30
0.0
 11
223.27663
 21
-87.821786
 31
0.0
  0
ARC
  5
A8
100
AcDbEntity
  8
0
370
    -3
390
0
  6
Continuous
100
AcDbCircle
 10
183.27663
 20
-103.421786
 30
0.0
 40
5.0
100
AcDbArc
 50
90.0
 51
270.0
  0
ELLIPSE
  5
A9
100
AcDbEntity
  8
0
370
    -3
390
0
  6
Continuous
100
AcDbEllipse
 10
324.237787
 20
-103.421786
 30
0.0
 11
0.0
 21
10.0
 31
0.0
210
0.0
220
0.0
230
1.0
 40
0.770966
 41
4.7123889202917368
 42
1.5707963267948968
  0
LINE
  5
AA
100
AcDbEntity
  8
0
370
    -3
390
0
  6
Continuous
100
AcDbLine
 10
308.318919
 20
-113.655184
 30
0.0
 11
308.318919
 21
-207.421786
 31
0.0
  0
LINE
  5
AB
100
AcDbEntity
  8
0
370
    -3
390
0
  6
CENTER
100
AcDbLine
 10
300.799662
 20
-103.421786
 30
0.0
 11
505.23614
 21
-103.421786
 31
0.0
  0
LINE
  5
AC
100
AcDbEntity
  8
0
370
    -3
390
0
  6
Continuous
100
AcDbLine
 10
316.52813
 20
-103.421786
 30
0.0
 11
316.52813
 21
-207.421786
 31
0.0
  0
LINE
  5
AD
100
AcDbEntity
  8
0
370
    -3
390
0
  6
Continuous
100
AcDbLine
 10
331.947445
 20
-103.421787
 30
0.0
 11
331.947445
 21
-207.421786
 31
0.0
  0
LINE
  5
AE
100
AcDbEntity
  8
0
370
    -3
390
0
  6
Continuous
100
AcDbLine
 10
335.571919
 20
-113.421786
 30
0.0
 11
335.571919
 21
-207.421786
 31
0.0
  0
ARC
  5
AF
100
AcDbEntity
  8
0
370
    -3
390
0
  6
Continuous
100
AcDbCircle
 10
388.318919
 20
-113.655184
 30
0.0
 40
52.74675
100
AcDbArc
 50
91.910213
 51
180.0
  0
ARC
  5
B0
100
AcDbEntity
  8
0
370
    -3
390
0
  6
Continuous
100
AcDbCircle
 10
388.318919
 20
-113.655184
 30
0.0
 40
80.0
100
AcDbArc
 50
91.910213
 51
180.0
  0
LINE
  5
B1
100
AcDbEntity
  8
0
370
    -3
390
0
  6
Continuous
100
AcDbLine
 10
27.77663
 20
-133.421786
 30
0.0
 11
27.77663
 21
-204.921786
 31
0.0
  0
LINE
  5
B2
100
AcDbEntity
  8
0
370
    -3
390
0
  6
Continuous
100
AcDbLine
 10
27.77663
 20
-133.421786
 30
0.0
 11
27.77663
 21
-61.921786
 31
0.0
  0
LINE
  5
B3
100
AcDbEntity
  8
0
370
    -3
390
0
  6
CENTER
100
AcDbLine
 10
71.091002
 20
-133.421786
 30
0.0
 11
-253.704121
 21
-133.421786
 31
0.0
  0
LINE
  5
B4
100
AcDbEntity
  8
0
370
    -3
390
0
  6
Continuous
100
AcDbLine
 10
64.599541
 20
-191.018951
 30
0.0
 11
46.551458
 21
-206.936612
 31
0.0
  0
ARC
  5
B5
100
AcDbEntity
  8
0
370
    -3
390
0
  6
Continuous
100
AcDbCircle
 10
43.244182
 20
-203.186689
 30
0.0
 40
5.0
100
AcDbArc
 50
273.858884
 51
311.410958
  0
LINE
  5
B6
100
AcDbEntity
  8
0
370
    -3
390
0
  6
Continuous
100
AcDbLine
 10
10.27663
 20
-213.226246
 30
0.0
 11
10.27663
 21
-228.421786
 31
0.0
  0
LINE
  5
B7
100
AcDbEntity
  8
0
370
    -3
390
0
  6
CENTER
100
AcDbLine
 10
23.27663
 20
-206.199747
 30
0.0
 11
23.27663
 21
-235.123928
 31
0.0
  0
LINE
  5
B8
100
AcDbEntity
  8
0
370
    -3
390
0
  6
Continuous
100
AcDbLine
 10
65.195823
 20
-206.717363
 30
0.0
 11
40.27663
 21
-208.398218
 31
0.0
  0
ARC
  5
B9
100
AcDbEntity
  8
0
370
    -3
390
0
  6
Continuous
100
AcDbCircle
 10
13.27663
 20
-213.226246
 30
0.0
 40
3.0
100
AcDbArc
 50
93.858884
 51
180.0
  0
LINE
  5
BA
100
AcDbEntity
  8
0
370
    -3
390
0
  6
Continuous
100
AcDbLine
 10
40.27663
 20
-208.398218
 30
0.0
 11
13.074732
 21
-210.233048
 31
0.0
  0
LINE
  5
BB
100
AcDbEntity
  8
0
370
    -3
390
0
  6
Continuous
100
AcDbLine
 10
29.77663
 20
-157.422017
 30
0.0
 11
50.77663
 21
-157.422017
 31
0.0
  0
LINE
  5
BC
100
AcDbEntity
  8
0
370
    -3
390
0
  6
Continuous
100
AcDbLine
 10
29.77663
 20
-109.421555
 30
0.0
 11
48.77663
 21
-109.421555
 31
0.0
  0
LINE
  5
BD
100
AcDbEntity
  8
0
370
    -3
390
0
  6
Continuous
100
AcDbLine
 10
50.77663
 20
-117.885888
 30
0.0
 11
50.77663
 21
-203.210185
 31
0.0
  0
LINE
  5
BE
100
AcDbEntity
  8
0
370
    -3
390
0
  6
Continuous
100
AcDbLine
 10
50.77663
 20
-36.421786
 30
0.0
 11
50.77663
 21
-98.957684
 31
0.0
  0
LINE
  5
BF
100
AcDbEntity
  8
0
370
    -3
390
0
  6
Continuous
100
AcDbLine
 10
29.77663
 20
-133.421786
 30
0.0
 11
29.77663
 21
-63.853164
 31
0.0
  0
LINE
  5
C0
100
AcDbEntity
  8
0
370
    -3
390
0
  6
Continuous
100
AcDbLine
 10
29.77663
 20
-133.421786
 30
0.0
 11
29.77663
 21
-202.990409
 31
0.0
  0
LINE
  5
C1
100
AcDbEntity
  8
0
370
    -3
390
0
  6
Continuous
100
AcDbLine
 10
27.77663
 20
-133.421786
 30
0.0
 11
27.77663
 21
-198.421786
 31
0.0
  0
LINE
  5
C2
100
AcDbEntity
  8
0
370
    -3
390
0
  6
Continuous
100
AcDbLine
 10
27.77663
 20
-133.421786
 30
0.0
 11
27.77663
 21
-68.421786
 31
0.0
  0
ARC
  5
C3
100
AcDbEntity
  8
0
370
    -3
390
0
  6
Continuous
100
AcDbCircle
 10
45.77663
 20
-56.360006
 30
0.0
 40
5.0
100
AcDbArc
 50
272.0
 51
329.17911
  0
LINE
  5
C4
100
AcDbEntity
  8
0
370
    -3
390
0
  6
Continuous
100
AcDbLine
 10
45.951128
 20
-61.35696
 30
0.0
 11
31.706831
 21
-61.854382
 31
0.0
  0
ARC
  5
C5
100
AcDbEntity
  8
0
370
    -3
390
0
  6
Continuous
100
AcDbCircle
 10
31.77663
 20
-63.853164
 30
0.0
 40
2.0
100
AcDbArc
 50
92.0
 51
180.0
  0
ARC
  5
C6
100
AcDbEntity
  8
0
370
    -3
390
0
  6
Continuous
100
AcDbCircle
 10
27.77663
 20
-66.421786
 30
0.0
 40
2.0
100
AcDbArc
 50
270.0
 51
0.0
  0
ARC
  5
C7
100
AcDbEntity
  8
0
370
    -3
390
0
  6
Continuous
100
AcDbCircle
 10
27.77663
 20
-200.421786
 30
0.0
 40
2.0
100
AcDbArc
 50
0.0
 51
90.0
  0
ARC
  5
C8
100
AcDbEntity
  8
0
370
    -3
390
0
  6
Continuous
100
AcDbCircle
 10
31.77663
 20
-202.990409
 30
0.0
 40
2.0
100
AcDbArc
 50
180.0
 51
268.0
  0
LINE
  5
C9
100
AcDbEntity
  8
0
370
    -3
390
0
  6
Continuous
100
AcDbLine
 10
45.951128
 20
-205.486612
 30
0.0
 11
31.706831
 21
-204.98919
 31
0.0
  0
ARC
  5
CA
100
AcDbEntity
  8
0
370
    -3
390
0
  6
Continuous
100
AcDbCircle
 10
45.77663
 20
-210.483566
 30
0.0
 40
5.0
100
AcDbArc
 50
66.848657
 51
88.0
  0
LINE
  5
CB
100
AcDbEntity
  8
0
370
    -3
390
0
  6
Continuous
100
AcDbLine
 10
39.77663
 20
1.578214
 30
0.0
 11
39.77663
 21
-52.421786
 31
0.0
  0
LINE
  5
CC
100
AcDbEntity
  8
0
370
    -3
390
0
  6
Continuous
100
AcDbLine
 10
35.27663
 20
-52.421786
 30
0.0
 11
35.27663
 21
1.578214
 31
0.0
  0
LINE
  5
CD
100
AcDbEntity
  8
0
370
    -3
390
0
  6
Continuous
100
AcDbLine
 10
35.27663
 20
-52.421786
 30
0.0
 11
39.77663
 21
-52.421786
 31
0.0
  0
ARC
  5
CE
100
AcDbEntity
  8
0
370
    -3
390
0
  6
Continuous
100
AcDbCircle
 10
42.77663
 20
-51.421786
 30
0.0
 40
3.0
100
AcDbArc
 50
180.0
 51
270.0
  0
ARC
  5
CF
100
AcDbEntity
  8
0
370
    -3
390
0
  6
Continuous
100
AcDbCircle
 10
48.77663
 20
-98.957684
 30
0.0
 40
2.0
100
AcDbArc
 50
300.0
 51
0.0
  0
ARC
  5
D0
100
AcDbEntity
  8
0
370
    -3
390
0
  6
Continuous
100
AcDbCircle
 10
50.77663
 20
-102.421786
 30
0.0
 40
2.0
100
AcDbArc
 50
120.0
 51
180.0
  0
ARC
  5
D1
100
AcDbEntity
  8
0
370
    -3
390
0
  6
Continuous
100
AcDbCircle
 10
48.77663
 20
-117.885888
 30
0.0
 40
2.0
100
AcDbArc
 50
0.0
 51
60.0
  0
ARC
  5
D2
100
AcDbEntity
  8
0
370
    -3
390
0
  6
Continuous
100
AcDbCircle
 10
50.77663
 20
-114.421786
 30
0.0
 40
2.0
100
AcDbArc
 50
180.0
 51
240.0
  0
LINE
  5
D3
100
AcDbEntity
  8
0
370
    -3
390
0
  6
Continuous
100
AcDbLine
 10
48.77663
 20
-102.421786
 30
0.0
 11
48.77663
 21
-114.421786
 31
0.0
  0
LINE
  5
D4
100
AcDbEntity
  8
0
370
    -3
390
0
  6
Continuous
100
AcDbLine
 10
62.77663
 20
-133.421786
 30
0.0
 11
62.77663
 21
-33.421786
 31
0.0
  0
LINE
  5
D5
100
AcDbEntity
  8
0
370
    -3
390
0
  6
Continuous
100
AcDbLine
 10
62.77663
 20
-133.421786
 30
0.0
 11
62.77663
 21
-192.626682
 31
0.0
  0
ARC
  5
D6
100
AcDbEntity
  8
0
370
    -3
390
0
  6
Continuous
100
AcDbCircle
 10
42.77663
 20
-36.421786
 30
0.0
 40
3.0
100
AcDbArc
 50
90.0
 51
180.0
  0
ARC
  5
D7
100
AcDbEntity
  8
0
370
    -3
390
0
  6
Continuous
100
AcDbCircle
 10
53.77663
 20
-36.421786
 30
0.0
 40
3.0
100
AcDbArc
 50
90.0
 51
180.0
  0
LINE
  5
D8
100
AcDbEntity
  8
0
370
    -3
390
0
  6
Continuous
100
AcDbLine
 10
39.77663
 20
-51.421786
 30
0.0
 11
39.77663
 21
-36.421786
 31
0.0
  0
INSERT
  5
E4
100
AcDbEntity
  8
0
390
0
100
AcDbBlockReference
  2
ZU_SYM__USERS_HOME_SYMBOL_POO_SYM_B20_18
 10
35.27663
 20
-42.421786
 30
0.0
  0
INSERT
  5
F0
100
AcDbEntity
  8
0
390
0
100
AcDbBlockReference
  2
ZU_SYM__USERS_HOME_SYMBOL_POO_SYM_B20_0000118
 10
50.77663
 20
-128.421786
 30
0.0
  0
INSERT
  5
FC
100
AcDbEntity
  8
0
390
0
100
AcDbBlockReference
  2
ZU_SYM__USERS_HOME_SYMBOL_POO_SYM_B20_0000218
 10
50.77663
 20
-52.421786
 30
0.0
  0
ARC
  5
FD
100
AcDbEntity
  8
0
370
    -3
390
0
  6
Continuous
100
AcDbCircle
 10
39.77663
 20
-58.57075
 30
0.0
 40
3.0
100
AcDbArc
 50
272.0
 51
0.0
  0
LINE
  5
FE
100
AcDbEntity
  8
0
370
    -3
390
0
  6
Continuous
100
AcDbLine
 10
42.77663
 20
-58.57075
 30
0.0
 11
42.77663
 21
-58.055854
 31
0.0
  0
LINE
  5
FF
100
AcDbEntity
  8
0
370
    -3
390
0
  6
CENTER
100
AcDbLine
 10
373.043483
 20
-133.421786
 30
0.0
 11
437.600621
 21
-133.421786
 31
0.0
  0
LINE
  5
100
100
AcDbEntity
  8
0
370
    -3
390
0
  6
Continuous
100
AcDbLine
 10
-58.77337
 20
-164.821992
 30
0.0
 11
27.77663
 21
-164.821992
 31
0.0
  0
LINE
  5
101
100
AcDbEntity
  8
0
370
    -3
390
0
  6
Continuous
100
AcDbLine
 10
-58.844185
 20
-166.02158
 30
0.0
 11
27.77663
 21
-166.02158
 31
0.0
  0
LINE
  5
102
100
AcDbEntity
  8
0
370
    -3
390
0
  6
Continuous
100
AcDbLine
 10
27.77663
 20
-174.02158
 30
0.0
 11
-58.77337
 21
-174.02158
 31
0.0
  0
LINE
  5
103
100
AcDbEntity
  8
0
370
    -3
390
0
  6
Continuous
100
AcDbLine
 10
27.77663
 20
-172.821992
 30
0.0
 11
-58.77337
 21
-172.821992
 31
0.0
  0
LINE
  5
104
100
AcDbEntity
  8
0
370
    -3
390
0
  6
Continuous
100
AcDbLine
 10
-60.455107
 20
-189.273407
 30
0.0
 11
27.77663
 21
-189.273407
 31
0.0
  0
LINE
  5
105
100
AcDbEntity
  8
0
370
    -3
390
0
  6
Continuous
100
AcDbLine
 10
-58.77337
 20
-182.343761
 30
0.0
 11
27.77663
 21
-182.343761
 31
0.0
  0
LINE
  5
106
100
AcDbEntity
  8
0
370
    -3
390
0
  6
Continuous
100
AcDbLine
 10
-115.22337
 20
-84.499811
 30
0.0
 11
27.77663
 21
-84.499811
 31
0.0
  0
LINE
  5
107
100
AcDbEntity
  8
0
370
    -3
390
0
  6
Continuous
100
AcDbLine
 10
-115.22337
 20
-77.570165
 30
0.0
 11
27.77663
 21
-77.570165
 31
0.0
  0
LINE
  5
108
100
AcDbEntity
  8
0
370
    -3
390
0
  6
Continuous
100
AcDbLine
 10
27.77663
 20
-133.421786
 30
0.0
 11
27.77663
 21
-61.921786
 31
0.0
  0
LINE
  5
109
100
AcDbEntity
  8
0
370
    -3
390
0
  6
Continuous
100
AcDbLine
 10
-115.22337
 20
-208.221786
 30
0.0
 11
-115.22337
 21
-194.427898
 31
0.0
  0
LINE
  5
10A
100
AcDbEntity
  8
0
370
    -3
390
0
  6
Continuous
100
AcDbLine
 10
-115.22337
 20
-58.621786
 30
0.0
 11
-115.22337
 21
-90.825178
 31
0.0
  0
LINE
  5
10B
100
AcDbEntity
  8
0
370
    -3
390
0
  6
Continuous
100
AcDbLine
 10
-115.22337
 20
-58.621786
 30
0.0
 11
-209.970534
 21
-58.621786
 31
0.0
  0
LINE
  5
10C
100
AcDbEntity
  8
0
370
    -3
390
0
  6
Continuous
100
AcDbLine
 10
-58.77337
 20
-157.421786
 30
0.0
 11
27.77663
 21
-157.421786
 31
0.0
  0
LINE
  5
10D
100
AcDbEntity
  8
0
370
    -3
390
0
  6
Continuous
100
AcDbLine
 10
-115.22337
 20
-195.421786
 30
0.0
 11
27.77663
 21
-195.421786
 31
0.0
  0
LINE
  5
10E
100
AcDbEntity
  8
0
370
    -3
390
0
  6
Continuous
100
AcDbLine
 10
-115.22337
 20
-204.921786
 30
0.0
 11
27.77663
 21
-204.921786
 31
0.0
  0
LINE
  5
10F
100
AcDbEntity
  8
0
370
    -3
390
0
  6
Continuous
100
AcDbLine
 10
-115.22337
 20
-202.921786
 30
0.0
 11
27.77663
 21
-202.921786
 31
0.0
  0
LINE
  5
110
100
AcDbEntity
  8
0
370
    -3
390
0
  6
Continuous
100
AcDbLine
 10
-115.22337
 20
-204.421786
 30
0.0
 11
27.77663
 21
-204.421786
 31
0.0
  0
LINE
  5
111
100
AcDbEntity
  8
0
370
    -3
390
0
  6
Continuous
100
AcDbLine
 10
-115.22337
 20
-199.921786
 30
0.0
 11
27.77663
 21
-199.921786
 31
0.0
  0
LINE
  5
112
100
AcDbEntity
  8
0
370
    -3
390
0
  6
Continuous
100
AcDbLine
 10
-58.77337
 20
-109.421786
 30
0.0
 11
27.77663
 21
-109.421786
 31
0.0
  0
LINE
  5
113
100
AcDbEntity
  8
0
370
    -3
390
0
  6
Continuous
100
AcDbLine
 10
-58.77337
 20
-102.02158
 30
0.0
 11
27.77663
 21
-102.02158
 31
0.0
  0
LINE
  5
114
100
AcDbEntity
  8
0
370
    -3
390
0
  6
Continuous
100
AcDbLine
 10
-58.844185
 20
-100.821992
 30
0.0
 11
27.77663
 21
-100.821992
 31
0.0
  0
LINE
  5
115
100
AcDbEntity
  8
0
370
    -3
390
0
  6
Continuous
100
AcDbLine
 10
-115.22337
 20
-71.421786
 30
0.0
 11
27.77663
 21
-71.421786
 31
0.0
  0
LINE
  5
116
100
AcDbEntity
  8
0
370
    -3
390
0
  6
Continuous
100
AcDbLine
 10
-115.22337
 20
-61.921786
 30
0.0
 11
27.77663
 21
-61.921786
 31
0.0
  0
LINE
  5
117
100
AcDbEntity
  8
0
370
    -3
390
0
  6
Continuous
100
AcDbLine
 10
-115.22337
 20
-63.921786
 30
0.0
 11
27.77663
 21
-63.921786
 31
0.0
  0
LINE
  5
118
100
AcDbEntity
  8
0
370
    -3
390
0
  6
Continuous
100
AcDbLine
 10
-115.22337
 20
-62.421786
 30
0.0
 11
27.77663
 21
-62.421786
 31
0.0
  0
LINE
  5
119
100
AcDbEntity
  8
0
370
    -3
390
0
  6
Continuous
100
AcDbLine
 10
-115.22337
 20
-66.921786
 30
0.0
 11
27.77663
 21
-66.921786
 31
0.0
  0
LINE
  5
11A
100
AcDbEntity
  8
0
370
    -3
390
0
  6
Continuous
100
AcDbLine
 10
-240.32337
 20
-71.381227
 30
0.0
 11
-225.370534
 21
-62.748204
 31
0.0
  0
LINE
  5
11B
100
AcDbEntity
  8
0
370
    -3
390
0
  6
Continuous
100
AcDbLine
 10
-242.22337
 20
-133.421786
 30
0.0
 11
-242.22337
 21
-74.672124
 31
0.0
  0
ARC
  5
11C
100
AcDbEntity
  8
0
370
    -3
390
0
  6
Continuous
100
AcDbCircle
 10
-238.42337
 20
-74.672124
 30
0.0
 40
3.8
100
AcDbArc
 50
120.0
 51
180.0
  0
ARC
  5
11D
100
AcDbEntity
  8
0
370
    -3
390
0
  6
Continuous
100
AcDbCircle
 10
-209.970534
 20
-89.421786
 30
0.0
 40
30.8
100
AcDbArc
 50
90.0
 51
120.0
  0
LINE
  5
11E
100
AcDbEntity
  8
0
370
    -3
390
0
  6
Continuous
100
AcDbLine
 10
-132.22337
 20
-73.176288
 30
0.0
 11
-134.152574
 21
-71.965626
 31
0.0
  0
LINE
  5
11F
100
AcDbEntity
  8
0
370
    -3
390
0
  6
Continuous
100
AcDbLine
 10
-132.22337
 20
-73.176288
 30
0.0
 11
-134.22337
 21
-74.749626
 31
0.0
  0
LINE
  5
120
100
AcDbEntity
  8
0
370
    -3
390
0
  6
Continuous
100
AcDbLine
 10
-132.22337
 20
-73.176288
 30
0.0
 11
-130.294165
 21
-71.965626
 31
0.0
  0
LINE
  5
121
100
AcDbEntity
  8
0
370
    -3
390
0
  6
Continuous
100
AcDbLine
 10
-132.22337
 20
-73.176288
 30
0.0
 11
-130.22337
 21
-74.749626
 31
0.0
  0
ELLIPSE
  5
122
100
AcDbEntity
  8
0
370
    -3
390
0
  6
Continuous
100
AcDbEllipse
 10
-132.22337
 20
-75.014766
 30
0.0
 11
4.5
 21
0.0
 31
0.0
210
0.0
220
0.0
230
1.0
 40
0.707107
 41
2.158706662346169
 42
0.9828859912435821
  0
ELLIPSE
  5
123
100
AcDbEntity
  8
0
370
    -3
390
0
  6
Continuous
100
AcDbEllipse
 10
-132.22337
 20
-74.478248
 30
0.0
 11
3.5
 21
0.0
 31
0.0
210
0.0
220
0.0
230
1.0
 40
0.860398
 41
0.0
 42
6.2831853071795862
  0
ELLIPSE
  5
124
100
AcDbEntity
  8
0
370
    -3
390
0
  6
Continuous
100
AcDbEllipse
 10
-132.22337
 20
-75.580451
 30
0.0
 11
5.0
 21
0.0
 31
0.0
210
0.0
220
0.0
230
1.0
 40
0.707107
 41
2.4023208266491727
 42
3.1415926535897931
  0
ELLIPSE
  5
125
100
AcDbEntity
  8
0
370
    -3
390
0
  6
Continuous
100
AcDbEllipse
 10
-132.22337
 20
-75.580451
 30
0.0
 11
5.0
 21
0.0
 31
0.0
210
0.0
220
0.0
230
1.0
 40
0.707107
 41
0.0
 42
0.7392718269406207
  0
LINE
  5
126
100
AcDbEntity
  8
0
370
    -3
390
0
  6
Continuous
100
AcDbLine
 10
-127.72337
 20
-75.014766
 30
0.0
 11
-127.72337
 21
-75.580451
 31
0.0
  0
LINE
  5
127
100
AcDbEntity
  8
0
370
    -3
390
0
  6
Continuous
100
AcDbLine
 10
-136.72337
 20
-75.014766
 30
0.0
 11
-136.72337
 21
-75.580451
 31
0.0
  0
ELLIPSE
  5
128
100
AcDbEntity
  8
0
370
    -3
390
0
  6
Continuous
100
AcDbEllipse
 10
-132.22337
 20
-75.580451
 30
0.0
 11
4.5
 21
0.0
 31
0.0
210
0.0
220
0.0
230
1.0
 40
0.707107
 41
3.1415926535897931
 42
0.0
  0
LINE
  5
129
100
AcDbEntity
  8
0
370
    -3
390
0
  6
Continuous
100
AcDbLine
 10
-127.22337
 20
-75.580451
 30
0.0
 11
-127.22337
 21
-76.397055
 31
0.0
  0
LINE
  5
12A
100
AcDbEntity
  8
0
370
    -3
390
0
  6
Continuous
100
AcDbLine
 10
-137.22337
 20
-75.580451
 30
0.0
 11
-137.22337
 21
-76.397055
 31
0.0
  0
ELLIPSE
  5
12B
100
AcDbEntity
  8
0
370
    -3
390
0
  6
Continuous
100
AcDbEllipse
 10
-132.22337
 20
-76.397055
 30
0.0
 11
5.0
 21
0.0
 31
0.0
210
0.0
220
0.0
230
1.0
 40
0.707107
 41
3.1415926535897931
 42
0.0
  0
ARC
  5
12C
100
AcDbEntity
  8
0
370
    -3
390
0
  6
Continuous
100
AcDbCircle
 10
-209.970534
 20
-177.421786
 30
0.0
 40
30.8
100
AcDbArc
 50
240.0
 51
270.0
  0
LINE
  5
12D
100
AcDbEntity
  8
0
370
    -3
390
0
  6
Continuous
100
AcDbLine
 10
-240.32337
 20
-195.462345
 30
0.0
 11
-225.370534
 21
-204.095369
 31
0.0
  0
ELLIPSE
  5
12E
100
AcDbEntity
  8
0
370
    -3
390
0
  6
Continuous
100
AcDbEllipse
 10
-132.22337
 20
-192.365324
 30
0.0
 11
3.5
 21
0.0
 31
0.0
210
0.0
220
0.0
230
1.0
 40
0.860398
 41
3.8960914922822831
 42
5.5286864684870967
  0
LINE
  5
12F
100
AcDbEntity
  8
0
370
    -3
390
0
  6
Continuous
100
AcDbLine
 10
-133.435417
 20
-194.427898
 30
0.0
 11
-134.152574
 21
-194.877946
 31
0.0
  0
LINE
  5
130
100
AcDbEntity
  8
0
370
    -3
390
0
  6
Continuous
100
AcDbLine
 10
-131.011322
 20
-194.427898
 30
0.0
 11
-130.294165
 21
-194.877946
 31
0.0
  0
LINE
  5
131
100
AcDbEntity
  8
0
370
    -3
390
0
  6
Continuous
100
AcDbLine
 10
-115.22337
 20
-208.221786
 30
0.0
 11
-209.970534
 21
-208.221786
 31
0.0
  0
ARC
  5
132
100
AcDbEntity
  8
0
370
    -3
390
0
  6
Continuous
100
AcDbCircle
 10
-238.42337
 20
-192.171449
 30
0.0
 40
3.8
100
AcDbArc
 50
180.0
 51
240.0
  0
LINE
  5
133
100
AcDbEntity
  8
0
370
    -3
390
0
  6
Continuous
100
AcDbLine
 10
-242.22337
 20
-133.421786
 30
0.0
 11
-242.22337
 21
-192.171449
 31
0.0
  0
LINE
  5
134
100
AcDbEntity
  8
0
370
    -3
390
0
  6
Continuous
100
AcDbLine
 10
27.77663
 20
-92.821992
 30
0.0
 11
-63.824566
 21
-92.821992
 31
0.0
  0
LINE
  5
135
100
AcDbEntity
  8
0
370
    -3
390
0
  6
Continuous
100
AcDbLine
 10
27.77663
 20
-94.02158
 30
0.0
 11
-61.824869
 21
-94.02158
 31
0.0
  0
ARC
  5
136
100
AcDbEntity
  8
0
370
    -3
390
0
  6
Continuous
100
AcDbCircle
 10
305.612358
 20
-94.221579
 30
0.0
 40
3.0
100
AcDbArc
 50
279.318123
 51
336.0
  0
ARC
  5
137
100
AcDbEntity
  8
0
370
    -3
390
0
  6
Continuous
100
AcDbCircle
 10
311.048819
 20
-91.845461
 30
0.0
 40
1.0
100
AcDbArc
 50
66.0
 51
156.0
  0
LINE
  5
138
100
AcDbEntity
  8
0
370
    -3
390
0
  6
Continuous
100
AcDbLine
 10
310.135274
 20
-91.438724
 30
0.0
 11
291.44321
 21
-133.421786
 31
0.0
  0
LINE
  5
139
100
AcDbEntity
  8
0
370
    -3
390
0
  6
Continuous
100
AcDbLine
 10
306.098106
 20
-97.181993
 30
0.0
 11
280.142469
 21
-101.440822
 31
0.0
  0
LINE
  5
13A
100
AcDbEntity
  8
0
370
    -3
390
0
  6
Continuous
100
AcDbLine
 10
270.390978
 20
-190.048528
 30
0.0
 11
274.227869
 21
-191.756822
 31
0.0
  0
LINE
  5
13B
100
AcDbEntity
  8
0
370
    -3
390
0
  6
Continuous
100
AcDbLine
 10
271.733209
 20
-187.033828
 30
0.0
 11
275.5701
 21
-188.742122
 31
0.0
  0
LINE
  5
13C
100
AcDbEntity
  8
0
370
    -3
390
0
  6
Continuous
100
AcDbLine
 10
275.392717
 20
-188.280023
 30
0.0
 11
275.5701
 21
-188.742122
 31
0.0
  0
LINE
  5
13D
100
AcDbEntity
  8
0
370
    -3
390
0
  6
Continuous
100
AcDbLine
 10
273.76577
 20
-191.934205
 30
0.0
 11
274.227869
 21
-191.756822
 31
0.0
  0
LINE
  5
13E
100
AcDbEntity
  8
0
370
    -3
390
0
  6
Continuous
100
AcDbLine
 10
275.5701
 20
-188.742122
 30
0.0
 11
274.227869
 21
-191.756822
 31
0.0
  0
POINT
  5
13F
100
AcDbEntity
  8
0
370
    -3
390
0
  6
Continuous
100
AcDbPoint
 10
267.590621
 20
-186.995579
 30
0.0
  0
LINE
  5
140
100
AcDbEntity
  8
0
370
    -3
390
0
  6
Continuous
100
AcDbLine
 10
269.014199
 20
-183.79817
 30
0.0
 11
266.167042
 21
-190.192988
 31
0.0
  0
LINE
  5
141
100
AcDbEntity
  8
0
370
    -3
390
0
  6
Continuous
100
AcDbLine
 10
269.014199
 20
-183.79817
 30
0.0
 11
266.167042
 21
-190.192988
 31
0.0
  0
LINE
  5
142
100
AcDbEntity
  8
0
370
    -3
390
0
  6
Continuous
100
AcDbLine
 10
266.167042
 20
-190.192988
 30
0.0
 11
265.272658
 21
-189.794782
 31
0.0
  0
LINE
  5
143
100
AcDbEntity
  8
0
370
    -3
390
0
  6
Continuous
100
AcDbLine
 10
269.014199
 20
-183.79817
 30
0.0
 11
268.119815
 21
-183.399964
 31
0.0
  0
ARC
  5
144
100
AcDbEntity
  8
0
370
    -3
390
0
  6
Continuous
100
AcDbCircle
 10
267.591057
 20
-184.587573
 30
0.0
 40
1.299999
100
AcDbArc
 50
65.999999
 51
139.398469
  0
ARC
  5
145
100
AcDbEntity
  8
0
370
    -3
390
0
  6
Continuous
100
AcDbCircle
 10
282.571208
 20
-116.24289
 30
0.0
 40
15.0
100
AcDbArc
 50
99.318123
 51
178.317231
  0
ARC
  5
146
100
AcDbEntity
  8
0
370
    -3
390
0
  6
Continuous
100
AcDbCircle
 10
867.318919
 20
-133.421786
 30
0.0
 40
600.0
100
AcDbArc
 50
178.317231
 51
184.715125
  0
ARC
  5
147
100
AcDbEntity
  8
0
370
    -3
390
0
  6
Continuous
100
AcDbCircle
 10
268.35287
 20
-182.824945
 30
0.0
 40
1.0
100
AcDbArc
 50
336.0
 51
4.715125
  0
LINE
  5
148
100
AcDbEntity
  8
0
370
    -3
390
0
  6
Continuous
100
AcDbLine
 10
265.738357
 20
-193.614425
 30
0.0
 11
268.296284
 21
-194.753287
 31
0.0
  0
ARC
  5
149
100
AcDbEntity
  8
0
370
    -3
390
0
  6
Continuous
100
AcDbCircle
 10
266.145094
 20
-192.700879
 30
0.0
 40
1.0
100
AcDbArc
 50
156.0
 51
246.0
  0
LINE
  5
14A
100
AcDbEntity
  8
0
370
    -3
390
0
  6
Continuous
100
AcDbLine
 10
291.44321
 20
-133.421786
 30
0.0
 11
265.231548
 21
-192.294142
 31
0.0
  0
ARC
  5
14B
100
AcDbEntity
  8
0
370
    -3
390
0
  6
Continuous
100
AcDbCircle
 10
269.524232
 20
-180.194024
 30
0.0
 40
1.0
100
AcDbArc
 50
336.0
 51
66.0
  0
ARC
  5
14C
100
AcDbEntity
  8
0
370
    -3
390
0
  6
Continuous
100
AcDbCircle
 10
270.948905
 20
-177.544421
 30
0.0
 40
2.0
100
AcDbArc
 50
184.231338
 51
246.0
  0
LINE
  5
14D
100
AcDbEntity
  8
0
370
    -3
390
0
  6
Continuous
100
AcDbLine
 10
271.875567
 20
-186.714087
 30
0.0
 11
275.392717
 21
-188.280023
 31
0.0
  0
LINE
  5
14E
100
AcDbEntity
  8
0
370
    -3
390
0
  6
Continuous
100
AcDbLine
 10
270.24862
 20
-190.368269
 30
0.0
 11
273.76577
 21
-191.934205
 31
0.0
  0
LINE
  5
14F
100
AcDbEntity
  8
0
370
    -3
390
0
  6
CENTER
100
AcDbLine
 10
291.318919
 20
-165.539262
 30
0.0
 11
291.318919
 21
-188.407771
 31
0.0
  0
ARC
  5
150
100
AcDbEntity
  8
0
370
    -3
390
0
  6
Continuous
100
AcDbCircle
 10
265.801416
 20
-188.607174
 30
0.0
 40
1.299999
100
AcDbArc
 50
172.601548
 51
246.000018
  0
ARC
  5
151
100
AcDbEntity
  8
0
370
    -3
390
0
  6
Continuous
100
AcDbCircle
 10
273.437311
 20
-189.598693
 30
0.0
 40
9.0
100
AcDbArc
 50
139.398469
 51
172.601548
  0
LINE
  5
152
100
AcDbEntity
  8
0
370
    -3
390
0
  6
Continuous
100
AcDbLine
 10
308.318919
 20
-179.921786
 30
0.0
 11
274.899694
 21
-179.921786
 31
0.0
  0
LINE
  5
153
100
AcDbEntity
  8
0
370
    -3
390
0
  6
Continuous
100
AcDbLine
 10
308.982865
 20
-103.36973
 30
0.0
 11
268.296284
 21
-194.753287
 31
0.0
  0
LINE
  5
154
100
AcDbEntity
  8
0
370
    -3
390
0
  6
CENTER
100
AcDbLine
 10
264.710952
 20
-185.713468
 30
0.0
 11
275.163185
 21
-190.367102
 31
0.0
  0
POINT
  5
155
100
AcDbEntity
  8
0
370
    -3
390
0
  6
CENTER
100
AcDbPoint
 10
-118.64244
 20
-192.868827
 30
0.0
  0
POINT
  5
156
100
AcDbEntity
  8
0
370
    -3
390
0
  6
CENTER
100
AcDbPoint
 10
-91.64244
 20
-192.868827
 30
0.0
  0
ARC
  5
157
100
AcDbEntity
  8
0
370
    -3
390
0
  6
Continuous
100
AcDbCircle
 10
-140.27337
 20
-108.421786
 30
0.0
 40
5.0
100
AcDbArc
 50
90.0
 51
180.0
  0
LINE
  5
158
100
AcDbEntity
  8
0
370
    -3
390
0
  6
Continuous
100
AcDbLine
 10
-105.22337
 20
-103.421786
 30
0.0
 11
-140.27337
 21
-103.421786
 31
0.0
  0
ARC
  5
159
100
AcDbEntity
  8
0
370
    -3
390
0
  6
Continuous
100
AcDbCircle
 10
-140.27337
 20
-101.919997
 30
0.0
 40
5.0
100
AcDbArc
 50
90.0
 51
180.0
  0
LINE
  5
15A
100
AcDbEntity
  8
0
370
    -3
390
0
  6
Continuous
100
AcDbLine
 10
-105.22337
 20
-96.919997
 30
0.0
 11
-140.27337
 21
-96.919997
 31
0.0
  0
ARC
  5
15B
100
AcDbEntity
  8
0
370
    -3
390
0
  6
Continuous
100
AcDbCircle
 10
-140.67337
 20
-101.825178
 30
0.0
 40
11.0
100
AcDbArc
 50
90.0
 51
180.0
  0
LINE
  5
15C
100
AcDbEntity
  8
0
370
    -3
390
0
  6
Continuous
100
AcDbLine
 10
-140.67337
 20
-90.825178
 30
0.0
 11
-105.22337
 21
-90.825178
 31
0.0
  0
LINE
  5
15D
100
AcDbEntity
  8
0
370
    -3
390
0
  6
Continuous
100
AcDbLine
 10
-145.27337
 20
-101.919997
 30
0.0
 11
-145.27337
 21
-177.997741
 31
0.0
  0
LINE
  5
15E
100
AcDbEntity
  8
0
370
    -3
390
0
  6
Continuous
100
AcDbLine
 10
-151.67337
 20
-101.825178
 30
0.0
 11
-151.67337
 21
-183.427898
 31
0.0
  0
LINE
  5
15F
100
AcDbEntity
  8
0
370
    -3
390
0
  6
Continuous
100
AcDbLine
 10
-140.67337
 20
-193.207688
 30
0.0
 11
-105.22337
 21
-193.207688
 31
0.0
  0
ARC
  5
160
100
AcDbEntity
  8
0
370
    -3
390
0
  6
Continuous
100
AcDbCircle
 10
-140.67337
 20
-182.207688
 30
0.0
 40
11.0
100
AcDbArc
 50
180.0
 51
270.0
  0
ARC
  5
161
100
AcDbEntity
  8
0
370
    -3
390
0
  6
Continuous
100
AcDbCircle
 10
-140.27337
 20
-177.997741
 30
0.0
 40
5.0
100
AcDbArc
 50
180.0
 51
270.0
  0
LINE
  5
162
100
AcDbEntity
  8
0
370
    -3
390
0
  6
Continuous
100
AcDbLine
 10
-140.67337
 20
-194.427898
 30
0.0
 11
-105.22337
 21
-194.427898
 31
0.0
  0
ARC
  5
163
100
AcDbEntity
  8
0
370
    -3
390
0
  6
Continuous
100
AcDbCircle
 10
-140.67337
 20
-183.427898
 30
0.0
 40
11.0
100
AcDbArc
 50
180.0
 51
270.0
  0
LINE
  5
164
100
AcDbEntity
  8
0
370
    -3
390
0
  6
Continuous
100
AcDbLine
 10
-113.710844
 20
-182.997741
 30
0.0
 11
-140.27337
 21
-182.997741
 31
0.0
  0
ARC
  5
165
100
AcDbEntity
  8
0
370
    -3
390
0
  6
Continuous
100
AcDbCircle
 10
-114.483588
 20
-178.997741
 30
0.0
 40
4.0
100
AcDbArc
 50
270.0
 51
318.821566
  0
ELLIPSE
  5
166
100
AcDbEntity
  8
0
370
    -3
390
0
  6
Continuous
100
AcDbEllipse
 10
-105.22337
 20
-186.193875
 30
0.0
 11
8.0
 21
0.0
 31
0.0
210
0.0
220
0.0
230
1.0
 40
0.913545
 41
1.5707963267948966
 42
2.4673754548869451
  0
ARC
  5
167
100
AcDbEntity
  8
0
370
    -3
390
0
  6
Continuous
100
AcDbCircle
 10
-113.710844
 20
-178.997741
 30
0.0
 40
4.0
100
AcDbArc
 50
270.0
 51
313.301579
  0
ELLIPSE
  5
168
100
AcDbEntity
  8
0
370
    -3
390
0
  6
Continuous
100
AcDbEllipse
 10
-105.22337
 20
-186.995579
 30
0.0
 11
8.0
 21
0.0
 31
0.0
210
0.0
220
0.0
230
1.0
 40
0.913545
 41
1.5707963267948966
 42
2.3717426386695215
  0
LINE
  5
169
100
AcDbEntity
  8
0
370
    -3
390
0
  6
Continuous
100
AcDbLine
 10
-103.22337
 20
-187.856684
 30
0.0
 11
-107.22337
 21
-184.202503
 31
0.0
  0
LINE
  5
16A
100
AcDbEntity
  8
0
370
    -3
390
0
  6
Continuous
100
AcDbLine
 10
-107.22337
 20
-187.856684
 30
0.0
 11
-103.22337
 21
-184.202503
 31
0.0
  0
ELLIPSE
  5
16B
100
AcDbEntity
  8
0
370
    -3
390
0
  6
Continuous
100
AcDbEllipse
 10
-105.22337
 20
-186.740281
 30
0.0
 11
3.5
 21
0.0
 31
0.0
210
0.0
220
0.0
230
1.0
 40
0.986488
 41
0.0
 42
6.2831853071795862
  0
ELLIPSE
  5
16C
100
AcDbEntity
  8
0
370
    -3
390
0
  6
Continuous
100
AcDbEllipse
 10
-105.22337
 20
-186.995579
 30
0.0
 11
8.0
 21
0.0
 31
0.0
210
0.0
220
0.0
230
1.0
 40
0.913545
 41
0.7698500149202718
 42
1.5707963267948966
  0
ARC
  5
16D
100
AcDbEntity
  8
0
370
    -3
390
0
  6
Continuous
100
AcDbCircle
 10
-96.735895
 20
-178.997741
 30
0.0
 40
4.0
100
AcDbArc
 50
226.698421
 51
270.0
  0
ELLIPSE
  5
16E
100
AcDbEntity
  8
0
370
    -3
390
0
  6
Continuous
100
AcDbEllipse
 10
-105.22337
 20
-186.193875
 30
0.0
 11
8.0
 21
0.0
 31
0.0
210
0.0
220
0.0
230
1.0
 40
0.913545
 41
0.6742171987028656
 42
1.5707963267948966
  0
ARC
  5
16F
100
AcDbEntity
  8
0
370
    -3
390
0
  6
Continuous
100
AcDbCircle
 10
-95.963151
 20
-178.997741
 30
0.0
 40
4.0
100
AcDbArc
 50
221.178434
 51
270.0
  0
LINE
  5
170
100
AcDbEntity
  8
0
370
    -3
390
0
  6
Continuous
100
AcDbLine
 10
-105.22337
 20
-96.919997
 30
0.0
 11
-70.17337
 21
-96.919997
 31
0.0
  0
ARC
  5
171
100
AcDbEntity
  8
0
370
    -3
390
0
  6
Continuous
100
AcDbCircle
 10
-70.17337
 20
-101.919997
 30
0.0
 40
5.0
100
AcDbArc
 50
0.0
 51
90.0
  0
LINE
  5
172
100
AcDbEntity
  8
0
370
    -3
390
0
  6
Continuous
100
AcDbLine
 10
-105.22337
 20
-103.421786
 30
0.0
 11
-70.17337
 21
-103.421786
 31
0.0
  0
ARC
  5
173
100
AcDbEntity
  8
0
370
    -3
390
0
  6
Continuous
100
AcDbCircle
 10
-70.17337
 20
-108.421786
 30
0.0
 40
5.0
100
AcDbArc
 50
0.0
 51
90.0
  0
LINE
  5
174
100
AcDbEntity
  8
0
370
    -3
390
0
  6
Continuous
100
AcDbLine
 10
-69.77337
 20
-90.825178
 30
0.0
 11
-105.22337
 21
-90.825178
 31
0.0
  0
ARC
  5
175
100
AcDbEntity
  8
0
370
    -3
390
0
  6
Continuous
100
AcDbCircle
 10
-69.77337
 20
-101.825178
 30
0.0
 40
11.0
100
AcDbArc
 50
0.0
 51
90.0
  0
LINE
  5
176
100
AcDbEntity
  8
0
370
    -3
390
0
  6
Continuous
100
AcDbLine
 10
-65.17337
 20
-101.919997
 30
0.0
 11
-65.17337
 21
-177.997741
 31
0.0
  0
LINE
  5
177
100
AcDbEntity
  8
0
370
    -3
390
0
  6
Continuous
100
AcDbLine
 10
-58.77337
 20
-101.825178
 30
0.0
 11
-58.77337
 21
-183.427898
 31
0.0
  0
LINE
  5
178
100
AcDbEntity
  8
0
370
    -3
390
0
  6
Continuous
100
AcDbLine
 10
-69.77337
 20
-193.207688
 30
0.0
 11
-105.22337
 21
-193.207688
 31
0.0
  0
ARC
  5
179
100
AcDbEntity
  8
0
370
    -3
390
0
  6
Continuous
100
AcDbCircle
 10
-69.77337
 20
-182.207688
 30
0.0
 40
11.0
100
AcDbArc
 50
270.0
 51
0.0
  0
ARC
  5
17A
100
AcDbEntity
  8
0
370
    -3
390
0
  6
Continuous
100
AcDbCircle
 10
-69.77337
 20
-183.427898
 30
0.0
 40
11.0
100
AcDbArc
 50
270.0
 51
0.0
  0
LINE
  5
17B
100
AcDbEntity
  8
0
370
    -3
390
0
  6
Continuous
100
AcDbLine
 10
-96.735895
 20
-182.997741
 30
0.0
 11
-70.17337
 21
-182.997741
 31
0.0
  0
ARC
  5
17C
100
AcDbEntity
  8
0
370
    -3
390
0
  6
Continuous
100
AcDbCircle
 10
-70.17337
 20
-177.997741
 30
0.0
 40
5.0
100
AcDbArc
 50
270.0
 51
0.0
  0
LINE
  5
17D
100
AcDbEntity
  8
0
370
    -3
390
0
  6
Continuous
100
AcDbLine
 10
-69.77337
 20
-194.427898
 30
0.0
 11
-105.22337
 21
-194.427898
 31
0.0
  0
LINE
  5
17E
100
AcDbEntity
  8
0
370
    -3
390
0
  6
CENTER
100
AcDbLine
 10
-105.22337
 20
-87.922186
 30
0.0
 11
-105.22337
 21
-200.575906
 31
0.0
  0
ARC
  5
17F
100
AcDbEntity
  8
0
370
    -3
390
0
  6
Continuous
100
AcDbCircle
 10
-410.320938
 20
-55.421786
 30
0.0
 40
3.0
100
AcDbArc
 50
0.0
 51
90.0
  0
ARC
  5
180
100
AcDbEntity
  8
0
370
    -3
390
0
  6
Continuous
100
AcDbCircle
 10
-398.320938
 20
-55.421786
 30
0.0
 40
3.0
100
AcDbArc
 50
90.0
 51
180.0
  0
LINE
  5
181
100
AcDbEntity
  8
0
370
    -3
390
0
  6
Continuous
100
AcDbLine
 10
-407.320938
 20
-55.421786
 30
0.0
 11
-407.320938
 21
-58.636747
 31
0.0
  0
LINE
  5
182
100
AcDbEntity
  8
0
370
    -3
390
0
  6
Continuous
100
AcDbLine
 10
-401.320938
 20
-55.421786
 30
0.0
 11
-401.320938
 21
-58.636747
 31
0.0
  0
LINE
  5
183
100
AcDbEntity
  8
0
370
    -3
390
0
  6
Continuous
100
AcDbLine
 10
27.77663
 20
95.078214
 30
0.0
 11
-115.22337
 21
95.078214
 31
0.0
  0
LINE
  5
184
100
AcDbEntity
  8
0
370
    -3
390
0
  6
Continuous
100
AcDbLine
 10
27.77663
 20
97.078214
 30
0.0
 11
-115.22337
 21
97.078214
 31
0.0
  0
LINE
  5
185
100
AcDbEntity
  8
0
370
    -3
390
0
  6
Continuous
100
AcDbLine
 10
27.77663
 20
100.078214
 30
0.0
 11
-115.22337
 21
100.078214
 31
0.0
  0
LINE
  5
186
100
AcDbEntity
  8
0
370
    -3
390
0
  6
Continuous
100
AcDbLine
 10
27.77663
 20
104.578214
 30
0.0
 11
-115.22337
 21
104.578214
 31
0.0
  0
LINE
  5
187
100
AcDbEntity
  8
0
370
    -3
390
0
  6
Continuous
100
AcDbLine
 10
27.77663
 20
110.992414
 30
0.0
 11
-115.22337
 21
110.992414
 31
0.0
  0
LINE
  5
188
100
AcDbEntity
  8
0
370
    -3
390
0
  6
Continuous
100
AcDbLine
 10
27.77663
 20
117.356375
 30
0.0
 11
-115.22337
 21
117.356375
 31
0.0
  0
LINE
  5
189
100
AcDbEntity
  8
0
370
    -3
390
0
  6
Continuous
100
AcDbLine
 10
27.77663
 20
125.728945
 30
0.0
 11
-115.22337
 21
125.728945
 31
0.0
  0
LINE
  5
18A
100
AcDbEntity
  8
0
370
    -3
390
0
  6
Continuous
100
AcDbLine
 10
27.77663
 20
127.377572
 30
0.0
 11
-115.22337
 21
127.377572
 31
0.0
  0
LINE
  5
18B
100
AcDbEntity
  8
0
370
    -3
390
0
  6
Continuous
100
AcDbLine
 10
27.77663
 20
133.735442
 30
0.0
 11
-115.22337
 21
133.735442
 31
0.0
  0
LINE
  5
18C
100
AcDbEntity
  8
0
370
    -3
390
0
  6
Continuous
100
AcDbLine
 10
27.77663
 20
135.36817
 30
0.0
 11
-115.22337
 21
135.36817
 31
0.0
  0
LINE
  5
18D
100
AcDbEntity
  8
0
370
    -3
390
0
  6
Continuous
100
AcDbLine
 10
27.77663
 20
141.763706
 30
0.0
 11
-115.22337
 21
141.763706
 31
0.0
  0
LINE
  5
18E
100
AcDbEntity
  8
0
370
    -3
390
0
  6
Continuous
100
AcDbLine
 10
27.77663
 20
165.848418
 30
0.0
 11
-115.22337
 21
165.848418
 31
0.0
  0
LINE
  5
18F
100
AcDbEntity
  8
0
370
    -3
390
0
  6
Continuous
100
AcDbLine
 10
27.276631
 20
157.830058
 30
0.0
 11
-115.22337
 21
157.830058
 31
0.0
  0
LINE
  5
190
100
AcDbEntity
  8
0
370
    -3
390
0
  6
Continuous
100
AcDbLine
 10
27.276631
 20
159.315216
 30
0.0
 11
-115.22337
 21
159.315216
 31
0.0
  0
LINE
  5
191
100
AcDbEntity
  8
0
370
    -3
390
0
  6
Continuous
100
AcDbLine
 10
27.649602
 20
149.798213
 30
0.0
 11
-115.22337
 21
149.798213
 31
0.0
  0
LINE
  5
192
100
AcDbEntity
  8
0
370
    -3
390
0
  6
Continuous
100
AcDbLine
 10
27.276631
 20
151.335049
 30
0.0
 11
-115.22337
 21
151.335049
 31
0.0
  0
LINE
  5
193
100
AcDbEntity
  8
0
370
    -3
390
0
  6
Continuous
100
AcDbLine
 10
27.77663
 20
95.578214
 30
0.0
 11
-115.22337
 21
95.578214
 31
0.0
  0
LINE
  5
194
100
AcDbEntity
  8
0
370
    -3
390
0
  6
Continuous
100
AcDbLine
 10
27.77663
 20
143.355958
 30
0.0
 11
-115.22337
 21
143.355958
 31
0.0
  0
ARC
  5
195
100
AcDbEntity
  8
0
370
    -3
390
0
  6
Continuous
100
AcDbCircle
 10
-393.820938
 20
-42.421786
 30
0.0
 40
10.0
100
AcDbArc
 50
270.0
 51
0.0
  0
ARC
  5
196
100
AcDbEntity
  8
0
370
    -3
390
0
  6
Continuous
100
AcDbCircle
 10
-414.820938
 20
-42.421786
 30
0.0
 40
10.0
100
AcDbArc
 50
180.0
 51
270.0
  0
LINE
  5
197
100
AcDbEntity
  8
0
370
    -3
390
0
  6
Continuous
100
AcDbLine
 10
-393.820938
 20
-52.421786
 30
0.0
 11
-414.820938
 21
-52.421786
 31
0.0
  0
MTEXT
  5
199
100
AcDbEntity
  8
0
370
    -3
390
0
  6
Continuous
100
AcDbMText
 10
-459.425629
 20
189.651337
 30
0.0
 40
16.0
 41
0.0
 71
     7
 72
     1
  1
\W0.83;三菱ギヤードモータ  
  7
ZU_SHPTB00001
 11
1.0
 21
0.0
 31
0.0
 73
     1
 44
1.0
  0
MTEXT
  5
19A
100
AcDbEntity
  8
0
370
    -3
390
0
  6
Continuous
100
AcDbMText
 10
-459.425629
 20
168.45134
 30
0.0
 40
16.0
 41
0.0
 71
     7
 72
     1
  1
\W0.60;GM-DPB
  7
ZU_SHPTB00001
 11
1.0
 21
0.0
 31
0.0
 73
     1
 44
1.0
  0
MTEXT
  5
19B
100
AcDbEntity
  8
0
370
    -3
390
0
  6
Continuous
100
AcDbMText
 10
-459.425629
 20
147.251343
 30
0.0
 40
16.0
 41
0.0
 71
     7
 72
     1
  1
\W0.60;0.75(kW)
  7
ZU_SHPTB00001
 11
1.0
 21
0.0
 31
0.0
 73
     1
 44
1.0
  0
MTEXT
  5
19C
100
AcDbEntity
  8
0
370
    -3
390
0
  6
Continuous
100
AcDbMText
 10
-459.425629
 20
126.051338
 30
0.0
 40
16.0
 41
0.0
 71
     7
 72
     1
  1
\W0.60;1/40,1/50
  7
ZU_SHPTB00001
 11
1.0
 21
0.0
 31
0.0
 73
     1
 44
1.0
  0
MTEXT
  5
19D
100
AcDbEntity
  8
0
370
    -3
390
0
  6
Continuous
100
AcDbMText
 10
-459.425629
 20
104.851341
 30
0.0
 40
16.0
 41
0.0
 71
     7
 72
     1
  1
\W0.60;SCALE\W1.00; \W0.60;1/1
  7
ZU_SHPTB00001
 11
1.0
 21
0.0
 31
0.0
 73
     1
 44
1.0
  0
ARC
  5
19E
100
AcDbEntity
  8
0
370
    -3
390
0
  6
Continuous
100
AcDbCircle
 10
-433.491811
 20
-122.930828
 30
0.0
 40
2.0
100
AcDbArc
 50
340.21948
 51
60.0
  0
ARC
  5
19F
100
AcDbEntity
  8
0
370
    -3
390
0
  6
Continuous
100
AcDbCircle
 10
-398.820938
 20
-174.051209
 30
0.0
 40
2.0
100
AcDbArc
 50
97.70926
 51
180.0
  0
ARC
  5
1A0
100
AcDbEntity
  8
0
370
    -3
390
0
  6
Continuous
100
AcDbCircle
 10
-398.820938
 20
-163.929982
 30
0.0
 40
2.0
100
AcDbArc
 50
100.21948
 51
180.0
  0
ARC
  5
1A1
100
AcDbEntity
  8
0
370
    -3
390
0
  6
Continuous
100
AcDbCircle
 10
-409.820938
 20
-163.929982
 30
0.0
 40
2.0
100
AcDbArc
 50
0.0
 51
79.78052
  0
ARC
  5
1A2
100
AcDbEntity
  8
0
370
    -3
390
0
  6
Continuous
100
AcDbCircle
 10
-409.820938
 20
-174.051209
 30
0.0
 40
2.0
100
AcDbArc
 50
0.0
 51
82.29074
  0
ARC
  5
1A3
100
AcDbEntity
  8
0
370
    -3
390
0
  6
Continuous
100
AcDbCircle
 10
-369.536326
 20
-158.700844
 30
0.0
 40
2.0
100
AcDbArc
 50
323.992931
 51
60.0
  0
ARC
  5
1A4
100
AcDbEntity
  8
0
370
    -3
390
0
  6
Continuous
100
AcDbCircle
 10
-360.837335
 20
-163.723209
 30
0.0
 40
2.0
100
AcDbArc
 50
325.1294
 51
60.0
  0
ARC
  5
1A5
100
AcDbEntity
  8
0
370
    -3
390
0
  6
Continuous
100
AcDbCircle
 10
-371.278411
 20
-157.695051
 30
0.0
 40
2.0
100
AcDbArc
 50
60.0
 51
143.698744
  0
ARC
  5
1A6
100
AcDbEntity
  8
0
370
    -3
390
0
  6
Continuous
100
AcDbCircle
 10
-356.337335
 20
-155.92898
 30
0.0
 40
2.0
100
AcDbArc
 50
240.0
 51
334.8706
  0
ARC
  5
1A7
100
AcDbEntity
  8
0
370
    -3
390
0
  6
Continuous
100
AcDbCircle
 10
-358.07591
 20
-154.925213
 30
0.0
 40
2.0
100
AcDbArc
 50
155.062093
 51
240.0
  0
ARC
  5
1A8
100
AcDbEntity
  8
0
370
    -3
390
0
  6
Continuous
100
AcDbCircle
 10
-365.036326
 20
-150.906615
 30
0.0
 40
2.0
100
AcDbArc
 50
240.0
 51
336.007069
  0
ARC
  5
1A9
100
AcDbEntity
  8
0
370
    -3
390
0
  6
Continuous
100
AcDbCircle
 10
-366.778411
 20
-149.900822
 30
0.0
 40
2.0
100
AcDbArc
 50
156.301256
 51
240.0
  0
ARC
  5
1AA
100
AcDbEntity
  8
0
370
    -3
390
0
  6
Continuous
100
AcDbCircle
 10
-373.759059
 20
-145.870543
 30
0.0
 40
2.0
100
AcDbArc
 50
240.0
 51
337.83748
  0
ARC
  5
1AB
100
AcDbEntity
  8
0
370
    -3
390
0
  6
Continuous
100
AcDbCircle
 10
-378.259059
 20
-153.664771
 30
0.0
 40
2.0
100
AcDbArc
 50
322.16252
 51
60.0
  0
ARC
  5
1AC
100
AcDbEntity
  8
0
370
    -3
390
0
  6
Continuous
100
AcDbCircle
 10
-380.008512
 20
-152.654724
 30
0.0
 40
2.0
100
AcDbArc
 50
60.0
 51
141.653381
  0
ARC
  5
1AD
100
AcDbEntity
  8
0
370
    -3
390
0
  6
Continuous
100
AcDbCircle
 10
-375.508512
 20
-144.860496
 30
0.0
 40
2.0
100
AcDbArc
 50
158.346619
 51
240.0
  0
ARC
  5
1AE
100
AcDbEntity
  8
0
370
    -3
390
0
  6
Continuous
100
AcDbCircle
 10
-382.537313
 20
-140.802415
 30
0.0
 40
2.0
100
AcDbArc
 50
240.0
 51
341.282824
  0
ARC
  5
1AF
100
AcDbEntity
  8
0
370
    -3
390
0
  6
Continuous
100
AcDbCircle
 10
-384.306859
 20
-139.780768
 30
0.0
 40
2.0
100
AcDbArc
 50
162.373625
 51
240.0
  0
ARC
  5
1B0
100
AcDbEntity
  8
0
370
    -3
390
0
  6
Continuous
100
AcDbCircle
 10
-387.037313
 20
-148.596644
 30
0.0
 40
2.0
100
AcDbArc
 50
318.717176
 51
60.0
  0
ARC
  5
1B1
100
AcDbEntity
  8
0
370
    -3
390
0
  6
Continuous
100
AcDbCircle
 10
-388.806859
 20
-147.574996
 30
0.0
 40
2.0
100
AcDbArc
 50
60.0
 51
137.626375
  0
ARC
  5
1B2
100
AcDbEntity
  8
0
370
    -3
390
0
  6
Continuous
100
AcDbCircle
 10
-409.820938
 20
-153.688754
 30
0.0
 40
2.0
100
AcDbArc
 50
0.0
 51
74.816886
  0
ARC
  5
1B3
100
AcDbEntity
  8
0
370
    -3
390
0
  6
Continuous
100
AcDbCircle
 10
-398.820938
 20
-153.688754
 30
0.0
 40
2.0
100
AcDbArc
 50
105.183114
 51
180.0
  0
ARC
  5
1B4
100
AcDbEntity
  8
0
370
    -3
390
0
  6
Continuous
100
AcDbCircle
 10
-396.008623
 20
-143.417056
 30
0.0
 40
2.0
100
AcDbArc
 50
309.747753
 51
60.0
  0
ARC
  5
1B5
100
AcDbEntity
  8
0
370
    -3
390
0
  6
Continuous
100
AcDbCircle
 10
-398.820938
 20
-145.201005
 30
0.0
 40
2.0
100
AcDbArc
 50
180.0
 51
295.028999
  0
ARC
  5
1B6
100
AcDbEntity
  8
0
370
    -3
390
0
  6
Continuous
100
AcDbCircle
 10
-398.820938
 20
-142.948066
 30
0.0
 40
2.0
100
AcDbArc
 50
120.0
 51
180.0
  0
ARC
  5
1B7
100
AcDbEntity
  8
0
370
    -3
390
0
  6
Continuous
100
AcDbCircle
 10
-391.508623
 20
-135.622827
 30
0.0
 40
2.0
100
AcDbArc
 50
240.0
 51
350.252247
  0
ARC
  5
1B8
100
AcDbEntity
  8
0
370
    -3
390
0
  6
Continuous
100
AcDbCircle
 10
-393.378269
 20
-134.543387
 30
0.0
 40
2.0
100
AcDbArc
 50
174.14774
 51
240.0
  0
ARC
  5
1B9
100
AcDbEntity
  8
0
370
    -3
390
0
  6
Continuous
100
AcDbCircle
 10
-393.320938
 20
-133.421786
 30
0.0
 40
2.0
100
AcDbArc
 50
120.0
 51
180.0
  0
ARC
  5
1BA
100
AcDbEntity
  8
0
370
    -3
390
0
  6
Continuous
100
AcDbCircle
 10
-391.369835
 20
-132.295316
 30
0.0
 40
2.0
100
AcDbArc
 50
4.971001
 51
120.0
  0
ARC
  5
1BB
100
AcDbEntity
  8
0
370
    -3
390
0
  6
Continuous
100
AcDbCircle
 10
-384.019229
 20
-128.051442
 30
0.0
 40
2.0
100
AcDbArc
 50
120.0
 51
194.816886
  0
ARC
  5
1BC
100
AcDbEntity
  8
0
370
    -3
390
0
  6
Continuous
100
AcDbCircle
 10
-382.230243
 20
-127.01857
 30
0.0
 40
2.0
100
AcDbArc
 50
16.164776
 51
120.0
  0
ARC
  5
1BD
100
AcDbEntity
  8
0
370
    -3
390
0
  6
Continuous
100
AcDbCircle
 10
-375.150066
 20
-122.930828
 30
0.0
 40
2.0
100
AcDbArc
 50
120.0
 51
199.78052
  0
ARC
  5
1BE
100
AcDbEntity
  8
0
370
    -3
390
0
  6
Continuous
100
AcDbCircle
 10
-373.391824
 20
-121.915706
 30
0.0
 40
2.0
100
AcDbArc
 50
20.405932
 51
120.0
  0
ARC
  5
1BF
100
AcDbEntity
  8
0
370
    -3
390
0
  6
Continuous
100
AcDbCircle
 10
-366.384826
 20
-117.870214
 30
0.0
 40
2.0
100
AcDbArc
 50
120.0
 51
202.29074
  0
ARC
  5
1C0
100
AcDbEntity
  8
0
370
    -3
390
0
  6
Continuous
100
AcDbCircle
 10
-364.637721
 20
-116.861523
 30
0.0
 40
2.0
100
AcDbArc
 50
22.651339
 51
120.0
  0
ARC
  5
1C1
100
AcDbEntity
  8
0
370
    -3
390
0
  6
Continuous
100
AcDbCircle
 10
-357.66123
 20
-112.833644
 30
0.0
 40
2.0
100
AcDbArc
 50
120.0
 51
203.809003
  0
ARC
  5
1C2
100
AcDbEntity
  8
0
370
    -3
390
0
  6
Continuous
100
AcDbCircle
 10
-355.919405
 20
-111.828001
 30
0.0
 40
2.0
100
AcDbArc
 50
24.043488
 51
120.0
  0
ARC
  5
1C3
100
AcDbEntity
  8
0
370
    -3
390
0
  6
Continuous
100
AcDbCircle
 10
-362.57591
 20
-104.12413
 30
0.0
 40
2.0
100
AcDbArc
 50
215.062093
 51
300.0
  0
ARC
  5
1C4
100
AcDbEntity
  8
0
370
    -3
390
0
  6
Continuous
100
AcDbCircle
 10
-360.837335
 20
-103.120363
 30
0.0
 40
2.0
100
AcDbArc
 50
300.0
 51
34.8706
  0
ARC
  5
1C5
100
AcDbEntity
  8
0
370
    -3
390
0
  6
Continuous
100
AcDbCircle
 10
-398.820938
 20
-100.883347
 30
0.0
 40
2.0
100
AcDbArc
 50
80.405932
 51
180.0
  0
ARC
  5
1C6
100
AcDbEntity
  8
0
370
    -3
390
0
  6
Continuous
100
AcDbCircle
 10
-398.820938
 20
-102.91359
 30
0.0
 40
2.0
100
AcDbArc
 50
180.0
 51
259.78052
  0
ARC
  5
1C7
100
AcDbEntity
  8
0
370
    -3
390
0
  6
Continuous
100
AcDbCircle
 10
-380.008512
 20
-114.188848
 30
0.0
 40
2.0
100
AcDbArc
 50
218.346619
 51
300.0
  0
ARC
  5
1C8
100
AcDbEntity
  8
0
370
    -3
390
0
  6
Continuous
100
AcDbCircle
 10
-378.259059
 20
-113.178801
 30
0.0
 40
2.0
100
AcDbArc
 50
300.0
 51
37.83748
  0
ARC
  5
1C9
100
AcDbEntity
  8
0
370
    -3
390
0
  6
Continuous
100
AcDbCircle
 10
-371.278411
 20
-109.148521
 30
0.0
 40
2.0
100
AcDbArc
 50
216.301256
 51
300.0
  0
ARC
  5
1CA
100
AcDbEntity
  8
0
370
    -3
390
0
  6
Continuous
100
AcDbCircle
 10
-369.536326
 20
-108.142728
 30
0.0
 40
2.0
100
AcDbArc
 50
300.0
 51
36.007069
  0
ARC
  5
1CB
100
AcDbEntity
  8
0
370
    -3
390
0
  6
Continuous
100
AcDbCircle
 10
-398.820938
 20
-82.719222
 30
0.0
 40
2.0
100
AcDbArc
 50
180.0
 51
263.809003
  0
ARC
  5
1CC
100
AcDbEntity
  8
0
370
    -3
390
0
  6
Continuous
100
AcDbCircle
 10
-398.820938
 20
-80.707936
 30
0.0
 40
2.0
100
AcDbArc
 50
84.043488
 51
180.0
  0
ARC
  5
1CD
100
AcDbEntity
  8
0
370
    -3
390
0
  6
Continuous
100
AcDbCircle
 10
-398.820938
 20
-90.774981
 30
0.0
 40
2.0
100
AcDbArc
 50
82.651339
 51
180.0
  0
ARC
  5
1CE
100
AcDbEntity
  8
0
370
    -3
390
0
  6
Continuous
100
AcDbCircle
 10
-398.820938
 20
-92.792363
 30
0.0
 40
2.0
100
AcDbArc
 50
180.0
 51
262.29074
  0
ARC
  5
1CF
100
AcDbEntity
  8
0
370
    -3
390
0
  6
Continuous
100
AcDbCircle
 10
-409.820938
 20
-92.792363
 30
0.0
 40
2.0
100
AcDbArc
 50
277.70926
 51
0.0
  0
ARC
  5
1D0
100
AcDbEntity
  8
0
370
    -3
390
0
  6
Continuous
100
AcDbCircle
 10
-409.820938
 20
-102.91359
 30
0.0
 40
2.0
100
AcDbArc
 50
280.21948
 51
0.0
  0
ARC
  5
1D1
100
AcDbEntity
  8
0
370
    -3
390
0
  6
Continuous
100
AcDbCircle
 10
-398.820938
 20
-111.089075
 30
0.0
 40
2.0
100
AcDbArc
 50
76.164776
 51
180.0
  0
ARC
  5
1D2
100
AcDbEntity
  8
0
370
    -3
390
0
  6
Continuous
100
AcDbCircle
 10
-387.037313
 20
-118.246928
 30
0.0
 40
2.0
100
AcDbArc
 50
300.0
 51
41.282824
  0
ARC
  5
1D3
100
AcDbEntity
  8
0
370
    -3
390
0
  6
Continuous
100
AcDbCircle
 10
-388.806859
 20
-119.268576
 30
0.0
 40
2.0
100
AcDbArc
 50
222.373625
 51
300.0
  0
ARC
  5
1D4
100
AcDbEntity
  8
0
370
    -3
390
0
  6
Continuous
100
AcDbCircle
 10
-398.820938
 20
-113.154818
 30
0.0
 40
2.0
100
AcDbArc
 50
180.0
 51
254.816886
  0
ARC
  5
1D5
100
AcDbEntity
  8
0
370
    -3
390
0
  6
Continuous
100
AcDbCircle
 10
-398.820938
 20
-121.642567
 30
0.0
 40
2.0
100
AcDbArc
 50
64.971001
 51
180.0
  0
ARC
  5
1D6
100
AcDbEntity
  8
0
370
    -3
390
0
  6
Continuous
100
AcDbCircle
 10
-396.008623
 20
-123.426516
 30
0.0
 40
2.0
100
AcDbArc
 50
300.0
 51
50.252247
  0
ARC
  5
1D7
100
AcDbEntity
  8
0
370
    -3
390
0
  6
Continuous
100
AcDbCircle
 10
-397.878269
 20
-124.505957
 30
0.0
 40
2.0
100
AcDbArc
 50
234.14774
 51
300.0
  0
ARC
  5
1D8
100
AcDbEntity
  8
0
370
    -3
390
0
  6
Continuous
100
AcDbCircle
 10
-398.820938
 20
-123.895507
 30
0.0
 40
2.0
100
AcDbArc
 50
180.0
 51
240.0
  0
ARC
  5
1D9
100
AcDbEntity
  8
0
370
    -3
390
0
  6
Continuous
100
AcDbCircle
 10
-409.820938
 20
-123.895507
 30
0.0
 40
2.0
100
AcDbArc
 50
300.0
 51
0.0
  0
ARC
  5
1DA
100
AcDbEntity
  8
0
370
    -3
390
0
  6
Continuous
100
AcDbCircle
 10
-410.763608
 20
-124.505957
 30
0.0
 40
2.0
100
AcDbArc
 50
240.0
 51
305.85226
  0
ARC
  5
1DB
100
AcDbEntity
  8
0
370
    -3
390
0
  6
Continuous
100
AcDbCircle
 10
-415.320938
 20
-133.421786
 30
0.0
 40
2.0
100
AcDbArc
 50
0.0
 51
60.0
  0
ARC
  5
1DC
100
AcDbEntity
  8
0
370
    -3
390
0
  6
Continuous
100
AcDbCircle
 10
-415.263608
 20
-134.543387
 30
0.0
 40
2.0
100
AcDbArc
 50
300.0
 51
5.85226
  0
ARC
  5
1DD
100
AcDbEntity
  8
0
370
    -3
390
0
  6
Continuous
100
AcDbCircle
 10
-434.882817
 20
-145.870543
 30
0.0
 40
2.0
100
AcDbArc
 50
202.16252
 51
300.0
  0
ARC
  5
1DE
100
AcDbEntity
  8
0
370
    -3
390
0
  6
Continuous
100
AcDbCircle
 10
-426.104563
 20
-140.802415
 30
0.0
 40
2.0
100
AcDbArc
 50
198.717176
 51
300.0
  0
ARC
  5
1DF
100
AcDbEntity
  8
0
370
    -3
390
0
  6
Continuous
100
AcDbCircle
 10
-424.335017
 20
-139.780768
 30
0.0
 40
2.0
100
AcDbArc
 50
300.0
 51
17.626375
  0
ARC
  5
1E0
100
AcDbEntity
  8
0
370
    -3
390
0
  6
Continuous
100
AcDbCircle
 10
-417.133253
 20
-135.622827
 30
0.0
 40
2.0
100
AcDbArc
 50
189.747753
 51
300.0
  0
ARC
  5
1E1
100
AcDbEntity
  8
0
370
    -3
390
0
  6
Continuous
100
AcDbCircle
 10
-417.272041
 20
-132.295316
 30
0.0
 40
2.0
100
AcDbArc
 50
60.0
 51
175.028999
  0
ARC
  5
1E2
100
AcDbEntity
  8
0
370
    -3
390
0
  6
Continuous
100
AcDbCircle
 10
-424.622648
 20
-128.051442
 30
0.0
 40
2.0
100
AcDbArc
 50
345.183114
 51
60.0
  0
ARC
  5
1E3
100
AcDbEntity
  8
0
370
    -3
390
0
  6
Continuous
100
AcDbCircle
 10
-426.411634
 20
-127.01857
 30
0.0
 40
2.0
100
AcDbArc
 50
60.0
 51
163.835224
  0
ARC
  5
1E4
100
AcDbEntity
  8
0
370
    -3
390
0
  6
Continuous
100
AcDbCircle
 10
-435.250053
 20
-121.915706
 30
0.0
 40
2.0
100
AcDbArc
 50
60.0
 51
159.594068
  0
ARC
  5
1E5
100
AcDbEntity
  8
0
370
    -3
390
0
  6
Continuous
100
AcDbCircle
 10
-430.382817
 20
-113.178801
 30
0.0
 40
2.0
100
AcDbArc
 50
142.16252
 51
240.0
  0
ARC
  5
1E6
100
AcDbEntity
  8
0
370
    -3
390
0
  6
Continuous
100
AcDbCircle
 10
-428.633365
 20
-114.188848
 30
0.0
 40
2.0
100
AcDbArc
 50
240.0
 51
321.653381
  0
ARC
  5
1E7
100
AcDbEntity
  8
0
370
    -3
390
0
  6
Continuous
100
AcDbCircle
 10
-421.604563
 20
-118.246928
 30
0.0
 40
2.0
100
AcDbArc
 50
138.717176
 51
240.0
  0
ARC
  5
1E8
100
AcDbEntity
  8
0
370
    -3
390
0
  6
Continuous
100
AcDbCircle
 10
-419.835017
 20
-119.268576
 30
0.0
 40
2.0
100
AcDbArc
 50
240.0
 51
317.626375
  0
ARC
  5
1E9
100
AcDbEntity
  8
0
370
    -3
390
0
  6
Continuous
100
AcDbCircle
 10
-412.633253
 20
-123.426516
 30
0.0
 40
2.0
100
AcDbArc
 50
129.747753
 51
240.0
  0
ARC
  5
1EA
100
AcDbEntity
  8
0
370
    -3
390
0
  6
Continuous
100
AcDbCircle
 10
-409.820938
 20
-121.642567
 30
0.0
 40
2.0
100
AcDbArc
 50
0.0
 51
115.028999
  0
ARC
  5
1EB
100
AcDbEntity
  8
0
370
    -3
390
0
  6
Continuous
100
AcDbCircle
 10
-409.820938
 20
-113.154818
 30
0.0
 40
2.0
100
AcDbArc
 50
285.183114
 51
0.0
  0
ARC
  5
1EC
100
AcDbEntity
  8
0
370
    -3
390
0
  6
Continuous
100
AcDbCircle
 10
-409.820938
 20
-111.089075
 30
0.0
 40
2.0
100
AcDbArc
 50
0.0
 51
103.835224
  0
ARC
  5
1ED
100
AcDbEntity
  8
0
370
    -3
390
0
  6
Continuous
100
AcDbCircle
 10
-409.820938
 20
-100.883347
 30
0.0
 40
2.0
100
AcDbArc
 50
0.0
 51
99.594068
  0
ARC
  5
1EE
100
AcDbEntity
  8
0
370
    -3
390
0
  6
Continuous
100
AcDbCircle
 10
-409.820938
 20
-90.774981
 30
0.0
 40
2.0
100
AcDbArc
 50
0.0
 51
97.348661
  0
ARC
  5
1EF
100
AcDbEntity
  8
0
370
    -3
390
0
  6
Continuous
100
AcDbCircle
 10
-409.820938
 20
-82.719222
 30
0.0
 40
2.0
100
AcDbArc
 50
276.190997
 51
0.0
  0
ARC
  5
1F0
100
AcDbEntity
  8
0
370
    -3
390
0
  6
Continuous
100
AcDbCircle
 10
-409.820938
 20
-80.707936
 30
0.0
 40
2.0
100
AcDbArc
 50
0.0
 51
95.956512
  0
ARC
  5
1F1
100
AcDbEntity
  8
0
370
    -3
390
0
  6
Continuous
100
AcDbCircle
 10
-437.363466
 20
-109.148521
 30
0.0
 40
2.0
100
AcDbArc
 50
240.0
 51
323.698744
  0
ARC
  5
1F2
100
AcDbEntity
  8
0
370
    -3
390
0
  6
Continuous
100
AcDbCircle
 10
-439.10555
 20
-108.142728
 30
0.0
 40
2.0
100
AcDbArc
 50
143.992931
 51
240.0
  0
ARC
  5
1F3
100
AcDbEntity
  8
0
370
    -3
390
0
  6
Continuous
100
AcDbCircle
 10
-444.004155
 20
-116.861523
 30
0.0
 40
2.0
100
AcDbArc
 50
60.0
 51
157.348661
  0
ARC
  5
1F4
100
AcDbEntity
  8
0
370
    -3
390
0
  6
Continuous
100
AcDbCircle
 10
-441.863466
 20
-149.900822
 30
0.0
 40
2.0
100
AcDbArc
 50
300.0
 51
23.698744
  0
ARC
  5
1F5
100
AcDbEntity
  8
0
370
    -3
390
0
  6
Continuous
100
AcDbCircle
 10
-443.60555
 20
-150.906615
 30
0.0
 40
2.0
100
AcDbArc
 50
203.992931
 51
300.0
  0
ARC
  5
1F6
100
AcDbEntity
  8
0
370
    -3
390
0
  6
Continuous
100
AcDbCircle
 10
-439.10555
 20
-158.700844
 30
0.0
 40
2.0
100
AcDbArc
 50
120.0
 51
216.007069
  0
ARC
  5
1F7
100
AcDbEntity
  8
0
370
    -3
390
0
  6
Continuous
100
AcDbCircle
 10
-437.363466
 20
-157.695051
 30
0.0
 40
2.0
100
AcDbArc
 50
36.301256
 51
120.0
  0
ARC
  5
1F8
100
AcDbEntity
  8
0
370
    -3
390
0
  6
Continuous
100
AcDbCircle
 10
-430.382817
 20
-153.664771
 30
0.0
 40
2.0
100
AcDbArc
 50
120.0
 51
217.83748
  0
ARC
  5
1F9
100
AcDbEntity
  8
0
370
    -3
390
0
  6
Continuous
100
AcDbCircle
 10
-428.633365
 20
-152.654724
 30
0.0
 40
2.0
100
AcDbArc
 50
38.346619
 51
120.0
  0
ARC
  5
1FA
100
AcDbEntity
  8
0
370
    -3
390
0
  6
Continuous
100
AcDbCircle
 10
-421.604563
 20
-148.596644
 30
0.0
 40
2.0
100
AcDbArc
 50
120.0
 51
221.282824
  0
ARC
  5
1FB
100
AcDbEntity
  8
0
370
    -3
390
0
  6
Continuous
100
AcDbCircle
 10
-419.835017
 20
-147.574996
 30
0.0
 40
2.0
100
AcDbArc
 50
42.373625
 51
120.0
  0
ARC
  5
1FC
100
AcDbEntity
  8
0
370
    -3
390
0
  6
Continuous
100
AcDbCircle
 10
-409.820938
 20
-145.201005
 30
0.0
 40
2.0
100
AcDbArc
 50
244.971001
 51
0.0
  0
ARC
  5
1FD
100
AcDbEntity
  8
0
370
    -3
390
0
  6
Continuous
100
AcDbCircle
 10
-412.633253
 20
-143.417056
 30
0.0
 40
2.0
100
AcDbArc
 50
120.0
 51
230.252247
  0
ARC
  5
1FE
100
AcDbEntity
  8
0
370
    -3
390
0
  6
Continuous
100
AcDbCircle
 10
-410.763608
 20
-142.337615
 30
0.0
 40
2.0
100
AcDbArc
 50
54.14774
 51
120.0
  0
ARC
  5
1FF
100
AcDbEntity
  8
0
370
    -3
390
0
  6
Continuous
100
AcDbCircle
 10
-409.820938
 20
-142.948066
 30
0.0
 40
2.0
100
AcDbArc
 50
0.0
 51
60.0
  0
ARC
  5
200
100
AcDbEntity
  8
0
370
    -3
390
0
  6
Continuous
100
AcDbCircle
 10
-409.820938
 20
-155.754498
 30
0.0
 40
2.0
100
AcDbArc
 50
256.164776
 51
0.0
  0
ARC
  5
201
100
AcDbEntity
  8
0
370
    -3
390
0
  6
Continuous
100
AcDbCircle
 10
-398.820938
 20
-155.754498
 30
0.0
 40
2.0
100
AcDbArc
 50
180.0
 51
283.835224
  0
ARC
  5
202
100
AcDbEntity
  8
0
370
    -3
390
0
  6
Continuous
100
AcDbCircle
 10
-398.820938
 20
-165.960225
 30
0.0
 40
2.0
100
AcDbArc
 50
180.0
 51
279.594068
  0
ARC
  5
203
100
AcDbEntity
  8
0
370
    -3
390
0
  6
Continuous
100
AcDbCircle
 10
-409.820938
 20
-165.960225
 30
0.0
 40
2.0
100
AcDbArc
 50
260.405932
 51
0.0
  0
ARC
  5
204
100
AcDbEntity
  8
0
370
    -3
390
0
  6
Continuous
100
AcDbCircle
 10
-409.820938
 20
-176.068591
 30
0.0
 40
2.0
100
AcDbArc
 50
262.651339
 51
0.0
  0
ARC
  5
205
100
AcDbEntity
  8
0
370
    -3
390
0
  6
Continuous
100
AcDbCircle
 10
-398.820938
 20
-176.068591
 30
0.0
 40
2.0
100
AcDbArc
 50
180.0
 51
277.348661
  0
ARC
  5
206
100
AcDbEntity
  8
0
370
    -3
390
0
  6
Continuous
100
AcDbCircle
 10
-398.820938
 20
-184.12435
 30
0.0
 40
2.0
100
AcDbArc
 50
96.190997
 51
180.0
  0
ARC
  5
207
100
AcDbEntity
  8
0
370
    -3
390
0
  6
Continuous
100
AcDbCircle
 10
-398.820938
 20
-186.135636
 30
0.0
 40
2.0
100
AcDbArc
 50
180.0
 51
275.956512
  0
ARC
  5
208
100
AcDbEntity
  8
0
370
    -3
390
0
  6
Continuous
100
AcDbCircle
 10
-409.820938
 20
-186.135636
 30
0.0
 40
2.0
100
AcDbArc
 50
264.043488
 51
0.0
  0
ARC
  5
209
100
AcDbEntity
  8
0
370
    -3
390
0
  6
Continuous
100
AcDbCircle
 10
-409.820938
 20
-184.12435
 30
0.0
 40
2.0
100
AcDbArc
 50
0.0
 51
83.809003
  0
ARC
  5
20A
100
AcDbEntity
  8
0
370
    -3
390
0
  6
Continuous
100
AcDbCircle
 10
-446.065966
 20
-162.719442
 30
0.0
 40
2.0
100
AcDbArc
 50
35.062093
 51
120.0
  0
ARC
  5
20B
100
AcDbEntity
  8
0
370
    -3
390
0
  6
Continuous
100
AcDbCircle
 10
-447.804542
 20
-163.723209
 30
0.0
 40
2.0
100
AcDbArc
 50
120.0
 51
214.8706
  0
ARC
  5
20C
100
AcDbEntity
  8
0
370
    -3
390
0
  6
Continuous
100
AcDbCircle
 10
-452.304542
 20
-155.92898
 30
0.0
 40
2.0
100
AcDbArc
 50
205.1294
 51
300.0
  0
ARC
  5
20D
100
AcDbEntity
  8
0
370
    -3
390
0
  6
Continuous
100
AcDbCircle
 10
-450.565966
 20
-154.925213
 30
0.0
 40
2.0
100
AcDbArc
 50
300.0
 51
24.937907
  0
ARC
  5
20E
100
AcDbEntity
  8
0
370
    -3
390
0
  6
Continuous
100
AcDbCircle
 10
-450.980647
 20
-112.833644
 30
0.0
 40
2.0
100
AcDbArc
 50
336.190997
 51
60.0
  0
ARC
  5
20F
100
AcDbEntity
  8
0
370
    -3
390
0
  6
Continuous
100
AcDbCircle
 10
-452.722472
 20
-111.828001
 30
0.0
 40
2.0
100
AcDbArc
 50
60.0
 51
155.956512
  0
ARC
  5
210
100
AcDbEntity
  8
0
370
    -3
390
0
  6
Continuous
100
AcDbCircle
 10
-446.065966
 20
-104.12413
 30
0.0
 40
2.0
100
AcDbArc
 50
240.0
 51
324.937907
  0
ARC
  5
211
100
AcDbEntity
  8
0
370
    -3
390
0
  6
Continuous
100
AcDbCircle
 10
-447.804542
 20
-103.120363
 30
0.0
 40
2.0
100
AcDbArc
 50
145.1294
 51
240.0
  0
INSERT
  5
21D
100
AcDbEntity
  8
0
390
0
100
AcDbBlockReference
  2
ZU_SYM__USERS_HOME_SYMBOL_POO_SYM_S07_15
 10
-462.727958
 20
-191.828806
 30
0.0
 41
-1.0
 42
1.0
 50
225.0
  0
INSERT
  5
229
100
AcDbEntity
  8
0
390
0
100
AcDbBlockReference
  2
ZU_SYM__USERS_HOME_SYMBOL_POO_SYM_S07_0000315
 10
-462.727958
 20
-75.014766
 30
0.0
 41
1.0
 42
1.0
 50
315.0
  0
INSERT
  5
235
100
AcDbEntity
  8
0
390
0
100
AcDbBlockReference
  2
ZU_SYM__USERS_HOME_SYMBOL_POO_SYM_S07_0000415
 10
-345.913918
 20
-75.014766
 30
0.0
 41
-1.0
 42
1.0
 50
45.0
  0
INSERT
  5
241
100
AcDbEntity
  8
0
390
0
100
AcDbBlockReference
  2
ZU_SYM__USERS_HOME_SYMBOL_POO_SYM_S07_0000515
 10
-345.913918
 20
-191.828806
 30
0.0
 41
1.0
 42
1.0
 50
135.0
  0
ARC
  5
242
100
AcDbEntity
  8
0
370
    -3
390
0
  6
Continuous
100
AcDbCircle
 10
-427.604124
 20
-152.339853
 30
0.0
 40
50.8
100
AcDbArc
 50
184.33985
 51
219.094568
  0
ARC
  5
243
100
AcDbEntity
  8
0
370
    -3
390
0
  6
Continuous
100
AcDbCircle
 10
-423.239005
 20
-156.704972
 30
0.0
 40
50.8
100
AcDbArc
 50
230.905432
 51
265.66015
  0
LINE
  5
244
100
AcDbEntity
  8
0
370
    -3
390
0
  6
Continuous
100
AcDbLine
 10
-458.414607
 20
-194.586523
 30
0.0
 11
-457.810136
 21
-193.982051
 31
0.0
  0
ARC
  5
245
100
AcDbEntity
  8
0
370
    -3
390
0
  6
Continuous
100
AcDbCircle
 10
-458.626739
 20
-194.374391
 30
0.0
 40
0.3
100
AcDbArc
 50
225.0
 51
315.0
  0
LINE
  5
246
100
AcDbEntity
  8
0
370
    -3
390
0
  6
Continuous
100
AcDbLine
 10
-464.248238
 20
-190.308527
 30
0.0
 11
-465.909939
 21
-188.646826
 31
0.0
  0
LINE
  5
247
100
AcDbEntity
  8
0
370
    -3
390
0
  6
Continuous
100
AcDbLine
 10
-465.909939
 20
-188.646826
 30
0.0
 11
-465.344253
 21
-188.08114
 31
0.0
  0
LINE
  5
248
100
AcDbEntity
  8
0
370
    -3
390
0
  6
Continuous
100
AcDbLine
 10
-461.207679
 20
-193.349086
 30
0.0
 11
-459.545978
 21
-195.010787
 31
0.0
  0
LINE
  5
249
100
AcDbEntity
  8
0
370
    -3
390
0
  6
Continuous
100
AcDbLine
 10
-459.545978
 20
-195.010787
 30
0.0
 11
-458.980292
 21
-194.445101
 31
0.0
  0
LINE
  5
24A
100
AcDbEntity
  8
0
370
    -3
390
0
  6
Continuous
100
AcDbLine
 10
-465.485675
 20
-187.515455
 30
0.0
 11
-464.881204
 21
-186.910984
 31
0.0
  0
ARC
  5
24B
100
AcDbEntity
  8
0
370
    -3
390
0
  6
Continuous
100
AcDbCircle
 10
-465.273543
 20
-187.727587
 30
0.0
 40
0.3
100
AcDbArc
 50
135.0
 51
225.0
  0
ARC
  5
24C
100
AcDbEntity
  8
0
370
    -3
390
0
  6
Continuous
100
AcDbCircle
 10
-321.920938
 20
-160.021786
 30
0.0
 40
2.0
100
AcDbArc
 50
0.0
 51
90.0
  0
LINE
  5
24D
100
AcDbEntity
  8
0
370
    -3
390
0
  6
Continuous
100
AcDbLine
 10
-321.920938
 20
-158.021786
 30
0.0
 11
-330.120938
 21
-158.021786
 31
0.0
  0
ARC
  5
24E
100
AcDbEntity
  8
0
370
    -3
390
0
  6
Continuous
100
AcDbCircle
 10
-321.920938
 20
-106.821786
 30
0.0
 40
2.0
100
AcDbArc
 50
270.0
 51
0.0
  0
LINE
  5
24F
100
AcDbEntity
  8
0
370
    -3
390
0
  6
Continuous
100
AcDbLine
 10
-321.920938
 20
-108.821786
 30
0.0
 11
-330.120938
 21
-108.821786
 31
0.0
  0
LINE
  5
250
100
AcDbEntity
  8
0
370
    -3
390
0
  6
Continuous
100
AcDbLine
 10
-319.920938
 20
-164.421786
 30
0.0
 11
-319.920938
 21
-102.421786
 31
0.0
  0
LINE
  5
251
100
AcDbEntity
  8
0
370
    -3
390
0
  6
Continuous
100
AcDbLine
 10
-318.320938
 20
-102.421786
 30
0.0
 11
-319.920938
 21
-102.421786
 31
0.0
  0
LINE
  5
252
100
AcDbEntity
  8
0
370
    -3
390
0
  6
Continuous
100
AcDbLine
 10
-318.320938
 20
-133.421786
 30
0.0
 11
-318.320938
 21
-102.421786
 31
0.0
  0
LINE
  5
253
100
AcDbEntity
  8
0
370
    -3
390
0
  6
Continuous
100
AcDbLine
 10
-318.320938
 20
-133.421786
 30
0.0
 11
-318.320938
 21
-164.421786
 31
0.0
  0
LINE
  5
254
100
AcDbEntity
  8
0
370
    -3
390
0
  6
Continuous
100
AcDbLine
 10
-318.320938
 20
-164.421786
 30
0.0
 11
-319.920938
 21
-164.421786
 31
0.0
  0
ARC
  5
255
100
AcDbEntity
  8
0
370
    -3
390
0
  6
Continuous
100
AcDbCircle
 10
-313.050838
 20
-91.845461
 30
0.0
 40
1.0
100
AcDbArc
 50
24.0
 51
114.0
  0
LINE
  5
256
100
AcDbEntity
  8
0
370
    -3
390
0
  6
Continuous
100
AcDbLine
 10
-272.392997
 20
-190.048528
 30
0.0
 11
-276.229888
 21
-191.756822
 31
0.0
  0
LINE
  5
257
100
AcDbEntity
  8
0
370
    -3
390
0
  6
Continuous
100
AcDbLine
 10
-273.735228
 20
-187.033828
 30
0.0
 11
-277.572119
 21
-188.742122
 31
0.0
  0
LINE
  5
258
100
AcDbEntity
  8
0
370
    -3
390
0
  6
Continuous
100
AcDbLine
 10
-277.394736
 20
-188.280023
 30
0.0
 11
-277.572119
 21
-188.742122
 31
0.0
  0
LINE
  5
259
100
AcDbEntity
  8
0
370
    -3
390
0
  6
Continuous
100
AcDbLine
 10
-275.767789
 20
-191.934205
 30
0.0
 11
-276.229888
 21
-191.756822
 31
0.0
  0
LINE
  5
25A
100
AcDbEntity
  8
0
370
    -3
390
0
  6
Continuous
100
AcDbLine
 10
-277.572119
 20
-188.742122
 30
0.0
 11
-276.229888
 21
-191.756822
 31
0.0
  0
POINT
  5
25B
100
AcDbEntity
  8
0
370
    -3
390
0
  6
Continuous
100
AcDbPoint
 10
-269.59264
 20
-186.995579
 30
0.0
  0
LINE
  5
25C
100
AcDbEntity
  8
0
370
    -3
390
0
  6
Continuous
100
AcDbLine
 10
-271.016218
 20
-183.79817
 30
0.0
 11
-268.169062
 21
-190.192988
 31
0.0
  0
LINE
  5
25D
100
AcDbEntity
  8
0
370
    -3
390
0
  6
Continuous
100
AcDbLine
 10
-271.016218
 20
-183.79817
 30
0.0
 11
-268.169062
 21
-190.192988
 31
0.0
  0
LINE
  5
25E
100
AcDbEntity
  8
0
370
    -3
390
0
  6
Continuous
100
AcDbLine
 10
-268.169062
 20
-190.192988
 30
0.0
 11
-267.274678
 21
-189.794782
 31
0.0
  0
LINE
  5
25F
100
AcDbEntity
  8
0
370
    -3
390
0
  6
Continuous
100
AcDbLine
 10
-271.016218
 20
-183.79817
 30
0.0
 11
-270.121834
 21
-183.399964
 31
0.0
  0
ARC
  5
260
100
AcDbEntity
  8
0
370
    -3
390
0
  6
Continuous
100
AcDbCircle
 10
-269.593077
 20
-184.587573
 30
0.0
 40
1.299999
100
AcDbArc
 50
40.601531
 51
114.000001
  0
LINE
  5
261
100
AcDbEntity
  8
0
370
    -3
390
0
  6
Continuous
100
AcDbLine
 10
-315.261509
 20
-93.764274
 30
0.0
 11
-315.686341
 21
-94.765115
 31
0.0
  0
LINE
  5
262
100
AcDbEntity
  8
0
370
    -3
390
0
  6
Continuous
100
AcDbLine
 10
-314.816595
 20
-94.763566
 30
0.0
 11
-314.949937
 21
-95.0777
 31
0.0
  0
LINE
  5
263
100
AcDbEntity
  8
0
370
    -3
390
0
  6
Continuous
100
AcDbLine
 10
-315.686341
 20
-94.765115
 30
0.0
 11
-314.949937
 21
-95.0777
 31
0.0
  0
LINE
  5
264
100
AcDbEntity
  8
0
370
    -3
390
0
  6
Continuous
100
AcDbLine
 10
-312.137293
 20
-91.438724
 30
0.0
 11
-293.445229
 21
-133.421786
 31
0.0
  0
ARC
  5
265
100
AcDbEntity
  8
0
370
    -3
390
0
  6
Continuous
100
AcDbCircle
 10
-307.614377
 20
-94.221579
 30
0.0
 40
3.0
100
AcDbArc
 50
204.0
 51
260.681877
  0
LINE
  5
266
100
AcDbEntity
  8
0
370
    -3
390
0
  6
Continuous
100
AcDbLine
 10
-308.100125
 20
-97.181993
 30
0.0
 11
-282.144488
 21
-101.440822
 31
0.0
  0
ARC
  5
267
100
AcDbEntity
  8
0
370
    -3
390
0
  6
Continuous
100
AcDbCircle
 10
-284.573227
 20
-116.24289
 30
0.0
 40
15.0
100
AcDbArc
 50
1.682769
 51
80.681877
  0
ARC
  5
268
100
AcDbEntity
  8
0
370
    -3
390
0
  6
Continuous
100
AcDbCircle
 10
-869.320938
 20
-133.421786
 30
0.0
 40
600.0
100
AcDbArc
 50
355.284875
 51
1.682769
  0
ARC
  5
269
100
AcDbEntity
  8
0
370
    -3
390
0
  6
Continuous
100
AcDbCircle
 10
-270.354889
 20
-182.824945
 30
0.0
 40
1.0
100
AcDbArc
 50
175.284875
 51
204.0
  0
LINE
  5
26A
100
AcDbEntity
  8
0
370
    -3
390
0
  6
Continuous
100
AcDbLine
 10
-313.457575
 20
-90.931915
 30
0.0
 11
-316.015502
 21
-92.070778
 31
0.0
  0
LINE
  5
26B
100
AcDbEntity
  8
0
370
    -3
390
0
  6
Continuous
100
AcDbLine
 10
-313.737777
 20
-97.186632
 30
0.0
 11
-315.541148
 21
-97.989545
 31
0.0
  0
ARC
  5
26C
100
AcDbEntity
  8
0
370
    -3
390
0
  6
Continuous
100
AcDbCircle
 10
-314.320938
 20
-100.730181
 30
0.0
 40
3.0
100
AcDbArc
 50
114.0
 51
180.0
  0
LINE
  5
26D
100
AcDbEntity
  8
0
370
    -3
390
0
  6
Continuous
100
AcDbLine
 10
-318.320938
 20
-102.421786
 30
0.0
 11
-317.320938
 21
-102.421786
 31
0.0
  0
ARC
  5
26E
100
AcDbEntity
  8
0
370
    -3
390
0
  6
Continuous
100
AcDbCircle
 10
-312.320938
 20
-174.921786
 30
0.0
 40
5.0
100
AcDbArc
 50
180.0
 51
270.0
  0
LINE
  5
26F
100
AcDbEntity
  8
0
370
    -3
390
0
  6
Continuous
100
AcDbLine
 10
-312.320938
 20
-179.921786
 30
0.0
 11
-276.901713
 21
-179.921786
 31
0.0
  0
LINE
  5
270
100
AcDbEntity
  8
0
370
    -3
390
0
  6
Continuous
100
AcDbLine
 10
-267.740376
 20
-193.614425
 30
0.0
 11
-270.298303
 21
-194.753287
 31
0.0
  0
ARC
  5
271
100
AcDbEntity
  8
0
370
    -3
390
0
  6
Continuous
100
AcDbCircle
 10
-268.147113
 20
-192.700879
 30
0.0
 40
1.0
100
AcDbArc
 50
294.0
 51
24.0
  0
LINE
  5
272
100
AcDbEntity
  8
0
370
    -3
390
0
  6
Continuous
100
AcDbLine
 10
-293.445229
 20
-133.421786
 30
0.0
 11
-267.233567
 21
-192.294142
 31
0.0
  0
ARC
  5
273
100
AcDbEntity
  8
0
370
    -3
390
0
  6
Continuous
100
AcDbCircle
 10
-271.526251
 20
-180.194024
 30
0.0
 40
1.0
100
AcDbArc
 50
114.0
 51
204.0
  0
ARC
  5
274
100
AcDbEntity
  8
0
370
    -3
390
0
  6
Continuous
100
AcDbCircle
 10
-272.950925
 20
-177.544421
 30
0.0
 40
2.0
100
AcDbArc
 50
294.0
 51
355.768662
  0
LINE
  5
275
100
AcDbEntity
  8
0
370
    -3
390
0
  6
Continuous
100
AcDbLine
 10
-273.877586
 20
-186.714087
 30
0.0
 11
-277.394736
 21
-188.280023
 31
0.0
  0
LINE
  5
276
100
AcDbEntity
  8
0
370
    -3
390
0
  6
Continuous
100
AcDbLine
 10
-272.250639
 20
-190.368269
 30
0.0
 11
-275.767789
 21
-191.934205
 31
0.0
  0
LINE
  5
277
100
AcDbEntity
  8
0
370
    -3
390
0
  6
Continuous
100
AcDbLine
 10
-318.320938
 20
-164.421786
 30
0.0
 11
-317.320938
 21
-164.421786
 31
0.0
  0
LINE
  5
278
100
AcDbEntity
  8
0
370
    -3
390
0
  6
Continuous
100
AcDbLine
 10
-317.320938
 20
-100.730181
 30
0.0
 11
-317.320938
 21
-174.921786
 31
0.0
  0
LINE
  5
279
100
AcDbEntity
  8
0
370
    -3
390
0
  6
Continuous
100
AcDbLine
 10
-318.320938
 20
-102.421786
 30
0.0
 11
-318.320938
 21
-164.421786
 31
0.0
  0
LINE
  5
27A
100
AcDbEntity
  8
0
370
    -3
390
0
  6
Continuous
100
AcDbLine
 10
-316.015502
 20
-92.070778
 30
0.0
 11
-270.298303
 21
-194.753287
 31
0.0
  0
LINE
  5
27B
100
AcDbEntity
  8
0
370
    -3
390
0
  6
CENTER
100
AcDbLine
 10
-293.320938
 20
-165.539262
 30
0.0
 11
-293.320938
 21
-188.407771
 31
0.0
  0
ARC
  5
27C
100
AcDbEntity
  8
0
370
    -3
390
0
  6
Continuous
100
AcDbCircle
 10
-267.803435
 20
-188.607174
 30
0.0
 40
1.299999
100
AcDbArc
 50
293.999982
 51
7.398452
  0
ARC
  5
27D
100
AcDbEntity
  8
0
370
    -3
390
0
  6
Continuous
100
AcDbCircle
 10
-275.43933
 20
-189.598693
 30
0.0
 40
9.0
100
AcDbArc
 50
7.398452
 51
40.601531
  0
ARC
  5
27E
100
AcDbEntity
  8
0
370
    -3
390
0
  6
Continuous
100
AcDbCircle
 10
-330.120938
 20
-112.021786
 30
0.0
 40
3.2
100
AcDbArc
 50
90.0
 51
97.763695
  0
LINE
  5
27F
100
AcDbEntity
  8
0
370
    -3
390
0
  6
Continuous
100
AcDbLine
 10
-458.838871
 20
-194.586523
 30
0.0
 11
-465.485675
 21
-187.939719
 31
0.0
  0
ARC
  5
280
100
AcDbEntity
  8
0
370
    -3
390
0
  6
Continuous
100
AcDbCircle
 10
-404.320938
 20
-133.421786
 30
0.0
 40
80.8
100
AcDbArc
 50
219.094568
 51
230.905432
  0
ARC
  5
281
100
AcDbEntity
  8
0
370
    -3
390
0
  6
Continuous
100
AcDbCircle
 10
-178.320938
 20
-133.421786
 30
0.0
 40
300.8
100
AcDbArc
 50
180.0
 51
184.33985
  0
ARC
  5
282
100
AcDbEntity
  8
0
370
    -3
390
0
  6
Continuous
100
AcDbCircle
 10
-404.320938
 20
92.578214
 30
0.0
 40
300.8
100
AcDbArc
 50
265.66015
 51
270.0
  0
ARC
  5
283
100
AcDbEntity
  8
0
370
    -3
390
0
  6
Continuous
100
AcDbCircle
 10
-330.120938
 20
-154.821786
 30
0.0
 40
3.2
100
AcDbArc
 50
262.236305
 51
270.0
  0
ARC
  5
284
100
AcDbEntity
  8
0
370
    -3
390
0
  6
Continuous
100
AcDbCircle
 10
-427.604124
 20
-114.503719
 30
0.0
 40
50.8
100
AcDbArc
 50
140.905432
 51
175.66015
  0
ARC
  5
285
100
AcDbEntity
  8
0
370
    -3
390
0
  6
Continuous
100
AcDbCircle
 10
-423.239005
 20
-110.1386
 30
0.0
 40
50.8
100
AcDbArc
 50
94.33985
 51
129.094568
  0
LINE
  5
286
100
AcDbEntity
  8
0
370
    -3
390
0
  6
Continuous
100
AcDbLine
 10
-458.414607
 20
-72.25705
 30
0.0
 11
-457.810136
 21
-72.861521
 31
0.0
  0
ARC
  5
287
100
AcDbEntity
  8
0
370
    -3
390
0
  6
Continuous
100
AcDbCircle
 10
-458.626739
 20
-72.469182
 30
0.0
 40
0.3
100
AcDbArc
 50
45.0
 51
135.0
  0
LINE
  5
288
100
AcDbEntity
  8
0
370
    -3
390
0
  6
Continuous
100
AcDbLine
 10
-464.248238
 20
-76.535046
 30
0.0
 11
-465.909939
 21
-78.196746
 31
0.0
  0
LINE
  5
289
100
AcDbEntity
  8
0
370
    -3
390
0
  6
Continuous
100
AcDbLine
 10
-465.909939
 20
-78.196746
 30
0.0
 11
-465.344253
 21
-78.762432
 31
0.0
  0
LINE
  5
28A
100
AcDbEntity
  8
0
370
    -3
390
0
  6
Continuous
100
AcDbLine
 10
-461.207679
 20
-73.494486
 30
0.0
 11
-459.545978
 21
-71.832785
 31
0.0
  0
LINE
  5
28B
100
AcDbEntity
  8
0
370
    -3
390
0
  6
Continuous
100
AcDbLine
 10
-459.545978
 20
-71.832785
 30
0.0
 11
-458.980292
 21
-72.398471
 31
0.0
  0
LINE
  5
28C
100
AcDbEntity
  8
0
370
    -3
390
0
  6
Continuous
100
AcDbLine
 10
-465.485675
 20
-79.328117
 30
0.0
 11
-464.881204
 21
-79.932589
 31
0.0
  0
ARC
  5
28D
100
AcDbEntity
  8
0
370
    -3
390
0
  6
Continuous
100
AcDbCircle
 10
-465.273543
 20
-79.115985
 30
0.0
 40
0.3
100
AcDbArc
 50
135.0
 51
225.0
  0
LINE
  5
28E
100
AcDbEntity
  8
0
370
    -3
390
0
  6
Continuous
100
AcDbLine
 10
-458.838871
 20
-72.25705
 30
0.0
 11
-465.485675
 21
-78.903853
 31
0.0
  0
ARC
  5
28F
100
AcDbEntity
  8
0
370
    -3
390
0
  6
Continuous
100
AcDbCircle
 10
-404.320938
 20
-133.421786
 30
0.0
 40
80.8
100
AcDbArc
 50
129.094568
 51
140.905432
  0
ARC
  5
290
100
AcDbEntity
  8
0
370
    -3
390
0
  6
Continuous
100
AcDbCircle
 10
-178.320938
 20
-133.421786
 30
0.0
 40
300.8
100
AcDbArc
 50
175.66015
 51
180.0
  0
ARC
  5
291
100
AcDbEntity
  8
0
370
    -3
390
0
  6
Continuous
100
AcDbCircle
 10
-404.320938
 20
-359.421786
 30
0.0
 40
300.8
100
AcDbArc
 50
90.0
 51
94.33985
  0
ARC
  5
292
100
AcDbEntity
  8
0
370
    -3
390
0
  6
Continuous
100
AcDbCircle
 10
-381.037752
 20
-114.503719
 30
0.0
 40
50.8
100
AcDbArc
 50
4.33985
 51
39.094568
  0
ARC
  5
293
100
AcDbEntity
  8
0
370
    -3
390
0
  6
Continuous
100
AcDbCircle
 10
-385.402871
 20
-110.1386
 30
0.0
 40
50.8
100
AcDbArc
 50
50.905432
 51
85.66015
  0
LINE
  5
294
100
AcDbEntity
  8
0
370
    -3
390
0
  6
Continuous
100
AcDbLine
 10
-350.227269
 20
-72.25705
 30
0.0
 11
-350.831741
 21
-72.861521
 31
0.0
  0
ARC
  5
295
100
AcDbEntity
  8
0
370
    -3
390
0
  6
Continuous
100
AcDbCircle
 10
-350.015137
 20
-72.469182
 30
0.0
 40
0.3
100
AcDbArc
 50
45.0
 51
135.0
  0
LINE
  5
296
100
AcDbEntity
  8
0
370
    -3
390
0
  6
Continuous
100
AcDbLine
 10
-344.393638
 20
-76.535046
 30
0.0
 11
-342.731938
 21
-78.196746
 31
0.0
  0
LINE
  5
297
100
AcDbEntity
  8
0
370
    -3
390
0
  6
Continuous
100
AcDbLine
 10
-342.731938
 20
-78.196746
 30
0.0
 11
-343.297623
 21
-78.762432
 31
0.0
  0
LINE
  5
298
100
AcDbEntity
  8
0
370
    -3
390
0
  6
Continuous
100
AcDbLine
 10
-347.434198
 20
-73.494486
 30
0.0
 11
-349.095899
 21
-71.832785
 31
0.0
  0
LINE
  5
299
100
AcDbEntity
  8
0
370
    -3
390
0
  6
Continuous
100
AcDbLine
 10
-349.095899
 20
-71.832785
 30
0.0
 11
-349.661584
 21
-72.398471
 31
0.0
  0
LINE
  5
29A
100
AcDbEntity
  8
0
370
    -3
390
0
  6
Continuous
100
AcDbLine
 10
-343.156202
 20
-79.328117
 30
0.0
 11
-343.760673
 21
-79.932589
 31
0.0
  0
ARC
  5
29B
100
AcDbEntity
  8
0
370
    -3
390
0
  6
Continuous
100
AcDbCircle
 10
-343.368334
 20
-79.115985
 30
0.0
 40
0.3
100
AcDbArc
 50
315.0
 51
45.0
  0
LINE
  5
29C
100
AcDbEntity
  8
0
370
    -3
390
0
  6
Continuous
100
AcDbLine
 10
-349.803005
 20
-72.25705
 30
0.0
 11
-343.156202
 21
-78.903853
 31
0.0
  0
ARC
  5
29D
100
AcDbEntity
  8
0
370
    -3
390
0
  6
Continuous
100
AcDbCircle
 10
-404.320938
 20
-133.421786
 30
0.0
 40
80.8
100
AcDbArc
 50
39.094568
 51
50.905432
  0
ARC
  5
29E
100
AcDbEntity
  8
0
370
    -3
390
0
  6
Continuous
100
AcDbCircle
 10
-630.320938
 20
-133.421786
 30
0.0
 40
300.8
100
AcDbArc
 50
0.0
 51
4.33985
  0
ARC
  5
29F
100
AcDbEntity
  8
0
370
    -3
390
0
  6
Continuous
100
AcDbCircle
 10
-404.320938
 20
-359.421786
 30
0.0
 40
300.8
100
AcDbArc
 50
85.66015
 51
90.0
  0
ARC
  5
2A0
100
AcDbEntity
  8
0
370
    -3
390
0
  6
Continuous
100
AcDbCircle
 10
-381.037752
 20
-152.339853
 30
0.0
 40
50.8
100
AcDbArc
 50
320.905432
 51
355.66015
  0
ARC
  5
2A1
100
AcDbEntity
  8
0
370
    -3
390
0
  6
Continuous
100
AcDbCircle
 10
-385.402871
 20
-156.704972
 30
0.0
 40
50.8
100
AcDbArc
 50
274.33985
 51
309.094568
  0
LINE
  5
2A2
100
AcDbEntity
  8
0
370
    -3
390
0
  6
Continuous
100
AcDbLine
 10
-350.227269
 20
-194.586523
 30
0.0
 11
-350.831741
 21
-193.982051
 31
0.0
  0
ARC
  5
2A3
100
AcDbEntity
  8
0
370
    -3
390
0
  6
Continuous
100
AcDbCircle
 10
-350.015137
 20
-194.374391
 30
0.0
 40
0.3
100
AcDbArc
 50
225.0
 51
315.0
  0
LINE
  5
2A4
100
AcDbEntity
  8
0
370
    -3
390
0
  6
Continuous
100
AcDbLine
 10
-344.393638
 20
-190.308527
 30
0.0
 11
-342.731938
 21
-188.646826
 31
0.0
  0
LINE
  5
2A5
100
AcDbEntity
  8
0
370
    -3
390
0
  6
Continuous
100
AcDbLine
 10
-342.731938
 20
-188.646826
 30
0.0
 11
-343.297623
 21
-188.08114
 31
0.0
  0
LINE
  5
2A6
100
AcDbEntity
  8
0
370
    -3
390
0
  6
Continuous
100
AcDbLine
 10
-347.434198
 20
-193.349086
 30
0.0
 11
-349.095899
 21
-195.010787
 31
0.0
  0
LINE
  5
2A7
100
AcDbEntity
  8
0
370
    -3
390
0
  6
Continuous
100
AcDbLine
 10
-349.095899
 20
-195.010787
 30
0.0
 11
-349.661584
 21
-194.445101
 31
0.0
  0
LINE
  5
2A8
100
AcDbEntity
  8
0
370
    -3
390
0
  6
Continuous
100
AcDbLine
 10
-343.156202
 20
-187.515455
 30
0.0
 11
-343.760673
 21
-186.910984
 31
0.0
  0
ARC
  5
2A9
100
AcDbEntity
  8
0
370
    -3
390
0
  6
Continuous
100
AcDbCircle
 10
-343.368334
 20
-187.727587
 30
0.0
 40
0.3
100
AcDbArc
 50
315.0
 51
45.0
  0
LINE
  5
2AA
100
AcDbEntity
  8
0
370
    -3
390
0
  6
Continuous
100
AcDbLine
 10
-349.803005
 20
-194.586523
 30
0.0
 11
-343.156202
 21
-187.939719
 31
0.0
  0
ARC
  5
2AB
100
AcDbEntity
  8
0
370
    -3
390
0
  6
Continuous
100
AcDbCircle
 10
-404.320938
 20
-133.421786
 30
0.0
 40
80.8
100
AcDbArc
 50
309.094568
 51
320.905432
  0
ARC
  5
2AC
100
AcDbEntity
  8
0
370
    -3
390
0
  6
Continuous
100
AcDbCircle
 10
-630.320938
 20
-133.421786
 30
0.0
 40
300.8
100
AcDbArc
 50
355.66015
 51
360.0
  0
ARC
  5
2AD
100
AcDbEntity
  8
0
370
    -3
390
0
  6
Continuous
100
AcDbCircle
 10
-404.320938
 20
92.578214
 30
0.0
 40
300.8
100
AcDbArc
 50
270.0
 51
274.33985
  0
ARC
  5
2AE
100
AcDbEntity
  8
0
370
    -3
390
0
  6
Continuous
100
AcDbCircle
 10
-630.320938
 20
-133.421786
 30
0.0
 40
286.944
100
AcDbArc
 50
355.66015
 51
4.33985
  0
ARC
  5
2AF
100
AcDbEntity
  8
0
370
    -3
390
0
  6
Continuous
100
AcDbCircle
 10
-404.320938
 20
-359.421786
 30
0.0
 40
286.944
100
AcDbArc
 50
85.66015
 51
94.33985
  0
ARC
  5
2B0
100
AcDbEntity
  8
0
370
    -3
390
0
  6
Continuous
100
AcDbCircle
 10
-427.604124
 20
-114.503719
 30
0.0
 40
36.944
100
AcDbArc
 50
140.905432
 51
175.66015
  0
ARC
  5
2B1
100
AcDbEntity
  8
0
370
    -3
390
0
  6
Continuous
100
AcDbCircle
 10
-178.320938
 20
-133.421786
 30
0.0
 40
286.944
100
AcDbArc
 50
175.66015
 51
184.33985
  0
ARC
  5
2B2
100
AcDbEntity
  8
0
370
    -3
390
0
  6
Continuous
100
AcDbCircle
 10
-427.604124
 20
-152.339853
 30
0.0
 40
36.944
100
AcDbArc
 50
184.33985
 51
219.094568
  0
ARC
  5
2B3
100
AcDbEntity
  8
0
370
    -3
390
0
  6
Continuous
100
AcDbCircle
 10
-404.320938
 20
92.578214
 30
0.0
 40
286.944
100
AcDbArc
 50
265.66015
 51
274.33985
  0
CIRCLE
  5
2B4
100
AcDbEntity
  8
0
370
    -3
390
0
  6
Continuous
100
AcDbCircle
 10
-404.320938
 20
-133.421786
 30
0.0
 40
5.0
  0
LINE
  5
2B5
100
AcDbEntity
  8
0
370
    -3
390
0
  6
Continuous
100
AcDbLine
 10
-407.820938
 20
-80.707936
 30
0.0
 11
-407.820938
 21
-82.719222
 31
0.0
  0
LINE
  5
2B6
100
AcDbEntity
  8
0
370
    -3
390
0
  6
Continuous
100
AcDbLine
 10
-448.804542
 20
-104.852414
 30
0.0
 11
-447.065966
 21
-105.856181
 31
0.0
  0
ARC
  5
2B7
100
AcDbEntity
  8
0
370
    -3
390
0
  6
Continuous
100
AcDbCircle
 10
-404.320938
 20
-133.421786
 30
0.0
 40
55.0
100
AcDbArc
 50
95.956512
 51
145.1294
  0
ARC
  5
2B8
100
AcDbEntity
  8
0
370
    -3
390
0
  6
Continuous
100
AcDbCircle
 10
-404.320938
 20
-133.421786
 30
0.0
 40
49.0
100
AcDbArc
 50
96.190997
 51
144.937907
  0
ARC
  5
2B9
100
AcDbEntity
  8
0
370
    -3
390
0
  6
Continuous
100
AcDbCircle
 10
-404.320938
 20
-133.421786
 30
0.0
 40
39.0
100
AcDbArc
 50
97.70926
 51
143.698744
  0
ARC
  5
2BA
100
AcDbEntity
  8
0
370
    -3
390
0
  6
Continuous
100
AcDbCircle
 10
-404.320938
 20
-133.421786
 30
0.0
 40
35.0
100
AcDbArc
 50
99.594068
 51
142.16252
  0
ARC
  5
2BB
100
AcDbEntity
  8
0
370
    -3
390
0
  6
Continuous
100
AcDbCircle
 10
-404.320938
 20
-133.421786
 30
0.0
 40
29.0
100
AcDbArc
 50
100.21948
 51
141.653381
  0
ARC
  5
2BC
100
AcDbEntity
  8
0
370
    -3
390
0
  6
Continuous
100
AcDbCircle
 10
-404.320938
 20
-133.421786
 30
0.0
 40
25.0
100
AcDbArc
 50
103.835224
 51
138.717176
  0
ARC
  5
2BD
100
AcDbEntity
  8
0
370
    -3
390
0
  6
Continuous
100
AcDbCircle
 10
-404.320938
 20
-133.421786
 30
0.0
 40
19.0
100
AcDbArc
 50
105.183114
 51
137.626375
  0
ARC
  5
2BE
100
AcDbEntity
  8
0
370
    -3
390
0
  6
Continuous
100
AcDbCircle
 10
-404.320938
 20
-133.421786
 30
0.0
 40
15.0
100
AcDbArc
 50
115.028999
 51
129.747753
  0
ARC
  5
2BF
100
AcDbEntity
  8
0
370
    -3
390
0
  6
Continuous
100
AcDbCircle
 10
-404.320938
 20
-133.421786
 30
0.0
 40
9.0
100
AcDbArc
 50
120.0
 51
125.85226
  0
LINE
  5
2C0
100
AcDbEntity
  8
0
370
    -3
390
0
  6
Continuous
100
AcDbLine
 10
-407.820938
 20
-90.774981
 30
0.0
 11
-407.820938
 21
-92.792363
 31
0.0
  0
LINE
  5
2C1
100
AcDbEntity
  8
0
370
    -3
390
0
  6
Continuous
100
AcDbLine
 10
-407.820938
 20
-100.883347
 30
0.0
 11
-407.820938
 21
-102.91359
 31
0.0
  0
LINE
  5
2C2
100
AcDbEntity
  8
0
370
    -3
390
0
  6
Continuous
100
AcDbLine
 10
-407.820938
 20
-111.089075
 30
0.0
 11
-407.820938
 21
-113.154818
 31
0.0
  0
LINE
  5
2C3
100
AcDbEntity
  8
0
370
    -3
390
0
  6
Continuous
100
AcDbLine
 10
-407.820938
 20
-121.642567
 30
0.0
 11
-407.820938
 21
-123.895507
 31
0.0
  0
LINE
  5
2C4
100
AcDbEntity
  8
0
370
    -3
390
0
  6
Continuous
100
AcDbLine
 10
-413.633253
 20
-125.158567
 30
0.0
 11
-411.763608
 21
-126.238008
 31
0.0
  0
LINE
  5
2C5
100
AcDbEntity
  8
0
370
    -3
390
0
  6
Continuous
100
AcDbLine
 10
-422.604563
 20
-119.978979
 30
0.0
 11
-420.835017
 21
-121.000627
 31
0.0
  0
LINE
  5
2C6
100
AcDbEntity
  8
0
370
    -3
390
0
  6
Continuous
100
AcDbLine
 10
-431.382817
 20
-114.910852
 30
0.0
 11
-429.633365
 21
-115.920898
 31
0.0
  0
LINE
  5
2C7
100
AcDbEntity
  8
0
370
    -3
390
0
  6
Continuous
100
AcDbLine
 10
-440.10555
 20
-109.874779
 30
0.0
 11
-438.363466
 21
-110.880572
 31
0.0
  0
ARC
  5
2C8
100
AcDbEntity
  8
0
370
    -3
390
0
  6
Continuous
100
AcDbCircle
 10
-404.320938
 20
-133.421786
 30
0.0
 40
35.0
100
AcDbArc
 50
37.83748
 51
80.405932
  0
LINE
  5
2C9
100
AcDbEntity
  8
0
370
    -3
390
0
  6
Continuous
100
AcDbLine
 10
-400.820938
 20
-100.883347
 30
0.0
 11
-400.820938
 21
-102.91359
 31
0.0
  0
LINE
  5
2CA
100
AcDbEntity
  8
0
370
    -3
390
0
  6
Continuous
100
AcDbLine
 10
-400.820938
 20
-90.774981
 30
0.0
 11
-400.820938
 21
-92.792363
 31
0.0
  0
ARC
  5
2CB
100
AcDbEntity
  8
0
370
    -3
390
0
  6
Continuous
100
AcDbCircle
 10
-404.320938
 20
-133.421786
 30
0.0
 40
39.0
100
AcDbArc
 50
36.301256
 51
82.29074
  0
ARC
  5
2CC
100
AcDbEntity
  8
0
370
    -3
390
0
  6
Continuous
100
AcDbCircle
 10
-404.320938
 20
-133.421786
 30
0.0
 40
45.0
100
AcDbArc
 50
36.007069
 51
82.651339
  0
ARC
  5
2CD
100
AcDbEntity
  8
0
370
    -3
390
0
  6
Continuous
100
AcDbCircle
 10
-404.320938
 20
-133.421786
 30
0.0
 40
55.0
100
AcDbArc
 50
34.8706
 51
84.043488
  0
LINE
  5
2CE
100
AcDbEntity
  8
0
370
    -3
390
0
  6
Continuous
100
AcDbLine
 10
-400.820938
 20
-80.707936
 30
0.0
 11
-400.820938
 21
-82.719222
 31
0.0
  0
ARC
  5
2CF
100
AcDbEntity
  8
0
370
    -3
390
0
  6
Continuous
100
AcDbCircle
 10
-404.320938
 20
-133.421786
 30
0.0
 40
49.0
100
AcDbArc
 50
35.062093
 51
83.809003
  0
LINE
  5
2D0
100
AcDbEntity
  8
0
370
    -3
390
0
  6
Continuous
100
AcDbLine
 10
-359.837335
 20
-104.852414
 30
0.0
 11
-361.57591
 21
-105.856181
 31
0.0
  0
LINE
  5
2D1
100
AcDbEntity
  8
0
370
    -3
390
0
  6
Continuous
100
AcDbLine
 10
-368.536326
 20
-109.874779
 30
0.0
 11
-370.278411
 21
-110.880572
 31
0.0
  0
ARC
  5
2D2
100
AcDbEntity
  8
0
370
    -3
390
0
  6
Continuous
100
AcDbCircle
 10
-404.320938
 20
-133.421786
 30
0.0
 40
29.0
100
AcDbArc
 50
38.346619
 51
79.78052
  0
LINE
  5
2D3
100
AcDbEntity
  8
0
370
    -3
390
0
  6
Continuous
100
AcDbLine
 10
-377.259059
 20
-114.910852
 30
0.0
 11
-379.008512
 21
-115.920898
 31
0.0
  0
LINE
  5
2D4
100
AcDbEntity
  8
0
370
    -3
390
0
  6
Continuous
100
AcDbLine
 10
-400.820938
 20
-111.089075
 30
0.0
 11
-400.820938
 21
-113.154818
 31
0.0
  0
ARC
  5
2D5
100
AcDbEntity
  8
0
370
    -3
390
0
  6
Continuous
100
AcDbCircle
 10
-404.320938
 20
-133.421786
 30
0.0
 40
25.0
100
AcDbArc
 50
41.282824
 51
76.164776
  0
ARC
  5
2D6
100
AcDbEntity
  8
0
370
    -3
390
0
  6
Continuous
100
AcDbCircle
 10
-404.320938
 20
-133.421786
 30
0.0
 40
19.0
100
AcDbArc
 50
42.373625
 51
74.816886
  0
LINE
  5
2D7
100
AcDbEntity
  8
0
370
    -3
390
0
  6
Continuous
100
AcDbLine
 10
-386.037313
 20
-119.978979
 30
0.0
 11
-387.806859
 21
-121.000627
 31
0.0
  0
LINE
  5
2D8
100
AcDbEntity
  8
0
370
    -3
390
0
  6
Continuous
100
AcDbLine
 10
-400.820938
 20
-121.642567
 30
0.0
 11
-400.820938
 21
-123.895507
 31
0.0
  0
ARC
  5
2D9
100
AcDbEntity
  8
0
370
    -3
390
0
  6
Continuous
100
AcDbCircle
 10
-404.320938
 20
-133.421786
 30
0.0
 40
15.0
100
AcDbArc
 50
50.252247
 51
64.971001
  0
ARC
  5
2DA
100
AcDbEntity
  8
0
370
    -3
390
0
  6
Continuous
100
AcDbCircle
 10
-404.320938
 20
-133.421786
 30
0.0
 40
9.0
100
AcDbArc
 50
54.14774
 51
60.0
  0
LINE
  5
2DB
100
AcDbEntity
  8
0
370
    -3
390
0
  6
Continuous
100
AcDbLine
 10
-395.008623
 20
-125.158567
 30
0.0
 11
-396.878269
 21
-126.238008
 31
0.0
  0
ARC
  5
2DC
100
AcDbEntity
  8
0
370
    -3
390
0
  6
Continuous
100
AcDbCircle
 10
-404.320938
 20
-133.421786
 30
0.0
 40
35.0
100
AcDbArc
 50
279.594068
 51
322.16252
  0
LINE
  5
2DD
100
AcDbEntity
  8
0
370
    -3
390
0
  6
Continuous
100
AcDbLine
 10
-400.820938
 20
-165.960225
 30
0.0
 11
-400.820938
 21
-163.929982
 31
0.0
  0
LINE
  5
2DE
100
AcDbEntity
  8
0
370
    -3
390
0
  6
Continuous
100
AcDbLine
 10
-400.820938
 20
-176.068591
 30
0.0
 11
-400.820938
 21
-174.051209
 31
0.0
  0
ARC
  5
2DF
100
AcDbEntity
  8
0
370
    -3
390
0
  6
Continuous
100
AcDbCircle
 10
-404.320938
 20
-133.421786
 30
0.0
 40
39.0
100
AcDbArc
 50
277.70926
 51
323.698744
  0
ARC
  5
2E0
100
AcDbEntity
  8
0
370
    -3
390
0
  6
Continuous
100
AcDbCircle
 10
-404.320938
 20
-133.421786
 30
0.0
 40
45.0
100
AcDbArc
 50
277.348661
 51
323.992931
  0
ARC
  5
2E1
100
AcDbEntity
  8
0
370
    -3
390
0
  6
Continuous
100
AcDbCircle
 10
-404.320938
 20
-133.421786
 30
0.0
 40
55.0
100
AcDbArc
 50
275.956512
 51
325.1294
  0
LINE
  5
2E2
100
AcDbEntity
  8
0
370
    -3
390
0
  6
Continuous
100
AcDbLine
 10
-400.820938
 20
-186.135636
 30
0.0
 11
-400.820938
 21
-184.12435
 31
0.0
  0
ARC
  5
2E3
100
AcDbEntity
  8
0
370
    -3
390
0
  6
Continuous
100
AcDbCircle
 10
-404.320938
 20
-133.421786
 30
0.0
 40
49.0
100
AcDbArc
 50
276.190997
 51
325.986013
  0
ARC
  5
2E4
100
AcDbEntity
  8
0
370
    -3
390
0
  6
Continuous
100
AcDbCircle
 10
-362.875886
 20
-161.39155
 30
0.0
 40
1.0
100
AcDbArc
 50
60.0
 51
145.986013
  0
LINE
  5
2E5
100
AcDbEntity
  8
0
370
    -3
390
0
  6
Continuous
100
AcDbLine
 10
-359.837335
 20
-161.991158
 30
0.0
 11
-362.375886
 21
-160.525524
 31
0.0
  0
LINE
  5
2E6
100
AcDbEntity
  8
0
370
    -3
390
0
  6
Continuous
100
AcDbLine
 10
-368.536326
 20
-156.968793
 30
0.0
 11
-370.278411
 21
-155.963
 31
0.0
  0
ARC
  5
2E7
100
AcDbEntity
  8
0
370
    -3
390
0
  6
Continuous
100
AcDbCircle
 10
-404.320938
 20
-133.421786
 30
0.0
 40
29.0
100
AcDbArc
 50
280.21948
 51
321.653381
  0
LINE
  5
2E8
100
AcDbEntity
  8
0
370
    -3
390
0
  6
Continuous
100
AcDbLine
 10
-377.259059
 20
-151.932721
 30
0.0
 11
-379.008512
 21
-150.922674
 31
0.0
  0
LINE
  5
2E9
100
AcDbEntity
  8
0
370
    -3
390
0
  6
Continuous
100
AcDbLine
 10
-400.820938
 20
-155.754498
 30
0.0
 11
-400.820938
 21
-153.688754
 31
0.0
  0
ARC
  5
2EA
100
AcDbEntity
  8
0
370
    -3
390
0
  6
Continuous
100
AcDbCircle
 10
-404.320938
 20
-133.421786
 30
0.0
 40
25.0
100
AcDbArc
 50
283.835224
 51
318.717176
  0
ARC
  5
2EB
100
AcDbEntity
  8
0
370
    -3
390
0
  6
Continuous
100
AcDbCircle
 10
-404.320938
 20
-133.421786
 30
0.0
 40
19.0
100
AcDbArc
 50
285.183114
 51
317.626375
  0
LINE
  5
2EC
100
AcDbEntity
  8
0
370
    -3
390
0
  6
Continuous
100
AcDbLine
 10
-386.037313
 20
-146.864593
 30
0.0
 11
-387.806859
 21
-145.842945
 31
0.0
  0
LINE
  5
2ED
100
AcDbEntity
  8
0
370
    -3
390
0
  6
Continuous
100
AcDbLine
 10
-400.820938
 20
-145.201005
 30
0.0
 11
-400.820938
 21
-142.948066
 31
0.0
  0
ARC
  5
2EE
100
AcDbEntity
  8
0
370
    -3
390
0
  6
Continuous
100
AcDbCircle
 10
-404.320938
 20
-133.421786
 30
0.0
 40
15.0
100
AcDbArc
 50
295.028999
 51
309.747753
  0
ARC
  5
2EF
100
AcDbEntity
  8
0
370
    -3
390
0
  6
Continuous
100
AcDbCircle
 10
-404.320938
 20
-133.421786
 30
0.0
 40
9.0
100
AcDbArc
 50
300.0
 51
309.512685
  0
ARC
  5
2F0
100
AcDbEntity
  8
0
370
    -3
390
0
  6
Continuous
100
AcDbCircle
 10
-397.958448
 20
-141.136623
 30
0.0
 40
1.0
100
AcDbArc
 50
60.0
 51
129.512685
  0
LINE
  5
2F1
100
AcDbEntity
  8
0
370
    -3
390
0
  6
Continuous
100
AcDbLine
 10
-395.008623
 20
-141.685005
 30
0.0
 11
-397.458448
 21
-140.270598
 31
0.0
  0
ARC
  5
2F2
100
AcDbEntity
  8
0
370
    -3
390
0
  6
Continuous
100
AcDbCircle
 10
-404.320938
 20
-133.421786
 30
0.0
 40
35.0
100
AcDbArc
 50
217.83748
 51
260.405932
  0
LINE
  5
2F3
100
AcDbEntity
  8
0
370
    -3
390
0
  6
Continuous
100
AcDbLine
 10
-407.820938
 20
-165.960225
 30
0.0
 11
-407.820938
 21
-163.929982
 31
0.0
  0
LINE
  5
2F4
100
AcDbEntity
  8
0
370
    -3
390
0
  6
Continuous
100
AcDbLine
 10
-407.820938
 20
-176.068591
 30
0.0
 11
-407.820938
 21
-174.051209
 31
0.0
  0
ARC
  5
2F5
100
AcDbEntity
  8
0
370
    -3
390
0
  6
Continuous
100
AcDbCircle
 10
-404.320938
 20
-133.421786
 30
0.0
 40
39.0
100
AcDbArc
 50
216.301256
 51
262.29074
  0
ARC
  5
2F6
100
AcDbEntity
  8
0
370
    -3
390
0
  6
Continuous
100
AcDbCircle
 10
-404.320938
 20
-133.421786
 30
0.0
 40
45.0
100
AcDbArc
 50
216.007069
 51
262.651339
  0
ARC
  5
2F7
100
AcDbEntity
  8
0
370
    -3
390
0
  6
Continuous
100
AcDbCircle
 10
-404.320938
 20
-133.421786
 30
0.0
 40
55.0
100
AcDbArc
 50
214.8706
 51
264.043488
  0
LINE
  5
2F8
100
AcDbEntity
  8
0
370
    -3
390
0
  6
Continuous
100
AcDbLine
 10
-407.820938
 20
-186.135636
 30
0.0
 11
-407.820938
 21
-184.12435
 31
0.0
  0
ARC
  5
2F9
100
AcDbEntity
  8
0
370
    -3
390
0
  6
Continuous
100
AcDbCircle
 10
-404.320938
 20
-133.421786
 30
0.0
 40
49.0
100
AcDbArc
 50
215.062093
 51
263.809003
  0
LINE
  5
2FA
100
AcDbEntity
  8
0
370
    -3
390
0
  6
Continuous
100
AcDbLine
 10
-448.804542
 20
-161.991158
 30
0.0
 11
-447.065966
 21
-160.987391
 31
0.0
  0
LINE
  5
2FB
100
AcDbEntity
  8
0
370
    -3
390
0
  6
Continuous
100
AcDbLine
 10
-440.10555
 20
-156.968793
 30
0.0
 11
-438.363466
 21
-155.963
 31
0.0
  0
ARC
  5
2FC
100
AcDbEntity
  8
0
370
    -3
390
0
  6
Continuous
100
AcDbCircle
 10
-404.320938
 20
-133.421786
 30
0.0
 40
29.0
100
AcDbArc
 50
218.346619
 51
259.78052
  0
LINE
  5
2FD
100
AcDbEntity
  8
0
370
    -3
390
0
  6
Continuous
100
AcDbLine
 10
-431.382817
 20
-151.932721
 30
0.0
 11
-429.633365
 21
-150.922674
 31
0.0
  0
LINE
  5
2FE
100
AcDbEntity
  8
0
370
    -3
390
0
  6
Continuous
100
AcDbLine
 10
-407.820938
 20
-155.754498
 30
0.0
 11
-407.820938
 21
-153.688754
 31
0.0
  0
ARC
  5
2FF
100
AcDbEntity
  8
0
370
    -3
390
0
  6
Continuous
100
AcDbCircle
 10
-404.320938
 20
-133.421786
 30
0.0
 40
25.0
100
AcDbArc
 50
221.282824
 51
256.164776
  0
ARC
  5
300
100
AcDbEntity
  8
0
370
    -3
390
0
  6
Continuous
100
AcDbCircle
 10
-404.320938
 20
-133.421786
 30
0.0
 40
19.0
100
AcDbArc
 50
222.373625
 51
254.816886
  0
LINE
  5
301
100
AcDbEntity
  8
0
370
    -3
390
0
  6
Continuous
100
AcDbLine
 10
-422.604563
 20
-146.864593
 30
0.0
 11
-420.835017
 21
-145.842945
 31
0.0
  0
LINE
  5
302
100
AcDbEntity
  8
0
370
    -3
390
0
  6
Continuous
100
AcDbLine
 10
-407.820938
 20
-145.201005
 30
0.0
 11
-407.820938
 21
-142.948066
 31
0.0
  0
ARC
  5
303
100
AcDbEntity
  8
0
370
    -3
390
0
  6
Continuous
100
AcDbCircle
 10
-404.320938
 20
-133.421786
 30
0.0
 40
15.0
100
AcDbArc
 50
230.252247
 51
244.971001
  0
ARC
  5
304
100
AcDbEntity
  8
0
370
    -3
390
0
  6
Continuous
100
AcDbCircle
 10
-404.320938
 20
-133.421786
 30
0.0
 40
9.0
100
AcDbArc
 50
234.14774
 51
240.0
  0
LINE
  5
305
100
AcDbEntity
  8
0
370
    -3
390
0
  6
Continuous
100
AcDbLine
 10
-413.633253
 20
-141.685005
 30
0.0
 11
-411.763608
 21
-140.605565
 31
0.0
  0
ARC
  5
306
100
AcDbEntity
  8
0
370
    -3
390
0
  6
Continuous
100
AcDbCircle
 10
-404.320938
 20
-133.421786
 30
0.0
 40
35.0
100
AcDbArc
 50
337.83748
 51
20.405932
  0
LINE
  5
307
100
AcDbEntity
  8
0
370
    -3
390
0
  6
Continuous
100
AcDbLine
 10
-374.391824
 20
-120.183656
 30
0.0
 11
-376.150066
 21
-121.198777
 31
0.0
  0
LINE
  5
308
100
AcDbEntity
  8
0
370
    -3
390
0
  6
Continuous
100
AcDbLine
 10
-365.637721
 20
-115.129472
 30
0.0
 11
-367.384826
 21
-116.138164
 31
0.0
  0
ARC
  5
309
100
AcDbEntity
  8
0
370
    -3
390
0
  6
Continuous
100
AcDbCircle
 10
-404.320938
 20
-133.421786
 30
0.0
 40
39.0
100
AcDbArc
 50
336.301256
 51
22.29074
  0
ARC
  5
30A
100
AcDbEntity
  8
0
370
    -3
390
0
  6
Continuous
100
AcDbCircle
 10
-404.320938
 20
-133.421786
 30
0.0
 40
45.0
100
AcDbArc
 50
336.007069
 51
22.651339
  0
ARC
  5
30B
100
AcDbEntity
  8
0
370
    -3
390
0
  6
Continuous
100
AcDbCircle
 10
-404.320938
 20
-133.421786
 30
0.0
 40
55.0
100
AcDbArc
 50
334.8706
 51
24.043488
  0
LINE
  5
30C
100
AcDbEntity
  8
0
370
    -3
390
0
  6
Continuous
100
AcDbLine
 10
-356.919405
 20
-110.09595
 30
0.0
 11
-358.66123
 21
-111.101593
 31
0.0
  0
ARC
  5
30D
100
AcDbEntity
  8
0
370
    -3
390
0
  6
Continuous
100
AcDbCircle
 10
-404.320938
 20
-133.421786
 30
0.0
 40
49.0
100
AcDbArc
 50
335.062093
 51
23.809003
  0
ARC
  5
30E
100
AcDbEntity
  8
0
370
    -3
390
0
  6
Continuous
100
AcDbCircle
 10
-404.320938
 20
-133.421786
 30
0.0
 40
29.0
100
AcDbArc
 50
338.346619
 51
19.78052
  0
LINE
  5
30F
100
AcDbEntity
  8
0
370
    -3
390
0
  6
Continuous
100
AcDbLine
 10
-383.230243
 20
-125.286519
 30
0.0
 11
-385.019229
 21
-126.319391
 31
0.0
  0
ARC
  5
310
100
AcDbEntity
  8
0
370
    -3
390
0
  6
Continuous
100
AcDbCircle
 10
-404.320938
 20
-133.421786
 30
0.0
 40
25.0
100
AcDbArc
 50
341.282824
 51
16.164776
  0
ARC
  5
311
100
AcDbEntity
  8
0
370
    -3
390
0
  6
Continuous
100
AcDbCircle
 10
-404.320938
 20
-133.421786
 30
0.0
 40
19.0
100
AcDbArc
 50
342.373625
 51
14.816886
  0
LINE
  5
312
100
AcDbEntity
  8
0
370
    -3
390
0
  6
Continuous
100
AcDbLine
 10
-392.369835
 20
-130.563265
 30
0.0
 11
-394.320938
 21
-131.689735
 31
0.0
  0
ARC
  5
313
100
AcDbEntity
  8
0
370
    -3
390
0
  6
Continuous
100
AcDbCircle
 10
-404.320938
 20
-133.421786
 30
0.0
 40
15.0
100
AcDbArc
 50
350.252247
 51
4.971001
  0
ARC
  5
314
100
AcDbEntity
  8
0
370
    -3
390
0
  6
Continuous
100
AcDbCircle
 10
-404.320938
 20
-133.421786
 30
0.0
 40
9.0
100
AcDbArc
 50
354.14774
 51
360.0
  0
LINE
  5
315
100
AcDbEntity
  8
0
370
    -3
390
0
  6
Continuous
100
AcDbLine
 10
-392.508623
 20
-137.354878
 30
0.0
 11
-394.378269
 21
-136.275438
 31
0.0
  0
LINE
  5
316
100
AcDbEntity
  8
0
370
    -3
390
0
  6
Continuous
100
AcDbLine
 10
-383.537313
 20
-142.534466
 30
0.0
 11
-385.306859
 21
-141.512818
 31
0.0
  0
LINE
  5
317
100
AcDbEntity
  8
0
370
    -3
390
0
  6
Continuous
100
AcDbLine
 10
-374.759059
 20
-147.602594
 30
0.0
 11
-376.508512
 21
-146.592547
 31
0.0
  0
LINE
  5
318
100
AcDbEntity
  8
0
370
    -3
390
0
  6
Continuous
100
AcDbLine
 10
-366.036326
 20
-152.638666
 30
0.0
 11
-367.778411
 21
-151.632873
 31
0.0
  0
LINE
  5
319
100
AcDbEntity
  8
0
370
    -3
390
0
  6
Continuous
100
AcDbLine
 10
-357.337335
 20
-157.661031
 30
0.0
 11
-359.07591
 21
-156.657264
 31
0.0
  0
ARC
  5
31A
100
AcDbEntity
  8
0
370
    -3
390
0
  6
Continuous
100
AcDbCircle
 10
-404.320938
 20
-133.421786
 30
0.0
 40
35.0
100
AcDbArc
 50
159.594068
 51
202.16252
  0
LINE
  5
31B
100
AcDbEntity
  8
0
370
    -3
390
0
  6
Continuous
100
AcDbLine
 10
-434.250053
 20
-120.183656
 30
0.0
 11
-432.491811
 21
-121.198777
 31
0.0
  0
ARC
  5
31C
100
AcDbEntity
  8
0
370
    -3
390
0
  6
Continuous
100
AcDbCircle
 10
-440.992044
 20
-117.445866
 30
0.0
 40
1.0
100
AcDbArc
 50
336.45945
 51
60.0
  0
LINE
  5
31D
100
AcDbEntity
  8
0
370
    -3
390
0
  6
Continuous
100
AcDbLine
 10
-443.004155
 20
-115.129472
 30
0.0
 11
-440.492044
 21
-116.57984
 31
0.0
  0
ARC
  5
31E
100
AcDbEntity
  8
0
370
    -3
390
0
  6
Continuous
100
AcDbCircle
 10
-404.320938
 20
-133.421786
 30
0.0
 40
39.0
100
AcDbArc
 50
156.45945
 51
203.698744
  0
ARC
  5
31F
100
AcDbEntity
  8
0
370
    -3
390
0
  6
Continuous
100
AcDbCircle
 10
-404.320938
 20
-133.421786
 30
0.0
 40
45.0
100
AcDbArc
 50
157.348661
 51
203.992931
  0
ARC
  5
320
100
AcDbEntity
  8
0
370
    -3
390
0
  6
Continuous
100
AcDbCircle
 10
-404.320938
 20
-133.421786
 30
0.0
 40
55.0
100
AcDbArc
 50
155.956512
 51
205.1294
  0
LINE
  5
321
100
AcDbEntity
  8
0
370
    -3
390
0
  6
Continuous
100
AcDbLine
 10
-451.722472
 20
-110.09595
 30
0.0
 11
-449.980647
 21
-111.101593
 31
0.0
  0
ARC
  5
322
100
AcDbEntity
  8
0
370
    -3
390
0
  6
Continuous
100
AcDbCircle
 10
-404.320938
 20
-133.421786
 30
0.0
 40
49.0
100
AcDbArc
 50
156.190997
 51
204.937907
  0
ARC
  5
323
100
AcDbEntity
  8
0
370
    -3
390
0
  6
Continuous
100
AcDbCircle
 10
-404.320938
 20
-133.421786
 30
0.0
 40
29.0
100
AcDbArc
 50
160.21948
 51
203.300235
  0
LINE
  5
324
100
AcDbEntity
  8
0
370
    -3
390
0
  6
Continuous
100
AcDbLine
 10
-425.411634
 20
-125.286519
 30
0.0
 11
-423.622648
 21
-126.319391
 31
0.0
  0
ARC
  5
325
100
AcDbEntity
  8
0
370
    -3
390
0
  6
Continuous
100
AcDbCircle
 10
-404.320938
 20
-133.421786
 30
0.0
 40
25.0
100
AcDbArc
 50
163.835224
 51
198.717176
  0
ARC
  5
326
100
AcDbEntity
  8
0
370
    -3
390
0
  6
Continuous
100
AcDbCircle
 10
-404.320938
 20
-133.421786
 30
0.0
 40
19.0
100
AcDbArc
 50
165.183114
 51
197.626375
  0
LINE
  5
327
100
AcDbEntity
  8
0
370
    -3
390
0
  6
Continuous
100
AcDbLine
 10
-416.272041
 20
-130.563265
 30
0.0
 11
-414.320938
 21
-131.689735
 31
0.0
  0
ARC
  5
328
100
AcDbEntity
  8
0
370
    -3
390
0
  6
Continuous
100
AcDbCircle
 10
-404.320938
 20
-133.421786
 30
0.0
 40
15.0
100
AcDbArc
 50
175.028999
 51
189.747753
  0
ARC
  5
329
100
AcDbEntity
  8
0
370
    -3
390
0
  6
Continuous
100
AcDbCircle
 10
-404.320938
 20
-133.421786
 30
0.0
 40
9.0
100
AcDbArc
 50
180.0
 51
185.85226
  0
LINE
  5
32A
100
AcDbEntity
  8
0
370
    -3
390
0
  6
Continuous
100
AcDbLine
 10
-416.133253
 20
-137.354878
 30
0.0
 11
-414.263608
 21
-136.275438
 31
0.0
  0
LINE
  5
32B
100
AcDbEntity
  8
0
370
    -3
390
0
  6
Continuous
100
AcDbLine
 10
-425.104563
 20
-142.534466
 30
0.0
 11
-423.335017
 21
-141.512818
 31
0.0
  0
ARC
  5
32C
100
AcDbEntity
  8
0
370
    -3
390
0
  6
Continuous
100
AcDbCircle
 10
-431.874281
 20
-145.288264
 30
0.0
 40
1.0
100
AcDbArc
 50
300.0
 51
23.300235
  0
LINE
  5
32D
100
AcDbEntity
  8
0
370
    -3
390
0
  6
Continuous
100
AcDbLine
 10
-433.882817
 20
-147.602594
 30
0.0
 11
-431.374281
 21
-146.154289
 31
0.0
  0
LINE
  5
32E
100
AcDbEntity
  8
0
370
    -3
390
0
  6
Continuous
100
AcDbLine
 10
-442.60555
 20
-152.638666
 30
0.0
 11
-440.863466
 21
-151.632873
 31
0.0
  0
LINE
  5
32F
100
AcDbEntity
  8
0
370
    -3
390
0
  6
Continuous
100
AcDbLine
 10
-451.304542
 20
-157.661031
 30
0.0
 11
-449.565966
 21
-156.657264
 31
0.0
  0
ARC
  5
330
100
AcDbEntity
  8
0
370
    -3
390
0
  6
Continuous
100
AcDbCircle
 10
-385.402871
 20
-156.704972
 30
0.0
 40
36.944
100
AcDbArc
 50
274.33985
 51
309.094568
  0
ARC
  5
331
100
AcDbEntity
  8
0
370
    -3
390
0
  6
Continuous
100
AcDbCircle
 10
-404.320938
 20
-133.421786
 30
0.0
 40
66.944
100
AcDbArc
 50
309.094568
 51
320.905432
  0
ARC
  5
332
100
AcDbEntity
  8
0
370
    -3
390
0
  6
Continuous
100
AcDbCircle
 10
-381.037752
 20
-152.339853
 30
0.0
 40
36.944
100
AcDbArc
 50
320.905432
 51
355.66015
  0
ARC
  5
333
100
AcDbEntity
  8
0
370
    -3
390
0
  6
Continuous
100
AcDbCircle
 10
-381.037752
 20
-114.503719
 30
0.0
 40
36.944
100
AcDbArc
 50
4.33985
 51
39.094568
  0
ARC
  5
334
100
AcDbEntity
  8
0
370
    -3
390
0
  6
Continuous
100
AcDbCircle
 10
-404.320938
 20
-133.421786
 30
0.0
 40
66.944
100
AcDbArc
 50
39.094568
 51
50.905432
  0
ARC
  5
335
100
AcDbEntity
  8
0
370
    -3
390
0
  6
Continuous
100
AcDbCircle
 10
-385.402871
 20
-110.1386
 30
0.0
 40
36.944
100
AcDbArc
 50
50.905432
 51
85.66015
  0
ARC
  5
336
100
AcDbEntity
  8
0
370
    -3
390
0
  6
Continuous
100
AcDbCircle
 10
-423.239005
 20
-110.1386
 30
0.0
 40
36.944
100
AcDbArc
 50
94.33985
 51
129.094568
  0
ARC
  5
337
100
AcDbEntity
  8
0
370
    -3
390
0
  6
Continuous
100
AcDbCircle
 10
-404.320938
 20
-133.421786
 30
0.0
 40
66.944
100
AcDbArc
 50
129.094568
 51
140.905432
  0
ARC
  5
338
100
AcDbEntity
  8
0
370
    -3
390
0
  6
Continuous
100
AcDbCircle
 10
-404.320938
 20
-133.421786
 30
0.0
 40
66.944
100
AcDbArc
 50
219.094568
 51
230.905432
  0
ARC
  5
339
100
AcDbEntity
  8
0
370
    -3
390
0
  6
Continuous
100
AcDbCircle
 10
-423.239005
 20
-156.704972
 30
0.0
 40
36.944
100
AcDbArc
 50
230.905432
 51
265.66015
  0
ARC
  5
33A
100
AcDbEntity
  8
0
370
    -3
390
0
  6
Continuous
100
AcDbCircle
 10
-404.320938
 20
-133.421786
 30
0.0
 40
45.0
100
AcDbArc
 50
97.348661
 51
143.992931
  0
LINE
  5
33B
100
AcDbEntity
  8
0
370
    -3
390
0
  6
CENTER
100
AcDbLine
 10
-381.153025
 20
-18.421786
 30
0.0
 11
-428.175539
 21
-18.421786
 31
0.0
  0
ARC
  5
33C
100
AcDbEntity
  8
0
370
    -3
390
0
  6
Continuous
100
AcDbCircle
 10
-393.820938
 20
-8.421786
 30
0.0
 40
10.0
100
AcDbArc
 50
0.0
 51
90.0
  0
LINE
  5
33D
100
AcDbEntity
  8
0
370
    -3
390
0
  6
Continuous
100
AcDbLine
 10
-383.820938
 20
-8.421786
 30
0.0
 11
-383.820938
 21
-33.919684
 31
0.0
  0
CIRCLE
  5
33E
100
AcDbEntity
  8
0
370
    -3
390
0
  6
Continuous
100
AcDbCircle
 10
-404.320938
 20
-18.421786
 30
0.0
 40
10.0
  0
LINE
  5
33F
100
AcDbEntity
  8
0
370
    -3
390
0
  6
Continuous
100
AcDbLine
 10
-424.820938
 20
-8.421786
 30
0.0
 11
-424.820938
 21
-33.919684
 31
0.0
  0
ARC
  5
340
100
AcDbEntity
  8
0
370
    -3
390
0
  6
Continuous
100
AcDbCircle
 10
-414.820938
 20
-8.421786
 30
0.0
 40
10.0
100
AcDbArc
 50
90.0
 51
180.0
  0
LINE
  5
341
100
AcDbEntity
  8
0
370
    -3
390
0
  6
Continuous
100
AcDbLine
 10
-393.820938
 20
1.578214
 30
0.0
 11
-414.820938
 21
1.578214
 31
0.0
  0
INSERT
  5
34E
100
AcDbEntity
  8
0
390
0
100
AcDbBlockReference
  2
ZU_SYM__USERS_HOME_SYMBOL_POO_SYM_B20_05
 10
-354.320938
 20
-52.421786
 30
0.0
  0
INSERT
  5
35B
100
AcDbEntity
  8
0
390
0
100
AcDbBlockReference
  2
ZU_SYM__USERS_HOME_SYMBOL_POO_SYM_B20_0000605
 10
-352.320938
 20
-216.421786
 30
0.0
  0
INSERT
  5
368
100
AcDbEntity
  8
0
390
0
100
AcDbBlockReference
  2
ZU_SYM__USERS_HOME_SYMBOL_POO_SYM_B20_0000705
 10
-393.820938
 20
-42.421786
 30
0.0
  0
INSERT
  5
375
100
AcDbEntity
  8
0
390
0
100
AcDbBlockReference
  2
ZU_SYM__USERS_HOME_SYMBOL_POO_SYM_B20_0000805
 10
-454.320938
 20
-52.421786
 30
0.0
 41
-1.0
  0
INSERT
  5
382
100
AcDbEntity
  8
0
390
0
100
AcDbBlockReference
  2
ZU_SYM__USERS_HOME_SYMBOL_POO_SYM_B20_0000905
 10
-488.320938
 20
-128.421786
 30
0.0
 41
-1.0
  0
INSERT
  5
38F
100
AcDbEntity
  8
0
390
0
100
AcDbBlockReference
  2
ZU_SYM__USERS_HOME_SYMBOL_POO_SYM_B20_0001005
 10
-456.320938
 20
-216.421786
 30
0.0
 41
-1.0
  0
INSERT
  5
39C
100
AcDbEntity
  8
0
390
0
100
AcDbBlockReference
  2
ZU_SYM__USERS_HOME_SYMBOL_POO_SYM_B20_0001105
 10
-414.820938
 20
-42.421786
 30
0.0
 41
-1.0
  0
POINT
  5
39D
100
AcDbEntity
  8
0
370
    -3
390
0
  6
Continuous
100
AcDbPoint
 10
-404.320938
 20
-133.421786
 30
0.0
  0
POINT
  5
39E
100
AcDbEntity
  8
0
370
    -3
390
0
  6
Continuous
100
AcDbPoint
 10
-404.320938
 20
-103.421786
 30
0.0
  0
POINT
  5
39F
100
AcDbEntity
  8
0
370
    -3
390
0
  6
Continuous
100
AcDbPoint
 10
-404.320938
 20
-103.421786
 30
0.0
  0
POINT
  5
3A0
100
AcDbEntity
  8
0
370
    -3
390
0
  6
CENTER
100
AcDbPoint
 10
-404.320938
 20
-133.421786
 30
0.0
  0
POINT
  5
3A1
100
AcDbEntity
  8
0
370
    -3
390
0
  6
CENTER
100
AcDbPoint
 10
-404.320938
 20
-103.421786
 30
0.0
  0
LINE
  5
3A2
100
AcDbEntity
  8
0
370
    -3
390
0
  6
Continuous
100
AcDbLine
 10
-317.320938
 20
-100.421786
 30
0.0
 11
-319.320938
 21
-100.421786
 31
0.0
  0
LINE
  5
3A3
100
AcDbEntity
  8
0
370
    -3
390
0
  6
Continuous
100
AcDbLine
 10
-496.320938
 20
-116.421786
 30
0.0
 11
-489.320938
 21
-116.421786
 31
0.0
  0
LINE
  5
3A4
100
AcDbEntity
  8
0
370
    -3
390
0
  6
Continuous
100
AcDbLine
 10
-494.818935
 20
-100.421786
 30
0.0
 11
-489.320938
 21
-100.421786
 31
0.0
  0
LINE
  5
3A5
100
AcDbEntity
  8
0
370
    -3
390
0
  6
Continuous
100
AcDbLine
 10
-383.820938
 20
-33.919684
 30
0.0
 11
-383.820938
 21
-42.421786
 31
0.0
  0
LINE
  5
3A6
100
AcDbEntity
  8
0
370
    -3
390
0
  6
Continuous
100
AcDbLine
 10
-424.820938
 20
-33.919684
 30
0.0
 11
-424.820938
 21
-42.421786
 31
0.0
  0
ARC
  5
3A7
100
AcDbEntity
  8
0
370
    -3
390
0
  6
Continuous
100
AcDbCircle
 10
-319.320938
 20
-108.421786
 30
0.0
 40
8.0
100
AcDbArc
 50
90.0
 51
182.865984
  0
ARC
  5
3A8
100
AcDbEntity
  8
0
370
    -3
390
0
  6
Continuous
100
AcDbCircle
 10
-489.320938
 20
-108.421786
 30
0.0
 40
8.0
100
AcDbArc
 50
270.0
 51
90.0
  0
ARC
  5
3A9
100
AcDbEntity
  8
0
370
    -3
390
0
  6
Continuous
100
AcDbCircle
 10
-496.320938
 20
-118.421786
 30
0.0
 40
2.0
100
AcDbArc
 50
90.0
 51
180.0
  0
ARC
  5
3AA
100
AcDbEntity
  8
0
370
    -3
390
0
  6
Continuous
100
AcDbCircle
 10
-494.818935
 20
-98.421786
 30
0.0
 40
2.0
100
AcDbArc
 50
168.737752
 51
270.0
  0
ARC
  5
3AB
100
AcDbEntity
  8
0
370
    -3
390
0
  6
Continuous
100
AcDbCircle
 10
-404.320938
 20
-133.421786
 30
0.0
 40
101.0
100
AcDbArc
 50
309.950234
 51
332.883047
  0
ARC
  5
3AC
100
AcDbEntity
  8
0
370
    -3
390
0
  6
Continuous
100
AcDbCircle
 10
-404.320938
 20
-133.421786
 30
0.0
 40
101.0
100
AcDbArc
 50
202.01537
 51
230.049766
  0
ARC
  5
3AD
100
AcDbEntity
  8
0
370
    -3
390
0
  6
Continuous
100
AcDbCircle
 10
-493.320938
 20
-169.407895
 30
0.0
 40
5.0
100
AcDbArc
 50
180.0
 51
202.01537
  0
ARC
  5
3AE
100
AcDbEntity
  8
0
370
    -3
390
0
  6
Continuous
100
AcDbCircle
 10
-474.312235
 20
-216.981455
 30
0.0
 40
8.0
100
AcDbArc
 50
1.78177
 51
50.049766
  0
ARC
  5
3AF
100
AcDbEntity
  8
0
370
    -3
390
0
  6
Continuous
100
AcDbCircle
 10
-456.320938
 20
-216.421786
 30
0.0
 40
10.0
100
AcDbArc
 50
181.78177
 51
270.0
  0
ARC
  5
3B0
100
AcDbEntity
  8
0
370
    -3
390
0
  6
Continuous
100
AcDbCircle
 10
-352.320938
 20
-216.421786
 30
0.0
 40
10.0
100
AcDbArc
 50
270.0
 51
358.21823
  0
ARC
  5
3B1
100
AcDbEntity
  8
0
370
    -3
390
0
  6
Continuous
100
AcDbCircle
 10
-334.329641
 20
-216.981455
 30
0.0
 40
8.0
100
AcDbArc
 50
129.950234
 51
178.21823
  0
ARC
  5
3B2
100
AcDbEntity
  8
0
370
    -3
390
0
  6
Continuous
100
AcDbCircle
 10
-418.320938
 20
-113.655184
 30
0.0
 40
80.0
100
AcDbArc
 50
94.660419
 51
180.0
  0
ARC
  5
3B3
100
AcDbEntity
  8
0
370
    -3
390
0
  6
Continuous
100
AcDbCircle
 10
-390.320938
 20
-113.655184
 30
0.0
 40
80.0
100
AcDbArc
 50
16.454985
 51
85.339581
  0
ARC
  5
3B4
100
AcDbEntity
  8
0
370
    -3
390
0
  6
Continuous
100
AcDbCircle
 10
-493.320938
 20
-169.407895
 30
0.0
 40
5.0
100
AcDbArc
 50
180.0
 51
202.01537
  0
ARC
  5
3B5
100
AcDbEntity
  8
0
370
    -3
390
0
  6
Continuous
100
AcDbCircle
 10
-404.320938
 20
-133.421786
 30
0.0
 40
106.0
100
AcDbArc
 50
311.146784
 51
311.328659
  0
ARC
  5
3B6
100
AcDbEntity
  8
0
370
    -3
390
0
  6
Continuous
100
AcDbCircle
 10
-313.320938
 20
-193.421786
 30
0.0
 40
3.0
100
AcDbArc
 50
0.0
 51
146.601512
  0
LINE
  5
3B7
100
AcDbEntity
  8
0
370
    -3
390
0
  6
Continuous
100
AcDbLine
 10
-337.31004
 20
-219.266793
 30
0.0
 11
-337.31004
 21
-224.551633
 31
0.0
  0
ARC
  5
3B8
100
AcDbEntity
  8
0
370
    -3
390
0
  6
Continuous
100
AcDbCircle
 10
-335.31004
 20
-224.551633
 30
0.0
 40
2.0
100
AcDbArc
 50
180.0
 51
255.361208
  0
ARC
  5
3B9
100
AcDbEntity
  8
0
370
    -3
390
0
  6
Continuous
100
AcDbCircle
 10
-330.483278
 20
-212.921786
 30
0.0
 40
2.5
100
AcDbArc
 50
90.0
 51
132.885185
  0
ARC
  5
3BA
100
AcDbEntity
  8
0
370
    -3
390
0
  6
Continuous
100
AcDbCircle
 10
-331.820938
 20
-214.14353
 30
0.0
 40
2.5
100
AcDbArc
 50
131.928504
 51
180.0
  0
POINT
  5
3BB
100
AcDbEntity
  8
0
370
    -3
390
0
  6
Continuous
100
AcDbPoint
 10
-334.320938
 20
-213.020781
 30
0.0
  0
ARC
  5
3BC
100
AcDbEntity
  8
0
370
    -3
390
0
  6
Continuous
100
AcDbCircle
 10
-404.320938
 20
-133.421786
 30
0.0
 40
106.0
100
AcDbArc
 50
311.328659
 51
326.601512
  0
ARC
  5
3BD
100
AcDbEntity
  8
0
370
    -3
390
0
  6
Continuous
100
AcDbCircle
 10
-404.320938
 20
-133.421786
 30
0.0
 40
106.0
100
AcDbArc
 50
213.398488
 51
228.671341
  0
ARC
  5
3BE
100
AcDbEntity
  8
0
370
    -3
390
0
  6
Continuous
100
AcDbCircle
 10
-478.158598
 20
-212.921786
 30
0.0
 40
2.5
100
AcDbArc
 50
47.114815
 51
90.0
  0
ARC
  5
3BF
100
AcDbEntity
  8
0
370
    -3
390
0
  6
Continuous
100
AcDbCircle
 10
-404.320938
 20
-133.421786
 30
0.0
 40
106.0
100
AcDbArc
 50
228.671341
 51
228.853216
  0
POINT
  5
3C0
100
AcDbEntity
  8
0
370
    -3
390
0
  6
Continuous
100
AcDbPoint
 10
-474.320938
 20
-213.020781
 30
0.0
  0
ARC
  5
3C1
100
AcDbEntity
  8
0
370
    -3
390
0
  6
Continuous
100
AcDbCircle
 10
-476.820938
 20
-214.14353
 30
0.0
 40
2.5
100
AcDbArc
 50
0.0
 51
48.071496
  0
LINE
  5
3C2
100
AcDbEntity
  8
0
370
    -3
390
0
  6
Continuous
100
AcDbLine
 10
-471.331836
 20
-219.266793
 30
0.0
 11
-471.331836
 21
-224.551633
 31
0.0
  0
ARC
  5
3C3
100
AcDbEntity
  8
0
370
    -3
390
0
  6
Continuous
100
AcDbCircle
 10
-473.331836
 20
-224.551633
 30
0.0
 40
2.0
100
AcDbArc
 50
284.638792
 51
0.0
  0
ARC
  5
3C4
100
AcDbEntity
  8
0
370
    -3
390
0
  6
Continuous
100
AcDbCircle
 10
-495.320938
 20
-193.421786
 30
0.0
 40
3.0
100
AcDbArc
 50
33.398488
 51
180.0
  0
ARC
  5
3C5
100
AcDbEntity
  8
0
370
    -3
390
0
  6
Continuous
100
AcDbCircle
 10
-479.331836
 20
-219.266793
 30
0.0
 40
8.0
100
AcDbArc
 50
0.0
 51
48.853216
  0
ARC
  5
3C6
100
AcDbEntity
  8
0
370
    -3
390
0
  6
Continuous
100
AcDbCircle
 10
-329.31004
 20
-219.266793
 30
0.0
 40
8.0
100
AcDbArc
 50
131.146784
 51
180.0
  0
POINT
  5
3C7
100
AcDbEntity
  8
0
370
    -3
390
0
  6
Continuous
100
AcDbPoint
 10
-404.320938
 20
-103.421786
 30
0.0
  0
POINT
  5
3C8
100
AcDbEntity
  8
0
370
    -3
390
0
  6
Continuous
100
AcDbPoint
 10
-404.320938
 20
-133.421786
 30
0.0
  0
POINT
  5
3C9
100
AcDbEntity
  8
0
370
    -3
390
0
  6
DASHED
100
AcDbPoint
 10
-491.820938
 20
-228.421786
 30
0.0
  0
POINT
  5
3CA
100
AcDbEntity
  8
0
370
    -3
390
0
  6
Continuous
100
AcDbPoint
 10
-404.320938
 20
-133.421786
 30
0.0
  0
POINT
  5
3CB
100
AcDbEntity
  8
0
370
    -3
390
0
  6
Continuous
100
AcDbPoint
 10
-404.320938
 20
-103.421786
 30
0.0
  0
POINT
  5
3CC
100
AcDbEntity
  8
0
370
    -3
390
0
  6
Continuous
100
AcDbPoint
 10
-404.320938
 20
-103.421786
 30
0.0
  0
POINT
  5
3CD
100
AcDbEntity
  8
0
370
    -3
390
0
  6
CENTER
100
AcDbPoint
 10
-404.320938
 20
-133.421786
 30
0.0
  0
POINT
  5
3CE
100
AcDbEntity
  8
0
370
    -3
390
0
  6
CENTER
100
AcDbPoint
 10
-404.320938
 20
-103.421786
 30
0.0
  0
LINE
  5
3CF
100
AcDbEntity
  8
0
370
    -3
390
0
  6
Continuous
100
AcDbLine
 10
-498.320938
 20
-113.655184
 30
0.0
 11
-498.320938
 21
-207.421786
 31
0.0
  0
LINE
  5
3D0
100
AcDbEntity
  8
0
370
    -3
390
0
  6
Continuous
100
AcDbLine
 10
-310.320938
 20
-179.921786
 30
0.0
 11
-310.320938
 21
-207.421786
 31
0.0
  0
LINE
  5
3D1
100
AcDbEntity
  8
0
370
    -3
390
0
  6
Continuous
100
AcDbLine
 10
-472.320938
 20
-226.421786
 30
0.0
 11
-404.320938
 21
-226.421786
 31
0.0
  0
LINE
  5
3D2
100
AcDbEntity
  8
0
370
    -3
390
0
  6
Continuous
100
AcDbLine
 10
-336.320938
 20
-226.421786
 30
0.0
 11
-404.320938
 21
-226.421786
 31
0.0
  0
LINE
  5
3D3
100
AcDbEntity
  8
0
370
    -3
390
0
  6
Continuous
100
AcDbLine
 10
-504.320938
 20
-228.421786
 30
0.0
 11
-474.320938
 21
-228.421786
 31
0.0
  0
LINE
  5
3D4
100
AcDbEntity
  8
0
370
    -3
390
0
  6
CENTER
100
AcDbLine
 10
-491.820938
 20
-206.261507
 30
0.0
 11
-491.820938
 21
-232.838578
 31
0.0
  0
LINE
  5
3D5
100
AcDbEntity
  8
0
370
    -3
390
0
  6
Continuous
100
AcDbLine
 10
-504.320938
 20
-212.921786
 30
0.0
 11
-504.320938
 21
-228.421786
 31
0.0
  0
LINE
  5
3D6
100
AcDbEntity
  8
0
370
    -3
390
0
  6
CENTER
100
AcDbLine
 10
-404.320938
 20
15.69293
 30
0.0
 11
-404.320938
 21
-240.795972
 31
0.0
  0
LINE
  5
3D7
100
AcDbEntity
  8
0
370
    -3
390
0
  6
Continuous
100
AcDbLine
 10
-306.820938
 20
-210.421786
 30
0.0
 11
-330.483278
 21
-210.421786
 31
0.0
  0
LINE
  5
3D8
100
AcDbEntity
  8
0
370
    -3
390
0
  6
Continuous
100
AcDbLine
 10
-304.320938
 20
-228.421786
 30
0.0
 11
-334.320938
 21
-228.421786
 31
0.0
  0
LINE
  5
3D9
100
AcDbEntity
  8
0
370
    -3
390
0
  6
CENTER
100
AcDbLine
 10
-316.820938
 20
-206.261507
 30
0.0
 11
-316.820938
 21
-232.838578
 31
0.0
  0
LINE
  5
3DA
100
AcDbEntity
  8
0
370
    -3
390
0
  6
Continuous
100
AcDbLine
 10
-304.320938
 20
-212.921786
 30
0.0
 11
-304.320938
 21
-228.421786
 31
0.0
  0
LINE
  5
3DB
100
AcDbEntity
  8
0
370
    -3
390
0
  6
Continuous
100
AcDbLine
 10
-334.320938
 20
-214.14353
 30
0.0
 11
-334.320938
 21
-228.421786
 31
0.0
  0
ARC
  5
3DC
100
AcDbEntity
  8
0
370
    -3
390
0
  6
Continuous
100
AcDbCircle
 10
-501.320938
 20
-207.421786
 30
0.0
 40
3.0
100
AcDbArc
 50
270.0
 51
0.0
  0
ARC
  5
3DD
100
AcDbEntity
  8
0
370
    -3
390
0
  6
Continuous
100
AcDbCircle
 10
-307.320938
 20
-207.421786
 30
0.0
 40
3.0
100
AcDbArc
 50
180.0
 51
270.0
  0
ARC
  5
3DE
100
AcDbEntity
  8
0
370
    -3
390
0
  6
Continuous
100
AcDbCircle
 10
-501.820938
 20
-212.921786
 30
0.0
 40
2.5
100
AcDbArc
 50
90.0
 51
180.0
  0
ARC
  5
3DF
100
AcDbEntity
  8
0
370
    -3
390
0
  6
Continuous
100
AcDbCircle
 10
-472.320938
 20
-228.421786
 30
0.0
 40
2.0
100
AcDbArc
 50
90.0
 51
180.0
  0
ARC
  5
3E0
100
AcDbEntity
  8
0
370
    -3
390
0
  6
Continuous
100
AcDbCircle
 10
-306.820938
 20
-212.921786
 30
0.0
 40
2.5
100
AcDbArc
 50
0.0
 51
90.0
  0
ARC
  5
3E1
100
AcDbEntity
  8
0
370
    -3
390
0
  6
Continuous
100
AcDbCircle
 10
-336.320938
 20
-228.421786
 30
0.0
 40
2.0
100
AcDbArc
 50
0.0
 51
90.0
  0
LINE
  5
3E2
100
AcDbEntity
  8
0
370
    -3
390
0
  6
Continuous
100
AcDbLine
 10
-501.820938
 20
-210.421786
 30
0.0
 11
-478.158598
 21
-210.421786
 31
0.0
  0
LINE
  5
3E3
100
AcDbEntity
  8
0
370
    -3
390
0
  6
Continuous
100
AcDbLine
 10
-474.320938
 20
-214.14353
 30
0.0
 11
-474.320938
 21
-228.421786
 31
0.0
  0
LINE
  5
3E4
100
AcDbEntity
  8
0
370
    -3
390
0
  6
CENTER
100
AcDbLine
 10
-506.483418
 20
-133.421786
 30
0.0
 11
-257.930421
 21
-133.421786
 31
0.0
  0
LINE
  5
3E5
100
AcDbEntity
  8
0
370
    -3
390
0
  6
CENTER
100
AcDbLine
 10
-433.254621
 20
-103.421786
 30
0.0
 11
-375.074464
 21
-103.421786
 31
0.0
  0
ARC
  5
3E6
100
AcDbEntity
  8
0
370
    -3
390
0
  6
Continuous
100
AcDbCircle
 10
48.363258
 20
242.120338
 30
0.0
 40
2.0
100
AcDbArc
 50
329.565559
 51
52.8903
  0
ARC
  5
3E7
100
AcDbEntity
  8
0
370
    -3
390
0
  6
Continuous
100
AcDbCircle
 10
48.363258
 20
91.03609
 30
0.0
 40
2.0
100
AcDbArc
 50
307.1097
 51
30.434441
  0
INSERT
  5
3F3
100
AcDbEntity
  8
0
390
0
100
AcDbBlockReference
  2
ZU_SYM__USERS_HOME_SYMBOL_POO_SYM_B20_0001218
 10
50.77663
 20
116.578214
 30
0.0
  0
INSERT
  5
3FF
100
AcDbEntity
  8
0
390
0
100
AcDbBlockReference
  2
ZU_SYM__USERS_HOME_SYMBOL_POO_SYM_B20_0001318
 10
35.27663
 20
156.078214
 30
0.0
  0
INSERT
  5
40B
100
AcDbEntity
  8
0
390
0
100
AcDbBlockReference
  2
ZU_SYM__USERS_HOME_SYMBOL_POO_SYM_B20_0001418
 10
50.77663
 20
216.578214
 30
0.0
 41
-1.0
 50
180.0
  0
INSERT
  5
417
100
AcDbEntity
  8
0
390
0
100
AcDbBlockReference
  2
ZU_SYM__USERS_HOME_SYMBOL_POO_SYM_B20_0001518
 10
35.27663
 20
177.078214
 30
0.0
 41
-1.0
 50
180.0
  0
LINE
  5
418
100
AcDbEntity
  8
0
370
    -3
390
0
  6
Continuous
100
AcDbLine
 10
62.77663
 20
166.578214
 30
0.0
 11
62.77663
 21
72.578214
 31
0.0
  0
ARC
  5
419
100
AcDbEntity
  8
0
370
    -3
390
0
  6
Continuous
100
AcDbCircle
 10
52.77663
 20
74.578214
 30
0.0
 40
2.0
100
AcDbArc
 50
180.0
 51
270.0
  0
ARC
  5
41A
100
AcDbEntity
  8
0
370
    -3
390
0
  6
Continuous
100
AcDbCircle
 10
42.77663
 20
149.078214
 30
0.0
 40
3.0
100
AcDbArc
 50
180.0
 51
270.0
  0
LINE
  5
41B
100
AcDbEntity
  8
0
370
    -3
390
0
  6
Continuous
100
AcDbLine
 10
47.77663
 20
146.078214
 30
0.0
 11
42.77663
 21
146.078214
 31
0.0
  0
ARC
  5
41C
100
AcDbEntity
  8
0
370
    -3
390
0
  6
Continuous
100
AcDbCircle
 10
47.77663
 20
143.078214
 30
0.0
 40
3.0
100
AcDbArc
 50
0.0
 51
90.0
  0
LINE
  5
41D
100
AcDbEntity
  8
0
370
    -3
390
0
  6
Continuous
100
AcDbLine
 10
35.27663
 20
166.578214
 30
0.0
 11
35.27663
 21
146.078214
 31
0.0
  0
LINE
  5
41E
100
AcDbEntity
  8
0
370
    -3
390
0
  6
Continuous
100
AcDbLine
 10
39.77663
 20
166.578214
 30
0.0
 11
39.77663
 21
146.078214
 31
0.0
  0
LINE
  5
41F
100
AcDbEntity
  8
0
370
    -3
390
0
  6
Continuous
100
AcDbLine
 10
39.77663
 20
146.078214
 30
0.0
 11
35.27663
 21
146.078214
 31
0.0
  0
ARC
  5
420
100
AcDbEntity
  8
0
370
    -3
390
0
  6
Continuous
100
AcDbCircle
 10
50.77663
 20
87.846163
 30
0.0
 40
2.0
100
AcDbArc
 50
127.1097
 51
180.0
  0
LINE
  5
421
100
AcDbEntity
  8
0
370
    -3
390
0
  6
Continuous
100
AcDbLine
 10
63.27663
 20
72.578214
 30
0.0
 11
50.77663
 21
72.578214
 31
0.0
  0
ARC
  5
422
100
AcDbEntity
  8
0
370
    -3
390
0
  6
Continuous
100
AcDbCircle
 10
50.77663
 20
74.578214
 30
0.0
 40
2.0
100
AcDbArc
 50
180.0
 51
270.0
  0
LINE
  5
423
100
AcDbEntity
  8
0
370
    -3
390
0
  6
Continuous
100
AcDbLine
 10
42.776631
 20
88.21209
 30
0.0
 11
42.776631
 21
76.944144
 31
0.0
  0
LINE
  5
424
100
AcDbEntity
  8
0
370
    -3
390
0
  6
Continuous
100
AcDbLine
 10
49.201178
 20
89.078214
 30
0.0
 11
43.276631
 21
89.078214
 31
0.0
  0
LINE
  5
425
100
AcDbEntity
  8
0
370
    -3
390
0
  6
Continuous
100
AcDbLine
 10
48.77663
 20
76.078214
 30
0.0
 11
43.276632
 21
76.078214
 31
0.0
  0
LINE
  5
426
100
AcDbEntity
  8
0
370
    -3
390
0
  6
Continuous
100
AcDbLine
 10
43.276632
 20
89.078214
 30
0.0
 11
42.776632
 21
88.21209
 31
0.0
  0
LINE
  5
427
100
AcDbEntity
  8
0
370
    -3
390
0
  6
Continuous
100
AcDbLine
 10
43.276633
 20
76.078214
 30
0.0
 11
42.776632
 21
76.944144
 31
0.0
  0
LINE
  5
428
100
AcDbEntity
  8
0
370
    -3
390
0
  6
Continuous
100
AcDbLine
 10
43.276631
 20
89.078214
 30
0.0
 11
43.276631
 21
76.078214
 31
0.0
  0
LINE
  5
429
100
AcDbEntity
  8
0
370
    -3
390
0
  6
Continuous
100
AcDbLine
 10
48.77663
 20
87.846163
 30
0.0
 11
48.77663
 21
74.578214
 31
0.0
  0
LINE
  5
42A
100
AcDbEntity
  8
0
370
    -3
390
0
  6
Continuous
100
AcDbLine
 10
50.77663
 20
143.078214
 30
0.0
 11
50.77663
 21
74.578214
 31
0.0
  0
ARC
  5
42B
100
AcDbEntity
  8
0
370
    -3
390
0
  6
Continuous
100
AcDbCircle
 10
45.77663
 20
89.516434
 30
0.0
 40
5.0
100
AcDbArc
 50
30.434441
 51
88.0
  0
LINE
  5
42C
100
AcDbEntity
  8
0
370
    -3
390
0
  6
Continuous
100
AcDbLine
 10
45.951128
 20
94.513388
 30
0.0
 11
31.706831
 21
95.01081
 31
0.0
  0
ARC
  5
42D
100
AcDbEntity
  8
0
370
    -3
390
0
  6
Continuous
100
AcDbCircle
 10
31.77663
 20
97.009591
 30
0.0
 40
2.0
100
AcDbArc
 50
180.0
 51
268.0
  0
ARC
  5
42E
100
AcDbEntity
  8
0
370
    -3
390
0
  6
Continuous
100
AcDbCircle
 10
27.77663
 20
99.578214
 30
0.0
 40
2.0
100
AcDbArc
 50
0.0
 51
90.0
  0
LINE
  5
42F
100
AcDbEntity
  8
0
370
    -3
390
0
  6
Continuous
100
AcDbLine
 10
29.77663
 20
166.578214
 30
0.0
 11
29.77663
 21
162.578214
 31
0.0
  0
LINE
  5
430
100
AcDbEntity
  8
0
370
    -3
390
0
  6
Continuous
100
AcDbLine
 10
29.77663
 20
149.578214
 30
0.0
 11
29.77663
 21
97.009591
 31
0.0
  0
LINE
  5
431
100
AcDbEntity
  8
0
370
    -3
390
0
  6
Continuous
100
AcDbLine
 10
27.77663
 20
166.578214
 30
0.0
 11
27.77663
 21
162.578214
 31
0.0
  0
LINE
  5
432
100
AcDbEntity
  8
0
370
    -3
390
0
  6
Continuous
100
AcDbLine
 10
27.77663
 20
149.578214
 30
0.0
 11
27.77663
 21
95.078214
 31
0.0
  0
LINE
  5
433
100
AcDbEntity
  8
0
370
    -3
390
0
  6
Continuous
100
AcDbLine
 10
62.77663
 20
166.578214
 30
0.0
 11
62.77663
 21
260.578214
 31
0.0
  0
ARC
  5
434
100
AcDbEntity
  8
0
370
    -3
390
0
  6
Continuous
100
AcDbCircle
 10
52.77663
 20
258.578214
 30
0.0
 40
2.0
100
AcDbArc
 50
90.0
 51
180.0
  0
ARC
  5
435
100
AcDbEntity
  8
0
370
    -3
390
0
  6
Continuous
100
AcDbCircle
 10
42.77663
 20
184.078214
 30
0.0
 40
3.0
100
AcDbArc
 50
90.0
 51
180.0
  0
LINE
  5
436
100
AcDbEntity
  8
0
370
    -3
390
0
  6
Continuous
100
AcDbLine
 10
47.77663
 20
187.078214
 30
0.0
 11
42.77663
 21
187.078214
 31
0.0
  0
ARC
  5
437
100
AcDbEntity
  8
0
370
    -3
390
0
  6
Continuous
100
AcDbCircle
 10
47.77663
 20
190.078214
 30
0.0
 40
3.0
100
AcDbArc
 50
270.0
 51
0.0
  0
LINE
  5
438
100
AcDbEntity
  8
0
370
    -3
390
0
  6
Continuous
100
AcDbLine
 10
35.27663
 20
166.578214
 30
0.0
 11
35.27663
 21
187.078214
 31
0.0
  0
LINE
  5
439
100
AcDbEntity
  8
0
370
    -3
390
0
  6
Continuous
100
AcDbLine
 10
39.77663
 20
166.578214
 30
0.0
 11
39.77663
 21
187.078214
 31
0.0
  0
LINE
  5
43A
100
AcDbEntity
  8
0
370
    -3
390
0
  6
Continuous
100
AcDbLine
 10
39.77663
 20
187.078214
 30
0.0
 11
35.27663
 21
187.078214
 31
0.0
  0
ARC
  5
43B
100
AcDbEntity
  8
0
370
    -3
390
0
  6
Continuous
100
AcDbCircle
 10
50.77663
 20
245.310265
 30
0.0
 40
2.0
100
AcDbArc
 50
180.0
 51
232.8903
  0
LINE
  5
43C
100
AcDbEntity
  8
0
370
    -3
390
0
  6
Continuous
100
AcDbLine
 10
63.27663
 20
260.578214
 30
0.0
 11
50.77663
 21
260.578214
 31
0.0
  0
ARC
  5
43D
100
AcDbEntity
  8
0
370
    -3
390
0
  6
Continuous
100
AcDbCircle
 10
50.77663
 20
258.578214
 30
0.0
 40
2.0
100
AcDbArc
 50
90.0
 51
180.0
  0
LINE
  5
43E
100
AcDbEntity
  8
0
370
    -3
390
0
  6
Continuous
100
AcDbLine
 10
42.776631
 20
244.944338
 30
0.0
 11
42.776631
 21
256.212284
 31
0.0
  0
LINE
  5
43F
100
AcDbEntity
  8
0
370
    -3
390
0
  6
Continuous
100
AcDbLine
 10
49.201178
 20
244.078214
 30
0.0
 11
43.276631
 21
244.078214
 31
0.0
  0
LINE
  5
440
100
AcDbEntity
  8
0
370
    -3
390
0
  6
Continuous
100
AcDbLine
 10
48.77663
 20
257.078214
 30
0.0
 11
43.276632
 21
257.078214
 31
0.0
  0
LINE
  5
441
100
AcDbEntity
  8
0
370
    -3
390
0
  6
Continuous
100
AcDbLine
 10
43.276632
 20
244.078214
 30
0.0
 11
42.776632
 21
244.944338
 31
0.0
  0
LINE
  5
442
100
AcDbEntity
  8
0
370
    -3
390
0
  6
Continuous
100
AcDbLine
 10
43.276633
 20
257.078214
 30
0.0
 11
42.776632
 21
256.212284
 31
0.0
  0
LINE
  5
443
100
AcDbEntity
  8
0
370
    -3
390
0
  6
Continuous
100
AcDbLine
 10
43.276631
 20
244.078214
 30
0.0
 11
43.276631
 21
257.078214
 31
0.0
  0
LINE
  5
444
100
AcDbEntity
  8
0
370
    -3
390
0
  6
Continuous
100
AcDbLine
 10
48.77663
 20
245.310265
 30
0.0
 11
48.77663
 21
258.578214
 31
0.0
  0
LINE
  5
445
100
AcDbEntity
  8
0
370
    -3
390
0
  6
Continuous
100
AcDbLine
 10
50.77663
 20
190.078214
 30
0.0
 11
50.77663
 21
258.578214
 31
0.0
  0
ARC
  5
446
100
AcDbEntity
  8
0
370
    -3
390
0
  6
Continuous
100
AcDbCircle
 10
45.77663
 20
243.639994
 30
0.0
 40
5.0
100
AcDbArc
 50
272.0
 51
329.565559
  0
LINE
  5
447
100
AcDbEntity
  8
0
370
    -3
390
0
  6
Continuous
100
AcDbLine
 10
45.951128
 20
238.64304
 30
0.0
 11
31.706831
 21
238.145618
 31
0.0
  0
ARC
  5
448
100
AcDbEntity
  8
0
370
    -3
390
0
  6
Continuous
100
AcDbCircle
 10
31.77663
 20
236.146836
 30
0.0
 40
2.0
100
AcDbArc
 50
92.0
 51
180.0
  0
ARC
  5
449
100
AcDbEntity
  8
0
370
    -3
390
0
  6
Continuous
100
AcDbCircle
 10
27.77663
 20
233.578214
 30
0.0
 40
2.0
100
AcDbArc
 50
270.0
 51
0.0
  0
LINE
  5
44A
100
AcDbEntity
  8
0
370
    -3
390
0
  6
Continuous
100
AcDbLine
 10
29.77663
 20
166.578214
 30
0.0
 11
29.77663
 21
170.578214
 31
0.0
  0
LINE
  5
44B
100
AcDbEntity
  8
0
370
    -3
390
0
  6
Continuous
100
AcDbLine
 10
29.77663
 20
183.578214
 30
0.0
 11
29.77663
 21
236.146836
 31
0.0
  0
LINE
  5
44C
100
AcDbEntity
  8
0
370
    -3
390
0
  6
Continuous
100
AcDbLine
 10
27.77663
 20
166.578214
 30
0.0
 11
27.77663
 21
170.578214
 31
0.0
  0
LINE
  5
44D
100
AcDbEntity
  8
0
370
    -3
390
0
  6
Continuous
100
AcDbLine
 10
27.77663
 20
183.578214
 30
0.0
 11
27.77663
 21
238.078214
 31
0.0
  0
ARC
  5
44E
100
AcDbEntity
  8
0
370
    -3
390
0
  6
Continuous
100
AcDbCircle
 10
222.87663
 20
150.978214
 30
0.0
 40
0.4
100
AcDbArc
 50
270.0
 51
0.0
  0
ARC
  5
44F
100
AcDbEntity
  8
0
370
    -3
390
0
  6
Continuous
100
AcDbCircle
 10
222.87663
 20
182.178214
 30
0.0
 40
0.4
100
AcDbArc
 50
0.0
 51
90.0
  0
LINE
  5
450
100
AcDbEntity
  8
0
370
    -3
390
0
  6
Continuous
100
AcDbLine
 10
223.27663
 20
166.578214
 30
0.0
 11
223.27663
 21
182.178214
 31
0.0
  0
LINE
  5
451
100
AcDbEntity
  8
0
370
    -3
390
0
  6
Continuous
100
AcDbLine
 10
223.27663
 20
166.578214
 30
0.0
 11
223.27663
 21
147.578214
 31
0.0
  0
LINE
  5
452
100
AcDbEntity
  8
0
370
    -3
390
0
  6
Continuous
100
AcDbLine
 10
68.27663
 20
64.780342
 30
0.0
 11
166.363892
 21
66.492462
 31
0.0
  0
ARC
  5
453
100
AcDbEntity
  8
0
370
    -3
390
0
  6
Continuous
100
AcDbCircle
 10
166.27663
 20
232.314391
 30
0.0
 40
3.0
100
AcDbArc
 50
0.0
 51
39.469308
  0
ARC
  5
454
100
AcDbEntity
  8
0
370
    -3
390
0
  6
Continuous
100
AcDbCircle
 10
164.876472
 20
233.959967
 30
0.0
 40
3.0
100
AcDbArc
 50
41.317083
 51
89.0
  0
ARC
  5
455
100
AcDbEntity
  8
0
370
    -3
390
0
  6
Continuous
100
AcDbCircle
 10
138.350854
 20
252.356755
 30
0.0
 40
3.0
100
AcDbArc
 50
4.937727
 51
69.196592
  0
ARC
  5
456
100
AcDbEntity
  8
0
370
    -3
390
0
  6
Continuous
100
AcDbCircle
 10
114.554962
 20
189.72485
 30
0.0
 40
70.0
100
AcDbArc
 50
39.469308
 51
41.317083
  0
ARC
  5
457
100
AcDbEntity
  8
0
370
    -3
390
0
  6
Continuous
100
AcDbCircle
 10
114.554962
 20
189.72485
 30
0.0
 40
70.0
100
AcDbArc
 50
69.196592
 51
89.0
  0
CIRCLE
  5
458
100
AcDbEntity
  8
0
370
    -3
390
0
  6
Continuous
100
AcDbCircle
 10
23.27663
 20
254.078214
 30
0.0
 40
6.0
  0
ARC
  5
459
100
AcDbEntity
  8
0
370
    -3
390
0
  6
Continuous
100
AcDbCircle
 10
170.27663
 20
201.078214
 30
0.0
 40
1.0
100
AcDbArc
 50
180.0
 51
270.0
  0
ARC
  5
45A
100
AcDbEntity
  8
0
370
    -3
390
0
  6
Continuous
100
AcDbCircle
 10
158.27663
 20
254.078214
 30
0.0
 40
17.0
100
AcDbArc
 50
184.937727
 51
269.0
  0
ARC
  5
45B
100
AcDbEntity
  8
0
370
    -3
390
0
  6
Continuous
100
AcDbCircle
 10
158.27663
 20
79.078214
 30
0.0
 40
17.0
100
AcDbArc
 50
91.0
 51
175.062273
  0
ARC
  5
45C
100
AcDbEntity
  8
0
370
    -3
390
0
  6
Continuous
100
AcDbCircle
 10
170.27663
 20
132.078214
 30
0.0
 40
1.0
100
AcDbArc
 50
90.0
 51
180.0
  0
CIRCLE
  5
45D
100
AcDbEntity
  8
0
370
    -3
390
0
  6
Continuous
100
AcDbCircle
 10
158.27663
 20
79.078214
 30
0.0
 40
6.0
  0
CIRCLE
  5
45E
100
AcDbEntity
  8
0
370
    -3
390
0
  6
Continuous
100
AcDbCircle
 10
23.27663
 20
79.078214
 30
0.0
 40
6.0
  0
ARC
  5
45F
100
AcDbEntity
  8
0
370
    -3
390
0
  6
Continuous
100
AcDbCircle
 10
114.554962
 20
143.431578
 30
0.0
 40
70.0
100
AcDbArc
 50
271.0
 51
290.803408
  0
ARC
  5
460
100
AcDbEntity
  8
0
370
    -3
390
0
  6
Continuous
100
AcDbCircle
 10
114.554962
 20
143.431578
 30
0.0
 40
70.0
100
AcDbArc
 50
318.682917
 51
320.530692
  0
ARC
  5
461
100
AcDbEntity
  8
0
370
    -3
390
0
  6
Continuous
100
AcDbCircle
 10
138.350854
 20
80.799673
 30
0.0
 40
3.0
100
AcDbArc
 50
290.803408
 51
355.062273
  0
ARC
  5
462
100
AcDbEntity
  8
0
370
    -3
390
0
  6
Continuous
100
AcDbCircle
 10
164.876472
 20
99.196461
 30
0.0
 40
3.0
100
AcDbArc
 50
271.0
 51
318.682917
  0
ARC
  5
463
100
AcDbEntity
  8
0
370
    -3
390
0
  6
Continuous
100
AcDbCircle
 10
166.27663
 20
100.842037
 30
0.0
 40
3.0
100
AcDbArc
 50
320.530692
 51
0.0
  0
CIRCLE
  5
464
100
AcDbEntity
  8
0
370
    -3
390
0
  6
Continuous
100
AcDbCircle
 10
158.27663
 20
254.078214
 30
0.0
 40
6.0
  0
LINE
  5
465
100
AcDbEntity
  8
0
370
    -3
390
0
  6
CENTER
100
AcDbLine
 10
23.27663
 20
266.10231
 30
0.0
 11
23.27663
 21
242.054118
 31
0.0
  0
LINE
  5
466
100
AcDbEntity
  8
0
370
    -3
390
0
  6
CENTER
100
AcDbLine
 10
35.300727
 20
254.078214
 30
0.0
 11
11.252534
 21
254.078214
 31
0.0
  0
LINE
  5
467
100
AcDbEntity
  8
0
370
    -3
390
0
  6
Continuous
100
AcDbLine
 10
63.27663
 20
166.578214
 30
0.0
 11
63.27663
 21
260.578214
 31
0.0
  0
LINE
  5
468
100
AcDbEntity
  8
0
370
    -3
390
0
  6
Continuous
100
AcDbLine
 10
63.27663
 20
260.630579
 30
0.0
 11
115.77663
 21
259.714188
 31
0.0
  0
LINE
  5
469
100
AcDbEntity
  8
0
370
    -3
390
0
  6
Continuous
100
AcDbLine
 10
157.97994
 20
237.080803
 30
0.0
 11
164.92883
 21
236.95951
 31
0.0
  0
LINE
  5
46A
100
AcDbEntity
  8
0
370
    -3
390
0
  6
Continuous
100
AcDbLine
 10
169.27663
 20
166.578214
 30
0.0
 11
169.27663
 21
232.314391
 31
0.0
  0
LINE
  5
46B
100
AcDbEntity
  8
0
370
    -3
390
0
  6
Continuous
100
AcDbLine
 10
171.27663
 20
166.578214
 30
0.0
 11
171.27663
 21
261.664728
 31
0.0
  0
LINE
  5
46C
100
AcDbEntity
  8
0
370
    -3
390
0
  6
Continuous
100
AcDbLine
 10
171.27663
 20
91.578214
 30
0.0
 11
171.27663
 21
71.578217
 31
0.0
  0
LINE
  5
46D
100
AcDbEntity
  8
0
370
    -3
390
0
  6
Continuous
100
AcDbLine
 10
171.27663
 20
166.578214
 30
0.0
 11
171.27663
 21
71.4917
 31
0.0
  0
LINE
  5
46E
100
AcDbEntity
  8
0
370
    -3
390
0
  6
Continuous
100
AcDbLine
 10
169.27663
 20
166.578214
 30
0.0
 11
169.27663
 21
100.842037
 31
0.0
  0
LINE
  5
46F
100
AcDbEntity
  8
0
370
    -3
390
0
  6
Continuous
100
AcDbLine
 10
157.97994
 20
96.075625
 30
0.0
 11
164.92883
 21
96.196918
 31
0.0
  0
LINE
  5
470
100
AcDbEntity
  8
0
370
    -3
390
0
  6
Continuous
100
AcDbLine
 10
63.27663
 20
72.525849
 30
0.0
 11
115.77663
 21
73.44224
 31
0.0
  0
LINE
  5
471
100
AcDbEntity
  8
0
370
    -3
390
0
  6
CENTER
100
AcDbLine
 10
158.27663
 20
67.632797
 30
0.0
 11
158.27663
 21
91.950374
 31
0.0
  0
LINE
  5
472
100
AcDbEntity
  8
0
370
    -3
390
0
  6
CENTER
100
AcDbLine
 10
169.479299
 20
79.078214
 30
0.0
 11
144.792475
 21
79.078214
 31
0.0
  0
LINE
  5
473
100
AcDbEntity
  8
0
370
    -3
390
0
  6
Continuous
100
AcDbLine
 10
63.27663
 20
166.578214
 30
0.0
 11
63.27663
 21
72.525849
 31
0.0
  0
LINE
  5
474
100
AcDbEntity
  8
0
370
    -3
390
0
  6
CENTER
100
AcDbLine
 10
35.300727
 20
79.078214
 30
0.0
 11
11.252534
 21
79.078214
 31
0.0
  0
LINE
  5
475
100
AcDbEntity
  8
0
370
    -3
390
0
  6
CENTER
100
AcDbLine
 10
23.27663
 20
67.054118
 30
0.0
 11
23.27663
 21
90.463014
 31
0.0
  0
LINE
  5
476
100
AcDbEntity
  8
0
370
    -3
390
0
  6
CENTER
100
AcDbLine
 10
169.643471
 20
254.078214
 30
0.0
 11
144.864205
 21
254.078214
 31
0.0
  0
LINE
  5
477
100
AcDbEntity
  8
0
370
    -3
390
0
  6
CENTER
100
AcDbLine
 10
158.27663
 20
265.023702
 30
0.0
 11
158.27663
 21
240.078688
 31
0.0
  0
LINE
  5
478
100
AcDbEntity
  8
0
370
    -3
390
0
  6
Continuous
100
AcDbLine
 10
10.27663
 20
241.277747
 30
0.0
 11
10.27663
 21
261.730801
 31
0.0
  0
LINE
  5
479
100
AcDbEntity
  8
0
370
    -3
390
0
  6
Continuous
100
AcDbLine
 10
68.27663
 20
268.376086
 30
0.0
 11
166.363892
 21
266.663966
 31
0.0
  0
LINE
  5
47A
100
AcDbEntity
  8
0
370
    -3
390
0
  6
Continuous
100
AcDbLine
 10
10.27663
 20
91.878681
 30
0.0
 11
10.27663
 21
71.425627
 31
0.0
  0
ARC
  5
47B
100
AcDbEntity
  8
0
370
    -3
390
0
  6
Continuous
100
AcDbCircle
 10
15.27663
 20
91.664728
 30
0.0
 40
5.0
100
AcDbArc
 50
136.945222
 51
180.0
  0
LINE
  5
47C
100
AcDbEntity
  8
0
370
    -3
390
0
  6
Continuous
100
AcDbLine
 10
27.77663
 20
96.883678
 30
0.0
 11
29.77663
 21
96.918588
 31
0.0
  0
ARC
  5
47D
100
AcDbEntity
  8
0
370
    -3
390
0
  6
Continuous
100
AcDbCircle
 10
15.27663
 20
241.4917
 30
0.0
 40
5.0
100
AcDbArc
 50
180.0
 51
223.054778
  0
LINE
  5
47E
100
AcDbEntity
  8
0
370
    -3
390
0
  6
Continuous
100
AcDbLine
 10
27.77663
 20
236.27275
 30
0.0
 11
29.77663
 21
236.23784
 31
0.0
  0
ARC
  5
47F
100
AcDbEntity
  8
0
370
    -3
390
0
  6
Continuous
100
AcDbCircle
 10
15.27663
 20
71.425627
 30
0.0
 40
5.0
100
AcDbArc
 50
180.0
 51
268.224526
  0
LINE
  5
480
100
AcDbEntity
  8
0
370
    -3
390
0
  6
Continuous
100
AcDbLine
 10
15.121716
 20
66.428027
 30
0.0
 11
68.27663
 21
64.780342
 31
0.0
  0
ARC
  5
481
100
AcDbEntity
  8
0
370
    -3
390
0
  6
Continuous
100
AcDbCircle
 10
166.27663
 20
71.4917
 30
0.0
 40
5.0
100
AcDbArc
 50
271.0
 51
360.0
  0
LINE
  5
482
100
AcDbEntity
  8
0
370
    -3
390
0
  6
Continuous
100
AcDbLine
 10
170.27663
 20
133.078214
 30
0.0
 11
171.27663
 21
133.078214
 31
0.0
  0
LINE
  5
483
100
AcDbEntity
  8
0
370
    -3
390
0
  6
Continuous
100
AcDbLine
 10
170.27663
 20
200.078214
 30
0.0
 11
171.27663
 21
200.078214
 31
0.0
  0
LINE
  5
484
100
AcDbEntity
  8
0
370
    -3
390
0
  6
Continuous
100
AcDbLine
 10
15.121716
 20
266.728401
 30
0.0
 11
68.27663
 21
268.376086
 31
0.0
  0
ARC
  5
485
100
AcDbEntity
  8
0
370
    -3
390
0
  6
Continuous
100
AcDbCircle
 10
15.27663
 20
261.730801
 30
0.0
 40
5.0
100
AcDbArc
 50
91.775474
 51
180.0
  0
ARC
  5
486
100
AcDbEntity
  8
0
370
    -3
390
0
  6
Continuous
100
AcDbCircle
 10
166.27663
 20
261.664728
 30
0.0
 40
5.0
100
AcDbArc
 50
0.0
 51
89.0
  0
LINE
  5
487
100
AcDbEntity
  8
0
370
    -3
390
0
  6
Continuous
100
AcDbLine
 10
173.27663
 20
149.778214
 30
0.0
 11
173.07663
 21
149.578214
 31
0.0
  0
ARC
  5
488
100
AcDbEntity
  8
0
370
    -3
390
0
  6
Continuous
100
AcDbCircle
 10
174.07663
 20
149.928214
 30
0.0
 40
0.8
100
AcDbArc
 50
90.0
 51
176.296803
  0
LINE
  5
489
100
AcDbEntity
  8
0
370
    -3
390
0
  6
Continuous
100
AcDbLine
 10
173.27663
 20
149.778214
 30
0.0
 11
173.27663
 21
166.578214
 31
0.0
  0
LINE
  5
48A
100
AcDbEntity
  8
0
370
    -3
390
0
  6
Continuous
100
AcDbLine
 10
175.27663
 20
150.728214
 30
0.0
 11
174.07663
 21
150.728214
 31
0.0
  0
LINE
  5
48B
100
AcDbEntity
  8
0
370
    -3
390
0
  6
Continuous
100
AcDbLine
 10
222.87663
 20
150.578214
 30
0.0
 11
175.836438
 21
150.578214
 31
0.0
  0
LINE
  5
48C
100
AcDbEntity
  8
0
370
    -3
390
0
  6
Continuous
100
AcDbLine
 10
175.27663
 20
150.728214
 30
0.0
 11
175.836438
 21
150.578214
 31
0.0
  0
LINE
  5
48D
100
AcDbEntity
  8
0
370
    -3
390
0
  6
Continuous
100
AcDbLine
 10
173.27663
 20
183.378214
 30
0.0
 11
173.07663
 21
183.578214
 31
0.0
  0
ARC
  5
48E
100
AcDbEntity
  8
0
370
    -3
390
0
  6
Continuous
100
AcDbCircle
 10
174.07663
 20
183.228214
 30
0.0
 40
0.8
100
AcDbArc
 50
183.703197
 51
270.0
  0
LINE
  5
48F
100
AcDbEntity
  8
0
370
    -3
390
0
  6
Continuous
100
AcDbLine
 10
173.27663
 20
183.378214
 30
0.0
 11
173.27663
 21
166.578214
 31
0.0
  0
LINE
  5
490
100
AcDbEntity
  8
0
370
    -3
390
0
  6
Continuous
100
AcDbLine
 10
175.27663
 20
182.428214
 30
0.0
 11
174.07663
 21
182.428214
 31
0.0
  0
LINE
  5
491
100
AcDbEntity
  8
0
370
    -3
390
0
  6
Continuous
100
AcDbLine
 10
175.27663
 20
182.428214
 30
0.0
 11
175.836438
 21
182.578214
 31
0.0
  0
LINE
  5
492
100
AcDbEntity
  8
0
370
    -3
390
0
  6
Continuous
100
AcDbLine
 10
222.87663
 20
182.578214
 30
0.0
 11
175.836438
 21
182.578214
 31
0.0
  0
LINE
  5
493
100
AcDbEntity
  8
0
370
    -3
390
0
  6
Continuous
100
AcDbLine
 10
171.27663
 20
149.578214
 30
0.0
 11
173.07663
 21
149.578214
 31
0.0
  0
LINE
  5
494
100
AcDbEntity
  8
0
370
    -3
390
0
  6
Continuous
100
AcDbLine
 10
171.27663
 20
183.578214
 30
0.0
 11
173.07663
 21
183.578214
 31
0.0
  0
LINE
  5
495
100
AcDbEntity
  8
0
370
    -3
390
0
  6
CENTER
100
AcDbLine
 10
-252.34046
 20
166.578214
 30
0.0
 11
241.357329
 21
166.578214
 31
0.0
  0
LINE
  5
496
100
AcDbEntity
  8
0
370
    -3
390
0
  6
Continuous
100
AcDbLine
 10
178.27663
 20
150.578214
 30
0.0
 11
178.27663
 21
147.578214
 31
0.0
  0
LINE
  5
497
100
AcDbEntity
  8
0
370
    -3
390
0
  6
Continuous
100
AcDbLine
 10
223.27663
 20
147.578214
 30
0.0
 11
178.27663
 21
147.578214
 31
0.0
  0
LINE
  5
498
100
AcDbEntity
  8
0
370
    -3
390
0
  6
Continuous
100
AcDbLine
 10
-81.22337
 20
95.828214
 30
0.0
 11
-115.22337
 21
95.828214
 31
0.0
  0
ARC
  5
499
100
AcDbEntity
  8
0
370
    -3
390
0
  6
Continuous
100
AcDbCircle
 10
-82.82337
 20
91.628214
 30
0.0
 40
3.2
100
AcDbArc
 50
0.0
 51
90.0
  0
LINE
  5
49A
100
AcDbEntity
  8
0
370
    -3
390
0
  6
Continuous
100
AcDbLine
 10
-81.22337
 20
95.828214
 30
0.0
 11
-81.22337
 21
94.828214
 31
0.0
  0
LINE
  5
49B
100
AcDbEntity
  8
0
370
    -3
390
0
  6
Continuous
100
AcDbLine
 10
-115.22337
 20
94.828214
 30
0.0
 11
-81.22337
 21
94.828214
 31
0.0
  0
LINE
  5
49C
100
AcDbEntity
  8
0
370
    -3
390
0
  6
Continuous
100
AcDbLine
 10
-136.22337
 20
79.828214
 30
0.0
 11
-136.22337
 21
78.828214
 31
0.0
  0
ARC
  5
49D
100
AcDbEntity
  8
0
370
    -3
390
0
  6
Continuous
100
AcDbCircle
 10
-139.02337
 20
73.828214
 30
0.0
 40
5.0
100
AcDbArc
 50
90.0
 51
135.074044
  0
ARC
  5
49E
100
AcDbEntity
  8
0
370
    -3
390
0
  6
Continuous
100
AcDbCircle
 10
-140.67337
 20
66.522778
 30
0.0
 40
11.0
100
AcDbArc
 50
90.0
 51
180.0
  0
ARC
  5
49F
100
AcDbEntity
  8
0
370
    -3
390
0
  6
Continuous
100
AcDbCircle
 10
-140.67337
 20
63.051305
 30
0.0
 40
11.0
100
AcDbArc
 50
90.0
 51
180.0
  0
ARC
  5
4A0
100
AcDbEntity
  8
0
370
    -3
390
0
  6
Continuous
100
AcDbCircle
 10
-139.47337
 20
36.628214
 30
0.0
 40
5.8
100
AcDbArc
 50
180.0
 51
270.0
  0
ARC
  5
4A1
100
AcDbEntity
  8
0
370
    -3
390
0
  6
Continuous
100
AcDbCircle
 10
-140.67337
 20
39.654389
 30
0.0
 40
11.0
100
AcDbArc
 50
180.0
 51
270.0
  0
ARC
  5
4A2
100
AcDbEntity
  8
0
370
    -3
390
0
  6
Continuous
100
AcDbCircle
 10
-140.27337
 20
66.204149
 30
0.0
 40
5.0
100
AcDbArc
 50
90.0
 51
180.0
  0
LINE
  5
4A3
100
AcDbEntity
  8
0
370
    -3
390
0
  6
Continuous
100
AcDbLine
 10
-145.27337
 20
36.628214
 30
0.0
 11
-145.27337
 21
66.204149
 31
0.0
  0
LINE
  5
4A4
100
AcDbEntity
  8
0
370
    -3
390
0
  6
Continuous
100
AcDbLine
 10
-151.67337
 20
66.522778
 30
0.0
 11
-151.67337
 21
39.654389
 31
0.0
  0
LINE
  5
4A5
100
AcDbEntity
  8
0
370
    -3
390
0
  6
Continuous
100
AcDbLine
 10
-140.67337
 20
28.654389
 30
0.0
 11
-108.280626
 21
28.654389
 31
0.0
  0
LINE
  5
4A6
100
AcDbEntity
  8
0
370
    -3
390
0
  6
CENTER
100
AcDbLine
 10
-105.22337
 20
85.661927
 30
0.0
 11
-105.22337
 21
23.599514
 31
0.0
  0
LINE
  5
4A7
100
AcDbEntity
  8
0
370
    -3
390
0
  6
Continuous
100
AcDbLine
 10
-105.22337
 20
79.828214
 30
0.0
 11
-136.22337
 21
79.828214
 31
0.0
  0
LINE
  5
4A8
100
AcDbEntity
  8
0
370
    -3
390
0
  6
Continuous
100
AcDbLine
 10
-136.22337
 20
81.428214
 30
0.0
 11
-105.22337
 21
81.428214
 31
0.0
  0
LINE
  5
4A9
100
AcDbEntity
  8
0
370
    -3
390
0
  6
Continuous
100
AcDbLine
 10
-136.22337
 20
79.828214
 30
0.0
 11
-136.22337
 21
81.428214
 31
0.0
  0
LINE
  5
4AA
100
AcDbEntity
  8
0
370
    -3
390
0
  6
Continuous
100
AcDbLine
 10
-130.82337
 20
91.628214
 30
0.0
 11
-130.82337
 21
83.028214
 31
0.0
  0
ARC
  5
4AB
100
AcDbEntity
  8
0
370
    -3
390
0
  6
Continuous
100
AcDbCircle
 10
-132.42337
 20
83.028214
 30
0.0
 40
1.6
100
AcDbArc
 50
270.0
 51
0.0
  0
LINE
  5
4AC
100
AcDbEntity
  8
0
370
    -3
390
0
  6
Continuous
100
AcDbLine
 10
-102.166113
 20
28.654389
 30
0.0
 11
-69.77337
 21
28.654389
 31
0.0
  0
CIRCLE
  5
4AD
100
AcDbEntity
  8
0
370
    -3
390
0
  6
DASHED
100
AcDbCircle
 10
-105.22337
 20
54.828214
 30
0.0
 40
13.5
  0
LINE
  5
4AE
100
AcDbEntity
  8
0
370
    -3
390
0
  6
CENTER
100
AcDbLine
 10
-128.047001
 20
54.828214
 30
0.0
 11
-83.759283
 21
54.828214
 31
0.0
  0
LINE
  5
4AF
100
AcDbEntity
  8
0
370
    -3
390
0
  6
Continuous
100
AcDbLine
 10
-136.22337
 20
79.828214
 30
0.0
 11
-74.22337
 21
79.828214
 31
0.0
  0
LINE
  5
4B0
100
AcDbEntity
  8
0
370
    -3
390
0
  6
Continuous
100
AcDbLine
 10
-74.22337
 20
79.828214
 30
0.0
 11
-74.22337
 21
78.828214
 31
0.0
  0
ARC
  5
4B1
100
AcDbEntity
  8
0
370
    -3
390
0
  6
Continuous
100
AcDbCircle
 10
-71.42337
 20
73.828214
 30
0.0
 40
5.0
100
AcDbArc
 50
44.925956
 51
90.0
  0
LINE
  5
4B2
100
AcDbEntity
  8
0
370
    -3
390
0
  6
Continuous
100
AcDbLine
 10
-139.02337
 20
78.828214
 30
0.0
 11
-71.42337
 21
78.828214
 31
0.0
  0
ARC
  5
4B3
100
AcDbEntity
  8
0
370
    -3
390
0
  6
Continuous
100
AcDbCircle
 10
-69.77337
 20
66.522778
 30
0.0
 40
11.0
100
AcDbArc
 50
0.0
 51
90.0
  0
ARC
  5
4B4
100
AcDbEntity
  8
0
370
    -3
390
0
  6
Continuous
100
AcDbCircle
 10
-69.77337
 20
63.051305
 30
0.0
 40
11.0
100
AcDbArc
 50
0.0
 51
90.0
  0
ARC
  5
4B5
100
AcDbEntity
  8
0
370
    -3
390
0
  6
Continuous
100
AcDbCircle
 10
-70.97337
 20
36.628214
 30
0.0
 40
5.8
100
AcDbArc
 50
270.0
 51
0.0
  0
LINE
  5
4B6
100
AcDbEntity
  8
0
370
    -3
390
0
  6
Continuous
100
AcDbLine
 10
-139.47337
 20
30.828214
 30
0.0
 11
-70.97337
 21
30.828214
 31
0.0
  0
ARC
  5
4B7
100
AcDbEntity
  8
0
370
    -3
390
0
  6
Continuous
100
AcDbCircle
 10
-69.77337
 20
39.654389
 30
0.0
 40
11.0
100
AcDbArc
 50
270.0
 51
0.0
  0
ARC
  5
4B8
100
AcDbEntity
  8
0
370
    -3
390
0
  6
Continuous
100
AcDbCircle
 10
-70.17337
 20
66.204149
 30
0.0
 40
5.0
100
AcDbArc
 50
0.0
 51
90.0
  0
LINE
  5
4B9
100
AcDbEntity
  8
0
370
    -3
390
0
  6
Continuous
100
AcDbLine
 10
-140.27337
 20
71.204149
 30
0.0
 11
-70.17337
 21
71.204149
 31
0.0
  0
LINE
  5
4BA
100
AcDbEntity
  8
0
370
    -3
390
0
  6
Continuous
100
AcDbLine
 10
-65.17337
 20
36.628214
 30
0.0
 11
-65.17337
 21
66.204149
 31
0.0
  0
LINE
  5
4BB
100
AcDbEntity
  8
0
370
    -3
390
0
  6
Continuous
100
AcDbLine
 10
-58.77337
 20
66.522778
 30
0.0
 11
-58.77337
 21
39.654389
 31
0.0
  0
LINE
  5
4BC
100
AcDbEntity
  8
0
370
    -3
390
0
  6
Continuous
100
AcDbLine
 10
-140.67337
 20
74.051305
 30
0.0
 11
-69.77337
 21
74.051305
 31
0.0
  0
LINE
  5
4BD
100
AcDbEntity
  8
0
370
    -3
390
0
  6
Continuous
100
AcDbLine
 10
-140.67337
 20
77.522778
 30
0.0
 11
-69.77337
 21
77.522778
 31
0.0
  0
LINE
  5
4BE
100
AcDbEntity
  8
0
370
    -3
390
0
  6
Continuous
100
AcDbLine
 10
-105.22337
 20
79.828214
 30
0.0
 11
-74.22337
 21
79.828214
 31
0.0
  0
LINE
  5
4BF
100
AcDbEntity
  8
0
370
    -3
390
0
  6
Continuous
100
AcDbLine
 10
-74.22337
 20
81.428214
 30
0.0
 11
-105.22337
 21
81.428214
 31
0.0
  0
LINE
  5
4C0
100
AcDbEntity
  8
0
370
    -3
390
0
  6
Continuous
100
AcDbLine
 10
-74.22337
 20
79.828214
 30
0.0
 11
-74.22337
 21
81.428214
 31
0.0
  0
LINE
  5
4C1
100
AcDbEntity
  8
0
370
    -3
390
0
  6
Continuous
100
AcDbLine
 10
-79.62337
 20
91.628214
 30
0.0
 11
-79.62337
 21
83.028214
 31
0.0
  0
ARC
  5
4C2
100
AcDbEntity
  8
0
370
    -3
390
0
  6
Continuous
100
AcDbCircle
 10
-78.02337
 20
83.028214
 30
0.0
 40
1.6
100
AcDbArc
 50
180.0
 51
270.0
  0
ARC
  5
4C3
100
AcDbEntity
  8
0
370
    -3
390
0
  6
Continuous
100
AcDbCircle
 10
-134.22337
 20
91.110416
 30
0.0
 40
1.0
100
AcDbArc
 50
90.0
 51
180.0
  0
LINE
  5
4C4
100
AcDbEntity
  8
0
370
    -3
390
0
  6
Continuous
100
AcDbLine
 10
-134.22337
 20
92.110416
 30
0.0
 11
-118.22337
 21
92.110416
 31
0.0
  0
LINE
  5
4C5
100
AcDbEntity
  8
0
370
    -3
390
0
  6
Continuous
100
AcDbLine
 10
-135.22337
 20
91.028214
 30
0.0
 11
-135.22337
 21
91.110416
 31
0.0
  0
LINE
  5
4C6
100
AcDbEntity
  8
0
370
    -3
390
0
  6
Continuous
100
AcDbLine
 10
-135.22337
 20
91.028214
 30
0.0
 11
-209.970534
 21
91.028214
 31
0.0
  0
ARC
  5
4C7
100
AcDbEntity
  8
0
370
    -3
390
0
  6
Continuous
100
AcDbCircle
 10
-118.22337
 20
95.110416
 30
0.0
 40
3.0
100
AcDbArc
 50
270.0
 51
0.0
  0
LINE
  5
4C8
100
AcDbEntity
  8
0
370
    -3
390
0
  6
Continuous
100
AcDbLine
 10
-115.22337
 20
95.110416
 30
0.0
 11
-115.22337
 21
165.828214
 31
0.0
  0
LINE
  5
4C9
100
AcDbEntity
  8
0
370
    -3
390
0
  6
Continuous
100
AcDbLine
 10
-132.22337
 20
105.582716
 30
0.0
 11
-134.152574
 21
104.372054
 31
0.0
  0
LINE
  5
4CA
100
AcDbEntity
  8
0
370
    -3
390
0
  6
Continuous
100
AcDbLine
 10
-132.22337
 20
105.582716
 30
0.0
 11
-134.22337
 21
107.156054
 31
0.0
  0
LINE
  5
4CB
100
AcDbEntity
  8
0
370
    -3
390
0
  6
Continuous
100
AcDbLine
 10
-132.22337
 20
105.582716
 30
0.0
 11
-130.294165
 21
104.372054
 31
0.0
  0
LINE
  5
4CC
100
AcDbEntity
  8
0
370
    -3
390
0
  6
Continuous
100
AcDbLine
 10
-132.22337
 20
105.582716
 30
0.0
 11
-130.22337
 21
107.156054
 31
0.0
  0
ELLIPSE
  5
4CD
100
AcDbEntity
  8
0
370
    -3
390
0
  6
Continuous
100
AcDbEllipse
 10
-132.22337
 20
107.421194
 30
0.0
 11
4.5
 21
0.0
 31
0.0
210
0.0
220
0.0
230
1.0
 40
0.707107
 41
5.3002993159360043
 42
4.1244786448334168
  0
ELLIPSE
  5
4CE
100
AcDbEntity
  8
0
370
    -3
390
0
  6
Continuous
100
AcDbEllipse
 10
-132.22337
 20
106.884676
 30
0.0
 11
3.5
 21
0.0
 31
0.0
210
0.0
220
0.0
230
1.0
 40
0.860398
 41
0.0
 42
6.2831853071795862
  0
ELLIPSE
  5
4CF
100
AcDbEntity
  8
0
370
    -3
390
0
  6
Continuous
100
AcDbEllipse
 10
-132.22337
 20
107.986879
 30
0.0
 11
5.0
 21
0.0
 31
0.0
210
0.0
220
0.0
230
1.0
 40
0.707107
 41
3.1415926535897931
 42
3.8808644805304136
  0
ELLIPSE
  5
4D0
100
AcDbEntity
  8
0
370
    -3
390
0
  6
Continuous
100
AcDbEllipse
 10
-132.22337
 20
107.986879
 30
0.0
 11
5.0
 21
0.0
 31
0.0
210
0.0
220
0.0
230
1.0
 40
0.707107
 41
5.5439134802389658
 42
0.0
  0
LINE
  5
4D1
100
AcDbEntity
  8
0
370
    -3
390
0
  6
Continuous
100
AcDbLine
 10
-127.72337
 20
107.421194
 30
0.0
 11
-127.72337
 21
107.986879
 31
0.0
  0
LINE
  5
4D2
100
AcDbEntity
  8
0
370
    -3
390
0
  6
Continuous
100
AcDbLine
 10
-136.72337
 20
107.421194
 30
0.0
 11
-136.72337
 21
107.986879
 31
0.0
  0
ELLIPSE
  5
4D3
100
AcDbEntity
  8
0
370
    -3
390
0
  6
Continuous
100
AcDbEllipse
 10
-132.22337
 20
107.986879
 30
0.0
 11
4.5
 21
0.0
 31
0.0
210
0.0
220
0.0
230
1.0
 40
0.707107
 41
0.0
 42
3.1415926535897931
  0
LINE
  5
4D4
100
AcDbEntity
  8
0
370
    -3
390
0
  6
Continuous
100
AcDbLine
 10
-127.22337
 20
107.986879
 30
0.0
 11
-127.22337
 21
108.803482
 31
0.0
  0
LINE
  5
4D5
100
AcDbEntity
  8
0
370
    -3
390
0
  6
Continuous
100
AcDbLine
 10
-137.22337
 20
107.986879
 30
0.0
 11
-137.22337
 21
108.803482
 31
0.0
  0
ELLIPSE
  5
4D6
100
AcDbEntity
  8
0
370
    -3
390
0
  6
Continuous
100
AcDbEllipse
 10
-132.22337
 20
108.803482
 30
0.0
 11
5.0
 21
0.0
 31
0.0
210
0.0
220
0.0
230
1.0
 40
0.707107
 41
0.0
 42
3.1415926535897931
  0
LINE
  5
4D7
100
AcDbEntity
  8
0
370
    -3
390
0
  6
Continuous
100
AcDbLine
 10
27.77663
 20
189.80047
 30
0.0
 11
-115.22337
 21
189.80047
 31
0.0
  0
LINE
  5
4D8
100
AcDbEntity
  8
0
370
    -3
390
0
  6
Continuous
100
AcDbLine
 10
27.77663
 20
237.578214
 30
0.0
 11
-115.22337
 21
237.578214
 31
0.0
  0
LINE
  5
4D9
100
AcDbEntity
  8
0
370
    -3
390
0
  6
Continuous
100
AcDbLine
 10
27.276631
 20
181.821378
 30
0.0
 11
-115.22337
 21
181.821378
 31
0.0
  0
LINE
  5
4DA
100
AcDbEntity
  8
0
370
    -3
390
0
  6
Continuous
100
AcDbLine
 10
27.649602
 20
183.358215
 30
0.0
 11
-115.22337
 21
183.358215
 31
0.0
  0
LINE
  5
4DB
100
AcDbEntity
  8
0
370
    -3
390
0
  6
Continuous
100
AcDbLine
 10
27.276631
 20
173.841212
 30
0.0
 11
-115.22337
 21
173.841212
 31
0.0
  0
LINE
  5
4DC
100
AcDbEntity
  8
0
370
    -3
390
0
  6
Continuous
100
AcDbLine
 10
27.276631
 20
175.32637
 30
0.0
 11
-115.22337
 21
175.32637
 31
0.0
  0
LINE
  5
4DD
100
AcDbEntity
  8
0
370
    -3
390
0
  6
Continuous
100
AcDbLine
 10
27.77663
 20
167.30801
 30
0.0
 11
-115.22337
 21
167.30801
 31
0.0
  0
LINE
  5
4DE
100
AcDbEntity
  8
0
370
    -3
390
0
  6
Continuous
100
AcDbLine
 10
27.77663
 20
191.392722
 30
0.0
 11
-115.22337
 21
191.392722
 31
0.0
  0
LINE
  5
4DF
100
AcDbEntity
  8
0
370
    -3
390
0
  6
Continuous
100
AcDbLine
 10
27.77663
 20
197.788258
 30
0.0
 11
-115.22337
 21
197.788258
 31
0.0
  0
LINE
  5
4E0
100
AcDbEntity
  8
0
370
    -3
390
0
  6
Continuous
100
AcDbLine
 10
27.77663
 20
199.420986
 30
0.0
 11
-115.22337
 21
199.420986
 31
0.0
  0
LINE
  5
4E1
100
AcDbEntity
  8
0
370
    -3
390
0
  6
Continuous
100
AcDbLine
 10
27.77663
 20
205.778856
 30
0.0
 11
-115.22337
 21
205.778856
 31
0.0
  0
LINE
  5
4E2
100
AcDbEntity
  8
0
370
    -3
390
0
  6
Continuous
100
AcDbLine
 10
27.77663
 20
207.427483
 30
0.0
 11
-115.22337
 21
207.427483
 31
0.0
  0
LINE
  5
4E3
100
AcDbEntity
  8
0
370
    -3
390
0
  6
Continuous
100
AcDbLine
 10
27.77663
 20
215.800052
 30
0.0
 11
-115.22337
 21
215.800052
 31
0.0
  0
LINE
  5
4E4
100
AcDbEntity
  8
0
370
    -3
390
0
  6
Continuous
100
AcDbLine
 10
27.77663
 20
222.164013
 30
0.0
 11
-115.22337
 21
222.164013
 31
0.0
  0
LINE
  5
4E5
100
AcDbEntity
  8
0
370
    -3
390
0
  6
Continuous
100
AcDbLine
 10
27.77663
 20
228.578214
 30
0.0
 11
-115.22337
 21
228.578214
 31
0.0
  0
LINE
  5
4E6
100
AcDbEntity
  8
0
370
    -3
390
0
  6
Continuous
100
AcDbLine
 10
27.77663
 20
233.078214
 30
0.0
 11
-115.22337
 21
233.078214
 31
0.0
  0
LINE
  5
4E7
100
AcDbEntity
  8
0
370
    -3
390
0
  6
Continuous
100
AcDbLine
 10
27.77663
 20
236.078214
 30
0.0
 11
-115.22337
 21
236.078214
 31
0.0
  0
LINE
  5
4E8
100
AcDbEntity
  8
0
370
    -3
390
0
  6
Continuous
100
AcDbLine
 10
27.77663
 20
238.078214
 30
0.0
 11
-115.22337
 21
238.078214
 31
0.0
  0
LINE
  5
4E9
100
AcDbEntity
  8
0
370
    -3
390
0
  6
Continuous
100
AcDbLine
 10
-115.22337
 20
240.628214
 30
0.0
 11
-115.22337
 21
165.828214
 31
0.0
  0
LINE
  5
4EA
100
AcDbEntity
  8
0
370
    -3
390
0
  6
Continuous
100
AcDbLine
 10
-115.22337
 20
240.628214
 30
0.0
 11
-209.970534
 21
240.628214
 31
0.0
  0
LINE
  5
4EB
100
AcDbEntity
  8
0
370
    -3
390
0
  6
Continuous
100
AcDbLine
 10
-240.32337
 20
227.868773
 30
0.0
 11
-225.370534
 21
236.501796
 31
0.0
  0
LINE
  5
4EC
100
AcDbEntity
  8
0
370
    -3
390
0
  6
Continuous
100
AcDbLine
 10
-242.22337
 20
165.828214
 30
0.0
 11
-242.22337
 21
224.577876
 31
0.0
  0
ARC
  5
4ED
100
AcDbEntity
  8
0
370
    -3
390
0
  6
Continuous
100
AcDbCircle
 10
-238.42337
 20
224.577876
 30
0.0
 40
3.8
100
AcDbArc
 50
120.0
 51
180.0
  0
ARC
  5
4EE
100
AcDbEntity
  8
0
370
    -3
390
0
  6
Continuous
100
AcDbCircle
 10
-209.970534
 20
209.828214
 30
0.0
 40
30.8
100
AcDbArc
 50
90.0
 51
120.0
  0
LINE
  5
4EF
100
AcDbEntity
  8
0
370
    -3
390
0
  6
Continuous
100
AcDbLine
 10
-240.32337
 20
103.787655
 30
0.0
 11
-225.370534
 21
95.154631
 31
0.0
  0
LINE
  5
4F0
100
AcDbEntity
  8
0
370
    -3
390
0
  6
Continuous
100
AcDbLine
 10
-242.22337
 20
165.828214
 30
0.0
 11
-242.22337
 21
107.078551
 31
0.0
  0
ARC
  5
4F1
100
AcDbEntity
  8
0
370
    -3
390
0
  6
Continuous
100
AcDbCircle
 10
-238.42337
 20
107.078551
 30
0.0
 40
3.8
100
AcDbArc
 50
180.0
 51
240.0
  0
LINE
  5
4F2
100
AcDbEntity
  8
0
370
    -3
390
0
  6
Continuous
100
AcDbLine
 10
-132.22337
 20
226.073712
 30
0.0
 11
-134.152574
 21
227.284374
 31
0.0
  0
LINE
  5
4F3
100
AcDbEntity
  8
0
370
    -3
390
0
  6
Continuous
100
AcDbLine
 10
-132.22337
 20
226.073712
 30
0.0
 11
-134.22337
 21
224.500374
 31
0.0
  0
LINE
  5
4F4
100
AcDbEntity
  8
0
370
    -3
390
0
  6
Continuous
100
AcDbLine
 10
-132.22337
 20
226.073712
 30
0.0
 11
-130.294165
 21
227.284374
 31
0.0
  0
LINE
  5
4F5
100
AcDbEntity
  8
0
370
    -3
390
0
  6
Continuous
100
AcDbLine
 10
-132.22337
 20
226.073712
 30
0.0
 11
-130.22337
 21
224.500374
 31
0.0
  0
ELLIPSE
  5
4F6
100
AcDbEntity
  8
0
370
    -3
390
0
  6
Continuous
100
AcDbEllipse
 10
-132.22337
 20
224.235234
 30
0.0
 11
4.5
 21
0.0
 31
0.0
210
0.0
220
0.0
230
1.0
 40
0.707107
 41
2.158706662346169
 42
0.9828859912435821
  0
ELLIPSE
  5
4F7
100
AcDbEntity
  8
0
370
    -3
390
0
  6
Continuous
100
AcDbEllipse
 10
-132.22337
 20
224.771752
 30
0.0
 11
3.5
 21
0.0
 31
0.0
210
0.0
220
0.0
230
1.0
 40
0.860398
 41
0.0
 42
6.2831853071795862
  0
ELLIPSE
  5
4F8
100
AcDbEntity
  8
0
370
    -3
390
0
  6
Continuous
100
AcDbEllipse
 10
-132.22337
 20
223.669549
 30
0.0
 11
5.0
 21
0.0
 31
0.0
210
0.0
220
0.0
230
1.0
 40
0.707107
 41
2.4023208266491727
 42
3.1415926535897931
  0
ELLIPSE
  5
4F9
100
AcDbEntity
  8
0
370
    -3
390
0
  6
Continuous
100
AcDbEllipse
 10
-132.22337
 20
223.669549
 30
0.0
 11
5.0
 21
0.0
 31
0.0
210
0.0
220
0.0
230
1.0
 40
0.707107
 41
0.0
 42
0.7392718269406207
  0
LINE
  5
4FA
100
AcDbEntity
  8
0
370
    -3
390
0
  6
Continuous
100
AcDbLine
 10
-127.72337
 20
224.235234
 30
0.0
 11
-127.72337
 21
223.669549
 31
0.0
  0
LINE
  5
4FB
100
AcDbEntity
  8
0
370
    -3
390
0
  6
Continuous
100
AcDbLine
 10
-136.72337
 20
224.235234
 30
0.0
 11
-136.72337
 21
223.669549
 31
0.0
  0
ELLIPSE
  5
4FC
100
AcDbEntity
  8
0
370
    -3
390
0
  6
Continuous
100
AcDbEllipse
 10
-132.22337
 20
223.669549
 30
0.0
 11
4.5
 21
0.0
 31
0.0
210
0.0
220
0.0
230
1.0
 40
0.707107
 41
3.1415926535897931
 42
0.0
  0
LINE
  5
4FD
100
AcDbEntity
  8
0
370
    -3
390
0
  6
Continuous
100
AcDbLine
 10
-127.22337
 20
223.669549
 30
0.0
 11
-127.22337
 21
222.852945
 31
0.0
  0
LINE
  5
4FE
100
AcDbEntity
  8
0
370
    -3
390
0
  6
Continuous
100
AcDbLine
 10
-137.22337
 20
223.669549
 30
0.0
 11
-137.22337
 21
222.852945
 31
0.0
  0
ELLIPSE
  5
4FF
100
AcDbEntity
  8
0
370
    -3
390
0
  6
Continuous
100
AcDbEllipse
 10
-132.22337
 20
222.852945
 30
0.0
 11
5.0
 21
0.0
 31
0.0
210
0.0
220
0.0
230
1.0
 40
0.707107
 41
3.1415926535897931
 42
0.0
  0
ARC
  5
500
100
AcDbEntity
  8
0
370
    -3
390
0
  6
Continuous
100
AcDbCircle
 10
-209.970534
 20
121.828214
 30
0.0
 40
30.8
100
AcDbArc
 50
240.0
 51
270.0
  0
ENDSEC
  0
SECTION
  2
OBJECTS
  0
DICTIONARY
  5
19
100
AcDbDictionary
280
     0
281
     1
  3
ACAD_GROUP
350
1A
  3
ACAD_MLINESTYLE
350
1B
  3
ACAD_LAYOUT
350
1E
  3
ACAD_PLOTSETTINGS
350
22
  3
ACAD_PLOTSTYLENAME
350
1F
  3
ACAD_WIPEOUT_VARS
350
23
  3
DWGPROPS
350
501
  0
DICTIONARY
  5
1A
102
{ACAD_REACTORS
330
19
102
}
100
AcDbDictionary
280
     0
281
     1
  0
DICTIONARY
  5
1B
102
{ACAD_REACTORS
330
19
102
}
100
AcDbDictionary
280
     0
281
     1
  3
Standard
350
1C
  0
MLINESTYLE
  5
1C
102
{ACAD_REACTORS
330
1B
102
}
100
AcDbMlineStyle
  2
Standard
 70
     0
  3

 62
     0
 51
90.0
 52
90.0
 71
     2
 49
0.5
 62
   256
  6
ByLayer
 49
-0.5
 62
   256
  6
ByLayer
  0
ACDBDICTIONARYWDFLT
  5
1F
102
{ACAD_REACTORS
330
19
102
}
100
AcDbDictionary
281
     1
  3
Normal
350
1D
100
AcDbDictionaryWithDefault
340
1D
  0
ACDBPLACEHOLDER
  5
1D
102
{ACAD_REACTORS
330
1F
102
}
  0
LAYOUT
  5
20
102
{ACAD_REACTORS
330
1E
102
}
100
AcDbPlotSettings
  1

  2

  4

  6

 40
0.0
 41
0.0
 42
0.0
 43
0.0
 44
0.0
 45
0.0
 46
0.0
 47
0.0
 48
0.0
 49
0.0
140
0.0
141
0.0
142
1.0
143
1.0
 70
  1024
 72
     0
 73
     0
 74
     0
  7

 75
     0
147
1.0
148
0.0
149
0.0
100
AcDbLayout
  1
Model
 70
     0
 71
     0
 10
0.0
 20
0.0
 11
0.0
 21
0.0
 12
0.0
 22
0.0
 32
0.0
 14
0.0
 24
0.0
 34
0.0
 15
0.0
 25
0.0
 35
0.0
146
0.0
 13
0.0
 23
0.0
 33
0.0
 16
0.0
 26
0.0
 36
0.0
 17
0.0
 27
0.0
 37
0.0
 76
     0
330
A
331
0
345
0
346
0
  0
LAYOUT
  5
21
102
{ACAD_REACTORS
330
1E
102
}
100
AcDbPlotSettings
  1

  2

  4

  6

 40
0.0
 41
0.0
 42
0.0
 43
0.0
 44
0.0
 45
0.0
 46
0.0
 47
0.0
 48
0.0
 49
0.0
140
0.0
141
0.0
142
1.0
143
1.0
 70
     0
 72
     0
 73
     0
 74
     0
  7

 75
     0
147
1.0
148
0.0
149
0.0
100
AcDbLayout
  1
Layout1
 70
     0
 71
     0
 10
0.0
 20
0.0
 11
0.0
 21
0.0
 12
0.0
 22
0.0
 32
0.0
 14
0.0
 24
0.0
 34
0.0
 15
0.0
 25
0.0
 35
0.0
146
0.0
 13
0.0
 23
0.0
 33
0.0
 16
0.0
 26
0.0
 36
0.0
 17
0.0
 27
0.0
 37
0.0
 76
     0
330
B
331
0
345
0
346
0
  0
DICTIONARY
  5
1E
102
{ACAD_REACTORS
330
19
102
}
100
AcDbDictionary
280
     0
281
     1
  3
Layout1
350
21
  3
Model
350
20
  0
DICTIONARY
  5
22
102
{ACAD_REACTORS
330
19
102
}
100
AcDbDictionary
280
     0
281
     1
  0
WIPEOUTVARIABLES
  5
23
100
AcDbWipeoutVariables
 70
     1
  0
XRECORD
  5
501
100
AcDbXrecord
280
     1
  1
DWGPROPS COOKIE
  2

  3

  4

  6

  7

  8
YP81315
  9

300
=
301
=
302
=
303
=
304
=
305
=
306
=
307
=
308
=
309
=
 40
0.0
 41
2456812.581979
 42
2456812.581979
  1

 90
        0
  0
ENDSEC
  0
EOF
