  0
SECTION
  2
HEADER
  9
$ACADVER
  1
AC1015
  9
$ACADMAINTVER
 70
     6
  9
$DWGCODEPAGE
  3
ANSI_932
  9
$INSBASE
 10
0.0
 20
0.0
 30
0.0
  9
$EXTMIN
 10
1.000000E+20
 20
1.000000E+20
 30
1.000000E+20
  9
$EXTMAX
 10
-1.000000E+20
 20
-1.000000E+20
 30
-1.000000E+20
  9
$LIMMIN
 10
0.0
 20
0.0
  9
$LIMMAX
 10
0.0
 20
0.0
  9
$ORTHOMODE
 70
     0
  9
$REGENMODE
 70
     1
  9
$FILLMODE
 70
     1
  9
$QTEXTMODE
 70
     0
  9
$MIRRTEXT
 70
     1
  9
$LTSCALE
 40
1.0
  9
$ATTMODE
 70
     1
  9
$TEXTSIZE
 40
2.8
  9
$TRACEWID
 40
0.05
  9
$TEXTSTYLE
  7
Standard
  9
$CLAYER
  8
0
  9
$CELTYPE
  6
Continuous
  9
$CECOLOR
 62
   256
  9
$CELTSCALE
 40
1.0
  9
$DISPSILH
 70
     0
  9
$DIMSCALE
 40
1.0
  9
$DIMASZ
 40
1.931852
  9
$DIMEXO
 40
1.0
  9
$DIMDLI
 40
0.38
  9
$DIMRND
 40
0.0
  9
$DIMDLE
 40
0.0
  9
$DIMEXE
 40
2.0
  9
$DIMTP
 40
0.0
  9
$DIMTM
 40
0.0
  9
$DIMTXT
 40
2.8
  9
$DIMCEN
 40
0.09
  9
$DIMTSZ
 40
0.0
  9
$DIMTOL
 70
     0
  9
$DIMLIM
 70
     0
  9
$DIMTIH
 70
     1
  9
$DIMTOH
 70
     1
  9
$DIMSE1
 70
     0
  9
$DIMSE2
 70
     0
  9
$DIMTAD
 70
     1
  9
$DIMZIN
 70
     0
  9
$DIMBLK
  1

  9
$DIMASO
 70
     1
  9
$DIMSHO
 70
     1
  9
$DIMPOST
  1

  9
$DIMAPOST
  1

  9
$DIMALT
 70
     0
  9
$DIMALTD
 70
     2
  9
$DIMALTF
 40
25.4
  9
$DIMLFAC
 40
1.0
  9
$DIMTOFL
 70
     0
  9
$DIMTVP
 40
0.0
  9
$DIMTIX
 70
     0
  9
$DIMSOXD
 70
     0
  9
$DIMSAH
 70
     0
  9
$DIMBLK1
  1

  9
$DIMBLK2
  1

  9
$DIMSTYLE
  2
Standard
  9
$DIMCLRD
 70
     0
  9
$DIMCLRE
 70
     0
  9
$DIMCLRT
 70
     0
  9
$DIMTFAC
 40
0.714286
  9
$DIMGAP
 40
0.09
  9
$DIMJUST
 70
     0
  9
$DIMSD1
 70
     0
  9
$DIMSD2
 70
     0
  9
$DIMTOLJ
 70
     1
  9
$DIMTZIN
 70
     0
  9
$DIMALTZ
 70
     0
  9
$DIMALTTZ
 70
     0
  9
$DIMUPT
 70
     0
  9
$DIMDEC
 70
     4
  9
$DIMTDEC
 70
     4
  9
$DIMALTU
 70
     2
  9
$DIMALTTD
 70
     2
  9
$DIMTXSTY
  7
Standard
  9
$DIMAUNIT
 70
     0
  9
$DIMADEC
 70
     0
  9
$DIMALTRND
 40
0.0
  9
$DIMAZIN
 70
     0
  9
$DIMDSEP
 70
     0
  9
$DIMATFIT
 70
     3
  9
$DIMFRAC
 70
     0
  9
$DIMLDRBLK
  1

  9
$DIMLUNIT
 70
     2
  9
$DIMLWD
 70
     0
  9
$DIMLWE
 70
     0
  9
$DIMTMOVE
 70
     0
  9
$LUNITS
 70
     2
  9
$LUPREC
 70
     3
  9
$SKETCHINC
 40
0.1
  9
$FILLETRAD
 40
0.0
  9
$AUNITS
 70
     0
  9
$AUPREC
 70
     0
  9
$MENU
  1
acad
  9
$ELEVATION
 40
0.0
  9
$PELEVATION
 40
0.0
  9
$THICKNESS
 40
0.0
  9
$LIMCHECK
 70
     0
  9
$CHAMFERA
 40
0.0
  9
$CHAMFERB
 40
0.0
  9
$CHAMFERC
 40
0.0
  9
$CHAMFERD
 40
0.0
  9
$SKPOLY
 70
     0
  9
$TDCREATE
 40
0.000000000
  9
$TDUCREATE
 40
0.000000000
  9
$TDUPDATE
 40
0.000000000
  9
$TDUUPDATE
 40
0.000000000
  9
$TDINDWG
 40
0.0000000000
  9
$TDUSRTIMER
 40
0.0000000000
  9
$USRTIMER
 70
     1
  9
$ANGBASE
 50
0.0
  9
$ANGDIR
 70
     0
  9
$PDMODE
 70
     0
  9
$PDSIZE
 40
0.0
  9
$PLINEWID
 40
0.0
  9
$SPLFRAME
 70
     0
  9
$SPLINETYPE
 70
     6
  9
$SPLINESEGS
 70
     8
  9
$HANDSEED
  5
69A
  9
$SURFTAB1
 70
     6
  9
$SURFTAB2
 70
     6
  9
$SURFTYPE
 70
     6
  9
$SURFU
 70
     6
  9
$SURFV
 70
     6
  9
$UCSBASE
  2

  9
$UCSNAME
  2

  9
$UCSORG
 10
0.0
 20
0.0
 30
0.0
  9
$UCSXDIR
 10
1.0
 20
0.0
 30
0.0
  9
$UCSYDIR
 10
0.0
 20
1.0
 30
0.0
  9
$UCSORTHOREF
  2

  9
$UCSORTHOVIEW
 70
     0
  9
$UCSORGTOP
 10
0.0
 20
0.0
 30
0.0
  9
$UCSORGBOTTOM
 10
0.0
 20
0.0
 30
0.0
  9
$UCSORGLEFT
 10
0.0
 20
0.0
 30
0.0
  9
$UCSORGRIGHT
 10
0.0
 20
0.0
 30
0.0
  9
$UCSORGFRONT
 10
0.0
 20
0.0
 30
0.0
  9
$UCSORGBACK
 10
0.0
 20
0.0
 30
0.0
  9
$PUCSBASE
  2

  9
$PUCSNAME
  2

  9
$PUCSORG
 10
0.0
 20
0.0
 30
0.0
  9
$PUCSXDIR
 10
1.0
 20
0.0
 30
0.0
  9
$PUCSYDIR
 10
0.0
 20
1.0
 30
0.0
  9
$PUCSORTHOREF
  2

  9
$PUCSORTHOVIEW
 70
     0
  9
$PUCSORGTOP
 10
0.0
 20
0.0
 30
0.0
  9
$PUCSORGBOTTOM
 10
0.0
 20
0.0
 30
0.0
  9
$PUCSORGLEFT
 10
0.0
 20
0.0
 30
0.0
  9
$PUCSORGRIGHT
 10
0.0
 20
0.0
 30
0.0
  9
$PUCSORGFRONT
 10
0.0
 20
0.0
 30
0.0
  9
$PUCSORGBACK
 10
0.0
 20
0.0
 30
0.0
  9
$USERI1
 70
     0
  9
$USERI2
 70
     0
  9
$USERI3
 70
     0
  9
$USERI4
 70
     0
  9
$USERI5
 70
     0
  9
$USERR1
 40
0.0
  9
$USERR2
 40
0.0
  9
$USERR3
 40
0.0
  9
$USERR4
 40
0.0
  9
$USERR5
 40
0.0
  9
$WORLDVIEW
 70
     1
  9
$SHADEDGE
 70
     3
  9
$SHADEDIF
 70
    70
  9
$TILEMODE
 70
     1
  9
$MAXACTVP
 70
    16
  9
$PINSBASE
 10
0.0
 20
0.0
 30
0.0
  9
$PLIMCHECK
 70
     0
  9
$PEXTMIN
 10
1.000000E+20
 20
1.000000E+20
 30
1.000000E+20
  9
$PEXTMAX
 10
-1.000000E+20
 20
-1.000000E+20
 30
-1.000000E+20
  9
$PLIMMIN
 10
0.0
 20
0.0
  9
$PLIMMAX
 10
12.0
 20
9.0
  9
$UNITMODE
 70
     0
  9
$VISRETAIN
 70
     0
  9
$PLINEGEN
 70
     1
  9
$PSLTSCALE
 70
     0
  9
$TREEDEPTH
 70
  3020
  9
$CMLSTYLE
  2
Standard
  9
$CMLJUST
 70
     0
  9
$CMLSCALE
 40
1.0
  9
$PROXYGRAPHICS
 70
     0
  9
$MEASUREMENT
 70
     0
  9
$CELWEIGHT
370
     0
  9
$ENDCAPS
280
     0
  9
$JOINSTYLE
280
     0
  9
$LWDISPLAY
290
     0
  9
$INSUNITS
 70
     0
  9
$HYPERLINKBASE
  1

  9
$STYLESHEET
  1

  9
$XEDIT
290
     1
  9
$CEPSNTYPE
380
     0
  9
$PSTYLEMODE
290
     1
  9
$FINGERPRINTGUID
  2

  9
$VERSIONGUID
  2

  9
$EXTNAMES
290
     1
  9
$PSVPSCALE
 40
0.0
  0
ENDSEC
  0
SECTION
  2
CLASSES
  0
CLASS
  1
LWPOLYLINE
  2
AcDbPolyline
  3
AutoCAD 2000
 90
        0
280
     0
281
     1
  0
CLASS
  1
IMAGE
  2
AcDbRasterImage
  3
ISM
 90
      127
280
     0
281
     1
  0
CLASS
  1
OLE2FRAME
  2
AcDbOle2Frame
  3
AutoCAD 2000
 90
        0
280
     0
281
     1
  0
CLASS
  1
HATCH
  2
AcDbHatch
  3
AutoCAD 2000
 90
        0
280
     0
281
     1
  0
CLASS
  1
DICTIONARYVAR
  2
AcDbDictionaryVar
  3
AutoCAD 2000
 90
        0
280
     0
281
     0
  0
CLASS
  1
RASTERVARIABLES
  2
AcDbRasterVariables
  3
ISM
 90
        0
280
     0
281
     0
  0
CLASS
  1
IMAGEDEF
  2
AcDbRasterImageDef
  3
ISM
 90
        0
280
     0
281
     0
  0
CLASS
  1
IMAGEDEF_REACTOR
  2
AcDbRasterImageDefReactor
  3
ISM
 90
        1
280
     0
281
     0
  0
CLASS
  1
IDBUFFER
  2
AcDbIdBuffer
  3
AutoCAD 2000
 90
        0
280
     0
281
     0
  0
CLASS
  1
SPATIAL_FILTER
  2
AcDbSpatialFilter
  3
AutoCAD 2000
 90
        0
280
     0
281
     0
  0
CLASS
  1
XRECORD
  2
AcDbXrecord
  3
AutoCAD 2000
 90
        0
280
     0
281
     0
  0
CLASS
  1
SORTENTSTABLE
  2
AcDbSortentsTable
  3
AutoCAD 2000
 90
        0
280
     0
281
     0
  0
CLASS
  1
LAYER_INDEX
  2
AcDbLayerIndex
  3
AutoCAD 2000
 90
        0
280
     0
281
     0
  0
CLASS
  1
SPATIAL_INDEX
  2
AcDbSpatialIndex
  3
AutoCAD 2000
 90
        0
280
     0
281
     0
  0
CLASS
  1
OBJECT_PTR
  2
CAseDLPNTableRecord
  3
"ASE-LPNTableRecord"
 90
        1
280
     0
281
     0
  0
CLASS
  1
LAYOUT
  2
AcDbLayout
  3
AutoCAD 2000
 90
        0
280
     0
281
     0
  0
CLASS
  1
PLOTSETTINGS
  2
AcDbPlotSettings
  3
AutoCAD 2000
 90
        0
280
     0
281
     0
  0
CLASS
  1
ACDBDICTIONARYWDFLT
  2
AcDbDictionaryWithDefault
  3
AutoCAD 2000
 90
        0
280
     0
281
     0
  0
CLASS
  1
ACDBPLACEHOLDER
  2
AcDbPlaceHolder
  3
AutoCAD 2000
 90
        0
280
     0
281
     0
  0
CLASS
  1
VBA_PROJECT
  2
AcDbVbaProject
  3
acadvba
 90
        0
280
     0
281
     0
  0
CLASS
  1
WIPEOUT
  2
AcDbWipeout
  3
WipeOut|AutoCAD Express Tool|expresstools@autodesk.com
 90
      127
280
     0
281
     1
  0
CLASS
  1
WIPEOUTVARIABLES
  2
AcDbWipeoutVariables
  3
WipeOut|AutoCAD Express Tool|expresstools@autodesk.com
 90
        0
280
     0
281
     0
  0
CLASS
  1
RTEXT
  2
RText
  3
RText|AutoCAD Express Tool|expresstools@autodesk.com
 90
        0
280
     0
281
     1
  0
CLASS
  1
ARCALIGNEDTEXT
  2
AcDbArcAlignedText
  3
ATEXT|AutoCAD Express Tool|expresstools@autodesk.com
 90
        0
280
     0
281
     1
  0
ENDSEC
  0
SECTION
  2
TABLES
  0
TABLE
  2
VPORT
  5
7
100
AcDbSymbolTable
 70
     1
  0
VPORT
  5
15
100
AcDbSymbolTableRecord
100
AcDbViewportTableRecord
  2
*ACTIVE
 70
     0
 10
0.0
 20
0.0
 11
1.0
 21
1.0
 12
0.0
 22
0.0
 13
0.0
 23
0.0
 14
1.0
 24
1.0
 15
0.0
 25
0.0
 16
0.0
 26
0.0
 36
1.0
 17
0.0
 27
0.0
 37
0.0
 40
100.0
 41
1.0
 42
50.0
 43
0.0
 44
0.0
 50
0.0
 51
0.0
 71
     0
 72
   100
 73
     1
 74
     1
 75
     0
 76
     0
 77
     0
 78
     0
281
     0
 65
     0
110
0.0
120
0.0
130
0.0
111
1.0
121
0.0
131
0.0
112
0.0
122
1.0
132
0.0
345
0
346
0
 79
     0
146
0.0
  0
ENDTAB
  0
TABLE
  2
LTYPE
  5
4
100
AcDbSymbolTable
 70
     7
  0
LTYPE
  5
11
100
AcDbSymbolTableRecord
100
AcDbLinetypeTableRecord
  2
ByBlock
 70
    64
  3

 72
    65
 73
     0
 40
0.0
  0
LTYPE
  5
12
100
AcDbSymbolTableRecord
100
AcDbLinetypeTableRecord
  2
ByLayer
 70
    64
  3

 72
    65
 73
     0
 40
0.0
  0
LTYPE
  5
13
100
AcDbSymbolTableRecord
100
AcDbLinetypeTableRecord
  2
Continuous
 70
    64
  3
Solid line
 72
    65
 73
     0
 40
0.0
  0
LTYPE
  5
24
100
AcDbSymbolTableRecord
100
AcDbLinetypeTableRecord
  2
DASHED
 70
    64
  3
Dashed __ __ __ __ __ __ __ __ __ __ __ __ __ _
 72
    65
 73
     2
 40
0.75
 49
0.5
 74
     0
 49
-0.25
 74
     0
  0
LTYPE
  5
25
100
AcDbSymbolTableRecord
100
AcDbLinetypeTableRecord
  2
CENTER
 70
    64
  3
Center ____ _ ____ _ ____ _ ____ _ ____ _ ____
 72
    65
 73
     4
 40
1.0
 49
0.5
 74
     0
 49
-0.25
 74
     0
 49
0.0
 74
     0
 49
-0.25
 74
     0
  0
LTYPE
  5
26
100
AcDbSymbolTableRecord
100
AcDbLinetypeTableRecord
  2
DIVIDE
 70
    64
  3
Divide ____ . . ____ . . ____ . . ____ . . ____
 72
    65
 73
     6
 40
1.25
 49
0.5
 74
     0
 49
-0.25
 74
     0
 49
0.0
 74
     0
 49
-0.25
 74
     0
 49
0.0
 74
     0
 49
-0.25
 74
     0
  0
LTYPE
  5
27
100
AcDbSymbolTableRecord
100
AcDbLinetypeTableRecord
  2
PHANTOM
 70
    64
  3
Phantom ______  __  __  ______  __  __  ______
 72
    65
 73
     6
 40
9.0
 49
4.3
 74
     0
 49
-0.7
 74
     0
 49
1.3
 74
     0
 49
-0.7
 74
     0
 49
1.3
 74
     0
 49
-0.7
 74
     0
  0
ENDTAB
  0
TABLE
  2
LAYER
  5
2
100
AcDbSymbolTable
 70
     2
  0
LAYER
  5
14
100
AcDbSymbolTableRecord
100
AcDbLayerTableRecord
  2
0
 70
    64
 62
   102
  6
Continuous
290
     1
370
    -3
390
1D
  0
LAYER
  5
28
100
AcDbSymbolTableRecord
100
AcDbLayerTableRecord
  2
1
 70
    64
 62
    42
  6
Continuous
290
     1
370
    -3
390
1D
  0
ENDTAB
  0
TABLE
  2
STYLE
  5
3
100
AcDbSymbolTable
 70
     2
  0
STYLE
  5
17
100
AcDbSymbolTableRecord
100
AcDbTextStyleTableRecord
  2
Standard
 70
     0
 40
0.0
 41
1.0
 50
0.0
 71
     0
 42
0.0
  3
txt
  4

  0
STYLE
  5
584
100
AcDbSymbolTableRecord
100
AcDbTextStyleTableRecord
  2
ZU_SHPTB00001
 70
     0
 40
0.0
 41
1.0
 50
0.0
 71
     0
 42
0.0
  3
monotxt
  4
bigfont
  0
ENDTAB
  0
TABLE
  2
VIEW
  5
5
100
AcDbSymbolTable
 70
     0
  0
ENDTAB
  0
TABLE
  2
UCS
  5
6
100
AcDbSymbolTable
 70
     0
  0
ENDTAB
  0
TABLE
  2
APPID
  5
8
100
AcDbSymbolTable
 70
     1
  0
APPID
  5
16
100
AcDbSymbolTableRecord
100
AcDbRegAppTableRecord
  2
ACAD
 70
     0
  0
ENDTAB
  0
TABLE
  2
DIMSTYLE
  5
9
100
AcDbSymbolTable
 70
     1
100
AcDbDimStyleTable
 71
     0
  0
DIMSTYLE
105
18
100
AcDbSymbolTableRecord
100
AcDbDimStyleTableRecord
  2
Standard
 70
     0
  3

  4

 40
1.0
 41
0.18
 42
0.0625
 43
0.38
 44
0.18
 45
0.0
 46
0.0
 47
0.0
 48
0.0
 71
     0
 72
     0
 73
     1
 74
     1
 75
     0
 76
     0
 77
     0
 78
     0
 79
     0
140
0.18
141
0.09
142
0.0
143
25.4
144
1.0
145
0.0
146
1.0
147
0.09
148
0.0
170
     0
171
     2
172
     0
173
     0
174
     0
175
     0
176
     0
177
     0
178
     0
179
     0
271
     4
272
     4
273
     2
274
     2
275
     0
276
     0
277
     2
278
    46
279
     0
280
     0
281
     0
282
     0
283
     1
284
     0
285
     0
286
     0
288
     0
289
     3
340
17
341
0
342
0
343
0
344
0
371
    -2
372
    -2
  0
ENDTAB
  0
TABLE
  2
BLOCK_RECORD
  5
1
100
AcDbSymbolTable
 70
    25
  0
BLOCK_RECORD
  5
A
100
AcDbSymbolTableRecord
100
AcDbBlockTableRecord
  2
*MODEL_SPACE
340
20
  0
BLOCK_RECORD
  5
B
100
AcDbSymbolTableRecord
100
AcDbBlockTableRecord
  2
*PAPER_SPACE
340
21
  0
BLOCK_RECORD
  5
B8
100
AcDbSymbolTableRecord
100
AcDbBlockTableRecord
  2
ZU_SYM__USERS_HOME_SYMBOL_POO_SYM_B20_18
340
0
102
{BLKREFS
331
C3
102
}
  0
BLOCK_RECORD
  5
124
100
AcDbSymbolTableRecord
100
AcDbBlockTableRecord
  2
ZU_SYM__USERS_HOME_SYMBOL_POO_SYM_B20_20
340
0
102
{BLKREFS
331
12F
102
}
  0
BLOCK_RECORD
  5
130
100
AcDbSymbolTableRecord
100
AcDbBlockTableRecord
  2
ZU_SYM__USERS_HOME_SYMBOL_POO_SYM_B20_0000120
340
0
102
{BLKREFS
331
13B
102
}
  0
BLOCK_RECORD
  5
13C
100
AcDbSymbolTableRecord
100
AcDbBlockTableRecord
  2
ZU_SYM__USERS_HOME_SYMBOL_POO_SYM_B20_0000220
340
0
102
{BLKREFS
331
147
102
}
  0
BLOCK_RECORD
  5
1B4
100
AcDbSymbolTableRecord
100
AcDbBlockTableRecord
  2
ZU_SYM__USERS_HOME_SYMBOL_POO_SYM_B20_0000318
340
0
102
{BLKREFS
331
1BF
102
}
  0
BLOCK_RECORD
  5
1C0
100
AcDbSymbolTableRecord
100
AcDbBlockTableRecord
  2
ZU_SYM__USERS_HOME_SYMBOL_POO_SYM_B20_0000418
340
0
102
{BLKREFS
331
1CB
102
}
  0
BLOCK_RECORD
  5
283
100
AcDbSymbolTableRecord
100
AcDbBlockTableRecord
  2
ZU_SYM__USERS_HOME_SYMBOL_STD_SYM_B02_48
340
0
102
{BLKREFS
331
292
102
}
  0
BLOCK_RECORD
  5
40F
100
AcDbSymbolTableRecord
100
AcDbBlockTableRecord
  2
ZU_SYM__USERS_HOME_SYMBOL_POO_SYM_S07_15
340
0
102
{BLKREFS
331
41A
102
}
  0
BLOCK_RECORD
  5
41B
100
AcDbSymbolTableRecord
100
AcDbBlockTableRecord
  2
ZU_SYM__USERS_HOME_SYMBOL_POO_SYM_S07_0000515
340
0
102
{BLKREFS
331
426
102
}
  0
BLOCK_RECORD
  5
427
100
AcDbSymbolTableRecord
100
AcDbBlockTableRecord
  2
ZU_SYM__USERS_HOME_SYMBOL_POO_SYM_S07_0000615
340
0
102
{BLKREFS
331
432
102
}
  0
BLOCK_RECORD
  5
433
100
AcDbSymbolTableRecord
100
AcDbBlockTableRecord
  2
ZU_SYM__USERS_HOME_SYMBOL_POO_SYM_S07_0000715
340
0
102
{BLKREFS
331
43E
102
}
  0
BLOCK_RECORD
  5
441
100
AcDbSymbolTableRecord
100
AcDbBlockTableRecord
  2
ZU_SYM__USERS_HOME_SYMBOL_STD_SYM_B02_73
340
0
102
{BLKREFS
331
44C
102
}
  0
BLOCK_RECORD
  5
44D
100
AcDbSymbolTableRecord
100
AcDbBlockTableRecord
  2
ZU_SYM__USERS_HOME_SYMBOL_STD_SYM_B02_0000873
340
0
102
{BLKREFS
331
458
102
}
  0
BLOCK_RECORD
  5
4AF
100
AcDbSymbolTableRecord
100
AcDbBlockTableRecord
  2
ZU_SYM__USERS_HOME_SYMBOL_POO_SYM_B20_07
340
0
102
{BLKREFS
331
4BB
102
}
  0
BLOCK_RECORD
  5
4BC
100
AcDbSymbolTableRecord
100
AcDbBlockTableRecord
  2
ZU_SYM__USERS_HOME_SYMBOL_POO_SYM_B20_0000907
340
0
102
{BLKREFS
331
4C8
102
}
  0
BLOCK_RECORD
  5
4C9
100
AcDbSymbolTableRecord
100
AcDbBlockTableRecord
  2
ZU_SYM__USERS_HOME_SYMBOL_POO_SYM_B20_0001007
340
0
102
{BLKREFS
331
4D5
102
}
  0
BLOCK_RECORD
  5
4D6
100
AcDbSymbolTableRecord
100
AcDbBlockTableRecord
  2
ZU_SYM__USERS_HOME_SYMBOL_POO_SYM_B20_0001107
340
0
102
{BLKREFS
331
4E2
102
}
  0
BLOCK_RECORD
  5
4E3
100
AcDbSymbolTableRecord
100
AcDbBlockTableRecord
  2
ZU_SYM__USERS_HOME_SYMBOL_POO_SYM_B20_05
340
0
102
{BLKREFS
331
4EF
102
}
  0
BLOCK_RECORD
  5
4F0
100
AcDbSymbolTableRecord
100
AcDbBlockTableRecord
  2
ZU_SYM__USERS_HOME_SYMBOL_POO_SYM_B20_0001207
340
0
102
{BLKREFS
331
4FC
102
}
  0
BLOCK_RECORD
  5
4FD
100
AcDbSymbolTableRecord
100
AcDbBlockTableRecord
  2
ZU_SYM__USERS_HOME_SYMBOL_POO_SYM_B20_0001307
340
0
102
{BLKREFS
331
509
102
}
  0
BLOCK_RECORD
  5
50A
100
AcDbSymbolTableRecord
100
AcDbBlockTableRecord
  2
ZU_SYM__USERS_HOME_SYMBOL_POO_SYM_B20_0001407
340
0
102
{BLKREFS
331
516
102
}
  0
BLOCK_RECORD
  5
517
100
AcDbSymbolTableRecord
100
AcDbBlockTableRecord
  2
ZU_SYM__USERS_HOME_SYMBOL_POO_SYM_B20_0001505
340
0
102
{BLKREFS
331
523
102
}
  0
BLOCK_RECORD
  5
58A
100
AcDbSymbolTableRecord
100
AcDbBlockTableRecord
  2
ZU_SYM__USERS_HOME_SYMBOL_STD_SYM_B02_0001648
340
0
102
{BLKREFS
331
599
102
}
  0
BLOCK_RECORD
  5
59F
100
AcDbSymbolTableRecord
100
AcDbBlockTableRecord
  2
ZU_SYM__USERS_HOME_SYMBOL_POO_SYM_B20_0001720
340
0
102
{BLKREFS
331
5AA
102
}
  0
BLOCK_RECORD
  5
5CF
100
AcDbSymbolTableRecord
100
AcDbBlockTableRecord
  2
ZU_SYM__USERS_HOME_SYMBOL_POO_SYM_B20_0001820
340
0
102
{BLKREFS
331
5DA
102
}
  0
ENDTAB
  0
ENDSEC
  0
SECTION
  2
BLOCKS
  0
BLOCK
  5
D
100
AcDbEntity
  8
0
390
0
100
AcDbBlockBegin
  2
*MODEL_SPACE
 70
     0
 10
0.0
 20
0.0
 30
0.0
  3
*MODEL_SPACE
  1

  0
ENDBLK
  5
E
100
AcDbEntity
  8
0
390
0
100
AcDbBlockEnd
  0
BLOCK
  5
F
100
AcDbEntity
 67
     1
  8
0
390
0
100
AcDbBlockBegin
  2
*PAPER_SPACE
 70
     0
 10
0.0
 20
0.0
 30
0.0
  3
*PAPER_SPACE
  1

  0
ENDBLK
  5
10
100
AcDbEntity
 67
     1
  8
0
390
0
100
AcDbBlockEnd
  0
BLOCK
  5
B9
100
AcDbEntity
  8
0
390
0
100
AcDbBlockBegin
  2
ZU_SYM__USERS_HOME_SYMBOL_POO_SYM_B20_18
 70
    64
 10
0.0
 20
0.0
 30
0.0
  3
ZU_SYM__USERS_HOME_SYMBOL_POO_SYM_B20_18
  1

  0
LINE
  5
BA
100
AcDbEntity
  8
0
370
    -3
390
0
  6
Continuous
100
AcDbLine
 10
-7.499999
 20
6.5
 30
0.0
 11
-7.499999
 21
-6.5
 31
0.0
  0
LINE
  5
BB
100
AcDbEntity
  8
0
370
    -3
390
0
  6
Continuous
100
AcDbLine
 10
-7.499998
 20
-6.499999
 30
0.0
 11
-7.999999
 21
-5.63407
 31
0.0
  0
LINE
  5
BC
100
AcDbEntity
  8
0
370
    -3
390
0
  6
Continuous
100
AcDbLine
 10
-7.499999
 20
6.5
 30
0.0
 11
-7.999999
 21
5.633876
 31
0.0
  0
LINE
  5
BD
100
AcDbEntity
  8
0
370
    -3
390
0
  6
Continuous
100
AcDbLine
 10
0.0
 20
-6.5
 30
0.0
 11
-7.499998
 21
-6.5
 31
0.0
  0
LINE
  5
BE
100
AcDbEntity
  8
0
370
    -3
390
0
  6
Continuous
100
AcDbLine
 10
0.0
 20
6.5
 30
0.0
 11
-7.499999
 21
6.5
 31
0.0
  0
LINE
  5
BF
100
AcDbEntity
  8
0
370
    -3
390
0
  6
Continuous
100
AcDbLine
 10
-7.999999
 20
5.633876
 30
0.0
 11
-7.999999
 21
-5.63407
 31
0.0
  0
LINE
  5
C0
100
AcDbEntity
  8
0
370
    -3
390
0
  6
Continuous
100
AcDbLine
 10
0.0
 20
-6.5
 30
0.0
 11
0.0
 21
6.5
 31
0.0
  0
POINT
  5
C1
100
AcDbEntity
  8
0
370
    -3
390
0
  6
Continuous
100
AcDbPoint
 10
0.0
 20
0.0
 30
0.0
  0
ENDBLK
  5
C2
100
AcDbEntity
  8
0
390
0
100
AcDbBlockEnd
  0
BLOCK
  5
125
100
AcDbEntity
  8
0
390
0
100
AcDbBlockBegin
  2
ZU_SYM__USERS_HOME_SYMBOL_POO_SYM_B20_20
 70
    64
 10
0.0
 20
0.0
 30
0.0
  3
ZU_SYM__USERS_HOME_SYMBOL_POO_SYM_B20_20
  1

  0
POINT
  5
126
100
AcDbEntity
  8
0
370
    -3
390
0
  6
Continuous
100
AcDbPoint
 10
0.0
 20
0.0
 30
0.0
  0
LINE
  5
127
100
AcDbEntity
  8
0
370
    -3
390
0
  6
Continuous
100
AcDbLine
 10
0.0
 20
9.0
 30
0.0
 11
0.0
 21
-9.0
 31
0.0
  0
LINE
  5
128
100
AcDbEntity
  8
0
370
    -3
390
0
  6
Continuous
100
AcDbLine
 10
-11.999958
 20
-7.787735
 30
0.0
 11
-11.999973
 21
7.78734
 31
0.0
  0
LINE
  5
129
100
AcDbEntity
  8
0
370
    -3
390
0
  6
Continuous
100
AcDbLine
 10
0.0
 20
-9.0
 30
0.0
 11
-11.299961
 21
-9.0
 31
0.0
  0
LINE
  5
12A
100
AcDbEntity
  8
0
370
    -3
390
0
  6
Continuous
100
AcDbLine
 10
0.0
 20
9.0
 30
0.0
 11
-11.299976
 21
9.0
 31
0.0
  0
LINE
  5
12B
100
AcDbEntity
  8
0
370
    -3
390
0
  6
Continuous
100
AcDbLine
 10
-11.299976
 20
8.999998
 30
0.0
 11
-11.999973
 21
7.787338
 31
0.0
  0
LINE
  5
12C
100
AcDbEntity
  8
0
370
    -3
390
0
  6
Continuous
100
AcDbLine
 10
-11.299961
 20
-9.000002
 30
0.0
 11
-11.999958
 21
-7.787738
 31
0.0
  0
LINE
  5
12D
100
AcDbEntity
  8
0
370
    -3
390
0
  6
Continuous
100
AcDbLine
 10
-11.299976
 20
9.0
 30
0.0
 11
-11.299976
 21
-9.0
 31
0.0
  0
ENDBLK
  5
12E
100
AcDbEntity
  8
0
390
0
100
AcDbBlockEnd
  0
BLOCK
  5
131
100
AcDbEntity
  8
0
390
0
100
AcDbBlockBegin
  2
ZU_SYM__USERS_HOME_SYMBOL_POO_SYM_B20_0000120
 70
    64
 10
0.0
 20
0.0
 30
0.0
  3
ZU_SYM__USERS_HOME_SYMBOL_POO_SYM_B20_0000120
  1

  0
POINT
  5
132
100
AcDbEntity
  8
0
370
    -3
390
0
  6
Continuous
100
AcDbPoint
 10
0.0
 20
0.0
 30
0.0
  0
LINE
  5
133
100
AcDbEntity
  8
0
370
    -3
390
0
  6
Continuous
100
AcDbLine
 10
0.0
 20
9.0
 30
0.0
 11
0.0
 21
-9.0
 31
0.0
  0
LINE
  5
134
100
AcDbEntity
  8
0
370
    -3
390
0
  6
Continuous
100
AcDbLine
 10
-11.999958
 20
-7.787735
 30
0.0
 11
-11.999973
 21
7.78734
 31
0.0
  0
LINE
  5
135
100
AcDbEntity
  8
0
370
    -3
390
0
  6
Continuous
100
AcDbLine
 10
0.0
 20
-9.0
 30
0.0
 11
-11.299961
 21
-9.0
 31
0.0
  0
LINE
  5
136
100
AcDbEntity
  8
0
370
    -3
390
0
  6
Continuous
100
AcDbLine
 10
0.0
 20
9.0
 30
0.0
 11
-11.299976
 21
9.0
 31
0.0
  0
LINE
  5
137
100
AcDbEntity
  8
0
370
    -3
390
0
  6
Continuous
100
AcDbLine
 10
-11.299976
 20
8.999998
 30
0.0
 11
-11.999973
 21
7.787338
 31
0.0
  0
LINE
  5
138
100
AcDbEntity
  8
0
370
    -3
390
0
  6
Continuous
100
AcDbLine
 10
-11.299961
 20
-9.000002
 30
0.0
 11
-11.999958
 21
-7.787738
 31
0.0
  0
LINE
  5
139
100
AcDbEntity
  8
0
370
    -3
390
0
  6
Continuous
100
AcDbLine
 10
-11.299976
 20
9.0
 30
0.0
 11
-11.299976
 21
-9.0
 31
0.0
  0
ENDBLK
  5
13A
100
AcDbEntity
  8
0
390
0
100
AcDbBlockEnd
  0
BLOCK
  5
13D
100
AcDbEntity
  8
0
390
0
100
AcDbBlockBegin
  2
ZU_SYM__USERS_HOME_SYMBOL_POO_SYM_B20_0000220
 70
    64
 10
0.0
 20
0.0
 30
0.0
  3
ZU_SYM__USERS_HOME_SYMBOL_POO_SYM_B20_0000220
  1

  0
POINT
  5
13E
100
AcDbEntity
  8
0
370
    -3
390
0
  6
Continuous
100
AcDbPoint
 10
0.0
 20
0.0
 30
0.0
  0
LINE
  5
13F
100
AcDbEntity
  8
0
370
    -3
390
0
  6
Continuous
100
AcDbLine
 10
0.0
 20
9.0
 30
0.0
 11
0.0
 21
-9.0
 31
0.0
  0
LINE
  5
140
100
AcDbEntity
  8
0
370
    -3
390
0
  6
Continuous
100
AcDbLine
 10
-11.999958
 20
-7.787735
 30
0.0
 11
-11.999973
 21
7.78734
 31
0.0
  0
LINE
  5
141
100
AcDbEntity
  8
0
370
    -3
390
0
  6
Continuous
100
AcDbLine
 10
0.0
 20
-9.0
 30
0.0
 11
-11.299961
 21
-9.0
 31
0.0
  0
LINE
  5
142
100
AcDbEntity
  8
0
370
    -3
390
0
  6
Continuous
100
AcDbLine
 10
0.0
 20
9.0
 30
0.0
 11
-11.299976
 21
9.0
 31
0.0
  0
LINE
  5
143
100
AcDbEntity
  8
0
370
    -3
390
0
  6
Continuous
100
AcDbLine
 10
-11.299976
 20
8.999998
 30
0.0
 11
-11.999973
 21
7.787338
 31
0.0
  0
LINE
  5
144
100
AcDbEntity
  8
0
370
    -3
390
0
  6
Continuous
100
AcDbLine
 10
-11.299961
 20
-9.000002
 30
0.0
 11
-11.999958
 21
-7.787738
 31
0.0
  0
LINE
  5
145
100
AcDbEntity
  8
0
370
    -3
390
0
  6
Continuous
100
AcDbLine
 10
-11.299976
 20
9.0
 30
0.0
 11
-11.299976
 21
-9.0
 31
0.0
  0
ENDBLK
  5
146
100
AcDbEntity
  8
0
390
0
100
AcDbBlockEnd
  0
BLOCK
  5
1B5
100
AcDbEntity
  8
0
390
0
100
AcDbBlockBegin
  2
ZU_SYM__USERS_HOME_SYMBOL_POO_SYM_B20_0000318
 70
    64
 10
0.0
 20
0.0
 30
0.0
  3
ZU_SYM__USERS_HOME_SYMBOL_POO_SYM_B20_0000318
  1

  0
LINE
  5
1B6
100
AcDbEntity
  8
0
370
    -3
390
0
  6
Continuous
100
AcDbLine
 10
-7.499999
 20
6.5
 30
0.0
 11
-7.499999
 21
-6.5
 31
0.0
  0
LINE
  5
1B7
100
AcDbEntity
  8
0
370
    -3
390
0
  6
Continuous
100
AcDbLine
 10
-7.499998
 20
-6.499999
 30
0.0
 11
-7.999999
 21
-5.63407
 31
0.0
  0
LINE
  5
1B8
100
AcDbEntity
  8
0
370
    -3
390
0
  6
Continuous
100
AcDbLine
 10
-7.499999
 20
6.5
 30
0.0
 11
-7.999999
 21
5.633876
 31
0.0
  0
LINE
  5
1B9
100
AcDbEntity
  8
0
370
    -3
390
0
  6
Continuous
100
AcDbLine
 10
0.0
 20
-6.5
 30
0.0
 11
-7.499998
 21
-6.5
 31
0.0
  0
LINE
  5
1BA
100
AcDbEntity
  8
0
370
    -3
390
0
  6
Continuous
100
AcDbLine
 10
0.0
 20
6.5
 30
0.0
 11
-7.499999
 21
6.5
 31
0.0
  0
LINE
  5
1BB
100
AcDbEntity
  8
0
370
    -3
390
0
  6
Continuous
100
AcDbLine
 10
-7.999999
 20
5.633876
 30
0.0
 11
-7.999999
 21
-5.63407
 31
0.0
  0
LINE
  5
1BC
100
AcDbEntity
  8
0
370
    -3
390
0
  6
Continuous
100
AcDbLine
 10
0.0
 20
-6.5
 30
0.0
 11
0.0
 21
6.5
 31
0.0
  0
POINT
  5
1BD
100
AcDbEntity
  8
0
370
    -3
390
0
  6
Continuous
100
AcDbPoint
 10
0.0
 20
0.0
 30
0.0
  0
ENDBLK
  5
1BE
100
AcDbEntity
  8
0
390
0
100
AcDbBlockEnd
  0
BLOCK
  5
1C1
100
AcDbEntity
  8
0
390
0
100
AcDbBlockBegin
  2
ZU_SYM__USERS_HOME_SYMBOL_POO_SYM_B20_0000418
 70
    64
 10
0.0
 20
0.0
 30
0.0
  3
ZU_SYM__USERS_HOME_SYMBOL_POO_SYM_B20_0000418
  1

  0
LINE
  5
1C2
100
AcDbEntity
  8
0
370
    -3
390
0
  6
Continuous
100
AcDbLine
 10
-7.499999
 20
6.5
 30
0.0
 11
-7.499999
 21
-6.5
 31
0.0
  0
LINE
  5
1C3
100
AcDbEntity
  8
0
370
    -3
390
0
  6
Continuous
100
AcDbLine
 10
-7.499998
 20
-6.499999
 30
0.0
 11
-7.999999
 21
-5.63407
 31
0.0
  0
LINE
  5
1C4
100
AcDbEntity
  8
0
370
    -3
390
0
  6
Continuous
100
AcDbLine
 10
-7.499999
 20
6.5
 30
0.0
 11
-7.999999
 21
5.633876
 31
0.0
  0
LINE
  5
1C5
100
AcDbEntity
  8
0
370
    -3
390
0
  6
Continuous
100
AcDbLine
 10
0.0
 20
-6.5
 30
0.0
 11
-7.499998
 21
-6.5
 31
0.0
  0
LINE
  5
1C6
100
AcDbEntity
  8
0
370
    -3
390
0
  6
Continuous
100
AcDbLine
 10
0.0
 20
6.5
 30
0.0
 11
-7.499999
 21
6.5
 31
0.0
  0
LINE
  5
1C7
100
AcDbEntity
  8
0
370
    -3
390
0
  6
Continuous
100
AcDbLine
 10
-7.999999
 20
5.633876
 30
0.0
 11
-7.999999
 21
-5.63407
 31
0.0
  0
LINE
  5
1C8
100
AcDbEntity
  8
0
370
    -3
390
0
  6
Continuous
100
AcDbLine
 10
0.0
 20
-6.5
 30
0.0
 11
0.0
 21
6.5
 31
0.0
  0
POINT
  5
1C9
100
AcDbEntity
  8
0
370
    -3
390
0
  6
Continuous
100
AcDbPoint
 10
0.0
 20
0.0
 30
0.0
  0
ENDBLK
  5
1CA
100
AcDbEntity
  8
0
390
0
100
AcDbBlockEnd
  0
BLOCK
  5
284
100
AcDbEntity
  8
0
390
0
100
AcDbBlockBegin
  2
ZU_SYM__USERS_HOME_SYMBOL_STD_SYM_B02_48
 70
    64
 10
0.0
 20
0.0
 30
0.0
  3
ZU_SYM__USERS_HOME_SYMBOL_STD_SYM_B02_48
  1

  0
ARC
  5
285
100
AcDbEntity
  8
0
370
    -3
390
0
  6
Continuous
100
AcDbCircle
 10
4.25
 20
-0.000018
 30
0.0
 40
9.75
100
AcDbArc
 50
157.379853
 51
202.619583
  0
ARC
  5
286
100
AcDbEntity
  8
0
370
    -3
390
0
  6
Continuous
100
AcDbCircle
 10
-2.779976
 20
5.625011
 30
0.0
 40
2.72
100
AcDbArc
 50
179.999745
 51
223.599739
  0
ARC
  5
287
100
AcDbEntity
  8
0
370
    -3
390
0
  6
Continuous
100
AcDbCircle
 10
-2.780023
 20
-5.624989
 30
0.0
 40
2.72
100
AcDbArc
 50
136.399752
 51
179.999745
  0
LINE
  5
288
100
AcDbEntity
  8
0
370
    -3
390
0
  6
Continuous
100
AcDbLine
 10
-4.749979
 20
3.750014
 30
0.0
 11
0.000018
 21
3.749996
 31
0.0
  0
LINE
  5
289
100
AcDbEntity
  8
0
370
    -3
390
0
  6
Continuous
100
AcDbLine
 10
-4.750012
 20
-3.749974
 30
0.0
 11
-0.000012
 21
-3.749994
 31
0.0
  0
LINE
  5
28A
100
AcDbEntity
  8
0
370
    -3
390
0
  6
Continuous
100
AcDbLine
 10
0.000031
 20
7.5
 30
0.0
 11
-0.000031
 21
-7.5
 31
0.0
  0
LINE
  5
28B
100
AcDbEntity
  8
0
370
    -3
390
0
  6
Continuous
100
AcDbLine
 10
-4.749965
 20
7.500017
 30
0.0
 11
0.000031
 21
7.499999
 31
0.0
  0
LINE
  5
28C
100
AcDbEntity
  8
0
370
    -3
390
0
  6
Continuous
100
AcDbLine
 10
-5.499983
 20
6.300025
 30
0.0
 11
-4.749977
 21
7.500023
 31
0.0
  0
LINE
  5
28D
100
AcDbEntity
  8
0
370
    -3
390
0
  6
Continuous
100
AcDbLine
 10
-5.500023
 20
-6.299976
 30
0.0
 11
-5.499971
 21
6.300019
 31
0.0
  0
LINE
  5
28E
100
AcDbEntity
  8
0
370
    -3
390
0
  6
Continuous
100
AcDbLine
 10
-4.750049
 20
-7.499994
 30
0.0
 11
-5.500046
 21
-6.29999
 31
0.0
  0
LINE
  5
28F
100
AcDbEntity
  8
0
370
    -3
390
0
  6
Continuous
100
AcDbLine
 10
-0.00003
 20
-7.499999
 30
0.0
 11
-4.750026
 21
-7.499979
 31
0.0
  0
POINT
  5
290
100
AcDbEntity
  8
0
370
    -3
390
0
  6
Continuous
100
AcDbPoint
 10
0.0
 20
0.0
 30
0.0
  0
ENDBLK
  5
291
100
AcDbEntity
  8
0
390
0
100
AcDbBlockEnd
  0
BLOCK
  5
410
100
AcDbEntity
  8
0
390
0
100
AcDbBlockBegin
  2
ZU_SYM__USERS_HOME_SYMBOL_POO_SYM_S07_15
 70
    64
 10
0.0
 20
0.0
 30
0.0
  3
ZU_SYM__USERS_HOME_SYMBOL_POO_SYM_S07_15
  1

  0
ARC
  5
411
100
AcDbEntity
  8
0
370
    -3
390
0
  6
Continuous
100
AcDbCircle
 10
6.4
 20
0.0
 30
0.0
 40
9.0
100
AcDbArc
 50
163.398452
 51
196.601531
  0
POINT
  5
412
100
AcDbEntity
  8
0
370
    -3
390
0
  6
Continuous
100
AcDbPoint
 10
0.0
 20
0.0
 30
0.0
  0
LINE
  5
413
100
AcDbEntity
  8
0
370
    -3
390
0
  6
Continuous
100
AcDbLine
 10
0.0
 20
-3.5
 30
0.0
 11
0.0
 21
3.5
 31
0.0
  0
LINE
  5
414
100
AcDbEntity
  8
0
370
    -3
390
0
  6
Continuous
100
AcDbLine
 10
0.0
 20
-3.5
 30
0.0
 11
0.0
 21
3.5
 31
0.0
  0
LINE
  5
415
100
AcDbEntity
  8
0
370
    -3
390
0
  6
Continuous
100
AcDbLine
 10
0.0
 20
3.5
 30
0.0
 11
-0.979025
 21
3.5
 31
0.0
  0
LINE
  5
416
100
AcDbEntity
  8
0
370
    -3
390
0
  6
Continuous
100
AcDbLine
 10
0.0
 20
-3.5
 30
0.0
 11
-0.979025
 21
-3.5
 31
0.0
  0
ARC
  5
417
100
AcDbEntity
  8
0
370
    -3
390
0
  6
Continuous
100
AcDbCircle
 10
-0.979025
 20
2.200001
 30
0.0
 40
1.299999
100
AcDbArc
 50
90.0
 51
163.398452
  0
ARC
  5
418
100
AcDbEntity
  8
0
370
    -3
390
0
  6
Continuous
100
AcDbCircle
 10
-0.979025
 20
-2.200001
 30
0.0
 40
1.299999
100
AcDbArc
 50
196.601531
 51
270.0
  0
ENDBLK
  5
419
100
AcDbEntity
  8
0
390
0
100
AcDbBlockEnd
  0
BLOCK
  5
41C
100
AcDbEntity
  8
0
390
0
100
AcDbBlockBegin
  2
ZU_SYM__USERS_HOME_SYMBOL_POO_SYM_S07_0000515
 70
    64
 10
0.0
 20
0.0
 30
0.0
  3
ZU_SYM__USERS_HOME_SYMBOL_POO_SYM_S07_0000515
  1

  0
ARC
  5
41D
100
AcDbEntity
  8
0
370
    -3
390
0
  6
Continuous
100
AcDbCircle
 10
6.4
 20
0.0
 30
0.0
 40
9.0
100
AcDbArc
 50
163.398452
 51
196.601531
  0
POINT
  5
41E
100
AcDbEntity
  8
0
370
    -3
390
0
  6
Continuous
100
AcDbPoint
 10
0.0
 20
0.0
 30
0.0
  0
LINE
  5
41F
100
AcDbEntity
  8
0
370
    -3
390
0
  6
Continuous
100
AcDbLine
 10
0.0
 20
-3.5
 30
0.0
 11
0.0
 21
3.5
 31
0.0
  0
LINE
  5
420
100
AcDbEntity
  8
0
370
    -3
390
0
  6
Continuous
100
AcDbLine
 10
0.0
 20
-3.5
 30
0.0
 11
0.0
 21
3.5
 31
0.0
  0
LINE
  5
421
100
AcDbEntity
  8
0
370
    -3
390
0
  6
Continuous
100
AcDbLine
 10
0.0
 20
3.5
 30
0.0
 11
-0.979025
 21
3.5
 31
0.0
  0
LINE
  5
422
100
AcDbEntity
  8
0
370
    -3
390
0
  6
Continuous
100
AcDbLine
 10
0.0
 20
-3.5
 30
0.0
 11
-0.979025
 21
-3.5
 31
0.0
  0
ARC
  5
423
100
AcDbEntity
  8
0
370
    -3
390
0
  6
Continuous
100
AcDbCircle
 10
-0.979025
 20
2.200001
 30
0.0
 40
1.299999
100
AcDbArc
 50
90.0
 51
163.398452
  0
ARC
  5
424
100
AcDbEntity
  8
0
370
    -3
390
0
  6
Continuous
100
AcDbCircle
 10
-0.979025
 20
-2.200001
 30
0.0
 40
1.299999
100
AcDbArc
 50
196.601531
 51
270.0
  0
ENDBLK
  5
425
100
AcDbEntity
  8
0
390
0
100
AcDbBlockEnd
  0
BLOCK
  5
428
100
AcDbEntity
  8
0
390
0
100
AcDbBlockBegin
  2
ZU_SYM__USERS_HOME_SYMBOL_POO_SYM_S07_0000615
 70
    64
 10
0.0
 20
0.0
 30
0.0
  3
ZU_SYM__USERS_HOME_SYMBOL_POO_SYM_S07_0000615
  1

  0
ARC
  5
429
100
AcDbEntity
  8
0
370
    -3
390
0
  6
Continuous
100
AcDbCircle
 10
6.4
 20
0.0
 30
0.0
 40
9.0
100
AcDbArc
 50
163.398452
 51
196.601531
  0
POINT
  5
42A
100
AcDbEntity
  8
0
370
    -3
390
0
  6
Continuous
100
AcDbPoint
 10
0.0
 20
0.0
 30
0.0
  0
LINE
  5
42B
100
AcDbEntity
  8
0
370
    -3
390
0
  6
Continuous
100
AcDbLine
 10
0.0
 20
-3.5
 30
0.0
 11
0.0
 21
3.5
 31
0.0
  0
LINE
  5
42C
100
AcDbEntity
  8
0
370
    -3
390
0
  6
Continuous
100
AcDbLine
 10
0.0
 20
-3.5
 30
0.0
 11
0.0
 21
3.5
 31
0.0
  0
LINE
  5
42D
100
AcDbEntity
  8
0
370
    -3
390
0
  6
Continuous
100
AcDbLine
 10
0.0
 20
3.5
 30
0.0
 11
-0.979025
 21
3.5
 31
0.0
  0
LINE
  5
42E
100
AcDbEntity
  8
0
370
    -3
390
0
  6
Continuous
100
AcDbLine
 10
0.0
 20
-3.5
 30
0.0
 11
-0.979025
 21
-3.5
 31
0.0
  0
ARC
  5
42F
100
AcDbEntity
  8
0
370
    -3
390
0
  6
Continuous
100
AcDbCircle
 10
-0.979025
 20
2.200001
 30
0.0
 40
1.299999
100
AcDbArc
 50
90.0
 51
163.398452
  0
ARC
  5
430
100
AcDbEntity
  8
0
370
    -3
390
0
  6
Continuous
100
AcDbCircle
 10
-0.979025
 20
-2.200001
 30
0.0
 40
1.299999
100
AcDbArc
 50
196.601531
 51
270.0
  0
ENDBLK
  5
431
100
AcDbEntity
  8
0
390
0
100
AcDbBlockEnd
  0
BLOCK
  5
434
100
AcDbEntity
  8
0
390
0
100
AcDbBlockBegin
  2
ZU_SYM__USERS_HOME_SYMBOL_POO_SYM_S07_0000715
 70
    64
 10
0.0
 20
0.0
 30
0.0
  3
ZU_SYM__USERS_HOME_SYMBOL_POO_SYM_S07_0000715
  1

  0
ARC
  5
435
100
AcDbEntity
  8
0
370
    -3
390
0
  6
Continuous
100
AcDbCircle
 10
6.4
 20
0.0
 30
0.0
 40
9.0
100
AcDbArc
 50
163.398452
 51
196.601531
  0
POINT
  5
436
100
AcDbEntity
  8
0
370
    -3
390
0
  6
Continuous
100
AcDbPoint
 10
0.0
 20
0.0
 30
0.0
  0
LINE
  5
437
100
AcDbEntity
  8
0
370
    -3
390
0
  6
Continuous
100
AcDbLine
 10
0.0
 20
-3.5
 30
0.0
 11
0.0
 21
3.5
 31
0.0
  0
LINE
  5
438
100
AcDbEntity
  8
0
370
    -3
390
0
  6
Continuous
100
AcDbLine
 10
0.0
 20
-3.5
 30
0.0
 11
0.0
 21
3.5
 31
0.0
  0
LINE
  5
439
100
AcDbEntity
  8
0
370
    -3
390
0
  6
Continuous
100
AcDbLine
 10
0.0
 20
3.5
 30
0.0
 11
-0.979025
 21
3.5
 31
0.0
  0
LINE
  5
43A
100
AcDbEntity
  8
0
370
    -3
390
0
  6
Continuous
100
AcDbLine
 10
0.0
 20
-3.5
 30
0.0
 11
-0.979025
 21
-3.5
 31
0.0
  0
ARC
  5
43B
100
AcDbEntity
  8
0
370
    -3
390
0
  6
Continuous
100
AcDbCircle
 10
-0.979025
 20
2.200001
 30
0.0
 40
1.299999
100
AcDbArc
 50
90.0
 51
163.398452
  0
ARC
  5
43C
100
AcDbEntity
  8
0
370
    -3
390
0
  6
Continuous
100
AcDbCircle
 10
-0.979025
 20
-2.200001
 30
0.0
 40
1.299999
100
AcDbArc
 50
196.601531
 51
270.0
  0
ENDBLK
  5
43D
100
AcDbEntity
  8
0
390
0
100
AcDbBlockEnd
  0
BLOCK
  5
442
100
AcDbEntity
  8
0
390
0
100
AcDbBlockBegin
  2
ZU_SYM__USERS_HOME_SYMBOL_STD_SYM_B02_73
 70
    64
 10
0.0
 20
0.0
 30
0.0
  3
ZU_SYM__USERS_HOME_SYMBOL_STD_SYM_B02_73
  1

  0
POINT
  5
443
100
AcDbEntity
  8
0
370
    -3
390
0
  6
Continuous
100
AcDbPoint
 10
0.0
 20
0.0
 30
0.0
  0
LINE
  5
444
100
AcDbEntity
  8
0
370
    -3
390
0
  6
Continuous
100
AcDbLine
 10
0.002401
 20
-7.504163
 30
0.0
 11
-6.495188
 21
-3.749995
 31
0.0
  0
LINE
  5
445
100
AcDbEntity
  8
0
370
    -3
390
0
  6
Continuous
100
AcDbLine
 10
-6.495189
 20
-3.749994
 30
0.0
 11
-6.497592
 21
3.754165
 31
0.0
  0
LINE
  5
446
100
AcDbEntity
  8
0
370
    -3
390
0
  6
Continuous
100
AcDbLine
 10
-6.497594
 20
3.754168
 30
0.0
 11
-0.002401
 21
7.504164
 31
0.0
  0
LINE
  5
447
100
AcDbEntity
  8
0
370
    -3
390
0
  6
Continuous
100
AcDbLine
 10
-0.002401
 20
7.504163
 30
0.0
 11
6.495188
 21
3.749995
 31
0.0
  0
LINE
  5
448
100
AcDbEntity
  8
0
370
    -3
390
0
  6
Continuous
100
AcDbLine
 10
6.495189
 20
3.749994
 30
0.0
 11
6.497592
 21
-3.754165
 31
0.0
  0
LINE
  5
449
100
AcDbEntity
  8
0
370
    -3
390
0
  6
Continuous
100
AcDbLine
 10
6.497594
 20
-3.754168
 30
0.0
 11
0.002401
 21
-7.504164
 31
0.0
  0
CIRCLE
  5
44A
100
AcDbEntity
  8
0
370
    -3
390
0
  6
Continuous
100
AcDbCircle
 10
0.0
 20
0.0
 30
0.0
 40
6.5
  0
ENDBLK
  5
44B
100
AcDbEntity
  8
0
390
0
100
AcDbBlockEnd
  0
BLOCK
  5
44E
100
AcDbEntity
  8
0
390
0
100
AcDbBlockBegin
  2
ZU_SYM__USERS_HOME_SYMBOL_STD_SYM_B02_0000873
 70
    64
 10
0.0
 20
0.0
 30
0.0
  3
ZU_SYM__USERS_HOME_SYMBOL_STD_SYM_B02_0000873
  1

  0
POINT
  5
44F
100
AcDbEntity
  8
0
370
    -3
390
0
  6
Continuous
100
AcDbPoint
 10
0.0
 20
0.0
 30
0.0
  0
LINE
  5
450
100
AcDbEntity
  8
0
370
    -3
390
0
  6
Continuous
100
AcDbLine
 10
0.002401
 20
-7.504163
 30
0.0
 11
-6.495188
 21
-3.749995
 31
0.0
  0
LINE
  5
451
100
AcDbEntity
  8
0
370
    -3
390
0
  6
Continuous
100
AcDbLine
 10
-6.495189
 20
-3.749994
 30
0.0
 11
-6.497592
 21
3.754165
 31
0.0
  0
LINE
  5
452
100
AcDbEntity
  8
0
370
    -3
390
0
  6
Continuous
100
AcDbLine
 10
-6.497594
 20
3.754168
 30
0.0
 11
-0.002401
 21
7.504164
 31
0.0
  0
LINE
  5
453
100
AcDbEntity
  8
0
370
    -3
390
0
  6
Continuous
100
AcDbLine
 10
-0.002401
 20
7.504163
 30
0.0
 11
6.495188
 21
3.749995
 31
0.0
  0
LINE
  5
454
100
AcDbEntity
  8
0
370
    -3
390
0
  6
Continuous
100
AcDbLine
 10
6.495189
 20
3.749994
 30
0.0
 11
6.497592
 21
-3.754165
 31
0.0
  0
LINE
  5
455
100
AcDbEntity
  8
0
370
    -3
390
0
  6
Continuous
100
AcDbLine
 10
6.497594
 20
-3.754168
 30
0.0
 11
0.002401
 21
-7.504164
 31
0.0
  0
CIRCLE
  5
456
100
AcDbEntity
  8
0
370
    -3
390
0
  6
Continuous
100
AcDbCircle
 10
0.0
 20
0.0
 30
0.0
 40
6.5
  0
ENDBLK
  5
457
100
AcDbEntity
  8
0
390
0
100
AcDbBlockEnd
  0
BLOCK
  5
4B0
100
AcDbEntity
  8
0
390
0
100
AcDbBlockBegin
  2
ZU_SYM__USERS_HOME_SYMBOL_POO_SYM_B20_07
 70
    64
 10
0.0
 20
0.0
 30
0.0
  3
ZU_SYM__USERS_HOME_SYMBOL_POO_SYM_B20_07
  1

  0
CIRCLE
  5
4B1
100
AcDbEntity
  8
0
370
    -3
390
0
  6
Continuous
100
AcDbCircle
 10
0.0
 20
0.0
 30
0.0
 40
7.787524
  0
CIRCLE
  5
4B2
100
AcDbEntity
  8
0
370
    -3
390
0
  6
Continuous
100
AcDbCircle
 10
0.0
 20
0.0
 30
0.0
 40
9.0
  0
POINT
  5
4B3
100
AcDbEntity
  8
0
370
    -3
390
0
  6
Continuous
100
AcDbPoint
 10
0.0
 20
0.0
 30
0.0
  0
LINE
  5
4B4
100
AcDbEntity
  8
0
370
    -3
390
0
  6
Continuous
100
AcDbLine
 10
-4.999998
 20
-2.886744
 30
0.0
 11
-4.999999
 21
2.886755
 31
0.0
  0
LINE
  5
4B5
100
AcDbEntity
  8
0
370
    -3
390
0
  6
Continuous
100
AcDbLine
 10
4.999998
 20
2.886743
 30
0.0
 11
4.999999
 21
-2.886755
 31
0.0
  0
LINE
  5
4B6
100
AcDbEntity
  8
0
370
    -3
390
0
  6
Continuous
100
AcDbLine
 10
4.999998
 20
2.886744
 30
0.0
 11
0.000009
 21
5.7735
 31
0.0
  0
LINE
  5
4B7
100
AcDbEntity
  8
0
370
    -3
390
0
  6
Continuous
100
AcDbLine
 10
-0.000009
 20
-5.773499
 30
0.0
 11
-4.999998
 21
-2.886745
 31
0.0
  0
LINE
  5
4B8
100
AcDbEntity
  8
0
370
    -3
390
0
  6
Continuous
100
AcDbLine
 10
-4.999999
 20
2.886755
 30
0.0
 11
0.000008
 21
5.773499
 31
0.0
  0
LINE
  5
4B9
100
AcDbEntity
  8
0
370
    -3
390
0
  6
Continuous
100
AcDbLine
 10
4.999999
 20
-2.886755
 30
0.0
 11
-0.000009
 21
-5.7735
 31
0.0
  0
ENDBLK
  5
4BA
100
AcDbEntity
  8
0
390
0
100
AcDbBlockEnd
  0
BLOCK
  5
4BD
100
AcDbEntity
  8
0
390
0
100
AcDbBlockBegin
  2
ZU_SYM__USERS_HOME_SYMBOL_POO_SYM_B20_0000907
 70
    64
 10
0.0
 20
0.0
 30
0.0
  3
ZU_SYM__USERS_HOME_SYMBOL_POO_SYM_B20_0000907
  1

  0
CIRCLE
  5
4BE
100
AcDbEntity
  8
0
370
    -3
390
0
  6
Continuous
100
AcDbCircle
 10
0.0
 20
0.0
 30
0.0
 40
7.787524
  0
CIRCLE
  5
4BF
100
AcDbEntity
  8
0
370
    -3
390
0
  6
Continuous
100
AcDbCircle
 10
0.0
 20
0.0
 30
0.0
 40
9.0
  0
POINT
  5
4C0
100
AcDbEntity
  8
0
370
    -3
390
0
  6
Continuous
100
AcDbPoint
 10
0.0
 20
0.0
 30
0.0
  0
LINE
  5
4C1
100
AcDbEntity
  8
0
370
    -3
390
0
  6
Continuous
100
AcDbLine
 10
-4.999998
 20
-2.886744
 30
0.0
 11
-4.999999
 21
2.886755
 31
0.0
  0
LINE
  5
4C2
100
AcDbEntity
  8
0
370
    -3
390
0
  6
Continuous
100
AcDbLine
 10
4.999998
 20
2.886743
 30
0.0
 11
4.999999
 21
-2.886755
 31
0.0
  0
LINE
  5
4C3
100
AcDbEntity
  8
0
370
    -3
390
0
  6
Continuous
100
AcDbLine
 10
4.999998
 20
2.886744
 30
0.0
 11
0.000009
 21
5.7735
 31
0.0
  0
LINE
  5
4C4
100
AcDbEntity
  8
0
370
    -3
390
0
  6
Continuous
100
AcDbLine
 10
-0.000009
 20
-5.773499
 30
0.0
 11
-4.999998
 21
-2.886745
 31
0.0
  0
LINE
  5
4C5
100
AcDbEntity
  8
0
370
    -3
390
0
  6
Continuous
100
AcDbLine
 10
-4.999999
 20
2.886755
 30
0.0
 11
0.000008
 21
5.773499
 31
0.0
  0
LINE
  5
4C6
100
AcDbEntity
  8
0
370
    -3
390
0
  6
Continuous
100
AcDbLine
 10
4.999999
 20
-2.886755
 30
0.0
 11
-0.000009
 21
-5.7735
 31
0.0
  0
ENDBLK
  5
4C7
100
AcDbEntity
  8
0
390
0
100
AcDbBlockEnd
  0
BLOCK
  5
4CA
100
AcDbEntity
  8
0
390
0
100
AcDbBlockBegin
  2
ZU_SYM__USERS_HOME_SYMBOL_POO_SYM_B20_0001007
 70
    64
 10
0.0
 20
0.0
 30
0.0
  3
ZU_SYM__USERS_HOME_SYMBOL_POO_SYM_B20_0001007
  1

  0
CIRCLE
  5
4CB
100
AcDbEntity
  8
0
370
    -3
390
0
  6
Continuous
100
AcDbCircle
 10
0.0
 20
0.0
 30
0.0
 40
7.787524
  0
CIRCLE
  5
4CC
100
AcDbEntity
  8
0
370
    -3
390
0
  6
Continuous
100
AcDbCircle
 10
0.0
 20
0.0
 30
0.0
 40
9.0
  0
POINT
  5
4CD
100
AcDbEntity
  8
0
370
    -3
390
0
  6
Continuous
100
AcDbPoint
 10
0.0
 20
0.0
 30
0.0
  0
LINE
  5
4CE
100
AcDbEntity
  8
0
370
    -3
390
0
  6
Continuous
100
AcDbLine
 10
-4.999998
 20
-2.886744
 30
0.0
 11
-4.999999
 21
2.886755
 31
0.0
  0
LINE
  5
4CF
100
AcDbEntity
  8
0
370
    -3
390
0
  6
Continuous
100
AcDbLine
 10
4.999998
 20
2.886743
 30
0.0
 11
4.999999
 21
-2.886755
 31
0.0
  0
LINE
  5
4D0
100
AcDbEntity
  8
0
370
    -3
390
0
  6
Continuous
100
AcDbLine
 10
4.999998
 20
2.886744
 30
0.0
 11
0.000009
 21
5.7735
 31
0.0
  0
LINE
  5
4D1
100
AcDbEntity
  8
0
370
    -3
390
0
  6
Continuous
100
AcDbLine
 10
-0.000009
 20
-5.773499
 30
0.0
 11
-4.999998
 21
-2.886745
 31
0.0
  0
LINE
  5
4D2
100
AcDbEntity
  8
0
370
    -3
390
0
  6
Continuous
100
AcDbLine
 10
-4.999999
 20
2.886755
 30
0.0
 11
0.000008
 21
5.773499
 31
0.0
  0
LINE
  5
4D3
100
AcDbEntity
  8
0
370
    -3
390
0
  6
Continuous
100
AcDbLine
 10
4.999999
 20
-2.886755
 30
0.0
 11
-0.000009
 21
-5.7735
 31
0.0
  0
ENDBLK
  5
4D4
100
AcDbEntity
  8
0
390
0
100
AcDbBlockEnd
  0
BLOCK
  5
4D7
100
AcDbEntity
  8
0
390
0
100
AcDbBlockBegin
  2
ZU_SYM__USERS_HOME_SYMBOL_POO_SYM_B20_0001107
 70
    64
 10
0.0
 20
0.0
 30
0.0
  3
ZU_SYM__USERS_HOME_SYMBOL_POO_SYM_B20_0001107
  1

  0
CIRCLE
  5
4D8
100
AcDbEntity
  8
0
370
    -3
390
0
  6
Continuous
100
AcDbCircle
 10
0.0
 20
0.0
 30
0.0
 40
7.787524
  0
CIRCLE
  5
4D9
100
AcDbEntity
  8
0
370
    -3
390
0
  6
Continuous
100
AcDbCircle
 10
0.0
 20
0.0
 30
0.0
 40
9.0
  0
POINT
  5
4DA
100
AcDbEntity
  8
0
370
    -3
390
0
  6
Continuous
100
AcDbPoint
 10
0.0
 20
0.0
 30
0.0
  0
LINE
  5
4DB
100
AcDbEntity
  8
0
370
    -3
390
0
  6
Continuous
100
AcDbLine
 10
-4.999998
 20
-2.886744
 30
0.0
 11
-4.999999
 21
2.886755
 31
0.0
  0
LINE
  5
4DC
100
AcDbEntity
  8
0
370
    -3
390
0
  6
Continuous
100
AcDbLine
 10
4.999998
 20
2.886743
 30
0.0
 11
4.999999
 21
-2.886755
 31
0.0
  0
LINE
  5
4DD
100
AcDbEntity
  8
0
370
    -3
390
0
  6
Continuous
100
AcDbLine
 10
4.999998
 20
2.886744
 30
0.0
 11
0.000009
 21
5.7735
 31
0.0
  0
LINE
  5
4DE
100
AcDbEntity
  8
0
370
    -3
390
0
  6
Continuous
100
AcDbLine
 10
-0.000009
 20
-5.773499
 30
0.0
 11
-4.999998
 21
-2.886745
 31
0.0
  0
LINE
  5
4DF
100
AcDbEntity
  8
0
370
    -3
390
0
  6
Continuous
100
AcDbLine
 10
-4.999999
 20
2.886755
 30
0.0
 11
0.000008
 21
5.773499
 31
0.0
  0
LINE
  5
4E0
100
AcDbEntity
  8
0
370
    -3
390
0
  6
Continuous
100
AcDbLine
 10
4.999999
 20
-2.886755
 30
0.0
 11
-0.000009
 21
-5.7735
 31
0.0
  0
ENDBLK
  5
4E1
100
AcDbEntity
  8
0
390
0
100
AcDbBlockEnd
  0
BLOCK
  5
4E4
100
AcDbEntity
  8
0
390
0
100
AcDbBlockBegin
  2
ZU_SYM__USERS_HOME_SYMBOL_POO_SYM_B20_05
 70
    64
 10
0.0
 20
0.0
 30
0.0
  3
ZU_SYM__USERS_HOME_SYMBOL_POO_SYM_B20_05
  1

  0
CIRCLE
  5
4E5
100
AcDbEntity
  8
0
370
    -3
390
0
  6
Continuous
100
AcDbCircle
 10
0.0
 20
0.0
 30
0.0
 40
5.633955
  0
CIRCLE
  5
4E6
100
AcDbEntity
  8
0
370
    -3
390
0
  6
Continuous
100
AcDbCircle
 10
0.0
 20
0.0
 30
0.0
 40
6.5
  0
POINT
  5
4E7
100
AcDbEntity
  8
0
370
    -3
390
0
  6
Continuous
100
AcDbPoint
 10
0.0
 20
0.0
 30
0.0
  0
LINE
  5
4E8
100
AcDbEntity
  8
0
370
    -3
390
0
  6
Continuous
100
AcDbLine
 10
-2.999997
 20
-1.732046
 30
0.0
 11
-2.999998
 21
1.732052
 31
0.0
  0
LINE
  5
4E9
100
AcDbEntity
  8
0
370
    -3
390
0
  6
Continuous
100
AcDbLine
 10
2.999997
 20
1.732047
 30
0.0
 11
2.999998
 21
-1.732051
 31
0.0
  0
LINE
  5
4EA
100
AcDbEntity
  8
0
370
    -3
390
0
  6
Continuous
100
AcDbLine
 10
0.000007
 20
3.464097
 30
0.0
 11
-2.999998
 21
1.732052
 31
0.0
  0
LINE
  5
4EB
100
AcDbEntity
  8
0
370
    -3
390
0
  6
Continuous
100
AcDbLine
 10
2.999998
 20
-1.732051
 30
0.0
 11
-0.000004
 21
-3.464098
 31
0.0
  0
LINE
  5
4EC
100
AcDbEntity
  8
0
370
    -3
390
0
  6
Continuous
100
AcDbLine
 10
0.000007
 20
3.464097
 30
0.0
 11
2.999997
 21
1.732047
 31
0.0
  0
LINE
  5
4ED
100
AcDbEntity
  8
0
370
    -3
390
0
  6
Continuous
100
AcDbLine
 10
-0.000005
 20
-3.464098
 30
0.0
 11
-2.999998
 21
-1.732046
 31
0.0
  0
ENDBLK
  5
4EE
100
AcDbEntity
  8
0
390
0
100
AcDbBlockEnd
  0
BLOCK
  5
4F1
100
AcDbEntity
  8
0
390
0
100
AcDbBlockBegin
  2
ZU_SYM__USERS_HOME_SYMBOL_POO_SYM_B20_0001207
 70
    64
 10
0.0
 20
0.0
 30
0.0
  3
ZU_SYM__USERS_HOME_SYMBOL_POO_SYM_B20_0001207
  1

  0
CIRCLE
  5
4F2
100
AcDbEntity
  8
0
370
    -3
390
0
  6
Continuous
100
AcDbCircle
 10
0.0
 20
0.0
 30
0.0
 40
7.787524
  0
CIRCLE
  5
4F3
100
AcDbEntity
  8
0
370
    -3
390
0
  6
Continuous
100
AcDbCircle
 10
0.0
 20
0.0
 30
0.0
 40
9.0
  0
POINT
  5
4F4
100
AcDbEntity
  8
0
370
    -3
390
0
  6
Continuous
100
AcDbPoint
 10
0.0
 20
0.0
 30
0.0
  0
LINE
  5
4F5
100
AcDbEntity
  8
0
370
    -3
390
0
  6
Continuous
100
AcDbLine
 10
-4.999998
 20
-2.886744
 30
0.0
 11
-4.999999
 21
2.886755
 31
0.0
  0
LINE
  5
4F6
100
AcDbEntity
  8
0
370
    -3
390
0
  6
Continuous
100
AcDbLine
 10
4.999998
 20
2.886743
 30
0.0
 11
4.999999
 21
-2.886755
 31
0.0
  0
LINE
  5
4F7
100
AcDbEntity
  8
0
370
    -3
390
0
  6
Continuous
100
AcDbLine
 10
4.999998
 20
2.886744
 30
0.0
 11
0.000009
 21
5.7735
 31
0.0
  0
LINE
  5
4F8
100
AcDbEntity
  8
0
370
    -3
390
0
  6
Continuous
100
AcDbLine
 10
-0.000009
 20
-5.773499
 30
0.0
 11
-4.999998
 21
-2.886745
 31
0.0
  0
LINE
  5
4F9
100
AcDbEntity
  8
0
370
    -3
390
0
  6
Continuous
100
AcDbLine
 10
-4.999999
 20
2.886755
 30
0.0
 11
0.000008
 21
5.773499
 31
0.0
  0
LINE
  5
4FA
100
AcDbEntity
  8
0
370
    -3
390
0
  6
Continuous
100
AcDbLine
 10
4.999999
 20
-2.886755
 30
0.0
 11
-0.000009
 21
-5.7735
 31
0.0
  0
ENDBLK
  5
4FB
100
AcDbEntity
  8
0
390
0
100
AcDbBlockEnd
  0
BLOCK
  5
4FE
100
AcDbEntity
  8
0
390
0
100
AcDbBlockBegin
  2
ZU_SYM__USERS_HOME_SYMBOL_POO_SYM_B20_0001307
 70
    64
 10
0.0
 20
0.0
 30
0.0
  3
ZU_SYM__USERS_HOME_SYMBOL_POO_SYM_B20_0001307
  1

  0
CIRCLE
  5
4FF
100
AcDbEntity
  8
0
370
    -3
390
0
  6
Continuous
100
AcDbCircle
 10
0.0
 20
0.0
 30
0.0
 40
7.787524
  0
CIRCLE
  5
500
100
AcDbEntity
  8
0
370
    -3
390
0
  6
Continuous
100
AcDbCircle
 10
0.0
 20
0.0
 30
0.0
 40
9.0
  0
POINT
  5
501
100
AcDbEntity
  8
0
370
    -3
390
0
  6
Continuous
100
AcDbPoint
 10
0.0
 20
0.0
 30
0.0
  0
LINE
  5
502
100
AcDbEntity
  8
0
370
    -3
390
0
  6
Continuous
100
AcDbLine
 10
-4.999998
 20
-2.886744
 30
0.0
 11
-4.999999
 21
2.886755
 31
0.0
  0
LINE
  5
503
100
AcDbEntity
  8
0
370
    -3
390
0
  6
Continuous
100
AcDbLine
 10
4.999998
 20
2.886743
 30
0.0
 11
4.999999
 21
-2.886755
 31
0.0
  0
LINE
  5
504
100
AcDbEntity
  8
0
370
    -3
390
0
  6
Continuous
100
AcDbLine
 10
4.999998
 20
2.886744
 30
0.0
 11
0.000009
 21
5.7735
 31
0.0
  0
LINE
  5
505
100
AcDbEntity
  8
0
370
    -3
390
0
  6
Continuous
100
AcDbLine
 10
-0.000009
 20
-5.773499
 30
0.0
 11
-4.999998
 21
-2.886745
 31
0.0
  0
LINE
  5
506
100
AcDbEntity
  8
0
370
    -3
390
0
  6
Continuous
100
AcDbLine
 10
-4.999999
 20
2.886755
 30
0.0
 11
0.000008
 21
5.773499
 31
0.0
  0
LINE
  5
507
100
AcDbEntity
  8
0
370
    -3
390
0
  6
Continuous
100
AcDbLine
 10
4.999999
 20
-2.886755
 30
0.0
 11
-0.000009
 21
-5.7735
 31
0.0
  0
ENDBLK
  5
508
100
AcDbEntity
  8
0
390
0
100
AcDbBlockEnd
  0
BLOCK
  5
50B
100
AcDbEntity
  8
0
390
0
100
AcDbBlockBegin
  2
ZU_SYM__USERS_HOME_SYMBOL_POO_SYM_B20_0001407
 70
    64
 10
0.0
 20
0.0
 30
0.0
  3
ZU_SYM__USERS_HOME_SYMBOL_POO_SYM_B20_0001407
  1

  0
CIRCLE
  5
50C
100
AcDbEntity
  8
0
370
    -3
390
0
  6
Continuous
100
AcDbCircle
 10
0.0
 20
0.0
 30
0.0
 40
7.787524
  0
CIRCLE
  5
50D
100
AcDbEntity
  8
0
370
    -3
390
0
  6
Continuous
100
AcDbCircle
 10
0.0
 20
0.0
 30
0.0
 40
9.0
  0
POINT
  5
50E
100
AcDbEntity
  8
0
370
    -3
390
0
  6
Continuous
100
AcDbPoint
 10
0.0
 20
0.0
 30
0.0
  0
LINE
  5
50F
100
AcDbEntity
  8
0
370
    -3
390
0
  6
Continuous
100
AcDbLine
 10
-4.999998
 20
-2.886744
 30
0.0
 11
-4.999999
 21
2.886755
 31
0.0
  0
LINE
  5
510
100
AcDbEntity
  8
0
370
    -3
390
0
  6
Continuous
100
AcDbLine
 10
4.999998
 20
2.886743
 30
0.0
 11
4.999999
 21
-2.886755
 31
0.0
  0
LINE
  5
511
100
AcDbEntity
  8
0
370
    -3
390
0
  6
Continuous
100
AcDbLine
 10
4.999998
 20
2.886744
 30
0.0
 11
0.000009
 21
5.7735
 31
0.0
  0
LINE
  5
512
100
AcDbEntity
  8
0
370
    -3
390
0
  6
Continuous
100
AcDbLine
 10
-0.000009
 20
-5.773499
 30
0.0
 11
-4.999998
 21
-2.886745
 31
0.0
  0
LINE
  5
513
100
AcDbEntity
  8
0
370
    -3
390
0
  6
Continuous
100
AcDbLine
 10
-4.999999
 20
2.886755
 30
0.0
 11
0.000008
 21
5.773499
 31
0.0
  0
LINE
  5
514
100
AcDbEntity
  8
0
370
    -3
390
0
  6
Continuous
100
AcDbLine
 10
4.999999
 20
-2.886755
 30
0.0
 11
-0.000009
 21
-5.7735
 31
0.0
  0
ENDBLK
  5
515
100
AcDbEntity
  8
0
390
0
100
AcDbBlockEnd
  0
BLOCK
  5
518
100
AcDbEntity
  8
0
390
0
100
AcDbBlockBegin
  2
ZU_SYM__USERS_HOME_SYMBOL_POO_SYM_B20_0001505
 70
    64
 10
0.0
 20
0.0
 30
0.0
  3
ZU_SYM__USERS_HOME_SYMBOL_POO_SYM_B20_0001505
  1

  0
CIRCLE
  5
519
100
AcDbEntity
  8
0
370
    -3
390
0
  6
Continuous
100
AcDbCircle
 10
0.0
 20
0.0
 30
0.0
 40
5.633955
  0
CIRCLE
  5
51A
100
AcDbEntity
  8
0
370
    -3
390
0
  6
Continuous
100
AcDbCircle
 10
0.0
 20
0.0
 30
0.0
 40
6.5
  0
POINT
  5
51B
100
AcDbEntity
  8
0
370
    -3
390
0
  6
Continuous
100
AcDbPoint
 10
0.0
 20
0.0
 30
0.0
  0
LINE
  5
51C
100
AcDbEntity
  8
0
370
    -3
390
0
  6
Continuous
100
AcDbLine
 10
-2.999997
 20
-1.732046
 30
0.0
 11
-2.999998
 21
1.732052
 31
0.0
  0
LINE
  5
51D
100
AcDbEntity
  8
0
370
    -3
390
0
  6
Continuous
100
AcDbLine
 10
2.999997
 20
1.732047
 30
0.0
 11
2.999998
 21
-1.732051
 31
0.0
  0
LINE
  5
51E
100
AcDbEntity
  8
0
370
    -3
390
0
  6
Continuous
100
AcDbLine
 10
0.000007
 20
3.464097
 30
0.0
 11
-2.999998
 21
1.732052
 31
0.0
  0
LINE
  5
51F
100
AcDbEntity
  8
0
370
    -3
390
0
  6
Continuous
100
AcDbLine
 10
2.999998
 20
-1.732051
 30
0.0
 11
-0.000004
 21
-3.464098
 31
0.0
  0
LINE
  5
520
100
AcDbEntity
  8
0
370
    -3
390
0
  6
Continuous
100
AcDbLine
 10
0.000007
 20
3.464097
 30
0.0
 11
2.999997
 21
1.732047
 31
0.0
  0
LINE
  5
521
100
AcDbEntity
  8
0
370
    -3
390
0
  6
Continuous
100
AcDbLine
 10
-0.000005
 20
-3.464098
 30
0.0
 11
-2.999998
 21
-1.732046
 31
0.0
  0
ENDBLK
  5
522
100
AcDbEntity
  8
0
390
0
100
AcDbBlockEnd
  0
BLOCK
  5
58B
100
AcDbEntity
  8
0
390
0
100
AcDbBlockBegin
  2
ZU_SYM__USERS_HOME_SYMBOL_STD_SYM_B02_0001648
 70
    64
 10
0.0
 20
0.0
 30
0.0
  3
ZU_SYM__USERS_HOME_SYMBOL_STD_SYM_B02_0001648
  1

  0
ARC
  5
58C
100
AcDbEntity
  8
0
370
    -3
390
0
  6
Continuous
100
AcDbCircle
 10
4.25
 20
-0.000018
 30
0.0
 40
9.75
100
AcDbArc
 50
157.379853
 51
202.619583
  0
ARC
  5
58D
100
AcDbEntity
  8
0
370
    -3
390
0
  6
Continuous
100
AcDbCircle
 10
-2.779976
 20
5.625011
 30
0.0
 40
2.72
100
AcDbArc
 50
179.999745
 51
223.599739
  0
ARC
  5
58E
100
AcDbEntity
  8
0
370
    -3
390
0
  6
Continuous
100
AcDbCircle
 10
-2.780023
 20
-5.624989
 30
0.0
 40
2.72
100
AcDbArc
 50
136.399752
 51
179.999745
  0
LINE
  5
58F
100
AcDbEntity
  8
0
370
    -3
390
0
  6
Continuous
100
AcDbLine
 10
-4.749979
 20
3.750014
 30
0.0
 11
0.000018
 21
3.749996
 31
0.0
  0
LINE
  5
590
100
AcDbEntity
  8
0
370
    -3
390
0
  6
Continuous
100
AcDbLine
 10
-4.750012
 20
-3.749974
 30
0.0
 11
-0.000012
 21
-3.749994
 31
0.0
  0
LINE
  5
591
100
AcDbEntity
  8
0
370
    -3
390
0
  6
Continuous
100
AcDbLine
 10
0.000031
 20
7.5
 30
0.0
 11
-0.000031
 21
-7.5
 31
0.0
  0
LINE
  5
592
100
AcDbEntity
  8
0
370
    -3
390
0
  6
Continuous
100
AcDbLine
 10
-4.749965
 20
7.500017
 30
0.0
 11
0.000031
 21
7.499999
 31
0.0
  0
LINE
  5
593
100
AcDbEntity
  8
0
370
    -3
390
0
  6
Continuous
100
AcDbLine
 10
-5.499983
 20
6.300025
 30
0.0
 11
-4.749977
 21
7.500023
 31
0.0
  0
LINE
  5
594
100
AcDbEntity
  8
0
370
    -3
390
0
  6
Continuous
100
AcDbLine
 10
-5.500023
 20
-6.299976
 30
0.0
 11
-5.499971
 21
6.300019
 31
0.0
  0
LINE
  5
595
100
AcDbEntity
  8
0
370
    -3
390
0
  6
Continuous
100
AcDbLine
 10
-4.750049
 20
-7.499994
 30
0.0
 11
-5.500046
 21
-6.29999
 31
0.0
  0
LINE
  5
596
100
AcDbEntity
  8
0
370
    -3
390
0
  6
Continuous
100
AcDbLine
 10
-0.00003
 20
-7.499999
 30
0.0
 11
-4.750026
 21
-7.499979
 31
0.0
  0
POINT
  5
597
100
AcDbEntity
  8
0
370
    -3
390
0
  6
Continuous
100
AcDbPoint
 10
0.0
 20
0.0
 30
0.0
  0
ENDBLK
  5
598
100
AcDbEntity
  8
0
390
0
100
AcDbBlockEnd
  0
BLOCK
  5
5A0
100
AcDbEntity
  8
0
390
0
100
AcDbBlockBegin
  2
ZU_SYM__USERS_HOME_SYMBOL_POO_SYM_B20_0001720
 70
    64
 10
0.0
 20
0.0
 30
0.0
  3
ZU_SYM__USERS_HOME_SYMBOL_POO_SYM_B20_0001720
  1

  0
POINT
  5
5A1
100
AcDbEntity
  8
0
370
    -3
390
0
  6
Continuous
100
AcDbPoint
 10
0.0
 20
0.0
 30
0.0
  0
LINE
  5
5A2
100
AcDbEntity
  8
0
370
    -3
390
0
  6
Continuous
100
AcDbLine
 10
0.0
 20
9.0
 30
0.0
 11
0.0
 21
-9.0
 31
0.0
  0
LINE
  5
5A3
100
AcDbEntity
  8
0
370
    -3
390
0
  6
Continuous
100
AcDbLine
 10
-11.999958
 20
-7.787735
 30
0.0
 11
-11.999973
 21
7.78734
 31
0.0
  0
LINE
  5
5A4
100
AcDbEntity
  8
0
370
    -3
390
0
  6
Continuous
100
AcDbLine
 10
0.0
 20
-9.0
 30
0.0
 11
-11.299961
 21
-9.0
 31
0.0
  0
LINE
  5
5A5
100
AcDbEntity
  8
0
370
    -3
390
0
  6
Continuous
100
AcDbLine
 10
0.0
 20
9.0
 30
0.0
 11
-11.299976
 21
9.0
 31
0.0
  0
LINE
  5
5A6
100
AcDbEntity
  8
0
370
    -3
390
0
  6
Continuous
100
AcDbLine
 10
-11.299976
 20
8.999998
 30
0.0
 11
-11.999973
 21
7.787338
 31
0.0
  0
LINE
  5
5A7
100
AcDbEntity
  8
0
370
    -3
390
0
  6
Continuous
100
AcDbLine
 10
-11.299961
 20
-9.000002
 30
0.0
 11
-11.999958
 21
-7.787738
 31
0.0
  0
LINE
  5
5A8
100
AcDbEntity
  8
0
370
    -3
390
0
  6
Continuous
100
AcDbLine
 10
-11.299976
 20
9.0
 30
0.0
 11
-11.299976
 21
-9.0
 31
0.0
  0
ENDBLK
  5
5A9
100
AcDbEntity
  8
0
390
0
100
AcDbBlockEnd
  0
BLOCK
  5
5D0
100
AcDbEntity
  8
0
390
0
100
AcDbBlockBegin
  2
ZU_SYM__USERS_HOME_SYMBOL_POO_SYM_B20_0001820
 70
    64
 10
0.0
 20
0.0
 30
0.0
  3
ZU_SYM__USERS_HOME_SYMBOL_POO_SYM_B20_0001820
  1

  0
POINT
  5
5D1
100
AcDbEntity
  8
0
370
    -3
390
0
  6
Continuous
100
AcDbPoint
 10
0.0
 20
0.0
 30
0.0
  0
LINE
  5
5D2
100
AcDbEntity
  8
0
370
    -3
390
0
  6
Continuous
100
AcDbLine
 10
0.0
 20
9.0
 30
0.0
 11
0.0
 21
-9.0
 31
0.0
  0
LINE
  5
5D3
100
AcDbEntity
  8
0
370
    -3
390
0
  6
Continuous
100
AcDbLine
 10
-11.999958
 20
-7.787735
 30
0.0
 11
-11.999973
 21
7.78734
 31
0.0
  0
LINE
  5
5D4
100
AcDbEntity
  8
0
370
    -3
390
0
  6
Continuous
100
AcDbLine
 10
0.0
 20
-9.0
 30
0.0
 11
-11.299961
 21
-9.0
 31
0.0
  0
LINE
  5
5D5
100
AcDbEntity
  8
0
370
    -3
390
0
  6
Continuous
100
AcDbLine
 10
0.0
 20
9.0
 30
0.0
 11
-11.299976
 21
9.0
 31
0.0
  0
LINE
  5
5D6
100
AcDbEntity
  8
0
370
    -3
390
0
  6
Continuous
100
AcDbLine
 10
-11.299976
 20
8.999998
 30
0.0
 11
-11.999973
 21
7.787338
 31
0.0
  0
LINE
  5
5D7
100
AcDbEntity
  8
0
370
    -3
390
0
  6
Continuous
100
AcDbLine
 10
-11.299961
 20
-9.000002
 30
0.0
 11
-11.999958
 21
-7.787738
 31
0.0
  0
LINE
  5
5D8
100
AcDbEntity
  8
0
370
    -3
390
0
  6
Continuous
100
AcDbLine
 10
-11.299976
 20
9.0
 30
0.0
 11
-11.299976
 21
-9.0
 31
0.0
  0
ENDBLK
  5
5D9
100
AcDbEntity
  8
0
390
0
100
AcDbBlockEnd
  0
ENDSEC
  0
SECTION
  2
ENTITIES
  0
LINE
  5
29
100
AcDbEntity
  8
0
370
    -3
390
0
  6
Continuous
100
AcDbLine
 10
-585.177358
 20
2.548936
 30
0.0
 11
-585.177358
 21
-6.157282
 31
0.0
  0
LINE
  5
2A
100
AcDbEntity
  8
0
370
    -3
390
0
  6
Continuous
100
AcDbLine
 10
-581.324137
 20
-9.451057
 30
0.0
 11
-576.965223
 21
-9.451057
 31
0.0
  0
LINE
  5
2B
100
AcDbEntity
  8
0
370
    -3
390
0
  6
Continuous
100
AcDbLine
 10
-572.60631
 20
-9.451057
 30
0.0
 11
-576.965223
 21
-9.451057
 31
0.0
  0
LINE
  5
2C
100
AcDbEntity
  8
0
370
    -3
390
0
  6
Continuous
100
AcDbLine
 10
-580.868178
 20
-7.451064
 30
0.0
 11
-576.965223
 21
-7.451064
 31
0.0
  0
LINE
  5
2D
100
AcDbEntity
  8
0
370
    -3
390
0
  6
Continuous
100
AcDbLine
 10
-573.062268
 20
-7.451064
 30
0.0
 11
-576.965223
 21
-7.451064
 31
0.0
  0
LINE
  5
2E
100
AcDbEntity
  8
0
370
    -3
390
0
  6
Continuous
100
AcDbLine
 10
-580.868178
 20
2.548936
 30
0.0
 11
-580.868178
 21
-7.451064
 31
0.0
  0
LINE
  5
2F
100
AcDbEntity
  8
0
370
    -3
390
0
  6
Continuous
100
AcDbLine
 10
-573.062268
 20
2.548936
 30
0.0
 11
-573.062268
 21
-7.451064
 31
0.0
  0
LINE
  5
30
100
AcDbEntity
  8
0
370
    -3
390
0
  6
Continuous
100
AcDbLine
 10
-582.965232
 20
-8.451064
 30
0.0
 11
-576.965223
 21
-8.451064
 31
0.0
  0
LINE
  5
31
100
AcDbEntity
  8
0
370
    -3
390
0
  6
Continuous
100
AcDbLine
 10
-570.965214
 20
-8.451064
 30
0.0
 11
-576.965223
 21
-8.451064
 31
0.0
  0
LINE
  5
32
100
AcDbEntity
  8
0
370
    -3
390
0
  6
Continuous
100
AcDbLine
 10
-568.753089
 20
2.548936
 30
0.0
 11
-568.753089
 21
-6.157282
 31
0.0
  0
LINE
  5
33
100
AcDbEntity
  8
0
370
    -3
390
0
  6
Continuous
100
AcDbLine
 10
-586.504613
 20
2.548936
 30
0.0
 11
-576.965223
 21
2.548936
 31
0.0
  0
LINE
  5
34
100
AcDbEntity
  8
0
370
    -3
390
0
  6
Continuous
100
AcDbLine
 10
-585.625473
 20
4.548936
 30
0.0
 11
-576.965223
 21
4.548936
 31
0.0
  0
LINE
  5
35
100
AcDbEntity
  8
0
370
    -3
390
0
  6
Continuous
100
AcDbLine
 10
-568.304973
 20
4.548936
 30
0.0
 11
-576.965223
 21
4.548936
 31
0.0
  0
LINE
  5
36
100
AcDbEntity
  8
0
370
    -3
390
0
  6
Continuous
100
AcDbLine
 10
-567.425833
 20
2.548936
 30
0.0
 11
-576.965223
 21
2.548936
 31
0.0
  0
CIRCLE
  5
37
100
AcDbEntity
  8
0
370
    -3
390
0
  6
Continuous
100
AcDbCircle
 10
166.574826
 20
240.048936
 30
0.0
 40
16.0
  0
ARC
  5
38
100
AcDbEntity
  8
0
370
    -3
390
0
  6
Continuous
100
AcDbCircle
 10
-178.925174
 20
99.481434
 30
0.0
 40
9.0
100
AcDbArc
 50
253.398469
 51
286.601548
  0
ARC
  5
39
100
AcDbEntity
  8
0
370
    -3
390
0
  6
Continuous
100
AcDbCircle
 10
-176.925174
 20
92.498936
 30
0.0
 40
1.5
100
AcDbArc
 50
0.0
 51
32.230953
  0
LINE
  5
3A
100
AcDbEntity
  8
0
370
    -3
390
0
  6
Continuous
100
AcDbLine
 10
-175.425174
 20
92.102409
 30
0.0
 11
-175.425174
 21
92.498936
 31
0.0
  0
ARC
  5
3B
100
AcDbEntity
  8
0
370
    -3
390
0
  6
Continuous
100
AcDbCircle
 10
-176.725174
 20
92.102409
 30
0.0
 40
1.299999
100
AcDbArc
 50
286.601531
 51
0.0
  0
ARC
  5
3C
100
AcDbEntity
  8
0
370
    -3
390
0
  6
Continuous
100
AcDbCircle
 10
-181.125175
 20
92.102409
 30
0.0
 40
1.299999
100
AcDbArc
 50
180.0
 51
253.398469
  0
LINE
  5
3D
100
AcDbEntity
  8
0
370
    -3
390
0
  6
Continuous
100
AcDbLine
 10
-182.425174
 20
92.102409
 30
0.0
 11
-182.425174
 21
92.498936
 31
0.0
  0
ARC
  5
3E
100
AcDbEntity
  8
0
370
    -3
390
0
  6
Continuous
100
AcDbCircle
 10
-180.925174
 20
92.498936
 30
0.0
 40
1.5
100
AcDbArc
 50
147.769047
 51
180.0
  0
ARC
  5
3F
100
AcDbEntity
  8
0
370
    -3
390
0
  6
Continuous
100
AcDbCircle
 10
-566.465223
 20
-28.451064
 30
0.0
 40
10.0
100
AcDbArc
 50
270.0
 51
0.0
  0
LINE
  5
40
100
AcDbEntity
  8
0
370
    -3
390
0
  6
Continuous
100
AcDbLine
 10
-566.465223
 20
-38.451064
 30
0.0
 11
-587.465223
 21
-38.451064
 31
0.0
  0
ARC
  5
41
100
AcDbEntity
  8
0
370
    -3
390
0
  6
Continuous
100
AcDbCircle
 10
-587.465223
 20
-28.451064
 30
0.0
 40
10.0
100
AcDbArc
 50
180.0
 51
270.0
  0
ARC
  5
42
100
AcDbEntity
  8
0
370
    -3
390
0
  6
Continuous
100
AcDbCircle
 10
-423.965223
 20
-176.451064
 30
0.0
 40
7.787524
100
AcDbArc
 50
0.0
 51
180.0
  0
ARC
  5
43
100
AcDbEntity
  8
0
370
    -3
390
0
  6
DASHED
100
AcDbCircle
 10
1117.588649
 20
-159.951064
 30
0.0
 40
600.0
100
AcDbArc
 50
178.317231
 51
184.715125
  0
ARC
  5
44
100
AcDbEntity
  8
0
370
    -3
390
0
  6
DASHED
100
AcDbCircle
 10
532.840938
 20
-142.772168
 30
0.0
 40
15.0
100
AcDbArc
 50
99.318123
 51
178.317231
  0
ARC
  5
45
100
AcDbEntity
  8
0
370
    -3
390
0
  6
DASHED
100
AcDbCircle
 10
561.318549
 20
-118.374738
 30
0.0
 40
1.0
100
AcDbArc
 50
66.0
 51
156.0
  0
LINE
  5
46
100
AcDbEntity
  8
0
370
    -3
390
0
  6
DASHED
100
AcDbLine
 10
563.52922
 20
-120.293551
 30
0.0
 11
563.954052
 21
-121.294393
 31
0.0
  0
LINE
  5
47
100
AcDbEntity
  8
0
370
    -3
390
0
  6
DASHED
100
AcDbLine
 10
563.084306
 20
-121.292844
 30
0.0
 11
563.217648
 21
-121.606978
 31
0.0
  0
LINE
  5
48
100
AcDbEntity
  8
0
370
    -3
390
0
  6
DASHED
100
AcDbLine
 10
563.954052
 20
-121.294393
 30
0.0
 11
563.217648
 21
-121.606978
 31
0.0
  0
LINE
  5
49
100
AcDbEntity
  8
0
370
    -3
390
0
  6
DASHED
100
AcDbLine
 10
560.405003
 20
-117.968002
 30
0.0
 11
548.168756
 21
-145.451064
 31
0.0
  0
ARC
  5
4A
100
AcDbEntity
  8
0
370
    -3
390
0
  6
DASHED
100
AcDbCircle
 10
555.882088
 20
-120.750857
 30
0.0
 40
3.0
100
AcDbArc
 50
279.318123
 51
336.0
  0
LINE
  5
4B
100
AcDbEntity
  8
0
370
    -3
390
0
  6
DASHED
100
AcDbLine
 10
556.367835
 20
-123.71127
 30
0.0
 11
530.412198
 21
-127.9701
 31
0.0
  0
LINE
  5
4C
100
AcDbEntity
  8
0
370
    -3
390
0
  6
DASHED
100
AcDbLine
 10
561.725285
 20
-117.461193
 30
0.0
 11
564.283213
 21
-118.600055
 31
0.0
  0
LINE
  5
4D
100
AcDbEntity
  8
0
370
    -3
390
0
  6
DASHED
100
AcDbLine
 10
562.005488
 20
-123.71591
 30
0.0
 11
563.808859
 21
-124.518823
 31
0.0
  0
ARC
  5
4E
100
AcDbEntity
  8
0
370
    -3
390
0
  6
DASHED
100
AcDbCircle
 10
562.588649
 20
-127.259459
 30
0.0
 40
3.0
100
AcDbArc
 50
0.0
 51
66.0
  0
LINE
  5
4F
100
AcDbEntity
  8
0
370
    -3
390
0
  6
DASHED
100
AcDbLine
 10
564.283213
 20
-118.600055
 30
0.0
 11
518.566014
 21
-221.282565
 31
0.0
  0
ARC
  5
50
100
AcDbEntity
  8
0
370
    -3
390
0
  6
DASHED
100
AcDbCircle
 10
560.588649
 20
-201.451064
 30
0.0
 40
5.0
100
AcDbArc
 50
270.0
 51
0.0
  0
LINE
  5
51
100
AcDbEntity
  8
0
370
    -3
390
0
  6
DASHED
100
AcDbLine
 10
565.588649
 20
-127.259459
 30
0.0
 11
565.588649
 21
-201.451064
 31
0.0
  0
LINE
  5
52
100
AcDbEntity
  8
0
370
    -3
390
0
  6
DASHED
100
AcDbLine
 10
520.660708
 20
-216.577806
 30
0.0
 11
524.497599
 21
-218.2861
 31
0.0
  0
LINE
  5
53
100
AcDbEntity
  8
0
370
    -3
390
0
  6
DASHED
100
AcDbLine
 10
522.002939
 20
-213.563106
 30
0.0
 11
525.83983
 21
-215.2714
 31
0.0
  0
LINE
  5
54
100
AcDbEntity
  8
0
370
    -3
390
0
  6
DASHED
100
AcDbLine
 10
525.662446
 20
-214.809301
 30
0.0
 11
525.83983
 21
-215.2714
 31
0.0
  0
LINE
  5
55
100
AcDbEntity
  8
0
370
    -3
390
0
  6
DASHED
100
AcDbLine
 10
524.0355
 20
-218.463483
 30
0.0
 11
524.497599
 21
-218.2861
 31
0.0
  0
LINE
  5
56
100
AcDbEntity
  8
0
370
    -3
390
0
  6
DASHED
100
AcDbLine
 10
525.83983
 20
-215.2714
 30
0.0
 11
524.497599
 21
-218.2861
 31
0.0
  0
POINT
  5
57
100
AcDbEntity
  8
0
370
    -3
390
0
  6
DASHED
100
AcDbPoint
 10
517.86035
 20
-213.524856
 30
0.0
  0
LINE
  5
58
100
AcDbEntity
  8
0
370
    -3
390
0
  6
DASHED
100
AcDbLine
 10
548.168756
 20
-145.451064
 30
0.0
 11
515.501278
 21
-218.82342
 31
0.0
  0
LINE
  5
59
100
AcDbEntity
  8
0
370
    -3
390
0
  6
DASHED
100
AcDbLine
 10
516.436772
 20
-216.722266
 30
0.0
 11
515.542388
 21
-216.32406
 31
0.0
  0
LINE
  5
5A
100
AcDbEntity
  8
0
370
    -3
390
0
  6
DASHED
100
AcDbLine
 10
519.283929
 20
-210.327447
 30
0.0
 11
518.389545
 21
-209.929242
 31
0.0
  0
ARC
  5
5B
100
AcDbEntity
  8
0
370
    -3
390
0
  6
DASHED
100
AcDbCircle
 10
517.860787
 20
-211.11685
 30
0.0
 40
1.299999
100
AcDbArc
 50
65.999999
 51
139.398469
  0
ARC
  5
5C
100
AcDbEntity
  8
0
370
    -3
390
0
  6
DASHED
100
AcDbCircle
 10
518.6226
 20
-209.354223
 30
0.0
 40
1.0
100
AcDbArc
 50
336.0
 51
4.715125
  0
LINE
  5
5D
100
AcDbEntity
  8
0
370
    -3
390
0
  6
DASHED
100
AcDbLine
 10
560.588649
 20
-206.451064
 30
0.0
 11
525.169424
 21
-206.451064
 31
0.0
  0
LINE
  5
5E
100
AcDbEntity
  8
0
370
    -3
390
0
  6
DASHED
100
AcDbLine
 10
516.008087
 20
-220.143702
 30
0.0
 11
518.566014
 21
-221.282565
 31
0.0
  0
ARC
  5
5F
100
AcDbEntity
  8
0
370
    -3
390
0
  6
DASHED
100
AcDbCircle
 10
516.414823
 20
-219.230157
 30
0.0
 40
1.0
100
AcDbArc
 50
156.0
 51
246.0
  0
ARC
  5
60
100
AcDbEntity
  8
0
370
    -3
390
0
  6
DASHED
100
AcDbCircle
 10
519.793962
 20
-206.723302
 30
0.0
 40
1.0
100
AcDbArc
 50
336.0
 51
66.0
  0
ARC
  5
61
100
AcDbEntity
  8
0
370
    -3
390
0
  6
DASHED
100
AcDbCircle
 10
521.218635
 20
-204.073698
 30
0.0
 40
2.0
100
AcDbArc
 50
184.231338
 51
246.0
  0
LINE
  5
62
100
AcDbEntity
  8
0
370
    -3
390
0
  6
DASHED
100
AcDbLine
 10
522.145296
 20
-213.243365
 30
0.0
 11
525.662446
 21
-214.809301
 31
0.0
  0
LINE
  5
63
100
AcDbEntity
  8
0
370
    -3
390
0
  6
DASHED
100
AcDbLine
 10
520.51835
 20
-216.897547
 30
0.0
 11
524.0355
 21
-218.463483
 31
0.0
  0
ARC
  5
64
100
AcDbEntity
  8
0
370
    -3
390
0
  6
DASHED
100
AcDbCircle
 10
516.071145
 20
-215.136452
 30
0.0
 40
1.299999
100
AcDbArc
 50
172.601548
 51
246.000018
  0
ARC
  5
65
100
AcDbEntity
  8
0
370
    -3
390
0
  6
DASHED
100
AcDbCircle
 10
523.707041
 20
-216.127971
 30
0.0
 40
9.0
100
AcDbArc
 50
139.398469
 51
172.601548
  0
LINE
  5
66
100
AcDbEntity
  8
0
370
    -3
390
0
  6
Continuous
100
AcDbLine
 10
672.088649
 20
-15.451064
 30
0.0
 11
662.588649
 21
-15.451064
 31
0.0
  0
ARC
  5
67
100
AcDbEntity
  8
0
370
    -3
390
0
  6
Continuous
100
AcDbCircle
 10
672.088649
 20
-13.951064
 30
0.0
 40
1.5
100
AcDbArc
 50
270.0
 51
0.0
  0
LINE
  5
68
100
AcDbEntity
  8
0
370
    -3
390
0
  6
Continuous
100
AcDbLine
 10
677.838649
 20
-12.451064
 30
0.0
 11
662.588649
 21
-12.451064
 31
0.0
  0
LINE
  5
69
100
AcDbEntity
  8
0
370
    -3
390
0
  6
Continuous
100
AcDbLine
 10
675.588649
 20
4.548936
 30
0.0
 11
677.088649
 21
2.548936
 31
0.0
  0
LINE
  5
6A
100
AcDbEntity
  8
0
370
    -3
390
0
  6
Continuous
100
AcDbLine
 10
678.588649
 20
-8.451064
 30
0.0
 11
678.588649
 21
2.548936
 31
0.0
  0
LINE
  5
6B
100
AcDbEntity
  8
0
370
    -3
390
0
  6
Continuous
100
AcDbLine
 10
678.588649
 20
-8.451064
 30
0.0
 11
662.588649
 21
-8.451064
 31
0.0
  0
LINE
  5
6C
100
AcDbEntity
  8
0
370
    -3
390
0
  6
Continuous
100
AcDbLine
 10
675.588649
 20
4.548936
 30
0.0
 11
677.088649
 21
2.548936
 31
0.0
  0
LINE
  5
6D
100
AcDbEntity
  8
0
370
    -3
390
0
  6
Continuous
100
AcDbLine
 10
678.588649
 20
-8.451064
 30
0.0
 11
678.588649
 21
2.548936
 31
0.0
  0
LINE
  5
6E
100
AcDbEntity
  8
0
370
    -3
390
0
  6
Continuous
100
AcDbLine
 10
678.588649
 20
-7.451064
 30
0.0
 11
678.105315
 21
-7.451064
 31
0.0
  0
LINE
  5
6F
100
AcDbEntity
  8
0
370
    -3
390
0
  6
Continuous
100
AcDbLine
 10
677.838649
 20
-9.451064
 30
0.0
 11
677.838649
 21
-12.451064
 31
0.0
  0
ARC
  5
70
100
AcDbEntity
  8
0
370
    -3
390
0
  6
Continuous
100
AcDbCircle
 10
672.088649
 20
-13.951064
 30
0.0
 40
1.5
100
AcDbArc
 50
0.0
 51
90.0
  0
LINE
  5
71
100
AcDbEntity
  8
0
370
    -3
390
0
  6
Continuous
100
AcDbLine
 10
666.491603
 20
2.548936
 30
0.0
 11
666.491603
 21
-7.451064
 31
0.0
  0
LINE
  5
72
100
AcDbEntity
  8
0
370
    -3
390
0
  6
Continuous
100
AcDbLine
 10
670.800783
 20
2.548936
 30
0.0
 11
670.800783
 21
-7.451064
 31
0.0
  0
LINE
  5
73
100
AcDbEntity
  8
0
370
    -3
390
0
  6
Continuous
100
AcDbLine
 10
676.320395
 20
2.548936
 30
0.0
 11
676.320395
 21
-7.451064
 31
0.0
  0
LINE
  5
74
100
AcDbEntity
  8
0
370
    -3
390
0
  6
Continuous
100
AcDbLine
 10
678.105315
 20
2.548936
 30
0.0
 11
678.105315
 21
-7.451064
 31
0.0
  0
LINE
  5
75
100
AcDbEntity
  8
0
370
    -3
390
0
  6
Continuous
100
AcDbLine
 10
676.320395
 20
-7.451064
 30
0.0
 11
670.800783
 21
-7.451064
 31
0.0
  0
LINE
  5
76
100
AcDbEntity
  8
0
370
    -3
390
0
  6
Continuous
100
AcDbLine
 10
675.588649
 20
4.548936
 30
0.0
 11
662.588649
 21
4.548936
 31
0.0
  0
LINE
  5
77
100
AcDbEntity
  8
0
370
    -3
390
0
  6
Continuous
100
AcDbLine
 10
678.588649
 20
2.548936
 30
0.0
 11
662.588649
 21
2.548936
 31
0.0
  0
LINE
  5
78
100
AcDbEntity
  8
0
370
    -3
390
0
  6
Continuous
100
AcDbLine
 10
666.491603
 20
-7.451064
 30
0.0
 11
662.588649
 21
-7.451064
 31
0.0
  0
LINE
  5
79
100
AcDbEntity
  8
0
370
    -3
390
0
  6
Continuous
100
AcDbLine
 10
677.838649
 20
-9.451064
 30
0.0
 11
662.588649
 21
-9.451064
 31
0.0
  0
LINE
  5
7A
100
AcDbEntity
  8
0
370
    -3
390
0
  6
Continuous
100
AcDbLine
 10
653.088649
 20
-15.451064
 30
0.0
 11
662.588649
 21
-15.451064
 31
0.0
  0
ARC
  5
7B
100
AcDbEntity
  8
0
370
    -3
390
0
  6
Continuous
100
AcDbCircle
 10
653.088649
 20
-13.951064
 30
0.0
 40
1.5
100
AcDbArc
 50
180.0
 51
270.0
  0
LINE
  5
7C
100
AcDbEntity
  8
0
370
    -3
390
0
  6
Continuous
100
AcDbLine
 10
649.588649
 20
4.548936
 30
0.0
 11
662.588649
 21
4.548936
 31
0.0
  0
LINE
  5
7D
100
AcDbEntity
  8
0
370
    -3
390
0
  6
Continuous
100
AcDbLine
 10
647.338649
 20
-12.451064
 30
0.0
 11
662.588649
 21
-12.451064
 31
0.0
  0
LINE
  5
7E
100
AcDbEntity
  8
0
370
    -3
390
0
  6
Continuous
100
AcDbLine
 10
646.588649
 20
2.548936
 30
0.0
 11
662.588649
 21
2.548936
 31
0.0
  0
LINE
  5
7F
100
AcDbEntity
  8
0
370
    -3
390
0
  6
Continuous
100
AcDbLine
 10
649.588649
 20
4.548936
 30
0.0
 11
648.088649
 21
2.548936
 31
0.0
  0
LINE
  5
80
100
AcDbEntity
  8
0
370
    -3
390
0
  6
Continuous
100
AcDbLine
 10
646.588649
 20
-8.451064
 30
0.0
 11
646.588649
 21
2.548936
 31
0.0
  0
LINE
  5
81
100
AcDbEntity
  8
0
370
    -3
390
0
  6
Continuous
100
AcDbLine
 10
646.588649
 20
-8.451064
 30
0.0
 11
662.588649
 21
-8.451064
 31
0.0
  0
LINE
  5
82
100
AcDbEntity
  8
0
370
    -3
390
0
  6
Continuous
100
AcDbLine
 10
649.588649
 20
4.548936
 30
0.0
 11
648.088649
 21
2.548936
 31
0.0
  0
LINE
  5
83
100
AcDbEntity
  8
0
370
    -3
390
0
  6
Continuous
100
AcDbLine
 10
646.588649
 20
-8.451064
 30
0.0
 11
646.588649
 21
2.548936
 31
0.0
  0
LINE
  5
84
100
AcDbEntity
  8
0
370
    -3
390
0
  6
Continuous
100
AcDbLine
 10
646.588649
 20
-7.451064
 30
0.0
 11
647.071982
 21
-7.451064
 31
0.0
  0
LINE
  5
85
100
AcDbEntity
  8
0
370
    -3
390
0
  6
Continuous
100
AcDbLine
 10
647.338649
 20
-9.451064
 30
0.0
 11
662.588649
 21
-9.451064
 31
0.0
  0
LINE
  5
86
100
AcDbEntity
  8
0
370
    -3
390
0
  6
Continuous
100
AcDbLine
 10
647.338649
 20
-9.451064
 30
0.0
 11
647.338649
 21
-12.451064
 31
0.0
  0
ARC
  5
87
100
AcDbEntity
  8
0
370
    -3
390
0
  6
Continuous
100
AcDbCircle
 10
653.088649
 20
-13.951064
 30
0.0
 40
1.5
100
AcDbArc
 50
90.0
 51
180.0
  0
LINE
  5
88
100
AcDbEntity
  8
0
370
    -3
390
0
  6
Continuous
100
AcDbLine
 10
658.685694
 20
2.548936
 30
0.0
 11
658.685694
 21
-7.451064
 31
0.0
  0
LINE
  5
89
100
AcDbEntity
  8
0
370
    -3
390
0
  6
Continuous
100
AcDbLine
 10
654.376514
 20
2.548936
 30
0.0
 11
654.376514
 21
-7.451064
 31
0.0
  0
LINE
  5
8A
100
AcDbEntity
  8
0
370
    -3
390
0
  6
Continuous
100
AcDbLine
 10
648.856903
 20
2.548936
 30
0.0
 11
648.856903
 21
-7.451064
 31
0.0
  0
LINE
  5
8B
100
AcDbEntity
  8
0
370
    -3
390
0
  6
Continuous
100
AcDbLine
 10
647.071982
 20
2.548936
 30
0.0
 11
647.071982
 21
-7.451064
 31
0.0
  0
LINE
  5
8C
100
AcDbEntity
  8
0
370
    -3
390
0
  6
Continuous
100
AcDbLine
 10
658.685694
 20
-7.451064
 30
0.0
 11
662.588649
 21
-7.451064
 31
0.0
  0
LINE
  5
8D
100
AcDbEntity
  8
0
370
    -3
390
0
  6
Continuous
100
AcDbLine
 10
648.856903
 20
-7.451064
 30
0.0
 11
654.376514
 21
-7.451064
 31
0.0
  0
ARC
  5
8E
100
AcDbEntity
  8
0
370
    -3
390
0
  6
Continuous
100
AcDbCircle
 10
662.588649
 20
-0.451064
 30
0.0
 40
10.0
100
AcDbArc
 50
30.0
 51
150.0
  0
LINE
  5
8F
100
AcDbEntity
  8
0
370
    -3
390
0
  6
Continuous
100
AcDbLine
 10
180.306572
 20
-8.149266
 30
0.0
 11
174.78696
 21
-8.149266
 31
0.0
  0
LINE
  5
90
100
AcDbEntity
  8
0
370
    -3
390
0
  6
Continuous
100
AcDbLine
 10
182.091492
 20
1.850734
 30
0.0
 11
182.091492
 21
-8.149266
 31
0.0
  0
LINE
  5
91
100
AcDbEntity
  8
0
370
    -3
390
0
  6
Continuous
100
AcDbLine
 10
180.306572
 20
1.850734
 30
0.0
 11
180.306572
 21
-8.149266
 31
0.0
  0
LINE
  5
92
100
AcDbEntity
  8
0
370
    -3
390
0
  6
Continuous
100
AcDbLine
 10
174.78696
 20
1.850734
 30
0.0
 11
174.78696
 21
-8.149266
 31
0.0
  0
LINE
  5
93
100
AcDbEntity
  8
0
370
    -3
390
0
  6
Continuous
100
AcDbLine
 10
170.47778
 20
1.850734
 30
0.0
 11
170.47778
 21
-8.149266
 31
0.0
  0
ARC
  5
94
100
AcDbEntity
  8
0
370
    -3
390
0
  6
Continuous
100
AcDbCircle
 10
176.074826
 20
-14.649266
 30
0.0
 40
1.5
100
AcDbArc
 50
0.0
 51
90.0
  0
LINE
  5
95
100
AcDbEntity
  8
0
370
    -3
390
0
  6
Continuous
100
AcDbLine
 10
181.824826
 20
-10.149266
 30
0.0
 11
181.824826
 21
-13.149266
 31
0.0
  0
LINE
  5
96
100
AcDbEntity
  8
0
370
    -3
390
0
  6
Continuous
100
AcDbLine
 10
182.574826
 20
-8.149266
 30
0.0
 11
182.091492
 21
-8.149266
 31
0.0
  0
LINE
  5
97
100
AcDbEntity
  8
0
370
    -3
390
0
  6
Continuous
100
AcDbLine
 10
182.574826
 20
-9.149266
 30
0.0
 11
182.574826
 21
1.850734
 31
0.0
  0
LINE
  5
98
100
AcDbEntity
  8
0
370
    -3
390
0
  6
Continuous
100
AcDbLine
 10
179.574826
 20
3.850734
 30
0.0
 11
181.074826
 21
1.850734
 31
0.0
  0
LINE
  5
99
100
AcDbEntity
  8
0
370
    -3
390
0
  6
Continuous
100
AcDbLine
 10
182.574826
 20
-9.149266
 30
0.0
 11
166.574826
 21
-9.149266
 31
0.0
  0
LINE
  5
9A
100
AcDbEntity
  8
0
370
    -3
390
0
  6
Continuous
100
AcDbLine
 10
182.574826
 20
-9.149266
 30
0.0
 11
182.574826
 21
1.850734
 31
0.0
  0
LINE
  5
9B
100
AcDbEntity
  8
0
370
    -3
390
0
  6
Continuous
100
AcDbLine
 10
179.574826
 20
3.850734
 30
0.0
 11
181.074826
 21
1.850734
 31
0.0
  0
LINE
  5
9C
100
AcDbEntity
  8
0
370
    -3
390
0
  6
Continuous
100
AcDbLine
 10
181.824826
 20
-13.149266
 30
0.0
 11
166.574826
 21
-13.149266
 31
0.0
  0
ARC
  5
9D
100
AcDbEntity
  8
0
370
    -3
390
0
  6
Continuous
100
AcDbCircle
 10
176.074826
 20
-14.649266
 30
0.0
 40
1.5
100
AcDbArc
 50
270.0
 51
0.0
  0
LINE
  5
9E
100
AcDbEntity
  8
0
370
    -3
390
0
  6
Continuous
100
AcDbLine
 10
176.074826
 20
-16.149266
 30
0.0
 11
166.574826
 21
-16.149266
 31
0.0
  0
LINE
  5
9F
100
AcDbEntity
  8
0
370
    -3
390
0
  6
Continuous
100
AcDbLine
 10
162.671871
 20
-8.149266
 30
0.0
 11
166.574826
 21
-8.149266
 31
0.0
  0
LINE
  5
A0
100
AcDbEntity
  8
0
370
    -3
390
0
  6
Continuous
100
AcDbLine
 10
151.058159
 20
1.850734
 30
0.0
 11
151.058159
 21
-8.149266
 31
0.0
  0
LINE
  5
A1
100
AcDbEntity
  8
0
370
    -3
390
0
  6
Continuous
100
AcDbLine
 10
152.84308
 20
1.850734
 30
0.0
 11
152.84308
 21
-8.149266
 31
0.0
  0
LINE
  5
A2
100
AcDbEntity
  8
0
370
    -3
390
0
  6
Continuous
100
AcDbLine
 10
158.362691
 20
1.850734
 30
0.0
 11
158.362691
 21
-8.149266
 31
0.0
  0
LINE
  5
A3
100
AcDbEntity
  8
0
370
    -3
390
0
  6
Continuous
100
AcDbLine
 10
162.671871
 20
1.850734
 30
0.0
 11
162.671871
 21
-8.149266
 31
0.0
  0
ARC
  5
A4
100
AcDbEntity
  8
0
370
    -3
390
0
  6
Continuous
100
AcDbCircle
 10
157.074826
 20
-14.649266
 30
0.0
 40
1.5
100
AcDbArc
 50
90.0
 51
180.0
  0
LINE
  5
A5
100
AcDbEntity
  8
0
370
    -3
390
0
  6
Continuous
100
AcDbLine
 10
151.324826
 20
-10.149266
 30
0.0
 11
151.324826
 21
-13.149266
 31
0.0
  0
LINE
  5
A6
100
AcDbEntity
  8
0
370
    -3
390
0
  6
Continuous
100
AcDbLine
 10
151.324826
 20
-10.149266
 30
0.0
 11
166.574826
 21
-10.149266
 31
0.0
  0
LINE
  5
A7
100
AcDbEntity
  8
0
370
    -3
390
0
  6
Continuous
100
AcDbLine
 10
150.574826
 20
-8.149266
 30
0.0
 11
151.058159
 21
-8.149266
 31
0.0
  0
LINE
  5
A8
100
AcDbEntity
  8
0
370
    -3
390
0
  6
Continuous
100
AcDbLine
 10
150.574826
 20
-9.149266
 30
0.0
 11
150.574826
 21
1.850734
 31
0.0
  0
LINE
  5
A9
100
AcDbEntity
  8
0
370
    -3
390
0
  6
Continuous
100
AcDbLine
 10
153.574826
 20
3.850734
 30
0.0
 11
152.074826
 21
1.850734
 31
0.0
  0
LINE
  5
AA
100
AcDbEntity
  8
0
370
    -3
390
0
  6
Continuous
100
AcDbLine
 10
150.574826
 20
-9.149266
 30
0.0
 11
166.574826
 21
-9.149266
 31
0.0
  0
LINE
  5
AB
100
AcDbEntity
  8
0
370
    -3
390
0
  6
Continuous
100
AcDbLine
 10
150.574826
 20
-9.149266
 30
0.0
 11
150.574826
 21
1.850734
 31
0.0
  0
LINE
  5
AC
100
AcDbEntity
  8
0
370
    -3
390
0
  6
Continuous
100
AcDbLine
 10
153.574826
 20
3.850734
 30
0.0
 11
152.074826
 21
1.850734
 31
0.0
  0
LINE
  5
AD
100
AcDbEntity
  8
0
370
    -3
390
0
  6
Continuous
100
AcDbLine
 10
150.574826
 20
1.850734
 30
0.0
 11
166.574826
 21
1.850734
 31
0.0
  0
LINE
  5
AE
100
AcDbEntity
  8
0
370
    -3
390
0
  6
Continuous
100
AcDbLine
 10
151.324826
 20
-13.149266
 30
0.0
 11
166.574826
 21
-13.149266
 31
0.0
  0
LINE
  5
AF
100
AcDbEntity
  8
0
370
    -3
390
0
  6
Continuous
100
AcDbLine
 10
153.574826
 20
3.850734
 30
0.0
 11
166.574826
 21
3.850734
 31
0.0
  0
ARC
  5
B0
100
AcDbEntity
  8
0
370
    -3
390
0
  6
Continuous
100
AcDbCircle
 10
157.074826
 20
-14.649266
 30
0.0
 40
1.5
100
AcDbArc
 50
180.0
 51
241.787395
  0
LINE
  5
B1
100
AcDbEntity
  8
0
370
    -3
390
0
  6
Continuous
100
AcDbLine
 10
181.824826
 20
-10.149266
 30
0.0
 11
166.574826
 21
-10.149266
 31
0.0
  0
LINE
  5
B2
100
AcDbEntity
  8
0
370
    -3
390
0
  6
Continuous
100
AcDbLine
 10
170.47778
 20
-8.149266
 30
0.0
 11
166.574826
 21
-8.149266
 31
0.0
  0
LINE
  5
B3
100
AcDbEntity
  8
0
370
    -3
390
0
  6
Continuous
100
AcDbLine
 10
182.574826
 20
1.850734
 30
0.0
 11
166.574826
 21
1.850734
 31
0.0
  0
LINE
  5
B4
100
AcDbEntity
  8
0
370
    -3
390
0
  6
Continuous
100
AcDbLine
 10
179.574826
 20
3.850734
 30
0.0
 11
166.574826
 21
3.850734
 31
0.0
  0
LINE
  5
B5
100
AcDbEntity
  8
0
370
    -3
390
0
  6
Continuous
100
AcDbLine
 10
152.84308
 20
-8.149266
 30
0.0
 11
158.362691
 21
-8.149266
 31
0.0
  0
LINE
  5
B6
100
AcDbEntity
  8
0
370
    -3
390
0
  6
Continuous
100
AcDbLine
 10
98.574826
 20
-38.451064
 30
0.0
 11
101.074863
 21
-38.451064
 31
0.0
  0
LINE
  5
B7
100
AcDbEntity
  8
0
370
    -3
390
0
  6
Continuous
100
AcDbLine
 10
98.574826
 20
-38.451064
 30
0.0
 11
101.074862
 21
-38.451064
 31
0.0
  0
INSERT
  5
C3
100
AcDbEntity
  8
0
390
0
100
AcDbBlockReference
  2
ZU_SYM__USERS_HOME_SYMBOL_POO_SYM_B20_18
 10
98.574826
 20
-28.451064
 30
0.0
  0
LINE
  5
C4
100
AcDbEntity
  8
0
370
    -3
390
0
  6
CENTER
100
AcDbLine
 10
-340.744903
 20
-159.951064
 30
0.0
 11
10.296819
 21
-159.951064
 31
0.0
  0
LINE
  5
C5
100
AcDbEntity
  8
0
370
    -3
390
0
  6
Continuous
100
AcDbLine
 10
355.57481
 20
-136.451064
 30
0.0
 11
418.57481
 21
-136.451064
 31
0.0
  0
LINE
  5
C6
100
AcDbEntity
  8
0
370
    -3
390
0
  6
Continuous
100
AcDbLine
 10
355.57481
 20
-154.451064
 30
0.0
 11
418.57481
 21
-154.451064
 31
0.0
  0
ARC
  5
C7
100
AcDbEntity
  8
0
370
    -3
390
0
  6
Continuous
100
AcDbCircle
 10
355.57481
 20
-145.451064
 30
0.0
 40
9.0
100
AcDbArc
 50
90.0
 51
270.0
  0
LINE
  5
C8
100
AcDbEntity
  8
0
370
    -3
390
0
  6
CENTER
100
AcDbLine
 10
166.574826
 20
5.083222
 30
0.0
 11
166.574826
 21
-28.361193
 31
0.0
  0
ARC
  5
C9
100
AcDbEntity
  8
0
370
    -3
390
0
  6
Continuous
100
AcDbCircle
 10
417.77481
 20
-116.251064
 30
0.0
 40
0.8
100
AcDbArc
 50
0.0
 51
90.0
  0
LINE
  5
CA
100
AcDbEntity
  8
0
370
    -3
390
0
  6
Continuous
100
AcDbLine
 10
417.77481
 20
-115.451064
 30
0.0
 11
331.134618
 21
-115.451064
 31
0.0
  0
LINE
  5
CB
100
AcDbEntity
  8
0
370
    -3
390
0
  6
Continuous
100
AcDbLine
 10
418.57481
 20
-145.451064
 30
0.0
 11
418.57481
 21
-116.251064
 31
0.0
  0
LINE
  5
CC
100
AcDbEntity
  8
0
370
    -3
390
0
  6
Continuous
100
AcDbLine
 10
330.57481
 20
-115.601064
 30
0.0
 11
329.37481
 21
-115.601064
 31
0.0
  0
LINE
  5
CD
100
AcDbEntity
  8
0
370
    -3
390
0
  6
Continuous
100
AcDbLine
 10
331.134618
 20
-115.451064
 30
0.0
 11
330.57481
 21
-115.601064
 31
0.0
  0
ARC
  5
CE
100
AcDbEntity
  8
0
370
    -3
390
0
  6
Continuous
100
AcDbCircle
 10
329.37481
 20
-114.801064
 30
0.0
 40
0.8
100
AcDbArc
 50
180.0
 51
270.0
  0
LINE
  5
CF
100
AcDbEntity
  8
0
370
    -3
390
0
  6
Continuous
100
AcDbLine
 10
328.57481
 20
-114.751064
 30
0.0
 11
327.77481
 21
-113.951064
 31
0.0
  0
LINE
  5
D0
100
AcDbEntity
  8
0
370
    -3
390
0
  6
Continuous
100
AcDbLine
 10
328.57481
 20
-145.451064
 30
0.0
 11
328.57481
 21
-114.751064
 31
0.0
  0
LINE
  5
D1
100
AcDbEntity
  8
0
370
    -3
390
0
  6
Continuous
100
AcDbLine
 10
327.77481
 20
-113.951064
 30
0.0
 11
323.57481
 21
-113.951064
 31
0.0
  0
LINE
  5
D2
100
AcDbEntity
  8
0
370
    -3
390
0
  6
Continuous
100
AcDbLine
 10
330.57481
 20
-175.301064
 30
0.0
 11
329.37481
 21
-175.301064
 31
0.0
  0
LINE
  5
D3
100
AcDbEntity
  8
0
370
    -3
390
0
  6
Continuous
100
AcDbLine
 10
331.134618
 20
-175.451064
 30
0.0
 11
330.57481
 21
-175.301064
 31
0.0
  0
ARC
  5
D4
100
AcDbEntity
  8
0
370
    -3
390
0
  6
Continuous
100
AcDbCircle
 10
329.37481
 20
-176.101064
 30
0.0
 40
0.8
100
AcDbArc
 50
90.0
 51
180.0
  0
LINE
  5
D5
100
AcDbEntity
  8
0
370
    -3
390
0
  6
Continuous
100
AcDbLine
 10
328.57481
 20
-176.151064
 30
0.0
 11
327.77481
 21
-176.951064
 31
0.0
  0
LINE
  5
D6
100
AcDbEntity
  8
0
370
    -3
390
0
  6
Continuous
100
AcDbLine
 10
328.57481
 20
-145.451064
 30
0.0
 11
328.57481
 21
-176.151064
 31
0.0
  0
LINE
  5
D7
100
AcDbEntity
  8
0
370
    -3
390
0
  6
Continuous
100
AcDbLine
 10
417.77481
 20
-175.451064
 30
0.0
 11
331.134618
 21
-175.451064
 31
0.0
  0
LINE
  5
D8
100
AcDbEntity
  8
0
370
    -3
390
0
  6
Continuous
100
AcDbLine
 10
327.77481
 20
-176.951064
 30
0.0
 11
323.57481
 21
-176.951064
 31
0.0
  0
ARC
  5
D9
100
AcDbEntity
  8
0
370
    -3
390
0
  6
Continuous
100
AcDbCircle
 10
417.77481
 20
-174.651064
 30
0.0
 40
0.8
100
AcDbArc
 50
270.0
 51
0.0
  0
LINE
  5
DA
100
AcDbEntity
  8
0
370
    -3
390
0
  6
Continuous
100
AcDbLine
 10
418.57481
 20
-145.451064
 30
0.0
 11
418.57481
 21
-174.651064
 31
0.0
  0
ARC
  5
DB
100
AcDbEntity
  8
0
370
    -3
390
0
  6
Continuous
100
AcDbCircle
 10
127.574826
 20
-333.833527
 30
0.0
 40
2.0
100
AcDbArc
 50
280.910564
 51
0.0
  0
ARC
  5
DC
100
AcDbEntity
  8
0
370
    -3
390
0
  6
Continuous
100
AcDbCircle
 10
200.051397
 20
-335.133873
 30
0.0
 40
6.0
100
AcDbArc
 50
219.658939
 51
268.0
  0
ARC
  5
DD
100
AcDbEntity
  8
0
370
    -3
390
0
  6
Continuous
100
AcDbCircle
 10
48.574826
 20
-350.07268
 30
0.0
 40
5.0
100
AcDbArc
 50
94.50416
 51
180.0
  0
ARC
  5
DE
100
AcDbEntity
  8
0
370
    -3
390
0
  6
Continuous
100
AcDbCircle
 10
100.768885
 20
-334.927028
 30
0.0
 40
6.0
100
AcDbArc
 50
274.50416
 51
280.910564
  0
ARC
  5
DF
100
AcDbEntity
  8
0
370
    -3
390
0
  6
Continuous
100
AcDbCircle
 10
181.574826
 20
-350.451064
 30
0.0
 40
18.0
100
AcDbArc
 50
39.658939
 51
90.0
  0
CIRCLE
  5
E0
100
AcDbEntity
  8
0
370
    -3
390
0
  6
Continuous
100
AcDbCircle
 10
181.574826
 20
-350.451064
 30
0.0
 40
10.5
  0
CIRCLE
  5
E1
100
AcDbEntity
  8
0
370
    -3
390
0
  6
Continuous
100
AcDbCircle
 10
181.574826
 20
-350.451064
 30
0.0
 40
9.0
  0
ARC
  5
E2
100
AcDbEntity
  8
0
370
    -3
390
0
  6
Continuous
100
AcDbCircle
 10
324.574826
 20
-344.988005
 30
0.0
 40
3.0
100
AcDbArc
 50
180.0
 51
221.409622
  0
ARC
  5
E3
100
AcDbEntity
  8
0
370
    -3
390
0
  6
Continuous
100
AcDbCircle
 10
318.574826
 20
-350.279508
 30
0.0
 40
5.0
100
AcDbArc
 50
0.0
 51
88.0
  0
CIRCLE
  5
E4
100
AcDbEntity
  8
0
370
    -3
390
0
  6
Continuous
100
AcDbCircle
 10
151.574826
 20
-278.451064
 30
0.0
 40
15.0
  0
ARC
  5
E5
100
AcDbEntity
  8
0
370
    -3
390
0
  6
Continuous
100
AcDbCircle
 10
315.970363
 20
-342.183681
 30
0.0
 40
3.0
100
AcDbArc
 50
180.0
 51
268.0
  0
ARC
  5
E6
100
AcDbEntity
  8
0
370
    -3
390
0
  6
Continuous
100
AcDbCircle
 10
274.487916
 20
-340.735082
 30
0.0
 40
3.0
100
AcDbArc
 50
180.0
 51
268.0
  0
ARC
  5
E7
100
AcDbEntity
  8
0
370
    -3
390
0
  6
Continuous
100
AcDbCircle
 10
127.574826
 20
-318.451064
 30
0.0
 40
2.0
100
AcDbArc
 50
0.0
 51
90.0
  0
ARC
  5
E8
100
AcDbEntity
  8
0
370
    -3
390
0
  6
Continuous
100
AcDbCircle
 10
229.829585
 20
-117.268615
 30
0.0
 40
100.0
100
AcDbArc
 50
23.808557
 51
89.0
  0
ARC
  5
E9
100
AcDbEntity
  8
0
370
    -3
390
0
  6
Continuous
100
AcDbCircle
 10
318.574826
 20
-78.111467
 30
0.0
 40
3.0
100
AcDbArc
 50
0.0
 51
23.808557
  0
ARC
  5
EA
100
AcDbEntity
  8
0
370
    -3
390
0
  6
Continuous
100
AcDbCircle
 10
322.574826
 20
-91.951064
 30
0.0
 40
1.0
100
AcDbArc
 50
180.0
 51
270.0
  0
ARC
  5
EB
100
AcDbEntity
  8
0
370
    -3
390
0
  6
Continuous
100
AcDbCircle
 10
322.574826
 20
-198.951064
 30
0.0
 40
1.0
100
AcDbArc
 50
90.0
 51
180.0
  0
LINE
  5
EC
100
AcDbEntity
  8
0
370
    -3
390
0
  6
CENTER
100
AcDbLine
 10
424.229934
 20
-145.451064
 30
0.0
 11
264.434186
 21
-145.451064
 31
0.0
  0
LINE
  5
ED
100
AcDbEntity
  8
0
370
    -3
390
0
  6
Continuous
100
AcDbLine
 10
181.574826
 20
-332.451064
 30
0.0
 11
129.606503
 21
-330.63629
 31
0.0
  0
LINE
  5
EE
100
AcDbEntity
  8
0
370
    -3
390
0
  6
Continuous
100
AcDbLine
 10
126.81042
 20
-338.8942
 30
0.0
 11
96.574826
 21
-341.276002
 31
0.0
  0
LINE
  5
EF
100
AcDbEntity
  8
0
370
    -3
390
0
  6
Continuous
100
AcDbLine
 10
127.953379
 20
-335.797375
 30
0.0
 11
101.904544
 21
-340.818571
 31
0.0
  0
LINE
  5
F0
100
AcDbEntity
  8
0
370
    -3
390
0
  6
Continuous
100
AcDbLine
 10
129.574826
 20
-335.903465
 30
0.0
 11
129.574826
 21
-318.451064
 31
0.0
  0
LINE
  5
F1
100
AcDbEntity
  8
0
370
    -3
390
0
  6
CENTER
100
AcDbLine
 10
197.134575
 20
-350.451064
 30
0.0
 11
168.013825
 21
-350.451064
 31
0.0
  0
LINE
  5
F2
100
AcDbEntity
  8
0
370
    -3
390
0
  6
CENTER
100
AcDbLine
 10
181.574826
 20
-335.449436
 30
0.0
 11
181.574826
 21
-365.625286
 31
0.0
  0
LINE
  5
F3
100
AcDbEntity
  8
0
370
    -3
390
0
  6
Continuous
100
AcDbLine
 10
199.842
 20
-341.130218
 30
0.0
 11
270.574826
 21
-343.600263
 31
0.0
  0
LINE
  5
F4
100
AcDbEntity
  8
0
370
    -3
390
0
  6
Continuous
100
AcDbLine
 10
322.574826
 20
-197.951064
 30
0.0
 11
323.574826
 21
-197.951064
 31
0.0
  0
LINE
  5
F5
100
AcDbEntity
  8
0
370
    -3
390
0
  6
Continuous
100
AcDbLine
 10
322.574826
 20
-92.951064
 30
0.0
 11
323.574826
 21
-92.951064
 31
0.0
  0
LINE
  5
F6
100
AcDbEntity
  8
0
370
    -3
390
0
  6
Continuous
100
AcDbLine
 10
271.487916
 20
-155.451064
 30
0.0
 11
271.487916
 21
-340.735082
 31
0.0
  0
LINE
  5
F7
100
AcDbEntity
  8
0
370
    -3
390
0
  6
Continuous
100
AcDbLine
 10
312.970363
 20
-155.451062
 30
0.0
 11
312.970363
 21
-342.183681
 31
0.0
  0
LINE
  5
F8
100
AcDbEntity
  8
0
370
    -3
390
0
  6
Continuous
100
AcDbLine
 10
126.574826
 20
-316.451064
 30
0.0
 11
127.574826
 21
-316.451064
 31
0.0
  0
LINE
  5
F9
100
AcDbEntity
  8
0
370
    -3
390
0
  6
Continuous
100
AcDbLine
 10
129.574826
 20
-333.833527
 30
0.0
 11
129.574826
 21
-332.451064
 31
0.0
  0
LINE
  5
FA
100
AcDbEntity
  8
0
370
    -3
390
0
  6
CENTER
100
AcDbLine
 10
170.968104
 20
-278.451064
 30
0.0
 11
131.718397
 21
-278.451064
 31
0.0
  0
LINE
  5
FB
100
AcDbEntity
  8
0
370
    -3
390
0
  6
Continuous
100
AcDbLine
 10
126.574826
 20
-336.063106
 30
0.0
 11
126.574826
 21
-15.451064
 31
0.0
  0
LINE
  5
FC
100
AcDbEntity
  8
0
370
    -3
390
0
  6
Continuous
100
AcDbLine
 10
43.574826
 20
-375.451064
 30
0.0
 11
323.574826
 21
-375.451064
 31
0.0
  0
LINE
  5
FD
100
AcDbEntity
  8
0
370
    -3
390
0
  6
Continuous
100
AcDbLine
 10
43.574826
 20
-350.07268
 30
0.0
 11
43.574826
 21
-375.451064
 31
0.0
  0
LINE
  5
FE
100
AcDbEntity
  8
0
370
    -3
390
0
  6
Continuous
100
AcDbLine
 10
231.574826
 20
-17.283846
 30
0.0
 11
126.574826
 21
-15.451064
 31
0.0
  0
LINE
  5
FF
100
AcDbEntity
  8
0
370
    -3
390
0
  6
Continuous
100
AcDbLine
 10
321.574826
 20
-198.951064
 30
0.0
 11
321.574826
 21
-78.111467
 31
0.0
  0
LINE
  5
100
100
AcDbEntity
  8
0
370
    -3
390
0
  6
Continuous
100
AcDbLine
 10
323.574826
 20
-350.279508
 30
0.0
 11
323.574826
 21
-375.451064
 31
0.0
  0
LINE
  5
101
100
AcDbEntity
  8
0
370
    -3
390
0
  6
CENTER
100
AcDbLine
 10
298.574826
 20
-337.770655
 30
0.0
 11
298.574826
 21
-383.862326
 31
0.0
  0
LINE
  5
102
100
AcDbEntity
  8
0
370
    -3
390
0
  6
Continuous
100
AcDbLine
 10
321.574826
 20
-193.951064
 30
0.0
 11
321.574826
 21
-344.988005
 31
0.0
  0
LINE
  5
103
100
AcDbEntity
  8
0
370
    -3
390
0
  6
CENTER
100
AcDbLine
 10
68.574826
 20
-339.091537
 30
0.0
 11
68.574826
 21
-382.238096
 31
0.0
  0
LINE
  5
104
100
AcDbEntity
  8
0
370
    -3
390
0
  6
Continuous
100
AcDbLine
 10
323.574826
 20
-197.951064
 30
0.0
 11
323.574826
 21
-92.951064
 31
0.0
  0
LINE
  5
105
100
AcDbEntity
  8
0
370
    -3
390
0
  6
CENTER
100
AcDbLine
 10
151.574826
 20
-258.849202
 30
0.0
 11
151.574826
 21
-298.942988
 31
0.0
  0
ELLIPSE
  5
106
100
AcDbEntity
  8
0
370
    -3
390
0
  6
Continuous
100
AcDbEllipse
 10
292.229139
 20
-155.451064
 30
0.0
 11
0.0
 21
40.0
 31
0.0
210
0.0
220
0.0
230
1.0
 40
0.518531
 41
4.7123890119871747
 42
1.5707963267948968
  0
ARC
  5
107
100
AcDbEntity
  8
0
370
    -3
390
0
  6
Continuous
100
AcDbCircle
 10
126.574826
 20
-335.903465
 30
0.0
 40
3.0
100
AcDbArc
 50
274.50416
 51
0.0
  0
LINE
  5
108
100
AcDbEntity
  8
0
370
    -3
390
0
  6
Continuous
100
AcDbLine
 10
96.574826
 20
-341.276002
 30
0.0
 11
48.182168
 21
-345.088121
 31
0.0
  0
LINE
  5
109
100
AcDbEntity
  8
0
370
    -3
390
0
  6
Continuous
100
AcDbLine
 10
270.574826
 20
-343.600263
 30
0.0
 11
318.749323
 21
-345.282554
 31
0.0
  0
LINE
  5
10A
100
AcDbEntity
  8
0
370
    -3
390
0
  6
Continuous
100
AcDbLine
 10
98.574826
 20
-38.451064
 30
0.0
 11
98.574826
 21
19.548936
 31
0.0
  0
LINE
  5
10B
100
AcDbEntity
  8
0
370
    -3
390
0
  6
Continuous
100
AcDbLine
 10
98.574826
 20
19.548936
 30
0.0
 11
103.074826
 21
19.548936
 31
0.0
  0
LINE
  5
10C
100
AcDbEntity
  8
0
370
    -3
390
0
  6
Continuous
100
AcDbLine
 10
103.074826
 20
19.548936
 30
0.0
 11
103.074826
 21
-18.451064
 31
0.0
  0
LINE
  5
10D
100
AcDbEntity
  8
0
370
    -3
390
0
  6
CENTER
100
AcDbLine
 10
92.844578
 20
-0.451064
 30
0.0
 11
110.943844
 21
-0.451064
 31
0.0
  0
LINE
  5
10E
100
AcDbEntity
  8
0
370
    -3
390
0
  6
Continuous
100
AcDbLine
 10
101.074864
 20
-320.918484
 30
0.0
 11
71.074826
 21
-319.346248
 31
0.0
  0
LINE
  5
10F
100
AcDbEntity
  8
0
370
    -3
390
0
  6
Continuous
100
AcDbLine
 10
76.87597
 20
-89.814905
 30
0.0
 11
101.327602
 21
-44.676489
 31
0.0
  0
LINE
  5
110
100
AcDbEntity
  8
0
370
    -3
390
0
  6
Continuous
100
AcDbLine
 10
103.074826
 20
-18.451064
 30
0.0
 11
103.074826
 21
-27.451064
 31
0.0
  0
LINE
  5
111
100
AcDbEntity
  8
0
370
    -3
390
0
  6
Continuous
100
AcDbLine
 10
108.336505
 20
-89.603077
 30
0.0
 11
71.074826
 21
-91.555879
 31
0.0
  0
LINE
  5
112
100
AcDbEntity
  8
0
370
    -3
390
0
  6
Continuous
100
AcDbLine
 10
71.074826
 20
-319.346248
 30
0.0
 11
71.074826
 21
-205.451064
 31
0.0
  0
LINE
  5
113
100
AcDbEntity
  8
0
370
    -3
390
0
  6
Continuous
100
AcDbLine
 10
71.074826
 20
-91.555879
 30
0.0
 11
71.074826
 21
-205.451064
 31
0.0
  0
ARC
  5
114
100
AcDbEntity
  8
0
370
    -3
390
0
  6
Continuous
100
AcDbCircle
 10
106.074826
 20
-18.451064
 30
0.0
 40
3.0
100
AcDbArc
 50
90.0
 51
180.0
  0
ARC
  5
115
100
AcDbEntity
  8
0
370
    -3
390
0
  6
Continuous
100
AcDbCircle
 10
74.238135
 20
-88.38598
 30
0.0
 40
3.0
100
AcDbArc
 50
273.0
 51
331.555446
  0
ARC
  5
116
100
AcDbEntity
  8
0
370
    -3
390
0
  6
Continuous
100
AcDbCircle
 10
108.074826
 20
-84.60993
 30
0.0
 40
5.0
100
AcDbArc
 50
273.0
 51
0.0
  0
LINE
  5
117
100
AcDbEntity
  8
0
370
    -3
390
0
  6
CENTER
100
AcDbLine
 10
56.910501
 20
-205.451064
 30
0.0
 11
116.983263
 21
-205.451064
 31
0.0
  0
LINE
  5
118
100
AcDbEntity
  8
0
370
    -3
390
0
  6
Continuous
100
AcDbLine
 10
113.074826
 20
-205.451064
 30
0.0
 11
113.074826
 21
-338.665378
 31
0.0
  0
LINE
  5
119
100
AcDbEntity
  8
0
370
    -3
390
0
  6
Continuous
100
AcDbLine
 10
126.074826
 20
-205.451064
 30
0.0
 11
126.074826
 21
-336.159486
 31
0.0
  0
LINE
  5
11A
100
AcDbEntity
  8
0
370
    -3
390
0
  6
Continuous
100
AcDbLine
 10
113.074826
 20
-205.451064
 30
0.0
 11
113.074826
 21
-18.451064
 31
0.0
  0
LINE
  5
11B
100
AcDbEntity
  8
0
370
    -3
390
0
  6
Continuous
100
AcDbLine
 10
106.074826
 20
-15.451064
 30
0.0
 11
126.574826
 21
-15.451064
 31
0.0
  0
LINE
  5
11C
100
AcDbEntity
  8
0
370
    -3
390
0
  6
Continuous
100
AcDbLine
 10
126.074826
 20
-205.451064
 30
0.0
 11
126.074826
 21
-15.451064
 31
0.0
  0
LINE
  5
11D
100
AcDbEntity
  8
0
370
    -3
390
0
  6
Continuous
100
AcDbLine
 10
108.074826
 20
-121.451064
 30
0.0
 11
108.074826
 21
-131.451064
 31
0.0
  0
LINE
  5
11E
100
AcDbEntity
  8
0
370
    -3
390
0
  6
Continuous
100
AcDbLine
 10
108.074826
 20
-141.451064
 30
0.0
 11
108.074826
 21
-131.451064
 31
0.0
  0
ARC
  5
11F
100
AcDbEntity
  8
0
370
    -3
390
0
  6
Continuous
100
AcDbCircle
 10
116.074826
 20
-18.451064
 30
0.0
 40
3.0
100
AcDbArc
 50
90.0
 51
180.0
  0
ARC
  5
120
100
AcDbEntity
  8
0
370
    -3
390
0
  6
Continuous
100
AcDbCircle
 10
111.074826
 20
-141.451064
 30
0.0
 40
3.0
100
AcDbArc
 50
180.0
 51
260.405932
  0
ARC
  5
121
100
AcDbEntity
  8
0
370
    -3
390
0
  6
Continuous
100
AcDbCircle
 10
110.074826
 20
-147.367144
 30
0.0
 40
3.0
100
AcDbArc
 50
0.0
 51
80.405932
  0
ARC
  5
122
100
AcDbEntity
  8
0
370
    -3
390
0
  6
Continuous
100
AcDbCircle
 10
111.074826
 20
-121.451064
 30
0.0
 40
3.0
100
AcDbArc
 50
99.594068
 51
180.0
  0
ARC
  5
123
100
AcDbEntity
  8
0
370
    -3
390
0
  6
Continuous
100
AcDbCircle
 10
110.074826
 20
-115.534984
 30
0.0
 40
3.0
100
AcDbArc
 50
279.594068
 51
0.0
  0
INSERT
  5
12F
100
AcDbEntity
  8
0
390
0
100
AcDbBlockReference
  2
ZU_SYM__USERS_HOME_SYMBOL_POO_SYM_B20_20
 10
113.074826
 20
-36.451064
 30
0.0
  0
INSERT
  5
13B
100
AcDbEntity
  8
0
390
0
100
AcDbBlockReference
  2
ZU_SYM__USERS_HOME_SYMBOL_POO_SYM_B20_0000120
 10
113.074826
 20
-176.451064
 30
0.0
  0
INSERT
  5
147
100
AcDbEntity
  8
0
390
0
100
AcDbBlockReference
  2
ZU_SYM__USERS_HOME_SYMBOL_POO_SYM_B20_0000220
 10
113.074826
 20
-316.451064
 30
0.0
  0
LINE
  5
148
100
AcDbEntity
  8
0
370
    -3
390
0
  6
CENTER
100
AcDbLine
 10
480.788491
 20
-145.451064
 30
0.0
 11
850.51004
 21
-145.451064
 31
0.0
  0
LINE
  5
149
100
AcDbEntity
  8
0
370
    -3
390
0
  6
CENTER
100
AcDbLine
 10
728.545431
 20
-159.951064
 30
0.0
 11
602.691382
 21
-159.951064
 31
0.0
  0
LINE
  5
14A
100
AcDbEntity
  8
0
370
    -3
390
0
  6
CENTER
100
AcDbLine
 10
662.588649
 20
-15.451064
 30
0.0
 11
662.588649
 21
-390.433466
 31
0.0
  0
ARC
  5
14B
100
AcDbEntity
  8
0
370
    -3
390
0
  6
Continuous
100
AcDbCircle
 10
662.588649
 20
-615.451064
 30
0.0
 40
600.0
100
AcDbArc
 50
86.510274
 51
90.0
  0
ARC
  5
14C
100
AcDbEntity
  8
0
370
    -3
390
0
  6
Continuous
100
AcDbCircle
 10
690.588649
 20
-156.304028
 30
0.0
 40
140.0
100
AcDbArc
 50
0.0
 51
86.510274
  0
ARC
  5
14D
100
AcDbEntity
  8
0
370
    -3
390
0
  6
Continuous
100
AcDbCircle
 10
634.588649
 20
-156.304028
 30
0.0
 40
140.0
100
AcDbArc
 50
93.489726
 51
180.0
  0
ARC
  5
14E
100
AcDbEntity
  8
0
370
    -3
390
0
  6
Continuous
100
AcDbCircle
 10
662.588649
 20
-615.451064
 30
0.0
 40
600.0
100
AcDbArc
 50
90.0
 51
93.489726
  0
LINE
  5
14F
100
AcDbEntity
  8
0
370
    -3
390
0
  6
Continuous
100
AcDbLine
 10
673.088649
 20
19.548936
 30
0.0
 11
652.088649
 21
19.548936
 31
0.0
  0
ARC
  5
150
100
AcDbEntity
  8
0
370
    -3
390
0
  6
Continuous
100
AcDbCircle
 10
652.088649
 20
9.548936
 30
0.0
 40
10.0
100
AcDbArc
 50
90.0
 51
180.0
  0
ARC
  5
151
100
AcDbEntity
  8
0
370
    -3
390
0
  6
Continuous
100
AcDbCircle
 10
673.088649
 20
9.548936
 30
0.0
 40
10.0
100
AcDbArc
 50
0.0
 51
90.0
  0
LINE
  5
152
100
AcDbEntity
  8
0
370
    -3
390
0
  6
Continuous
100
AcDbLine
 10
683.088649
 20
9.548936
 30
0.0
 11
683.088649
 21
-15.801374
 31
0.0
  0
LINE
  5
153
100
AcDbEntity
  8
0
370
    -3
390
0
  6
Continuous
100
AcDbLine
 10
642.088649
 20
9.548936
 30
0.0
 11
642.088649
 21
-15.801374
 31
0.0
  0
LINE
  5
154
100
AcDbEntity
  8
0
370
    -3
390
0
  6
CENTER
100
AcDbLine
 10
685.756562
 20
-0.451064
 30
0.0
 11
638.734048
 21
-0.451064
 31
0.0
  0
LINE
  5
155
100
AcDbEntity
  8
0
370
    -3
390
0
  6
CENTER
100
AcDbLine
 10
662.588649
 20
27.871932
 30
0.0
 11
662.588649
 21
-15.451064
 31
0.0
  0
CIRCLE
  5
156
100
AcDbEntity
  8
0
370
    -3
390
0
  6
Continuous
100
AcDbCircle
 10
662.588649
 20
-145.451064
 30
0.0
 40
4.188
  0
CIRCLE
  5
157
100
AcDbEntity
  8
0
370
    -3
390
0
  6
Continuous
100
AcDbCircle
 10
662.588649
 20
-145.451064
 30
0.0
 40
5.0
  0
LINE
  5
158
100
AcDbEntity
  8
0
370
    -3
390
0
  6
Continuous
100
AcDbLine
 10
628.588649
 20
-136.451064
 30
0.0
 11
639.588649
 21
-136.451064
 31
0.0
  0
ARC
  5
159
100
AcDbEntity
  8
0
370
    -3
390
0
  6
Continuous
100
AcDbCircle
 10
662.588649
 20
-145.451064
 30
0.0
 40
30.0
100
AcDbArc
 50
197.457603
 51
162.542397
  0
LINE
  5
15A
100
AcDbEntity
  8
0
370
    -3
390
0
  6
Continuous
100
AcDbLine
 10
628.588649
 20
-136.451064
 30
0.0
 11
628.588649
 21
-154.451064
 31
0.0
  0
LINE
  5
15B
100
AcDbEntity
  8
0
370
    -3
390
0
  6
Continuous
100
AcDbLine
 10
639.588649
 20
-136.451064
 30
0.0
 11
639.588649
 21
-154.451064
 31
0.0
  0
LINE
  5
15C
100
AcDbEntity
  8
0
370
    -3
390
0
  6
Continuous
100
AcDbLine
 10
628.588649
 20
-154.451064
 30
0.0
 11
639.588649
 21
-154.451064
 31
0.0
  0
ARC
  5
15D
100
AcDbEntity
  8
0
370
    -3
390
0
  6
Continuous
100
AcDbCircle
 10
500.496446
 20
-340.451064
 30
0.0
 40
5.0
100
AcDbArc
 50
270.0
 51
0.0
  0
ARC
  5
15E
100
AcDbEntity
  8
0
370
    -3
390
0
  6
Continuous
100
AcDbCircle
 10
535.839924
 20
-340.451064
 30
0.0
 40
5.0
100
AcDbArc
 50
270.0
 51
0.0
  0
ARC
  5
15F
100
AcDbEntity
  8
0
370
    -3
390
0
  6
Continuous
100
AcDbCircle
 10
551.621645
 20
-340.451064
 30
0.0
 40
5.0
100
AcDbArc
 50
270.0
 51
0.0
  0
ARC
  5
160
100
AcDbEntity
  8
0
370
    -3
390
0
  6
Continuous
100
AcDbCircle
 10
773.555652
 20
-340.451064
 30
0.0
 40
5.0
100
AcDbArc
 50
180.0
 51
270.0
  0
ARC
  5
161
100
AcDbEntity
  8
0
370
    -3
390
0
  6
Continuous
100
AcDbCircle
 10
789.337374
 20
-340.451064
 30
0.0
 40
5.0
100
AcDbArc
 50
180.0
 51
270.0
  0
ARC
  5
162
100
AcDbEntity
  8
0
370
    -3
390
0
  6
Continuous
100
AcDbCircle
 10
824.680852
 20
-340.451064
 30
0.0
 40
5.0
100
AcDbArc
 50
180.0
 51
270.0
  0
ELLIPSE
  5
163
100
AcDbEntity
  8
0
370
    -3
390
0
  6
Continuous
100
AcDbEllipse
 10
802.009113
 20
-155.451064
 30
0.0
 11
0.0
 21
40.0
 31
0.0
210
0.0
220
0.0
230
1.0
 40
0.441793
 41
4.7123889803846897
 42
1.5707963267948968
  0
ELLIPSE
  5
164
100
AcDbEntity
  8
0
370
    -3
390
0
  6
Continuous
100
AcDbEllipse
 10
523.168185
 20
-155.451064
 30
0.0
 11
0.0
 21
40.0
 31
0.0
210
0.0
220
0.0
230
1.0
 40
0.441793
 41
4.7123889803846897
 42
1.5707963267948968
  0
LINE
  5
165
100
AcDbEntity
  8
0
370
    -3
390
0
  6
CENTER
100
AcDbLine
 10
812.588649
 20
-336.712953
 30
0.0
 11
812.588649
 21
-380.083002
 31
0.0
  0
LINE
  5
166
100
AcDbEntity
  8
0
370
    -3
390
0
  6
Continuous
100
AcDbLine
 10
662.588649
 20
-345.451064
 30
0.0
 11
833.588649
 21
-345.451064
 31
0.0
  0
LINE
  5
167
100
AcDbEntity
  8
0
370
    -3
390
0
  6
Continuous
100
AcDbLine
 10
662.588649
 20
-345.451064
 30
0.0
 11
491.588649
 21
-345.451064
 31
0.0
  0
LINE
  5
168
100
AcDbEntity
  8
0
370
    -3
390
0
  6
Continuous
100
AcDbLine
 10
634.194494
 20
-77.48406
 30
0.0
 11
662.588649
 21
-77.48406
 31
0.0
  0
LINE
  5
169
100
AcDbEntity
  8
0
370
    -3
390
0
  6
Continuous
100
AcDbLine
 10
784.337374
 20
-155.451062
 30
0.0
 11
784.337374
 21
-340.451064
 31
0.0
  0
LINE
  5
16A
100
AcDbEntity
  8
0
370
    -3
390
0
  6
Continuous
100
AcDbLine
 10
819.680852
 20
-155.451064
 30
0.0
 11
819.680852
 21
-340.451064
 31
0.0
  0
LINE
  5
16B
100
AcDbEntity
  8
0
370
    -3
390
0
  6
Continuous
100
AcDbLine
 10
540.839924
 20
-155.451062
 30
0.0
 11
540.839924
 21
-340.451064
 31
0.0
  0
LINE
  5
16C
100
AcDbEntity
  8
0
370
    -3
390
0
  6
Continuous
100
AcDbLine
 10
830.588649
 20
-156.304028
 30
0.0
 11
830.588649
 21
-342.451064
 31
0.0
  0
LINE
  5
16D
100
AcDbEntity
  8
0
370
    -3
390
0
  6
Continuous
100
AcDbLine
 10
556.621645
 20
-155.056909
 30
0.0
 11
556.621645
 21
-340.451064
 31
0.0
  0
LINE
  5
16E
100
AcDbEntity
  8
0
370
    -3
390
0
  6
Continuous
100
AcDbLine
 10
768.555652
 20
-156.304028
 30
0.0
 11
768.555652
 21
-340.451064
 31
0.0
  0
LINE
  5
16F
100
AcDbEntity
  8
0
370
    -3
390
0
  6
Continuous
100
AcDbLine
 10
494.588649
 20
-156.304028
 30
0.0
 11
494.588649
 21
-342.451064
 31
0.0
  0
LINE
  5
170
100
AcDbEntity
  8
0
370
    -3
390
0
  6
Continuous
100
AcDbLine
 10
837.588649
 20
-336.451064
 30
0.0
 11
837.588649
 21
-375.451064
 31
0.0
  0
LINE
  5
171
100
AcDbEntity
  8
0
370
    -3
390
0
  6
Continuous
100
AcDbLine
 10
767.588649
 20
-375.451064
 30
0.0
 11
837.588649
 21
-375.451064
 31
0.0
  0
LINE
  5
172
100
AcDbEntity
  8
0
370
    -3
390
0
  6
Continuous
100
AcDbLine
 10
662.588649
 20
-372.451064
 30
0.0
 11
764.588649
 21
-372.451064
 31
0.0
  0
LINE
  5
173
100
AcDbEntity
  8
0
370
    -3
390
0
  6
CENTER
100
AcDbLine
 10
512.588649
 20
-336.712953
 30
0.0
 11
512.588649
 21
-380.083002
 31
0.0
  0
LINE
  5
174
100
AcDbEntity
  8
0
370
    -3
390
0
  6
Continuous
100
AcDbLine
 10
662.588649
 20
-372.451064
 30
0.0
 11
560.588649
 21
-372.451064
 31
0.0
  0
LINE
  5
175
100
AcDbEntity
  8
0
370
    -3
390
0
  6
Continuous
100
AcDbLine
 10
557.588649
 20
-375.451064
 30
0.0
 11
487.588649
 21
-375.451064
 31
0.0
  0
LINE
  5
176
100
AcDbEntity
  8
0
370
    -3
390
0
  6
Continuous
100
AcDbLine
 10
505.496446
 20
-155.451064
 30
0.0
 11
505.496446
 21
-340.451064
 31
0.0
  0
LINE
  5
177
100
AcDbEntity
  8
0
370
    -3
390
0
  6
Continuous
100
AcDbLine
 10
577.588649
 20
-334.751064
 30
0.0
 11
747.588649
 21
-334.751064
 31
0.0
  0
LINE
  5
178
100
AcDbEntity
  8
0
370
    -3
390
0
  6
Continuous
100
AcDbLine
 10
757.588649
 20
-150.451064
 30
0.0
 11
757.588649
 21
-324.751064
 31
0.0
  0
LINE
  5
179
100
AcDbEntity
  8
0
370
    -3
390
0
  6
Continuous
100
AcDbLine
 10
728.520432
 20
-145.451064
 30
0.0
 11
752.588649
 21
-145.451064
 31
0.0
  0
LINE
  5
17A
100
AcDbEntity
  8
0
370
    -3
390
0
  6
Continuous
100
AcDbLine
 10
596.656866
 20
-145.451064
 30
0.0
 11
572.588649
 21
-145.451064
 31
0.0
  0
LINE
  5
17B
100
AcDbEntity
  8
0
370
    -3
390
0
  6
Continuous
100
AcDbLine
 10
567.588649
 20
-150.451064
 30
0.0
 11
567.588649
 21
-324.751064
 31
0.0
  0
ARC
  5
17C
100
AcDbEntity
  8
0
370
    -3
390
0
  6
Continuous
100
AcDbCircle
 10
833.588649
 20
-349.451064
 30
0.0
 40
4.0
100
AcDbArc
 50
0.0
 51
90.0
  0
ARC
  5
17D
100
AcDbEntity
  8
0
370
    -3
390
0
  6
Continuous
100
AcDbCircle
 10
764.588649
 20
-375.451064
 30
0.0
 40
3.0
100
AcDbArc
 50
0.0
 51
90.0
  0
ARC
  5
17E
100
AcDbEntity
  8
0
370
    -3
390
0
  6
Continuous
100
AcDbCircle
 10
491.588649
 20
-349.451064
 30
0.0
 40
4.0
100
AcDbArc
 50
90.0
 51
180.0
  0
ARC
  5
17F
100
AcDbEntity
  8
0
370
    -3
390
0
  6
Continuous
100
AcDbCircle
 10
560.588649
 20
-375.451064
 30
0.0
 40
3.0
100
AcDbArc
 50
90.0
 51
180.0
  0
ARC
  5
180
100
AcDbEntity
  8
0
370
    -3
390
0
  6
Continuous
100
AcDbCircle
 10
833.588649
 20
-342.451064
 30
0.0
 40
3.0
100
AcDbArc
 50
180.0
 51
270.0
  0
ARC
  5
181
100
AcDbEntity
  8
0
370
    -3
390
0
  6
Continuous
100
AcDbCircle
 10
491.588649
 20
-342.451064
 30
0.0
 40
3.0
100
AcDbArc
 50
270.0
 51
0.0
  0
ARC
  5
182
100
AcDbEntity
  8
0
370
    -3
390
0
  6
Continuous
100
AcDbCircle
 10
634.588649
 20
-155.451064
 30
0.0
 40
77.968
100
AcDbArc
 50
89.710349
 51
180.0
  0
ARC
  5
183
100
AcDbEntity
  8
0
370
    -3
390
0
  6
Continuous
100
AcDbCircle
 10
833.588649
 20
-336.451064
 30
0.0
 40
4.0
100
AcDbArc
 50
0.0
 51
90.0
  0
ARC
  5
184
100
AcDbEntity
  8
0
370
    -3
390
0
  6
Continuous
100
AcDbCircle
 10
833.588649
 20
-329.451064
 30
0.0
 40
3.0
100
AcDbArc
 50
180.0
 51
270.0
  0
ARC
  5
185
100
AcDbEntity
  8
0
370
    -3
390
0
  6
Continuous
100
AcDbCircle
 10
491.588649
 20
-329.451064
 30
0.0
 40
3.0
100
AcDbArc
 50
270.0
 51
0.0
  0
ARC
  5
186
100
AcDbEntity
  8
0
370
    -3
390
0
  6
Continuous
100
AcDbCircle
 10
491.588649
 20
-336.451064
 30
0.0
 40
4.0
100
AcDbArc
 50
90.0
 51
180.0
  0
ARC
  5
187
100
AcDbEntity
  8
0
370
    -3
390
0
  6
Continuous
100
AcDbCircle
 10
662.588649
 20
-615.451064
 30
0.0
 40
537.967004
100
AcDbArc
 50
86.510274
 51
90.0
  0
ARC
  5
188
100
AcDbEntity
  8
0
370
    -3
390
0
  6
Continuous
100
AcDbCircle
 10
690.588649
 20
-156.304028
 30
0.0
 40
77.967004
100
AcDbArc
 50
0.0
 51
86.510274
  0
ARC
  5
189
100
AcDbEntity
  8
0
370
    -3
390
0
  6
Continuous
100
AcDbCircle
 10
662.588649
 20
-145.451064
 30
0.0
 40
52.5
100
AcDbArc
 50
32.135502
 51
57.993336
  0
ARC
  5
18A
100
AcDbEntity
  8
0
370
    -3
390
0
  6
Continuous
100
AcDbCircle
 10
747.588649
 20
-324.751064
 30
0.0
 40
10.0
100
AcDbArc
 50
270.0
 51
0.0
  0
ARC
  5
18B
100
AcDbEntity
  8
0
370
    -3
390
0
  6
Continuous
100
AcDbCircle
 10
577.588649
 20
-324.751064
 30
0.0
 40
10.0
100
AcDbArc
 50
180.0
 51
270.0
  0
ARC
  5
18C
100
AcDbEntity
  8
0
370
    -3
390
0
  6
Continuous
100
AcDbCircle
 10
752.588649
 20
-150.451064
 30
0.0
 40
5.0
100
AcDbArc
 50
0.0
 51
90.0
  0
ARC
  5
18D
100
AcDbEntity
  8
0
370
    -3
390
0
  6
Continuous
100
AcDbCircle
 10
728.520432
 20
-148.451064
 30
0.0
 40
3.0
100
AcDbArc
 50
90.0
 51
177.394749
  0
ARC
  5
18E
100
AcDbEntity
  8
0
370
    -3
390
0
  6
Continuous
100
AcDbCircle
 10
662.588649
 20
-145.451064
 30
0.0
 40
63.0
100
AcDbArc
 50
182.605251
 51
357.394749
  0
ARC
  5
18F
100
AcDbEntity
  8
0
370
    -3
390
0
  6
Continuous
100
AcDbCircle
 10
596.656866
 20
-148.451064
 30
0.0
 40
3.0
100
AcDbArc
 50
2.605251
 51
90.0
  0
ARC
  5
190
100
AcDbEntity
  8
0
370
    -3
390
0
  6
Continuous
100
AcDbCircle
 10
572.588649
 20
-150.451064
 30
0.0
 40
5.0
100
AcDbArc
 50
90.0
 51
180.0
  0
CIRCLE
  5
191
100
AcDbEntity
  8
0
370
    -3
390
0
  6
Continuous
100
AcDbCircle
 10
662.588649
 20
-145.451064
 30
0.0
 40
52.5
  0
CIRCLE
  5
192
100
AcDbEntity
  8
0
370
    -3
390
0
  6
Continuous
100
AcDbCircle
 10
662.588649
 20
-145.451064
 30
0.0
 40
42.5
  0
LINE
  5
193
100
AcDbEntity
  8
0
370
    -3
390
0
  6
Continuous
100
AcDbLine
 10
487.588649
 20
-336.451064
 30
0.0
 11
487.588649
 21
-375.451064
 31
0.0
  0
ARC
  5
194
100
AcDbEntity
  8
0
370
    -3
390
0
  6
Continuous
100
AcDbCircle
 10
18.574826
 20
-227.051975
 30
0.0
 40
5.0
100
AcDbArc
 50
0.0
 51
90.0
  0
ARC
  5
195
100
AcDbEntity
  8
0
370
    -3
390
0
  6
Continuous
100
AcDbCircle
 10
62.074826
 20
-312.451064
 30
0.0
 40
3.0
100
AcDbArc
 50
180.0
 51
270.0
  0
ARC
  5
196
100
AcDbEntity
  8
0
370
    -3
390
0
  6
Continuous
100
AcDbCircle
 10
62.074826
 20
-98.451064
 30
0.0
 40
3.0
100
AcDbArc
 50
90.0
 51
180.0
  0
LINE
  5
197
100
AcDbEntity
  8
0
370
    -3
390
0
  6
Continuous
100
AcDbLine
 10
71.074826
 20
-315.451064
 30
0.0
 11
62.074826
 21
-315.451064
 31
0.0
  0
LINE
  5
198
100
AcDbEntity
  8
0
370
    -3
390
0
  6
Continuous
100
AcDbLine
 10
71.074826
 20
-95.451064
 30
0.0
 11
62.074826
 21
-95.451064
 31
0.0
  0
ARC
  5
199
100
AcDbEntity
  8
0
370
    -3
390
0
  6
Continuous
100
AcDbCircle
 10
54.074826
 20
-172.427558
 30
0.0
 40
5.0
100
AcDbArc
 50
270.0
 51
0.0
  0
ARC
  5
19A
100
AcDbEntity
  8
0
370
    -3
390
0
  6
Continuous
100
AcDbCircle
 10
8.074826
 20
-172.427558
 30
0.0
 40
5.0
100
AcDbArc
 50
180.0
 51
270.0
  0
LINE
  5
19B
100
AcDbEntity
  8
0
370
    -3
390
0
  6
Continuous
100
AcDbLine
 10
18.574826
 20
-222.051975
 30
0.0
 11
-18.925174
 21
-222.051975
 31
0.0
  0
LINE
  5
19C
100
AcDbEntity
  8
0
370
    -3
390
0
  6
Continuous
100
AcDbLine
 10
8.074826
 20
-177.427558
 30
0.0
 11
54.074826
 21
-177.427558
 31
0.0
  0
LINE
  5
19D
100
AcDbEntity
  8
0
370
    -3
390
0
  6
Continuous
100
AcDbLine
 10
-18.925174
 20
-76.451064
 30
0.0
 11
-18.925174
 21
-243.381222
 31
0.0
  0
LINE
  5
19E
100
AcDbEntity
  8
0
370
    -3
390
0
  6
Continuous
100
AcDbLine
 10
-18.925174
 20
-243.381222
 30
0.0
 11
18.749323
 21
-244.696845
 31
0.0
  0
ARC
  5
19F
100
AcDbEntity
  8
0
370
    -3
390
0
  6
Continuous
100
AcDbCircle
 10
28.574826
 20
-266.451064
 30
0.0
 40
5.0
100
AcDbArc
 50
180.0
 51
270.0
  0
LINE
  5
1A0
100
AcDbEntity
  8
0
370
    -3
390
0
  6
Continuous
100
AcDbLine
 10
23.574826
 20
-266.451064
 30
0.0
 11
23.574826
 21
-227.051975
 31
0.0
  0
LINE
  5
1A1
100
AcDbEntity
  8
0
370
    -3
390
0
  6
Continuous
100
AcDbLine
 10
3.074826
 20
-172.427558
 30
0.0
 11
3.074826
 21
-80.566993
 31
0.0
  0
ARC
  5
1A2
100
AcDbEntity
  8
0
370
    -3
390
0
  6
Continuous
100
AcDbCircle
 10
18.574826
 20
-249.693799
 30
0.0
 40
5.0
100
AcDbArc
 50
0.0
 51
88.0
  0
LINE
  5
1A3
100
AcDbEntity
  8
0
370
    -3
390
0
  6
CENTER
100
AcDbLine
 10
37.574826
 20
-143.195176
 30
0.0
 11
37.574826
 21
-114.555273
 31
0.0
  0
ARC
  5
1A4
100
AcDbEntity
  8
0
370
    -3
390
0
  6
Continuous
100
AcDbCircle
 10
8.074826
 20
-113.451064
 30
0.0
 40
5.0
100
AcDbArc
 50
180.0
 51
270.0
  0
ARC
  5
1A5
100
AcDbEntity
  8
0
370
    -3
390
0
  6
Continuous
100
AcDbCircle
 10
8.074826
 20
-123.451064
 30
0.0
 40
5.0
100
AcDbArc
 50
180.0
 51
270.0
  0
ARC
  5
1A6
100
AcDbEntity
  8
0
370
    -3
390
0
  6
Continuous
100
AcDbCircle
 10
54.074826
 20
-113.451064
 30
0.0
 40
5.0
100
AcDbArc
 50
270.0
 51
0.0
  0
ARC
  5
1A7
100
AcDbEntity
  8
0
370
    -3
390
0
  6
Continuous
100
AcDbCircle
 10
62.074826
 20
-94.451064
 30
0.0
 40
3.0
100
AcDbArc
 50
90.0
 51
180.0
  0
LINE
  5
1A8
100
AcDbEntity
  8
0
370
    -3
390
0
  6
Continuous
100
AcDbLine
 10
62.074826
 20
-91.451064
 30
0.0
 11
71.074826
 21
-91.451064
 31
0.0
  0
LINE
  5
1A9
100
AcDbEntity
  8
0
370
    -3
390
0
  6
Continuous
100
AcDbLine
 10
59.074826
 20
-316.451064
 30
0.0
 11
59.074826
 21
-94.451064
 31
0.0
  0
LINE
  5
1AA
100
AcDbEntity
  8
0
370
    -3
390
0
  6
Continuous
100
AcDbLine
 10
54.074826
 20
-118.451064
 30
0.0
 11
8.074826
 21
-118.451064
 31
0.0
  0
LINE
  5
1AB
100
AcDbEntity
  8
0
370
    -3
390
0
  6
Continuous
100
AcDbLine
 10
51.453179
 20
-128.451064
 30
0.0
 11
8.074826
 21
-128.451064
 31
0.0
  0
LINE
  5
1AC
100
AcDbEntity
  8
0
370
    -3
390
0
  6
Continuous
100
AcDbLine
 10
62.074826
 20
-319.451064
 30
0.0
 11
71.074826
 21
-319.451064
 31
0.0
  0
ARC
  5
1AD
100
AcDbEntity
  8
0
370
    -3
390
0
  6
Continuous
100
AcDbCircle
 10
62.074826
 20
-316.451064
 30
0.0
 40
3.0
100
AcDbArc
 50
180.0
 51
270.0
  0
LINE
  5
1AE
100
AcDbEntity
  8
0
370
    -3
390
0
  6
Continuous
100
AcDbLine
 10
51.074827
 20
-271.451064
 30
0.0
 11
28.574826
 21
-271.451064
 31
0.0
  0
LINE
  5
1AF
100
AcDbEntity
  8
0
370
    -3
390
0
  6
Continuous
100
AcDbLine
 10
-18.925174
 20
-76.451064
 30
0.0
 11
-2.186854
 21
-75.573846
 31
0.0
  0
ARC
  5
1B0
100
AcDbEntity
  8
0
370
    -3
390
0
  6
Continuous
100
AcDbCircle
 10
-1.925174
 20
-80.566993
 30
0.0
 40
5.0
100
AcDbArc
 50
360.0
 51
93.0
  0
LINE
  5
1B1
100
AcDbEntity
  8
0
370
    -3
390
0
  6
Continuous
100
AcDbLine
 10
26.43797
 20
-271.261571
 30
0.0
 11
58.611317
 21
-315.809283
 31
0.0
  0
ARC
  5
1B2
100
AcDbEntity
  8
0
370
    -3
390
0
  6
Continuous
100
AcDbCircle
 10
56.179279
 20
-317.565754
 30
0.0
 40
3.0
100
AcDbArc
 50
10.706715
 51
35.837653
  0
ARC
  5
1B3
100
AcDbEntity
  8
0
370
    -3
390
0
  6
Continuous
100
AcDbCircle
 10
24.005932
 20
-273.018043
 30
0.0
 40
3.0
100
AcDbArc
 50
35.837653
 51
55.172216
  0
INSERT
  5
1BF
100
AcDbEntity
  8
0
390
0
100
AcDbBlockReference
  2
ZU_SYM__USERS_HOME_SYMBOL_POO_SYM_B20_0000318
 10
59.074826
 20
-276.161742
 30
0.0
  0
INSERT
  5
1CB
100
AcDbEntity
  8
0
390
0
100
AcDbBlockReference
  2
ZU_SYM__USERS_HOME_SYMBOL_POO_SYM_B20_0000418
 10
59.074826
 20
-134.740386
 30
0.0
 41
-1.0
 50
180.0
  0
LINE
  5
1CC
100
AcDbEntity
  8
0
370
    -3
390
0
  6
CENTER
100
AcDbLine
 10
570.455755
 20
-159.951064
 30
0.0
 11
513.147003
 21
-159.951064
 31
0.0
  0
LINE
  5
1CD
100
AcDbEntity
  8
0
370
    -3
390
0
  6
CENTER
100
AcDbLine
 10
515.135878
 20
-212.311843
 30
0.0
 11
525.469273
 21
-216.912567
 31
0.0
  0
LINE
  5
1CE
100
AcDbEntity
  8
0
370
    -3
390
0
  6
CENTER
100
AcDbLine
 10
541.588649
 20
-192.06854
 30
0.0
 11
541.588649
 21
-214.937049
 31
0.0
  0
LINE
  5
1CF
100
AcDbEntity
  8
0
370
    -3
390
0
  6
Continuous
100
AcDbLine
 10
649.588649
 20
-9.451064
 30
0.0
 11
649.588649
 21
-8.451064
 31
0.0
  0
LINE
  5
1D0
100
AcDbEntity
  8
0
370
    -3
390
0
  6
Continuous
100
AcDbLine
 10
675.588649
 20
-9.451064
 30
0.0
 11
675.588649
 21
-8.451064
 31
0.0
  0
LINE
  5
1D1
100
AcDbEntity
  8
0
370
    -3
390
0
  6
Continuous
100
AcDbLine
 10
153.574826
 20
-10.149266
 30
0.0
 11
153.574826
 21
-9.149266
 31
0.0
  0
LINE
  5
1D2
100
AcDbEntity
  8
0
370
    -3
390
0
  6
Continuous
100
AcDbLine
 10
179.574826
 20
-10.149266
 30
0.0
 11
179.574826
 21
-9.149266
 31
0.0
  0
LINE
  5
1D3
100
AcDbEntity
  8
0
370
    -3
390
0
  6
Continuous
100
AcDbLine
 10
-18.925174
 20
-218.759209
 30
0.0
 11
-136.877886
 21
-218.759209
 31
0.0
  0
LINE
  5
1D4
100
AcDbEntity
  8
0
370
    -3
390
0
  6
Continuous
100
AcDbLine
 10
-18.925174
 20
-206.088788
 30
0.0
 11
-132.475174
 21
-206.088788
 31
0.0
  0
LINE
  5
1D5
100
AcDbEntity
  8
0
370
    -3
390
0
  6
Continuous
100
AcDbLine
 10
-18.925174
 20
-203.866461
 30
0.0
 11
-132.475174
 21
-203.866461
 31
0.0
  0
LINE
  5
1D6
100
AcDbEntity
  8
0
370
    -3
390
0
  6
Continuous
100
AcDbLine
 10
-18.925174
 20
-196.056002
 30
0.0
 11
-132.475174
 21
-196.056002
 31
0.0
  0
LINE
  5
1D7
100
AcDbEntity
  8
0
370
    -3
390
0
  6
Continuous
100
AcDbLine
 10
-18.925174
 20
-243.451064
 30
0.0
 11
-188.925175
 21
-243.451064
 31
0.0
  0
LINE
  5
1D8
100
AcDbEntity
  8
0
370
    -3
390
0
  6
Continuous
100
AcDbLine
 10
-18.925174
 20
-183.951064
 30
0.0
 11
-132.475174
 21
-183.951064
 31
0.0
  0
LINE
  5
1D9
100
AcDbEntity
  8
0
370
    -3
390
0
  6
Continuous
100
AcDbLine
 10
-18.925174
 20
-193.889292
 30
0.0
 11
-132.7273
 21
-193.889292
 31
0.0
  0
LINE
  5
1DA
100
AcDbEntity
  8
0
370
    -3
390
0
  6
Continuous
100
AcDbLine
 10
-18.925174
 20
-225.830276
 30
0.0
 11
-188.925175
 21
-225.830276
 31
0.0
  0
LINE
  5
1DB
100
AcDbEntity
  8
0
370
    -3
390
0
  6
Continuous
100
AcDbLine
 10
-18.925174
 20
-234.951064
 30
0.0
 11
-188.925175
 21
-234.951064
 31
0.0
  0
LINE
  5
1DC
100
AcDbEntity
  8
0
370
    -3
390
0
  6
Continuous
100
AcDbLine
 10
-18.925174
 20
-239.951064
 30
0.0
 11
-188.925175
 21
-239.951064
 31
0.0
  0
LINE
  5
1DD
100
AcDbEntity
  8
0
370
    -3
390
0
  6
Continuous
100
AcDbLine
 10
-18.925174
 20
-242.451064
 30
0.0
 11
-188.925175
 21
-242.451064
 31
0.0
  0
LINE
  5
1DE
100
AcDbEntity
  8
0
370
    -3
390
0
  6
Continuous
100
AcDbLine
 10
-18.925174
 20
-242.951064
 30
0.0
 11
-188.925175
 21
-242.951064
 31
0.0
  0
LINE
  5
1DF
100
AcDbEntity
  8
0
370
    -3
390
0
  6
Continuous
100
AcDbLine
 10
-18.925174
 20
-135.951064
 30
0.0
 11
-132.475174
 21
-135.951064
 31
0.0
  0
LINE
  5
1E0
100
AcDbEntity
  8
0
370
    -3
390
0
  6
Continuous
100
AcDbLine
 10
-18.925174
 20
-101.142919
 30
0.0
 11
-188.925175
 21
-101.142919
 31
0.0
  0
LINE
  5
1E1
100
AcDbEntity
  8
0
370
    -3
390
0
  6
Continuous
100
AcDbLine
 10
-18.925174
 20
-116.035666
 30
0.0
 11
-188.925175
 21
-116.035666
 31
0.0
  0
LINE
  5
1E2
100
AcDbEntity
  8
0
370
    -3
390
0
  6
Continuous
100
AcDbLine
 10
-18.925174
 20
-113.81334
 30
0.0
 11
-188.925175
 21
-113.81334
 31
0.0
  0
LINE
  5
1E3
100
AcDbEntity
  8
0
370
    -3
390
0
  6
Continuous
100
AcDbLine
 10
-18.925174
 20
-123.846126
 30
0.0
 11
-133.441483
 21
-123.846126
 31
0.0
  0
LINE
  5
1E4
100
AcDbEntity
  8
0
370
    -3
390
0
  6
Continuous
100
AcDbLine
 10
-18.925174
 20
-126.012836
 30
0.0
 11
-132.7273
 21
-126.012836
 31
0.0
  0
LINE
  5
1E5
100
AcDbEntity
  8
0
370
    -3
390
0
  6
Continuous
100
AcDbLine
 10
-18.925174
 20
-94.071851
 30
0.0
 11
-188.925175
 21
-94.071851
 31
0.0
  0
LINE
  5
1E6
100
AcDbEntity
  8
0
370
    -3
390
0
  6
Continuous
100
AcDbLine
 10
-18.925174
 20
-84.951064
 30
0.0
 11
-188.925175
 21
-84.951064
 31
0.0
  0
LINE
  5
1E7
100
AcDbEntity
  8
0
370
    -3
390
0
  6
Continuous
100
AcDbLine
 10
-18.925174
 20
-79.951064
 30
0.0
 11
-188.925175
 21
-79.951064
 31
0.0
  0
LINE
  5
1E8
100
AcDbEntity
  8
0
370
    -3
390
0
  6
Continuous
100
AcDbLine
 10
-18.925174
 20
-77.451064
 30
0.0
 11
-188.925175
 21
-77.451064
 31
0.0
  0
LINE
  5
1E9
100
AcDbEntity
  8
0
370
    -3
390
0
  6
Continuous
100
AcDbLine
 10
-18.925174
 20
-76.951064
 30
0.0
 11
-188.925175
 21
-76.951064
 31
0.0
  0
LINE
  5
1EA
100
AcDbEntity
  8
0
370
    -3
390
0
  6
Continuous
100
AcDbLine
 10
-18.925174
 20
-76.451064
 30
0.0
 11
-188.925175
 21
-76.451064
 31
0.0
  0
LINE
  5
1EB
100
AcDbEntity
  8
0
370
    -3
390
0
  6
Continuous
100
AcDbLine
 10
-188.925175
 20
-72.651064
 30
0.0
 11
-188.925175
 21
-117.354456
 31
0.0
  0
LINE
  5
1EC
100
AcDbEntity
  8
0
370
    -3
390
0
  6
Continuous
100
AcDbLine
 10
-294.993208
 20
-72.651064
 30
0.0
 11
-188.925175
 21
-72.651064
 31
0.0
  0
LINE
  5
1ED
100
AcDbEntity
  8
0
370
    -3
390
0
  6
Continuous
100
AcDbLine
 10
-188.925175
 20
-247.251064
 30
0.0
 11
-188.925175
 21
-220.957175
 31
0.0
  0
LINE
  5
1EE
100
AcDbEntity
  8
0
370
    -3
390
0
  6
Continuous
100
AcDbLine
 10
-294.993208
 20
-247.251064
 30
0.0
 11
-188.925175
 21
-247.251064
 31
0.0
  0
ARC
  5
1EF
100
AcDbEntity
  8
0
370
    -3
390
0
  6
Continuous
100
AcDbCircle
 10
-330.125175
 20
-91.010595
 30
0.0
 40
3.8
100
AcDbArc
 50
120.0
 51
180.0
  0
LINE
  5
1F0
100
AcDbEntity
  8
0
370
    -3
390
0
  6
Continuous
100
AcDbLine
 10
-332.025175
 20
-87.719698
 30
0.0
 11
-315.393208
 21
-78.117227
 31
0.0
  0
LINE
  5
1F1
100
AcDbEntity
  8
0
370
    -3
390
0
  6
Continuous
100
AcDbLine
 10
-333.925175
 20
-91.010595
 30
0.0
 11
-333.925175
 21
-159.951064
 31
0.0
  0
ARC
  5
1F2
100
AcDbEntity
  8
0
370
    -3
390
0
  6
Continuous
100
AcDbCircle
 10
-294.993208
 20
-113.451064
 30
0.0
 40
40.8
100
AcDbArc
 50
90.0
 51
120.0
  0
LINE
  5
1F3
100
AcDbEntity
  8
0
370
    -3
390
0
  6
Continuous
100
AcDbLine
 10
-214.425174
 20
-228.823265
 30
0.0
 11
-216.354379
 21
-230.033927
 31
0.0
  0
LINE
  5
1F4
100
AcDbEntity
  8
0
370
    -3
390
0
  6
Continuous
100
AcDbLine
 10
-214.425174
 20
-228.823265
 30
0.0
 11
-216.425174
 21
-227.249927
 31
0.0
  0
LINE
  5
1F5
100
AcDbEntity
  8
0
370
    -3
390
0
  6
Continuous
100
AcDbLine
 10
-214.425174
 20
-228.823265
 30
0.0
 11
-212.49597
 21
-230.033927
 31
0.0
  0
LINE
  5
1F6
100
AcDbEntity
  8
0
370
    -3
390
0
  6
Continuous
100
AcDbLine
 10
-214.425174
 20
-228.823265
 30
0.0
 11
-212.425174
 21
-227.249927
 31
0.0
  0
ELLIPSE
  5
1F7
100
AcDbEntity
  8
0
370
    -3
390
0
  6
Continuous
100
AcDbEllipse
 10
-214.425174
 20
-226.984787
 30
0.0
 11
4.5
 21
0.0
 31
0.0
210
0.0
220
0.0
230
1.0
 40
0.707107
 41
5.3002993159359626
 42
4.1244786448334168
  0
ELLIPSE
  5
1F8
100
AcDbEntity
  8
0
370
    -3
390
0
  6
Continuous
100
AcDbEllipse
 10
-214.425174
 20
-227.521305
 30
0.0
 11
3.5
 21
0.0
 31
0.0
210
0.0
220
0.0
230
1.0
 40
0.860398
 41
0.0
 42
6.2831853071795862
  0
ELLIPSE
  5
1F9
100
AcDbEntity
  8
0
370
    -3
390
0
  6
Continuous
100
AcDbEllipse
 10
-214.425174
 20
-226.419101
 30
0.0
 11
5.0
 21
0.0
 31
0.0
210
0.0
220
0.0
230
1.0
 40
0.707107
 41
3.1415926535897931
 42
3.8808644805304136
  0
ELLIPSE
  5
1FA
100
AcDbEntity
  8
0
370
    -3
390
0
  6
Continuous
100
AcDbEllipse
 10
-214.425174
 20
-226.419101
 30
0.0
 11
5.0
 21
0.0
 31
0.0
210
0.0
220
0.0
230
1.0
 40
0.707107
 41
5.5439134802389658
 42
0.0
  0
LINE
  5
1FB
100
AcDbEntity
  8
0
370
    -3
390
0
  6
Continuous
100
AcDbLine
 10
-209.925174
 20
-226.984787
 30
0.0
 11
-209.925174
 21
-226.419101
 31
0.0
  0
LINE
  5
1FC
100
AcDbEntity
  8
0
370
    -3
390
0
  6
Continuous
100
AcDbLine
 10
-218.925174
 20
-226.984787
 30
0.0
 11
-218.925174
 21
-226.419101
 31
0.0
  0
ELLIPSE
  5
1FD
100
AcDbEntity
  8
0
370
    -3
390
0
  6
Continuous
100
AcDbEllipse
 10
-214.425174
 20
-226.419101
 30
0.0
 11
4.5
 21
0.0
 31
0.0
210
0.0
220
0.0
230
1.0
 40
0.707107
 41
0.0
 42
3.1415926535897931
  0
LINE
  5
1FE
100
AcDbEntity
  8
0
370
    -3
390
0
  6
Continuous
100
AcDbLine
 10
-209.425174
 20
-226.419101
 30
0.0
 11
-209.425174
 21
-225.602498
 31
0.0
  0
LINE
  5
1FF
100
AcDbEntity
  8
0
370
    -3
390
0
  6
Continuous
100
AcDbLine
 10
-219.425174
 20
-226.419101
 30
0.0
 11
-219.425174
 21
-225.602498
 31
0.0
  0
ELLIPSE
  5
200
100
AcDbEntity
  8
0
370
    -3
390
0
  6
Continuous
100
AcDbEllipse
 10
-214.425174
 20
-225.602498
 30
0.0
 11
5.0
 21
0.0
 31
0.0
210
0.0
220
0.0
230
1.0
 40
0.707107
 41
0.0
 42
3.1415926535897931
  0
LINE
  5
201
100
AcDbEntity
  8
0
370
    -3
390
0
  6
Continuous
100
AcDbLine
 10
-214.425174
 20
-91.078863
 30
0.0
 11
-216.354379
 21
-89.868201
 31
0.0
  0
LINE
  5
202
100
AcDbEntity
  8
0
370
    -3
390
0
  6
Continuous
100
AcDbLine
 10
-214.425174
 20
-91.078863
 30
0.0
 11
-216.425174
 21
-92.652201
 31
0.0
  0
LINE
  5
203
100
AcDbEntity
  8
0
370
    -3
390
0
  6
Continuous
100
AcDbLine
 10
-214.425174
 20
-91.078863
 30
0.0
 11
-212.49597
 21
-89.868201
 31
0.0
  0
LINE
  5
204
100
AcDbEntity
  8
0
370
    -3
390
0
  6
Continuous
100
AcDbLine
 10
-214.425174
 20
-91.078863
 30
0.0
 11
-212.425174
 21
-92.652201
 31
0.0
  0
ELLIPSE
  5
205
100
AcDbEntity
  8
0
370
    -3
390
0
  6
Continuous
100
AcDbEllipse
 10
-214.425174
 20
-92.917341
 30
0.0
 11
4.5
 21
0.0
 31
0.0
210
0.0
220
0.0
230
1.0
 40
0.707107
 41
2.158706662346169
 42
0.9828859912436241
  0
ELLIPSE
  5
206
100
AcDbEntity
  8
0
370
    -3
390
0
  6
Continuous
100
AcDbEllipse
 10
-214.425174
 20
-92.380823
 30
0.0
 11
3.5
 21
0.0
 31
0.0
210
0.0
220
0.0
230
1.0
 40
0.860398
 41
0.0
 42
6.2831853071795862
  0
ELLIPSE
  5
207
100
AcDbEntity
  8
0
370
    -3
390
0
  6
Continuous
100
AcDbEllipse
 10
-214.425174
 20
-93.483026
 30
0.0
 11
5.0
 21
0.0
 31
0.0
210
0.0
220
0.0
230
1.0
 40
0.707107
 41
2.4023208266491727
 42
3.1415926535897931
  0
ELLIPSE
  5
208
100
AcDbEntity
  8
0
370
    -3
390
0
  6
Continuous
100
AcDbEllipse
 10
-214.425174
 20
-93.483026
 30
0.0
 11
5.0
 21
0.0
 31
0.0
210
0.0
220
0.0
230
1.0
 40
0.707107
 41
0.0
 42
0.7392718269406207
  0
LINE
  5
209
100
AcDbEntity
  8
0
370
    -3
390
0
  6
Continuous
100
AcDbLine
 10
-209.925174
 20
-92.917341
 30
0.0
 11
-209.925174
 21
-93.483026
 31
0.0
  0
LINE
  5
20A
100
AcDbEntity
  8
0
370
    -3
390
0
  6
Continuous
100
AcDbLine
 10
-218.925174
 20
-92.917341
 30
0.0
 11
-218.925174
 21
-93.483026
 31
0.0
  0
ELLIPSE
  5
20B
100
AcDbEntity
  8
0
370
    -3
390
0
  6
Continuous
100
AcDbEllipse
 10
-214.425174
 20
-93.483026
 30
0.0
 11
4.5
 21
0.0
 31
0.0
210
0.0
220
0.0
230
1.0
 40
0.707107
 41
3.1415926535897931
 42
0.0
  0
LINE
  5
20C
100
AcDbEntity
  8
0
370
    -3
390
0
  6
Continuous
100
AcDbLine
 10
-209.425174
 20
-93.483026
 30
0.0
 11
-209.425174
 21
-94.29963
 31
0.0
  0
LINE
  5
20D
100
AcDbEntity
  8
0
370
    -3
390
0
  6
Continuous
100
AcDbLine
 10
-219.425174
 20
-93.483026
 30
0.0
 11
-219.425174
 21
-94.29963
 31
0.0
  0
ELLIPSE
  5
20E
100
AcDbEntity
  8
0
370
    -3
390
0
  6
Continuous
100
AcDbEllipse
 10
-214.425174
 20
-94.29963
 30
0.0
 11
5.0
 21
0.0
 31
0.0
210
0.0
220
0.0
230
1.0
 40
0.707107
 41
3.1415926535897931
 42
0.0
  0
ARC
  5
20F
100
AcDbEntity
  8
0
370
    -3
390
0
  6
Continuous
100
AcDbCircle
 10
-330.125175
 20
-228.891533
 30
0.0
 40
3.8
100
AcDbArc
 50
180.0
 51
240.0
  0
ARC
  5
210
100
AcDbEntity
  8
0
370
    -3
390
0
  6
Continuous
100
AcDbCircle
 10
-294.993208
 20
-206.451064
 30
0.0
 40
40.8
100
AcDbArc
 50
240.0
 51
270.0
  0
LINE
  5
211
100
AcDbEntity
  8
0
370
    -3
390
0
  6
Continuous
100
AcDbLine
 10
-332.025175
 20
-232.182429
 30
0.0
 11
-315.393208
 21
-241.7849
 31
0.0
  0
LINE
  5
212
100
AcDbEntity
  8
0
370
    -3
390
0
  6
Continuous
100
AcDbLine
 10
-333.925175
 20
-228.891533
 30
0.0
 11
-333.925175
 21
-159.951064
 31
0.0
  0
ARC
  5
213
100
AcDbEntity
  8
0
370
    -3
390
0
  6
Continuous
100
AcDbCircle
 10
-213.975174
 20
-128.449274
 30
0.0
 40
5.0
100
AcDbArc
 50
90.0
 51
180.0
  0
LINE
  5
214
100
AcDbEntity
  8
0
370
    -3
390
0
  6
Continuous
100
AcDbLine
 10
-178.925174
 20
-123.449274
 30
0.0
 11
-213.975174
 21
-123.449274
 31
0.0
  0
ARC
  5
215
100
AcDbEntity
  8
0
370
    -3
390
0
  6
Continuous
100
AcDbCircle
 10
-214.375174
 20
-128.354456
 30
0.0
 40
11.0
100
AcDbArc
 50
90.0
 51
180.0
  0
LINE
  5
216
100
AcDbEntity
  8
0
370
    -3
390
0
  6
Continuous
100
AcDbLine
 10
-214.375174
 20
-117.354456
 30
0.0
 11
-178.925174
 21
-117.354456
 31
0.0
  0
ARC
  5
217
100
AcDbEntity
  8
0
370
    -3
390
0
  6
Continuous
100
AcDbCircle
 10
-213.975174
 20
-134.951064
 30
0.0
 40
5.0
100
AcDbArc
 50
90.0
 51
180.0
  0
LINE
  5
218
100
AcDbEntity
  8
0
370
    -3
390
0
  6
Continuous
100
AcDbLine
 10
-178.925174
 20
-129.951064
 30
0.0
 11
-213.975174
 21
-129.951064
 31
0.0
  0
LINE
  5
219
100
AcDbEntity
  8
0
370
    -3
390
0
  6
Continuous
100
AcDbLine
 10
-143.475174
 20
-219.736966
 30
0.0
 11
-178.925174
 21
-219.736966
 31
0.0
  0
LINE
  5
21A
100
AcDbEntity
  8
0
370
    -3
390
0
  6
Continuous
100
AcDbLine
 10
-143.475174
 20
-220.957175
 30
0.0
 11
-178.925174
 21
-220.957175
 31
0.0
  0
ELLIPSE
  5
21B
100
AcDbEntity
  8
0
370
    -3
390
0
  6
Continuous
100
AcDbEllipse
 10
-178.925174
 20
-212.723152
 30
0.0
 11
8.0
 21
0.0
 31
0.0
210
0.0
220
0.0
230
1.0
 40
0.913545
 41
1.5707963267948966
 42
2.4673754548869451
  0
ELLIPSE
  5
21C
100
AcDbEntity
  8
0
370
    -3
390
0
  6
Continuous
100
AcDbEllipse
 10
-178.925174
 20
-213.524856
 30
0.0
 11
8.0
 21
0.0
 31
0.0
210
0.0
220
0.0
230
1.0
 40
0.913545
 41
1.5707963267948966
 42
2.3717426386694425
  0
LINE
  5
21D
100
AcDbEntity
  8
0
370
    -3
390
0
  6
Continuous
100
AcDbLine
 10
-176.925174
 20
-214.385962
 30
0.0
 11
-180.925174
 21
-210.73178
 31
0.0
  0
LINE
  5
21E
100
AcDbEntity
  8
0
370
    -3
390
0
  6
Continuous
100
AcDbLine
 10
-180.925174
 20
-214.385962
 30
0.0
 11
-176.925174
 21
-210.73178
 31
0.0
  0
ELLIPSE
  5
21F
100
AcDbEntity
  8
0
370
    -3
390
0
  6
Continuous
100
AcDbEllipse
 10
-178.925174
 20
-213.269558
 30
0.0
 11
3.5
 21
0.0
 31
0.0
210
0.0
220
0.0
230
1.0
 40
0.986488
 41
0.0
 42
6.2831853071795862
  0
ELLIPSE
  5
220
100
AcDbEntity
  8
0
370
    -3
390
0
  6
Continuous
100
AcDbEllipse
 10
-178.925174
 20
-213.524856
 30
0.0
 11
8.0
 21
0.0
 31
0.0
210
0.0
220
0.0
230
1.0
 40
0.913545
 41
0.7698500149201927
 42
1.5707963267948966
  0
ARC
  5
221
100
AcDbEntity
  8
0
370
    -3
390
0
  6
Continuous
100
AcDbCircle
 10
-170.4377
 20
-205.527019
 30
0.0
 40
4.0
100
AcDbArc
 50
226.698421
 51
270.0
  0
ELLIPSE
  5
222
100
AcDbEntity
  8
0
370
    -3
390
0
  6
Continuous
100
AcDbEllipse
 10
-178.925174
 20
-212.723152
 30
0.0
 11
8.0
 21
0.0
 31
0.0
210
0.0
220
0.0
230
1.0
 40
0.913545
 41
0.6742171987028479
 42
1.5707963267948966
  0
ARC
  5
223
100
AcDbEntity
  8
0
370
    -3
390
0
  6
Continuous
100
AcDbCircle
 10
-169.664956
 20
-205.527019
 30
0.0
 40
4.0
100
AcDbArc
 50
221.178434
 51
270.0
  0
LINE
  5
224
100
AcDbEntity
  8
0
370
    -3
390
0
  6
Continuous
100
AcDbLine
 10
-214.375174
 20
-219.736966
 30
0.0
 11
-178.925174
 21
-219.736966
 31
0.0
  0
LINE
  5
225
100
AcDbEntity
  8
0
370
    -3
390
0
  6
Continuous
100
AcDbLine
 10
-214.375174
 20
-220.957175
 30
0.0
 11
-178.925174
 21
-220.957175
 31
0.0
  0
POINT
  5
226
100
AcDbEntity
  8
0
370
    -3
390
0
  6
CENTER
100
AcDbPoint
 10
-178.925174
 20
-220.957175
 30
0.0
  0
LINE
  5
227
100
AcDbEntity
  8
0
370
    -3
390
0
  6
Continuous
100
AcDbLine
 10
-225.375174
 20
-128.354456
 30
0.0
 11
-225.375174
 21
-209.957175
 31
0.0
  0
LINE
  5
228
100
AcDbEntity
  8
0
370
    -3
390
0
  6
Continuous
100
AcDbLine
 10
-218.975174
 20
-128.449274
 30
0.0
 11
-218.975174
 21
-204.527019
 31
0.0
  0
ARC
  5
229
100
AcDbEntity
  8
0
370
    -3
390
0
  6
Continuous
100
AcDbCircle
 10
-213.975174
 20
-204.527019
 30
0.0
 40
5.0
100
AcDbArc
 50
180.0
 51
270.0
  0
LINE
  5
22A
100
AcDbEntity
  8
0
370
    -3
390
0
  6
Continuous
100
AcDbLine
 10
-187.412649
 20
-209.527019
 30
0.0
 11
-213.975174
 21
-209.527019
 31
0.0
  0
ARC
  5
22B
100
AcDbEntity
  8
0
370
    -3
390
0
  6
Continuous
100
AcDbCircle
 10
-214.375174
 20
-209.957175
 30
0.0
 40
11.0
100
AcDbArc
 50
180.0
 51
270.0
  0
ARC
  5
22C
100
AcDbEntity
  8
0
370
    -3
390
0
  6
Continuous
100
AcDbCircle
 10
-214.375174
 20
-208.736966
 30
0.0
 40
11.0
100
AcDbArc
 50
180.0
 51
270.0
  0
LINE
  5
22D
100
AcDbEntity
  8
0
370
    -3
390
0
  6
Continuous
100
AcDbLine
 10
-170.4377
 20
-209.527019
 30
0.0
 11
-143.875174
 21
-209.527019
 31
0.0
  0
ARC
  5
22E
100
AcDbEntity
  8
0
370
    -3
390
0
  6
Continuous
100
AcDbCircle
 10
-188.185393
 20
-205.527019
 30
0.0
 40
4.0
100
AcDbArc
 50
270.0
 51
318.821566
  0
ARC
  5
22F
100
AcDbEntity
  8
0
370
    -3
390
0
  6
Continuous
100
AcDbCircle
 10
-187.412649
 20
-205.527019
 30
0.0
 40
4.0
100
AcDbArc
 50
270.0
 51
313.301579
  0
ARC
  5
230
100
AcDbEntity
  8
0
370
    -3
390
0
  6
Continuous
100
AcDbCircle
 10
-143.475174
 20
-209.957175
 30
0.0
 40
11.0
100
AcDbArc
 50
270.0
 51
0.0
  0
ARC
  5
231
100
AcDbEntity
  8
0
370
    -3
390
0
  6
Continuous
100
AcDbCircle
 10
-143.475174
 20
-208.736966
 30
0.0
 40
11.0
100
AcDbArc
 50
270.0
 51
0.0
  0
POINT
  5
232
100
AcDbEntity
  8
0
370
    -3
390
0
  6
CENTER
100
AcDbPoint
 10
-165.425174
 20
-219.736966
 30
0.0
  0
POINT
  5
233
100
AcDbEntity
  8
0
370
    -3
390
0
  6
CENTER
100
AcDbPoint
 10
-192.425174
 20
-219.736966
 30
0.0
  0
ARC
  5
234
100
AcDbEntity
  8
0
370
    -3
390
0
  6
Continuous
100
AcDbCircle
 10
-143.875174
 20
-204.527019
 30
0.0
 40
5.0
100
AcDbArc
 50
270.0
 51
0.0
  0
LINE
  5
235
100
AcDbEntity
  8
0
370
    -3
390
0
  6
Continuous
100
AcDbLine
 10
-138.875174
 20
-128.449274
 30
0.0
 11
-138.875174
 21
-204.527019
 31
0.0
  0
LINE
  5
236
100
AcDbEntity
  8
0
370
    -3
390
0
  6
Continuous
100
AcDbLine
 10
-132.475174
 20
-128.354456
 30
0.0
 11
-132.475174
 21
-209.957175
 31
0.0
  0
LINE
  5
237
100
AcDbEntity
  8
0
370
    -3
390
0
  6
Continuous
100
AcDbLine
 10
-178.925174
 20
-129.951064
 30
0.0
 11
-143.875174
 21
-129.951064
 31
0.0
  0
ARC
  5
238
100
AcDbEntity
  8
0
370
    -3
390
0
  6
Continuous
100
AcDbCircle
 10
-143.475174
 20
-128.354456
 30
0.0
 40
11.0
100
AcDbArc
 50
0.0
 51
90.0
  0
ARC
  5
239
100
AcDbEntity
  8
0
370
    -3
390
0
  6
Continuous
100
AcDbCircle
 10
-143.875174
 20
-128.449274
 30
0.0
 40
5.0
100
AcDbArc
 50
0.0
 51
90.0
  0
LINE
  5
23A
100
AcDbEntity
  8
0
370
    -3
390
0
  6
Continuous
100
AcDbLine
 10
-178.925174
 20
-123.449274
 30
0.0
 11
-143.875174
 21
-123.449274
 31
0.0
  0
ARC
  5
23B
100
AcDbEntity
  8
0
370
    -3
390
0
  6
Continuous
100
AcDbCircle
 10
-143.875174
 20
-134.951064
 30
0.0
 40
5.0
100
AcDbArc
 50
0.0
 51
90.0
  0
LINE
  5
23C
100
AcDbEntity
  8
0
370
    -3
390
0
  6
Continuous
100
AcDbLine
 10
-143.475174
 20
-117.354456
 30
0.0
 11
-178.925174
 21
-117.354456
 31
0.0
  0
LINE
  5
23D
100
AcDbEntity
  8
0
370
    -3
390
0
  6
CENTER
100
AcDbLine
 10
-178.925174
 20
-114.451464
 30
0.0
 11
-178.925174
 21
-227.105183
 31
0.0
  0
LINE
  5
23E
100
AcDbEntity
  8
0
370
    -3
390
0
  6
Continuous
100
AcDbLine
 10
-155.466656
 20
156.548936
 30
0.0
 11
-18.925174
 21
156.548936
 31
0.0
  0
LINE
  5
23F
100
AcDbEntity
  8
0
370
    -3
390
0
  6
Continuous
100
AcDbLine
 10
-18.925174
 20
157.548936
 30
0.0
 11
-154.925174
 21
157.548936
 31
0.0
  0
LINE
  5
240
100
AcDbEntity
  8
0
370
    -3
390
0
  6
Continuous
100
AcDbLine
 10
-18.925174
 20
160.048936
 30
0.0
 11
-188.925175
 21
160.048936
 31
0.0
  0
LINE
  5
241
100
AcDbEntity
  8
0
370
    -3
390
0
  6
Continuous
100
AcDbLine
 10
-18.925174
 20
165.048936
 30
0.0
 11
-188.925175
 21
165.048936
 31
0.0
  0
LINE
  5
242
100
AcDbEntity
  8
0
370
    -3
390
0
  6
Continuous
100
AcDbLine
 10
-18.925174
 20
174.169724
 30
0.0
 11
-188.925175
 21
174.169724
 31
0.0
  0
LINE
  5
243
100
AcDbEntity
  8
0
370
    -3
390
0
  6
Continuous
100
AcDbLine
 10
-18.925174
 20
181.240791
 30
0.0
 11
-188.925175
 21
181.240791
 31
0.0
  0
LINE
  5
244
100
AcDbEntity
  8
0
370
    -3
390
0
  6
Continuous
100
AcDbLine
 10
-18.925174
 20
193.911212
 30
0.0
 11
-188.925175
 21
193.911212
 31
0.0
  0
LINE
  5
245
100
AcDbEntity
  8
0
370
    -3
390
0
  6
Continuous
100
AcDbLine
 10
-18.925174
 20
196.133539
 30
0.0
 11
-188.925175
 21
196.133539
 31
0.0
  0
LINE
  5
246
100
AcDbEntity
  8
0
370
    -3
390
0
  6
Continuous
100
AcDbLine
 10
-18.925174
 20
203.943998
 30
0.0
 11
-188.925175
 21
203.943998
 31
0.0
  0
LINE
  5
247
100
AcDbEntity
  8
0
370
    -3
390
0
  6
Continuous
100
AcDbLine
 10
-18.925174
 20
206.110708
 30
0.0
 11
-188.925175
 21
206.110708
 31
0.0
  0
LINE
  5
248
100
AcDbEntity
  8
0
370
    -3
390
0
  6
Continuous
100
AcDbLine
 10
-18.925174
 20
214.006316
 30
0.0
 11
-188.925175
 21
214.006316
 31
0.0
  0
LINE
  5
249
100
AcDbEntity
  8
0
370
    -3
390
0
  6
Continuous
100
AcDbLine
 10
-18.925174
 20
216.071079
 30
0.0
 11
-188.925175
 21
216.071079
 31
0.0
  0
LINE
  5
24A
100
AcDbEntity
  8
0
370
    -3
390
0
  6
Continuous
100
AcDbLine
 10
-18.925174
 20
224.077208
 30
0.0
 11
-188.925175
 21
224.077208
 31
0.0
  0
LINE
  5
24B
100
AcDbEntity
  8
0
370
    -3
390
0
  6
Continuous
100
AcDbLine
 10
-18.925174
 20
226.019592
 30
0.0
 11
-188.925175
 21
226.019592
 31
0.0
  0
LINE
  5
24C
100
AcDbEntity
  8
0
370
    -3
390
0
  6
Continuous
100
AcDbLine
 10
-18.925174
 20
234.109666
 30
0.0
 11
-188.925175
 21
234.109666
 31
0.0
  0
LINE
  5
24D
100
AcDbEntity
  8
0
370
    -3
390
0
  6
Continuous
100
AcDbLine
 10
-18.925174
 20
236.004439
 30
0.0
 11
-188.925175
 21
236.004439
 31
0.0
  0
LINE
  5
24E
100
AcDbEntity
  8
0
370
    -3
390
0
  6
Continuous
100
AcDbLine
 10
-18.925174
 20
244.093434
 30
0.0
 11
-188.925175
 21
244.093434
 31
0.0
  0
LINE
  5
24F
100
AcDbEntity
  8
0
370
    -3
390
0
  6
Continuous
100
AcDbLine
 10
-18.925174
 20
245.988206
 30
0.0
 11
-188.925175
 21
245.988206
 31
0.0
  0
LINE
  5
250
100
AcDbEntity
  8
0
370
    -3
390
0
  6
Continuous
100
AcDbLine
 10
-18.925174
 20
254.078281
 30
0.0
 11
-188.925175
 21
254.078281
 31
0.0
  0
LINE
  5
251
100
AcDbEntity
  8
0
370
    -3
390
0
  6
Continuous
100
AcDbLine
 10
-18.925174
 20
256.020664
 30
0.0
 11
-188.925175
 21
256.020664
 31
0.0
  0
LINE
  5
252
100
AcDbEntity
  8
0
370
    -3
390
0
  6
Continuous
100
AcDbLine
 10
-18.925174
 20
264.026794
 30
0.0
 11
-188.925175
 21
264.026794
 31
0.0
  0
LINE
  5
253
100
AcDbEntity
  8
0
370
    -3
390
0
  6
Continuous
100
AcDbLine
 10
-18.925174
 20
266.091557
 30
0.0
 11
-188.925175
 21
266.091557
 31
0.0
  0
LINE
  5
254
100
AcDbEntity
  8
0
370
    -3
390
0
  6
Continuous
100
AcDbLine
 10
-18.925174
 20
273.987164
 30
0.0
 11
-188.925175
 21
273.987164
 31
0.0
  0
LINE
  5
255
100
AcDbEntity
  8
0
370
    -3
390
0
  6
Continuous
100
AcDbLine
 10
-18.925174
 20
276.153874
 30
0.0
 11
-188.925175
 21
276.153874
 31
0.0
  0
LINE
  5
256
100
AcDbEntity
  8
0
370
    -3
390
0
  6
Continuous
100
AcDbLine
 10
-18.925174
 20
283.964334
 30
0.0
 11
-188.925175
 21
283.964334
 31
0.0
  0
LINE
  5
257
100
AcDbEntity
  8
0
370
    -3
390
0
  6
Continuous
100
AcDbLine
 10
-18.925174
 20
286.18666
 30
0.0
 11
-188.925175
 21
286.18666
 31
0.0
  0
LINE
  5
258
100
AcDbEntity
  8
0
370
    -3
390
0
  6
Continuous
100
AcDbLine
 10
-18.925174
 20
298.857081
 30
0.0
 11
-188.925175
 21
298.857081
 31
0.0
  0
LINE
  5
259
100
AcDbEntity
  8
0
370
    -3
390
0
  6
Continuous
100
AcDbLine
 10
-18.925174
 20
305.928149
 30
0.0
 11
-188.925175
 21
305.928149
 31
0.0
  0
LINE
  5
25A
100
AcDbEntity
  8
0
370
    -3
390
0
  6
Continuous
100
AcDbLine
 10
-18.925174
 20
315.048936
 30
0.0
 11
-188.925175
 21
315.048936
 31
0.0
  0
LINE
  5
25B
100
AcDbEntity
  8
0
370
    -3
390
0
  6
Continuous
100
AcDbLine
 10
-18.925174
 20
320.048936
 30
0.0
 11
-188.925175
 21
320.048936
 31
0.0
  0
LINE
  5
25C
100
AcDbEntity
  8
0
370
    -3
390
0
  6
Continuous
100
AcDbLine
 10
-18.925174
 20
322.548936
 30
0.0
 11
-188.925175
 21
322.548936
 31
0.0
  0
LINE
  5
25D
100
AcDbEntity
  8
0
370
    -3
390
0
  6
Continuous
100
AcDbLine
 10
-188.925175
 20
323.548936
 30
0.0
 11
-18.925174
 21
323.548936
 31
0.0
  0
ARC
  5
25E
100
AcDbEntity
  8
0
370
    -3
390
0
  6
Continuous
100
AcDbCircle
 10
53.574826
 20
354.292168
 30
0.0
 40
10.0
100
AcDbArc
 50
180.0
 51
265.49584
  0
LINE
  5
25F
100
AcDbEntity
  8
0
370
    -3
390
0
  6
Continuous
100
AcDbLine
 10
59.074826
 20
343.827927
 30
0.0
 11
52.789511
 21
344.323052
 31
0.0
  0
LINE
  5
260
100
AcDbEntity
  8
0
370
    -3
390
0
  6
CENTER
100
AcDbLine
 10
-349.173243
 20
240.048936
 30
0.0
 11
427.567201
 21
240.048936
 31
0.0
  0
LINE
  5
261
100
AcDbEntity
  8
0
370
    -3
390
0
  6
Continuous
100
AcDbLine
 10
43.574826
 20
405.434941
 30
0.0
 11
43.574826
 21
354.292168
 31
0.0
  0
LINE
  5
262
100
AcDbEntity
  8
0
370
    -3
390
0
  6
Continuous
100
AcDbLine
 10
77.473788
 20
352.304987
 30
0.0
 11
101.074853
 21
385.944772
 31
0.0
  0
ARC
  5
263
100
AcDbEntity
  8
0
370
    -3
390
0
  6
Continuous
100
AcDbCircle
 10
73.380673
 20
355.176642
 30
0.0
 40
5.0
100
AcDbArc
 50
273.0
 51
324.947195
  0
LINE
  5
264
100
AcDbEntity
  8
0
370
    -3
390
0
  6
Continuous
100
AcDbLine
 10
94.429657
 20
351.272911
 30
0.0
 11
71.074826
 21
350.048936
 31
0.0
  0
LINE
  5
265
100
AcDbEntity
  8
0
370
    -3
390
0
  6
Continuous
100
AcDbLine
 10
77.575797
 20
329.262252
 30
0.0
 11
112.044684
 21
374.277633
 31
0.0
  0
ARC
  5
266
100
AcDbEntity
  8
0
370
    -3
390
0
  6
Continuous
100
AcDbCircle
 10
73.605939
 20
332.302026
 30
0.0
 40
5.0
100
AcDbArc
 50
270.0
 51
322.558231
  0
LINE
  5
267
100
AcDbEntity
  8
0
370
    -3
390
0
  6
Continuous
100
AcDbLine
 10
80.05064
 20
320.426967
 30
0.0
 11
113.074826
 21
320.426967
 31
0.0
  0
ARC
  5
268
100
AcDbEntity
  8
0
370
    -3
390
0
  6
Continuous
100
AcDbCircle
 10
73.605939
 20
325.426967
 30
0.0
 40
5.0
100
AcDbArc
 50
270.0
 51
322.558231
  0
LINE
  5
269
100
AcDbEntity
  8
0
370
    -3
390
0
  6
Continuous
100
AcDbLine
 10
77.575797
 20
322.387193
 30
0.0
 11
112.044684
 21
367.402574
 31
0.0
  0
ARC
  5
26A
100
AcDbEntity
  8
0
370
    -3
390
0
  6
Continuous
100
AcDbCircle
 10
81.074826
 20
249.548936
 30
0.0
 40
5.0
100
AcDbArc
 50
180.0
 51
270.0
  0
LINE
  5
26B
100
AcDbEntity
  8
0
370
    -3
390
0
  6
Continuous
100
AcDbLine
 10
81.074826
 20
244.548936
 30
0.0
 11
90.786185
 21
244.548936
 31
0.0
  0
ARC
  5
26C
100
AcDbEntity
  8
0
370
    -3
390
0
  6
Continuous
100
AcDbCircle
 10
81.074826
 20
230.548936
 30
0.0
 40
5.0
100
AcDbArc
 50
90.0
 51
180.0
  0
LINE
  5
26D
100
AcDbEntity
  8
0
370
    -3
390
0
  6
Continuous
100
AcDbLine
 10
81.074826
 20
235.548936
 30
0.0
 11
90.786185
 21
235.548936
 31
0.0
  0
ARC
  5
26E
100
AcDbEntity
  8
0
370
    -3
390
0
  6
Continuous
100
AcDbCircle
 10
62.074826
 20
347.048936
 30
0.0
 40
3.0
100
AcDbArc
 50
90.0
 51
180.0
  0
LINE
  5
26F
100
AcDbEntity
  8
0
370
    -3
390
0
  6
Continuous
100
AcDbLine
 10
71.074826
 20
350.048936
 30
0.0
 11
62.074826
 21
350.048936
 31
0.0
  0
ARC
  5
270
100
AcDbEntity
  8
0
370
    -3
390
0
  6
Continuous
100
AcDbCircle
 10
-1.925174
 20
318.548936
 30
0.0
 40
5.0
100
AcDbArc
 50
0.0
 51
90.0
  0
ARC
  5
271
100
AcDbEntity
  8
0
370
    -3
390
0
  6
Continuous
100
AcDbCircle
 10
54.074826
 20
328.548936
 30
0.0
 40
5.0
100
AcDbArc
 50
270.0
 51
0.0
  0
LINE
  5
272
100
AcDbEntity
  8
0
370
    -3
390
0
  6
Continuous
100
AcDbLine
 10
-18.925174
 20
323.548936
 30
0.0
 11
54.074826
 21
323.548936
 31
0.0
  0
LINE
  5
273
100
AcDbEntity
  8
0
370
    -3
390
0
  6
Continuous
100
AcDbLine
 10
59.074826
 20
347.048936
 30
0.0
 11
59.074826
 21
240.048936
 31
0.0
  0
LINE
  5
274
100
AcDbEntity
  8
0
370
    -3
390
0
  6
Continuous
100
AcDbLine
 10
3.074826
 20
318.548936
 30
0.0
 11
3.074826
 21
240.048936
 31
0.0
  0
LINE
  5
275
100
AcDbEntity
  8
0
370
    -3
390
0
  6
Continuous
100
AcDbLine
 10
-18.925174
 20
240.048936
 30
0.0
 11
-18.925174
 21
323.548936
 31
0.0
  0
ARC
  5
276
100
AcDbEntity
  8
0
370
    -3
390
0
  6
Continuous
100
AcDbCircle
 10
56.074826
 20
258.048936
 30
0.0
 40
3.0
100
AcDbArc
 50
270.0
 51
0.0
  0
LINE
  5
277
100
AcDbEntity
  8
0
370
    -3
390
0
  6
Continuous
100
AcDbLine
 10
6.074826
 20
255.048936
 30
0.0
 11
56.074826
 21
255.048936
 31
0.0
  0
ARC
  5
278
100
AcDbEntity
  8
0
370
    -3
390
0
  6
Continuous
100
AcDbCircle
 10
6.074826
 20
258.048936
 30
0.0
 40
3.0
100
AcDbArc
 50
180.0
 51
270.0
  0
LINE
  5
279
100
AcDbEntity
  8
0
370
    -3
390
0
  6
Continuous
100
AcDbLine
 10
59.074826
 20
253.190365
 30
0.0
 11
71.074826
 21
253.190365
 31
0.0
  0
LINE
  5
27A
100
AcDbEntity
  8
0
370
    -3
390
0
  6
Continuous
100
AcDbLine
 10
71.074826
 20
240.048936
 30
0.0
 11
71.074826
 21
350.048936
 31
0.0
  0
LINE
  5
27B
100
AcDbEntity
  8
0
370
    -3
390
0
  6
Continuous
100
AcDbLine
 10
59.074826
 20
226.907508
 30
0.0
 11
71.074826
 21
226.907508
 31
0.0
  0
ARC
  5
27C
100
AcDbEntity
  8
0
370
    -3
390
0
  6
Continuous
100
AcDbCircle
 10
6.074826
 20
222.048936
 30
0.0
 40
3.0
100
AcDbArc
 50
90.0
 51
180.0
  0
ARC
  5
27D
100
AcDbEntity
  8
0
370
    -3
390
0
  6
Continuous
100
AcDbCircle
 10
56.074826
 20
222.048936
 30
0.0
 40
3.0
100
AcDbArc
 50
0.0
 51
90.0
  0
LINE
  5
27E
100
AcDbEntity
  8
0
370
    -3
390
0
  6
Continuous
100
AcDbLine
 10
6.074826
 20
225.048936
 30
0.0
 11
56.074826
 21
225.048936
 31
0.0
  0
LINE
  5
27F
100
AcDbEntity
  8
0
370
    -3
390
0
  6
Continuous
100
AcDbLine
 10
3.074826
 20
161.548936
 30
0.0
 11
3.074826
 21
240.048936
 31
0.0
  0
LINE
  5
280
100
AcDbEntity
  8
0
370
    -3
390
0
  6
Continuous
100
AcDbLine
 10
71.074826
 20
240.048936
 30
0.0
 11
71.074826
 21
130.048936
 31
0.0
  0
LINE
  5
281
100
AcDbEntity
  8
0
370
    -3
390
0
  6
Continuous
100
AcDbLine
 10
-18.925174
 20
240.048936
 30
0.0
 11
-18.925174
 21
156.548936
 31
0.0
  0
LINE
  5
282
100
AcDbEntity
  8
0
370
    -3
390
0
  6
Continuous
100
AcDbLine
 10
59.074826
 20
133.048936
 30
0.0
 11
59.074826
 21
240.048936
 31
0.0
  0
INSERT
  5
292
100
AcDbEntity
  8
0
390
0
100
AcDbBlockReference
  2
ZU_SYM__USERS_HOME_SYMBOL_STD_SYM_B02_48
 10
59.074826
 20
310.759614
 30
0.0
 41
-1.0
 50
180.0
  0
LINE
  5
293
100
AcDbEntity
  8
0
370
    -3
390
0
  6
Continuous
100
AcDbLine
 10
-18.925174
 20
323.548936
 30
0.0
 11
-18.925174
 21
160.048936
 31
0.0
  0
LINE
  5
294
100
AcDbEntity
  8
0
370
    -3
390
0
  6
CENTER
100
AcDbLine
 10
36.074826
 20
222.169334
 30
0.0
 11
36.074826
 21
257.508407
 31
0.0
  0
CIRCLE
  5
295
100
AcDbEntity
  8
0
370
    -3
390
0
  6
Continuous
100
AcDbCircle
 10
36.074826
 20
240.048936
 30
0.0
 40
10.5
  0
ARC
  5
296
100
AcDbEntity
  8
0
370
    -3
390
0
  6
Continuous
100
AcDbCircle
 10
-576.965223
 20
-159.951064
 30
0.0
 40
76.8
100
AcDbArc
 50
38.737581
 51
51.262419
  0
ARC
  5
297
100
AcDbEntity
  8
0
370
    -3
390
0
  6
Continuous
100
AcDbCircle
 10
-576.965223
 20
143.548936
 30
0.0
 40
374.8
100
AcDbArc
 50
270.0
 51
272.979907
  0
ARC
  5
298
100
AcDbEntity
  8
0
370
    -3
390
0
  6
Continuous
100
AcDbCircle
 10
-880.465223
 20
-159.951064
 30
0.0
 40
374.8
100
AcDbArc
 50
360.0
 51
2.979907
  0
ARC
  5
299
100
AcDbEntity
  8
0
370
    -3
390
0
  6
Continuous
100
AcDbCircle
 10
-880.465223
 20
-159.951064
 30
0.0
 40
374.8
100
AcDbArc
 50
357.020093
 51
0.0
  0
ARC
  5
29A
100
AcDbEntity
  8
0
370
    -3
390
0
  6
Continuous
100
AcDbCircle
 10
-555.90468
 20
-176.846433
 30
0.0
 40
49.8
100
AcDbArc
 50
321.262419
 51
357.020093
  0
ARC
  5
29B
100
AcDbEntity
  8
0
370
    -3
390
0
  6
Continuous
100
AcDbCircle
 10
-576.965223
 20
-159.951064
 30
0.0
 40
76.8
100
AcDbArc
 50
308.737581
 51
321.262419
  0
ARC
  5
29C
100
AcDbEntity
  8
0
370
    -3
390
0
  6
Continuous
100
AcDbCircle
 10
-560.069854
 20
-181.011607
 30
0.0
 40
49.8
100
AcDbArc
 50
272.979907
 51
308.737581
  0
ARC
  5
29D
100
AcDbEntity
  8
0
370
    -3
390
0
  6
Continuous
100
AcDbCircle
 10
-576.965223
 20
143.548936
 30
0.0
 40
374.8
100
AcDbArc
 50
267.020093
 51
270.0
  0
ARC
  5
29E
100
AcDbEntity
  8
0
370
    -3
390
0
  6
Continuous
100
AcDbCircle
 10
-576.965223
 20
-159.951064
 30
0.0
 40
76.8
100
AcDbArc
 50
218.737581
 51
231.262419
  0
ARC
  5
29F
100
AcDbEntity
  8
0
370
    -3
390
0
  6
Continuous
100
AcDbCircle
 10
-593.860592
 20
-181.011607
 30
0.0
 40
49.8
100
AcDbArc
 50
231.262419
 51
267.020093
  0
ARC
  5
2A0
100
AcDbEntity
  8
0
370
    -3
390
0
  6
Continuous
100
AcDbCircle
 10
-598.025767
 20
-176.846433
 30
0.0
 40
49.8
100
AcDbArc
 50
182.979907
 51
218.737581
  0
ARC
  5
2A1
100
AcDbEntity
  8
0
370
    -3
390
0
  6
Continuous
100
AcDbCircle
 10
-273.465223
 20
-159.951064
 30
0.0
 40
374.8
100
AcDbArc
 50
180.0
 51
182.979907
  0
ARC
  5
2A2
100
AcDbEntity
  8
0
370
    -3
390
0
  6
Continuous
100
AcDbCircle
 10
-598.025767
 20
-143.055695
 30
0.0
 40
49.8
100
AcDbArc
 50
141.262419
 51
177.020093
  0
ARC
  5
2A3
100
AcDbEntity
  8
0
370
    -3
390
0
  6
Continuous
100
AcDbCircle
 10
-576.965223
 20
-159.951064
 30
0.0
 40
76.8
100
AcDbArc
 50
128.737581
 51
141.262419
  0
ARC
  5
2A4
100
AcDbEntity
  8
0
370
    -3
390
0
  6
Continuous
100
AcDbCircle
 10
-593.860592
 20
-138.89052
 30
0.0
 40
49.8
100
AcDbArc
 50
92.979907
 51
128.737581
  0
ARC
  5
2A5
100
AcDbEntity
  8
0
370
    -3
390
0
  6
Continuous
100
AcDbCircle
 10
-576.965223
 20
-463.451064
 30
0.0
 40
374.8
100
AcDbArc
 50
90.0
 51
92.979907
  0
ARC
  5
2A6
100
AcDbEntity
  8
0
370
    -3
390
0
  6
Continuous
100
AcDbCircle
 10
-576.965223
 20
-463.451064
 30
0.0
 40
374.8
100
AcDbArc
 50
87.020093
 51
90.0
  0
ARC
  5
2A7
100
AcDbEntity
  8
0
370
    -3
390
0
  6
Continuous
100
AcDbCircle
 10
-560.069854
 20
-138.89052
 30
0.0
 40
49.8
100
AcDbArc
 50
51.262419
 51
87.020093
  0
ARC
  5
2A8
100
AcDbEntity
  8
0
370
    -3
390
0
  6
Continuous
100
AcDbCircle
 10
-555.90468
 20
-143.055695
 30
0.0
 40
49.8
100
AcDbArc
 50
2.979907
 51
38.737581
  0
ARC
  5
2A9
100
AcDbEntity
  8
0
370
    -3
390
0
  6
Continuous
100
AcDbCircle
 10
-576.965223
 20
-159.951064
 30
0.0
 40
92.8
100
AcDbArc
 50
308.737581
 51
321.262419
  0
ARC
  5
2AA
100
AcDbEntity
  8
0
370
    -3
390
0
  6
Continuous
100
AcDbCircle
 10
-560.069854
 20
-181.011607
 30
0.0
 40
65.8
100
AcDbArc
 50
272.979907
 51
308.737581
  0
ARC
  5
2AB
100
AcDbEntity
  8
0
370
    -3
390
0
  6
Continuous
100
AcDbCircle
 10
-576.965223
 20
-159.951064
 30
0.0
 40
92.8
100
AcDbArc
 50
218.737581
 51
231.262419
  0
ARC
  5
2AC
100
AcDbEntity
  8
0
370
    -3
390
0
  6
Continuous
100
AcDbCircle
 10
-593.860592
 20
-181.011607
 30
0.0
 40
65.8
100
AcDbArc
 50
231.262419
 51
267.020093
  0
ARC
  5
2AD
100
AcDbEntity
  8
0
370
    -3
390
0
  6
Continuous
100
AcDbCircle
 10
-598.025767
 20
-176.846433
 30
0.0
 40
65.8
100
AcDbArc
 50
182.979907
 51
218.737581
  0
ARC
  5
2AE
100
AcDbEntity
  8
0
370
    -3
390
0
  6
Continuous
100
AcDbCircle
 10
-576.965223
 20
-159.951064
 30
0.0
 40
92.8
100
AcDbArc
 50
128.737581
 51
141.262419
  0
ARC
  5
2AF
100
AcDbEntity
  8
0
370
    -3
390
0
  6
Continuous
100
AcDbCircle
 10
-598.025767
 20
-143.055695
 30
0.0
 40
65.8
100
AcDbArc
 50
141.262419
 51
177.020093
  0
ARC
  5
2B0
100
AcDbEntity
  8
0
370
    -3
390
0
  6
Continuous
100
AcDbCircle
 10
-593.860592
 20
-138.89052
 30
0.0
 40
65.8
100
AcDbArc
 50
92.979907
 51
128.737581
  0
ARC
  5
2B1
100
AcDbEntity
  8
0
370
    -3
390
0
  6
Continuous
100
AcDbCircle
 10
-576.965223
 20
-159.951064
 30
0.0
 40
92.8
100
AcDbArc
 50
38.737581
 51
51.262419
  0
ARC
  5
2B2
100
AcDbEntity
  8
0
370
    -3
390
0
  6
Continuous
100
AcDbCircle
 10
-560.069854
 20
-138.89052
 30
0.0
 40
65.8
100
AcDbArc
 50
51.262419
 51
87.020093
  0
ARC
  5
2B3
100
AcDbEntity
  8
0
370
    -3
390
0
  6
Continuous
100
AcDbCircle
 10
-555.90468
 20
-143.055695
 30
0.0
 40
65.8
100
AcDbArc
 50
2.979907
 51
38.737581
  0
ARC
  5
2B4
100
AcDbEntity
  8
0
370
    -3
390
0
  6
Continuous
100
AcDbCircle
 10
-880.465223
 20
-159.951064
 30
0.0
 40
390.8
100
AcDbArc
 50
357.020093
 51
2.979907
  0
ARC
  5
2B5
100
AcDbEntity
  8
0
370
    -3
390
0
  6
Continuous
100
AcDbCircle
 10
-555.90468
 20
-176.846433
 30
0.0
 40
65.8
100
AcDbArc
 50
321.262419
 51
357.020093
  0
CIRCLE
  5
2B6
100
AcDbEntity
  8
0
370
    -3
390
0
  6
Continuous
100
AcDbCircle
 10
-576.965223
 20
-159.951064
 30
0.0
 40
5.0
  0
LINE
  5
2B7
100
AcDbEntity
  8
0
370
    -3
390
0
  6
Continuous
100
AcDbLine
 10
-569.018001
 20
-151.898631
 30
0.0
 11
-565.759417
 21
-150.017287
 31
0.0
  0
LINE
  5
2B8
100
AcDbEntity
  8
0
370
    -3
390
0
  6
Continuous
100
AcDbLine
 10
-572.965223
 20
-149.558759
 30
0.0
 11
-572.965223
 21
-145.659458
 31
0.0
  0
LINE
  5
2B9
100
AcDbEntity
  8
0
370
    -3
390
0
  6
Continuous
100
AcDbLine
 10
-580.965223
 20
-149.558759
 30
0.0
 11
-580.965223
 21
-145.659458
 31
0.0
  0
LINE
  5
2BA
100
AcDbEntity
  8
0
370
    -3
390
0
  6
Continuous
100
AcDbLine
 10
-566.018001
 20
-157.094784
 30
0.0
 11
-562.759417
 21
-155.21344
 31
0.0
  0
ARC
  5
2BB
100
AcDbEntity
  8
0
370
    -3
390
0
  6
Continuous
100
AcDbCircle
 10
-576.965223
 20
-159.951064
 30
0.0
 40
65.0
100
AcDbArc
 50
335.465024
 51
25.447929
  0
ARC
  5
2BC
100
AcDbEntity
  8
0
370
    -3
390
0
  6
Continuous
100
AcDbCircle
 10
-525.077725
 20
-124.2203
 30
0.0
 40
2.0
100
AcDbArc
 50
300.0
 51
34.552071
  0
ARC
  5
2BD
100
AcDbEntity
  8
0
370
    -3
390
0
  6
Continuous
100
AcDbCircle
 10
-570.965223
 20
-97.237429
 30
0.0
 40
2.0
100
AcDbArc
 50
84.534976
 51
180.0
  0
ARC
  5
2BE
100
AcDbEntity
  8
0
370
    -3
390
0
  6
Continuous
100
AcDbCircle
 10
-582.965223
 20
-97.237429
 30
0.0
 40
2.0
100
AcDbArc
 50
0.0
 51
95.465024
  0
ARC
  5
2BF
100
AcDbEntity
  8
0
370
    -3
390
0
  6
Continuous
100
AcDbCircle
 10
-520.077725
 20
-132.880554
 30
0.0
 40
2.0
100
AcDbArc
 50
25.447929
 51
120.0
  0
LINE
  5
2C0
100
AcDbEntity
  8
0
370
    -3
390
0
  6
Continuous
100
AcDbLine
 10
-584.912445
 20
-151.898631
 30
0.0
 11
-588.171029
 21
-150.017287
 31
0.0
  0
ARC
  5
2C1
100
AcDbEntity
  8
0
370
    -3
390
0
  6
Continuous
100
AcDbCircle
 10
-628.852722
 20
-124.2203
 30
0.0
 40
2.0
100
AcDbArc
 50
145.447929
 51
240.0
  0
ARC
  5
2C2
100
AcDbEntity
  8
0
370
    -3
390
0
  6
Continuous
100
AcDbCircle
 10
-576.965223
 20
-159.951064
 30
0.0
 40
65.0
100
AcDbArc
 50
95.465024
 51
145.447929
  0
LINE
  5
2C3
100
AcDbEntity
  8
0
370
    -3
390
0
  6
Continuous
100
AcDbLine
 10
-580.965223
 20
-98.242069
 30
0.0
 11
-580.965223
 21
-97.237429
 31
0.0
  0
LINE
  5
2C4
100
AcDbEntity
  8
0
370
    -3
390
0
  6
Continuous
100
AcDbLine
 10
-580.965223
 20
-110.816046
 30
0.0
 11
-580.965223
 21
-107.291782
 31
0.0
  0
LINE
  5
2C5
100
AcDbEntity
  8
0
370
    -3
390
0
  6
Continuous
100
AcDbLine
 10
-580.965223
 20
-123.440791
 30
0.0
 11
-580.965223
 21
-119.897974
 31
0.0
  0
LINE
  5
2C6
100
AcDbEntity
  8
0
370
    -3
390
0
  6
Continuous
100
AcDbLine
 10
-580.965223
 20
-136.197117
 30
0.0
 11
-580.965223
 21
-132.601475
 31
0.0
  0
LINE
  5
2C7
100
AcDbEntity
  8
0
370
    -3
390
0
  6
Continuous
100
AcDbLine
 10
-572.965223
 20
-98.242069
 30
0.0
 11
-572.965223
 21
-97.237429
 31
0.0
  0
LINE
  5
2C8
100
AcDbEntity
  8
0
370
    -3
390
0
  6
Continuous
100
AcDbLine
 10
-572.965223
 20
-110.816046
 30
0.0
 11
-572.965223
 21
-107.291782
 31
0.0
  0
LINE
  5
2C9
100
AcDbEntity
  8
0
370
    -3
390
0
  6
Continuous
100
AcDbLine
 10
-572.965223
 20
-123.440791
 30
0.0
 11
-572.965223
 21
-119.897974
 31
0.0
  0
LINE
  5
2CA
100
AcDbEntity
  8
0
370
    -3
390
0
  6
Continuous
100
AcDbLine
 10
-572.965223
 20
-136.197117
 30
0.0
 11
-572.965223
 21
-132.601475
 31
0.0
  0
LINE
  5
2CB
100
AcDbEntity
  8
0
370
    -3
390
0
  6
Continuous
100
AcDbLine
 10
-628.983912
 20
-126.453958
 30
0.0
 11
-629.852722
 21
-125.952351
 31
0.0
  0
LINE
  5
2CC
100
AcDbEntity
  8
0
370
    -3
390
0
  6
Continuous
100
AcDbLine
 10
-618.114227
 20
-132.729574
 30
0.0
 11
-621.159862
 21
-130.971176
 31
0.0
  0
LINE
  5
2CD
100
AcDbEntity
  8
0
370
    -3
390
0
  6
Continuous
100
AcDbLine
 10
-607.214239
 20
-139.022685
 30
0.0
 11
-610.270934
 21
-137.257901
 31
0.0
  0
LINE
  5
2CE
100
AcDbEntity
  8
0
370
    -3
390
0
  6
Continuous
100
AcDbLine
 10
-596.236297
 20
-145.360803
 30
0.0
 11
-599.324184
 21
-143.57801
 31
0.0
  0
LINE
  5
2CF
100
AcDbEntity
  8
0
370
    -3
390
0
  6
Continuous
100
AcDbLine
 10
-524.946535
 20
-126.453958
 30
0.0
 11
-524.077725
 21
-125.952351
 31
0.0
  0
LINE
  5
2D0
100
AcDbEntity
  8
0
370
    -3
390
0
  6
Continuous
100
AcDbLine
 10
-535.81622
 20
-132.729574
 30
0.0
 11
-532.770585
 21
-130.971176
 31
0.0
  0
LINE
  5
2D1
100
AcDbEntity
  8
0
370
    -3
390
0
  6
Continuous
100
AcDbLine
 10
-546.716207
 20
-139.022685
 30
0.0
 11
-543.659512
 21
-137.257901
 31
0.0
  0
LINE
  5
2D2
100
AcDbEntity
  8
0
370
    -3
390
0
  6
Continuous
100
AcDbLine
 10
-557.69415
 20
-145.360803
 30
0.0
 11
-554.606263
 21
-143.57801
 31
0.0
  0
LINE
  5
2D3
100
AcDbEntity
  8
0
370
    -3
390
0
  6
Continuous
100
AcDbLine
 10
-521.946535
 20
-131.650111
 30
0.0
 11
-521.077725
 21
-131.148503
 31
0.0
  0
LINE
  5
2D4
100
AcDbEntity
  8
0
370
    -3
390
0
  6
Continuous
100
AcDbLine
 10
-532.81622
 20
-137.925726
 30
0.0
 11
-529.770585
 21
-136.167328
 31
0.0
  0
LINE
  5
2D5
100
AcDbEntity
  8
0
370
    -3
390
0
  6
Continuous
100
AcDbLine
 10
-543.716207
 20
-144.218837
 30
0.0
 11
-540.659512
 21
-142.454054
 31
0.0
  0
LINE
  5
2D6
100
AcDbEntity
  8
0
370
    -3
390
0
  6
Continuous
100
AcDbLine
 10
-554.69415
 20
-150.556955
 30
0.0
 11
-551.606263
 21
-148.774163
 31
0.0
  0
ARC
  5
2D7
100
AcDbEntity
  8
0
370
    -3
390
0
  6
Continuous
100
AcDbCircle
 10
-576.965223
 20
-159.951064
 30
0.0
 40
65.0
100
AcDbArc
 50
34.552071
 51
84.534976
  0
ARC
  5
2D8
100
AcDbEntity
  8
0
370
    -3
390
0
  6
Continuous
100
AcDbCircle
 10
-576.965223
 20
-159.951064
 30
0.0
 40
65.0
100
AcDbArc
 50
154.552071
 51
204.534976
  0
LINE
  5
2D9
100
AcDbEntity
  8
0
370
    -3
390
0
  6
Continuous
100
AcDbLine
 10
-631.983912
 20
-131.650111
 30
0.0
 11
-632.852722
 21
-131.148503
 31
0.0
  0
ARC
  5
2DA
100
AcDbEntity
  8
0
370
    -3
390
0
  6
Continuous
100
AcDbCircle
 10
-633.852722
 20
-132.880554
 30
0.0
 40
2.0
100
AcDbArc
 50
60.0
 51
154.552071
  0
LINE
  5
2DB
100
AcDbEntity
  8
0
370
    -3
390
0
  6
Continuous
100
AcDbLine
 10
-632.40678
 20
-187.341459
 30
0.0
 11
-633.276824
 21
-187.84378
 31
0.0
  0
ARC
  5
2DC
100
AcDbEntity
  8
0
370
    -3
390
0
  6
Continuous
100
AcDbCircle
 10
-634.276824
 20
-186.111729
 30
0.0
 40
2.0
100
AcDbArc
 50
204.534976
 51
300.0
  0
LINE
  5
2DD
100
AcDbEntity
  8
0
370
    -3
390
0
  6
Continuous
100
AcDbLine
 10
-621.517397
 20
-181.054471
 30
0.0
 11
-624.569499
 21
-182.816603
 31
0.0
  0
LINE
  5
2DE
100
AcDbEntity
  8
0
370
    -3
390
0
  6
Continuous
100
AcDbLine
 10
-621.114227
 20
-137.925726
 30
0.0
 11
-624.159862
 21
-136.167328
 31
0.0
  0
LINE
  5
2DF
100
AcDbEntity
  8
0
370
    -3
390
0
  6
Continuous
100
AcDbLine
 10
-610.214239
 20
-144.218837
 30
0.0
 11
-613.270934
 21
-142.454054
 31
0.0
  0
LINE
  5
2E0
100
AcDbEntity
  8
0
370
    -3
390
0
  6
Continuous
100
AcDbLine
 10
-587.912445
 20
-157.094784
 30
0.0
 11
-591.171029
 21
-155.21344
 31
0.0
  0
LINE
  5
2E1
100
AcDbEntity
  8
0
370
    -3
390
0
  6
Continuous
100
AcDbLine
 10
-587.965223
 20
-161.683115
 30
0.0
 11
-591.342117
 21
-163.632765
 31
0.0
  0
LINE
  5
2E2
100
AcDbEntity
  8
0
370
    -3
390
0
  6
Continuous
100
AcDbLine
 10
-599.536745
 20
-168.363936
 30
0.0
 11
-602.650662
 21
-170.161756
 31
0.0
  0
LINE
  5
2E3
100
AcDbEntity
  8
0
370
    -3
390
0
  6
Continuous
100
AcDbLine
 10
-610.584047
 20
-174.742098
 30
0.0
 11
-613.652216
 21
-176.513507
 31
0.0
  0
LINE
  5
2E4
100
AcDbEntity
  8
0
370
    -3
390
0
  6
Continuous
100
AcDbLine
 10
-599.236297
 20
-150.556955
 30
0.0
 11
-602.324184
 21
-148.774163
 31
0.0
  0
ARC
  5
2E5
100
AcDbEntity
  8
0
370
    -3
390
0
  6
Continuous
100
AcDbCircle
 10
-576.965223
 20
-159.951064
 30
0.0
 40
65.0
100
AcDbArc
 50
215.465024
 51
265.447929
  0
LINE
  5
2E6
100
AcDbEntity
  8
0
370
    -3
390
0
  6
Continuous
100
AcDbLine
 10
-579.965223
 20
-170.859776
 30
0.0
 11
-579.965223
 21
-174.622465
 31
0.0
  0
LINE
  5
2E7
100
AcDbEntity
  8
0
370
    -3
390
0
  6
Continuous
100
AcDbLine
 10
-583.965223
 20
-168.611318
 30
0.0
 11
-587.342117
 21
-170.560968
 31
0.0
  0
LINE
  5
2E8
100
AcDbEntity
  8
0
370
    -3
390
0
  6
Continuous
100
AcDbLine
 10
-606.584047
 20
-181.670302
 30
0.0
 11
-609.652216
 21
-183.44171
 31
0.0
  0
LINE
  5
2E9
100
AcDbEntity
  8
0
370
    -3
390
0
  6
Continuous
100
AcDbLine
 10
-617.517397
 20
-187.982674
 30
0.0
 11
-620.569499
 21
-189.744806
 31
0.0
  0
LINE
  5
2EA
100
AcDbEntity
  8
0
370
    -3
390
0
  6
Continuous
100
AcDbLine
 10
-628.40678
 20
-194.269663
 30
0.0
 11
-629.276824
 21
-194.771983
 31
0.0
  0
LINE
  5
2EB
100
AcDbEntity
  8
0
370
    -3
390
0
  6
Continuous
100
AcDbLine
 10
-579.965223
 20
-221.749122
 30
0.0
 11
-579.965223
 21
-222.752338
 31
0.0
  0
ARC
  5
2EC
100
AcDbEntity
  8
0
370
    -3
390
0
  6
Continuous
100
AcDbCircle
 10
-581.965223
 20
-222.752338
 30
0.0
 40
2.0
100
AcDbArc
 50
265.447929
 51
0.0
  0
LINE
  5
2ED
100
AcDbEntity
  8
0
370
    -3
390
0
  6
Continuous
100
AcDbLine
 10
-579.965223
 20
-209.197891
 30
0.0
 11
-579.965223
 21
-212.714688
 31
0.0
  0
LINE
  5
2EE
100
AcDbEntity
  8
0
370
    -3
390
0
  6
Continuous
100
AcDbLine
 10
-579.965223
 20
-196.611669
 30
0.0
 11
-579.965223
 21
-200.141237
 31
0.0
  0
LINE
  5
2EF
100
AcDbEntity
  8
0
370
    -3
390
0
  6
Continuous
100
AcDbLine
 10
-579.965223
 20
-183.935434
 30
0.0
 11
-579.965223
 21
-187.501018
 31
0.0
  0
ARC
  5
2F0
100
AcDbEntity
  8
0
370
    -3
390
0
  6
Continuous
100
AcDbCircle
 10
-576.965223
 20
-159.951064
 30
0.0
 40
65.0
100
AcDbArc
 50
274.552071
 51
324.534976
  0
LINE
  5
2F1
100
AcDbEntity
  8
0
370
    -3
390
0
  6
Continuous
100
AcDbLine
 10
-573.965223
 20
-221.749122
 30
0.0
 11
-573.965223
 21
-222.752338
 31
0.0
  0
ARC
  5
2F2
100
AcDbEntity
  8
0
370
    -3
390
0
  6
Continuous
100
AcDbCircle
 10
-571.965223
 20
-222.752338
 30
0.0
 40
2.0
100
AcDbArc
 50
180.0
 51
274.552071
  0
LINE
  5
2F3
100
AcDbEntity
  8
0
370
    -3
390
0
  6
Continuous
100
AcDbLine
 10
-573.965223
 20
-209.197891
 30
0.0
 11
-573.965223
 21
-212.714688
 31
0.0
  0
LINE
  5
2F4
100
AcDbEntity
  8
0
370
    -3
390
0
  6
Continuous
100
AcDbLine
 10
-573.965223
 20
-196.611669
 30
0.0
 11
-573.965223
 21
-200.141237
 31
0.0
  0
LINE
  5
2F5
100
AcDbEntity
  8
0
370
    -3
390
0
  6
Continuous
100
AcDbLine
 10
-573.965223
 20
-183.935434
 30
0.0
 11
-573.965223
 21
-187.501018
 31
0.0
  0
LINE
  5
2F6
100
AcDbEntity
  8
0
370
    -3
390
0
  6
Continuous
100
AcDbLine
 10
-573.965223
 20
-170.859776
 30
0.0
 11
-573.965223
 21
-174.622465
 31
0.0
  0
ARC
  5
2F7
100
AcDbEntity
  8
0
370
    -3
390
0
  6
Continuous
100
AcDbCircle
 10
-273.465223
 20
-159.951064
 30
0.0
 40
374.8
100
AcDbArc
 50
177.020093
 51
180.0
  0
ARC
  5
2F8
100
AcDbEntity
  8
0
370
    -3
390
0
  6
Continuous
100
AcDbCircle
 10
-576.965223
 20
-463.451064
 30
0.0
 40
390.8
100
AcDbArc
 50
87.020093
 51
92.979907
  0
ARC
  5
2F9
100
AcDbEntity
  8
0
370
    -3
390
0
  6
Continuous
100
AcDbCircle
 10
-273.465223
 20
-159.951064
 30
0.0
 40
390.8
100
AcDbArc
 50
177.020093
 51
182.979907
  0
ARC
  5
2FA
100
AcDbEntity
  8
0
370
    -3
390
0
  6
Continuous
100
AcDbCircle
 10
-576.965223
 20
143.548936
 30
0.0
 40
390.8
100
AcDbArc
 50
267.020093
 51
272.979907
  0
ARC
  5
2FB
100
AcDbEntity
  8
0
370
    -3
390
0
  6
Continuous
100
AcDbCircle
 10
-576.965223
 20
-159.951064
 30
0.0
 40
60.0
100
AcDbArc
 50
95.553444
 51
145.374349
  0
ARC
  5
2FC
100
AcDbEntity
  8
0
370
    -3
390
0
  6
Continuous
100
AcDbCircle
 10
-576.965223
 20
-159.951064
 30
0.0
 40
60.0
100
AcDbArc
 50
154.625651
 51
204.446556
  0
ARC
  5
2FD
100
AcDbEntity
  8
0
370
    -3
390
0
  6
Continuous
100
AcDbCircle
 10
-576.965223
 20
-159.951064
 30
0.0
 40
60.0
100
AcDbArc
 50
215.553444
 51
265.374349
  0
ARC
  5
2FE
100
AcDbEntity
  8
0
370
    -3
390
0
  6
Continuous
100
AcDbCircle
 10
-576.965223
 20
-159.951064
 30
0.0
 40
60.0
100
AcDbArc
 50
274.625651
 51
324.446556
  0
ARC
  5
2FF
100
AcDbEntity
  8
0
370
    -3
390
0
  6
Continuous
100
AcDbCircle
 10
-576.965223
 20
-159.951064
 30
0.0
 40
60.0
100
AcDbArc
 50
335.553444
 51
25.374349
  0
ARC
  5
300
100
AcDbEntity
  8
0
370
    -3
390
0
  6
Continuous
100
AcDbCircle
 10
-576.965223
 20
-159.951064
 30
0.0
 40
60.0
100
AcDbArc
 50
34.625651
 51
84.446556
  0
ARC
  5
301
100
AcDbEntity
  8
0
370
    -3
390
0
  6
Continuous
100
AcDbCircle
 10
-570.965223
 20
-98.242069
 30
0.0
 40
2.0
100
AcDbArc
 50
180.0
 51
264.446556
  0
ARC
  5
302
100
AcDbEntity
  8
0
370
    -3
390
0
  6
Continuous
100
AcDbCircle
 10
-525.946535
 20
-124.721908
 30
0.0
 40
2.0
100
AcDbArc
 50
214.625651
 51
300.0
  0
ARC
  5
303
100
AcDbEntity
  8
0
370
    -3
390
0
  6
Continuous
100
AcDbCircle
 10
-520.946535
 20
-133.382162
 30
0.0
 40
2.0
100
AcDbArc
 50
120.0
 51
205.374349
  0
ARC
  5
304
100
AcDbEntity
  8
0
370
    -3
390
0
  6
Continuous
100
AcDbCircle
 10
-571.965223
 20
-221.749122
 30
0.0
 40
2.0
100
AcDbArc
 50
94.625651
 51
180.0
  0
ARC
  5
305
100
AcDbEntity
  8
0
370
    -3
390
0
  6
Continuous
100
AcDbCircle
 10
-581.965223
 20
-221.749122
 30
0.0
 40
2.0
100
AcDbArc
 50
0.0
 51
85.374349
  0
ARC
  5
306
100
AcDbEntity
  8
0
370
    -3
390
0
  6
Continuous
100
AcDbCircle
 10
-627.40678
 20
-196.001713
 30
0.0
 40
2.0
100
AcDbArc
 50
35.553444
 51
120.0
  0
ARC
  5
307
100
AcDbEntity
  8
0
370
    -3
390
0
  6
Continuous
100
AcDbCircle
 10
-633.40678
 20
-185.609409
 30
0.0
 40
2.0
100
AcDbArc
 50
300.0
 51
24.446556
  0
ARC
  5
308
100
AcDbEntity
  8
0
370
    -3
390
0
  6
Continuous
100
AcDbCircle
 10
-632.983912
 20
-133.382162
 30
0.0
 40
2.0
100
AcDbArc
 50
334.625651
 51
60.0
  0
ARC
  5
309
100
AcDbEntity
  8
0
370
    -3
390
0
  6
Continuous
100
AcDbCircle
 10
-627.983912
 20
-124.721908
 30
0.0
 40
2.0
100
AcDbArc
 50
240.0
 51
325.374349
  0
ARC
  5
30A
100
AcDbEntity
  8
0
370
    -3
390
0
  6
Continuous
100
AcDbCircle
 10
-582.965223
 20
-98.242069
 30
0.0
 40
2.0
100
AcDbArc
 50
275.553444
 51
0.0
  0
ARC
  5
30B
100
AcDbEntity
  8
0
370
    -3
390
0
  6
Continuous
100
AcDbCircle
 10
-576.965223
 20
-159.951064
 30
0.0
 40
55.0
100
AcDbArc
 50
96.50025
 51
144.586688
  0
ARC
  5
30C
100
AcDbEntity
  8
0
370
    -3
390
0
  6
Continuous
100
AcDbCircle
 10
-576.965223
 20
-159.951064
 30
0.0
 40
47.5
100
AcDbArc
 50
96.962063
 51
144.20266
  0
ARC
  5
30D
100
AcDbEntity
  8
0
370
    -3
390
0
  6
Continuous
100
AcDbCircle
 10
-576.965223
 20
-159.951064
 30
0.0
 40
42.5
100
AcDbArc
 50
98.519624
 51
142.908354
  0
ARC
  5
30E
100
AcDbEntity
  8
0
370
    -3
390
0
  6
Continuous
100
AcDbCircle
 10
-576.965223
 20
-159.951064
 30
0.0
 40
35.0
100
AcDbArc
 50
99.332418
 51
142.233566
  0
ARC
  5
30F
100
AcDbEntity
  8
0
370
    -3
390
0
  6
Continuous
100
AcDbCircle
 10
-576.965223
 20
-159.951064
 30
0.0
 40
30.0
100
AcDbArc
 50
102.373625
 51
139.713439
  0
ARC
  5
310
100
AcDbEntity
  8
0
370
    -3
390
0
  6
Continuous
100
AcDbCircle
 10
-576.965223
 20
-159.951064
 30
0.0
 40
22.5
100
AcDbArc
 50
104.175804
 51
138.224256
  0
ARC
  5
311
100
AcDbEntity
  8
0
370
    -3
390
0
  6
Continuous
100
AcDbCircle
 10
-576.965223
 20
-159.951064
 30
0.0
 40
17.5
100
AcDbArc
 50
112.773972
 51
131.180937
  0
ARC
  5
312
100
AcDbEntity
  8
0
370
    -3
390
0
  6
Continuous
100
AcDbCircle
 10
-576.965223
 20
-159.951064
 30
0.0
 40
10.0
100
AcDbArc
 50
120.0
 51
125.375682
  0
ARC
  5
313
100
AcDbEntity
  8
0
370
    -3
390
0
  6
Continuous
100
AcDbCircle
 10
-576.965223
 20
-159.951064
 30
0.0
 40
55.0
100
AcDbArc
 50
35.413312
 51
83.49975
  0
ARC
  5
314
100
AcDbEntity
  8
0
370
    -3
390
0
  6
Continuous
100
AcDbCircle
 10
-576.965223
 20
-159.951064
 30
0.0
 40
47.5
100
AcDbArc
 50
35.79734
 51
83.037937
  0
ARC
  5
315
100
AcDbEntity
  8
0
370
    -3
390
0
  6
Continuous
100
AcDbCircle
 10
-576.965223
 20
-159.951064
 30
0.0
 40
42.5
100
AcDbArc
 50
37.091646
 51
81.480376
  0
ARC
  5
316
100
AcDbEntity
  8
0
370
    -3
390
0
  6
Continuous
100
AcDbCircle
 10
-576.965223
 20
-159.951064
 30
0.0
 40
35.0
100
AcDbArc
 50
37.766434
 51
80.667582
  0
ARC
  5
317
100
AcDbEntity
  8
0
370
    -3
390
0
  6
Continuous
100
AcDbCircle
 10
-576.965223
 20
-159.951064
 30
0.0
 40
30.0
100
AcDbArc
 50
40.286561
 51
77.626375
  0
ARC
  5
318
100
AcDbEntity
  8
0
370
    -3
390
0
  6
Continuous
100
AcDbCircle
 10
-576.965223
 20
-159.951064
 30
0.0
 40
22.5
100
AcDbArc
 50
41.775744
 51
75.824196
  0
ARC
  5
319
100
AcDbEntity
  8
0
370
    -3
390
0
  6
Continuous
100
AcDbCircle
 10
-576.965223
 20
-159.951064
 30
0.0
 40
17.5
100
AcDbArc
 50
48.819063
 51
67.226028
  0
ARC
  5
31A
100
AcDbEntity
  8
0
370
    -3
390
0
  6
Continuous
100
AcDbCircle
 10
-570.965223
 20
-107.291782
 30
0.0
 40
2.0
100
AcDbArc
 50
83.49975
 51
180.0
  0
ARC
  5
31B
100
AcDbEntity
  8
0
370
    -3
390
0
  6
Continuous
100
AcDbCircle
 10
-570.965223
 20
-110.816046
 30
0.0
 40
2.0
100
AcDbArc
 50
180.0
 51
263.037937
  0
ARC
  5
31C
100
AcDbEntity
  8
0
370
    -3
390
0
  6
Continuous
100
AcDbCircle
 10
-533.770585
 20
-129.239125
 30
0.0
 40
2.0
100
AcDbArc
 50
300.0
 51
35.413312
  0
ARC
  5
31D
100
AcDbEntity
  8
0
370
    -3
390
0
  6
Continuous
100
AcDbCircle
 10
-536.81622
 20
-130.997523
 30
0.0
 40
2.0
100
AcDbArc
 50
215.79734
 51
300.0
  0
ARC
  5
31E
100
AcDbEntity
  8
0
370
    -3
390
0
  6
Continuous
100
AcDbCircle
 10
-544.659512
 20
-135.52585
 30
0.0
 40
2.0
100
AcDbArc
 50
300.0
 51
37.091646
  0
ARC
  5
31F
100
AcDbEntity
  8
0
370
    -3
390
0
  6
Continuous
100
AcDbCircle
 10
-570.965223
 20
-119.897974
 30
0.0
 40
2.0
100
AcDbArc
 50
81.480376
 51
180.0
  0
ARC
  5
320
100
AcDbEntity
  8
0
370
    -3
390
0
  6
Continuous
100
AcDbCircle
 10
-570.965223
 20
-123.440791
 30
0.0
 40
2.0
100
AcDbArc
 50
180.0
 51
260.667582
  0
ARC
  5
321
100
AcDbEntity
  8
0
370
    -3
390
0
  6
Continuous
100
AcDbCircle
 10
-547.716207
 20
-137.290634
 30
0.0
 40
2.0
100
AcDbArc
 50
217.766434
 51
300.0
  0
ARC
  5
322
100
AcDbEntity
  8
0
370
    -3
390
0
  6
Continuous
100
AcDbCircle
 10
-555.606263
 20
-141.845959
 30
0.0
 40
2.0
100
AcDbArc
 50
300.0
 51
40.286561
  0
ARC
  5
323
100
AcDbEntity
  8
0
370
    -3
390
0
  6
Continuous
100
AcDbCircle
 10
-570.965223
 20
-132.601475
 30
0.0
 40
2.0
100
AcDbArc
 50
77.626375
 51
180.0
  0
ARC
  5
324
100
AcDbEntity
  8
0
370
    -3
390
0
  6
Continuous
100
AcDbCircle
 10
-570.965223
 20
-136.197117
 30
0.0
 40
2.0
100
AcDbArc
 50
180.0
 51
255.824196
  0
ARC
  5
325
100
AcDbEntity
  8
0
370
    -3
390
0
  6
Continuous
100
AcDbCircle
 10
-558.69415
 20
-143.628752
 30
0.0
 40
2.0
100
AcDbArc
 50
221.775744
 51
300.0
  0
ARC
  5
326
100
AcDbEntity
  8
0
370
    -3
390
0
  6
Continuous
100
AcDbCircle
 10
-566.759417
 20
-148.285236
 30
0.0
 40
2.0
100
AcDbArc
 50
300.0
 51
48.819063
  0
ARC
  5
327
100
AcDbEntity
  8
0
370
    -3
390
0
  6
Continuous
100
AcDbCircle
 10
-570.965223
 20
-145.659458
 30
0.0
 40
2.0
100
AcDbArc
 50
67.226028
 51
180.0
  0
ARC
  5
328
100
AcDbEntity
  8
0
370
    -3
390
0
  6
Continuous
100
AcDbCircle
 10
-576.965223
 20
-159.951064
 30
0.0
 40
10.0
100
AcDbArc
 50
294.624318
 51
300.0
  0
ARC
  5
329
100
AcDbEntity
  8
0
370
    -3
390
0
  6
Continuous
100
AcDbCircle
 10
-576.965223
 20
-159.951064
 30
0.0
 40
10.0
100
AcDbArc
 50
54.624318
 51
60.0
  0
ARC
  5
32A
100
AcDbEntity
  8
0
370
    -3
390
0
  6
Continuous
100
AcDbCircle
 10
-570.965223
 20
-149.558759
 30
0.0
 40
2.0
100
AcDbArc
 50
180.0
 51
240.0
  0
ARC
  5
32B
100
AcDbEntity
  8
0
370
    -3
390
0
  6
Continuous
100
AcDbCircle
 10
-570.018001
 20
-150.166581
 30
0.0
 40
2.0
100
AcDbArc
 50
234.624318
 51
300.0
  0
ARC
  5
32C
100
AcDbEntity
  8
0
370
    -3
390
0
  6
Continuous
100
AcDbCircle
 10
-576.965223
 20
-159.951064
 30
0.0
 40
55.0
100
AcDbArc
 50
336.50025
 51
24.586688
  0
ARC
  5
32D
100
AcDbEntity
  8
0
370
    -3
390
0
  6
Continuous
100
AcDbCircle
 10
-576.965223
 20
-159.951064
 30
0.0
 40
47.5
100
AcDbArc
 50
336.962063
 51
24.20266
  0
ARC
  5
32E
100
AcDbEntity
  8
0
370
    -3
390
0
  6
Continuous
100
AcDbCircle
 10
-576.965223
 20
-159.951064
 30
0.0
 40
42.5
100
AcDbArc
 50
338.519624
 51
22.908354
  0
ARC
  5
32F
100
AcDbEntity
  8
0
370
    -3
390
0
  6
Continuous
100
AcDbCircle
 10
-576.965223
 20
-159.951064
 30
0.0
 40
35.0
100
AcDbArc
 50
339.332418
 51
22.233566
  0
ARC
  5
330
100
AcDbEntity
  8
0
370
    -3
390
0
  6
Continuous
100
AcDbCircle
 10
-576.965223
 20
-159.951064
 30
0.0
 40
30.0
100
AcDbArc
 50
342.373625
 51
19.713439
  0
ARC
  5
331
100
AcDbEntity
  8
0
370
    -3
390
0
  6
Continuous
100
AcDbCircle
 10
-576.965223
 20
-159.951064
 30
0.0
 40
22.5
100
AcDbArc
 50
344.175804
 51
18.224256
  0
ARC
  5
332
100
AcDbEntity
  8
0
370
    -3
390
0
  6
Continuous
100
AcDbCircle
 10
-576.965223
 20
-159.951064
 30
0.0
 40
17.5
100
AcDbArc
 50
352.773972
 51
11.180937
  0
ARC
  5
333
100
AcDbEntity
  8
0
370
    -3
390
0
  6
Continuous
100
AcDbCircle
 10
-576.965223
 20
-159.951064
 30
0.0
 40
10.0
100
AcDbArc
 50
0.0
 51
5.375682
  0
ARC
  5
334
100
AcDbEntity
  8
0
370
    -3
390
0
  6
Continuous
100
AcDbCircle
 10
-576.965223
 20
-159.951064
 30
0.0
 40
17.5
100
AcDbArc
 50
288.819063
 51
307.226028
  0
ARC
  5
335
100
AcDbEntity
  8
0
370
    -3
390
0
  6
Continuous
100
AcDbCircle
 10
-576.965223
 20
-159.951064
 30
0.0
 40
22.5
100
AcDbArc
 50
281.775744
 51
315.824196
  0
ARC
  5
336
100
AcDbEntity
  8
0
370
    -3
390
0
  6
Continuous
100
AcDbCircle
 10
-576.965223
 20
-159.951064
 30
0.0
 40
30.0
100
AcDbArc
 50
280.286561
 51
317.626375
  0
ARC
  5
337
100
AcDbEntity
  8
0
370
    -3
390
0
  6
Continuous
100
AcDbCircle
 10
-576.965223
 20
-159.951064
 30
0.0
 40
35.0
100
AcDbArc
 50
277.766434
 51
320.667582
  0
ARC
  5
338
100
AcDbEntity
  8
0
370
    -3
390
0
  6
Continuous
100
AcDbCircle
 10
-576.965223
 20
-159.951064
 30
0.0
 40
42.5
100
AcDbArc
 50
277.091646
 51
321.480376
  0
ARC
  5
339
100
AcDbEntity
  8
0
370
    -3
390
0
  6
Continuous
100
AcDbCircle
 10
-576.965223
 20
-159.951064
 30
0.0
 40
47.5
100
AcDbArc
 50
275.79734
 51
323.037937
  0
ARC
  5
33A
100
AcDbEntity
  8
0
370
    -3
390
0
  6
Continuous
100
AcDbCircle
 10
-576.965223
 20
-159.951064
 30
0.0
 40
55.0
100
AcDbArc
 50
275.413312
 51
323.49975
  0
ARC
  5
33B
100
AcDbEntity
  8
0
370
    -3
390
0
  6
Continuous
100
AcDbCircle
 10
-576.965223
 20
-159.951064
 30
0.0
 40
55.0
100
AcDbArc
 50
216.50025
 51
264.586688
  0
ARC
  5
33C
100
AcDbEntity
  8
0
370
    -3
390
0
  6
Continuous
100
AcDbCircle
 10
-576.965223
 20
-159.951064
 30
0.0
 40
47.5
100
AcDbArc
 50
216.962063
 51
264.20266
  0
ARC
  5
33D
100
AcDbEntity
  8
0
370
    -3
390
0
  6
Continuous
100
AcDbCircle
 10
-576.965223
 20
-159.951064
 30
0.0
 40
42.5
100
AcDbArc
 50
218.519624
 51
262.908354
  0
ARC
  5
33E
100
AcDbEntity
  8
0
370
    -3
390
0
  6
Continuous
100
AcDbCircle
 10
-576.965223
 20
-159.951064
 30
0.0
 40
35.0
100
AcDbArc
 50
219.332418
 51
262.233566
  0
ARC
  5
33F
100
AcDbEntity
  8
0
370
    -3
390
0
  6
Continuous
100
AcDbCircle
 10
-576.965223
 20
-159.951064
 30
0.0
 40
30.0
100
AcDbArc
 50
222.373625
 51
259.713439
  0
ARC
  5
340
100
AcDbEntity
  8
0
370
    -3
390
0
  6
Continuous
100
AcDbCircle
 10
-576.965223
 20
-159.951064
 30
0.0
 40
22.5
100
AcDbArc
 50
224.175804
 51
258.224256
  0
ARC
  5
341
100
AcDbEntity
  8
0
370
    -3
390
0
  6
Continuous
100
AcDbCircle
 10
-576.965223
 20
-159.951064
 30
0.0
 40
17.5
100
AcDbArc
 50
232.773972
 51
251.180937
  0
ARC
  5
342
100
AcDbEntity
  8
0
370
    -3
390
0
  6
Continuous
100
AcDbCircle
 10
-576.965223
 20
-159.951064
 30
0.0
 40
10.0
100
AcDbArc
 50
240.0
 51
245.375682
  0
ARC
  5
343
100
AcDbEntity
  8
0
370
    -3
390
0
  6
Continuous
100
AcDbCircle
 10
-576.965223
 20
-159.951064
 30
0.0
 40
55.0
100
AcDbArc
 50
155.413312
 51
203.49975
  0
ARC
  5
344
100
AcDbEntity
  8
0
370
    -3
390
0
  6
Continuous
100
AcDbCircle
 10
-576.965223
 20
-159.951064
 30
0.0
 40
47.5
100
AcDbArc
 50
155.79734
 51
203.037937
  0
ARC
  5
345
100
AcDbEntity
  8
0
370
    -3
390
0
  6
Continuous
100
AcDbCircle
 10
-576.965223
 20
-159.951064
 30
0.0
 40
42.5
100
AcDbArc
 50
157.091646
 51
201.480376
  0
ARC
  5
346
100
AcDbEntity
  8
0
370
    -3
390
0
  6
Continuous
100
AcDbCircle
 10
-576.965223
 20
-159.951064
 30
0.0
 40
35.0
100
AcDbArc
 50
157.766434
 51
200.667582
  0
ARC
  5
347
100
AcDbEntity
  8
0
370
    -3
390
0
  6
Continuous
100
AcDbCircle
 10
-576.965223
 20
-159.951064
 30
0.0
 40
30.0
100
AcDbArc
 50
160.286561
 51
197.626375
  0
ARC
  5
348
100
AcDbEntity
  8
0
370
    -3
390
0
  6
Continuous
100
AcDbCircle
 10
-576.965223
 20
-159.951064
 30
0.0
 40
22.5
100
AcDbArc
 50
161.775744
 51
195.824196
  0
ARC
  5
349
100
AcDbEntity
  8
0
370
    -3
390
0
  6
Continuous
100
AcDbCircle
 10
-576.965223
 20
-159.951064
 30
0.0
 40
17.5
100
AcDbArc
 50
168.819063
 51
187.226028
  0
ARC
  5
34A
100
AcDbEntity
  8
0
370
    -3
390
0
  6
Continuous
100
AcDbCircle
 10
-576.965223
 20
-159.951064
 30
0.0
 40
10.0
100
AcDbArc
 50
174.624318
 51
180.0
  0
ARC
  5
34B
100
AcDbEntity
  8
0
370
    -3
390
0
  6
Continuous
100
AcDbCircle
 10
-528.770585
 20
-137.899379
 30
0.0
 40
2.0
100
AcDbArc
 50
24.586688
 51
120.0
  0
ARC
  5
34C
100
AcDbEntity
  8
0
370
    -3
390
0
  6
Continuous
100
AcDbCircle
 10
-531.81622
 20
-139.657777
 30
0.0
 40
2.0
100
AcDbArc
 50
120.0
 51
204.20266
  0
ARC
  5
34D
100
AcDbEntity
  8
0
370
    -3
390
0
  6
Continuous
100
AcDbCircle
 10
-571.965223
 20
-209.197891
 30
0.0
 40
2.0
100
AcDbArc
 50
95.79734
 51
180.0
  0
ARC
  5
34E
100
AcDbEntity
  8
0
370
    -3
390
0
  6
Continuous
100
AcDbCircle
 10
-571.965223
 20
-212.714688
 30
0.0
 40
2.0
100
AcDbArc
 50
180.0
 51
275.413312
  0
ARC
  5
34F
100
AcDbEntity
  8
0
370
    -3
390
0
  6
Continuous
100
AcDbCircle
 10
-581.965223
 20
-212.714688
 30
0.0
 40
2.0
100
AcDbArc
 50
264.586688
 51
0.0
  0
ARC
  5
350
100
AcDbEntity
  8
0
370
    -3
390
0
  6
Continuous
100
AcDbCircle
 10
-581.965223
 20
-209.197891
 30
0.0
 40
2.0
100
AcDbArc
 50
0.0
 51
84.20266
  0
ARC
  5
351
100
AcDbEntity
  8
0
370
    -3
390
0
  6
Continuous
100
AcDbCircle
 10
-616.517397
 20
-189.714725
 30
0.0
 40
2.0
100
AcDbArc
 50
36.962063
 51
120.0
  0
ARC
  5
352
100
AcDbEntity
  8
0
370
    -3
390
0
  6
Continuous
100
AcDbCircle
 10
-619.569499
 20
-191.476857
 30
0.0
 40
2.0
100
AcDbArc
 50
120.0
 51
216.50025
  0
ARC
  5
353
100
AcDbEntity
  8
0
370
    -3
390
0
  6
Continuous
100
AcDbCircle
 10
-625.569499
 20
-181.084552
 30
0.0
 40
2.0
100
AcDbArc
 50
203.49975
 51
300.0
  0
ARC
  5
354
100
AcDbEntity
  8
0
370
    -3
390
0
  6
Continuous
100
AcDbCircle
 10
-625.159862
 20
-137.899379
 30
0.0
 40
2.0
100
AcDbArc
 50
60.0
 51
155.413312
  0
ARC
  5
355
100
AcDbEntity
  8
0
370
    -3
390
0
  6
Continuous
100
AcDbCircle
 10
-620.159862
 20
-129.239125
 30
0.0
 40
2.0
100
AcDbArc
 50
144.586688
 51
240.0
  0
ARC
  5
356
100
AcDbEntity
  8
0
370
    -3
390
0
  6
Continuous
100
AcDbCircle
 10
-582.965223
 20
-107.291782
 30
0.0
 40
2.0
100
AcDbArc
 50
0.0
 51
96.50025
  0
ARC
  5
357
100
AcDbEntity
  8
0
370
    -3
390
0
  6
Continuous
100
AcDbCircle
 10
-582.965223
 20
-110.816046
 30
0.0
 40
2.0
100
AcDbArc
 50
276.962063
 51
0.0
  0
ARC
  5
358
100
AcDbEntity
  8
0
370
    -3
390
0
  6
Continuous
100
AcDbCircle
 10
-617.114227
 20
-130.997523
 30
0.0
 40
2.0
100
AcDbArc
 50
240.0
 51
324.20266
  0
ARC
  5
359
100
AcDbEntity
  8
0
370
    -3
390
0
  6
Continuous
100
AcDbCircle
 10
-582.965223
 20
-119.897974
 30
0.0
 40
2.0
100
AcDbArc
 50
0.0
 51
98.519624
  0
ARC
  5
35A
100
AcDbEntity
  8
0
370
    -3
390
0
  6
Continuous
100
AcDbCircle
 10
-582.965223
 20
-123.440791
 30
0.0
 40
2.0
100
AcDbArc
 50
279.332418
 51
0.0
  0
ARC
  5
35B
100
AcDbEntity
  8
0
370
    -3
390
0
  6
Continuous
100
AcDbCircle
 10
-606.214239
 20
-137.290634
 30
0.0
 40
2.0
100
AcDbArc
 50
240.0
 51
322.233566
  0
ARC
  5
35C
100
AcDbEntity
  8
0
370
    -3
390
0
  6
Continuous
100
AcDbCircle
 10
-609.270934
 20
-135.52585
 30
0.0
 40
2.0
100
AcDbArc
 50
142.908354
 51
240.0
  0
ARC
  5
35D
100
AcDbEntity
  8
0
370
    -3
390
0
  6
Continuous
100
AcDbCircle
 10
-611.214239
 20
-145.950888
 30
0.0
 40
2.0
100
AcDbArc
 50
337.766434
 51
60.0
  0
ARC
  5
35E
100
AcDbEntity
  8
0
370
    -3
390
0
  6
Continuous
100
AcDbCircle
 10
-614.270934
 20
-144.186104
 30
0.0
 40
2.0
100
AcDbArc
 50
60.0
 51
157.091646
  0
ARC
  5
35F
100
AcDbEntity
  8
0
370
    -3
390
0
  6
Continuous
100
AcDbCircle
 10
-622.114227
 20
-139.657777
 30
0.0
 40
2.0
100
AcDbArc
 50
335.79734
 51
60.0
  0
ARC
  5
360
100
AcDbEntity
  8
0
370
    -3
390
0
  6
Continuous
100
AcDbCircle
 10
-582.965223
 20
-132.601475
 30
0.0
 40
2.0
100
AcDbArc
 50
0.0
 51
102.373625
  0
ARC
  5
361
100
AcDbEntity
  8
0
370
    -3
390
0
  6
Continuous
100
AcDbCircle
 10
-598.324184
 20
-141.845959
 30
0.0
 40
2.0
100
AcDbArc
 50
139.713439
 51
240.0
  0
ARC
  5
362
100
AcDbEntity
  8
0
370
    -3
390
0
  6
Continuous
100
AcDbCircle
 10
-595.236297
 20
-143.628752
 30
0.0
 40
2.0
100
AcDbArc
 50
240.0
 51
318.224256
  0
ARC
  5
363
100
AcDbEntity
  8
0
370
    -3
390
0
  6
Continuous
100
AcDbCircle
 10
-582.965223
 20
-136.197117
 30
0.0
 40
2.0
100
AcDbArc
 50
284.175804
 51
0.0
  0
ARC
  5
364
100
AcDbEntity
  8
0
370
    -3
390
0
  6
Continuous
100
AcDbCircle
 10
-582.965223
 20
-145.659458
 30
0.0
 40
2.0
100
AcDbArc
 50
0.0
 51
112.773972
  0
ARC
  5
365
100
AcDbEntity
  8
0
370
    -3
390
0
  6
Continuous
100
AcDbCircle
 10
-587.171029
 20
-148.285236
 30
0.0
 40
2.0
100
AcDbArc
 50
131.180937
 51
240.0
  0
ARC
  5
366
100
AcDbEntity
  8
0
370
    -3
390
0
  6
Continuous
100
AcDbCircle
 10
-582.965223
 20
-149.558759
 30
0.0
 40
2.0
100
AcDbArc
 50
300.0
 51
0.0
  0
ARC
  5
367
100
AcDbEntity
  8
0
370
    -3
390
0
  6
Continuous
100
AcDbCircle
 10
-583.912445
 20
-150.166581
 30
0.0
 40
2.0
100
AcDbArc
 50
240.0
 51
305.375682
  0
ARC
  5
368
100
AcDbEntity
  8
0
370
    -3
390
0
  6
Continuous
100
AcDbCircle
 10
-588.912445
 20
-158.826835
 30
0.0
 40
2.0
100
AcDbArc
 50
354.624318
 51
60.0
  0
ARC
  5
369
100
AcDbEntity
  8
0
370
    -3
390
0
  6
Continuous
100
AcDbCircle
 10
-592.171029
 20
-156.94549
 30
0.0
 40
2.0
100
AcDbArc
 50
60.0
 51
168.819063
  0
ARC
  5
36A
100
AcDbEntity
  8
0
370
    -3
390
0
  6
Continuous
100
AcDbCircle
 10
-592.342117
 20
-161.900714
 30
0.0
 40
2.0
100
AcDbArc
 50
187.226028
 51
300.0
  0
ARC
  5
36B
100
AcDbEntity
  8
0
370
    -3
390
0
  6
Continuous
100
AcDbCircle
 10
-588.965223
 20
-159.951064
 30
0.0
 40
2.0
100
AcDbArc
 50
300.0
 51
0.0
  0
ARC
  5
36C
100
AcDbEntity
  8
0
370
    -3
390
0
  6
Continuous
100
AcDbCircle
 10
-582.965223
 20
-170.343369
 30
0.0
 40
2.0
100
AcDbArc
 50
60.0
 51
120.0
  0
ARC
  5
36D
100
AcDbEntity
  8
0
370
    -3
390
0
  6
Continuous
100
AcDbCircle
 10
-581.965223
 20
-170.859776
 30
0.0
 40
2.0
100
AcDbArc
 50
0.0
 51
65.375682
  0
ARC
  5
36E
100
AcDbEntity
  8
0
370
    -3
390
0
  6
Continuous
100
AcDbCircle
 10
-586.342117
 20
-172.293019
 30
0.0
 40
2.0
100
AcDbArc
 50
120.0
 51
232.773972
  0
ARC
  5
36F
100
AcDbEntity
  8
0
370
    -3
390
0
  6
Continuous
100
AcDbCircle
 10
-581.965223
 20
-174.622465
 30
0.0
 40
2.0
100
AcDbArc
 50
251.180937
 51
0.0
  0
ARC
  5
370
100
AcDbEntity
  8
0
370
    -3
390
0
  6
Continuous
100
AcDbCircle
 10
-571.965223
 20
-174.622465
 30
0.0
 40
2.0
100
AcDbArc
 50
180.0
 51
288.819063
  0
ARC
  5
371
100
AcDbEntity
  8
0
370
    -3
390
0
  6
Continuous
100
AcDbCircle
 10
-571.965223
 20
-170.859776
 30
0.0
 40
2.0
100
AcDbArc
 50
114.624318
 51
180.0
  0
ARC
  5
372
100
AcDbEntity
  8
0
370
    -3
390
0
  6
Continuous
100
AcDbCircle
 10
-565.018001
 20
-158.826835
 30
0.0
 40
2.0
100
AcDbArc
 50
120.0
 51
185.375682
  0
ARC
  5
373
100
AcDbEntity
  8
0
370
    -3
390
0
  6
Continuous
100
AcDbCircle
 10
-561.759417
 20
-156.94549
 30
0.0
 40
2.0
100
AcDbArc
 50
11.180937
 51
120.0
  0
ARC
  5
374
100
AcDbEntity
  8
0
370
    -3
390
0
  6
Continuous
100
AcDbCircle
 10
-553.69415
 20
-152.289006
 30
0.0
 40
2.0
100
AcDbArc
 50
120.0
 51
198.224256
  0
ARC
  5
375
100
AcDbEntity
  8
0
370
    -3
390
0
  6
Continuous
100
AcDbCircle
 10
-550.606263
 20
-150.506213
 30
0.0
 40
2.0
100
AcDbArc
 50
19.713439
 51
120.0
  0
ARC
  5
376
100
AcDbEntity
  8
0
370
    -3
390
0
  6
Continuous
100
AcDbCircle
 10
-542.716207
 20
-145.950888
 30
0.0
 40
2.0
100
AcDbArc
 50
120.0
 51
202.233566
  0
ARC
  5
377
100
AcDbEntity
  8
0
370
    -3
390
0
  6
Continuous
100
AcDbCircle
 10
-539.659512
 20
-144.186104
 30
0.0
 40
2.0
100
AcDbArc
 50
22.908354
 51
120.0
  0
ARC
  5
378
100
AcDbEntity
  8
0
370
    -3
390
0
  6
Continuous
100
AcDbCircle
 10
-571.965223
 20
-183.935434
 30
0.0
 40
2.0
100
AcDbArc
 50
101.775744
 51
180.0
  0
ARC
  5
379
100
AcDbEntity
  8
0
370
    -3
390
0
  6
Continuous
100
AcDbCircle
 10
-571.965223
 20
-187.501018
 30
0.0
 40
2.0
100
AcDbArc
 50
180.0
 51
280.286561
  0
ARC
  5
37A
100
AcDbEntity
  8
0
370
    -3
390
0
  6
Continuous
100
AcDbCircle
 10
-571.965223
 20
-196.611669
 30
0.0
 40
2.0
100
AcDbArc
 50
97.766434
 51
180.0
  0
ARC
  5
37B
100
AcDbEntity
  8
0
370
    -3
390
0
  6
Continuous
100
AcDbCircle
 10
-571.965223
 20
-200.141237
 30
0.0
 40
2.0
100
AcDbArc
 50
180.0
 51
277.091646
  0
ARC
  5
37C
100
AcDbEntity
  8
0
370
    -3
390
0
  6
Continuous
100
AcDbCircle
 10
-581.965223
 20
-200.141237
 30
0.0
 40
2.0
100
AcDbArc
 50
262.908354
 51
0.0
  0
ARC
  5
37D
100
AcDbEntity
  8
0
370
    -3
390
0
  6
Continuous
100
AcDbCircle
 10
-581.965223
 20
-196.611669
 30
0.0
 40
2.0
100
AcDbArc
 50
0.0
 51
82.233566
  0
ARC
  5
37E
100
AcDbEntity
  8
0
370
    -3
390
0
  6
Continuous
100
AcDbCircle
 10
-581.965223
 20
-187.501018
 30
0.0
 40
2.0
100
AcDbArc
 50
259.713439
 51
0.0
  0
ARC
  5
37F
100
AcDbEntity
  8
0
370
    -3
390
0
  6
Continuous
100
AcDbCircle
 10
-581.965223
 20
-183.935434
 30
0.0
 40
2.0
100
AcDbArc
 50
0.0
 51
78.224256
  0
ARC
  5
380
100
AcDbEntity
  8
0
370
    -3
390
0
  6
Continuous
100
AcDbCircle
 10
-608.652216
 20
-185.173761
 30
0.0
 40
2.0
100
AcDbArc
 50
120.0
 51
218.519624
  0
ARC
  5
381
100
AcDbEntity
  8
0
370
    -3
390
0
  6
Continuous
100
AcDbCircle
 10
-605.584047
 20
-183.402352
 30
0.0
 40
2.0
100
AcDbArc
 50
39.332418
 51
120.0
  0
ARC
  5
382
100
AcDbEntity
  8
0
370
    -3
390
0
  6
Continuous
100
AcDbCircle
 10
-611.584047
 20
-173.010048
 30
0.0
 40
2.0
100
AcDbArc
 50
300.0
 51
20.667582
  0
ARC
  5
383
100
AcDbEntity
  8
0
370
    -3
390
0
  6
Continuous
100
AcDbCircle
 10
-614.652216
 20
-174.781456
 30
0.0
 40
2.0
100
AcDbArc
 50
201.480376
 51
300.0
  0
ARC
  5
384
100
AcDbEntity
  8
0
370
    -3
390
0
  6
Continuous
100
AcDbCircle
 10
-603.650662
 20
-168.429706
 30
0.0
 40
2.0
100
AcDbArc
 50
197.626375
 51
300.0
  0
ARC
  5
385
100
AcDbEntity
  8
0
370
    -3
390
0
  6
Continuous
100
AcDbCircle
 10
-600.536745
 20
-166.631885
 30
0.0
 40
2.0
100
AcDbArc
 50
300.0
 51
15.824196
  0
ARC
  5
386
100
AcDbEntity
  8
0
370
    -3
390
0
  6
Continuous
100
AcDbCircle
 10
-600.236297
 20
-152.289006
 30
0.0
 40
2.0
100
AcDbArc
 50
341.775744
 51
60.0
  0
ARC
  5
387
100
AcDbEntity
  8
0
370
    -3
390
0
  6
Continuous
100
AcDbCircle
 10
-603.324184
 20
-150.506213
 30
0.0
 40
2.0
100
AcDbArc
 50
60.0
 51
160.286561
  0
ARC
  5
388
100
AcDbEntity
  8
0
370
    -3
390
0
  6
Continuous
100
AcDbCircle
 10
-622.517397
 20
-179.32242
 30
0.0
 40
2.0
100
AcDbArc
 50
300.0
 51
23.037937
  0
LINE
  5
389
100
AcDbEntity
  8
0
370
    -3
390
0
  6
Continuous
100
AcDbLine
 10
-595.536745
 20
-175.292139
 30
0.0
 11
-598.650662
 21
-177.08996
 31
0.0
  0
ARC
  5
38A
100
AcDbEntity
  8
0
370
    -3
390
0
  6
Continuous
100
AcDbCircle
 10
-594.536745
 20
-177.02419
 30
0.0
 40
2.0
100
AcDbArc
 50
44.175804
 51
120.0
  0
ARC
  5
38B
100
AcDbEntity
  8
0
370
    -3
390
0
  6
Continuous
100
AcDbCircle
 10
-597.650662
 20
-178.822011
 30
0.0
 40
2.0
100
AcDbArc
 50
120.0
 51
222.373625
  0
LINE
  5
38C
100
AcDbEntity
  8
0
370
    -3
390
0
  6
Continuous
100
AcDbLine
 10
-565.965223
 20
-161.683115
 30
0.0
 11
-562.588329
 21
-163.632765
 31
0.0
  0
LINE
  5
38D
100
AcDbEntity
  8
0
370
    -3
390
0
  6
Continuous
100
AcDbLine
 10
-569.965223
 20
-168.611318
 30
0.0
 11
-566.588329
 21
-170.560968
 31
0.0
  0
LINE
  5
38E
100
AcDbEntity
  8
0
370
    -3
390
0
  6
Continuous
100
AcDbLine
 10
-521.523666
 20
-187.341459
 30
0.0
 11
-520.653622
 21
-187.84378
 31
0.0
  0
LINE
  5
38F
100
AcDbEntity
  8
0
370
    -3
390
0
  6
Continuous
100
AcDbLine
 10
-532.413049
 20
-181.054471
 30
0.0
 11
-529.360947
 21
-182.816603
 31
0.0
  0
LINE
  5
390
100
AcDbEntity
  8
0
370
    -3
390
0
  6
Continuous
100
AcDbLine
 10
-543.3464
 20
-174.742098
 30
0.0
 11
-540.27823
 21
-176.513507
 31
0.0
  0
LINE
  5
391
100
AcDbEntity
  8
0
370
    -3
390
0
  6
Continuous
100
AcDbLine
 10
-554.393702
 20
-168.363936
 30
0.0
 11
-551.279785
 21
-170.161756
 31
0.0
  0
LINE
  5
392
100
AcDbEntity
  8
0
370
    -3
390
0
  6
Continuous
100
AcDbLine
 10
-558.393702
 20
-175.292139
 30
0.0
 11
-555.279785
 21
-177.08996
 31
0.0
  0
LINE
  5
393
100
AcDbEntity
  8
0
370
    -3
390
0
  6
Continuous
100
AcDbLine
 10
-547.3464
 20
-181.670302
 30
0.0
 11
-544.27823
 21
-183.44171
 31
0.0
  0
LINE
  5
394
100
AcDbEntity
  8
0
370
    -3
390
0
  6
Continuous
100
AcDbLine
 10
-536.413049
 20
-187.982674
 30
0.0
 11
-533.360947
 21
-189.744806
 31
0.0
  0
LINE
  5
395
100
AcDbEntity
  8
0
370
    -3
390
0
  6
Continuous
100
AcDbLine
 10
-525.523666
 20
-194.269663
 30
0.0
 11
-524.653622
 21
-194.771983
 31
0.0
  0
ARC
  5
396
100
AcDbEntity
  8
0
370
    -3
390
0
  6
Continuous
100
AcDbCircle
 10
-519.653622
 20
-186.111729
 30
0.0
 40
2.0
100
AcDbArc
 50
240.0
 51
335.465024
  0
ARC
  5
397
100
AcDbEntity
  8
0
370
    -3
390
0
  6
Continuous
100
AcDbCircle
 10
-520.523666
 20
-185.609409
 30
0.0
 40
2.0
100
AcDbArc
 50
155.553444
 51
240.0
  0
ARC
  5
398
100
AcDbEntity
  8
0
370
    -3
390
0
  6
Continuous
100
AcDbCircle
 10
-528.360947
 20
-181.084552
 30
0.0
 40
2.0
100
AcDbArc
 50
240.0
 51
336.50025
  0
ARC
  5
399
100
AcDbEntity
  8
0
370
    -3
390
0
  6
Continuous
100
AcDbCircle
 10
-531.413049
 20
-179.32242
 30
0.0
 40
2.0
100
AcDbArc
 50
156.962063
 51
240.0
  0
ARC
  5
39A
100
AcDbEntity
  8
0
370
    -3
390
0
  6
Continuous
100
AcDbCircle
 10
-539.27823
 20
-174.781456
 30
0.0
 40
2.0
100
AcDbArc
 50
240.0
 51
338.519624
  0
ARC
  5
39B
100
AcDbEntity
  8
0
370
    -3
390
0
  6
Continuous
100
AcDbCircle
 10
-542.3464
 20
-173.010048
 30
0.0
 40
2.0
100
AcDbArc
 50
159.332418
 51
240.0
  0
ARC
  5
39C
100
AcDbEntity
  8
0
370
    -3
390
0
  6
Continuous
100
AcDbCircle
 10
-550.279785
 20
-168.429706
 30
0.0
 40
2.0
100
AcDbArc
 50
240.0
 51
342.373625
  0
ARC
  5
39D
100
AcDbEntity
  8
0
370
    -3
390
0
  6
Continuous
100
AcDbCircle
 10
-553.393702
 20
-166.631885
 30
0.0
 40
2.0
100
AcDbArc
 50
164.175804
 51
240.0
  0
ARC
  5
39E
100
AcDbEntity
  8
0
370
    -3
390
0
  6
Continuous
100
AcDbCircle
 10
-561.588329
 20
-161.900714
 30
0.0
 40
2.0
100
AcDbArc
 50
240.0
 51
352.773972
  0
ARC
  5
39F
100
AcDbEntity
  8
0
370
    -3
390
0
  6
Continuous
100
AcDbCircle
 10
-564.965223
 20
-159.951064
 30
0.0
 40
2.0
100
AcDbArc
 50
180.0
 51
240.0
  0
ARC
  5
3A0
100
AcDbEntity
  8
0
370
    -3
390
0
  6
Continuous
100
AcDbCircle
 10
-570.965223
 20
-170.343369
 30
0.0
 40
2.0
100
AcDbArc
 50
60.0
 51
120.0
  0
ARC
  5
3A1
100
AcDbEntity
  8
0
370
    -3
390
0
  6
Continuous
100
AcDbCircle
 10
-567.588329
 20
-172.293019
 30
0.0
 40
2.0
100
AcDbArc
 50
307.226028
 51
60.0
  0
ARC
  5
3A2
100
AcDbEntity
  8
0
370
    -3
390
0
  6
Continuous
100
AcDbCircle
 10
-559.393702
 20
-177.02419
 30
0.0
 40
2.0
100
AcDbArc
 50
60.0
 51
135.824196
  0
ARC
  5
3A3
100
AcDbEntity
  8
0
370
    -3
390
0
  6
Continuous
100
AcDbCircle
 10
-556.279785
 20
-178.822011
 30
0.0
 40
2.0
100
AcDbArc
 50
317.626375
 51
60.0
  0
ARC
  5
3A4
100
AcDbEntity
  8
0
370
    -3
390
0
  6
Continuous
100
AcDbCircle
 10
-548.3464
 20
-183.402352
 30
0.0
 40
2.0
100
AcDbArc
 50
60.0
 51
140.667582
  0
ARC
  5
3A5
100
AcDbEntity
  8
0
370
    -3
390
0
  6
Continuous
100
AcDbCircle
 10
-545.27823
 20
-185.173761
 30
0.0
 40
2.0
100
AcDbArc
 50
321.480376
 51
60.0
  0
ARC
  5
3A6
100
AcDbEntity
  8
0
370
    -3
390
0
  6
Continuous
100
AcDbCircle
 10
-537.413049
 20
-189.714725
 30
0.0
 40
2.0
100
AcDbArc
 50
60.0
 51
143.037937
  0
ARC
  5
3A7
100
AcDbEntity
  8
0
370
    -3
390
0
  6
Continuous
100
AcDbCircle
 10
-534.360947
 20
-191.476857
 30
0.0
 40
2.0
100
AcDbArc
 50
323.49975
 51
60.0
  0
ARC
  5
3A8
100
AcDbEntity
  8
0
370
    -3
390
0
  6
Continuous
100
AcDbCircle
 10
-526.523666
 20
-196.001713
 30
0.0
 40
2.0
100
AcDbArc
 50
60.0
 51
144.446556
  0
ARC
  5
3A9
100
AcDbEntity
  8
0
370
    -3
390
0
  6
Continuous
100
AcDbCircle
 10
-525.653622
 20
-196.504034
 30
0.0
 40
2.0
100
AcDbArc
 50
324.534976
 51
60.0
  0
ARC
  5
3AA
100
AcDbEntity
  8
0
370
    -3
390
0
  6
Continuous
100
AcDbCircle
 10
-628.276824
 20
-196.504034
 30
0.0
 40
2.0
100
AcDbArc
 50
120.0
 51
215.465024
  0
ARC
  5
3AB
100
AcDbEntity
  8
0
370
    -3
390
0
  6
Continuous
100
AcDbCircle
 10
-507.385916
 20
-97.01856
 30
0.0
 40
0.3
100
AcDbArc
 50
315.0
 51
45.0
  0
LINE
  5
3AC
100
AcDbEntity
  8
0
370
    -3
390
0
  6
Continuous
100
AcDbLine
 10
-506.74952
 20
-96.099321
 30
0.0
 11
-507.315205
 21
-96.665007
 31
0.0
  0
LINE
  5
3AD
100
AcDbEntity
  8
0
370
    -3
390
0
  6
Continuous
100
AcDbLine
 10
-508.976906
 20
-95.003306
 30
0.0
 11
-507.173784
 21
-96.806428
 31
0.0
  0
LINE
  5
3AE
100
AcDbEntity
  8
0
370
    -3
390
0
  6
Continuous
100
AcDbLine
 10
-512.017465
 20
-91.962747
 30
0.0
 11
-513.679166
 21
-90.301046
 31
0.0
  0
LINE
  5
3AF
100
AcDbEntity
  8
0
370
    -3
390
0
  6
Continuous
100
AcDbLine
 10
-507.173784
 20
-97.230692
 30
0.0
 11
-507.905495
 21
-97.962404
 31
0.0
  0
LINE
  5
3B0
100
AcDbEntity
  8
0
370
    -3
390
0
  6
Continuous
100
AcDbLine
 10
-509.9315
 20
-92.917341
 30
0.0
 11
-506.74952
 21
-96.099321
 31
0.0
  0
LINE
  5
3B1
100
AcDbEntity
  8
0
370
    -3
390
0
  6
Continuous
100
AcDbLine
 10
-510.497186
 20
-93.483026
 30
0.0
 11
-507.173784
 21
-96.806428
 31
0.0
  0
ARC
  5
3B2
100
AcDbEntity
  8
0
370
    -3
390
0
  6
Continuous
100
AcDbCircle
 10
-514.03272
 20
-90.371756
 30
0.0
 40
0.3
100
AcDbArc
 50
45.0
 51
135.0
  0
LINE
  5
3B3
100
AcDbEntity
  8
0
370
    -3
390
0
  6
Continuous
100
AcDbLine
 10
-513.113481
 20
-89.73536
 30
0.0
 11
-513.679166
 21
-90.301046
 31
0.0
  0
LINE
  5
3B4
100
AcDbEntity
  8
0
370
    -3
390
0
  6
Continuous
100
AcDbLine
 10
-512.017465
 20
-91.962747
 30
0.0
 11
-513.820588
 21
-90.159624
 31
0.0
  0
LINE
  5
3B5
100
AcDbEntity
  8
0
370
    -3
390
0
  6
Continuous
100
AcDbLine
 10
-514.244852
 20
-90.159624
 30
0.0
 11
-514.976563
 21
-90.891336
 31
0.0
  0
LINE
  5
3B6
100
AcDbEntity
  8
0
370
    -3
390
0
  6
Continuous
100
AcDbLine
 10
-509.9315
 20
-92.917341
 30
0.0
 11
-513.113481
 21
-89.73536
 31
0.0
  0
LINE
  5
3B7
100
AcDbEntity
  8
0
370
    -3
390
0
  6
Continuous
100
AcDbLine
 10
-510.497186
 20
-93.483026
 30
0.0
 11
-513.820588
 21
-90.159624
 31
0.0
  0
ARC
  5
3B8
100
AcDbEntity
  8
0
370
    -3
390
0
  6
Continuous
100
AcDbCircle
 10
-507.385916
 20
-222.883567
 30
0.0
 40
0.3
100
AcDbArc
 50
315.0
 51
45.0
  0
LINE
  5
3B9
100
AcDbEntity
  8
0
370
    -3
390
0
  6
Continuous
100
AcDbLine
 10
-506.74952
 20
-223.802806
 30
0.0
 11
-507.315205
 21
-223.237121
 31
0.0
  0
LINE
  5
3BA
100
AcDbEntity
  8
0
370
    -3
390
0
  6
Continuous
100
AcDbLine
 10
-508.976906
 20
-224.898822
 30
0.0
 11
-507.173784
 21
-223.095699
 31
0.0
  0
LINE
  5
3BB
100
AcDbEntity
  8
0
370
    -3
390
0
  6
Continuous
100
AcDbLine
 10
-512.017465
 20
-227.939381
 30
0.0
 11
-513.679166
 21
-229.601082
 31
0.0
  0
LINE
  5
3BC
100
AcDbEntity
  8
0
370
    -3
390
0
  6
Continuous
100
AcDbLine
 10
-507.173784
 20
-222.671435
 30
0.0
 11
-507.905495
 21
-221.939724
 31
0.0
  0
LINE
  5
3BD
100
AcDbEntity
  8
0
370
    -3
390
0
  6
Continuous
100
AcDbLine
 10
-509.9315
 20
-226.984787
 30
0.0
 11
-506.74952
 21
-223.802806
 31
0.0
  0
LINE
  5
3BE
100
AcDbEntity
  8
0
370
    -3
390
0
  6
Continuous
100
AcDbLine
 10
-510.497186
 20
-226.419101
 30
0.0
 11
-507.173784
 21
-223.095699
 31
0.0
  0
ARC
  5
3BF
100
AcDbEntity
  8
0
370
    -3
390
0
  6
Continuous
100
AcDbCircle
 10
-514.03272
 20
-229.530371
 30
0.0
 40
0.3
100
AcDbArc
 50
225.0
 51
315.0
  0
LINE
  5
3C0
100
AcDbEntity
  8
0
370
    -3
390
0
  6
Continuous
100
AcDbLine
 10
-513.113481
 20
-230.166767
 30
0.0
 11
-513.679166
 21
-229.601082
 31
0.0
  0
LINE
  5
3C1
100
AcDbEntity
  8
0
370
    -3
390
0
  6
Continuous
100
AcDbLine
 10
-512.017465
 20
-227.939381
 30
0.0
 11
-513.820588
 21
-229.742503
 31
0.0
  0
LINE
  5
3C2
100
AcDbEntity
  8
0
370
    -3
390
0
  6
Continuous
100
AcDbLine
 10
-514.244852
 20
-229.742503
 30
0.0
 11
-514.976563
 21
-229.010792
 31
0.0
  0
LINE
  5
3C3
100
AcDbEntity
  8
0
370
    -3
390
0
  6
Continuous
100
AcDbLine
 10
-509.9315
 20
-226.984787
 30
0.0
 11
-513.113481
 21
-230.166767
 31
0.0
  0
LINE
  5
3C4
100
AcDbEntity
  8
0
370
    -3
390
0
  6
Continuous
100
AcDbLine
 10
-510.497186
 20
-226.419101
 30
0.0
 11
-513.820588
 21
-229.742503
 31
0.0
  0
ARC
  5
3C5
100
AcDbEntity
  8
0
370
    -3
390
0
  6
Continuous
100
AcDbCircle
 10
-646.54453
 20
-222.883567
 30
0.0
 40
0.3
100
AcDbArc
 50
135.0
 51
225.0
  0
LINE
  5
3C6
100
AcDbEntity
  8
0
370
    -3
390
0
  6
Continuous
100
AcDbLine
 10
-647.180927
 20
-223.802806
 30
0.0
 11
-646.615241
 21
-223.237121
 31
0.0
  0
LINE
  5
3C7
100
AcDbEntity
  8
0
370
    -3
390
0
  6
Continuous
100
AcDbLine
 10
-644.95354
 20
-224.898822
 30
0.0
 11
-646.756662
 21
-223.095699
 31
0.0
  0
LINE
  5
3C8
100
AcDbEntity
  8
0
370
    -3
390
0
  6
Continuous
100
AcDbLine
 10
-641.912981
 20
-227.939381
 30
0.0
 11
-640.25128
 21
-229.601082
 31
0.0
  0
LINE
  5
3C9
100
AcDbEntity
  8
0
370
    -3
390
0
  6
Continuous
100
AcDbLine
 10
-646.756662
 20
-222.671435
 30
0.0
 11
-646.024951
 21
-221.939724
 31
0.0
  0
LINE
  5
3CA
100
AcDbEntity
  8
0
370
    -3
390
0
  6
Continuous
100
AcDbLine
 10
-643.998946
 20
-226.984787
 30
0.0
 11
-647.180927
 21
-223.802806
 31
0.0
  0
LINE
  5
3CB
100
AcDbEntity
  8
0
370
    -3
390
0
  6
Continuous
100
AcDbLine
 10
-643.433261
 20
-226.419101
 30
0.0
 11
-646.756662
 21
-223.095699
 31
0.0
  0
ARC
  5
3CC
100
AcDbEntity
  8
0
370
    -3
390
0
  6
Continuous
100
AcDbCircle
 10
-639.897727
 20
-229.530371
 30
0.0
 40
0.3
100
AcDbArc
 50
225.0
 51
315.0
  0
LINE
  5
3CD
100
AcDbEntity
  8
0
370
    -3
390
0
  6
Continuous
100
AcDbLine
 10
-640.816966
 20
-230.166767
 30
0.0
 11
-640.25128
 21
-229.601082
 31
0.0
  0
LINE
  5
3CE
100
AcDbEntity
  8
0
370
    -3
390
0
  6
Continuous
100
AcDbLine
 10
-641.912981
 20
-227.939381
 30
0.0
 11
-640.109859
 21
-229.742503
 31
0.0
  0
LINE
  5
3CF
100
AcDbEntity
  8
0
370
    -3
390
0
  6
Continuous
100
AcDbLine
 10
-639.685595
 20
-229.742503
 30
0.0
 11
-638.953883
 21
-229.010792
 31
0.0
  0
LINE
  5
3D0
100
AcDbEntity
  8
0
370
    -3
390
0
  6
Continuous
100
AcDbLine
 10
-643.998946
 20
-226.984787
 30
0.0
 11
-640.816966
 21
-230.166767
 31
0.0
  0
LINE
  5
3D1
100
AcDbEntity
  8
0
370
    -3
390
0
  6
Continuous
100
AcDbLine
 10
-643.433261
 20
-226.419101
 30
0.0
 11
-640.109859
 21
-229.742503
 31
0.0
  0
ARC
  5
3D2
100
AcDbEntity
  8
0
370
    -3
390
0
  6
Continuous
100
AcDbCircle
 10
-646.54453
 20
-97.01856
 30
0.0
 40
0.3
100
AcDbArc
 50
135.0
 51
225.0
  0
LINE
  5
3D3
100
AcDbEntity
  8
0
370
    -3
390
0
  6
Continuous
100
AcDbLine
 10
-647.180927
 20
-96.099321
 30
0.0
 11
-646.615241
 21
-96.665007
 31
0.0
  0
LINE
  5
3D4
100
AcDbEntity
  8
0
370
    -3
390
0
  6
Continuous
100
AcDbLine
 10
-644.95354
 20
-95.003306
 30
0.0
 11
-646.756662
 21
-96.806428
 31
0.0
  0
LINE
  5
3D5
100
AcDbEntity
  8
0
370
    -3
390
0
  6
Continuous
100
AcDbLine
 10
-641.912981
 20
-91.962747
 30
0.0
 11
-640.25128
 21
-90.301046
 31
0.0
  0
LINE
  5
3D6
100
AcDbEntity
  8
0
370
    -3
390
0
  6
Continuous
100
AcDbLine
 10
-646.756662
 20
-97.230692
 30
0.0
 11
-646.024951
 21
-97.962404
 31
0.0
  0
LINE
  5
3D7
100
AcDbEntity
  8
0
370
    -3
390
0
  6
Continuous
100
AcDbLine
 10
-643.998946
 20
-92.917341
 30
0.0
 11
-647.180927
 21
-96.099321
 31
0.0
  0
LINE
  5
3D8
100
AcDbEntity
  8
0
370
    -3
390
0
  6
Continuous
100
AcDbLine
 10
-643.433261
 20
-93.483026
 30
0.0
 11
-646.756662
 21
-96.806428
 31
0.0
  0
ARC
  5
3D9
100
AcDbEntity
  8
0
370
    -3
390
0
  6
Continuous
100
AcDbCircle
 10
-639.897727
 20
-90.371756
 30
0.0
 40
0.3
100
AcDbArc
 50
45.0
 51
135.0
  0
LINE
  5
3DA
100
AcDbEntity
  8
0
370
    -3
390
0
  6
Continuous
100
AcDbLine
 10
-640.816966
 20
-89.73536
 30
0.0
 11
-640.25128
 21
-90.301046
 31
0.0
  0
LINE
  5
3DB
100
AcDbEntity
  8
0
370
    -3
390
0
  6
Continuous
100
AcDbLine
 10
-641.912981
 20
-91.962747
 30
0.0
 11
-640.109859
 21
-90.159624
 31
0.0
  0
LINE
  5
3DC
100
AcDbEntity
  8
0
370
    -3
390
0
  6
Continuous
100
AcDbLine
 10
-639.685595
 20
-90.159624
 30
0.0
 11
-638.953883
 21
-90.891336
 31
0.0
  0
LINE
  5
3DD
100
AcDbEntity
  8
0
370
    -3
390
0
  6
Continuous
100
AcDbLine
 10
-643.998946
 20
-92.917341
 30
0.0
 11
-640.816966
 21
-89.73536
 31
0.0
  0
LINE
  5
3DE
100
AcDbEntity
  8
0
370
    -3
390
0
  6
Continuous
100
AcDbLine
 10
-643.433261
 20
-93.483026
 30
0.0
 11
-640.109859
 21
-90.159624
 31
0.0
  0
ARC
  5
3DF
100
AcDbEntity
  8
0
370
    -3
390
0
  6
Continuous
100
AcDbCircle
 10
-484.565223
 20
-186.551064
 30
0.0
 40
2.0
100
AcDbArc
 50
0.0
 51
90.0
  0
LINE
  5
3E0
100
AcDbEntity
  8
0
370
    -3
390
0
  6
Continuous
100
AcDbLine
 10
-480.965223
 20
-190.951064
 30
0.0
 11
-482.565223
 21
-190.951064
 31
0.0
  0
LINE
  5
3E1
100
AcDbEntity
  8
0
370
    -3
390
0
  6
Continuous
100
AcDbLine
 10
-480.965223
 20
-128.951064
 30
0.0
 11
-482.565223
 21
-128.951064
 31
0.0
  0
LINE
  5
3E2
100
AcDbEntity
  8
0
370
    -3
390
0
  6
Continuous
100
AcDbLine
 10
-480.965223
 20
-190.951064
 30
0.0
 11
-480.965223
 21
-128.951064
 31
0.0
  0
ARC
  5
3E3
100
AcDbEntity
  8
0
370
    -3
390
0
  6
Continuous
100
AcDbCircle
 10
-484.565223
 20
-133.351064
 30
0.0
 40
2.0
100
AcDbArc
 50
270.0
 51
0.0
  0
LINE
  5
3E4
100
AcDbEntity
  8
0
370
    -3
390
0
  6
Continuous
100
AcDbLine
 10
-482.565223
 20
-190.951064
 30
0.0
 11
-482.565223
 21
-128.951064
 31
0.0
  0
LINE
  5
3E5
100
AcDbEntity
  8
0
370
    -3
390
0
  6
Continuous
100
AcDbLine
 10
-484.565223
 20
-135.351064
 30
0.0
 11
-490.55731
 21
-135.351064
 31
0.0
  0
LINE
  5
3E6
100
AcDbEntity
  8
0
370
    -3
390
0
  6
Continuous
100
AcDbLine
 10
-484.565223
 20
-184.551064
 30
0.0
 11
-490.55731
 21
-184.551064
 31
0.0
  0
LINE
  5
3E7
100
AcDbEntity
  8
0
370
    -3
390
0
  6
Continuous
100
AcDbLine
 10
-480.965223
 20
-128.951064
 30
0.0
 11
-479.965223
 21
-128.951064
 31
0.0
  0
LINE
  5
3E8
100
AcDbEntity
  8
0
370
    -3
390
0
  6
Continuous
100
AcDbLine
 10
-480.965223
 20
-190.951064
 30
0.0
 11
-479.965223
 21
-190.951064
 31
0.0
  0
ARC
  5
3E9
100
AcDbEntity
  8
0
370
    -3
390
0
  6
Continuous
100
AcDbCircle
 10
-447.217512
 20
-142.772168
 30
0.0
 40
15.0
100
AcDbArc
 50
1.682769
 51
80.681877
  0
ARC
  5
3EA
100
AcDbEntity
  8
0
370
    -3
390
0
  6
Continuous
100
AcDbCircle
 10
-438.083615
 20
-216.127971
 30
0.0
 40
9.0
100
AcDbArc
 50
7.398452
 51
40.601531
  0
ARC
  5
3EB
100
AcDbEntity
  8
0
370
    -3
390
0
  6
Continuous
100
AcDbCircle
 10
-430.44772
 20
-215.136452
 30
0.0
 40
1.299999
100
AcDbArc
 50
293.999982
 51
7.398452
  0
LINE
  5
3EC
100
AcDbEntity
  8
0
370
    -3
390
0
  6
CENTER
100
AcDbLine
 10
-455.965223
 20
-192.06854
 30
0.0
 11
-455.965223
 21
-214.937049
 31
0.0
  0
LINE
  5
3ED
100
AcDbEntity
  8
0
370
    -3
390
0
  6
Continuous
100
AcDbLine
 10
-479.965223
 20
-127.259459
 30
0.0
 11
-479.965223
 21
-201.451064
 31
0.0
  0
LINE
  5
3EE
100
AcDbEntity
  8
0
370
    -3
390
0
  6
Continuous
100
AcDbLine
 10
-434.894924
 20
-216.897547
 30
0.0
 11
-438.412074
 21
-218.463483
 31
0.0
  0
LINE
  5
3EF
100
AcDbEntity
  8
0
370
    -3
390
0
  6
Continuous
100
AcDbLine
 10
-436.521871
 20
-213.243365
 30
0.0
 11
-440.039021
 21
-214.809301
 31
0.0
  0
ARC
  5
3F0
100
AcDbEntity
  8
0
370
    -3
390
0
  6
Continuous
100
AcDbCircle
 10
-435.59521
 20
-204.073698
 30
0.0
 40
2.0
100
AcDbArc
 50
294.0
 51
355.768662
  0
ARC
  5
3F1
100
AcDbEntity
  8
0
370
    -3
390
0
  6
Continuous
100
AcDbCircle
 10
-434.170536
 20
-206.723302
 30
0.0
 40
1.0
100
AcDbArc
 50
114.0
 51
204.0
  0
LINE
  5
3F2
100
AcDbEntity
  8
0
370
    -3
390
0
  6
Continuous
100
AcDbLine
 10
-456.089514
 20
-159.951064
 30
0.0
 11
-429.877852
 21
-218.82342
 31
0.0
  0
ARC
  5
3F3
100
AcDbEntity
  8
0
370
    -3
390
0
  6
Continuous
100
AcDbCircle
 10
-430.791398
 20
-219.230157
 30
0.0
 40
1.0
100
AcDbArc
 50
294.0
 51
24.0
  0
LINE
  5
3F4
100
AcDbEntity
  8
0
370
    -3
390
0
  6
Continuous
100
AcDbLine
 10
-430.384661
 20
-220.143702
 30
0.0
 11
-432.942588
 21
-221.282565
 31
0.0
  0
LINE
  5
3F5
100
AcDbEntity
  8
0
370
    -3
390
0
  6
Continuous
100
AcDbLine
 10
-474.965223
 20
-206.451064
 30
0.0
 11
-439.545998
 21
-206.451064
 31
0.0
  0
ARC
  5
3F6
100
AcDbEntity
  8
0
370
    -3
390
0
  6
Continuous
100
AcDbCircle
 10
-474.965223
 20
-201.451064
 30
0.0
 40
5.0
100
AcDbArc
 50
180.0
 51
270.0
  0
ARC
  5
3F7
100
AcDbEntity
  8
0
370
    -3
390
0
  6
Continuous
100
AcDbCircle
 10
-432.999174
 20
-209.354223
 30
0.0
 40
1.0
100
AcDbArc
 50
175.284875
 51
204.0
  0
ARC
  5
3F8
100
AcDbEntity
  8
0
370
    -3
390
0
  6
Continuous
100
AcDbCircle
 10
-1031.965223
 20
-159.951064
 30
0.0
 40
600.0
100
AcDbArc
 50
355.284875
 51
1.682769
  0
ARC
  5
3F9
100
AcDbEntity
  8
0
370
    -3
390
0
  6
Continuous
100
AcDbCircle
 10
-432.237362
 20
-211.11685
 30
0.0
 40
1.299999
100
AcDbArc
 50
40.601531
 51
114.000001
  0
LINE
  5
3FA
100
AcDbEntity
  8
0
370
    -3
390
0
  6
Continuous
100
AcDbLine
 10
-433.660503
 20
-210.327447
 30
0.0
 11
-432.766119
 21
-209.929242
 31
0.0
  0
LINE
  5
3FB
100
AcDbEntity
  8
0
370
    -3
390
0
  6
Continuous
100
AcDbLine
 10
-430.813347
 20
-216.722266
 30
0.0
 11
-429.918963
 21
-216.32406
 31
0.0
  0
LINE
  5
3FC
100
AcDbEntity
  8
0
370
    -3
390
0
  6
Continuous
100
AcDbLine
 10
-433.660503
 20
-210.327447
 30
0.0
 11
-430.813347
 21
-216.722266
 31
0.0
  0
LINE
  5
3FD
100
AcDbEntity
  8
0
370
    -3
390
0
  6
Continuous
100
AcDbLine
 10
-433.660503
 20
-210.327447
 30
0.0
 11
-430.813347
 21
-216.722266
 31
0.0
  0
POINT
  5
3FE
100
AcDbEntity
  8
0
370
    -3
390
0
  6
Continuous
100
AcDbPoint
 10
-432.236925
 20
-213.524856
 30
0.0
  0
LINE
  5
3FF
100
AcDbEntity
  8
0
370
    -3
390
0
  6
Continuous
100
AcDbLine
 10
-440.216404
 20
-215.2714
 30
0.0
 11
-438.874173
 21
-218.2861
 31
0.0
  0
LINE
  5
400
100
AcDbEntity
  8
0
370
    -3
390
0
  6
Continuous
100
AcDbLine
 10
-438.412074
 20
-218.463483
 30
0.0
 11
-438.874173
 21
-218.2861
 31
0.0
  0
LINE
  5
401
100
AcDbEntity
  8
0
370
    -3
390
0
  6
Continuous
100
AcDbLine
 10
-440.039021
 20
-214.809301
 30
0.0
 11
-440.216404
 21
-215.2714
 31
0.0
  0
LINE
  5
402
100
AcDbEntity
  8
0
370
    -3
390
0
  6
Continuous
100
AcDbLine
 10
-436.379513
 20
-213.563106
 30
0.0
 11
-440.216404
 21
-215.2714
 31
0.0
  0
LINE
  5
403
100
AcDbEntity
  8
0
370
    -3
390
0
  6
Continuous
100
AcDbLine
 10
-435.037282
 20
-216.577806
 30
0.0
 11
-438.874173
 21
-218.2861
 31
0.0
  0
LINE
  5
404
100
AcDbEntity
  8
0
370
    -3
390
0
  6
Continuous
100
AcDbLine
 10
-478.659787
 20
-118.600055
 30
0.0
 11
-432.942588
 21
-221.282565
 31
0.0
  0
ARC
  5
405
100
AcDbEntity
  8
0
370
    -3
390
0
  6
Continuous
100
AcDbCircle
 10
-476.965223
 20
-127.259459
 30
0.0
 40
3.0
100
AcDbArc
 50
114.0
 51
180.0
  0
LINE
  5
406
100
AcDbEntity
  8
0
370
    -3
390
0
  6
Continuous
100
AcDbLine
 10
-476.382062
 20
-123.71591
 30
0.0
 11
-478.185433
 21
-124.518823
 31
0.0
  0
LINE
  5
407
100
AcDbEntity
  8
0
370
    -3
390
0
  6
Continuous
100
AcDbLine
 10
-476.10186
 20
-117.461193
 30
0.0
 11
-478.659787
 21
-118.600055
 31
0.0
  0
LINE
  5
408
100
AcDbEntity
  8
0
370
    -3
390
0
  6
Continuous
100
AcDbLine
 10
-470.74441
 20
-123.71127
 30
0.0
 11
-444.788773
 21
-127.9701
 31
0.0
  0
ARC
  5
409
100
AcDbEntity
  8
0
370
    -3
390
0
  6
Continuous
100
AcDbCircle
 10
-470.258662
 20
-120.750857
 30
0.0
 40
3.0
100
AcDbArc
 50
204.0
 51
260.681877
  0
LINE
  5
40A
100
AcDbEntity
  8
0
370
    -3
390
0
  6
Continuous
100
AcDbLine
 10
-474.781578
 20
-117.968002
 30
0.0
 11
-456.089514
 21
-159.951064
 31
0.0
  0
LINE
  5
40B
100
AcDbEntity
  8
0
370
    -3
390
0
  6
Continuous
100
AcDbLine
 10
-478.330626
 20
-121.294393
 30
0.0
 11
-477.594222
 21
-121.606978
 31
0.0
  0
LINE
  5
40C
100
AcDbEntity
  8
0
370
    -3
390
0
  6
Continuous
100
AcDbLine
 10
-477.46088
 20
-121.292844
 30
0.0
 11
-477.594222
 21
-121.606978
 31
0.0
  0
LINE
  5
40D
100
AcDbEntity
  8
0
370
    -3
390
0
  6
Continuous
100
AcDbLine
 10
-477.905794
 20
-120.293551
 30
0.0
 11
-478.330626
 21
-121.294393
 31
0.0
  0
ARC
  5
40E
100
AcDbEntity
  8
0
370
    -3
390
0
  6
Continuous
100
AcDbCircle
 10
-475.695123
 20
-118.374738
 30
0.0
 40
1.0
100
AcDbArc
 50
24.0
 51
114.0
  0
INSERT
  5
41A
100
AcDbEntity
  8
0
390
0
100
AcDbBlockReference
  2
ZU_SYM__USERS_HOME_SYMBOL_POO_SYM_S07_15
 10
-509.9315
 20
-92.917341
 30
0.0
 41
-1.0
 42
1.0
 50
45.0
  0
INSERT
  5
426
100
AcDbEntity
  8
0
390
0
100
AcDbBlockReference
  2
ZU_SYM__USERS_HOME_SYMBOL_POO_SYM_S07_0000515
 10
-509.9315
 20
-226.984787
 30
0.0
 41
1.0
 42
1.0
 50
135.0
  0
INSERT
  5
432
100
AcDbEntity
  8
0
390
0
100
AcDbBlockReference
  2
ZU_SYM__USERS_HOME_SYMBOL_POO_SYM_S07_0000615
 10
-643.998946
 20
-226.984787
 30
0.0
 41
-1.0
 42
1.0
 50
225.0
  0
INSERT
  5
43E
100
AcDbEntity
  8
0
390
0
100
AcDbBlockReference
  2
ZU_SYM__USERS_HOME_SYMBOL_POO_SYM_S07_0000715
 10
-643.998946
 20
-92.917341
 30
0.0
 41
1.0
 42
1.0
 50
315.0
  0
LINE
  5
43F
100
AcDbEntity
  8
0
370
    -3
390
0
  6
CENTER
100
AcDbLine
 10
-457.465223
 20
-65.451064
 30
0.0
 11
-516.465223
 21
-65.451064
 31
0.0
  0
LINE
  5
440
100
AcDbEntity
  8
0
370
    -3
390
0
  6
CENTER
100
AcDbLine
 10
-486.965223
 20
-35.951064
 30
0.0
 11
-486.965223
 21
-94.951064
 31
0.0
  0
INSERT
  5
44C
100
AcDbEntity
  8
0
390
0
100
AcDbBlockReference
  2
ZU_SYM__USERS_HOME_SYMBOL_STD_SYM_B02_73
 10
-647.675901
 20
-276.161742
 30
0.0
 41
-1.0
  0
INSERT
  5
458
100
AcDbEntity
  8
0
390
0
100
AcDbBlockReference
  2
ZU_SYM__USERS_HOME_SYMBOL_STD_SYM_B02_0000873
 10
-506.254545
 20
-276.161742
 30
0.0
  0
LINE
  5
459
100
AcDbEntity
  8
0
370
    -3
390
0
  6
CENTER
100
AcDbLine
 10
-750.675851
 20
-159.951064
 30
0.0
 11
-400.612081
 21
-159.951064
 31
0.0
  0
LINE
  5
45A
100
AcDbEntity
  8
0
370
    -3
390
0
  6
Continuous
100
AcDbLine
 10
-686.965223
 20
-205.451064
 30
0.0
 11
-686.965223
 21
-185.451064
 31
0.0
  0
LINE
  5
45B
100
AcDbEntity
  8
0
370
    -3
390
0
  6
Continuous
100
AcDbLine
 10
-466.965223
 20
-206.451064
 30
0.0
 11
-466.965223
 21
-225.451064
 31
0.0
  0
LINE
  5
45C
100
AcDbEntity
  8
0
370
    -3
390
0
  6
Continuous
100
AcDbLine
 10
-686.965223
 20
-205.451064
 30
0.0
 11
-686.965223
 21
-225.451064
 31
0.0
  0
LINE
  5
45D
100
AcDbEntity
  8
0
370
    -3
390
0
  6
Continuous
100
AcDbLine
 10
-576.965223
 20
-319.451064
 30
0.0
 11
-588.066244
 21
-319.451064
 31
0.0
  0
LINE
  5
45E
100
AcDbEntity
  8
0
370
    -3
390
0
  6
Continuous
100
AcDbLine
 10
-576.965223
 20
-319.451064
 30
0.0
 11
-565.864203
 21
-319.451064
 31
0.0
  0
LINE
  5
45F
100
AcDbEntity
  8
0
370
    -3
390
0
  6
Continuous
100
AcDbLine
 10
-561.864203
 20
-315.451064
 30
0.0
 11
-556.965223
 21
-315.451064
 31
0.0
  0
LINE
  5
460
100
AcDbEntity
  8
0
370
    -3
390
0
  6
Continuous
100
AcDbLine
 10
-592.066244
 20
-315.451064
 30
0.0
 11
-596.965223
 21
-315.451064
 31
0.0
  0
ARC
  5
461
100
AcDbEntity
  8
0
370
    -3
390
0
  6
Continuous
100
AcDbCircle
 10
-596.965223
 20
-225.451064
 30
0.0
 40
90.0
100
AcDbArc
 50
180.0
 51
270.0
  0
ARC
  5
462
100
AcDbEntity
  8
0
370
    -3
390
0
  6
Continuous
100
AcDbCircle
 10
-556.965223
 20
-185.451064
 30
0.0
 40
90.0
100
AcDbArc
 50
34.567826
 51
45.413423
  0
ARC
  5
463
100
AcDbEntity
  8
0
370
    -3
390
0
  6
Continuous
100
AcDbCircle
 10
-556.965223
 20
-225.451064
 30
0.0
 40
90.0
100
AcDbArc
 50
270.0
 51
0.0
  0
ARC
  5
464
100
AcDbEntity
  8
0
370
    -3
390
0
  6
Continuous
100
AcDbCircle
 10
-587.167264
 20
-316.451064
 30
0.0
 40
3.0
100
AcDbArc
 50
191.536959
 51
270.0
  0
ARC
  5
465
100
AcDbEntity
  8
0
370
    -3
390
0
  6
Continuous
100
AcDbCircle
 10
-592.066244
 20
-317.451064
 30
0.0
 40
2.0
100
AcDbArc
 50
11.536959
 51
90.0
  0
ARC
  5
466
100
AcDbEntity
  8
0
370
    -3
390
0
  6
Continuous
100
AcDbCircle
 10
-561.864203
 20
-317.451064
 30
0.0
 40
2.0
100
AcDbArc
 50
90.0
 51
168.463041
  0
ARC
  5
467
100
AcDbEntity
  8
0
370
    -3
390
0
  6
Continuous
100
AcDbCircle
 10
-566.763182
 20
-316.451064
 30
0.0
 40
3.0
100
AcDbArc
 50
270.0
 51
348.463041
  0
ARC
  5
468
100
AcDbEntity
  8
0
370
    -3
390
0
  6
Continuous
100
AcDbCircle
 10
-596.965223
 20
-185.451064
 30
0.0
 40
90.0
100
AcDbArc
 50
134.586577
 51
180.0
  0
LINE
  5
469
100
AcDbEntity
  8
0
370
    -3
390
0
  6
Continuous
100
AcDbLine
 10
-604.965223
 20
-309.75286
 30
0.0
 11
-604.965223
 21
-247.200315
 31
0.0
  0
LINE
  5
46A
100
AcDbEntity
  8
0
370
    -3
390
0
  6
Continuous
100
AcDbLine
 10
-598.965223
 20
-310.451064
 30
0.0
 11
-598.965223
 21
-253.855609
 31
0.0
  0
LINE
  5
46B
100
AcDbEntity
  8
0
370
    -3
390
0
  6
Continuous
100
AcDbLine
 10
-548.965223
 20
-309.75286
 30
0.0
 11
-548.965223
 21
-247.200315
 31
0.0
  0
LINE
  5
46C
100
AcDbEntity
  8
0
370
    -3
390
0
  6
Continuous
100
AcDbLine
 10
-554.965223
 20
-310.451064
 30
0.0
 11
-554.965223
 21
-253.855609
 31
0.0
  0
ARC
  5
46D
100
AcDbEntity
  8
0
370
    -3
390
0
  6
Continuous
100
AcDbCircle
 10
-545.965223
 20
-309.75286
 30
0.0
 40
3.0
100
AcDbArc
 50
180.0
 51
277.263736
  0
ARC
  5
46E
100
AcDbEntity
  8
0
370
    -3
390
0
  6
Continuous
100
AcDbCircle
 10
-557.965223
 20
-310.451064
 30
0.0
 40
3.0
100
AcDbArc
 50
270.0
 51
0.0
  0
ARC
  5
46F
100
AcDbEntity
  8
0
370
    -3
390
0
  6
Continuous
100
AcDbCircle
 10
-595.965223
 20
-310.451064
 30
0.0
 40
3.0
100
AcDbArc
 50
180.0
 51
270.0
  0
ARC
  5
470
100
AcDbEntity
  8
0
370
    -3
390
0
  6
Continuous
100
AcDbCircle
 10
-607.965223
 20
-309.75286
 30
0.0
 40
3.0
100
AcDbArc
 50
262.736264
 51
0.0
  0
ARC
  5
471
100
AcDbEntity
  8
0
370
    -3
390
0
  6
Continuous
100
AcDbCircle
 10
-506.254545
 20
-276.161742
 30
0.0
 40
10.0
100
AcDbArc
 50
90.0
 51
180.0
  0
LINE
  5
472
100
AcDbEntity
  8
0
370
    -3
390
0
  6
Continuous
100
AcDbLine
 10
-506.254545
 20
-266.161742
 30
0.0
 11
-493.921136
 21
-266.161742
 31
0.0
  0
LINE
  5
473
100
AcDbEntity
  8
0
370
    -3
390
0
  6
Continuous
100
AcDbLine
 10
-516.254545
 20
-276.161742
 30
0.0
 11
-516.254545
 21
-288.495151
 31
0.0
  0
ARC
  5
474
100
AcDbEntity
  8
0
370
    -3
390
0
  6
Continuous
100
AcDbCircle
 10
-493.921136
 20
-261.161742
 30
0.0
 40
5.0
100
AcDbArc
 50
270.0
 51
326.144052
  0
ARC
  5
475
100
AcDbEntity
  8
0
370
    -3
390
0
  6
Continuous
100
AcDbCircle
 10
-521.254545
 20
-288.495151
 30
0.0
 40
5.0
100
AcDbArc
 50
303.855948
 51
0.0
  0
ARC
  5
476
100
AcDbEntity
  8
0
370
    -3
390
0
  6
Continuous
100
AcDbCircle
 10
-660.00931
 20
-261.161742
 30
0.0
 40
5.0
100
AcDbArc
 50
213.855948
 51
270.0
  0
LINE
  5
477
100
AcDbEntity
  8
0
370
    -3
390
0
  6
Continuous
100
AcDbLine
 10
-647.675901
 20
-266.161742
 30
0.0
 11
-660.00931
 21
-266.161742
 31
0.0
  0
ARC
  5
478
100
AcDbEntity
  8
0
370
    -3
390
0
  6
Continuous
100
AcDbCircle
 10
-647.675901
 20
-276.161742
 30
0.0
 40
10.0
100
AcDbArc
 50
0.0
 51
90.0
  0
LINE
  5
479
100
AcDbEntity
  8
0
370
    -3
390
0
  6
Continuous
100
AcDbLine
 10
-637.675901
 20
-276.161742
 30
0.0
 11
-637.675901
 21
-288.495151
 31
0.0
  0
ARC
  5
47A
100
AcDbEntity
  8
0
370
    -3
390
0
  6
Continuous
100
AcDbCircle
 10
-632.675901
 20
-288.495151
 30
0.0
 40
5.0
100
AcDbArc
 50
180.0
 51
236.144052
  0
ARC
  5
47B
100
AcDbEntity
  8
0
370
    -3
390
0
  6
Continuous
100
AcDbCircle
 10
-576.965223
 20
-205.451064
 30
0.0
 40
49.0
100
AcDbArc
 50
235.708329
 51
304.291671
  0
ARC
  5
47C
100
AcDbEntity
  8
0
370
    -3
390
0
  6
Continuous
100
AcDbCircle
 10
-545.965223
 20
-247.200315
 30
0.0
 40
3.0
100
AcDbArc
 50
152.35264
 51
180.0
  0
ARC
  5
47D
100
AcDbEntity
  8
0
370
    -3
390
0
  6
Continuous
100
AcDbCircle
 10
-557.965223
 20
-253.855609
 30
0.0
 40
3.0
100
AcDbArc
 50
0.0
 51
111.431255
  0
ARC
  5
47E
100
AcDbEntity
  8
0
370
    -3
390
0
  6
Continuous
100
AcDbCircle
 10
-595.965223
 20
-253.855609
 30
0.0
 40
3.0
100
AcDbArc
 50
68.568745
 51
180.0
  0
ARC
  5
47F
100
AcDbEntity
  8
0
370
    -3
390
0
  6
Continuous
100
AcDbCircle
 10
-607.965223
 20
-247.200315
 30
0.0
 40
3.0
100
AcDbArc
 50
0.0
 51
27.64736
  0
ARC
  5
480
100
AcDbEntity
  8
0
370
    -3
390
0
  6
Continuous
100
AcDbCircle
 10
-566.465223
 20
9.548936
 30
0.0
 40
10.0
100
AcDbArc
 50
0.0
 51
90.0
  0
LINE
  5
481
100
AcDbEntity
  8
0
370
    -3
390
0
  6
Continuous
100
AcDbLine
 10
-556.465223
 20
9.548936
 30
0.0
 11
-556.465223
 21
-15.801374
 31
0.0
  0
LINE
  5
482
100
AcDbEntity
  8
0
370
    -3
390
0
  6
Continuous
100
AcDbLine
 10
-566.465223
 20
19.548936
 30
0.0
 11
-587.465223
 21
19.548936
 31
0.0
  0
ARC
  5
483
100
AcDbEntity
  8
0
370
    -3
390
0
  6
Continuous
100
AcDbCircle
 10
-587.465223
 20
9.548936
 30
0.0
 40
10.0
100
AcDbArc
 50
90.0
 51
180.0
  0
LINE
  5
484
100
AcDbEntity
  8
0
370
    -3
390
0
  6
Continuous
100
AcDbLine
 10
-597.465223
 20
9.548936
 30
0.0
 11
-597.465223
 21
-15.801374
 31
0.0
  0
LINE
  5
485
100
AcDbEntity
  8
0
370
    -3
390
0
  6
CENTER
100
AcDbLine
 10
-553.79731
 20
-0.451064
 30
0.0
 11
-600.819824
 21
-0.451064
 31
0.0
  0
CIRCLE
  5
486
100
AcDbEntity
  8
0
370
    -3
390
0
  6
Continuous
100
AcDbCircle
 10
-576.965223
 20
-0.451064
 30
0.0
 40
10.0
  0
ARC
  5
487
100
AcDbEntity
  8
0
370
    -3
390
0
  6
Continuous
100
AcDbCircle
 10
-705.878686
 20
-347.451064
 30
0.0
 40
2.0
100
AcDbArc
 50
53.996585
 51
90.0
  0
ARC
  5
488
100
AcDbEntity
  8
0
370
    -3
390
0
  6
Continuous
100
AcDbCircle
 10
-576.965223
 20
-615.451064
 30
0.0
 40
600.0
100
AcDbArc
 50
91.957987
 51
93.489726
  0
ARC
  5
489
100
AcDbEntity
  8
0
370
    -3
390
0
  6
Continuous
100
AcDbCircle
 10
-747.965223
 20
-336.451064
 30
0.0
 40
4.0
100
AcDbArc
 50
90.0
 51
180.0
  0
ARC
  5
48A
100
AcDbEntity
  8
0
370
    -3
390
0
  6
Continuous
100
AcDbCircle
 10
-747.965223
 20
-329.451064
 30
0.0
 40
3.0
100
AcDbArc
 50
270.0
 51
0.0
  0
ARC
  5
48B
100
AcDbEntity
  8
0
370
    -3
390
0
  6
Continuous
100
AcDbCircle
 10
-405.965223
 20
-336.451064
 30
0.0
 40
4.0
100
AcDbArc
 50
0.0
 51
90.0
  0
ARC
  5
48C
100
AcDbEntity
  8
0
370
    -3
390
0
  6
Continuous
100
AcDbCircle
 10
-405.965223
 20
-329.451064
 30
0.0
 40
3.0
100
AcDbArc
 50
180.0
 51
270.0
  0
ARC
  5
48D
100
AcDbEntity
  8
0
370
    -3
390
0
  6
Continuous
100
AcDbCircle
 10
-405.965223
 20
-342.451064
 30
0.0
 40
3.0
100
AcDbArc
 50
180.0
 51
270.0
  0
ARC
  5
48E
100
AcDbEntity
  8
0
370
    -3
390
0
  6
Continuous
100
AcDbCircle
 10
-434.553419
 20
-341.451064
 30
0.0
 40
6.0
100
AcDbArc
 50
90.0
 51
133.283933
  0
ARC
  5
48F
100
AcDbEntity
  8
0
370
    -3
390
0
  6
Continuous
100
AcDbCircle
 10
-414.965223
 20
-341.451064
 30
0.0
 40
6.0
100
AcDbArc
 50
0.0
 51
90.0
  0
ARC
  5
490
100
AcDbEntity
  8
0
370
    -3
390
0
  6
Continuous
100
AcDbCircle
 10
-747.965223
 20
-342.451064
 30
0.0
 40
3.0
100
AcDbArc
 50
270.0
 51
0.0
  0
ARC
  5
491
100
AcDbEntity
  8
0
370
    -3
390
0
  6
Continuous
100
AcDbCircle
 10
-719.377028
 20
-341.451064
 30
0.0
 40
6.0
100
AcDbArc
 50
46.716067
 51
90.0
  0
ARC
  5
492
100
AcDbEntity
  8
0
370
    -3
390
0
  6
Continuous
100
AcDbCircle
 10
-738.965223
 20
-341.451064
 30
0.0
 40
6.0
100
AcDbArc
 50
90.0
 51
180.0
  0
ARC
  5
493
100
AcDbEntity
  8
0
370
    -3
390
0
  6
Continuous
100
AcDbCircle
 10
-474.965223
 20
-375.451064
 30
0.0
 40
3.0
100
AcDbArc
 50
0.0
 51
90.0
  0
ARC
  5
494
100
AcDbEntity
  8
0
370
    -3
390
0
  6
Continuous
100
AcDbCircle
 10
-405.965223
 20
-349.451064
 30
0.0
 40
4.0
100
AcDbArc
 50
0.0
 51
90.0
  0
ARC
  5
495
100
AcDbEntity
  8
0
370
    -3
390
0
  6
Continuous
100
AcDbCircle
 10
-465.965223
 20
-362.437103
 30
0.0
 40
6.0
100
AcDbArc
 50
114.209364
 51
180.0
  0
ARC
  5
496
100
AcDbEntity
  8
0
370
    -3
390
0
  6
Continuous
100
AcDbCircle
 10
-448.05176
 20
-347.451064
 30
0.0
 40
2.0
100
AcDbArc
 50
90.0
 51
126.003415
  0
ARC
  5
497
100
AcDbEntity
  8
0
370
    -3
390
0
  6
Continuous
100
AcDbCircle
 10
-512.713443
 20
-258.463048
 30
0.0
 40
108.0
100
AcDbArc
 50
294.209364
 51
313.283933
  0
ARC
  5
498
100
AcDbEntity
  8
0
370
    -3
390
0
  6
Continuous
100
AcDbCircle
 10
-747.965223
 20
-349.451064
 30
0.0
 40
4.0
100
AcDbArc
 50
90.0
 51
180.0
  0
ARC
  5
499
100
AcDbEntity
  8
0
370
    -3
390
0
  6
Continuous
100
AcDbCircle
 10
-678.965223
 20
-375.451064
 30
0.0
 40
3.0
100
AcDbArc
 50
90.0
 51
180.0
  0
ARC
  5
49A
100
AcDbEntity
  8
0
370
    -3
390
0
  6
Continuous
100
AcDbCircle
 10
-641.217004
 20
-258.463048
 30
0.0
 40
108.0
100
AcDbArc
 50
226.716067
 51
245.790636
  0
ARC
  5
49B
100
AcDbEntity
  8
0
370
    -3
390
0
  6
Continuous
100
AcDbCircle
 10
-576.965223
 20
-615.451064
 30
0.0
 40
600.0
100
AcDbArc
 50
86.510274
 51
88.042013
  0
ARC
  5
49C
100
AcDbEntity
  8
0
370
    -3
390
0
  6
Continuous
100
AcDbCircle
 10
-548.965223
 20
-156.304028
 30
0.0
 40
140.0
100
AcDbArc
 50
0.0
 51
86.510274
  0
ARC
  5
49D
100
AcDbEntity
  8
0
370
    -3
390
0
  6
Continuous
100
AcDbCircle
 10
-604.965223
 20
-156.304028
 30
0.0
 40
140.0
100
AcDbArc
 50
93.489726
 51
180.0
  0
LINE
  5
49E
100
AcDbEntity
  8
0
370
    -3
390
0
  6
Continuous
100
AcDbLine
 10
-434.553419
 20
-335.451064
 30
0.0
 11
-414.965223
 21
-335.451064
 31
0.0
  0
LINE
  5
49F
100
AcDbEntity
  8
0
370
    -3
390
0
  6
Continuous
100
AcDbLine
 10
-408.965223
 20
-156.304028
 30
0.0
 11
-408.965223
 21
-342.451064
 31
0.0
  0
LINE
  5
4A0
100
AcDbEntity
  8
0
370
    -3
390
0
  6
Continuous
100
AcDbLine
 10
-719.377028
 20
-335.451064
 30
0.0
 11
-738.965223
 21
-335.451064
 31
0.0
  0
LINE
  5
4A1
100
AcDbEntity
  8
0
370
    -3
390
0
  6
Continuous
100
AcDbLine
 10
-744.965223
 20
-156.304028
 30
0.0
 11
-744.965223
 21
-342.451064
 31
0.0
  0
LINE
  5
4A2
100
AcDbEntity
  8
0
370
    -3
390
0
  6
Continuous
100
AcDbLine
 10
-471.965223
 20
-375.451064
 30
0.0
 11
-401.965223
 21
-375.451064
 31
0.0
  0
LINE
  5
4A3
100
AcDbEntity
  8
0
370
    -3
390
0
  6
CENTER
100
AcDbLine
 10
-426.965223
 20
-345.451064
 30
0.0
 11
-426.965223
 21
-380.083002
 31
0.0
  0
LINE
  5
4A4
100
AcDbEntity
  8
0
370
    -3
390
0
  6
Continuous
100
AcDbLine
 10
-576.965223
 20
-372.451064
 30
0.0
 11
-474.965223
 21
-372.451064
 31
0.0
  0
LINE
  5
4A5
100
AcDbEntity
  8
0
370
    -3
390
0
  6
Continuous
100
AcDbLine
 10
-401.965223
 20
-336.451064
 30
0.0
 11
-401.965223
 21
-375.451064
 31
0.0
  0
LINE
  5
4A6
100
AcDbEntity
  8
0
370
    -3
390
0
  6
Continuous
100
AcDbLine
 10
-471.965223
 20
-362.437103
 30
0.0
 11
-471.965223
 21
-375.451064
 31
0.0
  0
LINE
  5
4A7
100
AcDbEntity
  8
0
370
    -3
390
0
  6
Continuous
100
AcDbLine
 10
-448.05176
 20
-345.451064
 30
0.0
 11
-405.965223
 21
-345.451064
 31
0.0
  0
LINE
  5
4A8
100
AcDbEntity
  8
0
370
    -3
390
0
  6
Continuous
100
AcDbLine
 10
-705.878686
 20
-345.451064
 30
0.0
 11
-747.965223
 21
-345.451064
 31
0.0
  0
LINE
  5
4A9
100
AcDbEntity
  8
0
370
    -3
390
0
  6
Continuous
100
AcDbLine
 10
-681.965223
 20
-375.451064
 30
0.0
 11
-751.965223
 21
-375.451064
 31
0.0
  0
LINE
  5
4AA
100
AcDbEntity
  8
0
370
    -3
390
0
  6
CENTER
100
AcDbLine
 10
-726.965223
 20
-345.451064
 30
0.0
 11
-726.965223
 21
-380.083002
 31
0.0
  0
LINE
  5
4AB
100
AcDbEntity
  8
0
370
    -3
390
0
  6
Continuous
100
AcDbLine
 10
-576.965223
 20
-372.451064
 30
0.0
 11
-678.965223
 21
-372.451064
 31
0.0
  0
LINE
  5
4AC
100
AcDbEntity
  8
0
370
    -3
390
0
  6
Continuous
100
AcDbLine
 10
-751.965223
 20
-336.451064
 30
0.0
 11
-751.965223
 21
-375.451064
 31
0.0
  0
LINE
  5
4AD
100
AcDbEntity
  8
0
370
    -3
390
0
  6
Continuous
100
AcDbLine
 10
-681.965223
 20
-362.437103
 30
0.0
 11
-681.965223
 21
-375.451064
 31
0.0
  0
ARC
  5
4AE
100
AcDbEntity
  8
0
370
    -3
390
0
  6
Continuous
100
AcDbCircle
 10
-687.965223
 20
-362.437103
 30
0.0
 40
6.0
100
AcDbArc
 50
0.0
 51
65.790636
  0
INSERT
  5
4BB
100
AcDbEntity
  8
0
390
0
100
AcDbBlockReference
  2
ZU_SYM__USERS_HOME_SYMBOL_POO_SYM_B20_07
 10
-651.965223
 20
-360.451064
 30
0.0
 41
-1.0
  0
INSERT
  5
4C8
100
AcDbEntity
  8
0
390
0
100
AcDbBlockReference
  2
ZU_SYM__USERS_HOME_SYMBOL_POO_SYM_B20_0000907
 10
-730.965223
 20
-316.451064
 30
0.0
 41
-1.0
  0
INSERT
  5
4D5
100
AcDbEntity
  8
0
390
0
100
AcDbBlockReference
  2
ZU_SYM__USERS_HOME_SYMBOL_POO_SYM_B20_0001007
 10
-729.965223
 20
-176.451064
 30
0.0
 41
-1.0
  0
INSERT
  5
4E2
100
AcDbEntity
  8
0
390
0
100
AcDbBlockReference
  2
ZU_SYM__USERS_HOME_SYMBOL_POO_SYM_B20_0001107
 10
-646.965223
 20
-36.451064
 30
0.0
 41
-1.0
  0
INSERT
  5
4EF
100
AcDbEntity
  8
0
390
0
100
AcDbBlockReference
  2
ZU_SYM__USERS_HOME_SYMBOL_POO_SYM_B20_05
 10
-587.465223
 20
-28.451064
 30
0.0
 41
-1.0
  0
INSERT
  5
4FC
100
AcDbEntity
  8
0
390
0
100
AcDbBlockReference
  2
ZU_SYM__USERS_HOME_SYMBOL_POO_SYM_B20_0001207
 10
-501.965223
 20
-360.451064
 30
0.0
  0
INSERT
  5
509
100
AcDbEntity
  8
0
390
0
100
AcDbBlockReference
  2
ZU_SYM__USERS_HOME_SYMBOL_POO_SYM_B20_0001307
 10
-422.965223
 20
-316.451064
 30
0.0
  0
INSERT
  5
516
100
AcDbEntity
  8
0
390
0
100
AcDbBlockReference
  2
ZU_SYM__USERS_HOME_SYMBOL_POO_SYM_B20_0001407
 10
-506.965223
 20
-36.451064
 30
0.0
  0
INSERT
  5
523
100
AcDbEntity
  8
0
390
0
100
AcDbBlockReference
  2
ZU_SYM__USERS_HOME_SYMBOL_POO_SYM_B20_0001505
 10
-566.465223
 20
-28.451064
 30
0.0
  0
LINE
  5
524
100
AcDbEntity
  8
0
370
    -3
390
0
  6
CENTER
100
AcDbLine
 10
-608.22786
 20
-145.451064
 30
0.0
 11
-543.875547
 21
-145.451064
 31
0.0
  0
LINE
  5
525
100
AcDbEntity
  8
0
370
    -3
390
0
  6
Continuous
100
AcDbLine
 10
-581.465223
 20
-45.451064
 30
0.0
 11
-581.465223
 21
-72.676973
 31
0.0
  0
LINE
  5
526
100
AcDbEntity
  8
0
370
    -3
390
0
  6
Continuous
100
AcDbLine
 10
-572.465223
 20
-45.451064
 30
0.0
 11
-572.465223
 21
-72.676973
 31
0.0
  0
LINE
  5
527
100
AcDbEntity
  8
0
370
    -3
390
0
  6
CENTER
100
AcDbLine
 10
-576.965223
 20
25.371887
 30
0.0
 11
-576.965223
 21
-377.065195
 31
0.0
  0
LINE
  5
528
100
AcDbEntity
  8
0
370
    -3
390
0
  6
Continuous
100
AcDbLine
 10
-422.965223
 20
-330.451064
 30
0.0
 11
-434.157645
 21
-330.451064
 31
0.0
  0
LINE
  5
529
100
AcDbEntity
  8
0
370
    -3
390
0
  6
Continuous
100
AcDbLine
 10
-730.965223
 20
-330.451064
 30
0.0
 11
-719.772801
 21
-330.451064
 31
0.0
  0
LINE
  5
52A
100
AcDbEntity
  8
0
370
    -3
390
0
  6
Continuous
100
AcDbLine
 10
-412.251563
 20
-144.451064
 30
0.0
 11
-423.965223
 21
-144.451064
 31
0.0
  0
LINE
  5
52B
100
AcDbEntity
  8
0
370
    -3
390
0
  6
Continuous
100
AcDbLine
 10
-418.19812
 20
-118.451064
 30
0.0
 11
-423.965223
 21
-118.451064
 31
0.0
  0
LINE
  5
52C
100
AcDbEntity
  8
0
370
    -3
390
0
  6
Continuous
100
AcDbLine
 10
-594.465223
 20
-40.451064
 30
0.0
 11
-576.965223
 21
-40.451064
 31
0.0
  0
LINE
  5
52D
100
AcDbEntity
  8
0
370
    -3
390
0
  6
Continuous
100
AcDbLine
 10
-576.965223
 20
-40.451064
 30
0.0
 11
-559.465223
 21
-40.451064
 31
0.0
  0
LINE
  5
52E
100
AcDbEntity
  8
0
370
    -3
390
0
  6
Continuous
100
AcDbLine
 10
-597.465223
 20
-15.801374
 30
0.0
 11
-597.465223
 21
-37.451064
 31
0.0
  0
LINE
  5
52F
100
AcDbEntity
  8
0
370
    -3
390
0
  6
Continuous
100
AcDbLine
 10
-556.465223
 20
-15.801374
 30
0.0
 11
-556.465223
 21
-37.451064
 31
0.0
  0
LINE
  5
530
100
AcDbEntity
  8
0
370
    -3
390
0
  6
Continuous
100
AcDbLine
 10
-741.678884
 20
-144.451064
 30
0.0
 11
-729.965223
 21
-144.451064
 31
0.0
  0
LINE
  5
531
100
AcDbEntity
  8
0
370
    -3
390
0
  6
Continuous
100
AcDbLine
 10
-735.732326
 20
-118.451064
 30
0.0
 11
-729.965223
 21
-118.451064
 31
0.0
  0
LINE
  5
532
100
AcDbEntity
  8
0
370
    -3
390
0
  6
Continuous
100
AcDbLine
 10
-493.308779
 20
-115.430659
 30
0.0
 11
-449.730716
 21
-71.852595
 31
0.0
  0
LINE
  5
533
100
AcDbEntity
  8
0
370
    -3
390
0
  6
Continuous
100
AcDbLine
 10
-486.944818
 20
-121.79462
 30
0.0
 11
-444.926724
 21
-79.776526
 31
0.0
  0
LINE
  5
534
100
AcDbEntity
  8
0
370
    -3
390
0
  6
Continuous
100
AcDbLine
 10
-666.985628
 20
-121.79462
 30
0.0
 11
-709.003722
 21
-79.776526
 31
0.0
  0
LINE
  5
535
100
AcDbEntity
  8
0
370
    -3
390
0
  6
Continuous
100
AcDbLine
 10
-660.621667
 20
-115.430659
 30
0.0
 11
-704.199731
 21
-71.852595
 31
0.0
  0
LINE
  5
536
100
AcDbEntity
  8
0
370
    -3
390
0
  6
Continuous
100
AcDbLine
 10
-433.367696
 20
-200.951064
 30
0.0
 11
-418.965223
 21
-200.951064
 31
0.0
  0
LINE
  5
537
100
AcDbEntity
  8
0
370
    -3
390
0
  6
Continuous
100
AcDbLine
 10
-691.965223
 20
-200.951064
 30
0.0
 11
-734.965223
 21
-200.951064
 31
0.0
  0
LINE
  5
538
100
AcDbEntity
  8
0
370
    -3
390
0
  6
Continuous
100
AcDbLine
 10
-691.965223
 20
-209.951064
 30
0.0
 11
-734.965223
 21
-209.951064
 31
0.0
  0
LINE
  5
539
100
AcDbEntity
  8
0
370
    -3
390
0
  6
Continuous
100
AcDbLine
 10
-461.965223
 20
-209.951064
 30
0.0
 11
-437.987698
 21
-209.951064
 31
0.0
  0
LINE
  5
53A
100
AcDbEntity
  8
0
370
    -3
390
0
  6
Continuous
100
AcDbLine
 10
-660.621667
 20
-295.471469
 30
0.0
 11
-698.447604
 21
-333.297406
 31
0.0
  0
LINE
  5
53B
100
AcDbEntity
  8
0
370
    -3
390
0
  6
Continuous
100
AcDbLine
 10
-666.985628
 20
-289.107508
 30
0.0
 11
-706.432788
 21
-328.554668
 31
0.0
  0
LINE
  5
53C
100
AcDbEntity
  8
0
370
    -3
390
0
  6
Continuous
100
AcDbLine
 10
-581.465223
 20
-324.451064
 30
0.0
 11
-581.465223
 21
-362.451064
 31
0.0
  0
LINE
  5
53D
100
AcDbEntity
  8
0
370
    -3
390
0
  6
Continuous
100
AcDbLine
 10
-572.465223
 20
-324.451064
 30
0.0
 11
-572.465223
 21
-362.451064
 31
0.0
  0
LINE
  5
53E
100
AcDbEntity
  8
0
370
    -3
390
0
  6
Continuous
100
AcDbLine
 10
-493.308779
 20
-295.471469
 30
0.0
 11
-455.482842
 21
-333.297406
 31
0.0
  0
LINE
  5
53F
100
AcDbEntity
  8
0
370
    -3
390
0
  6
Continuous
100
AcDbLine
 10
-486.944818
 20
-289.107508
 30
0.0
 11
-447.497658
 21
-328.554668
 31
0.0
  0
ARC
  5
540
100
AcDbEntity
  8
0
370
    -3
390
0
  6
Continuous
100
AcDbCircle
 10
-594.465223
 20
-37.451064
 30
0.0
 40
3.0
100
AcDbArc
 50
180.0
 51
270.0
  0
ARC
  5
541
100
AcDbEntity
  8
0
370
    -3
390
0
  6
Continuous
100
AcDbCircle
 10
-559.465223
 20
-37.451064
 30
0.0
 40
3.0
100
AcDbArc
 50
270.0
 51
0.0
  0
ARC
  5
542
100
AcDbEntity
  8
0
370
    -3
390
0
  6
Continuous
100
AcDbCircle
 10
-567.465223
 20
-45.451064
 30
0.0
 40
5.0
100
AcDbArc
 50
90.0
 51
180.0
  0
ARC
  5
543
100
AcDbEntity
  8
0
370
    -3
390
0
  6
Continuous
100
AcDbCircle
 10
-462.082489
 20
-230.169825
 30
0.0
 40
5.0
100
AcDbArc
 50
177.15288
 51
209.197017
  0
ARC
  5
544
100
AcDbEntity
  8
0
370
    -3
390
0
  6
Continuous
100
AcDbCircle
 10
-525.408379
 20
-315.056675
 30
0.0
 40
5.0
100
AcDbArc
 50
77.356846
 51
109.400982
  0
ARC
  5
545
100
AcDbEntity
  8
0
370
    -3
390
0
  6
Continuous
100
AcDbCircle
 10
-422.965223
 20
-316.451064
 30
0.0
 40
14.0
100
AcDbArc
 50
270.0
 51
0.0
  0
ARC
  5
546
100
AcDbEntity
  8
0
370
    -3
390
0
  6
Continuous
100
AcDbCircle
 10
-434.157645
 20
-342.451064
 30
0.0
 40
12.0
100
AcDbArc
 50
90.0
 51
133.085886
  0
ARC
  5
547
100
AcDbEntity
  8
0
370
    -3
390
0
  6
Continuous
100
AcDbCircle
 10
-512.713443
 20
-258.463048
 30
0.0
 40
103.0
100
AcDbArc
 50
288.08165
 51
313.085886
  0
ARC
  5
548
100
AcDbEntity
  8
0
370
    -3
390
0
  6
Continuous
100
AcDbCircle
 10
-477.020663
 20
-367.783795
 30
0.0
 40
12.0
100
AcDbArc
 50
108.08165
 51
163.618714
  0
ARC
  5
549
100
AcDbEntity
  8
0
370
    -3
390
0
  6
Continuous
100
AcDbCircle
 10
-501.965223
 20
-360.451064
 30
0.0
 40
14.0
100
AcDbArc
 50
301.002719
 51
343.618714
  0
ARC
  5
54A
100
AcDbEntity
  8
0
370
    -3
390
0
  6
Continuous
100
AcDbCircle
 10
-651.965223
 20
-360.451064
 30
0.0
 40
14.0
100
AcDbArc
 50
196.381286
 51
238.997281
  0
ARC
  5
54B
100
AcDbEntity
  8
0
370
    -3
390
0
  6
Continuous
100
AcDbCircle
 10
-676.909783
 20
-367.783795
 30
0.0
 40
12.0
100
AcDbArc
 50
16.381286
 51
71.91835
  0
ARC
  5
54C
100
AcDbEntity
  8
0
370
    -3
390
0
  6
Continuous
100
AcDbCircle
 10
-641.217004
 20
-258.463048
 30
0.0
 40
103.0
100
AcDbArc
 50
226.914114
 51
251.91835
  0
ARC
  5
54D
100
AcDbEntity
  8
0
370
    -3
390
0
  6
Continuous
100
AcDbCircle
 10
-719.772801
 20
-342.451064
 30
0.0
 40
12.0
100
AcDbArc
 50
46.914114
 51
90.0
  0
ARC
  5
54E
100
AcDbEntity
  8
0
370
    -3
390
0
  6
Continuous
100
AcDbCircle
 10
-730.965223
 20
-316.451064
 30
0.0
 40
14.0
100
AcDbArc
 50
180.0
 51
270.0
  0
CIRCLE
  5
54F
100
AcDbEntity
  8
0
370
    -3
390
0
  6
Continuous
100
AcDbCircle
 10
-486.965223
 20
-65.451064
 30
0.0
 40
10.5
  0
CIRCLE
  5
550
100
AcDbEntity
  8
0
370
    -3
390
0
  6
Continuous
100
AcDbCircle
 10
-486.965223
 20
-65.451064
 30
0.0
 40
9.35
  0
CIRCLE
  5
551
100
AcDbEntity
  8
0
370
    -3
390
0
  6
Continuous
100
AcDbCircle
 10
-486.965223
 20
-65.451064
 30
0.0
 40
17.5
  0
ARC
  5
552
100
AcDbEntity
  8
0
370
    -3
390
0
  6
Continuous
100
AcDbCircle
 10
-412.251563
 20
-147.451064
 30
0.0
 40
3.0
100
AcDbArc
 50
3.705045
 51
90.0
  0
ARC
  5
553
100
AcDbEntity
  8
0
370
    -3
390
0
  6
Continuous
100
AcDbCircle
 10
-423.965223
 20
-131.451064
 30
0.0
 40
13.0
100
AcDbArc
 50
90.0
 51
181.660772
  0
ARC
  5
554
100
AcDbEntity
  8
0
370
    -3
390
0
  6
Continuous
100
AcDbCircle
 10
-418.19812
 20
-115.451064
 30
0.0
 40
3.0
100
AcDbArc
 50
270.0
 51
17.349332
  0
ARC
  5
555
100
AcDbEntity
  8
0
370
    -3
390
0
  6
Continuous
100
AcDbCircle
 10
-586.465223
 20
-45.451064
 30
0.0
 40
5.0
100
AcDbArc
 50
0.0
 51
90.0
  0
ARC
  5
556
100
AcDbEntity
  8
0
370
    -3
390
0
  6
Continuous
100
AcDbCircle
 10
-741.678884
 20
-147.451064
 30
0.0
 40
3.0
100
AcDbArc
 50
90.0
 51
176.294955
  0
ARC
  5
557
100
AcDbEntity
  8
0
370
    -3
390
0
  6
Continuous
100
AcDbCircle
 10
-729.965223
 20
-131.451064
 30
0.0
 40
13.0
100
AcDbArc
 50
270.0
 51
90.0
  0
ARC
  5
558
100
AcDbEntity
  8
0
370
    -3
390
0
  6
Continuous
100
AcDbCircle
 10
-735.732326
 20
-115.451064
 30
0.0
 40
3.0
100
AcDbArc
 50
162.650668
 51
270.0
  0
ARC
  5
559
100
AcDbEntity
  8
0
370
    -3
390
0
  6
Continuous
100
AcDbCircle
 10
-453.266249
 20
-68.317061
 30
0.0
 40
5.0
100
AcDbArc
 50
315.0
 51
42.595864
  0
ARC
  5
55A
100
AcDbEntity
  8
0
370
    -3
390
0
  6
Continuous
100
AcDbCircle
 10
-496.844313
 20
-111.895125
 30
0.0
 40
5.0
100
AcDbArc
 50
284.441532
 51
315.0
  0
ARC
  5
55B
100
AcDbEntity
  8
0
370
    -3
390
0
  6
Continuous
100
AcDbCircle
 10
-441.39119
 20
-83.31206
 30
0.0
 40
5.0
100
AcDbArc
 50
34.157982
 51
135.0
  0
ARC
  5
55C
100
AcDbEntity
  8
0
370
    -3
390
0
  6
Continuous
100
AcDbCircle
 10
-483.409284
 20
-125.330154
 30
0.0
 40
5.0
100
AcDbArc
 50
135.0
 51
219.26083
  0
ARC
  5
55D
100
AcDbEntity
  8
0
370
    -3
390
0
  6
Continuous
100
AcDbCircle
 10
-712.539256
 20
-83.31206
 30
0.0
 40
5.0
100
AcDbArc
 50
45.0
 51
145.842018
  0
ARC
  5
55E
100
AcDbEntity
  8
0
370
    -3
390
0
  6
Continuous
100
AcDbCircle
 10
-670.521162
 20
-125.330154
 30
0.0
 40
5.0
100
AcDbArc
 50
320.73917
 51
45.0
  0
ARC
  5
55F
100
AcDbEntity
  8
0
370
    -3
390
0
  6
Continuous
100
AcDbCircle
 10
-657.086133
 20
-111.895125
 30
0.0
 40
5.0
100
AcDbArc
 50
225.0
 51
255.558468
  0
ARC
  5
560
100
AcDbEntity
  8
0
370
    -3
390
0
  6
Continuous
100
AcDbCircle
 10
-700.664197
 20
-68.317061
 30
0.0
 40
5.0
100
AcDbArc
 50
137.404136
 51
225.0
  0
ARC
  5
561
100
AcDbEntity
  8
0
370
    -3
390
0
  6
Continuous
100
AcDbCircle
 10
-418.965223
 20
-195.951064
 30
0.0
 40
5.0
100
AcDbArc
 50
270.0
 51
0.0
  0
ARC
  5
562
100
AcDbEntity
  8
0
370
    -3
390
0
  6
Continuous
100
AcDbCircle
 10
-691.965223
 20
-195.951064
 30
0.0
 40
5.0
100
AcDbArc
 50
270.0
 51
0.0
  0
ARC
  5
563
100
AcDbEntity
  8
0
370
    -3
390
0
  6
Continuous
100
AcDbCircle
 10
-734.965223
 20
-195.951064
 30
0.0
 40
5.0
100
AcDbArc
 50
180.0
 51
270.0
  0
ARC
  5
564
100
AcDbEntity
  8
0
370
    -3
390
0
  6
Continuous
100
AcDbCircle
 10
-734.965223
 20
-214.951064
 30
0.0
 40
5.0
100
AcDbArc
 50
90.0
 51
180.0
  0
ARC
  5
565
100
AcDbEntity
  8
0
370
    -3
390
0
  6
Continuous
100
AcDbCircle
 10
-418.965223
 20
-214.951064
 30
0.0
 40
5.0
100
AcDbArc
 50
0.0
 51
90.0
  0
ARC
  5
566
100
AcDbEntity
  8
0
370
    -3
390
0
  6
Continuous
100
AcDbCircle
 10
-691.965223
 20
-214.951064
 30
0.0
 40
5.0
100
AcDbArc
 50
0.0
 51
90.0
  0
ARC
  5
567
100
AcDbEntity
  8
0
370
    -3
390
0
  6
Continuous
100
AcDbCircle
 10
-461.965223
 20
-214.951064
 30
0.0
 40
5.0
100
AcDbArc
 50
90.0
 51
180.0
  0
ARC
  5
568
100
AcDbEntity
  8
0
370
    -3
390
0
  6
Continuous
100
AcDbCircle
 10
-657.086133
 20
-299.007003
 30
0.0
 40
5.0
100
AcDbArc
 50
50.73917
 51
135.0
  0
ARC
  5
569
100
AcDbEntity
  8
0
370
    -3
390
0
  6
Continuous
100
AcDbCircle
 10
-694.91207
 20
-336.83294
 30
0.0
 40
5.0
100
AcDbArc
 50
135.0
 51
235.58304
  0
ARC
  5
56A
100
AcDbEntity
  8
0
370
    -3
390
0
  6
Continuous
100
AcDbCircle
 10
-670.521162
 20
-285.571974
 30
0.0
 40
5.0
100
AcDbArc
 50
315.0
 51
39.26083
  0
ARC
  5
56B
100
AcDbEntity
  8
0
370
    -3
390
0
  6
Continuous
100
AcDbCircle
 10
-709.968322
 20
-325.019134
 30
0.0
 40
5.0
100
AcDbArc
 50
240.644697
 51
315.0
  0
ARC
  5
56C
100
AcDbEntity
  8
0
370
    -3
390
0
  6
Continuous
100
AcDbCircle
 10
-586.465223
 20
-324.451064
 30
0.0
 40
5.0
100
AcDbArc
 50
0.0
 51
90.0
  0
ARC
  5
56D
100
AcDbEntity
  8
0
370
    -3
390
0
  6
Continuous
100
AcDbCircle
 10
-586.465223
 20
-362.451064
 30
0.0
 40
5.0
100
AcDbArc
 50
270.0
 51
0.0
  0
ARC
  5
56E
100
AcDbEntity
  8
0
370
    -3
390
0
  6
Continuous
100
AcDbCircle
 10
-567.465223
 20
-324.451064
 30
0.0
 40
5.0
100
AcDbArc
 50
90.0
 51
180.0
  0
ARC
  5
56F
100
AcDbEntity
  8
0
370
    -3
390
0
  6
Continuous
100
AcDbCircle
 10
-567.465223
 20
-362.451064
 30
0.0
 40
5.0
100
AcDbArc
 50
180.0
 51
270.0
  0
ARC
  5
570
100
AcDbEntity
  8
0
370
    -3
390
0
  6
Continuous
100
AcDbCircle
 10
-496.844313
 20
-299.007003
 30
0.0
 40
5.0
100
AcDbArc
 50
45.0
 51
129.26083
  0
ARC
  5
571
100
AcDbEntity
  8
0
370
    -3
390
0
  6
Continuous
100
AcDbCircle
 10
-459.018376
 20
-336.83294
 30
0.0
 40
5.0
100
AcDbArc
 50
304.41696
 51
45.0
  0
ARC
  5
572
100
AcDbEntity
  8
0
370
    -3
390
0
  6
Continuous
100
AcDbCircle
 10
-443.962124
 20
-325.019134
 30
0.0
 40
5.0
100
AcDbArc
 50
225.0
 51
299.355303
  0
ARC
  5
573
100
AcDbEntity
  8
0
370
    -3
390
0
  6
Continuous
100
AcDbCircle
 10
-483.409284
 20
-285.571974
 30
0.0
 40
5.0
100
AcDbArc
 50
140.73917
 51
225.0
  0
ARC
  5
574
100
AcDbEntity
  8
0
370
    -3
390
0
  6
Continuous
100
AcDbCircle
 10
-512.713443
 20
-258.463048
 30
0.0
 40
53.0
100
AcDbArc
 50
257.356846
 51
297.492957
  0
ARC
  5
575
100
AcDbEntity
  8
0
370
    -3
390
0
  6
Continuous
100
AcDbCircle
 10
-485.938347
 20
-309.912969
 30
0.0
 40
5.0
100
AcDbArc
 50
45.0
 51
117.492957
  0
ARC
  5
576
100
AcDbEntity
  8
0
370
    -3
390
0
  6
Continuous
100
AcDbCircle
 10
-512.713443
 20
-258.463048
 30
0.0
 40
53.0
100
AcDbArc
 50
316.5336
 51
29.197017
  0
ARC
  5
577
100
AcDbEntity
  8
0
370
    -3
390
0
  6
Continuous
100
AcDbCircle
 10
-470.618323
 20
-298.362935
 30
0.0
 40
5.0
100
AcDbArc
 50
136.5336
 51
225.0
  0
ARC
  5
578
100
AcDbEntity
  8
0
370
    -3
390
0
  6
Continuous
100
AcDbCircle
 10
-423.965223
 20
-131.451064
 30
0.0
 40
13.0
100
AcDbArc
 50
230.260395
 51
270.0
  0
ARC
  5
579
100
AcDbEntity
  8
0
370
    -3
390
0
  6
Continuous
100
AcDbCircle
 10
-423.965223
 20
-176.451064
 30
0.0
 40
7.787524
100
AcDbArc
 50
180.0
 51
0.0
  0
ARC
  5
57A
100
AcDbEntity
  8
0
370
    -3
390
0
  6
Continuous
100
AcDbCircle
 10
-423.965223
 20
-176.451064
 30
0.0
 40
9.0
100
AcDbArc
 50
202.242305
 51
154.648654
  0
POINT
  5
57B
100
AcDbEntity
  8
0
370
    -3
390
0
  6
Continuous
100
AcDbPoint
 10
-423.965223
 20
-176.451064
 30
0.0
  0
LINE
  5
57C
100
AcDbEntity
  8
0
370
    -3
390
0
  6
Continuous
100
AcDbLine
 10
-428.965221
 20
-179.337808
 30
0.0
 11
-428.965222
 21
-173.564309
 31
0.0
  0
LINE
  5
57D
100
AcDbEntity
  8
0
370
    -3
390
0
  6
Continuous
100
AcDbLine
 10
-418.965226
 20
-173.56432
 30
0.0
 11
-418.965225
 21
-179.337819
 31
0.0
  0
LINE
  5
57E
100
AcDbEntity
  8
0
370
    -3
390
0
  6
Continuous
100
AcDbLine
 10
-418.965225
 20
-173.56432
 30
0.0
 11
-423.965215
 21
-170.677564
 31
0.0
  0
LINE
  5
57F
100
AcDbEntity
  8
0
370
    -3
390
0
  6
Continuous
100
AcDbLine
 10
-423.965232
 20
-182.224563
 30
0.0
 11
-428.965221
 21
-179.337808
 31
0.0
  0
LINE
  5
580
100
AcDbEntity
  8
0
370
    -3
390
0
  6
Continuous
100
AcDbLine
 10
-428.965222
 20
-173.564309
 30
0.0
 11
-423.965215
 21
-170.677564
 31
0.0
  0
LINE
  5
581
100
AcDbEntity
  8
0
370
    -3
390
0
  6
Continuous
100
AcDbLine
 10
-418.965224
 20
-179.337818
 30
0.0
 11
-423.965232
 21
-182.224564
 31
0.0
  0
LINE
  5
582
100
AcDbEntity
  8
0
370
    -3
390
0
  6
Continuous
100
AcDbLine
 10
-433.82808
 20
-209.951064
 30
0.0
 11
-432.815132
 21
-209.951064
 31
0.0
  0
LINE
  5
583
100
AcDbEntity
  8
0
370
    -3
390
0
  6
Continuous
100
AcDbLine
 10
-431.662088
 20
-209.951064
 30
0.0
 11
-418.965223
 21
-209.951064
 31
0.0
  0
MTEXT
  5
585
100
AcDbEntity
  8
0
370
    -3
390
0
  6
Continuous
100
AcDbMText
 10
-591.448303
 20
264.313416
 30
0.0
 40
16.0
 41
0.0
 71
     7
 72
     1
  1
\W0.83;三菱ギヤードモータ  
  7
ZU_SHPTB00001
 11
1.0
 21
0.0
 31
0.0
 73
     1
 44
1.0
  0
MTEXT
  5
586
100
AcDbEntity
  8
0
370
    -3
390
0
  6
Continuous
100
AcDbMText
 10
-591.448303
 20
243.113419
 30
0.0
 40
16.0
 41
0.0
 71
     7
 72
     1
  1
\W0.60;GM-DPB
  7
ZU_SHPTB00001
 11
1.0
 21
0.0
 31
0.0
 73
     1
 44
1.0
  0
MTEXT
  5
587
100
AcDbEntity
  8
0
370
    -3
390
0
  6
Continuous
100
AcDbMText
 10
-591.448303
 20
221.913406
 30
0.0
 40
16.0
 41
0.0
 71
     7
 72
     1
  1
\W0.60;1.5(kW)
  7
ZU_SHPTB00001
 11
1.0
 21
0.0
 31
0.0
 73
     1
 44
1.0
  0
MTEXT
  5
588
100
AcDbEntity
  8
0
370
    -3
390
0
  6
Continuous
100
AcDbMText
 10
-591.448303
 20
200.713409
 30
0.0
 40
16.0
 41
0.0
 71
     7
 72
     1
  1
\W0.60;1/270\W0.83;～\W0.60;1/450
  7
ZU_SHPTB00001
 11
1.0
 21
0.0
 31
0.0
 73
     1
 44
1.0
  0
MTEXT
  5
589
100
AcDbEntity
  8
0
370
    -3
390
0
  6
Continuous
100
AcDbMText
 10
-591.448303
 20
179.513412
 30
0.0
 40
16.0
 41
0.0
 71
     7
 72
     1
  1
\W0.60;SCALE\W1.00; \W0.60;1/1
  7
ZU_SHPTB00001
 11
1.0
 21
0.0
 31
0.0
 73
     1
 44
1.0
  0
INSERT
  5
599
100
AcDbEntity
  8
0
390
0
100
AcDbBlockReference
  2
ZU_SYM__USERS_HOME_SYMBOL_STD_SYM_B02_0001648
 10
59.074826
 20
169.338258
 30
0.0
  0
LINE
  5
59A
100
AcDbEntity
  8
0
370
    -3
390
0
  6
Continuous
100
AcDbLine
 10
71.074826
 20
130.048936
 30
0.0
 11
62.074826
 21
130.048936
 31
0.0
  0
ARC
  5
59B
100
AcDbEntity
  8
0
370
    -3
390
0
  6
Continuous
100
AcDbCircle
 10
62.074826
 20
133.048936
 30
0.0
 40
3.0
100
AcDbArc
 50
180.0
 51
270.0
  0
LINE
  5
59C
100
AcDbEntity
  8
0
370
    -3
390
0
  6
Continuous
100
AcDbLine
 10
-18.925174
 20
156.548936
 30
0.0
 11
54.074826
 21
156.548936
 31
0.0
  0
ARC
  5
59D
100
AcDbEntity
  8
0
370
    -3
390
0
  6
Continuous
100
AcDbCircle
 10
-1.925174
 20
161.548936
 30
0.0
 40
5.0
100
AcDbArc
 50
270.0
 51
360.0
  0
ARC
  5
59E
100
AcDbEntity
  8
0
370
    -3
390
0
  6
Continuous
100
AcDbCircle
 10
54.074826
 20
151.548936
 30
0.0
 40
5.0
100
AcDbArc
 50
0.0
 51
90.0
  0
INSERT
  5
5AA
100
AcDbEntity
  8
0
390
0
100
AcDbBlockReference
  2
ZU_SYM__USERS_HOME_SYMBOL_POO_SYM_B20_0001720
 10
113.074826
 20
170.048936
 30
0.0
  0
ARC
  5
5AB
100
AcDbEntity
  8
0
370
    -3
390
0
  6
Continuous
100
AcDbCircle
 10
116.074826
 20
75.048936
 30
0.0
 40
3.0
100
AcDbArc
 50
180.0
 51
270.0
  0
LINE
  5
5AC
100
AcDbEntity
  8
0
370
    -3
390
0
  6
Continuous
100
AcDbLine
 10
126.074826
 20
240.048936
 30
0.0
 11
126.074826
 21
72.048936
 31
0.0
  0
LINE
  5
5AD
100
AcDbEntity
  8
0
370
    -3
390
0
  6
Continuous
100
AcDbLine
 10
111.074826
 20
72.048936
 30
0.0
 11
126.574826
 21
72.048936
 31
0.0
  0
ARC
  5
5AE
100
AcDbEntity
  8
0
370
    -3
390
0
  6
Continuous
100
AcDbCircle
 10
111.074826
 20
75.048936
 30
0.0
 40
3.0
100
AcDbArc
 50
180.0
 51
270.0
  0
LINE
  5
5AF
100
AcDbEntity
  8
0
370
    -3
390
0
  6
Continuous
100
AcDbLine
 10
108.074826
 20
97.048936
 30
0.0
 11
108.074826
 21
75.048936
 31
0.0
  0
ARC
  5
5B0
100
AcDbEntity
  8
0
370
    -3
390
0
  6
Continuous
100
AcDbCircle
 10
111.074826
 20
97.048936
 30
0.0
 40
3.0
100
AcDbArc
 50
99.594068
 51
180.0
  0
ARC
  5
5B1
100
AcDbEntity
  8
0
370
    -3
390
0
  6
Continuous
100
AcDbCircle
 10
110.074826
 20
102.965016
 30
0.0
 40
3.0
100
AcDbArc
 50
279.594068
 51
0.0
  0
LINE
  5
5B2
100
AcDbEntity
  8
0
370
    -3
390
0
  6
Continuous
100
AcDbLine
 10
101.074868
 20
79.261201
 30
0.0
 11
101.074852
 21
94.836276
 31
0.0
  0
LINE
  5
5B3
100
AcDbEntity
  8
0
370
    -3
390
0
  6
Continuous
100
AcDbLine
 10
101.774845
 20
96.048937
 30
0.0
 11
101.074848
 21
94.836277
 31
0.0
  0
LINE
  5
5B4
100
AcDbEntity
  8
0
370
    -3
390
0
  6
Continuous
100
AcDbLine
 10
101.774863
 20
78.048933
 30
0.0
 11
101.074866
 21
79.261197
 31
0.0
  0
LINE
  5
5B5
100
AcDbEntity
  8
0
370
    -3
390
0
  6
Continuous
100
AcDbLine
 10
101.774849
 20
96.048936
 30
0.0
 11
101.774849
 21
78.048936
 31
0.0
  0
LINE
  5
5B6
100
AcDbEntity
  8
0
370
    -3
390
0
  6
Continuous
100
AcDbLine
 10
108.074826
 20
78.048936
 30
0.0
 11
101.774864
 21
78.048936
 31
0.0
  0
LINE
  5
5B7
100
AcDbEntity
  8
0
370
    -3
390
0
  6
Continuous
100
AcDbLine
 10
108.074826
 20
96.048936
 30
0.0
 11
101.774849
 21
96.048936
 31
0.0
  0
ARC
  5
5B8
100
AcDbEntity
  8
0
370
    -3
390
0
  6
Continuous
100
AcDbCircle
 10
106.074826
 20
222.548936
 30
0.0
 40
3.0
100
AcDbArc
 50
180.0
 51
270.0
  0
LINE
  5
5B9
100
AcDbEntity
  8
0
370
    -3
390
0
  6
Continuous
100
AcDbLine
 10
106.074826
 20
219.548936
 30
0.0
 11
110.074826
 21
219.548936
 31
0.0
  0
ARC
  5
5BA
100
AcDbEntity
  8
0
370
    -3
390
0
  6
Continuous
100
AcDbCircle
 10
110.074826
 20
216.548936
 30
0.0
 40
3.0
100
AcDbArc
 50
0.0
 51
90.0
  0
LINE
  5
5BB
100
AcDbEntity
  8
0
370
    -3
390
0
  6
Continuous
100
AcDbLine
 10
98.574826
 20
240.048936
 30
0.0
 11
98.574826
 21
219.548936
 31
0.0
  0
LINE
  5
5BC
100
AcDbEntity
  8
0
370
    -3
390
0
  6
Continuous
100
AcDbLine
 10
103.074826
 20
240.048936
 30
0.0
 11
103.074826
 21
219.548936
 31
0.0
  0
LINE
  5
5BD
100
AcDbEntity
  8
0
370
    -3
390
0
  6
Continuous
100
AcDbLine
 10
98.574826
 20
219.548936
 30
0.0
 11
103.074826
 21
219.548936
 31
0.0
  0
LINE
  5
5BE
100
AcDbEntity
  8
0
370
    -3
390
0
  6
Continuous
100
AcDbLine
 10
91.074827
 20
236.048936
 30
0.0
 11
91.074827
 21
223.048936
 31
0.0
  0
LINE
  5
5BF
100
AcDbEntity
  8
0
370
    -3
390
0
  6
Continuous
100
AcDbLine
 10
91.074828
 20
223.048936
 30
0.0
 11
90.574827
 21
223.914866
 31
0.0
  0
LINE
  5
5C0
100
AcDbEntity
  8
0
370
    -3
390
0
  6
Continuous
100
AcDbLine
 10
91.074827
 20
236.048936
 30
0.0
 11
90.574827
 21
235.182812
 31
0.0
  0
LINE
  5
5C1
100
AcDbEntity
  8
0
370
    -3
390
0
  6
Continuous
100
AcDbLine
 10
98.574826
 20
236.048936
 30
0.0
 11
91.074827
 21
236.048936
 31
0.0
  0
LINE
  5
5C2
100
AcDbEntity
  8
0
370
    -3
390
0
  6
Continuous
100
AcDbLine
 10
90.574827
 20
235.182812
 30
0.0
 11
90.574827
 21
223.914866
 31
0.0
  0
LINE
  5
5C3
100
AcDbEntity
  8
0
370
    -3
390
0
  6
Continuous
100
AcDbLine
 10
98.574826
 20
223.048936
 30
0.0
 11
91.074827
 21
223.048936
 31
0.0
  0
LINE
  5
5C4
100
AcDbEntity
  8
0
370
    -3
390
0
  6
Continuous
100
AcDbLine
 10
113.074826
 20
240.048936
 30
0.0
 11
113.074826
 21
75.048936
 31
0.0
  0
ARC
  5
5C5
100
AcDbEntity
  8
0
370
    -3
390
0
  6
Continuous
100
AcDbCircle
 10
108.074826
 20
109.655524
 30
0.0
 40
5.0
100
AcDbArc
 50
0.0
 51
37.441769
  0
LINE
  5
5C6
100
AcDbEntity
  8
0
370
    -3
390
0
  6
Continuous
100
AcDbLine
 10
77.575797
 20
157.71068
 30
0.0
 11
112.044684
 21
112.695298
 31
0.0
  0
ARC
  5
5C7
100
AcDbEntity
  8
0
370
    -3
390
0
  6
Continuous
100
AcDbCircle
 10
73.605939
 20
154.670906
 30
0.0
 40
5.0
100
AcDbArc
 50
37.441769
 51
90.0
  0
LINE
  5
5C8
100
AcDbEntity
  8
0
370
    -3
390
0
  6
Continuous
100
AcDbLine
 10
80.05064
 20
159.670906
 30
0.0
 11
113.074826
 21
159.670906
 31
0.0
  0
ARC
  5
5C9
100
AcDbEntity
  8
0
370
    -3
390
0
  6
Continuous
100
AcDbCircle
 10
73.605939
 20
147.795847
 30
0.0
 40
5.0
100
AcDbArc
 50
37.441769
 51
90.0
  0
ARC
  5
5CA
100
AcDbEntity
  8
0
370
    -3
390
0
  6
Continuous
100
AcDbCircle
 10
108.074826
 20
102.780465
 30
0.0
 40
5.0
100
AcDbArc
 50
0.0
 51
37.441769
  0
LINE
  5
5CB
100
AcDbEntity
  8
0
370
    -3
390
0
  6
Continuous
100
AcDbLine
 10
77.575797
 20
150.835621
 30
0.0
 11
112.044684
 21
105.820239
 31
0.0
  0
LINE
  5
5CC
100
AcDbEntity
  8
0
370
    -3
390
0
  6
Continuous
100
AcDbLine
 10
94.429657
 20
128.824961
 30
0.0
 11
71.074826
 21
130.048936
 31
0.0
  0
ARC
  5
5CD
100
AcDbEntity
  8
0
370
    -3
390
0
  6
Continuous
100
AcDbCircle
 10
73.380673
 20
124.92123
 30
0.0
 40
5.0
100
AcDbArc
 50
35.052805
 51
87.0
  0
LINE
  5
5CE
100
AcDbEntity
  8
0
370
    -3
390
0
  6
Continuous
100
AcDbLine
 10
77.473788
 20
127.792886
 30
0.0
 11
101.074853
 21
94.153101
 31
0.0
  0
INSERT
  5
5DA
100
AcDbEntity
  8
0
390
0
100
AcDbBlockReference
  2
ZU_SYM__USERS_HOME_SYMBOL_POO_SYM_B20_0001820
 10
113.074826
 20
310.048936
 30
0.0
 41
-1.0
 50
180.0
  0
ARC
  5
5DB
100
AcDbEntity
  8
0
370
    -3
390
0
  6
Continuous
100
AcDbCircle
 10
116.074826
 20
405.048936
 30
0.0
 40
3.0
100
AcDbArc
 50
90.0
 51
180.0
  0
LINE
  5
5DC
100
AcDbEntity
  8
0
370
    -3
390
0
  6
Continuous
100
AcDbLine
 10
126.074826
 20
240.048936
 30
0.0
 11
126.074826
 21
408.048936
 31
0.0
  0
LINE
  5
5DD
100
AcDbEntity
  8
0
370
    -3
390
0
  6
Continuous
100
AcDbLine
 10
111.074826
 20
408.048936
 30
0.0
 11
126.574826
 21
408.048936
 31
0.0
  0
ARC
  5
5DE
100
AcDbEntity
  8
0
370
    -3
390
0
  6
Continuous
100
AcDbCircle
 10
111.074826
 20
405.048936
 30
0.0
 40
3.0
100
AcDbArc
 50
90.0
 51
180.0
  0
LINE
  5
5DF
100
AcDbEntity
  8
0
370
    -3
390
0
  6
Continuous
100
AcDbLine
 10
108.074826
 20
383.048936
 30
0.0
 11
108.074826
 21
405.048936
 31
0.0
  0
ARC
  5
5E0
100
AcDbEntity
  8
0
370
    -3
390
0
  6
Continuous
100
AcDbCircle
 10
111.074826
 20
383.048936
 30
0.0
 40
3.0
100
AcDbArc
 50
180.0
 51
260.405932
  0
ARC
  5
5E1
100
AcDbEntity
  8
0
370
    -3
390
0
  6
Continuous
100
AcDbCircle
 10
110.074826
 20
377.132856
 30
0.0
 40
3.0
100
AcDbArc
 50
0.0
 51
80.405932
  0
LINE
  5
5E2
100
AcDbEntity
  8
0
370
    -3
390
0
  6
Continuous
100
AcDbLine
 10
101.074868
 20
400.836672
 30
0.0
 11
101.074852
 21
385.261596
 31
0.0
  0
LINE
  5
5E3
100
AcDbEntity
  8
0
370
    -3
390
0
  6
Continuous
100
AcDbLine
 10
101.774845
 20
384.048935
 30
0.0
 11
101.074848
 21
385.261595
 31
0.0
  0
LINE
  5
5E4
100
AcDbEntity
  8
0
370
    -3
390
0
  6
Continuous
100
AcDbLine
 10
101.774863
 20
402.048939
 30
0.0
 11
101.074866
 21
400.836675
 31
0.0
  0
LINE
  5
5E5
100
AcDbEntity
  8
0
370
    -3
390
0
  6
Continuous
100
AcDbLine
 10
101.774849
 20
384.048936
 30
0.0
 11
101.774849
 21
402.048936
 31
0.0
  0
LINE
  5
5E6
100
AcDbEntity
  8
0
370
    -3
390
0
  6
Continuous
100
AcDbLine
 10
108.074826
 20
402.048936
 30
0.0
 11
101.774864
 21
402.048936
 31
0.0
  0
LINE
  5
5E7
100
AcDbEntity
  8
0
370
    -3
390
0
  6
Continuous
100
AcDbLine
 10
108.074826
 20
384.048936
 30
0.0
 11
101.774849
 21
384.048936
 31
0.0
  0
ARC
  5
5E8
100
AcDbEntity
  8
0
370
    -3
390
0
  6
Continuous
100
AcDbCircle
 10
106.074826
 20
257.548936
 30
0.0
 40
3.0
100
AcDbArc
 50
90.0
 51
180.0
  0
LINE
  5
5E9
100
AcDbEntity
  8
0
370
    -3
390
0
  6
Continuous
100
AcDbLine
 10
106.074826
 20
260.548936
 30
0.0
 11
110.074826
 21
260.548936
 31
0.0
  0
ARC
  5
5EA
100
AcDbEntity
  8
0
370
    -3
390
0
  6
Continuous
100
AcDbCircle
 10
110.074826
 20
263.548936
 30
0.0
 40
3.0
100
AcDbArc
 50
270.0
 51
0.0
  0
LINE
  5
5EB
100
AcDbEntity
  8
0
370
    -3
390
0
  6
Continuous
100
AcDbLine
 10
98.574826
 20
240.048936
 30
0.0
 11
98.574826
 21
260.548936
 31
0.0
  0
LINE
  5
5EC
100
AcDbEntity
  8
0
370
    -3
390
0
  6
Continuous
100
AcDbLine
 10
103.074826
 20
240.048936
 30
0.0
 11
103.074826
 21
260.548936
 31
0.0
  0
LINE
  5
5ED
100
AcDbEntity
  8
0
370
    -3
390
0
  6
Continuous
100
AcDbLine
 10
98.574826
 20
260.548936
 30
0.0
 11
103.074826
 21
260.548936
 31
0.0
  0
LINE
  5
5EE
100
AcDbEntity
  8
0
370
    -3
390
0
  6
Continuous
100
AcDbLine
 10
91.074827
 20
244.048936
 30
0.0
 11
91.074827
 21
257.048936
 31
0.0
  0
LINE
  5
5EF
100
AcDbEntity
  8
0
370
    -3
390
0
  6
Continuous
100
AcDbLine
 10
91.074828
 20
257.048936
 30
0.0
 11
90.574827
 21
256.183007
 31
0.0
  0
LINE
  5
5F0
100
AcDbEntity
  8
0
370
    -3
390
0
  6
Continuous
100
AcDbLine
 10
91.074827
 20
244.048936
 30
0.0
 11
90.574827
 21
244.91506
 31
0.0
  0
LINE
  5
5F1
100
AcDbEntity
  8
0
370
    -3
390
0
  6
Continuous
100
AcDbLine
 10
98.574826
 20
244.048936
 30
0.0
 11
91.074827
 21
244.048936
 31
0.0
  0
LINE
  5
5F2
100
AcDbEntity
  8
0
370
    -3
390
0
  6
Continuous
100
AcDbLine
 10
90.574827
 20
244.91506
 30
0.0
 11
90.574827
 21
256.183007
 31
0.0
  0
LINE
  5
5F3
100
AcDbEntity
  8
0
370
    -3
390
0
  6
Continuous
100
AcDbLine
 10
98.574826
 20
257.048936
 30
0.0
 11
91.074827
 21
257.048936
 31
0.0
  0
LINE
  5
5F4
100
AcDbEntity
  8
0
370
    -3
390
0
  6
Continuous
100
AcDbLine
 10
113.074826
 20
240.048936
 30
0.0
 11
113.074826
 21
405.048936
 31
0.0
  0
ARC
  5
5F5
100
AcDbEntity
  8
0
370
    -3
390
0
  6
Continuous
100
AcDbCircle
 10
108.074826
 20
370.442348
 30
0.0
 40
5.0
100
AcDbArc
 50
322.558231
 51
0.0
  0
ARC
  5
5F6
100
AcDbEntity
  8
0
370
    -3
390
0
  6
Continuous
100
AcDbCircle
 10
108.074826
 20
377.317407
 30
0.0
 40
5.0
100
AcDbArc
 50
322.558231
 51
0.0
  0
LINE
  5
5F7
100
AcDbEntity
  8
0
370
    -3
390
0
  6
Continuous
100
AcDbLine
 10
418.57481
 20
240.048936
 30
0.0
 11
418.57481
 21
210.848936
 31
0.0
  0
ARC
  5
5F8
100
AcDbEntity
  8
0
370
    -3
390
0
  6
Continuous
100
AcDbCircle
 10
417.77481
 20
210.848936
 30
0.0
 40
0.8
100
AcDbArc
 50
270.0
 51
0.0
  0
LINE
  5
5F9
100
AcDbEntity
  8
0
370
    -3
390
0
  6
Continuous
100
AcDbLine
 10
327.77481
 20
208.548936
 30
0.0
 11
323.57481
 21
208.548936
 31
0.0
  0
LINE
  5
5FA
100
AcDbEntity
  8
0
370
    -3
390
0
  6
Continuous
100
AcDbLine
 10
417.77481
 20
210.048936
 30
0.0
 11
331.134618
 21
210.048936
 31
0.0
  0
LINE
  5
5FB
100
AcDbEntity
  8
0
370
    -3
390
0
  6
Continuous
100
AcDbLine
 10
328.57481
 20
240.048936
 30
0.0
 11
328.57481
 21
209.348936
 31
0.0
  0
LINE
  5
5FC
100
AcDbEntity
  8
0
370
    -3
390
0
  6
Continuous
100
AcDbLine
 10
328.57481
 20
209.348936
 30
0.0
 11
327.77481
 21
208.548936
 31
0.0
  0
ARC
  5
5FD
100
AcDbEntity
  8
0
370
    -3
390
0
  6
Continuous
100
AcDbCircle
 10
329.37481
 20
209.398936
 30
0.0
 40
0.8
100
AcDbArc
 50
90.0
 51
180.0
  0
LINE
  5
5FE
100
AcDbEntity
  8
0
370
    -3
390
0
  6
Continuous
100
AcDbLine
 10
331.134618
 20
210.048936
 30
0.0
 11
330.57481
 21
210.198936
 31
0.0
  0
LINE
  5
5FF
100
AcDbEntity
  8
0
370
    -3
390
0
  6
Continuous
100
AcDbLine
 10
330.57481
 20
210.198936
 30
0.0
 11
329.37481
 21
210.198936
 31
0.0
  0
LINE
  5
600
100
AcDbEntity
  8
0
370
    -3
390
0
  6
Continuous
100
AcDbLine
 10
327.77481
 20
271.548936
 30
0.0
 11
323.57481
 21
271.548936
 31
0.0
  0
LINE
  5
601
100
AcDbEntity
  8
0
370
    -3
390
0
  6
Continuous
100
AcDbLine
 10
328.57481
 20
240.048936
 30
0.0
 11
328.57481
 21
270.748936
 31
0.0
  0
LINE
  5
602
100
AcDbEntity
  8
0
370
    -3
390
0
  6
Continuous
100
AcDbLine
 10
328.57481
 20
270.748936
 30
0.0
 11
327.77481
 21
271.548936
 31
0.0
  0
ARC
  5
603
100
AcDbEntity
  8
0
370
    -3
390
0
  6
Continuous
100
AcDbCircle
 10
329.37481
 20
270.698936
 30
0.0
 40
0.8
100
AcDbArc
 50
180.0
 51
270.0
  0
LINE
  5
604
100
AcDbEntity
  8
0
370
    -3
390
0
  6
Continuous
100
AcDbLine
 10
331.134618
 20
270.048936
 30
0.0
 11
330.57481
 21
269.898936
 31
0.0
  0
LINE
  5
605
100
AcDbEntity
  8
0
370
    -3
390
0
  6
Continuous
100
AcDbLine
 10
330.57481
 20
269.898936
 30
0.0
 11
329.37481
 21
269.898936
 31
0.0
  0
LINE
  5
606
100
AcDbEntity
  8
0
370
    -3
390
0
  6
Continuous
100
AcDbLine
 10
346.57481
 20
210.048936
 30
0.0
 11
346.57481
 21
206.048936
 31
0.0
  0
LINE
  5
607
100
AcDbEntity
  8
0
370
    -3
390
0
  6
Continuous
100
AcDbLine
 10
418.57481
 20
240.048936
 30
0.0
 11
418.57481
 21
269.248936
 31
0.0
  0
LINE
  5
608
100
AcDbEntity
  8
0
370
    -3
390
0
  6
Continuous
100
AcDbLine
 10
417.77481
 20
270.048936
 30
0.0
 11
331.134618
 21
270.048936
 31
0.0
  0
ARC
  5
609
100
AcDbEntity
  8
0
370
    -3
390
0
  6
Continuous
100
AcDbCircle
 10
417.77481
 20
269.248936
 30
0.0
 40
0.8
100
AcDbArc
 50
0.0
 51
90.0
  0
LINE
  5
60A
100
AcDbEntity
  8
0
370
    -3
390
0
  6
Continuous
100
AcDbLine
 10
418.57481
 20
206.048936
 30
0.0
 11
418.57481
 21
210.848936
 31
0.0
  0
LINE
  5
60B
100
AcDbEntity
  8
0
370
    -3
390
0
  6
Continuous
100
AcDbLine
 10
418.57481
 20
206.048936
 30
0.0
 11
346.57481
 21
206.048936
 31
0.0
  0
ARC
  5
60C
100
AcDbEntity
  8
0
370
    -3
390
0
  6
Continuous
100
AcDbCircle
 10
193.574826
 20
65.780235
 30
0.0
 40
3.0
100
AcDbArc
 50
271.0
 51
0.0
  0
LINE
  5
60D
100
AcDbEntity
  8
0
370
    -3
390
0
  6
Continuous
100
AcDbLine
 10
196.574826
 20
70.322699
 30
0.0
 11
196.574826
 21
65.780235
 31
0.0
  0
ARC
  5
60E
100
AcDbEntity
  8
0
370
    -3
390
0
  6
Continuous
100
AcDbCircle
 10
199.574826
 20
70.322699
 30
0.0
 40
3.0
100
AcDbArc
 50
91.0
 51
180.0
  0
LINE
  5
60F
100
AcDbEntity
  8
0
370
    -3
390
0
  6
Continuous
100
AcDbLine
 10
129.574826
 20
72.101301
 30
0.0
 11
129.574826
 21
61.662654
 31
0.0
  0
LINE
  5
610
100
AcDbEntity
  8
0
370
    -3
390
0
  6
Continuous
100
AcDbLine
 10
129.574826
 20
407.996571
 30
0.0
 11
129.574826
 21
418.435219
 31
0.0
  0
ARC
  5
611
100
AcDbEntity
  8
0
370
    -3
390
0
  6
Continuous
100
AcDbCircle
 10
199.574826
 20
409.775173
 30
0.0
 40
3.0
100
AcDbArc
 50
180.0
 51
269.0
  0
ARC
  5
612
100
AcDbEntity
  8
0
370
    -3
390
0
  6
Continuous
100
AcDbCircle
 10
193.574826
 20
414.317638
 30
0.0
 40
3.0
100
AcDbArc
 50
0.0
 51
89.0
  0
LINE
  5
613
100
AcDbEntity
  8
0
370
    -3
390
0
  6
Continuous
100
AcDbLine
 10
196.574826
 20
409.775173
 30
0.0
 11
196.574826
 21
414.317638
 31
0.0
  0
ARC
  5
614
100
AcDbEntity
  8
0
370
    -3
390
0
  6
Continuous
100
AcDbCircle
 10
53.574826
 20
74.662932
 30
0.0
 40
10.0
100
AcDbArc
 50
180.0
 51
267.745122
  0
LINE
  5
615
100
AcDbEntity
  8
0
370
    -3
390
0
  6
Continuous
100
AcDbLine
 10
53.181377
 20
64.670675
 30
0.0
 11
129.574826
 21
61.662654
 31
0.0
  0
LINE
  5
616
100
AcDbEntity
  8
0
370
    -3
390
0
  6
Continuous
100
AcDbLine
 10
313.74935
 20
64.877432
 30
0.0
 11
129.574826
 21
61.662654
 31
0.0
  0
ARC
  5
617
100
AcDbEntity
  8
0
370
    -3
390
0
  6
Continuous
100
AcDbCircle
 10
313.574826
 20
74.875909
 30
0.0
 40
10.0
100
AcDbArc
 50
271.0
 51
0.0
  0
ARC
  5
618
100
AcDbEntity
  8
0
370
    -3
390
0
  6
Continuous
100
AcDbCircle
 10
313.574826
 20
405.221964
 30
0.0
 40
10.0
100
AcDbArc
 50
0.0
 51
89.0
  0
LINE
  5
619
100
AcDbEntity
  8
0
370
    -3
390
0
  6
Continuous
100
AcDbLine
 10
53.181377
 20
415.427198
 30
0.0
 11
129.574826
 21
418.435219
 31
0.0
  0
ARC
  5
61A
100
AcDbEntity
  8
0
370
    -3
390
0
  6
Continuous
100
AcDbCircle
 10
53.574826
 20
405.434941
 30
0.0
 40
10.0
100
AcDbArc
 50
92.254878
 51
180.0
  0
LINE
  5
61B
100
AcDbEntity
  8
0
370
    -3
390
0
  6
Continuous
100
AcDbLine
 10
322.574826
 20
187.548936
 30
0.0
 11
323.574826
 21
187.548936
 31
0.0
  0
LINE
  5
61C
100
AcDbEntity
  8
0
370
    -3
390
0
  6
Continuous
100
AcDbLine
 10
322.574826
 20
292.548936
 30
0.0
 11
323.574826
 21
292.548936
 31
0.0
  0
LINE
  5
61D
100
AcDbEntity
  8
0
370
    -3
390
0
  6
Continuous
100
AcDbLine
 10
323.574826
 20
240.048936
 30
0.0
 11
323.574826
 21
405.221964
 31
0.0
  0
LINE
  5
61E
100
AcDbEntity
  8
0
370
    -3
390
0
  6
Continuous
100
AcDbLine
 10
321.574826
 20
240.048936
 30
0.0
 11
321.574826
 21
346.01594
 31
0.0
  0
LINE
  5
61F
100
AcDbEntity
  8
0
370
    -3
390
0
  6
Continuous
100
AcDbLine
 10
298.574826
 20
362.048936
 30
0.0
 11
299.959111
 21
362.048936
 31
0.0
  0
LINE
  5
620
100
AcDbEntity
  8
0
370
    -3
390
0
  6
Continuous
100
AcDbLine
 10
298.574826
 20
362.048936
 30
0.0
 11
311.385497
 21
361.825325
 31
0.0
  0
LINE
  5
621
100
AcDbEntity
  8
0
370
    -3
390
0
  6
Continuous
100
AcDbLine
 10
126.574826
 20
408.048936
 30
0.0
 11
231.574826
 21
406.216154
 31
0.0
  0
LINE
  5
622
100
AcDbEntity
  8
0
370
    -3
390
0
  6
Continuous
100
AcDbLine
 10
126.574826
 20
240.048936
 30
0.0
 11
126.574826
 21
408.048936
 31
0.0
  0
LINE
  5
623
100
AcDbEntity
  8
0
370
    -3
390
0
  6
Continuous
100
AcDbLine
 10
126.574826
 20
72.048936
 30
0.0
 11
231.574826
 21
73.881718
 31
0.0
  0
LINE
  5
624
100
AcDbEntity
  8
0
370
    -3
390
0
  6
Continuous
100
AcDbLine
 10
126.574826
 20
240.048936
 30
0.0
 11
126.574826
 21
72.048936
 31
0.0
  0
LINE
  5
625
100
AcDbEntity
  8
0
370
    -3
390
0
  6
Continuous
100
AcDbLine
 10
298.574826
 20
118.048936
 30
0.0
 11
311.385497
 21
118.272547
 31
0.0
  0
LINE
  5
626
100
AcDbEntity
  8
0
370
    -3
390
0
  6
Continuous
100
AcDbLine
 10
298.574826
 20
118.048936
 30
0.0
 11
299.959111
 21
118.048936
 31
0.0
  0
LINE
  5
627
100
AcDbEntity
  8
0
370
    -3
390
0
  6
Continuous
100
AcDbLine
 10
321.574826
 20
240.048936
 30
0.0
 11
321.574826
 21
134.081933
 31
0.0
  0
LINE
  5
628
100
AcDbEntity
  8
0
370
    -3
390
0
  6
Continuous
100
AcDbLine
 10
323.574826
 20
240.048936
 30
0.0
 11
323.574826
 21
74.705824
 31
0.0
  0
LINE
  5
629
100
AcDbEntity
  8
0
370
    -3
390
0
  6
Continuous
100
AcDbLine
 10
43.574826
 20
74.292168
 30
0.0
 11
43.574826
 21
125.805705
 31
0.0
  0
LINE
  5
62A
100
AcDbEntity
  8
0
370
    -3
390
0
  6
CENTER
100
AcDbLine
 10
298.574826
 20
414.167273
 30
0.0
 11
298.574826
 21
364.84048
 31
0.0
  0
LINE
  5
62B
100
AcDbEntity
  8
0
370
    -3
390
0
  6
CENTER
100
AcDbLine
 10
320.930549
 20
390.048936
 30
0.0
 11
277.380768
 21
390.048936
 31
0.0
  0
LINE
  5
62C
100
AcDbEntity
  8
0
370
    -3
390
0
  6
CENTER
100
AcDbLine
 10
68.574826
 20
414.167273
 30
0.0
 11
68.574826
 21
364.84048
 31
0.0
  0
LINE
  5
62D
100
AcDbEntity
  8
0
370
    -3
390
0
  6
CENTER
100
AcDbLine
 10
90.930549
 20
390.048936
 30
0.0
 11
47.380768
 21
390.048936
 31
0.0
  0
LINE
  5
62E
100
AcDbEntity
  8
0
370
    -3
390
0
  6
CENTER
100
AcDbLine
 10
68.574826
 20
114.167273
 30
0.0
 11
68.574826
 21
64.84048
 31
0.0
  0
LINE
  5
62F
100
AcDbEntity
  8
0
370
    -3
390
0
  6
CENTER
100
AcDbLine
 10
90.930549
 20
90.048936
 30
0.0
 11
47.380768
 21
90.048936
 31
0.0
  0
LINE
  5
630
100
AcDbEntity
  8
0
370
    -3
390
0
  6
CENTER
100
AcDbLine
 10
298.574826
 20
114.167273
 30
0.0
 11
298.574826
 21
64.84048
 31
0.0
  0
LINE
  5
631
100
AcDbEntity
  8
0
370
    -3
390
0
  6
CENTER
100
AcDbLine
 10
320.930549
 20
90.048936
 30
0.0
 11
277.380768
 21
90.048936
 31
0.0
  0
LINE
  5
632
100
AcDbEntity
  8
0
370
    -3
390
0
  6
Continuous
100
AcDbLine
 10
313.74935
 20
415.220441
 30
0.0
 11
129.574826
 21
418.435219
 31
0.0
  0
LINE
  5
633
100
AcDbEntity
  8
0
370
    -3
390
0
  6
CENTER
100
AcDbLine
 10
166.574826
 20
219.954015
 30
0.0
 11
166.574826
 21
259.752122
 31
0.0
  0
LINE
  5
634
100
AcDbEntity
  8
0
370
    -3
390
0
  6
Continuous
100
AcDbLine
 10
59.074826
 20
136.269945
 30
0.0
 11
52.789511
 21
135.774821
 31
0.0
  0
CIRCLE
  5
635
100
AcDbEntity
  8
0
370
    -3
390
0
  6
Continuous
100
AcDbCircle
 10
68.574826
 20
390.048936
 30
0.0
 40
12.0
  0
CIRCLE
  5
636
100
AcDbEntity
  8
0
370
    -3
390
0
  6
Continuous
100
AcDbCircle
 10
298.574826
 20
390.048936
 30
0.0
 40
12.0
  0
ARC
  5
637
100
AcDbEntity
  8
0
370
    -3
390
0
  6
Continuous
100
AcDbCircle
 10
229.829585
 20
306.231385
 30
0.0
 40
100.0
100
AcDbArc
 50
23.443562
 51
32.834229
  0
ARC
  5
638
100
AcDbEntity
  8
0
370
    -3
390
0
  6
Continuous
100
AcDbCircle
 10
311.333139
 20
358.825782
 30
0.0
 40
3.0
100
AcDbArc
 50
32.834229
 51
89.0
  0
ARC
  5
639
100
AcDbEntity
  8
0
370
    -3
390
0
  6
Continuous
100
AcDbCircle
 10
298.574826
 20
390.048936
 30
0.0
 40
28.0
100
AcDbArc
 50
170.080559
 51
270.0
  0
ARC
  5
63A
100
AcDbEntity
  8
0
370
    -3
390
0
  6
Continuous
100
AcDbCircle
 10
268.038247
 20
395.3891
 30
0.0
 40
3.0
100
AcDbArc
 50
350.080559
 51
66.80238
  0
ARC
  5
63B
100
AcDbEntity
  8
0
370
    -3
390
0
  6
Continuous
100
AcDbCircle
 10
229.829585
 20
306.231385
 30
0.0
 40
100.0
100
AcDbArc
 50
66.80238
 51
89.0
  0
ARC
  5
63C
100
AcDbEntity
  8
0
370
    -3
390
0
  6
Continuous
100
AcDbCircle
 10
229.829585
 20
173.866488
 30
0.0
 40
100.0
100
AcDbArc
 50
271.0
 51
293.19762
  0
ARC
  5
63D
100
AcDbEntity
  8
0
370
    -3
390
0
  6
Continuous
100
AcDbCircle
 10
268.038247
 20
84.708772
 30
0.0
 40
3.0
100
AcDbArc
 50
293.19762
 51
9.919441
  0
ARC
  5
63E
100
AcDbEntity
  8
0
370
    -3
390
0
  6
Continuous
100
AcDbCircle
 10
298.574826
 20
90.048936
 30
0.0
 40
28.0
100
AcDbArc
 50
90.0
 51
189.919441
  0
ARC
  5
63F
100
AcDbEntity
  8
0
370
    -3
390
0
  6
Continuous
100
AcDbCircle
 10
311.333139
 20
121.27209
 30
0.0
 40
3.0
100
AcDbArc
 50
271.0
 51
327.165771
  0
ARC
  5
640
100
AcDbEntity
  8
0
370
    -3
390
0
  6
Continuous
100
AcDbCircle
 10
229.829585
 20
173.866488
 30
0.0
 40
100.0
100
AcDbArc
 50
327.165771
 51
336.556438
  0
CIRCLE
  5
641
100
AcDbEntity
  8
0
370
    -3
390
0
  6
Continuous
100
AcDbCircle
 10
298.574826
 20
90.048936
 30
0.0
 40
12.0
  0
CIRCLE
  5
642
100
AcDbEntity
  8
0
370
    -3
390
0
  6
Continuous
100
AcDbCircle
 10
68.574826
 20
90.048936
 30
0.0
 40
12.0
  0
ARC
  5
643
100
AcDbEntity
  8
0
370
    -3
390
0
  6
Continuous
100
AcDbCircle
 10
322.574826
 20
186.548936
 30
0.0
 40
1.0
100
AcDbArc
 50
90.0
 51
180.0
  0
ARC
  5
644
100
AcDbEntity
  8
0
370
    -3
390
0
  6
Continuous
100
AcDbCircle
 10
322.574826
 20
293.548936
 30
0.0
 40
1.0
100
AcDbArc
 50
180.0
 51
270.0
  0
ARC
  5
645
100
AcDbEntity
  8
0
370
    -3
390
0
  6
Continuous
100
AcDbCircle
 10
53.574826
 20
125.805705
 30
0.0
 40
10.0
100
AcDbArc
 50
94.50416
 51
180.0
  0
LINE
  5
646
100
AcDbEntity
  8
0
370
    -3
390
0
  6
Continuous
100
AcDbLine
 10
-333.925175
 20
169.358467
 30
0.0
 11
-333.925175
 21
238.298936
 31
0.0
  0
LINE
  5
647
100
AcDbEntity
  8
0
370
    -3
390
0
  6
Continuous
100
AcDbLine
 10
-332.025175
 20
166.067571
 30
0.0
 11
-315.393208
 21
156.4651
 31
0.0
  0
ARC
  5
648
100
AcDbEntity
  8
0
370
    -3
390
0
  6
Continuous
100
AcDbCircle
 10
-294.993208
 20
191.798936
 30
0.0
 40
40.8
100
AcDbArc
 50
240.0
 51
270.0
  0
ARC
  5
649
100
AcDbEntity
  8
0
370
    -3
390
0
  6
Continuous
100
AcDbCircle
 10
-330.125175
 20
169.358467
 30
0.0
 40
3.8
100
AcDbArc
 50
180.0
 51
240.0
  0
ELLIPSE
  5
64A
100
AcDbEntity
  8
0
370
    -3
390
0
  6
Continuous
100
AcDbEllipse
 10
-214.425174
 20
303.95037
 30
0.0
 11
5.0
 21
0.0
 31
0.0
210
0.0
220
0.0
230
1.0
 40
0.707107
 41
3.1415926535897931
 42
0.0
  0
LINE
  5
64B
100
AcDbEntity
  8
0
370
    -3
390
0
  6
Continuous
100
AcDbLine
 10
-219.425174
 20
304.766974
 30
0.0
 11
-219.425174
 21
303.95037
 31
0.0
  0
LINE
  5
64C
100
AcDbEntity
  8
0
370
    -3
390
0
  6
Continuous
100
AcDbLine
 10
-209.425174
 20
304.766974
 30
0.0
 11
-209.425174
 21
303.95037
 31
0.0
  0
ELLIPSE
  5
64D
100
AcDbEntity
  8
0
370
    -3
390
0
  6
Continuous
100
AcDbEllipse
 10
-214.425174
 20
304.766974
 30
0.0
 11
4.5
 21
0.0
 31
0.0
210
0.0
220
0.0
230
1.0
 40
0.707107
 41
3.1415926535897931
 42
0.0
  0
LINE
  5
64E
100
AcDbEntity
  8
0
370
    -3
390
0
  6
Continuous
100
AcDbLine
 10
-218.925174
 20
305.332659
 30
0.0
 11
-218.925174
 21
304.766974
 31
0.0
  0
LINE
  5
64F
100
AcDbEntity
  8
0
370
    -3
390
0
  6
Continuous
100
AcDbLine
 10
-209.925174
 20
305.332659
 30
0.0
 11
-209.925174
 21
304.766974
 31
0.0
  0
ELLIPSE
  5
650
100
AcDbEntity
  8
0
370
    -3
390
0
  6
Continuous
100
AcDbEllipse
 10
-214.425174
 20
304.766974
 30
0.0
 11
5.0
 21
0.0
 31
0.0
210
0.0
220
0.0
230
1.0
 40
0.707107
 41
0.0
 42
0.7392718269406207
  0
ELLIPSE
  5
651
100
AcDbEntity
  8
0
370
    -3
390
0
  6
Continuous
100
AcDbEllipse
 10
-214.425174
 20
304.766974
 30
0.0
 11
5.0
 21
0.0
 31
0.0
210
0.0
220
0.0
230
1.0
 40
0.707107
 41
2.4023208266491727
 42
3.1415926535897931
  0
ELLIPSE
  5
652
100
AcDbEntity
  8
0
370
    -3
390
0
  6
Continuous
100
AcDbEllipse
 10
-214.425174
 20
305.869177
 30
0.0
 11
3.5
 21
0.0
 31
0.0
210
0.0
220
0.0
230
1.0
 40
0.860398
 41
0.0
 42
6.2831853071795862
  0
ELLIPSE
  5
653
100
AcDbEntity
  8
0
370
    -3
390
0
  6
Continuous
100
AcDbEllipse
 10
-214.425174
 20
305.332659
 30
0.0
 11
4.5
 21
0.0
 31
0.0
210
0.0
220
0.0
230
1.0
 40
0.707107
 41
2.158706662346169
 42
0.9828859912436241
  0
LINE
  5
654
100
AcDbEntity
  8
0
370
    -3
390
0
  6
Continuous
100
AcDbLine
 10
-214.425174
 20
307.171137
 30
0.0
 11
-212.425174
 21
305.597799
 31
0.0
  0
LINE
  5
655
100
AcDbEntity
  8
0
370
    -3
390
0
  6
Continuous
100
AcDbLine
 10
-214.425174
 20
307.171137
 30
0.0
 11
-212.49597
 21
308.381799
 31
0.0
  0
LINE
  5
656
100
AcDbEntity
  8
0
370
    -3
390
0
  6
Continuous
100
AcDbLine
 10
-214.425174
 20
307.171137
 30
0.0
 11
-216.425174
 21
305.597799
 31
0.0
  0
LINE
  5
657
100
AcDbEntity
  8
0
370
    -3
390
0
  6
Continuous
100
AcDbLine
 10
-214.425174
 20
307.171137
 30
0.0
 11
-216.354379
 21
308.381799
 31
0.0
  0
ELLIPSE
  5
658
100
AcDbEntity
  8
0
370
    -3
390
0
  6
Continuous
100
AcDbEllipse
 10
-214.425174
 20
172.647502
 30
0.0
 11
5.0
 21
0.0
 31
0.0
210
0.0
220
0.0
230
1.0
 40
0.707107
 41
0.0
 42
3.1415926535897931
  0
LINE
  5
659
100
AcDbEntity
  8
0
370
    -3
390
0
  6
Continuous
100
AcDbLine
 10
-219.425174
 20
171.830899
 30
0.0
 11
-219.425174
 21
172.647502
 31
0.0
  0
LINE
  5
65A
100
AcDbEntity
  8
0
370
    -3
390
0
  6
Continuous
100
AcDbLine
 10
-209.425174
 20
171.830899
 30
0.0
 11
-209.425174
 21
172.647502
 31
0.0
  0
ELLIPSE
  5
65B
100
AcDbEntity
  8
0
370
    -3
390
0
  6
Continuous
100
AcDbEllipse
 10
-214.425174
 20
171.830899
 30
0.0
 11
4.5
 21
0.0
 31
0.0
210
0.0
220
0.0
230
1.0
 40
0.707107
 41
0.0
 42
3.1415926535897931
  0
LINE
  5
65C
100
AcDbEntity
  8
0
370
    -3
390
0
  6
Continuous
100
AcDbLine
 10
-218.925174
 20
171.265213
 30
0.0
 11
-218.925174
 21
171.830899
 31
0.0
  0
LINE
  5
65D
100
AcDbEntity
  8
0
370
    -3
390
0
  6
Continuous
100
AcDbLine
 10
-209.925174
 20
171.265213
 30
0.0
 11
-209.925174
 21
171.830899
 31
0.0
  0
ELLIPSE
  5
65E
100
AcDbEntity
  8
0
370
    -3
390
0
  6
Continuous
100
AcDbEllipse
 10
-214.425174
 20
171.830899
 30
0.0
 11
5.0
 21
0.0
 31
0.0
210
0.0
220
0.0
230
1.0
 40
0.707107
 41
5.5439134802389658
 42
0.0
  0
ELLIPSE
  5
65F
100
AcDbEntity
  8
0
370
    -3
390
0
  6
Continuous
100
AcDbEllipse
 10
-214.425174
 20
171.830899
 30
0.0
 11
5.0
 21
0.0
 31
0.0
210
0.0
220
0.0
230
1.0
 40
0.707107
 41
3.1415926535897931
 42
3.8808644805304136
  0
ELLIPSE
  5
660
100
AcDbEntity
  8
0
370
    -3
390
0
  6
Continuous
100
AcDbEllipse
 10
-214.425174
 20
170.728695
 30
0.0
 11
3.5
 21
0.0
 31
0.0
210
0.0
220
0.0
230
1.0
 40
0.860398
 41
0.0
 42
6.2831853071795862
  0
ELLIPSE
  5
661
100
AcDbEntity
  8
0
370
    -3
390
0
  6
Continuous
100
AcDbEllipse
 10
-214.425174
 20
171.265213
 30
0.0
 11
4.5
 21
0.0
 31
0.0
210
0.0
220
0.0
230
1.0
 40
0.707107
 41
5.3002993159359626
 42
4.1244786448334168
  0
LINE
  5
662
100
AcDbEntity
  8
0
370
    -3
390
0
  6
Continuous
100
AcDbLine
 10
-214.425174
 20
169.426735
 30
0.0
 11
-212.425174
 21
171.000073
 31
0.0
  0
LINE
  5
663
100
AcDbEntity
  8
0
370
    -3
390
0
  6
Continuous
100
AcDbLine
 10
-214.425174
 20
169.426735
 30
0.0
 11
-212.49597
 21
168.216073
 31
0.0
  0
LINE
  5
664
100
AcDbEntity
  8
0
370
    -3
390
0
  6
Continuous
100
AcDbLine
 10
-214.425174
 20
169.426735
 30
0.0
 11
-216.425174
 21
171.000073
 31
0.0
  0
LINE
  5
665
100
AcDbEntity
  8
0
370
    -3
390
0
  6
Continuous
100
AcDbLine
 10
-214.425174
 20
169.426735
 30
0.0
 11
-216.354379
 21
168.216073
 31
0.0
  0
ARC
  5
666
100
AcDbEntity
  8
0
370
    -3
390
0
  6
Continuous
100
AcDbCircle
 10
-294.993208
 20
284.798936
 30
0.0
 40
40.8
100
AcDbArc
 50
90.0
 51
120.0
  0
LINE
  5
667
100
AcDbEntity
  8
0
370
    -3
390
0
  6
Continuous
100
AcDbLine
 10
-333.925175
 20
307.239405
 30
0.0
 11
-333.925175
 21
238.298936
 31
0.0
  0
LINE
  5
668
100
AcDbEntity
  8
0
370
    -3
390
0
  6
Continuous
100
AcDbLine
 10
-332.025175
 20
310.530302
 30
0.0
 11
-315.393208
 21
320.132773
 31
0.0
  0
ARC
  5
669
100
AcDbEntity
  8
0
370
    -3
390
0
  6
Continuous
100
AcDbCircle
 10
-330.125175
 20
307.239405
 30
0.0
 40
3.8
100
AcDbArc
 50
120.0
 51
180.0
  0
LINE
  5
66A
100
AcDbEntity
  8
0
370
    -3
390
0
  6
Continuous
100
AcDbLine
 10
-294.993208
 20
325.598936
 30
0.0
 11
-188.925175
 21
325.598936
 31
0.0
  0
ARC
  5
66B
100
AcDbEntity
  8
0
370
    -3
390
0
  6
Continuous
100
AcDbCircle
 10
-191.925175
 20
154.939427
 30
0.0
 40
3.0
100
AcDbArc
 50
270.0
 51
0.0
  0
LINE
  5
66C
100
AcDbEntity
  8
0
370
    -3
390
0
  6
Continuous
100
AcDbLine
 10
-191.925175
 20
151.939427
 30
0.0
 11
-207.925175
 21
151.939427
 31
0.0
  0
ARC
  5
66D
100
AcDbEntity
  8
0
370
    -3
390
0
  6
Continuous
100
AcDbCircle
 10
-207.925175
 20
150.939427
 30
0.0
 40
1.0
100
AcDbArc
 50
90.0
 51
176.588332
  0
LINE
  5
66E
100
AcDbEntity
  8
0
370
    -3
390
0
  6
Continuous
100
AcDbLine
 10
-294.993208
 20
150.998936
 30
0.0
 11
-208.923403
 21
150.998936
 31
0.0
  0
LINE
  5
66F
100
AcDbEntity
  8
0
370
    -3
390
0
  6
Continuous
100
AcDbLine
 10
-188.925175
 20
154.939427
 30
0.0
 11
-188.925175
 21
325.598936
 31
0.0
  0
LINE
  5
670
100
AcDbEntity
  8
0
370
    -3
390
0
  6
Continuous
100
AcDbLine
 10
-188.925175
 20
158.298936
 30
0.0
 11
-154.925174
 21
158.298936
 31
0.0
  0
LINE
  5
671
100
AcDbEntity
  8
0
370
    -3
390
0
  6
Continuous
100
AcDbLine
 10
-154.925174
 20
158.298936
 30
0.0
 11
-154.925174
 21
157.298936
 31
0.0
  0
ARC
  5
672
100
AcDbEntity
  8
0
370
    -3
390
0
  6
Continuous
100
AcDbCircle
 10
-157.525174
 20
154.098936
 30
0.0
 40
3.2
100
AcDbArc
 50
0.0
 51
90.0
  0
ARC
  5
673
100
AcDbEntity
  8
0
370
    -3
390
0
  6
Continuous
100
AcDbCircle
 10
-152.325174
 20
145.898936
 30
0.0
 40
2.0
100
AcDbArc
 50
180.0
 51
270.0
  0
ARC
  5
674
100
AcDbEntity
  8
0
370
    -3
390
0
  6
Continuous
100
AcDbCircle
 10
-205.525174
 20
145.898936
 30
0.0
 40
2.0
100
AcDbArc
 50
270.0
 51
0.0
  0
LINE
  5
675
100
AcDbEntity
  8
0
370
    -3
390
0
  6
Continuous
100
AcDbLine
 10
-147.925174
 20
142.298936
 30
0.0
 11
-147.925174
 21
143.898936
 31
0.0
  0
LINE
  5
676
100
AcDbEntity
  8
0
370
    -3
390
0
  6
Continuous
100
AcDbLine
 10
-154.325174
 20
145.898936
 30
0.0
 11
-154.325174
 21
154.098936
 31
0.0
  0
LINE
  5
677
100
AcDbEntity
  8
0
370
    -3
390
0
  6
Continuous
100
AcDbLine
 10
-203.525174
 20
145.898936
 30
0.0
 11
-203.525174
 21
151.939427
 31
0.0
  0
LINE
  5
678
100
AcDbEntity
  8
0
370
    -3
390
0
  6
Continuous
100
AcDbLine
 10
-188.925175
 20
157.298936
 30
0.0
 11
-154.925174
 21
157.298936
 31
0.0
  0
LINE
  5
679
100
AcDbEntity
  8
0
370
    -3
390
0
  6
Continuous
100
AcDbLine
 10
-209.925174
 20
143.898936
 30
0.0
 11
-147.925174
 21
143.898936
 31
0.0
  0
LINE
  5
67A
100
AcDbEntity
  8
0
370
    -3
390
0
  6
Continuous
100
AcDbLine
 10
-209.925174
 20
142.298936
 30
0.0
 11
-209.925174
 21
143.898936
 31
0.0
  0
LINE
  5
67B
100
AcDbEntity
  8
0
370
    -3
390
0
  6
Continuous
100
AcDbLine
 10
-147.925174
 20
142.298936
 30
0.0
 11
-147.925174
 21
141.298936
 31
0.0
  0
LINE
  5
67C
100
AcDbEntity
  8
0
370
    -3
390
0
  6
Continuous
100
AcDbLine
 10
-209.925174
 20
142.298936
 30
0.0
 11
-209.925174
 21
141.298936
 31
0.0
  0
LINE
  5
67D
100
AcDbEntity
  8
0
370
    -3
390
0
  6
Continuous
100
AcDbLine
 10
-212.725174
 20
141.298936
 30
0.0
 11
-145.125174
 21
141.298936
 31
0.0
  0
LINE
  5
67E
100
AcDbEntity
  8
0
370
    -3
390
0
  6
CENTER
100
AcDbLine
 10
-178.925174
 20
135.599743
 30
0.0
 11
-178.925174
 21
88.026922
 31
0.0
  0
LINE
  5
67F
100
AcDbEntity
  8
0
370
    -3
390
0
  6
Continuous
100
AcDbLine
 10
-214.375174
 20
91.125111
 30
0.0
 11
-181.982431
 21
91.125111
 31
0.0
  0
LINE
  5
680
100
AcDbEntity
  8
0
370
    -3
390
0
  6
Continuous
100
AcDbLine
 10
-214.375174
 20
139.9935
 30
0.0
 11
-143.475174
 21
139.9935
 31
0.0
  0
LINE
  5
681
100
AcDbEntity
  8
0
370
    -3
390
0
  6
Continuous
100
AcDbLine
 10
-214.375174
 20
136.522027
 30
0.0
 11
-143.475174
 21
136.522027
 31
0.0
  0
LINE
  5
682
100
AcDbEntity
  8
0
370
    -3
390
0
  6
Continuous
100
AcDbLine
 10
-132.475174
 20
128.9935
 30
0.0
 11
-132.475174
 21
102.125111
 31
0.0
  0
LINE
  5
683
100
AcDbEntity
  8
0
370
    -3
390
0
  6
Continuous
100
AcDbLine
 10
-138.875174
 20
99.098936
 30
0.0
 11
-138.875174
 21
128.674871
 31
0.0
  0
LINE
  5
684
100
AcDbEntity
  8
0
370
    -3
390
0
  6
Continuous
100
AcDbLine
 10
-218.975174
 20
99.098936
 30
0.0
 11
-218.975174
 21
128.674871
 31
0.0
  0
LINE
  5
685
100
AcDbEntity
  8
0
370
    -3
390
0
  6
Continuous
100
AcDbLine
 10
-213.975174
 20
133.674871
 30
0.0
 11
-143.875174
 21
133.674871
 31
0.0
  0
ARC
  5
686
100
AcDbEntity
  8
0
370
    -3
390
0
  6
Continuous
100
AcDbCircle
 10
-143.875174
 20
128.674871
 30
0.0
 40
5.0
100
AcDbArc
 50
0.0
 51
90.0
  0
ARC
  5
687
100
AcDbEntity
  8
0
370
    -3
390
0
  6
Continuous
100
AcDbCircle
 10
-213.975174
 20
128.674871
 30
0.0
 40
5.0
100
AcDbArc
 50
90.0
 51
180.0
  0
ARC
  5
688
100
AcDbEntity
  8
0
370
    -3
390
0
  6
Continuous
100
AcDbCircle
 10
-143.475174
 20
102.125111
 30
0.0
 40
11.0
100
AcDbArc
 50
270.0
 51
0.0
  0
ARC
  5
689
100
AcDbEntity
  8
0
370
    -3
390
0
  6
Continuous
100
AcDbCircle
 10
-214.375174
 20
102.125111
 30
0.0
 40
11.0
100
AcDbArc
 50
180.0
 51
270.0
  0
LINE
  5
68A
100
AcDbEntity
  8
0
370
    -3
390
0
  6
Continuous
100
AcDbLine
 10
-213.175174
 20
93.298936
 30
0.0
 11
-144.675174
 21
93.298936
 31
0.0
  0
ARC
  5
68B
100
AcDbEntity
  8
0
370
    -3
390
0
  6
Continuous
100
AcDbCircle
 10
-144.675174
 20
99.098936
 30
0.0
 40
5.8
100
AcDbArc
 50
270.0
 51
0.0
  0
ARC
  5
68C
100
AcDbEntity
  8
0
370
    -3
390
0
  6
Continuous
100
AcDbCircle
 10
-213.175174
 20
99.098936
 30
0.0
 40
5.8
100
AcDbArc
 50
180.0
 51
270.0
  0
ARC
  5
68D
100
AcDbEntity
  8
0
370
    -3
390
0
  6
Continuous
100
AcDbCircle
 10
-143.475174
 20
125.522027
 30
0.0
 40
11.0
100
AcDbArc
 50
0.0
 51
90.0
  0
ARC
  5
68E
100
AcDbEntity
  8
0
370
    -3
390
0
  6
Continuous
100
AcDbCircle
 10
-143.475174
 20
128.9935
 30
0.0
 40
11.0
100
AcDbArc
 50
0.0
 51
90.0
  0
ARC
  5
68F
100
AcDbEntity
  8
0
370
    -3
390
0
  6
Continuous
100
AcDbCircle
 10
-214.375174
 20
125.522027
 30
0.0
 40
11.0
100
AcDbArc
 50
90.0
 51
180.0
  0
ARC
  5
690
100
AcDbEntity
  8
0
370
    -3
390
0
  6
Continuous
100
AcDbCircle
 10
-214.375174
 20
128.9935
 30
0.0
 40
11.0
100
AcDbArc
 50
90.0
 51
180.0
  0
ARC
  5
691
100
AcDbEntity
  8
0
370
    -3
390
0
  6
Continuous
100
AcDbCircle
 10
-145.125174
 20
136.298936
 30
0.0
 40
5.0
100
AcDbArc
 50
44.925956
 51
90.0
  0
ARC
  5
692
100
AcDbEntity
  8
0
370
    -3
390
0
  6
Continuous
100
AcDbCircle
 10
-212.725174
 20
136.298936
 30
0.0
 40
5.0
100
AcDbArc
 50
90.0
 51
135.074044
  0
LINE
  5
693
100
AcDbEntity
  8
0
370
    -3
390
0
  6
CENTER
100
AcDbLine
 10
-201.748806
 20
117.298936
 30
0.0
 11
-157.461088
 21
117.298936
 31
0.0
  0
CIRCLE
  5
694
100
AcDbEntity
  8
0
370
    -3
390
0
  6
DASHED
100
AcDbCircle
 10
-178.925174
 20
117.298936
 30
0.0
 40
13.5
  0
LINE
  5
695
100
AcDbEntity
  8
0
370
    -3
390
0
  6
Continuous
100
AcDbLine
 10
-175.867918
 20
91.125111
 30
0.0
 11
-143.475174
 21
91.125111
 31
0.0
  0
LINE
  5
696
100
AcDbEntity
  8
0
370
    -3
390
0
  6
Continuous
100
AcDbLine
 10
-225.375174
 20
128.9935
 30
0.0
 11
-225.375174
 21
102.125111
 31
0.0
  0
LINE
  5
697
100
AcDbEntity
  8
0
370
    -3
390
0
  6
Continuous
100
AcDbLine
 10
-209.925174
 20
142.298936
 30
0.0
 11
-147.925174
 21
142.298936
 31
0.0
  0
MTEXT
  5
698
100
AcDbEntity
  8
0
370
    -3
390
0
  6
Continuous
100
AcDbMText
 10
-20.375488
 20
36.84375
 30
0.0
 40
2.8
 41
0.0
 71
     7
 72
     1
  1
\W0.83;　
  7
ZU_SHPTB00001
 11
1.0
 21
0.0
 31
0.0
 73
     1
 44
1.0
  0
ENDSEC
  0
SECTION
  2
OBJECTS
  0
DICTIONARY
  5
19
100
AcDbDictionary
280
     0
281
     1
  3
ACAD_GROUP
350
1A
  3
ACAD_MLINESTYLE
350
1B
  3
ACAD_LAYOUT
350
1E
  3
ACAD_PLOTSETTINGS
350
22
  3
ACAD_PLOTSTYLENAME
350
1F
  3
ACAD_WIPEOUT_VARS
350
23
  3
DWGPROPS
350
699
  0
DICTIONARY
  5
1A
102
{ACAD_REACTORS
330
19
102
}
100
AcDbDictionary
280
     0
281
     1
  0
DICTIONARY
  5
1B
102
{ACAD_REACTORS
330
19
102
}
100
AcDbDictionary
280
     0
281
     1
  3
Standard
350
1C
  0
MLINESTYLE
  5
1C
102
{ACAD_REACTORS
330
1B
102
}
100
AcDbMlineStyle
  2
Standard
 70
     0
  3

 62
     0
 51
90.0
 52
90.0
 71
     2
 49
0.5
 62
   256
  6
ByLayer
 49
-0.5
 62
   256
  6
ByLayer
  0
ACDBDICTIONARYWDFLT
  5
1F
102
{ACAD_REACTORS
330
19
102
}
100
AcDbDictionary
281
     1
  3
Normal
350
1D
100
AcDbDictionaryWithDefault
340
1D
  0
ACDBPLACEHOLDER
  5
1D
102
{ACAD_REACTORS
330
1F
102
}
  0
LAYOUT
  5
20
102
{ACAD_REACTORS
330
1E
102
}
100
AcDbPlotSettings
  1

  2

  4

  6

 40
0.0
 41
0.0
 42
0.0
 43
0.0
 44
0.0
 45
0.0
 46
0.0
 47
0.0
 48
0.0
 49
0.0
140
0.0
141
0.0
142
1.0
143
1.0
 70
  1024
 72
     0
 73
     0
 74
     0
  7

 75
     0
147
1.0
148
0.0
149
0.0
100
AcDbLayout
  1
Model
 70
     0
 71
     0
 10
0.0
 20
0.0
 11
0.0
 21
0.0
 12
0.0
 22
0.0
 32
0.0
 14
0.0
 24
0.0
 34
0.0
 15
0.0
 25
0.0
 35
0.0
146
0.0
 13
0.0
 23
0.0
 33
0.0
 16
0.0
 26
0.0
 36
0.0
 17
0.0
 27
0.0
 37
0.0
 76
     0
330
A
331
0
345
0
346
0
  0
LAYOUT
  5
21
102
{ACAD_REACTORS
330
1E
102
}
100
AcDbPlotSettings
  1

  2

  4

  6

 40
0.0
 41
0.0
 42
0.0
 43
0.0
 44
0.0
 45
0.0
 46
0.0
 47
0.0
 48
0.0
 49
0.0
140
0.0
141
0.0
142
1.0
143
1.0
 70
     0
 72
     0
 73
     0
 74
     0
  7

 75
     0
147
1.0
148
0.0
149
0.0
100
AcDbLayout
  1
Layout1
 70
     0
 71
     0
 10
0.0
 20
0.0
 11
0.0
 21
0.0
 12
0.0
 22
0.0
 32
0.0
 14
0.0
 24
0.0
 34
0.0
 15
0.0
 25
0.0
 35
0.0
146
0.0
 13
0.0
 23
0.0
 33
0.0
 16
0.0
 26
0.0
 36
0.0
 17
0.0
 27
0.0
 37
0.0
 76
     0
330
B
331
0
345
0
346
0
  0
DICTIONARY
  5
1E
102
{ACAD_REACTORS
330
19
102
}
100
AcDbDictionary
280
     0
281
     1
  3
Layout1
350
21
  3
Model
350
20
  0
DICTIONARY
  5
22
102
{ACAD_REACTORS
330
19
102
}
100
AcDbDictionary
280
     0
281
     1
  0
WIPEOUTVARIABLES
  5
23
100
AcDbWipeoutVariables
 70
     1
  0
XRECORD
  5
699
100
AcDbXrecord
280
     1
  1
DWGPROPS COOKIE
  2

  3

  4

  6

  7

  8
YP81315
  9

300
=
301
=
302
=
303
=
304
=
305
=
306
=
307
=
308
=
309
=
 40
0.0
 41
2456812.582002
 42
2456812.582002
  1

 90
        0
  0
ENDSEC
  0
EOF
