  0
SECTION
  2
HEADER
  9
$ACADVER
  1
AC1015
  9
$ACADMAINTVER
 70
     6
  9
$DWGCODEPAGE
  3
ANSI_932
  9
$INSBASE
 10
0.0
 20
0.0
 30
0.0
  9
$EXTMIN
 10
1.000000E+20
 20
1.000000E+20
 30
1.000000E+20
  9
$EXTMAX
 10
-1.000000E+20
 20
-1.000000E+20
 30
-1.000000E+20
  9
$LIMMIN
 10
0.0
 20
0.0
  9
$LIMMAX
 10
0.0
 20
0.0
  9
$ORTHOMODE
 70
     0
  9
$REGENMODE
 70
     1
  9
$FILLMODE
 70
     1
  9
$QTEXTMODE
 70
     0
  9
$MIRRTEXT
 70
     1
  9
$LTSCALE
 40
1.0
  9
$ATTMODE
 70
     1
  9
$TEXTSIZE
 40
3.3
  9
$TRACEWID
 40
0.05
  9
$TEXTSTYLE
  7
Standard
  9
$CLAYER
  8
0
  9
$CELTYPE
  6
Continuous
  9
$CECOLOR
 62
   256
  9
$CELTSCALE
 40
1.0
  9
$DISPSILH
 70
     0
  9
$DIMSCALE
 40
1.0
  9
$DIMASZ
 40
1.931852
  9
$DIMEXO
 40
1.0
  9
$DIMDLI
 40
0.38
  9
$DIMRND
 40
0.0
  9
$DIMDLE
 40
0.0
  9
$DIMEXE
 40
2.0
  9
$DIMTP
 40
0.0
  9
$DIMTM
 40
0.0
  9
$DIMTXT
 40
3.2
  9
$DIMCEN
 40
0.09
  9
$DIMTSZ
 40
0.0
  9
$DIMTOL
 70
     0
  9
$DIMLIM
 70
     0
  9
$DIMTIH
 70
     1
  9
$DIMTOH
 70
     1
  9
$DIMSE1
 70
     0
  9
$DIMSE2
 70
     0
  9
$DIMTAD
 70
     1
  9
$DIMZIN
 70
     0
  9
$DIMBLK
  1

  9
$DIMASO
 70
     1
  9
$DIMSHO
 70
     1
  9
$DIMPOST
  1

  9
$DIMAPOST
  1

  9
$DIMALT
 70
     0
  9
$DIMALTD
 70
     2
  9
$DIMALTF
 40
25.4
  9
$DIMLFAC
 40
1.0
  9
$DIMTOFL
 70
     0
  9
$DIMTVP
 40
0.0
  9
$DIMTIX
 70
     0
  9
$DIMSOXD
 70
     0
  9
$DIMSAH
 70
     0
  9
$DIMBLK1
  1

  9
$DIMBLK2
  1

  9
$DIMSTYLE
  2
Standard
  9
$DIMCLRD
 70
     0
  9
$DIMCLRE
 70
     0
  9
$DIMCLRT
 70
     0
  9
$DIMTFAC
 40
0.714286
  9
$DIMGAP
 40
0.09
  9
$DIMJUST
 70
     0
  9
$DIMSD1
 70
     0
  9
$DIMSD2
 70
     0
  9
$DIMTOLJ
 70
     1
  9
$DIMTZIN
 70
     0
  9
$DIMALTZ
 70
     0
  9
$DIMALTTZ
 70
     0
  9
$DIMUPT
 70
     0
  9
$DIMDEC
 70
     4
  9
$DIMTDEC
 70
     4
  9
$DIMALTU
 70
     2
  9
$DIMALTTD
 70
     2
  9
$DIMTXSTY
  7
Standard
  9
$DIMAUNIT
 70
     0
  9
$DIMADEC
 70
     0
  9
$DIMALTRND
 40
0.0
  9
$DIMAZIN
 70
     0
  9
$DIMDSEP
 70
     0
  9
$DIMATFIT
 70
     3
  9
$DIMFRAC
 70
     0
  9
$DIMLDRBLK
  1

  9
$DIMLUNIT
 70
     2
  9
$DIMLWD
 70
     0
  9
$DIMLWE
 70
     0
  9
$DIMTMOVE
 70
     0
  9
$LUNITS
 70
     2
  9
$LUPREC
 70
     3
  9
$SKETCHINC
 40
0.1
  9
$FILLETRAD
 40
0.0
  9
$AUNITS
 70
     0
  9
$AUPREC
 70
     0
  9
$MENU
  1
acad
  9
$ELEVATION
 40
0.0
  9
$PELEVATION
 40
0.0
  9
$THICKNESS
 40
0.0
  9
$LIMCHECK
 70
     0
  9
$CHAMFERA
 40
0.0
  9
$CHAMFERB
 40
0.0
  9
$CHAMFERC
 40
0.0
  9
$CHAMFERD
 40
0.0
  9
$SKPOLY
 70
     0
  9
$TDCREATE
 40
0.000000000
  9
$TDUCREATE
 40
0.000000000
  9
$TDUPDATE
 40
0.000000000
  9
$TDUUPDATE
 40
0.000000000
  9
$TDINDWG
 40
0.0000000000
  9
$TDUSRTIMER
 40
0.0000000000
  9
$USRTIMER
 70
     1
  9
$ANGBASE
 50
0.0
  9
$ANGDIR
 70
     0
  9
$PDMODE
 70
     0
  9
$PDSIZE
 40
0.0
  9
$PLINEWID
 40
0.0
  9
$SPLFRAME
 70
     0
  9
$SPLINETYPE
 70
     6
  9
$SPLINESEGS
 70
     8
  9
$HANDSEED
  5
530
  9
$SURFTAB1
 70
     6
  9
$SURFTAB2
 70
     6
  9
$SURFTYPE
 70
     6
  9
$SURFU
 70
     6
  9
$SURFV
 70
     6
  9
$UCSBASE
  2

  9
$UCSNAME
  2

  9
$UCSORG
 10
0.0
 20
0.0
 30
0.0
  9
$UCSXDIR
 10
1.0
 20
0.0
 30
0.0
  9
$UCSYDIR
 10
0.0
 20
1.0
 30
0.0
  9
$UCSORTHOREF
  2

  9
$UCSORTHOVIEW
 70
     0
  9
$UCSORGTOP
 10
0.0
 20
0.0
 30
0.0
  9
$UCSORGBOTTOM
 10
0.0
 20
0.0
 30
0.0
  9
$UCSORGLEFT
 10
0.0
 20
0.0
 30
0.0
  9
$UCSORGRIGHT
 10
0.0
 20
0.0
 30
0.0
  9
$UCSORGFRONT
 10
0.0
 20
0.0
 30
0.0
  9
$UCSORGBACK
 10
0.0
 20
0.0
 30
0.0
  9
$PUCSBASE
  2

  9
$PUCSNAME
  2

  9
$PUCSORG
 10
0.0
 20
0.0
 30
0.0
  9
$PUCSXDIR
 10
1.0
 20
0.0
 30
0.0
  9
$PUCSYDIR
 10
0.0
 20
1.0
 30
0.0
  9
$PUCSORTHOREF
  2

  9
$PUCSORTHOVIEW
 70
     0
  9
$PUCSORGTOP
 10
0.0
 20
0.0
 30
0.0
  9
$PUCSORGBOTTOM
 10
0.0
 20
0.0
 30
0.0
  9
$PUCSORGLEFT
 10
0.0
 20
0.0
 30
0.0
  9
$PUCSORGRIGHT
 10
0.0
 20
0.0
 30
0.0
  9
$PUCSORGFRONT
 10
0.0
 20
0.0
 30
0.0
  9
$PUCSORGBACK
 10
0.0
 20
0.0
 30
0.0
  9
$USERI1
 70
     0
  9
$USERI2
 70
     0
  9
$USERI3
 70
     0
  9
$USERI4
 70
     0
  9
$USERI5
 70
     0
  9
$USERR1
 40
0.0
  9
$USERR2
 40
0.0
  9
$USERR3
 40
0.0
  9
$USERR4
 40
0.0
  9
$USERR5
 40
0.0
  9
$WORLDVIEW
 70
     1
  9
$SHADEDGE
 70
     3
  9
$SHADEDIF
 70
    70
  9
$TILEMODE
 70
     1
  9
$MAXACTVP
 70
    16
  9
$PINSBASE
 10
0.0
 20
0.0
 30
0.0
  9
$PLIMCHECK
 70
     0
  9
$PEXTMIN
 10
1.000000E+20
 20
1.000000E+20
 30
1.000000E+20
  9
$PEXTMAX
 10
-1.000000E+20
 20
-1.000000E+20
 30
-1.000000E+20
  9
$PLIMMIN
 10
0.0
 20
0.0
  9
$PLIMMAX
 10
12.0
 20
9.0
  9
$UNITMODE
 70
     0
  9
$VISRETAIN
 70
     0
  9
$PLINEGEN
 70
     1
  9
$PSLTSCALE
 70
     0
  9
$TREEDEPTH
 70
  3020
  9
$CMLSTYLE
  2
Standard
  9
$CMLJUST
 70
     0
  9
$CMLSCALE
 40
1.0
  9
$PROXYGRAPHICS
 70
     0
  9
$MEASUREMENT
 70
     0
  9
$CELWEIGHT
370
     0
  9
$ENDCAPS
280
     0
  9
$JOINSTYLE
280
     0
  9
$LWDISPLAY
290
     0
  9
$INSUNITS
 70
     0
  9
$HYPERLINKBASE
  1

  9
$STYLESHEET
  1

  9
$XEDIT
290
     1
  9
$CEPSNTYPE
380
     0
  9
$PSTYLEMODE
290
     1
  9
$FINGERPRINTGUID
  2

  9
$VERSIONGUID
  2

  9
$EXTNAMES
290
     1
  9
$PSVPSCALE
 40
0.0
  0
ENDSEC
  0
SECTION
  2
CLASSES
  0
CLASS
  1
LWPOLYLINE
  2
AcDbPolyline
  3
AutoCAD 2000
 90
        0
280
     0
281
     1
  0
CLASS
  1
IMAGE
  2
AcDbRasterImage
  3
ISM
 90
      127
280
     0
281
     1
  0
CLASS
  1
OLE2FRAME
  2
AcDbOle2Frame
  3
AutoCAD 2000
 90
        0
280
     0
281
     1
  0
CLASS
  1
HATCH
  2
AcDbHatch
  3
AutoCAD 2000
 90
        0
280
     0
281
     1
  0
CLASS
  1
DICTIONARYVAR
  2
AcDbDictionaryVar
  3
AutoCAD 2000
 90
        0
280
     0
281
     0
  0
CLASS
  1
RASTERVARIABLES
  2
AcDbRasterVariables
  3
ISM
 90
        0
280
     0
281
     0
  0
CLASS
  1
IMAGEDEF
  2
AcDbRasterImageDef
  3
ISM
 90
        0
280
     0
281
     0
  0
CLASS
  1
IMAGEDEF_REACTOR
  2
AcDbRasterImageDefReactor
  3
ISM
 90
        1
280
     0
281
     0
  0
CLASS
  1
IDBUFFER
  2
AcDbIdBuffer
  3
AutoCAD 2000
 90
        0
280
     0
281
     0
  0
CLASS
  1
SPATIAL_FILTER
  2
AcDbSpatialFilter
  3
AutoCAD 2000
 90
        0
280
     0
281
     0
  0
CLASS
  1
XRECORD
  2
AcDbXrecord
  3
AutoCAD 2000
 90
        0
280
     0
281
     0
  0
CLASS
  1
SORTENTSTABLE
  2
AcDbSortentsTable
  3
AutoCAD 2000
 90
        0
280
     0
281
     0
  0
CLASS
  1
LAYER_INDEX
  2
AcDbLayerIndex
  3
AutoCAD 2000
 90
        0
280
     0
281
     0
  0
CLASS
  1
SPATIAL_INDEX
  2
AcDbSpatialIndex
  3
AutoCAD 2000
 90
        0
280
     0
281
     0
  0
CLASS
  1
OBJECT_PTR
  2
CAseDLPNTableRecord
  3
"ASE-LPNTableRecord"
 90
        1
280
     0
281
     0
  0
CLASS
  1
LAYOUT
  2
AcDbLayout
  3
AutoCAD 2000
 90
        0
280
     0
281
     0
  0
CLASS
  1
PLOTSETTINGS
  2
AcDbPlotSettings
  3
AutoCAD 2000
 90
        0
280
     0
281
     0
  0
CLASS
  1
ACDBDICTIONARYWDFLT
  2
AcDbDictionaryWithDefault
  3
AutoCAD 2000
 90
        0
280
     0
281
     0
  0
CLASS
  1
ACDBPLACEHOLDER
  2
AcDbPlaceHolder
  3
AutoCAD 2000
 90
        0
280
     0
281
     0
  0
CLASS
  1
VBA_PROJECT
  2
AcDbVbaProject
  3
acadvba
 90
        0
280
     0
281
     0
  0
CLASS
  1
WIPEOUT
  2
AcDbWipeout
  3
WipeOut|AutoCAD Express Tool|expresstools@autodesk.com
 90
      127
280
     0
281
     1
  0
CLASS
  1
WIPEOUTVARIABLES
  2
AcDbWipeoutVariables
  3
WipeOut|AutoCAD Express Tool|expresstools@autodesk.com
 90
        0
280
     0
281
     0
  0
CLASS
  1
RTEXT
  2
RText
  3
RText|AutoCAD Express Tool|expresstools@autodesk.com
 90
        0
280
     0
281
     1
  0
CLASS
  1
ARCALIGNEDTEXT
  2
AcDbArcAlignedText
  3
ATEXT|AutoCAD Express Tool|expresstools@autodesk.com
 90
        0
280
     0
281
     1
  0
ENDSEC
  0
SECTION
  2
TABLES
  0
TABLE
  2
VPORT
  5
7
100
AcDbSymbolTable
 70
     1
  0
VPORT
  5
15
100
AcDbSymbolTableRecord
100
AcDbViewportTableRecord
  2
*ACTIVE
 70
     0
 10
0.0
 20
0.0
 11
1.0
 21
1.0
 12
0.0
 22
0.0
 13
0.0
 23
0.0
 14
1.0
 24
1.0
 15
0.0
 25
0.0
 16
0.0
 26
0.0
 36
1.0
 17
0.0
 27
0.0
 37
0.0
 40
100.0
 41
1.0
 42
50.0
 43
0.0
 44
0.0
 50
0.0
 51
0.0
 71
     0
 72
   100
 73
     1
 74
     1
 75
     0
 76
     0
 77
     0
 78
     0
281
     0
 65
     0
110
0.0
120
0.0
130
0.0
111
1.0
121
0.0
131
0.0
112
0.0
122
1.0
132
0.0
345
0
346
0
 79
     0
146
0.0
  0
ENDTAB
  0
TABLE
  2
LTYPE
  5
4
100
AcDbSymbolTable
 70
     7
  0
LTYPE
  5
11
100
AcDbSymbolTableRecord
100
AcDbLinetypeTableRecord
  2
ByBlock
 70
    64
  3

 72
    65
 73
     0
 40
0.0
  0
LTYPE
  5
12
100
AcDbSymbolTableRecord
100
AcDbLinetypeTableRecord
  2
ByLayer
 70
    64
  3

 72
    65
 73
     0
 40
0.0
  0
LTYPE
  5
13
100
AcDbSymbolTableRecord
100
AcDbLinetypeTableRecord
  2
Continuous
 70
    64
  3
Solid line
 72
    65
 73
     0
 40
0.0
  0
LTYPE
  5
24
100
AcDbSymbolTableRecord
100
AcDbLinetypeTableRecord
  2
DASHED
 70
    64
  3
Dashed __ __ __ __ __ __ __ __ __ __ __ __ __ _
 72
    65
 73
     2
 40
0.75
 49
0.5
 74
     0
 49
-0.25
 74
     0
  0
LTYPE
  5
25
100
AcDbSymbolTableRecord
100
AcDbLinetypeTableRecord
  2
CENTER
 70
    64
  3
Center ____ _ ____ _ ____ _ ____ _ ____ _ ____
 72
    65
 73
     4
 40
1.0
 49
0.5
 74
     0
 49
-0.25
 74
     0
 49
0.0
 74
     0
 49
-0.25
 74
     0
  0
LTYPE
  5
26
100
AcDbSymbolTableRecord
100
AcDbLinetypeTableRecord
  2
DIVIDE
 70
    64
  3
Divide ____ . . ____ . . ____ . . ____ . . ____
 72
    65
 73
     6
 40
1.25
 49
0.5
 74
     0
 49
-0.25
 74
     0
 49
0.0
 74
     0
 49
-0.25
 74
     0
 49
0.0
 74
     0
 49
-0.25
 74
     0
  0
LTYPE
  5
27
100
AcDbSymbolTableRecord
100
AcDbLinetypeTableRecord
  2
PHANTOM
 70
    64
  3
Phantom ______  __  __  ______  __  __  ______
 72
    65
 73
     6
 40
9.0
 49
4.3
 74
     0
 49
-0.7
 74
     0
 49
1.3
 74
     0
 49
-0.7
 74
     0
 49
1.3
 74
     0
 49
-0.7
 74
     0
  0
ENDTAB
  0
TABLE
  2
LAYER
  5
2
100
AcDbSymbolTable
 70
     2
  0
LAYER
  5
14
100
AcDbSymbolTableRecord
100
AcDbLayerTableRecord
  2
0
 70
    64
 62
   102
  6
Continuous
290
     1
370
    -3
390
1D
  0
LAYER
  5
28
100
AcDbSymbolTableRecord
100
AcDbLayerTableRecord
  2
1
 70
    64
 62
    42
  6
Continuous
290
     1
370
    -3
390
1D
  0
ENDTAB
  0
TABLE
  2
STYLE
  5
3
100
AcDbSymbolTable
 70
     2
  0
STYLE
  5
17
100
AcDbSymbolTableRecord
100
AcDbTextStyleTableRecord
  2
Standard
 70
     0
 40
0.0
 41
1.0
 50
0.0
 71
     0
 42
0.0
  3
txt
  4

  0
STYLE
  5
196
100
AcDbSymbolTableRecord
100
AcDbTextStyleTableRecord
  2
ZU_SHPTB00001
 70
     0
 40
0.0
 41
1.0
 50
0.0
 71
     0
 42
0.0
  3
monotxt
  4
bigfont
  0
ENDTAB
  0
TABLE
  2
VIEW
  5
5
100
AcDbSymbolTable
 70
     0
  0
ENDTAB
  0
TABLE
  2
UCS
  5
6
100
AcDbSymbolTable
 70
     0
  0
ENDTAB
  0
TABLE
  2
APPID
  5
8
100
AcDbSymbolTable
 70
     1
  0
APPID
  5
16
100
AcDbSymbolTableRecord
100
AcDbRegAppTableRecord
  2
ACAD
 70
     0
  0
ENDTAB
  0
TABLE
  2
DIMSTYLE
  5
9
100
AcDbSymbolTable
 70
     1
100
AcDbDimStyleTable
 71
     0
  0
DIMSTYLE
105
18
100
AcDbSymbolTableRecord
100
AcDbDimStyleTableRecord
  2
Standard
 70
     0
  3

  4

 40
1.0
 41
0.18
 42
0.0625
 43
0.38
 44
0.18
 45
0.0
 46
0.0
 47
0.0
 48
0.0
 71
     0
 72
     0
 73
     1
 74
     1
 75
     0
 76
     0
 77
     0
 78
     0
 79
     0
140
0.18
141
0.09
142
0.0
143
25.4
144
1.0
145
0.0
146
1.0
147
0.09
148
0.0
170
     0
171
     2
172
     0
173
     0
174
     0
175
     0
176
     0
177
     0
178
     0
179
     0
271
     4
272
     4
273
     2
274
     2
275
     0
276
     0
277
     2
278
    46
279
     0
280
     0
281
     0
282
     0
283
     1
284
     0
285
     0
286
     0
288
     0
289
     3
340
17
341
0
342
0
343
0
344
0
371
    -2
372
    -2
  0
ENDTAB
  0
TABLE
  2
BLOCK_RECORD
  5
1
100
AcDbSymbolTable
 70
    18
  0
BLOCK_RECORD
  5
A
100
AcDbSymbolTableRecord
100
AcDbBlockTableRecord
  2
*MODEL_SPACE
340
20
  0
BLOCK_RECORD
  5
B
100
AcDbSymbolTableRecord
100
AcDbBlockTableRecord
  2
*PAPER_SPACE
340
21
  0
BLOCK_RECORD
  5
6E
100
AcDbSymbolTableRecord
100
AcDbBlockTableRecord
  2
ZU_SYM__USERS_HOME_SYMBOL_POO_SYM_B20_18
340
0
102
{BLKREFS
331
79
102
}
  0
BLOCK_RECORD
  5
94
100
AcDbSymbolTableRecord
100
AcDbBlockTableRecord
  2
ZU_SYM__USERS_HOME_SYMBOL_POO_SYM_B20_0000118
340
0
102
{BLKREFS
331
9F
102
}
  0
BLOCK_RECORD
  5
A0
100
AcDbSymbolTableRecord
100
AcDbBlockTableRecord
  2
ZU_SYM__USERS_HOME_SYMBOL_POO_SYM_B20_0000218
340
0
102
{BLKREFS
331
AB
102
}
  0
BLOCK_RECORD
  5
AC
100
AcDbSymbolTableRecord
100
AcDbBlockTableRecord
  2
ZU_SYM__USERS_HOME_SYMBOL_POO_SYM_B20_0000318
340
0
102
{BLKREFS
331
B7
102
}
  0
BLOCK_RECORD
  5
366
100
AcDbSymbolTableRecord
100
AcDbBlockTableRecord
  2
ZU_SYM__USERS_HOME_SYMBOL_POO_SYM_B20_05
340
0
102
{BLKREFS
331
372
102
}
  0
BLOCK_RECORD
  5
373
100
AcDbSymbolTableRecord
100
AcDbBlockTableRecord
  2
ZU_SYM__USERS_HOME_SYMBOL_POO_SYM_B20_0000405
340
0
102
{BLKREFS
331
37F
102
}
  0
BLOCK_RECORD
  5
380
100
AcDbSymbolTableRecord
100
AcDbBlockTableRecord
  2
ZU_SYM__USERS_HOME_SYMBOL_POO_SYM_B20_0000505
340
0
102
{BLKREFS
331
38C
102
}
  0
BLOCK_RECORD
  5
38D
100
AcDbSymbolTableRecord
100
AcDbBlockTableRecord
  2
ZU_SYM__USERS_HOME_SYMBOL_POO_SYM_B20_0000605
340
0
102
{BLKREFS
331
399
102
}
  0
BLOCK_RECORD
  5
39A
100
AcDbSymbolTableRecord
100
AcDbBlockTableRecord
  2
ZU_SYM__USERS_HOME_SYMBOL_POO_SYM_B20_0000705
340
0
102
{BLKREFS
331
3A6
102
}
  0
BLOCK_RECORD
  5
3A7
100
AcDbSymbolTableRecord
100
AcDbBlockTableRecord
  2
ZU_SYM__USERS_HOME_SYMBOL_POO_SYM_B20_0000805
340
0
102
{BLKREFS
331
3B3
102
}
  0
BLOCK_RECORD
  5
3B4
100
AcDbSymbolTableRecord
100
AcDbBlockTableRecord
  2
ZU_SYM__USERS_HOME_SYMBOL_POO_SYM_B20_0000905
340
0
102
{BLKREFS
331
3C0
102
}
  0
BLOCK_RECORD
  5
3C1
100
AcDbSymbolTableRecord
100
AcDbBlockTableRecord
  2
ZU_SYM__USERS_HOME_SYMBOL_POO_SYM_B20_0001005
340
0
102
{BLKREFS
331
3CD
102
}
  0
BLOCK_RECORD
  5
405
100
AcDbSymbolTableRecord
100
AcDbBlockTableRecord
  2
ZU_SYM__USERS_HOME_SYMBOL_POO_SYM_B20_0001118
340
0
102
{BLKREFS
331
410
102
}
  0
BLOCK_RECORD
  5
411
100
AcDbSymbolTableRecord
100
AcDbBlockTableRecord
  2
ZU_SYM__USERS_HOME_SYMBOL_POO_SYM_B20_0001218
340
0
102
{BLKREFS
331
41C
102
}
  0
BLOCK_RECORD
  5
41D
100
AcDbSymbolTableRecord
100
AcDbBlockTableRecord
  2
ZU_SYM__USERS_HOME_SYMBOL_POO_SYM_B20_0001318
340
0
102
{BLKREFS
331
428
102
}
  0
BLOCK_RECORD
  5
43C
100
AcDbSymbolTableRecord
100
AcDbBlockTableRecord
  2
ZU_SYM__USERS_HOME_SYMBOL_POO_SYM_B20_0001418
340
0
102
{BLKREFS
331
447
102
}
  0
BLOCK_RECORD
  5
448
100
AcDbSymbolTableRecord
100
AcDbBlockTableRecord
  2
ZU_SYM__USERS_HOME_SYMBOL_POO_SYM_B20_0001518
340
0
102
{BLKREFS
331
453
102
}
  0
BLOCK_RECORD
  5
454
100
AcDbSymbolTableRecord
100
AcDbBlockTableRecord
  2
ZU_SYM__USERS_HOME_SYMBOL_POO_SYM_B20_0001618
340
0
102
{BLKREFS
331
45F
102
}
  0
ENDTAB
  0
ENDSEC
  0
SECTION
  2
BLOCKS
  0
BLOCK
  5
D
100
AcDbEntity
  8
0
390
0
100
AcDbBlockBegin
  2
*MODEL_SPACE
 70
     0
 10
0.0
 20
0.0
 30
0.0
  3
*MODEL_SPACE
  1

  0
ENDBLK
  5
E
100
AcDbEntity
  8
0
390
0
100
AcDbBlockEnd
  0
BLOCK
  5
F
100
AcDbEntity
 67
     1
  8
0
390
0
100
AcDbBlockBegin
  2
*PAPER_SPACE
 70
     0
 10
0.0
 20
0.0
 30
0.0
  3
*PAPER_SPACE
  1

  0
ENDBLK
  5
10
100
AcDbEntity
 67
     1
  8
0
390
0
100
AcDbBlockEnd
  0
BLOCK
  5
6F
100
AcDbEntity
  8
0
390
0
100
AcDbBlockBegin
  2
ZU_SYM__USERS_HOME_SYMBOL_POO_SYM_B20_18
 70
    64
 10
0.0
 20
0.0
 30
0.0
  3
ZU_SYM__USERS_HOME_SYMBOL_POO_SYM_B20_18
  1

  0
POINT
  5
70
100
AcDbEntity
  8
0
370
    -3
390
0
  6
Continuous
100
AcDbPoint
 10
0.0
 20
0.0
 30
0.0
  0
LINE
  5
71
100
AcDbEntity
  8
0
370
    -3
390
0
  6
Continuous
100
AcDbLine
 10
0.0
 20
-6.5
 30
0.0
 11
0.0
 21
6.5
 31
0.0
  0
LINE
  5
72
100
AcDbEntity
  8
0
370
    -3
390
0
  6
Continuous
100
AcDbLine
 10
-7.999999
 20
5.633876
 30
0.0
 11
-7.999999
 21
-5.63407
 31
0.0
  0
LINE
  5
73
100
AcDbEntity
  8
0
370
    -3
390
0
  6
Continuous
100
AcDbLine
 10
0.0
 20
6.5
 30
0.0
 11
-7.499999
 21
6.5
 31
0.0
  0
LINE
  5
74
100
AcDbEntity
  8
0
370
    -3
390
0
  6
Continuous
100
AcDbLine
 10
0.0
 20
-6.5
 30
0.0
 11
-7.499998
 21
-6.5
 31
0.0
  0
LINE
  5
75
100
AcDbEntity
  8
0
370
    -3
390
0
  6
Continuous
100
AcDbLine
 10
-7.499999
 20
6.5
 30
0.0
 11
-7.999999
 21
5.633876
 31
0.0
  0
LINE
  5
76
100
AcDbEntity
  8
0
370
    -3
390
0
  6
Continuous
100
AcDbLine
 10
-7.499998
 20
-6.499999
 30
0.0
 11
-7.999999
 21
-5.63407
 31
0.0
  0
LINE
  5
77
100
AcDbEntity
  8
0
370
    -3
390
0
  6
Continuous
100
AcDbLine
 10
-7.499999
 20
6.5
 30
0.0
 11
-7.499999
 21
-6.5
 31
0.0
  0
ENDBLK
  5
78
100
AcDbEntity
  8
0
390
0
100
AcDbBlockEnd
  0
BLOCK
  5
95
100
AcDbEntity
  8
0
390
0
100
AcDbBlockBegin
  2
ZU_SYM__USERS_HOME_SYMBOL_POO_SYM_B20_0000118
 70
    64
 10
0.0
 20
0.0
 30
0.0
  3
ZU_SYM__USERS_HOME_SYMBOL_POO_SYM_B20_0000118
  1

  0
POINT
  5
96
100
AcDbEntity
  8
0
370
    -3
390
0
  6
Continuous
100
AcDbPoint
 10
0.0
 20
0.0
 30
0.0
  0
LINE
  5
97
100
AcDbEntity
  8
0
370
    -3
390
0
  6
Continuous
100
AcDbLine
 10
0.0
 20
-6.5
 30
0.0
 11
0.0
 21
6.5
 31
0.0
  0
LINE
  5
98
100
AcDbEntity
  8
0
370
    -3
390
0
  6
Continuous
100
AcDbLine
 10
-7.999999
 20
5.633876
 30
0.0
 11
-7.999999
 21
-5.63407
 31
0.0
  0
LINE
  5
99
100
AcDbEntity
  8
0
370
    -3
390
0
  6
Continuous
100
AcDbLine
 10
0.0
 20
6.5
 30
0.0
 11
-7.499999
 21
6.5
 31
0.0
  0
LINE
  5
9A
100
AcDbEntity
  8
0
370
    -3
390
0
  6
Continuous
100
AcDbLine
 10
0.0
 20
-6.5
 30
0.0
 11
-7.499998
 21
-6.5
 31
0.0
  0
LINE
  5
9B
100
AcDbEntity
  8
0
370
    -3
390
0
  6
Continuous
100
AcDbLine
 10
-7.499999
 20
6.5
 30
0.0
 11
-7.999999
 21
5.633876
 31
0.0
  0
LINE
  5
9C
100
AcDbEntity
  8
0
370
    -3
390
0
  6
Continuous
100
AcDbLine
 10
-7.499998
 20
-6.499999
 30
0.0
 11
-7.999999
 21
-5.63407
 31
0.0
  0
LINE
  5
9D
100
AcDbEntity
  8
0
370
    -3
390
0
  6
Continuous
100
AcDbLine
 10
-7.499999
 20
6.5
 30
0.0
 11
-7.499999
 21
-6.5
 31
0.0
  0
ENDBLK
  5
9E
100
AcDbEntity
  8
0
390
0
100
AcDbBlockEnd
  0
BLOCK
  5
A1
100
AcDbEntity
  8
0
390
0
100
AcDbBlockBegin
  2
ZU_SYM__USERS_HOME_SYMBOL_POO_SYM_B20_0000218
 70
    64
 10
0.0
 20
0.0
 30
0.0
  3
ZU_SYM__USERS_HOME_SYMBOL_POO_SYM_B20_0000218
  1

  0
POINT
  5
A2
100
AcDbEntity
  8
0
370
    -3
390
0
  6
Continuous
100
AcDbPoint
 10
0.0
 20
0.0
 30
0.0
  0
LINE
  5
A3
100
AcDbEntity
  8
0
370
    -3
390
0
  6
Continuous
100
AcDbLine
 10
0.0
 20
-6.5
 30
0.0
 11
0.0
 21
6.5
 31
0.0
  0
LINE
  5
A4
100
AcDbEntity
  8
0
370
    -3
390
0
  6
Continuous
100
AcDbLine
 10
-7.999999
 20
5.633876
 30
0.0
 11
-7.999999
 21
-5.63407
 31
0.0
  0
LINE
  5
A5
100
AcDbEntity
  8
0
370
    -3
390
0
  6
Continuous
100
AcDbLine
 10
0.0
 20
6.5
 30
0.0
 11
-7.499999
 21
6.5
 31
0.0
  0
LINE
  5
A6
100
AcDbEntity
  8
0
370
    -3
390
0
  6
Continuous
100
AcDbLine
 10
0.0
 20
-6.5
 30
0.0
 11
-7.499998
 21
-6.5
 31
0.0
  0
LINE
  5
A7
100
AcDbEntity
  8
0
370
    -3
390
0
  6
Continuous
100
AcDbLine
 10
-7.499999
 20
6.5
 30
0.0
 11
-7.999999
 21
5.633876
 31
0.0
  0
LINE
  5
A8
100
AcDbEntity
  8
0
370
    -3
390
0
  6
Continuous
100
AcDbLine
 10
-7.499998
 20
-6.499999
 30
0.0
 11
-7.999999
 21
-5.63407
 31
0.0
  0
LINE
  5
A9
100
AcDbEntity
  8
0
370
    -3
390
0
  6
Continuous
100
AcDbLine
 10
-7.499999
 20
6.5
 30
0.0
 11
-7.499999
 21
-6.5
 31
0.0
  0
ENDBLK
  5
AA
100
AcDbEntity
  8
0
390
0
100
AcDbBlockEnd
  0
BLOCK
  5
AD
100
AcDbEntity
  8
0
390
0
100
AcDbBlockBegin
  2
ZU_SYM__USERS_HOME_SYMBOL_POO_SYM_B20_0000318
 70
    64
 10
0.0
 20
0.0
 30
0.0
  3
ZU_SYM__USERS_HOME_SYMBOL_POO_SYM_B20_0000318
  1

  0
POINT
  5
AE
100
AcDbEntity
  8
0
370
    -3
390
0
  6
Continuous
100
AcDbPoint
 10
0.0
 20
0.0
 30
0.0
  0
LINE
  5
AF
100
AcDbEntity
  8
0
370
    -3
390
0
  6
Continuous
100
AcDbLine
 10
0.0
 20
-6.5
 30
0.0
 11
0.0
 21
6.5
 31
0.0
  0
LINE
  5
B0
100
AcDbEntity
  8
0
370
    -3
390
0
  6
Continuous
100
AcDbLine
 10
-7.999999
 20
5.633876
 30
0.0
 11
-7.999999
 21
-5.63407
 31
0.0
  0
LINE
  5
B1
100
AcDbEntity
  8
0
370
    -3
390
0
  6
Continuous
100
AcDbLine
 10
0.0
 20
6.5
 30
0.0
 11
-7.499999
 21
6.5
 31
0.0
  0
LINE
  5
B2
100
AcDbEntity
  8
0
370
    -3
390
0
  6
Continuous
100
AcDbLine
 10
0.0
 20
-6.5
 30
0.0
 11
-7.499998
 21
-6.5
 31
0.0
  0
LINE
  5
B3
100
AcDbEntity
  8
0
370
    -3
390
0
  6
Continuous
100
AcDbLine
 10
-7.499999
 20
6.5
 30
0.0
 11
-7.999999
 21
5.633876
 31
0.0
  0
LINE
  5
B4
100
AcDbEntity
  8
0
370
    -3
390
0
  6
Continuous
100
AcDbLine
 10
-7.499998
 20
-6.499999
 30
0.0
 11
-7.999999
 21
-5.63407
 31
0.0
  0
LINE
  5
B5
100
AcDbEntity
  8
0
370
    -3
390
0
  6
Continuous
100
AcDbLine
 10
-7.499999
 20
6.5
 30
0.0
 11
-7.499999
 21
-6.5
 31
0.0
  0
ENDBLK
  5
B6
100
AcDbEntity
  8
0
390
0
100
AcDbBlockEnd
  0
BLOCK
  5
367
100
AcDbEntity
  8
0
390
0
100
AcDbBlockBegin
  2
ZU_SYM__USERS_HOME_SYMBOL_POO_SYM_B20_05
 70
    64
 10
0.0
 20
0.0
 30
0.0
  3
ZU_SYM__USERS_HOME_SYMBOL_POO_SYM_B20_05
  1

  0
CIRCLE
  5
368
100
AcDbEntity
  8
0
370
    -3
390
0
  6
Continuous
100
AcDbCircle
 10
0.0
 20
0.0
 30
0.0
 40
5.633955
  0
CIRCLE
  5
369
100
AcDbEntity
  8
0
370
    -3
390
0
  6
Continuous
100
AcDbCircle
 10
0.0
 20
0.0
 30
0.0
 40
6.5
  0
POINT
  5
36A
100
AcDbEntity
  8
0
370
    -3
390
0
  6
Continuous
100
AcDbPoint
 10
0.0
 20
0.0
 30
0.0
  0
LINE
  5
36B
100
AcDbEntity
  8
0
370
    -3
390
0
  6
Continuous
100
AcDbLine
 10
-2.999997
 20
-1.732046
 30
0.0
 11
-2.999998
 21
1.732052
 31
0.0
  0
LINE
  5
36C
100
AcDbEntity
  8
0
370
    -3
390
0
  6
Continuous
100
AcDbLine
 10
2.999997
 20
1.732047
 30
0.0
 11
2.999998
 21
-1.732051
 31
0.0
  0
LINE
  5
36D
100
AcDbEntity
  8
0
370
    -3
390
0
  6
Continuous
100
AcDbLine
 10
0.000007
 20
3.464097
 30
0.0
 11
-2.999998
 21
1.732052
 31
0.0
  0
LINE
  5
36E
100
AcDbEntity
  8
0
370
    -3
390
0
  6
Continuous
100
AcDbLine
 10
2.999998
 20
-1.732051
 30
0.0
 11
-0.000004
 21
-3.464098
 31
0.0
  0
LINE
  5
36F
100
AcDbEntity
  8
0
370
    -3
390
0
  6
Continuous
100
AcDbLine
 10
0.000007
 20
3.464097
 30
0.0
 11
2.999997
 21
1.732047
 31
0.0
  0
LINE
  5
370
100
AcDbEntity
  8
0
370
    -3
390
0
  6
Continuous
100
AcDbLine
 10
-0.000005
 20
-3.464098
 30
0.0
 11
-2.999998
 21
-1.732046
 31
0.0
  0
ENDBLK
  5
371
100
AcDbEntity
  8
0
390
0
100
AcDbBlockEnd
  0
BLOCK
  5
374
100
AcDbEntity
  8
0
390
0
100
AcDbBlockBegin
  2
ZU_SYM__USERS_HOME_SYMBOL_POO_SYM_B20_0000405
 70
    64
 10
0.0
 20
0.0
 30
0.0
  3
ZU_SYM__USERS_HOME_SYMBOL_POO_SYM_B20_0000405
  1

  0
CIRCLE
  5
375
100
AcDbEntity
  8
0
370
    -3
390
0
  6
Continuous
100
AcDbCircle
 10
0.0
 20
0.0
 30
0.0
 40
5.633955
  0
CIRCLE
  5
376
100
AcDbEntity
  8
0
370
    -3
390
0
  6
Continuous
100
AcDbCircle
 10
0.0
 20
0.0
 30
0.0
 40
6.5
  0
POINT
  5
377
100
AcDbEntity
  8
0
370
    -3
390
0
  6
Continuous
100
AcDbPoint
 10
0.0
 20
0.0
 30
0.0
  0
LINE
  5
378
100
AcDbEntity
  8
0
370
    -3
390
0
  6
Continuous
100
AcDbLine
 10
-2.999997
 20
-1.732046
 30
0.0
 11
-2.999998
 21
1.732052
 31
0.0
  0
LINE
  5
379
100
AcDbEntity
  8
0
370
    -3
390
0
  6
Continuous
100
AcDbLine
 10
2.999997
 20
1.732047
 30
0.0
 11
2.999998
 21
-1.732051
 31
0.0
  0
LINE
  5
37A
100
AcDbEntity
  8
0
370
    -3
390
0
  6
Continuous
100
AcDbLine
 10
0.000007
 20
3.464097
 30
0.0
 11
-2.999998
 21
1.732052
 31
0.0
  0
LINE
  5
37B
100
AcDbEntity
  8
0
370
    -3
390
0
  6
Continuous
100
AcDbLine
 10
2.999998
 20
-1.732051
 30
0.0
 11
-0.000004
 21
-3.464098
 31
0.0
  0
LINE
  5
37C
100
AcDbEntity
  8
0
370
    -3
390
0
  6
Continuous
100
AcDbLine
 10
0.000007
 20
3.464097
 30
0.0
 11
2.999997
 21
1.732047
 31
0.0
  0
LINE
  5
37D
100
AcDbEntity
  8
0
370
    -3
390
0
  6
Continuous
100
AcDbLine
 10
-0.000005
 20
-3.464098
 30
0.0
 11
-2.999998
 21
-1.732046
 31
0.0
  0
ENDBLK
  5
37E
100
AcDbEntity
  8
0
390
0
100
AcDbBlockEnd
  0
BLOCK
  5
381
100
AcDbEntity
  8
0
390
0
100
AcDbBlockBegin
  2
ZU_SYM__USERS_HOME_SYMBOL_POO_SYM_B20_0000505
 70
    64
 10
0.0
 20
0.0
 30
0.0
  3
ZU_SYM__USERS_HOME_SYMBOL_POO_SYM_B20_0000505
  1

  0
CIRCLE
  5
382
100
AcDbEntity
  8
0
370
    -3
390
0
  6
Continuous
100
AcDbCircle
 10
0.0
 20
0.0
 30
0.0
 40
5.633955
  0
CIRCLE
  5
383
100
AcDbEntity
  8
0
370
    -3
390
0
  6
Continuous
100
AcDbCircle
 10
0.0
 20
0.0
 30
0.0
 40
6.5
  0
POINT
  5
384
100
AcDbEntity
  8
0
370
    -3
390
0
  6
Continuous
100
AcDbPoint
 10
0.0
 20
0.0
 30
0.0
  0
LINE
  5
385
100
AcDbEntity
  8
0
370
    -3
390
0
  6
Continuous
100
AcDbLine
 10
-2.999997
 20
-1.732046
 30
0.0
 11
-2.999998
 21
1.732052
 31
0.0
  0
LINE
  5
386
100
AcDbEntity
  8
0
370
    -3
390
0
  6
Continuous
100
AcDbLine
 10
2.999997
 20
1.732047
 30
0.0
 11
2.999998
 21
-1.732051
 31
0.0
  0
LINE
  5
387
100
AcDbEntity
  8
0
370
    -3
390
0
  6
Continuous
100
AcDbLine
 10
0.000007
 20
3.464097
 30
0.0
 11
-2.999998
 21
1.732052
 31
0.0
  0
LINE
  5
388
100
AcDbEntity
  8
0
370
    -3
390
0
  6
Continuous
100
AcDbLine
 10
2.999998
 20
-1.732051
 30
0.0
 11
-0.000004
 21
-3.464098
 31
0.0
  0
LINE
  5
389
100
AcDbEntity
  8
0
370
    -3
390
0
  6
Continuous
100
AcDbLine
 10
0.000007
 20
3.464097
 30
0.0
 11
2.999997
 21
1.732047
 31
0.0
  0
LINE
  5
38A
100
AcDbEntity
  8
0
370
    -3
390
0
  6
Continuous
100
AcDbLine
 10
-0.000005
 20
-3.464098
 30
0.0
 11
-2.999998
 21
-1.732046
 31
0.0
  0
ENDBLK
  5
38B
100
AcDbEntity
  8
0
390
0
100
AcDbBlockEnd
  0
BLOCK
  5
38E
100
AcDbEntity
  8
0
390
0
100
AcDbBlockBegin
  2
ZU_SYM__USERS_HOME_SYMBOL_POO_SYM_B20_0000605
 70
    64
 10
0.0
 20
0.0
 30
0.0
  3
ZU_SYM__USERS_HOME_SYMBOL_POO_SYM_B20_0000605
  1

  0
CIRCLE
  5
38F
100
AcDbEntity
  8
0
370
    -3
390
0
  6
Continuous
100
AcDbCircle
 10
0.0
 20
0.0
 30
0.0
 40
5.633955
  0
CIRCLE
  5
390
100
AcDbEntity
  8
0
370
    -3
390
0
  6
Continuous
100
AcDbCircle
 10
0.0
 20
0.0
 30
0.0
 40
6.5
  0
POINT
  5
391
100
AcDbEntity
  8
0
370
    -3
390
0
  6
Continuous
100
AcDbPoint
 10
0.0
 20
0.0
 30
0.0
  0
LINE
  5
392
100
AcDbEntity
  8
0
370
    -3
390
0
  6
Continuous
100
AcDbLine
 10
-2.999997
 20
-1.732046
 30
0.0
 11
-2.999998
 21
1.732052
 31
0.0
  0
LINE
  5
393
100
AcDbEntity
  8
0
370
    -3
390
0
  6
Continuous
100
AcDbLine
 10
2.999997
 20
1.732047
 30
0.0
 11
2.999998
 21
-1.732051
 31
0.0
  0
LINE
  5
394
100
AcDbEntity
  8
0
370
    -3
390
0
  6
Continuous
100
AcDbLine
 10
0.000007
 20
3.464097
 30
0.0
 11
-2.999998
 21
1.732052
 31
0.0
  0
LINE
  5
395
100
AcDbEntity
  8
0
370
    -3
390
0
  6
Continuous
100
AcDbLine
 10
2.999998
 20
-1.732051
 30
0.0
 11
-0.000004
 21
-3.464098
 31
0.0
  0
LINE
  5
396
100
AcDbEntity
  8
0
370
    -3
390
0
  6
Continuous
100
AcDbLine
 10
0.000007
 20
3.464097
 30
0.0
 11
2.999997
 21
1.732047
 31
0.0
  0
LINE
  5
397
100
AcDbEntity
  8
0
370
    -3
390
0
  6
Continuous
100
AcDbLine
 10
-0.000005
 20
-3.464098
 30
0.0
 11
-2.999998
 21
-1.732046
 31
0.0
  0
ENDBLK
  5
398
100
AcDbEntity
  8
0
390
0
100
AcDbBlockEnd
  0
BLOCK
  5
39B
100
AcDbEntity
  8
0
390
0
100
AcDbBlockBegin
  2
ZU_SYM__USERS_HOME_SYMBOL_POO_SYM_B20_0000705
 70
    64
 10
0.0
 20
0.0
 30
0.0
  3
ZU_SYM__USERS_HOME_SYMBOL_POO_SYM_B20_0000705
  1

  0
CIRCLE
  5
39C
100
AcDbEntity
  8
0
370
    -3
390
0
  6
Continuous
100
AcDbCircle
 10
0.0
 20
0.0
 30
0.0
 40
5.633955
  0
CIRCLE
  5
39D
100
AcDbEntity
  8
0
370
    -3
390
0
  6
Continuous
100
AcDbCircle
 10
0.0
 20
0.0
 30
0.0
 40
6.5
  0
POINT
  5
39E
100
AcDbEntity
  8
0
370
    -3
390
0
  6
Continuous
100
AcDbPoint
 10
0.0
 20
0.0
 30
0.0
  0
LINE
  5
39F
100
AcDbEntity
  8
0
370
    -3
390
0
  6
Continuous
100
AcDbLine
 10
-2.999997
 20
-1.732046
 30
0.0
 11
-2.999998
 21
1.732052
 31
0.0
  0
LINE
  5
3A0
100
AcDbEntity
  8
0
370
    -3
390
0
  6
Continuous
100
AcDbLine
 10
2.999997
 20
1.732047
 30
0.0
 11
2.999998
 21
-1.732051
 31
0.0
  0
LINE
  5
3A1
100
AcDbEntity
  8
0
370
    -3
390
0
  6
Continuous
100
AcDbLine
 10
0.000007
 20
3.464097
 30
0.0
 11
-2.999998
 21
1.732052
 31
0.0
  0
LINE
  5
3A2
100
AcDbEntity
  8
0
370
    -3
390
0
  6
Continuous
100
AcDbLine
 10
2.999998
 20
-1.732051
 30
0.0
 11
-0.000004
 21
-3.464098
 31
0.0
  0
LINE
  5
3A3
100
AcDbEntity
  8
0
370
    -3
390
0
  6
Continuous
100
AcDbLine
 10
0.000007
 20
3.464097
 30
0.0
 11
2.999997
 21
1.732047
 31
0.0
  0
LINE
  5
3A4
100
AcDbEntity
  8
0
370
    -3
390
0
  6
Continuous
100
AcDbLine
 10
-0.000005
 20
-3.464098
 30
0.0
 11
-2.999998
 21
-1.732046
 31
0.0
  0
ENDBLK
  5
3A5
100
AcDbEntity
  8
0
390
0
100
AcDbBlockEnd
  0
BLOCK
  5
3A8
100
AcDbEntity
  8
0
390
0
100
AcDbBlockBegin
  2
ZU_SYM__USERS_HOME_SYMBOL_POO_SYM_B20_0000805
 70
    64
 10
0.0
 20
0.0
 30
0.0
  3
ZU_SYM__USERS_HOME_SYMBOL_POO_SYM_B20_0000805
  1

  0
CIRCLE
  5
3A9
100
AcDbEntity
  8
0
370
    -3
390
0
  6
Continuous
100
AcDbCircle
 10
0.0
 20
0.0
 30
0.0
 40
5.633955
  0
CIRCLE
  5
3AA
100
AcDbEntity
  8
0
370
    -3
390
0
  6
Continuous
100
AcDbCircle
 10
0.0
 20
0.0
 30
0.0
 40
6.5
  0
POINT
  5
3AB
100
AcDbEntity
  8
0
370
    -3
390
0
  6
Continuous
100
AcDbPoint
 10
0.0
 20
0.0
 30
0.0
  0
LINE
  5
3AC
100
AcDbEntity
  8
0
370
    -3
390
0
  6
Continuous
100
AcDbLine
 10
-2.999997
 20
-1.732046
 30
0.0
 11
-2.999998
 21
1.732052
 31
0.0
  0
LINE
  5
3AD
100
AcDbEntity
  8
0
370
    -3
390
0
  6
Continuous
100
AcDbLine
 10
2.999997
 20
1.732047
 30
0.0
 11
2.999998
 21
-1.732051
 31
0.0
  0
LINE
  5
3AE
100
AcDbEntity
  8
0
370
    -3
390
0
  6
Continuous
100
AcDbLine
 10
0.000007
 20
3.464097
 30
0.0
 11
-2.999998
 21
1.732052
 31
0.0
  0
LINE
  5
3AF
100
AcDbEntity
  8
0
370
    -3
390
0
  6
Continuous
100
AcDbLine
 10
2.999998
 20
-1.732051
 30
0.0
 11
-0.000004
 21
-3.464098
 31
0.0
  0
LINE
  5
3B0
100
AcDbEntity
  8
0
370
    -3
390
0
  6
Continuous
100
AcDbLine
 10
0.000007
 20
3.464097
 30
0.0
 11
2.999997
 21
1.732047
 31
0.0
  0
LINE
  5
3B1
100
AcDbEntity
  8
0
370
    -3
390
0
  6
Continuous
100
AcDbLine
 10
-0.000005
 20
-3.464098
 30
0.0
 11
-2.999998
 21
-1.732046
 31
0.0
  0
ENDBLK
  5
3B2
100
AcDbEntity
  8
0
390
0
100
AcDbBlockEnd
  0
BLOCK
  5
3B5
100
AcDbEntity
  8
0
390
0
100
AcDbBlockBegin
  2
ZU_SYM__USERS_HOME_SYMBOL_POO_SYM_B20_0000905
 70
    64
 10
0.0
 20
0.0
 30
0.0
  3
ZU_SYM__USERS_HOME_SYMBOL_POO_SYM_B20_0000905
  1

  0
CIRCLE
  5
3B6
100
AcDbEntity
  8
0
370
    -3
390
0
  6
Continuous
100
AcDbCircle
 10
0.0
 20
0.0
 30
0.0
 40
5.633955
  0
CIRCLE
  5
3B7
100
AcDbEntity
  8
0
370
    -3
390
0
  6
Continuous
100
AcDbCircle
 10
0.0
 20
0.0
 30
0.0
 40
6.5
  0
POINT
  5
3B8
100
AcDbEntity
  8
0
370
    -3
390
0
  6
Continuous
100
AcDbPoint
 10
0.0
 20
0.0
 30
0.0
  0
LINE
  5
3B9
100
AcDbEntity
  8
0
370
    -3
390
0
  6
Continuous
100
AcDbLine
 10
-2.999997
 20
-1.732046
 30
0.0
 11
-2.999998
 21
1.732052
 31
0.0
  0
LINE
  5
3BA
100
AcDbEntity
  8
0
370
    -3
390
0
  6
Continuous
100
AcDbLine
 10
2.999997
 20
1.732047
 30
0.0
 11
2.999998
 21
-1.732051
 31
0.0
  0
LINE
  5
3BB
100
AcDbEntity
  8
0
370
    -3
390
0
  6
Continuous
100
AcDbLine
 10
0.000007
 20
3.464097
 30
0.0
 11
-2.999998
 21
1.732052
 31
0.0
  0
LINE
  5
3BC
100
AcDbEntity
  8
0
370
    -3
390
0
  6
Continuous
100
AcDbLine
 10
2.999998
 20
-1.732051
 30
0.0
 11
-0.000004
 21
-3.464098
 31
0.0
  0
LINE
  5
3BD
100
AcDbEntity
  8
0
370
    -3
390
0
  6
Continuous
100
AcDbLine
 10
0.000007
 20
3.464097
 30
0.0
 11
2.999997
 21
1.732047
 31
0.0
  0
LINE
  5
3BE
100
AcDbEntity
  8
0
370
    -3
390
0
  6
Continuous
100
AcDbLine
 10
-0.000005
 20
-3.464098
 30
0.0
 11
-2.999998
 21
-1.732046
 31
0.0
  0
ENDBLK
  5
3BF
100
AcDbEntity
  8
0
390
0
100
AcDbBlockEnd
  0
BLOCK
  5
3C2
100
AcDbEntity
  8
0
390
0
100
AcDbBlockBegin
  2
ZU_SYM__USERS_HOME_SYMBOL_POO_SYM_B20_0001005
 70
    64
 10
0.0
 20
0.0
 30
0.0
  3
ZU_SYM__USERS_HOME_SYMBOL_POO_SYM_B20_0001005
  1

  0
CIRCLE
  5
3C3
100
AcDbEntity
  8
0
370
    -3
390
0
  6
Continuous
100
AcDbCircle
 10
0.0
 20
0.0
 30
0.0
 40
5.633955
  0
CIRCLE
  5
3C4
100
AcDbEntity
  8
0
370
    -3
390
0
  6
Continuous
100
AcDbCircle
 10
0.0
 20
0.0
 30
0.0
 40
6.5
  0
POINT
  5
3C5
100
AcDbEntity
  8
0
370
    -3
390
0
  6
Continuous
100
AcDbPoint
 10
0.0
 20
0.0
 30
0.0
  0
LINE
  5
3C6
100
AcDbEntity
  8
0
370
    -3
390
0
  6
Continuous
100
AcDbLine
 10
-2.999997
 20
-1.732046
 30
0.0
 11
-2.999998
 21
1.732052
 31
0.0
  0
LINE
  5
3C7
100
AcDbEntity
  8
0
370
    -3
390
0
  6
Continuous
100
AcDbLine
 10
2.999997
 20
1.732047
 30
0.0
 11
2.999998
 21
-1.732051
 31
0.0
  0
LINE
  5
3C8
100
AcDbEntity
  8
0
370
    -3
390
0
  6
Continuous
100
AcDbLine
 10
0.000007
 20
3.464097
 30
0.0
 11
-2.999998
 21
1.732052
 31
0.0
  0
LINE
  5
3C9
100
AcDbEntity
  8
0
370
    -3
390
0
  6
Continuous
100
AcDbLine
 10
2.999998
 20
-1.732051
 30
0.0
 11
-0.000004
 21
-3.464098
 31
0.0
  0
LINE
  5
3CA
100
AcDbEntity
  8
0
370
    -3
390
0
  6
Continuous
100
AcDbLine
 10
0.000007
 20
3.464097
 30
0.0
 11
2.999997
 21
1.732047
 31
0.0
  0
LINE
  5
3CB
100
AcDbEntity
  8
0
370
    -3
390
0
  6
Continuous
100
AcDbLine
 10
-0.000005
 20
-3.464098
 30
0.0
 11
-2.999998
 21
-1.732046
 31
0.0
  0
ENDBLK
  5
3CC
100
AcDbEntity
  8
0
390
0
100
AcDbBlockEnd
  0
BLOCK
  5
406
100
AcDbEntity
  8
0
390
0
100
AcDbBlockBegin
  2
ZU_SYM__USERS_HOME_SYMBOL_POO_SYM_B20_0001118
 70
    64
 10
0.0
 20
0.0
 30
0.0
  3
ZU_SYM__USERS_HOME_SYMBOL_POO_SYM_B20_0001118
  1

  0
POINT
  5
407
100
AcDbEntity
  8
0
370
    -3
390
0
  6
Continuous
100
AcDbPoint
 10
0.0
 20
0.0
 30
0.0
  0
LINE
  5
408
100
AcDbEntity
  8
0
370
    -3
390
0
  6
Continuous
100
AcDbLine
 10
0.0
 20
-6.5
 30
0.0
 11
0.0
 21
6.5
 31
0.0
  0
LINE
  5
409
100
AcDbEntity
  8
0
370
    -3
390
0
  6
Continuous
100
AcDbLine
 10
-7.999999
 20
5.633876
 30
0.0
 11
-7.999999
 21
-5.63407
 31
0.0
  0
LINE
  5
40A
100
AcDbEntity
  8
0
370
    -3
390
0
  6
Continuous
100
AcDbLine
 10
0.0
 20
6.5
 30
0.0
 11
-7.499999
 21
6.5
 31
0.0
  0
LINE
  5
40B
100
AcDbEntity
  8
0
370
    -3
390
0
  6
Continuous
100
AcDbLine
 10
0.0
 20
-6.5
 30
0.0
 11
-7.499998
 21
-6.5
 31
0.0
  0
LINE
  5
40C
100
AcDbEntity
  8
0
370
    -3
390
0
  6
Continuous
100
AcDbLine
 10
-7.499999
 20
6.5
 30
0.0
 11
-7.999999
 21
5.633876
 31
0.0
  0
LINE
  5
40D
100
AcDbEntity
  8
0
370
    -3
390
0
  6
Continuous
100
AcDbLine
 10
-7.499998
 20
-6.499999
 30
0.0
 11
-7.999999
 21
-5.63407
 31
0.0
  0
LINE
  5
40E
100
AcDbEntity
  8
0
370
    -3
390
0
  6
Continuous
100
AcDbLine
 10
-7.499999
 20
6.5
 30
0.0
 11
-7.499999
 21
-6.5
 31
0.0
  0
ENDBLK
  5
40F
100
AcDbEntity
  8
0
390
0
100
AcDbBlockEnd
  0
BLOCK
  5
412
100
AcDbEntity
  8
0
390
0
100
AcDbBlockBegin
  2
ZU_SYM__USERS_HOME_SYMBOL_POO_SYM_B20_0001218
 70
    64
 10
0.0
 20
0.0
 30
0.0
  3
ZU_SYM__USERS_HOME_SYMBOL_POO_SYM_B20_0001218
  1

  0
POINT
  5
413
100
AcDbEntity
  8
0
370
    -3
390
0
  6
Continuous
100
AcDbPoint
 10
0.0
 20
0.0
 30
0.0
  0
LINE
  5
414
100
AcDbEntity
  8
0
370
    -3
390
0
  6
Continuous
100
AcDbLine
 10
0.0
 20
-6.5
 30
0.0
 11
0.0
 21
6.5
 31
0.0
  0
LINE
  5
415
100
AcDbEntity
  8
0
370
    -3
390
0
  6
Continuous
100
AcDbLine
 10
-7.999999
 20
5.633876
 30
0.0
 11
-7.999999
 21
-5.63407
 31
0.0
  0
LINE
  5
416
100
AcDbEntity
  8
0
370
    -3
390
0
  6
Continuous
100
AcDbLine
 10
0.0
 20
6.5
 30
0.0
 11
-7.499999
 21
6.5
 31
0.0
  0
LINE
  5
417
100
AcDbEntity
  8
0
370
    -3
390
0
  6
Continuous
100
AcDbLine
 10
0.0
 20
-6.5
 30
0.0
 11
-7.499998
 21
-6.5
 31
0.0
  0
LINE
  5
418
100
AcDbEntity
  8
0
370
    -3
390
0
  6
Continuous
100
AcDbLine
 10
-7.499999
 20
6.5
 30
0.0
 11
-7.999999
 21
5.633876
 31
0.0
  0
LINE
  5
419
100
AcDbEntity
  8
0
370
    -3
390
0
  6
Continuous
100
AcDbLine
 10
-7.499998
 20
-6.499999
 30
0.0
 11
-7.999999
 21
-5.63407
 31
0.0
  0
LINE
  5
41A
100
AcDbEntity
  8
0
370
    -3
390
0
  6
Continuous
100
AcDbLine
 10
-7.499999
 20
6.5
 30
0.0
 11
-7.499999
 21
-6.5
 31
0.0
  0
ENDBLK
  5
41B
100
AcDbEntity
  8
0
390
0
100
AcDbBlockEnd
  0
BLOCK
  5
41E
100
AcDbEntity
  8
0
390
0
100
AcDbBlockBegin
  2
ZU_SYM__USERS_HOME_SYMBOL_POO_SYM_B20_0001318
 70
    64
 10
0.0
 20
0.0
 30
0.0
  3
ZU_SYM__USERS_HOME_SYMBOL_POO_SYM_B20_0001318
  1

  0
POINT
  5
41F
100
AcDbEntity
  8
0
370
    -3
390
0
  6
Continuous
100
AcDbPoint
 10
0.0
 20
0.0
 30
0.0
  0
LINE
  5
420
100
AcDbEntity
  8
0
370
    -3
390
0
  6
Continuous
100
AcDbLine
 10
0.0
 20
-6.5
 30
0.0
 11
0.0
 21
6.5
 31
0.0
  0
LINE
  5
421
100
AcDbEntity
  8
0
370
    -3
390
0
  6
Continuous
100
AcDbLine
 10
-7.999999
 20
5.633876
 30
0.0
 11
-7.999999
 21
-5.63407
 31
0.0
  0
LINE
  5
422
100
AcDbEntity
  8
0
370
    -3
390
0
  6
Continuous
100
AcDbLine
 10
0.0
 20
6.5
 30
0.0
 11
-7.499999
 21
6.5
 31
0.0
  0
LINE
  5
423
100
AcDbEntity
  8
0
370
    -3
390
0
  6
Continuous
100
AcDbLine
 10
0.0
 20
-6.5
 30
0.0
 11
-7.499998
 21
-6.5
 31
0.0
  0
LINE
  5
424
100
AcDbEntity
  8
0
370
    -3
390
0
  6
Continuous
100
AcDbLine
 10
-7.499999
 20
6.5
 30
0.0
 11
-7.999999
 21
5.633876
 31
0.0
  0
LINE
  5
425
100
AcDbEntity
  8
0
370
    -3
390
0
  6
Continuous
100
AcDbLine
 10
-7.499998
 20
-6.499999
 30
0.0
 11
-7.999999
 21
-5.63407
 31
0.0
  0
LINE
  5
426
100
AcDbEntity
  8
0
370
    -3
390
0
  6
Continuous
100
AcDbLine
 10
-7.499999
 20
6.5
 30
0.0
 11
-7.499999
 21
-6.5
 31
0.0
  0
ENDBLK
  5
427
100
AcDbEntity
  8
0
390
0
100
AcDbBlockEnd
  0
BLOCK
  5
43D
100
AcDbEntity
  8
0
390
0
100
AcDbBlockBegin
  2
ZU_SYM__USERS_HOME_SYMBOL_POO_SYM_B20_0001418
 70
    64
 10
0.0
 20
0.0
 30
0.0
  3
ZU_SYM__USERS_HOME_SYMBOL_POO_SYM_B20_0001418
  1

  0
POINT
  5
43E
100
AcDbEntity
  8
0
370
    -3
390
0
  6
Continuous
100
AcDbPoint
 10
0.0
 20
0.0
 30
0.0
  0
LINE
  5
43F
100
AcDbEntity
  8
0
370
    -3
390
0
  6
Continuous
100
AcDbLine
 10
0.0
 20
-6.5
 30
0.0
 11
0.0
 21
6.5
 31
0.0
  0
LINE
  5
440
100
AcDbEntity
  8
0
370
    -3
390
0
  6
Continuous
100
AcDbLine
 10
-7.999999
 20
5.633876
 30
0.0
 11
-7.999999
 21
-5.63407
 31
0.0
  0
LINE
  5
441
100
AcDbEntity
  8
0
370
    -3
390
0
  6
Continuous
100
AcDbLine
 10
0.0
 20
6.5
 30
0.0
 11
-7.499999
 21
6.5
 31
0.0
  0
LINE
  5
442
100
AcDbEntity
  8
0
370
    -3
390
0
  6
Continuous
100
AcDbLine
 10
0.0
 20
-6.5
 30
0.0
 11
-7.499998
 21
-6.5
 31
0.0
  0
LINE
  5
443
100
AcDbEntity
  8
0
370
    -3
390
0
  6
Continuous
100
AcDbLine
 10
-7.499999
 20
6.5
 30
0.0
 11
-7.999999
 21
5.633876
 31
0.0
  0
LINE
  5
444
100
AcDbEntity
  8
0
370
    -3
390
0
  6
Continuous
100
AcDbLine
 10
-7.499998
 20
-6.499999
 30
0.0
 11
-7.999999
 21
-5.63407
 31
0.0
  0
LINE
  5
445
100
AcDbEntity
  8
0
370
    -3
390
0
  6
Continuous
100
AcDbLine
 10
-7.499999
 20
6.5
 30
0.0
 11
-7.499999
 21
-6.5
 31
0.0
  0
ENDBLK
  5
446
100
AcDbEntity
  8
0
390
0
100
AcDbBlockEnd
  0
BLOCK
  5
449
100
AcDbEntity
  8
0
390
0
100
AcDbBlockBegin
  2
ZU_SYM__USERS_HOME_SYMBOL_POO_SYM_B20_0001518
 70
    64
 10
0.0
 20
0.0
 30
0.0
  3
ZU_SYM__USERS_HOME_SYMBOL_POO_SYM_B20_0001518
  1

  0
POINT
  5
44A
100
AcDbEntity
  8
0
370
    -3
390
0
  6
Continuous
100
AcDbPoint
 10
0.0
 20
0.0
 30
0.0
  0
LINE
  5
44B
100
AcDbEntity
  8
0
370
    -3
390
0
  6
Continuous
100
AcDbLine
 10
0.0
 20
-6.5
 30
0.0
 11
0.0
 21
6.5
 31
0.0
  0
LINE
  5
44C
100
AcDbEntity
  8
0
370
    -3
390
0
  6
Continuous
100
AcDbLine
 10
-7.999999
 20
5.633876
 30
0.0
 11
-7.999999
 21
-5.63407
 31
0.0
  0
LINE
  5
44D
100
AcDbEntity
  8
0
370
    -3
390
0
  6
Continuous
100
AcDbLine
 10
0.0
 20
6.5
 30
0.0
 11
-7.499999
 21
6.5
 31
0.0
  0
LINE
  5
44E
100
AcDbEntity
  8
0
370
    -3
390
0
  6
Continuous
100
AcDbLine
 10
0.0
 20
-6.5
 30
0.0
 11
-7.499998
 21
-6.5
 31
0.0
  0
LINE
  5
44F
100
AcDbEntity
  8
0
370
    -3
390
0
  6
Continuous
100
AcDbLine
 10
-7.499999
 20
6.5
 30
0.0
 11
-7.999999
 21
5.633876
 31
0.0
  0
LINE
  5
450
100
AcDbEntity
  8
0
370
    -3
390
0
  6
Continuous
100
AcDbLine
 10
-7.499998
 20
-6.499999
 30
0.0
 11
-7.999999
 21
-5.63407
 31
0.0
  0
LINE
  5
451
100
AcDbEntity
  8
0
370
    -3
390
0
  6
Continuous
100
AcDbLine
 10
-7.499999
 20
6.5
 30
0.0
 11
-7.499999
 21
-6.5
 31
0.0
  0
ENDBLK
  5
452
100
AcDbEntity
  8
0
390
0
100
AcDbBlockEnd
  0
BLOCK
  5
455
100
AcDbEntity
  8
0
390
0
100
AcDbBlockBegin
  2
ZU_SYM__USERS_HOME_SYMBOL_POO_SYM_B20_0001618
 70
    64
 10
0.0
 20
0.0
 30
0.0
  3
ZU_SYM__USERS_HOME_SYMBOL_POO_SYM_B20_0001618
  1

  0
POINT
  5
456
100
AcDbEntity
  8
0
370
    -3
390
0
  6
Continuous
100
AcDbPoint
 10
0.0
 20
0.0
 30
0.0
  0
LINE
  5
457
100
AcDbEntity
  8
0
370
    -3
390
0
  6
Continuous
100
AcDbLine
 10
0.0
 20
-6.5
 30
0.0
 11
0.0
 21
6.5
 31
0.0
  0
LINE
  5
458
100
AcDbEntity
  8
0
370
    -3
390
0
  6
Continuous
100
AcDbLine
 10
-7.999999
 20
5.633876
 30
0.0
 11
-7.999999
 21
-5.63407
 31
0.0
  0
LINE
  5
459
100
AcDbEntity
  8
0
370
    -3
390
0
  6
Continuous
100
AcDbLine
 10
0.0
 20
6.5
 30
0.0
 11
-7.499999
 21
6.5
 31
0.0
  0
LINE
  5
45A
100
AcDbEntity
  8
0
370
    -3
390
0
  6
Continuous
100
AcDbLine
 10
0.0
 20
-6.5
 30
0.0
 11
-7.499998
 21
-6.5
 31
0.0
  0
LINE
  5
45B
100
AcDbEntity
  8
0
370
    -3
390
0
  6
Continuous
100
AcDbLine
 10
-7.499999
 20
6.5
 30
0.0
 11
-7.999999
 21
5.633876
 31
0.0
  0
LINE
  5
45C
100
AcDbEntity
  8
0
370
    -3
390
0
  6
Continuous
100
AcDbLine
 10
-7.499998
 20
-6.499999
 30
0.0
 11
-7.999999
 21
-5.63407
 31
0.0
  0
LINE
  5
45D
100
AcDbEntity
  8
0
370
    -3
390
0
  6
Continuous
100
AcDbLine
 10
-7.499999
 20
6.5
 30
0.0
 11
-7.499999
 21
-6.5
 31
0.0
  0
ENDBLK
  5
45E
100
AcDbEntity
  8
0
390
0
100
AcDbBlockEnd
  0
ENDSEC
  0
SECTION
  2
ENTITIES
  0
LINE
  5
29
100
AcDbEntity
  8
0
370
    -3
390
0
  6
Continuous
100
AcDbLine
 10
-144.736776
 20
16.792298
 30
0.0
 11
-144.736776
 21
17.188826
 31
0.0
  0
ARC
  5
2A
100
AcDbEntity
  8
0
370
    -3
390
0
  6
Continuous
100
AcDbCircle
 10
-143.236776
 20
17.188826
 30
0.0
 40
1.5
100
AcDbArc
 50
147.769047
 51
180.0
  0
ARC
  5
2B
100
AcDbEntity
  8
0
370
    -3
390
0
  6
Continuous
100
AcDbCircle
 10
-139.236776
 20
17.188826
 30
0.0
 40
1.5
100
AcDbArc
 50
0.0
 51
32.230953
  0
ARC
  5
2C
100
AcDbEntity
  8
0
370
    -3
390
0
  6
Continuous
100
AcDbCircle
 10
-139.036776
 20
16.792298
 30
0.0
 40
1.299999
100
AcDbArc
 50
286.601531
 51
0.0
  0
LINE
  5
2D
100
AcDbEntity
  8
0
370
    -3
390
0
  6
Continuous
100
AcDbLine
 10
-137.736776
 20
16.792298
 30
0.0
 11
-137.736776
 21
17.188826
 31
0.0
  0
ARC
  5
2E
100
AcDbEntity
  8
0
370
    -3
390
0
  6
Continuous
100
AcDbCircle
 10
-143.436777
 20
16.792298
 30
0.0
 40
1.299999
100
AcDbArc
 50
180.0
 51
253.398469
  0
ARC
  5
2F
100
AcDbEntity
  8
0
370
    -3
390
0
  6
Continuous
100
AcDbCircle
 10
-141.236776
 20
24.171323
 30
0.0
 40
9.0
100
AcDbArc
 50
253.398469
 51
286.601548
  0
ARC
  5
30
100
AcDbEntity
  8
0
370
    -3
390
0
  6
Continuous
100
AcDbCircle
 10
208.233394
 20
-294.733696
 30
0.0
 40
3.0
100
AcDbArc
 50
180.0
 51
268.0
  0
ARC
  5
31
100
AcDbEntity
  8
0
370
    -3
390
0
  6
Continuous
100
AcDbCircle
 10
238.341561
 20
-295.785096
 30
0.0
 40
3.0
100
AcDbArc
 50
180.0
 51
268.0
  0
LINE
  5
32
100
AcDbEntity
  8
0
370
    -3
390
0
  6
Continuous
100
AcDbLine
 10
243.763224
 20
-195.011174
 30
0.0
 11
244.763224
 21
-195.011174
 31
0.0
  0
LINE
  5
33
100
AcDbEntity
  8
0
370
    -3
390
0
  6
Continuous
100
AcDbLine
 10
243.763224
 20
-107.011174
 30
0.0
 11
244.763224
 21
-107.011174
 31
0.0
  0
LINE
  5
34
100
AcDbEntity
  8
0
370
    -3
390
0
  6
Continuous
100
AcDbLine
 10
101.938629
 20
-264.694448
 30
0.0
 11
83.37621
 21
-293.167302
 31
0.0
  0
ARC
  5
35
100
AcDbEntity
  8
0
370
    -3
390
0
  6
Continuous
100
AcDbCircle
 10
100.263224
 20
-263.602195
 30
0.0
 40
2.0
100
AcDbArc
 50
326.898307
 51
0.0
  0
ARC
  5
36
100
AcDbEntity
  8
0
370
    -3
390
0
  6
Continuous
100
AcDbCircle
 10
78.349994
 20
-289.890542
 30
0.0
 40
6.0
100
AcDbArc
 50
274.480855
 51
326.898307
  0
ARC
  5
37
100
AcDbEntity
  8
0
370
    -3
390
0
  6
Continuous
100
AcDbCircle
 10
100.263224
 20
-211.046215
 30
0.0
 40
2.0
100
AcDbArc
 50
0.0
 51
90.0
  0
LINE
  5
38
100
AcDbEntity
  8
0
370
    -3
390
0
  6
Continuous
100
AcDbLine
 10
99.263224
 20
-209.046215
 30
0.0
 11
100.263224
 21
-209.046215
 31
0.0
  0
ARC
  5
39
100
AcDbEntity
  8
0
370
    -3
390
0
  6
Continuous
100
AcDbCircle
 10
42.763224
 20
-302.709976
 30
0.0
 40
4.0
100
AcDbArc
 50
94.480855
 51
180.0
  0
LINE
  5
3A
100
AcDbEntity
  8
0
370
    -3
390
0
  6
Continuous
100
AcDbLine
 10
42.45072
 20
-298.722202
 30
0.0
 11
78.763224
 21
-295.876554
 31
0.0
  0
LINE
  5
3B
100
AcDbEntity
  8
0
370
    -3
390
0
  6
Continuous
100
AcDbLine
 10
102.263224
 20
-211.046215
 30
0.0
 11
102.263224
 21
-263.602195
 31
0.0
  0
ARC
  5
3C
100
AcDbEntity
  8
0
370
    -3
390
0
  6
Continuous
100
AcDbCircle
 10
245.763224
 20
-297.97495
 30
0.0
 40
3.0
100
AcDbArc
 50
180.0
 51
224.415309
  0
ARC
  5
3D
100
AcDbEntity
  8
0
370
    -3
390
0
  6
Continuous
100
AcDbCircle
 10
240.763224
 20
-302.873929
 30
0.0
 40
4.0
100
AcDbArc
 50
0.0
 51
88.0
  0
ELLIPSE
  5
3E
100
AcDbEntity
  8
0
370
    -3
390
0
  6
Continuous
100
AcDbEllipse
 10
220.287478
 20
-158.843013
 30
0.0
 11
0.0
 21
29.2528141503808
 31
0.0
210
0.0
220
0.0
230
1.0
 40
0.51462
 41
4.7123889803846897
 42
1.5707963267948968
  0
LINE
  5
3F
100
AcDbEntity
  8
0
370
    -3
390
0
  6
Continuous
100
AcDbLine
 10
205.233394
 20
-158.843013
 30
0.0
 11
205.233394
 21
-294.733696
 31
0.0
  0
LINE
  5
40
100
AcDbEntity
  8
0
370
    -3
390
0
  6
Continuous
100
AcDbLine
 10
235.341561
 20
-158.843013
 30
0.0
 11
235.341561
 21
-295.785096
 31
0.0
  0
ARC
  5
41
100
AcDbEntity
  8
0
370
    -3
390
0
  6
Continuous
100
AcDbCircle
 10
239.763224
 20
-89.519573
 30
0.0
 40
3.0
100
AcDbArc
 50
0.0
 51
31.41034
  0
LINE
  5
42
100
AcDbEntity
  8
0
370
    -3
390
0
  6
Continuous
100
AcDbLine
 10
171.263224
 20
-47.267939
 30
0.0
 11
99.263224
 21
-46.011174
 31
0.0
  0
ARC
  5
43
100
AcDbEntity
  8
0
370
    -3
390
0
  6
Continuous
100
AcDbCircle
 10
169.779769
 20
-132.254993
 30
0.0
 40
85.0
100
AcDbArc
 50
31.41034
 51
89.0
  0
LINE
  5
44
100
AcDbEntity
  8
0
370
    -3
390
0
  6
Continuous
100
AcDbLine
 10
99.263224
 20
-151.011174
 30
0.0
 11
99.263224
 21
-268.798246
 31
0.0
  0
LINE
  5
45
100
AcDbEntity
  8
0
370
    -3
390
0
  6
CENTER
100
AcDbLine
 10
324.720797
 20
-151.011174
 30
0.0
 11
187.682484
 21
-151.011174
 31
0.0
  0
LINE
  5
46
100
AcDbEntity
  8
0
370
    -3
390
0
  6
Continuous
100
AcDbLine
 10
38.763224
 20
-302.709976
 30
0.0
 11
38.763224
 21
-321.011174
 31
0.0
  0
LINE
  5
47
100
AcDbEntity
  8
0
370
    -3
390
0
  6
Continuous
100
AcDbLine
 10
99.263224
 20
-151.011174
 30
0.0
 11
99.263224
 21
-46.011174
 31
0.0
  0
ARC
  5
48
100
AcDbEntity
  8
0
370
    -3
390
0
  6
Continuous
100
AcDbCircle
 10
243.763224
 20
-196.011174
 30
0.0
 40
1.0
100
AcDbArc
 50
90.0
 51
180.0
  0
LINE
  5
49
100
AcDbEntity
  8
0
370
    -3
390
0
  6
Continuous
100
AcDbLine
 10
242.763224
 20
-151.011174
 30
0.0
 11
242.763224
 21
-89.519573
 31
0.0
  0
LINE
  5
4A
100
AcDbEntity
  8
0
370
    -3
390
0
  6
Continuous
100
AcDbLine
 10
244.763224
 20
-151.011174
 30
0.0
 11
244.763224
 21
-107.011174
 31
0.0
  0
ARC
  5
4B
100
AcDbEntity
  8
0
370
    -3
390
0
  6
Continuous
100
AcDbCircle
 10
243.763224
 20
-106.011174
 30
0.0
 40
1.0
100
AcDbArc
 50
180.0
 51
270.0
  0
LINE
  5
4C
100
AcDbEntity
  8
0
370
    -3
390
0
  6
Continuous
100
AcDbLine
 10
244.763224
 20
-151.011174
 30
0.0
 11
244.763224
 21
-195.011174
 31
0.0
  0
LINE
  5
4D
100
AcDbEntity
  8
0
370
    -3
390
0
  6
Continuous
100
AcDbLine
 10
242.763224
 20
-151.011174
 30
0.0
 11
242.763224
 21
-297.97495
 31
0.0
  0
LINE
  5
4E
100
AcDbEntity
  8
0
370
    -3
390
0
  6
CENTER
100
AcDbLine
 10
226.763224
 20
-292.084213
 30
0.0
 11
226.763224
 21
-329.422437
 31
0.0
  0
LINE
  5
4F
100
AcDbEntity
  8
0
370
    -3
390
0
  6
Continuous
100
AcDbLine
 10
240.902822
 20
-298.876366
 30
0.0
 11
204.763224
 21
-297.614344
 31
0.0
  0
LINE
  5
50
100
AcDbEntity
  8
0
370
    -3
390
0
  6
CENTER
100
AcDbLine
 10
56.763224
 20
-291.272964
 30
0.0
 11
56.763224
 21
-327.798207
 31
0.0
  0
LINE
  5
51
100
AcDbEntity
  8
0
370
    -3
390
0
  6
Continuous
100
AcDbLine
 10
78.763224
 20
-295.876554
 30
0.0
 11
102.263224
 21
-294.034965
 31
0.0
  0
LINE
  5
52
100
AcDbEntity
  8
0
370
    -3
390
0
  6
Continuous
100
AcDbLine
 10
204.763224
 20
-297.614344
 30
0.0
 11
102.263224
 21
-294.034965
 31
0.0
  0
LINE
  5
53
100
AcDbEntity
  8
0
370
    -3
390
0
  6
Continuous
100
AcDbLine
 10
38.763224
 20
-321.011174
 30
0.0
 11
244.763224
 21
-321.011174
 31
0.0
  0
LINE
  5
54
100
AcDbEntity
  8
0
370
    -3
390
0
  6
Continuous
100
AcDbLine
 10
244.763224
 20
-302.873929
 30
0.0
 11
244.763224
 21
-321.011174
 31
0.0
  0
ARC
  5
55
100
AcDbEntity
  8
0
370
    -3
390
0
  6
Continuous
100
AcDbCircle
 10
321.363224
 20
-127.411174
 30
0.0
 40
0.4
100
AcDbArc
 50
0.0
 51
90.0
  0
LINE
  5
56
100
AcDbEntity
  8
0
370
    -3
390
0
  6
Continuous
100
AcDbLine
 10
321.363224
 20
-127.011174
 30
0.0
 11
249.323031
 21
-127.011174
 31
0.0
  0
LINE
  5
57
100
AcDbEntity
  8
0
370
    -3
390
0
  6
Continuous
100
AcDbLine
 10
321.763224
 20
-151.011174
 30
0.0
 11
321.763224
 21
-127.411174
 31
0.0
  0
LINE
  5
58
100
AcDbEntity
  8
0
370
    -3
390
0
  6
Continuous
100
AcDbLine
 10
321.763224
 20
-158.042407
 30
0.0
 11
258.762816
 21
-158.042407
 31
0.0
  0
ARC
  5
59
100
AcDbEntity
  8
0
370
    -3
390
0
  6
Continuous
100
AcDbCircle
 10
321.363224
 20
-174.611174
 30
0.0
 40
0.4
100
AcDbArc
 50
270.0
 51
0.0
  0
LINE
  5
5A
100
AcDbEntity
  8
0
370
    -3
390
0
  6
Continuous
100
AcDbLine
 10
321.763224
 20
-151.011174
 30
0.0
 11
321.763224
 21
-174.611174
 31
0.0
  0
LINE
  5
5B
100
AcDbEntity
  8
0
370
    -3
390
0
  6
Continuous
100
AcDbLine
 10
321.363224
 20
-175.011174
 30
0.0
 11
249.323031
 21
-175.011174
 31
0.0
  0
LINE
  5
5C
100
AcDbEntity
  8
0
370
    -3
390
0
  6
Continuous
100
AcDbLine
 10
246.763224
 20
-175.811174
 30
0.0
 11
246.563224
 21
-176.011174
 31
0.0
  0
ARC
  5
5D
100
AcDbEntity
  8
0
370
    -3
390
0
  6
Continuous
100
AcDbCircle
 10
247.563224
 20
-175.661174
 30
0.0
 40
0.8
100
AcDbArc
 50
90.0
 51
180.0
  0
LINE
  5
5E
100
AcDbEntity
  8
0
370
    -3
390
0
  6
Continuous
100
AcDbLine
 10
246.763224
 20
-175.661174
 30
0.0
 11
246.763224
 21
-175.811174
 31
0.0
  0
LINE
  5
5F
100
AcDbEntity
  8
0
370
    -3
390
0
  6
Continuous
100
AcDbLine
 10
248.763224
 20
-174.861174
 30
0.0
 11
247.563224
 21
-174.861174
 31
0.0
  0
LINE
  5
60
100
AcDbEntity
  8
0
370
    -3
390
0
  6
Continuous
100
AcDbLine
 10
248.763224
 20
-174.861174
 30
0.0
 11
249.323031
 21
-175.011174
 31
0.0
  0
LINE
  5
61
100
AcDbEntity
  8
0
370
    -3
390
0
  6
Continuous
100
AcDbLine
 10
246.563224
 20
-176.011174
 30
0.0
 11
244.763224
 21
-176.011174
 31
0.0
  0
LINE
  5
62
100
AcDbEntity
  8
0
370
    -3
390
0
  6
Continuous
100
AcDbLine
 10
246.763224
 20
-151.011174
 30
0.0
 11
246.763224
 21
-175.661174
 31
0.0
  0
LINE
  5
63
100
AcDbEntity
  8
0
370
    -3
390
0
  6
Continuous
100
AcDbLine
 10
246.763224
 20
-126.211174
 30
0.0
 11
246.563224
 21
-126.011174
 31
0.0
  0
ARC
  5
64
100
AcDbEntity
  8
0
370
    -3
390
0
  6
Continuous
100
AcDbCircle
 10
247.563224
 20
-126.361174
 30
0.0
 40
0.8
100
AcDbArc
 50
180.0
 51
270.0
  0
LINE
  5
65
100
AcDbEntity
  8
0
370
    -3
390
0
  6
Continuous
100
AcDbLine
 10
246.763224
 20
-126.361174
 30
0.0
 11
246.763224
 21
-126.211174
 31
0.0
  0
LINE
  5
66
100
AcDbEntity
  8
0
370
    -3
390
0
  6
Continuous
100
AcDbLine
 10
248.763224
 20
-127.161174
 30
0.0
 11
247.563224
 21
-127.161174
 31
0.0
  0
LINE
  5
67
100
AcDbEntity
  8
0
370
    -3
390
0
  6
Continuous
100
AcDbLine
 10
248.763224
 20
-127.161174
 30
0.0
 11
249.323031
 21
-127.011174
 31
0.0
  0
LINE
  5
68
100
AcDbEntity
  8
0
370
    -3
390
0
  6
Continuous
100
AcDbLine
 10
246.563224
 20
-126.011174
 30
0.0
 11
244.763224
 21
-126.011174
 31
0.0
  0
LINE
  5
69
100
AcDbEntity
  8
0
370
    -3
390
0
  6
Continuous
100
AcDbLine
 10
246.763224
 20
-151.011174
 30
0.0
 11
246.763224
 21
-126.361174
 31
0.0
  0
ARC
  5
6A
100
AcDbEntity
  8
0
370
    -3
390
0
  6
Continuous
100
AcDbCircle
 10
258.762816
 20
-151.042407
 30
0.0
 40
7.0
100
AcDbArc
 50
90.0
 51
270.0
  0
LINE
  5
6B
100
AcDbEntity
  8
0
370
    -3
390
0
  6
Continuous
100
AcDbLine
 10
75.763224
 20
-8.011174
 30
0.0
 11
75.763224
 21
-66.011174
 31
0.0
  0
LINE
  5
6C
100
AcDbEntity
  8
0
370
    -3
390
0
  6
Continuous
100
AcDbLine
 10
71.263224
 20
-8.011174
 30
0.0
 11
75.763224
 21
-8.011174
 31
0.0
  0
LINE
  5
6D
100
AcDbEntity
  8
0
370
    -3
390
0
  6
Continuous
100
AcDbLine
 10
71.263224
 20
-66.011174
 30
0.0
 11
71.263224
 21
-8.011174
 31
0.0
  0
INSERT
  5
79
100
AcDbEntity
  8
0
390
0
100
AcDbBlockReference
  2
ZU_SYM__USERS_HOME_SYMBOL_POO_SYM_B20_18
 10
71.263224
 20
-56.011174
 30
0.0
  0
LINE
  5
7A
100
AcDbEntity
  8
0
370
    -3
390
0
  6
Continuous
100
AcDbLine
 10
71.263224
 20
-66.011174
 30
0.0
 11
75.763224
 21
-66.011174
 31
0.0
  0
LINE
  5
7B
100
AcDbEntity
  8
0
370
    -3
390
0
  6
CENTER
100
AcDbLine
 10
65.532976
 20
-28.011174
 30
0.0
 11
83.632242
 21
-28.011174
 31
0.0
  0
LINE
  5
7C
100
AcDbEntity
  8
0
370
    -3
390
0
  6
Continuous
100
AcDbLine
 10
321.763224
 20
-144.042407
 30
0.0
 11
258.762816
 21
-144.042407
 31
0.0
  0
ARC
  5
7D
100
AcDbEntity
  8
0
370
    -3
390
0
  6
Continuous
100
AcDbCircle
 10
85.763224
 20
-188.011174
 30
0.0
 40
3.0
100
AcDbArc
 50
99.594068
 51
180.0
  0
ARC
  5
7E
100
AcDbEntity
  8
0
370
    -3
390
0
  6
Continuous
100
AcDbCircle
 10
84.763224
 20
-182.095095
 30
0.0
 40
3.0
100
AcDbArc
 50
279.594068
 51
0.0
  0
LINE
  5
7F
100
AcDbEntity
  8
0
370
    -3
390
0
  6
Continuous
100
AcDbLine
 10
82.763224
 20
-188.011174
 30
0.0
 11
82.763224
 21
-195.011174
 31
0.0
  0
ARC
  5
80
100
AcDbEntity
  8
0
370
    -3
390
0
  6
Continuous
100
AcDbCircle
 10
85.763224
 20
-202.011174
 30
0.0
 40
3.0
100
AcDbArc
 50
180.0
 51
260.405932
  0
ARC
  5
81
100
AcDbEntity
  8
0
370
    -3
390
0
  6
Continuous
100
AcDbCircle
 10
84.763224
 20
-207.927254
 30
0.0
 40
3.0
100
AcDbArc
 50
0.0
 51
80.405932
  0
LINE
  5
82
100
AcDbEntity
  8
0
370
    -3
390
0
  6
Continuous
100
AcDbLine
 10
82.763224
 20
-202.011174
 30
0.0
 11
82.763224
 21
-195.011174
 31
0.0
  0
LINE
  5
83
100
AcDbEntity
  8
0
370
    -3
390
0
  6
Continuous
100
AcDbLine
 10
87.763224
 20
-191.011174
 30
0.0
 11
87.763224
 21
-286.438071
 31
0.0
  0
LINE
  5
84
100
AcDbEntity
  8
0
370
    -3
390
0
  6
Continuous
100
AcDbLine
 10
87.763224
 20
-191.011174
 30
0.0
 11
87.763224
 21
-48.011174
 31
0.0
  0
ARC
  5
85
100
AcDbEntity
  8
0
370
    -3
390
0
  6
Continuous
100
AcDbCircle
 10
82.763224
 20
-70.327264
 30
0.0
 40
5.0
100
AcDbArc
 50
273.0
 51
0.0
  0
ARC
  5
86
100
AcDbEntity
  8
0
370
    -3
390
0
  6
Continuous
100
AcDbCircle
 10
89.763224
 20
-48.011174
 30
0.0
 40
2.0
100
AcDbArc
 50
90.0
 51
180.0
  0
LINE
  5
87
100
AcDbEntity
  8
0
370
    -3
390
0
  6
Continuous
100
AcDbLine
 10
83.024903
 20
-75.320411
 30
0.0
 11
50.763224
 21
-77.011174
 31
0.0
  0
LINE
  5
88
100
AcDbEntity
  8
0
370
    -3
390
0
  6
Continuous
100
AcDbLine
 10
50.763224
 20
-298.070788
 30
0.0
 11
50.763224
 21
-191.011174
 31
0.0
  0
LINE
  5
89
100
AcDbEntity
  8
0
370
    -3
390
0
  6
Continuous
100
AcDbLine
 10
50.763224
 20
-77.011174
 30
0.0
 11
50.763224
 21
-191.011174
 31
0.0
  0
LINE
  5
8A
100
AcDbEntity
  8
0
370
    -3
390
0
  6
Continuous
100
AcDbLine
 10
98.763224
 20
-191.011174
 30
0.0
 11
98.763224
 21
-269.565195
 31
0.0
  0
LINE
  5
8B
100
AcDbEntity
  8
0
370
    -3
390
0
  6
Continuous
100
AcDbLine
 10
98.763224
 20
-191.011174
 30
0.0
 11
98.763224
 21
-46.011174
 31
0.0
  0
LINE
  5
8C
100
AcDbEntity
  8
0
370
    -3
390
0
  6
Continuous
100
AcDbLine
 10
48.763224
 20
-286.011174
 30
0.0
 11
48.763224
 21
-191.011174
 31
0.0
  0
LINE
  5
8D
100
AcDbEntity
  8
0
370
    -3
390
0
  6
Continuous
100
AcDbLine
 10
48.763224
 20
-96.011174
 30
0.0
 11
48.763224
 21
-191.011174
 31
0.0
  0
LINE
  5
8E
100
AcDbEntity
  8
0
370
    -3
390
0
  6
Continuous
100
AcDbLine
 10
77.763224
 20
-46.011174
 30
0.0
 11
99.263224
 21
-46.011174
 31
0.0
  0
LINE
  5
8F
100
AcDbEntity
  8
0
370
    -3
390
0
  6
Continuous
100
AcDbLine
 10
75.763224
 20
-72.854086
 30
0.0
 11
75.763224
 21
-48.011174
 31
0.0
  0
ARC
  5
90
100
AcDbEntity
  8
0
370
    -3
390
0
  6
Continuous
100
AcDbCircle
 10
48.763224
 20
-288.011174
 30
0.0
 40
2.0
100
AcDbArc
 50
0.0
 51
90.0
  0
ARC
  5
91
100
AcDbEntity
  8
0
370
    -3
390
0
  6
Continuous
100
AcDbCircle
 10
48.763224
 20
-94.011174
 30
0.0
 40
2.0
100
AcDbArc
 50
270.0
 51
0.0
  0
ARC
  5
92
100
AcDbEntity
  8
0
370
    -3
390
0
  6
Continuous
100
AcDbCircle
 10
72.763224
 20
-72.854086
 30
0.0
 40
3.0
100
AcDbArc
 50
273.0
 51
0.0
  0
ARC
  5
93
100
AcDbEntity
  8
0
370
    -3
390
0
  6
Continuous
100
AcDbCircle
 10
77.763224
 20
-48.011174
 30
0.0
 40
2.0
100
AcDbArc
 50
90.0
 51
180.0
  0
INSERT
  5
9F
100
AcDbEntity
  8
0
390
0
100
AcDbBlockReference
  2
ZU_SYM__USERS_HOME_SYMBOL_POO_SYM_B20_0000118
 10
87.763224
 20
-219.011174
 30
0.0
  0
INSERT
  5
AB
100
AcDbEntity
  8
0
390
0
100
AcDbBlockReference
  2
ZU_SYM__USERS_HOME_SYMBOL_POO_SYM_B20_0000218
 10
87.763224
 20
-129.011175
 30
0.0
  0
INSERT
  5
B7
100
AcDbEntity
  8
0
390
0
100
AcDbBlockReference
  2
ZU_SYM__USERS_HOME_SYMBOL_POO_SYM_B20_0000318
 10
87.763224
 20
-60.011175
 30
0.0
  0
LINE
  5
B8
100
AcDbEntity
  8
0
370
    -3
390
0
  6
Continuous
100
AcDbLine
 10
48.763224
 20
-298.227519
 30
0.0
 11
48.763224
 21
-77.011174
 31
0.0
  0
LINE
  5
B9
100
AcDbEntity
  8
0
370
    -3
390
0
  6
CENTER
100
AcDbLine
 10
72.652853
 20
-191.011174
 30
0.0
 11
-337.539853
 21
-191.011174
 31
0.0
  0
ARC
  5
BA
100
AcDbEntity
  8
0
370
    -3
390
0
  6
Continuous
100
AcDbCircle
 10
-320.036776
 20
-285.579044
 30
0.0
 40
6.2
100
AcDbArc
 50
180.0
 51
240.0
  0
ARC
  5
BB
100
AcDbEntity
  8
0
370
    -3
390
0
  6
Continuous
100
AcDbCircle
 10
-276.838286
 20
-247.011174
 30
0.0
 40
61.2
100
AcDbArc
 50
240.0
 51
270.0
  0
LINE
  5
BC
100
AcDbEntity
  8
0
370
    -3
390
0
  6
Continuous
100
AcDbLine
 10
-156.236776
 20
-308.211174
 30
0.0
 11
-276.838286
 21
-308.211174
 31
0.0
  0
LINE
  5
BD
100
AcDbEntity
  8
0
370
    -3
390
0
  6
Continuous
100
AcDbLine
 10
-207.217297
 20
-191.011174
 30
0.0
 11
-207.217299
 21
-191.011174
 31
0.0
  0
LINE
  5
BE
100
AcDbEntity
  8
0
370
    -3
390
0
  6
Continuous
100
AcDbLine
 10
-207.217297
 20
-191.011174
 30
0.0
 11
-207.217299
 21
-191.011174
 31
0.0
  0
LINE
  5
BF
100
AcDbEntity
  8
0
370
    -3
390
0
  6
Continuous
100
AcDbLine
 10
-323.136776
 20
-290.948401
 30
0.0
 11
-307.438286
 21
-300.011929
 31
0.0
  0
LINE
  5
C0
100
AcDbEntity
  8
0
370
    -3
390
0
  6
Continuous
100
AcDbLine
 10
-326.236776
 20
-285.579044
 30
0.0
 11
-326.236776
 21
-191.011174
 31
0.0
  0
LINE
  5
C1
100
AcDbEntity
  8
0
370
    -3
390
0
  6
Continuous
100
AcDbLine
 10
-156.236776
 20
-252.017286
 30
0.0
 11
-156.236776
 21
-308.211174
 31
0.0
  0
ARC
  5
C2
100
AcDbEntity
  8
0
370
    -3
390
0
  6
Continuous
100
AcDbCircle
 10
-320.036776
 20
-96.443305
 30
0.0
 40
6.2
100
AcDbArc
 50
120.0
 51
180.0
  0
ARC
  5
C3
100
AcDbEntity
  8
0
370
    -3
390
0
  6
Continuous
100
AcDbCircle
 10
-276.838286
 20
-135.011174
 30
0.0
 40
61.2
100
AcDbArc
 50
90.0
 51
120.0
  0
LINE
  5
C4
100
AcDbEntity
  8
0
370
    -3
390
0
  6
Continuous
100
AcDbLine
 10
-156.236776
 20
-73.811174
 30
0.0
 11
-276.838286
 21
-73.811174
 31
0.0
  0
LINE
  5
C5
100
AcDbEntity
  8
0
370
    -3
390
0
  6
Continuous
100
AcDbLine
 10
-323.136776
 20
-91.073947
 30
0.0
 11
-307.438286
 21
-82.01042
 31
0.0
  0
LINE
  5
C6
100
AcDbEntity
  8
0
370
    -3
390
0
  6
Continuous
100
AcDbLine
 10
-326.236776
 20
-96.443305
 30
0.0
 11
-326.236776
 21
-191.011174
 31
0.0
  0
LINE
  5
C7
100
AcDbEntity
  8
0
370
    -3
390
0
  6
Continuous
100
AcDbLine
 10
-156.236776
 20
-148.414567
 30
0.0
 11
-156.236776
 21
-73.811174
 31
0.0
  0
LINE
  5
C8
100
AcDbEntity
  8
0
370
    -3
390
0
  6
Continuous
100
AcDbLine
 10
-156.236776
 20
-129.540006
 30
0.0
 11
48.763224
 21
-129.540006
 31
0.0
  0
LINE
  5
C9
100
AcDbEntity
  8
0
370
    -3
390
0
  6
Continuous
100
AcDbLine
 10
-156.236776
 20
-132.494487
 30
0.0
 11
48.763224
 21
-132.494487
 31
0.0
  0
LINE
  5
CA
100
AcDbEntity
  8
0
370
    -3
390
0
  6
Continuous
100
AcDbLine
 10
-156.236776
 20
-141.523123
 30
0.0
 11
48.763224
 21
-141.523123
 31
0.0
  0
LINE
  5
CB
100
AcDbEntity
  8
0
370
    -3
390
0
  6
Continuous
100
AcDbLine
 10
-156.236776
 20
-144.438681
 30
0.0
 11
48.763224
 21
-144.438681
 31
0.0
  0
LINE
  5
CC
100
AcDbEntity
  8
0
370
    -3
390
0
  6
Continuous
100
AcDbLine
 10
-96.39223
 20
-153.69246
 30
0.0
 11
48.763224
 21
-153.69246
 31
0.0
  0
LINE
  5
CD
100
AcDbEntity
  8
0
370
    -3
390
0
  6
Continuous
100
AcDbLine
 10
-95.237662
 20
-156.297487
 30
0.0
 11
48.763224
 21
-156.297487
 31
0.0
  0
LINE
  5
CE
100
AcDbEntity
  8
0
370
    -3
390
0
  6
Continuous
100
AcDbLine
 10
-94.786776
 20
-167.011174
 30
0.0
 11
48.763224
 21
-167.011174
 31
0.0
  0
LINE
  5
CF
100
AcDbEntity
  8
0
370
    -3
390
0
  6
Continuous
100
AcDbLine
 10
-156.236776
 20
-268.927204
 30
0.0
 11
48.763224
 21
-268.927204
 31
0.0
  0
LINE
  5
D0
100
AcDbEntity
  8
0
370
    -3
390
0
  6
Continuous
100
AcDbLine
 10
-156.236776
 20
-252.482342
 30
0.0
 11
48.763224
 21
-252.482342
 31
0.0
  0
LINE
  5
D1
100
AcDbEntity
  8
0
370
    -3
390
0
  6
Continuous
100
AcDbLine
 10
-94.786776
 20
-215.011174
 30
0.0
 11
48.763224
 21
-215.011174
 31
0.0
  0
LINE
  5
D2
100
AcDbEntity
  8
0
370
    -3
390
0
  6
Continuous
100
AcDbLine
 10
-94.786776
 20
-228.329889
 30
0.0
 11
48.763224
 21
-228.329889
 31
0.0
  0
LINE
  5
D3
100
AcDbEntity
  8
0
370
    -3
390
0
  6
Continuous
100
AcDbLine
 10
-94.786776
 20
-225.724862
 30
0.0
 11
48.763224
 21
-225.724862
 31
0.0
  0
LINE
  5
D4
100
AcDbEntity
  8
0
370
    -3
390
0
  6
Continuous
100
AcDbLine
 10
-94.786776
 20
-237.583668
 30
0.0
 11
48.763224
 21
-237.583668
 31
0.0
  0
LINE
  5
D5
100
AcDbEntity
  8
0
370
    -3
390
0
  6
Continuous
100
AcDbLine
 10
-98.817551
 20
-249.527862
 30
0.0
 11
48.763224
 21
-249.527862
 31
0.0
  0
LINE
  5
D6
100
AcDbEntity
  8
0
370
    -3
390
0
  6
Continuous
100
AcDbLine
 10
-94.786776
 20
-240.499225
 30
0.0
 11
48.763224
 21
-240.499225
 31
0.0
  0
LINE
  5
D7
100
AcDbEntity
  8
0
370
    -3
390
0
  6
Continuous
100
AcDbLine
 10
-156.236776
 20
-77.011174
 30
0.0
 11
48.763224
 21
-77.011174
 31
0.0
  0
LINE
  5
D8
100
AcDbEntity
  8
0
370
    -3
390
0
  6
Continuous
100
AcDbLine
 10
-156.236776
 20
-82.011174
 30
0.0
 11
48.763224
 21
-82.011174
 31
0.0
  0
LINE
  5
D9
100
AcDbEntity
  8
0
370
    -3
390
0
  6
Continuous
100
AcDbLine
 10
-156.236776
 20
-81.011174
 30
0.0
 11
48.763224
 21
-81.011174
 31
0.0
  0
LINE
  5
DA
100
AcDbEntity
  8
0
370
    -3
390
0
  6
Continuous
100
AcDbLine
 10
-156.236776
 20
-85.511174
 30
0.0
 11
48.763224
 21
-85.511174
 31
0.0
  0
LINE
  5
DB
100
AcDbEntity
  8
0
370
    -3
390
0
  6
Continuous
100
AcDbLine
 10
-156.236776
 20
-91.011174
 30
0.0
 11
48.763224
 21
-91.011174
 31
0.0
  0
LINE
  5
DC
100
AcDbEntity
  8
0
370
    -3
390
0
  6
Continuous
100
AcDbLine
 10
-156.236776
 20
-103.902757
 30
0.0
 11
48.763224
 21
-103.902757
 31
0.0
  0
LINE
  5
DD
100
AcDbEntity
  8
0
370
    -3
390
0
  6
Continuous
100
AcDbLine
 10
-156.236776
 20
-113.095145
 30
0.0
 11
48.763224
 21
-113.095145
 31
0.0
  0
LINE
  5
DE
100
AcDbEntity
  8
0
370
    -3
390
0
  6
Continuous
100
AcDbLine
 10
-196.236776
 20
-99.158002
 30
0.0
 11
-194.236776
 21
-97.86247
 31
0.0
  0
LINE
  5
DF
100
AcDbEntity
  8
0
370
    -3
390
0
  6
Continuous
100
AcDbLine
 10
-196.236776
 20
-99.158002
 30
0.0
 11
-194.236776
 21
-100.690897
 31
0.0
  0
LINE
  5
E0
100
AcDbEntity
  8
0
370
    -3
390
0
  6
Continuous
100
AcDbLine
 10
-196.236776
 20
-99.158002
 30
0.0
 11
-198.236776
 21
-100.690897
 31
0.0
  0
LINE
  5
E1
100
AcDbEntity
  8
0
370
    -3
390
0
  6
Continuous
100
AcDbLine
 10
-196.236776
 20
-99.158002
 30
0.0
 11
-198.236776
 21
-97.86247
 31
0.0
  0
ELLIPSE
  5
E2
100
AcDbEntity
  8
0
370
    -3
390
0
  6
Continuous
100
AcDbEllipse
 10
-196.236776
 20
-102.160695
 30
0.0
 11
6.0
 21
0.0
 31
0.0
210
0.0
220
0.0
230
1.0
 40
0.689848
 41
3.1415926535897931
 42
0.0
  0
ELLIPSE
  5
E3
100
AcDbEntity
  8
0
370
    -3
390
0
  6
Continuous
100
AcDbEllipse
 10
-196.236776
 20
-102.160695
 30
0.0
 11
6.0
 21
0.0
 31
0.0
210
0.0
220
0.0
230
1.0
 40
0.689848
 41
0.0
 42
0.8313376885249334
  0
ELLIPSE
  5
E4
100
AcDbEntity
  8
0
370
    -3
390
0
  6
Continuous
100
AcDbEllipse
 10
-196.236776
 20
-100.801943
 30
0.0
 11
4.5
 21
0.0
 31
0.0
210
0.0
220
0.0
230
1.0
 40
0.860332
 41
0.0
 42
6.2831853071795862
  0
ELLIPSE
  5
E5
100
AcDbEntity
  8
0
370
    -3
390
0
  6
Continuous
100
AcDbEllipse
 10
-196.236776
 20
-101.774298
 30
0.0
 11
5.0
 21
0.0
 31
0.0
210
0.0
220
0.0
230
1.0
 40
0.763675
 41
3.1415926535897931
 42
0.0
  0
ELLIPSE
  5
E6
100
AcDbEntity
  8
0
370
    -3
390
0
  6
Continuous
100
AcDbEllipse
 10
-196.236776
 20
-101.491456
 30
0.0
 11
5.0
 21
0.0
 31
0.0
210
0.0
220
0.0
230
1.0
 40
0.707107
 41
2.6124407455910408
 42
0.5291519079987521
  0
LINE
  5
E7
100
AcDbEntity
  8
0
370
    -3
390
0
  6
Continuous
100
AcDbLine
 10
-191.236776
 20
-101.774298
 30
0.0
 11
-191.236776
 21
-101.491456
 31
0.0
  0
LINE
  5
E8
100
AcDbEntity
  8
0
370
    -3
390
0
  6
Continuous
100
AcDbLine
 10
-201.236776
 20
-101.774298
 30
0.0
 11
-201.236776
 21
-101.491456
 31
0.0
  0
ELLIPSE
  5
E9
100
AcDbEntity
  8
0
370
    -3
390
0
  6
Continuous
100
AcDbEllipse
 10
-196.236776
 20
-103.446792
 30
0.0
 11
6.0
 21
0.0
 31
0.0
210
0.0
220
0.0
230
1.0
 40
0.707107
 41
3.1415926535897931
 42
0.0
  0
ELLIPSE
  5
EA
100
AcDbEntity
  8
0
370
    -3
390
0
  6
Continuous
100
AcDbEllipse
 10
-196.236776
 20
-102.160695
 30
0.0
 11
6.0
 21
0.0
 31
0.0
210
0.0
220
0.0
230
1.0
 40
0.689848
 41
2.3102549650648596
 42
3.1415926535897931
  0
LINE
  5
EB
100
AcDbEntity
  8
0
370
    -3
390
0
  6
Continuous
100
AcDbLine
 10
-190.236776
 20
-103.446792
 30
0.0
 11
-190.236776
 21
-102.160695
 31
0.0
  0
LINE
  5
EC
100
AcDbEntity
  8
0
370
    -3
390
0
  6
Continuous
100
AcDbLine
 10
-202.236776
 20
-103.446792
 30
0.0
 11
-202.236776
 21
-102.160695
 31
0.0
  0
LINE
  5
ED
100
AcDbEntity
  8
0
370
    -3
390
0
  6
Continuous
100
AcDbLine
 10
-156.236776
 20
-305.011174
 30
0.0
 11
38.763224
 21
-305.011174
 31
0.0
  0
LINE
  5
EE
100
AcDbEntity
  8
0
370
    -3
390
0
  6
Continuous
100
AcDbLine
 10
-156.236776
 20
-300.011174
 30
0.0
 11
39.810857
 21
-300.011174
 31
0.0
  0
LINE
  5
EF
100
AcDbEntity
  8
0
370
    -3
390
0
  6
Continuous
100
AcDbLine
 10
-156.236776
 20
-301.011174
 30
0.0
 11
39.141888
 21
-301.011174
 31
0.0
  0
LINE
  5
F0
100
AcDbEntity
  8
0
370
    -3
390
0
  6
Continuous
100
AcDbLine
 10
-156.236776
 20
-296.511174
 30
0.0
 11
48.763224
 21
-296.511174
 31
0.0
  0
LINE
  5
F1
100
AcDbEntity
  8
0
370
    -3
390
0
  6
Continuous
100
AcDbLine
 10
-156.236776
 20
-291.011174
 30
0.0
 11
48.763224
 21
-291.011174
 31
0.0
  0
LINE
  5
F2
100
AcDbEntity
  8
0
370
    -3
390
0
  6
Continuous
100
AcDbLine
 10
-156.236776
 20
-278.119592
 30
0.0
 11
48.763224
 21
-278.119592
 31
0.0
  0
LINE
  5
F3
100
AcDbEntity
  8
0
370
    -3
390
0
  6
Continuous
100
AcDbLine
 10
-196.236776
 20
-282.864346
 30
0.0
 11
-194.236776
 21
-284.159879
 31
0.0
  0
LINE
  5
F4
100
AcDbEntity
  8
0
370
    -3
390
0
  6
Continuous
100
AcDbLine
 10
-196.236776
 20
-282.864346
 30
0.0
 11
-194.236776
 21
-281.331451
 31
0.0
  0
LINE
  5
F5
100
AcDbEntity
  8
0
370
    -3
390
0
  6
Continuous
100
AcDbLine
 10
-196.236776
 20
-282.864346
 30
0.0
 11
-198.236776
 21
-281.331451
 31
0.0
  0
LINE
  5
F6
100
AcDbEntity
  8
0
370
    -3
390
0
  6
Continuous
100
AcDbLine
 10
-196.236776
 20
-282.864346
 30
0.0
 11
-198.236776
 21
-284.159879
 31
0.0
  0
ELLIPSE
  5
F7
100
AcDbEntity
  8
0
370
    -3
390
0
  6
Continuous
100
AcDbEllipse
 10
-196.236776
 20
-279.861654
 30
0.0
 11
6.0
 21
0.0
 31
0.0
210
0.0
220
0.0
230
1.0
 40
0.689848
 41
0.0
 42
3.1415926535897931
  0
ELLIPSE
  5
F8
100
AcDbEntity
  8
0
370
    -3
390
0
  6
Continuous
100
AcDbEllipse
 10
-196.236776
 20
-279.861654
 30
0.0
 11
6.0
 21
0.0
 31
0.0
210
0.0
220
0.0
230
1.0
 40
0.689848
 41
5.4518476186546492
 42
0.0
  0
ELLIPSE
  5
F9
100
AcDbEntity
  8
0
370
    -3
390
0
  6
Continuous
100
AcDbEllipse
 10
-196.236776
 20
-281.220405
 30
0.0
 11
4.5
 21
0.0
 31
0.0
210
0.0
220
0.0
230
1.0
 40
0.860332
 41
0.0
 42
6.2831853071795862
  0
ELLIPSE
  5
FA
100
AcDbEntity
  8
0
370
    -3
390
0
  6
Continuous
100
AcDbEllipse
 10
-196.236776
 20
-280.24805
 30
0.0
 11
5.0
 21
0.0
 31
0.0
210
0.0
220
0.0
230
1.0
 40
0.763675
 41
0.0
 42
3.1415926535897931
  0
ELLIPSE
  5
FB
100
AcDbEntity
  8
0
370
    -3
390
0
  6
Continuous
100
AcDbEllipse
 10
-196.236776
 20
-280.530893
 30
0.0
 11
5.0
 21
0.0
 31
0.0
210
0.0
220
0.0
230
1.0
 40
0.707107
 41
5.7540333991808303
 42
3.670744561588549
  0
LINE
  5
FC
100
AcDbEntity
  8
0
370
    -3
390
0
  6
Continuous
100
AcDbLine
 10
-191.236776
 20
-280.24805
 30
0.0
 11
-191.236776
 21
-280.530893
 31
0.0
  0
LINE
  5
FD
100
AcDbEntity
  8
0
370
    -3
390
0
  6
Continuous
100
AcDbLine
 10
-201.236776
 20
-280.24805
 30
0.0
 11
-201.236776
 21
-280.530893
 31
0.0
  0
ELLIPSE
  5
FE
100
AcDbEntity
  8
0
370
    -3
390
0
  6
Continuous
100
AcDbEllipse
 10
-196.236776
 20
-278.575557
 30
0.0
 11
6.0
 21
0.0
 31
0.0
210
0.0
220
0.0
230
1.0
 40
0.707107
 41
0.0
 42
3.1415926535897931
  0
ELLIPSE
  5
FF
100
AcDbEntity
  8
0
370
    -3
390
0
  6
Continuous
100
AcDbEllipse
 10
-196.236776
 20
-279.861654
 30
0.0
 11
6.0
 21
0.0
 31
0.0
210
0.0
220
0.0
230
1.0
 40
0.689848
 41
3.1415926535897931
 42
3.9729303421147302
  0
LINE
  5
100
100
AcDbEntity
  8
0
370
    -3
390
0
  6
Continuous
100
AcDbLine
 10
-190.236776
 20
-278.575557
 30
0.0
 11
-190.236776
 21
-279.861654
 31
0.0
  0
LINE
  5
101
100
AcDbEntity
  8
0
370
    -3
390
0
  6
Continuous
100
AcDbLine
 10
-202.236776
 20
-278.575557
 30
0.0
 11
-202.236776
 21
-279.861654
 31
0.0
  0
ARC
  5
102
100
AcDbEntity
  8
0
370
    -3
390
0
  6
Continuous
100
AcDbCircle
 10
-106.186776
 20
-235.587129
 30
0.0
 40
5.0
100
AcDbArc
 50
270.0
 51
0.0
  0
ARC
  5
103
100
AcDbEntity
  8
0
370
    -3
390
0
  6
Continuous
100
AcDbCircle
 10
-105.786776
 20
-239.797076
 30
0.0
 40
11.0
100
AcDbArc
 50
270.0
 51
0.0
  0
ARC
  5
104
100
AcDbEntity
  8
0
370
    -3
390
0
  6
Continuous
100
AcDbCircle
 10
-105.786776
 20
-241.017286
 30
0.0
 40
11.0
100
AcDbArc
 50
270.0
 51
0.0
  0
LINE
  5
105
100
AcDbEntity
  8
0
370
    -3
390
0
  6
Continuous
100
AcDbLine
 10
-105.786776
 20
-250.797076
 30
0.0
 11
-141.236776
 21
-250.797076
 31
0.0
  0
LINE
  5
106
100
AcDbEntity
  8
0
370
    -3
390
0
  6
Continuous
100
AcDbLine
 10
-105.786776
 20
-252.017286
 30
0.0
 11
-141.236776
 21
-252.017286
 31
0.0
  0
LINE
  5
107
100
AcDbEntity
  8
0
370
    -3
390
0
  6
Continuous
100
AcDbLine
 10
-94.786776
 20
-159.414567
 30
0.0
 11
-94.786776
 21
-241.017286
 31
0.0
  0
LINE
  5
108
100
AcDbEntity
  8
0
370
    -3
390
0
  6
Continuous
100
AcDbLine
 10
-101.186776
 20
-159.509385
 30
0.0
 11
-101.186776
 21
-235.587129
 31
0.0
  0
LINE
  5
109
100
AcDbEntity
  8
0
370
    -3
390
0
  6
Continuous
100
AcDbLine
 10
-141.236776
 20
-154.509385
 30
0.0
 11
-106.186776
 21
-154.509385
 31
0.0
  0
ARC
  5
10A
100
AcDbEntity
  8
0
370
    -3
390
0
  6
Continuous
100
AcDbCircle
 10
-106.186776
 20
-159.509385
 30
0.0
 40
5.0
100
AcDbArc
 50
0.0
 51
90.0
  0
ARC
  5
10B
100
AcDbEntity
  8
0
370
    -3
390
0
  6
Continuous
100
AcDbCircle
 10
-106.186776
 20
-166.011174
 30
0.0
 40
5.0
100
AcDbArc
 50
0.0
 51
90.0
  0
ARC
  5
10C
100
AcDbEntity
  8
0
370
    -3
390
0
  6
Continuous
100
AcDbCircle
 10
-105.786776
 20
-159.414567
 30
0.0
 40
11.0
100
AcDbArc
 50
0.0
 51
90.0
  0
LINE
  5
10D
100
AcDbEntity
  8
0
370
    -3
390
0
  6
Continuous
100
AcDbLine
 10
-105.786776
 20
-148.414567
 30
0.0
 11
-141.236776
 21
-148.414567
 31
0.0
  0
POINT
  5
10E
100
AcDbEntity
  8
0
370
    -3
390
0
  6
CENTER
100
AcDbPoint
 10
-154.736776
 20
-250.797076
 30
0.0
  0
POINT
  5
10F
100
AcDbEntity
  8
0
370
    -3
390
0
  6
CENTER
100
AcDbPoint
 10
-127.736776
 20
-250.797076
 30
0.0
  0
LINE
  5
110
100
AcDbEntity
  8
0
370
    -3
390
0
  6
CENTER
100
AcDbLine
 10
-141.236776
 20
-145.511574
 30
0.0
 11
-141.236776
 21
-258.165294
 31
0.0
  0
LINE
  5
111
100
AcDbEntity
  8
0
370
    -3
390
0
  6
Continuous
100
AcDbLine
 10
-132.749302
 20
-240.587129
 30
0.0
 11
-106.186776
 21
-240.587129
 31
0.0
  0
ARC
  5
112
100
AcDbEntity
  8
0
370
    -3
390
0
  6
Continuous
100
AcDbCircle
 10
-150.496995
 20
-236.587129
 30
0.0
 40
4.0
100
AcDbArc
 50
270.0
 51
318.821566
  0
ELLIPSE
  5
113
100
AcDbEntity
  8
0
370
    -3
390
0
  6
Continuous
100
AcDbEllipse
 10
-141.236776
 20
-243.783263
 30
0.0
 11
8.0
 21
0.0
 31
0.0
210
0.0
220
0.0
230
1.0
 40
0.913545
 41
1.5707963267948966
 42
2.4673754548869451
  0
ARC
  5
114
100
AcDbEntity
  8
0
370
    -3
390
0
  6
Continuous
100
AcDbCircle
 10
-149.724251
 20
-236.587129
 30
0.0
 40
4.0
100
AcDbArc
 50
270.0
 51
313.301579
  0
ELLIPSE
  5
115
100
AcDbEntity
  8
0
370
    -3
390
0
  6
Continuous
100
AcDbEllipse
 10
-141.236776
 20
-244.584967
 30
0.0
 11
8.0
 21
0.0
 31
0.0
210
0.0
220
0.0
230
1.0
 40
0.913545
 41
1.5707963267948966
 42
2.3717426386695215
  0
LINE
  5
116
100
AcDbEntity
  8
0
370
    -3
390
0
  6
Continuous
100
AcDbLine
 10
-139.236776
 20
-245.446073
 30
0.0
 11
-143.236776
 21
-241.791891
 31
0.0
  0
LINE
  5
117
100
AcDbEntity
  8
0
370
    -3
390
0
  6
Continuous
100
AcDbLine
 10
-143.236776
 20
-245.446073
 30
0.0
 11
-139.236776
 21
-241.791891
 31
0.0
  0
ELLIPSE
  5
118
100
AcDbEntity
  8
0
370
    -3
390
0
  6
Continuous
100
AcDbEllipse
 10
-141.236776
 20
-244.329669
 30
0.0
 11
3.5
 21
0.0
 31
0.0
210
0.0
220
0.0
230
1.0
 40
0.986488
 41
0.0
 42
6.2831853071795862
  0
ELLIPSE
  5
119
100
AcDbEntity
  8
0
370
    -3
390
0
  6
Continuous
100
AcDbEllipse
 10
-141.236776
 20
-244.584967
 30
0.0
 11
8.0
 21
0.0
 31
0.0
210
0.0
220
0.0
230
1.0
 40
0.913545
 41
0.7698500149202718
 42
1.5707963267948966
  0
ARC
  5
11A
100
AcDbEntity
  8
0
370
    -3
390
0
  6
Continuous
100
AcDbCircle
 10
-132.749302
 20
-236.587129
 30
0.0
 40
4.0
100
AcDbArc
 50
226.698421
 51
270.0
  0
ELLIPSE
  5
11B
100
AcDbEntity
  8
0
370
    -3
390
0
  6
Continuous
100
AcDbEllipse
 10
-141.236776
 20
-243.783263
 30
0.0
 11
8.0
 21
0.0
 31
0.0
210
0.0
220
0.0
230
1.0
 40
0.913545
 41
0.6742171987028656
 42
1.5707963267948966
  0
ARC
  5
11C
100
AcDbEntity
  8
0
370
    -3
390
0
  6
Continuous
100
AcDbCircle
 10
-131.976558
 20
-236.587129
 30
0.0
 40
4.0
100
AcDbArc
 50
221.178434
 51
270.0
  0
ARC
  5
11D
100
AcDbEntity
  8
0
370
    -3
390
0
  6
Continuous
100
AcDbCircle
 10
-176.286776
 20
-235.587129
 30
0.0
 40
5.0
100
AcDbArc
 50
180.0
 51
270.0
  0
LINE
  5
11E
100
AcDbEntity
  8
0
370
    -3
390
0
  6
Continuous
100
AcDbLine
 10
-149.724251
 20
-240.587129
 30
0.0
 11
-176.286776
 21
-240.587129
 31
0.0
  0
ARC
  5
11F
100
AcDbEntity
  8
0
370
    -3
390
0
  6
Continuous
100
AcDbCircle
 10
-176.686776
 20
-241.017286
 30
0.0
 40
11.0
100
AcDbArc
 50
180.0
 51
270.0
  0
ARC
  5
120
100
AcDbEntity
  8
0
370
    -3
390
0
  6
Continuous
100
AcDbCircle
 10
-176.686776
 20
-239.797076
 30
0.0
 40
11.0
100
AcDbArc
 50
180.0
 51
270.0
  0
LINE
  5
121
100
AcDbEntity
  8
0
370
    -3
390
0
  6
Continuous
100
AcDbLine
 10
-176.686776
 20
-250.797076
 30
0.0
 11
-141.236776
 21
-250.797076
 31
0.0
  0
LINE
  5
122
100
AcDbEntity
  8
0
370
    -3
390
0
  6
Continuous
100
AcDbLine
 10
-176.686776
 20
-252.017286
 30
0.0
 11
-141.236776
 21
-252.017286
 31
0.0
  0
LINE
  5
123
100
AcDbEntity
  8
0
370
    -3
390
0
  6
Continuous
100
AcDbLine
 10
-176.286776
 20
-161.011174
 30
0.0
 11
-106.186776
 21
-161.011174
 31
0.0
  0
LINE
  5
124
100
AcDbEntity
  8
0
370
    -3
390
0
  6
Continuous
100
AcDbLine
 10
-187.686776
 20
-159.414567
 30
0.0
 11
-187.686776
 21
-241.017286
 31
0.0
  0
LINE
  5
125
100
AcDbEntity
  8
0
370
    -3
390
0
  6
Continuous
100
AcDbLine
 10
-181.286776
 20
-159.509385
 30
0.0
 11
-181.286776
 21
-235.587129
 31
0.0
  0
ARC
  5
126
100
AcDbEntity
  8
0
370
    -3
390
0
  6
Continuous
100
AcDbCircle
 10
-176.286776
 20
-159.509385
 30
0.0
 40
5.0
100
AcDbArc
 50
90.0
 51
180.0
  0
LINE
  5
127
100
AcDbEntity
  8
0
370
    -3
390
0
  6
Continuous
100
AcDbLine
 10
-141.236776
 20
-154.509385
 30
0.0
 11
-176.286776
 21
-154.509385
 31
0.0
  0
ARC
  5
128
100
AcDbEntity
  8
0
370
    -3
390
0
  6
Continuous
100
AcDbCircle
 10
-176.686776
 20
-159.414567
 30
0.0
 40
11.0
100
AcDbArc
 50
90.0
 51
180.0
  0
LINE
  5
129
100
AcDbEntity
  8
0
370
    -3
390
0
  6
Continuous
100
AcDbLine
 10
-176.686776
 20
-148.414567
 30
0.0
 11
-141.236776
 21
-148.414567
 31
0.0
  0
ARC
  5
12A
100
AcDbEntity
  8
0
370
    -3
390
0
  6
Continuous
100
AcDbCircle
 10
-176.286776
 20
-166.011174
 30
0.0
 40
5.0
100
AcDbArc
 50
90.0
 51
180.0
  0
CIRCLE
  5
12B
100
AcDbEntity
  8
0
370
    -3
390
0
  6
Continuous
100
AcDbCircle
 10
547.16295
 20
-151.011174
 30
0.0
 40
34.0
  0
CIRCLE
  5
12C
100
AcDbEntity
  8
0
370
    -3
390
0
  6
Continuous
100
AcDbCircle
 10
547.16295
 20
-151.011174
 30
0.0
 40
44.0
  0
ARC
  5
12D
100
AcDbEntity
  8
0
370
    -3
390
0
  6
Continuous
100
AcDbCircle
 10
522.16295
 20
-156.649345
 30
0.0
 40
110.0
100
AcDbArc
 50
92.924524
 51
180.0
  0
ARC
  5
12E
100
AcDbEntity
  8
0
370
    -3
390
0
  6
Continuous
100
AcDbCircle
 10
547.16295
 20
-646.011174
 30
0.0
 40
600.0
100
AcDbArc
 50
90.0
 51
92.924524
  0
ARC
  5
12F
100
AcDbEntity
  8
0
370
    -3
390
0
  6
Continuous
100
AcDbCircle
 10
547.16295
 20
-646.011174
 30
0.0
 40
557.32699
100
AcDbArc
 50
90.0
 51
92.924524
  0
LINE
  5
130
100
AcDbEntity
  8
0
370
    -3
390
0
  6
Continuous
100
AcDbLine
 10
412.16295
 20
-156.649345
 30
0.0
 11
412.16295
 21
-296.011174
 31
0.0
  0
ARC
  5
131
100
AcDbEntity
  8
0
370
    -3
390
0
  6
Continuous
100
AcDbCircle
 10
547.16295
 20
-646.011174
 30
0.0
 40
557.32699
100
AcDbArc
 50
87.075476
 51
90.0
  0
ARC
  5
132
100
AcDbEntity
  8
0
370
    -3
390
0
  6
Continuous
100
AcDbCircle
 10
572.16295
 20
-156.649345
 30
0.0
 40
110.0
100
AcDbArc
 50
0.0
 51
87.075476
  0
ARC
  5
133
100
AcDbEntity
  8
0
370
    -3
390
0
  6
Continuous
100
AcDbCircle
 10
547.16295
 20
-646.011174
 30
0.0
 40
600.0
100
AcDbArc
 50
87.075476
 51
90.0
  0
LINE
  5
134
100
AcDbEntity
  8
0
370
    -3
390
0
  6
Continuous
100
AcDbLine
 10
682.16295
 20
-156.649345
 30
0.0
 11
682.16295
 21
-296.011174
 31
0.0
  0
LINE
  5
135
100
AcDbEntity
  8
0
370
    -3
390
0
  6
Continuous
100
AcDbLine
 10
673.172224
 20
-158.843013
 30
0.0
 11
673.172224
 21
-294.011174
 31
0.0
  0
LINE
  5
136
100
AcDbEntity
  8
0
370
    -3
390
0
  6
Continuous
100
AcDbLine
 10
650.017666
 20
-158.843016
 30
0.0
 11
650.017666
 21
-294.011174
 31
0.0
  0
ELLIPSE
  5
137
100
AcDbEntity
  8
0
370
    -3
390
0
  6
Continuous
100
AcDbEllipse
 10
661.594945
 20
-158.843013
 30
0.0
 11
0.0
 21
29.2528141503808
 31
0.0
210
0.0
220
0.0
230
1.0
 40
0.395766
 41
4.7123889803846897
 42
1.570796425137539
  0
ELLIPSE
  5
138
100
AcDbEntity
  8
0
370
    -3
390
0
  6
Continuous
100
AcDbEllipse
 10
432.730954
 20
-158.843013
 30
0.0
 11
0.0
 21
29.2528141503808
 31
0.0
210
0.0
220
0.0
230
1.0
 40
0.395766
 41
4.7123888820420472
 42
1.5707963267948968
  0
LINE
  5
139
100
AcDbEntity
  8
0
370
    -3
390
0
  6
Continuous
100
AcDbLine
 10
444.308234
 20
-158.843016
 30
0.0
 11
444.308234
 21
-294.011174
 31
0.0
  0
LINE
  5
13A
100
AcDbEntity
  8
0
370
    -3
390
0
  6
Continuous
100
AcDbLine
 10
421.153675
 20
-158.843013
 30
0.0
 11
421.153675
 21
-294.011174
 31
0.0
  0
LINE
  5
13B
100
AcDbEntity
  8
0
370
    -3
390
0
  6
Continuous
100
AcDbLine
 10
639.48994
 20
-156.011174
 30
0.0
 11
639.48994
 21
-294.011174
 31
0.0
  0
ARC
  5
13C
100
AcDbEntity
  8
0
370
    -3
390
0
  6
Continuous
100
AcDbCircle
 10
685.16295
 20
-296.011174
 30
0.0
 40
3.0
100
AcDbArc
 50
180.0
 51
270.0
  0
ARC
  5
13D
100
AcDbEntity
  8
0
370
    -3
390
0
  6
Continuous
100
AcDbCircle
 10
637.66295
 20
-321.011174
 30
0.0
 40
2.0
100
AcDbArc
 50
0.0
 51
90.0
  0
LINE
  5
13E
100
AcDbEntity
  8
0
370
    -3
390
0
  6
Continuous
100
AcDbLine
 10
547.16295
 20
-319.011174
 30
0.0
 11
637.66295
 21
-319.011174
 31
0.0
  0
ARC
  5
13F
100
AcDbEntity
  8
0
370
    -3
390
0
  6
Continuous
100
AcDbCircle
 10
409.16295
 20
-296.011174
 30
0.0
 40
3.0
100
AcDbArc
 50
270.0
 51
0.0
  0
ARC
  5
140
100
AcDbEntity
  8
0
370
    -3
390
0
  6
Continuous
100
AcDbCircle
 10
456.66295
 20
-321.011174
 30
0.0
 40
2.0
100
AcDbArc
 50
90.0
 51
180.0
  0
LINE
  5
141
100
AcDbEntity
  8
0
370
    -3
390
0
  6
Continuous
100
AcDbLine
 10
547.16295
 20
-319.011174
 30
0.0
 11
456.66295
 21
-319.011174
 31
0.0
  0
LINE
  5
142
100
AcDbEntity
  8
0
370
    -3
390
0
  6
Continuous
100
AcDbLine
 10
639.66295
 20
-321.011174
 30
0.0
 11
689.66295
 21
-321.011174
 31
0.0
  0
LINE
  5
143
100
AcDbEntity
  8
0
370
    -3
390
0
  6
CENTER
100
AcDbLine
 10
672.16295
 20
-294.798342
 30
0.0
 11
672.16295
 21
-325.643112
 31
0.0
  0
ARC
  5
144
100
AcDbEntity
  8
0
370
    -3
390
0
  6
Continuous
100
AcDbCircle
 10
686.66295
 20
-302.011174
 30
0.0
 40
3.0
100
AcDbArc
 50
0.0
 51
90.0
  0
LINE
  5
145
100
AcDbEntity
  8
0
370
    -3
390
0
  6
Continuous
100
AcDbLine
 10
547.16295
 20
-299.011174
 30
0.0
 11
686.66295
 21
-299.011174
 31
0.0
  0
LINE
  5
146
100
AcDbEntity
  8
0
370
    -3
390
0
  6
DASHED
100
AcDbLine
 10
653.16295
 20
-299.011174
 30
0.0
 11
653.387305
 21
-299.011174
 31
0.0
  0
LINE
  5
147
100
AcDbEntity
  8
0
370
    -3
390
0
  6
Continuous
100
AcDbLine
 10
547.16295
 20
-299.011174
 30
0.0
 11
407.66295
 21
-299.011174
 31
0.0
  0
ARC
  5
148
100
AcDbEntity
  8
0
370
    -3
390
0
  6
Continuous
100
AcDbCircle
 10
407.66295
 20
-302.011174
 30
0.0
 40
3.0
100
AcDbArc
 50
90.0
 51
180.0
  0
LINE
  5
149
100
AcDbEntity
  8
0
370
    -3
390
0
  6
CENTER
100
AcDbLine
 10
422.16295
 20
-294.798342
 30
0.0
 11
422.16295
 21
-325.643112
 31
0.0
  0
LINE
  5
14A
100
AcDbEntity
  8
0
370
    -3
390
0
  6
Continuous
100
AcDbLine
 10
404.66295
 20
-302.011174
 30
0.0
 11
404.66295
 21
-321.011174
 31
0.0
  0
LINE
  5
14B
100
AcDbEntity
  8
0
370
    -3
390
0
  6
DASHED
100
AcDbLine
 10
441.16295
 20
-299.011174
 30
0.0
 11
440.938594
 21
-299.011174
 31
0.0
  0
LINE
  5
14C
100
AcDbEntity
  8
0
370
    -3
390
0
  6
Continuous
100
AcDbLine
 10
454.66295
 20
-321.011174
 30
0.0
 11
404.66295
 21
-321.011174
 31
0.0
  0
LINE
  5
14D
100
AcDbEntity
  8
0
370
    -3
390
0
  6
Continuous
100
AcDbLine
 10
689.66295
 20
-302.011174
 30
0.0
 11
689.66295
 21
-321.011174
 31
0.0
  0
LINE
  5
14E
100
AcDbEntity
  8
0
370
    -3
390
0
  6
Continuous
100
AcDbLine
 10
547.16295
 20
-289.311174
 30
0.0
 11
474.66295
 21
-289.311174
 31
0.0
  0
LINE
  5
14F
100
AcDbEntity
  8
0
370
    -3
390
0
  6
Continuous
100
AcDbLine
 10
464.66295
 20
-156.011174
 30
0.0
 11
464.66295
 21
-279.311174
 31
0.0
  0
LINE
  5
150
100
AcDbEntity
  8
0
370
    -3
390
0
  6
Continuous
100
AcDbLine
 10
490.241952
 20
-151.011174
 30
0.0
 11
469.66295
 21
-151.011174
 31
0.0
  0
LINE
  5
151
100
AcDbEntity
  8
0
370
    -3
390
0
  6
Continuous
100
AcDbLine
 10
604.083948
 20
-151.011174
 30
0.0
 11
624.66295
 21
-151.011174
 31
0.0
  0
LINE
  5
152
100
AcDbEntity
  8
0
370
    -3
390
0
  6
Continuous
100
AcDbLine
 10
629.66295
 20
-156.011174
 30
0.0
 11
629.66295
 21
-279.311174
 31
0.0
  0
LINE
  5
153
100
AcDbEntity
  8
0
370
    -3
390
0
  6
Continuous
100
AcDbLine
 10
547.16295
 20
-289.311174
 30
0.0
 11
619.66295
 21
-289.311174
 31
0.0
  0
LINE
  5
154
100
AcDbEntity
  8
0
370
    -3
390
0
  6
CENTER
100
AcDbLine
 10
578.314968
 20
-191.011174
 30
0.0
 11
518.019575
 21
-191.011174
 31
0.0
  0
LINE
  5
155
100
AcDbEntity
  8
0
370
    -3
390
0
  6
CENTER
100
AcDbLine
 10
547.16295
 20
4.081415
 30
0.0
 11
547.16295
 21
-328.351333
 31
0.0
  0
LINE
  5
156
100
AcDbEntity
  8
0
370
    -3
390
0
  6
CENTER
100
AcDbLine
 10
691.18558
 20
-151.011174
 30
0.0
 11
407.555838
 21
-151.011174
 31
0.0
  0
LINE
  5
157
100
AcDbEntity
  8
0
370
    -3
390
0
  6
Continuous
100
AcDbLine
 10
454.83596
 20
-156.011174
 30
0.0
 11
454.83596
 21
-294.011174
 31
0.0
  0
ARC
  5
158
100
AcDbEntity
  8
0
370
    -3
390
0
  6
Continuous
100
AcDbCircle
 10
474.66295
 20
-279.311174
 30
0.0
 40
10.0
100
AcDbArc
 50
180.0
 51
270.0
  0
ARC
  5
159
100
AcDbEntity
  8
0
370
    -3
390
0
  6
Continuous
100
AcDbCircle
 10
469.66295
 20
-156.011174
 30
0.0
 40
5.0
100
AcDbArc
 50
90.0
 51
180.0
  0
ARC
  5
15A
100
AcDbEntity
  8
0
370
    -3
390
0
  6
Continuous
100
AcDbCircle
 10
490.241952
 20
-154.011174
 30
0.0
 40
3.0
100
AcDbArc
 50
3.016961
 51
90.0
  0
ARC
  5
15B
100
AcDbEntity
  8
0
370
    -3
390
0
  6
Continuous
100
AcDbCircle
 10
604.083948
 20
-154.011174
 30
0.0
 40
3.0
100
AcDbArc
 50
90.0
 51
176.983039
  0
ARC
  5
15C
100
AcDbEntity
  8
0
370
    -3
390
0
  6
Continuous
100
AcDbCircle
 10
624.66295
 20
-156.011174
 30
0.0
 40
5.0
100
AcDbArc
 50
0.0
 51
90.0
  0
ARC
  5
15D
100
AcDbEntity
  8
0
370
    -3
390
0
  6
Continuous
100
AcDbCircle
 10
619.66295
 20
-279.311174
 30
0.0
 40
10.0
100
AcDbArc
 50
270.0
 51
0.0
  0
ARC
  5
15E
100
AcDbEntity
  8
0
370
    -3
390
0
  6
Continuous
100
AcDbCircle
 10
547.16295
 20
-151.011174
 30
0.0
 40
54.0
100
AcDbArc
 50
183.016961
 51
356.983039
  0
ARC
  5
15F
100
AcDbEntity
  8
0
370
    -3
390
0
  6
Continuous
100
AcDbCircle
 10
572.16295
 20
-156.649345
 30
0.0
 40
67.32699
100
AcDbArc
 50
0.0
 51
87.075476
  0
ARC
  5
160
100
AcDbEntity
  8
0
370
    -3
390
0
  6
Continuous
100
AcDbCircle
 10
522.16295
 20
-156.649345
 30
0.0
 40
67.32699
100
AcDbArc
 50
92.924524
 51
180.0
  0
ARC
  5
161
100
AcDbEntity
  8
0
370
    -3
390
0
  6
Continuous
100
AcDbCircle
 10
416.153675
 20
-294.011174
 30
0.0
 40
5.0
100
AcDbArc
 50
270.0
 51
0.0
  0
ARC
  5
162
100
AcDbEntity
  8
0
370
    -3
390
0
  6
Continuous
100
AcDbCircle
 10
439.308234
 20
-294.011174
 30
0.0
 40
5.0
100
AcDbArc
 50
270.0
 51
0.0
  0
ARC
  5
163
100
AcDbEntity
  8
0
370
    -3
390
0
  6
Continuous
100
AcDbCircle
 10
449.83596
 20
-294.011174
 30
0.0
 40
5.0
100
AcDbArc
 50
270.0
 51
0.0
  0
ARC
  5
164
100
AcDbEntity
  8
0
370
    -3
390
0
  6
Continuous
100
AcDbCircle
 10
678.172224
 20
-294.011174
 30
0.0
 40
5.0
100
AcDbArc
 50
180.0
 51
270.0
  0
ARC
  5
165
100
AcDbEntity
  8
0
370
    -3
390
0
  6
Continuous
100
AcDbCircle
 10
655.017666
 20
-294.011174
 30
0.0
 40
5.0
100
AcDbArc
 50
180.0
 51
270.0
  0
ARC
  5
166
100
AcDbEntity
  8
0
370
    -3
390
0
  6
Continuous
100
AcDbCircle
 10
644.48994
 20
-294.011174
 30
0.0
 40
5.0
100
AcDbArc
 50
180.0
 51
270.0
  0
CIRCLE
  5
167
100
AcDbEntity
  8
0
370
    -3
390
0
  6
Continuous
100
AcDbCircle
 10
547.16295
 20
-151.011174
 30
0.0
 40
3.325
  0
CIRCLE
  5
168
100
AcDbEntity
  8
0
370
    -3
390
0
  6
Continuous
100
AcDbCircle
 10
547.16295
 20
-151.011174
 30
0.0
 40
4.0
  0
LINE
  5
169
100
AcDbEntity
  8
0
370
    -3
390
0
  6
Continuous
100
AcDbLine
 10
567.66295
 20
-21.011174
 30
0.0
 11
567.66295
 21
-46.361485
 31
0.0
  0
ARC
  5
16A
100
AcDbEntity
  8
0
370
    -3
390
0
  6
Continuous
100
AcDbCircle
 10
557.66295
 20
-21.011174
 30
0.0
 40
10.0
100
AcDbArc
 50
0.0
 51
90.0
  0
CIRCLE
  5
16B
100
AcDbEntity
  8
0
370
    -3
390
0
  6
Continuous
100
AcDbCircle
 10
547.16295
 20
-31.011174
 30
0.0
 40
10.0
  0
LINE
  5
16C
100
AcDbEntity
  8
0
370
    -3
390
0
  6
CENTER
100
AcDbLine
 10
570.330863
 20
-31.011174
 30
0.0
 11
523.308349
 21
-31.011174
 31
0.0
  0
LINE
  5
16D
100
AcDbEntity
  8
0
370
    -3
390
0
  6
Continuous
100
AcDbLine
 10
557.66295
 20
-11.011174
 30
0.0
 11
536.66295
 21
-11.011174
 31
0.0
  0
LINE
  5
16E
100
AcDbEntity
  8
0
370
    -3
390
0
  6
Continuous
100
AcDbLine
 10
526.66295
 20
-21.011174
 30
0.0
 11
526.66295
 21
-46.361485
 31
0.0
  0
ARC
  5
16F
100
AcDbEntity
  8
0
370
    -3
390
0
  6
Continuous
100
AcDbCircle
 10
536.66295
 20
-21.011174
 30
0.0
 40
10.0
100
AcDbArc
 50
90.0
 51
180.0
  0
LINE
  5
170
100
AcDbEntity
  8
0
370
    -3
390
0
  6
Continuous
100
AcDbLine
 10
519.66295
 20
-144.042407
 30
0.0
 11
519.66295
 21
-158.042407
 31
0.0
  0
LINE
  5
171
100
AcDbEntity
  8
0
370
    -3
390
0
  6
Continuous
100
AcDbLine
 10
528.66295
 20
-144.042407
 30
0.0
 11
528.66295
 21
-158.042407
 31
0.0
  0
ARC
  5
172
100
AcDbEntity
  8
0
370
    -3
390
0
  6
Continuous
100
AcDbCircle
 10
547.16295
 20
-151.042407
 30
0.0
 40
24.0
100
AcDbArc
 50
196.957763
 51
163.042237
  0
LINE
  5
173
100
AcDbEntity
  8
0
370
    -3
390
0
  6
Continuous
100
AcDbLine
 10
519.66295
 20
-144.042407
 30
0.0
 11
528.66295
 21
-144.042407
 31
0.0
  0
LINE
  5
174
100
AcDbEntity
  8
0
370
    -3
390
0
  6
Continuous
100
AcDbLine
 10
519.66295
 20
-158.042407
 30
0.0
 11
528.66295
 21
-158.042407
 31
0.0
  0
LINE
  5
175
100
AcDbEntity
  8
0
370
    -3
390
0
  6
CENTER
100
AcDbLine
 10
424.920056
 20
-191.011174
 30
0.0
 11
373.854063
 21
-191.011174
 31
0.0
  0
LINE
  5
176
100
AcDbEntity
  8
0
370
    -3
390
0
  6
Continuous
100
AcDbLine
 10
412.16295
 20
-173.68055
 30
0.0
 11
377.140315
 21
-252.342675
 31
0.0
  0
LINE
  5
177
100
AcDbEntity
  8
0
370
    -3
390
0
  6
Continuous
100
AcDbLine
 10
379.235009
 20
-247.637916
 30
0.0
 11
383.0719
 21
-249.34621
 31
0.0
  0
LINE
  5
178
100
AcDbEntity
  8
0
370
    -3
390
0
  6
Continuous
100
AcDbLine
 10
380.57724
 20
-244.623216
 30
0.0
 11
384.414131
 21
-246.33151
 31
0.0
  0
LINE
  5
179
100
AcDbEntity
  8
0
370
    -3
390
0
  6
Continuous
100
AcDbLine
 10
384.236747
 20
-245.869411
 30
0.0
 11
384.414131
 21
-246.33151
 31
0.0
  0
LINE
  5
17A
100
AcDbEntity
  8
0
370
    -3
390
0
  6
Continuous
100
AcDbLine
 10
382.609801
 20
-249.523593
 30
0.0
 11
383.0719
 21
-249.34621
 31
0.0
  0
LINE
  5
17B
100
AcDbEntity
  8
0
370
    -3
390
0
  6
Continuous
100
AcDbLine
 10
384.414131
 20
-246.33151
 30
0.0
 11
383.0719
 21
-249.34621
 31
0.0
  0
POINT
  5
17C
100
AcDbEntity
  8
0
370
    -3
390
0
  6
Continuous
100
AcDbPoint
 10
376.434651
 20
-244.584967
 30
0.0
  0
LINE
  5
17D
100
AcDbEntity
  8
0
370
    -3
390
0
  6
Continuous
100
AcDbLine
 10
377.85823
 20
-241.387558
 30
0.0
 11
375.011073
 21
-247.782376
 31
0.0
  0
LINE
  5
17E
100
AcDbEntity
  8
0
370
    -3
390
0
  6
Continuous
100
AcDbLine
 10
377.85823
 20
-241.387558
 30
0.0
 11
375.011073
 21
-247.782376
 31
0.0
  0
LINE
  5
17F
100
AcDbEntity
  8
0
370
    -3
390
0
  6
Continuous
100
AcDbLine
 10
375.011073
 20
-247.782376
 30
0.0
 11
374.116689
 21
-247.384171
 31
0.0
  0
LINE
  5
180
100
AcDbEntity
  8
0
370
    -3
390
0
  6
Continuous
100
AcDbLine
 10
377.85823
 20
-241.387558
 30
0.0
 11
376.963846
 21
-240.989352
 31
0.0
  0
ARC
  5
181
100
AcDbEntity
  8
0
370
    -3
390
0
  6
Continuous
100
AcDbCircle
 10
376.435088
 20
-242.176961
 30
0.0
 40
1.299999
100
AcDbArc
 50
65.999999
 51
139.398469
  0
ARC
  5
182
100
AcDbEntity
  8
0
370
    -3
390
0
  6
Continuous
100
AcDbCircle
 10
976.16295
 20
-191.011174
 30
0.0
 40
600.0
100
AcDbArc
 50
178.317231
 51
184.715125
  0
ARC
  5
183
100
AcDbEntity
  8
0
370
    -3
390
0
  6
Continuous
100
AcDbCircle
 10
377.196901
 20
-240.414334
 30
0.0
 40
1.0
100
AcDbArc
 50
336.0
 51
4.715125
  0
LINE
  5
184
100
AcDbEntity
  8
0
370
    -3
390
0
  6
Continuous
100
AcDbLine
 10
412.16295
 20
-237.511174
 30
0.0
 11
383.743725
 21
-237.511174
 31
0.0
  0
LINE
  5
185
100
AcDbEntity
  8
0
370
    -3
390
0
  6
Continuous
100
AcDbLine
 10
374.582388
 20
-251.203813
 30
0.0
 11
377.140315
 21
-252.342675
 31
0.0
  0
ARC
  5
186
100
AcDbEntity
  8
0
370
    -3
390
0
  6
Continuous
100
AcDbCircle
 10
374.989124
 20
-250.290267
 30
0.0
 40
1.0
100
AcDbArc
 50
156.0
 51
246.0
  0
LINE
  5
187
100
AcDbEntity
  8
0
370
    -3
390
0
  6
Continuous
100
AcDbLine
 10
400.287241
 20
-191.011174
 30
0.0
 11
374.075579
 21
-249.883531
 31
0.0
  0
ARC
  5
188
100
AcDbEntity
  8
0
370
    -3
390
0
  6
Continuous
100
AcDbCircle
 10
378.368262
 20
-237.783412
 30
0.0
 40
1.0
100
AcDbArc
 50
336.0
 51
66.0
  0
ARC
  5
189
100
AcDbEntity
  8
0
370
    -3
390
0
  6
Continuous
100
AcDbCircle
 10
379.792936
 20
-235.133809
 30
0.0
 40
2.0
100
AcDbArc
 50
184.231338
 51
246.0
  0
LINE
  5
18A
100
AcDbEntity
  8
0
370
    -3
390
0
  6
Continuous
100
AcDbLine
 10
380.719597
 20
-244.303475
 30
0.0
 11
384.236747
 21
-245.869411
 31
0.0
  0
LINE
  5
18B
100
AcDbEntity
  8
0
370
    -3
390
0
  6
Continuous
100
AcDbLine
 10
379.092651
 20
-247.957657
 30
0.0
 11
382.609801
 21
-249.523593
 31
0.0
  0
LINE
  5
18C
100
AcDbEntity
  8
0
370
    -3
390
0
  6
CENTER
100
AcDbLine
 10
400.16295
 20
-223.128651
 30
0.0
 11
400.16295
 21
-245.99716
 31
0.0
  0
ARC
  5
18D
100
AcDbEntity
  8
0
370
    -3
390
0
  6
Continuous
100
AcDbCircle
 10
374.645446
 20
-246.196562
 30
0.0
 40
1.299999
100
AcDbArc
 50
172.601548
 51
246.000018
  0
ARC
  5
18E
100
AcDbEntity
  8
0
370
    -3
390
0
  6
Continuous
100
AcDbCircle
 10
382.281342
 20
-247.188081
 30
0.0
 40
9.0
100
AcDbArc
 50
139.398469
 51
172.601548
  0
LINE
  5
18F
100
AcDbEntity
  8
0
370
    -3
390
0
  6
Continuous
100
AcDbLine
 10
412.16295
 20
-164.337895
 30
0.0
 11
400.287241
 21
-191.011174
 31
0.0
  0
LINE
  5
190
100
AcDbEntity
  8
0
370
    -3
390
0
  6
Continuous
100
AcDbLine
 10
412.17216
 20
-155.225882
 30
0.0
 11
388.986499
 21
-159.03021
 31
0.0
  0
ARC
  5
191
100
AcDbEntity
  8
0
370
    -3
390
0
  6
Continuous
100
AcDbCircle
 10
391.415239
 20
-173.832278
 30
0.0
 40
15.0
100
AcDbArc
 50
99.318123
 51
178.317231
  0
LINE
  5
192
100
AcDbEntity
  8
0
370
    -3
390
0
  6
CENTER
100
AcDbLine
 10
373.509571
 20
-243.282637
 30
0.0
 11
384.061212
 21
-247.980531
 31
0.0
  0
ARC
  5
193
100
AcDbEntity
  8
0
370
    -3
390
0
  6
Continuous
100
AcDbCircle
 10
-553.516938
 20
-56.011174
 30
0.0
 40
10.0
100
AcDbArc
 50
270.0
 51
0.0
  0
ARC
  5
194
100
AcDbEntity
  8
0
370
    -3
390
0
  6
Continuous
100
AcDbCircle
 10
-574.516938
 20
-56.011174
 30
0.0
 40
10.0
100
AcDbArc
 50
180.0
 51
270.0
  0
LINE
  5
195
100
AcDbEntity
  8
0
370
    -3
390
0
  6
Continuous
100
AcDbLine
 10
-553.516938
 20
-66.011174
 30
0.0
 11
-574.516938
 21
-66.011174
 31
0.0
  0
MTEXT
  5
197
100
AcDbEntity
  8
0
370
    -3
390
0
  6
Continuous
100
AcDbMText
 10
-639.951477
 20
237.753021
 30
0.0
 40
16.0
 41
0.0
 71
     7
 72
     1
  1
\W0.83;三菱ギヤードモータ  
  7
ZU_SHPTB00001
 11
1.0
 21
0.0
 31
0.0
 73
     1
 44
1.0
  0
MTEXT
  5
198
100
AcDbEntity
  8
0
370
    -3
390
0
  6
Continuous
100
AcDbMText
 10
-639.951477
 20
216.553024
 30
0.0
 40
16.0
 41
0.0
 71
     7
 72
     1
  1
\W0.60;GM-DPB
  7
ZU_SHPTB00001
 11
1.0
 21
0.0
 31
0.0
 73
     1
 44
1.0
  0
MTEXT
  5
199
100
AcDbEntity
  8
0
370
    -3
390
0
  6
Continuous
100
AcDbMText
 10
-639.951477
 20
195.353012
 30
0.0
 40
16.0
 41
0.0
 71
     7
 72
     1
  1
\W0.60;3.7(kW)
  7
ZU_SHPTB00001
 11
1.0
 21
0.0
 31
0.0
 73
     1
 44
1.0
  0
MTEXT
  5
19A
100
AcDbEntity
  8
0
370
    -3
390
0
  6
Continuous
100
AcDbMText
 10
-639.951477
 20
174.153015
 30
0.0
 40
16.0
 41
0.0
 71
     7
 72
     1
  1
\W0.60;1/3\W0.83;～\W0.60;1/30
  7
ZU_SHPTB00001
 11
1.0
 21
0.0
 31
0.0
 73
     1
 44
1.0
  0
MTEXT
  5
19B
100
AcDbEntity
  8
0
370
    -3
390
0
  6
Continuous
100
AcDbMText
 10
-639.951477
 20
152.953018
 30
0.0
 40
16.0
 41
0.0
 71
     7
 72
     1
  1
\W0.60;SCALE\W1.00; \W0.60;1/1
  7
ZU_SHPTB00001
 11
1.0
 21
0.0
 31
0.0
 73
     1
 44
1.0
  0
ARC
  5
19C
100
AcDbEntity
  8
0
370
    -3
390
0
  6
Continuous
100
AcDbCircle
 10
-564.016938
 20
-191.011174
 30
0.0
 40
105.147
100
AcDbArc
 50
126.942477
 51
135.0
  0
ARC
  5
19D
100
AcDbEntity
  8
0
370
    -3
390
0
  6
Continuous
100
AcDbCircle
 10
-564.016938
 20
-575.011174
 30
0.0
 40
482.147
100
AcDbArc
 50
90.0
 51
93.154724
  0
ARC
  5
19E
100
AcDbEntity
  8
0
370
    -3
390
0
  6
Continuous
100
AcDbCircle
 10
-586.855429
 20
-160.640081
 30
0.0
 40
67.147
100
AcDbArc
 50
93.154724
 51
126.942477
  0
ARC
  5
19F
100
AcDbEntity
  8
0
370
    -3
390
0
  6
Continuous
100
AcDbCircle
 10
-564.016938
 20
-191.011174
 30
0.0
 40
105.147
100
AcDbArc
 50
135.0
 51
143.057523
  0
ARC
  5
1A0
100
AcDbEntity
  8
0
370
    -3
390
0
  6
Continuous
100
AcDbCircle
 10
-594.388032
 20
-168.172683
 30
0.0
 40
67.147
100
AcDbArc
 50
143.057523
 51
176.845276
  0
ARC
  5
1A1
100
AcDbEntity
  8
0
370
    -3
390
0
  6
Continuous
100
AcDbCircle
 10
-180.016938
 20
-191.011174
 30
0.0
 40
482.147
100
AcDbArc
 50
176.845276
 51
180.0
  0
ARC
  5
1A2
100
AcDbEntity
  8
0
370
    -3
390
0
  6
Continuous
100
AcDbCircle
 10
-180.016938
 20
-191.011174
 30
0.0
 40
482.147
100
AcDbArc
 50
180.0
 51
183.154724
  0
ARC
  5
1A3
100
AcDbEntity
  8
0
370
    -3
390
0
  6
Continuous
100
AcDbCircle
 10
-594.388032
 20
-213.849665
 30
0.0
 40
67.147
100
AcDbArc
 50
183.154724
 51
216.942477
  0
ARC
  5
1A4
100
AcDbEntity
  8
0
370
    -3
390
0
  6
Continuous
100
AcDbCircle
 10
-564.016938
 20
-191.011174
 30
0.0
 40
105.147
100
AcDbArc
 50
216.942477
 51
225.0
  0
ARC
  5
1A5
100
AcDbEntity
  8
0
370
    -3
390
0
  6
Continuous
100
AcDbCircle
 10
-564.016938
 20
-191.011174
 30
0.0
 40
105.147
100
AcDbArc
 50
225.0
 51
233.057523
  0
ARC
  5
1A6
100
AcDbEntity
  8
0
370
    -3
390
0
  6
Continuous
100
AcDbCircle
 10
-586.855429
 20
-221.382268
 30
0.0
 40
67.147
100
AcDbArc
 50
233.057523
 51
266.845276
  0
ARC
  5
1A7
100
AcDbEntity
  8
0
370
    -3
390
0
  6
Continuous
100
AcDbCircle
 10
-564.016938
 20
192.988826
 30
0.0
 40
482.147
100
AcDbArc
 50
266.845276
 51
270.0
  0
ARC
  5
1A8
100
AcDbEntity
  8
0
370
    -3
390
0
  6
Continuous
100
AcDbCircle
 10
-564.016938
 20
-191.011174
 30
0.0
 40
70.5
100
AcDbArc
 50
215.952487
 51
264.900311
  0
ARC
  5
1A9
100
AcDbEntity
  8
0
370
    -3
390
0
  6
Continuous
100
AcDbCircle
 10
-618.658468
 20
-230.64138
 30
0.0
 40
3.0
100
AcDbArc
 50
120.0
 51
215.952487
  0
ARC
  5
1AA
100
AcDbEntity
  8
0
370
    -3
390
0
  6
Continuous
100
AcDbCircle
 10
-592.422071
 20
-215.493789
 30
0.0
 40
3.0
100
AcDbArc
 50
120.0
 51
220.758318
  0
ARC
  5
1AB
100
AcDbEntity
  8
0
370
    -3
390
0
  6
Continuous
100
AcDbCircle
 10
-564.016938
 20
-191.011174
 30
0.0
 40
40.5
100
AcDbArc
 50
220.758318
 51
260.793104
  0
ARC
  5
1AC
100
AcDbEntity
  8
0
370
    -3
390
0
  6
Continuous
100
AcDbCircle
 10
-570.016938
 20
-228.028062
 30
0.0
 40
3.0
100
AcDbArc
 50
260.793104
 51
0.0
  0
ARC
  5
1AD
100
AcDbEntity
  8
0
370
    -3
390
0
  6
Continuous
100
AcDbCircle
 10
-570.016938
 20
-239.138609
 30
0.0
 40
3.0
100
AcDbArc
 50
0.0
 51
82.893657
  0
ARC
  5
1AE
100
AcDbEntity
  8
0
370
    -3
390
0
  6
Continuous
100
AcDbCircle
 10
-564.016938
 20
-191.011174
 30
0.0
 40
45.5
100
AcDbArc
 50
218.298477
 51
262.893657
  0
ARC
  5
1AF
100
AcDbEntity
  8
0
370
    -3
390
0
  6
Continuous
100
AcDbCircle
 10
-602.079391
 20
-221.069446
 30
0.0
 40
3.0
100
AcDbArc
 50
38.298477
 51
120.0
  0
LINE
  5
1B0
100
AcDbEntity
  8
0
370
    -3
390
0
  6
Continuous
100
AcDbLine
 10
-603.579391
 20
-218.471369
 30
0.0
 11
-607.077314
 21
-220.490896
 31
0.0
  0
ARC
  5
1B1
100
AcDbEntity
  8
0
370
    -3
390
0
  6
Continuous
100
AcDbCircle
 10
-605.577314
 20
-223.088972
 30
0.0
 40
3.0
100
AcDbArc
 50
120.0
 51
217.662256
  0
LINE
  5
1B2
100
AcDbEntity
  8
0
370
    -3
390
0
  6
Continuous
100
AcDbLine
 10
-567.016938
 20
-239.138609
 30
0.0
 11
-567.016938
 21
-243.16719
 31
0.0
  0
ARC
  5
1B3
100
AcDbEntity
  8
0
370
    -3
390
0
  6
Continuous
100
AcDbCircle
 10
-564.016938
 20
-191.011174
 30
0.0
 40
55.5
100
AcDbArc
 50
217.662256
 51
263.437572
  0
ARC
  5
1B4
100
AcDbEntity
  8
0
370
    -3
390
0
  6
Continuous
100
AcDbCircle
 10
-570.016938
 20
-243.16719
 30
0.0
 40
3.0
100
AcDbArc
 50
263.437572
 51
0.0
  0
ARC
  5
1B5
100
AcDbEntity
  8
0
370
    -3
390
0
  6
Continuous
100
AcDbCircle
 10
-570.016938
 20
-254.227074
 30
0.0
 40
3.0
100
AcDbArc
 50
0.0
 51
84.578137
  0
ARC
  5
1B6
100
AcDbEntity
  8
0
370
    -3
390
0
  6
Continuous
100
AcDbCircle
 10
-564.016938
 20
-191.011174
 30
0.0
 40
60.5
100
AcDbArc
 50
216.328933
 51
264.578137
  0
ARC
  5
1B7
100
AcDbEntity
  8
0
370
    -3
390
0
  6
Continuous
100
AcDbCircle
 10
-615.174394
 20
-228.629849
 30
0.0
 40
3.0
100
AcDbArc
 50
36.328933
 51
120.0
  0
LINE
  5
1B8
100
AcDbEntity
  8
0
370
    -3
390
0
  6
Continuous
100
AcDbLine
 10
-567.016938
 20
-254.227074
 30
0.0
 11
-567.016938
 21
-258.243979
 31
0.0
  0
ARC
  5
1B9
100
AcDbEntity
  8
0
370
    -3
390
0
  6
Continuous
100
AcDbCircle
 10
-570.016938
 20
-258.243979
 30
0.0
 40
3.0
100
AcDbArc
 50
264.900311
 51
0.0
  0
LINE
  5
1BA
100
AcDbEntity
  8
0
370
    -3
390
0
  6
Continuous
100
AcDbLine
 10
-616.674394
 20
-226.031773
 30
0.0
 11
-620.158468
 21
-228.043304
 31
0.0
  0
ARC
  5
1BB
100
AcDbEntity
  8
0
370
    -3
390
0
  6
Continuous
100
AcDbCircle
 10
-570.016938
 20
-208.511174
 30
0.0
 40
3.0
100
AcDbArc
 50
0.0
 51
71.075356
  0
ARC
  5
1BC
100
AcDbEntity
  8
0
370
    -3
390
0
  6
Continuous
100
AcDbCircle
 10
-575.347228
 20
-205.635624
 30
0.0
 40
3.0
100
AcDbArc
 50
52.233272
 51
120.0
  0
ARC
  5
1BD
100
AcDbEntity
  8
0
370
    -3
390
0
  6
Continuous
100
AcDbCircle
 10
-564.016938
 20
-191.011174
 30
0.0
 40
15.5
100
AcDbArc
 50
232.233272
 51
251.075356
  0
LINE
  5
1BE
100
AcDbEntity
  8
0
370
    -3
390
0
  6
Continuous
100
AcDbLine
 10
-567.016938
 20
-208.511174
 30
0.0
 11
-567.016938
 21
-212.696423
 31
0.0
  0
ARC
  5
1BF
100
AcDbEntity
  8
0
370
    -3
390
0
  6
Continuous
100
AcDbCircle
 10
-570.016938
 20
-212.696423
 30
0.0
 40
3.0
100
AcDbArc
 50
254.53399
 51
0.0
  0
LINE
  5
1C0
100
AcDbEntity
  8
0
370
    -3
390
0
  6
Continuous
100
AcDbLine
 10
-576.847228
 20
-203.037548
 30
0.0
 11
-580.53551
 21
-205.166978
 31
0.0
  0
ARC
  5
1C1
100
AcDbEntity
  8
0
370
    -3
390
0
  6
Continuous
100
AcDbCircle
 10
-564.016938
 20
-191.011174
 30
0.0
 40
25.5
100
AcDbArc
 50
228.126204
 51
254.53399
  0
ARC
  5
1C2
100
AcDbEntity
  8
0
370
    -3
390
0
  6
Continuous
100
AcDbCircle
 10
-579.03551
 20
-207.765055
 30
0.0
 40
3.0
100
AcDbArc
 50
120.0
 51
228.126204
  0
ARC
  5
1C3
100
AcDbEntity
  8
0
370
    -3
390
0
  6
Continuous
100
AcDbCircle
 10
-570.016938
 20
-223.969481
 30
0.0
 40
3.0
100
AcDbArc
 50
0.0
 51
79.682397
  0
ARC
  5
1C4
100
AcDbEntity
  8
0
370
    -3
390
0
  6
Continuous
100
AcDbCircle
 10
-564.016938
 20
-191.011174
 30
0.0
 40
30.5
100
AcDbArc
 50
222.061133
 51
259.682397
  0
ARC
  5
1C5
100
AcDbEntity
  8
0
370
    -3
390
0
  6
Continuous
100
AcDbCircle
 10
-588.888359
 20
-213.453599
 30
0.0
 40
3.0
100
AcDbArc
 50
42.061133
 51
120.0
  0
LINE
  5
1C6
100
AcDbEntity
  8
0
370
    -3
390
0
  6
Continuous
100
AcDbLine
 10
-590.388359
 20
-210.855523
 30
0.0
 11
-593.922071
 21
-212.895713
 31
0.0
  0
LINE
  5
1C7
100
AcDbEntity
  8
0
370
    -3
390
0
  6
Continuous
100
AcDbLine
 10
-567.016938
 20
-223.969481
 30
0.0
 11
-567.016938
 21
-228.028062
 31
0.0
  0
ARC
  5
1C8
100
AcDbEntity
  8
0
370
    -3
390
0
  6
Continuous
100
AcDbCircle
 10
-564.016938
 20
-191.011174
 30
0.0
 40
70.5
100
AcDbArc
 50
155.099689
 51
204.047513
  0
ARC
  5
1C9
100
AcDbEntity
  8
0
370
    -3
390
0
  6
Continuous
100
AcDbCircle
 10
-625.658468
 20
-218.517024
 30
0.0
 40
3.0
100
AcDbArc
 50
204.047513
 51
300.0
  0
ARC
  5
1CA
100
AcDbEntity
  8
0
370
    -3
390
0
  6
Continuous
100
AcDbCircle
 10
-599.422071
 20
-203.369433
 30
0.0
 40
3.0
100
AcDbArc
 50
199.241682
 51
300.0
  0
ARC
  5
1CB
100
AcDbEntity
  8
0
370
    -3
390
0
  6
Continuous
100
AcDbCircle
 10
-564.016938
 20
-191.011174
 30
0.0
 40
40.5
100
AcDbArc
 50
159.206896
 51
199.241682
  0
ARC
  5
1CC
100
AcDbEntity
  8
0
370
    -3
390
0
  6
Continuous
100
AcDbCircle
 10
-599.074504
 20
-177.698883
 30
0.0
 40
3.0
100
AcDbArc
 50
60.0
 51
159.206896
  0
ARC
  5
1CD
100
AcDbEntity
  8
0
370
    -3
390
0
  6
Continuous
100
AcDbCircle
 10
-608.696519
 20
-172.143609
 30
0.0
 40
3.0
100
AcDbArc
 50
337.106343
 51
60.0
  0
ARC
  5
1CE
100
AcDbEntity
  8
0
370
    -3
390
0
  6
Continuous
100
AcDbCircle
 10
-564.016938
 20
-191.011174
 30
0.0
 40
45.5
100
AcDbArc
 50
157.106343
 51
201.701523
  0
ARC
  5
1CF
100
AcDbEntity
  8
0
370
    -3
390
0
  6
Continuous
100
AcDbCircle
 10
-609.079391
 20
-208.94509
 30
0.0
 40
3.0
100
AcDbArc
 50
300.0
 51
21.701523
  0
LINE
  5
1D0
100
AcDbEntity
  8
0
370
    -3
390
0
  6
Continuous
100
AcDbLine
 10
-607.579391
 20
-211.543166
 30
0.0
 11
-611.077314
 21
-213.562693
 31
0.0
  0
ARC
  5
1D1
100
AcDbEntity
  8
0
370
    -3
390
0
  6
Continuous
100
AcDbCircle
 10
-612.577314
 20
-210.964617
 30
0.0
 40
3.0
100
AcDbArc
 50
202.337744
 51
300.0
  0
LINE
  5
1D2
100
AcDbEntity
  8
0
370
    -3
390
0
  6
Continuous
100
AcDbLine
 10
-607.196519
 20
-169.545533
 30
0.0
 11
-610.685373
 21
-167.531243
 31
0.0
  0
ARC
  5
1D3
100
AcDbEntity
  8
0
370
    -3
390
0
  6
Continuous
100
AcDbCircle
 10
-564.016938
 20
-191.011174
 30
0.0
 40
55.5
100
AcDbArc
 50
156.562428
 51
202.337744
  0
ARC
  5
1D4
100
AcDbEntity
  8
0
370
    -3
390
0
  6
Continuous
100
AcDbCircle
 10
-612.185373
 20
-170.129319
 30
0.0
 40
3.0
100
AcDbArc
 50
60.0
 51
156.562428
  0
ARC
  5
1D5
100
AcDbEntity
  8
0
370
    -3
390
0
  6
Continuous
100
AcDbCircle
 10
-621.763513
 20
-164.599377
 30
0.0
 40
3.0
100
AcDbArc
 50
335.421863
 51
60.0
  0
ARC
  5
1D6
100
AcDbEntity
  8
0
370
    -3
390
0
  6
Continuous
100
AcDbCircle
 10
-564.016938
 20
-191.011174
 30
0.0
 40
60.5
100
AcDbArc
 50
155.421863
 51
203.671067
  0
ARC
  5
1D7
100
AcDbEntity
  8
0
370
    -3
390
0
  6
Continuous
100
AcDbCircle
 10
-622.174394
 20
-216.505493
 30
0.0
 40
3.0
100
AcDbArc
 50
300.0
 51
23.671067
  0
LINE
  5
1D8
100
AcDbEntity
  8
0
370
    -3
390
0
  6
Continuous
100
AcDbLine
 10
-620.263513
 20
-162.001301
 30
0.0
 11
-623.742255
 21
-159.992848
 31
0.0
  0
ARC
  5
1D9
100
AcDbEntity
  8
0
370
    -3
390
0
  6
Continuous
100
AcDbCircle
 10
-625.242255
 20
-162.590924
 30
0.0
 40
3.0
100
AcDbArc
 50
60.0
 51
155.099689
  0
LINE
  5
1DA
100
AcDbEntity
  8
0
370
    -3
390
0
  6
Continuous
100
AcDbLine
 10
-620.674394
 20
-219.10357
 30
0.0
 11
-624.158468
 21
-221.115101
 31
0.0
  0
ARC
  5
1DB
100
AcDbEntity
  8
0
370
    -3
390
0
  6
Continuous
100
AcDbCircle
 10
-582.172383
 20
-187.457327
 30
0.0
 40
3.0
100
AcDbArc
 50
348.924644
 51
60.0
  0
ARC
  5
1DC
100
AcDbEntity
  8
0
370
    -3
390
0
  6
Continuous
100
AcDbCircle
 10
-582.347228
 20
-193.511268
 30
0.0
 40
3.0
100
AcDbArc
 50
300.0
 51
7.766728
  0
ARC
  5
1DD
100
AcDbEntity
  8
0
370
    -3
390
0
  6
Continuous
100
AcDbCircle
 10
-564.016938
 20
-191.011174
 30
0.0
 40
15.5
100
AcDbArc
 50
168.924644
 51
187.766728
  0
LINE
  5
1DE
100
AcDbEntity
  8
0
370
    -3
390
0
  6
Continuous
100
AcDbLine
 10
-580.672383
 20
-184.85925
 30
0.0
 11
-584.296914
 21
-182.766626
 31
0.0
  0
ARC
  5
1DF
100
AcDbEntity
  8
0
370
    -3
390
0
  6
Continuous
100
AcDbCircle
 10
-585.796914
 20
-185.364702
 30
0.0
 40
3.0
100
AcDbArc
 50
60.0
 51
165.46601
  0
LINE
  5
1E0
100
AcDbEntity
  8
0
370
    -3
390
0
  6
Continuous
100
AcDbLine
 10
-580.847228
 20
-196.109345
 30
0.0
 11
-584.53551
 21
-198.238775
 31
0.0
  0
ARC
  5
1E1
100
AcDbEntity
  8
0
370
    -3
390
0
  6
Continuous
100
AcDbCircle
 10
-564.016938
 20
-191.011174
 30
0.0
 40
25.5
100
AcDbArc
 50
165.46601
 51
191.873796
  0
ARC
  5
1E2
100
AcDbEntity
  8
0
370
    -3
390
0
  6
Continuous
100
AcDbCircle
 10
-586.03551
 20
-195.640699
 30
0.0
 40
3.0
100
AcDbArc
 50
191.873796
 51
300.0
  0
ARC
  5
1E3
100
AcDbEntity
  8
0
370
    -3
390
0
  6
Continuous
100
AcDbCircle
 10
-595.559669
 20
-179.728173
 30
0.0
 40
3.0
100
AcDbArc
 50
340.317603
 51
60.0
  0
ARC
  5
1E4
100
AcDbEntity
  8
0
370
    -3
390
0
  6
Continuous
100
AcDbCircle
 10
-564.016938
 20
-191.011174
 30
0.0
 40
30.5
100
AcDbArc
 50
160.317603
 51
197.938867
  0
ARC
  5
1E5
100
AcDbEntity
  8
0
370
    -3
390
0
  6
Continuous
100
AcDbCircle
 10
-595.888359
 20
-201.329244
 30
0.0
 40
3.0
100
AcDbArc
 50
300.0
 51
17.938867
  0
LINE
  5
1E6
100
AcDbEntity
  8
0
370
    -3
390
0
  6
Continuous
100
AcDbLine
 10
-594.388359
 20
-203.92732
 30
0.0
 11
-597.922071
 21
-205.96751
 31
0.0
  0
LINE
  5
1E7
100
AcDbEntity
  8
0
370
    -3
390
0
  6
Continuous
100
AcDbLine
 10
-594.059669
 20
-177.130097
 30
0.0
 11
-597.574504
 21
-175.100806
 31
0.0
  0
ARC
  5
1E8
100
AcDbEntity
  8
0
370
    -3
390
0
  6
Continuous
100
AcDbCircle
 10
-564.016938
 20
-191.011174
 30
0.0
 40
70.5
100
AcDbArc
 50
95.952487
 51
144.900311
  0
ARC
  5
1E9
100
AcDbEntity
  8
0
370
    -3
390
0
  6
Continuous
100
AcDbCircle
 10
-571.016938
 20
-123.875118
 30
0.0
 40
3.0
100
AcDbArc
 50
0.0
 51
95.952487
  0
ARC
  5
1EA
100
AcDbEntity
  8
0
370
    -3
390
0
  6
Continuous
100
AcDbCircle
 10
-571.016938
 20
-154.1703
 30
0.0
 40
3.0
100
AcDbArc
 50
360.0
 51
100.758318
  0
ARC
  5
1EB
100
AcDbEntity
  8
0
370
    -3
390
0
  6
Continuous
100
AcDbCircle
 10
-564.016938
 20
-191.011174
 30
0.0
 40
40.5
100
AcDbArc
 50
100.758318
 51
140.793104
  0
ARC
  5
1EC
100
AcDbEntity
  8
0
370
    -3
390
0
  6
Continuous
100
AcDbCircle
 10
-593.074504
 20
-167.306578
 30
0.0
 40
3.0
100
AcDbArc
 50
140.793104
 51
240.0
  0
ARC
  5
1ED
100
AcDbEntity
  8
0
370
    -3
390
0
  6
Continuous
100
AcDbCircle
 10
-602.696519
 20
-161.751304
 30
0.0
 40
3.0
100
AcDbArc
 50
240.0
 51
322.893657
  0
ARC
  5
1EE
100
AcDbEntity
  8
0
370
    -3
390
0
  6
Continuous
100
AcDbCircle
 10
-564.016938
 20
-191.011174
 30
0.0
 40
45.5
100
AcDbArc
 50
98.298477
 51
142.893657
  0
ARC
  5
1EF
100
AcDbEntity
  8
0
370
    -3
390
0
  6
Continuous
100
AcDbCircle
 10
-571.016938
 20
-143.018987
 30
0.0
 40
3.0
100
AcDbArc
 50
278.298477
 51
0.0
  0
LINE
  5
1F0
100
AcDbEntity
  8
0
370
    -3
390
0
  6
Continuous
100
AcDbLine
 10
-568.016938
 20
-143.018987
 30
0.0
 11
-568.016938
 21
-138.979934
 31
0.0
  0
ARC
  5
1F1
100
AcDbEntity
  8
0
370
    -3
390
0
  6
Continuous
100
AcDbCircle
 10
-571.016938
 20
-138.979934
 30
0.0
 40
3.0
100
AcDbArc
 50
0.0
 51
97.662256
  0
LINE
  5
1F2
100
AcDbEntity
  8
0
370
    -3
390
0
  6
Continuous
100
AcDbLine
 10
-604.196519
 20
-164.349381
 30
0.0
 11
-607.685373
 21
-162.33509
 31
0.0
  0
ARC
  5
1F3
100
AcDbEntity
  8
0
370
    -3
390
0
  6
Continuous
100
AcDbCircle
 10
-564.016938
 20
-191.011174
 30
0.0
 40
55.5
100
AcDbArc
 50
97.662256
 51
143.437572
  0
ARC
  5
1F4
100
AcDbEntity
  8
0
370
    -3
390
0
  6
Continuous
100
AcDbCircle
 10
-606.185373
 20
-159.737014
 30
0.0
 40
3.0
100
AcDbArc
 50
143.437572
 51
240.0
  0
ARC
  5
1F5
100
AcDbEntity
  8
0
370
    -3
390
0
  6
Continuous
100
AcDbCircle
 10
-615.763513
 20
-154.207072
 30
0.0
 40
3.0
100
AcDbArc
 50
240.0
 51
324.578137
  0
ARC
  5
1F6
100
AcDbEntity
  8
0
370
    -3
390
0
  6
Continuous
100
AcDbCircle
 10
-564.016938
 20
-191.011174
 30
0.0
 40
60.5
100
AcDbArc
 50
96.328933
 51
144.578137
  0
ARC
  5
1F7
100
AcDbEntity
  8
0
370
    -3
390
0
  6
Continuous
100
AcDbCircle
 10
-571.016938
 20
-127.89818
 30
0.0
 40
3.0
100
AcDbArc
 50
276.328933
 51
0.0
  0
LINE
  5
1F8
100
AcDbEntity
  8
0
370
    -3
390
0
  6
Continuous
100
AcDbLine
 10
-617.263513
 20
-156.805148
 30
0.0
 11
-620.742255
 21
-154.796696
 31
0.0
  0
ARC
  5
1F9
100
AcDbEntity
  8
0
370
    -3
390
0
  6
Continuous
100
AcDbCircle
 10
-619.242255
 20
-152.19862
 30
0.0
 40
3.0
100
AcDbArc
 50
144.900311
 51
240.0
  0
LINE
  5
1FA
100
AcDbEntity
  8
0
370
    -3
390
0
  6
Continuous
100
AcDbLine
 10
-568.016938
 20
-127.89818
 30
0.0
 11
-568.016938
 21
-123.875118
 31
0.0
  0
ARC
  5
1FB
100
AcDbEntity
  8
0
370
    -3
390
0
  6
Continuous
100
AcDbCircle
 10
-576.172383
 20
-177.065022
 30
0.0
 40
3.0
100
AcDbArc
 50
240.0
 51
311.075356
  0
ARC
  5
1FC
100
AcDbEntity
  8
0
370
    -3
390
0
  6
Continuous
100
AcDbCircle
 10
-571.016938
 20
-173.88663
 30
0.0
 40
3.0
100
AcDbArc
 50
292.233272
 51
0.0
  0
ARC
  5
1FD
100
AcDbEntity
  8
0
370
    -3
390
0
  6
Continuous
100
AcDbCircle
 10
-564.016938
 20
-191.011174
 30
0.0
 40
15.5
100
AcDbArc
 50
112.233272
 51
131.075356
  0
LINE
  5
1FE
100
AcDbEntity
  8
0
370
    -3
390
0
  6
Continuous
100
AcDbLine
 10
-577.672383
 20
-179.663098
 30
0.0
 11
-581.296914
 21
-177.570474
 31
0.0
  0
ARC
  5
1FF
100
AcDbEntity
  8
0
370
    -3
390
0
  6
Continuous
100
AcDbCircle
 10
-579.796914
 20
-174.972398
 30
0.0
 40
3.0
100
AcDbArc
 50
134.53399
 51
240.0
  0
LINE
  5
200
100
AcDbEntity
  8
0
370
    -3
390
0
  6
Continuous
100
AcDbLine
 10
-568.016938
 20
-173.88663
 30
0.0
 11
-568.016938
 21
-169.62777
 31
0.0
  0
ARC
  5
201
100
AcDbEntity
  8
0
370
    -3
390
0
  6
Continuous
100
AcDbCircle
 10
-564.016938
 20
-191.011174
 30
0.0
 40
25.5
100
AcDbArc
 50
108.126204
 51
134.53399
  0
ARC
  5
202
100
AcDbEntity
  8
0
370
    -3
390
0
  6
Continuous
100
AcDbCircle
 10
-571.016938
 20
-169.62777
 30
0.0
 40
3.0
100
AcDbArc
 50
0.0
 51
108.126204
  0
ARC
  5
203
100
AcDbEntity
  8
0
370
    -3
390
0
  6
Continuous
100
AcDbCircle
 10
-589.559669
 20
-169.335868
 30
0.0
 40
3.0
100
AcDbArc
 50
240.0
 51
319.682397
  0
ARC
  5
204
100
AcDbEntity
  8
0
370
    -3
390
0
  6
Continuous
100
AcDbCircle
 10
-564.016938
 20
-191.011174
 30
0.0
 40
30.5
100
AcDbArc
 50
102.061133
 51
139.682397
  0
ARC
  5
205
100
AcDbEntity
  8
0
370
    -3
390
0
  6
Continuous
100
AcDbCircle
 10
-571.016938
 20
-158.25068
 30
0.0
 40
3.0
100
AcDbArc
 50
282.061133
 51
0.0
  0
LINE
  5
206
100
AcDbEntity
  8
0
370
    -3
390
0
  6
Continuous
100
AcDbLine
 10
-568.016938
 20
-158.25068
 30
0.0
 11
-568.016938
 21
-154.1703
 31
0.0
  0
LINE
  5
207
100
AcDbEntity
  8
0
370
    -3
390
0
  6
Continuous
100
AcDbLine
 10
-591.059669
 20
-171.933945
 30
0.0
 11
-594.574504
 21
-169.904654
 31
0.0
  0
ARC
  5
208
100
AcDbEntity
  8
0
370
    -3
390
0
  6
Continuous
100
AcDbCircle
 10
-564.016938
 20
192.988826
 30
0.0
 40
501.2
100
AcDbArc
 50
266.845276
 51
270.0
  0
ARC
  5
209
100
AcDbEntity
  8
0
370
    -3
390
0
  6
Continuous
100
AcDbCircle
 10
-586.855429
 20
-221.382268
 30
0.0
 40
86.2
100
AcDbArc
 50
233.057523
 51
266.845276
  0
ARC
  5
20A
100
AcDbEntity
  8
0
370
    -3
390
0
  6
Continuous
100
AcDbCircle
 10
-564.016938
 20
-191.011174
 30
0.0
 40
124.2
100
AcDbArc
 50
225.0
 51
233.057523
  0
ARC
  5
20B
100
AcDbEntity
  8
0
370
    -3
390
0
  6
Continuous
100
AcDbCircle
 10
-180.016938
 20
-191.011174
 30
0.0
 40
501.2
100
AcDbArc
 50
180.0
 51
183.154724
  0
ARC
  5
20C
100
AcDbEntity
  8
0
370
    -3
390
0
  6
Continuous
100
AcDbCircle
 10
-594.388032
 20
-213.849665
 30
0.0
 40
86.2
100
AcDbArc
 50
183.154724
 51
216.942477
  0
ARC
  5
20D
100
AcDbEntity
  8
0
370
    -3
390
0
  6
Continuous
100
AcDbCircle
 10
-564.016938
 20
-191.011174
 30
0.0
 40
124.2
100
AcDbArc
 50
216.942477
 51
225.0
  0
ARC
  5
20E
100
AcDbEntity
  8
0
370
    -3
390
0
  6
Continuous
100
AcDbCircle
 10
-180.016938
 20
-191.011174
 30
0.0
 40
501.2
100
AcDbArc
 50
176.845276
 51
180.0
  0
ARC
  5
20F
100
AcDbEntity
  8
0
370
    -3
390
0
  6
Continuous
100
AcDbCircle
 10
-594.388032
 20
-168.172683
 30
0.0
 40
86.2
100
AcDbArc
 50
143.057523
 51
176.845276
  0
ARC
  5
210
100
AcDbEntity
  8
0
370
    -3
390
0
  6
Continuous
100
AcDbCircle
 10
-564.016938
 20
-575.011174
 30
0.0
 40
501.2
100
AcDbArc
 50
90.0
 51
93.154724
  0
ARC
  5
211
100
AcDbEntity
  8
0
370
    -3
390
0
  6
Continuous
100
AcDbCircle
 10
-586.855429
 20
-160.640081
 30
0.0
 40
86.2
100
AcDbArc
 50
93.154724
 51
126.942477
  0
ARC
  5
212
100
AcDbEntity
  8
0
370
    -3
390
0
  6
Continuous
100
AcDbCircle
 10
-564.016938
 20
-191.011174
 30
0.0
 40
7.5
100
AcDbArc
 50
90.0
 51
270.0
  0
ARC
  5
213
100
AcDbEntity
  8
0
370
    -3
390
0
  6
Continuous
100
AcDbCircle
 10
-564.016938
 20
-191.011174
 30
0.0
 40
105.147
100
AcDbArc
 50
45.0
 51
53.057523
  0
ARC
  5
214
100
AcDbEntity
  8
0
370
    -3
390
0
  6
Continuous
100
AcDbCircle
 10
-564.016938
 20
-575.011174
 30
0.0
 40
482.147
100
AcDbArc
 50
86.845276
 51
90.0
  0
ARC
  5
215
100
AcDbEntity
  8
0
370
    -3
390
0
  6
Continuous
100
AcDbCircle
 10
-541.178447
 20
-160.640081
 30
0.0
 40
67.147
100
AcDbArc
 50
53.057523
 51
86.845276
  0
ARC
  5
216
100
AcDbEntity
  8
0
370
    -3
390
0
  6
Continuous
100
AcDbCircle
 10
-564.016938
 20
-191.011174
 30
0.0
 40
105.147
100
AcDbArc
 50
36.942477
 51
45.0
  0
ARC
  5
217
100
AcDbEntity
  8
0
370
    -3
390
0
  6
Continuous
100
AcDbCircle
 10
-533.645844
 20
-168.172683
 30
0.0
 40
67.147
100
AcDbArc
 50
3.154724
 51
36.942477
  0
ARC
  5
218
100
AcDbEntity
  8
0
370
    -3
390
0
  6
Continuous
100
AcDbCircle
 10
-948.016938
 20
-191.011174
 30
0.0
 40
482.147
100
AcDbArc
 50
360.0
 51
3.154724
  0
ARC
  5
219
100
AcDbEntity
  8
0
370
    -3
390
0
  6
Continuous
100
AcDbCircle
 10
-948.016938
 20
-191.011174
 30
0.0
 40
482.147
100
AcDbArc
 50
356.845276
 51
0.0
  0
ARC
  5
21A
100
AcDbEntity
  8
0
370
    -3
390
0
  6
Continuous
100
AcDbCircle
 10
-533.645844
 20
-213.849665
 30
0.0
 40
67.147
100
AcDbArc
 50
323.057523
 51
356.845276
  0
ARC
  5
21B
100
AcDbEntity
  8
0
370
    -3
390
0
  6
Continuous
100
AcDbCircle
 10
-564.016938
 20
-191.011174
 30
0.0
 40
105.147
100
AcDbArc
 50
315.0
 51
323.057523
  0
ARC
  5
21C
100
AcDbEntity
  8
0
370
    -3
390
0
  6
Continuous
100
AcDbCircle
 10
-564.016938
 20
-191.011174
 30
0.0
 40
105.147
100
AcDbArc
 50
306.942477
 51
315.0
  0
ARC
  5
21D
100
AcDbEntity
  8
0
370
    -3
390
0
  6
Continuous
100
AcDbCircle
 10
-541.178447
 20
-221.382268
 30
0.0
 40
67.147
100
AcDbArc
 50
273.154724
 51
306.942477
  0
ARC
  5
21E
100
AcDbEntity
  8
0
370
    -3
390
0
  6
Continuous
100
AcDbCircle
 10
-564.016938
 20
192.988826
 30
0.0
 40
482.147
100
AcDbArc
 50
270.0
 51
273.154724
  0
ARC
  5
21F
100
AcDbEntity
  8
0
370
    -3
390
0
  6
Continuous
100
AcDbCircle
 10
-564.016938
 20
-191.011174
 30
0.0
 40
70.5
100
AcDbArc
 50
275.099689
 51
324.047513
  0
ARC
  5
220
100
AcDbEntity
  8
0
370
    -3
390
0
  6
Continuous
100
AcDbCircle
 10
-509.375408
 20
-230.64138
 30
0.0
 40
3.0
100
AcDbArc
 50
324.047513
 51
60.0
  0
ARC
  5
221
100
AcDbEntity
  8
0
370
    -3
390
0
  6
Continuous
100
AcDbCircle
 10
-535.611805
 20
-215.493789
 30
0.0
 40
3.0
100
AcDbArc
 50
319.241682
 51
60.0
  0
ARC
  5
222
100
AcDbEntity
  8
0
370
    -3
390
0
  6
Continuous
100
AcDbCircle
 10
-564.016938
 20
-191.011174
 30
0.0
 40
40.5
100
AcDbArc
 50
279.206896
 51
319.241682
  0
ARC
  5
223
100
AcDbEntity
  8
0
370
    -3
390
0
  6
Continuous
100
AcDbCircle
 10
-558.016938
 20
-228.028062
 30
0.0
 40
3.0
100
AcDbArc
 50
180.0
 51
279.206896
  0
ARC
  5
224
100
AcDbEntity
  8
0
370
    -3
390
0
  6
Continuous
100
AcDbCircle
 10
-558.016938
 20
-239.138609
 30
0.0
 40
3.0
100
AcDbArc
 50
97.106343
 51
180.0
  0
ARC
  5
225
100
AcDbEntity
  8
0
370
    -3
390
0
  6
Continuous
100
AcDbCircle
 10
-564.016938
 20
-191.011174
 30
0.0
 40
45.5
100
AcDbArc
 50
277.106343
 51
321.701523
  0
ARC
  5
226
100
AcDbEntity
  8
0
370
    -3
390
0
  6
Continuous
100
AcDbCircle
 10
-525.954485
 20
-221.069446
 30
0.0
 40
3.0
100
AcDbArc
 50
60.0
 51
141.701523
  0
LINE
  5
227
100
AcDbEntity
  8
0
370
    -3
390
0
  6
Continuous
100
AcDbLine
 10
-524.454485
 20
-218.471369
 30
0.0
 11
-520.956562
 21
-220.490896
 31
0.0
  0
ARC
  5
228
100
AcDbEntity
  8
0
370
    -3
390
0
  6
Continuous
100
AcDbCircle
 10
-522.456562
 20
-223.088972
 30
0.0
 40
3.0
100
AcDbArc
 50
322.337744
 51
60.0
  0
LINE
  5
229
100
AcDbEntity
  8
0
370
    -3
390
0
  6
Continuous
100
AcDbLine
 10
-561.016938
 20
-239.138609
 30
0.0
 11
-561.016938
 21
-243.16719
 31
0.0
  0
ARC
  5
22A
100
AcDbEntity
  8
0
370
    -3
390
0
  6
Continuous
100
AcDbCircle
 10
-564.016938
 20
-191.011174
 30
0.0
 40
55.5
100
AcDbArc
 50
276.562428
 51
322.337744
  0
ARC
  5
22B
100
AcDbEntity
  8
0
370
    -3
390
0
  6
Continuous
100
AcDbCircle
 10
-558.016938
 20
-243.16719
 30
0.0
 40
3.0
100
AcDbArc
 50
180.0
 51
276.562428
  0
ARC
  5
22C
100
AcDbEntity
  8
0
370
    -3
390
0
  6
Continuous
100
AcDbCircle
 10
-558.016938
 20
-254.227074
 30
0.0
 40
3.0
100
AcDbArc
 50
95.421863
 51
180.0
  0
ARC
  5
22D
100
AcDbEntity
  8
0
370
    -3
390
0
  6
Continuous
100
AcDbCircle
 10
-564.016938
 20
-191.011174
 30
0.0
 40
60.5
100
AcDbArc
 50
275.421863
 51
323.671067
  0
ARC
  5
22E
100
AcDbEntity
  8
0
370
    -3
390
0
  6
Continuous
100
AcDbCircle
 10
-512.859482
 20
-228.629849
 30
0.0
 40
3.0
100
AcDbArc
 50
60.0
 51
143.671067
  0
LINE
  5
22F
100
AcDbEntity
  8
0
370
    -3
390
0
  6
Continuous
100
AcDbLine
 10
-561.016938
 20
-254.227074
 30
0.0
 11
-561.016938
 21
-258.243979
 31
0.0
  0
ARC
  5
230
100
AcDbEntity
  8
0
370
    -3
390
0
  6
Continuous
100
AcDbCircle
 10
-558.016938
 20
-258.243979
 30
0.0
 40
3.0
100
AcDbArc
 50
180.0
 51
275.099689
  0
LINE
  5
231
100
AcDbEntity
  8
0
370
    -3
390
0
  6
Continuous
100
AcDbLine
 10
-511.359482
 20
-226.031773
 30
0.0
 11
-507.875408
 21
-228.043304
 31
0.0
  0
ARC
  5
232
100
AcDbEntity
  8
0
370
    -3
390
0
  6
Continuous
100
AcDbCircle
 10
-558.016938
 20
-208.511174
 30
0.0
 40
3.0
100
AcDbArc
 50
108.924644
 51
180.0
  0
ARC
  5
233
100
AcDbEntity
  8
0
370
    -3
390
0
  6
Continuous
100
AcDbCircle
 10
-552.686648
 20
-205.635624
 30
0.0
 40
3.0
100
AcDbArc
 50
60.0
 51
127.766728
  0
ARC
  5
234
100
AcDbEntity
  8
0
370
    -3
390
0
  6
Continuous
100
AcDbCircle
 10
-564.016938
 20
-191.011174
 30
0.0
 40
15.5
100
AcDbArc
 50
288.924644
 51
307.766728
  0
LINE
  5
235
100
AcDbEntity
  8
0
370
    -3
390
0
  6
Continuous
100
AcDbLine
 10
-561.016938
 20
-208.511174
 30
0.0
 11
-561.016938
 21
-212.696423
 31
0.0
  0
ARC
  5
236
100
AcDbEntity
  8
0
370
    -3
390
0
  6
Continuous
100
AcDbCircle
 10
-558.016938
 20
-212.696423
 30
0.0
 40
3.0
100
AcDbArc
 50
180.0
 51
285.46601
  0
LINE
  5
237
100
AcDbEntity
  8
0
370
    -3
390
0
  6
Continuous
100
AcDbLine
 10
-551.186648
 20
-203.037548
 30
0.0
 11
-547.498366
 21
-205.166978
 31
0.0
  0
ARC
  5
238
100
AcDbEntity
  8
0
370
    -3
390
0
  6
Continuous
100
AcDbCircle
 10
-564.016938
 20
-191.011174
 30
0.0
 40
25.5
100
AcDbArc
 50
285.46601
 51
311.873796
  0
ARC
  5
239
100
AcDbEntity
  8
0
370
    -3
390
0
  6
Continuous
100
AcDbCircle
 10
-548.998366
 20
-207.765055
 30
0.0
 40
3.0
100
AcDbArc
 50
311.873796
 51
60.0
  0
ARC
  5
23A
100
AcDbEntity
  8
0
370
    -3
390
0
  6
Continuous
100
AcDbCircle
 10
-558.016938
 20
-223.969481
 30
0.0
 40
3.0
100
AcDbArc
 50
100.317603
 51
180.0
  0
ARC
  5
23B
100
AcDbEntity
  8
0
370
    -3
390
0
  6
Continuous
100
AcDbCircle
 10
-564.016938
 20
-191.011174
 30
0.0
 40
30.5
100
AcDbArc
 50
280.317603
 51
317.938867
  0
ARC
  5
23C
100
AcDbEntity
  8
0
370
    -3
390
0
  6
Continuous
100
AcDbCircle
 10
-539.145518
 20
-213.453599
 30
0.0
 40
3.0
100
AcDbArc
 50
60.0
 51
137.938867
  0
LINE
  5
23D
100
AcDbEntity
  8
0
370
    -3
390
0
  6
Continuous
100
AcDbLine
 10
-537.645518
 20
-210.855523
 30
0.0
 11
-534.111805
 21
-212.895713
 31
0.0
  0
LINE
  5
23E
100
AcDbEntity
  8
0
370
    -3
390
0
  6
Continuous
100
AcDbLine
 10
-561.016938
 20
-223.969481
 30
0.0
 11
-561.016938
 21
-228.028062
 31
0.0
  0
ARC
  5
23F
100
AcDbEntity
  8
0
370
    -3
390
0
  6
Continuous
100
AcDbCircle
 10
-564.016938
 20
-191.011174
 30
0.0
 40
70.5
100
AcDbArc
 50
335.952487
 51
24.900311
  0
ARC
  5
240
100
AcDbEntity
  8
0
370
    -3
390
0
  6
Continuous
100
AcDbCircle
 10
-502.375408
 20
-218.517024
 30
0.0
 40
3.0
100
AcDbArc
 50
240.0
 51
335.952487
  0
ARC
  5
241
100
AcDbEntity
  8
0
370
    -3
390
0
  6
Continuous
100
AcDbCircle
 10
-528.611805
 20
-203.369433
 30
0.0
 40
3.0
100
AcDbArc
 50
240.0
 51
340.758318
  0
ARC
  5
242
100
AcDbEntity
  8
0
370
    -3
390
0
  6
Continuous
100
AcDbCircle
 10
-564.016938
 20
-191.011174
 30
0.0
 40
40.5
100
AcDbArc
 50
340.758318
 51
20.793104
  0
ARC
  5
243
100
AcDbEntity
  8
0
370
    -3
390
0
  6
Continuous
100
AcDbCircle
 10
-528.959373
 20
-177.698883
 30
0.0
 40
3.0
100
AcDbArc
 50
20.793104
 51
120.0
  0
ARC
  5
244
100
AcDbEntity
  8
0
370
    -3
390
0
  6
Continuous
100
AcDbCircle
 10
-519.337357
 20
-172.143609
 30
0.0
 40
3.0
100
AcDbArc
 50
120.0
 51
202.893657
  0
ARC
  5
245
100
AcDbEntity
  8
0
370
    -3
390
0
  6
Continuous
100
AcDbCircle
 10
-564.016938
 20
-191.011174
 30
0.0
 40
45.5
100
AcDbArc
 50
338.298477
 51
22.893657
  0
ARC
  5
246
100
AcDbEntity
  8
0
370
    -3
390
0
  6
Continuous
100
AcDbCircle
 10
-518.954485
 20
-208.94509
 30
0.0
 40
3.0
100
AcDbArc
 50
158.298477
 51
240.0
  0
LINE
  5
247
100
AcDbEntity
  8
0
370
    -3
390
0
  6
Continuous
100
AcDbLine
 10
-520.454485
 20
-211.543166
 30
0.0
 11
-516.956562
 21
-213.562693
 31
0.0
  0
ARC
  5
248
100
AcDbEntity
  8
0
370
    -3
390
0
  6
Continuous
100
AcDbCircle
 10
-515.456562
 20
-210.964617
 30
0.0
 40
3.0
100
AcDbArc
 50
240.0
 51
337.662256
  0
LINE
  5
249
100
AcDbEntity
  8
0
370
    -3
390
0
  6
Continuous
100
AcDbLine
 10
-520.837357
 20
-169.545533
 30
0.0
 11
-517.348503
 21
-167.531243
 31
0.0
  0
ARC
  5
24A
100
AcDbEntity
  8
0
370
    -3
390
0
  6
Continuous
100
AcDbCircle
 10
-564.016938
 20
-191.011174
 30
0.0
 40
55.5
100
AcDbArc
 50
337.662256
 51
23.437572
  0
ARC
  5
24B
100
AcDbEntity
  8
0
370
    -3
390
0
  6
Continuous
100
AcDbCircle
 10
-515.848503
 20
-170.129319
 30
0.0
 40
3.0
100
AcDbArc
 50
23.437572
 51
120.0
  0
ARC
  5
24C
100
AcDbEntity
  8
0
370
    -3
390
0
  6
Continuous
100
AcDbCircle
 10
-506.270363
 20
-164.599377
 30
0.0
 40
3.0
100
AcDbArc
 50
120.0
 51
204.578137
  0
ARC
  5
24D
100
AcDbEntity
  8
0
370
    -3
390
0
  6
Continuous
100
AcDbCircle
 10
-564.016938
 20
-191.011174
 30
0.0
 40
60.5
100
AcDbArc
 50
336.328933
 51
24.578137
  0
ARC
  5
24E
100
AcDbEntity
  8
0
370
    -3
390
0
  6
Continuous
100
AcDbCircle
 10
-505.859482
 20
-216.505493
 30
0.0
 40
3.0
100
AcDbArc
 50
156.328933
 51
240.0
  0
LINE
  5
24F
100
AcDbEntity
  8
0
370
    -3
390
0
  6
Continuous
100
AcDbLine
 10
-507.770363
 20
-162.001301
 30
0.0
 11
-504.291621
 21
-159.992848
 31
0.0
  0
ARC
  5
250
100
AcDbEntity
  8
0
370
    -3
390
0
  6
Continuous
100
AcDbCircle
 10
-502.791621
 20
-162.590924
 30
0.0
 40
3.0
100
AcDbArc
 50
24.900311
 51
120.0
  0
LINE
  5
251
100
AcDbEntity
  8
0
370
    -3
390
0
  6
Continuous
100
AcDbLine
 10
-507.359482
 20
-219.10357
 30
0.0
 11
-503.875408
 21
-221.115101
 31
0.0
  0
ARC
  5
252
100
AcDbEntity
  8
0
370
    -3
390
0
  6
Continuous
100
AcDbCircle
 10
-545.861494
 20
-187.457327
 30
0.0
 40
3.0
100
AcDbArc
 50
120.0
 51
191.075356
  0
ARC
  5
253
100
AcDbEntity
  8
0
370
    -3
390
0
  6
Continuous
100
AcDbCircle
 10
-545.686648
 20
-193.511268
 30
0.0
 40
3.0
100
AcDbArc
 50
172.233272
 51
240.0
  0
ARC
  5
254
100
AcDbEntity
  8
0
370
    -3
390
0
  6
Continuous
100
AcDbCircle
 10
-564.016938
 20
-191.011174
 30
0.0
 40
15.5
100
AcDbArc
 50
352.233272
 51
11.075356
  0
LINE
  5
255
100
AcDbEntity
  8
0
370
    -3
390
0
  6
Continuous
100
AcDbLine
 10
-547.361494
 20
-184.85925
 30
0.0
 11
-543.736962
 21
-182.766626
 31
0.0
  0
ARC
  5
256
100
AcDbEntity
  8
0
370
    -3
390
0
  6
Continuous
100
AcDbCircle
 10
-542.236962
 20
-185.364702
 30
0.0
 40
3.0
100
AcDbArc
 50
14.53399
 51
120.0
  0
LINE
  5
257
100
AcDbEntity
  8
0
370
    -3
390
0
  6
Continuous
100
AcDbLine
 10
-547.186648
 20
-196.109345
 30
0.0
 11
-543.498366
 21
-198.238775
 31
0.0
  0
ARC
  5
258
100
AcDbEntity
  8
0
370
    -3
390
0
  6
Continuous
100
AcDbCircle
 10
-564.016938
 20
-191.011174
 30
0.0
 40
25.5
100
AcDbArc
 50
348.126204
 51
14.53399
  0
ARC
  5
259
100
AcDbEntity
  8
0
370
    -3
390
0
  6
Continuous
100
AcDbCircle
 10
-541.998366
 20
-195.640699
 30
0.0
 40
3.0
100
AcDbArc
 50
240.0
 51
348.126204
  0
ARC
  5
25A
100
AcDbEntity
  8
0
370
    -3
390
0
  6
Continuous
100
AcDbCircle
 10
-532.474207
 20
-179.728173
 30
0.0
 40
3.0
100
AcDbArc
 50
120.0
 51
199.682397
  0
ARC
  5
25B
100
AcDbEntity
  8
0
370
    -3
390
0
  6
Continuous
100
AcDbCircle
 10
-564.016938
 20
-191.011174
 30
0.0
 40
30.5
100
AcDbArc
 50
342.061133
 51
19.682397
  0
ARC
  5
25C
100
AcDbEntity
  8
0
370
    -3
390
0
  6
Continuous
100
AcDbCircle
 10
-532.145518
 20
-201.329244
 30
0.0
 40
3.0
100
AcDbArc
 50
162.061133
 51
240.0
  0
LINE
  5
25D
100
AcDbEntity
  8
0
370
    -3
390
0
  6
Continuous
100
AcDbLine
 10
-533.645518
 20
-203.92732
 30
0.0
 11
-530.111805
 21
-205.96751
 31
0.0
  0
LINE
  5
25E
100
AcDbEntity
  8
0
370
    -3
390
0
  6
Continuous
100
AcDbLine
 10
-533.974207
 20
-177.130097
 30
0.0
 11
-530.459373
 21
-175.100806
 31
0.0
  0
ARC
  5
25F
100
AcDbEntity
  8
0
370
    -3
390
0
  6
Continuous
100
AcDbCircle
 10
-564.016938
 20
-191.011174
 30
0.0
 40
85.5
100
AcDbArc
 50
34.170648
 51
85.132688
  0
ARC
  5
260
100
AcDbEntity
  8
0
370
    -3
390
0
  6
Continuous
100
AcDbCircle
 10
-564.016938
 20
-191.011174
 30
0.0
 40
70.5
100
AcDbArc
 50
35.099689
 51
84.047513
  0
ARC
  5
261
100
AcDbEntity
  8
0
370
    -3
390
0
  6
Continuous
100
AcDbCircle
 10
-557.016938
 20
-123.875118
 30
0.0
 40
3.0
100
AcDbArc
 50
84.047513
 51
180.0
  0
ARC
  5
262
100
AcDbEntity
  8
0
370
    -3
390
0
  6
Continuous
100
AcDbCircle
 10
-557.016938
 20
-154.1703
 30
0.0
 40
3.0
100
AcDbArc
 50
79.241682
 51
180.0
  0
ARC
  5
263
100
AcDbEntity
  8
0
370
    -3
390
0
  6
Continuous
100
AcDbCircle
 10
-564.016938
 20
-191.011174
 30
0.0
 40
40.5
100
AcDbArc
 50
39.206896
 51
79.241682
  0
ARC
  5
264
100
AcDbEntity
  8
0
370
    -3
390
0
  6
Continuous
100
AcDbCircle
 10
-534.959373
 20
-167.306578
 30
0.0
 40
3.0
100
AcDbArc
 50
300.0
 51
39.206896
  0
ARC
  5
265
100
AcDbEntity
  8
0
370
    -3
390
0
  6
Continuous
100
AcDbCircle
 10
-525.337357
 20
-161.751304
 30
0.0
 40
3.0
100
AcDbArc
 50
217.106343
 51
300.0
  0
ARC
  5
266
100
AcDbEntity
  8
0
370
    -3
390
0
  6
Continuous
100
AcDbCircle
 10
-564.016938
 20
-191.011174
 30
0.0
 40
45.5
100
AcDbArc
 50
37.106343
 51
81.701523
  0
ARC
  5
267
100
AcDbEntity
  8
0
370
    -3
390
0
  6
Continuous
100
AcDbCircle
 10
-557.016938
 20
-143.018987
 30
0.0
 40
3.0
100
AcDbArc
 50
180.0
 51
261.701523
  0
LINE
  5
268
100
AcDbEntity
  8
0
370
    -3
390
0
  6
Continuous
100
AcDbLine
 10
-560.016938
 20
-143.018987
 30
0.0
 11
-560.016938
 21
-138.979934
 31
0.0
  0
ARC
  5
269
100
AcDbEntity
  8
0
370
    -3
390
0
  6
Continuous
100
AcDbCircle
 10
-557.016938
 20
-138.979934
 30
0.0
 40
3.0
100
AcDbArc
 50
82.337744
 51
180.0
  0
LINE
  5
26A
100
AcDbEntity
  8
0
370
    -3
390
0
  6
Continuous
100
AcDbLine
 10
-523.837357
 20
-164.349381
 30
0.0
 11
-520.348503
 21
-162.33509
 31
0.0
  0
ARC
  5
26B
100
AcDbEntity
  8
0
370
    -3
390
0
  6
Continuous
100
AcDbCircle
 10
-564.016938
 20
-191.011174
 30
0.0
 40
55.5
100
AcDbArc
 50
36.562428
 51
82.337744
  0
ARC
  5
26C
100
AcDbEntity
  8
0
370
    -3
390
0
  6
Continuous
100
AcDbCircle
 10
-521.848503
 20
-159.737014
 30
0.0
 40
3.0
100
AcDbArc
 50
300.0
 51
36.562428
  0
ARC
  5
26D
100
AcDbEntity
  8
0
370
    -3
390
0
  6
Continuous
100
AcDbCircle
 10
-512.270363
 20
-154.207072
 30
0.0
 40
3.0
100
AcDbArc
 50
215.421863
 51
300.0
  0
ARC
  5
26E
100
AcDbEntity
  8
0
370
    -3
390
0
  6
Continuous
100
AcDbCircle
 10
-564.016938
 20
-191.011174
 30
0.0
 40
60.5
100
AcDbArc
 50
35.421863
 51
83.671067
  0
ARC
  5
26F
100
AcDbEntity
  8
0
370
    -3
390
0
  6
Continuous
100
AcDbCircle
 10
-557.016938
 20
-127.89818
 30
0.0
 40
3.0
100
AcDbArc
 50
180.0
 51
263.671067
  0
LINE
  5
270
100
AcDbEntity
  8
0
370
    -3
390
0
  6
Continuous
100
AcDbLine
 10
-510.770363
 20
-156.805148
 30
0.0
 11
-507.291621
 21
-154.796696
 31
0.0
  0
ARC
  5
271
100
AcDbEntity
  8
0
370
    -3
390
0
  6
Continuous
100
AcDbCircle
 10
-508.791621
 20
-152.19862
 30
0.0
 40
3.0
100
AcDbArc
 50
300.0
 51
35.099689
  0
LINE
  5
272
100
AcDbEntity
  8
0
370
    -3
390
0
  6
Continuous
100
AcDbLine
 10
-560.016938
 20
-127.89818
 30
0.0
 11
-560.016938
 21
-123.875118
 31
0.0
  0
ARC
  5
273
100
AcDbEntity
  8
0
370
    -3
390
0
  6
Continuous
100
AcDbCircle
 10
-551.861494
 20
-177.065022
 30
0.0
 40
3.0
100
AcDbArc
 50
228.924644
 51
300.0
  0
ARC
  5
274
100
AcDbEntity
  8
0
370
    -3
390
0
  6
Continuous
100
AcDbCircle
 10
-557.016938
 20
-173.88663
 30
0.0
 40
3.0
100
AcDbArc
 50
180.0
 51
247.766728
  0
ARC
  5
275
100
AcDbEntity
  8
0
370
    -3
390
0
  6
Continuous
100
AcDbCircle
 10
-564.016938
 20
-191.011174
 30
0.0
 40
15.5
100
AcDbArc
 50
48.924644
 51
67.766728
  0
LINE
  5
276
100
AcDbEntity
  8
0
370
    -3
390
0
  6
Continuous
100
AcDbLine
 10
-550.361494
 20
-179.663098
 30
0.0
 11
-546.736962
 21
-177.570474
 31
0.0
  0
ARC
  5
277
100
AcDbEntity
  8
0
370
    -3
390
0
  6
Continuous
100
AcDbCircle
 10
-548.236962
 20
-174.972398
 30
0.0
 40
3.0
100
AcDbArc
 50
300.0
 51
45.46601
  0
LINE
  5
278
100
AcDbEntity
  8
0
370
    -3
390
0
  6
Continuous
100
AcDbLine
 10
-560.016938
 20
-173.88663
 30
0.0
 11
-560.016938
 21
-169.62777
 31
0.0
  0
ARC
  5
279
100
AcDbEntity
  8
0
370
    -3
390
0
  6
Continuous
100
AcDbCircle
 10
-564.016938
 20
-191.011174
 30
0.0
 40
25.5
100
AcDbArc
 50
45.46601
 51
71.873796
  0
ARC
  5
27A
100
AcDbEntity
  8
0
370
    -3
390
0
  6
Continuous
100
AcDbCircle
 10
-557.016938
 20
-169.62777
 30
0.0
 40
3.0
100
AcDbArc
 50
71.873796
 51
180.0
  0
ARC
  5
27B
100
AcDbEntity
  8
0
370
    -3
390
0
  6
Continuous
100
AcDbCircle
 10
-538.474207
 20
-169.335868
 30
0.0
 40
3.0
100
AcDbArc
 50
220.317603
 51
300.0
  0
ARC
  5
27C
100
AcDbEntity
  8
0
370
    -3
390
0
  6
Continuous
100
AcDbCircle
 10
-564.016938
 20
-191.011174
 30
0.0
 40
30.5
100
AcDbArc
 50
40.317603
 51
77.938867
  0
ARC
  5
27D
100
AcDbEntity
  8
0
370
    -3
390
0
  6
Continuous
100
AcDbCircle
 10
-557.016938
 20
-158.25068
 30
0.0
 40
3.0
100
AcDbArc
 50
180.0
 51
257.938867
  0
LINE
  5
27E
100
AcDbEntity
  8
0
370
    -3
390
0
  6
Continuous
100
AcDbLine
 10
-560.016938
 20
-158.25068
 30
0.0
 11
-560.016938
 21
-154.1703
 31
0.0
  0
LINE
  5
27F
100
AcDbEntity
  8
0
370
    -3
390
0
  6
Continuous
100
AcDbLine
 10
-536.974207
 20
-171.933945
 30
0.0
 11
-533.459373
 21
-169.904654
 31
0.0
  0
ARC
  5
280
100
AcDbEntity
  8
0
370
    -3
390
0
  6
Continuous
100
AcDbCircle
 10
-564.016938
 20
192.988826
 30
0.0
 40
501.2
100
AcDbArc
 50
270.0
 51
273.154724
  0
ARC
  5
281
100
AcDbEntity
  8
0
370
    -3
390
0
  6
Continuous
100
AcDbCircle
 10
-541.178447
 20
-221.382268
 30
0.0
 40
86.2
100
AcDbArc
 50
273.154724
 51
306.942477
  0
ARC
  5
282
100
AcDbEntity
  8
0
370
    -3
390
0
  6
Continuous
100
AcDbCircle
 10
-948.016938
 20
-191.011174
 30
0.0
 40
501.2
100
AcDbArc
 50
356.845276
 51
0.0
  0
ARC
  5
283
100
AcDbEntity
  8
0
370
    -3
390
0
  6
Continuous
100
AcDbCircle
 10
-533.645844
 20
-213.849665
 30
0.0
 40
86.2
100
AcDbArc
 50
323.057523
 51
356.845276
  0
ARC
  5
284
100
AcDbEntity
  8
0
370
    -3
390
0
  6
Continuous
100
AcDbCircle
 10
-564.016938
 20
-191.011174
 30
0.0
 40
124.2
100
AcDbArc
 50
315.0
 51
323.057523
  0
ARC
  5
285
100
AcDbEntity
  8
0
370
    -3
390
0
  6
Continuous
100
AcDbCircle
 10
-948.016938
 20
-191.011174
 30
0.0
 40
501.2
100
AcDbArc
 50
360.0
 51
3.154724
  0
ARC
  5
286
100
AcDbEntity
  8
0
370
    -3
390
0
  6
Continuous
100
AcDbCircle
 10
-533.645844
 20
-168.172683
 30
0.0
 40
86.2
100
AcDbArc
 50
3.154724
 51
36.942477
  0
ARC
  5
287
100
AcDbEntity
  8
0
370
    -3
390
0
  6
Continuous
100
AcDbCircle
 10
-564.016938
 20
-191.011174
 30
0.0
 40
124.2
100
AcDbArc
 50
36.942477
 51
45.0
  0
ARC
  5
288
100
AcDbEntity
  8
0
370
    -3
390
0
  6
Continuous
100
AcDbCircle
 10
-564.016938
 20
-575.011174
 30
0.0
 40
501.2
100
AcDbArc
 50
86.845276
 51
90.0
  0
ARC
  5
289
100
AcDbEntity
  8
0
370
    -3
390
0
  6
Continuous
100
AcDbCircle
 10
-541.178447
 20
-160.640081
 30
0.0
 40
86.2
100
AcDbArc
 50
53.057523
 51
86.845276
  0
ARC
  5
28A
100
AcDbEntity
  8
0
370
    -3
390
0
  6
Continuous
100
AcDbCircle
 10
-564.016938
 20
-191.011174
 30
0.0
 40
124.2
100
AcDbArc
 50
45.0
 51
53.057523
  0
ARC
  5
28B
100
AcDbEntity
  8
0
370
    -3
390
0
  6
Continuous
100
AcDbCircle
 10
-564.016938
 20
-191.011174
 30
0.0
 40
7.5
100
AcDbArc
 50
270.0
 51
90.0
  0
ARC
  5
28C
100
AcDbEntity
  8
0
370
    -3
390
0
  6
Continuous
100
AcDbCircle
 10
-557.016938
 20
-108.80868
 30
0.0
 40
3.0
100
AcDbArc
 50
85.132688
 51
180.0
  0
LINE
  5
28D
100
AcDbEntity
  8
0
370
    -3
390
0
  6
Continuous
100
AcDbLine
 10
-560.016938
 20
-111.737913
 30
0.0
 11
-560.016938
 21
-108.80868
 31
0.0
  0
LINE
  5
28E
100
AcDbEntity
  8
0
370
    -3
390
0
  6
Continuous
100
AcDbLine
 10
-496.804221
 20
-148.741792
 30
0.0
 11
-494.259044
 21
-147.272334
 31
0.0
  0
ARC
  5
28F
100
AcDbEntity
  8
0
370
    -3
390
0
  6
Continuous
100
AcDbCircle
 10
-495.759044
 20
-144.674257
 30
0.0
 40
3.0
100
AcDbArc
 50
300.0
 51
34.170648
  0
ARC
  5
290
100
AcDbEntity
  8
0
370
    -3
390
0
  6
Continuous
100
AcDbCircle
 10
-564.016938
 20
-191.011174
 30
0.0
 40
85.5
100
AcDbArc
 50
94.867312
 51
145.829352
  0
ARC
  5
291
100
AcDbEntity
  8
0
370
    -3
390
0
  6
Continuous
100
AcDbCircle
 10
-632.274832
 20
-144.674257
 30
0.0
 40
3.0
100
AcDbArc
 50
145.829352
 51
240.0
  0
LINE
  5
292
100
AcDbEntity
  8
0
370
    -3
390
0
  6
Continuous
100
AcDbLine
 10
-631.229655
 20
-148.741792
 30
0.0
 11
-633.774832
 21
-147.272334
 31
0.0
  0
ARC
  5
293
100
AcDbEntity
  8
0
370
    -3
390
0
  6
Continuous
100
AcDbCircle
 10
-571.016938
 20
-108.80868
 30
0.0
 40
3.0
100
AcDbArc
 50
0.0
 51
94.867312
  0
LINE
  5
294
100
AcDbEntity
  8
0
370
    -3
390
0
  6
Continuous
100
AcDbLine
 10
-568.016938
 20
-111.737913
 30
0.0
 11
-568.016938
 21
-108.80868
 31
0.0
  0
ARC
  5
295
100
AcDbEntity
  8
0
370
    -3
390
0
  6
Continuous
100
AcDbCircle
 10
-564.016938
 20
-191.011174
 30
0.0
 40
85.5
100
AcDbArc
 50
154.170648
 51
205.132688
  0
ARC
  5
296
100
AcDbEntity
  8
0
370
    -3
390
0
  6
Continuous
100
AcDbCircle
 10
-638.274832
 20
-155.066562
 30
0.0
 40
3.0
100
AcDbArc
 50
60.0
 51
154.170648
  0
LINE
  5
297
100
AcDbEntity
  8
0
370
    -3
390
0
  6
Continuous
100
AcDbLine
 10
-634.229655
 20
-153.937945
 30
0.0
 11
-636.774832
 21
-152.468486
 31
0.0
  0
ARC
  5
298
100
AcDbEntity
  8
0
370
    -3
390
0
  6
Continuous
100
AcDbCircle
 10
-638.706386
 20
-226.050243
 30
0.0
 40
3.0
100
AcDbArc
 50
205.132688
 51
300.0
  0
LINE
  5
299
100
AcDbEntity
  8
0
370
    -3
390
0
  6
Continuous
100
AcDbLine
 10
-634.669596
 20
-227.183703
 30
0.0
 11
-637.206386
 21
-228.64832
 31
0.0
  0
ARC
  5
29A
100
AcDbEntity
  8
0
370
    -3
390
0
  6
Continuous
100
AcDbCircle
 10
-564.016938
 20
-191.011174
 30
0.0
 40
85.5
100
AcDbArc
 50
214.867312
 51
265.829352
  0
ARC
  5
29B
100
AcDbEntity
  8
0
370
    -3
390
0
  6
Continuous
100
AcDbCircle
 10
-570.016938
 20
-273.292703
 30
0.0
 40
3.0
100
AcDbArc
 50
265.829352
 51
0.0
  0
LINE
  5
29C
100
AcDbEntity
  8
0
370
    -3
390
0
  6
Continuous
100
AcDbLine
 10
-567.016938
 20
-270.353786
 30
0.0
 11
-567.016938
 21
-273.292703
 31
0.0
  0
ARC
  5
29D
100
AcDbEntity
  8
0
370
    -3
390
0
  6
Continuous
100
AcDbCircle
 10
-631.706386
 20
-238.174599
 30
0.0
 40
3.0
100
AcDbArc
 50
120.0
 51
214.867312
  0
LINE
  5
29E
100
AcDbEntity
  8
0
370
    -3
390
0
  6
Continuous
100
AcDbLine
 10
-630.669596
 20
-234.111907
 30
0.0
 11
-633.206386
 21
-235.576523
 31
0.0
  0
ARC
  5
29F
100
AcDbEntity
  8
0
370
    -3
390
0
  6
Continuous
100
AcDbCircle
 10
-564.016938
 20
-191.011174
 30
0.0
 40
85.5
100
AcDbArc
 50
274.170648
 51
325.132688
  0
ARC
  5
2A0
100
AcDbEntity
  8
0
370
    -3
390
0
  6
Continuous
100
AcDbCircle
 10
-558.016938
 20
-273.292703
 30
0.0
 40
3.0
100
AcDbArc
 50
180.0
 51
274.170648
  0
LINE
  5
2A1
100
AcDbEntity
  8
0
370
    -3
390
0
  6
Continuous
100
AcDbLine
 10
-561.016938
 20
-270.353786
 30
0.0
 11
-561.016938
 21
-273.292703
 31
0.0
  0
ARC
  5
2A2
100
AcDbEntity
  8
0
370
    -3
390
0
  6
Continuous
100
AcDbCircle
 10
-496.32749
 20
-238.174599
 30
0.0
 40
3.0
100
AcDbArc
 50
325.132688
 51
60.0
  0
LINE
  5
2A3
100
AcDbEntity
  8
0
370
    -3
390
0
  6
Continuous
100
AcDbLine
 10
-497.36428
 20
-234.111907
 30
0.0
 11
-494.82749
 21
-235.576523
 31
0.0
  0
ARC
  5
2A4
100
AcDbEntity
  8
0
370
    -3
390
0
  6
Continuous
100
AcDbCircle
 10
-564.016938
 20
-191.011174
 30
0.0
 40
85.5
100
AcDbArc
 50
334.867312
 51
25.829352
  0
ARC
  5
2A5
100
AcDbEntity
  8
0
370
    -3
390
0
  6
Continuous
100
AcDbCircle
 10
-489.759044
 20
-155.066562
 30
0.0
 40
3.0
100
AcDbArc
 50
25.829352
 51
120.0
  0
LINE
  5
2A6
100
AcDbEntity
  8
0
370
    -3
390
0
  6
Continuous
100
AcDbLine
 10
-493.804221
 20
-153.937945
 30
0.0
 11
-491.259044
 21
-152.468486
 31
0.0
  0
ARC
  5
2A7
100
AcDbEntity
  8
0
370
    -3
390
0
  6
Continuous
100
AcDbCircle
 10
-489.32749
 20
-226.050243
 30
0.0
 40
3.0
100
AcDbArc
 50
240.0
 51
334.867312
  0
LINE
  5
2A8
100
AcDbEntity
  8
0
370
    -3
390
0
  6
Continuous
100
AcDbLine
 10
-493.36428
 20
-227.183703
 30
0.0
 11
-490.82749
 21
-228.64832
 31
0.0
  0
ARC
  5
2A9
100
AcDbEntity
  8
0
370
    -3
390
0
  6
Continuous
100
AcDbCircle
 10
-564.016938
 20
-191.011174
 30
0.0
 40
77.5
100
AcDbArc
 50
94.328325
 51
146.394112
  0
ARC
  5
2AA
100
AcDbEntity
  8
0
370
    -3
390
0
  6
Continuous
100
AcDbCircle
 10
-564.016938
 20
-191.011174
 30
0.0
 40
77.5
100
AcDbArc
 50
153.605888
 51
205.671675
  0
ARC
  5
2AB
100
AcDbEntity
  8
0
370
    -3
390
0
  6
Continuous
100
AcDbCircle
 10
-564.016938
 20
-191.011174
 30
0.0
 40
77.5
100
AcDbArc
 50
214.328325
 51
266.394112
  0
ARC
  5
2AC
100
AcDbEntity
  8
0
370
    -3
390
0
  6
Continuous
100
AcDbCircle
 10
-564.016938
 20
-191.011174
 30
0.0
 40
77.5
100
AcDbArc
 50
273.605888
 51
325.671675
  0
ARC
  5
2AD
100
AcDbEntity
  8
0
370
    -3
390
0
  6
Continuous
100
AcDbCircle
 10
-564.016938
 20
-191.011174
 30
0.0
 40
77.5
100
AcDbArc
 50
334.328325
 51
26.394112
  0
ARC
  5
2AE
100
AcDbEntity
  8
0
370
    -3
390
0
  6
Continuous
100
AcDbCircle
 10
-564.016938
 20
-191.011174
 30
0.0
 40
77.5
100
AcDbArc
 50
33.605888
 51
85.671675
  0
ARC
  5
2AF
100
AcDbEntity
  8
0
370
    -3
390
0
  6
Continuous
100
AcDbCircle
 10
-558.016938
 20
-111.737913
 30
0.0
 40
2.0
100
AcDbArc
 50
180.0
 51
265.671675
  0
ARC
  5
2B0
100
AcDbEntity
  8
0
370
    -3
390
0
  6
Continuous
100
AcDbCircle
 10
-497.804221
 20
-147.009742
 30
0.0
 40
2.0
100
AcDbArc
 50
213.605888
 51
300.0
  0
ARC
  5
2B1
100
AcDbEntity
  8
0
370
    -3
390
0
  6
Continuous
100
AcDbCircle
 10
-570.016938
 20
-111.737913
 30
0.0
 40
2.0
100
AcDbArc
 50
274.328325
 51
0.0
  0
ARC
  5
2B2
100
AcDbEntity
  8
0
370
    -3
390
0
  6
Continuous
100
AcDbCircle
 10
-630.229655
 20
-147.009742
 30
0.0
 40
2.0
100
AcDbArc
 50
240.0
 51
326.394112
  0
ARC
  5
2B3
100
AcDbEntity
  8
0
370
    -3
390
0
  6
Continuous
100
AcDbCircle
 10
-635.229655
 20
-155.669996
 30
0.0
 40
2.0
100
AcDbArc
 50
333.605888
 51
60.0
  0
ARC
  5
2B4
100
AcDbEntity
  8
0
370
    -3
390
0
  6
Continuous
100
AcDbCircle
 10
-635.669596
 20
-225.451653
 30
0.0
 40
2.0
100
AcDbArc
 50
300.0
 51
25.671675
  0
ARC
  5
2B5
100
AcDbEntity
  8
0
370
    -3
390
0
  6
Continuous
100
AcDbCircle
 10
-629.669596
 20
-235.843957
 30
0.0
 40
2.0
100
AcDbArc
 50
34.328325
 51
120.0
  0
ARC
  5
2B6
100
AcDbEntity
  8
0
370
    -3
390
0
  6
Continuous
100
AcDbCircle
 10
-569.016938
 20
-270.353786
 30
0.0
 40
2.0
100
AcDbArc
 50
0.0
 51
86.394112
  0
ARC
  5
2B7
100
AcDbEntity
  8
0
370
    -3
390
0
  6
Continuous
100
AcDbCircle
 10
-559.016938
 20
-270.353786
 30
0.0
 40
2.0
100
AcDbArc
 50
93.605888
 51
180.0
  0
ARC
  5
2B8
100
AcDbEntity
  8
0
370
    -3
390
0
  6
Continuous
100
AcDbCircle
 10
-498.36428
 20
-235.843957
 30
0.0
 40
2.0
100
AcDbArc
 50
60.0
 51
145.671675
  0
ARC
  5
2B9
100
AcDbEntity
  8
0
370
    -3
390
0
  6
Continuous
100
AcDbCircle
 10
-492.36428
 20
-225.451653
 30
0.0
 40
2.0
100
AcDbArc
 50
154.328325
 51
240.0
  0
ARC
  5
2BA
100
AcDbEntity
  8
0
370
    -3
390
0
  6
Continuous
100
AcDbCircle
 10
-492.804221
 20
-155.669996
 30
0.0
 40
2.0
100
AcDbArc
 50
120.0
 51
206.394112
  0
LINE
  5
2BB
100
AcDbEntity
  8
0
370
    -3
390
0
  6
Continuous
100
AcDbLine
 10
-486.62369
 20
-233.962136
 30
0.0
 11
-548.977519
 21
-197.962136
 31
0.0
  0
LINE
  5
2BC
100
AcDbEntity
  8
0
370
    -3
390
0
  6
Continuous
100
AcDbLine
 10
-488.12369
 20
-236.560212
 30
0.0
 11
-550.477519
 21
-200.560212
 31
0.0
  0
ARC
  5
2BD
100
AcDbEntity
  8
0
370
    -3
390
0
  6
Continuous
100
AcDbCircle
 10
-564.016938
 20
-174.511174
 30
0.0
 40
1.5
100
AcDbArc
 50
180.0
 51
0.0
  0
LINE
  5
2BE
100
AcDbEntity
  8
0
370
    -3
390
0
  6
Continuous
100
AcDbLine
 10
-562.516938
 20
-102.511174
 30
0.0
 11
-562.516938
 21
-174.511174
 31
0.0
  0
LINE
  5
2BF
100
AcDbEntity
  8
0
370
    -3
390
0
  6
Continuous
100
AcDbLine
 10
-565.516938
 20
-102.511174
 30
0.0
 11
-565.516938
 21
-174.511174
 31
0.0
  0
ARC
  5
2C0
100
AcDbEntity
  8
0
370
    -3
390
0
  6
Continuous
100
AcDbCircle
 10
-564.016938
 20
-102.511174
 30
0.0
 40
1.5
100
AcDbArc
 50
0.0
 51
180.0
  0
ARC
  5
2C1
100
AcDbEntity
  8
0
370
    -3
390
0
  6
Continuous
100
AcDbCircle
 10
-578.306357
 20
-199.261174
 30
0.0
 40
1.5
100
AcDbArc
 50
300.0
 51
120.0
  0
LINE
  5
2C2
100
AcDbEntity
  8
0
370
    -3
390
0
  6
Continuous
100
AcDbLine
 10
-641.410186
 20
-233.962136
 30
0.0
 11
-579.056357
 21
-197.962136
 31
0.0
  0
LINE
  5
2C3
100
AcDbEntity
  8
0
370
    -3
390
0
  6
Continuous
100
AcDbLine
 10
-639.910186
 20
-236.560212
 30
0.0
 11
-577.556357
 21
-200.560212
 31
0.0
  0
ARC
  5
2C4
100
AcDbEntity
  8
0
370
    -3
390
0
  6
Continuous
100
AcDbCircle
 10
-640.660186
 20
-235.261174
 30
0.0
 40
1.5
100
AcDbArc
 50
120.0
 51
300.0
  0
ARC
  5
2C5
100
AcDbEntity
  8
0
370
    -3
390
0
  6
Continuous
100
AcDbCircle
 10
-549.727519
 20
-199.261174
 30
0.0
 40
1.5
100
AcDbArc
 50
60.0
 51
240.0
  0
ARC
  5
2C6
100
AcDbEntity
  8
0
370
    -3
390
0
  6
Continuous
100
AcDbCircle
 10
-487.37369
 20
-235.261174
 30
0.0
 40
1.5
100
AcDbArc
 50
240.0
 51
60.0
  0
ARC
  5
2C7
100
AcDbEntity
  8
0
370
    -3
390
0
  6
Continuous
100
AcDbCircle
 10
-471.527371
 20
-106.299782
 30
0.0
 40
0.5
100
AcDbArc
 50
315.0
 51
45.0
  0
LINE
  5
2C8
100
AcDbEntity
  8
0
370
    -3
390
0
  6
Continuous
100
AcDbLine
 10
-471.315239
 20
-104.673436
 30
0.0
 11
-470.404843
 21
-103.763041
 31
0.0
  0
ARC
  5
2C9
100
AcDbEntity
  8
0
370
    -3
390
0
  6
Continuous
100
AcDbCircle
 10
-471.536214
 20
-102.63167
 30
0.0
 40
1.599999
100
AcDbArc
 50
314.999999
 51
28.808717
  0
LINE
  5
2CA
100
AcDbEntity
  8
0
370
    -3
390
0
  6
Continuous
100
AcDbLine
 10
-471.527371
 20
-105.592675
 30
0.0
 11
-470.961686
 21
-105.02699
 31
0.0
  0
LINE
  5
2CB
100
AcDbEntity
  8
0
370
    -3
390
0
  6
Continuous
100
AcDbLine
 10
-472.054174
 20
-107.533692
 30
0.0
 11
-471.173818
 21
-106.653335
 31
0.0
  0
ARC
  5
2CC
100
AcDbEntity
  8
0
370
    -3
390
0
  6
Continuous
100
AcDbCircle
 10
-480.649048
 20
-107.643284
 30
0.0
 40
12.0
100
AcDbArc
 50
28.808663
 51
61.957763
  0
ARC
  5
2CD
100
AcDbEntity
  8
0
370
    -3
390
0
  6
Continuous
100
AcDbCircle
 10
-479.305546
 20
-98.521607
 30
0.0
 40
0.5
100
AcDbArc
 50
45.0
 51
135.0
  0
LINE
  5
2CE
100
AcDbEntity
  8
0
370
    -3
390
0
  6
Continuous
100
AcDbLine
 10
-477.6792
 20
-98.309475
 30
0.0
 11
-476.768804
 21
-97.39908
 31
0.0
  0
ARC
  5
2CF
100
AcDbEntity
  8
0
370
    -3
390
0
  6
Continuous
100
AcDbCircle
 10
-475.637434
 20
-98.53045
 30
0.0
 40
1.599999
100
AcDbArc
 50
61.191409
 51
135.000018
  0
LINE
  5
2D0
100
AcDbEntity
  8
0
370
    -3
390
0
  6
Continuous
100
AcDbLine
 10
-478.032753
 20
-97.955922
 30
0.0
 11
-478.598439
 21
-98.521607
 31
0.0
  0
LINE
  5
2D1
100
AcDbEntity
  8
0
370
    -3
390
0
  6
Continuous
100
AcDbLine
 10
-480.539456
 20
-99.04841
 30
0.0
 11
-479.659099
 21
-98.168054
 31
0.0
  0
LINE
  5
2D2
100
AcDbEntity
  8
0
370
    -3
390
0
  6
Continuous
100
AcDbLine
 10
-471.173818
 20
-105.946229
 30
0.0
 11
-478.951992
 21
-98.168054
 31
0.0
  0
LINE
  5
2D3
100
AcDbEntity
  8
0
370
    -3
390
0
  6
Continuous
100
AcDbLine
 10
-478.032753
 20
-97.955922
 30
0.0
 11
-470.961686
 21
-105.02699
 31
0.0
  0
ARC
  5
2D4
100
AcDbEntity
  8
0
370
    -3
390
0
  6
Continuous
100
AcDbCircle
 10
-564.016938
 20
-191.011174
 30
0.0
 40
124.2
100
AcDbArc
 50
126.942477
 51
135.0
  0
ARC
  5
2D5
100
AcDbEntity
  8
0
370
    -3
390
0
  6
Continuous
100
AcDbCircle
 10
-564.016938
 20
-191.011174
 30
0.0
 40
124.2
100
AcDbArc
 50
135.0
 51
143.057523
  0
ARC
  5
2D6
100
AcDbEntity
  8
0
370
    -3
390
0
  6
Continuous
100
AcDbCircle
 10
-564.016938
 20
-191.011174
 30
0.0
 40
124.2
100
AcDbArc
 50
306.942477
 51
315.0
  0
ARC
  5
2D7
100
AcDbEntity
  8
0
370
    -3
390
0
  6
Continuous
100
AcDbCircle
 10
-471.527371
 20
-275.722567
 30
0.0
 40
0.5
100
AcDbArc
 50
315.0
 51
45.0
  0
LINE
  5
2D8
100
AcDbEntity
  8
0
370
    -3
390
0
  6
Continuous
100
AcDbLine
 10
-471.315239
 20
-277.348912
 30
0.0
 11
-470.404843
 21
-278.259308
 31
0.0
  0
ARC
  5
2D9
100
AcDbEntity
  8
0
370
    -3
390
0
  6
Continuous
100
AcDbCircle
 10
-471.536214
 20
-279.390678
 30
0.0
 40
1.599999
100
AcDbArc
 50
331.191283
 51
45.000001
  0
LINE
  5
2DA
100
AcDbEntity
  8
0
370
    -3
390
0
  6
Continuous
100
AcDbLine
 10
-471.527371
 20
-276.429673
 30
0.0
 11
-470.961686
 21
-276.995359
 31
0.0
  0
LINE
  5
2DB
100
AcDbEntity
  8
0
370
    -3
390
0
  6
Continuous
100
AcDbLine
 10
-472.054174
 20
-274.488657
 30
0.0
 11
-471.173818
 21
-275.369013
 31
0.0
  0
ARC
  5
2DC
100
AcDbEntity
  8
0
370
    -3
390
0
  6
Continuous
100
AcDbCircle
 10
-480.649048
 20
-274.379065
 30
0.0
 40
12.0
100
AcDbArc
 50
298.808645
 51
331.191337
  0
ARC
  5
2DD
100
AcDbEntity
  8
0
370
    -3
390
0
  6
Continuous
100
AcDbCircle
 10
-479.305546
 20
-283.500741
 30
0.0
 40
0.5
100
AcDbArc
 50
225.0
 51
315.0
  0
LINE
  5
2DE
100
AcDbEntity
  8
0
370
    -3
390
0
  6
Continuous
100
AcDbLine
 10
-477.6792
 20
-283.712873
 30
0.0
 11
-476.768804
 21
-284.623269
 31
0.0
  0
ARC
  5
2DF
100
AcDbEntity
  8
0
370
    -3
390
0
  6
Continuous
100
AcDbCircle
 10
-475.637434
 20
-283.491899
 30
0.0
 40
1.599999
100
AcDbArc
 50
224.999982
 51
298.808591
  0
LINE
  5
2E0
100
AcDbEntity
  8
0
370
    -3
390
0
  6
Continuous
100
AcDbLine
 10
-478.032753
 20
-284.066427
 30
0.0
 11
-478.598439
 21
-283.500741
 31
0.0
  0
LINE
  5
2E1
100
AcDbEntity
  8
0
370
    -3
390
0
  6
Continuous
100
AcDbLine
 10
-480.539456
 20
-282.973938
 30
0.0
 11
-479.659099
 21
-283.854295
 31
0.0
  0
LINE
  5
2E2
100
AcDbEntity
  8
0
370
    -3
390
0
  6
Continuous
100
AcDbLine
 10
-471.173818
 20
-276.07612
 30
0.0
 11
-478.951992
 21
-283.854295
 31
0.0
  0
LINE
  5
2E3
100
AcDbEntity
  8
0
370
    -3
390
0
  6
Continuous
100
AcDbLine
 10
-478.032753
 20
-284.066427
 30
0.0
 11
-470.961686
 21
-276.995359
 31
0.0
  0
ARC
  5
2E4
100
AcDbEntity
  8
0
370
    -3
390
0
  6
Continuous
100
AcDbCircle
 10
-656.506505
 20
-275.722567
 30
0.0
 40
0.5
100
AcDbArc
 50
135.0
 51
225.0
  0
LINE
  5
2E5
100
AcDbEntity
  8
0
370
    -3
390
0
  6
Continuous
100
AcDbLine
 10
-656.718637
 20
-277.348912
 30
0.0
 11
-657.629033
 21
-278.259308
 31
0.0
  0
ARC
  5
2E6
100
AcDbEntity
  8
0
370
    -3
390
0
  6
Continuous
100
AcDbCircle
 10
-656.497662
 20
-279.390678
 30
0.0
 40
1.599999
100
AcDbArc
 50
134.999999
 51
208.808717
  0
LINE
  5
2E7
100
AcDbEntity
  8
0
370
    -3
390
0
  6
Continuous
100
AcDbLine
 10
-656.506505
 20
-276.429673
 30
0.0
 11
-657.072191
 21
-276.995359
 31
0.0
  0
LINE
  5
2E8
100
AcDbEntity
  8
0
370
    -3
390
0
  6
Continuous
100
AcDbLine
 10
-655.979702
 20
-274.488657
 30
0.0
 11
-656.860058
 21
-275.369013
 31
0.0
  0
ARC
  5
2E9
100
AcDbEntity
  8
0
370
    -3
390
0
  6
Continuous
100
AcDbCircle
 10
-647.384829
 20
-274.379065
 30
0.0
 40
12.0
100
AcDbArc
 50
208.808663
 51
241.191355
  0
ARC
  5
2EA
100
AcDbEntity
  8
0
370
    -3
390
0
  6
Continuous
100
AcDbCircle
 10
-648.72833
 20
-283.500741
 30
0.0
 40
0.5
100
AcDbArc
 50
225.0
 51
315.0
  0
LINE
  5
2EB
100
AcDbEntity
  8
0
370
    -3
390
0
  6
Continuous
100
AcDbLine
 10
-650.354676
 20
-283.712873
 30
0.0
 11
-651.265072
 21
-284.623269
 31
0.0
  0
ARC
  5
2EC
100
AcDbEntity
  8
0
370
    -3
390
0
  6
Continuous
100
AcDbCircle
 10
-652.396442
 20
-283.491899
 30
0.0
 40
1.599999
100
AcDbArc
 50
241.191409
 51
315.000018
  0
LINE
  5
2ED
100
AcDbEntity
  8
0
370
    -3
390
0
  6
Continuous
100
AcDbLine
 10
-650.001123
 20
-284.066427
 30
0.0
 11
-649.435437
 21
-283.500741
 31
0.0
  0
LINE
  5
2EE
100
AcDbEntity
  8
0
370
    -3
390
0
  6
Continuous
100
AcDbLine
 10
-647.494421
 20
-282.973938
 30
0.0
 11
-648.374777
 21
-283.854295
 31
0.0
  0
LINE
  5
2EF
100
AcDbEntity
  8
0
370
    -3
390
0
  6
Continuous
100
AcDbLine
 10
-656.860058
 20
-276.07612
 30
0.0
 11
-649.081884
 21
-283.854295
 31
0.0
  0
LINE
  5
2F0
100
AcDbEntity
  8
0
370
    -3
390
0
  6
Continuous
100
AcDbLine
 10
-650.001123
 20
-284.066427
 30
0.0
 11
-657.072191
 21
-276.995359
 31
0.0
  0
ARC
  5
2F1
100
AcDbEntity
  8
0
370
    -3
390
0
  6
Continuous
100
AcDbCircle
 10
-656.506505
 20
-106.299782
 30
0.0
 40
0.5
100
AcDbArc
 50
135.0
 51
225.0
  0
LINE
  5
2F2
100
AcDbEntity
  8
0
370
    -3
390
0
  6
Continuous
100
AcDbLine
 10
-656.718637
 20
-104.673436
 30
0.0
 11
-657.629033
 21
-103.763041
 31
0.0
  0
ARC
  5
2F3
100
AcDbEntity
  8
0
370
    -3
390
0
  6
Continuous
100
AcDbCircle
 10
-656.497662
 20
-102.63167
 30
0.0
 40
1.599999
100
AcDbArc
 50
151.191283
 51
225.000001
  0
LINE
  5
2F4
100
AcDbEntity
  8
0
370
    -3
390
0
  6
Continuous
100
AcDbLine
 10
-656.506505
 20
-105.592675
 30
0.0
 11
-657.072191
 21
-105.02699
 31
0.0
  0
LINE
  5
2F5
100
AcDbEntity
  8
0
370
    -3
390
0
  6
Continuous
100
AcDbLine
 10
-655.979702
 20
-107.533692
 30
0.0
 11
-656.860058
 21
-106.653335
 31
0.0
  0
ARC
  5
2F6
100
AcDbEntity
  8
0
370
    -3
390
0
  6
Continuous
100
AcDbCircle
 10
-647.384829
 20
-107.643284
 30
0.0
 40
12.0
100
AcDbArc
 50
118.808645
 51
151.191337
  0
ARC
  5
2F7
100
AcDbEntity
  8
0
370
    -3
390
0
  6
Continuous
100
AcDbCircle
 10
-648.72833
 20
-98.521607
 30
0.0
 40
0.5
100
AcDbArc
 50
45.0
 51
135.0
  0
LINE
  5
2F8
100
AcDbEntity
  8
0
370
    -3
390
0
  6
Continuous
100
AcDbLine
 10
-650.354676
 20
-98.309475
 30
0.0
 11
-651.265072
 21
-97.39908
 31
0.0
  0
ARC
  5
2F9
100
AcDbEntity
  8
0
370
    -3
390
0
  6
Continuous
100
AcDbCircle
 10
-652.396442
 20
-98.53045
 30
0.0
 40
1.599999
100
AcDbArc
 50
44.999982
 51
118.808591
  0
LINE
  5
2FA
100
AcDbEntity
  8
0
370
    -3
390
0
  6
Continuous
100
AcDbLine
 10
-650.001123
 20
-97.955922
 30
0.0
 11
-649.435437
 21
-98.521607
 31
0.0
  0
LINE
  5
2FB
100
AcDbEntity
  8
0
370
    -3
390
0
  6
Continuous
100
AcDbLine
 10
-647.494421
 20
-99.04841
 30
0.0
 11
-648.374777
 21
-98.168054
 31
0.0
  0
LINE
  5
2FC
100
AcDbEntity
  8
0
370
    -3
390
0
  6
Continuous
100
AcDbLine
 10
-656.860058
 20
-105.946229
 30
0.0
 11
-649.081884
 21
-98.168054
 31
0.0
  0
LINE
  5
2FD
100
AcDbEntity
  8
0
370
    -3
390
0
  6
Continuous
100
AcDbLine
 10
-650.001123
 20
-97.955922
 30
0.0
 11
-657.072191
 21
-105.02699
 31
0.0
  0
LINE
  5
2FE
100
AcDbEntity
  8
0
370
    -3
390
0
  6
Continuous
100
AcDbLine
 10
-445.616938
 20
-215.611174
 30
0.0
 11
-447.421013
 21
-215.611174
 31
0.0
  0
LINE
  5
2FF
100
AcDbEntity
  8
0
370
    -3
390
0
  6
Continuous
100
AcDbLine
 10
-445.616938
 20
-166.411174
 30
0.0
 11
-447.421013
 21
-166.411174
 31
0.0
  0
ARC
  5
300
100
AcDbEntity
  8
0
370
    -3
390
0
  6
Continuous
100
AcDbCircle
 10
-431.310377
 20
-151.810967
 30
0.0
 40
3.0
100
AcDbArc
 50
204.0
 51
260.681877
  0
ARC
  5
301
100
AcDbEntity
  8
0
370
    -3
390
0
  6
Continuous
100
AcDbCircle
 10
-408.269227
 20
-173.832278
 30
0.0
 40
15.0
100
AcDbArc
 50
1.682769
 51
80.681877
  0
LINE
  5
302
100
AcDbEntity
  8
0
370
    -3
390
0
  6
Continuous
100
AcDbLine
 10
-431.796125
 20
-154.771381
 30
0.0
 11
-405.840488
 21
-159.03021
 31
0.0
  0
ARC
  5
303
100
AcDbEntity
  8
0
370
    -3
390
0
  6
Continuous
100
AcDbCircle
 10
-438.016938
 20
-158.319569
 30
0.0
 40
3.0
100
AcDbArc
 50
114.0
 51
180.0
  0
LINE
  5
304
100
AcDbEntity
  8
0
370
    -3
390
0
  6
Continuous
100
AcDbLine
 10
-437.433777
 20
-154.77602
 30
0.0
 11
-439.237148
 21
-155.578933
 31
0.0
  0
LINE
  5
305
100
AcDbEntity
  8
0
370
    -3
390
0
  6
Continuous
100
AcDbLine
 10
-437.153575
 20
-148.521303
 30
0.0
 11
-439.711502
 21
-149.660166
 31
0.0
  0
LINE
  5
306
100
AcDbEntity
  8
0
370
    -3
390
0
  6
Continuous
100
AcDbLine
 10
-435.833293
 20
-149.028112
 30
0.0
 11
-417.141229
 21
-191.011174
 31
0.0
  0
LINE
  5
307
100
AcDbEntity
  8
0
370
    -3
390
0
  6
Continuous
100
AcDbLine
 10
-439.382341
 20
-152.354504
 30
0.0
 11
-438.645937
 21
-152.667089
 31
0.0
  0
LINE
  5
308
100
AcDbEntity
  8
0
370
    -3
390
0
  6
Continuous
100
AcDbLine
 10
-438.512595
 20
-152.352954
 30
0.0
 11
-438.645937
 21
-152.667089
 31
0.0
  0
LINE
  5
309
100
AcDbEntity
  8
0
370
    -3
390
0
  6
Continuous
100
AcDbLine
 10
-438.957509
 20
-151.353662
 30
0.0
 11
-439.382341
 21
-152.354504
 31
0.0
  0
ARC
  5
30A
100
AcDbEntity
  8
0
370
    -3
390
0
  6
Continuous
100
AcDbCircle
 10
-436.746838
 20
-149.434849
 30
0.0
 40
1.0
100
AcDbArc
 50
24.0
 51
114.0
  0
ARC
  5
30B
100
AcDbEntity
  8
0
370
    -3
390
0
  6
Continuous
100
AcDbCircle
 10
-399.13533
 20
-247.188081
 30
0.0
 40
9.0
100
AcDbArc
 50
7.398452
 51
40.601531
  0
ARC
  5
30C
100
AcDbEntity
  8
0
370
    -3
390
0
  6
Continuous
100
AcDbCircle
 10
-391.499435
 20
-246.196562
 30
0.0
 40
1.299999
100
AcDbArc
 50
293.999982
 51
7.398452
  0
LINE
  5
30D
100
AcDbEntity
  8
0
370
    -3
390
0
  6
CENTER
100
AcDbLine
 10
-417.016938
 20
-223.128651
 30
0.0
 11
-417.016938
 21
-245.99716
 31
0.0
  0
LINE
  5
30E
100
AcDbEntity
  8
0
370
    -3
390
0
  6
Continuous
100
AcDbLine
 10
-441.016938
 20
-158.319569
 30
0.0
 11
-441.016938
 21
-232.511174
 31
0.0
  0
LINE
  5
30F
100
AcDbEntity
  8
0
370
    -3
390
0
  6
Continuous
100
AcDbLine
 10
-395.946639
 20
-247.957657
 30
0.0
 11
-399.463789
 21
-249.523593
 31
0.0
  0
LINE
  5
310
100
AcDbEntity
  8
0
370
    -3
390
0
  6
Continuous
100
AcDbLine
 10
-397.573586
 20
-244.303475
 30
0.0
 11
-401.090736
 21
-245.869411
 31
0.0
  0
ARC
  5
311
100
AcDbEntity
  8
0
370
    -3
390
0
  6
Continuous
100
AcDbCircle
 10
-396.646924
 20
-235.133809
 30
0.0
 40
2.0
100
AcDbArc
 50
294.0
 51
355.768662
  0
ARC
  5
312
100
AcDbEntity
  8
0
370
    -3
390
0
  6
Continuous
100
AcDbCircle
 10
-395.222251
 20
-237.783412
 30
0.0
 40
1.0
100
AcDbArc
 50
114.0
 51
204.0
  0
LINE
  5
313
100
AcDbEntity
  8
0
370
    -3
390
0
  6
Continuous
100
AcDbLine
 10
-417.141229
 20
-191.011174
 30
0.0
 11
-390.929567
 21
-249.883531
 31
0.0
  0
ARC
  5
314
100
AcDbEntity
  8
0
370
    -3
390
0
  6
Continuous
100
AcDbCircle
 10
-391.843113
 20
-250.290267
 30
0.0
 40
1.0
100
AcDbArc
 50
294.0
 51
24.0
  0
LINE
  5
315
100
AcDbEntity
  8
0
370
    -3
390
0
  6
Continuous
100
AcDbLine
 10
-391.436376
 20
-251.203813
 30
0.0
 11
-393.994303
 21
-252.342675
 31
0.0
  0
LINE
  5
316
100
AcDbEntity
  8
0
370
    -3
390
0
  6
Continuous
100
AcDbLine
 10
-436.016938
 20
-237.511174
 30
0.0
 11
-400.597713
 21
-237.511174
 31
0.0
  0
ARC
  5
317
100
AcDbEntity
  8
0
370
    -3
390
0
  6
Continuous
100
AcDbCircle
 10
-436.016938
 20
-232.511174
 30
0.0
 40
5.0
100
AcDbArc
 50
180.0
 51
270.0
  0
ARC
  5
318
100
AcDbEntity
  8
0
370
    -3
390
0
  6
Continuous
100
AcDbCircle
 10
-394.050889
 20
-240.414334
 30
0.0
 40
1.0
100
AcDbArc
 50
175.284875
 51
204.0
  0
ARC
  5
319
100
AcDbEntity
  8
0
370
    -3
390
0
  6
Continuous
100
AcDbCircle
 10
-993.016938
 20
-191.011174
 30
0.0
 40
600.0
100
AcDbArc
 50
355.284875
 51
1.682769
  0
ARC
  5
31A
100
AcDbEntity
  8
0
370
    -3
390
0
  6
Continuous
100
AcDbCircle
 10
-393.289077
 20
-242.176961
 30
0.0
 40
1.299999
100
AcDbArc
 50
40.601531
 51
114.000001
  0
LINE
  5
31B
100
AcDbEntity
  8
0
370
    -3
390
0
  6
Continuous
100
AcDbLine
 10
-394.712218
 20
-241.387558
 30
0.0
 11
-393.817834
 21
-240.989352
 31
0.0
  0
LINE
  5
31C
100
AcDbEntity
  8
0
370
    -3
390
0
  6
Continuous
100
AcDbLine
 10
-391.865062
 20
-247.782376
 30
0.0
 11
-390.970677
 21
-247.384171
 31
0.0
  0
LINE
  5
31D
100
AcDbEntity
  8
0
370
    -3
390
0
  6
Continuous
100
AcDbLine
 10
-394.712218
 20
-241.387558
 30
0.0
 11
-391.865062
 21
-247.782376
 31
0.0
  0
LINE
  5
31E
100
AcDbEntity
  8
0
370
    -3
390
0
  6
Continuous
100
AcDbLine
 10
-394.712218
 20
-241.387558
 30
0.0
 11
-391.865062
 21
-247.782376
 31
0.0
  0
POINT
  5
31F
100
AcDbEntity
  8
0
370
    -3
390
0
  6
Continuous
100
AcDbPoint
 10
-393.28864
 20
-244.584967
 30
0.0
  0
LINE
  5
320
100
AcDbEntity
  8
0
370
    -3
390
0
  6
Continuous
100
AcDbLine
 10
-401.268119
 20
-246.33151
 30
0.0
 11
-399.925888
 21
-249.34621
 31
0.0
  0
LINE
  5
321
100
AcDbEntity
  8
0
370
    -3
390
0
  6
Continuous
100
AcDbLine
 10
-399.463789
 20
-249.523593
 30
0.0
 11
-399.925888
 21
-249.34621
 31
0.0
  0
LINE
  5
322
100
AcDbEntity
  8
0
370
    -3
390
0
  6
Continuous
100
AcDbLine
 10
-401.090736
 20
-245.869411
 30
0.0
 11
-401.268119
 21
-246.33151
 31
0.0
  0
LINE
  5
323
100
AcDbEntity
  8
0
370
    -3
390
0
  6
Continuous
100
AcDbLine
 10
-397.431228
 20
-244.623216
 30
0.0
 11
-401.268119
 21
-246.33151
 31
0.0
  0
LINE
  5
324
100
AcDbEntity
  8
0
370
    -3
390
0
  6
Continuous
100
AcDbLine
 10
-396.088997
 20
-247.637916
 30
0.0
 11
-399.925888
 21
-249.34621
 31
0.0
  0
LINE
  5
325
100
AcDbEntity
  8
0
370
    -3
390
0
  6
Continuous
100
AcDbLine
 10
-439.711502
 20
-149.660166
 30
0.0
 11
-393.994303
 21
-252.342675
 31
0.0
  0
ARC
  5
326
100
AcDbEntity
  8
0
370
    -3
390
0
  6
Continuous
100
AcDbCircle
 10
-445.616938
 20
-164.411174
 30
0.0
 40
2.0
100
AcDbArc
 50
270.0
 51
0.0
  0
LINE
  5
327
100
AcDbEntity
  8
0
370
    -3
390
0
  6
Continuous
100
AcDbLine
 10
-442.016938
 20
-160.011174
 30
0.0
 11
-443.616938
 21
-160.011174
 31
0.0
  0
LINE
  5
328
100
AcDbEntity
  8
0
370
    -3
390
0
  6
Continuous
100
AcDbLine
 10
-442.016938
 20
-160.011174
 30
0.0
 11
-441.016938
 21
-160.011174
 31
0.0
  0
ARC
  5
329
100
AcDbEntity
  8
0
370
    -3
390
0
  6
Continuous
100
AcDbCircle
 10
-445.616938
 20
-217.611174
 30
0.0
 40
2.0
100
AcDbArc
 50
0.0
 51
90.0
  0
LINE
  5
32A
100
AcDbEntity
  8
0
370
    -3
390
0
  6
Continuous
100
AcDbLine
 10
-442.016938
 20
-222.011174
 30
0.0
 11
-443.616938
 21
-222.011174
 31
0.0
  0
LINE
  5
32B
100
AcDbEntity
  8
0
370
    -3
390
0
  6
Continuous
100
AcDbLine
 10
-442.016938
 20
-222.011174
 30
0.0
 11
-441.016938
 21
-222.011174
 31
0.0
  0
LINE
  5
32C
100
AcDbEntity
  8
0
370
    -3
390
0
  6
Continuous
100
AcDbLine
 10
-442.016938
 20
-222.011174
 30
0.0
 11
-442.016938
 21
-160.011174
 31
0.0
  0
LINE
  5
32D
100
AcDbEntity
  8
0
370
    -3
390
0
  6
Continuous
100
AcDbLine
 10
-443.616938
 20
-222.011174
 30
0.0
 11
-443.616938
 21
-191.011174
 31
0.0
  0
LINE
  5
32E
100
AcDbEntity
  8
0
370
    -3
390
0
  6
Continuous
100
AcDbLine
 10
-443.616938
 20
-160.011174
 30
0.0
 11
-443.616938
 21
-191.011174
 31
0.0
  0
ARC
  5
32F
100
AcDbEntity
  8
0
370
    -3
390
0
  6
Continuous
100
AcDbCircle
 10
-579.516938
 20
-72.011174
 30
0.0
 40
5.0
100
AcDbArc
 50
180.0
 51
206.088883
  0
ARC
  5
330
100
AcDbEntity
  8
0
370
    -3
390
0
  6
Continuous
100
AcDbCircle
 10
-548.516938
 20
-72.011174
 30
0.0
 40
5.0
100
AcDbArc
 50
333.911117
 51
0.0
  0
LINE
  5
331
100
AcDbEntity
  8
0
370
    -3
390
0
  6
Continuous
100
AcDbLine
 10
-543.516938
 20
-18.011174
 30
0.0
 11
-543.516938
 21
-46.361485
 31
0.0
  0
ARC
  5
332
100
AcDbEntity
  8
0
370
    -3
390
0
  6
Continuous
100
AcDbCircle
 10
-553.516938
 20
-18.011174
 30
0.0
 40
10.0
100
AcDbArc
 50
0.0
 51
90.0
  0
ARC
  5
333
100
AcDbEntity
  8
0
370
    -3
390
0
  6
Continuous
100
AcDbCircle
 10
-574.516938
 20
-18.011174
 30
0.0
 40
10.0
100
AcDbArc
 50
90.0
 51
180.0
  0
LINE
  5
334
100
AcDbEntity
  8
0
370
    -3
390
0
  6
Continuous
100
AcDbLine
 10
-584.516938
 20
-18.011174
 30
0.0
 11
-584.516938
 21
-46.361485
 31
0.0
  0
LINE
  5
335
100
AcDbEntity
  8
0
370
    -3
390
0
  6
Continuous
100
AcDbLine
 10
-553.516938
 20
-8.011174
 30
0.0
 11
-574.516938
 21
-8.011174
 31
0.0
  0
LINE
  5
336
100
AcDbEntity
  8
0
370
    -3
390
0
  6
CENTER
100
AcDbLine
 10
-540.849025
 20
-28.011174
 30
0.0
 11
-587.871539
 21
-28.011174
 31
0.0
  0
CIRCLE
  5
337
100
AcDbEntity
  8
0
370
    -3
390
0
  6
Continuous
100
AcDbCircle
 10
-564.016938
 20
-28.011174
 30
0.0
 40
10.0
  0
LINE
  5
338
100
AcDbEntity
  8
0
370
    -3
390
0
  6
CENTER
100
AcDbLine
 10
-608.064377
 20
-151.011174
 30
0.0
 11
-520.400612
 21
-151.011174
 31
0.0
  0
ARC
  5
339
100
AcDbEntity
  8
0
370
    -3
390
0
  6
Continuous
100
AcDbCircle
 10
-564.016938
 20
-646.011175
 30
0.0
 40
600.0
100
AcDbArc
 50
91.957987
 51
92.924524
  0
ARC
  5
33A
100
AcDbEntity
  8
0
370
    -3
390
0
  6
Continuous
100
AcDbCircle
 10
-564.016938
 20
-646.011175
 30
0.0
 40
600.0
100
AcDbArc
 50
87.075476
 51
88.042013
  0
ARC
  5
33B
100
AcDbEntity
  8
0
370
    -3
390
0
  6
Continuous
100
AcDbCircle
 10
-426.016938
 20
-296.011174
 30
0.0
 40
3.0
100
AcDbArc
 50
180.0
 51
270.0
  0
LINE
  5
33C
100
AcDbEntity
  8
0
370
    -3
390
0
  6
Continuous
100
AcDbLine
 10
-429.016938
 20
-237.511174
 30
0.0
 11
-429.016938
 21
-296.011174
 31
0.0
  0
LINE
  5
33D
100
AcDbEntity
  8
0
370
    -3
390
0
  6
Continuous
100
AcDbLine
 10
-699.016938
 20
-156.649346
 30
0.0
 11
-699.016938
 21
-296.011174
 31
0.0
  0
LINE
  5
33E
100
AcDbEntity
  8
0
370
    -3
390
0
  6
Continuous
100
AcDbLine
 10
-436.628343
 20
-237.511174
 30
0.0
 11
-445.108954
 21
-269.226776
 31
0.0
  0
LINE
  5
33F
100
AcDbEntity
  8
0
370
    -3
390
0
  6
Continuous
100
AcDbLine
 10
-421.516938
 20
-302.011174
 30
0.0
 11
-421.516938
 21
-321.011174
 31
0.0
  0
POINT
  5
340
100
AcDbEntity
  8
0
370
    -3
390
0
  6
Continuous
100
AcDbPoint
 10
-439.016938
 20
-321.011174
 30
0.0
  0
LINE
  5
341
100
AcDbEntity
  8
0
370
    -3
390
0
  6
CENTER
100
AcDbLine
 10
-439.016938
 20
-294.798342
 30
0.0
 11
-439.016938
 21
-325.643112
 31
0.0
  0
ARC
  5
342
100
AcDbEntity
  8
0
370
    -3
390
0
  6
Continuous
100
AcDbCircle
 10
-424.516938
 20
-302.011174
 30
0.0
 40
3.0
100
AcDbArc
 50
0.0
 51
90.0
  0
LINE
  5
343
100
AcDbEntity
  8
0
370
    -3
390
0
  6
Continuous
100
AcDbLine
 10
-456.392939
 20
-299.011174
 30
0.0
 11
-424.516938
 21
-299.011174
 31
0.0
  0
ARC
  5
344
100
AcDbEntity
  8
0
370
    -3
390
0
  6
Continuous
100
AcDbCircle
 10
-703.516938
 20
-302.011174
 30
0.0
 40
3.0
100
AcDbArc
 50
90.0
 51
180.0
  0
POINT
  5
345
100
AcDbEntity
  8
0
370
    -3
390
0
  6
Continuous
100
AcDbPoint
 10
-689.016938
 20
-321.011174
 30
0.0
  0
LINE
  5
346
100
AcDbEntity
  8
0
370
    -3
390
0
  6
Continuous
100
AcDbLine
 10
-706.516938
 20
-302.011174
 30
0.0
 11
-706.516938
 21
-321.011174
 31
0.0
  0
LINE
  5
347
100
AcDbEntity
  8
0
370
    -3
390
0
  6
Continuous
100
AcDbLine
 10
-564.016938
 20
-319.011174
 30
0.0
 11
-654.516938
 21
-319.011174
 31
0.0
  0
LINE
  5
348
100
AcDbEntity
  8
0
370
    -3
390
0
  6
Continuous
100
AcDbLine
 10
-656.516938
 20
-321.011174
 30
0.0
 11
-706.516938
 21
-321.011174
 31
0.0
  0
LINE
  5
349
100
AcDbEntity
  8
0
370
    -3
390
0
  6
Continuous
100
AcDbLine
 10
-656.516938
 20
-314.929935
 30
0.0
 11
-656.516938
 21
-321.011174
 31
0.0
  0
LINE
  5
34A
100
AcDbEntity
  8
0
370
    -3
390
0
  6
CENTER
100
AcDbLine
 10
-689.016938
 20
-294.798342
 30
0.0
 11
-689.016938
 21
-325.643112
 31
0.0
  0
LINE
  5
34B
100
AcDbEntity
  8
0
370
    -3
390
0
  6
Continuous
100
AcDbLine
 10
-671.640937
 20
-299.011174
 30
0.0
 11
-703.516938
 21
-299.011174
 31
0.0
  0
LINE
  5
34C
100
AcDbEntity
  8
0
370
    -3
390
0
  6
Continuous
100
AcDbLine
 10
-471.516938
 20
-314.929935
 30
0.0
 11
-471.516938
 21
-321.011174
 31
0.0
  0
LINE
  5
34D
100
AcDbEntity
  8
0
370
    -3
390
0
  6
Continuous
100
AcDbLine
 10
-471.516938
 20
-321.011174
 30
0.0
 11
-421.516938
 21
-321.011174
 31
0.0
  0
LINE
  5
34E
100
AcDbEntity
  8
0
370
    -3
390
0
  6
Continuous
100
AcDbLine
 10
-698.338126
 20
-211.58482
 30
0.0
 11
-682.924922
 21
-269.226776
 31
0.0
  0
LINE
  5
34F
100
AcDbEntity
  8
0
370
    -3
390
0
  6
Continuous
100
AcDbLine
 10
-564.016938
 20
-319.011174
 30
0.0
 11
-473.516938
 21
-319.011174
 31
0.0
  0
ARC
  5
350
100
AcDbEntity
  8
0
370
    -3
390
0
  6
Continuous
100
AcDbCircle
 10
-610.56859
 20
-242.891225
 30
0.0
 40
77.0
100
AcDbArc
 50
200.0
 51
234.885533
  0
ARC
  5
351
100
AcDbEntity
  8
0
370
    -3
390
0
  6
Continuous
100
AcDbCircle
 10
-517.465286
 20
-242.891225
 30
0.0
 40
77.0
100
AcDbArc
 50
305.114467
 51
340.0
  0
ARC
  5
352
100
AcDbEntity
  8
0
370
    -3
390
0
  6
Continuous
100
AcDbCircle
 10
-702.016938
 20
-296.011174
 30
0.0
 40
3.0
100
AcDbArc
 50
270.0
 51
0.0
  0
ARC
  5
353
100
AcDbEntity
  8
0
370
    -3
390
0
  6
Continuous
100
AcDbCircle
 10
-679.016938
 20
-206.41842
 30
0.0
 40
20.0
100
AcDbArc
 50
180.0
 51
194.970401
  0
ARC
  5
354
100
AcDbEntity
  8
0
370
    -3
390
0
  6
Continuous
100
AcDbCircle
 10
-654.516938
 20
-321.011174
 30
0.0
 40
2.0
100
AcDbArc
 50
90.0
 51
180.0
  0
ARC
  5
355
100
AcDbEntity
  8
0
370
    -3
390
0
  6
Continuous
100
AcDbCircle
 10
-473.516938
 20
-321.011174
 30
0.0
 40
2.0
100
AcDbArc
 50
0.0
 51
90.0
  0
ARC
  5
356
100
AcDbEntity
  8
0
370
    -3
390
0
  6
Continuous
100
AcDbCircle
 10
-589.016938
 20
-156.649346
 30
0.0
 40
110.0
100
AcDbArc
 50
92.924524
 51
180.0
  0
ARC
  5
357
100
AcDbEntity
  8
0
370
    -3
390
0
  6
Continuous
100
AcDbCircle
 10
-610.56859
 20
-242.891225
 30
0.0
 40
82.0
100
AcDbArc
 50
200.460558
 51
233.171195
  0
ARC
  5
358
100
AcDbEntity
  8
0
370
    -3
390
0
  6
Continuous
100
AcDbCircle
 10
-664.516938
 20
-314.929935
 30
0.0
 40
8.0
100
AcDbArc
 50
0.0
 51
53.171195
  0
ARC
  5
359
100
AcDbEntity
  8
0
370
    -3
390
0
  6
Continuous
100
AcDbCircle
 10
-693.016938
 20
-273.652725
 30
0.0
 40
6.0
100
AcDbArc
 50
20.460558
 51
180.0
  0
ARC
  5
35A
100
AcDbEntity
  8
0
370
    -3
390
0
  6
Continuous
100
AcDbCircle
 10
-671.640937
 20
-302.011174
 30
0.0
 40
3.0
100
AcDbArc
 50
44.069372
 51
90.0
  0
ARC
  5
35B
100
AcDbEntity
  8
0
370
    -3
390
0
  6
Continuous
100
AcDbCircle
 10
-435.016938
 20
-273.652725
 30
0.0
 40
6.0
100
AcDbArc
 50
0.0
 51
159.539442
  0
ARC
  5
35C
100
AcDbEntity
  8
0
370
    -3
390
0
  6
Continuous
100
AcDbCircle
 10
-517.465286
 20
-242.891225
 30
0.0
 40
82.0
100
AcDbArc
 50
306.828805
 51
339.539442
  0
ARC
  5
35D
100
AcDbEntity
  8
0
370
    -3
390
0
  6
Continuous
100
AcDbCircle
 10
-463.516938
 20
-314.929935
 30
0.0
 40
8.0
100
AcDbArc
 50
126.828805
 51
180.0
  0
ARC
  5
35E
100
AcDbEntity
  8
0
370
    -3
390
0
  6
Continuous
100
AcDbCircle
 10
-456.392939
 20
-302.011174
 30
0.0
 40
3.0
100
AcDbArc
 50
90.0
 51
135.930628
  0
ARC
  5
35F
100
AcDbEntity
  8
0
370
    -3
390
0
  6
Continuous
100
AcDbCircle
 10
-641.516938
 20
-311.011174
 30
0.0
 40
10.0
100
AcDbArc
 50
184.494157
 51
233.130102
  0
ARC
  5
360
100
AcDbEntity
  8
0
370
    -3
390
0
  6
Continuous
100
AcDbCircle
 10
-659.461594
 20
-312.421608
 30
0.0
 40
8.0
100
AcDbArc
 50
4.494157
 51
54.885533
  0
ARC
  5
361
100
AcDbEntity
  8
0
370
    -3
390
0
  6
Continuous
100
AcDbCircle
 10
-486.516938
 20
-311.011174
 30
0.0
 40
10.0
100
AcDbArc
 50
306.869898
 51
355.505843
  0
ARC
  5
362
100
AcDbEntity
  8
0
370
    -3
390
0
  6
Continuous
100
AcDbCircle
 10
-468.572282
 20
-312.421608
 30
0.0
 40
8.0
100
AcDbArc
 50
125.114467
 51
175.505843
  0
POINT
  5
363
100
AcDbEntity
  8
0
370
    -3
390
0
  6
Continuous
100
AcDbPoint
 10
-564.016938
 20
-151.011174
 30
0.0
  0
POINT
  5
364
100
AcDbEntity
  8
0
370
    -3
390
0
  6
Continuous
100
AcDbPoint
 10
-564.016938
 20
-191.011174
 30
0.0
  0
ARC
  5
365
100
AcDbEntity
  8
0
370
    -3
390
0
  6
Continuous
100
AcDbCircle
 10
-539.016938
 20
-156.649346
 30
0.0
 40
110.0
100
AcDbArc
 50
0.741461
 51
87.075476
  0
INSERT
  5
372
100
AcDbEntity
  8
0
390
0
100
AcDbBlockReference
  2
ZU_SYM__USERS_HOME_SYMBOL_POO_SYM_B20_05
 10
-641.516938
 20
-311.011174
 30
0.0
 41
-1.0
  0
INSERT
  5
37F
100
AcDbEntity
  8
0
390
0
100
AcDbBlockReference
  2
ZU_SYM__USERS_HOME_SYMBOL_POO_SYM_B20_0000405
 10
-685.016938
 20
-129.011175
 30
0.0
 41
-1.0
  0
INSERT
  5
38C
100
AcDbEntity
  8
0
390
0
100
AcDbBlockReference
  2
ZU_SYM__USERS_HOME_SYMBOL_POO_SYM_B20_0000505
 10
-614.016938
 20
-60.011175
 30
0.0
 41
-1.0
  0
INSERT
  5
399
100
AcDbEntity
  8
0
390
0
100
AcDbBlockReference
  2
ZU_SYM__USERS_HOME_SYMBOL_POO_SYM_B20_0000605
 10
-574.516938
 20
-56.011174
 30
0.0
 41
-1.0
  0
INSERT
  5
3A6
100
AcDbEntity
  8
0
390
0
100
AcDbBlockReference
  2
ZU_SYM__USERS_HOME_SYMBOL_POO_SYM_B20_0000705
 10
-486.516938
 20
-311.011174
 30
0.0
  0
INSERT
  5
3B3
100
AcDbEntity
  8
0
390
0
100
AcDbBlockReference
  2
ZU_SYM__USERS_HOME_SYMBOL_POO_SYM_B20_0000805
 10
-443.016938
 20
-129.011175
 30
0.0
  0
INSERT
  5
3C0
100
AcDbEntity
  8
0
390
0
100
AcDbBlockReference
  2
ZU_SYM__USERS_HOME_SYMBOL_POO_SYM_B20_0000905
 10
-514.016938
 20
-60.011175
 30
0.0
  0
INSERT
  5
3CD
100
AcDbEntity
  8
0
390
0
100
AcDbBlockReference
  2
ZU_SYM__USERS_HOME_SYMBOL_POO_SYM_B20_0001005
 10
-553.516938
 20
-56.011174
 30
0.0
  0
ARC
  5
3CE
100
AcDbEntity
  8
0
370
    -3
390
0
  6
Continuous
100
AcDbCircle
 10
-661.921752
 20
-81.085545
 30
0.0
 40
5.0
100
AcDbArc
 50
133.973976
 51
225.0
  0
ARC
  5
3CF
100
AcDbEntity
  8
0
370
    -3
390
0
  6
Continuous
100
AcDbCircle
 10
-673.180674
 20
-93.868254
 30
0.0
 40
5.0
100
AcDbArc
 50
45.0
 51
143.279272
  0
ARC
  5
3D0
100
AcDbEntity
  8
0
370
    -3
390
0
  6
Continuous
100
AcDbCircle
 10
-454.853202
 20
-93.868254
 30
0.0
 40
5.0
100
AcDbArc
 50
36.720728
 51
135.0
  0
ARC
  5
3D1
100
AcDbEntity
  8
0
370
    -3
390
0
  6
Continuous
100
AcDbCircle
 10
-466.112124
 20
-81.085545
 30
0.0
 40
5.0
100
AcDbArc
 50
315.0
 51
46.026024
  0
LINE
  5
3D2
100
AcDbEntity
  8
0
370
    -3
390
0
  6
Continuous
100
AcDbLine
 10
-543.516938
 20
-46.361486
 30
0.0
 11
-543.516938
 21
-72.011174
 31
0.0
  0
LINE
  5
3D3
100
AcDbEntity
  8
0
370
    -3
390
0
  6
Continuous
100
AcDbLine
 10
-584.516938
 20
-46.361486
 30
0.0
 11
-584.516938
 21
-72.011174
 31
0.0
  0
POINT
  5
3D4
100
AcDbEntity
  8
0
370
    -3
390
0
  6
Continuous
100
AcDbPoint
 10
-564.016938
 20
-151.011174
 30
0.0
  0
POINT
  5
3D5
100
AcDbEntity
  8
0
370
    -3
390
0
  6
Continuous
100
AcDbPoint
 10
-564.016938
 20
-191.011174
 30
0.0
  0
LINE
  5
3D6
100
AcDbEntity
  8
0
370
    -3
390
0
  6
Continuous
100
AcDbLine
 10
-661.559519
 20
-293.503503
 30
0.0
 11
-653.020987
 21
-284.964971
 31
0.0
  0
LINE
  5
3D7
100
AcDbEntity
  8
0
370
    -3
390
0
  6
Continuous
100
AcDbLine
 10
-665.874895
 20
-287.919384
 30
0.0
 11
-657.970735
 21
-280.015223
 31
0.0
  0
LINE
  5
3D8
100
AcDbEntity
  8
0
370
    -3
390
0
  6
Continuous
100
AcDbLine
 10
-462.158981
 20
-287.919384
 30
0.0
 11
-470.063142
 21
-280.015223
 31
0.0
  0
LINE
  5
3D9
100
AcDbEntity
  8
0
370
    -3
390
0
  6
Continuous
100
AcDbLine
 10
-466.474357
 20
-293.503503
 30
0.0
 11
-475.012889
 21
-284.964971
 31
0.0
  0
LINE
  5
3DA
100
AcDbEntity
  8
0
370
    -3
390
0
  6
Continuous
100
AcDbLine
 10
-458.388736
 20
-90.33272
 30
0.0
 11
-470.063142
 21
-102.007125
 31
0.0
  0
LINE
  5
3DB
100
AcDbEntity
  8
0
370
    -3
390
0
  6
Continuous
100
AcDbLine
 10
-462.57659
 20
-84.621079
 30
0.0
 11
-475.012889
 21
-97.057378
 31
0.0
  0
LINE
  5
3DC
100
AcDbEntity
  8
0
370
    -3
390
0
  6
Continuous
100
AcDbLine
 10
-665.457286
 20
-84.621079
 30
0.0
 11
-653.020987
 21
-97.057378
 31
0.0
  0
LINE
  5
3DD
100
AcDbEntity
  8
0
370
    -3
390
0
  6
Continuous
100
AcDbLine
 10
-669.64514
 20
-90.33272
 30
0.0
 11
-657.970735
 21
-102.007125
 31
0.0
  0
LINE
  5
3DE
100
AcDbEntity
  8
0
370
    -3
390
0
  6
CENTER
100
AcDbLine
 10
-718.030251
 20
-191.011174
 30
0.0
 11
-372.625944
 21
-191.011174
 31
0.0
  0
LINE
  5
3DF
100
AcDbEntity
  8
0
370
    -3
390
0
  6
Continuous
100
AcDbLine
 10
-681.136126
 20
-182.011174
 30
0.0
 11
-696.016938
 21
-182.011174
 31
0.0
  0
LINE
  5
3E0
100
AcDbEntity
  8
0
370
    -3
390
0
  6
Continuous
100
AcDbLine
 10
-680.928547
 20
-208.011174
 30
0.0
 11
-695.386117
 21
-208.011174
 31
0.0
  0
ARC
  5
3E1
100
AcDbEntity
  8
0
370
    -3
390
0
  6
Continuous
100
AcDbCircle
 10
-658.023985
 20
-297.039036
 30
0.0
 40
5.0
100
AcDbArc
 50
135.0
 51
228.768524
  0
ARC
  5
3E2
100
AcDbEntity
  8
0
370
    -3
390
0
  6
Continuous
100
AcDbCircle
 10
-669.410429
 20
-284.38385
 30
0.0
 40
5.0
100
AcDbArc
 50
215.189774
 51
315.0
  0
ARC
  5
3E3
100
AcDbEntity
  8
0
370
    -3
390
0
  6
Continuous
100
AcDbCircle
 10
-458.623447
 20
-284.38385
 30
0.0
 40
5.0
100
AcDbArc
 50
225.0
 51
324.810226
  0
ARC
  5
3E4
100
AcDbEntity
  8
0
370
    -3
390
0
  6
Continuous
100
AcDbCircle
 10
-470.009891
 20
-297.039036
 30
0.0
 40
5.0
100
AcDbArc
 50
311.231476
 51
45.0
  0
ARC
  5
3E5
100
AcDbEntity
  8
0
370
    -3
390
0
  6
Continuous
100
AcDbCircle
 10
-679.016938
 20
-206.41842
 30
0.0
 40
20.0
100
AcDbArc
 50
180.0
 51
194.970401
  0
ARC
  5
3E6
100
AcDbEntity
  8
0
370
    -3
390
0
  6
Continuous
100
AcDbCircle
 10
-696.016938
 20
-179.011174
 30
0.0
 40
3.0
100
AcDbArc
 50
180.0
 51
270.0
  0
ARC
  5
3E7
100
AcDbEntity
  8
0
370
    -3
390
0
  6
Continuous
100
AcDbCircle
 10
-695.386117
 20
-211.011174
 30
0.0
 40
3.0
100
AcDbArc
 50
90.0
 51
194.970401
  0
LINE
  5
3E8
100
AcDbEntity
  8
0
370
    -3
390
0
  6
CENTER
100
AcDbLine
 10
-564.016938
 20
1.642322
 30
0.0
 11
-564.016938
 21
-336.84009
 31
0.0
  0
ARC
  5
3E9
100
AcDbEntity
  8
0
370
    -3
390
0
  6
Continuous
100
AcDbCircle
 10
-686.016938
 20
-219.011174
 30
0.0
 40
5.633955
100
AcDbArc
 50
11.479296
 51
355.129055
  0
ARC
  5
3EA
100
AcDbEntity
  8
0
370
    -3
390
0
  6
Continuous
100
AcDbCircle
 10
-686.016938
 20
-219.011174
 30
0.0
 40
6.5
100
AcDbArc
 50
33.93453
 51
333.328355
  0
POINT
  5
3EB
100
AcDbEntity
  8
0
370
    -3
390
0
  6
Continuous
100
AcDbPoint
 10
-686.016938
 20
-219.011174
 30
0.0
  0
LINE
  5
3EC
100
AcDbEntity
  8
0
370
    -3
390
0
  6
Continuous
100
AcDbLine
 10
-683.016941
 20
-220.74322
 30
0.0
 11
-683.01694
 21
-217.279122
 31
0.0
  0
LINE
  5
3ED
100
AcDbEntity
  8
0
370
    -3
390
0
  6
Continuous
100
AcDbLine
 10
-689.016935
 20
-217.279127
 30
0.0
 11
-689.016936
 21
-220.743225
 31
0.0
  0
LINE
  5
3EE
100
AcDbEntity
  8
0
370
    -3
390
0
  6
Continuous
100
AcDbLine
 10
-686.016945
 20
-215.547077
 30
0.0
 11
-683.01694
 21
-217.279122
 31
0.0
  0
LINE
  5
3EF
100
AcDbEntity
  8
0
370
    -3
390
0
  6
Continuous
100
AcDbLine
 10
-689.016936
 20
-220.743226
 30
0.0
 11
-686.016934
 21
-222.475273
 31
0.0
  0
LINE
  5
3F0
100
AcDbEntity
  8
0
370
    -3
390
0
  6
Continuous
100
AcDbLine
 10
-686.016945
 20
-215.547077
 30
0.0
 11
-689.016936
 21
-217.279128
 31
0.0
  0
LINE
  5
3F1
100
AcDbEntity
  8
0
370
    -3
390
0
  6
Continuous
100
AcDbLine
 10
-686.016933
 20
-222.475272
 30
0.0
 11
-683.016941
 21
-220.743221
 31
0.0
  0
ARC
  5
3F2
100
AcDbEntity
  8
0
370
    -3
390
0
  6
Continuous
100
AcDbCircle
 10
-442.016938
 20
-219.011174
 30
0.0
 40
5.633955
100
AcDbArc
 50
184.870945
 51
280.223896
  0
ARC
  5
3F3
100
AcDbEntity
  8
0
370
    -3
390
0
  6
Continuous
100
AcDbCircle
 10
-442.016938
 20
-219.011174
 30
0.0
 40
6.5
100
AcDbArc
 50
206.671645
 51
278.849883
  0
POINT
  5
3F4
100
AcDbEntity
  8
0
370
    -3
390
0
  6
Continuous
100
AcDbPoint
 10
-442.016938
 20
-219.011174
 30
0.0
  0
LINE
  5
3F5
100
AcDbEntity
  8
0
370
    -3
390
0
  6
Continuous
100
AcDbLine
 10
-445.016935
 20
-220.74322
 30
0.0
 11
-445.016936
 21
-217.279122
 31
0.0
  0
LINE
  5
3F6
100
AcDbEntity
  8
0
370
    -3
390
0
  6
Continuous
100
AcDbLine
 10
-443.878702
 20
-216.621966
 30
0.0
 11
-445.016936
 21
-217.279122
 31
0.0
  0
LINE
  5
3F7
100
AcDbEntity
  8
0
370
    -3
390
0
  6
Continuous
100
AcDbLine
 10
-442.016943
 20
-222.475272
 30
0.0
 11
-442.820782
 21
-222.011174
 31
0.0
  0
LINE
  5
3F8
100
AcDbEntity
  8
0
370
    -3
390
0
  6
Continuous
100
AcDbLine
 10
-443.616938
 20
-221.551512
 30
0.0
 11
-445.016936
 21
-220.743221
 31
0.0
  0
LINE
  5
3F9
100
AcDbEntity
  8
0
370
    -3
390
0
  6
Continuous
100
AcDbLine
 10
-441.213098
 20
-222.011174
 30
0.0
 11
-442.016943
 21
-222.475273
 31
0.0
  0
ARC
  5
3FA
100
AcDbEntity
  8
0
370
    -3
390
0
  6
Continuous
100
AcDbCircle
 10
-556.516938
 20
-311.011174
 30
0.0
 40
5.633955
100
AcDbArc
 50
150.119185
 51
31.58592
  0
ARC
  5
3FB
100
AcDbEntity
  8
0
370
    -3
390
0
  6
Continuous
100
AcDbCircle
 10
-556.516938
 20
-311.011174
 30
0.0
 40
6.5
100
AcDbArc
 50
154.457553
 51
27.247553
  0
POINT
  5
3FC
100
AcDbEntity
  8
0
370
    -3
390
0
  6
Continuous
100
AcDbPoint
 10
-556.516938
 20
-311.011174
 30
0.0
  0
LINE
  5
3FD
100
AcDbEntity
  8
0
370
    -3
390
0
  6
Continuous
100
AcDbLine
 10
-559.516935
 20
-312.74322
 30
0.0
 11
-559.516936
 21
-309.279122
 31
0.0
  0
LINE
  5
3FE
100
AcDbEntity
  8
0
370
    -3
390
0
  6
Continuous
100
AcDbLine
 10
-553.516941
 20
-309.279127
 30
0.0
 11
-553.51694
 21
-312.743225
 31
0.0
  0
LINE
  5
3FF
100
AcDbEntity
  8
0
370
    -3
390
0
  6
Continuous
100
AcDbLine
 10
-557.595943
 20
-308.170042
 30
0.0
 11
-559.516936
 21
-309.279122
 31
0.0
  0
LINE
  5
400
100
AcDbEntity
  8
0
370
    -3
390
0
  6
Continuous
100
AcDbLine
 10
-553.51694
 20
-312.743226
 30
0.0
 11
-556.516943
 21
-314.475273
 31
0.0
  0
LINE
  5
401
100
AcDbEntity
  8
0
370
    -3
390
0
  6
Continuous
100
AcDbLine
 10
-555.492261
 20
-308.138673
 30
0.0
 11
-553.516941
 21
-309.279128
 31
0.0
  0
LINE
  5
402
100
AcDbEntity
  8
0
370
    -3
390
0
  6
Continuous
100
AcDbLine
 10
-556.516943
 20
-314.475272
 30
0.0
 11
-559.516936
 21
-312.743221
 31
0.0
  0
LINE
  5
403
100
AcDbEntity
  8
0
370
    -3
390
0
  6
Continuous
100
AcDbLine
 10
48.763224
 20
82.988826
 30
0.0
 11
48.763224
 21
294.988826
 31
0.0
  0
LINE
  5
404
100
AcDbEntity
  8
0
370
    -3
390
0
  6
Continuous
100
AcDbLine
 10
48.763224
 20
96.661853
 30
0.0
 11
48.763224
 21
188.988826
 31
0.0
  0
INSERT
  5
410
100
AcDbEntity
  8
0
390
0
100
AcDbBlockReference
  2
ZU_SYM__USERS_HOME_SYMBOL_POO_SYM_B20_0001118
 10
71.263224
 20
178.488826
 30
0.0
  0
INSERT
  5
41C
100
AcDbEntity
  8
0
390
0
100
AcDbBlockReference
  2
ZU_SYM__USERS_HOME_SYMBOL_POO_SYM_B20_0001218
 10
87.763224
 20
67.988826
 30
0.0
  0
INSERT
  5
428
100
AcDbEntity
  8
0
390
0
100
AcDbBlockReference
  2
ZU_SYM__USERS_HOME_SYMBOL_POO_SYM_B20_0001318
 10
87.763224
 20
138.988826
 30
0.0
  0
ARC
  5
429
100
AcDbEntity
  8
0
370
    -3
390
0
  6
Continuous
100
AcDbCircle
 10
89.763224
 20
55.988826
 30
0.0
 40
2.0
100
AcDbArc
 50
180.0
 51
270.0
  0
LINE
  5
42A
100
AcDbEntity
  8
0
370
    -3
390
0
  6
Continuous
100
AcDbLine
 10
84.763224
 20
53.988826
 30
0.0
 11
99.263224
 21
53.988826
 31
0.0
  0
LINE
  5
42B
100
AcDbEntity
  8
0
370
    -3
390
0
  6
Continuous
100
AcDbLine
 10
98.763224
 20
188.988826
 30
0.0
 11
98.763224
 21
53.988826
 31
0.0
  0
LINE
  5
42C
100
AcDbEntity
  8
0
370
    -3
390
0
  6
Continuous
100
AcDbLine
 10
87.763224
 20
188.988826
 30
0.0
 11
87.763224
 21
55.988826
 31
0.0
  0
ARC
  5
42D
100
AcDbEntity
  8
0
370
    -3
390
0
  6
Continuous
100
AcDbCircle
 10
84.763224
 20
55.988826
 30
0.0
 40
2.0
100
AcDbArc
 50
180.0
 51
270.0
  0
LINE
  5
42E
100
AcDbEntity
  8
0
370
    -3
390
0
  6
Continuous
100
AcDbLine
 10
82.937721
 20
168.133524
 30
0.0
 11
78.658525
 21
168.282957
 31
0.0
  0
LINE
  5
42F
100
AcDbEntity
  8
0
370
    -3
390
0
  6
Continuous
100
AcDbLine
 10
75.763224
 20
188.988826
 30
0.0
 11
75.763224
 21
168.488826
 31
0.0
  0
ARC
  5
430
100
AcDbEntity
  8
0
370
    -3
390
0
  6
Continuous
100
AcDbCircle
 10
82.763224
 20
163.13657
 30
0.0
 40
5.0
100
AcDbArc
 50
0.0
 51
88.0
  0
ARC
  5
431
100
AcDbEntity
  8
0
370
    -3
390
0
  6
Continuous
100
AcDbCircle
 10
78.763224
 20
171.28113
 30
0.0
 40
3.0
100
AcDbArc
 50
180.0
 51
268.0
  0
LINE
  5
432
100
AcDbEntity
  8
0
370
    -3
390
0
  6
Continuous
100
AcDbLine
 10
71.263224
 20
188.988826
 30
0.0
 11
71.263224
 21
168.488826
 31
0.0
  0
LINE
  5
433
100
AcDbEntity
  8
0
370
    -3
390
0
  6
Continuous
100
AcDbLine
 10
75.763224
 20
168.488826
 30
0.0
 11
71.263224
 21
168.488826
 31
0.0
  0
LINE
  5
434
100
AcDbEntity
  8
0
370
    -3
390
0
  6
Continuous
100
AcDbLine
 10
67.763224
 20
188.988826
 30
0.0
 11
67.763224
 21
184.988826
 31
0.0
  0
LINE
  5
435
100
AcDbEntity
  8
0
370
    -3
390
0
  6
Continuous
100
AcDbLine
 10
83.024903
 20
77.298063
 30
0.0
 11
50.763224
 21
78.988826
 31
0.0
  0
ARC
  5
436
100
AcDbEntity
  8
0
370
    -3
390
0
  6
Continuous
100
AcDbCircle
 10
82.763224
 20
72.304915
 30
0.0
 40
5.0
100
AcDbArc
 50
42.592694
 51
87.0
  0
LINE
  5
437
100
AcDbEntity
  8
0
370
    -3
390
0
  6
Continuous
100
AcDbLine
 10
50.763224
 20
78.988826
 30
0.0
 11
50.763224
 21
188.988826
 31
0.0
  0
ARC
  5
438
100
AcDbEntity
  8
0
370
    -3
390
0
  6
Continuous
100
AcDbCircle
 10
48.763224
 20
91.988826
 30
0.0
 40
2.0
100
AcDbArc
 50
0.0
 51
90.0
  0
LINE
  5
439
100
AcDbEntity
  8
0
370
    -3
390
0
  6
Continuous
100
AcDbLine
 10
48.763224
 20
93.988826
 30
0.0
 11
48.763224
 21
96.661853
 31
0.0
  0
ARC
  5
43A
100
AcDbEntity
  8
0
370
    -3
390
0
  6
Continuous
100
AcDbCircle
 10
77.763224
 20
72.566954
 30
0.0
 40
5.0
100
AcDbArc
 50
22.604905
 51
87.0
  0
LINE
  5
43B
100
AcDbEntity
  8
0
370
    -3
390
0
  6
Continuous
100
AcDbLine
 10
82.763224
 20
55.988826
 30
0.0
 11
82.763224
 21
61.488826
 31
0.0
  0
INSERT
  5
447
100
AcDbEntity
  8
0
390
0
100
AcDbBlockReference
  2
ZU_SYM__USERS_HOME_SYMBOL_POO_SYM_B20_0001418
 10
71.263224
 20
199.488826
 30
0.0
 41
-1.0
 50
180.0
  0
INSERT
  5
453
100
AcDbEntity
  8
0
390
0
100
AcDbBlockReference
  2
ZU_SYM__USERS_HOME_SYMBOL_POO_SYM_B20_0001518
 10
87.763224
 20
309.988826
 30
0.0
 41
-1.0
 50
180.0
  0
INSERT
  5
45F
100
AcDbEntity
  8
0
390
0
100
AcDbBlockReference
  2
ZU_SYM__USERS_HOME_SYMBOL_POO_SYM_B20_0001618
 10
87.763224
 20
238.988826
 30
0.0
 41
-1.0
 50
180.0
  0
ARC
  5
460
100
AcDbEntity
  8
0
370
    -3
390
0
  6
Continuous
100
AcDbCircle
 10
89.763224
 20
321.988826
 30
0.0
 40
2.0
100
AcDbArc
 50
90.0
 51
180.0
  0
LINE
  5
461
100
AcDbEntity
  8
0
370
    -3
390
0
  6
Continuous
100
AcDbLine
 10
84.763224
 20
323.988826
 30
0.0
 11
99.263224
 21
323.988826
 31
0.0
  0
LINE
  5
462
100
AcDbEntity
  8
0
370
    -3
390
0
  6
Continuous
100
AcDbLine
 10
98.763224
 20
188.988826
 30
0.0
 11
98.763224
 21
323.988826
 31
0.0
  0
LINE
  5
463
100
AcDbEntity
  8
0
370
    -3
390
0
  6
Continuous
100
AcDbLine
 10
87.763224
 20
188.988826
 30
0.0
 11
87.763224
 21
321.988826
 31
0.0
  0
ARC
  5
464
100
AcDbEntity
  8
0
370
    -3
390
0
  6
Continuous
100
AcDbCircle
 10
84.763224
 20
321.988826
 30
0.0
 40
2.0
100
AcDbArc
 50
90.0
 51
180.0
  0
LINE
  5
465
100
AcDbEntity
  8
0
370
    -3
390
0
  6
Continuous
100
AcDbLine
 10
82.937721
 20
209.844127
 30
0.0
 11
78.658525
 21
209.694694
 31
0.0
  0
LINE
  5
466
100
AcDbEntity
  8
0
370
    -3
390
0
  6
Continuous
100
AcDbLine
 10
75.763224
 20
188.988826
 30
0.0
 11
75.763224
 21
209.488826
 31
0.0
  0
ARC
  5
467
100
AcDbEntity
  8
0
370
    -3
390
0
  6
Continuous
100
AcDbCircle
 10
82.763224
 20
214.841081
 30
0.0
 40
5.0
100
AcDbArc
 50
272.0
 51
0.0
  0
ARC
  5
468
100
AcDbEntity
  8
0
370
    -3
390
0
  6
Continuous
100
AcDbCircle
 10
78.763224
 20
206.696522
 30
0.0
 40
3.0
100
AcDbArc
 50
92.0
 51
180.0
  0
LINE
  5
469
100
AcDbEntity
  8
0
370
    -3
390
0
  6
Continuous
100
AcDbLine
 10
71.263224
 20
188.988826
 30
0.0
 11
71.263224
 21
209.488826
 31
0.0
  0
LINE
  5
46A
100
AcDbEntity
  8
0
370
    -3
390
0
  6
Continuous
100
AcDbLine
 10
75.763224
 20
209.488826
 30
0.0
 11
71.263224
 21
209.488826
 31
0.0
  0
LINE
  5
46B
100
AcDbEntity
  8
0
370
    -3
390
0
  6
Continuous
100
AcDbLine
 10
67.763224
 20
188.988826
 30
0.0
 11
67.763224
 21
192.988826
 31
0.0
  0
LINE
  5
46C
100
AcDbEntity
  8
0
370
    -3
390
0
  6
Continuous
100
AcDbLine
 10
83.024903
 20
300.679589
 30
0.0
 11
50.763224
 21
298.988826
 31
0.0
  0
ARC
  5
46D
100
AcDbEntity
  8
0
370
    -3
390
0
  6
Continuous
100
AcDbCircle
 10
82.763224
 20
305.672736
 30
0.0
 40
5.0
100
AcDbArc
 50
273.0
 51
317.407306
  0
LINE
  5
46E
100
AcDbEntity
  8
0
370
    -3
390
0
  6
Continuous
100
AcDbLine
 10
50.763224
 20
298.988826
 30
0.0
 11
50.763224
 21
188.988826
 31
0.0
  0
ARC
  5
46F
100
AcDbEntity
  8
0
370
    -3
390
0
  6
Continuous
100
AcDbCircle
 10
48.763224
 20
285.988826
 30
0.0
 40
2.0
100
AcDbArc
 50
270.0
 51
0.0
  0
LINE
  5
470
100
AcDbEntity
  8
0
370
    -3
390
0
  6
Continuous
100
AcDbLine
 10
48.763224
 20
283.988826
 30
0.0
 11
48.763224
 21
188.988826
 31
0.0
  0
ARC
  5
471
100
AcDbEntity
  8
0
370
    -3
390
0
  6
Continuous
100
AcDbCircle
 10
77.763224
 20
305.410697
 30
0.0
 40
5.0
100
AcDbArc
 50
273.0
 51
337.395095
  0
LINE
  5
472
100
AcDbEntity
  8
0
370
    -3
390
0
  6
Continuous
100
AcDbLine
 10
82.763224
 20
321.988826
 30
0.0
 11
82.763224
 21
316.488826
 31
0.0
  0
LINE
  5
473
100
AcDbEntity
  8
0
370
    -3
390
0
  6
Continuous
100
AcDbLine
 10
251.763224
 20
161.488826
 30
0.0
 11
251.763224
 21
164.988826
 31
0.0
  0
LINE
  5
474
100
AcDbEntity
  8
0
370
    -3
390
0
  6
Continuous
100
AcDbLine
 10
246.763224
 20
188.988826
 30
0.0
 11
246.763224
 21
213.638826
 31
0.0
  0
LINE
  5
475
100
AcDbEntity
  8
0
370
    -3
390
0
  6
Continuous
100
AcDbLine
 10
246.563224
 20
213.988826
 30
0.0
 11
244.763224
 21
213.988826
 31
0.0
  0
LINE
  5
476
100
AcDbEntity
  8
0
370
    -3
390
0
  6
Continuous
100
AcDbLine
 10
248.763224
 20
212.838826
 30
0.0
 11
249.323031
 21
212.988826
 31
0.0
  0
LINE
  5
477
100
AcDbEntity
  8
0
370
    -3
390
0
  6
Continuous
100
AcDbLine
 10
248.763224
 20
212.838826
 30
0.0
 11
247.563224
 21
212.838826
 31
0.0
  0
LINE
  5
478
100
AcDbEntity
  8
0
370
    -3
390
0
  6
Continuous
100
AcDbLine
 10
246.763224
 20
213.638826
 30
0.0
 11
246.763224
 21
213.788826
 31
0.0
  0
ARC
  5
479
100
AcDbEntity
  8
0
370
    -3
390
0
  6
Continuous
100
AcDbCircle
 10
247.563224
 20
213.638826
 30
0.0
 40
0.8
100
AcDbArc
 50
180.0
 51
270.0
  0
LINE
  5
47A
100
AcDbEntity
  8
0
370
    -3
390
0
  6
Continuous
100
AcDbLine
 10
246.763224
 20
213.788826
 30
0.0
 11
246.563224
 21
213.988826
 31
0.0
  0
LINE
  5
47B
100
AcDbEntity
  8
0
370
    -3
390
0
  6
Continuous
100
AcDbLine
 10
246.763224
 20
188.988826
 30
0.0
 11
246.763224
 21
164.338826
 31
0.0
  0
LINE
  5
47C
100
AcDbEntity
  8
0
370
    -3
390
0
  6
Continuous
100
AcDbLine
 10
246.563224
 20
163.988826
 30
0.0
 11
244.763224
 21
163.988826
 31
0.0
  0
LINE
  5
47D
100
AcDbEntity
  8
0
370
    -3
390
0
  6
Continuous
100
AcDbLine
 10
248.763224
 20
165.138826
 30
0.0
 11
249.323031
 21
164.988826
 31
0.0
  0
LINE
  5
47E
100
AcDbEntity
  8
0
370
    -3
390
0
  6
Continuous
100
AcDbLine
 10
248.763224
 20
165.138826
 30
0.0
 11
247.563224
 21
165.138826
 31
0.0
  0
LINE
  5
47F
100
AcDbEntity
  8
0
370
    -3
390
0
  6
Continuous
100
AcDbLine
 10
246.763224
 20
164.338826
 30
0.0
 11
246.763224
 21
164.188826
 31
0.0
  0
ARC
  5
480
100
AcDbEntity
  8
0
370
    -3
390
0
  6
Continuous
100
AcDbCircle
 10
247.563224
 20
164.338826
 30
0.0
 40
0.8
100
AcDbArc
 50
90.0
 51
180.0
  0
LINE
  5
481
100
AcDbEntity
  8
0
370
    -3
390
0
  6
Continuous
100
AcDbLine
 10
246.763224
 20
164.188826
 30
0.0
 11
246.563224
 21
163.988826
 31
0.0
  0
LINE
  5
482
100
AcDbEntity
  8
0
370
    -3
390
0
  6
Continuous
100
AcDbLine
 10
321.363224
 20
212.988826
 30
0.0
 11
249.323031
 21
212.988826
 31
0.0
  0
LINE
  5
483
100
AcDbEntity
  8
0
370
    -3
390
0
  6
Continuous
100
AcDbLine
 10
321.763224
 20
188.988826
 30
0.0
 11
321.763224
 21
212.588826
 31
0.0
  0
ARC
  5
484
100
AcDbEntity
  8
0
370
    -3
390
0
  6
Continuous
100
AcDbCircle
 10
321.363224
 20
212.588826
 30
0.0
 40
0.4
100
AcDbArc
 50
0.0
 51
90.0
  0
LINE
  5
485
100
AcDbEntity
  8
0
370
    -3
390
0
  6
Continuous
100
AcDbLine
 10
321.763224
 20
161.488826
 30
0.0
 11
251.763224
 21
161.488826
 31
0.0
  0
LINE
  5
486
100
AcDbEntity
  8
0
370
    -3
390
0
  6
Continuous
100
AcDbLine
 10
321.763224
 20
188.988826
 30
0.0
 11
321.763224
 21
161.488826
 31
0.0
  0
ARC
  5
487
100
AcDbEntity
  8
0
370
    -3
390
0
  6
Continuous
100
AcDbCircle
 10
234.763224
 20
56.315798
 30
0.0
 40
10.0
100
AcDbArc
 50
271.0
 51
0.0
  0
LINE
  5
488
100
AcDbEntity
  8
0
370
    -3
390
0
  6
Continuous
100
AcDbLine
 10
48.371816
 20
46.112449
 30
0.0
 11
102.263224
 21
44.001479
 31
0.0
  0
ARC
  5
489
100
AcDbEntity
  8
0
370
    -3
390
0
  6
Continuous
100
AcDbCircle
 10
48.763224
 20
56.104786
 30
0.0
 40
10.0
100
AcDbArc
 50
180.0
 51
267.756824
  0
ARC
  5
48A
100
AcDbEntity
  8
0
370
    -3
390
0
  6
Continuous
100
AcDbCircle
 10
234.763224
 20
321.661853
 30
0.0
 40
10.0
100
AcDbArc
 50
0.0
 51
89.0
  0
LINE
  5
48B
100
AcDbEntity
  8
0
370
    -3
390
0
  6
Continuous
100
AcDbLine
 10
48.371816
 20
331.865202
 30
0.0
 11
102.263224
 21
333.976172
 31
0.0
  0
ARC
  5
48C
100
AcDbEntity
  8
0
370
    -3
390
0
  6
Continuous
100
AcDbCircle
 10
48.763224
 20
321.872865
 30
0.0
 40
10.0
100
AcDbArc
 50
92.243176
 51
180.0
  0
LINE
  5
48D
100
AcDbEntity
  8
0
370
    -3
390
0
  6
Continuous
100
AcDbLine
 10
234.937748
 20
46.317321
 30
0.0
 11
102.263224
 21
44.001479
 31
0.0
  0
LINE
  5
48E
100
AcDbEntity
  8
0
370
    -3
390
0
  6
Continuous
100
AcDbLine
 10
234.937748
 20
331.66033
 30
0.0
 11
102.263224
 21
333.976172
 31
0.0
  0
LINE
  5
48F
100
AcDbEntity
  8
0
370
    -3
390
0
  6
Continuous
100
AcDbLine
 10
38.763224
 20
294.988826
 30
0.0
 11
38.763224
 21
321.872865
 31
0.0
  0
LINE
  5
490
100
AcDbEntity
  8
0
370
    -3
390
0
  6
Continuous
100
AcDbLine
 10
99.263224
 20
188.988826
 30
0.0
 11
99.263224
 21
53.988826
 31
0.0
  0
LINE
  5
491
100
AcDbEntity
  8
0
370
    -3
390
0
  6
Continuous
100
AcDbLine
 10
99.263224
 20
188.988826
 30
0.0
 11
99.263224
 21
323.988826
 31
0.0
  0
LINE
  5
492
100
AcDbEntity
  8
0
370
    -3
390
0
  6
Continuous
100
AcDbLine
 10
242.763224
 20
188.988826
 30
0.0
 11
242.763224
 21
97.497225
 31
0.0
  0
LINE
  5
493
100
AcDbEntity
  8
0
370
    -3
390
0
  6
Continuous
100
AcDbLine
 10
242.763224
 20
188.988826
 30
0.0
 11
242.763224
 21
280.480427
 31
0.0
  0
ARC
  5
494
100
AcDbEntity
  8
0
370
    -3
390
0
  6
Continuous
100
AcDbCircle
 10
243.763224
 20
143.988826
 30
0.0
 40
1.0
100
AcDbArc
 50
90.0
 51
180.0
  0
ARC
  5
495
100
AcDbEntity
  8
0
370
    -3
390
0
  6
Continuous
100
AcDbCircle
 10
243.763224
 20
233.988826
 30
0.0
 40
1.0
100
AcDbArc
 50
180.0
 51
270.0
  0
LINE
  5
496
100
AcDbEntity
  8
0
370
    -3
390
0
  6
CENTER
100
AcDbLine
 10
71.401802
 20
63.988826
 30
0.0
 11
42.86546
 21
63.988826
 31
0.0
  0
LINE
  5
497
100
AcDbEntity
  8
0
370
    -3
390
0
  6
CENTER
100
AcDbLine
 10
71.401802
 20
313.988826
 30
0.0
 11
42.86546
 21
313.988826
 31
0.0
  0
CIRCLE
  5
498
100
AcDbEntity
  8
0
370
    -3
390
0
  6
Continuous
100
AcDbCircle
 10
226.763224
 20
63.988826
 30
0.0
 40
7.5
  0
CIRCLE
  5
499
100
AcDbEntity
  8
0
370
    -3
390
0
  6
Continuous
100
AcDbCircle
 10
226.763224
 20
313.988826
 30
0.0
 40
7.5
  0
CIRCLE
  5
49A
100
AcDbEntity
  8
0
370
    -3
390
0
  6
Continuous
100
AcDbCircle
 10
56.763224
 20
63.988826
 30
0.0
 40
7.5
  0
CIRCLE
  5
49B
100
AcDbEntity
  8
0
370
    -3
390
0
  6
Continuous
100
AcDbCircle
 10
56.763224
 20
313.988826
 30
0.0
 40
7.5
  0
LINE
  5
49C
100
AcDbEntity
  8
0
370
    -3
390
0
  6
CENTER
100
AcDbLine
 10
240.336949
 20
63.988826
 30
0.0
 11
214.083514
 21
63.988826
 31
0.0
  0
LINE
  5
49D
100
AcDbEntity
  8
0
370
    -3
390
0
  6
CENTER
100
AcDbLine
 10
240.336949
 20
313.988826
 30
0.0
 11
214.083514
 21
313.988826
 31
0.0
  0
LINE
  5
49E
100
AcDbEntity
  8
0
370
    -3
390
0
  6
CENTER
100
AcDbLine
 10
226.763224
 20
49.978341
 30
0.0
 11
226.763224
 21
79.08541
 31
0.0
  0
LINE
  5
49F
100
AcDbEntity
  8
0
370
    -3
390
0
  6
CENTER
100
AcDbLine
 10
226.763224
 20
327.99931
 30
0.0
 11
226.763224
 21
298.892241
 31
0.0
  0
LINE
  5
4A0
100
AcDbEntity
  8
0
370
    -3
390
0
  6
CENTER
100
AcDbLine
 10
56.763224
 20
49.978341
 30
0.0
 11
56.763224
 21
78.514684
 31
0.0
  0
LINE
  5
4A1
100
AcDbEntity
  8
0
370
    -3
390
0
  6
CENTER
100
AcDbLine
 10
56.763224
 20
327.99931
 30
0.0
 11
56.763224
 21
299.462968
 31
0.0
  0
LINE
  5
4A2
100
AcDbEntity
  8
0
370
    -3
390
0
  6
Continuous
100
AcDbLine
 10
76.763224
 20
52.488826
 30
0.0
 11
76.763224
 21
77.626223
 31
0.0
  0
LINE
  5
4A3
100
AcDbEntity
  8
0
370
    -3
390
0
  6
Continuous
100
AcDbLine
 10
76.763224
 20
325.488826
 30
0.0
 11
76.763224
 21
300.351428
 31
0.0
  0
LINE
  5
4A4
100
AcDbEntity
  8
0
370
    -3
390
0
  6
CENTER
100
AcDbLine
 10
335.593592
 20
188.988826
 30
0.0
 11
-350.612329
 21
188.988826
 31
0.0
  0
LINE
  5
4A5
100
AcDbEntity
  8
0
370
    -3
390
0
  6
Continuous
100
AcDbLine
 10
244.763224
 20
188.988826
 30
0.0
 11
244.763224
 21
56.315798
 31
0.0
  0
LINE
  5
4A6
100
AcDbEntity
  8
0
370
    -3
390
0
  6
Continuous
100
AcDbLine
 10
244.763224
 20
188.988826
 30
0.0
 11
244.763224
 21
321.661853
 31
0.0
  0
LINE
  5
4A7
100
AcDbEntity
  8
0
370
    -3
390
0
  6
Continuous
100
AcDbLine
 10
38.763224
 20
82.988826
 30
0.0
 11
38.763224
 21
56.104786
 31
0.0
  0
ARC
  5
4A8
100
AcDbEntity
  8
0
370
    -3
390
0
  6
Continuous
100
AcDbCircle
 10
239.763224
 20
97.497225
 30
0.0
 40
3.0
100
AcDbArc
 50
328.58966
 51
0.0
  0
ARC
  5
4A9
100
AcDbEntity
  8
0
370
    -3
390
0
  6
Continuous
100
AcDbCircle
 10
239.763224
 20
280.480427
 30
0.0
 40
3.0
100
AcDbArc
 50
0.0
 51
31.41034
  0
ARC
  5
4AA
100
AcDbEntity
  8
0
370
    -3
390
0
  6
Continuous
100
AcDbCircle
 10
169.779769
 20
140.232644
 30
0.0
 40
85.0
100
AcDbArc
 50
321.431062
 51
328.58966
  0
ARC
  5
4AB
100
AcDbEntity
  8
0
370
    -3
390
0
  6
Continuous
100
AcDbCircle
 10
169.779769
 20
237.745007
 30
0.0
 40
85.0
100
AcDbArc
 50
31.41034
 51
38.568938
  0
ARC
  5
4AC
100
AcDbEntity
  8
0
370
    -3
390
0
  6
Continuous
100
AcDbCircle
 10
227.210231
 20
63.988826
 30
0.0
 40
22.0
100
AcDbArc
 50
91.0
 51
177.852183
  0
ARC
  5
4AD
100
AcDbEntity
  8
0
370
    -3
390
0
  6
Continuous
100
AcDbCircle
 10
227.210231
 20
313.988826
 30
0.0
 40
22.0
100
AcDbArc
 50
182.147817
 51
269.0
  0
ARC
  5
4AE
100
AcDbEntity
  8
0
370
    -3
390
0
  6
Continuous
100
AcDbCircle
 10
233.892173
 20
89.109268
 30
0.0
 40
3.0
100
AcDbArc
 50
271.0
 51
321.431062
  0
ARC
  5
4AF
100
AcDbEntity
  8
0
370
    -3
390
0
  6
Continuous
100
AcDbCircle
 10
233.892173
 20
288.868384
 30
0.0
 40
3.0
100
AcDbArc
 50
38.568938
 51
89.0
  0
LINE
  5
4B0
100
AcDbEntity
  8
0
370
    -3
390
0
  6
Continuous
100
AcDbLine
 10
226.826278
 20
85.985475
 30
0.0
 11
233.94453
 21
86.109725
 31
0.0
  0
LINE
  5
4B1
100
AcDbEntity
  8
0
370
    -3
390
0
  6
Continuous
100
AcDbLine
 10
226.826278
 20
291.992176
 30
0.0
 11
233.94453
 21
291.867927
 31
0.0
  0
ARC
  5
4B2
100
AcDbEntity
  8
0
370
    -3
390
0
  6
Continuous
100
AcDbCircle
 10
202.227795
 20
64.925768
 30
0.0
 40
3.0
100
AcDbArc
 50
293.310114
 51
357.852183
  0
ARC
  5
4B3
100
AcDbEntity
  8
0
370
    -3
390
0
  6
Continuous
100
AcDbCircle
 10
202.227795
 20
313.051883
 30
0.0
 40
3.0
100
AcDbArc
 50
2.147817
 51
66.689886
  0
ARC
  5
4B4
100
AcDbEntity
  8
0
370
    -3
390
0
  6
Continuous
100
AcDbCircle
 10
169.779769
 20
140.232644
 30
0.0
 40
85.0
100
AcDbArc
 50
271.0
 51
293.310114
  0
ARC
  5
4B5
100
AcDbEntity
  8
0
370
    -3
390
0
  6
Continuous
100
AcDbCircle
 10
169.779769
 20
237.745007
 30
0.0
 40
85.0
100
AcDbArc
 50
66.689886
 51
89.0
  0
LINE
  5
4B6
100
AcDbEntity
  8
0
370
    -3
390
0
  6
Continuous
100
AcDbLine
 10
171.263224
 20
55.24559
 30
0.0
 11
99.263224
 21
53.988826
 31
0.0
  0
LINE
  5
4B7
100
AcDbEntity
  8
0
370
    -3
390
0
  6
Continuous
100
AcDbLine
 10
171.263224
 20
322.732061
 30
0.0
 11
99.263224
 21
323.988826
 31
0.0
  0
LINE
  5
4B8
100
AcDbEntity
  8
0
370
    -3
390
0
  6
Continuous
100
AcDbLine
 10
243.763224
 20
144.988826
 30
0.0
 11
244.763224
 21
144.988826
 31
0.0
  0
LINE
  5
4B9
100
AcDbEntity
  8
0
370
    -3
390
0
  6
Continuous
100
AcDbLine
 10
243.763224
 20
232.988826
 30
0.0
 11
244.763224
 21
232.988826
 31
0.0
  0
LINE
  5
4BA
100
AcDbEntity
  8
0
370
    -3
390
0
  6
Continuous
100
AcDbLine
 10
321.363224
 20
164.988826
 30
0.0
 11
249.323031
 21
164.988826
 31
0.0
  0
ARC
  5
4BB
100
AcDbEntity
  8
0
370
    -3
390
0
  6
Continuous
100
AcDbCircle
 10
321.363224
 20
165.388826
 30
0.0
 40
0.4
100
AcDbArc
 50
270.0
 51
0.0
  0
LINE
  5
4BC
100
AcDbEntity
  8
0
370
    -3
390
0
  6
Continuous
100
AcDbLine
 10
48.763224
 20
82.988826
 30
0.0
 11
48.763224
 21
294.988826
 31
0.0
  0
LINE
  5
4BD
100
AcDbEntity
  8
0
370
    -3
390
0
  6
Continuous
100
AcDbLine
 10
-165.836776
 20
70.588826
 30
0.0
 11
-165.836776
 21
72.715737
 31
0.0
  0
ARC
  5
4BE
100
AcDbEntity
  8
0
370
    -3
390
0
  6
Continuous
100
AcDbCircle
 10
-170.236776
 20
71.715737
 30
0.0
 40
1.0
100
AcDbArc
 50
90.0
 51
175.808572
  0
LINE
  5
4BF
100
AcDbEntity
  8
0
370
    -3
390
0
  6
Continuous
100
AcDbLine
 10
-171.234102
 20
71.788826
 30
0.0
 11
-276.838286
 21
71.788826
 31
0.0
  0
LINE
  5
4C0
100
AcDbEntity
  8
0
370
    -3
390
0
  6
Continuous
100
AcDbLine
 10
-170.236776
 20
72.715737
 30
0.0
 11
-159.236776
 21
72.715737
 31
0.0
  0
ARC
  5
4C1
100
AcDbEntity
  8
0
370
    -3
390
0
  6
Continuous
100
AcDbCircle
 10
-159.236776
 20
75.715737
 30
0.0
 40
3.0
100
AcDbArc
 50
270.0
 51
0.0
  0
LINE
  5
4C2
100
AcDbEntity
  8
0
370
    -3
390
0
  6
Continuous
100
AcDbLine
 10
-156.236776
 20
306.188826
 30
0.0
 11
-156.236776
 21
75.715737
 31
0.0
  0
LINE
  5
4C3
100
AcDbEntity
  8
0
370
    -3
390
0
  6
Continuous
100
AcDbLine
 10
-156.236776
 20
306.188826
 30
0.0
 11
-276.838286
 21
306.188826
 31
0.0
  0
LINE
  5
4C4
100
AcDbEntity
  8
0
370
    -3
390
0
  6
Continuous
100
AcDbLine
 10
48.763224
 20
288.988826
 30
0.0
 11
-156.236776
 21
288.988826
 31
0.0
  0
LINE
  5
4C5
100
AcDbEntity
  8
0
370
    -3
390
0
  6
Continuous
100
AcDbLine
 10
48.763224
 20
276.097243
 30
0.0
 11
-156.236776
 21
276.097243
 31
0.0
  0
LINE
  5
4C6
100
AcDbEntity
  8
0
370
    -3
390
0
  6
Continuous
100
AcDbLine
 10
48.763224
 20
266.904855
 30
0.0
 11
-156.236776
 21
266.904855
 31
0.0
  0
LINE
  5
4C7
100
AcDbEntity
  8
0
370
    -3
390
0
  6
Continuous
100
AcDbLine
 10
48.763224
 20
250.459994
 30
0.0
 11
-156.236776
 21
250.459994
 31
0.0
  0
LINE
  5
4C8
100
AcDbEntity
  8
0
370
    -3
390
0
  6
Continuous
100
AcDbLine
 10
48.763224
 20
247.505513
 30
0.0
 11
-156.236776
 21
247.505513
 31
0.0
  0
LINE
  5
4C9
100
AcDbEntity
  8
0
370
    -3
390
0
  6
Continuous
100
AcDbLine
 10
48.763224
 20
238.476877
 30
0.0
 11
-156.236776
 21
238.476877
 31
0.0
  0
LINE
  5
4CA
100
AcDbEntity
  8
0
370
    -3
390
0
  6
Continuous
100
AcDbLine
 10
48.763224
 20
235.561319
 30
0.0
 11
-156.236776
 21
235.561319
 31
0.0
  0
LINE
  5
4CB
100
AcDbEntity
  8
0
370
    -3
390
0
  6
Continuous
100
AcDbLine
 10
48.763224
 20
226.400269
 30
0.0
 11
-156.236776
 21
226.400269
 31
0.0
  0
LINE
  5
4CC
100
AcDbEntity
  8
0
370
    -3
390
0
  6
Continuous
100
AcDbLine
 10
48.763224
 20
223.611753
 30
0.0
 11
-156.236776
 21
223.611753
 31
0.0
  0
LINE
  5
4CD
100
AcDbEntity
  8
0
370
    -3
390
0
  6
Continuous
100
AcDbLine
 10
48.763224
 20
214.310187
 30
0.0
 11
-156.236776
 21
214.310187
 31
0.0
  0
LINE
  5
4CE
100
AcDbEntity
  8
0
370
    -3
390
0
  6
Continuous
100
AcDbLine
 10
48.763224
 20
211.679785
 30
0.0
 11
-156.236776
 21
211.679785
 31
0.0
  0
LINE
  5
4CF
100
AcDbEntity
  8
0
370
    -3
390
0
  6
Continuous
100
AcDbLine
 10
48.763224
 20
204.778955
 30
0.0
 11
-156.236776
 21
204.778955
 31
0.0
  0
LINE
  5
4D0
100
AcDbEntity
  8
0
370
    -3
390
0
  6
Continuous
100
AcDbLine
 10
48.763224
 20
201.988826
 30
0.0
 11
-156.236776
 21
201.988826
 31
0.0
  0
LINE
  5
4D1
100
AcDbEntity
  8
0
370
    -3
390
0
  6
Continuous
100
AcDbLine
 10
48.763224
 20
194.238826
 30
0.0
 11
-156.236776
 21
194.238826
 31
0.0
  0
LINE
  5
4D2
100
AcDbEntity
  8
0
370
    -3
390
0
  6
Continuous
100
AcDbLine
 10
-156.236776
 20
294.488826
 30
0.0
 11
48.763224
 21
294.488826
 31
0.0
  0
LINE
  5
4D3
100
AcDbEntity
  8
0
370
    -3
390
0
  6
Continuous
100
AcDbLine
 10
-156.236776
 20
294.988826
 30
0.0
 11
48.763224
 21
294.988826
 31
0.0
  0
LINE
  5
4D4
100
AcDbEntity
  8
0
370
    -3
390
0
  6
Continuous
100
AcDbLine
 10
48.763224
 20
88.988826
 30
0.0
 11
-156.236776
 21
88.988826
 31
0.0
  0
LINE
  5
4D5
100
AcDbEntity
  8
0
370
    -3
390
0
  6
Continuous
100
AcDbLine
 10
48.763224
 20
101.880408
 30
0.0
 11
-156.236776
 21
101.880408
 31
0.0
  0
LINE
  5
4D6
100
AcDbEntity
  8
0
370
    -3
390
0
  6
Continuous
100
AcDbLine
 10
48.763224
 20
111.072796
 30
0.0
 11
-156.236776
 21
111.072796
 31
0.0
  0
LINE
  5
4D7
100
AcDbEntity
  8
0
370
    -3
390
0
  6
Continuous
100
AcDbLine
 10
48.763224
 20
127.517658
 30
0.0
 11
-156.236776
 21
127.517658
 31
0.0
  0
LINE
  5
4D8
100
AcDbEntity
  8
0
370
    -3
390
0
  6
Continuous
100
AcDbLine
 10
48.763224
 20
130.472138
 30
0.0
 11
-156.236776
 21
130.472138
 31
0.0
  0
LINE
  5
4D9
100
AcDbEntity
  8
0
370
    -3
390
0
  6
Continuous
100
AcDbLine
 10
48.763224
 20
139.500775
 30
0.0
 11
-156.236776
 21
139.500775
 31
0.0
  0
LINE
  5
4DA
100
AcDbEntity
  8
0
370
    -3
390
0
  6
Continuous
100
AcDbLine
 10
48.763224
 20
142.416332
 30
0.0
 11
-156.236776
 21
142.416332
 31
0.0
  0
LINE
  5
4DB
100
AcDbEntity
  8
0
370
    -3
390
0
  6
Continuous
100
AcDbLine
 10
48.763224
 20
151.577382
 30
0.0
 11
-156.236776
 21
151.577382
 31
0.0
  0
LINE
  5
4DC
100
AcDbEntity
  8
0
370
    -3
390
0
  6
Continuous
100
AcDbLine
 10
48.763224
 20
154.365899
 30
0.0
 11
-156.236776
 21
154.365899
 31
0.0
  0
LINE
  5
4DD
100
AcDbEntity
  8
0
370
    -3
390
0
  6
Continuous
100
AcDbLine
 10
48.763224
 20
163.667464
 30
0.0
 11
-156.236776
 21
163.667464
 31
0.0
  0
LINE
  5
4DE
100
AcDbEntity
  8
0
370
    -3
390
0
  6
Continuous
100
AcDbLine
 10
48.763224
 20
166.297867
 30
0.0
 11
-156.236776
 21
166.297867
 31
0.0
  0
LINE
  5
4DF
100
AcDbEntity
  8
0
370
    -3
390
0
  6
Continuous
100
AcDbLine
 10
48.763224
 20
173.198697
 30
0.0
 11
-156.236776
 21
173.198697
 31
0.0
  0
LINE
  5
4E0
100
AcDbEntity
  8
0
370
    -3
390
0
  6
Continuous
100
AcDbLine
 10
48.763224
 20
175.988826
 30
0.0
 11
-156.236776
 21
175.988826
 31
0.0
  0
LINE
  5
4E1
100
AcDbEntity
  8
0
370
    -3
390
0
  6
Continuous
100
AcDbLine
 10
48.763224
 20
183.738826
 30
0.0
 11
-156.236776
 21
183.738826
 31
0.0
  0
LINE
  5
4E2
100
AcDbEntity
  8
0
370
    -3
390
0
  6
Continuous
100
AcDbLine
 10
-172.236776
 20
66.988826
 30
0.0
 11
-172.236776
 21
68.588826
 31
0.0
  0
LINE
  5
4E3
100
AcDbEntity
  8
0
370
    -3
390
0
  6
Continuous
100
AcDbLine
 10
-110.236776
 20
66.988826
 30
0.0
 11
-110.236776
 21
68.588826
 31
0.0
  0
LINE
  5
4E4
100
AcDbEntity
  8
0
370
    -3
390
0
  6
Continuous
100
AcDbLine
 10
-172.236776
 20
66.988826
 30
0.0
 11
-172.236776
 21
65.988826
 31
0.0
  0
LINE
  5
4E5
100
AcDbEntity
  8
0
370
    -3
390
0
  6
Continuous
100
AcDbLine
 10
-110.236776
 20
66.988826
 30
0.0
 11
-110.236776
 21
65.988826
 31
0.0
  0
LINE
  5
4E6
100
AcDbEntity
  8
0
370
    -3
390
0
  6
Continuous
100
AcDbLine
 10
-175.036776
 20
65.988826
 30
0.0
 11
-107.436776
 21
65.988826
 31
0.0
  0
LINE
  5
4E7
100
AcDbEntity
  8
0
370
    -3
390
0
  6
Continuous
100
AcDbLine
 10
-187.686776
 20
53.68339
 30
0.0
 11
-187.686776
 21
26.815
 31
0.0
  0
LINE
  5
4E8
100
AcDbEntity
  8
0
370
    -3
390
0
  6
Continuous
100
AcDbLine
 10
-138.17952
 20
15.815
 30
0.0
 11
-105.786776
 21
15.815
 31
0.0
  0
CIRCLE
  5
4E9
100
AcDbEntity
  8
0
370
    -3
390
0
  6
DASHED
100
AcDbCircle
 10
-141.236776
 20
41.988826
 30
0.0
 40
13.5
  0
LINE
  5
4EA
100
AcDbEntity
  8
0
370
    -3
390
0
  6
CENTER
100
AcDbLine
 10
-164.060408
 20
41.988826
 30
0.0
 11
-119.77269
 21
41.988826
 31
0.0
  0
ARC
  5
4EB
100
AcDbEntity
  8
0
370
    -3
390
0
  6
Continuous
100
AcDbCircle
 10
-175.036776
 20
60.988826
 30
0.0
 40
5.0
100
AcDbArc
 50
90.0
 51
135.074044
  0
ARC
  5
4EC
100
AcDbEntity
  8
0
370
    -3
390
0
  6
Continuous
100
AcDbCircle
 10
-107.436776
 20
60.988826
 30
0.0
 40
5.0
100
AcDbArc
 50
44.925956
 51
90.0
  0
ARC
  5
4ED
100
AcDbEntity
  8
0
370
    -3
390
0
  6
Continuous
100
AcDbCircle
 10
-176.686776
 20
53.68339
 30
0.0
 40
11.0
100
AcDbArc
 50
90.0
 51
180.0
  0
ARC
  5
4EE
100
AcDbEntity
  8
0
370
    -3
390
0
  6
Continuous
100
AcDbCircle
 10
-176.686776
 20
50.211917
 30
0.0
 40
11.0
100
AcDbArc
 50
90.0
 51
180.0
  0
ARC
  5
4EF
100
AcDbEntity
  8
0
370
    -3
390
0
  6
Continuous
100
AcDbCircle
 10
-105.786776
 20
53.68339
 30
0.0
 40
11.0
100
AcDbArc
 50
0.0
 51
90.0
  0
ARC
  5
4F0
100
AcDbEntity
  8
0
370
    -3
390
0
  6
Continuous
100
AcDbCircle
 10
-105.786776
 20
50.211917
 30
0.0
 40
11.0
100
AcDbArc
 50
0.0
 51
90.0
  0
ARC
  5
4F1
100
AcDbEntity
  8
0
370
    -3
390
0
  6
Continuous
100
AcDbCircle
 10
-175.486776
 20
23.788826
 30
0.0
 40
5.8
100
AcDbArc
 50
180.0
 51
270.0
  0
ARC
  5
4F2
100
AcDbEntity
  8
0
370
    -3
390
0
  6
Continuous
100
AcDbCircle
 10
-106.986776
 20
23.788826
 30
0.0
 40
5.8
100
AcDbArc
 50
270.0
 51
0.0
  0
LINE
  5
4F3
100
AcDbEntity
  8
0
370
    -3
390
0
  6
Continuous
100
AcDbLine
 10
-175.486776
 20
17.988826
 30
0.0
 11
-106.986776
 21
17.988826
 31
0.0
  0
ARC
  5
4F4
100
AcDbEntity
  8
0
370
    -3
390
0
  6
Continuous
100
AcDbCircle
 10
-176.686776
 20
26.815
 30
0.0
 40
11.0
100
AcDbArc
 50
180.0
 51
270.0
  0
ARC
  5
4F5
100
AcDbEntity
  8
0
370
    -3
390
0
  6
Continuous
100
AcDbCircle
 10
-105.786776
 20
26.815
 30
0.0
 40
11.0
100
AcDbArc
 50
270.0
 51
0.0
  0
ARC
  5
4F6
100
AcDbEntity
  8
0
370
    -3
390
0
  6
Continuous
100
AcDbCircle
 10
-176.286776
 20
53.36476
 30
0.0
 40
5.0
100
AcDbArc
 50
90.0
 51
180.0
  0
ARC
  5
4F7
100
AcDbEntity
  8
0
370
    -3
390
0
  6
Continuous
100
AcDbCircle
 10
-106.186776
 20
53.36476
 30
0.0
 40
5.0
100
AcDbArc
 50
0.0
 51
90.0
  0
LINE
  5
4F8
100
AcDbEntity
  8
0
370
    -3
390
0
  6
Continuous
100
AcDbLine
 10
-176.286776
 20
58.36476
 30
0.0
 11
-106.186776
 21
58.36476
 31
0.0
  0
LINE
  5
4F9
100
AcDbEntity
  8
0
370
    -3
390
0
  6
Continuous
100
AcDbLine
 10
-181.286776
 20
23.788826
 30
0.0
 11
-181.286776
 21
53.36476
 31
0.0
  0
LINE
  5
4FA
100
AcDbEntity
  8
0
370
    -3
390
0
  6
Continuous
100
AcDbLine
 10
-101.186776
 20
23.788826
 30
0.0
 11
-101.186776
 21
53.36476
 31
0.0
  0
LINE
  5
4FB
100
AcDbEntity
  8
0
370
    -3
390
0
  6
Continuous
100
AcDbLine
 10
-94.786776
 20
53.68339
 30
0.0
 11
-94.786776
 21
26.815
 31
0.0
  0
LINE
  5
4FC
100
AcDbEntity
  8
0
370
    -3
390
0
  6
Continuous
100
AcDbLine
 10
-176.686776
 20
61.211917
 30
0.0
 11
-105.786776
 21
61.211917
 31
0.0
  0
LINE
  5
4FD
100
AcDbEntity
  8
0
370
    -3
390
0
  6
Continuous
100
AcDbLine
 10
-176.686776
 20
64.68339
 30
0.0
 11
-105.786776
 21
64.68339
 31
0.0
  0
LINE
  5
4FE
100
AcDbEntity
  8
0
370
    -3
390
0
  6
Continuous
100
AcDbLine
 10
-176.686776
 20
15.815
 30
0.0
 11
-144.294033
 21
15.815
 31
0.0
  0
LINE
  5
4FF
100
AcDbEntity
  8
0
370
    -3
390
0
  6
CENTER
100
AcDbLine
 10
-141.236776
 20
72.822539
 30
0.0
 11
-141.236776
 21
10.760126
 31
0.0
  0
ARC
  5
500
100
AcDbEntity
  8
0
370
    -3
390
0
  6
Continuous
100
AcDbCircle
 10
-114.636776
 20
70.588826
 30
0.0
 40
2.0
100
AcDbArc
 50
180.0
 51
270.0
  0
ARC
  5
501
100
AcDbEntity
  8
0
370
    -3
390
0
  6
Continuous
100
AcDbCircle
 10
-167.836776
 20
70.588826
 30
0.0
 40
2.0
100
AcDbArc
 50
270.0
 51
0.0
  0
LINE
  5
502
100
AcDbEntity
  8
0
370
    -3
390
0
  6
Continuous
100
AcDbLine
 10
-110.236776
 20
68.588826
 30
0.0
 11
-172.236776
 21
68.588826
 31
0.0
  0
LINE
  5
503
100
AcDbEntity
  8
0
370
    -3
390
0
  6
Continuous
100
AcDbLine
 10
-117.236776
 20
82.988826
 30
0.0
 11
-117.236776
 21
81.988826
 31
0.0
  0
LINE
  5
504
100
AcDbEntity
  8
0
370
    -3
390
0
  6
Continuous
100
AcDbLine
 10
-116.636776
 20
70.588826
 30
0.0
 11
-116.636776
 21
78.788826
 31
0.0
  0
ARC
  5
505
100
AcDbEntity
  8
0
370
    -3
390
0
  6
Continuous
100
AcDbCircle
 10
-119.836776
 20
78.788826
 30
0.0
 40
3.2
100
AcDbArc
 50
0.0
 51
90.0
  0
LINE
  5
506
100
AcDbEntity
  8
0
370
    -3
390
0
  6
Continuous
100
AcDbLine
 10
-141.236776
 20
81.988826
 30
0.0
 11
-117.236776
 21
81.988826
 31
0.0
  0
LINE
  5
507
100
AcDbEntity
  8
0
370
    -3
390
0
  6
Continuous
100
AcDbLine
 10
-141.236776
 20
81.988826
 30
0.0
 11
-156.236776
 21
81.988826
 31
0.0
  0
LINE
  5
508
100
AcDbEntity
  8
0
370
    -3
390
0
  6
Continuous
100
AcDbLine
 10
-156.236776
 20
83.488826
 30
0.0
 11
48.763224
 21
83.488826
 31
0.0
  0
LINE
  5
509
100
AcDbEntity
  8
0
370
    -3
390
0
  6
Continuous
100
AcDbLine
 10
-156.236776
 20
82.988826
 30
0.0
 11
48.763224
 21
82.988826
 31
0.0
  0
LINE
  5
50A
100
AcDbEntity
  8
0
370
    -3
390
0
  6
Continuous
100
AcDbLine
 10
-326.236776
 20
94.420956
 30
0.0
 11
-326.236776
 21
283.556695
 31
0.0
  0
LINE
  5
50B
100
AcDbEntity
  8
0
370
    -3
390
0
  6
Continuous
100
AcDbLine
 10
-323.136776
 20
288.926053
 30
0.0
 11
-307.438286
 21
297.98958
 31
0.0
  0
ARC
  5
50C
100
AcDbEntity
  8
0
370
    -3
390
0
  6
Continuous
100
AcDbCircle
 10
-320.036776
 20
283.556695
 30
0.0
 40
6.2
100
AcDbArc
 50
120.0
 51
180.0
  0
ARC
  5
50D
100
AcDbEntity
  8
0
370
    -3
390
0
  6
Continuous
100
AcDbCircle
 10
-276.838286
 20
244.988826
 30
0.0
 40
61.2
100
AcDbArc
 50
90.0
 51
120.0
  0
LINE
  5
50E
100
AcDbEntity
  8
0
370
    -3
390
0
  6
Continuous
100
AcDbLine
 10
-202.236776
 20
101.424443
 30
0.0
 11
-202.236776
 21
100.138346
 31
0.0
  0
LINE
  5
50F
100
AcDbEntity
  8
0
370
    -3
390
0
  6
Continuous
100
AcDbLine
 10
-190.236776
 20
101.424443
 30
0.0
 11
-190.236776
 21
100.138346
 31
0.0
  0
ELLIPSE
  5
510
100
AcDbEntity
  8
0
370
    -3
390
0
  6
Continuous
100
AcDbEllipse
 10
-196.236776
 20
100.138346
 30
0.0
 11
6.0
 21
0.0
 31
0.0
210
0.0
220
0.0
230
1.0
 40
0.689848
 41
3.1415926535897931
 42
3.9729303421147075
  0
ELLIPSE
  5
511
100
AcDbEntity
  8
0
370
    -3
390
0
  6
Continuous
100
AcDbEllipse
 10
-196.236776
 20
101.424443
 30
0.0
 11
6.0
 21
0.0
 31
0.0
210
0.0
220
0.0
230
1.0
 40
0.707107
 41
0.0
 42
3.1415926535897931
  0
LINE
  5
512
100
AcDbEntity
  8
0
370
    -3
390
0
  6
Continuous
100
AcDbLine
 10
-201.236776
 20
99.75195
 30
0.0
 11
-201.236776
 21
99.469107
 31
0.0
  0
LINE
  5
513
100
AcDbEntity
  8
0
370
    -3
390
0
  6
Continuous
100
AcDbLine
 10
-191.236776
 20
99.75195
 30
0.0
 11
-191.236776
 21
99.469107
 31
0.0
  0
ELLIPSE
  5
514
100
AcDbEntity
  8
0
370
    -3
390
0
  6
Continuous
100
AcDbEllipse
 10
-196.236776
 20
99.469107
 30
0.0
 11
5.0
 21
0.0
 31
0.0
210
0.0
220
0.0
230
1.0
 40
0.707107
 41
5.7540333991808064
 42
3.6707445615885725
  0
ELLIPSE
  5
515
100
AcDbEntity
  8
0
370
    -3
390
0
  6
Continuous
100
AcDbEllipse
 10
-196.236776
 20
99.75195
 30
0.0
 11
5.0
 21
0.0
 31
0.0
210
0.0
220
0.0
230
1.0
 40
0.763675
 41
0.0
 42
3.1415926535897931
  0
ELLIPSE
  5
516
100
AcDbEntity
  8
0
370
    -3
390
0
  6
Continuous
100
AcDbEllipse
 10
-196.236776
 20
98.779595
 30
0.0
 11
4.5
 21
0.0
 31
0.0
210
0.0
220
0.0
230
1.0
 40
0.860332
 41
0.0
 42
6.2831853071795862
  0
ELLIPSE
  5
517
100
AcDbEntity
  8
0
370
    -3
390
0
  6
Continuous
100
AcDbEllipse
 10
-196.236776
 20
100.138346
 30
0.0
 11
6.0
 21
0.0
 31
0.0
210
0.0
220
0.0
230
1.0
 40
0.689848
 41
5.4518476186546714
 42
0.0
  0
ELLIPSE
  5
518
100
AcDbEntity
  8
0
370
    -3
390
0
  6
Continuous
100
AcDbEllipse
 10
-196.236776
 20
100.138346
 30
0.0
 11
6.0
 21
0.0
 31
0.0
210
0.0
220
0.0
230
1.0
 40
0.689848
 41
0.0
 42
3.1415926535897931
  0
LINE
  5
519
100
AcDbEntity
  8
0
370
    -3
390
0
  6
Continuous
100
AcDbLine
 10
-196.236776
 20
97.135654
 30
0.0
 11
-198.236776
 21
95.840121
 31
0.0
  0
LINE
  5
51A
100
AcDbEntity
  8
0
370
    -3
390
0
  6
Continuous
100
AcDbLine
 10
-196.236776
 20
97.135654
 30
0.0
 11
-198.236776
 21
98.668549
 31
0.0
  0
LINE
  5
51B
100
AcDbEntity
  8
0
370
    -3
390
0
  6
Continuous
100
AcDbLine
 10
-196.236776
 20
97.135654
 30
0.0
 11
-194.236776
 21
98.668549
 31
0.0
  0
LINE
  5
51C
100
AcDbEntity
  8
0
370
    -3
390
0
  6
Continuous
100
AcDbLine
 10
-196.236776
 20
97.135654
 30
0.0
 11
-194.236776
 21
95.840121
 31
0.0
  0
LINE
  5
51D
100
AcDbEntity
  8
0
370
    -3
390
0
  6
Continuous
100
AcDbLine
 10
-323.136776
 20
89.051599
 30
0.0
 11
-307.438286
 21
79.988071
 31
0.0
  0
LINE
  5
51E
100
AcDbEntity
  8
0
370
    -3
390
0
  6
Continuous
100
AcDbLine
 10
-202.236776
 20
276.553208
 30
0.0
 11
-202.236776
 21
277.839305
 31
0.0
  0
LINE
  5
51F
100
AcDbEntity
  8
0
370
    -3
390
0
  6
Continuous
100
AcDbLine
 10
-190.236776
 20
276.553208
 30
0.0
 11
-190.236776
 21
277.839305
 31
0.0
  0
ELLIPSE
  5
520
100
AcDbEntity
  8
0
370
    -3
390
0
  6
Continuous
100
AcDbEllipse
 10
-196.236776
 20
277.839305
 30
0.0
 11
6.0
 21
0.0
 31
0.0
210
0.0
220
0.0
230
1.0
 40
0.689848
 41
2.3102549650648752
 42
3.1415926535897931
  0
ELLIPSE
  5
521
100
AcDbEntity
  8
0
370
    -3
390
0
  6
Continuous
100
AcDbEllipse
 10
-196.236776
 20
276.553208
 30
0.0
 11
6.0
 21
0.0
 31
0.0
210
0.0
220
0.0
230
1.0
 40
0.707107
 41
3.1415926535897931
 42
0.0
  0
LINE
  5
522
100
AcDbEntity
  8
0
370
    -3
390
0
  6
Continuous
100
AcDbLine
 10
-201.236776
 20
278.225702
 30
0.0
 11
-201.236776
 21
278.508544
 31
0.0
  0
LINE
  5
523
100
AcDbEntity
  8
0
370
    -3
390
0
  6
Continuous
100
AcDbLine
 10
-191.236776
 20
278.225702
 30
0.0
 11
-191.236776
 21
278.508544
 31
0.0
  0
ELLIPSE
  5
524
100
AcDbEntity
  8
0
370
    -3
390
0
  6
Continuous
100
AcDbEllipse
 10
-196.236776
 20
278.508544
 30
0.0
 11
5.0
 21
0.0
 31
0.0
210
0.0
220
0.0
230
1.0
 40
0.707107
 41
2.6124407455910101
 42
0.5291519079987834
  0
ELLIPSE
  5
525
100
AcDbEntity
  8
0
370
    -3
390
0
  6
Continuous
100
AcDbEllipse
 10
-196.236776
 20
278.225702
 30
0.0
 11
5.0
 21
0.0
 31
0.0
210
0.0
220
0.0
230
1.0
 40
0.763675
 41
3.1415926535897931
 42
0.0
  0
ELLIPSE
  5
526
100
AcDbEntity
  8
0
370
    -3
390
0
  6
Continuous
100
AcDbEllipse
 10
-196.236776
 20
279.198057
 30
0.0
 11
4.5
 21
0.0
 31
0.0
210
0.0
220
0.0
230
1.0
 40
0.860332
 41
0.0
 42
6.2831853071795862
  0
ELLIPSE
  5
527
100
AcDbEntity
  8
0
370
    -3
390
0
  6
Continuous
100
AcDbEllipse
 10
-196.236776
 20
277.839305
 30
0.0
 11
6.0
 21
0.0
 31
0.0
210
0.0
220
0.0
230
1.0
 40
0.689848
 41
0.0
 42
0.8313376885249183
  0
ELLIPSE
  5
528
100
AcDbEntity
  8
0
370
    -3
390
0
  6
Continuous
100
AcDbEllipse
 10
-196.236776
 20
277.839305
 30
0.0
 11
6.0
 21
0.0
 31
0.0
210
0.0
220
0.0
230
1.0
 40
0.689848
 41
3.1415926535897931
 42
0.0
  0
LINE
  5
529
100
AcDbEntity
  8
0
370
    -3
390
0
  6
Continuous
100
AcDbLine
 10
-196.236776
 20
280.841998
 30
0.0
 11
-198.236776
 21
282.13753
 31
0.0
  0
LINE
  5
52A
100
AcDbEntity
  8
0
370
    -3
390
0
  6
Continuous
100
AcDbLine
 10
-196.236776
 20
280.841998
 30
0.0
 11
-198.236776
 21
279.309103
 31
0.0
  0
LINE
  5
52B
100
AcDbEntity
  8
0
370
    -3
390
0
  6
Continuous
100
AcDbLine
 10
-196.236776
 20
280.841998
 30
0.0
 11
-194.236776
 21
279.309103
 31
0.0
  0
LINE
  5
52C
100
AcDbEntity
  8
0
370
    -3
390
0
  6
Continuous
100
AcDbLine
 10
-196.236776
 20
280.841998
 30
0.0
 11
-194.236776
 21
282.13753
 31
0.0
  0
ARC
  5
52D
100
AcDbEntity
  8
0
370
    -3
390
0
  6
Continuous
100
AcDbCircle
 10
-320.036776
 20
94.420956
 30
0.0
 40
6.2
100
AcDbArc
 50
180.0
 51
240.0
  0
ARC
  5
52E
100
AcDbEntity
  8
0
370
    -3
390
0
  6
Continuous
100
AcDbCircle
 10
-276.838286
 20
132.988826
 30
0.0
 40
61.2
100
AcDbArc
 50
240.0
 51
270.0
  0
ENDSEC
  0
SECTION
  2
OBJECTS
  0
DICTIONARY
  5
19
100
AcDbDictionary
280
     0
281
     1
  3
ACAD_GROUP
350
1A
  3
ACAD_MLINESTYLE
350
1B
  3
ACAD_LAYOUT
350
1E
  3
ACAD_PLOTSETTINGS
350
22
  3
ACAD_PLOTSTYLENAME
350
1F
  3
ACAD_WIPEOUT_VARS
350
23
  3
DWGPROPS
350
52F
  0
DICTIONARY
  5
1A
102
{ACAD_REACTORS
330
19
102
}
100
AcDbDictionary
280
     0
281
     1
  0
DICTIONARY
  5
1B
102
{ACAD_REACTORS
330
19
102
}
100
AcDbDictionary
280
     0
281
     1
  3
Standard
350
1C
  0
MLINESTYLE
  5
1C
102
{ACAD_REACTORS
330
1B
102
}
100
AcDbMlineStyle
  2
Standard
 70
     0
  3

 62
     0
 51
90.0
 52
90.0
 71
     2
 49
0.5
 62
   256
  6
ByLayer
 49
-0.5
 62
   256
  6
ByLayer
  0
ACDBDICTIONARYWDFLT
  5
1F
102
{ACAD_REACTORS
330
19
102
}
100
AcDbDictionary
281
     1
  3
Normal
350
1D
100
AcDbDictionaryWithDefault
340
1D
  0
ACDBPLACEHOLDER
  5
1D
102
{ACAD_REACTORS
330
1F
102
}
  0
LAYOUT
  5
20
102
{ACAD_REACTORS
330
1E
102
}
100
AcDbPlotSettings
  1

  2

  4

  6

 40
0.0
 41
0.0
 42
0.0
 43
0.0
 44
0.0
 45
0.0
 46
0.0
 47
0.0
 48
0.0
 49
0.0
140
0.0
141
0.0
142
1.0
143
1.0
 70
  1024
 72
     0
 73
     0
 74
     0
  7

 75
     0
147
1.0
148
0.0
149
0.0
100
AcDbLayout
  1
Model
 70
     0
 71
     0
 10
0.0
 20
0.0
 11
0.0
 21
0.0
 12
0.0
 22
0.0
 32
0.0
 14
0.0
 24
0.0
 34
0.0
 15
0.0
 25
0.0
 35
0.0
146
0.0
 13
0.0
 23
0.0
 33
0.0
 16
0.0
 26
0.0
 36
0.0
 17
0.0
 27
0.0
 37
0.0
 76
     0
330
A
331
0
345
0
346
0
  0
LAYOUT
  5
21
102
{ACAD_REACTORS
330
1E
102
}
100
AcDbPlotSettings
  1

  2

  4

  6

 40
0.0
 41
0.0
 42
0.0
 43
0.0
 44
0.0
 45
0.0
 46
0.0
 47
0.0
 48
0.0
 49
0.0
140
0.0
141
0.0
142
1.0
143
1.0
 70
     0
 72
     0
 73
     0
 74
     0
  7

 75
     0
147
1.0
148
0.0
149
0.0
100
AcDbLayout
  1
Layout1
 70
     0
 71
     0
 10
0.0
 20
0.0
 11
0.0
 21
0.0
 12
0.0
 22
0.0
 32
0.0
 14
0.0
 24
0.0
 34
0.0
 15
0.0
 25
0.0
 35
0.0
146
0.0
 13
0.0
 23
0.0
 33
0.0
 16
0.0
 26
0.0
 36
0.0
 17
0.0
 27
0.0
 37
0.0
 76
     0
330
B
331
0
345
0
346
0
  0
DICTIONARY
  5
1E
102
{ACAD_REACTORS
330
19
102
}
100
AcDbDictionary
280
     0
281
     1
  3
Layout1
350
21
  3
Model
350
20
  0
DICTIONARY
  5
22
102
{ACAD_REACTORS
330
19
102
}
100
AcDbDictionary
280
     0
281
     1
  0
WIPEOUTVARIABLES
  5
23
100
AcDbWipeoutVariables
 70
     1
  0
XRECORD
  5
52F
100
AcDbXrecord
280
     1
  1
DWGPROPS COOKIE
  2

  3

  4

  6

  7

  8
YP81315
  9

300
=
301
=
302
=
303
=
304
=
305
=
306
=
307
=
308
=
309
=
 40
0.0
 41
2456812.582072
 42
2456812.582072
  1

 90
        0
  0
ENDSEC
  0
EOF
