  0
SECTION
  2
HEADER
  9
$ACADVER
  1
AC1015
  9
$ACADMAINTVER
 70
     6
  9
$DWGCODEPAGE
  3
ANSI_932
  9
$INSBASE
 10
0.0
 20
0.0
 30
0.0
  9
$EXTMIN
 10
1.000000E+20
 20
1.000000E+20
 30
1.000000E+20
  9
$EXTMAX
 10
-1.000000E+20
 20
-1.000000E+20
 30
-1.000000E+20
  9
$LIMMIN
 10
0.0
 20
0.0
  9
$LIMMAX
 10
0.0
 20
0.0
  9
$ORTHOMODE
 70
     0
  9
$REGENMODE
 70
     1
  9
$FILLMODE
 70
     1
  9
$QTEXTMODE
 70
     0
  9
$MIRRTEXT
 70
     1
  9
$LTSCALE
 40
1.0
  9
$ATTMODE
 70
     1
  9
$TEXTSIZE
 40
3.2
  9
$TRACEWID
 40
0.05
  9
$TEXTSTYLE
  7
Standard
  9
$CLAYER
  8
0
  9
$CELTYPE
  6
Continuous
  9
$CECOLOR
 62
   256
  9
$CELTSCALE
 40
1.0
  9
$DISPSILH
 70
     0
  9
$DIMSCALE
 40
1.0
  9
$DIMASZ
 40
1.931852
  9
$DIMEXO
 40
1.0
  9
$DIMDLI
 40
0.38
  9
$DIMRND
 40
0.0
  9
$DIMDLE
 40
0.0
  9
$DIMEXE
 40
2.0
  9
$DIMTP
 40
0.0
  9
$DIMTM
 40
0.0
  9
$DIMTXT
 40
2.8
  9
$DIMCEN
 40
0.09
  9
$DIMTSZ
 40
0.0
  9
$DIMTOL
 70
     0
  9
$DIMLIM
 70
     0
  9
$DIMTIH
 70
     1
  9
$DIMTOH
 70
     1
  9
$DIMSE1
 70
     0
  9
$DIMSE2
 70
     0
  9
$DIMTAD
 70
     1
  9
$DIMZIN
 70
     0
  9
$DIMBLK
  1

  9
$DIMASO
 70
     1
  9
$DIMSHO
 70
     1
  9
$DIMPOST
  1

  9
$DIMAPOST
  1

  9
$DIMALT
 70
     0
  9
$DIMALTD
 70
     2
  9
$DIMALTF
 40
25.4
  9
$DIMLFAC
 40
1.0
  9
$DIMTOFL
 70
     0
  9
$DIMTVP
 40
0.0
  9
$DIMTIX
 70
     0
  9
$DIMSOXD
 70
     0
  9
$DIMSAH
 70
     0
  9
$DIMBLK1
  1

  9
$DIMBLK2
  1

  9
$DIMSTYLE
  2
Standard
  9
$DIMCLRD
 70
     0
  9
$DIMCLRE
 70
     0
  9
$DIMCLRT
 70
     0
  9
$DIMTFAC
 40
0.625
  9
$DIMGAP
 40
0.09
  9
$DIMJUST
 70
     0
  9
$DIMSD1
 70
     0
  9
$DIMSD2
 70
     0
  9
$DIMTOLJ
 70
     1
  9
$DIMTZIN
 70
     0
  9
$DIMALTZ
 70
     0
  9
$DIMALTTZ
 70
     0
  9
$DIMUPT
 70
     0
  9
$DIMDEC
 70
     4
  9
$DIMTDEC
 70
     4
  9
$DIMALTU
 70
     2
  9
$DIMALTTD
 70
     2
  9
$DIMTXSTY
  7
Standard
  9
$DIMAUNIT
 70
     0
  9
$DIMADEC
 70
     0
  9
$DIMALTRND
 40
0.0
  9
$DIMAZIN
 70
     0
  9
$DIMDSEP
 70
     0
  9
$DIMATFIT
 70
     3
  9
$DIMFRAC
 70
     0
  9
$DIMLDRBLK
  1

  9
$DIMLUNIT
 70
     2
  9
$DIMLWD
 70
     0
  9
$DIMLWE
 70
     0
  9
$DIMTMOVE
 70
     0
  9
$LUNITS
 70
     2
  9
$LUPREC
 70
     3
  9
$SKETCHINC
 40
0.1
  9
$FILLETRAD
 40
0.0
  9
$AUNITS
 70
     0
  9
$AUPREC
 70
     0
  9
$MENU
  1
acad
  9
$ELEVATION
 40
0.0
  9
$PELEVATION
 40
0.0
  9
$THICKNESS
 40
0.0
  9
$LIMCHECK
 70
     0
  9
$CHAMFERA
 40
0.0
  9
$CHAMFERB
 40
0.0
  9
$CHAMFERC
 40
0.0
  9
$CHAMFERD
 40
0.0
  9
$SKPOLY
 70
     0
  9
$TDCREATE
 40
0.000000000
  9
$TDUCREATE
 40
0.000000000
  9
$TDUPDATE
 40
0.000000000
  9
$TDUUPDATE
 40
0.000000000
  9
$TDINDWG
 40
0.0000000000
  9
$TDUSRTIMER
 40
0.0000000000
  9
$USRTIMER
 70
     1
  9
$ANGBASE
 50
0.0
  9
$ANGDIR
 70
     0
  9
$PDMODE
 70
     0
  9
$PDSIZE
 40
0.0
  9
$PLINEWID
 40
0.0
  9
$SPLFRAME
 70
     0
  9
$SPLINETYPE
 70
     6
  9
$SPLINESEGS
 70
     8
  9
$HANDSEED
  5
50F
  9
$SURFTAB1
 70
     6
  9
$SURFTAB2
 70
     6
  9
$SURFTYPE
 70
     6
  9
$SURFU
 70
     6
  9
$SURFV
 70
     6
  9
$UCSBASE
  2

  9
$UCSNAME
  2

  9
$UCSORG
 10
0.0
 20
0.0
 30
0.0
  9
$UCSXDIR
 10
1.0
 20
0.0
 30
0.0
  9
$UCSYDIR
 10
0.0
 20
1.0
 30
0.0
  9
$UCSORTHOREF
  2

  9
$UCSORTHOVIEW
 70
     0
  9
$UCSORGTOP
 10
0.0
 20
0.0
 30
0.0
  9
$UCSORGBOTTOM
 10
0.0
 20
0.0
 30
0.0
  9
$UCSORGLEFT
 10
0.0
 20
0.0
 30
0.0
  9
$UCSORGRIGHT
 10
0.0
 20
0.0
 30
0.0
  9
$UCSORGFRONT
 10
0.0
 20
0.0
 30
0.0
  9
$UCSORGBACK
 10
0.0
 20
0.0
 30
0.0
  9
$PUCSBASE
  2

  9
$PUCSNAME
  2

  9
$PUCSORG
 10
0.0
 20
0.0
 30
0.0
  9
$PUCSXDIR
 10
1.0
 20
0.0
 30
0.0
  9
$PUCSYDIR
 10
0.0
 20
1.0
 30
0.0
  9
$PUCSORTHOREF
  2

  9
$PUCSORTHOVIEW
 70
     0
  9
$PUCSORGTOP
 10
0.0
 20
0.0
 30
0.0
  9
$PUCSORGBOTTOM
 10
0.0
 20
0.0
 30
0.0
  9
$PUCSORGLEFT
 10
0.0
 20
0.0
 30
0.0
  9
$PUCSORGRIGHT
 10
0.0
 20
0.0
 30
0.0
  9
$PUCSORGFRONT
 10
0.0
 20
0.0
 30
0.0
  9
$PUCSORGBACK
 10
0.0
 20
0.0
 30
0.0
  9
$USERI1
 70
     0
  9
$USERI2
 70
     0
  9
$USERI3
 70
     0
  9
$USERI4
 70
     0
  9
$USERI5
 70
     0
  9
$USERR1
 40
0.0
  9
$USERR2
 40
0.0
  9
$USERR3
 40
0.0
  9
$USERR4
 40
0.0
  9
$USERR5
 40
0.0
  9
$WORLDVIEW
 70
     1
  9
$SHADEDGE
 70
     3
  9
$SHADEDIF
 70
    70
  9
$TILEMODE
 70
     1
  9
$MAXACTVP
 70
    16
  9
$PINSBASE
 10
0.0
 20
0.0
 30
0.0
  9
$PLIMCHECK
 70
     0
  9
$PEXTMIN
 10
1.000000E+20
 20
1.000000E+20
 30
1.000000E+20
  9
$PEXTMAX
 10
-1.000000E+20
 20
-1.000000E+20
 30
-1.000000E+20
  9
$PLIMMIN
 10
0.0
 20
0.0
  9
$PLIMMAX
 10
12.0
 20
9.0
  9
$UNITMODE
 70
     0
  9
$VISRETAIN
 70
     0
  9
$PLINEGEN
 70
     1
  9
$PSLTSCALE
 70
     0
  9
$TREEDEPTH
 70
  3020
  9
$CMLSTYLE
  2
Standard
  9
$CMLJUST
 70
     0
  9
$CMLSCALE
 40
1.0
  9
$PROXYGRAPHICS
 70
     0
  9
$MEASUREMENT
 70
     0
  9
$CELWEIGHT
370
     0
  9
$ENDCAPS
280
     0
  9
$JOINSTYLE
280
     0
  9
$LWDISPLAY
290
     0
  9
$INSUNITS
 70
     0
  9
$HYPERLINKBASE
  1

  9
$STYLESHEET
  1

  9
$XEDIT
290
     1
  9
$CEPSNTYPE
380
     0
  9
$PSTYLEMODE
290
     1
  9
$FINGERPRINTGUID
  2

  9
$VERSIONGUID
  2

  9
$EXTNAMES
290
     1
  9
$PSVPSCALE
 40
0.0
  0
ENDSEC
  0
SECTION
  2
CLASSES
  0
CLASS
  1
LWPOLYLINE
  2
AcDbPolyline
  3
AutoCAD 2000
 90
        0
280
     0
281
     1
  0
CLASS
  1
IMAGE
  2
AcDbRasterImage
  3
ISM
 90
      127
280
     0
281
     1
  0
CLASS
  1
OLE2FRAME
  2
AcDbOle2Frame
  3
AutoCAD 2000
 90
        0
280
     0
281
     1
  0
CLASS
  1
HATCH
  2
AcDbHatch
  3
AutoCAD 2000
 90
        0
280
     0
281
     1
  0
CLASS
  1
DICTIONARYVAR
  2
AcDbDictionaryVar
  3
AutoCAD 2000
 90
        0
280
     0
281
     0
  0
CLASS
  1
RASTERVARIABLES
  2
AcDbRasterVariables
  3
ISM
 90
        0
280
     0
281
     0
  0
CLASS
  1
IMAGEDEF
  2
AcDbRasterImageDef
  3
ISM
 90
        0
280
     0
281
     0
  0
CLASS
  1
IMAGEDEF_REACTOR
  2
AcDbRasterImageDefReactor
  3
ISM
 90
        1
280
     0
281
     0
  0
CLASS
  1
IDBUFFER
  2
AcDbIdBuffer
  3
AutoCAD 2000
 90
        0
280
     0
281
     0
  0
CLASS
  1
SPATIAL_FILTER
  2
AcDbSpatialFilter
  3
AutoCAD 2000
 90
        0
280
     0
281
     0
  0
CLASS
  1
XRECORD
  2
AcDbXrecord
  3
AutoCAD 2000
 90
        0
280
     0
281
     0
  0
CLASS
  1
SORTENTSTABLE
  2
AcDbSortentsTable
  3
AutoCAD 2000
 90
        0
280
     0
281
     0
  0
CLASS
  1
LAYER_INDEX
  2
AcDbLayerIndex
  3
AutoCAD 2000
 90
        0
280
     0
281
     0
  0
CLASS
  1
SPATIAL_INDEX
  2
AcDbSpatialIndex
  3
AutoCAD 2000
 90
        0
280
     0
281
     0
  0
CLASS
  1
OBJECT_PTR
  2
CAseDLPNTableRecord
  3
"ASE-LPNTableRecord"
 90
        1
280
     0
281
     0
  0
CLASS
  1
LAYOUT
  2
AcDbLayout
  3
AutoCAD 2000
 90
        0
280
     0
281
     0
  0
CLASS
  1
PLOTSETTINGS
  2
AcDbPlotSettings
  3
AutoCAD 2000
 90
        0
280
     0
281
     0
  0
CLASS
  1
ACDBDICTIONARYWDFLT
  2
AcDbDictionaryWithDefault
  3
AutoCAD 2000
 90
        0
280
     0
281
     0
  0
CLASS
  1
ACDBPLACEHOLDER
  2
AcDbPlaceHolder
  3
AutoCAD 2000
 90
        0
280
     0
281
     0
  0
CLASS
  1
VBA_PROJECT
  2
AcDbVbaProject
  3
acadvba
 90
        0
280
     0
281
     0
  0
CLASS
  1
WIPEOUT
  2
AcDbWipeout
  3
WipeOut|AutoCAD Express Tool|expresstools@autodesk.com
 90
      127
280
     0
281
     1
  0
CLASS
  1
WIPEOUTVARIABLES
  2
AcDbWipeoutVariables
  3
WipeOut|AutoCAD Express Tool|expresstools@autodesk.com
 90
        0
280
     0
281
     0
  0
CLASS
  1
RTEXT
  2
RText
  3
RText|AutoCAD Express Tool|expresstools@autodesk.com
 90
        0
280
     0
281
     1
  0
CLASS
  1
ARCALIGNEDTEXT
  2
AcDbArcAlignedText
  3
ATEXT|AutoCAD Express Tool|expresstools@autodesk.com
 90
        0
280
     0
281
     1
  0
ENDSEC
  0
SECTION
  2
TABLES
  0
TABLE
  2
VPORT
  5
7
100
AcDbSymbolTable
 70
     1
  0
VPORT
  5
15
100
AcDbSymbolTableRecord
100
AcDbViewportTableRecord
  2
*ACTIVE
 70
     0
 10
0.0
 20
0.0
 11
1.0
 21
1.0
 12
0.0
 22
0.0
 13
0.0
 23
0.0
 14
1.0
 24
1.0
 15
0.0
 25
0.0
 16
0.0
 26
0.0
 36
1.0
 17
0.0
 27
0.0
 37
0.0
 40
100.0
 41
1.0
 42
50.0
 43
0.0
 44
0.0
 50
0.0
 51
0.0
 71
     0
 72
   100
 73
     1
 74
     1
 75
     0
 76
     0
 77
     0
 78
     0
281
     0
 65
     0
110
0.0
120
0.0
130
0.0
111
1.0
121
0.0
131
0.0
112
0.0
122
1.0
132
0.0
345
0
346
0
 79
     0
146
0.0
  0
ENDTAB
  0
TABLE
  2
LTYPE
  5
4
100
AcDbSymbolTable
 70
     7
  0
LTYPE
  5
11
100
AcDbSymbolTableRecord
100
AcDbLinetypeTableRecord
  2
ByBlock
 70
    64
  3

 72
    65
 73
     0
 40
0.0
  0
LTYPE
  5
12
100
AcDbSymbolTableRecord
100
AcDbLinetypeTableRecord
  2
ByLayer
 70
    64
  3

 72
    65
 73
     0
 40
0.0
  0
LTYPE
  5
13
100
AcDbSymbolTableRecord
100
AcDbLinetypeTableRecord
  2
Continuous
 70
    64
  3
Solid line
 72
    65
 73
     0
 40
0.0
  0
LTYPE
  5
24
100
AcDbSymbolTableRecord
100
AcDbLinetypeTableRecord
  2
DASHED
 70
    64
  3
Dashed __ __ __ __ __ __ __ __ __ __ __ __ __ _
 72
    65
 73
     2
 40
0.75
 49
0.5
 74
     0
 49
-0.25
 74
     0
  0
LTYPE
  5
25
100
AcDbSymbolTableRecord
100
AcDbLinetypeTableRecord
  2
CENTER
 70
    64
  3
Center ____ _ ____ _ ____ _ ____ _ ____ _ ____
 72
    65
 73
     4
 40
1.0
 49
0.5
 74
     0
 49
-0.25
 74
     0
 49
0.0
 74
     0
 49
-0.25
 74
     0
  0
LTYPE
  5
26
100
AcDbSymbolTableRecord
100
AcDbLinetypeTableRecord
  2
DIVIDE
 70
    64
  3
Divide ____ . . ____ . . ____ . . ____ . . ____
 72
    65
 73
     6
 40
1.25
 49
0.5
 74
     0
 49
-0.25
 74
     0
 49
0.0
 74
     0
 49
-0.25
 74
     0
 49
0.0
 74
     0
 49
-0.25
 74
     0
  0
LTYPE
  5
27
100
AcDbSymbolTableRecord
100
AcDbLinetypeTableRecord
  2
PHANTOM
 70
    64
  3
Phantom ______  __  __  ______  __  __  ______
 72
    65
 73
     6
 40
9.0
 49
4.3
 74
     0
 49
-0.7
 74
     0
 49
1.3
 74
     0
 49
-0.7
 74
     0
 49
1.3
 74
     0
 49
-0.7
 74
     0
  0
ENDTAB
  0
TABLE
  2
LAYER
  5
2
100
AcDbSymbolTable
 70
     3
  0
LAYER
  5
14
100
AcDbSymbolTableRecord
100
AcDbLayerTableRecord
  2
0
 70
    64
 62
     3
  6
Continuous
290
     1
370
    -3
390
1D
  0
LAYER
  5
28
100
AcDbSymbolTableRecord
100
AcDbLayerTableRecord
  2
1
 70
    64
 62
    42
  6
Continuous
290
     1
370
    -3
390
1D
  0
LAYER
  5
29
100
AcDbSymbolTableRecord
100
AcDbLayerTableRecord
  2
2
 70
    64
 62
   191
  6
Continuous
290
     1
370
    -3
390
1D
  0
ENDTAB
  0
TABLE
  2
STYLE
  5
3
100
AcDbSymbolTable
 70
     2
  0
STYLE
  5
17
100
AcDbSymbolTableRecord
100
AcDbTextStyleTableRecord
  2
Standard
 70
     0
 40
0.0
 41
1.0
 50
0.0
 71
     0
 42
0.0
  3
txt
  4

  0
STYLE
  5
508
100
AcDbSymbolTableRecord
100
AcDbTextStyleTableRecord
  2
ZU_SHPTB00001
 70
     0
 40
0.0
 41
1.0
 50
0.0
 71
     0
 42
0.0
  3
monotxt
  4
bigfont
  0
ENDTAB
  0
TABLE
  2
VIEW
  5
5
100
AcDbSymbolTable
 70
     0
  0
ENDTAB
  0
TABLE
  2
UCS
  5
6
100
AcDbSymbolTable
 70
     0
  0
ENDTAB
  0
TABLE
  2
APPID
  5
8
100
AcDbSymbolTable
 70
     1
  0
APPID
  5
16
100
AcDbSymbolTableRecord
100
AcDbRegAppTableRecord
  2
ACAD
 70
     0
  0
ENDTAB
  0
TABLE
  2
DIMSTYLE
  5
9
100
AcDbSymbolTable
 70
     1
100
AcDbDimStyleTable
 71
     0
  0
DIMSTYLE
105
18
100
AcDbSymbolTableRecord
100
AcDbDimStyleTableRecord
  2
Standard
 70
     0
  3

  4

 40
1.0
 41
0.18
 42
0.0625
 43
0.38
 44
0.18
 45
0.0
 46
0.0
 47
0.0
 48
0.0
 71
     0
 72
     0
 73
     1
 74
     1
 75
     0
 76
     0
 77
     0
 78
     0
 79
     0
140
0.18
141
0.09
142
0.0
143
25.4
144
1.0
145
0.0
146
1.0
147
0.09
148
0.0
170
     0
171
     2
172
     0
173
     0
174
     0
175
     0
176
     0
177
     0
178
     0
179
     0
271
     4
272
     4
273
     2
274
     2
275
     0
276
     0
277
     2
278
    46
279
     0
280
     0
281
     0
282
     0
283
     1
284
     0
285
     0
286
     0
288
     0
289
     3
340
17
341
0
342
0
343
0
344
0
371
    -2
372
    -2
  0
ENDTAB
  0
TABLE
  2
BLOCK_RECORD
  5
1
100
AcDbSymbolTable
 70
     9
  0
BLOCK_RECORD
  5
A
100
AcDbSymbolTableRecord
100
AcDbBlockTableRecord
  2
*MODEL_SPACE
340
20
  0
BLOCK_RECORD
  5
B
100
AcDbSymbolTableRecord
100
AcDbBlockTableRecord
  2
*PAPER_SPACE
340
21
  0
BLOCK_RECORD
  5
1C4
100
AcDbSymbolTableRecord
100
AcDbBlockTableRecord
  2
ZU_SYM__USERS_HOME_SYMBOL_POO_SYM_B21_21
340
0
102
{BLKREFS
331
1D4
102
}
  0
BLOCK_RECORD
  5
1D5
100
AcDbSymbolTableRecord
100
AcDbBlockTableRecord
  2
ZU_SYM__USERS_HOME_SYMBOL_POO_SYM_B21_0000121
340
0
102
{BLKREFS
331
1E5
102
}
  0
BLOCK_RECORD
  5
1E6
100
AcDbSymbolTableRecord
100
AcDbBlockTableRecord
  2
ZU_SYM__USERS_HOME_SYMBOL_POO_SYM_B21_0000221
340
0
102
{BLKREFS
331
1F6
102
}
  0
BLOCK_RECORD
  5
1F7
100
AcDbSymbolTableRecord
100
AcDbBlockTableRecord
  2
ZU_SYM__USERS_HOME_SYMBOL_POO_SYM_B21_0000321
340
0
102
{BLKREFS
331
207
102
}
  0
BLOCK_RECORD
  5
29D
100
AcDbSymbolTableRecord
100
AcDbBlockTableRecord
  2
ZU_SYM__USERS_HOME_SYMBOL_POO_SYM_B21_0000421
340
0
102
{BLKREFS
331
2AD
102
}
  0
BLOCK_RECORD
  5
2CD
100
AcDbSymbolTableRecord
100
AcDbBlockTableRecord
  2
ZU_SYM__USERS_HOME_SYMBOL_POO_SYM_B21_0000521
340
0
102
{BLKREFS
331
2DD
102
}
  0
BLOCK_RECORD
  5
32E
100
AcDbSymbolTableRecord
100
AcDbBlockTableRecord
  2
ZU_SYM__USERS_HOME_SYMBOL_POO_SYM_B21_0000621
340
0
102
{BLKREFS
331
33E
102
}
  0
BLOCK_RECORD
  5
357
100
AcDbSymbolTableRecord
100
AcDbBlockTableRecord
  2
ZU_SYM__USERS_HOME_SYMBOL_POO_SYM_B21_0000721
340
0
102
{BLKREFS
331
367
102
}
  0
BLOCK_RECORD
  5
381
100
AcDbSymbolTableRecord
100
AcDbBlockTableRecord
  2
ZU_SYM__USERS_HOME_SYMBOL_POO_SYM_B21_0000821
340
0
102
{BLKREFS
331
391
102
}
  0
ENDTAB
  0
ENDSEC
  0
SECTION
  2
BLOCKS
  0
BLOCK
  5
D
100
AcDbEntity
  8
0
390
0
100
AcDbBlockBegin
  2
*MODEL_SPACE
 70
     0
 10
0.0
 20
0.0
 30
0.0
  3
*MODEL_SPACE
  1

  0
ENDBLK
  5
E
100
AcDbEntity
  8
0
390
0
100
AcDbBlockEnd
  0
BLOCK
  5
F
100
AcDbEntity
 67
     1
  8
0
390
0
100
AcDbBlockBegin
  2
*PAPER_SPACE
 70
     0
 10
0.0
 20
0.0
 30
0.0
  3
*PAPER_SPACE
  1

  0
ENDBLK
  5
10
100
AcDbEntity
 67
     1
  8
0
390
0
100
AcDbBlockEnd
  0
BLOCK
  5
1C5
100
AcDbEntity
  8
0
390
0
100
AcDbBlockBegin
  2
ZU_SYM__USERS_HOME_SYMBOL_POO_SYM_B21_21
 70
    64
 10
0.0
 20
0.0
 30
0.0
  3
ZU_SYM__USERS_HOME_SYMBOL_POO_SYM_B21_21
  1

  0
POINT
  5
1C6
100
AcDbEntity
  8
0
370
    -3
390
0
  6
Continuous
100
AcDbPoint
 10
0.0
 20
0.0
 30
0.0
  0
LINE
  5
1C7
100
AcDbEntity
  8
0
370
    -3
390
0
  6
Continuous
100
AcDbLine
 10
0.0
 20
14.0
 30
0.0
 11
0.0
 21
-14.0
 31
0.0
  0
LINE
  5
1C8
100
AcDbEntity
  8
0
370
    -3
390
0
  6
Continuous
100
AcDbLine
 10
-4.0
 20
-14.0
 30
0.0
 11
-4.0
 21
14.0
 31
0.0
  0
LINE
  5
1C9
100
AcDbEntity
  8
0
370
    -3
390
0
  6
Continuous
100
AcDbLine
 10
-19.999962
 20
-10.268356
 30
0.0
 11
-19.999977
 21
10.267579
 31
0.0
  0
LINE
  5
1CA
100
AcDbEntity
  8
0
370
    -3
390
0
  6
Continuous
100
AcDbLine
 10
-4.0
 20
12.0
 30
0.0
 11
-18.999985
 21
12.0
 31
0.0
  0
LINE
  5
1CB
100
AcDbEntity
  8
0
370
    -3
390
0
  6
Continuous
100
AcDbLine
 10
-4.0
 20
-12.0
 30
0.0
 11
-18.999969
 21
-12.0
 31
0.0
  0
LINE
  5
1CC
100
AcDbEntity
  8
0
370
    -3
390
0
  6
Continuous
100
AcDbLine
 10
0.0
 20
14.0
 30
0.0
 11
-4.0
 21
14.0
 31
0.0
  0
LINE
  5
1CD
100
AcDbEntity
  8
0
370
    -3
390
0
  6
Continuous
100
AcDbLine
 10
0.0
 20
-14.0
 30
0.0
 11
-4.0
 21
-14.0
 31
0.0
  0
LINE
  5
1CE
100
AcDbEntity
  8
0
370
    -3
390
0
  6
Continuous
100
AcDbLine
 10
-18.999981
 20
11.999997
 30
0.0
 11
-19.999966
 21
10.267576
 31
0.0
  0
LINE
  5
1CF
100
AcDbEntity
  8
0
370
    -3
390
0
  6
Continuous
100
AcDbLine
 10
-18.999973
 20
-12.0
 30
0.0
 11
-19.999958
 21
-10.268356
 31
0.0
  0
LINE
  5
1D0
100
AcDbEntity
  8
0
370
    -3
390
0
  6
Continuous
100
AcDbLine
 10
-18.999985
 20
12.0
 30
0.0
 11
-18.999985
 21
-12.0
 31
0.0
  0
LINE
  5
1D1
100
AcDbEntity
  8
0
370
    -3
390
0
  6
Continuous
100
AcDbLine
 10
0.000001
 20
0.182041
 30
0.0
 11
-3.999999
 21
-1.273837
 31
0.0
  0
LINE
  5
1D2
100
AcDbEntity
  8
0
370
    -3
390
0
  6
Continuous
100
AcDbLine
 10
-4.0
 20
-0.222603
 30
0.0
 11
0.000001
 21
1.233275
 31
0.0
  0
ENDBLK
  5
1D3
100
AcDbEntity
  8
0
390
0
100
AcDbBlockEnd
  0
BLOCK
  5
1D6
100
AcDbEntity
  8
0
390
0
100
AcDbBlockBegin
  2
ZU_SYM__USERS_HOME_SYMBOL_POO_SYM_B21_0000121
 70
    64
 10
0.0
 20
0.0
 30
0.0
  3
ZU_SYM__USERS_HOME_SYMBOL_POO_SYM_B21_0000121
  1

  0
POINT
  5
1D7
100
AcDbEntity
  8
0
370
    -3
390
0
  6
Continuous
100
AcDbPoint
 10
0.0
 20
0.0
 30
0.0
  0
LINE
  5
1D8
100
AcDbEntity
  8
0
370
    -3
390
0
  6
Continuous
100
AcDbLine
 10
0.0
 20
14.0
 30
0.0
 11
0.0
 21
-14.0
 31
0.0
  0
LINE
  5
1D9
100
AcDbEntity
  8
0
370
    -3
390
0
  6
Continuous
100
AcDbLine
 10
-4.0
 20
-14.0
 30
0.0
 11
-4.0
 21
14.0
 31
0.0
  0
LINE
  5
1DA
100
AcDbEntity
  8
0
370
    -3
390
0
  6
Continuous
100
AcDbLine
 10
-19.999962
 20
-10.268356
 30
0.0
 11
-19.999977
 21
10.267579
 31
0.0
  0
LINE
  5
1DB
100
AcDbEntity
  8
0
370
    -3
390
0
  6
Continuous
100
AcDbLine
 10
-4.0
 20
12.0
 30
0.0
 11
-18.999985
 21
12.0
 31
0.0
  0
LINE
  5
1DC
100
AcDbEntity
  8
0
370
    -3
390
0
  6
Continuous
100
AcDbLine
 10
-4.0
 20
-12.0
 30
0.0
 11
-18.999969
 21
-12.0
 31
0.0
  0
LINE
  5
1DD
100
AcDbEntity
  8
0
370
    -3
390
0
  6
Continuous
100
AcDbLine
 10
0.0
 20
14.0
 30
0.0
 11
-4.0
 21
14.0
 31
0.0
  0
LINE
  5
1DE
100
AcDbEntity
  8
0
370
    -3
390
0
  6
Continuous
100
AcDbLine
 10
0.0
 20
-14.0
 30
0.0
 11
-4.0
 21
-14.0
 31
0.0
  0
LINE
  5
1DF
100
AcDbEntity
  8
0
370
    -3
390
0
  6
Continuous
100
AcDbLine
 10
-18.999981
 20
11.999997
 30
0.0
 11
-19.999966
 21
10.267576
 31
0.0
  0
LINE
  5
1E0
100
AcDbEntity
  8
0
370
    -3
390
0
  6
Continuous
100
AcDbLine
 10
-18.999973
 20
-12.0
 30
0.0
 11
-19.999958
 21
-10.268356
 31
0.0
  0
LINE
  5
1E1
100
AcDbEntity
  8
0
370
    -3
390
0
  6
Continuous
100
AcDbLine
 10
-18.999985
 20
12.0
 30
0.0
 11
-18.999985
 21
-12.0
 31
0.0
  0
LINE
  5
1E2
100
AcDbEntity
  8
0
370
    -3
390
0
  6
Continuous
100
AcDbLine
 10
0.000001
 20
0.182041
 30
0.0
 11
-3.999999
 21
-1.273837
 31
0.0
  0
LINE
  5
1E3
100
AcDbEntity
  8
0
370
    -3
390
0
  6
Continuous
100
AcDbLine
 10
-4.0
 20
-0.222603
 30
0.0
 11
0.000001
 21
1.233275
 31
0.0
  0
ENDBLK
  5
1E4
100
AcDbEntity
  8
0
390
0
100
AcDbBlockEnd
  0
BLOCK
  5
1E7
100
AcDbEntity
  8
0
390
0
100
AcDbBlockBegin
  2
ZU_SYM__USERS_HOME_SYMBOL_POO_SYM_B21_0000221
 70
    64
 10
0.0
 20
0.0
 30
0.0
  3
ZU_SYM__USERS_HOME_SYMBOL_POO_SYM_B21_0000221
  1

  0
POINT
  5
1E8
100
AcDbEntity
  8
0
370
    -3
390
0
  6
Continuous
100
AcDbPoint
 10
0.0
 20
0.0
 30
0.0
  0
LINE
  5
1E9
100
AcDbEntity
  8
0
370
    -3
390
0
  6
Continuous
100
AcDbLine
 10
0.0
 20
14.0
 30
0.0
 11
0.0
 21
-14.0
 31
0.0
  0
LINE
  5
1EA
100
AcDbEntity
  8
0
370
    -3
390
0
  6
Continuous
100
AcDbLine
 10
-4.0
 20
-14.0
 30
0.0
 11
-4.0
 21
14.0
 31
0.0
  0
LINE
  5
1EB
100
AcDbEntity
  8
0
370
    -3
390
0
  6
Continuous
100
AcDbLine
 10
-19.999962
 20
-10.268356
 30
0.0
 11
-19.999977
 21
10.267579
 31
0.0
  0
LINE
  5
1EC
100
AcDbEntity
  8
0
370
    -3
390
0
  6
Continuous
100
AcDbLine
 10
-4.0
 20
12.0
 30
0.0
 11
-18.999985
 21
12.0
 31
0.0
  0
LINE
  5
1ED
100
AcDbEntity
  8
0
370
    -3
390
0
  6
Continuous
100
AcDbLine
 10
-4.0
 20
-12.0
 30
0.0
 11
-18.999969
 21
-12.0
 31
0.0
  0
LINE
  5
1EE
100
AcDbEntity
  8
0
370
    -3
390
0
  6
Continuous
100
AcDbLine
 10
0.0
 20
14.0
 30
0.0
 11
-4.0
 21
14.0
 31
0.0
  0
LINE
  5
1EF
100
AcDbEntity
  8
0
370
    -3
390
0
  6
Continuous
100
AcDbLine
 10
0.0
 20
-14.0
 30
0.0
 11
-4.0
 21
-14.0
 31
0.0
  0
LINE
  5
1F0
100
AcDbEntity
  8
0
370
    -3
390
0
  6
Continuous
100
AcDbLine
 10
-18.999981
 20
11.999997
 30
0.0
 11
-19.999966
 21
10.267576
 31
0.0
  0
LINE
  5
1F1
100
AcDbEntity
  8
0
370
    -3
390
0
  6
Continuous
100
AcDbLine
 10
-18.999973
 20
-12.0
 30
0.0
 11
-19.999958
 21
-10.268356
 31
0.0
  0
LINE
  5
1F2
100
AcDbEntity
  8
0
370
    -3
390
0
  6
Continuous
100
AcDbLine
 10
-18.999985
 20
12.0
 30
0.0
 11
-18.999985
 21
-12.0
 31
0.0
  0
LINE
  5
1F3
100
AcDbEntity
  8
0
370
    -3
390
0
  6
Continuous
100
AcDbLine
 10
0.000001
 20
0.182041
 30
0.0
 11
-3.999999
 21
-1.273837
 31
0.0
  0
LINE
  5
1F4
100
AcDbEntity
  8
0
370
    -3
390
0
  6
Continuous
100
AcDbLine
 10
-4.0
 20
-0.222603
 30
0.0
 11
0.000001
 21
1.233275
 31
0.0
  0
ENDBLK
  5
1F5
100
AcDbEntity
  8
0
390
0
100
AcDbBlockEnd
  0
BLOCK
  5
1F8
100
AcDbEntity
  8
0
390
0
100
AcDbBlockBegin
  2
ZU_SYM__USERS_HOME_SYMBOL_POO_SYM_B21_0000321
 70
    64
 10
0.0
 20
0.0
 30
0.0
  3
ZU_SYM__USERS_HOME_SYMBOL_POO_SYM_B21_0000321
  1

  0
POINT
  5
1F9
100
AcDbEntity
  8
0
370
    -3
390
0
  6
Continuous
100
AcDbPoint
 10
0.0
 20
0.0
 30
0.0
  0
LINE
  5
1FA
100
AcDbEntity
  8
0
370
    -3
390
0
  6
Continuous
100
AcDbLine
 10
0.0
 20
14.0
 30
0.0
 11
0.0
 21
-14.0
 31
0.0
  0
LINE
  5
1FB
100
AcDbEntity
  8
0
370
    -3
390
0
  6
Continuous
100
AcDbLine
 10
-4.0
 20
-14.0
 30
0.0
 11
-4.0
 21
14.0
 31
0.0
  0
LINE
  5
1FC
100
AcDbEntity
  8
0
370
    -3
390
0
  6
Continuous
100
AcDbLine
 10
-19.999962
 20
-10.268356
 30
0.0
 11
-19.999977
 21
10.267579
 31
0.0
  0
LINE
  5
1FD
100
AcDbEntity
  8
0
370
    -3
390
0
  6
Continuous
100
AcDbLine
 10
-4.0
 20
12.0
 30
0.0
 11
-18.999985
 21
12.0
 31
0.0
  0
LINE
  5
1FE
100
AcDbEntity
  8
0
370
    -3
390
0
  6
Continuous
100
AcDbLine
 10
-4.0
 20
-12.0
 30
0.0
 11
-18.999969
 21
-12.0
 31
0.0
  0
LINE
  5
1FF
100
AcDbEntity
  8
0
370
    -3
390
0
  6
Continuous
100
AcDbLine
 10
0.0
 20
14.0
 30
0.0
 11
-4.0
 21
14.0
 31
0.0
  0
LINE
  5
200
100
AcDbEntity
  8
0
370
    -3
390
0
  6
Continuous
100
AcDbLine
 10
0.0
 20
-14.0
 30
0.0
 11
-4.0
 21
-14.0
 31
0.0
  0
LINE
  5
201
100
AcDbEntity
  8
0
370
    -3
390
0
  6
Continuous
100
AcDbLine
 10
-18.999981
 20
11.999997
 30
0.0
 11
-19.999966
 21
10.267576
 31
0.0
  0
LINE
  5
202
100
AcDbEntity
  8
0
370
    -3
390
0
  6
Continuous
100
AcDbLine
 10
-18.999973
 20
-12.0
 30
0.0
 11
-19.999958
 21
-10.268356
 31
0.0
  0
LINE
  5
203
100
AcDbEntity
  8
0
370
    -3
390
0
  6
Continuous
100
AcDbLine
 10
-18.999985
 20
12.0
 30
0.0
 11
-18.999985
 21
-12.0
 31
0.0
  0
LINE
  5
204
100
AcDbEntity
  8
0
370
    -3
390
0
  6
Continuous
100
AcDbLine
 10
0.000001
 20
0.182041
 30
0.0
 11
-3.999999
 21
-1.273837
 31
0.0
  0
LINE
  5
205
100
AcDbEntity
  8
0
370
    -3
390
0
  6
Continuous
100
AcDbLine
 10
-4.0
 20
-0.222603
 30
0.0
 11
0.000001
 21
1.233275
 31
0.0
  0
ENDBLK
  5
206
100
AcDbEntity
  8
0
390
0
100
AcDbBlockEnd
  0
BLOCK
  5
29E
100
AcDbEntity
  8
0
390
0
100
AcDbBlockBegin
  2
ZU_SYM__USERS_HOME_SYMBOL_POO_SYM_B21_0000421
 70
    64
 10
0.0
 20
0.0
 30
0.0
  3
ZU_SYM__USERS_HOME_SYMBOL_POO_SYM_B21_0000421
  1

  0
POINT
  5
29F
100
AcDbEntity
  8
0
370
    -3
390
0
  6
Continuous
100
AcDbPoint
 10
0.0
 20
0.0
 30
0.0
  0
LINE
  5
2A0
100
AcDbEntity
  8
0
370
    -3
390
0
  6
Continuous
100
AcDbLine
 10
0.0
 20
14.0
 30
0.0
 11
0.0
 21
-14.0
 31
0.0
  0
LINE
  5
2A1
100
AcDbEntity
  8
0
370
    -3
390
0
  6
Continuous
100
AcDbLine
 10
-4.0
 20
-14.0
 30
0.0
 11
-4.0
 21
14.0
 31
0.0
  0
LINE
  5
2A2
100
AcDbEntity
  8
0
370
    -3
390
0
  6
Continuous
100
AcDbLine
 10
-19.999962
 20
-10.268356
 30
0.0
 11
-19.999977
 21
10.267579
 31
0.0
  0
LINE
  5
2A3
100
AcDbEntity
  8
0
370
    -3
390
0
  6
Continuous
100
AcDbLine
 10
-4.0
 20
12.0
 30
0.0
 11
-18.999985
 21
12.0
 31
0.0
  0
LINE
  5
2A4
100
AcDbEntity
  8
0
370
    -3
390
0
  6
Continuous
100
AcDbLine
 10
-4.0
 20
-12.0
 30
0.0
 11
-18.999969
 21
-12.0
 31
0.0
  0
LINE
  5
2A5
100
AcDbEntity
  8
0
370
    -3
390
0
  6
Continuous
100
AcDbLine
 10
0.0
 20
14.0
 30
0.0
 11
-4.0
 21
14.0
 31
0.0
  0
LINE
  5
2A6
100
AcDbEntity
  8
0
370
    -3
390
0
  6
Continuous
100
AcDbLine
 10
0.0
 20
-14.0
 30
0.0
 11
-4.0
 21
-14.0
 31
0.0
  0
LINE
  5
2A7
100
AcDbEntity
  8
0
370
    -3
390
0
  6
Continuous
100
AcDbLine
 10
-18.999981
 20
11.999997
 30
0.0
 11
-19.999966
 21
10.267576
 31
0.0
  0
LINE
  5
2A8
100
AcDbEntity
  8
0
370
    -3
390
0
  6
Continuous
100
AcDbLine
 10
-18.999973
 20
-12.0
 30
0.0
 11
-19.999958
 21
-10.268356
 31
0.0
  0
LINE
  5
2A9
100
AcDbEntity
  8
0
370
    -3
390
0
  6
Continuous
100
AcDbLine
 10
-18.999985
 20
12.0
 30
0.0
 11
-18.999985
 21
-12.0
 31
0.0
  0
LINE
  5
2AA
100
AcDbEntity
  8
0
370
    -3
390
0
  6
Continuous
100
AcDbLine
 10
0.000001
 20
0.182041
 30
0.0
 11
-3.999999
 21
-1.273837
 31
0.0
  0
LINE
  5
2AB
100
AcDbEntity
  8
0
370
    -3
390
0
  6
Continuous
100
AcDbLine
 10
-4.0
 20
-0.222603
 30
0.0
 11
0.000001
 21
1.233275
 31
0.0
  0
ENDBLK
  5
2AC
100
AcDbEntity
  8
0
390
0
100
AcDbBlockEnd
  0
BLOCK
  5
2CE
100
AcDbEntity
  8
0
390
0
100
AcDbBlockBegin
  2
ZU_SYM__USERS_HOME_SYMBOL_POO_SYM_B21_0000521
 70
    64
 10
0.0
 20
0.0
 30
0.0
  3
ZU_SYM__USERS_HOME_SYMBOL_POO_SYM_B21_0000521
  1

  0
POINT
  5
2CF
100
AcDbEntity
  8
0
370
    -3
390
0
  6
Continuous
100
AcDbPoint
 10
0.0
 20
0.0
 30
0.0
  0
LINE
  5
2D0
100
AcDbEntity
  8
0
370
    -3
390
0
  6
Continuous
100
AcDbLine
 10
0.0
 20
14.0
 30
0.0
 11
0.0
 21
-14.0
 31
0.0
  0
LINE
  5
2D1
100
AcDbEntity
  8
0
370
    -3
390
0
  6
Continuous
100
AcDbLine
 10
-4.0
 20
-14.0
 30
0.0
 11
-4.0
 21
14.0
 31
0.0
  0
LINE
  5
2D2
100
AcDbEntity
  8
0
370
    -3
390
0
  6
Continuous
100
AcDbLine
 10
-19.999962
 20
-10.268356
 30
0.0
 11
-19.999977
 21
10.267579
 31
0.0
  0
LINE
  5
2D3
100
AcDbEntity
  8
0
370
    -3
390
0
  6
Continuous
100
AcDbLine
 10
-4.0
 20
12.0
 30
0.0
 11
-18.999985
 21
12.0
 31
0.0
  0
LINE
  5
2D4
100
AcDbEntity
  8
0
370
    -3
390
0
  6
Continuous
100
AcDbLine
 10
-4.0
 20
-12.0
 30
0.0
 11
-18.999969
 21
-12.0
 31
0.0
  0
LINE
  5
2D5
100
AcDbEntity
  8
0
370
    -3
390
0
  6
Continuous
100
AcDbLine
 10
0.0
 20
14.0
 30
0.0
 11
-4.0
 21
14.0
 31
0.0
  0
LINE
  5
2D6
100
AcDbEntity
  8
0
370
    -3
390
0
  6
Continuous
100
AcDbLine
 10
0.0
 20
-14.0
 30
0.0
 11
-4.0
 21
-14.0
 31
0.0
  0
LINE
  5
2D7
100
AcDbEntity
  8
0
370
    -3
390
0
  6
Continuous
100
AcDbLine
 10
-18.999981
 20
11.999997
 30
0.0
 11
-19.999966
 21
10.267576
 31
0.0
  0
LINE
  5
2D8
100
AcDbEntity
  8
0
370
    -3
390
0
  6
Continuous
100
AcDbLine
 10
-18.999973
 20
-12.0
 30
0.0
 11
-19.999958
 21
-10.268356
 31
0.0
  0
LINE
  5
2D9
100
AcDbEntity
  8
0
370
    -3
390
0
  6
Continuous
100
AcDbLine
 10
-18.999985
 20
12.0
 30
0.0
 11
-18.999985
 21
-12.0
 31
0.0
  0
LINE
  5
2DA
100
AcDbEntity
  8
0
370
    -3
390
0
  6
Continuous
100
AcDbLine
 10
0.000001
 20
0.182041
 30
0.0
 11
-3.999999
 21
-1.273837
 31
0.0
  0
LINE
  5
2DB
100
AcDbEntity
  8
0
370
    -3
390
0
  6
Continuous
100
AcDbLine
 10
-4.0
 20
-0.222603
 30
0.0
 11
0.000001
 21
1.233275
 31
0.0
  0
ENDBLK
  5
2DC
100
AcDbEntity
  8
0
390
0
100
AcDbBlockEnd
  0
BLOCK
  5
32F
100
AcDbEntity
  8
0
390
0
100
AcDbBlockBegin
  2
ZU_SYM__USERS_HOME_SYMBOL_POO_SYM_B21_0000621
 70
    64
 10
0.0
 20
0.0
 30
0.0
  3
ZU_SYM__USERS_HOME_SYMBOL_POO_SYM_B21_0000621
  1

  0
POINT
  5
330
100
AcDbEntity
  8
0
370
    -3
390
0
  6
Continuous
100
AcDbPoint
 10
0.0
 20
0.0
 30
0.0
  0
LINE
  5
331
100
AcDbEntity
  8
0
370
    -3
390
0
  6
Continuous
100
AcDbLine
 10
0.0
 20
14.0
 30
0.0
 11
0.0
 21
-14.0
 31
0.0
  0
LINE
  5
332
100
AcDbEntity
  8
0
370
    -3
390
0
  6
Continuous
100
AcDbLine
 10
-4.0
 20
-14.0
 30
0.0
 11
-4.0
 21
14.0
 31
0.0
  0
LINE
  5
333
100
AcDbEntity
  8
0
370
    -3
390
0
  6
Continuous
100
AcDbLine
 10
-19.999962
 20
-10.268356
 30
0.0
 11
-19.999977
 21
10.267579
 31
0.0
  0
LINE
  5
334
100
AcDbEntity
  8
0
370
    -3
390
0
  6
Continuous
100
AcDbLine
 10
-4.0
 20
12.0
 30
0.0
 11
-18.999985
 21
12.0
 31
0.0
  0
LINE
  5
335
100
AcDbEntity
  8
0
370
    -3
390
0
  6
Continuous
100
AcDbLine
 10
-4.0
 20
-12.0
 30
0.0
 11
-18.999969
 21
-12.0
 31
0.0
  0
LINE
  5
336
100
AcDbEntity
  8
0
370
    -3
390
0
  6
Continuous
100
AcDbLine
 10
0.0
 20
14.0
 30
0.0
 11
-4.0
 21
14.0
 31
0.0
  0
LINE
  5
337
100
AcDbEntity
  8
0
370
    -3
390
0
  6
Continuous
100
AcDbLine
 10
0.0
 20
-14.0
 30
0.0
 11
-4.0
 21
-14.0
 31
0.0
  0
LINE
  5
338
100
AcDbEntity
  8
0
370
    -3
390
0
  6
Continuous
100
AcDbLine
 10
-18.999981
 20
11.999997
 30
0.0
 11
-19.999966
 21
10.267576
 31
0.0
  0
LINE
  5
339
100
AcDbEntity
  8
0
370
    -3
390
0
  6
Continuous
100
AcDbLine
 10
-18.999973
 20
-12.0
 30
0.0
 11
-19.999958
 21
-10.268356
 31
0.0
  0
LINE
  5
33A
100
AcDbEntity
  8
0
370
    -3
390
0
  6
Continuous
100
AcDbLine
 10
-18.999985
 20
12.0
 30
0.0
 11
-18.999985
 21
-12.0
 31
0.0
  0
LINE
  5
33B
100
AcDbEntity
  8
0
370
    -3
390
0
  6
Continuous
100
AcDbLine
 10
0.000001
 20
0.182041
 30
0.0
 11
-3.999999
 21
-1.273837
 31
0.0
  0
LINE
  5
33C
100
AcDbEntity
  8
0
370
    -3
390
0
  6
Continuous
100
AcDbLine
 10
-4.0
 20
-0.222603
 30
0.0
 11
0.000001
 21
1.233275
 31
0.0
  0
ENDBLK
  5
33D
100
AcDbEntity
  8
0
390
0
100
AcDbBlockEnd
  0
BLOCK
  5
358
100
AcDbEntity
  8
0
390
0
100
AcDbBlockBegin
  2
ZU_SYM__USERS_HOME_SYMBOL_POO_SYM_B21_0000721
 70
    64
 10
0.0
 20
0.0
 30
0.0
  3
ZU_SYM__USERS_HOME_SYMBOL_POO_SYM_B21_0000721
  1

  0
POINT
  5
359
100
AcDbEntity
  8
0
370
    -3
390
0
  6
Continuous
100
AcDbPoint
 10
0.0
 20
0.0
 30
0.0
  0
LINE
  5
35A
100
AcDbEntity
  8
0
370
    -3
390
0
  6
Continuous
100
AcDbLine
 10
0.0
 20
14.0
 30
0.0
 11
0.0
 21
-14.0
 31
0.0
  0
LINE
  5
35B
100
AcDbEntity
  8
0
370
    -3
390
0
  6
Continuous
100
AcDbLine
 10
-4.0
 20
-14.0
 30
0.0
 11
-4.0
 21
14.0
 31
0.0
  0
LINE
  5
35C
100
AcDbEntity
  8
0
370
    -3
390
0
  6
Continuous
100
AcDbLine
 10
-19.999962
 20
-10.268356
 30
0.0
 11
-19.999977
 21
10.267579
 31
0.0
  0
LINE
  5
35D
100
AcDbEntity
  8
0
370
    -3
390
0
  6
Continuous
100
AcDbLine
 10
-4.0
 20
12.0
 30
0.0
 11
-18.999985
 21
12.0
 31
0.0
  0
LINE
  5
35E
100
AcDbEntity
  8
0
370
    -3
390
0
  6
Continuous
100
AcDbLine
 10
-4.0
 20
-12.0
 30
0.0
 11
-18.999969
 21
-12.0
 31
0.0
  0
LINE
  5
35F
100
AcDbEntity
  8
0
370
    -3
390
0
  6
Continuous
100
AcDbLine
 10
0.0
 20
14.0
 30
0.0
 11
-4.0
 21
14.0
 31
0.0
  0
LINE
  5
360
100
AcDbEntity
  8
0
370
    -3
390
0
  6
Continuous
100
AcDbLine
 10
0.0
 20
-14.0
 30
0.0
 11
-4.0
 21
-14.0
 31
0.0
  0
LINE
  5
361
100
AcDbEntity
  8
0
370
    -3
390
0
  6
Continuous
100
AcDbLine
 10
-18.999981
 20
11.999997
 30
0.0
 11
-19.999966
 21
10.267576
 31
0.0
  0
LINE
  5
362
100
AcDbEntity
  8
0
370
    -3
390
0
  6
Continuous
100
AcDbLine
 10
-18.999973
 20
-12.0
 30
0.0
 11
-19.999958
 21
-10.268356
 31
0.0
  0
LINE
  5
363
100
AcDbEntity
  8
0
370
    -3
390
0
  6
Continuous
100
AcDbLine
 10
-18.999985
 20
12.0
 30
0.0
 11
-18.999985
 21
-12.0
 31
0.0
  0
LINE
  5
364
100
AcDbEntity
  8
0
370
    -3
390
0
  6
Continuous
100
AcDbLine
 10
0.000001
 20
0.182041
 30
0.0
 11
-3.999999
 21
-1.273837
 31
0.0
  0
LINE
  5
365
100
AcDbEntity
  8
0
370
    -3
390
0
  6
Continuous
100
AcDbLine
 10
-4.0
 20
-0.222603
 30
0.0
 11
0.000001
 21
1.233275
 31
0.0
  0
ENDBLK
  5
366
100
AcDbEntity
  8
0
390
0
100
AcDbBlockEnd
  0
BLOCK
  5
382
100
AcDbEntity
  8
0
390
0
100
AcDbBlockBegin
  2
ZU_SYM__USERS_HOME_SYMBOL_POO_SYM_B21_0000821
 70
    64
 10
0.0
 20
0.0
 30
0.0
  3
ZU_SYM__USERS_HOME_SYMBOL_POO_SYM_B21_0000821
  1

  0
POINT
  5
383
100
AcDbEntity
  8
0
370
    -3
390
0
  6
Continuous
100
AcDbPoint
 10
0.0
 20
0.0
 30
0.0
  0
LINE
  5
384
100
AcDbEntity
  8
0
370
    -3
390
0
  6
Continuous
100
AcDbLine
 10
0.0
 20
14.0
 30
0.0
 11
0.0
 21
-14.0
 31
0.0
  0
LINE
  5
385
100
AcDbEntity
  8
0
370
    -3
390
0
  6
Continuous
100
AcDbLine
 10
-4.0
 20
-14.0
 30
0.0
 11
-4.0
 21
14.0
 31
0.0
  0
LINE
  5
386
100
AcDbEntity
  8
0
370
    -3
390
0
  6
Continuous
100
AcDbLine
 10
-19.999962
 20
-10.268356
 30
0.0
 11
-19.999977
 21
10.267579
 31
0.0
  0
LINE
  5
387
100
AcDbEntity
  8
0
370
    -3
390
0
  6
Continuous
100
AcDbLine
 10
-4.0
 20
12.0
 30
0.0
 11
-18.999985
 21
12.0
 31
0.0
  0
LINE
  5
388
100
AcDbEntity
  8
0
370
    -3
390
0
  6
Continuous
100
AcDbLine
 10
-4.0
 20
-12.0
 30
0.0
 11
-18.999969
 21
-12.0
 31
0.0
  0
LINE
  5
389
100
AcDbEntity
  8
0
370
    -3
390
0
  6
Continuous
100
AcDbLine
 10
0.0
 20
14.0
 30
0.0
 11
-4.0
 21
14.0
 31
0.0
  0
LINE
  5
38A
100
AcDbEntity
  8
0
370
    -3
390
0
  6
Continuous
100
AcDbLine
 10
0.0
 20
-14.0
 30
0.0
 11
-4.0
 21
-14.0
 31
0.0
  0
LINE
  5
38B
100
AcDbEntity
  8
0
370
    -3
390
0
  6
Continuous
100
AcDbLine
 10
-18.999981
 20
11.999997
 30
0.0
 11
-19.999966
 21
10.267576
 31
0.0
  0
LINE
  5
38C
100
AcDbEntity
  8
0
370
    -3
390
0
  6
Continuous
100
AcDbLine
 10
-18.999973
 20
-12.0
 30
0.0
 11
-19.999958
 21
-10.268356
 31
0.0
  0
LINE
  5
38D
100
AcDbEntity
  8
0
370
    -3
390
0
  6
Continuous
100
AcDbLine
 10
-18.999985
 20
12.0
 30
0.0
 11
-18.999985
 21
-12.0
 31
0.0
  0
LINE
  5
38E
100
AcDbEntity
  8
0
370
    -3
390
0
  6
Continuous
100
AcDbLine
 10
0.000001
 20
0.182041
 30
0.0
 11
-3.999999
 21
-1.273837
 31
0.0
  0
LINE
  5
38F
100
AcDbEntity
  8
0
370
    -3
390
0
  6
Continuous
100
AcDbLine
 10
-4.0
 20
-0.222603
 30
0.0
 11
0.000001
 21
1.233275
 31
0.0
  0
ENDBLK
  5
390
100
AcDbEntity
  8
0
390
0
100
AcDbBlockEnd
  0
ENDSEC
  0
SECTION
  2
ENTITIES
  0
LINE
  5
2A
100
AcDbEntity
  8
0
370
    -3
390
0
  6
Continuous
100
AcDbLine
 10
-562.619791
 20
-451.072167
 30
0.0
 11
-384.861575
 21
-451.072167
 31
0.0
  0
LINE
  5
2B
100
AcDbEntity
  8
0
370
    -3
390
0
  6
Continuous
100
AcDbLine
 10
-562.619791
 20
-447.572167
 30
0.0
 11
-377.770816
 21
-447.572167
 31
0.0
  0
LINE
  5
2C
100
AcDbEntity
  8
0
370
    -3
390
0
  6
Continuous
100
AcDbLine
 10
-562.619791
 20
-446.072167
 30
0.0
 11
-374.73192
 21
-446.072167
 31
0.0
  0
LINE
  5
2D
100
AcDbEntity
  8
0
370
    -3
390
0
  6
Continuous
100
AcDbLine
 10
-562.619791
 20
-442.072167
 30
0.0
 11
-366.628195
 21
-442.072167
 31
0.0
  0
LINE
  5
2E
100
AcDbEntity
  8
0
370
    -3
390
0
  6
Continuous
100
AcDbLine
 10
-562.619791
 20
-436.072167
 30
0.0
 11
-354.472608
 21
-436.072167
 31
0.0
  0
LINE
  5
2F
100
AcDbEntity
  8
0
370
    -3
390
0
  6
Continuous
100
AcDbLine
 10
-562.619791
 20
-422.779667
 30
0.0
 11
-327.542918
 21
-422.779667
 31
0.0
  0
LINE
  5
30
100
AcDbEntity
  8
0
370
    -3
390
0
  6
Continuous
100
AcDbLine
 10
-562.619791
 20
-458.908518
 30
0.0
 11
-572.019791
 21
-458.908518
 31
0.0
  0
LINE
  5
31
100
AcDbEntity
  8
0
370
    -3
390
0
  6
CENTER
100
AcDbLine
 10
-565.619791
 20
-478.905493
 30
0.0
 11
-569.019791
 21
-478.905493
 31
0.0
  0
LINE
  5
32
100
AcDbEntity
  8
0
370
    -3
390
0
  6
Continuous
100
AcDbLine
 10
-567.319791
 20
-478.905493
 30
0.0
 11
-567.319791
 21
-483.705493
 31
0.0
  0
LINE
  5
33
100
AcDbEntity
  8
0
370
    -3
390
0
  6
Continuous
100
AcDbLine
 10
-565.619791
 20
-478.905493
 30
0.0
 11
-565.619791
 21
-484.696334
 31
0.0
  0
LINE
  5
34
100
AcDbEntity
  8
0
370
    -3
390
0
  6
Continuous
100
AcDbLine
 10
-565.619791
 20
-478.905493
 30
0.0
 11
-569.019791
 21
-478.905493
 31
0.0
  0
LINE
  5
35
100
AcDbEntity
  8
0
370
    -3
390
0
  6
Continuous
100
AcDbLine
 10
-569.019791
 20
-478.905493
 30
0.0
 11
-569.019791
 21
-484.696334
 31
0.0
  0
LINE
  5
36
100
AcDbEntity
  8
0
370
    -3
390
0
  6
Continuous
100
AcDbLine
 10
-576.137463
 20
-477.784121
 30
0.0
 11
-572.853315
 21
-478.664105
 31
0.0
  0
LINE
  5
37
100
AcDbEntity
  8
0
370
    -3
390
0
  6
CENTER
100
AcDbLine
 10
-576.137463
 20
-477.784121
 30
0.0
 11
-572.853315
 21
-478.664105
 31
0.0
  0
LINE
  5
38
100
AcDbEntity
  8
0
370
    -3
390
0
  6
Continuous
100
AcDbLine
 10
-576.137463
 20
-477.784121
 30
0.0
 11
-577.636243
 21
-483.377643
 31
0.0
  0
LINE
  5
39
100
AcDbEntity
  8
0
370
    -3
390
0
  6
Continuous
100
AcDbLine
 10
-574.495389
 20
-478.224113
 30
0.0
 11
-575.737721
 21
-482.860557
 31
0.0
  0
LINE
  5
3A
100
AcDbEntity
  8
0
370
    -3
390
0
  6
Continuous
100
AcDbLine
 10
-572.853315
 20
-478.664105
 30
0.0
 11
-574.352095
 21
-484.257628
 31
0.0
  0
LINE
  5
3B
100
AcDbEntity
  8
0
370
    -3
390
0
  6
Continuous
100
AcDbLine
 10
-576.137463
 20
-477.784121
 30
0.0
 11
-572.853315
 21
-478.664105
 31
0.0
  0
LINE
  5
3C
100
AcDbEntity
  8
0
370
    -3
390
0
  6
Continuous
100
AcDbLine
 10
-573.96413
 20
-478.366463
 30
0.0
 11
-568.750389
 21
-458.908518
 31
0.0
  0
LINE
  5
3D
100
AcDbEntity
  8
0
370
    -3
390
0
  6
Continuous
100
AcDbLine
 10
-575.026648
 20
-478.081763
 30
0.0
 11
-569.889193
 21
-458.908518
 31
0.0
  0
LINE
  5
3E
100
AcDbEntity
  8
0
370
    -3
390
0
  6
Continuous
100
AcDbLine
 10
-558.502119
 20
-477.784121
 30
0.0
 11
-561.786267
 21
-478.664105
 31
0.0
  0
LINE
  5
3F
100
AcDbEntity
  8
0
370
    -3
390
0
  6
CENTER
100
AcDbLine
 10
-558.502119
 20
-477.784121
 30
0.0
 11
-561.786267
 21
-478.664105
 31
0.0
  0
LINE
  5
40
100
AcDbEntity
  8
0
370
    -3
390
0
  6
Continuous
100
AcDbLine
 10
-558.502119
 20
-477.784121
 30
0.0
 11
-557.00334
 21
-483.377643
 31
0.0
  0
LINE
  5
41
100
AcDbEntity
  8
0
370
    -3
390
0
  6
Continuous
100
AcDbLine
 10
-560.144193
 20
-478.224113
 30
0.0
 11
-558.901862
 21
-482.860557
 31
0.0
  0
LINE
  5
42
100
AcDbEntity
  8
0
370
    -3
390
0
  6
Continuous
100
AcDbLine
 10
-561.786267
 20
-478.664105
 30
0.0
 11
-560.287488
 21
-484.257628
 31
0.0
  0
LINE
  5
43
100
AcDbEntity
  8
0
370
    -3
390
0
  6
Continuous
100
AcDbLine
 10
-558.502119
 20
-477.784121
 30
0.0
 11
-561.786267
 21
-478.664105
 31
0.0
  0
LINE
  5
44
100
AcDbEntity
  8
0
370
    -3
390
0
  6
Continuous
100
AcDbLine
 10
-560.675453
 20
-478.366463
 30
0.0
 11
-565.889193
 21
-458.908518
 31
0.0
  0
LINE
  5
45
100
AcDbEntity
  8
0
370
    -3
390
0
  6
Continuous
100
AcDbLine
 10
-559.612934
 20
-478.081763
 30
0.0
 11
-564.750389
 21
-458.908518
 31
0.0
  0
LINE
  5
46
100
AcDbEntity
  8
0
370
    -3
390
0
  6
Continuous
100
AcDbLine
 10
-567.869791
 20
-478.905493
 30
0.0
 11
-567.869791
 21
-458.908518
 31
0.0
  0
LINE
  5
47
100
AcDbEntity
  8
0
370
    -3
390
0
  6
Continuous
100
AcDbLine
 10
-566.769791
 20
-478.905493
 30
0.0
 11
-566.769791
 21
-458.908518
 31
0.0
  0
ARC
  5
48
100
AcDbEntity
  8
0
370
    -3
390
0
  6
Continuous
100
AcDbCircle
 10
-560.619791
 20
-484.696334
 30
0.0
 40
5.0
100
AcDbArc
 50
180.0
 51
221.888597
  0
CIRCLE
  5
49
100
AcDbEntity
  8
0
370
    -3
390
0
  6
Continuous
100
AcDbCircle
 10
-567.319791
 20
-490.705493
 30
0.0
 40
2.15
  0
ARC
  5
4A
100
AcDbEntity
  8
0
370
    -3
390
0
  6
Continuous
100
AcDbCircle
 10
-567.319791
 20
-490.705493
 30
0.0
 40
4.0
100
AcDbArc
 50
138.111403
 51
41.888597
  0
ARC
  5
4B
100
AcDbEntity
  8
0
370
    -3
390
0
  6
Continuous
100
AcDbCircle
 10
-574.019791
 20
-484.696334
 30
0.0
 40
5.0
100
AcDbArc
 50
318.111403
 51
0.0
  0
CIRCLE
  5
4C
100
AcDbEntity
  8
0
370
    -3
390
0
  6
Continuous
100
AcDbCircle
 10
-577.549454
 20
-489.622038
 30
0.0
 40
2.15
  0
ARC
  5
4D
100
AcDbEntity
  8
0
370
    -3
390
0
  6
Continuous
100
AcDbCircle
 10
-577.549454
 20
-489.622038
 30
0.0
 40
4.0
100
AcDbArc
 50
123.111403
 51
26.888597
  0
ARC
  5
4E
100
AcDbEntity
  8
0
370
    -3
390
0
  6
Continuous
100
AcDbCircle
 10
-582.465872
 20
-482.083548
 30
0.0
 40
5.0
100
AcDbArc
 50
303.111403
 51
345.0
  0
ARC
  5
4F
100
AcDbEntity
  8
0
370
    -3
390
0
  6
Continuous
100
AcDbCircle
 10
-569.522466
 20
-485.551723
 30
0.0
 40
5.0
100
AcDbArc
 50
165.0
 51
206.888597
  0
CIRCLE
  5
50
100
AcDbEntity
  8
0
370
    -3
390
0
  6
Continuous
100
AcDbCircle
 10
-557.090129
 20
-489.622038
 30
0.0
 40
2.15
  0
ARC
  5
51
100
AcDbEntity
  8
0
370
    -3
390
0
  6
Continuous
100
AcDbCircle
 10
-557.090129
 20
-489.622038
 30
0.0
 40
4.0
100
AcDbArc
 50
153.111403
 51
56.888597
  0
ARC
  5
52
100
AcDbEntity
  8
0
370
    -3
390
0
  6
Continuous
100
AcDbCircle
 10
-552.173711
 20
-482.083548
 30
0.0
 40
5.0
100
AcDbArc
 50
195.0
 51
236.888597
  0
ARC
  5
53
100
AcDbEntity
  8
0
370
    -3
390
0
  6
Continuous
100
AcDbCircle
 10
-565.117117
 20
-485.551723
 30
0.0
 40
5.0
100
AcDbArc
 50
333.111403
 51
15.0
  0
LINE
  5
54
100
AcDbEntity
  8
0
370
    -3
390
0
  6
Continuous
100
AcDbLine
 10
-577.379795
 20
-482.420565
 30
0.0
 11
-574.095647
 21
-483.300549
 31
0.0
  0
LINE
  5
55
100
AcDbEntity
  8
0
370
    -3
390
0
  6
Continuous
100
AcDbLine
 10
-565.619791
 20
-483.705493
 30
0.0
 11
-569.019791
 21
-483.705493
 31
0.0
  0
LINE
  5
56
100
AcDbEntity
  8
0
370
    -3
390
0
  6
Continuous
100
AcDbLine
 10
-557.259788
 20
-482.420565
 30
0.0
 11
-560.543936
 21
-483.300549
 31
0.0
  0
LINE
  5
57
100
AcDbEntity
  8
0
370
    -3
390
0
  6
Continuous
100
AcDbLine
 10
-572.019791
 20
-421.998962
 30
0.0
 11
-572.019791
 21
-458.908518
 31
0.0
  0
LINE
  5
58
100
AcDbEntity
  8
0
370
    -3
390
0
  6
Continuous
100
AcDbLine
 10
-562.619791
 20
-421.998962
 30
0.0
 11
-562.619791
 21
-458.908518
 31
0.0
  0
LINE
  5
59
100
AcDbEntity
  8
0
370
    -3
390
0
  6
Continuous
100
AcDbLine
 10
-586.546396
 20
-411.998962
 30
0.0
 11
-582.019791
 21
-411.998962
 31
0.0
  0
LINE
  5
5A
100
AcDbEntity
  8
0
370
    -3
390
0
  6
Continuous
100
AcDbLine
 10
-586.546396
 20
-402.598962
 30
0.0
 11
-582.019791
 21
-402.598962
 31
0.0
  0
ARC
  5
5B
100
AcDbEntity
  8
0
370
    -3
390
0
  6
Continuous
100
AcDbCircle
 10
-582.019791
 20
-421.998962
 30
0.0
 40
10.0
100
AcDbArc
 50
0.0
 51
90.0
  0
ARC
  5
5C
100
AcDbEntity
  8
0
370
    -3
390
0
  6
Continuous
100
AcDbCircle
 10
-582.019791
 20
-421.998962
 30
0.0
 40
19.4
100
AcDbArc
 50
0.0
 51
90.0
  0
LINE
  5
5D
100
AcDbEntity
  8
0
370
    -3
390
0
  6
Continuous
100
AcDbLine
 10
-772.029938
 20
185.995234
 30
0.0
 11
-780.446396
 21
190.854479
 31
0.0
  0
ARC
  5
5E
100
AcDbEntity
  8
0
370
    -3
390
0
  6
Continuous
100
AcDbCircle
 10
-721.429938
 20
273.637005
 30
0.0
 40
101.2
100
AcDbArc
 50
240.0
 51
270.0
  0
ARC
  5
5F
100
AcDbEntity
  8
0
370
    -3
390
0
  6
Continuous
100
AcDbCircle
 10
-777.346396
 20
196.223836
 30
0.0
 40
6.2
100
AcDbArc
 50
180.0
 51
240.0
  0
LINE
  5
60
100
AcDbEntity
  8
0
370
    -3
390
0
  6
Continuous
100
AcDbLine
 10
-783.546396
 20
309.637005
 30
0.0
 11
-783.546396
 21
196.223836
 31
0.0
  0
LINE
  5
61
100
AcDbEntity
  8
0
370
    -3
390
0
  6
Continuous
100
AcDbLine
 10
-772.029938
 20
433.278776
 30
0.0
 11
-780.446396
 21
428.419532
 31
0.0
  0
ARC
  5
62
100
AcDbEntity
  8
0
370
    -3
390
0
  6
Continuous
100
AcDbCircle
 10
-721.429938
 20
345.637005
 30
0.0
 40
101.2
100
AcDbArc
 50
90.0
 51
120.0
  0
ARC
  5
63
100
AcDbEntity
  8
0
370
    -3
390
0
  6
Continuous
100
AcDbCircle
 10
-777.346396
 20
423.050174
 30
0.0
 40
6.2
100
AcDbArc
 50
120.0
 51
180.0
  0
LINE
  5
64
100
AcDbEntity
  8
0
370
    -3
390
0
  6
Continuous
100
AcDbLine
 10
-783.546396
 20
309.637005
 30
0.0
 11
-783.546396
 21
423.050174
 31
0.0
  0
ARC
  5
65
100
AcDbEntity
  8
0
370
    -3
390
0
  6
Continuous
100
AcDbCircle
 10
-777.346396
 20
-431.485336
 30
0.0
 40
6.2
100
AcDbArc
 50
180.0
 51
240.0
  0
LINE
  5
66
100
AcDbEntity
  8
0
370
    -3
390
0
  6
Continuous
100
AcDbLine
 10
-772.029938
 20
-441.713938
 30
0.0
 11
-780.446396
 21
-436.854694
 31
0.0
  0
ARC
  5
67
100
AcDbEntity
  8
0
370
    -3
390
0
  6
Continuous
100
AcDbCircle
 10
-721.429938
 20
-354.072167
 30
0.0
 40
101.2
100
AcDbArc
 50
240.0
 51
270.0
  0
LINE
  5
68
100
AcDbEntity
  8
0
370
    -3
390
0
  6
Continuous
100
AcDbLine
 10
-783.546396
 20
-318.072167
 30
0.0
 11
-783.546396
 21
-431.485336
 31
0.0
  0
ARC
  5
69
100
AcDbEntity
  8
0
370
    -3
390
0
  6
Continuous
100
AcDbCircle
 10
-777.346396
 20
-204.658999
 30
0.0
 40
6.2
100
AcDbArc
 50
120.0
 51
180.0
  0
LINE
  5
6A
100
AcDbEntity
  8
0
370
    -3
390
0
  6
Continuous
100
AcDbLine
 10
-772.029938
 20
-194.430397
 30
0.0
 11
-780.446396
 21
-199.289641
 31
0.0
  0
LINE
  5
6B
100
AcDbEntity
  8
0
370
    -3
390
0
  6
Continuous
100
AcDbLine
 10
-783.546396
 20
-318.072167
 30
0.0
 11
-783.546396
 21
-204.658999
 31
0.0
  0
ARC
  5
6C
100
AcDbEntity
  8
0
370
    -3
390
0
  6
Continuous
100
AcDbCircle
 10
-721.429938
 20
-282.072167
 30
0.0
 40
101.2
100
AcDbArc
 50
90.0
 51
120.0
  0
LINE
  5
6D
100
AcDbEntity
  8
0
370
    -3
390
0
  6
Continuous
100
AcDbLine
 10
-321.546396
 20
-382.332598
 30
0.0
 11
-311.546396
 21
-382.332598
 31
0.0
  0
ARC
  5
6E
100
AcDbEntity
  8
0
370
    -3
390
0
  6
Continuous
100
AcDbCircle
 10
-311.546396
 20
-379.332598
 30
0.0
 40
3.0
100
AcDbArc
 50
270.0
 51
0.0
  0
ARC
  5
6F
100
AcDbEntity
  8
0
370
    -3
390
0
  6
Continuous
100
AcDbCircle
 10
-311.546396
 20
-256.811737
 30
0.0
 40
3.0
100
AcDbArc
 50
0.0
 51
90.0
  0
LINE
  5
70
100
AcDbEntity
  8
0
370
    -3
390
0
  6
Continuous
100
AcDbLine
 10
-321.546396
 20
-253.811737
 30
0.0
 11
-311.546396
 21
-253.811737
 31
0.0
  0
LINE
  5
71
100
AcDbEntity
  8
0
370
    -3
390
0
  6
Continuous
100
AcDbLine
 10
-321.546396
 20
-404.244094
 30
0.0
 11
-311.546396
 21
-404.244094
 31
0.0
  0
ARC
  5
72
100
AcDbEntity
  8
0
370
    -3
390
0
  6
Continuous
100
AcDbCircle
 10
-311.546396
 20
-401.244094
 30
0.0
 40
3.0
100
AcDbArc
 50
270.0
 51
0.0
  0
LINE
  5
73
100
AcDbEntity
  8
0
370
    -3
390
0
  6
Continuous
100
AcDbLine
 10
-321.546396
 20
-214.15201
 30
0.0
 11
-311.546396
 21
-214.15201
 31
0.0
  0
ARC
  5
74
100
AcDbEntity
  8
0
370
    -3
390
0
  6
Continuous
100
AcDbCircle
 10
-311.546396
 20
-211.15201
 30
0.0
 40
3.0
100
AcDbArc
 50
270.0
 51
0.0
  0
LINE
  5
75
100
AcDbEntity
  8
0
370
    -3
390
0
  6
Continuous
100
AcDbLine
 10
-321.546396
 20
-231.900241
 30
0.0
 11
-311.546396
 21
-231.900241
 31
0.0
  0
ARC
  5
76
100
AcDbEntity
  8
0
370
    -3
390
0
  6
Continuous
100
AcDbCircle
 10
-311.546396
 20
-234.900241
 30
0.0
 40
3.0
100
AcDbArc
 50
0.0
 51
90.0
  0
ARC
  5
77
100
AcDbEntity
  8
0
370
    -3
390
0
  6
Continuous
100
AcDbCircle
 10
-311.546396
 20
226.465078
 30
0.0
 40
3.0
100
AcDbArc
 50
270.0
 51
0.0
  0
ARC
  5
78
100
AcDbEntity
  8
0
370
    -3
390
0
  6
Continuous
100
AcDbCircle
 10
-311.546396
 20
202.716848
 30
0.0
 40
3.0
100
AcDbArc
 50
0.0
 51
90.0
  0
ARC
  5
79
100
AcDbEntity
  8
0
370
    -3
390
0
  6
Continuous
100
AcDbCircle
 10
-311.546396
 20
392.808932
 30
0.0
 40
3.0
100
AcDbArc
 50
0.0
 51
90.0
  0
ARC
  5
7A
100
AcDbEntity
  8
0
370
    -3
390
0
  6
Continuous
100
AcDbCircle
 10
-311.546396
 20
416.557162
 30
0.0
 40
3.0
100
AcDbArc
 50
270.0
 51
0.0
  0
LINE
  5
7B
100
AcDbEntity
  8
0
370
    -3
390
0
  6
CENTER
100
AcDbLine
 10
-348.581032
 20
292.137005
 30
0.0
 11
-300.193734
 21
292.137005
 31
0.0
  0
LINE
  5
7C
100
AcDbEntity
  8
0
370
    -3
390
0
  6
CENTER
100
AcDbLine
 10
-348.581032
 20
327.137005
 30
0.0
 11
-300.193734
 21
327.137005
 31
0.0
  0
LINE
  5
7D
100
AcDbEntity
  8
0
370
    -3
390
0
  6
Continuous
100
AcDbLine
 10
-277.546396
 20
109.859608
 30
0.0
 11
-273.546395
 21
108.40373
 31
0.0
  0
LINE
  5
7E
100
AcDbEntity
  8
0
370
    -3
390
0
  6
Continuous
100
AcDbLine
 10
-273.546395
 20
109.454965
 30
0.0
 11
-277.546395
 21
110.910842
 31
0.0
  0
LINE
  5
7F
100
AcDbEntity
  8
0
370
    -3
390
0
  6
Continuous
100
AcDbLine
 10
-292.546381
 20
97.637005
 30
0.0
 11
-292.546381
 21
121.637005
 31
0.0
  0
LINE
  5
80
100
AcDbEntity
  8
0
370
    -3
390
0
  6
Continuous
100
AcDbLine
 10
-292.546369
 20
121.637005
 30
0.0
 11
-293.546354
 21
119.905361
 31
0.0
  0
LINE
  5
81
100
AcDbEntity
  8
0
370
    -3
390
0
  6
Continuous
100
AcDbLine
 10
-292.546377
 20
97.637008
 30
0.0
 11
-293.546362
 21
99.36943
 31
0.0
  0
LINE
  5
82
100
AcDbEntity
  8
0
370
    -3
390
0
  6
Continuous
100
AcDbLine
 10
-273.546396
 20
123.637005
 30
0.0
 11
-277.546396
 21
123.637005
 31
0.0
  0
LINE
  5
83
100
AcDbEntity
  8
0
370
    -3
390
0
  6
Continuous
100
AcDbLine
 10
-273.546396
 20
95.637005
 30
0.0
 11
-277.546396
 21
95.637005
 31
0.0
  0
LINE
  5
84
100
AcDbEntity
  8
0
370
    -3
390
0
  6
Continuous
100
AcDbLine
 10
-277.546396
 20
121.637005
 30
0.0
 11
-292.546365
 21
121.637005
 31
0.0
  0
LINE
  5
85
100
AcDbEntity
  8
0
370
    -3
390
0
  6
Continuous
100
AcDbLine
 10
-277.546396
 20
97.637005
 30
0.0
 11
-292.546381
 21
97.637005
 31
0.0
  0
LINE
  5
86
100
AcDbEntity
  8
0
370
    -3
390
0
  6
Continuous
100
AcDbLine
 10
-293.546358
 20
119.905361
 30
0.0
 11
-293.546373
 21
99.369426
 31
0.0
  0
LINE
  5
87
100
AcDbEntity
  8
0
370
    -3
390
0
  6
Continuous
100
AcDbLine
 10
-277.546396
 20
123.637005
 30
0.0
 11
-277.546396
 21
95.637005
 31
0.0
  0
LINE
  5
88
100
AcDbEntity
  8
0
370
    -3
390
0
  6
Continuous
100
AcDbLine
 10
-273.546396
 20
95.637005
 30
0.0
 11
-273.546396
 21
123.637005
 31
0.0
  0
POINT
  5
89
100
AcDbEntity
  8
0
370
    -3
390
0
  6
Continuous
100
AcDbPoint
 10
-273.546396
 20
109.637005
 30
0.0
  0
LINE
  5
8A
100
AcDbEntity
  8
0
370
    -3
390
0
  6
Continuous
100
AcDbLine
 10
-277.546396
 20
139.859608
 30
0.0
 11
-273.546395
 21
138.40373
 31
0.0
  0
LINE
  5
8B
100
AcDbEntity
  8
0
370
    -3
390
0
  6
Continuous
100
AcDbLine
 10
-273.546395
 20
139.454965
 30
0.0
 11
-277.546395
 21
140.910842
 31
0.0
  0
LINE
  5
8C
100
AcDbEntity
  8
0
370
    -3
390
0
  6
Continuous
100
AcDbLine
 10
-292.546381
 20
127.637005
 30
0.0
 11
-292.546381
 21
151.637005
 31
0.0
  0
LINE
  5
8D
100
AcDbEntity
  8
0
370
    -3
390
0
  6
Continuous
100
AcDbLine
 10
-292.546369
 20
151.637005
 30
0.0
 11
-293.546354
 21
149.905361
 31
0.0
  0
LINE
  5
8E
100
AcDbEntity
  8
0
370
    -3
390
0
  6
Continuous
100
AcDbLine
 10
-292.546377
 20
127.637008
 30
0.0
 11
-293.546362
 21
129.36943
 31
0.0
  0
LINE
  5
8F
100
AcDbEntity
  8
0
370
    -3
390
0
  6
Continuous
100
AcDbLine
 10
-273.546396
 20
153.637005
 30
0.0
 11
-277.546396
 21
153.637005
 31
0.0
  0
LINE
  5
90
100
AcDbEntity
  8
0
370
    -3
390
0
  6
Continuous
100
AcDbLine
 10
-273.546396
 20
125.637005
 30
0.0
 11
-277.546396
 21
125.637005
 31
0.0
  0
LINE
  5
91
100
AcDbEntity
  8
0
370
    -3
390
0
  6
Continuous
100
AcDbLine
 10
-277.546396
 20
151.637005
 30
0.0
 11
-292.546365
 21
151.637005
 31
0.0
  0
LINE
  5
92
100
AcDbEntity
  8
0
370
    -3
390
0
  6
Continuous
100
AcDbLine
 10
-277.546396
 20
127.637005
 30
0.0
 11
-292.546381
 21
127.637005
 31
0.0
  0
LINE
  5
93
100
AcDbEntity
  8
0
370
    -3
390
0
  6
Continuous
100
AcDbLine
 10
-293.546358
 20
149.905361
 30
0.0
 11
-293.546373
 21
129.369426
 31
0.0
  0
LINE
  5
94
100
AcDbEntity
  8
0
370
    -3
390
0
  6
Continuous
100
AcDbLine
 10
-277.546396
 20
153.637005
 30
0.0
 11
-277.546396
 21
125.637005
 31
0.0
  0
LINE
  5
95
100
AcDbEntity
  8
0
370
    -3
390
0
  6
Continuous
100
AcDbLine
 10
-273.546396
 20
125.637005
 30
0.0
 11
-273.546396
 21
153.637005
 31
0.0
  0
POINT
  5
96
100
AcDbEntity
  8
0
370
    -3
390
0
  6
Continuous
100
AcDbPoint
 10
-273.546396
 20
139.637005
 30
0.0
  0
LINE
  5
97
100
AcDbEntity
  8
0
370
    -3
390
0
  6
Continuous
100
AcDbLine
 10
-277.546396
 20
225.859608
 30
0.0
 11
-273.546395
 21
224.40373
 31
0.0
  0
LINE
  5
98
100
AcDbEntity
  8
0
370
    -3
390
0
  6
Continuous
100
AcDbLine
 10
-273.546395
 20
225.454965
 30
0.0
 11
-277.546395
 21
226.910842
 31
0.0
  0
LINE
  5
99
100
AcDbEntity
  8
0
370
    -3
390
0
  6
Continuous
100
AcDbLine
 10
-292.546381
 20
213.637005
 30
0.0
 11
-292.546381
 21
237.637005
 31
0.0
  0
LINE
  5
9A
100
AcDbEntity
  8
0
370
    -3
390
0
  6
Continuous
100
AcDbLine
 10
-292.546369
 20
237.637005
 30
0.0
 11
-293.546354
 21
235.905361
 31
0.0
  0
LINE
  5
9B
100
AcDbEntity
  8
0
370
    -3
390
0
  6
Continuous
100
AcDbLine
 10
-292.546377
 20
213.637008
 30
0.0
 11
-293.546362
 21
215.36943
 31
0.0
  0
LINE
  5
9C
100
AcDbEntity
  8
0
370
    -3
390
0
  6
Continuous
100
AcDbLine
 10
-273.546396
 20
239.637005
 30
0.0
 11
-277.546396
 21
239.637005
 31
0.0
  0
LINE
  5
9D
100
AcDbEntity
  8
0
370
    -3
390
0
  6
Continuous
100
AcDbLine
 10
-273.546396
 20
211.637005
 30
0.0
 11
-277.546396
 21
211.637005
 31
0.0
  0
LINE
  5
9E
100
AcDbEntity
  8
0
370
    -3
390
0
  6
Continuous
100
AcDbLine
 10
-277.546396
 20
237.637005
 30
0.0
 11
-292.546365
 21
237.637005
 31
0.0
  0
LINE
  5
9F
100
AcDbEntity
  8
0
370
    -3
390
0
  6
Continuous
100
AcDbLine
 10
-277.546396
 20
213.637005
 30
0.0
 11
-292.546381
 21
213.637005
 31
0.0
  0
LINE
  5
A0
100
AcDbEntity
  8
0
370
    -3
390
0
  6
Continuous
100
AcDbLine
 10
-293.546358
 20
235.905361
 30
0.0
 11
-293.546373
 21
215.369426
 31
0.0
  0
LINE
  5
A1
100
AcDbEntity
  8
0
370
    -3
390
0
  6
Continuous
100
AcDbLine
 10
-277.546396
 20
239.637005
 30
0.0
 11
-277.546396
 21
211.637005
 31
0.0
  0
LINE
  5
A2
100
AcDbEntity
  8
0
370
    -3
390
0
  6
Continuous
100
AcDbLine
 10
-273.546396
 20
211.637005
 30
0.0
 11
-273.546396
 21
239.637005
 31
0.0
  0
POINT
  5
A3
100
AcDbEntity
  8
0
370
    -3
390
0
  6
Continuous
100
AcDbPoint
 10
-273.546396
 20
225.637005
 30
0.0
  0
LINE
  5
A4
100
AcDbEntity
  8
0
370
    -3
390
0
  6
Continuous
100
AcDbLine
 10
-277.546396
 20
393.414403
 30
0.0
 11
-273.546395
 21
394.87028
 31
0.0
  0
LINE
  5
A5
100
AcDbEntity
  8
0
370
    -3
390
0
  6
Continuous
100
AcDbLine
 10
-273.546395
 20
393.819046
 30
0.0
 11
-277.546395
 21
392.363168
 31
0.0
  0
LINE
  5
A6
100
AcDbEntity
  8
0
370
    -3
390
0
  6
Continuous
100
AcDbLine
 10
-292.546381
 20
405.637005
 30
0.0
 11
-292.546381
 21
381.637005
 31
0.0
  0
LINE
  5
A7
100
AcDbEntity
  8
0
370
    -3
390
0
  6
Continuous
100
AcDbLine
 10
-292.546369
 20
381.637005
 30
0.0
 11
-293.546354
 21
383.368649
 31
0.0
  0
LINE
  5
A8
100
AcDbEntity
  8
0
370
    -3
390
0
  6
Continuous
100
AcDbLine
 10
-292.546377
 20
405.637003
 30
0.0
 11
-293.546362
 21
403.904581
 31
0.0
  0
LINE
  5
A9
100
AcDbEntity
  8
0
370
    -3
390
0
  6
Continuous
100
AcDbLine
 10
-273.546396
 20
379.637005
 30
0.0
 11
-277.546396
 21
379.637005
 31
0.0
  0
LINE
  5
AA
100
AcDbEntity
  8
0
370
    -3
390
0
  6
Continuous
100
AcDbLine
 10
-273.546396
 20
407.637005
 30
0.0
 11
-277.546396
 21
407.637005
 31
0.0
  0
LINE
  5
AB
100
AcDbEntity
  8
0
370
    -3
390
0
  6
Continuous
100
AcDbLine
 10
-277.546396
 20
381.637005
 30
0.0
 11
-292.546365
 21
381.637005
 31
0.0
  0
LINE
  5
AC
100
AcDbEntity
  8
0
370
    -3
390
0
  6
Continuous
100
AcDbLine
 10
-277.546396
 20
405.637005
 30
0.0
 11
-292.546381
 21
405.637005
 31
0.0
  0
LINE
  5
AD
100
AcDbEntity
  8
0
370
    -3
390
0
  6
Continuous
100
AcDbLine
 10
-293.546358
 20
383.368649
 30
0.0
 11
-293.546373
 21
403.904585
 31
0.0
  0
LINE
  5
AE
100
AcDbEntity
  8
0
370
    -3
390
0
  6
Continuous
100
AcDbLine
 10
-277.546396
 20
379.637005
 30
0.0
 11
-277.546396
 21
407.637005
 31
0.0
  0
LINE
  5
AF
100
AcDbEntity
  8
0
370
    -3
390
0
  6
Continuous
100
AcDbLine
 10
-273.546396
 20
407.637005
 30
0.0
 11
-273.546396
 21
379.637005
 31
0.0
  0
POINT
  5
B0
100
AcDbEntity
  8
0
370
    -3
390
0
  6
Continuous
100
AcDbPoint
 10
-273.546396
 20
393.637005
 30
0.0
  0
LINE
  5
B1
100
AcDbEntity
  8
0
370
    -3
390
0
  6
Continuous
100
AcDbLine
 10
-277.546396
 20
479.414403
 30
0.0
 11
-273.546395
 21
480.87028
 31
0.0
  0
LINE
  5
B2
100
AcDbEntity
  8
0
370
    -3
390
0
  6
Continuous
100
AcDbLine
 10
-273.546395
 20
479.819046
 30
0.0
 11
-277.546395
 21
478.363168
 31
0.0
  0
LINE
  5
B3
100
AcDbEntity
  8
0
370
    -3
390
0
  6
Continuous
100
AcDbLine
 10
-292.546381
 20
491.637005
 30
0.0
 11
-292.546381
 21
467.637005
 31
0.0
  0
LINE
  5
B4
100
AcDbEntity
  8
0
370
    -3
390
0
  6
Continuous
100
AcDbLine
 10
-292.546369
 20
467.637005
 30
0.0
 11
-293.546354
 21
469.368649
 31
0.0
  0
LINE
  5
B5
100
AcDbEntity
  8
0
370
    -3
390
0
  6
Continuous
100
AcDbLine
 10
-292.546377
 20
491.637003
 30
0.0
 11
-293.546362
 21
489.904581
 31
0.0
  0
LINE
  5
B6
100
AcDbEntity
  8
0
370
    -3
390
0
  6
Continuous
100
AcDbLine
 10
-273.546396
 20
465.637005
 30
0.0
 11
-277.546396
 21
465.637005
 31
0.0
  0
LINE
  5
B7
100
AcDbEntity
  8
0
370
    -3
390
0
  6
Continuous
100
AcDbLine
 10
-273.546396
 20
493.637005
 30
0.0
 11
-277.546396
 21
493.637005
 31
0.0
  0
LINE
  5
B8
100
AcDbEntity
  8
0
370
    -3
390
0
  6
Continuous
100
AcDbLine
 10
-277.546396
 20
467.637005
 30
0.0
 11
-292.546365
 21
467.637005
 31
0.0
  0
LINE
  5
B9
100
AcDbEntity
  8
0
370
    -3
390
0
  6
Continuous
100
AcDbLine
 10
-277.546396
 20
491.637005
 30
0.0
 11
-292.546381
 21
491.637005
 31
0.0
  0
LINE
  5
BA
100
AcDbEntity
  8
0
370
    -3
390
0
  6
Continuous
100
AcDbLine
 10
-293.546358
 20
469.368649
 30
0.0
 11
-293.546373
 21
489.904585
 31
0.0
  0
LINE
  5
BB
100
AcDbEntity
  8
0
370
    -3
390
0
  6
Continuous
100
AcDbLine
 10
-277.546396
 20
465.637005
 30
0.0
 11
-277.546396
 21
493.637005
 31
0.0
  0
LINE
  5
BC
100
AcDbEntity
  8
0
370
    -3
390
0
  6
Continuous
100
AcDbLine
 10
-273.546396
 20
493.637005
 30
0.0
 11
-273.546396
 21
465.637005
 31
0.0
  0
POINT
  5
BD
100
AcDbEntity
  8
0
370
    -3
390
0
  6
Continuous
100
AcDbPoint
 10
-273.546396
 20
479.637005
 30
0.0
  0
LINE
  5
BE
100
AcDbEntity
  8
0
370
    -3
390
0
  6
Continuous
100
AcDbLine
 10
-277.546396
 20
509.414403
 30
0.0
 11
-273.546395
 21
510.87028
 31
0.0
  0
LINE
  5
BF
100
AcDbEntity
  8
0
370
    -3
390
0
  6
Continuous
100
AcDbLine
 10
-273.546395
 20
509.819046
 30
0.0
 11
-277.546395
 21
508.363168
 31
0.0
  0
LINE
  5
C0
100
AcDbEntity
  8
0
370
    -3
390
0
  6
Continuous
100
AcDbLine
 10
-292.546381
 20
521.637005
 30
0.0
 11
-292.546381
 21
497.637005
 31
0.0
  0
LINE
  5
C1
100
AcDbEntity
  8
0
370
    -3
390
0
  6
Continuous
100
AcDbLine
 10
-292.546369
 20
497.637005
 30
0.0
 11
-293.546354
 21
499.368649
 31
0.0
  0
LINE
  5
C2
100
AcDbEntity
  8
0
370
    -3
390
0
  6
Continuous
100
AcDbLine
 10
-292.546377
 20
521.637003
 30
0.0
 11
-293.546362
 21
519.904581
 31
0.0
  0
LINE
  5
C3
100
AcDbEntity
  8
0
370
    -3
390
0
  6
Continuous
100
AcDbLine
 10
-273.546396
 20
495.637005
 30
0.0
 11
-277.546396
 21
495.637005
 31
0.0
  0
LINE
  5
C4
100
AcDbEntity
  8
0
370
    -3
390
0
  6
Continuous
100
AcDbLine
 10
-273.546396
 20
523.637005
 30
0.0
 11
-277.546396
 21
523.637005
 31
0.0
  0
LINE
  5
C5
100
AcDbEntity
  8
0
370
    -3
390
0
  6
Continuous
100
AcDbLine
 10
-277.546396
 20
497.637005
 30
0.0
 11
-292.546365
 21
497.637005
 31
0.0
  0
LINE
  5
C6
100
AcDbEntity
  8
0
370
    -3
390
0
  6
Continuous
100
AcDbLine
 10
-277.546396
 20
521.637005
 30
0.0
 11
-292.546381
 21
521.637005
 31
0.0
  0
LINE
  5
C7
100
AcDbEntity
  8
0
370
    -3
390
0
  6
Continuous
100
AcDbLine
 10
-293.546358
 20
499.368649
 30
0.0
 11
-293.546373
 21
519.904585
 31
0.0
  0
LINE
  5
C8
100
AcDbEntity
  8
0
370
    -3
390
0
  6
Continuous
100
AcDbLine
 10
-277.546396
 20
495.637005
 30
0.0
 11
-277.546396
 21
523.637005
 31
0.0
  0
LINE
  5
C9
100
AcDbEntity
  8
0
370
    -3
390
0
  6
Continuous
100
AcDbLine
 10
-273.546396
 20
523.637005
 30
0.0
 11
-273.546396
 21
495.637005
 31
0.0
  0
POINT
  5
CA
100
AcDbEntity
  8
0
370
    -3
390
0
  6
Continuous
100
AcDbPoint
 10
-273.546396
 20
509.637005
 30
0.0
  0
LINE
  5
CB
100
AcDbEntity
  8
0
370
    -3
390
0
  6
Continuous
100
AcDbLine
 10
-249.546396
 20
526.637005
 30
0.0
 11
-249.546396
 21
309.637005
 31
0.0
  0
LINE
  5
CC
100
AcDbEntity
  8
0
370
    -3
390
0
  6
Continuous
100
AcDbLine
 10
-249.546396
 20
92.637005
 30
0.0
 11
-249.546396
 21
309.637005
 31
0.0
  0
LINE
  5
CD
100
AcDbEntity
  8
0
370
    -3
390
0
  6
Continuous
100
AcDbLine
 10
-105.088102
 20
149.637005
 30
0.0
 11
-83.546396
 21
149.637005
 31
0.0
  0
ARC
  5
CE
100
AcDbEntity
  8
0
370
    -3
390
0
  6
Continuous
100
AcDbCircle
 10
-92.546396
 20
157.637005
 30
0.0
 40
8.0
100
AcDbArc
 50
270.0
 51
0.0
  0
ARC
  5
CF
100
AcDbEntity
  8
0
370
    -3
390
0
  6
Continuous
100
AcDbCircle
 10
-83.546396
 20
184.637005
 30
0.0
 40
35.0
100
AcDbArc
 50
270.0
 51
0.0
  0
ARC
  5
D0
100
AcDbEntity
  8
0
370
    -3
390
0
  6
Continuous
100
AcDbCircle
 10
-79.546396
 20
299.637005
 30
0.0
 40
5.0
100
AcDbArc
 50
90.0
 51
180.0
  0
ARC
  5
D1
100
AcDbEntity
  8
0
370
    -3
390
0
  6
Continuous
100
AcDbCircle
 10
-58.546396
 20
299.637005
 30
0.0
 40
5.0
100
AcDbArc
 50
0.0
 51
90.0
  0
LINE
  5
D2
100
AcDbEntity
  8
0
370
    -3
390
0
  6
Continuous
100
AcDbLine
 10
-53.546396
 20
299.637005
 30
0.0
 11
-53.546396
 21
309.637005
 31
0.0
  0
LINE
  5
D3
100
AcDbEntity
  8
0
370
    -3
390
0
  6
Continuous
100
AcDbLine
 10
-58.546396
 20
304.637005
 30
0.0
 11
-79.546396
 21
304.637005
 31
0.0
  0
ARC
  5
D4
100
AcDbEntity
  8
0
370
    -3
390
0
  6
Continuous
100
AcDbCircle
 10
-76.546396
 20
211.637005
 30
0.0
 40
8.0
100
AcDbArc
 50
90.0
 51
180.0
  0
ARC
  5
D5
100
AcDbEntity
  8
0
370
    -3
390
0
  6
Continuous
100
AcDbCircle
 10
-56.546396
 20
227.637005
 30
0.0
 40
8.0
100
AcDbArc
 50
270.0
 51
0.0
  0
ARC
  5
D6
100
AcDbEntity
  8
0
370
    -3
390
0
  6
Continuous
100
AcDbCircle
 10
-45.546396
 20
241.637005
 30
0.0
 40
3.0
100
AcDbArc
 50
90.0
 51
180.0
  0
ARC
  5
D7
100
AcDbEntity
  8
0
370
    -3
390
0
  6
Continuous
100
AcDbCircle
 10
-40.546396
 20
247.637005
 30
0.0
 40
3.0
100
AcDbArc
 50
270.0
 51
311.810315
  0
LINE
  5
D8
100
AcDbEntity
  8
0
370
    -3
390
0
  6
Continuous
100
AcDbLine
 10
-40.546396
 20
244.637005
 30
0.0
 11
-45.546396
 21
244.637005
 31
0.0
  0
LINE
  5
D9
100
AcDbEntity
  8
0
370
    -3
390
0
  6
Continuous
100
AcDbLine
 10
-48.546396
 20
184.637005
 30
0.0
 11
-48.546396
 21
309.637005
 31
0.0
  0
LINE
  5
DA
100
AcDbEntity
  8
0
370
    -3
390
0
  6
Continuous
100
AcDbLine
 10
-56.546396
 20
219.637005
 30
0.0
 11
-76.546396
 21
219.637005
 31
0.0
  0
LINE
  5
DB
100
AcDbEntity
  8
0
370
    -3
390
0
  6
Continuous
100
AcDbLine
 10
-84.546396
 20
157.637005
 30
0.0
 11
-84.546396
 21
309.637005
 31
0.0
  0
LINE
  5
DC
100
AcDbEntity
  8
0
370
    -3
390
0
  6
Continuous
100
AcDbLine
 10
-38.546396
 20
245.400937
 30
0.0
 11
-38.546396
 21
309.637005
 31
0.0
  0
LINE
  5
DD
100
AcDbEntity
  8
0
370
    -3
390
0
  6
Continuous
100
AcDbLine
 10
-249.046396
 20
89.637005
 30
0.0
 11
-249.046396
 21
309.637005
 31
0.0
  0
LINE
  5
DE
100
AcDbEntity
  8
0
370
    -3
390
0
  6
Continuous
100
AcDbLine
 10
-105.088102
 20
149.637005
 30
0.0
 11
-230.046396
 21
149.637005
 31
0.0
  0
LINE
  5
DF
100
AcDbEntity
  8
0
370
    -3
390
0
  6
Continuous
100
AcDbLine
 10
-233.046396
 20
143.637005
 30
0.0
 11
-233.046396
 21
146.637005
 31
0.0
  0
LINE
  5
E0
100
AcDbEntity
  8
0
370
    -3
390
0
  6
Continuous
100
AcDbLine
 10
-236.046396
 20
140.637005
 30
0.0
 11
-249.046396
 21
140.637005
 31
0.0
  0
ARC
  5
E1
100
AcDbEntity
  8
0
370
    -3
390
0
  6
Continuous
100
AcDbCircle
 10
-236.046396
 20
143.637005
 30
0.0
 40
3.0
100
AcDbArc
 50
270.0
 51
0.0
  0
ARC
  5
E2
100
AcDbEntity
  8
0
370
    -3
390
0
  6
Continuous
100
AcDbCircle
 10
-230.046396
 20
146.637005
 30
0.0
 40
3.0
100
AcDbArc
 50
90.0
 51
180.0
  0
LINE
  5
E3
100
AcDbEntity
  8
0
370
    -3
390
0
  6
Continuous
100
AcDbLine
 10
-233.046396
 20
146.637005
 30
0.0
 11
-233.046396
 21
208.790224
 31
0.0
  0
LINE
  5
E4
100
AcDbEntity
  8
0
370
    -3
390
0
  6
Continuous
100
AcDbLine
 10
-212.046396
 20
208.790224
 30
0.0
 11
-249.046396
 21
208.790224
 31
0.0
  0
LINE
  5
E5
100
AcDbEntity
  8
0
370
    -3
390
0
  6
Continuous
100
AcDbLine
 10
-212.046396
 20
239.054811
 30
0.0
 11
-249.046396
 21
239.054811
 31
0.0
  0
LINE
  5
E6
100
AcDbEntity
  8
0
370
    -3
390
0
  6
Continuous
100
AcDbLine
 10
-209.046396
 20
211.790224
 30
0.0
 11
-209.046396
 21
236.054811
 31
0.0
  0
ARC
  5
E7
100
AcDbEntity
  8
0
370
    -3
390
0
  6
Continuous
100
AcDbCircle
 10
-212.046396
 20
211.790224
 30
0.0
 40
3.0
100
AcDbArc
 50
270.0
 51
0.0
  0
ARC
  5
E8
100
AcDbEntity
  8
0
370
    -3
390
0
  6
Continuous
100
AcDbCircle
 10
-212.046396
 20
236.054811
 30
0.0
 40
3.0
100
AcDbArc
 50
0.0
 51
90.0
  0
LINE
  5
E9
100
AcDbEntity
  8
0
370
    -3
390
0
  6
Continuous
100
AcDbLine
 10
-233.046396
 20
239.054811
 30
0.0
 11
-233.046396
 21
309.637005
 31
0.0
  0
LINE
  5
EA
100
AcDbEntity
  8
0
370
    -3
390
0
  6
Continuous
100
AcDbLine
 10
-142.046396
 20
95.637005
 30
0.0
 11
-142.046396
 21
117.637005
 31
0.0
  0
ARC
  5
EB
100
AcDbEntity
  8
0
370
    -3
390
0
  6
Continuous
100
AcDbCircle
 10
-148.046396
 20
95.637005
 30
0.0
 40
6.0
100
AcDbArc
 50
270.0
 51
0.0
  0
ARC
  5
EC
100
AcDbEntity
  8
0
370
    -3
390
0
  6
Continuous
100
AcDbCircle
 10
-134.046396
 20
141.637005
 30
0.0
 40
8.0
100
AcDbArc
 50
90.0
 51
180.0
  0
LINE
  5
ED
100
AcDbEntity
  8
0
370
    -3
390
0
  6
Continuous
100
AcDbLine
 10
-145.046396
 20
120.637005
 30
0.0
 11
-249.046396
 21
120.637005
 31
0.0
  0
LINE
  5
EE
100
AcDbEntity
  8
0
370
    -3
390
0
  6
Continuous
100
AcDbLine
 10
-142.046396
 20
117.637005
 30
0.0
 11
-142.046396
 21
141.637005
 31
0.0
  0
ARC
  5
EF
100
AcDbEntity
  8
0
370
    -3
390
0
  6
Continuous
100
AcDbCircle
 10
-145.046396
 20
123.637005
 30
0.0
 40
3.0
100
AcDbArc
 50
270.0
 51
0.0
  0
ARC
  5
F0
100
AcDbEntity
  8
0
370
    -3
390
0
  6
Continuous
100
AcDbCircle
 10
-145.046396
 20
117.637005
 30
0.0
 40
3.0
100
AcDbArc
 50
0.0
 51
90.0
  0
LINE
  5
F1
100
AcDbEntity
  8
0
370
    -3
390
0
  6
Continuous
100
AcDbLine
 10
-44.546396
 20
169.637005
 30
0.0
 11
-51.923619
 21
169.637005
 31
0.0
  0
LINE
  5
F2
100
AcDbEntity
  8
0
370
    -3
390
0
  6
Continuous
100
AcDbLine
 10
-38.546396
 20
95.637005
 30
0.0
 11
-38.546396
 21
160.297259
 31
0.0
  0
ARC
  5
F3
100
AcDbEntity
  8
0
370
    -3
390
0
  6
Continuous
100
AcDbCircle
 10
-44.546396
 20
95.637005
 30
0.0
 40
6.0
100
AcDbArc
 50
270.0
 51
0.0
  0
ARC
  5
F4
100
AcDbEntity
  8
0
370
    -3
390
0
  6
Continuous
100
AcDbCircle
 10
-44.546396
 20
163.637005
 30
0.0
 40
6.0
100
AcDbArc
 50
0.0
 51
90.0
  0
LINE
  5
F5
100
AcDbEntity
  8
0
370
    -3
390
0
  6
Continuous
100
AcDbLine
 10
-44.546396
 20
154.297259
 30
0.0
 11
-66.096473
 21
154.297259
 31
0.0
  0
LINE
  5
F6
100
AcDbEntity
  8
0
370
    -3
390
0
  6
Continuous
100
AcDbLine
 10
-38.546396
 20
160.297259
 30
0.0
 11
-38.546396
 21
163.637005
 31
0.0
  0
ARC
  5
F7
100
AcDbEntity
  8
0
370
    -3
390
0
  6
Continuous
100
AcDbCircle
 10
-44.546396
 20
148.297259
 30
0.0
 40
6.0
100
AcDbArc
 50
0.0
 51
90.0
  0
ARC
  5
F8
100
AcDbEntity
  8
0
370
    -3
390
0
  6
Continuous
100
AcDbCircle
 10
-44.546396
 20
160.297259
 30
0.0
 40
6.0
100
AcDbArc
 50
270.0
 51
0.0
  0
LINE
  5
F9
100
AcDbEntity
  8
0
370
    -3
390
0
  6
Continuous
100
AcDbLine
 10
-44.546396
 20
464.976751
 30
0.0
 11
-66.096473
 21
464.976751
 31
0.0
  0
LINE
  5
FA
100
AcDbEntity
  8
0
370
    -3
390
0
  6
Continuous
100
AcDbLine
 10
-44.546396
 20
449.637005
 30
0.0
 11
-51.923619
 21
449.637005
 31
0.0
  0
LINE
  5
FB
100
AcDbEntity
  8
0
370
    -3
390
0
  6
Continuous
100
AcDbLine
 10
-445.617464
 20
466.708073
 30
0.0
 11
-434.152056
 21
455.242665
 31
0.0
  0
ARC
  5
FC
100
AcDbEntity
  8
0
370
    -3
390
0
  6
Continuous
100
AcDbCircle
 10
-439.40426
 20
474.637005
 30
0.0
 40
10.0
100
AcDbArc
 50
225.0
 51
270.0
  0
ARC
  5
FD
100
AcDbEntity
  8
0
370
    -3
390
0
  6
Continuous
100
AcDbCircle
 10
-427.080988
 20
462.313733
 30
0.0
 40
10.0
100
AcDbArc
 50
225.0
 51
269.134135
  0
ARC
  5
FE
100
AcDbEntity
  8
0
370
    -3
390
0
  6
Continuous
100
AcDbCircle
 10
-438.546396
 20
473.779141
 30
0.0
 40
10.0
100
AcDbArc
 50
180.0
 51
225.0
  0
LINE
  5
FF
100
AcDbEntity
  8
0
370
    -3
390
0
  6
Continuous
100
AcDbLine
 10
-448.546396
 20
523.637005
 30
0.0
 11
-448.546396
 21
473.779141
 31
0.0
  0
ARC
  5
100
100
AcDbEntity
  8
0
370
    -3
390
0
  6
Continuous
100
AcDbCircle
 10
-442.546396
 20
523.637005
 30
0.0
 40
6.0
100
AcDbArc
 50
90.0
 51
180.0
  0
LINE
  5
101
100
AcDbEntity
  8
0
370
    -3
390
0
  6
Continuous
100
AcDbLine
 10
-44.546396
 20
529.637005
 30
0.0
 11
-442.546396
 21
529.637005
 31
0.0
  0
LINE
  5
102
100
AcDbEntity
  8
0
370
    -3
390
0
  6
Continuous
100
AcDbLine
 10
-38.546396
 20
523.637005
 30
0.0
 11
-38.546396
 21
458.976751
 31
0.0
  0
ARC
  5
103
100
AcDbEntity
  8
0
370
    -3
390
0
  6
Continuous
100
AcDbCircle
 10
-44.546396
 20
458.976751
 30
0.0
 40
6.0
100
AcDbArc
 50
0.0
 51
90.0
  0
LINE
  5
104
100
AcDbEntity
  8
0
370
    -3
390
0
  6
Continuous
100
AcDbLine
 10
-38.546396
 20
458.976751
 30
0.0
 11
-38.546396
 21
455.637005
 31
0.0
  0
ARC
  5
105
100
AcDbEntity
  8
0
370
    -3
390
0
  6
Continuous
100
AcDbCircle
 10
-44.546396
 20
470.976751
 30
0.0
 40
6.0
100
AcDbArc
 50
270.0
 51
0.0
  0
ARC
  5
106
100
AcDbEntity
  8
0
370
    -3
390
0
  6
Continuous
100
AcDbCircle
 10
-44.546396
 20
455.637005
 30
0.0
 40
6.0
100
AcDbArc
 50
270.0
 51
0.0
  0
ARC
  5
107
100
AcDbEntity
  8
0
370
    -3
390
0
  6
Continuous
100
AcDbCircle
 10
-44.546396
 20
523.637005
 30
0.0
 40
6.0
100
AcDbArc
 50
0.0
 51
90.0
  0
LINE
  5
108
100
AcDbEntity
  8
0
370
    -3
390
0
  6
Continuous
100
AcDbLine
 10
-142.046396
 20
501.637005
 30
0.0
 11
-142.046396
 21
477.637005
 31
0.0
  0
ARC
  5
109
100
AcDbEntity
  8
0
370
    -3
390
0
  6
Continuous
100
AcDbCircle
 10
-145.046396
 20
501.637005
 30
0.0
 40
3.0
100
AcDbArc
 50
270.0
 51
0.0
  0
LINE
  5
10A
100
AcDbEntity
  8
0
370
    -3
390
0
  6
Continuous
100
AcDbLine
 10
-142.046396
 20
523.637005
 30
0.0
 11
-142.046396
 21
501.637005
 31
0.0
  0
ARC
  5
10B
100
AcDbEntity
  8
0
370
    -3
390
0
  6
Continuous
100
AcDbCircle
 10
-145.046396
 20
495.637005
 30
0.0
 40
3.0
100
AcDbArc
 50
0.0
 51
90.0
  0
LINE
  5
10C
100
AcDbEntity
  8
0
370
    -3
390
0
  6
Continuous
100
AcDbLine
 10
-145.046396
 20
498.637005
 30
0.0
 11
-249.046396
 21
498.637005
 31
0.0
  0
LINE
  5
10D
100
AcDbEntity
  8
0
370
    -3
390
0
  6
Continuous
100
AcDbLine
 10
-105.088102
 20
469.637005
 30
0.0
 11
-230.046396
 21
469.637005
 31
0.0
  0
ARC
  5
10E
100
AcDbEntity
  8
0
370
    -3
390
0
  6
Continuous
100
AcDbCircle
 10
-230.046396
 20
472.637005
 30
0.0
 40
3.0
100
AcDbArc
 50
180.0
 51
270.0
  0
ARC
  5
10F
100
AcDbEntity
  8
0
370
    -3
390
0
  6
Continuous
100
AcDbCircle
 10
-134.046396
 20
477.637005
 30
0.0
 40
8.0
100
AcDbArc
 50
180.0
 51
270.0
  0
ARC
  5
110
100
AcDbEntity
  8
0
370
    -3
390
0
  6
Continuous
100
AcDbCircle
 10
-148.046396
 20
523.637005
 30
0.0
 40
6.0
100
AcDbArc
 50
0.0
 51
90.0
  0
LINE
  5
111
100
AcDbEntity
  8
0
370
    -3
390
0
  6
Continuous
100
AcDbLine
 10
-249.046396
 20
529.637005
 30
0.0
 11
-249.046396
 21
309.637005
 31
0.0
  0
LINE
  5
112
100
AcDbEntity
  8
0
370
    -3
390
0
  6
Continuous
100
AcDbLine
 10
-233.046396
 20
380.219199
 30
0.0
 11
-233.046396
 21
309.637005
 31
0.0
  0
LINE
  5
113
100
AcDbEntity
  8
0
370
    -3
390
0
  6
Continuous
100
AcDbLine
 10
-233.046396
 20
472.637005
 30
0.0
 11
-233.046396
 21
410.483786
 31
0.0
  0
ARC
  5
114
100
AcDbEntity
  8
0
370
    -3
390
0
  6
Continuous
100
AcDbCircle
 10
-212.046396
 20
383.219199
 30
0.0
 40
3.0
100
AcDbArc
 50
270.0
 51
0.0
  0
LINE
  5
115
100
AcDbEntity
  8
0
370
    -3
390
0
  6
Continuous
100
AcDbLine
 10
-212.046396
 20
380.219199
 30
0.0
 11
-249.046396
 21
380.219199
 31
0.0
  0
LINE
  5
116
100
AcDbEntity
  8
0
370
    -3
390
0
  6
Continuous
100
AcDbLine
 10
-209.046396
 20
407.483786
 30
0.0
 11
-209.046396
 21
383.219199
 31
0.0
  0
ARC
  5
117
100
AcDbEntity
  8
0
370
    -3
390
0
  6
Continuous
100
AcDbCircle
 10
-212.046396
 20
407.483786
 30
0.0
 40
3.0
100
AcDbArc
 50
0.0
 51
90.0
  0
LINE
  5
118
100
AcDbEntity
  8
0
370
    -3
390
0
  6
Continuous
100
AcDbLine
 10
-212.046396
 20
410.483786
 30
0.0
 11
-249.046396
 21
410.483786
 31
0.0
  0
LINE
  5
119
100
AcDbEntity
  8
0
370
    -3
390
0
  6
Continuous
100
AcDbLine
 10
-233.046396
 20
475.637005
 30
0.0
 11
-233.046396
 21
472.637005
 31
0.0
  0
ARC
  5
11A
100
AcDbEntity
  8
0
370
    -3
390
0
  6
Continuous
100
AcDbCircle
 10
-236.046396
 20
475.637005
 30
0.0
 40
3.0
100
AcDbArc
 50
0.0
 51
90.0
  0
LINE
  5
11B
100
AcDbEntity
  8
0
370
    -3
390
0
  6
Continuous
100
AcDbLine
 10
-236.046396
 20
478.637005
 30
0.0
 11
-249.046396
 21
478.637005
 31
0.0
  0
LINE
  5
11C
100
AcDbEntity
  8
0
370
    -3
390
0
  6
Continuous
100
AcDbLine
 10
-84.546396
 20
461.637005
 30
0.0
 11
-84.546396
 21
309.637005
 31
0.0
  0
LINE
  5
11D
100
AcDbEntity
  8
0
370
    -3
390
0
  6
Continuous
100
AcDbLine
 10
-53.546396
 20
319.637005
 30
0.0
 11
-53.546396
 21
309.637005
 31
0.0
  0
LINE
  5
11E
100
AcDbEntity
  8
0
370
    -3
390
0
  6
Continuous
100
AcDbLine
 10
-48.546396
 20
434.637005
 30
0.0
 11
-48.546396
 21
309.637005
 31
0.0
  0
LINE
  5
11F
100
AcDbEntity
  8
0
370
    -3
390
0
  6
Continuous
100
AcDbLine
 10
-38.546396
 20
373.873073
 30
0.0
 11
-38.546396
 21
309.637005
 31
0.0
  0
ARC
  5
120
100
AcDbEntity
  8
0
370
    -3
390
0
  6
Continuous
100
AcDbCircle
 10
-40.546396
 20
371.637005
 30
0.0
 40
3.0
100
AcDbArc
 50
48.189685
 51
90.0
  0
LINE
  5
121
100
AcDbEntity
  8
0
370
    -3
390
0
  6
Continuous
100
AcDbLine
 10
-105.088102
 20
469.637005
 30
0.0
 11
-83.546396
 21
469.637005
 31
0.0
  0
ARC
  5
122
100
AcDbEntity
  8
0
370
    -3
390
0
  6
Continuous
100
AcDbCircle
 10
-92.546396
 20
461.637005
 30
0.0
 40
8.0
100
AcDbArc
 50
0.0
 51
90.0
  0
ARC
  5
123
100
AcDbEntity
  8
0
370
    -3
390
0
  6
Continuous
100
AcDbCircle
 10
-83.546396
 20
434.637005
 30
0.0
 40
35.0
100
AcDbArc
 50
0.0
 51
90.0
  0
ARC
  5
124
100
AcDbEntity
  8
0
370
    -3
390
0
  6
Continuous
100
AcDbCircle
 10
-79.546396
 20
319.637005
 30
0.0
 40
5.0
100
AcDbArc
 50
180.0
 51
270.0
  0
ARC
  5
125
100
AcDbEntity
  8
0
370
    -3
390
0
  6
Continuous
100
AcDbCircle
 10
-58.546396
 20
319.637005
 30
0.0
 40
5.0
100
AcDbArc
 50
270.0
 51
0.0
  0
LINE
  5
126
100
AcDbEntity
  8
0
370
    -3
390
0
  6
Continuous
100
AcDbLine
 10
-58.546396
 20
314.637005
 30
0.0
 11
-79.546396
 21
314.637005
 31
0.0
  0
ARC
  5
127
100
AcDbEntity
  8
0
370
    -3
390
0
  6
Continuous
100
AcDbCircle
 10
-76.546396
 20
407.637005
 30
0.0
 40
8.0
100
AcDbArc
 50
180.0
 51
270.0
  0
ARC
  5
128
100
AcDbEntity
  8
0
370
    -3
390
0
  6
Continuous
100
AcDbCircle
 10
-56.546396
 20
391.637005
 30
0.0
 40
8.0
100
AcDbArc
 50
0.0
 51
90.0
  0
ARC
  5
129
100
AcDbEntity
  8
0
370
    -3
390
0
  6
Continuous
100
AcDbCircle
 10
-45.546396
 20
377.637005
 30
0.0
 40
3.0
100
AcDbArc
 50
180.0
 51
270.0
  0
LINE
  5
12A
100
AcDbEntity
  8
0
370
    -3
390
0
  6
Continuous
100
AcDbLine
 10
-40.546396
 20
374.637005
 30
0.0
 11
-45.546396
 21
374.637005
 31
0.0
  0
LINE
  5
12B
100
AcDbEntity
  8
0
370
    -3
390
0
  6
Continuous
100
AcDbLine
 10
-56.546396
 20
399.637005
 30
0.0
 11
-76.546396
 21
399.637005
 31
0.0
  0
LINE
  5
12C
100
AcDbEntity
  8
0
370
    -3
390
0
  6
Continuous
100
AcDbLine
 10
-102.046396
 20
105.637005
 30
0.0
 11
-142.046396
 21
105.637005
 31
0.0
  0
LINE
  5
12D
100
AcDbEntity
  8
0
370
    -3
390
0
  6
Continuous
100
AcDbLine
 10
-102.046396
 20
89.637005
 30
0.0
 11
-102.046396
 21
105.637005
 31
0.0
  0
LINE
  5
12E
100
AcDbEntity
  8
0
370
    -3
390
0
  6
Continuous
100
AcDbLine
 10
-97.046396
 20
110.637005
 30
0.0
 11
-97.046396
 21
117.637005
 31
0.0
  0
ARC
  5
12F
100
AcDbEntity
  8
0
370
    -3
390
0
  6
Continuous
100
AcDbCircle
 10
-102.046396
 20
110.637005
 30
0.0
 40
5.0
100
AcDbArc
 50
270.0
 51
0.0
  0
CIRCLE
  5
130
100
AcDbEntity
  8
0
370
    -3
390
0
  6
Continuous
100
AcDbCircle
 10
-68.546396
 20
129.637005
 30
0.0
 40
14.0
  0
LINE
  5
131
100
AcDbEntity
  8
0
370
    -3
390
0
  6
Continuous
100
AcDbLine
 10
-293.546368
 20
513.637005
 30
0.0
 11
-388.546396
 21
513.637005
 31
0.0
  0
LINE
  5
132
100
AcDbEntity
  8
0
370
    -3
390
0
  6
Continuous
100
AcDbLine
 10
-388.546396
 20
529.637005
 30
0.0
 11
-388.546396
 21
513.637005
 31
0.0
  0
ARC
  5
133
100
AcDbEntity
  8
0
370
    -3
390
0
  6
Continuous
100
AcDbCircle
 10
-388.546396
 20
503.637005
 30
0.0
 40
10.0
100
AcDbArc
 50
90.0
 51
180.0
  0
CIRCLE
  5
134
100
AcDbEntity
  8
0
370
    -3
390
0
  6
Continuous
100
AcDbCircle
 10
-418.546396
 20
489.637005
 30
0.0
 40
14.0
  0
LINE
  5
135
100
AcDbEntity
  8
0
370
    -3
390
0
  6
Continuous
100
AcDbLine
 10
-102.046396
 20
513.637005
 30
0.0
 11
-142.046396
 21
513.637005
 31
0.0
  0
LINE
  5
136
100
AcDbEntity
  8
0
370
    -3
390
0
  6
Continuous
100
AcDbLine
 10
-102.046396
 20
529.637005
 30
0.0
 11
-102.046396
 21
513.637005
 31
0.0
  0
ARC
  5
137
100
AcDbEntity
  8
0
370
    -3
390
0
  6
Continuous
100
AcDbCircle
 10
-102.046396
 20
508.637005
 30
0.0
 40
5.0
100
AcDbArc
 50
0.0
 51
90.0
  0
LINE
  5
138
100
AcDbEntity
  8
0
370
    -3
390
0
  6
Continuous
100
AcDbLine
 10
-97.046396
 20
508.637005
 30
0.0
 11
-97.046396
 21
501.637005
 31
0.0
  0
CIRCLE
  5
139
100
AcDbEntity
  8
0
370
    -3
390
0
  6
Continuous
100
AcDbCircle
 10
-68.546396
 20
489.637005
 30
0.0
 40
14.0
  0
LINE
  5
13A
100
AcDbEntity
  8
0
370
    -3
390
0
  6
CENTER
100
AcDbLine
 10
-437.546396
 20
489.637005
 30
0.0
 11
-399.546396
 21
489.637005
 31
0.0
  0
LINE
  5
13B
100
AcDbEntity
  8
0
370
    -3
390
0
  6
CENTER
100
AcDbLine
 10
-418.546396
 20
508.637005
 30
0.0
 11
-418.546396
 21
470.637005
 31
0.0
  0
LINE
  5
13C
100
AcDbEntity
  8
0
370
    -3
390
0
  6
CENTER
100
AcDbLine
 10
-87.546396
 20
489.637005
 30
0.0
 11
-49.546396
 21
489.637005
 31
0.0
  0
LINE
  5
13D
100
AcDbEntity
  8
0
370
    -3
390
0
  6
CENTER
100
AcDbLine
 10
-68.546396
 20
508.637005
 30
0.0
 11
-68.546396
 21
470.637005
 31
0.0
  0
LINE
  5
13E
100
AcDbEntity
  8
0
370
    -3
390
0
  6
CENTER
100
AcDbLine
 10
-87.546396
 20
129.637005
 30
0.0
 11
-49.546396
 21
129.637005
 31
0.0
  0
LINE
  5
13F
100
AcDbEntity
  8
0
370
    -3
390
0
  6
CENTER
100
AcDbLine
 10
-68.546396
 20
148.637005
 30
0.0
 11
-68.546396
 21
110.637005
 31
0.0
  0
LINE
  5
140
100
AcDbEntity
  8
0
370
    -3
390
0
  6
CENTER
100
AcDbLine
 10
-437.546396
 20
129.637005
 30
0.0
 11
-399.546396
 21
129.637005
 31
0.0
  0
LINE
  5
141
100
AcDbEntity
  8
0
370
    -3
390
0
  6
CENTER
100
AcDbLine
 10
-418.546396
 20
148.637005
 30
0.0
 11
-418.546396
 21
110.637005
 31
0.0
  0
LINE
  5
142
100
AcDbEntity
  8
0
370
    -3
390
0
  6
Continuous
100
AcDbLine
 10
71.453604
 20
344.637005
 30
0.0
 11
71.453604
 21
274.637005
 31
0.0
  0
LINE
  5
143
100
AcDbEntity
  8
0
370
    -3
390
0
  6
Continuous
100
AcDbLine
 10
71.453604
 20
344.637005
 30
0.0
 11
-33.546396
 21
344.637005
 31
0.0
  0
LINE
  5
144
100
AcDbEntity
  8
0
370
    -3
390
0
  6
Continuous
100
AcDbLine
 10
71.453604
 20
274.637005
 30
0.0
 11
-33.546396
 21
274.637005
 31
0.0
  0
LINE
  5
145
100
AcDbEntity
  8
0
370
    -3
390
0
  6
Continuous
100
AcDbLine
 10
-8.546396
 20
319.637005
 30
0.0
 11
-8.546396
 21
299.637005
 31
0.0
  0
LINE
  5
146
100
AcDbEntity
  8
0
370
    -3
390
0
  6
Continuous
100
AcDbLine
 10
-33.546396
 20
347.137005
 30
0.0
 11
-33.546396
 21
272.137005
 31
0.0
  0
LINE
  5
147
100
AcDbEntity
  8
0
370
    -3
390
0
  6
Continuous
100
AcDbLine
 10
-33.546396
 20
347.137005
 30
0.0
 11
-38.546396
 21
347.137005
 31
0.0
  0
LINE
  5
148
100
AcDbEntity
  8
0
370
    -3
390
0
  6
Continuous
100
AcDbLine
 10
-33.546396
 20
272.137005
 30
0.0
 11
-38.546396
 21
272.137005
 31
0.0
  0
LINE
  5
149
100
AcDbEntity
  8
0
370
    -3
390
0
  6
Continuous
100
AcDbLine
 10
71.453604
 20
319.637005
 30
0.0
 11
-8.546396
 21
319.637005
 31
0.0
  0
LINE
  5
14A
100
AcDbEntity
  8
0
370
    -3
390
0
  6
Continuous
100
AcDbLine
 10
71.453604
 20
299.637005
 30
0.0
 11
-8.546396
 21
299.637005
 31
0.0
  0
ARC
  5
14B
100
AcDbEntity
  8
0
370
    -3
390
0
  6
Continuous
100
AcDbCircle
 10
-8.546396
 20
309.637005
 30
0.0
 40
10.0
100
AcDbArc
 50
90.0
 51
270.0
  0
ARC
  5
14C
100
AcDbEntity
  8
0
370
    -3
390
0
  6
Continuous
100
AcDbCircle
 10
-271.546396
 20
496.637005
 30
0.0
 40
2.0
100
AcDbArc
 50
90.0
 51
180.0
  0
LINE
  5
14D
100
AcDbEntity
  8
0
370
    -3
390
0
  6
Continuous
100
AcDbLine
 10
-273.546396
 20
462.637005
 30
0.0
 11
-273.546396
 21
524.637005
 31
0.0
  0
LINE
  5
14E
100
AcDbEntity
  8
0
370
    -3
390
0
  6
Continuous
100
AcDbLine
 10
-289.546396
 20
467.637005
 30
0.0
 11
-289.546396
 21
405.637005
 31
0.0
  0
LINE
  5
14F
100
AcDbEntity
  8
0
370
    -3
390
0
  6
CENTER
100
AcDbLine
 10
-259.305399
 20
509.637005
 30
0.0
 11
-300.048312
 21
509.637005
 31
0.0
  0
LINE
  5
150
100
AcDbEntity
  8
0
370
    -3
390
0
  6
CENTER
100
AcDbLine
 10
-259.069082
 20
479.637005
 30
0.0
 11
-300.548312
 21
479.637005
 31
0.0
  0
LINE
  5
151
100
AcDbEntity
  8
0
370
    -3
390
0
  6
CENTER
100
AcDbLine
 10
-258.823643
 20
393.637005
 30
0.0
 11
-299.811994
 21
393.637005
 31
0.0
  0
LINE
  5
152
100
AcDbEntity
  8
0
370
    -3
390
0
  6
Continuous
100
AcDbLine
 10
-281.615876
 20
405.637005
 30
0.0
 11
-271.660402
 21
433.845945
 31
0.0
  0
LINE
  5
153
100
AcDbEntity
  8
0
370
    -3
390
0
  6
Continuous
100
AcDbLine
 10
-268.546396
 20
478.637005
 30
0.0
 11
-271.546396
 21
478.637005
 31
0.0
  0
ARC
  5
154
100
AcDbEntity
  8
0
370
    -3
390
0
  6
Continuous
100
AcDbCircle
 10
-268.546396
 20
475.637005
 30
0.0
 40
3.0
100
AcDbArc
 50
0.0
 51
90.0
  0
LINE
  5
155
100
AcDbEntity
  8
0
370
    -3
390
0
  6
Continuous
100
AcDbLine
 10
-265.546396
 20
475.637005
 30
0.0
 11
-265.546396
 21
309.637005
 31
0.0
  0
ARC
  5
156
100
AcDbEntity
  8
0
370
    -3
390
0
  6
Continuous
100
AcDbCircle
 10
-273.546396
 20
434.511548
 30
0.0
 40
2.0
100
AcDbArc
 50
340.56109
 51
0.0
  0
ARC
  5
157
100
AcDbEntity
  8
0
370
    -3
390
0
  6
Continuous
100
AcDbCircle
 10
-271.546396
 20
524.637005
 30
0.0
 40
2.0
100
AcDbArc
 50
90.0
 51
180.0
  0
LINE
  5
158
100
AcDbEntity
  8
0
370
    -3
390
0
  6
Continuous
100
AcDbLine
 10
-271.546396
 20
526.637005
 30
0.0
 11
-249.046396
 21
526.637005
 31
0.0
  0
ARC
  5
159
100
AcDbEntity
  8
0
370
    -3
390
0
  6
Continuous
100
AcDbCircle
 10
-271.546396
 20
462.637005
 30
0.0
 40
2.0
100
AcDbArc
 50
180.0
 51
270.0
  0
ARC
  5
15A
100
AcDbEntity
  8
0
370
    -3
390
0
  6
Continuous
100
AcDbCircle
 10
-267.546396
 20
411.636154
 30
0.0
 40
2.0
100
AcDbArc
 50
270.0
 51
0.0
  0
ARC
  5
15B
100
AcDbEntity
  8
0
370
    -3
390
0
  6
Continuous
100
AcDbCircle
 10
-267.546396
 20
381.054268
 30
0.0
 40
2.0
100
AcDbArc
 50
0.0
 51
90.0
  0
ARC
  5
15C
100
AcDbEntity
  8
0
370
    -3
390
0
  6
Continuous
100
AcDbCircle
 10
-271.546396
 20
378.637005
 30
0.0
 40
2.0
100
AcDbArc
 50
180.0
 51
270.0
  0
ARC
  5
15D
100
AcDbEntity
  8
0
370
    -3
390
0
  6
Continuous
100
AcDbCircle
 10
-271.546396
 20
408.637005
 30
0.0
 40
2.0
100
AcDbArc
 50
90.0
 51
180.0
  0
ARC
  5
15E
100
AcDbEntity
  8
0
370
    -3
390
0
  6
Continuous
100
AcDbCircle
 10
-272.546396
 20
324.137005
 30
0.0
 40
3.0
100
AcDbArc
 50
90.0
 51
180.0
  0
LINE
  5
15F
100
AcDbEntity
  8
0
370
    -3
390
0
  6
Continuous
100
AcDbLine
 10
-272.546396
 20
327.137005
 30
0.0
 11
-271.546396
 21
327.137005
 31
0.0
  0
LINE
  5
160
100
AcDbEntity
  8
0
370
    -3
390
0
  6
Continuous
100
AcDbLine
 10
-271.546396
 20
383.054268
 30
0.0
 11
-271.546396
 21
309.637005
 31
0.0
  0
LINE
  5
161
100
AcDbEntity
  8
0
370
    -3
390
0
  6
Continuous
100
AcDbLine
 10
-271.546396
 20
409.636154
 30
0.0
 11
-267.546396
 21
409.636154
 31
0.0
  0
LINE
  5
162
100
AcDbEntity
  8
0
370
    -3
390
0
  6
Continuous
100
AcDbLine
 10
-271.546396
 20
383.054268
 30
0.0
 11
-267.546396
 21
383.054268
 31
0.0
  0
LINE
  5
163
100
AcDbEntity
  8
0
370
    -3
390
0
  6
Continuous
100
AcDbLine
 10
-273.546396
 20
408.637005
 30
0.0
 11
-273.546396
 21
378.637005
 31
0.0
  0
LINE
  5
164
100
AcDbEntity
  8
0
370
    -3
390
0
  6
Continuous
100
AcDbLine
 10
-271.546396
 20
526.637005
 30
0.0
 11
-271.546396
 21
383.054268
 31
0.0
  0
LINE
  5
165
100
AcDbEntity
  8
0
370
    -3
390
0
  6
Continuous
100
AcDbLine
 10
-249.046396
 20
526.637005
 30
0.0
 11
-249.046396
 21
309.637005
 31
0.0
  0
ARC
  5
166
100
AcDbEntity
  8
0
370
    -3
390
0
  6
Continuous
100
AcDbCircle
 10
-271.546396
 20
122.637005
 30
0.0
 40
2.0
100
AcDbArc
 50
180.0
 51
270.0
  0
LINE
  5
167
100
AcDbEntity
  8
0
370
    -3
390
0
  6
Continuous
100
AcDbLine
 10
-273.546396
 20
156.637005
 30
0.0
 11
-273.546396
 21
94.637005
 31
0.0
  0
LINE
  5
168
100
AcDbEntity
  8
0
370
    -3
390
0
  6
Continuous
100
AcDbLine
 10
-289.546396
 20
151.637005
 30
0.0
 11
-289.546396
 21
213.637005
 31
0.0
  0
LINE
  5
169
100
AcDbEntity
  8
0
370
    -3
390
0
  6
CENTER
100
AcDbLine
 10
-259.305399
 20
109.637005
 30
0.0
 11
-300.048312
 21
109.637005
 31
0.0
  0
LINE
  5
16A
100
AcDbEntity
  8
0
370
    -3
390
0
  6
CENTER
100
AcDbLine
 10
-259.069082
 20
139.637005
 30
0.0
 11
-300.548312
 21
139.637005
 31
0.0
  0
LINE
  5
16B
100
AcDbEntity
  8
0
370
    -3
390
0
  6
CENTER
100
AcDbLine
 10
-258.823643
 20
225.637005
 30
0.0
 11
-299.811994
 21
225.637005
 31
0.0
  0
LINE
  5
16C
100
AcDbEntity
  8
0
370
    -3
390
0
  6
Continuous
100
AcDbLine
 10
-281.615876
 20
213.637005
 30
0.0
 11
-271.660402
 21
185.428065
 31
0.0
  0
LINE
  5
16D
100
AcDbEntity
  8
0
370
    -3
390
0
  6
Continuous
100
AcDbLine
 10
-268.546396
 20
140.637005
 30
0.0
 11
-271.546396
 21
140.637005
 31
0.0
  0
ARC
  5
16E
100
AcDbEntity
  8
0
370
    -3
390
0
  6
Continuous
100
AcDbCircle
 10
-268.546396
 20
143.637005
 30
0.0
 40
3.0
100
AcDbArc
 50
270.0
 51
0.0
  0
LINE
  5
16F
100
AcDbEntity
  8
0
370
    -3
390
0
  6
Continuous
100
AcDbLine
 10
-265.546396
 20
143.637005
 30
0.0
 11
-265.546396
 21
309.637005
 31
0.0
  0
ARC
  5
170
100
AcDbEntity
  8
0
370
    -3
390
0
  6
Continuous
100
AcDbCircle
 10
-273.546396
 20
184.762462
 30
0.0
 40
2.0
100
AcDbArc
 50
0.0
 51
19.43891
  0
ARC
  5
171
100
AcDbEntity
  8
0
370
    -3
390
0
  6
Continuous
100
AcDbCircle
 10
-271.546396
 20
94.637005
 30
0.0
 40
2.0
100
AcDbArc
 50
180.0
 51
270.0
  0
LINE
  5
172
100
AcDbEntity
  8
0
370
    -3
390
0
  6
Continuous
100
AcDbLine
 10
-271.546396
 20
92.637005
 30
0.0
 11
-249.046396
 21
92.637005
 31
0.0
  0
ARC
  5
173
100
AcDbEntity
  8
0
370
    -3
390
0
  6
Continuous
100
AcDbCircle
 10
-271.546396
 20
156.637005
 30
0.0
 40
2.0
100
AcDbArc
 50
90.0
 51
180.0
  0
ARC
  5
174
100
AcDbEntity
  8
0
370
    -3
390
0
  6
Continuous
100
AcDbCircle
 10
-267.546396
 20
207.637856
 30
0.0
 40
2.0
100
AcDbArc
 50
0.0
 51
90.0
  0
ARC
  5
175
100
AcDbEntity
  8
0
370
    -3
390
0
  6
Continuous
100
AcDbCircle
 10
-267.546396
 20
238.219743
 30
0.0
 40
2.0
100
AcDbArc
 50
270.0
 51
0.0
  0
ARC
  5
176
100
AcDbEntity
  8
0
370
    -3
390
0
  6
Continuous
100
AcDbCircle
 10
-271.546396
 20
240.637005
 30
0.0
 40
2.0
100
AcDbArc
 50
90.0
 51
180.0
  0
ARC
  5
177
100
AcDbEntity
  8
0
370
    -3
390
0
  6
Continuous
100
AcDbCircle
 10
-271.546396
 20
210.637005
 30
0.0
 40
2.0
100
AcDbArc
 50
180.0
 51
270.0
  0
ARC
  5
178
100
AcDbEntity
  8
0
370
    -3
390
0
  6
Continuous
100
AcDbCircle
 10
-272.546396
 20
295.137005
 30
0.0
 40
3.0
100
AcDbArc
 50
180.0
 51
270.0
  0
LINE
  5
179
100
AcDbEntity
  8
0
370
    -3
390
0
  6
Continuous
100
AcDbLine
 10
-272.546396
 20
292.137005
 30
0.0
 11
-271.546396
 21
292.137005
 31
0.0
  0
LINE
  5
17A
100
AcDbEntity
  8
0
370
    -3
390
0
  6
Continuous
100
AcDbLine
 10
-271.546396
 20
236.219743
 30
0.0
 11
-271.546396
 21
309.637005
 31
0.0
  0
LINE
  5
17B
100
AcDbEntity
  8
0
370
    -3
390
0
  6
Continuous
100
AcDbLine
 10
-271.546396
 20
209.637856
 30
0.0
 11
-267.546396
 21
209.637856
 31
0.0
  0
LINE
  5
17C
100
AcDbEntity
  8
0
370
    -3
390
0
  6
Continuous
100
AcDbLine
 10
-271.546396
 20
236.219743
 30
0.0
 11
-267.546396
 21
236.219743
 31
0.0
  0
LINE
  5
17D
100
AcDbEntity
  8
0
370
    -3
390
0
  6
Continuous
100
AcDbLine
 10
-273.546396
 20
210.637005
 30
0.0
 11
-273.546396
 21
240.637005
 31
0.0
  0
LINE
  5
17E
100
AcDbEntity
  8
0
370
    -3
390
0
  6
Continuous
100
AcDbLine
 10
-271.546396
 20
92.637005
 30
0.0
 11
-271.546396
 21
236.219743
 31
0.0
  0
LINE
  5
17F
100
AcDbEntity
  8
0
370
    -3
390
0
  6
Continuous
100
AcDbLine
 10
-249.046396
 20
92.637005
 30
0.0
 11
-249.046396
 21
309.637005
 31
0.0
  0
LINE
  5
180
100
AcDbEntity
  8
0
370
    -3
390
0
  6
Continuous
100
AcDbLine
 10
-372.834844
 20
167.78126
 30
0.0
 11
-308.546396
 21
168.752874
 31
0.0
  0
LINE
  5
181
100
AcDbEntity
  8
0
370
    -3
390
0
  6
CENTER
100
AcDbLine
 10
-209.046396
 20
288.683356
 30
0.0
 11
-209.046396
 21
331.276772
 31
0.0
  0
ARC
  5
182
100
AcDbEntity
  8
0
370
    -3
390
0
  6
Continuous
100
AcDbCircle
 10
-209.046396
 20
309.637005
 30
0.0
 40
17.5
100
AcDbArc
 50
0.0
 51
90.0
  0
CIRCLE
  5
183
100
AcDbEntity
  8
0
370
    -3
390
0
  6
Continuous
100
AcDbCircle
 10
-209.046396
 20
309.637005
 30
0.0
 40
16.0
  0
LINE
  5
184
100
AcDbEntity
  8
0
370
    -3
390
0
  6
Continuous
100
AcDbLine
 10
-209.046396
 20
327.137005
 30
0.0
 11
-231.046396
 21
327.137005
 31
0.0
  0
ARC
  5
185
100
AcDbEntity
  8
0
370
    -3
390
0
  6
Continuous
100
AcDbCircle
 10
-231.046396
 20
329.137005
 30
0.0
 40
2.0
100
AcDbArc
 50
180.0
 51
270.0
  0
LINE
  5
186
100
AcDbEntity
  8
0
370
    -3
390
0
  6
Continuous
100
AcDbLine
 10
-209.046396
 20
292.137005
 30
0.0
 11
-231.046396
 21
292.137005
 31
0.0
  0
ARC
  5
187
100
AcDbEntity
  8
0
370
    -3
390
0
  6
Continuous
100
AcDbCircle
 10
-231.046396
 20
290.137005
 30
0.0
 40
2.0
100
AcDbArc
 50
90.0
 51
180.0
  0
ARC
  5
188
100
AcDbEntity
  8
0
370
    -3
390
0
  6
Continuous
100
AcDbCircle
 10
-209.046396
 20
309.637005
 30
0.0
 40
17.5
100
AcDbArc
 50
270.0
 51
0.0
  0
LINE
  5
189
100
AcDbEntity
  8
0
370
    -3
390
0
  6
Continuous
100
AcDbLine
 10
-372.546396
 20
105.637005
 30
0.0
 11
-388.546396
 21
105.637005
 31
0.0
  0
LINE
  5
18A
100
AcDbEntity
  8
0
370
    -3
390
0
  6
Continuous
100
AcDbLine
 10
-44.546396
 20
89.637005
 30
0.0
 11
-372.546396
 21
89.637005
 31
0.0
  0
LINE
  5
18B
100
AcDbEntity
  8
0
370
    -3
390
0
  6
Continuous
100
AcDbLine
 10
-388.546396
 20
89.637005
 30
0.0
 11
-388.546396
 21
105.637005
 31
0.0
  0
ARC
  5
18C
100
AcDbEntity
  8
0
370
    -3
390
0
  6
Continuous
100
AcDbCircle
 10
-388.546396
 20
115.637005
 30
0.0
 40
10.0
100
AcDbArc
 50
180.0
 51
270.0
  0
LINE
  5
18D
100
AcDbEntity
  8
0
370
    -3
390
0
  6
Continuous
100
AcDbLine
 10
-293.546368
 20
105.637005
 30
0.0
 11
-372.546396
 21
105.637005
 31
0.0
  0
LINE
  5
18E
100
AcDbEntity
  8
0
370
    -3
390
0
  6
Continuous
100
AcDbLine
 10
-448.546396
 20
140.167005
 30
0.0
 11
-448.546396
 21
145.49487
 31
0.0
  0
ARC
  5
18F
100
AcDbEntity
  8
0
370
    -3
390
0
  6
Continuous
100
AcDbCircle
 10
-438.546396
 20
145.49487
 30
0.0
 40
10.0
100
AcDbArc
 50
135.0
 51
180.0
  0
ARC
  5
190
100
AcDbEntity
  8
0
370
    -3
390
0
  6
Continuous
100
AcDbCircle
 10
-439.40426
 20
144.637005
 30
0.0
 40
10.0
100
AcDbArc
 50
90.0
 51
135.0
  0
ARC
  5
191
100
AcDbEntity
  8
0
370
    -3
390
0
  6
Continuous
100
AcDbCircle
 10
-442.546396
 20
95.637005
 30
0.0
 40
6.0
100
AcDbArc
 50
180.0
 51
270.0
  0
LINE
  5
192
100
AcDbEntity
  8
0
370
    -3
390
0
  6
Continuous
100
AcDbLine
 10
-372.546396
 20
89.637005
 30
0.0
 11
-442.546396
 21
89.637005
 31
0.0
  0
LINE
  5
193
100
AcDbEntity
  8
0
370
    -3
390
0
  6
Continuous
100
AcDbLine
 10
-448.546396
 20
121.243005
 30
0.0
 11
-448.546396
 21
140.167005
 31
0.0
  0
LINE
  5
194
100
AcDbEntity
  8
0
370
    -3
390
0
  6
Continuous
100
AcDbLine
 10
-448.546396
 20
95.637005
 30
0.0
 11
-448.546396
 21
121.243005
 31
0.0
  0
LINE
  5
195
100
AcDbEntity
  8
0
370
    -3
390
0
  6
Continuous
100
AcDbLine
 10
-427.232104
 20
166.959136
 30
0.0
 11
-372.834844
 21
167.78126
 31
0.0
  0
ARC
  5
196
100
AcDbEntity
  8
0
370
    -3
390
0
  6
Continuous
100
AcDbCircle
 10
-427.080988
 20
156.960277
 30
0.0
 40
10.0
100
AcDbArc
 50
90.865865
 51
135.0
  0
LINE
  5
197
100
AcDbEntity
  8
0
370
    -3
390
0
  6
Continuous
100
AcDbLine
 10
-366.046396
 20
154.637005
 30
0.0
 11
-439.40426
 21
154.637005
 31
0.0
  0
LINE
  5
198
100
AcDbEntity
  8
0
370
    -3
390
0
  6
Continuous
100
AcDbLine
 10
-445.617464
 20
152.565937
 30
0.0
 11
-434.152056
 21
164.031345
 31
0.0
  0
LINE
  5
199
100
AcDbEntity
  8
0
370
    -3
390
0
  6
Continuous
100
AcDbLine
 10
-427.232104
 20
452.314875
 30
0.0
 11
-372.834844
 21
451.49275
 31
0.0
  0
ARC
  5
19A
100
AcDbEntity
  8
0
370
    -3
390
0
  6
Continuous
100
AcDbCircle
 10
-418.546396
 20
129.637005
 30
0.0
 40
14.0
100
AcDbArc
 50
323.16079
 51
216.83921
  0
ARC
  5
19B
100
AcDbEntity
  8
0
370
    -3
390
0
  6
Continuous
100
AcDbCircle
 10
-418.546396
 20
129.637005
 30
0.0
 40
14.0
100
AcDbArc
 50
216.83921
 51
323.16079
  0
LINE
  5
19C
100
AcDbEntity
  8
0
370
    -3
390
0
  6
Continuous
100
AcDbLine
 10
-275.546396
 20
295.137005
 30
0.0
 11
-275.546396
 21
324.137005
 31
0.0
  0
LINE
  5
19D
100
AcDbEntity
  8
0
370
    -3
390
0
  6
Continuous
100
AcDbLine
 10
-281.546396
 20
277.460252
 30
0.0
 11
-271.546396
 21
277.460252
 31
0.0
  0
ARC
  5
19E
100
AcDbEntity
  8
0
370
    -3
390
0
  6
Continuous
100
AcDbCircle
 10
-281.546396
 20
282.460252
 30
0.0
 40
5.0
100
AcDbArc
 50
180.0
 51
270.0
  0
LINE
  5
19F
100
AcDbEntity
  8
0
370
    -3
390
0
  6
Continuous
100
AcDbLine
 10
-286.546396
 20
282.460252
 30
0.0
 11
-286.546396
 21
336.813758
 31
0.0
  0
LINE
  5
1A0
100
AcDbEntity
  8
0
370
    -3
390
0
  6
Continuous
100
AcDbLine
 10
-271.546396
 20
341.813758
 30
0.0
 11
-281.546396
 21
341.813758
 31
0.0
  0
ARC
  5
1A1
100
AcDbEntity
  8
0
370
    -3
390
0
  6
Continuous
100
AcDbCircle
 10
-281.546396
 20
336.813758
 30
0.0
 40
5.0
100
AcDbArc
 50
90.0
 51
180.0
  0
LINE
  5
1A2
100
AcDbEntity
  8
0
370
    -3
390
0
  6
Continuous
100
AcDbLine
 10
-343.546396
 20
334.889929
 30
0.0
 11
-343.546396
 21
319.384082
 31
0.0
  0
LINE
  5
1A3
100
AcDbEntity
  8
0
370
    -3
390
0
  6
Continuous
100
AcDbLine
 10
-343.546396
 20
299.889929
 30
0.0
 11
-343.546396
 21
284.384082
 31
0.0
  0
LINE
  5
1A4
100
AcDbEntity
  8
0
370
    -3
390
0
  6
Continuous
100
AcDbLine
 10
-342.826396
 20
336.137005
 30
0.0
 11
-342.826396
 21
318.137005
 31
0.0
  0
LINE
  5
1A5
100
AcDbEntity
  8
0
370
    -3
390
0
  6
Continuous
100
AcDbLine
 10
-342.826396
 20
301.137005
 30
0.0
 11
-342.826396
 21
283.137005
 31
0.0
  0
LINE
  5
1A6
100
AcDbEntity
  8
0
370
    -3
390
0
  6
Continuous
100
AcDbLine
 10
-331.546396
 20
277.137005
 30
0.0
 11
-331.546396
 21
287.137005
 31
0.0
  0
LINE
  5
1A7
100
AcDbEntity
  8
0
370
    -3
390
0
  6
Continuous
100
AcDbLine
 10
-331.546396
 20
287.137005
 30
0.0
 11
-331.546396
 21
332.137005
 31
0.0
  0
LINE
  5
1A8
100
AcDbEntity
  8
0
370
    -3
390
0
  6
Continuous
100
AcDbLine
 10
-331.546396
 20
332.137005
 30
0.0
 11
-331.546396
 21
342.137005
 31
0.0
  0
LINE
  5
1A9
100
AcDbEntity
  8
0
370
    -3
390
0
  6
Continuous
100
AcDbLine
 10
-319.546396
 20
277.137005
 30
0.0
 11
-319.546396
 21
287.137005
 31
0.0
  0
LINE
  5
1AA
100
AcDbEntity
  8
0
370
    -3
390
0
  6
Continuous
100
AcDbLine
 10
-331.546396
 20
277.137005
 30
0.0
 11
-319.546396
 21
277.137005
 31
0.0
  0
LINE
  5
1AB
100
AcDbEntity
  8
0
370
    -3
390
0
  6
Continuous
100
AcDbLine
 10
-319.546396
 20
287.137005
 30
0.0
 11
-319.546396
 21
332.137005
 31
0.0
  0
LINE
  5
1AC
100
AcDbEntity
  8
0
370
    -3
390
0
  6
Continuous
100
AcDbLine
 10
-319.546396
 20
332.137005
 30
0.0
 11
-319.546396
 21
342.137005
 31
0.0
  0
LINE
  5
1AD
100
AcDbEntity
  8
0
370
    -3
390
0
  6
Continuous
100
AcDbLine
 10
-331.546396
 20
342.137005
 30
0.0
 11
-319.546396
 21
342.137005
 31
0.0
  0
ARC
  5
1AE
100
AcDbEntity
  8
0
370
    -3
390
0
  6
Continuous
100
AcDbCircle
 10
-316.546396
 20
277.637005
 30
0.0
 40
3.0
100
AcDbArc
 50
180.0
 51
270.0
  0
ARC
  5
1AF
100
AcDbEntity
  8
0
370
    -3
390
0
  6
Continuous
100
AcDbCircle
 10
-316.546396
 20
341.637005
 30
0.0
 40
3.0
100
AcDbArc
 50
90.0
 51
180.0
  0
LINE
  5
1B0
100
AcDbEntity
  8
0
370
    -3
390
0
  6
Continuous
100
AcDbLine
 10
-316.546396
 20
274.637005
 30
0.0
 11
-289.546396
 21
274.637005
 31
0.0
  0
LINE
  5
1B1
100
AcDbEntity
  8
0
370
    -3
390
0
  6
Continuous
100
AcDbLine
 10
-316.546396
 20
344.637005
 30
0.0
 11
-289.546396
 21
344.637005
 31
0.0
  0
LINE
  5
1B2
100
AcDbEntity
  8
0
370
    -3
390
0
  6
Continuous
100
AcDbLine
 10
-289.546396
 20
344.637005
 30
0.0
 11
-289.546396
 21
339.637005
 31
0.0
  0
LINE
  5
1B3
100
AcDbEntity
  8
0
370
    -3
390
0
  6
Continuous
100
AcDbLine
 10
-289.546396
 20
339.637005
 30
0.0
 11
-289.546396
 21
279.637005
 31
0.0
  0
LINE
  5
1B4
100
AcDbEntity
  8
0
370
    -3
390
0
  6
Continuous
100
AcDbLine
 10
-289.546396
 20
279.637005
 30
0.0
 11
-289.546396
 21
274.637005
 31
0.0
  0
LINE
  5
1B5
100
AcDbEntity
  8
0
370
    -3
390
0
  6
Continuous
100
AcDbLine
 10
-342.826396
 20
336.137005
 30
0.0
 11
-343.546396
 21
334.889929
 31
0.0
  0
LINE
  5
1B6
100
AcDbEntity
  8
0
370
    -3
390
0
  6
Continuous
100
AcDbLine
 10
-343.546396
 20
319.384082
 30
0.0
 11
-342.826396
 21
318.137005
 31
0.0
  0
LINE
  5
1B7
100
AcDbEntity
  8
0
370
    -3
390
0
  6
Continuous
100
AcDbLine
 10
-342.826396
 20
301.137005
 30
0.0
 11
-343.546396
 21
299.889929
 31
0.0
  0
LINE
  5
1B8
100
AcDbEntity
  8
0
370
    -3
390
0
  6
Continuous
100
AcDbLine
 10
-343.546396
 20
284.384082
 30
0.0
 11
-342.826396
 21
283.137005
 31
0.0
  0
LINE
  5
1B9
100
AcDbEntity
  8
0
370
    -3
390
0
  6
Continuous
100
AcDbLine
 10
-342.826396
 20
318.137005
 30
0.0
 11
-331.546396
 21
318.137005
 31
0.0
  0
LINE
  5
1BA
100
AcDbEntity
  8
0
370
    -3
390
0
  6
Continuous
100
AcDbLine
 10
-331.546396
 20
336.137005
 30
0.0
 11
-342.826396
 21
336.137005
 31
0.0
  0
LINE
  5
1BB
100
AcDbEntity
  8
0
370
    -3
390
0
  6
Continuous
100
AcDbLine
 10
-342.826396
 20
283.137005
 30
0.0
 11
-331.546396
 21
283.137005
 31
0.0
  0
LINE
  5
1BC
100
AcDbEntity
  8
0
370
    -3
390
0
  6
Continuous
100
AcDbLine
 10
-331.546396
 20
301.137005
 30
0.0
 11
-342.826396
 21
301.137005
 31
0.0
  0
LINE
  5
1BD
100
AcDbEntity
  8
0
370
    -3
390
0
  6
Continuous
100
AcDbLine
 10
-289.546396
 20
381.637005
 30
0.0
 11
-289.546396
 21
344.637005
 31
0.0
  0
LINE
  5
1BE
100
AcDbEntity
  8
0
370
    -3
390
0
  6
Continuous
100
AcDbLine
 10
-289.546396
 20
237.637005
 30
0.0
 11
-289.546396
 21
274.637005
 31
0.0
  0
ARC
  5
1BF
100
AcDbEntity
  8
0
370
    -3
390
0
  6
Continuous
100
AcDbCircle
 10
-305.546396
 20
132.637005
 30
0.0
 40
3.0
100
AcDbArc
 50
180.0
 51
270.0
  0
ARC
  5
1C0
100
AcDbEntity
  8
0
370
    -3
390
0
  6
Continuous
100
AcDbCircle
 10
-305.546396
 20
486.637005
 30
0.0
 40
3.0
100
AcDbArc
 50
90.0
 51
180.0
  0
LINE
  5
1C1
100
AcDbEntity
  8
0
370
    -3
390
0
  6
Continuous
100
AcDbLine
 10
-305.546396
 20
489.637005
 30
0.0
 11
-293.546373
 21
489.637005
 31
0.0
  0
LINE
  5
1C2
100
AcDbEntity
  8
0
370
    -3
390
0
  6
Continuous
100
AcDbLine
 10
-305.546396
 20
129.637005
 30
0.0
 11
-293.546373
 21
129.637005
 31
0.0
  0
LINE
  5
1C3
100
AcDbEntity
  8
0
370
    -3
390
0
  6
Continuous
100
AcDbLine
 10
-372.834844
 20
451.49275
 30
0.0
 11
-308.546396
 21
450.521136
 31
0.0
  0
INSERT
  5
1D4
100
AcDbEntity
  8
0
390
0
100
AcDbBlockReference
  2
ZU_SYM__USERS_HOME_SYMBOL_POO_SYM_B21_21
 10
-308.546396
 20
465.637005
 30
0.0
  0
INSERT
  5
1E5
100
AcDbEntity
  8
0
390
0
100
AcDbBlockReference
  2
ZU_SYM__USERS_HOME_SYMBOL_POO_SYM_B21_0000121
 10
-308.546396
 20
375.565454
 30
0.0
  0
INSERT
  5
1F6
100
AcDbEntity
  8
0
390
0
100
AcDbBlockReference
  2
ZU_SYM__USERS_HOME_SYMBOL_POO_SYM_B21_0000221
 10
-308.546396
 20
243.708556
 30
0.0
  0
INSERT
  5
207
100
AcDbEntity
  8
0
390
0
100
AcDbBlockReference
  2
ZU_SYM__USERS_HOME_SYMBOL_POO_SYM_B21_0000321
 10
-308.546396
 20
153.637005
 30
0.0
  0
LINE
  5
208
100
AcDbEntity
  8
0
370
    -3
390
0
  6
CENTER
100
AcDbLine
 10
-323.586396
 20
153.637005
 30
0.0
 11
-292.106154
 21
153.637005
 31
0.0
  0
LINE
  5
209
100
AcDbEntity
  8
0
370
    -3
390
0
  6
CENTER
100
AcDbLine
 10
-323.586396
 20
243.708556
 30
0.0
 11
-289.546396
 21
243.708556
 31
0.0
  0
LINE
  5
20A
100
AcDbEntity
  8
0
370
    -3
390
0
  6
CENTER
100
AcDbLine
 10
-323.586396
 20
375.565454
 30
0.0
 11
-289.546396
 21
375.565454
 31
0.0
  0
LINE
  5
20B
100
AcDbEntity
  8
0
370
    -3
390
0
  6
CENTER
100
AcDbLine
 10
-323.586396
 20
465.637005
 30
0.0
 11
-292.33316
 21
465.637005
 31
0.0
  0
LINE
  5
20C
100
AcDbEntity
  8
0
370
    -3
390
0
  6
Continuous
100
AcDbLine
 10
-328.546365
 20
464.637005
 30
0.0
 11
-439.40426
 21
464.637005
 31
0.0
  0
LINE
  5
20D
100
AcDbEntity
  8
0
370
    -3
390
0
  6
Continuous
100
AcDbLine
 10
-328.546366
 20
154.637005
 30
0.0
 11
-366.046396
 21
154.637005
 31
0.0
  0
LINE
  5
20E
100
AcDbEntity
  8
0
370
    -3
390
0
  6
Continuous
100
AcDbLine
 10
-308.546396
 20
274.637005
 30
0.0
 11
-308.546396
 21
132.637005
 31
0.0
  0
LINE
  5
20F
100
AcDbEntity
  8
0
370
    -3
390
0
  6
Continuous
100
AcDbLine
 10
-308.546396
 20
344.637005
 30
0.0
 11
-308.546396
 21
486.637005
 31
0.0
  0
LINE
  5
210
100
AcDbEntity
  8
0
370
    -3
390
0
  6
Continuous
100
AcDbLine
 10
-321.546396
 20
199.637005
 30
0.0
 11
-313.546396
 21
199.637005
 31
0.0
  0
ARC
  5
211
100
AcDbEntity
  8
0
370
    -3
390
0
  6
Continuous
100
AcDbCircle
 10
-313.546396
 20
194.637005
 30
0.0
 40
5.0
100
AcDbArc
 50
0.0
 51
90.0
  0
LINE
  5
212
100
AcDbEntity
  8
0
370
    -3
390
0
  6
Continuous
100
AcDbLine
 10
-313.546396
 20
419.637005
 30
0.0
 11
-321.546396
 21
419.637005
 31
0.0
  0
ARC
  5
213
100
AcDbEntity
  8
0
370
    -3
390
0
  6
Continuous
100
AcDbCircle
 10
-313.546396
 20
424.637005
 30
0.0
 40
5.0
100
AcDbArc
 50
270.0
 51
0.0
  0
LINE
  5
214
100
AcDbEntity
  8
0
370
    -3
390
0
  6
Continuous
100
AcDbLine
 10
-321.546396
 20
342.137005
 30
0.0
 11
-321.546396
 21
363.565454
 31
0.0
  0
LINE
  5
215
100
AcDbEntity
  8
0
370
    -3
390
0
  6
Continuous
100
AcDbLine
 10
-321.546396
 20
277.137005
 30
0.0
 11
-321.546396
 21
255.708556
 31
0.0
  0
LINE
  5
216
100
AcDbEntity
  8
0
370
    -3
390
0
  6
Continuous
100
AcDbLine
 10
-308.546396
 20
441.483217
 30
0.0
 11
-271.546396
 21
441.483217
 31
0.0
  0
LINE
  5
217
100
AcDbEntity
  8
0
370
    -3
390
0
  6
Continuous
100
AcDbLine
 10
-308.546396
 20
427.555633
 30
0.0
 11
-273.880373
 21
427.555633
 31
0.0
  0
LINE
  5
218
100
AcDbEntity
  8
0
370
    -3
390
0
  6
Continuous
100
AcDbLine
 10
-308.546396
 20
191.718377
 30
0.0
 11
-273.880373
 21
191.718377
 31
0.0
  0
LINE
  5
219
100
AcDbEntity
  8
0
370
    -3
390
0
  6
Continuous
100
AcDbLine
 10
-308.546396
 20
177.790794
 30
0.0
 11
-271.546396
 21
177.790794
 31
0.0
  0
LINE
  5
21A
100
AcDbEntity
  8
0
370
    -3
390
0
  6
Continuous
100
AcDbLine
 10
-289.546396
 20
357.810878
 30
0.0
 11
-271.546396
 21
357.810878
 31
0.0
  0
LINE
  5
21B
100
AcDbEntity
  8
0
370
    -3
390
0
  6
Continuous
100
AcDbLine
 10
-289.546396
 20
261.463131
 30
0.0
 11
-271.546396
 21
261.463131
 31
0.0
  0
LINE
  5
21C
100
AcDbEntity
  8
0
370
    -3
390
0
  6
Continuous
100
AcDbLine
 10
-308.546396
 20
363.988327
 30
0.0
 11
-289.546396
 21
363.988327
 31
0.0
  0
LINE
  5
21D
100
AcDbEntity
  8
0
370
    -3
390
0
  6
Continuous
100
AcDbLine
 10
-308.546396
 20
255.285684
 30
0.0
 11
-289.546396
 21
255.285684
 31
0.0
  0
LINE
  5
21E
100
AcDbEntity
  8
0
370
    -3
390
0
  6
Continuous
100
AcDbLine
 10
-321.546396
 20
413.557162
 30
0.0
 11
-311.546396
 21
413.557162
 31
0.0
  0
LINE
  5
21F
100
AcDbEntity
  8
0
370
    -3
390
0
  6
Continuous
100
AcDbLine
 10
-321.546396
 20
395.808932
 30
0.0
 11
-311.546396
 21
395.808932
 31
0.0
  0
LINE
  5
220
100
AcDbEntity
  8
0
370
    -3
390
0
  6
Continuous
100
AcDbLine
 10
-321.546396
 20
205.716848
 30
0.0
 11
-311.546396
 21
205.716848
 31
0.0
  0
LINE
  5
221
100
AcDbEntity
  8
0
370
    -3
390
0
  6
Continuous
100
AcDbLine
 10
-321.546396
 20
223.465078
 30
0.0
 11
-311.546396
 21
223.465078
 31
0.0
  0
LINE
  5
222
100
AcDbEntity
  8
0
370
    -3
390
0
  6
Continuous
100
AcDbLine
 10
-621.546396
 20
412.897453
 30
0.0
 11
-621.546396
 21
414.538809
 31
0.0
  0
LINE
  5
223
100
AcDbEntity
  8
0
370
    -3
390
0
  6
Continuous
100
AcDbLine
 10
-635.546396
 20
412.897453
 30
0.0
 11
-635.546396
 21
414.538809
 31
0.0
  0
ELLIPSE
  5
224
100
AcDbEntity
  8
0
370
    -3
390
0
  6
Continuous
100
AcDbEllipse
 10
-628.546396
 20
412.897453
 30
0.0
 11
7.0
 21
0.0
 31
0.0
210
0.0
220
0.0
230
1.0
 40
0.707107
 41
3.1415926535897931
 42
0.0
  0
ELLIPSE
  5
225
100
AcDbEntity
  8
0
370
    -3
390
0
  6
Continuous
100
AcDbEllipse
 10
-628.546396
 20
414.538809
 30
0.0
 11
7.0
 21
0.0
 31
0.0
210
0.0
220
0.0
230
1.0
 40
0.692313
 41
3.1415926535897931
 42
0.0
  0
ELLIPSE
  5
226
100
AcDbEntity
  8
0
370
    -3
390
0
  6
Continuous
100
AcDbEllipse
 10
-628.546396
 20
414.538809
 30
0.0
 11
7.0
 21
0.0
 31
0.0
210
0.0
220
0.0
230
1.0
 40
0.692313
 41
0.0
 42
0.5464396163983196
  0
ELLIPSE
  5
227
100
AcDbEntity
  8
0
370
    -3
390
0
  6
Continuous
100
AcDbEllipse
 10
-628.546396
 20
414.538809
 30
0.0
 11
7.0
 21
0.0
 31
0.0
210
0.0
220
0.0
230
1.0
 40
0.692313
 41
2.5951530371914737
 42
3.1415926535897931
  0
ELLIPSE
  5
228
100
AcDbEntity
  8
0
370
    -3
390
0
  6
Continuous
100
AcDbEllipse
 10
-628.546396
 20
414.642362
 30
0.0
 11
6.25
 21
0.0
 31
0.0
210
0.0
220
0.0
230
1.0
 40
0.707107
 41
3.1415926535897931
 42
0.0
  0
LINE
  5
229
100
AcDbEntity
  8
0
370
    -3
390
0
  6
Continuous
100
AcDbLine
 10
-622.296396
 20
414.642362
 30
0.0
 11
-622.296396
 21
415.773733
 31
0.0
  0
LINE
  5
22A
100
AcDbEntity
  8
0
370
    -3
390
0
  6
Continuous
100
AcDbLine
 10
-634.796396
 20
414.642362
 30
0.0
 11
-634.796396
 21
415.773733
 31
0.0
  0
ELLIPSE
  5
22B
100
AcDbEntity
  8
0
370
    -3
390
0
  6
Continuous
100
AcDbEllipse
 10
-628.546396
 20
416.591864
 30
0.0
 11
5.25
 21
0.0
 31
0.0
210
0.0
220
0.0
230
1.0
 40
0.862941
 41
0.0
 42
6.2831853071795862
  0
ELLIPSE
  5
22C
100
AcDbEntity
  8
0
370
    -3
390
0
  6
Continuous
100
AcDbEllipse
 10
-628.546396
 20
415.773733
 30
0.0
 11
6.25
 21
0.0
 31
0.0
210
0.0
220
0.0
230
1.0
 40
0.707107
 41
2.400808426782755
 42
0.7407842268070384
  0
LINE
  5
22D
100
AcDbEntity
  8
0
370
    -3
390
0
  6
Continuous
100
AcDbLine
 10
-628.546396
 20
418.53145
 30
0.0
 11
-625.546396
 21
416.180175
 31
0.0
  0
LINE
  5
22E
100
AcDbEntity
  8
0
370
    -3
390
0
  6
Continuous
100
AcDbLine
 10
-625.639223
 20
420.364292
 30
0.0
 11
-628.546396
 21
418.53145
 31
0.0
  0
LINE
  5
22F
100
AcDbEntity
  8
0
370
    -3
390
0
  6
Continuous
100
AcDbLine
 10
-628.546396
 20
418.53145
 30
0.0
 11
-631.546396
 21
416.180175
 31
0.0
  0
LINE
  5
230
100
AcDbEntity
  8
0
370
    -3
390
0
  6
Continuous
100
AcDbLine
 10
-631.453569
 20
420.364292
 30
0.0
 11
-628.546396
 21
418.53145
 31
0.0
  0
LINE
  5
231
100
AcDbEntity
  8
0
370
    -3
390
0
  6
Continuous
100
AcDbLine
 10
-621.546396
 20
206.376558
 30
0.0
 11
-621.546396
 21
204.735202
 31
0.0
  0
LINE
  5
232
100
AcDbEntity
  8
0
370
    -3
390
0
  6
Continuous
100
AcDbLine
 10
-635.546396
 20
206.376558
 30
0.0
 11
-635.546396
 21
204.735202
 31
0.0
  0
ELLIPSE
  5
233
100
AcDbEntity
  8
0
370
    -3
390
0
  6
Continuous
100
AcDbEllipse
 10
-628.546396
 20
206.376558
 30
0.0
 11
7.0
 21
0.0
 31
0.0
210
0.0
220
0.0
230
1.0
 40
0.707107
 41
0.0
 42
3.1415926535897931
  0
ELLIPSE
  5
234
100
AcDbEntity
  8
0
370
    -3
390
0
  6
Continuous
100
AcDbEllipse
 10
-628.546396
 20
204.735202
 30
0.0
 11
7.0
 21
0.0
 31
0.0
210
0.0
220
0.0
230
1.0
 40
0.692313
 41
0.0
 42
3.1415926535897931
  0
ELLIPSE
  5
235
100
AcDbEntity
  8
0
370
    -3
390
0
  6
Continuous
100
AcDbEllipse
 10
-628.546396
 20
204.735202
 30
0.0
 11
7.0
 21
0.0
 31
0.0
210
0.0
220
0.0
230
1.0
 40
0.692313
 41
5.7367456907812695
 42
0.0
  0
ELLIPSE
  5
236
100
AcDbEntity
  8
0
370
    -3
390
0
  6
Continuous
100
AcDbEllipse
 10
-628.546396
 20
204.735202
 30
0.0
 11
7.0
 21
0.0
 31
0.0
210
0.0
220
0.0
230
1.0
 40
0.692313
 41
3.1415926535897931
 42
3.6880322699881103
  0
ELLIPSE
  5
237
100
AcDbEntity
  8
0
370
    -3
390
0
  6
Continuous
100
AcDbEllipse
 10
-628.546396
 20
204.631648
 30
0.0
 11
6.25
 21
0.0
 31
0.0
210
0.0
220
0.0
230
1.0
 40
0.707107
 41
0.0
 42
3.1415926535897931
  0
LINE
  5
238
100
AcDbEntity
  8
0
370
    -3
390
0
  6
Continuous
100
AcDbLine
 10
-622.296396
 20
204.631648
 30
0.0
 11
-622.296396
 21
203.500277
 31
0.0
  0
LINE
  5
239
100
AcDbEntity
  8
0
370
    -3
390
0
  6
Continuous
100
AcDbLine
 10
-634.796396
 20
204.631648
 30
0.0
 11
-634.796396
 21
203.500277
 31
0.0
  0
ELLIPSE
  5
23A
100
AcDbEntity
  8
0
370
    -3
390
0
  6
Continuous
100
AcDbEllipse
 10
-628.546396
 20
202.682147
 30
0.0
 11
5.25
 21
0.0
 31
0.0
210
0.0
220
0.0
230
1.0
 40
0.862941
 41
0.0
 42
6.2831853071795862
  0
ELLIPSE
  5
23B
100
AcDbEntity
  8
0
370
    -3
390
0
  6
Continuous
100
AcDbEllipse
 10
-628.546396
 20
203.500277
 30
0.0
 11
6.25
 21
0.0
 31
0.0
210
0.0
220
0.0
230
1.0
 40
0.707107
 41
5.5424010803725476
 42
3.8823768803968313
  0
LINE
  5
23C
100
AcDbEntity
  8
0
370
    -3
390
0
  6
Continuous
100
AcDbLine
 10
-628.546396
 20
200.742561
 30
0.0
 11
-625.546396
 21
203.093836
 31
0.0
  0
LINE
  5
23D
100
AcDbEntity
  8
0
370
    -3
390
0
  6
Continuous
100
AcDbLine
 10
-625.639223
 20
198.909718
 30
0.0
 11
-628.546396
 21
200.742561
 31
0.0
  0
LINE
  5
23E
100
AcDbEntity
  8
0
370
    -3
390
0
  6
Continuous
100
AcDbLine
 10
-628.546396
 20
200.742561
 30
0.0
 11
-631.546396
 21
203.093836
 31
0.0
  0
LINE
  5
23F
100
AcDbEntity
  8
0
370
    -3
390
0
  6
Continuous
100
AcDbLine
 10
-631.453569
 20
198.909718
 30
0.0
 11
-628.546396
 21
200.742561
 31
0.0
  0
LINE
  5
240
100
AcDbEntity
  8
0
370
    -3
390
0
  6
Continuous
100
AcDbLine
 10
-721.429938
 20
446.837005
 30
0.0
 11
-586.546396
 21
446.837005
 31
0.0
  0
LINE
  5
241
100
AcDbEntity
  8
0
370
    -3
390
0
  6
Continuous
100
AcDbLine
 10
-586.546396
 20
185.637005
 30
0.0
 11
-321.546396
 21
185.637005
 31
0.0
  0
LINE
  5
242
100
AcDbEntity
  8
0
370
    -3
390
0
  6
Continuous
100
AcDbLine
 10
-586.546396
 20
191.637005
 30
0.0
 11
-321.546396
 21
191.637005
 31
0.0
  0
LINE
  5
243
100
AcDbEntity
  8
0
370
    -3
390
0
  6
Continuous
100
AcDbLine
 10
-586.546396
 20
204.929506
 30
0.0
 11
-321.546396
 21
204.929506
 31
0.0
  0
LINE
  5
244
100
AcDbEntity
  8
0
370
    -3
390
0
  6
Continuous
100
AcDbLine
 10
-586.546396
 20
269.149735
 30
0.0
 11
-321.546396
 21
269.149735
 31
0.0
  0
LINE
  5
245
100
AcDbEntity
  8
0
370
    -3
390
0
  6
Continuous
100
AcDbLine
 10
-586.546396
 20
266.086416
 30
0.0
 11
-321.546396
 21
266.086416
 31
0.0
  0
LINE
  5
246
100
AcDbEntity
  8
0
370
    -3
390
0
  6
Continuous
100
AcDbLine
 10
-586.546396
 20
217.657428
 30
0.0
 11
-321.546396
 21
217.657428
 31
0.0
  0
LINE
  5
247
100
AcDbEntity
  8
0
370
    -3
390
0
  6
Continuous
100
AcDbLine
 10
-586.546396
 20
184.637005
 30
0.0
 11
-321.546396
 21
184.637005
 31
0.0
  0
ARC
  5
248
100
AcDbEntity
  8
0
370
    -3
390
0
  6
Continuous
100
AcDbCircle
 10
-593.146396
 20
172.237005
 30
0.0
 40
2.0
100
AcDbArc
 50
270.0
 51
0.0
  0
LINE
  5
249
100
AcDbEntity
  8
0
370
    -3
390
0
  6
Continuous
100
AcDbLine
 10
-566.546396
 20
168.637005
 30
0.0
 11
-597.546396
 21
168.637005
 31
0.0
  0
LINE
  5
24A
100
AcDbEntity
  8
0
370
    -3
390
0
  6
Continuous
100
AcDbLine
 10
-597.546396
 20
170.237005
 30
0.0
 11
-566.546396
 21
170.237005
 31
0.0
  0
LINE
  5
24B
100
AcDbEntity
  8
0
370
    -3
390
0
  6
Continuous
100
AcDbLine
 10
-541.946396
 20
172.237005
 30
0.0
 11
-541.946396
 21
180.437005
 31
0.0
  0
LINE
  5
24C
100
AcDbEntity
  8
0
370
    -3
390
0
  6
Continuous
100
AcDbLine
 10
-542.546396
 20
183.637005
 30
0.0
 11
-542.546396
 21
184.637005
 31
0.0
  0
ARC
  5
24D
100
AcDbEntity
  8
0
370
    -3
390
0
  6
Continuous
100
AcDbCircle
 10
-545.146396
 20
180.437005
 30
0.0
 40
3.2
100
AcDbArc
 50
0.0
 51
90.0
  0
LINE
  5
24E
100
AcDbEntity
  8
0
370
    -3
390
0
  6
Continuous
100
AcDbLine
 10
-542.546396
 20
183.637005
 30
0.0
 11
-566.546396
 21
183.637005
 31
0.0
  0
ARC
  5
24F
100
AcDbEntity
  8
0
370
    -3
390
0
  6
Continuous
100
AcDbCircle
 10
-539.946396
 20
172.237005
 30
0.0
 40
2.0
100
AcDbArc
 50
180.0
 51
270.0
  0
LINE
  5
250
100
AcDbEntity
  8
0
370
    -3
390
0
  6
Continuous
100
AcDbLine
 10
-566.546396
 20
168.637005
 30
0.0
 11
-535.546396
 21
168.637005
 31
0.0
  0
LINE
  5
251
100
AcDbEntity
  8
0
370
    -3
390
0
  6
Continuous
100
AcDbLine
 10
-535.546396
 20
170.237005
 30
0.0
 11
-566.546396
 21
170.237005
 31
0.0
  0
ARC
  5
252
100
AcDbEntity
  8
0
370
    -3
390
0
  6
Continuous
100
AcDbCircle
 10
-600.546396
 20
172.211782
 30
0.0
 40
1.0
100
AcDbArc
 50
90.0
 51
166.983983
  0
LINE
  5
253
100
AcDbEntity
  8
0
370
    -3
390
0
  6
Continuous
100
AcDbLine
 10
-721.429938
 20
172.437005
 30
0.0
 11
-601.520703
 21
172.437005
 31
0.0
  0
LINE
  5
254
100
AcDbEntity
  8
0
370
    -3
390
0
  6
Continuous
100
AcDbLine
 10
-589.546396
 20
173.211782
 30
0.0
 11
-600.546396
 21
173.211782
 31
0.0
  0
ARC
  5
255
100
AcDbEntity
  8
0
370
    -3
390
0
  6
Continuous
100
AcDbCircle
 10
-589.546396
 20
176.211782
 30
0.0
 40
3.0
100
AcDbArc
 50
270.0
 51
0.0
  0
LINE
  5
256
100
AcDbEntity
  8
0
370
    -3
390
0
  6
Continuous
100
AcDbLine
 10
-586.546396
 20
183.637005
 30
0.0
 11
-566.546396
 21
183.637005
 31
0.0
  0
LINE
  5
257
100
AcDbEntity
  8
0
370
    -3
390
0
  6
Continuous
100
AcDbLine
 10
-591.146396
 20
172.237005
 30
0.0
 11
-591.146396
 21
173.211782
 31
0.0
  0
LINE
  5
258
100
AcDbEntity
  8
0
370
    -3
390
0
  6
Continuous
100
AcDbLine
 10
-586.546396
 20
446.837005
 30
0.0
 11
-586.546396
 21
176.211782
 31
0.0
  0
ARC
  5
259
100
AcDbEntity
  8
0
370
    -3
390
0
  6
Continuous
100
AcDbCircle
 10
-526.146396
 20
125.723537
 30
0.0
 40
8.6
100
AcDbArc
 50
270.0
 51
0.0
  0
ARC
  5
25A
100
AcDbEntity
  8
0
370
    -3
390
0
  6
Continuous
100
AcDbCircle
 10
-606.946396
 20
125.723537
 30
0.0
 40
8.6
100
AcDbArc
 50
180.0
 51
270.0
  0
ARC
  5
25B
100
AcDbEntity
  8
0
370
    -3
390
0
  6
Continuous
100
AcDbCircle
 10
-528.346396
 20
125.485041
 30
0.0
 40
8.6
100
AcDbArc
 50
270.0
 51
0.0
  0
LINE
  5
25C
100
AcDbEntity
  8
0
370
    -3
390
0
  6
Continuous
100
AcDbLine
 10
-604.746396
 20
116.885041
 30
0.0
 11
-528.346396
 21
116.885041
 31
0.0
  0
ARC
  5
25D
100
AcDbEntity
  8
0
370
    -3
390
0
  6
Continuous
100
AcDbCircle
 10
-604.746396
 20
125.485041
 30
0.0
 40
8.6
100
AcDbArc
 50
180.0
 51
270.0
  0
LINE
  5
25E
100
AcDbEntity
  8
0
370
    -3
390
0
  6
Continuous
100
AcDbLine
 10
-606.946396
 20
117.123537
 30
0.0
 11
-606.757674
 21
117.123537
 31
0.0
  0
LINE
  5
25F
100
AcDbEntity
  8
0
370
    -3
390
0
  6
Continuous
100
AcDbLine
 10
-526.335118
 20
117.123537
 30
0.0
 11
-526.146396
 21
117.123537
 31
0.0
  0
ARC
  5
260
100
AcDbEntity
  8
0
370
    -3
390
0
  6
Continuous
100
AcDbCircle
 10
-526.346396
 20
159.771955
 30
0.0
 40
8.8
100
AcDbArc
 50
0.0
 51
90.0
  0
LINE
  5
261
100
AcDbEntity
  8
0
370
    -3
390
0
  6
Continuous
100
AcDbLine
 10
-615.546396
 20
159.771955
 30
0.0
 11
-615.546396
 21
125.723537
 31
0.0
  0
ARC
  5
262
100
AcDbEntity
  8
0
370
    -3
390
0
  6
Continuous
100
AcDbCircle
 10
-606.746396
 20
159.771955
 30
0.0
 40
8.8
100
AcDbArc
 50
90.0
 51
180.0
  0
LINE
  5
263
100
AcDbEntity
  8
0
370
    -3
390
0
  6
Continuous
100
AcDbLine
 10
-517.546396
 20
159.771955
 30
0.0
 11
-517.546396
 21
125.723537
 31
0.0
  0
LINE
  5
264
100
AcDbEntity
  8
0
370
    -3
390
0
  6
Continuous
100
AcDbLine
 10
-606.746396
 20
165.127985
 30
0.0
 11
-526.346396
 21
165.127985
 31
0.0
  0
ARC
  5
265
100
AcDbEntity
  8
0
370
    -3
390
0
  6
Continuous
100
AcDbCircle
 10
-606.746396
 20
156.327985
 30
0.0
 40
8.8
100
AcDbArc
 50
90.0
 51
180.0
  0
ARC
  5
266
100
AcDbEntity
  8
0
370
    -3
390
0
  6
Continuous
100
AcDbCircle
 10
-526.346396
 20
156.327985
 30
0.0
 40
8.8
100
AcDbArc
 50
0.0
 51
90.0
  0
ARC
  5
267
100
AcDbEntity
  8
0
370
    -3
390
0
  6
Continuous
100
AcDbCircle
 10
-528.546396
 20
155.159928
 30
0.0
 40
8.8
100
AcDbArc
 50
0.0
 51
90.0
  0
LINE
  5
268
100
AcDbEntity
  8
0
370
    -3
390
0
  6
Continuous
100
AcDbLine
 10
-519.746396
 20
155.159928
 30
0.0
 11
-519.746396
 21
125.485041
 31
0.0
  0
LINE
  5
269
100
AcDbEntity
  8
0
370
    -3
390
0
  6
Continuous
100
AcDbLine
 10
-604.546396
 20
163.959928
 30
0.0
 11
-528.546396
 21
163.959928
 31
0.0
  0
LINE
  5
26A
100
AcDbEntity
  8
0
370
    -3
390
0
  6
Continuous
100
AcDbLine
 10
-613.346396
 20
155.159928
 30
0.0
 11
-613.346396
 21
125.485041
 31
0.0
  0
ARC
  5
26B
100
AcDbEntity
  8
0
370
    -3
390
0
  6
Continuous
100
AcDbCircle
 10
-604.546396
 20
155.159928
 30
0.0
 40
8.8
100
AcDbArc
 50
90.0
 51
180.0
  0
LINE
  5
26C
100
AcDbEntity
  8
0
370
    -3
390
0
  6
Continuous
100
AcDbLine
 10
-606.746396
 20
168.571955
 30
0.0
 11
-578.046396
 21
168.571955
 31
0.0
  0
LINE
  5
26D
100
AcDbEntity
  8
0
370
    -3
390
0
  6
Continuous
100
AcDbLine
 10
-578.046396
 20
168.571955
 30
0.0
 11
-578.046396
 21
167.071955
 31
0.0
  0
LINE
  5
26E
100
AcDbEntity
  8
0
370
    -3
390
0
  6
Continuous
100
AcDbLine
 10
-578.046396
 20
167.071955
 30
0.0
 11
-577.046396
 21
167.071955
 31
0.0
  0
LINE
  5
26F
100
AcDbEntity
  8
0
370
    -3
390
0
  6
Continuous
100
AcDbLine
 10
-526.346396
 20
168.571955
 30
0.0
 11
-555.046396
 21
168.571955
 31
0.0
  0
LINE
  5
270
100
AcDbEntity
  8
0
370
    -3
390
0
  6
Continuous
100
AcDbLine
 10
-577.046396
 20
167.620674
 30
0.0
 11
-577.046396
 21
167.071955
 31
0.0
  0
LINE
  5
271
100
AcDbEntity
  8
0
370
    -3
390
0
  6
Continuous
100
AcDbLine
 10
-555.046396
 20
168.571955
 30
0.0
 11
-555.046396
 21
167.071955
 31
0.0
  0
LINE
  5
272
100
AcDbEntity
  8
0
370
    -3
390
0
  6
Continuous
100
AcDbLine
 10
-555.046396
 20
167.071955
 30
0.0
 11
-556.046396
 21
167.071955
 31
0.0
  0
LINE
  5
273
100
AcDbEntity
  8
0
370
    -3
390
0
  6
Continuous
100
AcDbLine
 10
-556.046396
 20
167.620674
 30
0.0
 11
-556.046396
 21
167.071955
 31
0.0
  0
LINE
  5
274
100
AcDbEntity
  8
0
370
    -3
390
0
  6
Continuous
100
AcDbLine
 10
-556.046396
 20
167.620674
 30
0.0
 11
-577.046396
 21
167.620674
 31
0.0
  0
LINE
  5
275
100
AcDbEntity
  8
0
370
    -3
390
0
  6
Continuous
100
AcDbLine
 10
-556.046396
 20
167.359207
 30
0.0
 11
-577.046396
 21
167.359207
 31
0.0
  0
LINE
  5
276
100
AcDbEntity
  8
0
370
    -3
390
0
  6
Continuous
100
AcDbLine
 10
-535.546396
 20
168.637005
 30
0.0
 11
-535.546396
 21
168.571955
 31
0.0
  0
LINE
  5
277
100
AcDbEntity
  8
0
370
    -3
390
0
  6
Continuous
100
AcDbLine
 10
-597.546396
 20
168.637005
 30
0.0
 11
-597.546396
 21
168.571955
 31
0.0
  0
LINE
  5
278
100
AcDbEntity
  8
0
370
    -3
390
0
  6
Continuous
100
AcDbLine
 10
-597.546396
 20
168.637005
 30
0.0
 11
-535.546396
 21
168.637005
 31
0.0
  0
LINE
  5
279
100
AcDbEntity
  8
0
370
    -3
390
0
  6
Continuous
100
AcDbLine
 10
-597.546396
 20
168.637005
 30
0.0
 11
-597.546396
 21
170.237005
 31
0.0
  0
LINE
  5
27A
100
AcDbEntity
  8
0
370
    -3
390
0
  6
Continuous
100
AcDbLine
 10
-535.546396
 20
168.637005
 30
0.0
 11
-535.546396
 21
170.237005
 31
0.0
  0
LINE
  5
27B
100
AcDbEntity
  8
0
370
    -3
390
0
  6
Continuous
100
AcDbLine
 10
-586.546396
 20
433.637005
 30
0.0
 11
-321.546396
 21
433.637005
 31
0.0
  0
LINE
  5
27C
100
AcDbEntity
  8
0
370
    -3
390
0
  6
Continuous
100
AcDbLine
 10
-586.546396
 20
427.637005
 30
0.0
 11
-321.546396
 21
427.637005
 31
0.0
  0
LINE
  5
27D
100
AcDbEntity
  8
0
370
    -3
390
0
  6
Continuous
100
AcDbLine
 10
-586.546396
 20
414.344505
 30
0.0
 11
-321.546396
 21
414.344505
 31
0.0
  0
LINE
  5
27E
100
AcDbEntity
  8
0
370
    -3
390
0
  6
Continuous
100
AcDbLine
 10
-586.546396
 20
350.124275
 30
0.0
 11
-321.546396
 21
350.124275
 31
0.0
  0
LINE
  5
27F
100
AcDbEntity
  8
0
370
    -3
390
0
  6
Continuous
100
AcDbLine
 10
-586.546396
 20
353.187594
 30
0.0
 11
-321.546396
 21
353.187594
 31
0.0
  0
LINE
  5
280
100
AcDbEntity
  8
0
370
    -3
390
0
  6
Continuous
100
AcDbLine
 10
-586.546396
 20
401.616583
 30
0.0
 11
-321.546396
 21
401.616583
 31
0.0
  0
LINE
  5
281
100
AcDbEntity
  8
0
370
    -3
390
0
  6
Continuous
100
AcDbLine
 10
-586.546396
 20
434.637005
 30
0.0
 11
-321.546396
 21
434.637005
 31
0.0
  0
CIRCLE
  5
282
100
AcDbEntity
  8
0
370
    -3
390
0
  6
DASHED
100
AcDbCircle
 10
-566.546396
 20
141.637005
 30
0.0
 40
13.5
  0
LINE
  5
283
100
AcDbEntity
  8
0
370
    -3
390
0
  6
CENTER
100
AcDbLine
 10
-549.106941
 20
141.637005
 30
0.0
 11
-584.110145
 21
141.637005
 31
0.0
  0
LINE
  5
284
100
AcDbEntity
  8
0
370
    -3
390
0
  6
CENTER
100
AcDbLine
 10
-566.546396
 20
185.637005
 30
0.0
 11
-566.546396
 21
109.933213
 31
0.0
  0
ARC
  5
285
100
AcDbEntity
  8
0
370
    -3
390
0
  6
Continuous
100
AcDbCircle
 10
-566.546396
 20
125.24137
 30
0.0
 40
9.0
100
AcDbArc
 50
253.398469
 51
286.601548
  0
ARC
  5
286
100
AcDbEntity
  8
0
370
    -3
390
0
  6
Continuous
100
AcDbCircle
 10
-564.346395
 20
117.862345
 30
0.0
 40
1.299999
100
AcDbArc
 50
286.601531
 51
311.255851
  0
ARC
  5
287
100
AcDbEntity
  8
0
370
    -3
390
0
  6
Continuous
100
AcDbCircle
 10
-568.746397
 20
117.862345
 30
0.0
 40
1.299999
100
AcDbArc
 50
228.744149
 51
253.398469
  0
LINE
  5
288
100
AcDbEntity
  8
0
370
    -3
390
0
  6
Continuous
100
AcDbLine
 10
-321.546396
 20
387.565454
 30
0.0
 11
-321.546396
 21
434.637005
 31
0.0
  0
LINE
  5
289
100
AcDbEntity
  8
0
370
    -3
390
0
  6
Continuous
100
AcDbLine
 10
-321.546396
 20
231.708556
 30
0.0
 11
-321.546396
 21
184.637005
 31
0.0
  0
LINE
  5
28A
100
AcDbEntity
  8
0
370
    -3
390
0
  6
Continuous
100
AcDbLine
 10
-586.546396
 20
238.057065
 30
0.0
 11
-328.546361
 21
238.057065
 31
0.0
  0
LINE
  5
28B
100
AcDbEntity
  8
0
370
    -3
390
0
  6
Continuous
100
AcDbLine
 10
-586.546396
 20
241.293792
 30
0.0
 11
-328.546364
 21
241.293792
 31
0.0
  0
LINE
  5
28C
100
AcDbEntity
  8
0
370
    -3
390
0
  6
Continuous
100
AcDbLine
 10
-586.546396
 20
251.994234
 30
0.0
 11
-328.546372
 21
251.994234
 31
0.0
  0
LINE
  5
28D
100
AcDbEntity
  8
0
370
    -3
390
0
  6
Continuous
100
AcDbLine
 10
-586.546396
 20
255.213647
 30
0.0
 11
-327.832046
 21
255.213647
 31
0.0
  0
LINE
  5
28E
100
AcDbEntity
  8
0
370
    -3
390
0
  6
Continuous
100
AcDbLine
 10
-586.546396
 20
280.18261
 30
0.0
 11
-331.546396
 21
280.18261
 31
0.0
  0
LINE
  5
28F
100
AcDbEntity
  8
0
370
    -3
390
0
  6
Continuous
100
AcDbLine
 10
-586.546396
 20
283.076985
 30
0.0
 11
-331.546396
 21
283.076985
 31
0.0
  0
LINE
  5
290
100
AcDbEntity
  8
0
370
    -3
390
0
  6
Continuous
100
AcDbLine
 10
-586.546396
 20
291.817696
 30
0.0
 11
-343.546396
 21
291.817696
 31
0.0
  0
LINE
  5
291
100
AcDbEntity
  8
0
370
    -3
390
0
  6
Continuous
100
AcDbLine
 10
-586.546396
 20
294.637005
 30
0.0
 11
-343.546396
 21
294.637005
 31
0.0
  0
LINE
  5
292
100
AcDbEntity
  8
0
370
    -3
390
0
  6
Continuous
100
AcDbLine
 10
-586.546396
 20
303.387005
 30
0.0
 11
-331.546396
 21
303.387005
 31
0.0
  0
LINE
  5
293
100
AcDbEntity
  8
0
370
    -3
390
0
  6
Continuous
100
AcDbLine
 10
-586.546396
 20
315.887005
 30
0.0
 11
-331.546396
 21
315.887005
 31
0.0
  0
LINE
  5
294
100
AcDbEntity
  8
0
370
    -3
390
0
  6
Continuous
100
AcDbLine
 10
-586.546396
 20
324.637005
 30
0.0
 11
-343.546396
 21
324.637005
 31
0.0
  0
LINE
  5
295
100
AcDbEntity
  8
0
370
    -3
390
0
  6
Continuous
100
AcDbLine
 10
-586.546396
 20
327.456315
 30
0.0
 11
-343.546396
 21
327.456315
 31
0.0
  0
LINE
  5
296
100
AcDbEntity
  8
0
370
    -3
390
0
  6
Continuous
100
AcDbLine
 10
-586.546396
 20
336.197026
 30
0.0
 11
-331.546396
 21
336.197026
 31
0.0
  0
LINE
  5
297
100
AcDbEntity
  8
0
370
    -3
390
0
  6
Continuous
100
AcDbLine
 10
-586.546396
 20
339.091401
 30
0.0
 11
-331.546396
 21
339.091401
 31
0.0
  0
LINE
  5
298
100
AcDbEntity
  8
0
370
    -3
390
0
  6
Continuous
100
AcDbLine
 10
-586.546396
 20
364.060363
 30
0.0
 11
-327.832168
 21
364.060363
 31
0.0
  0
LINE
  5
299
100
AcDbEntity
  8
0
370
    -3
390
0
  6
Continuous
100
AcDbLine
 10
-586.546396
 20
367.279776
 30
0.0
 11
-328.546359
 21
367.279776
 31
0.0
  0
LINE
  5
29A
100
AcDbEntity
  8
0
370
    -3
390
0
  6
Continuous
100
AcDbLine
 10
-586.546396
 20
377.980219
 30
0.0
 11
-328.546367
 21
377.980219
 31
0.0
  0
LINE
  5
29B
100
AcDbEntity
  8
0
370
    -3
390
0
  6
Continuous
100
AcDbLine
 10
-586.546396
 20
381.216946
 30
0.0
 11
-328.54637
 21
381.216946
 31
0.0
  0
LINE
  5
29C
100
AcDbEntity
  8
0
370
    -3
390
0
  6
CENTER
100
AcDbLine
 10
83.16012
 20
309.637005
 30
0.0
 11
-807.49159
 21
309.637005
 31
0.0
  0
INSERT
  5
2AD
100
AcDbEntity
  8
0
390
0
100
AcDbBlockReference
  2
ZU_SYM__USERS_HOME_SYMBOL_POO_SYM_B21_0000421
 10
-308.546396
 20
-176.688153
 30
0.0
  0
LINE
  5
2AE
100
AcDbEntity
  8
0
370
    -3
390
0
  6
Continuous
100
AcDbLine
 10
-308.546396
 20
-160.688153
 30
0.0
 11
-308.546396
 21
-413.40298
 31
0.0
  0
LINE
  5
2AF
100
AcDbEntity
  8
0
370
    -3
390
0
  6
Continuous
100
AcDbLine
 10
-321.546396
 20
-188.688153
 30
0.0
 11
-321.546396
 21
-306.072167
 31
0.0
  0
LINE
  5
2B0
100
AcDbEntity
  8
0
370
    -3
390
0
  6
CENTER
100
AcDbLine
 10
-314.546524
 20
-176.688153
 30
0.0
 11
-283.195173
 21
-176.688153
 31
0.0
  0
ARC
  5
2B1
100
AcDbEntity
  8
0
370
    -3
390
0
  6
Continuous
100
AcDbCircle
 10
-305.546396
 20
-178.825253
 30
0.0
 40
3.0
100
AcDbArc
 50
180.0
 51
270.0
  0
LINE
  5
2B2
100
AcDbEntity
  8
0
370
    -3
390
0
  6
Continuous
100
AcDbLine
 10
-586.546396
 20
-188.572167
 30
0.0
 11
-327.613348
 21
-188.572167
 31
0.0
  0
LINE
  5
2B3
100
AcDbEntity
  8
0
370
    -3
390
0
  6
Continuous
100
AcDbLine
 10
-586.546396
 20
-185.072167
 30
0.0
 11
-328.546359
 21
-185.072167
 31
0.0
  0
LINE
  5
2B4
100
AcDbEntity
  8
0
370
    -3
390
0
  6
Continuous
100
AcDbLine
 10
-342.846372
 20
-154.072167
 30
0.0
 11
-342.846372
 21
-172.072167
 31
0.0
  0
LINE
  5
2B5
100
AcDbEntity
  8
0
370
    -3
390
0
  6
Continuous
100
AcDbLine
 10
-343.546354
 20
-170.859903
 30
0.0
 11
-343.546369
 21
-155.284828
 31
0.0
  0
LINE
  5
2B6
100
AcDbEntity
  8
0
370
    -3
390
0
  6
Continuous
100
AcDbLine
 10
-342.846357
 20
-172.072169
 30
0.0
 11
-343.546354
 21
-170.859906
 31
0.0
  0
LINE
  5
2B7
100
AcDbEntity
  8
0
370
    -3
390
0
  6
Continuous
100
AcDbLine
 10
-319.546396
 20
-88.072167
 30
0.0
 11
-319.546396
 21
-164.688153
 31
0.0
  0
LINE
  5
2B8
100
AcDbEntity
  8
0
370
    -3
390
0
  6
Continuous
100
AcDbLine
 10
-331.546396
 20
-172.072167
 30
0.0
 11
-342.846357
 21
-172.072167
 31
0.0
  0
LINE
  5
2B9
100
AcDbEntity
  8
0
370
    -3
390
0
  6
Continuous
100
AcDbLine
 10
-331.546396
 20
-88.072167
 30
0.0
 11
-331.546396
 21
-178.072167
 31
0.0
  0
LINE
  5
2BA
100
AcDbEntity
  8
0
370
    -3
390
0
  6
Continuous
100
AcDbLine
 10
-331.546396
 20
-178.072167
 30
0.0
 11
-328.546364
 21
-178.072167
 31
0.0
  0
LINE
  5
2BB
100
AcDbEntity
  8
0
370
    -3
390
0
  6
CENTER
100
AcDbLine
 10
-346.213899
 20
-163.072167
 30
0.0
 11
-313.447699
 21
-163.072167
 31
0.0
  0
ARC
  5
2BC
100
AcDbEntity
  8
0
370
    -3
390
0
  6
Continuous
100
AcDbCircle
 10
-109.046396
 20
-368.072167
 30
0.0
 40
20.0
100
AcDbArc
 50
270.0
 51
90.0
  0
ARC
  5
2BD
100
AcDbEntity
  8
0
370
    -3
390
0
  6
Continuous
100
AcDbCircle
 10
-305.546396
 20
-160.688153
 30
0.0
 40
3.0
100
AcDbArc
 50
90.0
 51
180.0
  0
LINE
  5
2BE
100
AcDbEntity
  8
0
370
    -3
390
0
  6
Continuous
100
AcDbLine
 10
-109.046396
 20
-388.072167
 30
0.0
 11
-142.046396
 21
-388.072167
 31
0.0
  0
LINE
  5
2BF
100
AcDbEntity
  8
0
370
    -3
390
0
  6
Continuous
100
AcDbLine
 10
-305.546396
 20
-157.688153
 30
0.0
 11
-289.546396
 21
-157.688153
 31
0.0
  0
LINE
  5
2C0
100
AcDbEntity
  8
0
370
    -3
390
0
  6
Continuous
100
AcDbLine
 10
-109.046396
 20
-348.072167
 30
0.0
 11
-142.046396
 21
-348.072167
 31
0.0
  0
CIRCLE
  5
2C1
100
AcDbEntity
  8
0
370
    -3
390
0
  6
Continuous
100
AcDbCircle
 10
-194.046396
 20
-451.072167
 30
0.0
 40
12.5
  0
CIRCLE
  5
2C2
100
AcDbEntity
  8
0
370
    -3
390
0
  6
Continuous
100
AcDbCircle
 10
-109.046396
 20
-368.072167
 30
0.0
 40
15.0
  0
ARC
  5
2C3
100
AcDbEntity
  8
0
370
    -3
390
0
  6
Continuous
100
AcDbCircle
 10
-314.546396
 20
-201.572167
 30
0.0
 40
6.0
100
AcDbArc
 50
270.0
 51
0.0
  0
LINE
  5
2C4
100
AcDbEntity
  8
0
370
    -3
390
0
  6
Continuous
100
AcDbLine
 10
-38.546396
 20
-491.072167
 30
0.0
 11
-148.546396
 21
-491.072167
 31
0.0
  0
LINE
  5
2C5
100
AcDbEntity
  8
0
370
    -3
390
0
  6
Continuous
100
AcDbLine
 10
-314.546396
 20
-207.572167
 30
0.0
 11
-321.546396
 21
-207.572167
 31
0.0
  0
LINE
  5
2C6
100
AcDbEntity
  8
0
370
    -3
390
0
  6
CENTER
100
AcDbLine
 10
-68.546396
 20
-440.503556
 30
0.0
 11
-68.546396
 21
-504.94152
 31
0.0
  0
LINE
  5
2C7
100
AcDbEntity
  8
0
370
    -3
390
0
  6
CENTER
100
AcDbLine
 10
-418.546396
 20
-440.503556
 30
0.0
 11
-418.546396
 21
-505.812304
 31
0.0
  0
LINE
  5
2C8
100
AcDbEntity
  8
0
370
    -3
390
0
  6
Continuous
100
AcDbLine
 10
-38.546396
 20
-290.308235
 30
0.0
 11
-38.546396
 21
-226.072167
 31
0.0
  0
LINE
  5
2C9
100
AcDbEntity
  8
0
370
    -3
390
0
  6
Continuous
100
AcDbLine
 10
-38.546396
 20
-161.836099
 30
0.0
 11
-38.546396
 21
-226.072167
 31
0.0
  0
LINE
  5
2CA
100
AcDbEntity
  8
0
370
    -3
390
0
  6
Continuous
100
AcDbLine
 10
-248.046396
 20
-275.072167
 30
0.0
 11
-249.046396
 21
-275.072167
 31
0.0
  0
LINE
  5
2CB
100
AcDbEntity
  8
0
370
    -3
390
0
  6
Continuous
100
AcDbLine
 10
-233.046396
 20
-70.642167
 30
0.0
 11
-233.046396
 21
-207.072167
 31
0.0
  0
LINE
  5
2CC
100
AcDbEntity
  8
0
370
    -3
390
0
  6
Continuous
100
AcDbLine
 10
-249.046396
 20
-61.072167
 30
0.0
 11
-249.046396
 21
-384.033769
 31
0.0
  0
INSERT
  5
2DD
100
AcDbEntity
  8
0
390
0
100
AcDbBlockReference
  2
ZU_SYM__USERS_HOME_SYMBOL_POO_SYM_B21_0000521
 10
-308.546396
 20
-318.072167
 30
0.0
  0
LINE
  5
2DE
100
AcDbEntity
  8
0
370
    -3
390
0
  6
Continuous
100
AcDbLine
 10
-205.143441
 20
-56.072167
 30
0.0
 11
-209.046396
 21
-56.072167
 31
0.0
  0
LINE
  5
2DF
100
AcDbEntity
  8
0
370
    -3
390
0
  6
Continuous
100
AcDbLine
 10
-200.834261
 20
-46.072167
 30
0.0
 11
-200.834261
 21
-56.072167
 31
0.0
  0
LINE
  5
2E0
100
AcDbEntity
  8
0
370
    -3
390
0
  6
Continuous
100
AcDbLine
 10
-448.546396
 20
-460.072167
 30
0.0
 11
-448.546396
 21
-491.072167
 31
0.0
  0
LINE
  5
2E1
100
AcDbEntity
  8
0
370
    -3
390
0
  6
Continuous
100
AcDbLine
 10
-45.546396
 20
-161.072167
 30
0.0
 11
-40.546396
 21
-161.072167
 31
0.0
  0
LINE
  5
2E2
100
AcDbEntity
  8
0
370
    -3
390
0
  6
Continuous
100
AcDbLine
 10
-48.546396
 20
-144.072167
 30
0.0
 11
-48.546396
 21
-291.072167
 31
0.0
  0
LINE
  5
2E3
100
AcDbEntity
  8
0
370
    -3
390
0
  6
Continuous
100
AcDbLine
 10
-76.546396
 20
-136.072167
 30
0.0
 11
-56.546396
 21
-136.072167
 31
0.0
  0
LINE
  5
2E4
100
AcDbEntity
  8
0
370
    -3
390
0
  6
Continuous
100
AcDbLine
 10
-84.546396
 20
-82.860767
 30
0.0
 11
-84.546396
 21
-128.072167
 31
0.0
  0
ARC
  5
2E5
100
AcDbEntity
  8
0
370
    -3
390
0
  6
Continuous
100
AcDbCircle
 10
-40.546396
 20
-164.072167
 30
0.0
 40
3.0
100
AcDbArc
 50
48.189685
 51
90.0
  0
ARC
  5
2E6
100
AcDbEntity
  8
0
370
    -3
390
0
  6
Continuous
100
AcDbCircle
 10
-45.546396
 20
-158.072167
 30
0.0
 40
3.0
100
AcDbArc
 50
180.0
 51
270.0
  0
ARC
  5
2E7
100
AcDbEntity
  8
0
370
    -3
390
0
  6
Continuous
100
AcDbCircle
 10
-56.546396
 20
-144.072167
 30
0.0
 40
8.0
100
AcDbArc
 50
0.0
 51
90.0
  0
ARC
  5
2E8
100
AcDbEntity
  8
0
370
    -3
390
0
  6
Continuous
100
AcDbCircle
 10
-76.546396
 20
-128.072167
 30
0.0
 40
8.0
100
AcDbArc
 50
180.0
 51
270.0
  0
ARC
  5
2E9
100
AcDbEntity
  8
0
370
    -3
390
0
  6
Continuous
100
AcDbCircle
 10
-40.546396
 20
-288.072167
 30
0.0
 40
3.0
100
AcDbArc
 50
270.0
 51
311.810315
  0
LINE
  5
2EA
100
AcDbEntity
  8
0
370
    -3
390
0
  6
Continuous
100
AcDbLine
 10
-45.546396
 20
-291.072167
 30
0.0
 11
-40.546396
 21
-291.072167
 31
0.0
  0
ARC
  5
2EB
100
AcDbEntity
  8
0
370
    -3
390
0
  6
Continuous
100
AcDbCircle
 10
-45.546396
 20
-294.072167
 30
0.0
 40
3.0
100
AcDbArc
 50
90.0
 51
180.0
  0
LINE
  5
2EC
100
AcDbEntity
  8
0
370
    -3
390
0
  6
Continuous
100
AcDbLine
 10
-48.546396
 20
-386.072167
 30
0.0
 11
-48.546396
 21
-294.072167
 31
0.0
  0
LINE
  5
2ED
100
AcDbEntity
  8
0
370
    -3
390
0
  6
Continuous
100
AcDbLine
 10
-48.546396
 20
-386.072167
 30
0.0
 11
-48.546396
 21
-432.00547
 31
0.0
  0
LINE
  5
2EE
100
AcDbEntity
  8
0
370
    -3
390
0
  6
Continuous
100
AcDbLine
 10
-108.046396
 20
-451.072167
 30
0.0
 11
-51.507017
 21
-451.072167
 31
0.0
  0
LINE
  5
2EF
100
AcDbEntity
  8
0
370
    -3
390
0
  6
Continuous
100
AcDbLine
 10
-38.546396
 20
-456.072167
 30
0.0
 11
-38.546396
 21
-491.072167
 31
0.0
  0
ARC
  5
2F0
100
AcDbEntity
  8
0
370
    -3
390
0
  6
Continuous
100
AcDbCircle
 10
-43.546396
 20
-456.072167
 30
0.0
 40
5.0
100
AcDbArc
 50
0.0
 51
90.0
  0
ARC
  5
2F1
100
AcDbEntity
  8
0
370
    -3
390
0
  6
Continuous
100
AcDbCircle
 10
-443.546396
 20
-460.072167
 30
0.0
 40
5.0
100
AcDbArc
 50
90.0
 51
180.0
  0
ARC
  5
2F2
100
AcDbEntity
  8
0
370
    -3
390
0
  6
Continuous
100
AcDbCircle
 10
-277.546396
 20
-178.072167
 30
0.0
 40
6.0
100
AcDbArc
 50
270.0
 51
0.0
  0
LINE
  5
2F3
100
AcDbEntity
  8
0
370
    -3
390
0
  6
Continuous
100
AcDbLine
 10
-277.546396
 20
-184.072167
 30
0.0
 11
-289.546396
 21
-184.072167
 31
0.0
  0
LINE
  5
2F4
100
AcDbEntity
  8
0
370
    -3
390
0
  6
Continuous
100
AcDbLine
 10
-289.546396
 20
-144.874047
 30
0.0
 11
-281.085488
 21
-144.874047
 31
0.0
  0
ARC
  5
2F5
100
AcDbEntity
  8
0
370
    -3
390
0
  6
Continuous
100
AcDbCircle
 10
-268.546396
 20
-68.274208
 30
0.0
 40
3.0
100
AcDbArc
 50
297.035692
 51
0.0
  0
ARC
  5
2F6
100
AcDbEntity
  8
0
370
    -3
390
0
  6
Continuous
100
AcDbCircle
 10
-263.546396
 20
-78.072167
 30
0.0
 40
8.0
100
AcDbArc
 50
117.035692
 51
180.0
  0
ARC
  5
2F7
100
AcDbEntity
  8
0
370
    -3
390
0
  6
Continuous
100
AcDbCircle
 10
-262.546396
 20
-64.072167
 30
0.0
 40
3.0
100
AcDbArc
 50
90.0
 51
180.0
  0
LINE
  5
2F8
100
AcDbEntity
  8
0
370
    -3
390
0
  6
Continuous
100
AcDbLine
 10
-321.546396
 20
-419.819783
 30
0.0
 11
-321.546396
 21
-330.072167
 31
0.0
  0
LINE
  5
2F9
100
AcDbEntity
  8
0
370
    -3
390
0
  6
Continuous
100
AcDbLine
 10
-265.546396
 20
-64.072167
 30
0.0
 11
-265.546396
 21
-68.274208
 31
0.0
  0
LINE
  5
2FA
100
AcDbEntity
  8
0
370
    -3
390
0
  6
Continuous
100
AcDbLine
 10
-249.046396
 20
-61.072167
 30
0.0
 11
-212.046396
 21
-61.072167
 31
0.0
  0
ARC
  5
2FB
100
AcDbEntity
  8
0
370
    -3
390
0
  6
Continuous
100
AcDbCircle
 10
-270.546396
 20
-64.072167
 30
0.0
 40
3.0
100
AcDbArc
 50
90.0
 51
180.0
  0
ARC
  5
2FC
100
AcDbEntity
  8
0
370
    -3
390
0
  6
Continuous
100
AcDbCircle
 10
-268.546396
 20
-64.072167
 30
0.0
 40
3.0
100
AcDbArc
 50
90.0
 51
180.0
  0
LINE
  5
2FD
100
AcDbEntity
  8
0
370
    -3
390
0
  6
Continuous
100
AcDbLine
 10
-273.546396
 20
-64.072167
 30
0.0
 11
-273.546396
 21
-96.072167
 31
0.0
  0
LINE
  5
2FE
100
AcDbEntity
  8
0
370
    -3
390
0
  6
Continuous
100
AcDbLine
 10
-271.546396
 20
-64.072167
 30
0.0
 11
-271.546396
 21
-318.072167
 31
0.0
  0
LINE
  5
2FF
100
AcDbEntity
  8
0
370
    -3
390
0
  6
Continuous
100
AcDbLine
 10
-249.046396
 20
-166.072167
 30
0.0
 11
-249.046396
 21
-286.072167
 31
0.0
  0
LINE
  5
300
100
AcDbEntity
  8
0
370
    -3
390
0
  6
Continuous
100
AcDbLine
 10
-270.546396
 20
-61.072167
 30
0.0
 11
-249.046396
 21
-61.072167
 31
0.0
  0
LINE
  5
301
100
AcDbEntity
  8
0
370
    -3
390
0
  6
Continuous
100
AcDbLine
 10
-289.205387
 20
-183.316791
 30
0.0
 11
-274.631963
 21
-183.316791
 31
0.0
  0
ARC
  5
302
100
AcDbEntity
  8
0
370
    -3
390
0
  6
Continuous
100
AcDbCircle
 10
-289.205387
 20
-180.316791
 30
0.0
 40
3.0
100
AcDbArc
 50
270.0
 51
353.103099
  0
LINE
  5
303
100
AcDbEntity
  8
0
370
    -3
390
0
  6
Continuous
100
AcDbLine
 10
-273.546396
 20
-92.376454
 30
0.0
 11
-286.227096
 21
-180.677041
 31
0.0
  0
ARC
  5
304
100
AcDbEntity
  8
0
370
    -3
390
0
  6
Continuous
100
AcDbCircle
 10
-271.546396
 20
-96.072167
 30
0.0
 40
2.0
100
AcDbArc
 50
180.0
 51
270.0
  0
LINE
  5
305
100
AcDbEntity
  8
0
370
    -3
390
0
  6
Continuous
100
AcDbLine
 10
-273.546396
 20
-209.072167
 30
0.0
 11
-273.546396
 21
-243.072167
 31
0.0
  0
ARC
  5
306
100
AcDbEntity
  8
0
370
    -3
390
0
  6
Continuous
100
AcDbCircle
 10
-271.546396
 20
-209.072167
 30
0.0
 40
2.0
100
AcDbArc
 50
90.0
 51
180.0
  0
ARC
  5
307
100
AcDbEntity
  8
0
370
    -3
390
0
  6
Continuous
100
AcDbCircle
 10
-271.546396
 20
-243.072167
 30
0.0
 40
2.0
100
AcDbArc
 50
180.0
 51
270.0
  0
LINE
  5
308
100
AcDbEntity
  8
0
370
    -3
390
0
  6
Continuous
100
AcDbLine
 10
-273.546396
 20
-331.072167
 30
0.0
 11
-273.546396
 21
-361.072167
 31
0.0
  0
ARC
  5
309
100
AcDbEntity
  8
0
370
    -3
390
0
  6
Continuous
100
AcDbCircle
 10
-271.546396
 20
-331.072167
 30
0.0
 40
2.0
100
AcDbArc
 50
90.0
 51
180.0
  0
LINE
  5
30A
100
AcDbEntity
  8
0
370
    -3
390
0
  6
Continuous
100
AcDbLine
 10
-205.143441
 20
-46.072167
 30
0.0
 11
-205.143441
 21
-56.072167
 31
0.0
  0
ARC
  5
30B
100
AcDbEntity
  8
0
370
    -3
390
0
  6
Continuous
100
AcDbCircle
 10
-271.546396
 20
-361.072167
 30
0.0
 40
2.0
100
AcDbArc
 50
180.0
 51
270.0
  0
LINE
  5
30C
100
AcDbEntity
  8
0
370
    -3
390
0
  6
Continuous
100
AcDbLine
 10
-289.546396
 20
-299.072167
 30
0.0
 11
-276.546396
 21
-299.072167
 31
0.0
  0
ARC
  5
30D
100
AcDbEntity
  8
0
370
    -3
390
0
  6
Continuous
100
AcDbCircle
 10
-276.546396
 20
-294.072167
 30
0.0
 40
5.0
100
AcDbArc
 50
270.0
 51
0.0
  0
LINE
  5
30E
100
AcDbEntity
  8
0
370
    -3
390
0
  6
CENTER
100
AcDbLine
 10
-261.534309
 20
-318.072167
 30
0.0
 11
-800.083492
 21
-318.072167
 31
0.0
  0
ARC
  5
30F
100
AcDbEntity
  8
0
370
    -3
390
0
  6
Continuous
100
AcDbCircle
 10
-199.546396
 20
-62.572167
 30
0.0
 40
1.5
100
AcDbArc
 50
0.0
 51
90.0
  0
LINE
  5
310
100
AcDbEntity
  8
0
370
    -3
390
0
  6
Continuous
100
AcDbLine
 10
-271.546396
 20
-318.072167
 30
0.0
 11
-271.546396
 21
-395.139773
 31
0.0
  0
LINE
  5
311
100
AcDbEntity
  8
0
370
    -3
390
0
  6
Continuous
100
AcDbLine
 10
-287.546396
 20
-374.782543
 30
0.0
 11
-271.546396
 21
-374.782543
 31
0.0
  0
ARC
  5
312
100
AcDbEntity
  8
0
370
    -3
390
0
  6
Continuous
100
AcDbCircle
 10
-199.546396
 20
-62.572167
 30
0.0
 40
1.5
100
AcDbArc
 50
270.0
 51
0.0
  0
LINE
  5
313
100
AcDbEntity
  8
0
370
    -3
390
0
  6
Continuous
100
AcDbLine
 10
-287.258618
 20
-375.391311
 30
0.0
 11
-276.716665
 21
-397.691819
 31
0.0
  0
LINE
  5
314
100
AcDbEntity
  8
0
370
    -3
390
0
  6
Continuous
100
AcDbLine
 10
-289.546396
 20
-403.453601
 30
0.0
 11
-288.389639
 21
-403.453601
 31
0.0
  0
ARC
  5
315
100
AcDbEntity
  8
0
370
    -3
390
0
  6
Continuous
100
AcDbCircle
 10
-284.546396
 20
-374.109182
 30
0.0
 40
3.0
100
AcDbArc
 50
180.0
 51
205.301157
  0
LINE
  5
316
100
AcDbEntity
  8
0
370
    -3
390
0
  6
Continuous
100
AcDbLine
 10
-69.672063
 20
-262.347142
 30
0.0
 11
-53.504507
 21
-265.197919
 31
0.0
  0
ARC
  5
317
100
AcDbEntity
  8
0
370
    -3
390
0
  6
Continuous
100
AcDbCircle
 10
-54.546396
 20
-271.106765
 30
0.0
 40
6.0
100
AcDbArc
 50
0.0
 51
80.0
  0
LINE
  5
318
100
AcDbEntity
  8
0
370
    -3
390
0
  6
Continuous
100
AcDbLine
 10
-193.796396
 20
-58.072167
 30
0.0
 11
-209.046396
 21
-58.072167
 31
0.0
  0
LINE
  5
319
100
AcDbEntity
  8
0
370
    -3
390
0
  6
Continuous
100
AcDbLine
 10
-48.546396
 20
-294.072167
 30
0.0
 11
-48.546396
 21
-271.106765
 31
0.0
  0
LINE
  5
31A
100
AcDbEntity
  8
0
370
    -3
390
0
  6
Continuous
100
AcDbLine
 10
-193.796396
 20
-58.072167
 30
0.0
 11
-193.796396
 21
-61.072167
 31
0.0
  0
LINE
  5
31B
100
AcDbEntity
  8
0
370
    -3
390
0
  6
Continuous
100
AcDbLine
 10
-84.546396
 20
-244.620603
 30
0.0
 11
-84.546396
 21
-128.072167
 31
0.0
  0
ARC
  5
31C
100
AcDbEntity
  8
0
370
    -3
390
0
  6
Continuous
100
AcDbCircle
 10
-66.546396
 20
-244.620603
 30
0.0
 40
18.0
100
AcDbArc
 50
180.0
 51
260.0
  0
LINE
  5
31D
100
AcDbEntity
  8
0
370
    -3
390
0
  6
Continuous
100
AcDbLine
 10
-249.046396
 20
-207.072167
 30
0.0
 11
-144.046396
 21
-207.072167
 31
0.0
  0
LINE
  5
31E
100
AcDbEntity
  8
0
370
    -3
390
0
  6
Continuous
100
AcDbLine
 10
-243.046396
 20
-280.072167
 30
0.0
 11
-144.046396
 21
-280.072167
 31
0.0
  0
LINE
  5
31F
100
AcDbEntity
  8
0
370
    -3
390
0
  6
Continuous
100
AcDbLine
 10
-193.046396
 20
-56.072167
 30
0.0
 11
-193.529729
 21
-56.072167
 31
0.0
  0
LINE
  5
320
100
AcDbEntity
  8
0
370
    -3
390
0
  6
Continuous
100
AcDbLine
 10
-238.046396
 20
-311.072167
 30
0.0
 11
-144.046396
 21
-311.072167
 31
0.0
  0
LINE
  5
321
100
AcDbEntity
  8
0
370
    -3
390
0
  6
Continuous
100
AcDbLine
 10
-193.046396
 20
-57.072167
 30
0.0
 11
-193.046396
 21
-46.072167
 31
0.0
  0
LINE
  5
322
100
AcDbEntity
  8
0
370
    -3
390
0
  6
Continuous
100
AcDbLine
 10
-243.046396
 20
-374.958252
 30
0.0
 11
-243.046396
 21
-280.072167
 31
0.0
  0
LINE
  5
323
100
AcDbEntity
  8
0
370
    -3
390
0
  6
Continuous
100
AcDbLine
 10
-193.046396
 20
-57.072167
 30
0.0
 11
-209.046396
 21
-57.072167
 31
0.0
  0
LINE
  5
324
100
AcDbEntity
  8
0
370
    -3
390
0
  6
Continuous
100
AcDbLine
 10
-142.046396
 20
-411.072167
 30
0.0
 11
-142.046396
 21
-212.072167
 31
0.0
  0
LINE
  5
325
100
AcDbEntity
  8
0
370
    -3
390
0
  6
Continuous
100
AcDbLine
 10
-193.046396
 20
-57.072167
 30
0.0
 11
-193.046396
 21
-46.072167
 31
0.0
  0
ARC
  5
326
100
AcDbEntity
  8
0
370
    -3
390
0
  6
Continuous
100
AcDbCircle
 10
-147.046396
 20
-212.072167
 30
0.0
 40
5.0
100
AcDbArc
 50
0.0
 51
90.0
  0
LINE
  5
327
100
AcDbEntity
  8
0
370
    -3
390
0
  6
Continuous
100
AcDbLine
 10
-193.796396
 20
-61.072167
 30
0.0
 11
-209.046396
 21
-61.072167
 31
0.0
  0
ARC
  5
328
100
AcDbEntity
  8
0
370
    -3
390
0
  6
Continuous
100
AcDbCircle
 10
-147.046396
 20
-275.072167
 30
0.0
 40
5.0
100
AcDbArc
 50
270.0
 51
0.0
  0
ARC
  5
329
100
AcDbEntity
  8
0
370
    -3
390
0
  6
Continuous
100
AcDbCircle
 10
-147.046396
 20
-285.072167
 30
0.0
 40
5.0
100
AcDbArc
 50
0.0
 51
90.0
  0
ARC
  5
32A
100
AcDbEntity
  8
0
370
    -3
390
0
  6
Continuous
100
AcDbCircle
 10
-147.046396
 20
-306.072167
 30
0.0
 40
5.0
100
AcDbArc
 50
270.0
 51
0.0
  0
ARC
  5
32B
100
AcDbEntity
  8
0
370
    -3
390
0
  6
Continuous
100
AcDbCircle
 10
-147.046396
 20
-316.072167
 30
0.0
 40
5.0
100
AcDbArc
 50
0.0
 51
90.0
  0
ARC
  5
32C
100
AcDbEntity
  8
0
370
    -3
390
0
  6
Continuous
100
AcDbCircle
 10
-248.046396
 20
-280.072167
 30
0.0
 40
5.0
100
AcDbArc
 50
0.0
 51
90.0
  0
ARC
  5
32D
100
AcDbEntity
  8
0
370
    -3
390
0
  6
Continuous
100
AcDbCircle
 10
-238.046396
 20
-306.072167
 30
0.0
 40
5.0
100
AcDbArc
 50
180.0
 51
270.0
  0
INSERT
  5
33E
100
AcDbEntity
  8
0
390
0
100
AcDbBlockReference
  2
ZU_SYM__USERS_HOME_SYMBOL_POO_SYM_B21_0000621
 10
-273.546396
 20
-81.072167
 30
0.0
  0
ARC
  5
33F
100
AcDbEntity
  8
0
370
    -3
390
0
  6
Continuous
100
AcDbCircle
 10
-238.046396
 20
-316.072167
 30
0.0
 40
5.0
100
AcDbArc
 50
90.0
 51
180.0
  0
ARC
  5
340
100
AcDbEntity
  8
0
370
    -3
390
0
  6
Continuous
100
AcDbCircle
 10
-102.046396
 20
-411.072167
 30
0.0
 40
40.0
100
AcDbArc
 50
180.0
 51
270.0
  0
LINE
  5
341
100
AcDbEntity
  8
0
370
    -3
390
0
  6
Continuous
100
AcDbLine
 10
-51.507017
 20
-451.072167
 30
0.0
 11
-42.546396
 21
-451.072167
 31
0.0
  0
ARC
  5
342
100
AcDbEntity
  8
0
370
    -3
390
0
  6
Continuous
100
AcDbCircle
 10
-253.046396
 20
-374.958252
 30
0.0
 40
10.0
100
AcDbArc
 50
304.024236
 51
0.0
  0
LINE
  5
343
100
AcDbEntity
  8
0
370
    -3
390
0
  6
Continuous
100
AcDbLine
 10
-443.546396
 20
-455.072167
 30
0.0
 11
-388.641811
 21
-452.402036
 31
0.0
  0
LINE
  5
344
100
AcDbEntity
  8
0
370
    -3
390
0
  6
Continuous
100
AcDbLine
 10
-212.949351
 20
-56.072167
 30
0.0
 11
-209.046396
 21
-56.072167
 31
0.0
  0
LINE
  5
345
100
AcDbEntity
  8
0
370
    -3
390
0
  6
Continuous
100
AcDbLine
 10
-247.450961
 20
-383.246261
 30
0.0
 11
-385.682318
 21
-451.477286
 31
0.0
  0
LINE
  5
346
100
AcDbEntity
  8
0
370
    -3
390
0
  6
Continuous
100
AcDbLine
 10
-224.296396
 20
-58.072167
 30
0.0
 11
-209.046396
 21
-58.072167
 31
0.0
  0
ARC
  5
347
100
AcDbEntity
  8
0
370
    -3
390
0
  6
Continuous
100
AcDbCircle
 10
-390.108485
 20
-442.510177
 30
0.0
 40
10.0
100
AcDbArc
 50
272.784227
 51
296.270955
  0
LINE
  5
348
100
AcDbEntity
  8
0
370
    -3
390
0
  6
Continuous
100
AcDbLine
 10
-222.046396
 20
-58.072167
 30
0.0
 11
-222.046396
 21
-57.072167
 31
0.0
  0
LINE
  5
349
100
AcDbEntity
  8
0
370
    -3
390
0
  6
Continuous
100
AcDbLine
 10
-212.046396
 20
-61.072167
 30
0.0
 11
-209.046396
 21
-61.072167
 31
0.0
  0
LINE
  5
34A
100
AcDbEntity
  8
0
370
    -3
390
0
  6
Continuous
100
AcDbLine
 10
-222.778142
 20
-56.072167
 30
0.0
 11
-217.25853
 21
-56.072167
 31
0.0
  0
LINE
  5
34B
100
AcDbEntity
  8
0
370
    -3
390
0
  6
Continuous
100
AcDbLine
 10
-191.546396
 20
-66.072167
 30
0.0
 11
-191.546396
 21
-69.946268
 31
0.0
  0
LINE
  5
34C
100
AcDbEntity
  8
0
370
    -3
390
0
  6
Continuous
100
AcDbLine
 10
-224.563063
 20
-46.072167
 30
0.0
 11
-224.563063
 21
-56.072167
 31
0.0
  0
LINE
  5
34D
100
AcDbEntity
  8
0
370
    -3
390
0
  6
Continuous
100
AcDbLine
 10
-209.046396
 20
-64.072167
 30
0.0
 11
-193.546396
 21
-64.072167
 31
0.0
  0
LINE
  5
34E
100
AcDbEntity
  8
0
370
    -3
390
0
  6
Continuous
100
AcDbLine
 10
-222.778142
 20
-46.072167
 30
0.0
 11
-222.778142
 21
-56.072167
 31
0.0
  0
ARC
  5
34F
100
AcDbEntity
  8
0
370
    -3
390
0
  6
Continuous
100
AcDbCircle
 10
-193.546396
 20
-66.072167
 30
0.0
 40
2.0
100
AcDbArc
 50
0.0
 51
90.0
  0
LINE
  5
350
100
AcDbEntity
  8
0
370
    -3
390
0
  6
Continuous
100
AcDbLine
 10
-217.25853
 20
-46.072167
 30
0.0
 11
-217.25853
 21
-56.072167
 31
0.0
  0
LINE
  5
351
100
AcDbEntity
  8
0
370
    -3
390
0
  6
Continuous
100
AcDbLine
 10
-196.046396
 20
-58.072167
 30
0.0
 11
-196.046396
 21
-57.072167
 31
0.0
  0
LINE
  5
352
100
AcDbEntity
  8
0
370
    -3
390
0
  6
Continuous
100
AcDbLine
 10
-212.949351
 20
-46.072167
 30
0.0
 11
-212.949351
 21
-56.072167
 31
0.0
  0
LINE
  5
353
100
AcDbEntity
  8
0
370
    -3
390
0
  6
Continuous
100
AcDbLine
 10
-195.31465
 20
-56.072167
 30
0.0
 11
-200.834261
 21
-56.072167
 31
0.0
  0
LINE
  5
354
100
AcDbEntity
  8
0
370
    -3
390
0
  6
Continuous
100
AcDbLine
 10
-224.296396
 20
-58.072167
 30
0.0
 11
-224.296396
 21
-61.072167
 31
0.0
  0
LINE
  5
355
100
AcDbEntity
  8
0
370
    -3
390
0
  6
Continuous
100
AcDbLine
 10
-193.529729
 20
-46.072167
 30
0.0
 11
-193.529729
 21
-56.072167
 31
0.0
  0
LINE
  5
356
100
AcDbEntity
  8
0
370
    -3
390
0
  6
Continuous
100
AcDbLine
 10
-225.046396
 20
-56.072167
 30
0.0
 11
-224.563063
 21
-56.072167
 31
0.0
  0
INSERT
  5
367
100
AcDbEntity
  8
0
390
0
100
AcDbBlockReference
  2
ZU_SYM__USERS_HOME_SYMBOL_POO_SYM_B21_0000721
 10
-273.546396
 20
-226.072167
 30
0.0
  0
LINE
  5
368
100
AcDbEntity
  8
0
370
    -3
390
0
  6
Continuous
100
AcDbLine
 10
-195.31465
 20
-46.072167
 30
0.0
 11
-195.31465
 21
-56.072167
 31
0.0
  0
LINE
  5
369
100
AcDbEntity
  8
0
370
    -3
390
0
  6
Continuous
100
AcDbLine
 10
-225.046396
 20
-57.072167
 30
0.0
 11
-225.046396
 21
-46.072167
 31
0.0
  0
ARC
  5
36A
100
AcDbEntity
  8
0
370
    -3
390
0
  6
Continuous
100
AcDbCircle
 10
-92.546396
 20
-82.860767
 30
0.0
 40
8.0
100
AcDbArc
 50
0.0
 51
88.281642
  0
LINE
  5
36B
100
AcDbEntity
  8
0
370
    -3
390
0
  6
Continuous
100
AcDbLine
 10
-225.046396
 20
-57.072167
 30
0.0
 11
-209.046396
 21
-57.072167
 31
0.0
  0
ARC
  5
36C
100
AcDbEntity
  8
0
370
    -3
390
0
  6
Continuous
100
AcDbCircle
 10
-83.546396
 20
-432.00547
 30
0.0
 40
35.0
100
AcDbArc
 50
326.991546
 51
0.0
  0
LINE
  5
36D
100
AcDbEntity
  8
0
370
    -3
390
0
  6
Continuous
100
AcDbLine
 10
-225.046396
 20
-57.072167
 30
0.0
 11
-225.046396
 21
-46.072167
 31
0.0
  0
LINE
  5
36E
100
AcDbEntity
  8
0
370
    -3
390
0
  6
Continuous
100
AcDbLine
 10
-85.157225
 20
-78.996521
 30
0.0
 11
-54.136641
 21
-135.006437
 31
0.0
  0
LINE
  5
36F
100
AcDbEntity
  8
0
370
    -3
390
0
  6
CENTER
100
AcDbLine
 10
-209.046396
 20
-39.602059
 30
0.0
 11
-209.046396
 21
-77.970492
 31
0.0
  0
ARC
  5
370
100
AcDbEntity
  8
0
370
    -3
390
0
  6
Continuous
100
AcDbCircle
 10
-92.155571
 20
-82.872491
 30
0.0
 40
8.0
100
AcDbArc
 50
28.979478
 51
88.281642
  0
LINE
  5
371
100
AcDbEntity
  8
0
370
    -3
390
0
  6
Continuous
100
AcDbLine
 10
-199.546396
 20
-64.072167
 30
0.0
 11
-209.046396
 21
-64.072167
 31
0.0
  0
ARC
  5
372
100
AcDbEntity
  8
0
370
    -3
390
0
  6
Continuous
100
AcDbCircle
 10
-47.138295
 20
-131.130466
 30
0.0
 40
8.0
100
AcDbArc
 50
208.979478
 51
233.984342
  0
LINE
  5
373
100
AcDbEntity
  8
0
370
    -3
390
0
  6
Continuous
100
AcDbLine
 10
-209.046396
 20
-64.072167
 30
0.0
 11
-209.046396
 21
-67.072167
 31
0.0
  0
ARC
  5
374
100
AcDbEntity
  8
0
370
    -3
390
0
  6
Continuous
100
AcDbCircle
 10
-212.046396
 20
-64.072167
 30
0.0
 40
3.0
100
AcDbArc
 50
0.0
 51
90.0
  0
LINE
  5
375
100
AcDbEntity
  8
0
370
    -3
390
0
  6
Continuous
100
AcDbLine
 10
-249.546396
 20
-61.072167
 30
0.0
 11
-249.546396
 21
-384.280569
 31
0.0
  0
LINE
  5
376
100
AcDbEntity
  8
0
370
    -3
390
0
  6
Continuous
100
AcDbLine
 10
-249.046396
 20
-70.162167
 30
0.0
 11
-207.106369
 21
-71.420368
 31
0.0
  0
ARC
  5
377
100
AcDbEntity
  8
0
370
    -3
390
0
  6
Continuous
100
AcDbCircle
 10
-189.546396
 20
-69.946268
 30
0.0
 40
2.0
100
AcDbArc
 50
180.0
 51
268.281642
  0
LINE
  5
378
100
AcDbEntity
  8
0
370
    -3
390
0
  6
Continuous
100
AcDbLine
 10
-207.106369
 20
-71.420368
 30
0.0
 11
-189.606369
 21
-71.945368
 31
0.0
  0
LINE
  5
379
100
AcDbEntity
  8
0
370
    -3
390
0
  6
DASHED
100
AcDbLine
 10
-209.046396
 20
-67.072167
 30
0.0
 11
-209.046396
 21
-69.421268
 31
0.0
  0
LINE
  5
37A
100
AcDbEntity
  8
0
370
    -3
390
0
  6
Continuous
100
AcDbLine
 10
-189.606369
 20
-71.945368
 30
0.0
 11
-91.915679
 21
-74.876089
 31
0.0
  0
ARC
  5
37B
100
AcDbEntity
  8
0
370
    -3
390
0
  6
Continuous
100
AcDbCircle
 10
-207.046396
 20
-69.421268
 30
0.0
 40
2.0
100
AcDbArc
 50
180.0
 51
268.281642
  0
LINE
  5
37C
100
AcDbEntity
  8
0
370
    -3
390
0
  6
Continuous
100
AcDbLine
 10
-193.046396
 20
-46.072167
 30
0.0
 11
-209.046396
 21
-46.072167
 31
0.0
  0
LINE
  5
37D
100
AcDbEntity
  8
0
370
    -3
390
0
  6
Continuous
100
AcDbLine
 10
-196.046396
 20
-44.072167
 30
0.0
 11
-194.546396
 21
-46.072167
 31
0.0
  0
LINE
  5
37E
100
AcDbEntity
  8
0
370
    -3
390
0
  6
Continuous
100
AcDbLine
 10
-196.046396
 20
-44.072167
 30
0.0
 11
-194.546396
 21
-46.072167
 31
0.0
  0
LINE
  5
37F
100
AcDbEntity
  8
0
370
    -3
390
0
  6
Continuous
100
AcDbLine
 10
-225.046396
 20
-46.072167
 30
0.0
 11
-209.046396
 21
-46.072167
 31
0.0
  0
LINE
  5
380
100
AcDbEntity
  8
0
370
    -3
390
0
  6
Continuous
100
AcDbLine
 10
-222.046396
 20
-44.072167
 30
0.0
 11
-209.046396
 21
-44.072167
 31
0.0
  0
INSERT
  5
391
100
AcDbEntity
  8
0
390
0
100
AcDbBlockReference
  2
ZU_SYM__USERS_HOME_SYMBOL_POO_SYM_B21_0000821
 10
-273.546396
 20
-346.072167
 30
0.0
  0
LINE
  5
392
100
AcDbEntity
  8
0
370
    -3
390
0
  6
Continuous
100
AcDbLine
 10
-196.046396
 20
-44.072167
 30
0.0
 11
-209.046396
 21
-44.072167
 31
0.0
  0
LINE
  5
393
100
AcDbEntity
  8
0
370
    -3
390
0
  6
Continuous
100
AcDbLine
 10
-275.546396
 20
-95.072167
 30
0.0
 11
-275.546396
 21
-106.303223
 31
0.0
  0
LINE
  5
394
100
AcDbEntity
  8
0
370
    -3
390
0
  6
Continuous
100
AcDbLine
 10
-222.046396
 20
-44.072167
 30
0.0
 11
-223.546396
 21
-46.072167
 31
0.0
  0
LINE
  5
395
100
AcDbEntity
  8
0
370
    -3
390
0
  6
CENTER
100
AcDbLine
 10
-300.244293
 20
-81.072167
 30
0.0
 11
-255.863685
 21
-81.072167
 31
0.0
  0
LINE
  5
396
100
AcDbEntity
  8
0
370
    -3
390
0
  6
Continuous
100
AcDbLine
 10
-222.046396
 20
-44.072167
 30
0.0
 11
-223.546396
 21
-46.072167
 31
0.0
  0
LINE
  5
397
100
AcDbEntity
  8
0
370
    -3
390
0
  6
CENTER
100
AcDbLine
 10
-299.563917
 20
-226.072167
 30
0.0
 11
79.372131
 21
-226.072167
 31
0.0
  0
LINE
  5
398
100
AcDbEntity
  8
0
370
    -3
390
0
  6
Continuous
100
AcDbLine
 10
-289.546396
 20
-144.874047
 30
0.0
 11
-289.546396
 21
-214.072167
 31
0.0
  0
LINE
  5
399
100
AcDbEntity
  8
0
370
    -3
390
0
  6
Continuous
100
AcDbLine
 10
-289.546396
 20
-238.072167
 30
0.0
 11
-289.546396
 21
-318.072167
 31
0.0
  0
LINE
  5
39A
100
AcDbEntity
  8
0
370
    -3
390
0
  6
Continuous
100
AcDbLine
 10
-287.546396
 20
-358.072167
 30
0.0
 11
-287.546396
 21
-403.037376
 31
0.0
  0
LINE
  5
39B
100
AcDbEntity
  8
0
370
    -3
390
0
  6
Continuous
100
AcDbLine
 10
-289.546396
 20
-318.072167
 30
0.0
 11
-289.546396
 21
-334.072167
 31
0.0
  0
LINE
  5
39C
100
AcDbEntity
  8
0
370
    -3
390
0
  6
Continuous
100
AcDbLine
 10
-289.546396
 20
-358.072167
 30
0.0
 11
-289.546396
 21
-404.024576
 31
0.0
  0
LINE
  5
39D
100
AcDbEntity
  8
0
370
    -3
390
0
  6
CENTER
100
AcDbLine
 10
-298.770482
 20
-346.072167
 30
0.0
 11
-255.863685
 21
-346.072167
 31
0.0
  0
LINE
  5
39E
100
AcDbEntity
  8
0
370
    -3
390
0
  6
Continuous
100
AcDbLine
 10
-38.546396
 20
-263.572167
 30
0.0
 11
-33.546396
 21
-263.572167
 31
0.0
  0
LINE
  5
39F
100
AcDbEntity
  8
0
370
    -3
390
0
  6
Continuous
100
AcDbLine
 10
-38.546396
 20
-188.572167
 30
0.0
 11
-33.546396
 21
-188.572167
 31
0.0
  0
LINE
  5
3A0
100
AcDbEntity
  8
0
370
    -3
390
0
  6
Continuous
100
AcDbLine
 10
-8.546396
 20
-186.572167
 30
0.0
 11
71.453604
 21
-186.572167
 31
0.0
  0
LINE
  5
3A1
100
AcDbEntity
  8
0
370
    -3
390
0
  6
Continuous
100
AcDbLine
 10
-33.546396
 20
-188.572167
 30
0.0
 11
-33.546396
 21
-263.572167
 31
0.0
  0
LINE
  5
3A2
100
AcDbEntity
  8
0
370
    -3
390
0
  6
Continuous
100
AcDbLine
 10
-8.546396
 20
-186.572167
 30
0.0
 11
-8.546396
 21
-191.072167
 31
0.0
  0
LINE
  5
3A3
100
AcDbEntity
  8
0
370
    -3
390
0
  6
Continuous
100
AcDbLine
 10
-33.546396
 20
-261.072167
 30
0.0
 11
71.453604
 21
-261.072167
 31
0.0
  0
LINE
  5
3A4
100
AcDbEntity
  8
0
370
    -3
390
0
  6
Continuous
100
AcDbLine
 10
-33.546396
 20
-191.072167
 30
0.0
 11
71.453604
 21
-191.072167
 31
0.0
  0
LINE
  5
3A5
100
AcDbEntity
  8
0
370
    -3
390
0
  6
Continuous
100
AcDbLine
 10
71.453604
 20
-186.572167
 30
0.0
 11
71.453604
 21
-261.072167
 31
0.0
  0
LINE
  5
3A6
100
AcDbEntity
  8
0
370
    -3
390
0
  6
Continuous
100
AcDbLine
 10
-305.546396
 20
-181.825253
 30
0.0
 11
-289.546396
 21
-181.825253
 31
0.0
  0
ARC
  5
3A7
100
AcDbEntity
  8
0
370
    -3
390
0
  6
Continuous
100
AcDbCircle
 10
-305.546396
 20
-231.257685
 30
0.0
 40
3.0
100
AcDbArc
 50
180.0
 51
270.0
  0
LINE
  5
3A8
100
AcDbEntity
  8
0
370
    -3
390
0
  6
Continuous
100
AcDbLine
 10
-305.546396
 20
-234.257685
 30
0.0
 11
-293.546359
 21
-234.257685
 31
0.0
  0
ARC
  5
3A9
100
AcDbEntity
  8
0
370
    -3
390
0
  6
Continuous
100
AcDbCircle
 10
-305.546396
 20
-302.072167
 30
0.0
 40
3.0
100
AcDbArc
 50
90.0
 51
180.0
  0
LINE
  5
3AA
100
AcDbEntity
  8
0
370
    -3
390
0
  6
CENTER
100
AcDbLine
 10
-176.546396
 20
-451.072167
 30
0.0
 11
-211.546396
 21
-451.072167
 31
0.0
  0
LINE
  5
3AB
100
AcDbEntity
  8
0
370
    -3
390
0
  6
Continuous
100
AcDbLine
 10
-305.546396
 20
-299.072167
 30
0.0
 11
-289.546396
 21
-299.072167
 31
0.0
  0
LINE
  5
3AC
100
AcDbEntity
  8
0
370
    -3
390
0
  6
CENTER
100
AcDbLine
 10
-194.046396
 20
-433.572167
 30
0.0
 11
-194.046396
 21
-468.572167
 31
0.0
  0
ARC
  5
3AD
100
AcDbEntity
  8
0
370
    -3
390
0
  6
Continuous
100
AcDbCircle
 10
-305.546396
 20
-345.072167
 30
0.0
 40
3.0
100
AcDbArc
 50
180.0
 51
270.0
  0
LINE
  5
3AE
100
AcDbEntity
  8
0
370
    -3
390
0
  6
CENTER
100
AcDbLine
 10
-91.242425
 20
-368.072167
 30
0.0
 11
-128.610525
 21
-368.072167
 31
0.0
  0
LINE
  5
3AF
100
AcDbEntity
  8
0
370
    -3
390
0
  6
Continuous
100
AcDbLine
 10
-305.546396
 20
-348.072167
 30
0.0
 11
-293.546364
 21
-348.072167
 31
0.0
  0
LINE
  5
3B0
100
AcDbEntity
  8
0
370
    -3
390
0
  6
CENTER
100
AcDbLine
 10
-109.046396
 20
-349.854261
 30
0.0
 11
-109.046396
 21
-387.455118
 31
0.0
  0
ARC
  5
3B1
100
AcDbEntity
  8
0
370
    -3
390
0
  6
Continuous
100
AcDbCircle
 10
-305.546396
 20
-399.365791
 30
0.0
 40
3.0
100
AcDbArc
 50
180.0
 51
270.0
  0
ARC
  5
3B2
100
AcDbEntity
  8
0
370
    -3
390
0
  6
Continuous
100
AcDbCircle
 10
-333.546396
 20
-491.072167
 30
0.0
 40
5.0
100
AcDbArc
 50
90.0
 51
180.0
  0
LINE
  5
3B3
100
AcDbEntity
  8
0
370
    -3
390
0
  6
Continuous
100
AcDbLine
 10
-305.546396
 20
-402.365791
 30
0.0
 11
-289.546396
 21
-402.365791
 31
0.0
  0
ARC
  5
3B4
100
AcDbEntity
  8
0
370
    -3
390
0
  6
Continuous
100
AcDbCircle
 10
-153.546396
 20
-491.072167
 30
0.0
 40
5.0
100
AcDbArc
 50
0.0
 51
90.0
  0
LINE
  5
3B5
100
AcDbEntity
  8
0
370
    -3
390
0
  6
Continuous
100
AcDbLine
 10
-338.546396
 20
-491.072167
 30
0.0
 11
-448.546396
 21
-491.072167
 31
0.0
  0
LINE
  5
3B6
100
AcDbEntity
  8
0
370
    -3
390
0
  6
Continuous
100
AcDbLine
 10
-153.546396
 20
-486.072167
 30
0.0
 11
-333.546396
 21
-486.072167
 31
0.0
  0
LINE
  5
3B7
100
AcDbEntity
  8
0
370
    -3
390
0
  6
Continuous
100
AcDbLine
 10
-566.735028
 20
-410.051745
 30
0.0
 11
-321.546396
 21
-410.051745
 31
0.0
  0
LINE
  5
3B8
100
AcDbEntity
  8
0
370
    -3
390
0
  6
Continuous
100
AcDbLine
 10
-586.546396
 20
-447.572167
 30
0.0
 11
-572.019791
 21
-447.572167
 31
0.0
  0
LINE
  5
3B9
100
AcDbEntity
  8
0
370
    -3
390
0
  6
Continuous
100
AcDbLine
 10
-586.546396
 20
-451.072167
 30
0.0
 11
-572.019791
 21
-451.072167
 31
0.0
  0
LINE
  5
3BA
100
AcDbEntity
  8
0
370
    -3
390
0
  6
Continuous
100
AcDbLine
 10
-586.546396
 20
-446.072167
 30
0.0
 11
-572.019791
 21
-446.072167
 31
0.0
  0
LINE
  5
3BB
100
AcDbEntity
  8
0
370
    -3
390
0
  6
Continuous
100
AcDbLine
 10
-586.546396
 20
-442.072167
 30
0.0
 11
-572.019791
 21
-442.072167
 31
0.0
  0
LINE
  5
3BC
100
AcDbEntity
  8
0
370
    -3
390
0
  6
Continuous
100
AcDbLine
 10
-586.546396
 20
-436.072167
 30
0.0
 11
-572.019791
 21
-436.072167
 31
0.0
  0
LINE
  5
3BD
100
AcDbEntity
  8
0
370
    -3
390
0
  6
Continuous
100
AcDbLine
 10
-586.546396
 20
-422.779667
 30
0.0
 11
-572.019791
 21
-422.779667
 31
0.0
  0
LINE
  5
3BE
100
AcDbEntity
  8
0
370
    -3
390
0
  6
Continuous
100
AcDbLine
 10
-517.634694
 20
-375.714939
 30
0.0
 11
-321.546396
 21
-375.714939
 31
0.0
  0
LINE
  5
3BF
100
AcDbEntity
  8
0
370
    -3
390
0
  6
Continuous
100
AcDbLine
 10
-517.546396
 20
-372.495525
 30
0.0
 11
-321.546396
 21
-372.495525
 31
0.0
  0
LINE
  5
3C0
100
AcDbEntity
  8
0
370
    -3
390
0
  6
Continuous
100
AcDbLine
 10
-517.546396
 20
-361.516779
 30
0.0
 11
-321.546396
 21
-361.516779
 31
0.0
  0
LINE
  5
3C1
100
AcDbEntity
  8
0
370
    -3
390
0
  6
Continuous
100
AcDbLine
 10
-517.546396
 20
-358.663146
 30
0.0
 11
-321.546396
 21
-358.663146
 31
0.0
  0
LINE
  5
3C2
100
AcDbEntity
  8
0
370
    -3
390
0
  6
Continuous
100
AcDbLine
 10
-517.546396
 20
-342.072167
 30
0.0
 11
-321.546396
 21
-342.072167
 31
0.0
  0
LINE
  5
3C3
100
AcDbEntity
  8
0
370
    -3
390
0
  6
Continuous
100
AcDbLine
 10
-586.546396
 20
-386.415381
 30
0.0
 11
-321.546396
 21
-386.415381
 31
0.0
  0
LINE
  5
3C4
100
AcDbEntity
  8
0
370
    -3
390
0
  6
Continuous
100
AcDbLine
 10
-586.546396
 20
-389.652108
 30
0.0
 11
-321.546396
 21
-389.652108
 31
0.0
  0
LINE
  5
3C5
100
AcDbEntity
  8
0
370
    -3
390
0
  6
Continuous
100
AcDbLine
 10
-517.546396
 20
-294.072167
 30
0.0
 11
-321.546396
 21
-294.072167
 31
0.0
  0
LINE
  5
3C6
100
AcDbEntity
  8
0
370
    -3
390
0
  6
Continuous
100
AcDbLine
 10
-586.546396
 20
-274.627556
 30
0.0
 11
-321.546396
 21
-274.627556
 31
0.0
  0
LINE
  5
3C7
100
AcDbEntity
  8
0
370
    -3
390
0
  6
Continuous
100
AcDbLine
 10
-586.546396
 20
-277.481189
 30
0.0
 11
-321.546396
 21
-277.481189
 31
0.0
  0
LINE
  5
3C8
100
AcDbEntity
  8
0
370
    -3
390
0
  6
Continuous
100
AcDbLine
 10
-586.546396
 20
-263.64881
 30
0.0
 11
-321.546396
 21
-263.64881
 31
0.0
  0
LINE
  5
3C9
100
AcDbEntity
  8
0
370
    -3
390
0
  6
Continuous
100
AcDbLine
 10
-586.546396
 20
-260.429396
 30
0.0
 11
-321.546396
 21
-260.429396
 31
0.0
  0
LINE
  5
3CA
100
AcDbEntity
  8
0
370
    -3
390
0
  6
Continuous
100
AcDbLine
 10
-586.546396
 20
-249.728954
 30
0.0
 11
-321.546396
 21
-249.728954
 31
0.0
  0
LINE
  5
3CB
100
AcDbEntity
  8
0
370
    -3
390
0
  6
Continuous
100
AcDbLine
 10
-586.546396
 20
-246.492227
 30
0.0
 11
-321.546396
 21
-246.492227
 31
0.0
  0
LINE
  5
3CC
100
AcDbEntity
  8
0
370
    -3
390
0
  6
Continuous
100
AcDbLine
 10
-586.546396
 20
-226.09259
 30
0.0
 11
-321.546396
 21
-226.09259
 31
0.0
  0
LINE
  5
3CD
100
AcDbEntity
  8
0
370
    -3
390
0
  6
Continuous
100
AcDbLine
 10
-586.546396
 20
-213.364668
 30
0.0
 11
-321.546396
 21
-213.364668
 31
0.0
  0
LINE
  5
3CE
100
AcDbEntity
  8
0
370
    -3
390
0
  6
Continuous
100
AcDbLine
 10
-586.546396
 20
-200.072167
 30
0.0
 11
-321.546396
 21
-200.072167
 31
0.0
  0
LINE
  5
3CF
100
AcDbEntity
  8
0
370
    -3
390
0
  6
Continuous
100
AcDbLine
 10
-586.546396
 20
-194.072167
 30
0.0
 11
-321.546396
 21
-194.072167
 31
0.0
  0
LINE
  5
3D0
100
AcDbEntity
  8
0
370
    -3
390
0
  6
Continuous
100
AcDbLine
 10
-586.546396
 20
-190.072167
 30
0.0
 11
-321.546396
 21
-190.072167
 31
0.0
  0
LINE
  5
3D1
100
AcDbEntity
  8
0
370
    -3
390
0
  6
Continuous
100
AcDbLine
 10
-621.546396
 20
-214.81172
 30
0.0
 11
-621.546396
 21
-213.170364
 31
0.0
  0
LINE
  5
3D2
100
AcDbEntity
  8
0
370
    -3
390
0
  6
Continuous
100
AcDbLine
 10
-635.546396
 20
-214.81172
 30
0.0
 11
-635.546396
 21
-213.170364
 31
0.0
  0
ELLIPSE
  5
3D3
100
AcDbEntity
  8
0
370
    -3
390
0
  6
Continuous
100
AcDbEllipse
 10
-628.546396
 20
-214.81172
 30
0.0
 11
7.0
 21
0.0
 31
0.0
210
0.0
220
0.0
230
1.0
 40
0.707107
 41
3.1415926535897931
 42
0.0
  0
ELLIPSE
  5
3D4
100
AcDbEntity
  8
0
370
    -3
390
0
  6
Continuous
100
AcDbEllipse
 10
-628.546396
 20
-213.170364
 30
0.0
 11
7.0
 21
0.0
 31
0.0
210
0.0
220
0.0
230
1.0
 40
0.692313
 41
3.1415926535897931
 42
0.0
  0
ELLIPSE
  5
3D5
100
AcDbEntity
  8
0
370
    -3
390
0
  6
Continuous
100
AcDbEllipse
 10
-628.546396
 20
-213.170364
 30
0.0
 11
7.0
 21
0.0
 31
0.0
210
0.0
220
0.0
230
1.0
 40
0.692313
 41
0.0
 42
0.5464396163983571
  0
ELLIPSE
  5
3D6
100
AcDbEntity
  8
0
370
    -3
390
0
  6
Continuous
100
AcDbEllipse
 10
-628.546396
 20
-213.170364
 30
0.0
 11
7.0
 21
0.0
 31
0.0
210
0.0
220
0.0
230
1.0
 40
0.692313
 41
2.595153037191436
 42
3.1415926535897931
  0
ELLIPSE
  5
3D7
100
AcDbEntity
  8
0
370
    -3
390
0
  6
Continuous
100
AcDbEllipse
 10
-628.546396
 20
-213.06681
 30
0.0
 11
6.25
 21
0.0
 31
0.0
210
0.0
220
0.0
230
1.0
 40
0.707107
 41
3.1415926535897931
 42
0.0
  0
LINE
  5
3D8
100
AcDbEntity
  8
0
370
    -3
390
0
  6
Continuous
100
AcDbLine
 10
-622.296396
 20
-213.06681
 30
0.0
 11
-622.296396
 21
-211.93544
 31
0.0
  0
LINE
  5
3D9
100
AcDbEntity
  8
0
370
    -3
390
0
  6
Continuous
100
AcDbLine
 10
-634.796396
 20
-213.06681
 30
0.0
 11
-634.796396
 21
-211.93544
 31
0.0
  0
ELLIPSE
  5
3DA
100
AcDbEntity
  8
0
370
    -3
390
0
  6
Continuous
100
AcDbEllipse
 10
-628.546396
 20
-211.117309
 30
0.0
 11
5.25
 21
0.0
 31
0.0
210
0.0
220
0.0
230
1.0
 40
0.862941
 41
0.0
 42
6.2831853071795862
  0
ELLIPSE
  5
3DB
100
AcDbEntity
  8
0
370
    -3
390
0
  6
Continuous
100
AcDbEllipse
 10
-628.546396
 20
-211.93544
 30
0.0
 11
6.25
 21
0.0
 31
0.0
210
0.0
220
0.0
230
1.0
 40
0.707107
 41
2.4008084267827927
 42
0.7407842268070005
  0
LINE
  5
3DC
100
AcDbEntity
  8
0
370
    -3
390
0
  6
Continuous
100
AcDbLine
 10
-628.546396
 20
-209.177723
 30
0.0
 11
-625.546396
 21
-211.528998
 31
0.0
  0
LINE
  5
3DD
100
AcDbEntity
  8
0
370
    -3
390
0
  6
Continuous
100
AcDbLine
 10
-625.639223
 20
-207.344881
 30
0.0
 11
-628.546396
 21
-209.177723
 31
0.0
  0
LINE
  5
3DE
100
AcDbEntity
  8
0
370
    -3
390
0
  6
Continuous
100
AcDbLine
 10
-628.546396
 20
-209.177723
 30
0.0
 11
-631.546396
 21
-211.528998
 31
0.0
  0
LINE
  5
3DF
100
AcDbEntity
  8
0
370
    -3
390
0
  6
Continuous
100
AcDbLine
 10
-631.453569
 20
-207.344881
 30
0.0
 11
-628.546396
 21
-209.177723
 31
0.0
  0
LINE
  5
3E0
100
AcDbEntity
  8
0
370
    -3
390
0
  6
Continuous
100
AcDbLine
 10
-621.546396
 20
-421.332615
 30
0.0
 11
-621.546396
 21
-422.973971
 31
0.0
  0
LINE
  5
3E1
100
AcDbEntity
  8
0
370
    -3
390
0
  6
Continuous
100
AcDbLine
 10
-635.546396
 20
-421.332615
 30
0.0
 11
-635.546396
 21
-422.973971
 31
0.0
  0
ELLIPSE
  5
3E2
100
AcDbEntity
  8
0
370
    -3
390
0
  6
Continuous
100
AcDbEllipse
 10
-628.546396
 20
-421.332615
 30
0.0
 11
7.0
 21
0.0
 31
0.0
210
0.0
220
0.0
230
1.0
 40
0.707107
 41
0.0
 42
3.1415926535897931
  0
ELLIPSE
  5
3E3
100
AcDbEntity
  8
0
370
    -3
390
0
  6
Continuous
100
AcDbEllipse
 10
-628.546396
 20
-422.973971
 30
0.0
 11
7.0
 21
0.0
 31
0.0
210
0.0
220
0.0
230
1.0
 40
0.692313
 41
0.0
 42
3.1415926535897931
  0
ELLIPSE
  5
3E4
100
AcDbEntity
  8
0
370
    -3
390
0
  6
Continuous
100
AcDbEllipse
 10
-628.546396
 20
-422.973971
 30
0.0
 11
7.0
 21
0.0
 31
0.0
210
0.0
220
0.0
230
1.0
 40
0.692313
 41
5.7367456907812269
 42
0.0
  0
ELLIPSE
  5
3E5
100
AcDbEntity
  8
0
370
    -3
390
0
  6
Continuous
100
AcDbEllipse
 10
-628.546396
 20
-422.973971
 30
0.0
 11
7.0
 21
0.0
 31
0.0
210
0.0
220
0.0
230
1.0
 40
0.692313
 41
3.1415926535897931
 42
3.6880322699881529
  0
ELLIPSE
  5
3E6
100
AcDbEntity
  8
0
370
    -3
390
0
  6
Continuous
100
AcDbEllipse
 10
-628.546396
 20
-423.077524
 30
0.0
 11
6.25
 21
0.0
 31
0.0
210
0.0
220
0.0
230
1.0
 40
0.707107
 41
0.0
 42
3.1415926535897931
  0
LINE
  5
3E7
100
AcDbEntity
  8
0
370
    -3
390
0
  6
Continuous
100
AcDbLine
 10
-622.296396
 20
-423.077524
 30
0.0
 11
-622.296396
 21
-424.208895
 31
0.0
  0
LINE
  5
3E8
100
AcDbEntity
  8
0
370
    -3
390
0
  6
Continuous
100
AcDbLine
 10
-634.796396
 20
-423.077524
 30
0.0
 11
-634.796396
 21
-424.208895
 31
0.0
  0
ELLIPSE
  5
3E9
100
AcDbEntity
  8
0
370
    -3
390
0
  6
Continuous
100
AcDbEllipse
 10
-628.546396
 20
-425.027026
 30
0.0
 11
5.25
 21
0.0
 31
0.0
210
0.0
220
0.0
230
1.0
 40
0.862941
 41
0.0
 42
6.2831853071795862
  0
ELLIPSE
  5
3EA
100
AcDbEntity
  8
0
370
    -3
390
0
  6
Continuous
100
AcDbEllipse
 10
-628.546396
 20
-424.208895
 30
0.0
 11
6.25
 21
0.0
 31
0.0
210
0.0
220
0.0
230
1.0
 40
0.707107
 41
5.5424010803725476
 42
3.8823768803968313
  0
LINE
  5
3EB
100
AcDbEntity
  8
0
370
    -3
390
0
  6
Continuous
100
AcDbLine
 10
-628.546396
 20
-426.966612
 30
0.0
 11
-625.546396
 21
-424.615337
 31
0.0
  0
LINE
  5
3EC
100
AcDbEntity
  8
0
370
    -3
390
0
  6
Continuous
100
AcDbLine
 10
-625.639223
 20
-428.799454
 30
0.0
 11
-628.546396
 21
-426.966612
 31
0.0
  0
LINE
  5
3ED
100
AcDbEntity
  8
0
370
    -3
390
0
  6
Continuous
100
AcDbLine
 10
-628.546396
 20
-426.966612
 30
0.0
 11
-631.546396
 21
-424.615337
 31
0.0
  0
LINE
  5
3EE
100
AcDbEntity
  8
0
370
    -3
390
0
  6
Continuous
100
AcDbLine
 10
-631.453569
 20
-428.799454
 30
0.0
 11
-628.546396
 21
-426.966612
 31
0.0
  0
LINE
  5
3EF
100
AcDbEntity
  8
0
370
    -3
390
0
  6
Continuous
100
AcDbLine
 10
-721.429938
 20
-455.272167
 30
0.0
 11
-586.546396
 21
-455.272167
 31
0.0
  0
LINE
  5
3F0
100
AcDbEntity
  8
0
370
    -3
390
0
  6
Continuous
100
AcDbLine
 10
-721.429938
 20
-180.872167
 30
0.0
 11
-586.546396
 21
-180.872167
 31
0.0
  0
LINE
  5
3F1
100
AcDbEntity
  8
0
370
    -3
390
0
  6
Continuous
100
AcDbLine
 10
-586.546396
 20
-278.23024
 30
0.0
 11
-586.546396
 21
-180.872167
 31
0.0
  0
LINE
  5
3F2
100
AcDbEntity
  8
0
370
    -3
390
0
  6
Continuous
100
AcDbLine
 10
-586.546396
 20
-383.271458
 30
0.0
 11
-586.546396
 21
-455.272167
 31
0.0
  0
LINE
  5
3F3
100
AcDbEntity
  8
0
370
    -3
390
0
  6
Continuous
100
AcDbLine
 10
-331.546396
 20
-88.072167
 30
0.0
 11
-319.546396
 21
-88.072167
 31
0.0
  0
LINE
  5
3F4
100
AcDbEntity
  8
0
370
    -3
390
0
  6
DASHED
100
AcDbLine
 10
-331.546396
 20
-101.072167
 30
0.0
 11
-319.546396
 21
-101.072167
 31
0.0
  0
LINE
  5
3F5
100
AcDbEntity
  8
0
370
    -3
390
0
  6
DASHED
100
AcDbLine
 10
-331.546396
 20
-137.072167
 30
0.0
 11
-319.546396
 21
-137.072167
 31
0.0
  0
LINE
  5
3F6
100
AcDbEntity
  8
0
370
    -3
390
0
  6
CENTER
100
AcDbLine
 10
-336.612386
 20
-119.072167
 30
0.0
 11
-317.099454
 21
-119.072167
 31
0.0
  0
ARC
  5
3F7
100
AcDbEntity
  8
0
370
    -3
390
0
  6
Continuous
100
AcDbCircle
 10
-316.546396
 20
-149.072167
 30
0.0
 40
3.0
100
AcDbArc
 50
90.0
 51
180.0
  0
LINE
  5
3F8
100
AcDbEntity
  8
0
370
    -3
390
0
  6
Continuous
100
AcDbLine
 10
-316.546396
 20
-146.072167
 30
0.0
 11
-289.546396
 21
-146.072167
 31
0.0
  0
LINE
  5
3F9
100
AcDbEntity
  8
0
370
    -3
390
0
  6
Continuous
100
AcDbLine
 10
-342.846372
 20
-154.07217
 30
0.0
 11
-343.546369
 21
-155.284829
 31
0.0
  0
LINE
  5
3FA
100
AcDbEntity
  8
0
370
    -3
390
0
  6
Continuous
100
AcDbLine
 10
-331.546396
 20
-154.072167
 30
0.0
 11
-342.846372
 21
-154.072167
 31
0.0
  0
ARC
  5
3FB
100
AcDbEntity
  8
0
370
    -3
390
0
  6
Continuous
100
AcDbCircle
 10
-608.546396
 20
-301.344278
 30
0.0
 40
4.8
100
AcDbArc
 50
90.0
 51
180.0
  0
LINE
  5
3FC
100
AcDbEntity
  8
0
370
    -3
390
0
  6
Continuous
100
AcDbLine
 10
-608.546396
 20
-296.544278
 30
0.0
 11
-524.546396
 21
-296.544278
 31
0.0
  0
LINE
  5
3FD
100
AcDbEntity
  8
0
370
    -3
390
0
  6
Continuous
100
AcDbLine
 10
-608.546396
 20
-280.307544
 30
0.0
 11
-524.546396
 21
-280.307544
 31
0.0
  0
ARC
  5
3FE
100
AcDbEntity
  8
0
370
    -3
390
0
  6
Continuous
100
AcDbCircle
 10
-608.546396
 20
-285.107544
 30
0.0
 40
4.8
100
AcDbArc
 50
90.0
 51
180.0
  0
LINE
  5
3FF
100
AcDbEntity
  8
0
370
    -3
390
0
  6
Continuous
100
AcDbLine
 10
-613.346396
 20
-285.107544
 30
0.0
 11
-613.346396
 21
-369.796525
 31
0.0
  0
ARC
  5
400
100
AcDbEntity
  8
0
370
    -3
390
0
  6
Continuous
100
AcDbCircle
 10
-606.746396
 20
-287.03024
 30
0.0
 40
8.8
100
AcDbArc
 50
90.0
 51
180.0
  0
LINE
  5
401
100
AcDbEntity
  8
0
370
    -3
390
0
  6
Continuous
100
AcDbLine
 10
-606.746396
 20
-278.23024
 30
0.0
 11
-526.346396
 21
-278.23024
 31
0.0
  0
LINE
  5
402
100
AcDbEntity
  8
0
370
    -3
390
0
  6
Continuous
100
AcDbLine
 10
-615.546396
 20
-287.03024
 30
0.0
 11
-615.546396
 21
-374.471458
 31
0.0
  0
POINT
  5
403
100
AcDbEntity
  8
0
370
    -3
390
0
  6
CENTER
100
AcDbPoint
 10
-552.927589
 20
-381.317862
 30
0.0
  0
POINT
  5
404
100
AcDbEntity
  8
0
370
    -3
390
0
  6
CENTER
100
AcDbPoint
 10
-579.927589
 20
-381.317862
 30
0.0
  0
LINE
  5
405
100
AcDbEntity
  8
0
370
    -3
390
0
  6
CENTER
100
AcDbLine
 10
-566.546396
 20
-271.420436
 30
0.0
 11
-566.546396
 21
-392.060516
 31
0.0
  0
LINE
  5
406
100
AcDbEntity
  8
0
370
    -3
390
0
  6
Continuous
100
AcDbLine
 10
-566.546396
 20
-374.856962
 30
0.0
 11
-568.546396
 21
-376.764682
 31
0.0
  0
LINE
  5
407
100
AcDbEntity
  8
0
370
    -3
390
0
  6
Continuous
100
AcDbLine
 10
-564.546396
 20
-373.139451
 30
0.0
 11
-566.546396
 21
-374.856962
 31
0.0
  0
LINE
  5
408
100
AcDbEntity
  8
0
370
    -3
390
0
  6
Continuous
100
AcDbLine
 10
-566.546396
 20
-374.856962
 30
0.0
 11
-568.546396
 21
-373.139451
 31
0.0
  0
LINE
  5
409
100
AcDbEntity
  8
0
370
    -3
390
0
  6
Continuous
100
AcDbLine
 10
-564.546396
 20
-376.764682
 30
0.0
 11
-566.546396
 21
-374.856962
 31
0.0
  0
ELLIPSE
  5
40A
100
AcDbEntity
  8
0
370
    -3
390
0
  6
Continuous
100
AcDbEllipse
 10
-566.546396
 20
-375.687993
 30
0.0
 11
3.5
 21
0.0
 31
0.0
210
0.0
220
0.0
230
1.0
 40
0.982815
 41
0.0
 42
6.2831853071795862
  0
ARC
  5
40B
100
AcDbEntity
  8
0
370
    -3
390
0
  6
Continuous
100
AcDbCircle
 10
-577.864182
 20
-370.596525
 30
0.0
 40
4.0
100
AcDbArc
 50
270.0
 51
339.413394
  0
ELLIPSE
  5
40C
100
AcDbEntity
  8
0
370
    -3
390
0
  6
Continuous
100
AcDbEllipse
 10
-566.546396
 20
-374.339525
 30
0.0
 11
8.0
 21
0.0
 31
0.0
210
0.0
220
0.0
230
1.0
 40
0.906308
 41
0.3281121824263525
 42
2.8134804711640689
  0
LINE
  5
40D
100
AcDbEntity
  8
0
370
    -3
390
0
  6
Continuous
100
AcDbLine
 10
-577.864182
 20
-374.596525
 30
0.0
 11
-608.546396
 21
-374.596525
 31
0.0
  0
ARC
  5
40E
100
AcDbEntity
  8
0
370
    -3
390
0
  6
Continuous
100
AcDbCircle
 10
-577.100049
 20
-370.596525
 30
0.0
 40
4.0
100
AcDbArc
 50
270.0
 51
330.013396
  0
ELLIPSE
  5
40F
100
AcDbEntity
  8
0
370
    -3
390
0
  6
Continuous
100
AcDbEllipse
 10
-566.546396
 20
-375.95577
 30
0.0
 11
8.0
 21
0.0
 31
0.0
210
0.0
220
0.0
230
1.0
 40
0.906308
 41
0.4818578688787102
 42
2.6597347847155328
  0
ARC
  5
410
100
AcDbEntity
  8
0
370
    -3
390
0
  6
Continuous
100
AcDbCircle
 10
-555.992743
 20
-370.596525
 30
0.0
 40
4.0
100
AcDbArc
 50
209.986604
 51
270.0
  0
LINE
  5
411
100
AcDbEntity
  8
0
370
    -3
390
0
  6
Continuous
100
AcDbLine
 10
-524.546396
 20
-374.596525
 30
0.0
 11
-555.992743
 21
-374.596525
 31
0.0
  0
ARC
  5
412
100
AcDbEntity
  8
0
370
    -3
390
0
  6
Continuous
100
AcDbCircle
 10
-555.22861
 20
-370.596525
 30
0.0
 40
4.0
100
AcDbArc
 50
200.586606
 51
270.0
  0
ARC
  5
413
100
AcDbEntity
  8
0
370
    -3
390
0
  6
Continuous
100
AcDbCircle
 10
-608.546396
 20
-369.796525
 30
0.0
 40
4.8
100
AcDbArc
 50
180.0
 51
270.0
  0
LINE
  5
414
100
AcDbEntity
  8
0
370
    -3
390
0
  6
Continuous
100
AcDbLine
 10
-526.346396
 20
-381.665509
 30
0.0
 11
-606.746396
 21
-381.665509
 31
0.0
  0
ARC
  5
415
100
AcDbEntity
  8
0
370
    -3
390
0
  6
Continuous
100
AcDbCircle
 10
-606.746396
 20
-372.865509
 30
0.0
 40
8.8
100
AcDbArc
 50
180.0
 51
270.0
  0
ARC
  5
416
100
AcDbEntity
  8
0
370
    -3
390
0
  6
Continuous
100
AcDbCircle
 10
-606.746396
 20
-374.471458
 30
0.0
 40
8.8
100
AcDbArc
 50
180.0
 51
270.0
  0
LINE
  5
417
100
AcDbEntity
  8
0
370
    -3
390
0
  6
Continuous
100
AcDbLine
 10
-606.746396
 20
-383.271458
 30
0.0
 11
-526.346396
 21
-383.271458
 31
0.0
  0
ARC
  5
418
100
AcDbEntity
  8
0
370
    -3
390
0
  6
Continuous
100
AcDbCircle
 10
-524.546396
 20
-369.796525
 30
0.0
 40
4.8
100
AcDbArc
 50
270.0
 51
0.0
  0
ARC
  5
419
100
AcDbEntity
  8
0
370
    -3
390
0
  6
Continuous
100
AcDbCircle
 10
-526.346396
 20
-372.865509
 30
0.0
 40
8.8
100
AcDbArc
 50
270.0
 51
0.0
  0
ARC
  5
41A
100
AcDbEntity
  8
0
370
    -3
390
0
  6
Continuous
100
AcDbCircle
 10
-526.346396
 20
-374.471458
 30
0.0
 40
8.8
100
AcDbArc
 50
270.0
 51
0.0
  0
LINE
  5
41B
100
AcDbEntity
  8
0
370
    -3
390
0
  6
Continuous
100
AcDbLine
 10
-519.746396
 20
-285.107544
 30
0.0
 11
-519.746396
 21
-369.796525
 31
0.0
  0
LINE
  5
41C
100
AcDbEntity
  8
0
370
    -3
390
0
  6
Continuous
100
AcDbLine
 10
-517.546396
 20
-287.03024
 30
0.0
 11
-517.546396
 21
-374.471458
 31
0.0
  0
ARC
  5
41D
100
AcDbEntity
  8
0
370
    -3
390
0
  6
Continuous
100
AcDbCircle
 10
-524.546396
 20
-301.344278
 30
0.0
 40
4.8
100
AcDbArc
 50
0.0
 51
90.0
  0
ARC
  5
41E
100
AcDbEntity
  8
0
370
    -3
390
0
  6
Continuous
100
AcDbCircle
 10
-524.546396
 20
-285.107544
 30
0.0
 40
4.8
100
AcDbArc
 50
0.0
 51
90.0
  0
ARC
  5
41F
100
AcDbEntity
  8
0
370
    -3
390
0
  6
Continuous
100
AcDbCircle
 10
-526.346396
 20
-287.03024
 30
0.0
 40
8.8
100
AcDbArc
 50
0.0
 51
90.0
  0
LINE
  5
420
100
AcDbEntity
  8
0
370
    -3
390
0
  6
CENTER
100
AcDbLine
 10
260.652006
 20
-435.39574
 30
0.0
 11
260.652006
 21
-504.876644
 31
0.0
  0
LINE
  5
421
100
AcDbEntity
  8
0
370
    -3
390
0
  6
CENTER
100
AcDbLine
 10
620.652006
 20
-435.39574
 30
0.0
 11
620.652006
 21
-504.876644
 31
0.0
  0
LINE
  5
422
100
AcDbEntity
  8
0
370
    -3
390
0
  6
Continuous
100
AcDbLine
 10
220.652006
 20
-491.072167
 30
0.0
 11
300.652006
 21
-491.072167
 31
0.0
  0
LINE
  5
423
100
AcDbEntity
  8
0
370
    -3
390
0
  6
Continuous
100
AcDbLine
 10
660.652006
 20
-491.072167
 30
0.0
 11
580.652006
 21
-491.072167
 31
0.0
  0
CIRCLE
  5
424
100
AcDbEntity
  8
0
370
    -3
390
0
  6
Continuous
100
AcDbCircle
 10
440.652006
 20
-226.072167
 30
0.0
 40
50.0
  0
LINE
  5
425
100
AcDbEntity
  8
0
370
    -3
390
0
  6
Continuous
100
AcDbLine
 10
280.652006
 20
-170.072167
 30
0.0
 11
280.652006
 21
-372.072167
 31
0.0
  0
ARC
  5
426
100
AcDbEntity
  8
0
370
    -3
390
0
  6
Continuous
100
AcDbCircle
 10
380.652006
 20
-372.072167
 30
0.0
 40
100.0
100
AcDbArc
 50
180.0
 51
270.0
  0
LINE
  5
427
100
AcDbEntity
  8
0
370
    -3
390
0
  6
Continuous
100
AcDbLine
 10
326.632768
 20
-472.072167
 30
0.0
 11
440.652006
 21
-472.072167
 31
0.0
  0
LINE
  5
428
100
AcDbEntity
  8
0
370
    -3
390
0
  6
Continuous
100
AcDbLine
 10
271.652006
 20
-170.072167
 30
0.0
 11
271.652006
 21
-199.072167
 31
0.0
  0
ARC
  5
429
100
AcDbEntity
  8
0
370
    -3
390
0
  6
Continuous
100
AcDbCircle
 10
263.652006
 20
-199.072167
 30
0.0
 40
8.0
100
AcDbArc
 50
270.0
 51
0.0
  0
LINE
  5
42A
100
AcDbEntity
  8
0
370
    -3
390
0
  6
Continuous
100
AcDbLine
 10
257.652006
 20
-207.072167
 30
0.0
 11
274.652006
 21
-207.072167
 31
0.0
  0
ARC
  5
42B
100
AcDbEntity
  8
0
370
    -3
390
0
  6
Continuous
100
AcDbCircle
 10
257.652006
 20
-213.072167
 30
0.0
 40
6.0
100
AcDbArc
 50
90.0
 51
180.0
  0
LINE
  5
42C
100
AcDbEntity
  8
0
370
    -3
390
0
  6
Continuous
100
AcDbLine
 10
251.652006
 20
-213.072167
 30
0.0
 11
251.652006
 21
-275.930032
 31
0.0
  0
ARC
  5
42D
100
AcDbEntity
  8
0
370
    -3
390
0
  6
Continuous
100
AcDbCircle
 10
431.152006
 20
-62.572167
 30
0.0
 40
1.5
100
AcDbArc
 50
180.0
 51
270.0
  0
ARC
  5
42E
100
AcDbEntity
  8
0
370
    -3
390
0
  6
Continuous
100
AcDbCircle
 10
241.652006
 20
-275.930032
 30
0.0
 40
10.0
100
AcDbArc
 50
315.0
 51
0.0
  0
LINE
  5
42F
100
AcDbEntity
  8
0
370
    -3
390
0
  6
Continuous
100
AcDbLine
 10
423.215514
 20
-65.572167
 30
0.0
 11
423.215514
 21
-68.572167
 31
0.0
  0
LINE
  5
430
100
AcDbEntity
  8
0
370
    -3
390
0
  6
Continuous
100
AcDbLine
 10
223.580938
 20
-308.143235
 30
0.0
 11
248.723074
 21
-283.0011
 31
0.0
  0
ARC
  5
431
100
AcDbEntity
  8
0
370
    -3
390
0
  6
Continuous
100
AcDbCircle
 10
230.652006
 20
-315.214303
 30
0.0
 40
10.0
100
AcDbArc
 50
135.0
 51
180.0
  0
LINE
  5
432
100
AcDbEntity
  8
0
370
    -3
390
0
  6
Continuous
100
AcDbLine
 10
220.652006
 20
-315.214303
 30
0.0
 11
220.652006
 21
-491.072167
 31
0.0
  0
LINE
  5
433
100
AcDbEntity
  8
0
370
    -3
390
0
  6
Continuous
100
AcDbLine
 10
300.652006
 20
-462.041823
 30
0.0
 11
300.652006
 21
-491.072167
 31
0.0
  0
ARC
  5
434
100
AcDbEntity
  8
0
370
    -3
390
0
  6
Continuous
100
AcDbCircle
 10
295.652006
 20
-462.041823
 30
0.0
 40
5.0
100
AcDbArc
 50
0.0
 51
60.0
  0
LINE
  5
435
100
AcDbEntity
  8
0
370
    -3
390
0
  6
Continuous
100
AcDbLine
 10
287.81226
 20
-451.74204
 30
0.0
 11
298.152006
 21
-457.711696
 31
0.0
  0
ARC
  5
436
100
AcDbEntity
  8
0
370
    -3
390
0
  6
Continuous
100
AcDbCircle
 10
285.31226
 20
-456.072167
 30
0.0
 40
5.0
100
AcDbArc
 50
60.0
 51
90.0
  0
LINE
  5
437
100
AcDbEntity
  8
0
370
    -3
390
0
  6
Continuous
100
AcDbLine
 10
225.652006
 20
-451.072167
 30
0.0
 11
285.31226
 21
-451.072167
 31
0.0
  0
ARC
  5
438
100
AcDbEntity
  8
0
370
    -3
390
0
  6
Continuous
100
AcDbCircle
 10
225.652006
 20
-456.072167
 30
0.0
 40
5.0
100
AcDbArc
 50
90.0
 51
180.0
  0
LINE
  5
439
100
AcDbEntity
  8
0
370
    -3
390
0
  6
Continuous
100
AcDbLine
 10
353.143939
 20
-481.072167
 30
0.0
 11
440.652006
 21
-481.072167
 31
0.0
  0
ARC
  5
43A
100
AcDbEntity
  8
0
370
    -3
390
0
  6
Continuous
100
AcDbCircle
 10
353.143939
 20
-487.072167
 30
0.0
 40
6.0
100
AcDbArc
 50
90.0
 51
132.342605
  0
ARC
  5
43B
100
AcDbEntity
  8
0
370
    -3
390
0
  6
Continuous
100
AcDbCircle
 10
337.652006
 20
-470.072167
 30
0.0
 40
17.0
100
AcDbArc
 50
215.544998
 51
339.645594
  0
LINE
  5
43C
100
AcDbEntity
  8
0
370
    -3
390
0
  6
Continuous
100
AcDbLine
 10
303.652006
 20
-487.072167
 30
0.0
 11
337.652006
 21
-487.072167
 31
0.0
  0
ARC
  5
43D
100
AcDbEntity
  8
0
370
    -3
390
0
  6
Continuous
100
AcDbCircle
 10
303.652006
 20
-490.072167
 30
0.0
 40
3.0
100
AcDbArc
 50
90.0
 51
180.0
  0
ARC
  5
43E
100
AcDbEntity
  8
0
370
    -3
390
0
  6
Continuous
100
AcDbCircle
 10
264.652006
 20
-423.072167
 30
0.0
 40
28.0
100
AcDbArc
 50
180.0
 51
270.0
  0
LINE
  5
43F
100
AcDbEntity
  8
0
370
    -3
390
0
  6
Continuous
100
AcDbLine
 10
236.652006
 20
-321.013293
 30
0.0
 11
236.652006
 21
-423.072167
 31
0.0
  0
LINE
  5
440
100
AcDbEntity
  8
0
370
    -3
390
0
  6
CENTER
100
AcDbLine
 10
223.222949
 20
-226.072167
 30
0.0
 11
440.652006
 21
-226.072167
 31
0.0
  0
LINE
  5
441
100
AcDbEntity
  8
0
370
    -3
390
0
  6
Continuous
100
AcDbLine
 10
288.652006
 20
-266.072167
 30
0.0
 11
332.652006
 21
-266.072167
 31
0.0
  0
ARC
  5
442
100
AcDbEntity
  8
0
370
    -3
390
0
  6
Continuous
100
AcDbCircle
 10
288.652006
 20
-274.072167
 30
0.0
 40
8.0
100
AcDbArc
 50
90.0
 51
180.0
  0
LINE
  5
443
100
AcDbEntity
  8
0
370
    -3
390
0
  6
Continuous
100
AcDbLine
 10
350.652006
 20
-248.072167
 30
0.0
 11
350.652006
 21
-226.072167
 31
0.0
  0
ARC
  5
444
100
AcDbEntity
  8
0
370
    -3
390
0
  6
Continuous
100
AcDbCircle
 10
440.652006
 20
-226.072167
 30
0.0
 40
90.0
100
AcDbArc
 50
90.0
 51
180.0
  0
LINE
  5
445
100
AcDbEntity
  8
0
370
    -3
390
0
  6
Continuous
100
AcDbLine
 10
251.593131
 20
-306.072167
 30
0.0
 11
272.652006
 21
-306.072167
 31
0.0
  0
ARC
  5
446
100
AcDbEntity
  8
0
370
    -3
390
0
  6
Continuous
100
AcDbCircle
 10
272.652006
 20
-314.072167
 30
0.0
 40
8.0
100
AcDbArc
 50
0.0
 51
90.0
  0
LINE
  5
447
100
AcDbEntity
  8
0
370
    -3
390
0
  6
Continuous
100
AcDbLine
 10
238.995152
 20
-315.356439
 30
0.0
 11
245.936277
 21
-308.415313
 31
0.0
  0
ARC
  5
448
100
AcDbEntity
  8
0
370
    -3
390
0
  6
Continuous
100
AcDbCircle
 10
244.652006
 20
-321.013293
 30
0.0
 40
8.0
100
AcDbArc
 50
135.0
 51
180.0
  0
ARC
  5
449
100
AcDbEntity
  8
0
370
    -3
390
0
  6
Continuous
100
AcDbCircle
 10
251.593131
 20
-314.072167
 30
0.0
 40
8.0
100
AcDbArc
 50
90.0
 51
135.0
  0
ARC
  5
44A
100
AcDbEntity
  8
0
370
    -3
390
0
  6
Continuous
100
AcDbCircle
 10
359.215865
 20
-478.072167
 30
0.0
 40
6.0
100
AcDbArc
 50
90.0
 51
159.645594
  0
LINE
  5
44B
100
AcDbEntity
  8
0
370
    -3
390
0
  6
Continuous
100
AcDbLine
 10
303.652006
 20
-485.340117
 30
0.0
 11
332.674916
 21
-468.583732
 31
0.0
  0
ARC
  5
44C
100
AcDbEntity
  8
0
370
    -3
390
0
  6
Continuous
100
AcDbCircle
 10
342.674916
 20
-485.90424
 30
0.0
 40
20.0
100
AcDbArc
 50
71.550074
 51
120.0
  0
ARC
  5
44D
100
AcDbEntity
  8
0
370
    -3
390
0
  6
Continuous
100
AcDbCircle
 10
306.652006
 20
-490.536269
 30
0.0
 40
6.0
100
AcDbArc
 50
120.0
 51
180.0
  0
LINE
  5
44E
100
AcDbEntity
  8
0
370
    -3
390
0
  6
Continuous
100
AcDbLine
 10
293.94891
 20
-441.897661
 30
0.0
 11
291.538757
 21
-446.072167
 31
0.0
  0
ARC
  5
44F
100
AcDbEntity
  8
0
370
    -3
390
0
  6
Continuous
100
AcDbCircle
 10
276.628401
 20
-431.897661
 30
0.0
 40
20.0
100
AcDbArc
 50
330.0
 51
29.903836
  0
ARC
  5
450
100
AcDbEntity
  8
0
370
    -3
390
0
  6
Continuous
100
AcDbCircle
 10
282.878503
 20
-441.072167
 30
0.0
 40
10.0
100
AcDbArc
 50
270.0
 51
330.0
  0
ARC
  5
451
100
AcDbEntity
  8
0
370
    -3
390
0
  6
Continuous
100
AcDbCircle
 10
318.937844
 20
-483.443037
 30
0.0
 40
6.0
100
AcDbArc
 50
35.544998
 51
120.0
  0
LINE
  5
452
100
AcDbEntity
  8
0
370
    -3
390
0
  6
Continuous
100
AcDbLine
 10
279.652006
 20
-349.072167
 30
0.0
 11
279.652006
 21
-368.072167
 31
0.0
  0
ARC
  5
453
100
AcDbEntity
  8
0
370
    -3
390
0
  6
Continuous
100
AcDbCircle
 10
280.652006
 20
-349.072167
 30
0.0
 40
1.0
100
AcDbArc
 50
120.0
 51
180.0
  0
ARC
  5
454
100
AcDbEntity
  8
0
370
    -3
390
0
  6
Continuous
100
AcDbCircle
 10
279.652006
 20
-347.340117
 30
0.0
 40
1.0
100
AcDbArc
 50
300.0
 51
0.0
  0
LINE
  5
455
100
AcDbEntity
  8
0
370
    -3
390
0
  6
Continuous
100
AcDbLine
 10
279.652006
 20
-387.072167
 30
0.0
 11
279.652006
 21
-368.072167
 31
0.0
  0
LINE
  5
456
100
AcDbEntity
  8
0
370
    -3
390
0
  6
Continuous
100
AcDbLine
 10
280.652006
 20
-388.072167
 30
0.0
 11
281.092978
 21
-388.072167
 31
0.0
  0
ARC
  5
457
100
AcDbEntity
  8
0
370
    -3
390
0
  6
Continuous
100
AcDbCircle
 10
280.652006
 20
-387.072167
 30
0.0
 40
1.0
100
AcDbArc
 50
180.0
 51
270.0
  0
ARC
  5
458
100
AcDbEntity
  8
0
370
    -3
390
0
  6
Continuous
100
AcDbCircle
 10
281.092978
 20
-389.072167
 30
0.0
 40
1.0
100
AcDbArc
 50
9.68997
 51
90.0
  0
POINT
  5
459
100
AcDbEntity
  8
0
370
    -3
390
0
  6
CENTER
100
AcDbPoint
 10
298.601051
 20
-458.004109
 30
0.0
  0
POINT
  5
45A
100
AcDbEntity
  8
0
370
    -3
390
0
  6
CENTER
100
AcDbPoint
 10
311.908452
 20
-444.696707
 30
0.0
  0
ARC
  5
45B
100
AcDbEntity
  8
0
370
    -3
390
0
  6
Continuous
100
AcDbCircle
 10
332.652006
 20
-248.072167
 30
0.0
 40
18.0
100
AcDbArc
 50
270.0
 51
0.0
  0
ARC
  5
45C
100
AcDbEntity
  8
0
370
    -3
390
0
  6
Continuous
100
AcDbCircle
 10
274.652006
 20
-201.072167
 30
0.0
 40
6.0
100
AcDbArc
 50
270.0
 51
0.0
  0
LINE
  5
45D
100
AcDbEntity
  8
0
370
    -3
390
0
  6
Continuous
100
AcDbLine
 10
380.652006
 20
-70.072167
 30
0.0
 11
440.652006
 21
-70.072167
 31
0.0
  0
ARC
  5
45E
100
AcDbEntity
  8
0
370
    -3
390
0
  6
Continuous
100
AcDbCircle
 10
380.652006
 20
-170.072167
 30
0.0
 40
100.0
100
AcDbArc
 50
90.0
 51
180.0
  0
LINE
  5
45F
100
AcDbEntity
  8
0
370
    -3
390
0
  6
Continuous
100
AcDbLine
 10
380.652006
 20
-61.072167
 30
0.0
 11
424.652006
 21
-61.072167
 31
0.0
  0
ARC
  5
460
100
AcDbEntity
  8
0
370
    -3
390
0
  6
Continuous
100
AcDbCircle
 10
380.652006
 20
-170.072167
 30
0.0
 40
109.0
100
AcDbArc
 50
90.0
 51
180.0
  0
ARC
  5
461
100
AcDbEntity
  8
0
370
    -3
390
0
  6
Continuous
100
AcDbCircle
 10
356.652006
 20
-81.072167
 30
0.0
 40
17.0
100
AcDbArc
 50
37.88147
 51
172.301675
  0
LINE
  5
462
100
AcDbEntity
  8
0
370
    -3
390
0
  6
Continuous
100
AcDbLine
 10
456.652006
 20
-46.072167
 30
0.0
 11
440.652006
 21
-46.072167
 31
0.0
  0
LINE
  5
463
100
AcDbEntity
  8
0
370
    -3
390
0
  6
Continuous
100
AcDbLine
 10
453.652006
 20
-44.072167
 30
0.0
 11
455.152006
 21
-46.072167
 31
0.0
  0
LINE
  5
464
100
AcDbEntity
  8
0
370
    -3
390
0
  6
Continuous
100
AcDbLine
 10
453.652006
 20
-44.072167
 30
0.0
 11
455.152006
 21
-46.072167
 31
0.0
  0
LINE
  5
465
100
AcDbEntity
  8
0
370
    -3
390
0
  6
CENTER
100
AcDbLine
 10
273.176222
 20
-363.35426
 30
0.0
 11
273.176222
 21
-376.389645
 31
0.0
  0
LINE
  5
466
100
AcDbEntity
  8
0
370
    -3
390
0
  6
Continuous
100
AcDbLine
 10
425.152006
 20
-64.072167
 30
0.0
 11
440.652006
 21
-64.072167
 31
0.0
  0
LINE
  5
467
100
AcDbEntity
  8
0
370
    -3
390
0
  6
Continuous
100
AcDbLine
 10
435.652006
 20
-75.072167
 30
0.0
 11
435.652006
 21
-131.599949
 31
0.0
  0
ARC
  5
468
100
AcDbEntity
  8
0
370
    -3
390
0
  6
Continuous
100
AcDbCircle
 10
425.152006
 20
-66.072167
 30
0.0
 40
2.0
100
AcDbArc
 50
90.0
 51
165.522488
  0
ARC
  5
469
100
AcDbEntity
  8
0
370
    -3
390
0
  6
Continuous
100
AcDbCircle
 10
430.652006
 20
-75.072167
 30
0.0
 40
5.0
100
AcDbArc
 50
0.0
 51
90.0
  0
ARC
  5
46A
100
AcDbEntity
  8
0
370
    -3
390
0
  6
Continuous
100
AcDbCircle
 10
421.279023
 20
-68.072167
 30
0.0
 40
2.0
100
AcDbArc
 50
270.0
 51
345.522488
  0
ARC
  5
46B
100
AcDbEntity
  8
0
370
    -3
390
0
  6
Continuous
100
AcDbCircle
 10
430.652006
 20
-131.599949
 30
0.0
 40
5.0
100
AcDbArc
 50
276.042328
 51
0.0
  0
LINE
  5
46C
100
AcDbEntity
  8
0
370
    -3
390
0
  6
Continuous
100
AcDbLine
 10
453.652006
 20
-44.072167
 30
0.0
 11
440.652006
 21
-44.072167
 31
0.0
  0
ARC
  5
46D
100
AcDbEntity
  8
0
370
    -3
390
0
  6
Continuous
100
AcDbCircle
 10
450.152006
 20
-62.572167
 30
0.0
 40
1.5
100
AcDbArc
 50
270.0
 51
0.0
  0
LINE
  5
46E
100
AcDbEntity
  8
0
370
    -3
390
0
  6
Continuous
100
AcDbLine
 10
450.152006
 20
-64.072167
 30
0.0
 11
440.652006
 21
-64.072167
 31
0.0
  0
LINE
  5
46F
100
AcDbEntity
  8
0
370
    -3
390
0
  6
Continuous
100
AcDbLine
 10
456.168673
 20
-46.072167
 30
0.0
 11
456.168673
 21
-56.072167
 31
0.0
  0
LINE
  5
470
100
AcDbEntity
  8
0
370
    -3
390
0
  6
Continuous
100
AcDbLine
 10
454.383752
 20
-46.072167
 30
0.0
 11
454.383752
 21
-56.072167
 31
0.0
  0
LINE
  5
471
100
AcDbEntity
  8
0
370
    -3
390
0
  6
Continuous
100
AcDbLine
 10
458.088498
 20
-65.572167
 30
0.0
 11
458.088498
 21
-68.572167
 31
0.0
  0
LINE
  5
472
100
AcDbEntity
  8
0
370
    -3
390
0
  6
Continuous
100
AcDbLine
 10
455.902006
 20
-58.072167
 30
0.0
 11
455.902006
 21
-61.072167
 31
0.0
  0
LINE
  5
473
100
AcDbEntity
  8
0
370
    -3
390
0
  6
Continuous
100
AcDbLine
 10
456.152006
 20
-64.072167
 30
0.0
 11
440.652006
 21
-64.072167
 31
0.0
  0
ARC
  5
474
100
AcDbEntity
  8
0
370
    -3
390
0
  6
Continuous
100
AcDbCircle
 10
456.152006
 20
-66.072167
 30
0.0
 40
2.0
100
AcDbArc
 50
14.477512
 51
90.0
  0
ARC
  5
475
100
AcDbEntity
  8
0
370
    -3
390
0
  6
Continuous
100
AcDbCircle
 10
460.024989
 20
-68.072167
 30
0.0
 40
2.0
100
AcDbArc
 50
194.477512
 51
270.0
  0
ARC
  5
476
100
AcDbEntity
  8
0
370
    -3
390
0
  6
Continuous
100
AcDbCircle
 10
460.024989
 20
-68.072167
 30
0.0
 40
2.0
100
AcDbArc
 50
194.477512
 51
270.0
  0
LINE
  5
477
100
AcDbEntity
  8
0
370
    -3
390
0
  6
Continuous
100
AcDbLine
 10
500.652006
 20
-70.072167
 30
0.0
 11
440.652006
 21
-70.072167
 31
0.0
  0
ARC
  5
478
100
AcDbEntity
  8
0
370
    -3
390
0
  6
Continuous
100
AcDbCircle
 10
500.652006
 20
-170.072167
 30
0.0
 40
100.0
100
AcDbArc
 50
0.0
 51
90.0
  0
LINE
  5
479
100
AcDbEntity
  8
0
370
    -3
390
0
  6
Continuous
100
AcDbLine
 10
600.652006
 20
-170.072167
 30
0.0
 11
600.652006
 21
-372.072167
 31
0.0
  0
LINE
  5
47A
100
AcDbEntity
  8
0
370
    -3
390
0
  6
Continuous
100
AcDbLine
 10
427.652006
 20
-58.072167
 30
0.0
 11
427.652006
 21
-57.072167
 31
0.0
  0
ARC
  5
47B
100
AcDbEntity
  8
0
370
    -3
390
0
  6
Continuous
100
AcDbCircle
 10
500.652006
 20
-372.072167
 30
0.0
 40
100.0
100
AcDbArc
 50
270.0
 51
0.0
  0
LINE
  5
47C
100
AcDbEntity
  8
0
370
    -3
390
0
  6
Continuous
100
AcDbLine
 10
426.92026
 20
-56.072167
 30
0.0
 11
432.439871
 21
-56.072167
 31
0.0
  0
LINE
  5
47D
100
AcDbEntity
  8
0
370
    -3
390
0
  6
Continuous
100
AcDbLine
 10
554.671244
 20
-472.072167
 30
0.0
 11
440.652006
 21
-472.072167
 31
0.0
  0
LINE
  5
47E
100
AcDbEntity
  8
0
370
    -3
390
0
  6
Continuous
100
AcDbLine
 10
436.749051
 20
-56.072167
 30
0.0
 11
440.652006
 21
-56.072167
 31
0.0
  0
LINE
  5
47F
100
AcDbEntity
  8
0
370
    -3
390
0
  6
Continuous
100
AcDbLine
 10
500.652006
 20
-61.072167
 30
0.0
 11
456.652006
 21
-61.072167
 31
0.0
  0
LINE
  5
480
100
AcDbEntity
  8
0
370
    -3
390
0
  6
Continuous
100
AcDbLine
 10
432.439871
 20
-46.072167
 30
0.0
 11
432.439871
 21
-56.072167
 31
0.0
  0
ARC
  5
481
100
AcDbEntity
  8
0
370
    -3
390
0
  6
Continuous
100
AcDbCircle
 10
500.652006
 20
-170.072167
 30
0.0
 40
109.0
100
AcDbArc
 50
0.0
 51
90.0
  0
LINE
  5
482
100
AcDbEntity
  8
0
370
    -3
390
0
  6
Continuous
100
AcDbLine
 10
436.749051
 20
-46.072167
 30
0.0
 11
436.749051
 21
-56.072167
 31
0.0
  0
LINE
  5
483
100
AcDbEntity
  8
0
370
    -3
390
0
  6
Continuous
100
AcDbLine
 10
609.652006
 20
-170.072167
 30
0.0
 11
609.652006
 21
-199.072167
 31
0.0
  0
LINE
  5
484
100
AcDbEntity
  8
0
370
    -3
390
0
  6
Continuous
100
AcDbLine
 10
425.402006
 20
-58.072167
 30
0.0
 11
440.652006
 21
-58.072167
 31
0.0
  0
ARC
  5
485
100
AcDbEntity
  8
0
370
    -3
390
0
  6
Continuous
100
AcDbCircle
 10
617.652006
 20
-199.072167
 30
0.0
 40
8.0
100
AcDbArc
 50
180.0
 51
270.0
  0
LINE
  5
486
100
AcDbEntity
  8
0
370
    -3
390
0
  6
Continuous
100
AcDbLine
 10
424.652006
 20
-57.072167
 30
0.0
 11
440.652006
 21
-57.072167
 31
0.0
  0
LINE
  5
487
100
AcDbEntity
  8
0
370
    -3
390
0
  6
Continuous
100
AcDbLine
 10
623.652006
 20
-207.072167
 30
0.0
 11
606.652006
 21
-207.072167
 31
0.0
  0
LINE
  5
488
100
AcDbEntity
  8
0
370
    -3
390
0
  6
Continuous
100
AcDbLine
 10
424.652006
 20
-46.072167
 30
0.0
 11
440.652006
 21
-46.072167
 31
0.0
  0
ARC
  5
489
100
AcDbEntity
  8
0
370
    -3
390
0
  6
Continuous
100
AcDbCircle
 10
623.652006
 20
-213.072167
 30
0.0
 40
6.0
100
AcDbArc
 50
0.0
 51
90.0
  0
LINE
  5
48A
100
AcDbEntity
  8
0
370
    -3
390
0
  6
Continuous
100
AcDbLine
 10
427.652006
 20
-44.072167
 30
0.0
 11
426.152006
 21
-46.072167
 31
0.0
  0
LINE
  5
48B
100
AcDbEntity
  8
0
370
    -3
390
0
  6
Continuous
100
AcDbLine
 10
629.652006
 20
-213.072167
 30
0.0
 11
629.652006
 21
-275.930032
 31
0.0
  0
LINE
  5
48C
100
AcDbEntity
  8
0
370
    -3
390
0
  6
Continuous
100
AcDbLine
 10
427.652006
 20
-44.072167
 30
0.0
 11
426.152006
 21
-46.072167
 31
0.0
  0
ARC
  5
48D
100
AcDbEntity
  8
0
370
    -3
390
0
  6
Continuous
100
AcDbCircle
 10
639.652006
 20
-275.930032
 30
0.0
 40
10.0
100
AcDbArc
 50
180.0
 51
225.0
  0
LINE
  5
48E
100
AcDbEntity
  8
0
370
    -3
390
0
  6
Continuous
100
AcDbLine
 10
427.652006
 20
-44.072167
 30
0.0
 11
440.652006
 21
-44.072167
 31
0.0
  0
LINE
  5
48F
100
AcDbEntity
  8
0
370
    -3
390
0
  6
Continuous
100
AcDbLine
 10
657.723074
 20
-308.143235
 30
0.0
 11
632.580938
 21
-283.0011
 31
0.0
  0
LINE
  5
490
100
AcDbEntity
  8
0
370
    -3
390
0
  6
Continuous
100
AcDbLine
 10
425.135339
 20
-46.072167
 30
0.0
 11
425.135339
 21
-56.072167
 31
0.0
  0
ARC
  5
491
100
AcDbEntity
  8
0
370
    -3
390
0
  6
Continuous
100
AcDbCircle
 10
650.652006
 20
-315.214303
 30
0.0
 40
10.0
100
AcDbArc
 50
0.0
 51
45.0
  0
LINE
  5
492
100
AcDbEntity
  8
0
370
    -3
390
0
  6
Continuous
100
AcDbLine
 10
426.92026
 20
-46.072167
 30
0.0
 11
426.92026
 21
-56.072167
 31
0.0
  0
LINE
  5
493
100
AcDbEntity
  8
0
370
    -3
390
0
  6
Continuous
100
AcDbLine
 10
660.652006
 20
-315.214303
 30
0.0
 11
660.652006
 21
-491.072167
 31
0.0
  0
LINE
  5
494
100
AcDbEntity
  8
0
370
    -3
390
0
  6
Continuous
100
AcDbLine
 10
425.402006
 20
-58.072167
 30
0.0
 11
425.402006
 21
-61.072167
 31
0.0
  0
LINE
  5
495
100
AcDbEntity
  8
0
370
    -3
390
0
  6
Continuous
100
AcDbLine
 10
580.652006
 20
-462.041823
 30
0.0
 11
580.652006
 21
-491.072167
 31
0.0
  0
LINE
  5
496
100
AcDbEntity
  8
0
370
    -3
390
0
  6
Continuous
100
AcDbLine
 10
424.652006
 20
-56.072167
 30
0.0
 11
425.135339
 21
-56.072167
 31
0.0
  0
ARC
  5
497
100
AcDbEntity
  8
0
370
    -3
390
0
  6
Continuous
100
AcDbCircle
 10
585.652006
 20
-462.041823
 30
0.0
 40
5.0
100
AcDbArc
 50
120.0
 51
180.0
  0
LINE
  5
498
100
AcDbEntity
  8
0
370
    -3
390
0
  6
Continuous
100
AcDbLine
 10
424.652006
 20
-57.072167
 30
0.0
 11
424.652006
 21
-46.072167
 31
0.0
  0
LINE
  5
499
100
AcDbEntity
  8
0
370
    -3
390
0
  6
Continuous
100
AcDbLine
 10
593.491752
 20
-451.74204
 30
0.0
 11
583.152006
 21
-457.711696
 31
0.0
  0
LINE
  5
49A
100
AcDbEntity
  8
0
370
    -3
390
0
  6
Continuous
100
AcDbLine
 10
424.652006
 20
-57.072167
 30
0.0
 11
424.652006
 21
-46.072167
 31
0.0
  0
ARC
  5
49B
100
AcDbEntity
  8
0
370
    -3
390
0
  6
Continuous
100
AcDbCircle
 10
595.991752
 20
-456.072167
 30
0.0
 40
5.0
100
AcDbArc
 50
90.0
 51
120.0
  0
ARC
  5
49C
100
AcDbEntity
  8
0
370
    -3
390
0
  6
Continuous
100
AcDbCircle
 10
431.152006
 20
-62.572167
 30
0.0
 40
1.5
100
AcDbArc
 50
90.0
 51
180.0
  0
LINE
  5
49D
100
AcDbEntity
  8
0
370
    -3
390
0
  6
Continuous
100
AcDbLine
 10
655.652006
 20
-451.072167
 30
0.0
 11
595.991752
 21
-451.072167
 31
0.0
  0
LINE
  5
49E
100
AcDbEntity
  8
0
370
    -3
390
0
  6
Continuous
100
AcDbLine
 10
425.402006
 20
-61.072167
 30
0.0
 11
440.652006
 21
-61.072167
 31
0.0
  0
ARC
  5
49F
100
AcDbEntity
  8
0
370
    -3
390
0
  6
Continuous
100
AcDbCircle
 10
655.652006
 20
-456.072167
 30
0.0
 40
5.0
100
AcDbArc
 50
0.0
 51
90.0
  0
LINE
  5
4A0
100
AcDbEntity
  8
0
370
    -3
390
0
  6
Continuous
100
AcDbLine
 10
431.152006
 20
-64.072167
 30
0.0
 11
440.652006
 21
-64.072167
 31
0.0
  0
LINE
  5
4A1
100
AcDbEntity
  8
0
370
    -3
390
0
  6
Continuous
100
AcDbLine
 10
528.160073
 20
-481.072167
 30
0.0
 11
440.652006
 21
-481.072167
 31
0.0
  0
LINE
  5
4A2
100
AcDbEntity
  8
0
370
    -3
390
0
  6
Continuous
100
AcDbLine
 10
453.652006
 20
-58.072167
 30
0.0
 11
453.652006
 21
-57.072167
 31
0.0
  0
ARC
  5
4A3
100
AcDbEntity
  8
0
370
    -3
390
0
  6
Continuous
100
AcDbCircle
 10
528.160073
 20
-487.072167
 30
0.0
 40
6.0
100
AcDbArc
 50
47.657395
 51
90.0
  0
LINE
  5
4A4
100
AcDbEntity
  8
0
370
    -3
390
0
  6
Continuous
100
AcDbLine
 10
454.383752
 20
-56.072167
 30
0.0
 11
448.86414
 21
-56.072167
 31
0.0
  0
ARC
  5
4A5
100
AcDbEntity
  8
0
370
    -3
390
0
  6
Continuous
100
AcDbCircle
 10
543.652006
 20
-470.072167
 30
0.0
 40
17.0
100
AcDbArc
 50
200.354406
 51
324.455002
  0
LINE
  5
4A6
100
AcDbEntity
  8
0
370
    -3
390
0
  6
Continuous
100
AcDbLine
 10
444.554961
 20
-56.072167
 30
0.0
 11
440.652006
 21
-56.072167
 31
0.0
  0
LINE
  5
4A7
100
AcDbEntity
  8
0
370
    -3
390
0
  6
Continuous
100
AcDbLine
 10
577.652006
 20
-487.072167
 30
0.0
 11
543.652006
 21
-487.072167
 31
0.0
  0
LINE
  5
4A8
100
AcDbEntity
  8
0
370
    -3
390
0
  6
Continuous
100
AcDbLine
 10
448.86414
 20
-46.072167
 30
0.0
 11
448.86414
 21
-56.072167
 31
0.0
  0
ARC
  5
4A9
100
AcDbEntity
  8
0
370
    -3
390
0
  6
Continuous
100
AcDbCircle
 10
577.652006
 20
-490.072167
 30
0.0
 40
3.0
100
AcDbArc
 50
0.0
 51
90.0
  0
LINE
  5
4AA
100
AcDbEntity
  8
0
370
    -3
390
0
  6
Continuous
100
AcDbLine
 10
444.554961
 20
-46.072167
 30
0.0
 11
444.554961
 21
-56.072167
 31
0.0
  0
ARC
  5
4AB
100
AcDbEntity
  8
0
370
    -3
390
0
  6
Continuous
100
AcDbCircle
 10
616.652006
 20
-423.072167
 30
0.0
 40
28.0
100
AcDbArc
 50
270.0
 51
0.0
  0
ARC
  5
4AC
100
AcDbEntity
  8
0
370
    -3
390
0
  6
Continuous
100
AcDbCircle
 10
450.152006
 20
-62.572167
 30
0.0
 40
1.5
100
AcDbArc
 50
0.0
 51
90.0
  0
LINE
  5
4AD
100
AcDbEntity
  8
0
370
    -3
390
0
  6
Continuous
100
AcDbLine
 10
644.652006
 20
-321.013293
 30
0.0
 11
644.652006
 21
-423.072167
 31
0.0
  0
LINE
  5
4AE
100
AcDbEntity
  8
0
370
    -3
390
0
  6
Continuous
100
AcDbLine
 10
455.902006
 20
-58.072167
 30
0.0
 11
440.652006
 21
-58.072167
 31
0.0
  0
ARC
  5
4AF
100
AcDbEntity
  8
0
370
    -3
390
0
  6
Continuous
100
AcDbCircle
 10
524.652006
 20
-81.072167
 30
0.0
 40
17.0
100
AcDbArc
 50
7.698325
 51
142.11853
  0
LINE
  5
4B0
100
AcDbEntity
  8
0
370
    -3
390
0
  6
Continuous
100
AcDbLine
 10
456.652006
 20
-57.072167
 30
0.0
 11
440.652006
 21
-57.072167
 31
0.0
  0
LINE
  5
4B1
100
AcDbEntity
  8
0
370
    -3
390
0
  6
CENTER
100
AcDbLine
 10
440.652006
 20
-37.648201
 30
0.0
 11
440.652006
 21
-505.592021
 31
0.0
  0
LINE
  5
4B2
100
AcDbEntity
  8
0
370
    -3
390
0
  6
Continuous
100
AcDbLine
 10
455.902006
 20
-61.072167
 30
0.0
 11
440.652006
 21
-61.072167
 31
0.0
  0
LINE
  5
4B3
100
AcDbEntity
  8
0
370
    -3
390
0
  6
Continuous
100
AcDbLine
 10
592.652006
 20
-266.072167
 30
0.0
 11
548.652006
 21
-266.072167
 31
0.0
  0
LINE
  5
4B4
100
AcDbEntity
  8
0
370
    -3
390
0
  6
CENTER
100
AcDbLine
 10
472.750945
 20
-318.072167
 30
0.0
 11
414.823771
 21
-318.072167
 31
0.0
  0
ARC
  5
4B5
100
AcDbEntity
  8
0
370
    -3
390
0
  6
Continuous
100
AcDbCircle
 10
592.652006
 20
-274.072167
 30
0.0
 40
8.0
100
AcDbArc
 50
0.0
 51
90.0
  0
LINE
  5
4B6
100
AcDbEntity
  8
0
370
    -3
390
0
  6
Continuous
100
AcDbLine
 10
530.652006
 20
-248.072167
 30
0.0
 11
530.652006
 21
-226.072167
 31
0.0
  0
ARC
  5
4B7
100
AcDbEntity
  8
0
370
    -3
390
0
  6
Continuous
100
AcDbCircle
 10
440.652006
 20
-226.072167
 30
0.0
 40
90.0
100
AcDbArc
 50
0.0
 51
90.0
  0
ARC
  5
4B8
100
AcDbEntity
  8
0
370
    -3
390
0
  6
Continuous
100
AcDbCircle
 10
440.652006
 20
-226.072167
 30
0.0
 40
90.0
100
AcDbArc
 50
0.0
 51
90.0
  0
LINE
  5
4B9
100
AcDbEntity
  8
0
370
    -3
390
0
  6
Continuous
100
AcDbLine
 10
456.652006
 20
-56.072167
 30
0.0
 11
456.168673
 21
-56.072167
 31
0.0
  0
LINE
  5
4BA
100
AcDbEntity
  8
0
370
    -3
390
0
  6
Continuous
100
AcDbLine
 10
456.652006
 20
-57.072167
 30
0.0
 11
456.652006
 21
-46.072167
 31
0.0
  0
LINE
  5
4BB
100
AcDbEntity
  8
0
370
    -3
390
0
  6
Continuous
100
AcDbLine
 10
456.652006
 20
-57.072167
 30
0.0
 11
456.652006
 21
-46.072167
 31
0.0
  0
LINE
  5
4BC
100
AcDbEntity
  8
0
370
    -3
390
0
  6
Continuous
100
AcDbLine
 10
445.652006
 20
-75.072167
 30
0.0
 11
445.652006
 21
-131.599949
 31
0.0
  0
ARC
  5
4BD
100
AcDbEntity
  8
0
370
    -3
390
0
  6
Continuous
100
AcDbCircle
 10
450.652006
 20
-75.072167
 30
0.0
 40
5.0
100
AcDbArc
 50
90.0
 51
180.0
  0
LINE
  5
4BE
100
AcDbEntity
  8
0
370
    -3
390
0
  6
DASHED
100
AcDbLine
 10
295.870786
 20
-284.221159
 30
0.0
 11
250.153587
 21
-386.903668
 31
0.0
  0
ARC
  5
4BF
100
AcDbEntity
  8
0
370
    -3
390
0
  6
Continuous
100
AcDbCircle
 10
450.652006
 20
-131.599949
 30
0.0
 40
5.0
100
AcDbArc
 50
180.0
 51
263.957672
  0
ARC
  5
4C0
100
AcDbEntity
  8
0
370
    -3
390
0
  6
DASHED
100
AcDbCircle
 10
287.46966
 20
-286.37196
 30
0.0
 40
3.0
100
AcDbArc
 50
279.318123
 51
336.0
  0
LINE
  5
4C1
100
AcDbEntity
  8
0
370
    -3
390
0
  6
Continuous
100
AcDbLine
 10
629.71088
 20
-306.072167
 30
0.0
 11
608.652006
 21
-306.072167
 31
0.0
  0
LINE
  5
4C2
100
AcDbEntity
  8
0
370
    -3
390
0
  6
DASHED
100
AcDbLine
 10
287.955408
 20
-289.332374
 30
0.0
 11
261.999771
 21
-293.591203
 31
0.0
  0
LINE
  5
4C3
100
AcDbEntity
  8
0
370
    -3
390
0
  6
CENTER
100
AcDbLine
 10
658.244532
 20
-226.072167
 30
0.0
 11
440.652006
 21
-226.072167
 31
0.0
  0
ARC
  5
4C4
100
AcDbEntity
  8
0
370
    -3
390
0
  6
DASHED
100
AcDbCircle
 10
294.176222
 20
-292.880563
 30
0.0
 40
3.0
100
AcDbArc
 50
0.0
 51
66.0
  0
ARC
  5
4C5
100
AcDbEntity
  8
0
370
    -3
390
0
  6
Continuous
100
AcDbCircle
 10
608.652006
 20
-314.072167
 30
0.0
 40
8.0
100
AcDbArc
 50
90.0
 51
180.0
  0
LINE
  5
4C6
100
AcDbEntity
  8
0
370
    -3
390
0
  6
DASHED
100
AcDbLine
 10
293.59306
 20
-289.337014
 30
0.0
 11
295.396432
 21
-290.139926
 31
0.0
  0
LINE
  5
4C7
100
AcDbEntity
  8
0
370
    -3
390
0
  6
Continuous
100
AcDbLine
 10
642.30886
 20
-315.356439
 30
0.0
 11
635.367735
 21
-308.415313
 31
0.0
  0
ARC
  5
4C8
100
AcDbEntity
  8
0
370
    -3
390
0
  6
Continuous
100
AcDbCircle
 10
636.652006
 20
-321.013293
 30
0.0
 40
8.0
100
AcDbArc
 50
0.0
 51
45.0
  0
ARC
  5
4C9
100
AcDbEntity
  8
0
370
    -3
390
0
  6
Continuous
100
AcDbCircle
 10
629.71088
 20
-314.072167
 30
0.0
 40
8.0
100
AcDbArc
 50
45.0
 51
90.0
  0
ARC
  5
4CA
100
AcDbEntity
  8
0
370
    -3
390
0
  6
Continuous
100
AcDbCircle
 10
522.088147
 20
-478.072167
 30
0.0
 40
6.0
100
AcDbArc
 50
20.354406
 51
90.0
  0
LINE
  5
4CB
100
AcDbEntity
  8
0
370
    -3
390
0
  6
Continuous
100
AcDbLine
 10
577.652006
 20
-485.340117
 30
0.0
 11
548.629096
 21
-468.583732
 31
0.0
  0
LINE
  5
4CC
100
AcDbEntity
  8
0
370
    -3
390
0
  6
DASHED
100
AcDbLine
 10
293.312858
 20
-283.082296
 30
0.0
 11
295.870786
 21
-284.221159
 31
0.0
  0
ARC
  5
4CD
100
AcDbEntity
  8
0
370
    -3
390
0
  6
Continuous
100
AcDbCircle
 10
538.629096
 20
-485.90424
 30
0.0
 40
20.0
100
AcDbArc
 50
60.0
 51
108.449926
  0
ARC
  5
4CE
100
AcDbEntity
  8
0
370
    -3
390
0
  6
Continuous
100
AcDbCircle
 10
574.652006
 20
-490.536269
 30
0.0
 40
6.0
100
AcDbArc
 50
0.0
 51
60.0
  0
LINE
  5
4CF
100
AcDbEntity
  8
0
370
    -3
390
0
  6
DASHED
100
AcDbLine
 10
291.992576
 20
-283.589105
 30
0.0
 11
276.639728
 21
-318.072167
 31
0.0
  0
LINE
  5
4D0
100
AcDbEntity
  8
0
370
    -3
390
0
  6
Continuous
100
AcDbLine
 10
587.355102
 20
-441.897661
 30
0.0
 11
589.765255
 21
-446.072167
 31
0.0
  0
ARC
  5
4D1
100
AcDbEntity
  8
0
370
    -3
390
0
  6
Continuous
100
AcDbCircle
 10
604.67561
 20
-431.897661
 30
0.0
 40
20.0
100
AcDbArc
 50
150.096164
 51
210.0
  0
ARC
  5
4D2
100
AcDbEntity
  8
0
370
    -3
390
0
  6
Continuous
100
AcDbCircle
 10
598.425509
 20
-441.072167
 30
0.0
 40
10.0
100
AcDbArc
 50
210.0
 51
270.0
  0
ARC
  5
4D3
100
AcDbEntity
  8
0
370
    -3
390
0
  6
Continuous
100
AcDbCircle
 10
562.366168
 20
-483.443037
 30
0.0
 40
6.0
100
AcDbArc
 50
60.0
 51
144.455002
  0
LINE
  5
4D4
100
AcDbEntity
  8
0
370
    -3
390
0
  6
Continuous
100
AcDbLine
 10
601.652006
 20
-349.072167
 30
0.0
 11
601.652006
 21
-368.072167
 31
0.0
  0
LINE
  5
4D5
100
AcDbEntity
  8
0
370
    -3
390
0
  6
DASHED
100
AcDbLine
 10
295.541625
 20
-286.915497
 30
0.0
 11
294.805221
 21
-287.228082
 31
0.0
  0
ARC
  5
4D6
100
AcDbEntity
  8
0
370
    -3
390
0
  6
Continuous
100
AcDbCircle
 10
600.652006
 20
-349.072167
 30
0.0
 40
1.0
100
AcDbArc
 50
0.0
 51
60.0
  0
LINE
  5
4D7
100
AcDbEntity
  8
0
370
    -3
390
0
  6
DASHED
100
AcDbLine
 10
294.671879
 20
-286.913948
 30
0.0
 11
294.805221
 21
-287.228082
 31
0.0
  0
ARC
  5
4D8
100
AcDbEntity
  8
0
370
    -3
390
0
  6
Continuous
100
AcDbCircle
 10
601.652006
 20
-347.340117
 30
0.0
 40
1.0
100
AcDbArc
 50
180.0
 51
240.0
  0
LINE
  5
4D9
100
AcDbEntity
  8
0
370
    -3
390
0
  6
DASHED
100
AcDbLine
 10
295.116793
 20
-285.914655
 30
0.0
 11
295.541625
 21
-286.915497
 31
0.0
  0
LINE
  5
4DA
100
AcDbEntity
  8
0
370
    -3
390
0
  6
Continuous
100
AcDbLine
 10
601.652006
 20
-387.072167
 30
0.0
 11
601.652006
 21
-368.072167
 31
0.0
  0
ARC
  5
4DB
100
AcDbEntity
  8
0
370
    -3
390
0
  6
DASHED
100
AcDbCircle
 10
292.906122
 20
-283.995842
 30
0.0
 40
1.0
100
AcDbArc
 50
66.0
 51
156.0
  0
LINE
  5
4DC
100
AcDbEntity
  8
0
370
    -3
390
0
  6
Continuous
100
AcDbLine
 10
600.652006
 20
-388.072167
 30
0.0
 11
600.211034
 21
-388.072167
 31
0.0
  0
LINE
  5
4DD
100
AcDbEntity
  8
0
370
    -3
390
0
  6
DASHED
100
AcDbLine
 10
297.176222
 20
-292.880563
 30
0.0
 11
297.176222
 21
-367.072167
 31
0.0
  0
ARC
  5
4DE
100
AcDbEntity
  8
0
370
    -3
390
0
  6
Continuous
100
AcDbCircle
 10
600.652006
 20
-387.072167
 30
0.0
 40
1.0
100
AcDbArc
 50
270.0
 51
0.0
  0
ARC
  5
4DF
100
AcDbEntity
  8
0
370
    -3
390
0
  6
Continuous
100
AcDbCircle
 10
600.211034
 20
-389.072167
 30
0.0
 40
1.0
100
AcDbArc
 50
90.0
 51
170.31003
  0
ARC
  5
4E0
100
AcDbEntity
  8
0
370
    -3
390
0
  6
DASHED
100
AcDbCircle
 10
292.176222
 20
-367.072167
 30
0.0
 40
5.0
100
AcDbArc
 50
270.0
 51
0.0
  0
LINE
  5
4E1
100
AcDbEntity
  8
0
370
    -3
390
0
  6
DASHED
100
AcDbLine
 10
292.176222
 20
-372.072167
 30
0.0
 11
256.756997
 21
-372.072167
 31
0.0
  0
ARC
  5
4E2
100
AcDbEntity
  8
0
370
    -3
390
0
  6
DASHED
100
AcDbCircle
 10
264.428511
 20
-308.393272
 30
0.0
 40
15.0
100
AcDbArc
 50
99.318123
 51
178.317231
  0
ARC
  5
4E3
100
AcDbEntity
  8
0
370
    -3
390
0
  6
DASHED
100
AcDbCircle
 10
255.294614
 20
-381.749074
 30
0.0
 40
9.0
100
AcDbArc
 50
139.398469
 51
172.601548
  0
ARC
  5
4E4
100
AcDbEntity
  8
0
370
    -3
390
0
  6
DASHED
100
AcDbCircle
 10
247.658718
 20
-380.757555
 30
0.0
 40
1.299999
100
AcDbArc
 50
172.601548
 51
246.000018
  0
LINE
  5
4E5
100
AcDbEntity
  8
0
370
    -3
390
0
  6
DASHED
100
AcDbLine
 10
252.105923
 20
-382.51865
 30
0.0
 11
255.623073
 21
-384.084586
 31
0.0
  0
LINE
  5
4E6
100
AcDbEntity
  8
0
370
    -3
390
0
  6
DASHED
100
AcDbLine
 10
253.732869
 20
-378.864468
 30
0.0
 11
257.250019
 21
-380.430405
 31
0.0
  0
ARC
  5
4E7
100
AcDbEntity
  8
0
370
    -3
390
0
  6
DASHED
100
AcDbCircle
 10
252.806208
 20
-369.694802
 30
0.0
 40
2.0
100
AcDbArc
 50
184.231338
 51
246.0
  0
ARC
  5
4E8
100
AcDbEntity
  8
0
370
    -3
390
0
  6
DASHED
100
AcDbCircle
 10
251.381534
 20
-372.344405
 30
0.0
 40
1.0
100
AcDbArc
 50
336.0
 51
66.0
  0
ARC
  5
4E9
100
AcDbEntity
  8
0
370
    -3
390
0
  6
DASHED
100
AcDbCircle
 10
248.002396
 20
-384.85126
 30
0.0
 40
1.0
100
AcDbArc
 50
156.0
 51
246.0
  0
LINE
  5
4EA
100
AcDbEntity
  8
0
370
    -3
390
0
  6
DASHED
100
AcDbLine
 10
247.59566
 20
-385.764806
 30
0.0
 11
250.153587
 21
-386.903668
 31
0.0
  0
ARC
  5
4EB
100
AcDbEntity
  8
0
370
    -3
390
0
  6
DASHED
100
AcDbCircle
 10
250.210173
 20
-374.975327
 30
0.0
 40
1.0
100
AcDbArc
 50
336.0
 51
4.715125
  0
ARC
  5
4EC
100
AcDbEntity
  8
0
370
    -3
390
0
  6
DASHED
100
AcDbCircle
 10
849.176222
 20
-325.572167
 30
0.0
 40
600.0
100
AcDbArc
 50
178.317231
 51
184.715125
  0
ARC
  5
4ED
100
AcDbEntity
  8
0
370
    -3
390
0
  6
DASHED
100
AcDbCircle
 10
249.44836
 20
-376.737954
 30
0.0
 40
1.299999
100
AcDbArc
 50
65.999999
 51
139.398469
  0
LINE
  5
4EE
100
AcDbEntity
  8
0
370
    -3
390
0
  6
DASHED
100
AcDbLine
 10
250.871502
 20
-375.948551
 30
0.0
 11
249.977117
 21
-375.550346
 31
0.0
  0
LINE
  5
4EF
100
AcDbEntity
  8
0
370
    -3
390
0
  6
DASHED
100
AcDbLine
 10
248.024345
 20
-382.343369
 30
0.0
 11
247.129961
 21
-381.945164
 31
0.0
  0
LINE
  5
4F0
100
AcDbEntity
  8
0
370
    -3
390
0
  6
DASHED
100
AcDbLine
 10
276.639728
 20
-318.072167
 30
0.0
 11
247.088851
 21
-384.444524
 31
0.0
  0
POINT
  5
4F1
100
AcDbEntity
  8
0
370
    -3
390
0
  6
CENTER
100
AcDbPoint
 10
582.702961
 20
-458.004109
 30
0.0
  0
POINT
  5
4F2
100
AcDbEntity
  8
0
370
    -3
390
0
  6
CENTER
100
AcDbPoint
 10
569.39556
 20
-444.696707
 30
0.0
  0
POINT
  5
4F3
100
AcDbEntity
  8
0
370
    -3
390
0
  6
DASHED
100
AcDbPoint
 10
249.447923
 20
-379.14596
 30
0.0
  0
ARC
  5
4F4
100
AcDbEntity
  8
0
370
    -3
390
0
  6
Continuous
100
AcDbCircle
 10
548.652006
 20
-248.072167
 30
0.0
 40
18.0
100
AcDbArc
 50
180.0
 51
270.0
  0
LINE
  5
4F5
100
AcDbEntity
  8
0
370
    -3
390
0
  6
DASHED
100
AcDbLine
 10
257.427402
 20
-380.892503
 30
0.0
 11
256.085172
 21
-383.907203
 31
0.0
  0
ARC
  5
4F6
100
AcDbEntity
  8
0
370
    -3
390
0
  6
Continuous
100
AcDbCircle
 10
606.652006
 20
-201.072167
 30
0.0
 40
6.0
100
AcDbArc
 50
180.0
 51
270.0
  0
LINE
  5
4F7
100
AcDbEntity
  8
0
370
    -3
390
0
  6
DASHED
100
AcDbLine
 10
255.623073
 20
-384.084586
 30
0.0
 11
256.085172
 21
-383.907203
 31
0.0
  0
LINE
  5
4F8
100
AcDbEntity
  8
0
370
    -3
390
0
  6
DASHED
100
AcDbLine
 10
253.590512
 20
-379.184209
 30
0.0
 11
257.427402
 21
-380.892503
 31
0.0
  0
LINE
  5
4F9
100
AcDbEntity
  8
0
370
    -3
390
0
  6
DASHED
100
AcDbLine
 10
252.248281
 20
-382.198909
 30
0.0
 11
256.085172
 21
-383.907203
 31
0.0
  0
CIRCLE
  5
4FA
100
AcDbEntity
  8
0
370
    -3
390
0
  6
Continuous
100
AcDbCircle
 10
440.652006
 20
-226.072167
 30
0.0
 40
65.0
  0
ARC
  5
4FB
100
AcDbEntity
  8
0
370
    -3
390
0
  6
Continuous
100
AcDbCircle
 10
440.652006
 20
-226.072167
 30
0.0
 40
35.0
100
AcDbArc
 50
106.60155
 51
270.0
  0
LINE
  5
4FC
100
AcDbEntity
  8
0
370
    -3
390
0
  6
Continuous
100
AcDbLine
 10
440.652006
 20
-198.572167
 30
0.0
 11
430.652006
 21
-198.572167
 31
0.0
  0
LINE
  5
4FD
100
AcDbEntity
  8
0
370
    -3
390
0
  6
Continuous
100
AcDbLine
 10
430.652006
 20
-186.572167
 30
0.0
 11
430.652006
 21
-198.572167
 31
0.0
  0
LINE
  5
4FE
100
AcDbEntity
  8
0
370
    -3
390
0
  6
Continuous
100
AcDbLine
 10
440.652006
 20
-186.572167
 30
0.0
 11
430.652006
 21
-186.572167
 31
0.0
  0
LINE
  5
4FF
100
AcDbEntity
  8
0
370
    -3
390
0
  6
Continuous
100
AcDbLine
 10
450.652006
 20
-186.572167
 30
0.0
 11
450.652006
 21
-198.572167
 31
0.0
  0
LINE
  5
500
100
AcDbEntity
  8
0
370
    -3
390
0
  6
Continuous
100
AcDbLine
 10
440.652006
 20
-186.572167
 30
0.0
 11
450.652006
 21
-186.572167
 31
0.0
  0
LINE
  5
501
100
AcDbEntity
  8
0
370
    -3
390
0
  6
Continuous
100
AcDbLine
 10
440.652006
 20
-198.572167
 30
0.0
 11
450.652006
 21
-198.572167
 31
0.0
  0
ARC
  5
502
100
AcDbEntity
  8
0
370
    -3
390
0
  6
Continuous
100
AcDbCircle
 10
440.652006
 20
-226.072167
 30
0.0
 40
35.0
100
AcDbArc
 50
270.0
 51
73.39845
  0
CIRCLE
  5
503
100
AcDbEntity
  8
0
370
    -3
390
0
  6
Continuous
100
AcDbCircle
 10
440.652006
 20
-226.072167
 30
0.0
 40
5.0
  0
CIRCLE
  5
504
100
AcDbEntity
  8
0
370
    -3
390
0
  6
Continuous
100
AcDbCircle
 10
440.652006
 20
-226.072167
 30
0.0
 40
6.0
  0
LINE
  5
505
100
AcDbEntity
  8
0
370
    -3
390
0
  6
CENTER
100
AcDbLine
 10
246.629456
 20
-377.891097
 30
0.0
 11
257.121283
 21
-382.56236
 31
0.0
  0
LINE
  5
506
100
AcDbEntity
  8
0
370
    -3
390
0
  6
DASHED
100
AcDbLine
 10
257.250019
 20
-380.430405
 30
0.0
 11
257.427402
 21
-380.892503
 31
0.0
  0
LINE
  5
507
100
AcDbEntity
  8
0
370
    -3
390
0
  6
CENTER
100
AcDbLine
 10
303.663348
 20
-318.072167
 30
0.0
 11
243.777981
 21
-318.072167
 31
0.0
  0
MTEXT
  5
509
100
AcDbEntity
  8
0
370
    -3
390
0
  6
Continuous
100
AcDbMText
 10
359.159607
 20
248.839813
 30
0.0
 40
16.0
 41
0.0
 71
     7
 72
     1
  1
\W0.83;三菱ギヤードモータ  
  7
ZU_SHPTB00001
 11
1.0
 21
0.0
 31
0.0
 73
     1
 44
1.0
  0
MTEXT
  5
50A
100
AcDbEntity
  8
0
370
    -3
390
0
  6
Continuous
100
AcDbMText
 10
359.159607
 20
227.639816
 30
0.0
 40
16.0
 41
0.0
 71
     7
 72
     1
  1
\W0.60;GM-DPB
  7
ZU_SHPTB00001
 11
1.0
 21
0.0
 31
0.0
 73
     1
 44
1.0
  0
MTEXT
  5
50B
100
AcDbEntity
  8
0
370
    -3
390
0
  6
Continuous
100
AcDbMText
 10
359.159607
 20
206.439804
 30
0.0
 40
16.0
 41
0.0
 71
     7
 72
     1
  1
\W0.60;7.5(kW)
  7
ZU_SHPTB00001
 11
1.0
 21
0.0
 31
0.0
 73
     1
 44
1.0
  0
MTEXT
  5
50C
100
AcDbEntity
  8
0
370
    -3
390
0
  6
Continuous
100
AcDbMText
 10
359.159607
 20
185.239807
 30
0.0
 40
16.0
 41
0.0
 71
     7
 72
     1
  1
\W0.60;1/45
  7
ZU_SHPTB00001
 11
1.0
 21
0.0
 31
0.0
 73
     1
 44
1.0
  0
MTEXT
  5
50D
100
AcDbEntity
  8
0
370
    -3
390
0
  6
Continuous
100
AcDbMText
 10
359.159607
 20
164.03981
 30
0.0
 40
16.0
 41
0.0
 71
     7
 72
     1
  1
\W0.60;SCALE\W1.00; \W0.60;1/1
  7
ZU_SHPTB00001
 11
1.0
 21
0.0
 31
0.0
 73
     1
 44
1.0
  0
ENDSEC
  0
SECTION
  2
OBJECTS
  0
DICTIONARY
  5
19
100
AcDbDictionary
280
     0
281
     1
  3
ACAD_GROUP
350
1A
  3
ACAD_MLINESTYLE
350
1B
  3
ACAD_LAYOUT
350
1E
  3
ACAD_PLOTSETTINGS
350
22
  3
ACAD_PLOTSTYLENAME
350
1F
  3
ACAD_WIPEOUT_VARS
350
23
  3
DWGPROPS
350
50E
  0
DICTIONARY
  5
1A
102
{ACAD_REACTORS
330
19
102
}
100
AcDbDictionary
280
     0
281
     1
  0
DICTIONARY
  5
1B
102
{ACAD_REACTORS
330
19
102
}
100
AcDbDictionary
280
     0
281
     1
  3
Standard
350
1C
  0
MLINESTYLE
  5
1C
102
{ACAD_REACTORS
330
1B
102
}
100
AcDbMlineStyle
  2
Standard
 70
     0
  3

 62
     0
 51
90.0
 52
90.0
 71
     2
 49
0.5
 62
   256
  6
ByLayer
 49
-0.5
 62
   256
  6
ByLayer
  0
ACDBDICTIONARYWDFLT
  5
1F
102
{ACAD_REACTORS
330
19
102
}
100
AcDbDictionary
281
     1
  3
Normal
350
1D
100
AcDbDictionaryWithDefault
340
1D
  0
ACDBPLACEHOLDER
  5
1D
102
{ACAD_REACTORS
330
1F
102
}
  0
LAYOUT
  5
20
102
{ACAD_REACTORS
330
1E
102
}
100
AcDbPlotSettings
  1

  2

  4

  6

 40
0.0
 41
0.0
 42
0.0
 43
0.0
 44
0.0
 45
0.0
 46
0.0
 47
0.0
 48
0.0
 49
0.0
140
0.0
141
0.0
142
1.0
143
1.0
 70
  1024
 72
     0
 73
     0
 74
     0
  7

 75
     0
147
1.0
148
0.0
149
0.0
100
AcDbLayout
  1
Model
 70
     0
 71
     0
 10
0.0
 20
0.0
 11
0.0
 21
0.0
 12
0.0
 22
0.0
 32
0.0
 14
0.0
 24
0.0
 34
0.0
 15
0.0
 25
0.0
 35
0.0
146
0.0
 13
0.0
 23
0.0
 33
0.0
 16
0.0
 26
0.0
 36
0.0
 17
0.0
 27
0.0
 37
0.0
 76
     0
330
A
331
0
345
0
346
0
  0
LAYOUT
  5
21
102
{ACAD_REACTORS
330
1E
102
}
100
AcDbPlotSettings
  1

  2

  4

  6

 40
0.0
 41
0.0
 42
0.0
 43
0.0
 44
0.0
 45
0.0
 46
0.0
 47
0.0
 48
0.0
 49
0.0
140
0.0
141
0.0
142
1.0
143
1.0
 70
     0
 72
     0
 73
     0
 74
     0
  7

 75
     0
147
1.0
148
0.0
149
0.0
100
AcDbLayout
  1
Layout1
 70
     0
 71
     0
 10
0.0
 20
0.0
 11
0.0
 21
0.0
 12
0.0
 22
0.0
 32
0.0
 14
0.0
 24
0.0
 34
0.0
 15
0.0
 25
0.0
 35
0.0
146
0.0
 13
0.0
 23
0.0
 33
0.0
 16
0.0
 26
0.0
 36
0.0
 17
0.0
 27
0.0
 37
0.0
 76
     0
330
B
331
0
345
0
346
0
  0
DICTIONARY
  5
1E
102
{ACAD_REACTORS
330
19
102
}
100
AcDbDictionary
280
     0
281
     1
  3
Layout1
350
21
  3
Model
350
20
  0
DICTIONARY
  5
22
102
{ACAD_REACTORS
330
19
102
}
100
AcDbDictionary
280
     0
281
     1
  0
WIPEOUTVARIABLES
  5
23
100
AcDbWipeoutVariables
 70
     1
  0
XRECORD
  5
50E
100
AcDbXrecord
280
     1
  1
DWGPROPS COOKIE
  2

  3

  4

  6

  7

  8
YP81315
  9

300
=
301
=
302
=
303
=
304
=
305
=
306
=
307
=
308
=
309
=
 40
0.0
 41
2456812.58213
 42
2456812.58213
  1

 90
        0
  0
ENDSEC
  0
EOF
