  0
SECTION
  2
HEADER
  9
$ACADVER
  1
AC1015
  9
$ACADMAINTVER
 70
     6
  9
$DWGCODEPAGE
  3
ANSI_932
  9
$INSBASE
 10
0.0
 20
0.0
 30
0.0
  9
$EXTMIN
 10
1.000000E+20
 20
1.000000E+20
 30
1.000000E+20
  9
$EXTMAX
 10
-1.000000E+20
 20
-1.000000E+20
 30
-1.000000E+20
  9
$LIMMIN
 10
0.0
 20
0.0
  9
$LIMMAX
 10
0.0
 20
0.0
  9
$ORTHOMODE
 70
     0
  9
$REGENMODE
 70
     1
  9
$FILLMODE
 70
     1
  9
$QTEXTMODE
 70
     0
  9
$MIRRTEXT
 70
     1
  9
$LTSCALE
 40
1.0
  9
$ATTMODE
 70
     1
  9
$TEXTSIZE
 40
3.2
  9
$TRACEWID
 40
0.05
  9
$TEXTSTYLE
  7
Standard
  9
$CLAYER
  8
0
  9
$CELTYPE
  6
Continuous
  9
$CECOLOR
 62
   256
  9
$CELTSCALE
 40
1.0
  9
$DISPSILH
 70
     0
  9
$DIMSCALE
 40
1.0
  9
$DIMASZ
 40
3.863703
  9
$DIMEXO
 40
1.0
  9
$DIMDLI
 40
0.38
  9
$DIMRND
 40
0.0
  9
$DIMDLE
 40
0.0
  9
$DIMEXE
 40
2.0
  9
$DIMTP
 40
0.0
  9
$DIMTM
 40
0.0
  9
$DIMTXT
 40
3.2
  9
$DIMCEN
 40
0.09
  9
$DIMTSZ
 40
0.0
  9
$DIMTOL
 70
     0
  9
$DIMLIM
 70
     0
  9
$DIMTIH
 70
     1
  9
$DIMTOH
 70
     1
  9
$DIMSE1
 70
     0
  9
$DIMSE2
 70
     0
  9
$DIMTAD
 70
     1
  9
$DIMZIN
 70
     0
  9
$DIMBLK
  1

  9
$DIMASO
 70
     1
  9
$DIMSHO
 70
     1
  9
$DIMPOST
  1

  9
$DIMAPOST
  1

  9
$DIMALT
 70
     0
  9
$DIMALTD
 70
     2
  9
$DIMALTF
 40
25.4
  9
$DIMLFAC
 40
1.0
  9
$DIMTOFL
 70
     0
  9
$DIMTVP
 40
0.0
  9
$DIMTIX
 70
     0
  9
$DIMSOXD
 70
     0
  9
$DIMSAH
 70
     0
  9
$DIMBLK1
  1

  9
$DIMBLK2
  1

  9
$DIMSTYLE
  2
Standard
  9
$DIMCLRD
 70
     0
  9
$DIMCLRE
 70
     0
  9
$DIMCLRT
 70
     0
  9
$DIMTFAC
 40
0.625
  9
$DIMGAP
 40
0.09
  9
$DIMJUST
 70
     0
  9
$DIMSD1
 70
     0
  9
$DIMSD2
 70
     0
  9
$DIMTOLJ
 70
     1
  9
$DIMTZIN
 70
     0
  9
$DIMALTZ
 70
     0
  9
$DIMALTTZ
 70
     0
  9
$DIMUPT
 70
     0
  9
$DIMDEC
 70
     4
  9
$DIMTDEC
 70
     4
  9
$DIMALTU
 70
     2
  9
$DIMALTTD
 70
     2
  9
$DIMTXSTY
  7
Standard
  9
$DIMAUNIT
 70
     0
  9
$DIMADEC
 70
     0
  9
$DIMALTRND
 40
0.0
  9
$DIMAZIN
 70
     0
  9
$DIMDSEP
 70
     0
  9
$DIMATFIT
 70
     3
  9
$DIMFRAC
 70
     0
  9
$DIMLDRBLK
  1

  9
$DIMLUNIT
 70
     2
  9
$DIMLWD
 70
     0
  9
$DIMLWE
 70
     0
  9
$DIMTMOVE
 70
     0
  9
$LUNITS
 70
     2
  9
$LUPREC
 70
     3
  9
$SKETCHINC
 40
0.1
  9
$FILLETRAD
 40
0.0
  9
$AUNITS
 70
     0
  9
$AUPREC
 70
     0
  9
$MENU
  1
acad
  9
$ELEVATION
 40
0.0
  9
$PELEVATION
 40
0.0
  9
$THICKNESS
 40
0.0
  9
$LIMCHECK
 70
     0
  9
$CHAMFERA
 40
0.0
  9
$CHAMFERB
 40
0.0
  9
$CHAMFERC
 40
0.0
  9
$CHAMFERD
 40
0.0
  9
$SKPOLY
 70
     0
  9
$TDCREATE
 40
0.000000000
  9
$TDUCREATE
 40
0.000000000
  9
$TDUPDATE
 40
0.000000000
  9
$TDUUPDATE
 40
0.000000000
  9
$TDINDWG
 40
0.0000000000
  9
$TDUSRTIMER
 40
0.0000000000
  9
$USRTIMER
 70
     1
  9
$ANGBASE
 50
0.0
  9
$ANGDIR
 70
     0
  9
$PDMODE
 70
     0
  9
$PDSIZE
 40
0.0
  9
$PLINEWID
 40
0.0
  9
$SPLFRAME
 70
     0
  9
$SPLINETYPE
 70
     6
  9
$SPLINESEGS
 70
     8
  9
$HANDSEED
  5
79F
  9
$SURFTAB1
 70
     6
  9
$SURFTAB2
 70
     6
  9
$SURFTYPE
 70
     6
  9
$SURFU
 70
     6
  9
$SURFV
 70
     6
  9
$UCSBASE
  2

  9
$UCSNAME
  2

  9
$UCSORG
 10
0.0
 20
0.0
 30
0.0
  9
$UCSXDIR
 10
1.0
 20
0.0
 30
0.0
  9
$UCSYDIR
 10
0.0
 20
1.0
 30
0.0
  9
$UCSORTHOREF
  2

  9
$UCSORTHOVIEW
 70
     0
  9
$UCSORGTOP
 10
0.0
 20
0.0
 30
0.0
  9
$UCSORGBOTTOM
 10
0.0
 20
0.0
 30
0.0
  9
$UCSORGLEFT
 10
0.0
 20
0.0
 30
0.0
  9
$UCSORGRIGHT
 10
0.0
 20
0.0
 30
0.0
  9
$UCSORGFRONT
 10
0.0
 20
0.0
 30
0.0
  9
$UCSORGBACK
 10
0.0
 20
0.0
 30
0.0
  9
$PUCSBASE
  2

  9
$PUCSNAME
  2

  9
$PUCSORG
 10
0.0
 20
0.0
 30
0.0
  9
$PUCSXDIR
 10
1.0
 20
0.0
 30
0.0
  9
$PUCSYDIR
 10
0.0
 20
1.0
 30
0.0
  9
$PUCSORTHOREF
  2

  9
$PUCSORTHOVIEW
 70
     0
  9
$PUCSORGTOP
 10
0.0
 20
0.0
 30
0.0
  9
$PUCSORGBOTTOM
 10
0.0
 20
0.0
 30
0.0
  9
$PUCSORGLEFT
 10
0.0
 20
0.0
 30
0.0
  9
$PUCSORGRIGHT
 10
0.0
 20
0.0
 30
0.0
  9
$PUCSORGFRONT
 10
0.0
 20
0.0
 30
0.0
  9
$PUCSORGBACK
 10
0.0
 20
0.0
 30
0.0
  9
$USERI1
 70
     0
  9
$USERI2
 70
     0
  9
$USERI3
 70
     0
  9
$USERI4
 70
     0
  9
$USERI5
 70
     0
  9
$USERR1
 40
0.0
  9
$USERR2
 40
0.0
  9
$USERR3
 40
0.0
  9
$USERR4
 40
0.0
  9
$USERR5
 40
0.0
  9
$WORLDVIEW
 70
     1
  9
$SHADEDGE
 70
     3
  9
$SHADEDIF
 70
    70
  9
$TILEMODE
 70
     1
  9
$MAXACTVP
 70
    16
  9
$PINSBASE
 10
0.0
 20
0.0
 30
0.0
  9
$PLIMCHECK
 70
     0
  9
$PEXTMIN
 10
1.000000E+20
 20
1.000000E+20
 30
1.000000E+20
  9
$PEXTMAX
 10
-1.000000E+20
 20
-1.000000E+20
 30
-1.000000E+20
  9
$PLIMMIN
 10
0.0
 20
0.0
  9
$PLIMMAX
 10
12.0
 20
9.0
  9
$UNITMODE
 70
     0
  9
$VISRETAIN
 70
     0
  9
$PLINEGEN
 70
     1
  9
$PSLTSCALE
 70
     0
  9
$TREEDEPTH
 70
  3020
  9
$CMLSTYLE
  2
Standard
  9
$CMLJUST
 70
     0
  9
$CMLSCALE
 40
1.0
  9
$PROXYGRAPHICS
 70
     0
  9
$MEASUREMENT
 70
     0
  9
$CELWEIGHT
370
     0
  9
$ENDCAPS
280
     0
  9
$JOINSTYLE
280
     0
  9
$LWDISPLAY
290
     0
  9
$INSUNITS
 70
     0
  9
$HYPERLINKBASE
  1

  9
$STYLESHEET
  1

  9
$XEDIT
290
     1
  9
$CEPSNTYPE
380
     0
  9
$PSTYLEMODE
290
     1
  9
$FINGERPRINTGUID
  2

  9
$VERSIONGUID
  2

  9
$EXTNAMES
290
     1
  9
$PSVPSCALE
 40
0.0
  0
ENDSEC
  0
SECTION
  2
CLASSES
  0
CLASS
  1
LWPOLYLINE
  2
AcDbPolyline
  3
AutoCAD 2000
 90
        0
280
     0
281
     1
  0
CLASS
  1
IMAGE
  2
AcDbRasterImage
  3
ISM
 90
      127
280
     0
281
     1
  0
CLASS
  1
OLE2FRAME
  2
AcDbOle2Frame
  3
AutoCAD 2000
 90
        0
280
     0
281
     1
  0
CLASS
  1
HATCH
  2
AcDbHatch
  3
AutoCAD 2000
 90
        0
280
     0
281
     1
  0
CLASS
  1
DICTIONARYVAR
  2
AcDbDictionaryVar
  3
AutoCAD 2000
 90
        0
280
     0
281
     0
  0
CLASS
  1
RASTERVARIABLES
  2
AcDbRasterVariables
  3
ISM
 90
        0
280
     0
281
     0
  0
CLASS
  1
IMAGEDEF
  2
AcDbRasterImageDef
  3
ISM
 90
        0
280
     0
281
     0
  0
CLASS
  1
IMAGEDEF_REACTOR
  2
AcDbRasterImageDefReactor
  3
ISM
 90
        1
280
     0
281
     0
  0
CLASS
  1
IDBUFFER
  2
AcDbIdBuffer
  3
AutoCAD 2000
 90
        0
280
     0
281
     0
  0
CLASS
  1
SPATIAL_FILTER
  2
AcDbSpatialFilter
  3
AutoCAD 2000
 90
        0
280
     0
281
     0
  0
CLASS
  1
XRECORD
  2
AcDbXrecord
  3
AutoCAD 2000
 90
        0
280
     0
281
     0
  0
CLASS
  1
SORTENTSTABLE
  2
AcDbSortentsTable
  3
AutoCAD 2000
 90
        0
280
     0
281
     0
  0
CLASS
  1
LAYER_INDEX
  2
AcDbLayerIndex
  3
AutoCAD 2000
 90
        0
280
     0
281
     0
  0
CLASS
  1
SPATIAL_INDEX
  2
AcDbSpatialIndex
  3
AutoCAD 2000
 90
        0
280
     0
281
     0
  0
CLASS
  1
OBJECT_PTR
  2
CAseDLPNTableRecord
  3
"ASE-LPNTableRecord"
 90
        1
280
     0
281
     0
  0
CLASS
  1
LAYOUT
  2
AcDbLayout
  3
AutoCAD 2000
 90
        0
280
     0
281
     0
  0
CLASS
  1
PLOTSETTINGS
  2
AcDbPlotSettings
  3
AutoCAD 2000
 90
        0
280
     0
281
     0
  0
CLASS
  1
ACDBDICTIONARYWDFLT
  2
AcDbDictionaryWithDefault
  3
AutoCAD 2000
 90
        0
280
     0
281
     0
  0
CLASS
  1
ACDBPLACEHOLDER
  2
AcDbPlaceHolder
  3
AutoCAD 2000
 90
        0
280
     0
281
     0
  0
CLASS
  1
VBA_PROJECT
  2
AcDbVbaProject
  3
acadvba
 90
        0
280
     0
281
     0
  0
CLASS
  1
WIPEOUT
  2
AcDbWipeout
  3
WipeOut|AutoCAD Express Tool|expresstools@autodesk.com
 90
      127
280
     0
281
     1
  0
CLASS
  1
WIPEOUTVARIABLES
  2
AcDbWipeoutVariables
  3
WipeOut|AutoCAD Express Tool|expresstools@autodesk.com
 90
        0
280
     0
281
     0
  0
CLASS
  1
RTEXT
  2
RText
  3
RText|AutoCAD Express Tool|expresstools@autodesk.com
 90
        0
280
     0
281
     1
  0
CLASS
  1
ARCALIGNEDTEXT
  2
AcDbArcAlignedText
  3
ATEXT|AutoCAD Express Tool|expresstools@autodesk.com
 90
        0
280
     0
281
     1
  0
ENDSEC
  0
SECTION
  2
TABLES
  0
TABLE
  2
VPORT
  5
7
100
AcDbSymbolTable
 70
     1
  0
VPORT
  5
15
100
AcDbSymbolTableRecord
100
AcDbViewportTableRecord
  2
*ACTIVE
 70
     0
 10
0.0
 20
0.0
 11
1.0
 21
1.0
 12
0.0
 22
0.0
 13
0.0
 23
0.0
 14
1.0
 24
1.0
 15
0.0
 25
0.0
 16
0.0
 26
0.0
 36
1.0
 17
0.0
 27
0.0
 37
0.0
 40
100.0
 41
1.0
 42
50.0
 43
0.0
 44
0.0
 50
0.0
 51
0.0
 71
     0
 72
   100
 73
     1
 74
     1
 75
     0
 76
     0
 77
     0
 78
     0
281
     0
 65
     0
110
0.0
120
0.0
130
0.0
111
1.0
121
0.0
131
0.0
112
0.0
122
1.0
132
0.0
345
0
346
0
 79
     0
146
0.0
  0
ENDTAB
  0
TABLE
  2
LTYPE
  5
4
100
AcDbSymbolTable
 70
     7
  0
LTYPE
  5
11
100
AcDbSymbolTableRecord
100
AcDbLinetypeTableRecord
  2
ByBlock
 70
    64
  3

 72
    65
 73
     0
 40
0.0
  0
LTYPE
  5
12
100
AcDbSymbolTableRecord
100
AcDbLinetypeTableRecord
  2
ByLayer
 70
    64
  3

 72
    65
 73
     0
 40
0.0
  0
LTYPE
  5
13
100
AcDbSymbolTableRecord
100
AcDbLinetypeTableRecord
  2
Continuous
 70
    64
  3
Solid line
 72
    65
 73
     0
 40
0.0
  0
LTYPE
  5
24
100
AcDbSymbolTableRecord
100
AcDbLinetypeTableRecord
  2
DASHED
 70
    64
  3
Dashed __ __ __ __ __ __ __ __ __ __ __ __ __ _
 72
    65
 73
     2
 40
0.75
 49
0.5
 74
     0
 49
-0.25
 74
     0
  0
LTYPE
  5
25
100
AcDbSymbolTableRecord
100
AcDbLinetypeTableRecord
  2
CENTER
 70
    64
  3
Center ____ _ ____ _ ____ _ ____ _ ____ _ ____
 72
    65
 73
     4
 40
1.0
 49
0.5
 74
     0
 49
-0.25
 74
     0
 49
0.0
 74
     0
 49
-0.25
 74
     0
  0
LTYPE
  5
26
100
AcDbSymbolTableRecord
100
AcDbLinetypeTableRecord
  2
DIVIDE
 70
    64
  3
Divide ____ . . ____ . . ____ . . ____ . . ____
 72
    65
 73
     6
 40
1.25
 49
0.5
 74
     0
 49
-0.25
 74
     0
 49
0.0
 74
     0
 49
-0.25
 74
     0
 49
0.0
 74
     0
 49
-0.25
 74
     0
  0
LTYPE
  5
27
100
AcDbSymbolTableRecord
100
AcDbLinetypeTableRecord
  2
PHANTOM
 70
    64
  3
Phantom ______  __  __  ______  __  __  ______
 72
    65
 73
     6
 40
9.0
 49
4.3
 74
     0
 49
-0.7
 74
     0
 49
1.3
 74
     0
 49
-0.7
 74
     0
 49
1.3
 74
     0
 49
-0.7
 74
     0
  0
ENDTAB
  0
TABLE
  2
LAYER
  5
2
100
AcDbSymbolTable
 70
     2
  0
LAYER
  5
14
100
AcDbSymbolTableRecord
100
AcDbLayerTableRecord
  2
0
 70
    64
 62
   102
  6
Continuous
290
     1
370
    -3
390
1D
  0
LAYER
  5
28
100
AcDbSymbolTableRecord
100
AcDbLayerTableRecord
  2
1
 70
    64
 62
    42
  6
Continuous
290
     1
370
    -3
390
1D
  0
ENDTAB
  0
TABLE
  2
STYLE
  5
3
100
AcDbSymbolTable
 70
     2
  0
STYLE
  5
17
100
AcDbSymbolTableRecord
100
AcDbTextStyleTableRecord
  2
Standard
 70
     0
 40
0.0
 41
1.0
 50
0.0
 71
     0
 42
0.0
  3
txt
  4

  0
STYLE
  5
26C
100
AcDbSymbolTableRecord
100
AcDbTextStyleTableRecord
  2
ZU_SHPTB00001
 70
     0
 40
0.0
 41
1.0
 50
0.0
 71
     0
 42
0.0
  3
monotxt
  4
bigfont
  0
ENDTAB
  0
TABLE
  2
VIEW
  5
5
100
AcDbSymbolTable
 70
     0
  0
ENDTAB
  0
TABLE
  2
UCS
  5
6
100
AcDbSymbolTable
 70
     0
  0
ENDTAB
  0
TABLE
  2
APPID
  5
8
100
AcDbSymbolTable
 70
     1
  0
APPID
  5
16
100
AcDbSymbolTableRecord
100
AcDbRegAppTableRecord
  2
ACAD
 70
     0
  0
ENDTAB
  0
TABLE
  2
DIMSTYLE
  5
9
100
AcDbSymbolTable
 70
     1
100
AcDbDimStyleTable
 71
     0
  0
DIMSTYLE
105
18
100
AcDbSymbolTableRecord
100
AcDbDimStyleTableRecord
  2
Standard
 70
     0
  3

  4

 40
1.0
 41
0.18
 42
0.0625
 43
0.38
 44
0.18
 45
0.0
 46
0.0
 47
0.0
 48
0.0
 71
     0
 72
     0
 73
     1
 74
     1
 75
     0
 76
     0
 77
     0
 78
     0
 79
     0
140
0.18
141
0.09
142
0.0
143
25.4
144
1.0
145
0.0
146
1.0
147
0.09
148
0.0
170
     0
171
     2
172
     0
173
     0
174
     0
175
     0
176
     0
177
     0
178
     0
179
     0
271
     4
272
     4
273
     2
274
     2
275
     0
276
     0
277
     2
278
    46
279
     0
280
     0
281
     0
282
     0
283
     1
284
     0
285
     0
286
     0
288
     0
289
     3
340
17
341
0
342
0
343
0
344
0
371
    -2
372
    -2
  0
ENDTAB
  0
TABLE
  2
BLOCK_RECORD
  5
1
100
AcDbSymbolTable
 70
    27
  0
BLOCK_RECORD
  5
A
100
AcDbSymbolTableRecord
100
AcDbBlockTableRecord
  2
*MODEL_SPACE
340
20
  0
BLOCK_RECORD
  5
B
100
AcDbSymbolTableRecord
100
AcDbBlockTableRecord
  2
*PAPER_SPACE
340
21
  0
BLOCK_RECORD
  5
93
100
AcDbSymbolTableRecord
100
AcDbBlockTableRecord
  2
ZU_SYM__USERS_HOME_SYMBOL_POO_SYM_B20_18
340
0
102
{BLKREFS
331
9E
102
}
  0
BLOCK_RECORD
  5
C5
100
AcDbSymbolTableRecord
100
AcDbBlockTableRecord
  2
ZU_SYM__USERS_HOME_SYMBOL_POO_SYM_B20_20
340
0
102
{BLKREFS
331
D0
102
}
  0
BLOCK_RECORD
  5
D1
100
AcDbSymbolTableRecord
100
AcDbBlockTableRecord
  2
ZU_SYM__USERS_HOME_SYMBOL_POO_SYM_B20_0000118
340
0
102
{BLKREFS
331
DC
102
}
  0
BLOCK_RECORD
  5
FA
100
AcDbSymbolTableRecord
100
AcDbBlockTableRecord
  2
ZU_SYM__USERS_HOME_SYMBOL_POO_SYM_B20_0000220
340
0
102
{BLKREFS
331
105
102
}
  0
BLOCK_RECORD
  5
106
100
AcDbSymbolTableRecord
100
AcDbBlockTableRecord
  2
ZU_SYM__USERS_HOME_SYMBOL_POO_SYM_B20_0000318
340
0
102
{BLKREFS
331
111
102
}
  0
BLOCK_RECORD
  5
117
100
AcDbSymbolTableRecord
100
AcDbBlockTableRecord
  2
ZU_SYM__USERS_HOME_SYMBOL_POO_SYM_B20_0000420
340
0
102
{BLKREFS
331
122
102
}
  0
BLOCK_RECORD
  5
123
100
AcDbSymbolTableRecord
100
AcDbBlockTableRecord
  2
ZU_SYM__USERS_HOME_SYMBOL_POO_SYM_B20_0000520
340
0
102
{BLKREFS
331
12E
102
}
  0
BLOCK_RECORD
  5
47C
100
AcDbSymbolTableRecord
100
AcDbBlockTableRecord
  2
ZU_SYM__USR_MELCAD_MD_SYM_SYM_SYM11_00
340
0
102
{BLKREFS
331
487
102
}
  0
BLOCK_RECORD
  5
488
100
AcDbSymbolTableRecord
100
AcDbBlockTableRecord
  2
ZU_SYM__USR_MELCAD_MD_SYM_SYM_SYM10_00
340
0
102
{BLKREFS
331
493
102
}
  0
BLOCK_RECORD
  5
494
100
AcDbSymbolTableRecord
100
AcDbBlockTableRecord
  2
ZU_SYM__USR_MELCAD_MD_SYM_SYM_SYM9_00
340
0
102
{BLKREFS
331
49F
102
}
  0
BLOCK_RECORD
  5
4A0
100
AcDbSymbolTableRecord
100
AcDbBlockTableRecord
  2
ZU_SYM__USR_MELCAD_MD_SYM_SYM_SYM8_00
340
0
102
{BLKREFS
331
4AB
102
}
  0
BLOCK_RECORD
  5
581
100
AcDbSymbolTableRecord
100
AcDbBlockTableRecord
  2
ZU_SYM__USR_MELCAD_MD_SYM_SYM_SYM7_00
340
0
102
{BLKREFS
331
58C
102
}
  0
BLOCK_RECORD
  5
5AB
100
AcDbSymbolTableRecord
100
AcDbBlockTableRecord
  2
ZU_SYM__USR_MELCAD_MD_SYM_SYM_SYM7_0000600
340
0
102
{BLKREFS
331
5B6
102
}
  0
BLOCK_RECORD
  5
5CF
100
AcDbSymbolTableRecord
100
AcDbBlockTableRecord
  2
ZU_SYM__USR_MELCAD_MD_SYM_SYM_SYM5_00
340
0
102
{BLKREFS
331
5DD
102
}
  0
BLOCK_RECORD
  5
5DE
100
AcDbSymbolTableRecord
100
AcDbBlockTableRecord
  2
ZU_SYM__USR_MELCAD_MD_SYM_SYM_SYM6_00
340
0
102
{BLKREFS
331
5EA
102
}
  0
BLOCK_RECORD
  5
5EB
100
AcDbSymbolTableRecord
100
AcDbBlockTableRecord
  2
ZU_SYM__USR_MELCAD_MD_SYM_SYM_SYM6_0000700
340
0
102
{BLKREFS
331
5F7
102
}
  0
BLOCK_RECORD
  5
5F8
100
AcDbSymbolTableRecord
100
AcDbBlockTableRecord
  2
ZU_SYM__USR_MELCAD_MD_SYM_SYM_SYM6_0000800
340
0
102
{BLKREFS
331
604
102
}
  0
BLOCK_RECORD
  5
605
100
AcDbSymbolTableRecord
100
AcDbBlockTableRecord
  2
ZU_SYM__USR_MELCAD_MD_SYM_SYM_SYM6_0000900
340
0
102
{BLKREFS
331
611
102
}
  0
BLOCK_RECORD
  5
612
100
AcDbSymbolTableRecord
100
AcDbBlockTableRecord
  2
ZU_SYM__USR_MELCAD_MD_SYM_SYM_SYM6_0001000
340
0
102
{BLKREFS
331
61E
102
}
  0
BLOCK_RECORD
  5
61F
100
AcDbSymbolTableRecord
100
AcDbBlockTableRecord
  2
ZU_SYM__USR_MELCAD_MD_SYM_SYM_SYM6_0001100
340
0
102
{BLKREFS
331
62B
102
}
  0
BLOCK_RECORD
  5
62C
100
AcDbSymbolTableRecord
100
AcDbBlockTableRecord
  2
ZU_SYM__USR_MELCAD_MD_SYM_SYM_SYM6_0001200
340
0
102
{BLKREFS
331
638
102
}
  0
BLOCK_RECORD
  5
639
100
AcDbSymbolTableRecord
100
AcDbBlockTableRecord
  2
ZU_SYM__USR_MELCAD_MD_SYM_SYM_SYM6_0001300
340
0
102
{BLKREFS
331
645
102
}
  0
BLOCK_RECORD
  5
646
100
AcDbSymbolTableRecord
100
AcDbBlockTableRecord
  2
ZU_SYM__USR_MELCAD_MD_SYM_SYM_SYM5_0001400
340
0
102
{BLKREFS
331
654
102
}
  0
BLOCK_RECORD
  5
6DE
100
AcDbSymbolTableRecord
100
AcDbBlockTableRecord
  2
ZU_SYM__USR_MELCAD_MD_SYM_SYM_SYM4_00
340
0
102
{BLKREFS
331
6E9
102
}
  0
BLOCK_RECORD
  5
6EA
100
AcDbSymbolTableRecord
100
AcDbBlockTableRecord
  2
ZU_SYM__USR_MELCAD_MD_SYM_SYM_SYM3_00
340
0
102
{BLKREFS
331
6F5
102
}
  0
BLOCK_RECORD
  5
742
100
AcDbSymbolTableRecord
100
AcDbBlockTableRecord
  2
ZU_SYM__USR_MELCAD_MD_SYM_SYM_SYM1_00
340
0
102
{BLKREFS
331
751
102
}
  0
BLOCK_RECORD
  5
75E
100
AcDbSymbolTableRecord
100
AcDbBlockTableRecord
  2
ZU_SYM__USR_MELCAD_MD_SYM_SYM_SYM1_0001500
340
0
102
{BLKREFS
331
76D
102
}
  0
ENDTAB
  0
ENDSEC
  0
SECTION
  2
BLOCKS
  0
BLOCK
  5
D
100
AcDbEntity
  8
0
390
0
100
AcDbBlockBegin
  2
*MODEL_SPACE
 70
     0
 10
0.0
 20
0.0
 30
0.0
  3
*MODEL_SPACE
  1

  0
ENDBLK
  5
E
100
AcDbEntity
  8
0
390
0
100
AcDbBlockEnd
  0
BLOCK
  5
F
100
AcDbEntity
 67
     1
  8
0
390
0
100
AcDbBlockBegin
  2
*PAPER_SPACE
 70
     0
 10
0.0
 20
0.0
 30
0.0
  3
*PAPER_SPACE
  1

  0
ENDBLK
  5
10
100
AcDbEntity
 67
     1
  8
0
390
0
100
AcDbBlockEnd
  0
BLOCK
  5
94
100
AcDbEntity
  8
0
390
0
100
AcDbBlockBegin
  2
ZU_SYM__USERS_HOME_SYMBOL_POO_SYM_B20_18
 70
    64
 10
0.0
 20
0.0
 30
0.0
  3
ZU_SYM__USERS_HOME_SYMBOL_POO_SYM_B20_18
  1

  0
LINE
  5
95
100
AcDbEntity
  8
0
370
    -3
390
0
  6
Continuous
100
AcDbLine
 10
-7.499999
 20
6.5
 30
0.0
 11
-7.499999
 21
-6.5
 31
0.0
  0
LINE
  5
96
100
AcDbEntity
  8
0
370
    -3
390
0
  6
Continuous
100
AcDbLine
 10
-7.499998
 20
-6.499999
 30
0.0
 11
-7.999999
 21
-5.63407
 31
0.0
  0
LINE
  5
97
100
AcDbEntity
  8
0
370
    -3
390
0
  6
Continuous
100
AcDbLine
 10
-7.499999
 20
6.5
 30
0.0
 11
-7.999999
 21
5.633876
 31
0.0
  0
LINE
  5
98
100
AcDbEntity
  8
0
370
    -3
390
0
  6
Continuous
100
AcDbLine
 10
0.0
 20
-6.5
 30
0.0
 11
-7.499998
 21
-6.5
 31
0.0
  0
LINE
  5
99
100
AcDbEntity
  8
0
370
    -3
390
0
  6
Continuous
100
AcDbLine
 10
0.0
 20
6.5
 30
0.0
 11
-7.499999
 21
6.5
 31
0.0
  0
LINE
  5
9A
100
AcDbEntity
  8
0
370
    -3
390
0
  6
Continuous
100
AcDbLine
 10
-7.999999
 20
5.633876
 30
0.0
 11
-7.999999
 21
-5.63407
 31
0.0
  0
LINE
  5
9B
100
AcDbEntity
  8
0
370
    -3
390
0
  6
Continuous
100
AcDbLine
 10
0.0
 20
-6.5
 30
0.0
 11
0.0
 21
6.5
 31
0.0
  0
POINT
  5
9C
100
AcDbEntity
  8
0
370
    -3
390
0
  6
Continuous
100
AcDbPoint
 10
0.0
 20
0.0
 30
0.0
  0
ENDBLK
  5
9D
100
AcDbEntity
  8
0
390
0
100
AcDbBlockEnd
  0
BLOCK
  5
C6
100
AcDbEntity
  8
0
390
0
100
AcDbBlockBegin
  2
ZU_SYM__USERS_HOME_SYMBOL_POO_SYM_B20_20
 70
    64
 10
0.0
 20
0.0
 30
0.0
  3
ZU_SYM__USERS_HOME_SYMBOL_POO_SYM_B20_20
  1

  0
LINE
  5
C7
100
AcDbEntity
  8
0
370
    -3
390
0
  6
Continuous
100
AcDbLine
 10
-11.299976
 20
9.0
 30
0.0
 11
-11.299976
 21
-9.0
 31
0.0
  0
LINE
  5
C8
100
AcDbEntity
  8
0
370
    -3
390
0
  6
Continuous
100
AcDbLine
 10
-11.299961
 20
-9.000002
 30
0.0
 11
-11.999958
 21
-7.787738
 31
0.0
  0
LINE
  5
C9
100
AcDbEntity
  8
0
370
    -3
390
0
  6
Continuous
100
AcDbLine
 10
-11.299976
 20
8.999998
 30
0.0
 11
-11.999973
 21
7.787338
 31
0.0
  0
LINE
  5
CA
100
AcDbEntity
  8
0
370
    -3
390
0
  6
Continuous
100
AcDbLine
 10
0.0
 20
9.0
 30
0.0
 11
-11.299976
 21
9.0
 31
0.0
  0
LINE
  5
CB
100
AcDbEntity
  8
0
370
    -3
390
0
  6
Continuous
100
AcDbLine
 10
0.0
 20
-9.0
 30
0.0
 11
-11.299961
 21
-9.0
 31
0.0
  0
LINE
  5
CC
100
AcDbEntity
  8
0
370
    -3
390
0
  6
Continuous
100
AcDbLine
 10
-11.999958
 20
-7.787735
 30
0.0
 11
-11.999973
 21
7.78734
 31
0.0
  0
LINE
  5
CD
100
AcDbEntity
  8
0
370
    -3
390
0
  6
Continuous
100
AcDbLine
 10
0.0
 20
9.0
 30
0.0
 11
0.0
 21
-9.0
 31
0.0
  0
POINT
  5
CE
100
AcDbEntity
  8
0
370
    -3
390
0
  6
Continuous
100
AcDbPoint
 10
0.0
 20
0.0
 30
0.0
  0
ENDBLK
  5
CF
100
AcDbEntity
  8
0
390
0
100
AcDbBlockEnd
  0
BLOCK
  5
D2
100
AcDbEntity
  8
0
390
0
100
AcDbBlockBegin
  2
ZU_SYM__USERS_HOME_SYMBOL_POO_SYM_B20_0000118
 70
    64
 10
0.0
 20
0.0
 30
0.0
  3
ZU_SYM__USERS_HOME_SYMBOL_POO_SYM_B20_0000118
  1

  0
LINE
  5
D3
100
AcDbEntity
  8
0
370
    -3
390
0
  6
Continuous
100
AcDbLine
 10
-7.499999
 20
6.5
 30
0.0
 11
-7.499999
 21
-6.5
 31
0.0
  0
LINE
  5
D4
100
AcDbEntity
  8
0
370
    -3
390
0
  6
Continuous
100
AcDbLine
 10
-7.499998
 20
-6.499999
 30
0.0
 11
-7.999999
 21
-5.63407
 31
0.0
  0
LINE
  5
D5
100
AcDbEntity
  8
0
370
    -3
390
0
  6
Continuous
100
AcDbLine
 10
-7.499999
 20
6.5
 30
0.0
 11
-7.999999
 21
5.633876
 31
0.0
  0
LINE
  5
D6
100
AcDbEntity
  8
0
370
    -3
390
0
  6
Continuous
100
AcDbLine
 10
0.0
 20
-6.5
 30
0.0
 11
-7.499998
 21
-6.5
 31
0.0
  0
LINE
  5
D7
100
AcDbEntity
  8
0
370
    -3
390
0
  6
Continuous
100
AcDbLine
 10
0.0
 20
6.5
 30
0.0
 11
-7.499999
 21
6.5
 31
0.0
  0
LINE
  5
D8
100
AcDbEntity
  8
0
370
    -3
390
0
  6
Continuous
100
AcDbLine
 10
-7.999999
 20
5.633876
 30
0.0
 11
-7.999999
 21
-5.63407
 31
0.0
  0
LINE
  5
D9
100
AcDbEntity
  8
0
370
    -3
390
0
  6
Continuous
100
AcDbLine
 10
0.0
 20
-6.5
 30
0.0
 11
0.0
 21
6.5
 31
0.0
  0
POINT
  5
DA
100
AcDbEntity
  8
0
370
    -3
390
0
  6
Continuous
100
AcDbPoint
 10
0.0
 20
0.0
 30
0.0
  0
ENDBLK
  5
DB
100
AcDbEntity
  8
0
390
0
100
AcDbBlockEnd
  0
BLOCK
  5
FB
100
AcDbEntity
  8
0
390
0
100
AcDbBlockBegin
  2
ZU_SYM__USERS_HOME_SYMBOL_POO_SYM_B20_0000220
 70
    64
 10
0.0
 20
0.0
 30
0.0
  3
ZU_SYM__USERS_HOME_SYMBOL_POO_SYM_B20_0000220
  1

  0
LINE
  5
FC
100
AcDbEntity
  8
0
370
    -3
390
0
  6
Continuous
100
AcDbLine
 10
-11.299976
 20
9.0
 30
0.0
 11
-11.299976
 21
-9.0
 31
0.0
  0
LINE
  5
FD
100
AcDbEntity
  8
0
370
    -3
390
0
  6
Continuous
100
AcDbLine
 10
-11.299961
 20
-9.000002
 30
0.0
 11
-11.999958
 21
-7.787738
 31
0.0
  0
LINE
  5
FE
100
AcDbEntity
  8
0
370
    -3
390
0
  6
Continuous
100
AcDbLine
 10
-11.299976
 20
8.999998
 30
0.0
 11
-11.999973
 21
7.787338
 31
0.0
  0
LINE
  5
FF
100
AcDbEntity
  8
0
370
    -3
390
0
  6
Continuous
100
AcDbLine
 10
0.0
 20
9.0
 30
0.0
 11
-11.299976
 21
9.0
 31
0.0
  0
LINE
  5
100
100
AcDbEntity
  8
0
370
    -3
390
0
  6
Continuous
100
AcDbLine
 10
0.0
 20
-9.0
 30
0.0
 11
-11.299961
 21
-9.0
 31
0.0
  0
LINE
  5
101
100
AcDbEntity
  8
0
370
    -3
390
0
  6
Continuous
100
AcDbLine
 10
-11.999958
 20
-7.787735
 30
0.0
 11
-11.999973
 21
7.78734
 31
0.0
  0
LINE
  5
102
100
AcDbEntity
  8
0
370
    -3
390
0
  6
Continuous
100
AcDbLine
 10
0.0
 20
9.0
 30
0.0
 11
0.0
 21
-9.0
 31
0.0
  0
POINT
  5
103
100
AcDbEntity
  8
0
370
    -3
390
0
  6
Continuous
100
AcDbPoint
 10
0.0
 20
0.0
 30
0.0
  0
ENDBLK
  5
104
100
AcDbEntity
  8
0
390
0
100
AcDbBlockEnd
  0
BLOCK
  5
107
100
AcDbEntity
  8
0
390
0
100
AcDbBlockBegin
  2
ZU_SYM__USERS_HOME_SYMBOL_POO_SYM_B20_0000318
 70
    64
 10
0.0
 20
0.0
 30
0.0
  3
ZU_SYM__USERS_HOME_SYMBOL_POO_SYM_B20_0000318
  1

  0
LINE
  5
108
100
AcDbEntity
  8
0
370
    -3
390
0
  6
Continuous
100
AcDbLine
 10
-7.499999
 20
6.5
 30
0.0
 11
-7.499999
 21
-6.5
 31
0.0
  0
LINE
  5
109
100
AcDbEntity
  8
0
370
    -3
390
0
  6
Continuous
100
AcDbLine
 10
-7.499998
 20
-6.499999
 30
0.0
 11
-7.999999
 21
-5.63407
 31
0.0
  0
LINE
  5
10A
100
AcDbEntity
  8
0
370
    -3
390
0
  6
Continuous
100
AcDbLine
 10
-7.499999
 20
6.5
 30
0.0
 11
-7.999999
 21
5.633876
 31
0.0
  0
LINE
  5
10B
100
AcDbEntity
  8
0
370
    -3
390
0
  6
Continuous
100
AcDbLine
 10
0.0
 20
-6.5
 30
0.0
 11
-7.499998
 21
-6.5
 31
0.0
  0
LINE
  5
10C
100
AcDbEntity
  8
0
370
    -3
390
0
  6
Continuous
100
AcDbLine
 10
0.0
 20
6.5
 30
0.0
 11
-7.499999
 21
6.5
 31
0.0
  0
LINE
  5
10D
100
AcDbEntity
  8
0
370
    -3
390
0
  6
Continuous
100
AcDbLine
 10
-7.999999
 20
5.633876
 30
0.0
 11
-7.999999
 21
-5.63407
 31
0.0
  0
LINE
  5
10E
100
AcDbEntity
  8
0
370
    -3
390
0
  6
Continuous
100
AcDbLine
 10
0.0
 20
-6.5
 30
0.0
 11
0.0
 21
6.5
 31
0.0
  0
POINT
  5
10F
100
AcDbEntity
  8
0
370
    -3
390
0
  6
Continuous
100
AcDbPoint
 10
0.0
 20
0.0
 30
0.0
  0
ENDBLK
  5
110
100
AcDbEntity
  8
0
390
0
100
AcDbBlockEnd
  0
BLOCK
  5
118
100
AcDbEntity
  8
0
390
0
100
AcDbBlockBegin
  2
ZU_SYM__USERS_HOME_SYMBOL_POO_SYM_B20_0000420
 70
    64
 10
0.0
 20
0.0
 30
0.0
  3
ZU_SYM__USERS_HOME_SYMBOL_POO_SYM_B20_0000420
  1

  0
LINE
  5
119
100
AcDbEntity
  8
0
370
    -3
390
0
  6
Continuous
100
AcDbLine
 10
-11.299976
 20
9.0
 30
0.0
 11
-11.299976
 21
-9.0
 31
0.0
  0
LINE
  5
11A
100
AcDbEntity
  8
0
370
    -3
390
0
  6
Continuous
100
AcDbLine
 10
-11.299961
 20
-9.000002
 30
0.0
 11
-11.999958
 21
-7.787738
 31
0.0
  0
LINE
  5
11B
100
AcDbEntity
  8
0
370
    -3
390
0
  6
Continuous
100
AcDbLine
 10
-11.299976
 20
8.999998
 30
0.0
 11
-11.999973
 21
7.787338
 31
0.0
  0
LINE
  5
11C
100
AcDbEntity
  8
0
370
    -3
390
0
  6
Continuous
100
AcDbLine
 10
0.0
 20
9.0
 30
0.0
 11
-11.299976
 21
9.0
 31
0.0
  0
LINE
  5
11D
100
AcDbEntity
  8
0
370
    -3
390
0
  6
Continuous
100
AcDbLine
 10
0.0
 20
-9.0
 30
0.0
 11
-11.299961
 21
-9.0
 31
0.0
  0
LINE
  5
11E
100
AcDbEntity
  8
0
370
    -3
390
0
  6
Continuous
100
AcDbLine
 10
-11.999958
 20
-7.787735
 30
0.0
 11
-11.999973
 21
7.78734
 31
0.0
  0
LINE
  5
11F
100
AcDbEntity
  8
0
370
    -3
390
0
  6
Continuous
100
AcDbLine
 10
0.0
 20
9.0
 30
0.0
 11
0.0
 21
-9.0
 31
0.0
  0
POINT
  5
120
100
AcDbEntity
  8
0
370
    -3
390
0
  6
Continuous
100
AcDbPoint
 10
0.0
 20
0.0
 30
0.0
  0
ENDBLK
  5
121
100
AcDbEntity
  8
0
390
0
100
AcDbBlockEnd
  0
BLOCK
  5
124
100
AcDbEntity
  8
0
390
0
100
AcDbBlockBegin
  2
ZU_SYM__USERS_HOME_SYMBOL_POO_SYM_B20_0000520
 70
    64
 10
0.0
 20
0.0
 30
0.0
  3
ZU_SYM__USERS_HOME_SYMBOL_POO_SYM_B20_0000520
  1

  0
LINE
  5
125
100
AcDbEntity
  8
0
370
    -3
390
0
  6
Continuous
100
AcDbLine
 10
-11.299976
 20
9.0
 30
0.0
 11
-11.299976
 21
-9.0
 31
0.0
  0
LINE
  5
126
100
AcDbEntity
  8
0
370
    -3
390
0
  6
Continuous
100
AcDbLine
 10
-11.299961
 20
-9.000002
 30
0.0
 11
-11.999958
 21
-7.787738
 31
0.0
  0
LINE
  5
127
100
AcDbEntity
  8
0
370
    -3
390
0
  6
Continuous
100
AcDbLine
 10
-11.299976
 20
8.999998
 30
0.0
 11
-11.999973
 21
7.787338
 31
0.0
  0
LINE
  5
128
100
AcDbEntity
  8
0
370
    -3
390
0
  6
Continuous
100
AcDbLine
 10
0.0
 20
9.0
 30
0.0
 11
-11.299976
 21
9.0
 31
0.0
  0
LINE
  5
129
100
AcDbEntity
  8
0
370
    -3
390
0
  6
Continuous
100
AcDbLine
 10
0.0
 20
-9.0
 30
0.0
 11
-11.299961
 21
-9.0
 31
0.0
  0
LINE
  5
12A
100
AcDbEntity
  8
0
370
    -3
390
0
  6
Continuous
100
AcDbLine
 10
-11.999958
 20
-7.787735
 30
0.0
 11
-11.999973
 21
7.78734
 31
0.0
  0
LINE
  5
12B
100
AcDbEntity
  8
0
370
    -3
390
0
  6
Continuous
100
AcDbLine
 10
0.0
 20
9.0
 30
0.0
 11
0.0
 21
-9.0
 31
0.0
  0
POINT
  5
12C
100
AcDbEntity
  8
0
370
    -3
390
0
  6
Continuous
100
AcDbPoint
 10
0.0
 20
0.0
 30
0.0
  0
ENDBLK
  5
12D
100
AcDbEntity
  8
0
390
0
100
AcDbBlockEnd
  0
BLOCK
  5
47D
100
AcDbEntity
  8
0
390
0
100
AcDbBlockBegin
  2
ZU_SYM__USR_MELCAD_MD_SYM_SYM_SYM11_00
 70
    64
 10
0.0
 20
0.0
 30
0.0
  3
ZU_SYM__USR_MELCAD_MD_SYM_SYM_SYM11_00
  1

  0
ARC
  5
47E
100
AcDbEntity
  8
0
370
    -3
390
0
  6
Continuous
100
AcDbCircle
 10
6.4
 20
0.0
 30
0.0
 40
9.0
100
AcDbArc
 50
163.398452
 51
196.601531
  0
POINT
  5
47F
100
AcDbEntity
  8
0
370
    -3
390
0
  6
Continuous
100
AcDbPoint
 10
0.0
 20
0.0
 30
0.0
  0
LINE
  5
480
100
AcDbEntity
  8
0
370
    -3
390
0
  6
Continuous
100
AcDbLine
 10
0.0
 20
-3.5
 30
0.0
 11
0.0
 21
3.5
 31
0.0
  0
LINE
  5
481
100
AcDbEntity
  8
0
370
    -3
390
0
  6
Continuous
100
AcDbLine
 10
0.0
 20
-3.5
 30
0.0
 11
0.0
 21
3.5
 31
0.0
  0
LINE
  5
482
100
AcDbEntity
  8
0
370
    -3
390
0
  6
Continuous
100
AcDbLine
 10
0.0
 20
3.5
 30
0.0
 11
-0.979025
 21
3.5
 31
0.0
  0
LINE
  5
483
100
AcDbEntity
  8
0
370
    -3
390
0
  6
Continuous
100
AcDbLine
 10
0.0
 20
-3.5
 30
0.0
 11
-0.979025
 21
-3.5
 31
0.0
  0
ARC
  5
484
100
AcDbEntity
  8
0
370
    -3
390
0
  6
Continuous
100
AcDbCircle
 10
-0.979025
 20
2.200001
 30
0.0
 40
1.299999
100
AcDbArc
 50
90.0
 51
163.398452
  0
ARC
  5
485
100
AcDbEntity
  8
0
370
    -3
390
0
  6
Continuous
100
AcDbCircle
 10
-0.979025
 20
-2.200001
 30
0.0
 40
1.299999
100
AcDbArc
 50
196.601531
 51
270.0
  0
ENDBLK
  5
486
100
AcDbEntity
  8
0
390
0
100
AcDbBlockEnd
  0
BLOCK
  5
489
100
AcDbEntity
  8
0
390
0
100
AcDbBlockBegin
  2
ZU_SYM__USR_MELCAD_MD_SYM_SYM_SYM10_00
 70
    64
 10
0.0
 20
0.0
 30
0.0
  3
ZU_SYM__USR_MELCAD_MD_SYM_SYM_SYM10_00
  1

  0
ARC
  5
48A
100
AcDbEntity
  8
0
370
    -3
390
0
  6
Continuous
100
AcDbCircle
 10
6.4
 20
0.0
 30
0.0
 40
9.0
100
AcDbArc
 50
163.398452
 51
196.601531
  0
POINT
  5
48B
100
AcDbEntity
  8
0
370
    -3
390
0
  6
Continuous
100
AcDbPoint
 10
0.0
 20
0.0
 30
0.0
  0
LINE
  5
48C
100
AcDbEntity
  8
0
370
    -3
390
0
  6
Continuous
100
AcDbLine
 10
0.0
 20
-3.5
 30
0.0
 11
0.0
 21
3.5
 31
0.0
  0
LINE
  5
48D
100
AcDbEntity
  8
0
370
    -3
390
0
  6
Continuous
100
AcDbLine
 10
0.0
 20
-3.5
 30
0.0
 11
0.0
 21
3.5
 31
0.0
  0
LINE
  5
48E
100
AcDbEntity
  8
0
370
    -3
390
0
  6
Continuous
100
AcDbLine
 10
0.0
 20
3.5
 30
0.0
 11
-0.979025
 21
3.5
 31
0.0
  0
LINE
  5
48F
100
AcDbEntity
  8
0
370
    -3
390
0
  6
Continuous
100
AcDbLine
 10
0.0
 20
-3.5
 30
0.0
 11
-0.979025
 21
-3.5
 31
0.0
  0
ARC
  5
490
100
AcDbEntity
  8
0
370
    -3
390
0
  6
Continuous
100
AcDbCircle
 10
-0.979025
 20
2.200001
 30
0.0
 40
1.299999
100
AcDbArc
 50
90.0
 51
163.398452
  0
ARC
  5
491
100
AcDbEntity
  8
0
370
    -3
390
0
  6
Continuous
100
AcDbCircle
 10
-0.979025
 20
-2.200001
 30
0.0
 40
1.299999
100
AcDbArc
 50
196.601531
 51
270.0
  0
ENDBLK
  5
492
100
AcDbEntity
  8
0
390
0
100
AcDbBlockEnd
  0
BLOCK
  5
495
100
AcDbEntity
  8
0
390
0
100
AcDbBlockBegin
  2
ZU_SYM__USR_MELCAD_MD_SYM_SYM_SYM9_00
 70
    64
 10
0.0
 20
0.0
 30
0.0
  3
ZU_SYM__USR_MELCAD_MD_SYM_SYM_SYM9_00
  1

  0
ARC
  5
496
100
AcDbEntity
  8
0
370
    -3
390
0
  6
Continuous
100
AcDbCircle
 10
6.4
 20
0.0
 30
0.0
 40
9.0
100
AcDbArc
 50
163.398452
 51
196.601531
  0
POINT
  5
497
100
AcDbEntity
  8
0
370
    -3
390
0
  6
Continuous
100
AcDbPoint
 10
0.0
 20
0.0
 30
0.0
  0
LINE
  5
498
100
AcDbEntity
  8
0
370
    -3
390
0
  6
Continuous
100
AcDbLine
 10
0.0
 20
-3.5
 30
0.0
 11
0.0
 21
3.5
 31
0.0
  0
LINE
  5
499
100
AcDbEntity
  8
0
370
    -3
390
0
  6
Continuous
100
AcDbLine
 10
0.0
 20
-3.5
 30
0.0
 11
0.0
 21
3.5
 31
0.0
  0
LINE
  5
49A
100
AcDbEntity
  8
0
370
    -3
390
0
  6
Continuous
100
AcDbLine
 10
0.0
 20
3.5
 30
0.0
 11
-0.979025
 21
3.5
 31
0.0
  0
LINE
  5
49B
100
AcDbEntity
  8
0
370
    -3
390
0
  6
Continuous
100
AcDbLine
 10
0.0
 20
-3.5
 30
0.0
 11
-0.979025
 21
-3.5
 31
0.0
  0
ARC
  5
49C
100
AcDbEntity
  8
0
370
    -3
390
0
  6
Continuous
100
AcDbCircle
 10
-0.979025
 20
2.200001
 30
0.0
 40
1.299999
100
AcDbArc
 50
90.0
 51
163.398452
  0
ARC
  5
49D
100
AcDbEntity
  8
0
370
    -3
390
0
  6
Continuous
100
AcDbCircle
 10
-0.979025
 20
-2.200001
 30
0.0
 40
1.299999
100
AcDbArc
 50
196.601531
 51
270.0
  0
ENDBLK
  5
49E
100
AcDbEntity
  8
0
390
0
100
AcDbBlockEnd
  0
BLOCK
  5
4A1
100
AcDbEntity
  8
0
390
0
100
AcDbBlockBegin
  2
ZU_SYM__USR_MELCAD_MD_SYM_SYM_SYM8_00
 70
    64
 10
0.0
 20
0.0
 30
0.0
  3
ZU_SYM__USR_MELCAD_MD_SYM_SYM_SYM8_00
  1

  0
ARC
  5
4A2
100
AcDbEntity
  8
0
370
    -3
390
0
  6
Continuous
100
AcDbCircle
 10
6.4
 20
0.0
 30
0.0
 40
9.0
100
AcDbArc
 50
163.398452
 51
196.601531
  0
POINT
  5
4A3
100
AcDbEntity
  8
0
370
    -3
390
0
  6
Continuous
100
AcDbPoint
 10
0.0
 20
0.0
 30
0.0
  0
LINE
  5
4A4
100
AcDbEntity
  8
0
370
    -3
390
0
  6
Continuous
100
AcDbLine
 10
0.0
 20
-3.5
 30
0.0
 11
0.0
 21
3.5
 31
0.0
  0
LINE
  5
4A5
100
AcDbEntity
  8
0
370
    -3
390
0
  6
Continuous
100
AcDbLine
 10
0.0
 20
-3.5
 30
0.0
 11
0.0
 21
3.5
 31
0.0
  0
LINE
  5
4A6
100
AcDbEntity
  8
0
370
    -3
390
0
  6
Continuous
100
AcDbLine
 10
0.0
 20
3.5
 30
0.0
 11
-0.979025
 21
3.5
 31
0.0
  0
LINE
  5
4A7
100
AcDbEntity
  8
0
370
    -3
390
0
  6
Continuous
100
AcDbLine
 10
0.0
 20
-3.5
 30
0.0
 11
-0.979025
 21
-3.5
 31
0.0
  0
ARC
  5
4A8
100
AcDbEntity
  8
0
370
    -3
390
0
  6
Continuous
100
AcDbCircle
 10
-0.979025
 20
2.200001
 30
0.0
 40
1.299999
100
AcDbArc
 50
90.0
 51
163.398452
  0
ARC
  5
4A9
100
AcDbEntity
  8
0
370
    -3
390
0
  6
Continuous
100
AcDbCircle
 10
-0.979025
 20
-2.200001
 30
0.0
 40
1.299999
100
AcDbArc
 50
196.601531
 51
270.0
  0
ENDBLK
  5
4AA
100
AcDbEntity
  8
0
390
0
100
AcDbBlockEnd
  0
BLOCK
  5
582
100
AcDbEntity
  8
0
390
0
100
AcDbBlockBegin
  2
ZU_SYM__USR_MELCAD_MD_SYM_SYM_SYM7_00
 70
    64
 10
0.0
 20
0.0
 30
0.0
  3
ZU_SYM__USR_MELCAD_MD_SYM_SYM_SYM7_00
  1

  0
POINT
  5
583
100
AcDbEntity
  8
0
370
    -3
390
0
  6
Continuous
100
AcDbPoint
 10
0.0
 20
0.0
 30
0.0
  0
LINE
  5
584
100
AcDbEntity
  8
0
370
    -3
390
0
  6
Continuous
100
AcDbLine
 10
0.0
 20
9.0
 30
0.0
 11
0.0
 21
-9.0
 31
0.0
  0
LINE
  5
585
100
AcDbEntity
  8
0
370
    -3
390
0
  6
Continuous
100
AcDbLine
 10
-11.999958
 20
-7.787735
 30
0.0
 11
-11.999973
 21
7.78734
 31
0.0
  0
LINE
  5
586
100
AcDbEntity
  8
0
370
    -3
390
0
  6
Continuous
100
AcDbLine
 10
0.0
 20
-9.0
 30
0.0
 11
-11.299961
 21
-9.0
 31
0.0
  0
LINE
  5
587
100
AcDbEntity
  8
0
370
    -3
390
0
  6
Continuous
100
AcDbLine
 10
0.0
 20
9.0
 30
0.0
 11
-11.299976
 21
9.0
 31
0.0
  0
LINE
  5
588
100
AcDbEntity
  8
0
370
    -3
390
0
  6
Continuous
100
AcDbLine
 10
-11.299976
 20
8.999998
 30
0.0
 11
-11.999973
 21
7.787338
 31
0.0
  0
LINE
  5
589
100
AcDbEntity
  8
0
370
    -3
390
0
  6
Continuous
100
AcDbLine
 10
-11.299961
 20
-9.000002
 30
0.0
 11
-11.999958
 21
-7.787738
 31
0.0
  0
LINE
  5
58A
100
AcDbEntity
  8
0
370
    -3
390
0
  6
Continuous
100
AcDbLine
 10
-11.299976
 20
9.0
 30
0.0
 11
-11.299976
 21
-9.0
 31
0.0
  0
ENDBLK
  5
58B
100
AcDbEntity
  8
0
390
0
100
AcDbBlockEnd
  0
BLOCK
  5
5AC
100
AcDbEntity
  8
0
390
0
100
AcDbBlockBegin
  2
ZU_SYM__USR_MELCAD_MD_SYM_SYM_SYM7_0000600
 70
    64
 10
0.0
 20
0.0
 30
0.0
  3
ZU_SYM__USR_MELCAD_MD_SYM_SYM_SYM7_0000600
  1

  0
POINT
  5
5AD
100
AcDbEntity
  8
0
370
    -3
390
0
  6
Continuous
100
AcDbPoint
 10
0.0
 20
0.0
 30
0.0
  0
LINE
  5
5AE
100
AcDbEntity
  8
0
370
    -3
390
0
  6
Continuous
100
AcDbLine
 10
0.0
 20
9.0
 30
0.0
 11
0.0
 21
-9.0
 31
0.0
  0
LINE
  5
5AF
100
AcDbEntity
  8
0
370
    -3
390
0
  6
Continuous
100
AcDbLine
 10
-11.999958
 20
-7.787735
 30
0.0
 11
-11.999973
 21
7.78734
 31
0.0
  0
LINE
  5
5B0
100
AcDbEntity
  8
0
370
    -3
390
0
  6
Continuous
100
AcDbLine
 10
0.0
 20
-9.0
 30
0.0
 11
-11.299961
 21
-9.0
 31
0.0
  0
LINE
  5
5B1
100
AcDbEntity
  8
0
370
    -3
390
0
  6
Continuous
100
AcDbLine
 10
0.0
 20
9.0
 30
0.0
 11
-11.299976
 21
9.0
 31
0.0
  0
LINE
  5
5B2
100
AcDbEntity
  8
0
370
    -3
390
0
  6
Continuous
100
AcDbLine
 10
-11.299976
 20
8.999998
 30
0.0
 11
-11.999973
 21
7.787338
 31
0.0
  0
LINE
  5
5B3
100
AcDbEntity
  8
0
370
    -3
390
0
  6
Continuous
100
AcDbLine
 10
-11.299961
 20
-9.000002
 30
0.0
 11
-11.999958
 21
-7.787738
 31
0.0
  0
LINE
  5
5B4
100
AcDbEntity
  8
0
370
    -3
390
0
  6
Continuous
100
AcDbLine
 10
-11.299976
 20
9.0
 30
0.0
 11
-11.299976
 21
-9.0
 31
0.0
  0
ENDBLK
  5
5B5
100
AcDbEntity
  8
0
390
0
100
AcDbBlockEnd
  0
BLOCK
  5
5D0
100
AcDbEntity
  8
0
390
0
100
AcDbBlockBegin
  2
ZU_SYM__USR_MELCAD_MD_SYM_SYM_SYM5_00
 70
    64
 10
0.0
 20
0.0
 30
0.0
  3
ZU_SYM__USR_MELCAD_MD_SYM_SYM_SYM5_00
  1

  0
POINT
  5
5D1
100
AcDbEntity
  8
0
370
    -3
390
0
  6
Continuous
100
AcDbPoint
 10
0.0
 20
5.633955
 30
0.0
  0
POINT
  5
5D2
100
AcDbEntity
  8
0
370
    -3
390
0
  6
Continuous
100
AcDbPoint
 10
0.5
 20
6.5
 30
0.0
  0
LINE
  5
5D3
100
AcDbEntity
  8
0
370
    -3
390
0
  6
Continuous
100
AcDbLine
 10
-0.000005
 20
-3.464098
 30
0.0
 11
-2.999998
 21
-1.732046
 31
0.0
  0
LINE
  5
5D4
100
AcDbEntity
  8
0
370
    -3
390
0
  6
Continuous
100
AcDbLine
 10
0.000007
 20
3.464097
 30
0.0
 11
2.999997
 21
1.732047
 31
0.0
  0
LINE
  5
5D5
100
AcDbEntity
  8
0
370
    -3
390
0
  6
Continuous
100
AcDbLine
 10
2.999998
 20
-1.732051
 30
0.0
 11
-0.000004
 21
-3.464098
 31
0.0
  0
LINE
  5
5D6
100
AcDbEntity
  8
0
370
    -3
390
0
  6
Continuous
100
AcDbLine
 10
0.000007
 20
3.464097
 30
0.0
 11
-2.999998
 21
1.732052
 31
0.0
  0
LINE
  5
5D7
100
AcDbEntity
  8
0
370
    -3
390
0
  6
Continuous
100
AcDbLine
 10
2.999997
 20
1.732047
 30
0.0
 11
2.999998
 21
-1.732051
 31
0.0
  0
LINE
  5
5D8
100
AcDbEntity
  8
0
370
    -3
390
0
  6
Continuous
100
AcDbLine
 10
-2.999997
 20
-1.732046
 30
0.0
 11
-2.999998
 21
1.732052
 31
0.0
  0
POINT
  5
5D9
100
AcDbEntity
  8
0
370
    -3
390
0
  6
Continuous
100
AcDbPoint
 10
0.0
 20
0.0
 30
0.0
  0
CIRCLE
  5
5DA
100
AcDbEntity
  8
0
370
    -3
390
0
  6
Continuous
100
AcDbCircle
 10
0.0
 20
0.0
 30
0.0
 40
6.5
  0
CIRCLE
  5
5DB
100
AcDbEntity
  8
0
370
    -3
390
0
  6
Continuous
100
AcDbCircle
 10
0.0
 20
0.0
 30
0.0
 40
5.633955
  0
ENDBLK
  5
5DC
100
AcDbEntity
  8
0
390
0
100
AcDbBlockEnd
  0
BLOCK
  5
5DF
100
AcDbEntity
  8
0
390
0
100
AcDbBlockBegin
  2
ZU_SYM__USR_MELCAD_MD_SYM_SYM_SYM6_00
 70
    64
 10
0.0
 20
0.0
 30
0.0
  3
ZU_SYM__USR_MELCAD_MD_SYM_SYM_SYM6_00
  1

  0
LINE
  5
5E0
100
AcDbEntity
  8
0
370
    -3
390
0
  6
Continuous
100
AcDbLine
 10
4.999999
 20
-2.886755
 30
0.0
 11
-0.000009
 21
-5.7735
 31
0.0
  0
LINE
  5
5E1
100
AcDbEntity
  8
0
370
    -3
390
0
  6
Continuous
100
AcDbLine
 10
-4.999999
 20
2.886755
 30
0.0
 11
0.000008
 21
5.773499
 31
0.0
  0
LINE
  5
5E2
100
AcDbEntity
  8
0
370
    -3
390
0
  6
Continuous
100
AcDbLine
 10
-0.000009
 20
-5.773499
 30
0.0
 11
-4.999998
 21
-2.886745
 31
0.0
  0
LINE
  5
5E3
100
AcDbEntity
  8
0
370
    -3
390
0
  6
Continuous
100
AcDbLine
 10
4.999998
 20
2.886744
 30
0.0
 11
0.000009
 21
5.7735
 31
0.0
  0
LINE
  5
5E4
100
AcDbEntity
  8
0
370
    -3
390
0
  6
Continuous
100
AcDbLine
 10
4.999998
 20
2.886743
 30
0.0
 11
4.999999
 21
-2.886755
 31
0.0
  0
LINE
  5
5E5
100
AcDbEntity
  8
0
370
    -3
390
0
  6
Continuous
100
AcDbLine
 10
-4.999998
 20
-2.886744
 30
0.0
 11
-4.999999
 21
2.886755
 31
0.0
  0
POINT
  5
5E6
100
AcDbEntity
  8
0
370
    -3
390
0
  6
Continuous
100
AcDbPoint
 10
0.0
 20
0.0
 30
0.0
  0
CIRCLE
  5
5E7
100
AcDbEntity
  8
0
370
    -3
390
0
  6
Continuous
100
AcDbCircle
 10
0.0
 20
0.0
 30
0.0
 40
9.0
  0
CIRCLE
  5
5E8
100
AcDbEntity
  8
0
370
    -3
390
0
  6
Continuous
100
AcDbCircle
 10
0.0
 20
0.0
 30
0.0
 40
7.787524
  0
ENDBLK
  5
5E9
100
AcDbEntity
  8
0
390
0
100
AcDbBlockEnd
  0
BLOCK
  5
5EC
100
AcDbEntity
  8
0
390
0
100
AcDbBlockBegin
  2
ZU_SYM__USR_MELCAD_MD_SYM_SYM_SYM6_0000700
 70
    64
 10
0.0
 20
0.0
 30
0.0
  3
ZU_SYM__USR_MELCAD_MD_SYM_SYM_SYM6_0000700
  1

  0
LINE
  5
5ED
100
AcDbEntity
  8
0
370
    -3
390
0
  6
Continuous
100
AcDbLine
 10
4.999999
 20
-2.886755
 30
0.0
 11
-0.000009
 21
-5.7735
 31
0.0
  0
LINE
  5
5EE
100
AcDbEntity
  8
0
370
    -3
390
0
  6
Continuous
100
AcDbLine
 10
-4.999999
 20
2.886755
 30
0.0
 11
0.000008
 21
5.773499
 31
0.0
  0
LINE
  5
5EF
100
AcDbEntity
  8
0
370
    -3
390
0
  6
Continuous
100
AcDbLine
 10
-0.000009
 20
-5.773499
 30
0.0
 11
-4.999998
 21
-2.886745
 31
0.0
  0
LINE
  5
5F0
100
AcDbEntity
  8
0
370
    -3
390
0
  6
Continuous
100
AcDbLine
 10
4.999998
 20
2.886744
 30
0.0
 11
0.000009
 21
5.7735
 31
0.0
  0
LINE
  5
5F1
100
AcDbEntity
  8
0
370
    -3
390
0
  6
Continuous
100
AcDbLine
 10
4.999998
 20
2.886743
 30
0.0
 11
4.999999
 21
-2.886755
 31
0.0
  0
LINE
  5
5F2
100
AcDbEntity
  8
0
370
    -3
390
0
  6
Continuous
100
AcDbLine
 10
-4.999998
 20
-2.886744
 30
0.0
 11
-4.999999
 21
2.886755
 31
0.0
  0
POINT
  5
5F3
100
AcDbEntity
  8
0
370
    -3
390
0
  6
Continuous
100
AcDbPoint
 10
0.0
 20
0.0
 30
0.0
  0
CIRCLE
  5
5F4
100
AcDbEntity
  8
0
370
    -3
390
0
  6
Continuous
100
AcDbCircle
 10
0.0
 20
0.0
 30
0.0
 40
9.0
  0
CIRCLE
  5
5F5
100
AcDbEntity
  8
0
370
    -3
390
0
  6
Continuous
100
AcDbCircle
 10
0.0
 20
0.0
 30
0.0
 40
7.787524
  0
ENDBLK
  5
5F6
100
AcDbEntity
  8
0
390
0
100
AcDbBlockEnd
  0
BLOCK
  5
5F9
100
AcDbEntity
  8
0
390
0
100
AcDbBlockBegin
  2
ZU_SYM__USR_MELCAD_MD_SYM_SYM_SYM6_0000800
 70
    64
 10
0.0
 20
0.0
 30
0.0
  3
ZU_SYM__USR_MELCAD_MD_SYM_SYM_SYM6_0000800
  1

  0
LINE
  5
5FA
100
AcDbEntity
  8
0
370
    -3
390
0
  6
Continuous
100
AcDbLine
 10
4.999999
 20
-2.886755
 30
0.0
 11
-0.000009
 21
-5.7735
 31
0.0
  0
LINE
  5
5FB
100
AcDbEntity
  8
0
370
    -3
390
0
  6
Continuous
100
AcDbLine
 10
-4.999999
 20
2.886755
 30
0.0
 11
0.000008
 21
5.773499
 31
0.0
  0
LINE
  5
5FC
100
AcDbEntity
  8
0
370
    -3
390
0
  6
Continuous
100
AcDbLine
 10
-0.000009
 20
-5.773499
 30
0.0
 11
-4.999998
 21
-2.886745
 31
0.0
  0
LINE
  5
5FD
100
AcDbEntity
  8
0
370
    -3
390
0
  6
Continuous
100
AcDbLine
 10
4.999998
 20
2.886744
 30
0.0
 11
0.000009
 21
5.7735
 31
0.0
  0
LINE
  5
5FE
100
AcDbEntity
  8
0
370
    -3
390
0
  6
Continuous
100
AcDbLine
 10
4.999998
 20
2.886743
 30
0.0
 11
4.999999
 21
-2.886755
 31
0.0
  0
LINE
  5
5FF
100
AcDbEntity
  8
0
370
    -3
390
0
  6
Continuous
100
AcDbLine
 10
-4.999998
 20
-2.886744
 30
0.0
 11
-4.999999
 21
2.886755
 31
0.0
  0
POINT
  5
600
100
AcDbEntity
  8
0
370
    -3
390
0
  6
Continuous
100
AcDbPoint
 10
0.0
 20
0.0
 30
0.0
  0
CIRCLE
  5
601
100
AcDbEntity
  8
0
370
    -3
390
0
  6
Continuous
100
AcDbCircle
 10
0.0
 20
0.0
 30
0.0
 40
9.0
  0
CIRCLE
  5
602
100
AcDbEntity
  8
0
370
    -3
390
0
  6
Continuous
100
AcDbCircle
 10
0.0
 20
0.0
 30
0.0
 40
7.787524
  0
ENDBLK
  5
603
100
AcDbEntity
  8
0
390
0
100
AcDbBlockEnd
  0
BLOCK
  5
606
100
AcDbEntity
  8
0
390
0
100
AcDbBlockBegin
  2
ZU_SYM__USR_MELCAD_MD_SYM_SYM_SYM6_0000900
 70
    64
 10
0.0
 20
0.0
 30
0.0
  3
ZU_SYM__USR_MELCAD_MD_SYM_SYM_SYM6_0000900
  1

  0
LINE
  5
607
100
AcDbEntity
  8
0
370
    -3
390
0
  6
Continuous
100
AcDbLine
 10
4.999999
 20
-2.886755
 30
0.0
 11
-0.000009
 21
-5.7735
 31
0.0
  0
LINE
  5
608
100
AcDbEntity
  8
0
370
    -3
390
0
  6
Continuous
100
AcDbLine
 10
-4.999999
 20
2.886755
 30
0.0
 11
0.000008
 21
5.773499
 31
0.0
  0
LINE
  5
609
100
AcDbEntity
  8
0
370
    -3
390
0
  6
Continuous
100
AcDbLine
 10
-0.000009
 20
-5.773499
 30
0.0
 11
-4.999998
 21
-2.886745
 31
0.0
  0
LINE
  5
60A
100
AcDbEntity
  8
0
370
    -3
390
0
  6
Continuous
100
AcDbLine
 10
4.999998
 20
2.886744
 30
0.0
 11
0.000009
 21
5.7735
 31
0.0
  0
LINE
  5
60B
100
AcDbEntity
  8
0
370
    -3
390
0
  6
Continuous
100
AcDbLine
 10
4.999998
 20
2.886743
 30
0.0
 11
4.999999
 21
-2.886755
 31
0.0
  0
LINE
  5
60C
100
AcDbEntity
  8
0
370
    -3
390
0
  6
Continuous
100
AcDbLine
 10
-4.999998
 20
-2.886744
 30
0.0
 11
-4.999999
 21
2.886755
 31
0.0
  0
POINT
  5
60D
100
AcDbEntity
  8
0
370
    -3
390
0
  6
Continuous
100
AcDbPoint
 10
0.0
 20
0.0
 30
0.0
  0
CIRCLE
  5
60E
100
AcDbEntity
  8
0
370
    -3
390
0
  6
Continuous
100
AcDbCircle
 10
0.0
 20
0.0
 30
0.0
 40
9.0
  0
CIRCLE
  5
60F
100
AcDbEntity
  8
0
370
    -3
390
0
  6
Continuous
100
AcDbCircle
 10
0.0
 20
0.0
 30
0.0
 40
7.787524
  0
ENDBLK
  5
610
100
AcDbEntity
  8
0
390
0
100
AcDbBlockEnd
  0
BLOCK
  5
613
100
AcDbEntity
  8
0
390
0
100
AcDbBlockBegin
  2
ZU_SYM__USR_MELCAD_MD_SYM_SYM_SYM6_0001000
 70
    64
 10
0.0
 20
0.0
 30
0.0
  3
ZU_SYM__USR_MELCAD_MD_SYM_SYM_SYM6_0001000
  1

  0
LINE
  5
614
100
AcDbEntity
  8
0
370
    -3
390
0
  6
Continuous
100
AcDbLine
 10
4.999999
 20
-2.886755
 30
0.0
 11
-0.000009
 21
-5.7735
 31
0.0
  0
LINE
  5
615
100
AcDbEntity
  8
0
370
    -3
390
0
  6
Continuous
100
AcDbLine
 10
-4.999999
 20
2.886755
 30
0.0
 11
0.000008
 21
5.773499
 31
0.0
  0
LINE
  5
616
100
AcDbEntity
  8
0
370
    -3
390
0
  6
Continuous
100
AcDbLine
 10
-0.000009
 20
-5.773499
 30
0.0
 11
-4.999998
 21
-2.886745
 31
0.0
  0
LINE
  5
617
100
AcDbEntity
  8
0
370
    -3
390
0
  6
Continuous
100
AcDbLine
 10
4.999998
 20
2.886744
 30
0.0
 11
0.000009
 21
5.7735
 31
0.0
  0
LINE
  5
618
100
AcDbEntity
  8
0
370
    -3
390
0
  6
Continuous
100
AcDbLine
 10
4.999998
 20
2.886743
 30
0.0
 11
4.999999
 21
-2.886755
 31
0.0
  0
LINE
  5
619
100
AcDbEntity
  8
0
370
    -3
390
0
  6
Continuous
100
AcDbLine
 10
-4.999998
 20
-2.886744
 30
0.0
 11
-4.999999
 21
2.886755
 31
0.0
  0
POINT
  5
61A
100
AcDbEntity
  8
0
370
    -3
390
0
  6
Continuous
100
AcDbPoint
 10
0.0
 20
0.0
 30
0.0
  0
CIRCLE
  5
61B
100
AcDbEntity
  8
0
370
    -3
390
0
  6
Continuous
100
AcDbCircle
 10
0.0
 20
0.0
 30
0.0
 40
9.0
  0
CIRCLE
  5
61C
100
AcDbEntity
  8
0
370
    -3
390
0
  6
Continuous
100
AcDbCircle
 10
0.0
 20
0.0
 30
0.0
 40
7.787524
  0
ENDBLK
  5
61D
100
AcDbEntity
  8
0
390
0
100
AcDbBlockEnd
  0
BLOCK
  5
620
100
AcDbEntity
  8
0
390
0
100
AcDbBlockBegin
  2
ZU_SYM__USR_MELCAD_MD_SYM_SYM_SYM6_0001100
 70
    64
 10
0.0
 20
0.0
 30
0.0
  3
ZU_SYM__USR_MELCAD_MD_SYM_SYM_SYM6_0001100
  1

  0
LINE
  5
621
100
AcDbEntity
  8
0
370
    -3
390
0
  6
Continuous
100
AcDbLine
 10
4.999999
 20
-2.886755
 30
0.0
 11
-0.000009
 21
-5.7735
 31
0.0
  0
LINE
  5
622
100
AcDbEntity
  8
0
370
    -3
390
0
  6
Continuous
100
AcDbLine
 10
-4.999999
 20
2.886755
 30
0.0
 11
0.000008
 21
5.773499
 31
0.0
  0
LINE
  5
623
100
AcDbEntity
  8
0
370
    -3
390
0
  6
Continuous
100
AcDbLine
 10
-0.000009
 20
-5.773499
 30
0.0
 11
-4.999998
 21
-2.886745
 31
0.0
  0
LINE
  5
624
100
AcDbEntity
  8
0
370
    -3
390
0
  6
Continuous
100
AcDbLine
 10
4.999998
 20
2.886744
 30
0.0
 11
0.000009
 21
5.7735
 31
0.0
  0
LINE
  5
625
100
AcDbEntity
  8
0
370
    -3
390
0
  6
Continuous
100
AcDbLine
 10
4.999998
 20
2.886743
 30
0.0
 11
4.999999
 21
-2.886755
 31
0.0
  0
LINE
  5
626
100
AcDbEntity
  8
0
370
    -3
390
0
  6
Continuous
100
AcDbLine
 10
-4.999998
 20
-2.886744
 30
0.0
 11
-4.999999
 21
2.886755
 31
0.0
  0
POINT
  5
627
100
AcDbEntity
  8
0
370
    -3
390
0
  6
Continuous
100
AcDbPoint
 10
0.0
 20
0.0
 30
0.0
  0
CIRCLE
  5
628
100
AcDbEntity
  8
0
370
    -3
390
0
  6
Continuous
100
AcDbCircle
 10
0.0
 20
0.0
 30
0.0
 40
9.0
  0
CIRCLE
  5
629
100
AcDbEntity
  8
0
370
    -3
390
0
  6
Continuous
100
AcDbCircle
 10
0.0
 20
0.0
 30
0.0
 40
7.787524
  0
ENDBLK
  5
62A
100
AcDbEntity
  8
0
390
0
100
AcDbBlockEnd
  0
BLOCK
  5
62D
100
AcDbEntity
  8
0
390
0
100
AcDbBlockBegin
  2
ZU_SYM__USR_MELCAD_MD_SYM_SYM_SYM6_0001200
 70
    64
 10
0.0
 20
0.0
 30
0.0
  3
ZU_SYM__USR_MELCAD_MD_SYM_SYM_SYM6_0001200
  1

  0
LINE
  5
62E
100
AcDbEntity
  8
0
370
    -3
390
0
  6
Continuous
100
AcDbLine
 10
4.999999
 20
-2.886755
 30
0.0
 11
-0.000009
 21
-5.7735
 31
0.0
  0
LINE
  5
62F
100
AcDbEntity
  8
0
370
    -3
390
0
  6
Continuous
100
AcDbLine
 10
-4.999999
 20
2.886755
 30
0.0
 11
0.000008
 21
5.773499
 31
0.0
  0
LINE
  5
630
100
AcDbEntity
  8
0
370
    -3
390
0
  6
Continuous
100
AcDbLine
 10
-0.000009
 20
-5.773499
 30
0.0
 11
-4.999998
 21
-2.886745
 31
0.0
  0
LINE
  5
631
100
AcDbEntity
  8
0
370
    -3
390
0
  6
Continuous
100
AcDbLine
 10
4.999998
 20
2.886744
 30
0.0
 11
0.000009
 21
5.7735
 31
0.0
  0
LINE
  5
632
100
AcDbEntity
  8
0
370
    -3
390
0
  6
Continuous
100
AcDbLine
 10
4.999998
 20
2.886743
 30
0.0
 11
4.999999
 21
-2.886755
 31
0.0
  0
LINE
  5
633
100
AcDbEntity
  8
0
370
    -3
390
0
  6
Continuous
100
AcDbLine
 10
-4.999998
 20
-2.886744
 30
0.0
 11
-4.999999
 21
2.886755
 31
0.0
  0
POINT
  5
634
100
AcDbEntity
  8
0
370
    -3
390
0
  6
Continuous
100
AcDbPoint
 10
0.0
 20
0.0
 30
0.0
  0
CIRCLE
  5
635
100
AcDbEntity
  8
0
370
    -3
390
0
  6
Continuous
100
AcDbCircle
 10
0.0
 20
0.0
 30
0.0
 40
9.0
  0
CIRCLE
  5
636
100
AcDbEntity
  8
0
370
    -3
390
0
  6
Continuous
100
AcDbCircle
 10
0.0
 20
0.0
 30
0.0
 40
7.787524
  0
ENDBLK
  5
637
100
AcDbEntity
  8
0
390
0
100
AcDbBlockEnd
  0
BLOCK
  5
63A
100
AcDbEntity
  8
0
390
0
100
AcDbBlockBegin
  2
ZU_SYM__USR_MELCAD_MD_SYM_SYM_SYM6_0001300
 70
    64
 10
0.0
 20
0.0
 30
0.0
  3
ZU_SYM__USR_MELCAD_MD_SYM_SYM_SYM6_0001300
  1

  0
LINE
  5
63B
100
AcDbEntity
  8
0
370
    -3
390
0
  6
Continuous
100
AcDbLine
 10
4.999999
 20
-2.886755
 30
0.0
 11
-0.000009
 21
-5.7735
 31
0.0
  0
LINE
  5
63C
100
AcDbEntity
  8
0
370
    -3
390
0
  6
Continuous
100
AcDbLine
 10
-4.999999
 20
2.886755
 30
0.0
 11
0.000008
 21
5.773499
 31
0.0
  0
LINE
  5
63D
100
AcDbEntity
  8
0
370
    -3
390
0
  6
Continuous
100
AcDbLine
 10
-0.000009
 20
-5.773499
 30
0.0
 11
-4.999998
 21
-2.886745
 31
0.0
  0
LINE
  5
63E
100
AcDbEntity
  8
0
370
    -3
390
0
  6
Continuous
100
AcDbLine
 10
4.999998
 20
2.886744
 30
0.0
 11
0.000009
 21
5.7735
 31
0.0
  0
LINE
  5
63F
100
AcDbEntity
  8
0
370
    -3
390
0
  6
Continuous
100
AcDbLine
 10
4.999998
 20
2.886743
 30
0.0
 11
4.999999
 21
-2.886755
 31
0.0
  0
LINE
  5
640
100
AcDbEntity
  8
0
370
    -3
390
0
  6
Continuous
100
AcDbLine
 10
-4.999998
 20
-2.886744
 30
0.0
 11
-4.999999
 21
2.886755
 31
0.0
  0
POINT
  5
641
100
AcDbEntity
  8
0
370
    -3
390
0
  6
Continuous
100
AcDbPoint
 10
0.0
 20
0.0
 30
0.0
  0
CIRCLE
  5
642
100
AcDbEntity
  8
0
370
    -3
390
0
  6
Continuous
100
AcDbCircle
 10
0.0
 20
0.0
 30
0.0
 40
9.0
  0
CIRCLE
  5
643
100
AcDbEntity
  8
0
370
    -3
390
0
  6
Continuous
100
AcDbCircle
 10
0.0
 20
0.0
 30
0.0
 40
7.787524
  0
ENDBLK
  5
644
100
AcDbEntity
  8
0
390
0
100
AcDbBlockEnd
  0
BLOCK
  5
647
100
AcDbEntity
  8
0
390
0
100
AcDbBlockBegin
  2
ZU_SYM__USR_MELCAD_MD_SYM_SYM_SYM5_0001400
 70
    64
 10
0.0
 20
0.0
 30
0.0
  3
ZU_SYM__USR_MELCAD_MD_SYM_SYM_SYM5_0001400
  1

  0
POINT
  5
648
100
AcDbEntity
  8
0
370
    -3
390
0
  6
Continuous
100
AcDbPoint
 10
0.0
 20
5.633955
 30
0.0
  0
POINT
  5
649
100
AcDbEntity
  8
0
370
    -3
390
0
  6
Continuous
100
AcDbPoint
 10
0.5
 20
6.5
 30
0.0
  0
LINE
  5
64A
100
AcDbEntity
  8
0
370
    -3
390
0
  6
Continuous
100
AcDbLine
 10
-0.000005
 20
-3.464098
 30
0.0
 11
-2.999998
 21
-1.732046
 31
0.0
  0
LINE
  5
64B
100
AcDbEntity
  8
0
370
    -3
390
0
  6
Continuous
100
AcDbLine
 10
0.000007
 20
3.464097
 30
0.0
 11
2.999997
 21
1.732047
 31
0.0
  0
LINE
  5
64C
100
AcDbEntity
  8
0
370
    -3
390
0
  6
Continuous
100
AcDbLine
 10
2.999998
 20
-1.732051
 30
0.0
 11
-0.000004
 21
-3.464098
 31
0.0
  0
LINE
  5
64D
100
AcDbEntity
  8
0
370
    -3
390
0
  6
Continuous
100
AcDbLine
 10
0.000007
 20
3.464097
 30
0.0
 11
-2.999998
 21
1.732052
 31
0.0
  0
LINE
  5
64E
100
AcDbEntity
  8
0
370
    -3
390
0
  6
Continuous
100
AcDbLine
 10
2.999997
 20
1.732047
 30
0.0
 11
2.999998
 21
-1.732051
 31
0.0
  0
LINE
  5
64F
100
AcDbEntity
  8
0
370
    -3
390
0
  6
Continuous
100
AcDbLine
 10
-2.999997
 20
-1.732046
 30
0.0
 11
-2.999998
 21
1.732052
 31
0.0
  0
POINT
  5
650
100
AcDbEntity
  8
0
370
    -3
390
0
  6
Continuous
100
AcDbPoint
 10
0.0
 20
0.0
 30
0.0
  0
CIRCLE
  5
651
100
AcDbEntity
  8
0
370
    -3
390
0
  6
Continuous
100
AcDbCircle
 10
0.0
 20
0.0
 30
0.0
 40
6.5
  0
CIRCLE
  5
652
100
AcDbEntity
  8
0
370
    -3
390
0
  6
Continuous
100
AcDbCircle
 10
0.0
 20
0.0
 30
0.0
 40
5.633955
  0
ENDBLK
  5
653
100
AcDbEntity
  8
0
390
0
100
AcDbBlockEnd
  0
BLOCK
  5
6DF
100
AcDbEntity
  8
0
390
0
100
AcDbBlockBegin
  2
ZU_SYM__USR_MELCAD_MD_SYM_SYM_SYM4_00
 70
    64
 10
0.0
 20
0.0
 30
0.0
  3
ZU_SYM__USR_MELCAD_MD_SYM_SYM_SYM4_00
  1

  0
CIRCLE
  5
6E0
100
AcDbEntity
  8
0
370
    -3
390
0
  6
Continuous
100
AcDbCircle
 10
0.0
 20
0.0
 30
0.0
 40
6.5
  0
LINE
  5
6E1
100
AcDbEntity
  8
0
370
    -3
390
0
  6
Continuous
100
AcDbLine
 10
6.497594
 20
-3.754168
 30
0.0
 11
0.002401
 21
-7.504164
 31
0.0
  0
LINE
  5
6E2
100
AcDbEntity
  8
0
370
    -3
390
0
  6
Continuous
100
AcDbLine
 10
6.495189
 20
3.749994
 30
0.0
 11
6.497592
 21
-3.754165
 31
0.0
  0
LINE
  5
6E3
100
AcDbEntity
  8
0
370
    -3
390
0
  6
Continuous
100
AcDbLine
 10
-0.002401
 20
7.504163
 30
0.0
 11
6.495188
 21
3.749995
 31
0.0
  0
LINE
  5
6E4
100
AcDbEntity
  8
0
370
    -3
390
0
  6
Continuous
100
AcDbLine
 10
-6.497594
 20
3.754168
 30
0.0
 11
-0.002401
 21
7.504164
 31
0.0
  0
LINE
  5
6E5
100
AcDbEntity
  8
0
370
    -3
390
0
  6
Continuous
100
AcDbLine
 10
-6.495189
 20
-3.749994
 30
0.0
 11
-6.497592
 21
3.754165
 31
0.0
  0
LINE
  5
6E6
100
AcDbEntity
  8
0
370
    -3
390
0
  6
Continuous
100
AcDbLine
 10
0.002401
 20
-7.504163
 30
0.0
 11
-6.495188
 21
-3.749995
 31
0.0
  0
POINT
  5
6E7
100
AcDbEntity
  8
0
370
    -3
390
0
  6
Continuous
100
AcDbPoint
 10
0.0
 20
0.0
 30
0.0
  0
ENDBLK
  5
6E8
100
AcDbEntity
  8
0
390
0
100
AcDbBlockEnd
  0
BLOCK
  5
6EB
100
AcDbEntity
  8
0
390
0
100
AcDbBlockBegin
  2
ZU_SYM__USR_MELCAD_MD_SYM_SYM_SYM3_00
 70
    64
 10
0.0
 20
0.0
 30
0.0
  3
ZU_SYM__USR_MELCAD_MD_SYM_SYM_SYM3_00
  1

  0
CIRCLE
  5
6EC
100
AcDbEntity
  8
0
370
    -3
390
0
  6
Continuous
100
AcDbCircle
 10
0.0
 20
0.0
 30
0.0
 40
6.5
  0
LINE
  5
6ED
100
AcDbEntity
  8
0
370
    -3
390
0
  6
Continuous
100
AcDbLine
 10
6.497594
 20
-3.754168
 30
0.0
 11
0.002401
 21
-7.504164
 31
0.0
  0
LINE
  5
6EE
100
AcDbEntity
  8
0
370
    -3
390
0
  6
Continuous
100
AcDbLine
 10
6.495189
 20
3.749994
 30
0.0
 11
6.497592
 21
-3.754165
 31
0.0
  0
LINE
  5
6EF
100
AcDbEntity
  8
0
370
    -3
390
0
  6
Continuous
100
AcDbLine
 10
-0.002401
 20
7.504163
 30
0.0
 11
6.495188
 21
3.749995
 31
0.0
  0
LINE
  5
6F0
100
AcDbEntity
  8
0
370
    -3
390
0
  6
Continuous
100
AcDbLine
 10
-6.497594
 20
3.754168
 30
0.0
 11
-0.002401
 21
7.504164
 31
0.0
  0
LINE
  5
6F1
100
AcDbEntity
  8
0
370
    -3
390
0
  6
Continuous
100
AcDbLine
 10
-6.495189
 20
-3.749994
 30
0.0
 11
-6.497592
 21
3.754165
 31
0.0
  0
LINE
  5
6F2
100
AcDbEntity
  8
0
370
    -3
390
0
  6
Continuous
100
AcDbLine
 10
0.002401
 20
-7.504163
 30
0.0
 11
-6.495188
 21
-3.749995
 31
0.0
  0
POINT
  5
6F3
100
AcDbEntity
  8
0
370
    -3
390
0
  6
Continuous
100
AcDbPoint
 10
0.0
 20
0.0
 30
0.0
  0
ENDBLK
  5
6F4
100
AcDbEntity
  8
0
390
0
100
AcDbBlockEnd
  0
BLOCK
  5
743
100
AcDbEntity
  8
0
390
0
100
AcDbBlockBegin
  2
ZU_SYM__USR_MELCAD_MD_SYM_SYM_SYM1_00
 70
    64
 10
0.0
 20
0.0
 30
0.0
  3
ZU_SYM__USR_MELCAD_MD_SYM_SYM_SYM1_00
  1

  0
ARC
  5
744
100
AcDbEntity
  8
0
370
    -3
390
0
  6
Continuous
100
AcDbCircle
 10
4.25
 20
-0.000018
 30
0.0
 40
9.75
100
AcDbArc
 50
157.379853
 51
202.619583
  0
ARC
  5
745
100
AcDbEntity
  8
0
370
    -3
390
0
  6
Continuous
100
AcDbCircle
 10
-2.779976
 20
5.625011
 30
0.0
 40
2.72
100
AcDbArc
 50
179.999745
 51
223.599739
  0
ARC
  5
746
100
AcDbEntity
  8
0
370
    -3
390
0
  6
Continuous
100
AcDbCircle
 10
-2.780023
 20
-5.624989
 30
0.0
 40
2.72
100
AcDbArc
 50
136.399752
 51
179.999745
  0
LINE
  5
747
100
AcDbEntity
  8
0
370
    -3
390
0
  6
Continuous
100
AcDbLine
 10
-4.749979
 20
3.750014
 30
0.0
 11
0.000018
 21
3.749996
 31
0.0
  0
LINE
  5
748
100
AcDbEntity
  8
0
370
    -3
390
0
  6
Continuous
100
AcDbLine
 10
-4.750012
 20
-3.749974
 30
0.0
 11
-0.000012
 21
-3.749994
 31
0.0
  0
LINE
  5
749
100
AcDbEntity
  8
0
370
    -3
390
0
  6
Continuous
100
AcDbLine
 10
0.000031
 20
7.5
 30
0.0
 11
-0.000031
 21
-7.5
 31
0.0
  0
LINE
  5
74A
100
AcDbEntity
  8
0
370
    -3
390
0
  6
Continuous
100
AcDbLine
 10
-4.749965
 20
7.500017
 30
0.0
 11
0.000031
 21
7.499999
 31
0.0
  0
LINE
  5
74B
100
AcDbEntity
  8
0
370
    -3
390
0
  6
Continuous
100
AcDbLine
 10
-5.499983
 20
6.300025
 30
0.0
 11
-4.749977
 21
7.500023
 31
0.0
  0
LINE
  5
74C
100
AcDbEntity
  8
0
370
    -3
390
0
  6
Continuous
100
AcDbLine
 10
-5.500023
 20
-6.299976
 30
0.0
 11
-5.499971
 21
6.300019
 31
0.0
  0
LINE
  5
74D
100
AcDbEntity
  8
0
370
    -3
390
0
  6
Continuous
100
AcDbLine
 10
-4.750049
 20
-7.499994
 30
0.0
 11
-5.500046
 21
-6.29999
 31
0.0
  0
LINE
  5
74E
100
AcDbEntity
  8
0
370
    -3
390
0
  6
Continuous
100
AcDbLine
 10
-0.00003
 20
-7.499999
 30
0.0
 11
-4.750026
 21
-7.499979
 31
0.0
  0
POINT
  5
74F
100
AcDbEntity
  8
0
370
    -3
390
0
  6
Continuous
100
AcDbPoint
 10
0.0
 20
0.0
 30
0.0
  0
ENDBLK
  5
750
100
AcDbEntity
  8
0
390
0
100
AcDbBlockEnd
  0
BLOCK
  5
75F
100
AcDbEntity
  8
0
390
0
100
AcDbBlockBegin
  2
ZU_SYM__USR_MELCAD_MD_SYM_SYM_SYM1_0001500
 70
    64
 10
0.0
 20
0.0
 30
0.0
  3
ZU_SYM__USR_MELCAD_MD_SYM_SYM_SYM1_0001500
  1

  0
ARC
  5
760
100
AcDbEntity
  8
0
370
    -3
390
0
  6
Continuous
100
AcDbCircle
 10
4.25
 20
-0.000018
 30
0.0
 40
9.75
100
AcDbArc
 50
157.379853
 51
202.619583
  0
ARC
  5
761
100
AcDbEntity
  8
0
370
    -3
390
0
  6
Continuous
100
AcDbCircle
 10
-2.779976
 20
5.625011
 30
0.0
 40
2.72
100
AcDbArc
 50
179.999745
 51
223.599739
  0
ARC
  5
762
100
AcDbEntity
  8
0
370
    -3
390
0
  6
Continuous
100
AcDbCircle
 10
-2.780023
 20
-5.624989
 30
0.0
 40
2.72
100
AcDbArc
 50
136.399752
 51
179.999745
  0
LINE
  5
763
100
AcDbEntity
  8
0
370
    -3
390
0
  6
Continuous
100
AcDbLine
 10
-4.749979
 20
3.750014
 30
0.0
 11
0.000018
 21
3.749996
 31
0.0
  0
LINE
  5
764
100
AcDbEntity
  8
0
370
    -3
390
0
  6
Continuous
100
AcDbLine
 10
-4.750012
 20
-3.749974
 30
0.0
 11
-0.000012
 21
-3.749994
 31
0.0
  0
LINE
  5
765
100
AcDbEntity
  8
0
370
    -3
390
0
  6
Continuous
100
AcDbLine
 10
0.000031
 20
7.5
 30
0.0
 11
-0.000031
 21
-7.5
 31
0.0
  0
LINE
  5
766
100
AcDbEntity
  8
0
370
    -3
390
0
  6
Continuous
100
AcDbLine
 10
-4.749965
 20
7.500017
 30
0.0
 11
0.000031
 21
7.499999
 31
0.0
  0
LINE
  5
767
100
AcDbEntity
  8
0
370
    -3
390
0
  6
Continuous
100
AcDbLine
 10
-5.499983
 20
6.300025
 30
0.0
 11
-4.749977
 21
7.500023
 31
0.0
  0
LINE
  5
768
100
AcDbEntity
  8
0
370
    -3
390
0
  6
Continuous
100
AcDbLine
 10
-5.500023
 20
-6.299976
 30
0.0
 11
-5.499971
 21
6.300019
 31
0.0
  0
LINE
  5
769
100
AcDbEntity
  8
0
370
    -3
390
0
  6
Continuous
100
AcDbLine
 10
-4.750049
 20
-7.499994
 30
0.0
 11
-5.500046
 21
-6.29999
 31
0.0
  0
LINE
  5
76A
100
AcDbEntity
  8
0
370
    -3
390
0
  6
Continuous
100
AcDbLine
 10
-0.00003
 20
-7.499999
 30
0.0
 11
-4.750026
 21
-7.499979
 31
0.0
  0
POINT
  5
76B
100
AcDbEntity
  8
0
370
    -3
390
0
  6
Continuous
100
AcDbPoint
 10
0.0
 20
0.0
 30
0.0
  0
ENDBLK
  5
76C
100
AcDbEntity
  8
0
390
0
100
AcDbBlockEnd
  0
ENDSEC
  0
SECTION
  2
ENTITIES
  0
CIRCLE
  5
29
100
AcDbEntity
  8
0
370
    -3
390
0
  6
Continuous
100
AcDbCircle
 10
-630.408848
 20
-72.712769
 30
0.0
 40
10.0
  0
LINE
  5
2A
100
AcDbEntity
  8
0
370
    -3
390
0
  6
Continuous
100
AcDbLine
 10
-634.311802
 20
-77.276392
 30
0.0
 11
-630.408848
 21
-77.276392
 31
0.0
  0
LINE
  5
2B
100
AcDbEntity
  8
0
370
    -3
390
0
  6
Continuous
100
AcDbLine
 10
-638.620982
 20
-67.276392
 30
0.0
 11
-638.620982
 21
-77.276392
 31
0.0
  0
LINE
  5
2C
100
AcDbEntity
  8
0
370
    -3
390
0
  6
Continuous
100
AcDbLine
 10
-634.311802
 20
-67.276392
 30
0.0
 11
-634.311802
 21
-77.276392
 31
0.0
  0
LINE
  5
2D
100
AcDbEntity
  8
0
370
    -3
390
0
  6
Continuous
100
AcDbLine
 10
-626.505893
 20
-77.276392
 30
0.0
 11
-630.408848
 21
-77.276392
 31
0.0
  0
LINE
  5
2E
100
AcDbEntity
  8
0
370
    -3
390
0
  6
Continuous
100
AcDbLine
 10
-622.196713
 20
-67.276392
 30
0.0
 11
-622.196713
 21
-77.276392
 31
0.0
  0
LINE
  5
2F
100
AcDbEntity
  8
0
370
    -3
390
0
  6
Continuous
100
AcDbLine
 10
-626.505893
 20
-67.276392
 30
0.0
 11
-626.505893
 21
-77.276392
 31
0.0
  0
LINE
  5
30
100
AcDbEntity
  8
0
370
    -3
390
0
  6
Continuous
100
AcDbLine
 10
-625.908848
 20
-63.782483
 30
0.0
 11
-625.908848
 21
-65.276392
 31
0.0
  0
LINE
  5
31
100
AcDbEntity
  8
0
370
    -3
390
0
  6
Continuous
100
AcDbLine
 10
-634.908848
 20
-63.782483
 30
0.0
 11
-634.908848
 21
-65.276392
 31
0.0
  0
LINE
  5
32
100
AcDbEntity
  8
0
370
    -3
390
0
  6
Continuous
100
AcDbLine
 10
-637.094676
 20
-65.276392
 30
0.0
 11
-630.408848
 21
-65.276392
 31
0.0
  0
LINE
  5
33
100
AcDbEntity
  8
0
370
    -3
390
0
  6
Continuous
100
AcDbLine
 10
-638.802048
 20
-67.276392
 30
0.0
 11
-630.408848
 21
-67.276392
 31
0.0
  0
LINE
  5
34
100
AcDbEntity
  8
0
370
    -3
390
0
  6
Continuous
100
AcDbLine
 10
-639.306788
 20
-77.276392
 30
0.0
 11
-638.620982
 21
-77.276392
 31
0.0
  0
LINE
  5
35
100
AcDbEntity
  8
0
370
    -3
390
0
  6
Continuous
100
AcDbLine
 10
-638.718246
 20
-78.276392
 30
0.0
 11
-630.408848
 21
-78.276392
 31
0.0
  0
LINE
  5
36
100
AcDbEntity
  8
0
370
    -3
390
0
  6
Continuous
100
AcDbLine
 10
-637.953306
 20
-79.276392
 30
0.0
 11
-630.408848
 21
-79.276392
 31
0.0
  0
LINE
  5
37
100
AcDbEntity
  8
0
370
    -3
390
0
  6
Continuous
100
AcDbLine
 10
-633.330681
 20
-82.276392
 30
0.0
 11
-630.408848
 21
-82.276392
 31
0.0
  0
LINE
  5
38
100
AcDbEntity
  8
0
370
    -3
390
0
  6
Continuous
100
AcDbLine
 10
-627.487015
 20
-82.276392
 30
0.0
 11
-630.408848
 21
-82.276392
 31
0.0
  0
LINE
  5
39
100
AcDbEntity
  8
0
370
    -3
390
0
  6
Continuous
100
AcDbLine
 10
-622.864389
 20
-79.276392
 30
0.0
 11
-630.408848
 21
-79.276392
 31
0.0
  0
LINE
  5
3A
100
AcDbEntity
  8
0
370
    -3
390
0
  6
Continuous
100
AcDbLine
 10
-622.09945
 20
-78.276392
 30
0.0
 11
-630.408848
 21
-78.276392
 31
0.0
  0
LINE
  5
3B
100
AcDbEntity
  8
0
370
    -3
390
0
  6
Continuous
100
AcDbLine
 10
-623.723019
 20
-65.276392
 30
0.0
 11
-630.408848
 21
-65.276392
 31
0.0
  0
LINE
  5
3C
100
AcDbEntity
  8
0
370
    -3
390
0
  6
Continuous
100
AcDbLine
 10
-622.015647
 20
-67.276392
 30
0.0
 11
-630.408848
 21
-67.276392
 31
0.0
  0
LINE
  5
3D
100
AcDbEntity
  8
0
370
    -3
390
0
  6
Continuous
100
AcDbLine
 10
-621.510907
 20
-77.276392
 30
0.0
 11
-622.196713
 21
-77.276392
 31
0.0
  0
ARC
  5
3E
100
AcDbEntity
  8
0
370
    -3
390
0
  6
Continuous
100
AcDbCircle
 10
-234.701268
 20
143.340704
 30
0.0
 40
1.299999
100
AcDbArc
 50
286.601531
 51
0.0
  0
LINE
  5
3F
100
AcDbEntity
  8
0
370
    -3
390
0
  6
Continuous
100
AcDbLine
 10
-233.401269
 20
143.340704
 30
0.0
 11
-233.401269
 21
143.737231
 31
0.0
  0
ARC
  5
40
100
AcDbEntity
  8
0
370
    -3
390
0
  6
Continuous
100
AcDbCircle
 10
-234.901269
 20
143.737231
 30
0.0
 40
1.5
100
AcDbArc
 50
0.0
 51
32.230953
  0
ARC
  5
41
100
AcDbEntity
  8
0
370
    -3
390
0
  6
Continuous
100
AcDbCircle
 10
-236.901269
 20
150.719729
 30
0.0
 40
9.0
100
AcDbArc
 50
253.398469
 51
286.601548
  0
LINE
  5
42
100
AcDbEntity
  8
0
370
    -3
390
0
  6
Continuous
100
AcDbLine
 10
-240.401269
 20
143.340704
 30
0.0
 11
-240.401269
 21
143.737231
 31
0.0
  0
ARC
  5
43
100
AcDbEntity
  8
0
370
    -3
390
0
  6
Continuous
100
AcDbCircle
 10
-239.10127
 20
143.340704
 30
0.0
 40
1.299999
100
AcDbArc
 50
180.0
 51
253.398469
  0
ARC
  5
44
100
AcDbEntity
  8
0
370
    -3
390
0
  6
Continuous
100
AcDbCircle
 10
-238.901269
 20
143.737231
 30
0.0
 40
1.5
100
AcDbArc
 50
147.769047
 51
180.0
  0
ARC
  5
45
100
AcDbEntity
  8
0
370
    -3
390
0
  6
Continuous
100
AcDbCircle
 10
-555.408848
 20
-432.712769
 30
0.0
 40
20.0
100
AcDbArc
 50
295.841933
 51
330.0
  0
LINE
  5
46
100
AcDbEntity
  8
0
370
    -3
390
0
  6
Continuous
100
AcDbLine
 10
-630.408848
 20
-450.712769
 30
0.0
 11
-546.69105
 21
-450.712769
 31
0.0
  0
LINE
  5
47
100
AcDbEntity
  8
0
370
    -3
390
0
  6
Continuous
100
AcDbLine
 10
-630.408848
 20
-450.712769
 30
0.0
 11
-714.126645
 21
-450.712769
 31
0.0
  0
ARC
  5
48
100
AcDbEntity
  8
0
370
    -3
390
0
  6
Continuous
100
AcDbCircle
 10
-705.408848
 20
-432.712769
 30
0.0
 40
20.0
100
AcDbArc
 50
210.0
 51
244.158067
  0
LINE
  5
49
100
AcDbEntity
  8
0
370
    -3
390
0
  6
CENTER
100
AcDbLine
 10
-70.872174
 20
-239.712769
 30
0.0
 11
-318.257742
 21
-239.712769
 31
0.0
  0
LINE
  5
4A
100
AcDbEntity
  8
0
370
    -3
390
0
  6
Continuous
100
AcDbLine
 10
-103.901269
 20
-311.212769
 30
0.0
 11
-103.901269
 21
-168.212769
 31
0.0
  0
LINE
  5
4B
100
AcDbEntity
  8
0
370
    -3
390
0
  6
Continuous
100
AcDbLine
 10
-103.901269
 20
-200.312563
 30
0.0
 11
-193.502768
 21
-200.312563
 31
0.0
  0
LINE
  5
4C
100
AcDbEntity
  8
0
370
    -3
390
0
  6
Continuous
100
AcDbLine
 10
-103.901269
 20
-199.112974
 30
0.0
 11
-195.502466
 21
-199.112974
 31
0.0
  0
LINE
  5
4D
100
AcDbEntity
  8
0
370
    -3
390
0
  6
Continuous
100
AcDbLine
 10
-310.901269
 20
-239.712769
 30
0.0
 11
-310.901269
 21
-298.462431
 31
0.0
  0
ARC
  5
4E
100
AcDbEntity
  8
0
370
    -3
390
0
  6
Continuous
100
AcDbCircle
 10
-307.101269
 20
-298.462431
 30
0.0
 40
3.8
100
AcDbArc
 50
180.0
 51
240.0
  0
LINE
  5
4F
100
AcDbEntity
  8
0
370
    -3
390
0
  6
Continuous
100
AcDbLine
 10
-246.901269
 20
-314.512769
 30
0.0
 11
-278.648434
 21
-314.512769
 31
0.0
  0
LINE
  5
50
100
AcDbEntity
  8
0
370
    -3
390
0
  6
Continuous
100
AcDbLine
 10
-262.689222
 20
-300.71888
 30
0.0
 11
-261.972064
 21
-301.168929
 31
0.0
  0
LINE
  5
51
100
AcDbEntity
  8
0
370
    -3
390
0
  6
Continuous
100
AcDbLine
 10
-265.113316
 20
-300.71888
 30
0.0
 11
-265.830474
 21
-301.168929
 31
0.0
  0
ELLIPSE
  5
52
100
AcDbEntity
  8
0
370
    -3
390
0
  6
Continuous
100
AcDbEllipse
 10
-263.901269
 20
-298.656307
 30
0.0
 11
3.5
 21
0.0
 31
0.0
210
0.0
220
0.0
230
1.0
 40
0.860398
 41
3.8960914922822831
 42
5.5286864684870967
  0
LINE
  5
53
100
AcDbEntity
  8
0
370
    -3
390
0
  6
Continuous
100
AcDbLine
 10
-309.001269
 20
-301.753328
 30
0.0
 11
-294.048434
 21
-310.386351
 31
0.0
  0
ARC
  5
54
100
AcDbEntity
  8
0
370
    -3
390
0
  6
Continuous
100
AcDbCircle
 10
-278.648434
 20
-283.712769
 30
0.0
 40
30.8
100
AcDbArc
 50
240.0
 51
270.0
  0
ELLIPSE
  5
55
100
AcDbEntity
  8
0
370
    -3
390
0
  6
Continuous
100
AcDbEllipse
 10
-263.901269
 20
-182.688037
 30
0.0
 11
5.0
 21
0.0
 31
0.0
210
0.0
220
0.0
230
1.0
 40
0.707107
 41
3.1415926535897931
 42
0.0
  0
LINE
  5
56
100
AcDbEntity
  8
0
370
    -3
390
0
  6
Continuous
100
AcDbLine
 10
-268.901269
 20
-181.871434
 30
0.0
 11
-268.901269
 21
-182.688037
 31
0.0
  0
LINE
  5
57
100
AcDbEntity
  8
0
370
    -3
390
0
  6
Continuous
100
AcDbLine
 10
-258.901269
 20
-181.871434
 30
0.0
 11
-258.901269
 21
-182.688037
 31
0.0
  0
ELLIPSE
  5
58
100
AcDbEntity
  8
0
370
    -3
390
0
  6
Continuous
100
AcDbEllipse
 10
-263.901269
 20
-181.871434
 30
0.0
 11
4.5
 21
0.0
 31
0.0
210
0.0
220
0.0
230
1.0
 40
0.707107
 41
3.1415926535897931
 42
0.0
  0
LINE
  5
59
100
AcDbEntity
  8
0
370
    -3
390
0
  6
Continuous
100
AcDbLine
 10
-268.401269
 20
-181.305749
 30
0.0
 11
-268.401269
 21
-181.871434
 31
0.0
  0
LINE
  5
5A
100
AcDbEntity
  8
0
370
    -3
390
0
  6
Continuous
100
AcDbLine
 10
-259.401269
 20
-181.305749
 30
0.0
 11
-259.401269
 21
-181.871434
 31
0.0
  0
ELLIPSE
  5
5B
100
AcDbEntity
  8
0
370
    -3
390
0
  6
Continuous
100
AcDbEllipse
 10
-263.901269
 20
-181.871434
 30
0.0
 11
5.0
 21
0.0
 31
0.0
210
0.0
220
0.0
230
1.0
 40
0.707107
 41
0.0
 42
0.7392718269406207
  0
ELLIPSE
  5
5C
100
AcDbEntity
  8
0
370
    -3
390
0
  6
Continuous
100
AcDbEllipse
 10
-263.901269
 20
-181.871434
 30
0.0
 11
5.0
 21
0.0
 31
0.0
210
0.0
220
0.0
230
1.0
 40
0.707107
 41
2.4023208266491727
 42
3.1415926535897931
  0
ELLIPSE
  5
5D
100
AcDbEntity
  8
0
370
    -3
390
0
  6
Continuous
100
AcDbEllipse
 10
-263.901269
 20
-180.76923
 30
0.0
 11
3.5
 21
0.0
 31
0.0
210
0.0
220
0.0
230
1.0
 40
0.860398
 41
0.0
 42
6.2831853071795862
  0
ELLIPSE
  5
5E
100
AcDbEntity
  8
0
370
    -3
390
0
  6
Continuous
100
AcDbEllipse
 10
-263.901269
 20
-181.305749
 30
0.0
 11
4.5
 21
0.0
 31
0.0
210
0.0
220
0.0
230
1.0
 40
0.707107
 41
2.158706662346169
 42
0.9828859912435821
  0
LINE
  5
5F
100
AcDbEntity
  8
0
370
    -3
390
0
  6
Continuous
100
AcDbLine
 10
-263.901269
 20
-179.467271
 30
0.0
 11
-261.901269
 21
-181.040608
 31
0.0
  0
LINE
  5
60
100
AcDbEntity
  8
0
370
    -3
390
0
  6
Continuous
100
AcDbLine
 10
-263.901269
 20
-179.467271
 30
0.0
 11
-261.972064
 21
-178.256608
 31
0.0
  0
LINE
  5
61
100
AcDbEntity
  8
0
370
    -3
390
0
  6
Continuous
100
AcDbLine
 10
-263.901269
 20
-179.467271
 30
0.0
 11
-265.901269
 21
-181.040608
 31
0.0
  0
LINE
  5
62
100
AcDbEntity
  8
0
370
    -3
390
0
  6
Continuous
100
AcDbLine
 10
-263.901269
 20
-179.467271
 30
0.0
 11
-265.830474
 21
-178.256608
 31
0.0
  0
ARC
  5
63
100
AcDbEntity
  8
0
370
    -3
390
0
  6
Continuous
100
AcDbCircle
 10
-278.648434
 20
-195.712769
 30
0.0
 40
30.8
100
AcDbArc
 50
90.0
 51
120.0
  0
ARC
  5
64
100
AcDbEntity
  8
0
370
    -3
390
0
  6
Continuous
100
AcDbCircle
 10
-307.101269
 20
-180.963106
 30
0.0
 40
3.8
100
AcDbArc
 50
120.0
 51
180.0
  0
LINE
  5
65
100
AcDbEntity
  8
0
370
    -3
390
0
  6
Continuous
100
AcDbLine
 10
-310.901269
 20
-239.712769
 30
0.0
 11
-310.901269
 21
-180.963106
 31
0.0
  0
LINE
  5
66
100
AcDbEntity
  8
0
370
    -3
390
0
  6
Continuous
100
AcDbLine
 10
-309.001269
 20
-177.67221
 30
0.0
 11
-294.048434
 21
-169.039186
 31
0.0
  0
LINE
  5
67
100
AcDbEntity
  8
0
370
    -3
390
0
  6
Continuous
100
AcDbLine
 10
-246.901269
 20
-173.212769
 30
0.0
 11
-103.901269
 21
-173.212769
 31
0.0
  0
LINE
  5
68
100
AcDbEntity
  8
0
370
    -3
390
0
  6
Continuous
100
AcDbLine
 10
-246.901269
 20
-168.712769
 30
0.0
 11
-103.901269
 21
-168.712769
 31
0.0
  0
LINE
  5
69
100
AcDbEntity
  8
0
370
    -3
390
0
  6
Continuous
100
AcDbLine
 10
-246.901269
 20
-170.212769
 30
0.0
 11
-103.901269
 21
-170.212769
 31
0.0
  0
LINE
  5
6A
100
AcDbEntity
  8
0
370
    -3
390
0
  6
Continuous
100
AcDbLine
 10
-246.901269
 20
-168.212769
 30
0.0
 11
-103.901269
 21
-168.212769
 31
0.0
  0
LINE
  5
6B
100
AcDbEntity
  8
0
370
    -3
390
0
  6
Continuous
100
AcDbLine
 10
-246.901269
 20
-177.712769
 30
0.0
 11
-103.901269
 21
-177.712769
 31
0.0
  0
LINE
  5
6C
100
AcDbEntity
  8
0
370
    -3
390
0
  6
Continuous
100
AcDbLine
 10
-190.522084
 20
-207.112974
 30
0.0
 11
-103.901269
 21
-207.112974
 31
0.0
  0
LINE
  5
6D
100
AcDbEntity
  8
0
370
    -3
390
0
  6
Continuous
100
AcDbLine
 10
-190.451269
 20
-208.312563
 30
0.0
 11
-103.901269
 21
-208.312563
 31
0.0
  0
LINE
  5
6E
100
AcDbEntity
  8
0
370
    -3
390
0
  6
Continuous
100
AcDbLine
 10
-190.451269
 20
-215.712769
 30
0.0
 11
-103.901269
 21
-215.712769
 31
0.0
  0
LINE
  5
6F
100
AcDbEntity
  8
0
370
    -3
390
0
  6
Continuous
100
AcDbLine
 10
-246.901269
 20
-306.212769
 30
0.0
 11
-103.901269
 21
-306.212769
 31
0.0
  0
LINE
  5
70
100
AcDbEntity
  8
0
370
    -3
390
0
  6
Continuous
100
AcDbLine
 10
-246.901269
 20
-310.712769
 30
0.0
 11
-103.901269
 21
-310.712769
 31
0.0
  0
LINE
  5
71
100
AcDbEntity
  8
0
370
    -3
390
0
  6
Continuous
100
AcDbLine
 10
-246.901269
 20
-309.212769
 30
0.0
 11
-103.901269
 21
-309.212769
 31
0.0
  0
LINE
  5
72
100
AcDbEntity
  8
0
370
    -3
390
0
  6
Continuous
100
AcDbLine
 10
-246.901269
 20
-311.212769
 30
0.0
 11
-103.901269
 21
-311.212769
 31
0.0
  0
LINE
  5
73
100
AcDbEntity
  8
0
370
    -3
390
0
  6
Continuous
100
AcDbLine
 10
-246.901269
 20
-301.712769
 30
0.0
 11
-103.901269
 21
-301.712769
 31
0.0
  0
LINE
  5
74
100
AcDbEntity
  8
0
370
    -3
390
0
  6
Continuous
100
AcDbLine
 10
-190.451269
 20
-263.712769
 30
0.0
 11
-103.901269
 21
-263.712769
 31
0.0
  0
LINE
  5
75
100
AcDbEntity
  8
0
370
    -3
390
0
  6
Continuous
100
AcDbLine
 10
-246.901269
 20
-164.912769
 30
0.0
 11
-278.648434
 21
-164.912769
 31
0.0
  0
LINE
  5
76
100
AcDbEntity
  8
0
370
    -3
390
0
  6
Continuous
100
AcDbLine
 10
-246.901269
 20
-164.912769
 30
0.0
 11
-246.901269
 21
-197.116161
 31
0.0
  0
LINE
  5
77
100
AcDbEntity
  8
0
370
    -3
390
0
  6
Continuous
100
AcDbLine
 10
-246.901269
 20
-314.512769
 30
0.0
 11
-246.901269
 21
-300.71888
 31
0.0
  0
LINE
  5
78
100
AcDbEntity
  8
0
370
    -3
390
0
  6
Continuous
100
AcDbLine
 10
-246.901269
 20
-183.861147
 30
0.0
 11
-103.901269
 21
-183.861147
 31
0.0
  0
LINE
  5
79
100
AcDbEntity
  8
0
370
    -3
390
0
  6
Continuous
100
AcDbLine
 10
-246.901269
 20
-190.790794
 30
0.0
 11
-103.901269
 21
-190.790794
 31
0.0
  0
LINE
  5
7A
100
AcDbEntity
  8
0
370
    -3
390
0
  6
Continuous
100
AcDbLine
 10
-190.451269
 20
-288.634743
 30
0.0
 11
-103.901269
 21
-288.634743
 31
0.0
  0
LINE
  5
7B
100
AcDbEntity
  8
0
370
    -3
390
0
  6
Continuous
100
AcDbLine
 10
-192.133006
 20
-295.56439
 30
0.0
 11
-103.901269
 21
-295.56439
 31
0.0
  0
LINE
  5
7C
100
AcDbEntity
  8
0
370
    -3
390
0
  6
Continuous
100
AcDbLine
 10
-103.901269
 20
-279.112974
 30
0.0
 11
-190.451269
 21
-279.112974
 31
0.0
  0
LINE
  5
7D
100
AcDbEntity
  8
0
370
    -3
390
0
  6
Continuous
100
AcDbLine
 10
-103.901269
 20
-280.312563
 30
0.0
 11
-190.451269
 21
-280.312563
 31
0.0
  0
LINE
  5
7E
100
AcDbEntity
  8
0
370
    -3
390
0
  6
Continuous
100
AcDbLine
 10
-190.522084
 20
-272.312563
 30
0.0
 11
-103.901269
 21
-272.312563
 31
0.0
  0
LINE
  5
7F
100
AcDbEntity
  8
0
370
    -3
390
0
  6
Continuous
100
AcDbLine
 10
-190.451269
 20
-271.112974
 30
0.0
 11
-103.901269
 21
-271.112974
 31
0.0
  0
LINE
  5
80
100
AcDbEntity
  8
0
370
    -3
390
0
  6
Continuous
100
AcDbLine
 10
29.598731
 20
-85.276392
 30
0.0
 11
39.098731
 21
-85.276392
 31
0.0
  0
ARC
  5
81
100
AcDbEntity
  8
0
370
    -3
390
0
  6
Continuous
100
AcDbCircle
 10
29.598731
 20
-83.776392
 30
0.0
 40
1.5
100
AcDbArc
 50
180.0
 51
270.0
  0
LINE
  5
82
100
AcDbEntity
  8
0
370
    -3
390
0
  6
Continuous
100
AcDbLine
 10
26.098731
 20
-65.276392
 30
0.0
 11
39.098731
 21
-65.276392
 31
0.0
  0
LINE
  5
83
100
AcDbEntity
  8
0
370
    -3
390
0
  6
Continuous
100
AcDbLine
 10
23.848731
 20
-82.276392
 30
0.0
 11
39.098731
 21
-82.276392
 31
0.0
  0
LINE
  5
84
100
AcDbEntity
  8
0
370
    -3
390
0
  6
Continuous
100
AcDbLine
 10
23.098731
 20
-67.276392
 30
0.0
 11
39.098731
 21
-67.276392
 31
0.0
  0
LINE
  5
85
100
AcDbEntity
  8
0
370
    -3
390
0
  6
Continuous
100
AcDbLine
 10
26.098731
 20
-65.276392
 30
0.0
 11
24.598731
 21
-67.276392
 31
0.0
  0
LINE
  5
86
100
AcDbEntity
  8
0
370
    -3
390
0
  6
Continuous
100
AcDbLine
 10
23.098731
 20
-78.276392
 30
0.0
 11
23.098731
 21
-67.276392
 31
0.0
  0
LINE
  5
87
100
AcDbEntity
  8
0
370
    -3
390
0
  6
Continuous
100
AcDbLine
 10
23.098731
 20
-78.276392
 30
0.0
 11
39.098731
 21
-78.276392
 31
0.0
  0
LINE
  5
88
100
AcDbEntity
  8
0
370
    -3
390
0
  6
Continuous
100
AcDbLine
 10
26.098731
 20
-65.276392
 30
0.0
 11
24.598731
 21
-67.276392
 31
0.0
  0
LINE
  5
89
100
AcDbEntity
  8
0
370
    -3
390
0
  6
Continuous
100
AcDbLine
 10
23.098731
 20
-78.276392
 30
0.0
 11
23.098731
 21
-67.276392
 31
0.0
  0
LINE
  5
8A
100
AcDbEntity
  8
0
370
    -3
390
0
  6
Continuous
100
AcDbLine
 10
23.098731
 20
-77.276392
 30
0.0
 11
23.582064
 21
-77.276392
 31
0.0
  0
LINE
  5
8B
100
AcDbEntity
  8
0
370
    -3
390
0
  6
Continuous
100
AcDbLine
 10
23.848731
 20
-79.276392
 30
0.0
 11
39.098731
 21
-79.276392
 31
0.0
  0
LINE
  5
8C
100
AcDbEntity
  8
0
370
    -3
390
0
  6
Continuous
100
AcDbLine
 10
23.848731
 20
-79.276392
 30
0.0
 11
23.848731
 21
-82.276392
 31
0.0
  0
ARC
  5
8D
100
AcDbEntity
  8
0
370
    -3
390
0
  6
Continuous
100
AcDbCircle
 10
29.598731
 20
-83.776392
 30
0.0
 40
1.5
100
AcDbArc
 50
90.0
 51
180.0
  0
LINE
  5
8E
100
AcDbEntity
  8
0
370
    -3
390
0
  6
Continuous
100
AcDbLine
 10
30.886597
 20
-67.276392
 30
0.0
 11
30.886597
 21
-77.276392
 31
0.0
  0
LINE
  5
8F
100
AcDbEntity
  8
0
370
    -3
390
0
  6
Continuous
100
AcDbLine
 10
25.366985
 20
-67.276392
 30
0.0
 11
25.366985
 21
-77.276392
 31
0.0
  0
LINE
  5
90
100
AcDbEntity
  8
0
370
    -3
390
0
  6
Continuous
100
AcDbLine
 10
23.582064
 20
-67.276392
 30
0.0
 11
23.582064
 21
-77.276392
 31
0.0
  0
LINE
  5
91
100
AcDbEntity
  8
0
370
    -3
390
0
  6
Continuous
100
AcDbLine
 10
25.366985
 20
-77.276392
 30
0.0
 11
30.886597
 21
-77.276392
 31
0.0
  0
LINE
  5
92
100
AcDbEntity
  8
0
370
    -3
390
0
  6
Continuous
100
AcDbLine
 10
-13.901269
 20
-110.712769
 30
0.0
 11
-11.401233
 21
-110.712769
 31
0.0
  0
INSERT
  5
9E
100
AcDbEntity
  8
0
390
0
100
AcDbBlockReference
  2
ZU_SYM__USERS_HOME_SYMBOL_POO_SYM_B20_18
 10
-13.901269
 20
-100.712769
 30
0.0
  0
ARC
  5
9F
100
AcDbEntity
  8
0
370
    -3
390
0
  6
Continuous
100
AcDbCircle
 10
-30.901269
 20
-183.712769
 30
0.0
 40
3.0
100
AcDbArc
 50
90.0
 51
180.0
  0
ARC
  5
A0
100
AcDbEntity
  8
0
370
    -3
390
0
  6
Continuous
100
AcDbCircle
 10
-38.759386
 20
-195.712769
 30
0.0
 40
5.0
100
AcDbArc
 50
270.0
 51
349.193077
  0
ARC
  5
A1
100
AcDbEntity
  8
0
370
    -3
390
0
  6
Continuous
100
AcDbCircle
 10
-30.901269
 20
-180.712769
 30
0.0
 40
3.0
100
AcDbArc
 50
90.0
 51
180.0
  0
ARC
  5
A2
100
AcDbEntity
  8
0
370
    -3
390
0
  6
Continuous
100
AcDbCircle
 10
-2.401269
 20
-187.796689
 30
0.0
 40
3.0
100
AcDbArc
 50
279.594068
 51
0.0
  0
ARC
  5
A3
100
AcDbEntity
  8
0
370
    -3
390
0
  6
Continuous
100
AcDbCircle
 10
-1.401269
 20
-193.712769
 30
0.0
 40
3.0
100
AcDbArc
 50
99.594068
 51
180.0
  0
ARC
  5
A4
100
AcDbEntity
  8
0
370
    -3
390
0
  6
Continuous
100
AcDbCircle
 10
-2.401269
 20
-219.628848
 30
0.0
 40
3.0
100
AcDbArc
 50
0.0
 51
80.405932
  0
ARC
  5
A5
100
AcDbEntity
  8
0
370
    -3
390
0
  6
Continuous
100
AcDbCircle
 10
-1.401269
 20
-213.712769
 30
0.0
 40
3.0
100
AcDbArc
 50
180.0
 51
260.405932
  0
ARC
  5
A6
100
AcDbEntity
  8
0
370
    -3
390
0
  6
Continuous
100
AcDbCircle
 10
3.598731
 20
-90.712769
 30
0.0
 40
3.0
100
AcDbArc
 50
90.0
 51
180.0
  0
ARC
  5
A7
100
AcDbEntity
  8
0
370
    -3
390
0
  6
Continuous
100
AcDbCircle
 10
-21.381862
 20
-172.678686
 30
0.0
 40
5.0
100
AcDbArc
 50
273.0
 51
353.391649
  0
ARC
  5
A8
100
AcDbEntity
  8
0
370
    -3
390
0
  6
Continuous
100
AcDbCircle
 10
-6.401269
 20
-90.712769
 30
0.0
 40
3.0
100
AcDbArc
 50
90.0
 51
180.0
  0
ARC
  5
A9
100
AcDbEntity
  8
0
370
    -3
390
0
  6
Continuous
100
AcDbCircle
 10
-4.401269
 20
-171.788771
 30
0.0
 40
5.0
100
AcDbArc
 50
273.0
 51
0.0
  0
ARC
  5
AA
100
AcDbEntity
  8
0
370
    -3
390
0
  6
Continuous
100
AcDbCircle
 10
-4.401269
 20
-174.683955
 30
0.0
 40
5.0
100
AcDbArc
 50
273.0
 51
0.0
  0
ARC
  5
AB
100
AcDbEntity
  8
0
370
    -3
390
0
  6
Continuous
100
AcDbCircle
 10
20.600556
 20
-86.48511
 30
0.0
 40
1.0
100
AcDbArc
 50
272.0
 51
357.723663
  0
ARC
  5
AC
100
AcDbEntity
  8
0
370
    -3
390
0
  6
Continuous
100
AcDbCircle
 10
22.598978
 20
-86.564549
 30
0.0
 40
1.0
100
AcDbArc
 50
91.0
 51
177.723663
  0
LINE
  5
AD
100
AcDbEntity
  8
0
370
    -3
390
0
  6
Continuous
100
AcDbLine
 10
-23.901269
 20
-180.712769
 30
0.0
 11
-30.901269
 21
-180.712769
 31
0.0
  0
LINE
  5
AE
100
AcDbEntity
  8
0
370
    -3
390
0
  6
Continuous
100
AcDbLine
 10
-30.901269
 20
-177.712769
 30
0.0
 11
-23.901269
 21
-177.712769
 31
0.0
  0
LINE
  5
AF
100
AcDbEntity
  8
0
370
    -3
390
0
  6
Continuous
100
AcDbLine
 10
-33.901269
 20
-180.712769
 30
0.0
 11
-33.901269
 21
-374.712769
 31
0.0
  0
LINE
  5
B0
100
AcDbEntity
  8
0
370
    -3
390
0
  6
CENTER
100
AcDbLine
 10
-54.901269
 20
-217.929096
 30
0.0
 11
-54.901269
 21
-197.22622
 31
0.0
  0
LINE
  5
B1
100
AcDbEntity
  8
0
370
    -3
390
0
  6
Continuous
100
AcDbLine
 10
-38.759386
 20
-200.712769
 30
0.0
 11
-75.401269
 21
-200.712769
 31
0.0
  0
LINE
  5
B2
100
AcDbEntity
  8
0
370
    -3
390
0
  6
Continuous
100
AcDbLine
 10
-41.901268
 20
-211.712769
 30
0.0
 11
-75.401269
 21
-211.712769
 31
0.0
  0
LINE
  5
B3
100
AcDbEntity
  8
0
370
    -3
390
0
  6
Continuous
100
AcDbLine
 10
-4.401269
 20
-213.712769
 30
0.0
 11
-4.401269
 21
-203.712769
 31
0.0
  0
LINE
  5
B4
100
AcDbEntity
  8
0
370
    -3
390
0
  6
Continuous
100
AcDbLine
 10
-4.401269
 20
-193.712769
 30
0.0
 11
-4.401269
 21
-203.712769
 31
0.0
  0
LINE
  5
B5
100
AcDbEntity
  8
0
370
    -3
390
0
  6
Continuous
100
AcDbLine
 10
13.598731
 20
-277.712769
 30
0.0
 11
13.598731
 21
-87.712769
 31
0.0
  0
LINE
  5
B6
100
AcDbEntity
  8
0
370
    -3
390
0
  6
Continuous
100
AcDbLine
 10
-6.401269
 20
-87.712769
 30
0.0
 11
14.098731
 21
-87.712769
 31
0.0
  0
LINE
  5
B7
100
AcDbEntity
  8
0
370
    -3
390
0
  6
Continuous
100
AcDbLine
 10
0.598731
 20
-277.712769
 30
0.0
 11
0.598731
 21
-90.712769
 31
0.0
  0
LINE
  5
B8
100
AcDbEntity
  8
0
370
    -3
390
0
  6
Continuous
100
AcDbLine
 10
-23.901269
 20
-277.712769
 30
0.0
 11
-23.901269
 21
-177.817584
 31
0.0
  0
LINE
  5
B9
100
AcDbEntity
  8
0
370
    -3
390
0
  6
Continuous
100
AcDbLine
 10
-9.401269
 20
-90.712769
 30
0.0
 11
-9.401269
 21
-99.712769
 31
0.0
  0
LINE
  5
BA
100
AcDbEntity
  8
0
370
    -3
390
0
  6
Continuous
100
AcDbLine
 10
-16.415082
 20
-173.254096
 30
0.0
 11
-9.980527
 21
-117.712769
 31
0.0
  0
LINE
  5
BB
100
AcDbEntity
  8
0
370
    -3
390
0
  6
Continuous
100
AcDbLine
 10
-4.139589
 20
-176.781918
 30
0.0
 11
-23.901269
 21
-177.817584
 31
0.0
  0
LINE
  5
BC
100
AcDbEntity
  8
0
370
    -3
390
0
  6
CENTER
100
AcDbLine
 10
-29.361976
 20
-100.712769
 30
0.0
 11
-3.924626
 21
-100.712769
 31
0.0
  0
LINE
  5
BD
100
AcDbEntity
  8
0
370
    -3
390
0
  6
CENTER
100
AcDbLine
 10
-19.631516
 20
-72.712769
 30
0.0
 11
-1.53225
 21
-72.712769
 31
0.0
  0
LINE
  5
BE
100
AcDbEntity
  8
0
370
    -3
390
0
  6
Continuous
100
AcDbLine
 10
-9.401269
 20
-52.712769
 30
0.0
 11
-9.401269
 21
-90.712769
 31
0.0
  0
LINE
  5
BF
100
AcDbEntity
  8
0
370
    -3
390
0
  6
Continuous
100
AcDbLine
 10
-13.901269
 20
-52.712769
 30
0.0
 11
-9.401269
 21
-52.712769
 31
0.0
  0
LINE
  5
C0
100
AcDbEntity
  8
0
370
    -3
390
0
  6
Continuous
100
AcDbLine
 10
-13.901269
 20
-110.712769
 30
0.0
 11
-13.901269
 21
-52.712769
 31
0.0
  0
LINE
  5
C1
100
AcDbEntity
  8
0
370
    -3
390
0
  6
Continuous
100
AcDbLine
 10
-4.139589
 20
-179.677103
 30
0.0
 11
-23.901269
 21
-180.712769
 31
0.0
  0
LINE
  5
C2
100
AcDbEntity
  8
0
370
    -3
390
0
  6
Continuous
100
AcDbLine
 10
22.581526
 20
-85.564701
 30
0.0
 11
128.608855
 21
-83.713987
 31
0.0
  0
LINE
  5
C3
100
AcDbEntity
  8
0
370
    -3
390
0
  6
Continuous
100
AcDbLine
 10
14.098731
 20
-87.712769
 30
0.0
 11
150.190598
 21
-82.960336
 31
0.0
  0
LINE
  5
C4
100
AcDbEntity
  8
0
370
    -3
390
0
  6
Continuous
100
AcDbLine
 10
14.098731
 20
-444.712769
 30
0.0
 11
14.098731
 21
-87.712769
 31
0.0
  0
INSERT
  5
D0
100
AcDbEntity
  8
0
390
0
100
AcDbBlockReference
  2
ZU_SYM__USERS_HOME_SYMBOL_POO_SYM_B20_20
 10
0.598731
 20
-108.712769
 30
0.0
  0
INSERT
  5
DC
100
AcDbEntity
  8
0
390
0
100
AcDbBlockReference
  2
ZU_SYM__USERS_HOME_SYMBOL_POO_SYM_B20_0000118
 10
-33.901269
 20
-214.073158
 30
0.0
  0
ARC
  5
DD
100
AcDbEntity
  8
0
370
    -3
390
0
  6
Continuous
100
AcDbCircle
 10
-85.401269
 20
-172.250086
 30
0.0
 40
5.0
100
AcDbArc
 50
0.0
 51
93.0
  0
ARC
  5
DE
100
AcDbEntity
  8
0
370
    -3
390
0
  6
Continuous
100
AcDbCircle
 10
-75.401269
 20
-195.712769
 30
0.0
 40
5.0
100
AcDbArc
 50
180.0
 51
270.0
  0
ARC
  5
DF
100
AcDbEntity
  8
0
370
    -3
390
0
  6
Continuous
100
AcDbCircle
 10
-75.401269
 20
-206.712769
 30
0.0
 40
5.0
100
AcDbArc
 50
180.0
 51
270.0
  0
LINE
  5
E0
100
AcDbEntity
  8
0
370
    -3
390
0
  6
Continuous
100
AcDbLine
 10
-103.901269
 20
-168.212769
 30
0.0
 11
-85.662949
 21
-167.256939
 31
0.0
  0
LINE
  5
E1
100
AcDbEntity
  8
0
370
    -3
390
0
  6
Continuous
100
AcDbLine
 10
-80.401269
 20
-248.068108
 30
0.0
 11
-80.401269
 21
-172.250086
 31
0.0
  0
LINE
  5
E2
100
AcDbEntity
  8
0
370
    -3
390
0
  6
Continuous
100
AcDbLine
 10
-80.401269
 20
-206.712769
 30
0.0
 11
-80.401269
 21
-195.712769
 31
0.0
  0
ARC
  5
E3
100
AcDbEntity
  8
0
370
    -3
390
0
  6
Continuous
100
AcDbCircle
 10
-72.901269
 20
-265.620516
 30
0.0
 40
5.0
100
AcDbArc
 50
360.0
 51
90.0
  0
ARC
  5
E4
100
AcDbEntity
  8
0
370
    -3
390
0
  6
Continuous
100
AcDbCircle
 10
-36.901269
 20
-250.068108
 30
0.0
 40
3.0
100
AcDbArc
 50
270.0
 51
0.0
  0
ARC
  5
E5
100
AcDbEntity
  8
0
370
    -3
390
0
  6
Continuous
100
AcDbCircle
 10
-75.401269
 20
-248.068108
 30
0.0
 40
5.0
100
AcDbArc
 50
180.0
 51
270.0
  0
ARC
  5
E6
100
AcDbEntity
  8
0
370
    -3
390
0
  6
Continuous
100
AcDbCircle
 10
-30.901269
 20
-371.712769
 30
0.0
 40
3.0
100
AcDbArc
 50
180.0
 51
270.0
  0
ARC
  5
E7
100
AcDbEntity
  8
0
370
    -3
390
0
  6
Continuous
100
AcDbCircle
 10
-30.901269
 20
-374.712769
 30
0.0
 40
3.0
100
AcDbArc
 50
180.0
 51
270.0
  0
ARC
  5
E8
100
AcDbEntity
  8
0
370
    -3
390
0
  6
Continuous
100
AcDbCircle
 10
-72.901269
 20
-317.844272
 30
0.0
 40
5.0
100
AcDbArc
 50
0.0
 51
87.0
  0
ARC
  5
E9
100
AcDbEntity
  8
0
370
    -3
390
0
  6
Continuous
100
AcDbCircle
 10
-62.901269
 20
-336.186081
 30
0.0
 40
5.0
100
AcDbArc
 50
180.0
 51
267.0
  0
ARC
  5
EA
100
AcDbEntity
  8
0
370
    -3
390
0
  6
Continuous
100
AcDbCircle
 10
-20.735998
 20
-382.7807
 30
0.0
 40
5.0
100
AcDbArc
 50
15.825704
 51
87.0
  0
ARC
  5
EB
100
AcDbEntity
  8
0
370
    -3
390
0
  6
Continuous
100
AcDbCircle
 10
-4.401269
 20
-383.636767
 30
0.0
 40
5.0
100
AcDbArc
 50
51.702145
 51
87.0
  0
CIRCLE
  5
EC
100
AcDbEntity
  8
0
370
    -3
390
0
  6
Continuous
100
AcDbCircle
 10
34.098746
 20
-350.712769
 30
0.0
 40
15.0
  0
LINE
  5
ED
100
AcDbEntity
  8
0
370
    -3
390
0
  6
Continuous
100
AcDbLine
 10
-103.901269
 20
-260.620516
 30
0.0
 11
-72.901269
 21
-260.620516
 31
0.0
  0
LINE
  5
EE
100
AcDbEntity
  8
0
370
    -3
390
0
  6
Continuous
100
AcDbLine
 10
-36.901269
 20
-253.068108
 30
0.0
 11
-75.401269
 21
-253.068108
 31
0.0
  0
LINE
  5
EF
100
AcDbEntity
  8
0
370
    -3
390
0
  6
Continuous
100
AcDbLine
 10
-23.901269
 20
-374.712769
 30
0.0
 11
-30.901269
 21
-374.712769
 31
0.0
  0
LINE
  5
F0
100
AcDbEntity
  8
0
370
    -3
390
0
  6
Continuous
100
AcDbLine
 10
-103.901269
 20
-311.212769
 30
0.0
 11
-72.639589
 21
-312.851124
 31
0.0
  0
LINE
  5
F1
100
AcDbEntity
  8
0
370
    -3
390
0
  6
Continuous
100
AcDbLine
 10
-30.901269
 20
-377.712769
 30
0.0
 11
-23.901269
 21
-377.712769
 31
0.0
  0
LINE
  5
F2
100
AcDbEntity
  8
0
370
    -3
390
0
  6
Continuous
100
AcDbLine
 10
-67.901269
 20
-336.186081
 30
0.0
 11
-67.901269
 21
-265.620516
 31
0.0
  0
LINE
  5
F3
100
AcDbEntity
  8
0
370
    -3
390
0
  6
Continuous
100
AcDbLine
 10
-41.901268
 20
-342.293506
 30
0.0
 11
-63.162949
 21
-341.179229
 31
0.0
  0
LINE
  5
F4
100
AcDbEntity
  8
0
370
    -3
390
0
  6
Continuous
100
AcDbLine
 10
13.598731
 20
-277.712769
 30
0.0
 11
13.598731
 21
-444.712769
 31
0.0
  0
LINE
  5
F5
100
AcDbEntity
  8
0
370
    -3
390
0
  6
Continuous
100
AcDbLine
 10
0.598731
 20
-277.712769
 30
0.0
 11
0.598731
 21
-441.712769
 31
0.0
  0
LINE
  5
F6
100
AcDbEntity
  8
0
370
    -3
390
0
  6
Continuous
100
AcDbLine
 10
-23.901269
 20
-277.712769
 30
0.0
 11
-23.901269
 21
-377.607953
 31
0.0
  0
LINE
  5
F7
100
AcDbEntity
  8
0
370
    -3
390
0
  6
Continuous
100
AcDbLine
 10
-4.139589
 20
-378.643619
 30
0.0
 11
-23.901269
 21
-377.607953
 31
0.0
  0
LINE
  5
F8
100
AcDbEntity
  8
0
370
    -3
390
0
  6
CENTER
100
AcDbLine
 10
34.098731
 20
-330.644751
 30
0.0
 11
34.098731
 21
-372.817275
 31
0.0
  0
LINE
  5
F9
100
AcDbEntity
  8
0
370
    -3
390
0
  6
CENTER
100
AcDbLine
 10
53.644162
 20
-350.712769
 30
0.0
 11
15.68889
 21
-350.712769
 31
0.0
  0
INSERT
  5
105
100
AcDbEntity
  8
0
390
0
100
AcDbBlockReference
  2
ZU_SYM__USERS_HOME_SYMBOL_POO_SYM_B20_0000220
 10
0.598731
 20
-248.712769
 30
0.0
  0
INSERT
  5
111
100
AcDbEntity
  8
0
390
0
100
AcDbBlockReference
  2
ZU_SYM__USERS_HOME_SYMBOL_POO_SYM_B20_0000318
 10
-33.901269
 20
-341.352379
 30
0.0
  0
ARC
  5
112
100
AcDbEntity
  8
0
370
    -3
390
0
  6
Continuous
100
AcDbCircle
 10
3.598731
 20
-441.712769
 30
0.0
 40
3.0
100
AcDbArc
 50
180.0
 51
270.0
  0
LINE
  5
113
100
AcDbEntity
  8
0
370
    -3
390
0
  6
Continuous
100
AcDbLine
 10
3.598731
 20
-444.712769
 30
0.0
 11
14.098731
 21
-444.712769
 31
0.0
  0
LINE
  5
114
100
AcDbEntity
  8
0
370
    -3
390
0
  6
Continuous
100
AcDbLine
 10
-15.925519
 20
-381.41714
 30
0.0
 11
-3.936566
 21
-423.712769
 31
0.0
  0
LINE
  5
115
100
AcDbEntity
  8
0
370
    -3
390
0
  6
Continuous
100
AcDbLine
 10
14.098731
 20
-444.712769
 30
0.0
 11
179.957642
 21
-450.566613
 31
0.0
  0
LINE
  5
116
100
AcDbEntity
  8
0
370
    -3
390
0
  6
Continuous
100
AcDbLine
 10
14.098731
 20
-397.689239
 30
0.0
 11
172.275092
 21
-403.271934
 31
0.0
  0
INSERT
  5
122
100
AcDbEntity
  8
0
390
0
100
AcDbBlockReference
  2
ZU_SYM__USERS_HOME_SYMBOL_POO_SYM_B20_0000420
 10
0.598731
 20
-388.712769
 30
0.0
  0
INSERT
  5
12E
100
AcDbEntity
  8
0
390
0
100
AcDbBlockReference
  2
ZU_SYM__USERS_HOME_SYMBOL_POO_SYM_B20_0000520
 10
0.598731
 20
-432.712769
 30
0.0
  0
LINE
  5
12F
100
AcDbEntity
  8
0
370
    -3
390
0
  6
CENTER
100
AcDbLine
 10
210.518324
 20
-412.167134
 30
0.0
 11
171.162196
 21
-412.167134
 31
0.0
  0
ARC
  5
130
100
AcDbEntity
  8
0
370
    -3
390
0
  6
Continuous
100
AcDbCircle
 10
187.098731
 20
-445.712769
 30
0.0
 40
3.0
100
AcDbArc
 50
90.0
 51
180.0
  0
ARC
  5
131
100
AcDbEntity
  8
0
370
    -3
390
0
  6
Continuous
100
AcDbCircle
 10
180.098731
 20
-446.569102
 30
0.0
 40
4.0
100
AcDbArc
 50
267.978635
 51
0.0
  0
ARC
  5
132
100
AcDbEntity
  8
0
370
    -3
390
0
  6
Continuous
100
AcDbCircle
 10
180.098731
 20
-439.712769
 30
0.0
 40
3.0
100
AcDbArc
 50
180.0
 51
270.0
  0
ARC
  5
133
100
AcDbEntity
  8
0
370
    -3
390
0
  6
Continuous
100
AcDbCircle
 10
133.098731
 20
-406.892352
 30
0.0
 40
5.0
100
AcDbArc
 50
0.0
 51
87.978635
  0
ARC
  5
134
100
AcDbEntity
  8
0
370
    -3
390
0
  6
Continuous
100
AcDbCircle
 10
172.098731
 20
-408.268823
 30
0.0
 40
5.0
100
AcDbArc
 50
0.0
 51
87.978635
  0
ARC
  5
135
100
AcDbEntity
  8
0
370
    -3
390
0
  6
Continuous
100
AcDbCircle
 10
157.098731
 20
-415.712769
 30
0.0
 40
19.0
100
AcDbArc
 50
180.0
 51
267.0
  0
ARC
  5
136
100
AcDbEntity
  8
0
370
    -3
390
0
  6
Continuous
100
AcDbCircle
 10
175.098731
 20
-437.684928
 30
0.0
 40
2.0
100
AcDbArc
 50
0.0
 51
87.0
  0
ARC
  5
137
100
AcDbEntity
  8
0
370
    -3
390
0
  6
Continuous
100
AcDbCircle
 10
193.098731
 20
-391.215294
 30
0.0
 40
2.0
100
AcDbArc
 50
180.0
 51
270.0
  0
ARC
  5
138
100
AcDbEntity
  8
0
370
    -3
390
0
  6
Continuous
100
AcDbCircle
 10
193.098731
 20
-340.964031
 30
0.0
 40
2.0
100
AcDbArc
 50
180.0
 51
270.0
  0
LINE
  5
139
100
AcDbEntity
  8
0
370
    -3
390
0
  6
Continuous
100
AcDbLine
 10
206.098731
 20
-426.712769
 30
0.0
 11
205.098731
 21
-427.712769
 31
0.0
  0
LINE
  5
13A
100
AcDbEntity
  8
0
370
    -3
390
0
  6
Continuous
100
AcDbLine
 10
184.098731
 20
-445.712769
 30
0.0
 11
184.098731
 21
-446.569102
 31
0.0
  0
LINE
  5
13B
100
AcDbEntity
  8
0
370
    -3
390
0
  6
Continuous
100
AcDbLine
 10
180.098731
 20
-442.712769
 30
0.0
 11
201.098731
 21
-442.712769
 31
0.0
  0
LINE
  5
13C
100
AcDbEntity
  8
0
370
    -3
390
0
  6
Continuous
100
AcDbLine
 10
205.098731
 20
-427.712769
 30
0.0
 11
201.098731
 21
-427.712769
 31
0.0
  0
LINE
  5
13D
100
AcDbEntity
  8
0
370
    -3
390
0
  6
Continuous
100
AcDbLine
 10
206.098731
 20
-217.712769
 30
0.0
 11
206.098731
 21
-426.712769
 31
0.0
  0
LINE
  5
13E
100
AcDbEntity
  8
0
370
    -3
390
0
  6
Continuous
100
AcDbLine
 10
201.098731
 20
-217.712769
 30
0.0
 11
201.098731
 21
-442.712769
 31
0.0
  0
LINE
  5
13F
100
AcDbEntity
  8
0
370
    -3
390
0
  6
Continuous
100
AcDbLine
 10
177.098731
 20
-439.712769
 30
0.0
 11
177.098731
 21
4.287231
 31
0.0
  0
LINE
  5
140
100
AcDbEntity
  8
0
370
    -3
390
0
  6
Continuous
100
AcDbLine
 10
138.098731
 20
-415.712769
 30
0.0
 11
138.098731
 21
-406.892352
 31
0.0
  0
LINE
  5
141
100
AcDbEntity
  8
0
370
    -3
390
0
  6
Continuous
100
AcDbLine
 10
156.104348
 20
-434.68673
 30
0.0
 11
175.203403
 21
-435.687669
 31
0.0
  0
LINE
  5
142
100
AcDbEntity
  8
0
370
    -3
390
0
  6
CENTER
100
AcDbLine
 10
157.098731
 20
-440.167504
 30
0.0
 11
157.098731
 21
-455.524988
 31
0.0
  0
LINE
  5
143
100
AcDbEntity
  8
0
370
    -3
390
0
  6
Continuous
100
AcDbLine
 10
201.098731
 20
-342.964031
 30
0.0
 11
193.098731
 21
-342.964031
 31
0.0
  0
LINE
  5
144
100
AcDbEntity
  8
0
370
    -3
390
0
  6
Continuous
100
AcDbLine
 10
201.098731
 20
-393.215294
 30
0.0
 11
193.098731
 21
-393.215294
 31
0.0
  0
LINE
  5
145
100
AcDbEntity
  8
0
370
    -3
390
0
  6
Continuous
100
AcDbLine
 10
191.098731
 20
-224.712769
 30
0.0
 11
191.098731
 21
-391.215294
 31
0.0
  0
LINE
  5
146
100
AcDbEntity
  8
0
370
    -3
390
0
  6
CENTER
100
AcDbLine
 10
209.36079
 20
-23.258404
 30
0.0
 11
172.994957
 21
-23.258404
 31
0.0
  0
ARC
  5
147
100
AcDbEntity
  8
0
370
    -3
390
0
  6
Continuous
100
AcDbCircle
 10
172.098731
 20
-1.373023
 30
0.0
 40
5.0
100
AcDbArc
 50
330.0
 51
0.0
  0
ARC
  5
148
100
AcDbEntity
  8
0
370
    -3
390
0
  6
Continuous
100
AcDbCircle
 10
180.098731
 20
4.287231
 30
0.0
 40
3.0
100
AcDbArc
 50
90.0
 51
180.0
  0
ARC
  5
149
100
AcDbEntity
  8
0
370
    -3
390
0
  6
Continuous
100
AcDbCircle
 10
206.098731
 20
-294.865875
 30
0.0
 40
3.0
100
AcDbArc
 50
273.0
 51
0.0
  0
ARC
  5
14A
100
AcDbEntity
  8
0
370
    -3
390
0
  6
Continuous
100
AcDbCircle
 10
206.098731
 20
-140.559662
 30
0.0
 40
3.0
100
AcDbArc
 50
0.0
 51
87.0
  0
ARC
  5
14B
100
AcDbEntity
  8
0
370
    -3
390
0
  6
Continuous
100
AcDbCircle
 10
210.098731
 20
-271.212769
 30
0.0
 40
1.0
100
AcDbArc
 50
90.0
 51
180.0
  0
ARC
  5
14C
100
AcDbEntity
  8
0
370
    -3
390
0
  6
Continuous
100
AcDbCircle
 10
210.098731
 20
-164.212769
 30
0.0
 40
1.0
100
AcDbArc
 50
180.0
 51
270.0
  0
ARC
  5
14D
100
AcDbEntity
  8
0
370
    -3
390
0
  6
Continuous
100
AcDbCircle
 10
193.098731
 20
-210.712769
 30
0.0
 40
2.0
100
AcDbArc
 50
180.0
 51
270.0
  0
ARC
  5
14E
100
AcDbEntity
  8
0
370
    -3
390
0
  6
Continuous
100
AcDbCircle
 10
193.098731
 20
-94.461506
 30
0.0
 40
2.0
100
AcDbArc
 50
90.0
 51
180.0
  0
ARC
  5
14F
100
AcDbEntity
  8
0
370
    -3
390
0
  6
Continuous
100
AcDbCircle
 10
193.098731
 20
-44.210243
 30
0.0
 40
2.0
100
AcDbArc
 50
90.0
 51
180.0
  0
ARC
  5
150
100
AcDbEntity
  8
0
370
    -3
390
0
  6
Continuous
100
AcDbCircle
 10
193.098731
 20
-224.712769
 30
0.0
 40
2.0
100
AcDbArc
 50
90.0
 51
180.0
  0
ARC
  5
151
100
AcDbEntity
  8
0
370
    -3
390
0
  6
Continuous
100
AcDbCircle
 10
172.098731
 20
-54.069676
 30
0.0
 40
5.0
100
AcDbArc
 50
321.55054
 51
0.0
  0
ARC
  5
152
100
AcDbEntity
  8
0
370
    -3
390
0
  6
Continuous
100
AcDbCircle
 10
172.098731
 20
-47.327255
 30
0.0
 40
5.0
100
AcDbArc
 50
321.55054
 51
0.0
  0
ARC
  5
153
100
AcDbEntity
  8
0
370
    -3
390
0
  6
Continuous
100
AcDbCircle
 10
243.098716
 20
-217.712769
 30
0.0
 40
9.0
100
AcDbArc
 50
90.0
 51
270.0
  0
ARC
  5
154
100
AcDbEntity
  8
0
370
    -3
390
0
  6
Continuous
100
AcDbCircle
 10
216.898716
 20
-248.362769
 30
0.0
 40
0.8
100
AcDbArc
 50
90.0
 51
180.0
  0
ARC
  5
155
100
AcDbEntity
  8
0
370
    -3
390
0
  6
Continuous
100
AcDbCircle
 10
216.898716
 20
-187.062769
 30
0.0
 40
0.8
100
AcDbArc
 50
180.0
 51
270.0
  0
ARC
  5
156
100
AcDbEntity
  8
0
370
    -3
390
0
  6
Continuous
100
AcDbCircle
 10
305.298716
 20
-246.912769
 30
0.0
 40
0.8
100
AcDbArc
 50
270.0
 51
0.0
  0
ARC
  5
157
100
AcDbEntity
  8
0
370
    -3
390
0
  6
Continuous
100
AcDbCircle
 10
305.298716
 20
-188.512769
 30
0.0
 40
0.8
100
AcDbArc
 50
0.0
 51
90.0
  0
LINE
  5
158
100
AcDbEntity
  8
0
370
    -3
390
0
  6
Continuous
100
AcDbLine
 10
205.098731
 20
-7.712769
 30
0.0
 11
206.098731
 21
-8.712769
 31
0.0
  0
LINE
  5
159
100
AcDbEntity
  8
0
370
    -3
390
0
  6
Continuous
100
AcDbLine
 10
176.428858
 20
-3.873023
 30
0.0
 11
131.764637
 21
-81.233724
 31
0.0
  0
LINE
  5
15A
100
AcDbEntity
  8
0
370
    -3
390
0
  6
Continuous
100
AcDbLine
 10
191.098731
 20
-210.712769
 30
0.0
 11
191.098731
 21
-44.210243
 31
0.0
  0
LINE
  5
15B
100
AcDbEntity
  8
0
370
    -3
390
0
  6
Continuous
100
AcDbLine
 10
211.098731
 20
-270.212769
 30
0.0
 11
210.098731
 21
-270.212769
 31
0.0
  0
LINE
  5
15C
100
AcDbEntity
  8
0
370
    -3
390
0
  6
Continuous
100
AcDbLine
 10
211.098731
 20
-165.212769
 30
0.0
 11
210.098731
 21
-165.212769
 31
0.0
  0
LINE
  5
15D
100
AcDbEntity
  8
0
370
    -3
390
0
  6
CENTER
100
AcDbLine
 10
315.263736
 20
-217.712769
 30
0.0
 11
131.855025
 21
-217.712769
 31
0.0
  0
LINE
  5
15E
100
AcDbEntity
  8
0
370
    -3
390
0
  6
Continuous
100
AcDbLine
 10
209.098731
 20
-217.712769
 30
0.0
 11
209.098731
 21
-140.559662
 31
0.0
  0
LINE
  5
15F
100
AcDbEntity
  8
0
370
    -3
390
0
  6
Continuous
100
AcDbLine
 10
206.098731
 20
-217.712769
 30
0.0
 11
206.098731
 21
-8.712769
 31
0.0
  0
LINE
  5
160
100
AcDbEntity
  8
0
370
    -3
390
0
  6
Continuous
100
AcDbLine
 10
201.098731
 20
7.287231
 30
0.0
 11
180.098731
 21
7.287231
 31
0.0
  0
LINE
  5
161
100
AcDbEntity
  8
0
370
    -3
390
0
  6
Continuous
100
AcDbLine
 10
205.098731
 20
-7.712769
 30
0.0
 11
201.098731
 21
-7.712769
 31
0.0
  0
LINE
  5
162
100
AcDbEntity
  8
0
370
    -3
390
0
  6
Continuous
100
AcDbLine
 10
201.098731
 20
-217.712769
 30
0.0
 11
201.098731
 21
7.287231
 31
0.0
  0
LINE
  5
163
100
AcDbEntity
  8
0
370
    -3
390
0
  6
Continuous
100
AcDbLine
 10
209.098731
 20
-217.712769
 30
0.0
 11
209.098731
 21
-294.865875
 31
0.0
  0
LINE
  5
164
100
AcDbEntity
  8
0
370
    -3
390
0
  6
Continuous
100
AcDbLine
 10
211.098731
 20
-270.212769
 30
0.0
 11
211.098731
 21
-165.212769
 31
0.0
  0
LINE
  5
165
100
AcDbEntity
  8
0
370
    -3
390
0
  6
Continuous
100
AcDbLine
 10
206.255739
 20
-137.563774
 30
0.0
 11
206.098731
 21
-137.563774
 31
0.0
  0
LINE
  5
166
100
AcDbEntity
  8
0
370
    -3
390
0
  6
Continuous
100
AcDbLine
 10
206.255739
 20
-297.861764
 30
0.0
 11
206.098731
 21
-297.861764
 31
0.0
  0
LINE
  5
167
100
AcDbEntity
  8
0
370
    -3
390
0
  6
Continuous
100
AcDbLine
 10
201.098731
 20
-42.210243
 30
0.0
 11
193.098731
 21
-42.210243
 31
0.0
  0
LINE
  5
168
100
AcDbEntity
  8
0
370
    -3
390
0
  6
Continuous
100
AcDbLine
 10
201.098731
 20
-92.461506
 30
0.0
 11
193.098731
 21
-92.461506
 31
0.0
  0
LINE
  5
169
100
AcDbEntity
  8
0
370
    -3
390
0
  6
Continuous
100
AcDbLine
 10
201.098731
 20
-212.712769
 30
0.0
 11
193.098731
 21
-212.712769
 31
0.0
  0
LINE
  5
16A
100
AcDbEntity
  8
0
370
    -3
390
0
  6
Continuous
100
AcDbLine
 10
201.098731
 20
-222.712769
 30
0.0
 11
193.098731
 21
-222.712769
 31
0.0
  0
LINE
  5
16B
100
AcDbEntity
  8
0
370
    -3
390
0
  6
Continuous
100
AcDbLine
 10
169.942148
 20
-114.668192
 30
0.0
 11
137.281516
 21
-114.668192
 31
0.0
  0
LINE
  5
16C
100
AcDbEntity
  8
0
370
    -3
390
0
  6
Continuous
100
AcDbLine
 10
131.869478
 20
-112.777312
 30
0.0
 11
176.014516
 21
-57.178797
 31
0.0
  0
LINE
  5
16D
100
AcDbEntity
  8
0
370
    -3
390
0
  6
Continuous
100
AcDbLine
 10
131.869478
 20
-106.034891
 30
0.0
 11
176.014516
 21
-50.436376
 31
0.0
  0
LINE
  5
16E
100
AcDbEntity
  8
0
370
    -3
390
0
  6
Continuous
100
AcDbLine
 10
243.098716
 20
-226.712769
 30
0.0
 11
306.098716
 21
-226.712769
 31
0.0
  0
LINE
  5
16F
100
AcDbEntity
  8
0
370
    -3
390
0
  6
Continuous
100
AcDbLine
 10
243.098716
 20
-208.712769
 30
0.0
 11
306.098716
 21
-208.712769
 31
0.0
  0
LINE
  5
170
100
AcDbEntity
  8
0
370
    -3
390
0
  6
Continuous
100
AcDbLine
 10
215.298716
 20
-249.212769
 30
0.0
 11
211.098716
 21
-249.212769
 31
0.0
  0
LINE
  5
171
100
AcDbEntity
  8
0
370
    -3
390
0
  6
Continuous
100
AcDbLine
 10
305.298716
 20
-247.712769
 30
0.0
 11
218.658523
 21
-247.712769
 31
0.0
  0
LINE
  5
172
100
AcDbEntity
  8
0
370
    -3
390
0
  6
Continuous
100
AcDbLine
 10
216.098716
 20
-217.712769
 30
0.0
 11
216.098716
 21
-248.412769
 31
0.0
  0
LINE
  5
173
100
AcDbEntity
  8
0
370
    -3
390
0
  6
Continuous
100
AcDbLine
 10
216.098716
 20
-248.412769
 30
0.0
 11
215.298716
 21
-249.212769
 31
0.0
  0
LINE
  5
174
100
AcDbEntity
  8
0
370
    -3
390
0
  6
Continuous
100
AcDbLine
 10
218.658523
 20
-247.712769
 30
0.0
 11
218.098716
 21
-247.562769
 31
0.0
  0
LINE
  5
175
100
AcDbEntity
  8
0
370
    -3
390
0
  6
Continuous
100
AcDbLine
 10
218.098716
 20
-247.562769
 30
0.0
 11
216.898716
 21
-247.562769
 31
0.0
  0
LINE
  5
176
100
AcDbEntity
  8
0
370
    -3
390
0
  6
Continuous
100
AcDbLine
 10
215.298716
 20
-186.212769
 30
0.0
 11
211.098716
 21
-186.212769
 31
0.0
  0
LINE
  5
177
100
AcDbEntity
  8
0
370
    -3
390
0
  6
Continuous
100
AcDbLine
 10
216.098716
 20
-217.712769
 30
0.0
 11
216.098716
 21
-187.012769
 31
0.0
  0
LINE
  5
178
100
AcDbEntity
  8
0
370
    -3
390
0
  6
Continuous
100
AcDbLine
 10
216.098716
 20
-187.012769
 30
0.0
 11
215.298716
 21
-186.212769
 31
0.0
  0
LINE
  5
179
100
AcDbEntity
  8
0
370
    -3
390
0
  6
Continuous
100
AcDbLine
 10
218.658523
 20
-187.712769
 30
0.0
 11
218.098716
 21
-187.862769
 31
0.0
  0
LINE
  5
17A
100
AcDbEntity
  8
0
370
    -3
390
0
  6
Continuous
100
AcDbLine
 10
218.098716
 20
-187.862769
 30
0.0
 11
216.898716
 21
-187.862769
 31
0.0
  0
LINE
  5
17B
100
AcDbEntity
  8
0
370
    -3
390
0
  6
Continuous
100
AcDbLine
 10
306.098716
 20
-217.712769
 30
0.0
 11
306.098716
 21
-246.912769
 31
0.0
  0
LINE
  5
17C
100
AcDbEntity
  8
0
370
    -3
390
0
  6
Continuous
100
AcDbLine
 10
306.098716
 20
-217.712769
 30
0.0
 11
306.098716
 21
-188.512769
 31
0.0
  0
LINE
  5
17D
100
AcDbEntity
  8
0
370
    -3
390
0
  6
Continuous
100
AcDbLine
 10
305.298716
 20
-187.712769
 30
0.0
 11
218.658523
 21
-187.712769
 31
0.0
  0
LINE
  5
17E
100
AcDbEntity
  8
0
370
    -3
390
0
  6
Continuous
100
AcDbLine
 10
48.598731
 20
-85.276392
 30
0.0
 11
39.098731
 21
-85.276392
 31
0.0
  0
ARC
  5
17F
100
AcDbEntity
  8
0
370
    -3
390
0
  6
Continuous
100
AcDbCircle
 10
48.598731
 20
-83.776392
 30
0.0
 40
1.5
100
AcDbArc
 50
270.0
 51
0.0
  0
LINE
  5
180
100
AcDbEntity
  8
0
370
    -3
390
0
  6
Continuous
100
AcDbLine
 10
54.348731
 20
-82.276392
 30
0.0
 11
39.098731
 21
-82.276392
 31
0.0
  0
LINE
  5
181
100
AcDbEntity
  8
0
370
    -3
390
0
  6
Continuous
100
AcDbLine
 10
52.098731
 20
-65.276392
 30
0.0
 11
53.598731
 21
-67.276392
 31
0.0
  0
LINE
  5
182
100
AcDbEntity
  8
0
370
    -3
390
0
  6
Continuous
100
AcDbLine
 10
55.098731
 20
-78.276392
 30
0.0
 11
55.098731
 21
-67.276392
 31
0.0
  0
LINE
  5
183
100
AcDbEntity
  8
0
370
    -3
390
0
  6
Continuous
100
AcDbLine
 10
55.098731
 20
-78.276392
 30
0.0
 11
39.098731
 21
-78.276392
 31
0.0
  0
LINE
  5
184
100
AcDbEntity
  8
0
370
    -3
390
0
  6
Continuous
100
AcDbLine
 10
52.098731
 20
-65.276392
 30
0.0
 11
53.598731
 21
-67.276392
 31
0.0
  0
LINE
  5
185
100
AcDbEntity
  8
0
370
    -3
390
0
  6
Continuous
100
AcDbLine
 10
55.098731
 20
-78.276392
 30
0.0
 11
55.098731
 21
-67.276392
 31
0.0
  0
LINE
  5
186
100
AcDbEntity
  8
0
370
    -3
390
0
  6
Continuous
100
AcDbLine
 10
55.098731
 20
-77.276392
 30
0.0
 11
54.615398
 21
-77.276392
 31
0.0
  0
LINE
  5
187
100
AcDbEntity
  8
0
370
    -3
390
0
  6
Continuous
100
AcDbLine
 10
54.348731
 20
-79.276392
 30
0.0
 11
54.348731
 21
-82.276392
 31
0.0
  0
ARC
  5
188
100
AcDbEntity
  8
0
370
    -3
390
0
  6
Continuous
100
AcDbCircle
 10
48.598731
 20
-83.776392
 30
0.0
 40
1.5
100
AcDbArc
 50
0.0
 51
90.0
  0
LINE
  5
189
100
AcDbEntity
  8
0
370
    -3
390
0
  6
Continuous
100
AcDbLine
 10
43.001686
 20
-67.276392
 30
0.0
 11
43.001686
 21
-77.276392
 31
0.0
  0
LINE
  5
18A
100
AcDbEntity
  8
0
370
    -3
390
0
  6
Continuous
100
AcDbLine
 10
47.310866
 20
-67.276392
 30
0.0
 11
47.310866
 21
-77.276392
 31
0.0
  0
LINE
  5
18B
100
AcDbEntity
  8
0
370
    -3
390
0
  6
Continuous
100
AcDbLine
 10
52.830477
 20
-67.276392
 30
0.0
 11
52.830477
 21
-77.276392
 31
0.0
  0
LINE
  5
18C
100
AcDbEntity
  8
0
370
    -3
390
0
  6
Continuous
100
AcDbLine
 10
54.615398
 20
-67.276392
 30
0.0
 11
54.615398
 21
-77.276392
 31
0.0
  0
LINE
  5
18D
100
AcDbEntity
  8
0
370
    -3
390
0
  6
Continuous
100
AcDbLine
 10
52.830477
 20
-77.276392
 30
0.0
 11
47.310866
 21
-77.276392
 31
0.0
  0
LINE
  5
18E
100
AcDbEntity
  8
0
370
    -3
390
0
  6
Continuous
100
AcDbLine
 10
52.098731
 20
-65.276392
 30
0.0
 11
39.098731
 21
-65.276392
 31
0.0
  0
LINE
  5
18F
100
AcDbEntity
  8
0
370
    -3
390
0
  6
Continuous
100
AcDbLine
 10
55.098731
 20
-67.276392
 30
0.0
 11
39.098731
 21
-67.276392
 31
0.0
  0
LINE
  5
190
100
AcDbEntity
  8
0
370
    -3
390
0
  6
Continuous
100
AcDbLine
 10
43.001686
 20
-77.276392
 30
0.0
 11
39.098731
 21
-77.276392
 31
0.0
  0
LINE
  5
191
100
AcDbEntity
  8
0
370
    -3
390
0
  6
Continuous
100
AcDbLine
 10
54.348731
 20
-79.276392
 30
0.0
 11
39.098731
 21
-79.276392
 31
0.0
  0
LINE
  5
192
100
AcDbEntity
  8
0
370
    -3
390
0
  6
Continuous
100
AcDbLine
 10
35.195776
 20
-67.276392
 30
0.0
 11
35.195776
 21
-77.276392
 31
0.0
  0
LINE
  5
193
100
AcDbEntity
  8
0
370
    -3
390
0
  6
Continuous
100
AcDbLine
 10
35.195776
 20
-77.276392
 30
0.0
 11
39.098731
 21
-77.276392
 31
0.0
  0
ARC
  5
194
100
AcDbEntity
  8
0
370
    -3
390
0
  6
Continuous
100
AcDbCircle
 10
127.43451
 20
-78.733724
 30
0.0
 40
5.0
100
AcDbArc
 50
271.0
 51
330.0
  0
ARC
  5
195
100
AcDbEntity
  8
0
370
    -3
390
0
  6
Continuous
100
AcDbCircle
 10
127.953693
 20
-109.668192
 30
0.0
 40
5.0
100
AcDbArc
 50
270.0
 51
321.55054
  0
ARC
  5
196
100
AcDbEntity
  8
0
370
    -3
390
0
  6
Continuous
100
AcDbCircle
 10
127.953693
 20
-102.925771
 30
0.0
 40
5.0
100
AcDbArc
 50
270.0
 51
321.55054
  0
LINE
  5
197
100
AcDbEntity
  8
0
370
    -3
390
0
  6
CENTER
100
AcDbLine
 10
39.098731
 20
-103.105614
 30
0.0
 11
39.098731
 21
-61.625675
 31
0.0
  0
LINE
  5
198
100
AcDbEntity
  8
0
370
    -3
390
0
  6
Continuous
100
AcDbLine
 10
26.098731
 20
-79.276392
 30
0.0
 11
26.098731
 21
-78.276392
 31
0.0
  0
LINE
  5
199
100
AcDbEntity
  8
0
370
    -3
390
0
  6
Continuous
100
AcDbLine
 10
52.098731
 20
-79.276392
 30
0.0
 11
52.098731
 21
-78.276392
 31
0.0
  0
LINE
  5
19A
100
AcDbEntity
  8
0
370
    -3
390
0
  6
CENTER
100
AcDbLine
 10
-236.901269
 20
-194.213169
 30
0.0
 11
-236.901269
 21
-306.866888
 31
0.0
  0
LINE
  5
19B
100
AcDbEntity
  8
0
370
    -3
390
0
  6
Continuous
100
AcDbLine
 10
-201.451269
 20
-300.71888
 30
0.0
 11
-236.901269
 21
-300.71888
 31
0.0
  0
ARC
  5
19C
100
AcDbEntity
  8
0
370
    -3
390
0
  6
Continuous
100
AcDbCircle
 10
-201.851269
 20
-284.288723
 30
0.0
 40
5.0
100
AcDbArc
 50
270.0
 51
0.0
  0
LINE
  5
19D
100
AcDbEntity
  8
0
370
    -3
390
0
  6
Continuous
100
AcDbLine
 10
-228.413795
 20
-289.288723
 30
0.0
 11
-201.851269
 21
-289.288723
 31
0.0
  0
ARC
  5
19E
100
AcDbEntity
  8
0
370
    -3
390
0
  6
Continuous
100
AcDbCircle
 10
-201.451269
 20
-289.71888
 30
0.0
 40
11.0
100
AcDbArc
 50
270.0
 51
0.0
  0
ARC
  5
19F
100
AcDbEntity
  8
0
370
    -3
390
0
  6
Continuous
100
AcDbCircle
 10
-201.451269
 20
-288.49867
 30
0.0
 40
11.0
100
AcDbArc
 50
270.0
 51
0.0
  0
LINE
  5
1A0
100
AcDbEntity
  8
0
370
    -3
390
0
  6
Continuous
100
AcDbLine
 10
-201.451269
 20
-299.49867
 30
0.0
 11
-236.901269
 21
-299.49867
 31
0.0
  0
LINE
  5
1A1
100
AcDbEntity
  8
0
370
    -3
390
0
  6
Continuous
100
AcDbLine
 10
-190.451269
 20
-208.116161
 30
0.0
 11
-190.451269
 21
-289.71888
 31
0.0
  0
LINE
  5
1A2
100
AcDbEntity
  8
0
370
    -3
390
0
  6
Continuous
100
AcDbLine
 10
-196.851269
 20
-208.210979
 30
0.0
 11
-196.851269
 21
-284.288723
 31
0.0
  0
ARC
  5
1A3
100
AcDbEntity
  8
0
370
    -3
390
0
  6
Continuous
100
AcDbCircle
 10
-201.451269
 20
-208.116161
 30
0.0
 40
11.0
100
AcDbArc
 50
0.0
 51
90.0
  0
LINE
  5
1A4
100
AcDbEntity
  8
0
370
    -3
390
0
  6
Continuous
100
AcDbLine
 10
-201.451269
 20
-197.116161
 30
0.0
 11
-236.901269
 21
-197.116161
 31
0.0
  0
ARC
  5
1A5
100
AcDbEntity
  8
0
370
    -3
390
0
  6
Continuous
100
AcDbCircle
 10
-201.851269
 20
-214.712769
 30
0.0
 40
5.0
100
AcDbArc
 50
0.0
 51
90.0
  0
LINE
  5
1A6
100
AcDbEntity
  8
0
370
    -3
390
0
  6
Continuous
100
AcDbLine
 10
-236.901269
 20
-209.712769
 30
0.0
 11
-201.851269
 21
-209.712769
 31
0.0
  0
ARC
  5
1A7
100
AcDbEntity
  8
0
370
    -3
390
0
  6
Continuous
100
AcDbCircle
 10
-201.851269
 20
-208.210979
 30
0.0
 40
5.0
100
AcDbArc
 50
0.0
 51
90.0
  0
LINE
  5
1A8
100
AcDbEntity
  8
0
370
    -3
390
0
  6
Continuous
100
AcDbLine
 10
-236.901269
 20
-203.210979
 30
0.0
 11
-201.851269
 21
-203.210979
 31
0.0
  0
ARC
  5
1A9
100
AcDbEntity
  8
0
370
    -3
390
0
  6
Continuous
100
AcDbCircle
 10
-227.641051
 20
-285.288723
 30
0.0
 40
4.0
100
AcDbArc
 50
221.178434
 51
270.0
  0
ELLIPSE
  5
1AA
100
AcDbEntity
  8
0
370
    -3
390
0
  6
Continuous
100
AcDbEllipse
 10
-236.901269
 20
-292.484857
 30
0.0
 11
8.0
 21
0.0
 31
0.0
210
0.0
220
0.0
230
1.0
 40
0.913545
 41
0.6742171987028656
 42
1.5707963267948966
  0
ARC
  5
1AB
100
AcDbEntity
  8
0
370
    -3
390
0
  6
Continuous
100
AcDbCircle
 10
-228.413795
 20
-285.288723
 30
0.0
 40
4.0
100
AcDbArc
 50
226.698421
 51
270.0
  0
ELLIPSE
  5
1AC
100
AcDbEntity
  8
0
370
    -3
390
0
  6
Continuous
100
AcDbEllipse
 10
-236.901269
 20
-293.286561
 30
0.0
 11
8.0
 21
0.0
 31
0.0
210
0.0
220
0.0
230
1.0
 40
0.913545
 41
0.7698500149202718
 42
1.5707963267948966
  0
ELLIPSE
  5
1AD
100
AcDbEntity
  8
0
370
    -3
390
0
  6
Continuous
100
AcDbEllipse
 10
-236.901269
 20
-293.031263
 30
0.0
 11
3.5
 21
0.0
 31
0.0
210
0.0
220
0.0
230
1.0
 40
0.986488
 41
0.0
 42
6.2831853071795862
  0
LINE
  5
1AE
100
AcDbEntity
  8
0
370
    -3
390
0
  6
Continuous
100
AcDbLine
 10
-238.901269
 20
-294.147667
 30
0.0
 11
-234.901269
 21
-290.493485
 31
0.0
  0
LINE
  5
1AF
100
AcDbEntity
  8
0
370
    -3
390
0
  6
Continuous
100
AcDbLine
 10
-234.901269
 20
-294.147667
 30
0.0
 11
-238.901269
 21
-290.493485
 31
0.0
  0
ELLIPSE
  5
1B0
100
AcDbEntity
  8
0
370
    -3
390
0
  6
Continuous
100
AcDbEllipse
 10
-236.901269
 20
-293.286561
 30
0.0
 11
8.0
 21
0.0
 31
0.0
210
0.0
220
0.0
230
1.0
 40
0.913545
 41
1.5707963267948966
 42
2.3717426386695215
  0
ARC
  5
1B1
100
AcDbEntity
  8
0
370
    -3
390
0
  6
Continuous
100
AcDbCircle
 10
-245.388743
 20
-285.288723
 30
0.0
 40
4.0
100
AcDbArc
 50
270.0
 51
313.301579
  0
ELLIPSE
  5
1B2
100
AcDbEntity
  8
0
370
    -3
390
0
  6
Continuous
100
AcDbEllipse
 10
-236.901269
 20
-292.484857
 30
0.0
 11
8.0
 21
0.0
 31
0.0
210
0.0
220
0.0
230
1.0
 40
0.913545
 41
1.5707963267948966
 42
2.4673754548869451
  0
ARC
  5
1B3
100
AcDbEntity
  8
0
370
    -3
390
0
  6
Continuous
100
AcDbCircle
 10
-246.161487
 20
-285.288723
 30
0.0
 40
4.0
100
AcDbArc
 50
270.0
 51
318.821566
  0
LINE
  5
1B4
100
AcDbEntity
  8
0
370
    -3
390
0
  6
Continuous
100
AcDbLine
 10
-245.388743
 20
-289.288723
 30
0.0
 11
-271.951269
 21
-289.288723
 31
0.0
  0
ARC
  5
1B5
100
AcDbEntity
  8
0
370
    -3
390
0
  6
Continuous
100
AcDbCircle
 10
-272.351269
 20
-289.71888
 30
0.0
 40
11.0
100
AcDbArc
 50
180.0
 51
270.0
  0
LINE
  5
1B6
100
AcDbEntity
  8
0
370
    -3
390
0
  6
Continuous
100
AcDbLine
 10
-272.351269
 20
-300.71888
 30
0.0
 11
-236.901269
 21
-300.71888
 31
0.0
  0
ARC
  5
1B7
100
AcDbEntity
  8
0
370
    -3
390
0
  6
Continuous
100
AcDbCircle
 10
-271.951269
 20
-284.288723
 30
0.0
 40
5.0
100
AcDbArc
 50
180.0
 51
270.0
  0
ARC
  5
1B8
100
AcDbEntity
  8
0
370
    -3
390
0
  6
Continuous
100
AcDbCircle
 10
-272.351269
 20
-288.49867
 30
0.0
 40
11.0
100
AcDbArc
 50
180.0
 51
270.0
  0
LINE
  5
1B9
100
AcDbEntity
  8
0
370
    -3
390
0
  6
Continuous
100
AcDbLine
 10
-272.351269
 20
-299.49867
 30
0.0
 11
-236.901269
 21
-299.49867
 31
0.0
  0
LINE
  5
1BA
100
AcDbEntity
  8
0
370
    -3
390
0
  6
Continuous
100
AcDbLine
 10
-283.351269
 20
-208.116161
 30
0.0
 11
-283.351269
 21
-289.71888
 31
0.0
  0
LINE
  5
1BB
100
AcDbEntity
  8
0
370
    -3
390
0
  6
Continuous
100
AcDbLine
 10
-276.951269
 20
-208.210979
 30
0.0
 11
-276.951269
 21
-284.288723
 31
0.0
  0
LINE
  5
1BC
100
AcDbEntity
  8
0
370
    -3
390
0
  6
Continuous
100
AcDbLine
 10
-272.351269
 20
-197.116161
 30
0.0
 11
-236.901269
 21
-197.116161
 31
0.0
  0
ARC
  5
1BD
100
AcDbEntity
  8
0
370
    -3
390
0
  6
Continuous
100
AcDbCircle
 10
-272.351269
 20
-208.116161
 30
0.0
 40
11.0
100
AcDbArc
 50
90.0
 51
180.0
  0
LINE
  5
1BE
100
AcDbEntity
  8
0
370
    -3
390
0
  6
Continuous
100
AcDbLine
 10
-236.901269
 20
-203.210979
 30
0.0
 11
-271.951269
 21
-203.210979
 31
0.0
  0
ARC
  5
1BF
100
AcDbEntity
  8
0
370
    -3
390
0
  6
Continuous
100
AcDbCircle
 10
-271.951269
 20
-208.210979
 30
0.0
 40
5.0
100
AcDbArc
 50
90.0
 51
180.0
  0
LINE
  5
1C0
100
AcDbEntity
  8
0
370
    -3
390
0
  6
Continuous
100
AcDbLine
 10
-236.901269
 20
-209.712769
 30
0.0
 11
-271.951269
 21
-209.712769
 31
0.0
  0
ARC
  5
1C1
100
AcDbEntity
  8
0
370
    -3
390
0
  6
Continuous
100
AcDbCircle
 10
-271.951269
 20
-214.712769
 30
0.0
 40
5.0
100
AcDbArc
 50
90.0
 51
180.0
  0
POINT
  5
1C2
100
AcDbEntity
  8
0
370
    -3
390
0
  6
CENTER
100
AcDbPoint
 10
-223.320339
 20
-299.15981
 30
0.0
  0
POINT
  5
1C3
100
AcDbEntity
  8
0
370
    -3
390
0
  6
CENTER
100
AcDbPoint
 10
-250.320339
 20
-299.15981
 30
0.0
  0
LINE
  5
1C4
100
AcDbEntity
  8
0
370
    -3
390
0
  6
CENTER
100
AcDbLine
 10
502.60125
 20
-278.3825
 30
0.0
 11
502.60125
 21
-294.698754
 31
0.0
  0
ARC
  5
1C5
100
AcDbEntity
  8
0
370
    -3
390
0
  6
DASHED
100
AcDbCircle
 10
484.719642
 20
-295.889676
 30
0.0
 40
9.0
100
AcDbArc
 50
139.398469
 51
172.601548
  0
ARC
  5
1C6
100
AcDbEntity
  8
0
370
    -3
390
0
  6
DASHED
100
AcDbCircle
 10
477.083747
 20
-294.898157
 30
0.0
 40
1.299999
100
AcDbArc
 50
172.601548
 51
246.000018
  0
LINE
  5
1C7
100
AcDbEntity
  8
0
370
    -3
390
0
  6
DASHED
100
AcDbLine
 10
481.530951
 20
-296.659252
 30
0.0
 11
485.048101
 21
-298.225188
 31
0.0
  0
LINE
  5
1C8
100
AcDbEntity
  8
0
370
    -3
390
0
  6
DASHED
100
AcDbLine
 10
483.157898
 20
-293.00507
 30
0.0
 11
486.675048
 21
-294.571006
 31
0.0
  0
ARC
  5
1C9
100
AcDbEntity
  8
0
370
    -3
390
0
  6
DASHED
100
AcDbCircle
 10
482.231236
 20
-283.835403
 30
0.0
 40
2.0
100
AcDbArc
 50
184.231338
 51
246.0
  0
ARC
  5
1CA
100
AcDbEntity
  8
0
370
    -3
390
0
  6
DASHED
100
AcDbCircle
 10
480.806563
 20
-286.485007
 30
0.0
 40
1.0
100
AcDbArc
 50
336.0
 51
66.0
  0
LINE
  5
1CB
100
AcDbEntity
  8
0
370
    -3
390
0
  6
DASHED
100
AcDbLine
 10
502.725541
 20
-239.712769
 30
0.0
 11
476.513879
 21
-298.585125
 31
0.0
  0
ARC
  5
1CC
100
AcDbEntity
  8
0
370
    -3
390
0
  6
DASHED
100
AcDbCircle
 10
477.427425
 20
-298.991862
 30
0.0
 40
1.0
100
AcDbArc
 50
156.0
 51
246.0
  0
LINE
  5
1CD
100
AcDbEntity
  8
0
370
    -3
390
0
  6
DASHED
100
AcDbLine
 10
477.020688
 20
-299.905407
 30
0.0
 11
479.578615
 21
-301.04427
 31
0.0
  0
LINE
  5
1CE
100
AcDbEntity
  8
0
370
    -3
390
0
  6
DASHED
100
AcDbLine
 10
521.60125
 20
-286.212769
 30
0.0
 11
486.182025
 21
-286.212769
 31
0.0
  0
ARC
  5
1CF
100
AcDbEntity
  8
0
370
    -3
390
0
  6
DASHED
100
AcDbCircle
 10
479.635201
 20
-289.115928
 30
0.0
 40
1.0
100
AcDbArc
 50
336.0
 51
4.715125
  0
ARC
  5
1D0
100
AcDbEntity
  8
0
370
    -3
390
0
  6
DASHED
100
AcDbCircle
 10
478.873388
 20
-290.878555
 30
0.0
 40
1.299999
100
AcDbArc
 50
65.999999
 51
139.398469
  0
LINE
  5
1D1
100
AcDbEntity
  8
0
370
    -3
390
0
  6
DASHED
100
AcDbLine
 10
480.29653
 20
-290.089152
 30
0.0
 11
479.402146
 21
-289.690947
 31
0.0
  0
LINE
  5
1D2
100
AcDbEntity
  8
0
370
    -3
390
0
  6
DASHED
100
AcDbLine
 10
477.449373
 20
-296.48397
 30
0.0
 11
476.554989
 21
-296.085765
 31
0.0
  0
POINT
  5
1D3
100
AcDbEntity
  8
0
370
    -3
390
0
  6
DASHED
100
AcDbPoint
 10
478.872952
 20
-293.286561
 30
0.0
  0
LINE
  5
1D4
100
AcDbEntity
  8
0
370
    -3
390
0
  6
DASHED
100
AcDbLine
 10
486.852431
 20
-295.033105
 30
0.0
 11
485.5102
 21
-298.047805
 31
0.0
  0
LINE
  5
1D5
100
AcDbEntity
  8
0
370
    -3
390
0
  6
DASHED
100
AcDbLine
 10
485.048101
 20
-298.225188
 30
0.0
 11
485.5102
 21
-298.047805
 31
0.0
  0
LINE
  5
1D6
100
AcDbEntity
  8
0
370
    -3
390
0
  6
DASHED
100
AcDbLine
 10
486.675048
 20
-294.571006
 30
0.0
 11
486.852431
 21
-295.033105
 31
0.0
  0
LINE
  5
1D7
100
AcDbEntity
  8
0
370
    -3
390
0
  6
DASHED
100
AcDbLine
 10
483.01554
 20
-293.324811
 30
0.0
 11
486.852431
 21
-295.033105
 31
0.0
  0
LINE
  5
1D8
100
AcDbEntity
  8
0
370
    -3
390
0
  6
DASHED
100
AcDbLine
 10
481.673309
 20
-296.339511
 30
0.0
 11
485.5102
 21
-298.047805
 31
0.0
  0
LINE
  5
1D9
100
AcDbEntity
  8
0
370
    -3
390
0
  6
DASHED
100
AcDbLine
 10
525.295814
 20
-198.36176
 30
0.0
 11
479.578615
 21
-301.04427
 31
0.0
  0
ARC
  5
1DA
100
AcDbEntity
  8
0
370
    -3
390
0
  6
DASHED
100
AcDbCircle
 10
1078.60125
 20
-239.712769
 30
0.0
 40
600.0
100
AcDbArc
 50
178.317231
 51
184.715125
  0
ARC
  5
1DB
100
AcDbEntity
  8
0
370
    -3
390
0
  6
DASHED
100
AcDbCircle
 10
493.853539
 20
-222.533873
 30
0.0
 40
15.0
100
AcDbArc
 50
99.318123
 51
178.317231
  0
LINE
  5
1DC
100
AcDbEntity
  8
0
370
    -3
390
0
  6
DASHED
100
AcDbLine
 10
517.380437
 20
-203.472975
 30
0.0
 11
491.424799
 21
-207.731805
 31
0.0
  0
ARC
  5
1DD
100
AcDbEntity
  8
0
370
    -3
390
0
  6
DASHED
100
AcDbCircle
 10
523.60125
 20
-207.021164
 30
0.0
 40
3.0
100
AcDbArc
 50
0.0
 51
66.0
  0
LINE
  5
1DE
100
AcDbEntity
  8
0
370
    -3
390
0
  6
DASHED
100
AcDbLine
 10
523.018089
 20
-203.477615
 30
0.0
 11
524.82146
 21
-204.280527
 31
0.0
  0
LINE
  5
1DF
100
AcDbEntity
  8
0
370
    -3
390
0
  6
DASHED
100
AcDbLine
 10
522.737887
 20
-197.222898
 30
0.0
 11
525.295814
 21
-198.36176
 31
0.0
  0
ARC
  5
1E0
100
AcDbEntity
  8
0
370
    -3
390
0
  6
DASHED
100
AcDbCircle
 10
516.894689
 20
-200.512562
 30
0.0
 40
3.0
100
AcDbArc
 50
279.318123
 51
336.0
  0
LINE
  5
1E1
100
AcDbEntity
  8
0
370
    -3
390
0
  6
DASHED
100
AcDbLine
 10
521.417605
 20
-197.729706
 30
0.0
 11
502.725541
 21
-239.712769
 31
0.0
  0
LINE
  5
1E2
100
AcDbEntity
  8
0
370
    -3
390
0
  6
DASHED
100
AcDbLine
 10
524.966653
 20
-201.056098
 30
0.0
 11
524.230249
 21
-201.368683
 31
0.0
  0
LINE
  5
1E3
100
AcDbEntity
  8
0
370
    -3
390
0
  6
DASHED
100
AcDbLine
 10
524.096907
 20
-201.054549
 30
0.0
 11
524.230249
 21
-201.368683
 31
0.0
  0
LINE
  5
1E4
100
AcDbEntity
  8
0
370
    -3
390
0
  6
DASHED
100
AcDbLine
 10
524.541821
 20
-200.055256
 30
0.0
 11
524.966653
 21
-201.056098
 31
0.0
  0
ARC
  5
1E5
100
AcDbEntity
  8
0
370
    -3
390
0
  6
DASHED
100
AcDbCircle
 10
522.33115
 20
-198.136443
 30
0.0
 40
1.0
100
AcDbArc
 50
66.0
 51
156.0
  0
LINE
  5
1E6
100
AcDbEntity
  8
0
370
    -3
390
0
  6
DASHED
100
AcDbLine
 10
526.60125
 20
-207.021164
 30
0.0
 11
526.60125
 21
-281.212769
 31
0.0
  0
ARC
  5
1E7
100
AcDbEntity
  8
0
370
    -3
390
0
  6
DASHED
100
AcDbCircle
 10
521.60125
 20
-281.212769
 30
0.0
 40
5.0
100
AcDbArc
 50
270.0
 51
0.0
  0
LINE
  5
1E8
100
AcDbEntity
  8
0
370
    -3
390
0
  6
CENTER
100
AcDbLine
 10
679.558032
 20
-239.712769
 30
0.0
 11
555.174211
 21
-239.712769
 31
0.0
  0
LINE
  5
1E9
100
AcDbEntity
  8
0
370
    -3
390
0
  6
CENTER
100
AcDbLine
 10
613.60125
 20
19.270885
 30
0.0
 11
613.60125
 21
-462.695171
 31
0.0
  0
LINE
  5
1EA
100
AcDbEntity
  8
0
370
    -3
390
0
  6
CENTER
100
AcDbLine
 10
532.830863
 20
-239.712769
 30
0.0
 11
474.380872
 21
-239.712769
 31
0.0
  0
LINE
  5
1EB
100
AcDbEntity
  8
0
370
    -3
390
0
  6
CENTER
100
AcDbLine
 10
476.089827
 20
-292.047435
 30
0.0
 11
486.716642
 21
-296.778797
 31
0.0
  0
ARC
  5
1EC
100
AcDbEntity
  8
0
370
    -3
390
0
  6
CENTER
100
AcDbCircle
 10
613.60125
 20
-217.712769
 30
0.0
 40
275.0
100
AcDbArc
 50
128.693647
 51
140.926883
  0
ARC
  5
1ED
100
AcDbEntity
  8
0
370
    -3
390
0
  6
Continuous
100
AcDbCircle
 10
585.60125
 20
-228.565733
 30
0.0
 40
133.892063
100
AcDbArc
 50
93.489726
 51
168.191719
  0
CIRCLE
  5
1EE
100
AcDbEntity
  8
0
370
    -3
390
0
  6
Continuous
100
AcDbCircle
 10
613.60125
 20
-217.712769
 30
0.0
 40
201.0
  0
CIRCLE
  5
1EF
100
AcDbEntity
  8
0
370
    -3
390
0
  6
Continuous
100
AcDbCircle
 10
613.60125
 20
-217.712769
 30
0.0
 40
210.0
  0
ARC
  5
1F0
100
AcDbEntity
  8
0
370
    -3
390
0
  6
Continuous
100
AcDbCircle
 10
408.60125
 20
-12.712769
 30
0.0
 40
20.0
100
AcDbArc
 50
90.0
 51
180.0
  0
ARC
  5
1F1
100
AcDbEntity
  8
0
370
    -3
390
0
  6
Continuous
100
AcDbCircle
 10
436.027657
 20
2.287231
 30
0.0
 40
5.0
100
AcDbArc
 50
45.0
 51
90.0
  0
CIRCLE
  5
1F2
100
AcDbEntity
  8
0
370
    -3
390
0
  6
Continuous
100
AcDbCircle
 10
419.146885
 20
-23.258404
 30
0.0
 40
14.0
  0
ARC
  5
1F3
100
AcDbEntity
  8
0
370
    -3
390
0
  6
Continuous
100
AcDbCircle
 10
393.60125
 20
-40.139176
 30
0.0
 40
5.0
100
AcDbArc
 50
180.0
 51
225.0
  0
ARC
  5
1F4
100
AcDbEntity
  8
0
370
    -3
390
0
  6
Continuous
100
AcDbCircle
 10
425.896872
 20
-93.648001
 30
0.0
 40
10.0
100
AcDbArc
 50
326.536959
 51
45.0
  0
ARC
  5
1F5
100
AcDbEntity
  8
0
370
    -3
390
0
  6
Continuous
100
AcDbCircle
 10
613.60125
 20
-217.712769
 30
0.0
 40
215.0
100
AcDbArc
 50
146.536959
 51
177.89693
  0
ARC
  5
1F6
100
AcDbEntity
  8
0
370
    -3
390
0
  6
Continuous
100
AcDbCircle
 10
489.536482
 20
-30.008391
 30
0.0
 40
10.0
100
AcDbArc
 50
225.0
 51
303.463041
  0
ARC
  5
1F7
100
AcDbEntity
  8
0
370
    -3
390
0
  6
Continuous
100
AcDbCircle
 10
613.60125
 20
-217.712769
 30
0.0
 40
215.0
100
AcDbArc
 50
90.0
 51
123.463041
  0
LINE
  5
1F8
100
AcDbEntity
  8
0
370
    -3
390
0
  6
CENTER
100
AcDbLine
 10
398.493529
 20
-2.605048
 30
0.0
 11
439.960392
 21
-44.071911
 31
0.0
  0
LINE
  5
1F9
100
AcDbEntity
  8
0
370
    -3
390
0
  6
Continuous
100
AcDbLine
 10
388.60125
 20
-12.712769
 30
0.0
 11
388.60125
 21
-422.712769
 31
0.0
  0
LINE
  5
1FA
100
AcDbEntity
  8
0
370
    -3
390
0
  6
Continuous
100
AcDbLine
 10
439.563191
 20
5.822765
 30
0.0
 11
482.465415
 21
-37.079459
 31
0.0
  0
LINE
  5
1FB
100
AcDbEntity
  8
0
370
    -3
390
0
  6
Continuous
100
AcDbLine
 10
390.065716
 20
-43.674709
 30
0.0
 11
432.96794
 21
-86.576933
 31
0.0
  0
LINE
  5
1FC
100
AcDbEntity
  8
0
370
    -3
390
0
  6
Continuous
100
AcDbLine
 10
408.60125
 20
7.287231
 30
0.0
 11
818.60125
 21
7.287231
 31
0.0
  0
ARC
  5
1FD
100
AcDbEntity
  8
0
370
    -3
390
0
  6
Continuous
100
AcDbCircle
 10
613.60125
 20
-687.712769
 30
0.0
 40
593.892063
100
AcDbArc
 50
91.422993
 51
93.489726
  0
ARC
  5
1FE
100
AcDbEntity
  8
0
370
    -3
390
0
  6
Continuous
100
AcDbCircle
 10
613.60125
 20
-687.712769
 30
0.0
 40
593.892063
100
AcDbArc
 50
86.510274
 51
88.577007
  0
CIRCLE
  5
1FF
100
AcDbEntity
  8
0
370
    -3
390
0
  6
Continuous
100
AcDbCircle
 10
613.60125
 20
-217.712769
 30
0.0
 40
52.5
  0
ARC
  5
200
100
AcDbEntity
  8
0
370
    -3
390
0
  6
Continuous
100
AcDbCircle
 10
604.10125
 20
-21.943134
 30
0.0
 40
5.0
100
AcDbArc
 50
0.0
 51
92.77818
  0
ARC
  5
201
100
AcDbEntity
  8
0
370
    -3
390
0
  6
Continuous
100
AcDbCircle
 10
623.10125
 20
-21.943134
 30
0.0
 40
5.0
100
AcDbArc
 50
87.22182
 51
180.0
  0
ARC
  5
202
100
AcDbEntity
  8
0
370
    -3
390
0
  6
Continuous
100
AcDbCircle
 10
599.10125
 20
-104.000775
 30
0.0
 40
10.0
100
AcDbArc
 50
0.0
 51
91.422993
  0
ARC
  5
203
100
AcDbEntity
  8
0
370
    -3
390
0
  6
Continuous
100
AcDbCircle
 10
628.10125
 20
-104.000775
 30
0.0
 40
10.0
100
AcDbArc
 50
88.577007
 51
180.0
  0
ARC
  5
204
100
AcDbEntity
  8
0
370
    -3
390
0
  6
Continuous
100
AcDbCircle
 10
604.10125
 20
-133.245319
 30
0.0
 40
5.0
100
AcDbArc
 50
276.417053
 51
0.0
  0
ARC
  5
205
100
AcDbEntity
  8
0
370
    -3
390
0
  6
Continuous
100
AcDbCircle
 10
623.10125
 20
-133.245319
 30
0.0
 40
5.0
100
AcDbArc
 50
180.0
 51
263.582947
  0
ARC
  5
206
100
AcDbEntity
  8
0
370
    -3
390
0
  6
Continuous
100
AcDbCircle
 10
613.60125
 20
-217.712769
 30
0.0
 40
215.0
100
AcDbArc
 50
2.10307
 51
33.463041
  0
CIRCLE
  5
207
100
AcDbEntity
  8
0
370
    -3
390
0
  6
Continuous
100
AcDbCircle
 10
613.60125
 20
-217.712769
 30
0.0
 40
80.0
  0
ARC
  5
208
100
AcDbEntity
  8
0
370
    -3
390
0
  6
Continuous
100
AcDbCircle
 10
613.60125
 20
-217.712769
 30
0.0
 40
215.0
100
AcDbArc
 50
56.536959
 51
90.0
  0
ARC
  5
209
100
AcDbEntity
  8
0
370
    -3
390
0
  6
Continuous
100
AcDbCircle
 10
737.666017
 20
-30.008391
 30
0.0
 40
10.0
100
AcDbArc
 50
236.536959
 51
315.0
  0
ARC
  5
20A
100
AcDbEntity
  8
0
370
    -3
390
0
  6
Continuous
100
AcDbCircle
 10
818.60125
 20
-12.712769
 30
0.0
 40
20.0
100
AcDbArc
 50
0.0
 51
90.0
  0
CIRCLE
  5
20B
100
AcDbEntity
  8
0
370
    -3
390
0
  6
Continuous
100
AcDbCircle
 10
808.055615
 20
-23.258404
 30
0.0
 40
14.0
  0
ARC
  5
20C
100
AcDbEntity
  8
0
370
    -3
390
0
  6
Continuous
100
AcDbCircle
 10
801.305628
 20
-93.648001
 30
0.0
 40
10.0
100
AcDbArc
 50
135.0
 51
213.463041
  0
ARC
  5
20D
100
AcDbEntity
  8
0
370
    -3
390
0
  6
Continuous
100
AcDbCircle
 10
791.174843
 20
2.287231
 30
0.0
 40
5.0
100
AcDbArc
 50
90.0
 51
135.0
  0
ARC
  5
20E
100
AcDbEntity
  8
0
370
    -3
390
0
  6
Continuous
100
AcDbCircle
 10
833.60125
 20
-40.139176
 30
0.0
 40
5.0
100
AcDbArc
 50
315.0
 51
0.0
  0
CIRCLE
  5
20F
100
AcDbEntity
  8
0
370
    -3
390
0
  6
Continuous
100
AcDbCircle
 10
613.60125
 20
-217.712769
 30
0.0
 40
42.5
  0
ARC
  5
210
100
AcDbEntity
  8
0
370
    -3
390
0
  6
Continuous
100
AcDbCircle
 10
613.60125
 20
-217.712769
 30
0.0
 40
30.0
100
AcDbArc
 50
197.457603
 51
162.542397
  0
LINE
  5
211
100
AcDbEntity
  8
0
370
    -3
390
0
  6
CENTER
100
AcDbLine
 10
828.708971
 20
-2.605048
 30
0.0
 11
787.242108
 21
-44.071911
 31
0.0
  0
LINE
  5
212
100
AcDbEntity
  8
0
370
    -3
390
0
  6
Continuous
100
AcDbLine
 10
618.10125
 20
-21.943134
 30
0.0
 11
618.10125
 21
-133.245319
 31
0.0
  0
LINE
  5
213
100
AcDbEntity
  8
0
370
    -3
390
0
  6
Continuous
100
AcDbLine
 10
609.10125
 20
-21.943134
 30
0.0
 11
609.10125
 21
-133.245319
 31
0.0
  0
LINE
  5
214
100
AcDbEntity
  8
0
370
    -3
390
0
  6
Continuous
100
AcDbLine
 10
838.60125
 20
-12.712769
 30
0.0
 11
838.60125
 21
-422.712769
 31
0.0
  0
LINE
  5
215
100
AcDbEntity
  8
0
370
    -3
390
0
  6
Continuous
100
AcDbLine
 10
787.639309
 20
5.822765
 30
0.0
 11
744.737085
 21
-37.079459
 31
0.0
  0
LINE
  5
216
100
AcDbEntity
  8
0
370
    -3
390
0
  6
Continuous
100
AcDbLine
 10
837.136784
 20
-43.674709
 30
0.0
 11
794.23456
 21
-86.576933
 31
0.0
  0
ARC
  5
217
100
AcDbEntity
  8
0
370
    -3
390
0
  6
Continuous
100
AcDbCircle
 10
755.493313
 20
-330.085552
 30
0.0
 40
20.0
100
AcDbArc
 50
321.622198
 51
0.0
  0
ARC
  5
218
100
AcDbEntity
  8
0
370
    -3
390
0
  6
Continuous
100
AcDbCircle
 10
733.536853
 20
-366.36152
 30
0.0
 40
10.0
100
AcDbArc
 50
240.0
 51
308.897941
  0
ARC
  5
219
100
AcDbEntity
  8
0
370
    -3
390
0
  6
Continuous
100
AcDbCircle
 10
809.370885
 20
-227.212769
 30
0.0
 40
5.0
100
AcDbArc
 50
357.22182
 51
90.0
  0
ARC
  5
21A
100
AcDbEntity
  8
0
370
    -3
390
0
  6
Continuous
100
AcDbCircle
 10
809.370885
 20
-208.212769
 30
0.0
 40
5.0
100
AcDbArc
 50
270.0
 51
2.77818
  0
ARC
  5
21B
100
AcDbEntity
  8
0
370
    -3
390
0
  6
Continuous
100
AcDbCircle
 10
765.493313
 20
-232.212769
 30
0.0
 40
10.0
100
AcDbArc
 50
0.0
 51
90.0
  0
ARC
  5
21C
100
AcDbEntity
  8
0
370
    -3
390
0
  6
Continuous
100
AcDbCircle
 10
762.871488
 20
-203.212769
 30
0.0
 40
10.0
100
AcDbArc
 50
270.0
 51
11.808281
  0
ARC
  5
21D
100
AcDbEntity
  8
0
370
    -3
390
0
  6
Continuous
100
AcDbCircle
 10
698.068699
 20
-208.212769
 30
0.0
 40
5.0
100
AcDbArc
 50
186.417053
 51
270.0
  0
ARC
  5
21E
100
AcDbEntity
  8
0
370
    -3
390
0
  6
Continuous
100
AcDbCircle
 10
698.068699
 20
-227.212769
 30
0.0
 40
5.0
100
AcDbArc
 50
90.0
 51
173.582947
  0
ARC
  5
21F
100
AcDbEntity
  8
0
370
    -3
390
0
  6
Continuous
100
AcDbCircle
 10
714.291022
 20
-355.249934
 30
0.0
 40
10.0
100
AcDbArc
 50
167.552965
 51
240.0
  0
ARC
  5
220
100
AcDbEntity
  8
0
370
    -3
390
0
  6
Continuous
100
AcDbCircle
 10
722.415373
 20
-359.94053
 30
0.0
 40
10.0
100
AcDbArc
 50
165.300941
 51
240.0
  0
ARC
  5
221
100
AcDbEntity
  8
0
370
    -3
390
0
  6
Continuous
100
AcDbCircle
 10
675.599606
 20
-282.952357
 30
0.0
 40
10.0
100
AcDbArc
 50
133.540775
 51
248.755645
  0
ARC
  5
222
100
AcDbEntity
  8
0
370
    -3
390
0
  6
Continuous
100
AcDbCircle
 10
682.207919
 20
-275.963305
 30
0.0
 40
10.0
100
AcDbArc
 50
139.667057
 51
245.868324
  0
ARC
  5
223
100
AcDbEntity
  8
0
370
    -3
390
0
  6
Continuous
100
AcDbCircle
 10
652.771795
 20
-341.671102
 30
0.0
 40
62.0
100
AcDbArc
 50
345.300941
 51
65.868324
  0
ARC
  5
224
100
AcDbEntity
  8
0
370
    -3
390
0
  6
Continuous
100
AcDbCircle
 10
836.60125
 20
-220.712769
 30
0.0
 40
2.0
100
AcDbArc
 50
270.0
 51
0.0
  0
ARC
  5
225
100
AcDbEntity
  8
0
370
    -3
390
0
  6
Continuous
100
AcDbCircle
 10
836.60125
 20
-214.712769
 30
0.0
 40
2.0
100
AcDbArc
 50
0.0
 51
90.0
  0
ARC
  5
226
100
AcDbEntity
  8
0
370
    -3
390
0
  6
Continuous
100
AcDbCircle
 10
831.454412
 20
-225.712769
 30
0.0
 40
3.0
100
AcDbArc
 50
90.0
 51
177.89693
  0
ARC
  5
227
100
AcDbEntity
  8
0
370
    -3
390
0
  6
Continuous
100
AcDbCircle
 10
831.454412
 20
-209.712769
 30
0.0
 40
3.0
100
AcDbArc
 50
182.10307
 51
270.0
  0
ARC
  5
228
100
AcDbEntity
  8
0
370
    -3
390
0
  6
Continuous
100
AcDbCircle
 10
652.771795
 20
-341.671102
 30
0.0
 40
53.0
100
AcDbArc
 50
347.552965
 51
68.755645
  0
ARC
  5
229
100
AcDbEntity
  8
0
370
    -3
390
0
  6
Continuous
100
AcDbCircle
 10
613.60125
 20
-217.712769
 30
0.0
 40
215.0
100
AcDbArc
 50
326.536959
 51
357.89693
  0
ARC
  5
22A
100
AcDbEntity
  8
0
370
    -3
390
0
  6
Continuous
100
AcDbCircle
 10
801.305628
 20
-341.777536
 30
0.0
 40
10.0
100
AcDbArc
 50
146.536959
 51
225.0
  0
CIRCLE
  5
22B
100
AcDbEntity
  8
0
370
    -3
390
0
  6
Continuous
100
AcDbCircle
 10
613.60125
 20
-217.712769
 30
0.0
 40
4.188
  0
CIRCLE
  5
22C
100
AcDbEntity
  8
0
370
    -3
390
0
  6
Continuous
100
AcDbCircle
 10
613.60125
 20
-217.712769
 30
0.0
 40
5.0
  0
LINE
  5
22D
100
AcDbEntity
  8
0
370
    -3
390
0
  6
CENTER
100
AcDbLine
 10
380.086739
 20
-217.712769
 30
0.0
 11
842.823668
 21
-217.712769
 31
0.0
  0
LINE
  5
22E
100
AcDbEntity
  8
0
370
    -3
390
0
  6
Continuous
100
AcDbLine
 10
809.370885
 20
-222.212769
 30
0.0
 11
698.068699
 21
-222.212769
 31
0.0
  0
LINE
  5
22F
100
AcDbEntity
  8
0
370
    -3
390
0
  6
Continuous
100
AcDbLine
 10
809.370885
 20
-213.212769
 30
0.0
 11
698.068699
 21
-213.212769
 31
0.0
  0
LINE
  5
230
100
AcDbEntity
  8
0
370
    -3
390
0
  6
Continuous
100
AcDbLine
 10
709.291022
 20
-363.910188
 30
0.0
 11
728.536853
 21
-375.021774
 31
0.0
  0
LINE
  5
231
100
AcDbEntity
  8
0
370
    -3
390
0
  6
Continuous
100
AcDbLine
 10
836.60125
 20
-222.712769
 30
0.0
 11
831.454412
 21
-222.712769
 31
0.0
  0
LINE
  5
232
100
AcDbEntity
  8
0
370
    -3
390
0
  6
Continuous
100
AcDbLine
 10
836.60125
 20
-212.712769
 30
0.0
 11
831.454412
 21
-212.712769
 31
0.0
  0
LINE
  5
233
100
AcDbEntity
  8
0
370
    -3
390
0
  6
Continuous
100
AcDbLine
 10
775.493313
 20
-232.212769
 30
0.0
 11
775.493313
 21
-330.085552
 31
0.0
  0
LINE
  5
234
100
AcDbEntity
  8
0
370
    -3
390
0
  6
Continuous
100
AcDbLine
 10
837.136784
 20
-391.750828
 30
0.0
 11
794.23456
 21
-348.848604
 31
0.0
  0
LINE
  5
235
100
AcDbEntity
  8
0
370
    -3
390
0
  6
Continuous
100
AcDbLine
 10
579.60125
 20
-208.712769
 30
0.0
 11
579.60125
 21
-226.712769
 31
0.0
  0
LINE
  5
236
100
AcDbEntity
  8
0
370
    -3
390
0
  6
Continuous
100
AcDbLine
 10
590.60125
 20
-208.712769
 30
0.0
 11
590.60125
 21
-226.712769
 31
0.0
  0
LINE
  5
237
100
AcDbEntity
  8
0
370
    -3
390
0
  6
Continuous
100
AcDbLine
 10
579.60125
 20
-226.712769
 30
0.0
 11
590.60125
 21
-226.712769
 31
0.0
  0
LINE
  5
238
100
AcDbEntity
  8
0
370
    -3
390
0
  6
Continuous
100
AcDbLine
 10
579.60125
 20
-208.712769
 30
0.0
 11
590.60125
 21
-208.712769
 31
0.0
  0
ARC
  5
239
100
AcDbEntity
  8
0
370
    -3
390
0
  6
Continuous
100
AcDbCircle
 10
688.60125
 20
-432.712769
 30
0.0
 40
20.0
100
AcDbArc
 50
295.841933
 51
330.0
  0
ARC
  5
23A
100
AcDbEntity
  8
0
370
    -3
390
0
  6
Continuous
100
AcDbCircle
 10
613.60125
 20
-217.712769
 30
0.0
 40
215.0
100
AcDbArc
 50
236.536959
 51
270.0
  0
ARC
  5
23B
100
AcDbEntity
  8
0
370
    -3
390
0
  6
Continuous
100
AcDbCircle
 10
818.60125
 20
-422.712769
 30
0.0
 40
20.0
100
AcDbArc
 50
270.0
 51
0.0
  0
ARC
  5
23C
100
AcDbEntity
  8
0
370
    -3
390
0
  6
CENTER
100
AcDbCircle
 10
613.60125
 20
-217.712769
 30
0.0
 40
275.0
100
AcDbArc
 50
308.693647
 51
320.926883
  0
CIRCLE
  5
23D
100
AcDbEntity
  8
0
370
    -3
390
0
  6
Continuous
100
AcDbCircle
 10
808.055615
 20
-412.167134
 30
0.0
 40
14.0
  0
ARC
  5
23E
100
AcDbEntity
  8
0
370
    -3
390
0
  6
Continuous
100
AcDbCircle
 10
833.60125
 20
-395.286362
 30
0.0
 40
5.0
100
AcDbArc
 50
0.0
 51
45.0
  0
ARC
  5
23F
100
AcDbEntity
  8
0
370
    -3
390
0
  6
Continuous
100
AcDbCircle
 10
737.666017
 20
-405.417147
 30
0.0
 40
10.0
100
AcDbArc
 50
45.0
 51
123.463041
  0
ARC
  5
240
100
AcDbEntity
  8
0
370
    -3
390
0
  6
Continuous
100
AcDbCircle
 10
613.60125
 20
-217.712769
 30
0.0
 40
215.0
100
AcDbArc
 50
270.0
 51
303.463041
  0
ARC
  5
241
100
AcDbEntity
  8
0
370
    -3
390
0
  6
Continuous
100
AcDbCircle
 10
791.174843
 20
-437.712769
 30
0.0
 40
5.0
100
AcDbArc
 50
225.0
 51
270.0
  0
LINE
  5
242
100
AcDbEntity
  8
0
370
    -3
390
0
  6
Continuous
100
AcDbLine
 10
613.60125
 20
-450.712769
 30
0.0
 11
529.883452
 21
-450.712769
 31
0.0
  0
LINE
  5
243
100
AcDbEntity
  8
0
370
    -3
390
0
  6
Continuous
100
AcDbLine
 10
613.60125
 20
-450.712769
 30
0.0
 11
697.319048
 21
-450.712769
 31
0.0
  0
LINE
  5
244
100
AcDbEntity
  8
0
370
    -3
390
0
  6
Continuous
100
AcDbLine
 10
818.60125
 20
-442.712769
 30
0.0
 11
613.60125
 21
-442.712769
 31
0.0
  0
LINE
  5
245
100
AcDbEntity
  8
0
370
    -3
390
0
  6
Continuous
100
AcDbLine
 10
787.639309
 20
-441.248303
 30
0.0
 11
744.737085
 21
-398.346079
 31
0.0
  0
LINE
  5
246
100
AcDbEntity
  8
0
370
    -3
390
0
  6
CENTER
100
AcDbLine
 10
828.708971
 20
-432.82049
 30
0.0
 11
787.242108
 21
-391.353626
 31
0.0
  0
LINE
  5
247
100
AcDbEntity
  8
0
370
    -3
390
0
  6
Continuous
100
AcDbLine
 10
408.60125
 20
-442.712769
 30
0.0
 11
613.60125
 21
-442.712769
 31
0.0
  0
ARC
  5
248
100
AcDbEntity
  8
0
370
    -3
390
0
  6
Continuous
100
AcDbCircle
 10
471.709187
 20
-330.085552
 30
0.0
 40
20.0
100
AcDbArc
 50
180.0
 51
218.377802
  0
ARC
  5
249
100
AcDbEntity
  8
0
370
    -3
390
0
  6
Continuous
100
AcDbCircle
 10
485.475947
 20
-359.363419
 30
0.0
 40
10.0
100
AcDbArc
 50
227.870148
 51
24.149805
  0
ARC
  5
24A
100
AcDbEntity
  8
0
370
    -3
390
0
  6
Continuous
100
AcDbCircle
 10
471.769858
 20
-345.637967
 30
0.0
 40
10.0
100
AcDbArc
 50
222.048964
 51
10.881295
  0
ARC
  5
24B
100
AcDbEntity
  8
0
370
    -3
390
0
  6
Continuous
100
AcDbCircle
 10
549.349469
 20
-330.724753
 30
0.0
 40
69.0
100
AcDbArc
 50
103.302309
 51
190.881295
  0
ARC
  5
24C
100
AcDbEntity
  8
0
370
    -3
390
0
  6
Continuous
100
AcDbCircle
 10
538.60125
 20
-432.712769
 30
0.0
 40
20.0
100
AcDbArc
 50
210.0
 51
244.158067
  0
ARC
  5
24D
100
AcDbEntity
  8
0
370
    -3
390
0
  6
Continuous
100
AcDbCircle
 10
489.536482
 20
-405.417147
 30
0.0
 40
10.0
100
AcDbArc
 50
56.536959
 51
135.0
  0
ARC
  5
24E
100
AcDbEntity
  8
0
370
    -3
390
0
  6
Continuous
100
AcDbCircle
 10
549.349469
 20
-330.724753
 30
0.0
 40
60.0
100
AcDbArc
 50
101.551141
 51
204.149805
  0
CIRCLE
  5
24F
100
AcDbEntity
  8
0
370
    -3
390
0
  6
Continuous
100
AcDbCircle
 10
419.146885
 20
-412.167134
 30
0.0
 40
14.0
  0
ARC
  5
250
100
AcDbEntity
  8
0
370
    -3
390
0
  6
Continuous
100
AcDbCircle
 10
408.60125
 20
-422.712769
 30
0.0
 40
20.0
100
AcDbArc
 50
180.0
 51
270.0
  0
ARC
  5
251
100
AcDbEntity
  8
0
370
    -3
390
0
  6
Continuous
100
AcDbCircle
 10
393.60125
 20
-395.286362
 30
0.0
 40
5.0
100
AcDbArc
 50
135.0
 51
180.0
  0
ARC
  5
252
100
AcDbEntity
  8
0
370
    -3
390
0
  6
Continuous
100
AcDbCircle
 10
613.60125
 20
-217.712769
 30
0.0
 40
215.0
100
AcDbArc
 50
182.10307
 51
213.463041
  0
ARC
  5
253
100
AcDbEntity
  8
0
370
    -3
390
0
  6
Continuous
100
AcDbCircle
 10
425.896872
 20
-341.777536
 30
0.0
 40
10.0
100
AcDbArc
 50
315.0
 51
33.463041
  0
ARC
  5
254
100
AcDbEntity
  8
0
370
    -3
390
0
  6
Continuous
100
AcDbCircle
 10
436.027657
 20
-437.712769
 30
0.0
 40
5.0
100
AcDbArc
 50
270.0
 51
315.0
  0
LINE
  5
255
100
AcDbEntity
  8
0
370
    -3
390
0
  6
CENTER
100
AcDbLine
 10
398.493529
 20
-432.82049
 30
0.0
 11
439.960392
 21
-391.353626
 31
0.0
  0
LINE
  5
256
100
AcDbEntity
  8
0
370
    -3
390
0
  6
Continuous
100
AcDbLine
 10
451.709187
 20
-232.212769
 30
0.0
 11
451.709187
 21
-330.085552
 31
0.0
  0
LINE
  5
257
100
AcDbEntity
  8
0
370
    -3
390
0
  6
Continuous
100
AcDbLine
 10
439.563191
 20
-441.248303
 30
0.0
 11
482.465415
 21
-398.346079
 31
0.0
  0
LINE
  5
258
100
AcDbEntity
  8
0
370
    -3
390
0
  6
Continuous
100
AcDbLine
 10
390.065716
 20
-391.750828
 30
0.0
 11
432.96794
 21
-348.848604
 31
0.0
  0
ARC
  5
259
100
AcDbEntity
  8
0
370
    -3
390
0
  6
Continuous
100
AcDbCircle
 10
417.831615
 20
-227.212769
 30
0.0
 40
5.0
100
AcDbArc
 50
90.0
 51
182.77818
  0
ARC
  5
25A
100
AcDbEntity
  8
0
370
    -3
390
0
  6
Continuous
100
AcDbCircle
 10
417.831615
 20
-208.212769
 30
0.0
 40
5.0
100
AcDbArc
 50
177.22182
 51
270.0
  0
ARC
  5
25B
100
AcDbEntity
  8
0
370
    -3
390
0
  6
Continuous
100
AcDbCircle
 10
461.709187
 20
-232.212769
 30
0.0
 40
10.0
100
AcDbArc
 50
90.0
 51
180.0
  0
ARC
  5
25C
100
AcDbEntity
  8
0
370
    -3
390
0
  6
Continuous
100
AcDbCircle
 10
464.331012
 20
-203.212769
 30
0.0
 40
10.0
100
AcDbArc
 50
168.191719
 51
270.0
  0
ARC
  5
25D
100
AcDbEntity
  8
0
370
    -3
390
0
  6
Continuous
100
AcDbCircle
 10
390.60125
 20
-220.712769
 30
0.0
 40
2.0
100
AcDbArc
 50
180.0
 51
270.0
  0
ARC
  5
25E
100
AcDbEntity
  8
0
370
    -3
390
0
  6
Continuous
100
AcDbCircle
 10
390.60125
 20
-214.712769
 30
0.0
 40
2.0
100
AcDbArc
 50
90.0
 51
180.0
  0
ARC
  5
25F
100
AcDbEntity
  8
0
370
    -3
390
0
  6
Continuous
100
AcDbCircle
 10
395.748088
 20
-209.712769
 30
0.0
 40
3.0
100
AcDbArc
 50
270.0
 51
357.89693
  0
ARC
  5
260
100
AcDbEntity
  8
0
370
    -3
390
0
  6
Continuous
100
AcDbCircle
 10
395.748088
 20
-225.712769
 30
0.0
 40
3.0
100
AcDbArc
 50
2.10307
 51
90.0
  0
LINE
  5
261
100
AcDbEntity
  8
0
370
    -3
390
0
  6
Continuous
100
AcDbLine
 10
417.831615
 20
-213.212769
 30
0.0
 11
529.133801
 21
-213.212769
 31
0.0
  0
LINE
  5
262
100
AcDbEntity
  8
0
370
    -3
390
0
  6
Continuous
100
AcDbLine
 10
417.831615
 20
-222.212769
 30
0.0
 11
529.133801
 21
-222.212769
 31
0.0
  0
LINE
  5
263
100
AcDbEntity
  8
0
370
    -3
390
0
  6
Continuous
100
AcDbLine
 10
390.60125
 20
-222.712769
 30
0.0
 11
395.748088
 21
-222.712769
 31
0.0
  0
LINE
  5
264
100
AcDbEntity
  8
0
370
    -3
390
0
  6
Continuous
100
AcDbLine
 10
390.60125
 20
-212.712769
 30
0.0
 11
395.748088
 21
-212.712769
 31
0.0
  0
ARC
  5
265
100
AcDbEntity
  8
0
370
    -3
390
0
  6
Continuous
100
AcDbCircle
 10
529.133801
 20
-227.212769
 30
0.0
 40
5.0
100
AcDbArc
 50
6.417053
 51
90.0
  0
ARC
  5
266
100
AcDbEntity
  8
0
370
    -3
390
0
  6
Continuous
100
AcDbCircle
 10
529.133801
 20
-208.212769
 30
0.0
 40
5.0
100
AcDbArc
 50
270.0
 51
353.582947
  0
ARC
  5
267
100
AcDbEntity
  8
0
370
    -3
390
0
  6
Continuous
100
AcDbCircle
 10
531.172441
 20
-253.844355
 30
0.0
 40
10.0
100
AcDbArc
 50
283.302309
 51
23.669611
  0
ARC
  5
268
100
AcDbEntity
  8
0
370
    -3
390
0
  6
Continuous
100
AcDbCircle
 10
535.332493
 20
-262.142508
 30
0.0
 40
10.0
100
AcDbArc
 50
281.551141
 51
29.581676
  0
ARC
  5
269
100
AcDbEntity
  8
0
370
    -3
390
0
  6
Continuous
100
AcDbCircle
 10
641.60125
 20
-228.565733
 30
0.0
 40
133.892063
100
AcDbArc
 50
11.808281
 51
86.510274
  0
ARC
  5
26A
100
AcDbEntity
  8
0
370
    -3
390
0
  6
CENTER
100
AcDbCircle
 10
613.60125
 20
-217.712769
 30
0.0
 40
275.0
100
AcDbArc
 50
38.464237
 51
50.484758
  0
ARC
  5
26B
100
AcDbEntity
  8
0
370
    -3
390
0
  6
CENTER
100
AcDbCircle
 10
613.60125
 20
-217.712769
 30
0.0
 40
275.0
100
AcDbArc
 50
218.733264
 51
231.274531
  0
MTEXT
  5
26D
100
AcDbEntity
  8
0
370
    -3
390
0
  6
Continuous
100
AcDbMText
 10
-691.474976
 20
322.285553
 30
0.0
 40
16.0
 41
0.0
 71
     7
 72
     1
  1
\W0.83;三菱ギヤードモータ  
  7
ZU_SHPTB00001
 11
1.0
 21
0.0
 31
0.0
 73
     1
 44
1.0
  0
MTEXT
  5
26E
100
AcDbEntity
  8
0
370
    -3
390
0
  6
Continuous
100
AcDbMText
 10
-691.474976
 20
301.085541
 30
0.0
 40
16.0
 41
0.0
 71
     7
 72
     1
  1
\W0.60;GM-DPF
  7
ZU_SHPTB00001
 11
1.0
 21
0.0
 31
0.0
 73
     1
 44
1.0
  0
MTEXT
  5
26F
100
AcDbEntity
  8
0
370
    -3
390
0
  6
Continuous
100
AcDbMText
 10
-691.474976
 20
279.885559
 30
0.0
 40
16.0
 41
0.0
 71
     7
 72
     1
  1
\W0.60;0.75(kW)
  7
ZU_SHPTB00001
 11
1.0
 21
0.0
 31
0.0
 73
     1
 44
1.0
  0
MTEXT
  5
270
100
AcDbEntity
  8
0
370
    -3
390
0
  6
Continuous
100
AcDbMText
 10
-691.474976
 20
258.685547
 30
0.0
 40
16.0
 41
0.0
 71
     7
 72
     1
  1
\W0.60;1/540\W0.83;～\W0.60;1/900
  7
ZU_SHPTB00001
 11
1.0
 21
0.0
 31
0.0
 73
     1
 44
1.0
  0
MTEXT
  5
271
100
AcDbEntity
  8
0
370
    -3
390
0
  6
Continuous
100
AcDbMText
 10
-691.474976
 20
237.48555
 30
0.0
 40
16.0
 41
0.0
 71
     7
 72
     1
  1
\W0.60;SCALE\W1.00; \W0.60;1/1
  7
ZU_SHPTB00001
 11
1.0
 21
0.0
 31
0.0
 73
     1
 44
1.0
  0
ARC
  5
272
100
AcDbEntity
  8
0
370
    -3
390
0
  6
Continuous
100
AcDbCircle
 10
-259.301269
 20
205.337231
 30
0.0
 40
3.2
100
AcDbArc
 50
171.333191
 51
180.0
  0
ARC
  5
273
100
AcDbEntity
  8
0
370
    -3
390
0
  6
Continuous
100
AcDbCircle
 10
-265.901269
 20
204.819433
 30
0.0
 40
1.0
100
AcDbArc
 50
90.0
 51
180.0
  0
LINE
  5
274
100
AcDbEntity
  8
0
370
    -3
390
0
  6
Continuous
100
AcDbLine
 10
-265.901269
 20
205.819433
 30
0.0
 11
-249.901269
 21
205.819433
 31
0.0
  0
LINE
  5
275
100
AcDbEntity
  8
0
370
    -3
390
0
  6
Continuous
100
AcDbLine
 10
-266.901269
 20
204.737231
 30
0.0
 11
-266.901269
 21
204.819433
 31
0.0
  0
LINE
  5
276
100
AcDbEntity
  8
0
370
    -3
390
0
  6
Continuous
100
AcDbLine
 10
-266.901269
 20
204.737231
 30
0.0
 11
-278.648434
 21
204.737231
 31
0.0
  0
ARC
  5
277
100
AcDbEntity
  8
0
370
    -3
390
0
  6
Continuous
100
AcDbCircle
 10
-249.901269
 20
208.819433
 30
0.0
 40
3.0
100
AcDbArc
 50
270.0
 51
0.0
  0
LINE
  5
278
100
AcDbEntity
  8
0
370
    -3
390
0
  6
Continuous
100
AcDbLine
 10
-246.901269
 20
208.819433
 30
0.0
 11
-246.901269
 21
279.537231
 31
0.0
  0
LINE
  5
279
100
AcDbEntity
  8
0
370
    -3
390
0
  6
Continuous
100
AcDbLine
 10
-233.844013
 20
142.363406
 30
0.0
 11
-201.451269
 21
142.363406
 31
0.0
  0
CIRCLE
  5
27A
100
AcDbEntity
  8
0
370
    -3
390
0
  6
DASHED
100
AcDbCircle
 10
-236.901269
 20
168.537231
 30
0.0
 40
13.5
  0
LINE
  5
27B
100
AcDbEntity
  8
0
370
    -3
390
0
  6
CENTER
100
AcDbLine
 10
-259.724901
 20
168.537231
 30
0.0
 11
-215.437183
 21
168.537231
 31
0.0
  0
LINE
  5
27C
100
AcDbEntity
  8
0
370
    -3
390
0
  6
Continuous
100
AcDbLine
 10
-267.901269
 20
193.537231
 30
0.0
 11
-267.901269
 21
192.537231
 31
0.0
  0
LINE
  5
27D
100
AcDbEntity
  8
0
370
    -3
390
0
  6
Continuous
100
AcDbLine
 10
-267.901269
 20
193.537231
 30
0.0
 11
-205.901269
 21
193.537231
 31
0.0
  0
LINE
  5
27E
100
AcDbEntity
  8
0
370
    -3
390
0
  6
Continuous
100
AcDbLine
 10
-205.901269
 20
193.537231
 30
0.0
 11
-205.901269
 21
192.537231
 31
0.0
  0
ARC
  5
27F
100
AcDbEntity
  8
0
370
    -3
390
0
  6
Continuous
100
AcDbCircle
 10
-270.701269
 20
187.537231
 30
0.0
 40
5.0
100
AcDbArc
 50
90.0
 51
135.074044
  0
ARC
  5
280
100
AcDbEntity
  8
0
370
    -3
390
0
  6
Continuous
100
AcDbCircle
 10
-203.101269
 20
187.537231
 30
0.0
 40
5.0
100
AcDbArc
 50
44.925956
 51
90.0
  0
LINE
  5
281
100
AcDbEntity
  8
0
370
    -3
390
0
  6
Continuous
100
AcDbLine
 10
-270.701269
 20
192.537231
 30
0.0
 11
-203.101269
 21
192.537231
 31
0.0
  0
ARC
  5
282
100
AcDbEntity
  8
0
370
    -3
390
0
  6
Continuous
100
AcDbCircle
 10
-272.351269
 20
180.231795
 30
0.0
 40
11.0
100
AcDbArc
 50
90.0
 51
180.0
  0
ARC
  5
283
100
AcDbEntity
  8
0
370
    -3
390
0
  6
Continuous
100
AcDbCircle
 10
-272.351269
 20
176.760323
 30
0.0
 40
11.0
100
AcDbArc
 50
90.0
 51
180.0
  0
ARC
  5
284
100
AcDbEntity
  8
0
370
    -3
390
0
  6
Continuous
100
AcDbCircle
 10
-201.451269
 20
180.231795
 30
0.0
 40
11.0
100
AcDbArc
 50
0.0
 51
90.0
  0
ARC
  5
285
100
AcDbEntity
  8
0
370
    -3
390
0
  6
Continuous
100
AcDbCircle
 10
-201.451269
 20
176.760323
 30
0.0
 40
11.0
100
AcDbArc
 50
0.0
 51
90.0
  0
ARC
  5
286
100
AcDbEntity
  8
0
370
    -3
390
0
  6
Continuous
100
AcDbCircle
 10
-271.151269
 20
150.337231
 30
0.0
 40
5.8
100
AcDbArc
 50
180.0
 51
270.0
  0
ARC
  5
287
100
AcDbEntity
  8
0
370
    -3
390
0
  6
Continuous
100
AcDbCircle
 10
-202.651269
 20
150.337231
 30
0.0
 40
5.8
100
AcDbArc
 50
270.0
 51
0.0
  0
LINE
  5
288
100
AcDbEntity
  8
0
370
    -3
390
0
  6
Continuous
100
AcDbLine
 10
-271.151269
 20
144.537231
 30
0.0
 11
-202.651269
 21
144.537231
 31
0.0
  0
ARC
  5
289
100
AcDbEntity
  8
0
370
    -3
390
0
  6
Continuous
100
AcDbCircle
 10
-272.351269
 20
153.363406
 30
0.0
 40
11.0
100
AcDbArc
 50
180.0
 51
270.0
  0
ARC
  5
28A
100
AcDbEntity
  8
0
370
    -3
390
0
  6
Continuous
100
AcDbCircle
 10
-201.451269
 20
153.363406
 30
0.0
 40
11.0
100
AcDbArc
 50
270.0
 51
0.0
  0
ARC
  5
28B
100
AcDbEntity
  8
0
370
    -3
390
0
  6
Continuous
100
AcDbCircle
 10
-271.951269
 20
179.913166
 30
0.0
 40
5.0
100
AcDbArc
 50
90.0
 51
180.0
  0
ARC
  5
28C
100
AcDbEntity
  8
0
370
    -3
390
0
  6
Continuous
100
AcDbCircle
 10
-201.851269
 20
179.913166
 30
0.0
 40
5.0
100
AcDbArc
 50
0.0
 51
90.0
  0
LINE
  5
28D
100
AcDbEntity
  8
0
370
    -3
390
0
  6
Continuous
100
AcDbLine
 10
-271.951269
 20
184.913166
 30
0.0
 11
-201.851269
 21
184.913166
 31
0.0
  0
LINE
  5
28E
100
AcDbEntity
  8
0
370
    -3
390
0
  6
Continuous
100
AcDbLine
 10
-276.951269
 20
150.337231
 30
0.0
 11
-276.951269
 21
179.913166
 31
0.0
  0
LINE
  5
28F
100
AcDbEntity
  8
0
370
    -3
390
0
  6
Continuous
100
AcDbLine
 10
-196.851269
 20
150.337231
 30
0.0
 11
-196.851269
 21
179.913166
 31
0.0
  0
LINE
  5
290
100
AcDbEntity
  8
0
370
    -3
390
0
  6
Continuous
100
AcDbLine
 10
-283.351269
 20
180.231795
 30
0.0
 11
-283.351269
 21
153.363406
 31
0.0
  0
LINE
  5
291
100
AcDbEntity
  8
0
370
    -3
390
0
  6
Continuous
100
AcDbLine
 10
-190.451269
 20
180.231795
 30
0.0
 11
-190.451269
 21
153.363406
 31
0.0
  0
LINE
  5
292
100
AcDbEntity
  8
0
370
    -3
390
0
  6
Continuous
100
AcDbLine
 10
-272.351269
 20
187.760323
 30
0.0
 11
-201.451269
 21
187.760323
 31
0.0
  0
LINE
  5
293
100
AcDbEntity
  8
0
370
    -3
390
0
  6
Continuous
100
AcDbLine
 10
-272.351269
 20
191.231795
 30
0.0
 11
-201.451269
 21
191.231795
 31
0.0
  0
LINE
  5
294
100
AcDbEntity
  8
0
370
    -3
390
0
  6
Continuous
100
AcDbLine
 10
-272.351269
 20
142.363406
 30
0.0
 11
-239.958525
 21
142.363406
 31
0.0
  0
LINE
  5
295
100
AcDbEntity
  8
0
370
    -3
390
0
  6
CENTER
100
AcDbLine
 10
-236.901269
 20
199.370945
 30
0.0
 11
-236.901269
 21
137.308531
 31
0.0
  0
LINE
  5
296
100
AcDbEntity
  8
0
370
    -3
390
0
  6
Continuous
100
AcDbLine
 10
-236.901269
 20
193.537231
 30
0.0
 11
-267.901269
 21
193.537231
 31
0.0
  0
LINE
  5
297
100
AcDbEntity
  8
0
370
    -3
390
0
  6
Continuous
100
AcDbLine
 10
-267.901269
 20
195.137231
 30
0.0
 11
-236.901269
 21
195.137231
 31
0.0
  0
LINE
  5
298
100
AcDbEntity
  8
0
370
    -3
390
0
  6
Continuous
100
AcDbLine
 10
-267.901269
 20
193.537231
 30
0.0
 11
-267.901269
 21
195.137231
 31
0.0
  0
LINE
  5
299
100
AcDbEntity
  8
0
370
    -3
390
0
  6
Continuous
100
AcDbLine
 10
-262.501269
 20
205.337231
 30
0.0
 11
-262.501269
 21
196.737231
 31
0.0
  0
ARC
  5
29A
100
AcDbEntity
  8
0
370
    -3
390
0
  6
Continuous
100
AcDbCircle
 10
-264.101269
 20
196.737231
 30
0.0
 40
1.6
100
AcDbArc
 50
270.0
 51
0.0
  0
LINE
  5
29B
100
AcDbEntity
  8
0
370
    -3
390
0
  6
Continuous
100
AcDbLine
 10
-236.901269
 20
193.537231
 30
0.0
 11
-205.901269
 21
193.537231
 31
0.0
  0
LINE
  5
29C
100
AcDbEntity
  8
0
370
    -3
390
0
  6
Continuous
100
AcDbLine
 10
-205.901269
 20
195.137231
 30
0.0
 11
-236.901269
 21
195.137231
 31
0.0
  0
LINE
  5
29D
100
AcDbEntity
  8
0
370
    -3
390
0
  6
Continuous
100
AcDbLine
 10
-205.901269
 20
193.537231
 30
0.0
 11
-205.901269
 21
195.137231
 31
0.0
  0
LINE
  5
29E
100
AcDbEntity
  8
0
370
    -3
390
0
  6
Continuous
100
AcDbLine
 10
-211.301269
 20
205.337231
 30
0.0
 11
-211.301269
 21
196.737231
 31
0.0
  0
ARC
  5
29F
100
AcDbEntity
  8
0
370
    -3
390
0
  6
Continuous
100
AcDbCircle
 10
-209.701269
 20
196.737231
 30
0.0
 40
1.6
100
AcDbArc
 50
180.0
 51
270.0
  0
ARC
  5
2A0
100
AcDbEntity
  8
0
370
    -3
390
0
  6
Continuous
100
AcDbCircle
 10
-214.501269
 20
205.337231
 30
0.0
 40
3.2
100
AcDbArc
 50
0.0
 51
90.0
  0
LINE
  5
2A1
100
AcDbEntity
  8
0
370
    -3
390
0
  6
Continuous
100
AcDbLine
 10
-263.901269
 20
219.291733
 30
0.0
 11
-265.830474
 21
218.081071
 31
0.0
  0
LINE
  5
2A2
100
AcDbEntity
  8
0
370
    -3
390
0
  6
Continuous
100
AcDbLine
 10
-263.901269
 20
219.291733
 30
0.0
 11
-265.901269
 21
220.865071
 31
0.0
  0
LINE
  5
2A3
100
AcDbEntity
  8
0
370
    -3
390
0
  6
Continuous
100
AcDbLine
 10
-263.901269
 20
219.291733
 30
0.0
 11
-261.972064
 21
218.081071
 31
0.0
  0
LINE
  5
2A4
100
AcDbEntity
  8
0
370
    -3
390
0
  6
Continuous
100
AcDbLine
 10
-263.901269
 20
219.291733
 30
0.0
 11
-261.901269
 21
220.865071
 31
0.0
  0
LINE
  5
2A5
100
AcDbEntity
  8
0
370
    -3
390
0
  6
Continuous
100
AcDbLine
 10
-267.056646
 20
218.861556
 30
0.0
 11
-266.397074
 21
218.482481
 31
0.0
  0
LINE
  5
2A6
100
AcDbEntity
  8
0
370
    -3
390
0
  6
Continuous
100
AcDbLine
 10
-267.603647
 20
219.321566
 30
0.0
 11
-267.056646
 21
218.861556
 31
0.0
  0
LINE
  5
2A7
100
AcDbEntity
  8
0
370
    -3
390
0
  6
Continuous
100
AcDbLine
 10
-268.018564
 20
219.846101
 30
0.0
 11
-267.603647
 21
219.321566
 31
0.0
  0
LINE
  5
2A8
100
AcDbEntity
  8
0
370
    -3
390
0
  6
Continuous
100
AcDbLine
 10
-268.286595
 20
220.416447
 30
0.0
 11
-268.018564
 21
219.846101
 31
0.0
  0
LINE
  5
2A9
100
AcDbEntity
  8
0
370
    -3
390
0
  6
Continuous
100
AcDbLine
 10
-268.398176
 20
221.012258
 30
0.0
 11
-268.286595
 21
220.416447
 31
0.0
  0
LINE
  5
2AA
100
AcDbEntity
  8
0
370
    -3
390
0
  6
Continuous
100
AcDbLine
 10
-268.349328
 20
221.612276
 30
0.0
 11
-268.398176
 21
221.012258
 31
0.0
  0
LINE
  5
2AB
100
AcDbEntity
  8
0
370
    -3
390
0
  6
Continuous
100
AcDbLine
 10
-268.141792
 20
222.195096
 30
0.0
 11
-268.349328
 21
221.612276
 31
0.0
  0
LINE
  5
2AC
100
AcDbEntity
  8
0
370
    -3
390
0
  6
Continuous
100
AcDbLine
 10
-267.782974
 20
222.739926
 30
0.0
 11
-268.141792
 21
222.195096
 31
0.0
  0
LINE
  5
2AD
100
AcDbEntity
  8
0
370
    -3
390
0
  6
Continuous
100
AcDbLine
 10
-267.285674
 20
223.227329
 30
0.0
 11
-267.782974
 21
222.739926
 31
0.0
  0
LINE
  5
2AE
100
AcDbEntity
  8
0
370
    -3
390
0
  6
Continuous
100
AcDbLine
 10
-266.667633
 20
223.639916
 30
0.0
 11
-267.285674
 21
223.227329
 31
0.0
  0
LINE
  5
2AF
100
AcDbEntity
  8
0
370
    -3
390
0
  6
Continuous
100
AcDbLine
 10
-265.9509
 20
223.962967
 30
0.0
 11
-266.667633
 21
223.639916
 31
0.0
  0
LINE
  5
2B0
100
AcDbEntity
  8
0
370
    -3
390
0
  6
Continuous
100
AcDbLine
 10
-265.161046
 20
224.184958
 30
0.0
 11
-265.9509
 21
223.962967
 31
0.0
  0
LINE
  5
2B1
100
AcDbEntity
  8
0
370
    -3
390
0
  6
Continuous
100
AcDbLine
 10
-264.326248
 20
224.29797
 30
0.0
 11
-265.161046
 21
224.184958
 31
0.0
  0
LINE
  5
2B2
100
AcDbEntity
  8
0
370
    -3
390
0
  6
Continuous
100
AcDbLine
 10
-263.47629
 20
224.29797
 30
0.0
 11
-264.326248
 21
224.29797
 31
0.0
  0
LINE
  5
2B3
100
AcDbEntity
  8
0
370
    -3
390
0
  6
Continuous
100
AcDbLine
 10
-262.641492
 20
224.184958
 30
0.0
 11
-263.47629
 21
224.29797
 31
0.0
  0
LINE
  5
2B4
100
AcDbEntity
  8
0
370
    -3
390
0
  6
Continuous
100
AcDbLine
 10
-261.851638
 20
223.962967
 30
0.0
 11
-262.641492
 21
224.184958
 31
0.0
  0
LINE
  5
2B5
100
AcDbEntity
  8
0
370
    -3
390
0
  6
Continuous
100
AcDbLine
 10
-261.134905
 20
223.639916
 30
0.0
 11
-261.851638
 21
223.962967
 31
0.0
  0
LINE
  5
2B6
100
AcDbEntity
  8
0
370
    -3
390
0
  6
Continuous
100
AcDbLine
 10
-260.516864
 20
223.227329
 30
0.0
 11
-261.134905
 21
223.639916
 31
0.0
  0
LINE
  5
2B7
100
AcDbEntity
  8
0
370
    -3
390
0
  6
Continuous
100
AcDbLine
 10
-260.019564
 20
222.739926
 30
0.0
 11
-260.516864
 21
223.227329
 31
0.0
  0
LINE
  5
2B8
100
AcDbEntity
  8
0
370
    -3
390
0
  6
Continuous
100
AcDbLine
 10
-259.660745
 20
222.195096
 30
0.0
 11
-260.019564
 21
222.739926
 31
0.0
  0
LINE
  5
2B9
100
AcDbEntity
  8
0
370
    -3
390
0
  6
Continuous
100
AcDbLine
 10
-259.45321
 20
221.612276
 30
0.0
 11
-259.660745
 21
222.195096
 31
0.0
  0
LINE
  5
2BA
100
AcDbEntity
  8
0
370
    -3
390
0
  6
Continuous
100
AcDbLine
 10
-259.404362
 20
221.012258
 30
0.0
 11
-259.45321
 21
221.612276
 31
0.0
  0
LINE
  5
2BB
100
AcDbEntity
  8
0
370
    -3
390
0
  6
Continuous
100
AcDbLine
 10
-259.515943
 20
220.416447
 30
0.0
 11
-259.404362
 21
221.012258
 31
0.0
  0
LINE
  5
2BC
100
AcDbEntity
  8
0
370
    -3
390
0
  6
Continuous
100
AcDbLine
 10
-259.783973
 20
219.846101
 30
0.0
 11
-259.515943
 21
220.416447
 31
0.0
  0
LINE
  5
2BD
100
AcDbEntity
  8
0
370
    -3
390
0
  6
Continuous
100
AcDbLine
 10
-260.198891
 20
219.321566
 30
0.0
 11
-259.783973
 21
219.846101
 31
0.0
  0
LINE
  5
2BE
100
AcDbEntity
  8
0
370
    -3
390
0
  6
Continuous
100
AcDbLine
 10
-260.745892
 20
218.861556
 30
0.0
 11
-260.198891
 21
219.321566
 31
0.0
  0
LINE
  5
2BF
100
AcDbEntity
  8
0
370
    -3
390
0
  6
Continuous
100
AcDbLine
 10
-261.405464
 20
218.482481
 30
0.0
 11
-260.745892
 21
218.861556
 31
0.0
  0
LINE
  5
2C0
100
AcDbEntity
  8
0
370
    -3
390
0
  6
Continuous
100
AcDbLine
 10
-260.46852
 20
220.0062
 30
0.0
 11
-260.401269
 21
220.593693
 31
0.0
  0
LINE
  5
2C1
100
AcDbEntity
  8
0
370
    -3
390
0
  6
Continuous
100
AcDbLine
 10
-260.667691
 20
219.441283
 30
0.0
 11
-260.46852
 21
220.0062
 31
0.0
  0
LINE
  5
2C2
100
AcDbEntity
  8
0
370
    -3
390
0
  6
Continuous
100
AcDbLine
 10
-260.991125
 20
218.920653
 30
0.0
 11
-260.667691
 21
219.441283
 31
0.0
  0
LINE
  5
2C3
100
AcDbEntity
  8
0
370
    -3
390
0
  6
Continuous
100
AcDbLine
 10
-261.426395
 20
218.464317
 30
0.0
 11
-260.991125
 21
218.920653
 31
0.0
  0
LINE
  5
2C4
100
AcDbEntity
  8
0
370
    -3
390
0
  6
Continuous
100
AcDbLine
 10
-261.956773
 20
218.089812
 30
0.0
 11
-261.426395
 21
218.464317
 31
0.0
  0
LINE
  5
2C5
100
AcDbEntity
  8
0
370
    -3
390
0
  6
Continuous
100
AcDbLine
 10
-262.561877
 20
217.81153
 30
0.0
 11
-261.956773
 21
218.089812
 31
0.0
  0
LINE
  5
2C6
100
AcDbEntity
  8
0
370
    -3
390
0
  6
Continuous
100
AcDbLine
 10
-263.218453
 20
217.640164
 30
0.0
 11
-262.561877
 21
217.81153
 31
0.0
  0
LINE
  5
2C7
100
AcDbEntity
  8
0
370
    -3
390
0
  6
Continuous
100
AcDbLine
 10
-263.901269
 20
217.582301
 30
0.0
 11
-263.218453
 21
217.640164
 31
0.0
  0
LINE
  5
2C8
100
AcDbEntity
  8
0
370
    -3
390
0
  6
Continuous
100
AcDbLine
 10
-264.584085
 20
217.640164
 30
0.0
 11
-263.901269
 21
217.582301
 31
0.0
  0
LINE
  5
2C9
100
AcDbEntity
  8
0
370
    -3
390
0
  6
Continuous
100
AcDbLine
 10
-265.240661
 20
217.81153
 30
0.0
 11
-264.584085
 21
217.640164
 31
0.0
  0
LINE
  5
2CA
100
AcDbEntity
  8
0
370
    -3
390
0
  6
Continuous
100
AcDbLine
 10
-265.845765
 20
218.089812
 30
0.0
 11
-265.240661
 21
217.81153
 31
0.0
  0
LINE
  5
2CB
100
AcDbEntity
  8
0
370
    -3
390
0
  6
Continuous
100
AcDbLine
 10
-266.376143
 20
218.464317
 30
0.0
 11
-265.845765
 21
218.089812
 31
0.0
  0
LINE
  5
2CC
100
AcDbEntity
  8
0
370
    -3
390
0
  6
Continuous
100
AcDbLine
 10
-266.811413
 20
218.920653
 30
0.0
 11
-266.376143
 21
218.464317
 31
0.0
  0
LINE
  5
2CD
100
AcDbEntity
  8
0
370
    -3
390
0
  6
Continuous
100
AcDbLine
 10
-267.134847
 20
219.441283
 30
0.0
 11
-266.811413
 21
218.920653
 31
0.0
  0
LINE
  5
2CE
100
AcDbEntity
  8
0
370
    -3
390
0
  6
Continuous
100
AcDbLine
 10
-267.334017
 20
220.0062
 30
0.0
 11
-267.134847
 21
219.441283
 31
0.0
  0
LINE
  5
2CF
100
AcDbEntity
  8
0
370
    -3
390
0
  6
Continuous
100
AcDbLine
 10
-267.401269
 20
220.593693
 30
0.0
 11
-267.334017
 21
220.0062
 31
0.0
  0
LINE
  5
2D0
100
AcDbEntity
  8
0
370
    -3
390
0
  6
Continuous
100
AcDbLine
 10
-267.334017
 20
221.181186
 30
0.0
 11
-267.401269
 21
220.593693
 31
0.0
  0
LINE
  5
2D1
100
AcDbEntity
  8
0
370
    -3
390
0
  6
Continuous
100
AcDbLine
 10
-267.134847
 20
221.746103
 30
0.0
 11
-267.334017
 21
221.181186
 31
0.0
  0
LINE
  5
2D2
100
AcDbEntity
  8
0
370
    -3
390
0
  6
Continuous
100
AcDbLine
 10
-266.811413
 20
222.266733
 30
0.0
 11
-267.134847
 21
221.746103
 31
0.0
  0
LINE
  5
2D3
100
AcDbEntity
  8
0
370
    -3
390
0
  6
Continuous
100
AcDbLine
 10
-266.376143
 20
222.723069
 30
0.0
 11
-266.811413
 21
222.266733
 31
0.0
  0
LINE
  5
2D4
100
AcDbEntity
  8
0
370
    -3
390
0
  6
Continuous
100
AcDbLine
 10
-265.845765
 20
223.097574
 30
0.0
 11
-266.376143
 21
222.723069
 31
0.0
  0
LINE
  5
2D5
100
AcDbEntity
  8
0
370
    -3
390
0
  6
Continuous
100
AcDbLine
 10
-265.240661
 20
223.375856
 30
0.0
 11
-265.845765
 21
223.097574
 31
0.0
  0
LINE
  5
2D6
100
AcDbEntity
  8
0
370
    -3
390
0
  6
Continuous
100
AcDbLine
 10
-264.584085
 20
223.547222
 30
0.0
 11
-265.240661
 21
223.375856
 31
0.0
  0
LINE
  5
2D7
100
AcDbEntity
  8
0
370
    -3
390
0
  6
Continuous
100
AcDbLine
 10
-263.901269
 20
223.605085
 30
0.0
 11
-264.584085
 21
223.547222
 31
0.0
  0
LINE
  5
2D8
100
AcDbEntity
  8
0
370
    -3
390
0
  6
Continuous
100
AcDbLine
 10
-263.218453
 20
223.547222
 30
0.0
 11
-263.901269
 21
223.605085
 31
0.0
  0
LINE
  5
2D9
100
AcDbEntity
  8
0
370
    -3
390
0
  6
Continuous
100
AcDbLine
 10
-262.561877
 20
223.375856
 30
0.0
 11
-263.218453
 21
223.547222
 31
0.0
  0
LINE
  5
2DA
100
AcDbEntity
  8
0
370
    -3
390
0
  6
Continuous
100
AcDbLine
 10
-261.956773
 20
223.097574
 30
0.0
 11
-262.561877
 21
223.375856
 31
0.0
  0
LINE
  5
2DB
100
AcDbEntity
  8
0
370
    -3
390
0
  6
Continuous
100
AcDbLine
 10
-261.426395
 20
222.723069
 30
0.0
 11
-261.956773
 21
223.097574
 31
0.0
  0
LINE
  5
2DC
100
AcDbEntity
  8
0
370
    -3
390
0
  6
Continuous
100
AcDbLine
 10
-260.991125
 20
222.266733
 30
0.0
 11
-261.426395
 21
222.723069
 31
0.0
  0
LINE
  5
2DD
100
AcDbEntity
  8
0
370
    -3
390
0
  6
Continuous
100
AcDbLine
 10
-260.667691
 20
221.746103
 30
0.0
 11
-260.991125
 21
222.266733
 31
0.0
  0
LINE
  5
2DE
100
AcDbEntity
  8
0
370
    -3
390
0
  6
Continuous
100
AcDbLine
 10
-260.46852
 20
221.181186
 30
0.0
 11
-260.667691
 21
221.746103
 31
0.0
  0
LINE
  5
2DF
100
AcDbEntity
  8
0
370
    -3
390
0
  6
Continuous
100
AcDbLine
 10
-260.401269
 20
220.593693
 30
0.0
 11
-260.46852
 21
221.181186
 31
0.0
  0
LINE
  5
2E0
100
AcDbEntity
  8
0
370
    -3
390
0
  6
Continuous
100
AcDbLine
 10
-268.152209
 20
219.834512
 30
0.0
 11
-267.596066
 21
219.313831
 31
0.0
  0
LINE
  5
2E1
100
AcDbEntity
  8
0
370
    -3
390
0
  6
Continuous
100
AcDbLine
 10
-268.563564
 20
220.418593
 30
0.0
 11
-268.152209
 21
219.834512
 31
0.0
  0
LINE
  5
2E2
100
AcDbEntity
  8
0
370
    -3
390
0
  6
Continuous
100
AcDbLine
 10
-268.816118
 20
221.04618
 30
0.0
 11
-268.563564
 21
220.418593
 31
0.0
  0
LINE
  5
2E3
100
AcDbEntity
  8
0
370
    -3
390
0
  6
Continuous
100
AcDbLine
 10
-268.901269
 20
221.695897
 30
0.0
 11
-268.816118
 21
221.04618
 31
0.0
  0
LINE
  5
2E4
100
AcDbEntity
  8
0
370
    -3
390
0
  6
Continuous
100
AcDbLine
 10
-258.98642
 20
221.04618
 30
0.0
 11
-258.901269
 21
221.695897
 31
0.0
  0
LINE
  5
2E5
100
AcDbEntity
  8
0
370
    -3
390
0
  6
Continuous
100
AcDbLine
 10
-259.238974
 20
220.418593
 30
0.0
 11
-258.98642
 21
221.04618
 31
0.0
  0
LINE
  5
2E6
100
AcDbEntity
  8
0
370
    -3
390
0
  6
Continuous
100
AcDbLine
 10
-259.650329
 20
219.834512
 30
0.0
 11
-259.238974
 21
220.418593
 31
0.0
  0
LINE
  5
2E7
100
AcDbEntity
  8
0
370
    -3
390
0
  6
Continuous
100
AcDbLine
 10
-260.206472
 20
219.313831
 30
0.0
 11
-259.650329
 21
219.834512
 31
0.0
  0
LINE
  5
2E8
100
AcDbEntity
  8
0
370
    -3
390
0
  6
Continuous
100
AcDbLine
 10
-259.401269
 20
221.130211
 30
0.0
 11
-259.401269
 21
221.695897
 31
0.0
  0
LINE
  5
2E9
100
AcDbEntity
  8
0
370
    -3
390
0
  6
Continuous
100
AcDbLine
 10
-268.401269
 20
221.130211
 30
0.0
 11
-268.401269
 21
221.695897
 31
0.0
  0
LINE
  5
2EA
100
AcDbEntity
  8
0
370
    -3
390
0
  6
Continuous
100
AcDbLine
 10
-268.314803
 20
222.31667
 30
0.0
 11
-268.401269
 21
221.695897
 31
0.0
  0
LINE
  5
2EB
100
AcDbEntity
  8
0
370
    -3
390
0
  6
Continuous
100
AcDbLine
 10
-268.058727
 20
222.913588
 30
0.0
 11
-268.314803
 21
222.31667
 31
0.0
  0
LINE
  5
2EC
100
AcDbEntity
  8
0
370
    -3
390
0
  6
Continuous
100
AcDbLine
 10
-267.642882
 20
223.46371
 30
0.0
 11
-268.058727
 21
222.913588
 31
0.0
  0
LINE
  5
2ED
100
AcDbEntity
  8
0
370
    -3
390
0
  6
Continuous
100
AcDbLine
 10
-267.083249
 20
223.945897
 30
0.0
 11
-267.642882
 21
223.46371
 31
0.0
  0
LINE
  5
2EE
100
AcDbEntity
  8
0
370
    -3
390
0
  6
Continuous
100
AcDbLine
 10
-266.401335
 20
224.341617
 30
0.0
 11
-267.083249
 21
223.945897
 31
0.0
  0
LINE
  5
2EF
100
AcDbEntity
  8
0
370
    -3
390
0
  6
Continuous
100
AcDbLine
 10
-265.623344
 20
224.635663
 30
0.0
 11
-266.401335
 21
224.341617
 31
0.0
  0
LINE
  5
2F0
100
AcDbEntity
  8
0
370
    -3
390
0
  6
Continuous
100
AcDbLine
 10
-264.779175
 20
224.816736
 30
0.0
 11
-265.623344
 21
224.635663
 31
0.0
  0
LINE
  5
2F1
100
AcDbEntity
  8
0
370
    -3
390
0
  6
Continuous
100
AcDbLine
 10
-263.901269
 20
224.877877
 30
0.0
 11
-264.779175
 21
224.816736
 31
0.0
  0
LINE
  5
2F2
100
AcDbEntity
  8
0
370
    -3
390
0
  6
Continuous
100
AcDbLine
 10
-263.023363
 20
224.816736
 30
0.0
 11
-263.901269
 21
224.877877
 31
0.0
  0
LINE
  5
2F3
100
AcDbEntity
  8
0
370
    -3
390
0
  6
Continuous
100
AcDbLine
 10
-262.179194
 20
224.635663
 30
0.0
 11
-263.023363
 21
224.816736
 31
0.0
  0
LINE
  5
2F4
100
AcDbEntity
  8
0
370
    -3
390
0
  6
Continuous
100
AcDbLine
 10
-261.401203
 20
224.341617
 30
0.0
 11
-262.179194
 21
224.635663
 31
0.0
  0
LINE
  5
2F5
100
AcDbEntity
  8
0
370
    -3
390
0
  6
Continuous
100
AcDbLine
 10
-260.719288
 20
223.945897
 30
0.0
 11
-261.401203
 21
224.341617
 31
0.0
  0
LINE
  5
2F6
100
AcDbEntity
  8
0
370
    -3
390
0
  6
Continuous
100
AcDbLine
 10
-260.159656
 20
223.46371
 30
0.0
 11
-260.719288
 21
223.945897
 31
0.0
  0
LINE
  5
2F7
100
AcDbEntity
  8
0
370
    -3
390
0
  6
Continuous
100
AcDbLine
 10
-259.743811
 20
222.913588
 30
0.0
 11
-260.159656
 21
223.46371
 31
0.0
  0
LINE
  5
2F8
100
AcDbEntity
  8
0
370
    -3
390
0
  6
Continuous
100
AcDbLine
 10
-259.487735
 20
222.31667
 30
0.0
 11
-259.743811
 21
222.913588
 31
0.0
  0
LINE
  5
2F9
100
AcDbEntity
  8
0
370
    -3
390
0
  6
Continuous
100
AcDbLine
 10
-259.401269
 20
221.695897
 30
0.0
 11
-259.487735
 21
222.31667
 31
0.0
  0
LINE
  5
2FA
100
AcDbEntity
  8
0
370
    -3
390
0
  6
Continuous
100
AcDbLine
 10
-258.901269
 20
221.695897
 30
0.0
 11
-258.901269
 21
222.5125
 31
0.0
  0
LINE
  5
2FB
100
AcDbEntity
  8
0
370
    -3
390
0
  6
Continuous
100
AcDbLine
 10
-268.901269
 20
221.695897
 30
0.0
 11
-268.901269
 21
222.5125
 31
0.0
  0
LINE
  5
2FC
100
AcDbEntity
  8
0
370
    -3
390
0
  6
Continuous
100
AcDbLine
 10
-268.805195
 20
223.202248
 30
0.0
 11
-268.901269
 21
222.5125
 31
0.0
  0
LINE
  5
2FD
100
AcDbEntity
  8
0
370
    -3
390
0
  6
Continuous
100
AcDbLine
 10
-268.520667
 20
223.86549
 30
0.0
 11
-268.805195
 21
223.202248
 31
0.0
  0
LINE
  5
2FE
100
AcDbEntity
  8
0
370
    -3
390
0
  6
Continuous
100
AcDbLine
 10
-268.058617
 20
224.476737
 30
0.0
 11
-268.520667
 21
223.86549
 31
0.0
  0
LINE
  5
2FF
100
AcDbEntity
  8
0
370
    -3
390
0
  6
Continuous
100
AcDbLine
 10
-267.436803
 20
225.0125
 30
0.0
 11
-268.058617
 21
224.476737
 31
0.0
  0
LINE
  5
300
100
AcDbEntity
  8
0
370
    -3
390
0
  6
Continuous
100
AcDbLine
 10
-266.67912
 20
225.452189
 30
0.0
 11
-267.436803
 21
225.0125
 31
0.0
  0
LINE
  5
301
100
AcDbEntity
  8
0
370
    -3
390
0
  6
Continuous
100
AcDbLine
 10
-265.814686
 20
225.778907
 30
0.0
 11
-266.67912
 21
225.452189
 31
0.0
  0
LINE
  5
302
100
AcDbEntity
  8
0
370
    -3
390
0
  6
Continuous
100
AcDbLine
 10
-264.876721
 20
225.980099
 30
0.0
 11
-265.814686
 21
225.778907
 31
0.0
  0
LINE
  5
303
100
AcDbEntity
  8
0
370
    -3
390
0
  6
Continuous
100
AcDbLine
 10
-263.901269
 20
226.048034
 30
0.0
 11
-264.876721
 21
225.980099
 31
0.0
  0
LINE
  5
304
100
AcDbEntity
  8
0
370
    -3
390
0
  6
Continuous
100
AcDbLine
 10
-262.925817
 20
225.980099
 30
0.0
 11
-263.901269
 21
226.048034
 31
0.0
  0
LINE
  5
305
100
AcDbEntity
  8
0
370
    -3
390
0
  6
Continuous
100
AcDbLine
 10
-261.987852
 20
225.778907
 30
0.0
 11
-262.925817
 21
225.980099
 31
0.0
  0
LINE
  5
306
100
AcDbEntity
  8
0
370
    -3
390
0
  6
Continuous
100
AcDbLine
 10
-261.123418
 20
225.452189
 30
0.0
 11
-261.987852
 21
225.778907
 31
0.0
  0
LINE
  5
307
100
AcDbEntity
  8
0
370
    -3
390
0
  6
Continuous
100
AcDbLine
 10
-260.365735
 20
225.0125
 30
0.0
 11
-261.123418
 21
225.452189
 31
0.0
  0
LINE
  5
308
100
AcDbEntity
  8
0
370
    -3
390
0
  6
Continuous
100
AcDbLine
 10
-259.743921
 20
224.476737
 30
0.0
 11
-260.365735
 21
225.0125
 31
0.0
  0
LINE
  5
309
100
AcDbEntity
  8
0
370
    -3
390
0
  6
Continuous
100
AcDbLine
 10
-259.281871
 20
223.86549
 30
0.0
 11
-259.743921
 21
224.476737
 31
0.0
  0
LINE
  5
30A
100
AcDbEntity
  8
0
370
    -3
390
0
  6
Continuous
100
AcDbLine
 10
-258.997343
 20
223.202248
 30
0.0
 11
-259.281871
 21
223.86549
 31
0.0
  0
LINE
  5
30B
100
AcDbEntity
  8
0
370
    -3
390
0
  6
Continuous
100
AcDbLine
 10
-258.901269
 20
222.5125
 30
0.0
 11
-258.997343
 21
223.202248
 31
0.0
  0
LINE
  5
30C
100
AcDbEntity
  8
0
370
    -3
390
0
  6
Continuous
100
AcDbLine
 10
-246.901269
 20
354.337231
 30
0.0
 11
-246.901269
 21
279.537231
 31
0.0
  0
LINE
  5
30D
100
AcDbEntity
  8
0
370
    -3
390
0
  6
Continuous
100
AcDbLine
 10
-246.901269
 20
354.337231
 30
0.0
 11
-278.648434
 21
354.337231
 31
0.0
  0
LINE
  5
30E
100
AcDbEntity
  8
0
370
    -3
390
0
  6
Continuous
100
AcDbLine
 10
-309.001269
 20
341.57779
 30
0.0
 11
-294.048434
 21
350.210814
 31
0.0
  0
LINE
  5
30F
100
AcDbEntity
  8
0
370
    -3
390
0
  6
Continuous
100
AcDbLine
 10
-310.901269
 20
279.537231
 30
0.0
 11
-310.901269
 21
338.286894
 31
0.0
  0
ARC
  5
310
100
AcDbEntity
  8
0
370
    -3
390
0
  6
Continuous
100
AcDbCircle
 10
-307.101269
 20
338.286894
 30
0.0
 40
3.8
100
AcDbArc
 50
120.0
 51
180.0
  0
ARC
  5
311
100
AcDbEntity
  8
0
370
    -3
390
0
  6
Continuous
100
AcDbCircle
 10
-278.648434
 20
323.537231
 30
0.0
 40
30.8
100
AcDbArc
 50
90.0
 51
120.0
  0
LINE
  5
312
100
AcDbEntity
  8
0
370
    -3
390
0
  6
Continuous
100
AcDbLine
 10
-309.001269
 20
217.496672
 30
0.0
 11
-294.048434
 21
208.863649
 31
0.0
  0
LINE
  5
313
100
AcDbEntity
  8
0
370
    -3
390
0
  6
Continuous
100
AcDbLine
 10
-310.901269
 20
279.537231
 30
0.0
 11
-310.901269
 21
220.787569
 31
0.0
  0
ARC
  5
314
100
AcDbEntity
  8
0
370
    -3
390
0
  6
Continuous
100
AcDbCircle
 10
-307.101269
 20
220.787569
 30
0.0
 40
3.8
100
AcDbArc
 50
180.0
 51
240.0
  0
LINE
  5
315
100
AcDbEntity
  8
0
370
    -3
390
0
  6
Continuous
100
AcDbLine
 10
-263.901269
 20
339.782729
 30
0.0
 11
-265.830474
 21
340.993392
 31
0.0
  0
LINE
  5
316
100
AcDbEntity
  8
0
370
    -3
390
0
  6
Continuous
100
AcDbLine
 10
-263.901269
 20
339.782729
 30
0.0
 11
-265.901269
 21
338.209392
 31
0.0
  0
LINE
  5
317
100
AcDbEntity
  8
0
370
    -3
390
0
  6
Continuous
100
AcDbLine
 10
-263.901269
 20
339.782729
 30
0.0
 11
-261.972064
 21
340.993392
 31
0.0
  0
LINE
  5
318
100
AcDbEntity
  8
0
370
    -3
390
0
  6
Continuous
100
AcDbLine
 10
-263.901269
 20
339.782729
 30
0.0
 11
-261.901269
 21
338.209392
 31
0.0
  0
LINE
  5
319
100
AcDbEntity
  8
0
370
    -3
390
0
  6
Continuous
100
AcDbLine
 10
-260.745892
 20
340.212907
 30
0.0
 11
-261.405464
 21
340.591982
 31
0.0
  0
LINE
  5
31A
100
AcDbEntity
  8
0
370
    -3
390
0
  6
Continuous
100
AcDbLine
 10
-260.198891
 20
339.752897
 30
0.0
 11
-260.745892
 21
340.212907
 31
0.0
  0
LINE
  5
31B
100
AcDbEntity
  8
0
370
    -3
390
0
  6
Continuous
100
AcDbLine
 10
-259.783973
 20
339.228362
 30
0.0
 11
-260.198891
 21
339.752897
 31
0.0
  0
LINE
  5
31C
100
AcDbEntity
  8
0
370
    -3
390
0
  6
Continuous
100
AcDbLine
 10
-259.515943
 20
338.658015
 30
0.0
 11
-259.783973
 21
339.228362
 31
0.0
  0
LINE
  5
31D
100
AcDbEntity
  8
0
370
    -3
390
0
  6
Continuous
100
AcDbLine
 10
-259.404362
 20
338.062205
 30
0.0
 11
-259.515943
 21
338.658015
 31
0.0
  0
LINE
  5
31E
100
AcDbEntity
  8
0
370
    -3
390
0
  6
Continuous
100
AcDbLine
 10
-259.45321
 20
337.462187
 30
0.0
 11
-259.404362
 21
338.062205
 31
0.0
  0
LINE
  5
31F
100
AcDbEntity
  8
0
370
    -3
390
0
  6
Continuous
100
AcDbLine
 10
-259.660745
 20
336.879366
 30
0.0
 11
-259.45321
 21
337.462187
 31
0.0
  0
LINE
  5
320
100
AcDbEntity
  8
0
370
    -3
390
0
  6
Continuous
100
AcDbLine
 10
-260.019564
 20
336.334536
 30
0.0
 11
-259.660745
 21
336.879366
 31
0.0
  0
LINE
  5
321
100
AcDbEntity
  8
0
370
    -3
390
0
  6
Continuous
100
AcDbLine
 10
-260.516864
 20
335.847134
 30
0.0
 11
-260.019564
 21
336.334536
 31
0.0
  0
LINE
  5
322
100
AcDbEntity
  8
0
370
    -3
390
0
  6
Continuous
100
AcDbLine
 10
-261.134905
 20
335.434547
 30
0.0
 11
-260.516864
 21
335.847134
 31
0.0
  0
LINE
  5
323
100
AcDbEntity
  8
0
370
    -3
390
0
  6
Continuous
100
AcDbLine
 10
-261.851638
 20
335.111496
 30
0.0
 11
-261.134905
 21
335.434547
 31
0.0
  0
LINE
  5
324
100
AcDbEntity
  8
0
370
    -3
390
0
  6
Continuous
100
AcDbLine
 10
-262.641492
 20
334.889504
 30
0.0
 11
-261.851638
 21
335.111496
 31
0.0
  0
LINE
  5
325
100
AcDbEntity
  8
0
370
    -3
390
0
  6
Continuous
100
AcDbLine
 10
-263.47629
 20
334.776493
 30
0.0
 11
-262.641492
 21
334.889504
 31
0.0
  0
LINE
  5
326
100
AcDbEntity
  8
0
370
    -3
390
0
  6
Continuous
100
AcDbLine
 10
-264.326248
 20
334.776493
 30
0.0
 11
-263.47629
 21
334.776493
 31
0.0
  0
LINE
  5
327
100
AcDbEntity
  8
0
370
    -3
390
0
  6
Continuous
100
AcDbLine
 10
-265.161046
 20
334.889504
 30
0.0
 11
-264.326248
 21
334.776493
 31
0.0
  0
LINE
  5
328
100
AcDbEntity
  8
0
370
    -3
390
0
  6
Continuous
100
AcDbLine
 10
-265.9509
 20
335.111496
 30
0.0
 11
-265.161046
 21
334.889504
 31
0.0
  0
LINE
  5
329
100
AcDbEntity
  8
0
370
    -3
390
0
  6
Continuous
100
AcDbLine
 10
-266.667633
 20
335.434547
 30
0.0
 11
-265.9509
 21
335.111496
 31
0.0
  0
LINE
  5
32A
100
AcDbEntity
  8
0
370
    -3
390
0
  6
Continuous
100
AcDbLine
 10
-267.285674
 20
335.847134
 30
0.0
 11
-266.667633
 21
335.434547
 31
0.0
  0
LINE
  5
32B
100
AcDbEntity
  8
0
370
    -3
390
0
  6
Continuous
100
AcDbLine
 10
-267.782974
 20
336.334536
 30
0.0
 11
-267.285674
 21
335.847134
 31
0.0
  0
LINE
  5
32C
100
AcDbEntity
  8
0
370
    -3
390
0
  6
Continuous
100
AcDbLine
 10
-268.141792
 20
336.879366
 30
0.0
 11
-267.782974
 21
336.334536
 31
0.0
  0
LINE
  5
32D
100
AcDbEntity
  8
0
370
    -3
390
0
  6
Continuous
100
AcDbLine
 10
-268.349328
 20
337.462187
 30
0.0
 11
-268.141792
 21
336.879366
 31
0.0
  0
LINE
  5
32E
100
AcDbEntity
  8
0
370
    -3
390
0
  6
Continuous
100
AcDbLine
 10
-268.398176
 20
338.062205
 30
0.0
 11
-268.349328
 21
337.462187
 31
0.0
  0
LINE
  5
32F
100
AcDbEntity
  8
0
370
    -3
390
0
  6
Continuous
100
AcDbLine
 10
-268.286595
 20
338.658015
 30
0.0
 11
-268.398176
 21
338.062205
 31
0.0
  0
LINE
  5
330
100
AcDbEntity
  8
0
370
    -3
390
0
  6
Continuous
100
AcDbLine
 10
-268.018564
 20
339.228362
 30
0.0
 11
-268.286595
 21
338.658015
 31
0.0
  0
LINE
  5
331
100
AcDbEntity
  8
0
370
    -3
390
0
  6
Continuous
100
AcDbLine
 10
-267.603647
 20
339.752897
 30
0.0
 11
-268.018564
 21
339.228362
 31
0.0
  0
LINE
  5
332
100
AcDbEntity
  8
0
370
    -3
390
0
  6
Continuous
100
AcDbLine
 10
-267.056646
 20
340.212907
 30
0.0
 11
-267.603647
 21
339.752897
 31
0.0
  0
LINE
  5
333
100
AcDbEntity
  8
0
370
    -3
390
0
  6
Continuous
100
AcDbLine
 10
-266.397074
 20
340.591982
 30
0.0
 11
-267.056646
 21
340.212907
 31
0.0
  0
LINE
  5
334
100
AcDbEntity
  8
0
370
    -3
390
0
  6
Continuous
100
AcDbLine
 10
-260.46852
 20
337.893276
 30
0.0
 11
-260.401269
 21
338.48077
 31
0.0
  0
LINE
  5
335
100
AcDbEntity
  8
0
370
    -3
390
0
  6
Continuous
100
AcDbLine
 10
-260.667691
 20
337.32836
 30
0.0
 11
-260.46852
 21
337.893276
 31
0.0
  0
LINE
  5
336
100
AcDbEntity
  8
0
370
    -3
390
0
  6
Continuous
100
AcDbLine
 10
-260.991125
 20
336.80773
 30
0.0
 11
-260.667691
 21
337.32836
 31
0.0
  0
LINE
  5
337
100
AcDbEntity
  8
0
370
    -3
390
0
  6
Continuous
100
AcDbLine
 10
-261.426395
 20
336.351394
 30
0.0
 11
-260.991125
 21
336.80773
 31
0.0
  0
LINE
  5
338
100
AcDbEntity
  8
0
370
    -3
390
0
  6
Continuous
100
AcDbLine
 10
-261.956773
 20
335.976889
 30
0.0
 11
-261.426395
 21
336.351394
 31
0.0
  0
LINE
  5
339
100
AcDbEntity
  8
0
370
    -3
390
0
  6
Continuous
100
AcDbLine
 10
-262.561877
 20
335.698606
 30
0.0
 11
-261.956773
 21
335.976889
 31
0.0
  0
LINE
  5
33A
100
AcDbEntity
  8
0
370
    -3
390
0
  6
Continuous
100
AcDbLine
 10
-263.218453
 20
335.527241
 30
0.0
 11
-262.561877
 21
335.698606
 31
0.0
  0
LINE
  5
33B
100
AcDbEntity
  8
0
370
    -3
390
0
  6
Continuous
100
AcDbLine
 10
-263.901269
 20
335.469378
 30
0.0
 11
-263.218453
 21
335.527241
 31
0.0
  0
LINE
  5
33C
100
AcDbEntity
  8
0
370
    -3
390
0
  6
Continuous
100
AcDbLine
 10
-264.584085
 20
335.527241
 30
0.0
 11
-263.901269
 21
335.469378
 31
0.0
  0
LINE
  5
33D
100
AcDbEntity
  8
0
370
    -3
390
0
  6
Continuous
100
AcDbLine
 10
-265.240661
 20
335.698606
 30
0.0
 11
-264.584085
 21
335.527241
 31
0.0
  0
LINE
  5
33E
100
AcDbEntity
  8
0
370
    -3
390
0
  6
Continuous
100
AcDbLine
 10
-265.845765
 20
335.976889
 30
0.0
 11
-265.240661
 21
335.698606
 31
0.0
  0
LINE
  5
33F
100
AcDbEntity
  8
0
370
    -3
390
0
  6
Continuous
100
AcDbLine
 10
-266.376143
 20
336.351394
 30
0.0
 11
-265.845765
 21
335.976889
 31
0.0
  0
LINE
  5
340
100
AcDbEntity
  8
0
370
    -3
390
0
  6
Continuous
100
AcDbLine
 10
-266.811413
 20
336.80773
 30
0.0
 11
-266.376143
 21
336.351394
 31
0.0
  0
LINE
  5
341
100
AcDbEntity
  8
0
370
    -3
390
0
  6
Continuous
100
AcDbLine
 10
-267.134847
 20
337.32836
 30
0.0
 11
-266.811413
 21
336.80773
 31
0.0
  0
LINE
  5
342
100
AcDbEntity
  8
0
370
    -3
390
0
  6
Continuous
100
AcDbLine
 10
-267.334017
 20
337.893276
 30
0.0
 11
-267.134847
 21
337.32836
 31
0.0
  0
LINE
  5
343
100
AcDbEntity
  8
0
370
    -3
390
0
  6
Continuous
100
AcDbLine
 10
-267.401269
 20
338.48077
 30
0.0
 11
-267.334017
 21
337.893276
 31
0.0
  0
LINE
  5
344
100
AcDbEntity
  8
0
370
    -3
390
0
  6
Continuous
100
AcDbLine
 10
-267.334017
 20
339.068263
 30
0.0
 11
-267.401269
 21
338.48077
 31
0.0
  0
LINE
  5
345
100
AcDbEntity
  8
0
370
    -3
390
0
  6
Continuous
100
AcDbLine
 10
-267.134847
 20
339.633179
 30
0.0
 11
-267.334017
 21
339.068263
 31
0.0
  0
LINE
  5
346
100
AcDbEntity
  8
0
370
    -3
390
0
  6
Continuous
100
AcDbLine
 10
-266.811413
 20
340.153809
 30
0.0
 11
-267.134847
 21
339.633179
 31
0.0
  0
LINE
  5
347
100
AcDbEntity
  8
0
370
    -3
390
0
  6
Continuous
100
AcDbLine
 10
-266.376143
 20
340.610145
 30
0.0
 11
-266.811413
 21
340.153809
 31
0.0
  0
LINE
  5
348
100
AcDbEntity
  8
0
370
    -3
390
0
  6
Continuous
100
AcDbLine
 10
-265.845765
 20
340.984651
 30
0.0
 11
-266.376143
 21
340.610145
 31
0.0
  0
LINE
  5
349
100
AcDbEntity
  8
0
370
    -3
390
0
  6
Continuous
100
AcDbLine
 10
-265.240661
 20
341.262933
 30
0.0
 11
-265.845765
 21
340.984651
 31
0.0
  0
LINE
  5
34A
100
AcDbEntity
  8
0
370
    -3
390
0
  6
Continuous
100
AcDbLine
 10
-264.584085
 20
341.434299
 30
0.0
 11
-265.240661
 21
341.262933
 31
0.0
  0
LINE
  5
34B
100
AcDbEntity
  8
0
370
    -3
390
0
  6
Continuous
100
AcDbLine
 10
-263.901269
 20
341.492162
 30
0.0
 11
-264.584085
 21
341.434299
 31
0.0
  0
LINE
  5
34C
100
AcDbEntity
  8
0
370
    -3
390
0
  6
Continuous
100
AcDbLine
 10
-263.218453
 20
341.434299
 30
0.0
 11
-263.901269
 21
341.492162
 31
0.0
  0
LINE
  5
34D
100
AcDbEntity
  8
0
370
    -3
390
0
  6
Continuous
100
AcDbLine
 10
-262.561877
 20
341.262933
 30
0.0
 11
-263.218453
 21
341.434299
 31
0.0
  0
LINE
  5
34E
100
AcDbEntity
  8
0
370
    -3
390
0
  6
Continuous
100
AcDbLine
 10
-261.956773
 20
340.984651
 30
0.0
 11
-262.561877
 21
341.262933
 31
0.0
  0
LINE
  5
34F
100
AcDbEntity
  8
0
370
    -3
390
0
  6
Continuous
100
AcDbLine
 10
-261.426395
 20
340.610145
 30
0.0
 11
-261.956773
 21
340.984651
 31
0.0
  0
LINE
  5
350
100
AcDbEntity
  8
0
370
    -3
390
0
  6
Continuous
100
AcDbLine
 10
-260.991125
 20
340.153809
 30
0.0
 11
-261.426395
 21
340.610145
 31
0.0
  0
LINE
  5
351
100
AcDbEntity
  8
0
370
    -3
390
0
  6
Continuous
100
AcDbLine
 10
-260.667691
 20
339.633179
 30
0.0
 11
-260.991125
 21
340.153809
 31
0.0
  0
LINE
  5
352
100
AcDbEntity
  8
0
370
    -3
390
0
  6
Continuous
100
AcDbLine
 10
-260.46852
 20
339.068263
 30
0.0
 11
-260.667691
 21
339.633179
 31
0.0
  0
LINE
  5
353
100
AcDbEntity
  8
0
370
    -3
390
0
  6
Continuous
100
AcDbLine
 10
-260.401269
 20
338.48077
 30
0.0
 11
-260.46852
 21
339.068263
 31
0.0
  0
LINE
  5
354
100
AcDbEntity
  8
0
370
    -3
390
0
  6
Continuous
100
AcDbLine
 10
-268.816118
 20
338.028283
 30
0.0
 11
-268.901269
 21
337.378566
 31
0.0
  0
LINE
  5
355
100
AcDbEntity
  8
0
370
    -3
390
0
  6
Continuous
100
AcDbLine
 10
-268.563564
 20
338.655869
 30
0.0
 11
-268.816118
 21
338.028283
 31
0.0
  0
LINE
  5
356
100
AcDbEntity
  8
0
370
    -3
390
0
  6
Continuous
100
AcDbLine
 10
-268.152209
 20
339.239951
 30
0.0
 11
-268.563564
 21
338.655869
 31
0.0
  0
LINE
  5
357
100
AcDbEntity
  8
0
370
    -3
390
0
  6
Continuous
100
AcDbLine
 10
-267.596066
 20
339.760632
 30
0.0
 11
-268.152209
 21
339.239951
 31
0.0
  0
LINE
  5
358
100
AcDbEntity
  8
0
370
    -3
390
0
  6
Continuous
100
AcDbLine
 10
-259.650329
 20
339.239951
 30
0.0
 11
-260.206472
 21
339.760632
 31
0.0
  0
LINE
  5
359
100
AcDbEntity
  8
0
370
    -3
390
0
  6
Continuous
100
AcDbLine
 10
-259.238974
 20
338.655869
 30
0.0
 11
-259.650329
 21
339.239951
 31
0.0
  0
LINE
  5
35A
100
AcDbEntity
  8
0
370
    -3
390
0
  6
Continuous
100
AcDbLine
 10
-258.98642
 20
338.028283
 30
0.0
 11
-259.238974
 21
338.655869
 31
0.0
  0
LINE
  5
35B
100
AcDbEntity
  8
0
370
    -3
390
0
  6
Continuous
100
AcDbLine
 10
-258.901269
 20
337.378566
 30
0.0
 11
-258.98642
 21
338.028283
 31
0.0
  0
LINE
  5
35C
100
AcDbEntity
  8
0
370
    -3
390
0
  6
Continuous
100
AcDbLine
 10
-259.401269
 20
337.944251
 30
0.0
 11
-259.401269
 21
337.378566
 31
0.0
  0
LINE
  5
35D
100
AcDbEntity
  8
0
370
    -3
390
0
  6
Continuous
100
AcDbLine
 10
-268.401269
 20
337.944251
 30
0.0
 11
-268.401269
 21
337.378566
 31
0.0
  0
LINE
  5
35E
100
AcDbEntity
  8
0
370
    -3
390
0
  6
Continuous
100
AcDbLine
 10
-259.487735
 20
336.757792
 30
0.0
 11
-259.401269
 21
337.378566
 31
0.0
  0
LINE
  5
35F
100
AcDbEntity
  8
0
370
    -3
390
0
  6
Continuous
100
AcDbLine
 10
-259.743811
 20
336.160875
 30
0.0
 11
-259.487735
 21
336.757792
 31
0.0
  0
LINE
  5
360
100
AcDbEntity
  8
0
370
    -3
390
0
  6
Continuous
100
AcDbLine
 10
-260.159656
 20
335.610752
 30
0.0
 11
-259.743811
 21
336.160875
 31
0.0
  0
LINE
  5
361
100
AcDbEntity
  8
0
370
    -3
390
0
  6
Continuous
100
AcDbLine
 10
-260.719288
 20
335.128566
 30
0.0
 11
-260.159656
 21
335.610752
 31
0.0
  0
LINE
  5
362
100
AcDbEntity
  8
0
370
    -3
390
0
  6
Continuous
100
AcDbLine
 10
-261.401203
 20
334.732846
 30
0.0
 11
-260.719288
 21
335.128566
 31
0.0
  0
LINE
  5
363
100
AcDbEntity
  8
0
370
    -3
390
0
  6
Continuous
100
AcDbLine
 10
-262.179194
 20
334.438799
 30
0.0
 11
-261.401203
 21
334.732846
 31
0.0
  0
LINE
  5
364
100
AcDbEntity
  8
0
370
    -3
390
0
  6
Continuous
100
AcDbLine
 10
-263.023363
 20
334.257726
 30
0.0
 11
-262.179194
 21
334.438799
 31
0.0
  0
LINE
  5
365
100
AcDbEntity
  8
0
370
    -3
390
0
  6
Continuous
100
AcDbLine
 10
-263.901269
 20
334.196586
 30
0.0
 11
-263.023363
 21
334.257726
 31
0.0
  0
LINE
  5
366
100
AcDbEntity
  8
0
370
    -3
390
0
  6
Continuous
100
AcDbLine
 10
-264.779175
 20
334.257726
 30
0.0
 11
-263.901269
 21
334.196586
 31
0.0
  0
LINE
  5
367
100
AcDbEntity
  8
0
370
    -3
390
0
  6
Continuous
100
AcDbLine
 10
-265.623344
 20
334.438799
 30
0.0
 11
-264.779175
 21
334.257726
 31
0.0
  0
LINE
  5
368
100
AcDbEntity
  8
0
370
    -3
390
0
  6
Continuous
100
AcDbLine
 10
-266.401335
 20
334.732846
 30
0.0
 11
-265.623344
 21
334.438799
 31
0.0
  0
LINE
  5
369
100
AcDbEntity
  8
0
370
    -3
390
0
  6
Continuous
100
AcDbLine
 10
-267.083249
 20
335.128566
 30
0.0
 11
-266.401335
 21
334.732846
 31
0.0
  0
LINE
  5
36A
100
AcDbEntity
  8
0
370
    -3
390
0
  6
Continuous
100
AcDbLine
 10
-267.642882
 20
335.610752
 30
0.0
 11
-267.083249
 21
335.128566
 31
0.0
  0
LINE
  5
36B
100
AcDbEntity
  8
0
370
    -3
390
0
  6
Continuous
100
AcDbLine
 10
-268.058727
 20
336.160875
 30
0.0
 11
-267.642882
 21
335.610752
 31
0.0
  0
LINE
  5
36C
100
AcDbEntity
  8
0
370
    -3
390
0
  6
Continuous
100
AcDbLine
 10
-268.314803
 20
336.757792
 30
0.0
 11
-268.058727
 21
336.160875
 31
0.0
  0
LINE
  5
36D
100
AcDbEntity
  8
0
370
    -3
390
0
  6
Continuous
100
AcDbLine
 10
-268.401269
 20
337.378566
 30
0.0
 11
-268.314803
 21
336.757792
 31
0.0
  0
LINE
  5
36E
100
AcDbEntity
  8
0
370
    -3
390
0
  6
Continuous
100
AcDbLine
 10
-258.901269
 20
337.378566
 30
0.0
 11
-258.901269
 21
336.561963
 31
0.0
  0
LINE
  5
36F
100
AcDbEntity
  8
0
370
    -3
390
0
  6
Continuous
100
AcDbLine
 10
-268.901269
 20
337.378566
 30
0.0
 11
-268.901269
 21
336.561963
 31
0.0
  0
LINE
  5
370
100
AcDbEntity
  8
0
370
    -3
390
0
  6
Continuous
100
AcDbLine
 10
-258.997343
 20
335.872214
 30
0.0
 11
-258.901269
 21
336.561963
 31
0.0
  0
LINE
  5
371
100
AcDbEntity
  8
0
370
    -3
390
0
  6
Continuous
100
AcDbLine
 10
-259.281871
 20
335.208973
 30
0.0
 11
-258.997343
 21
335.872214
 31
0.0
  0
LINE
  5
372
100
AcDbEntity
  8
0
370
    -3
390
0
  6
Continuous
100
AcDbLine
 10
-259.743921
 20
334.597725
 30
0.0
 11
-259.281871
 21
335.208973
 31
0.0
  0
LINE
  5
373
100
AcDbEntity
  8
0
370
    -3
390
0
  6
Continuous
100
AcDbLine
 10
-260.365735
 20
334.061963
 30
0.0
 11
-259.743921
 21
334.597725
 31
0.0
  0
LINE
  5
374
100
AcDbEntity
  8
0
370
    -3
390
0
  6
Continuous
100
AcDbLine
 10
-261.123418
 20
333.622274
 30
0.0
 11
-260.365735
 21
334.061963
 31
0.0
  0
LINE
  5
375
100
AcDbEntity
  8
0
370
    -3
390
0
  6
Continuous
100
AcDbLine
 10
-261.987852
 20
333.295555
 30
0.0
 11
-261.123418
 21
333.622274
 31
0.0
  0
LINE
  5
376
100
AcDbEntity
  8
0
370
    -3
390
0
  6
Continuous
100
AcDbLine
 10
-262.925817
 20
333.094363
 30
0.0
 11
-261.987852
 21
333.295555
 31
0.0
  0
LINE
  5
377
100
AcDbEntity
  8
0
370
    -3
390
0
  6
Continuous
100
AcDbLine
 10
-263.901269
 20
333.026429
 30
0.0
 11
-262.925817
 21
333.094363
 31
0.0
  0
LINE
  5
378
100
AcDbEntity
  8
0
370
    -3
390
0
  6
Continuous
100
AcDbLine
 10
-264.876721
 20
333.094363
 30
0.0
 11
-263.901269
 21
333.026429
 31
0.0
  0
LINE
  5
379
100
AcDbEntity
  8
0
370
    -3
390
0
  6
Continuous
100
AcDbLine
 10
-265.814686
 20
333.295555
 30
0.0
 11
-264.876721
 21
333.094363
 31
0.0
  0
LINE
  5
37A
100
AcDbEntity
  8
0
370
    -3
390
0
  6
Continuous
100
AcDbLine
 10
-266.67912
 20
333.622274
 30
0.0
 11
-265.814686
 21
333.295555
 31
0.0
  0
LINE
  5
37B
100
AcDbEntity
  8
0
370
    -3
390
0
  6
Continuous
100
AcDbLine
 10
-267.436803
 20
334.061963
 30
0.0
 11
-266.67912
 21
333.622274
 31
0.0
  0
LINE
  5
37C
100
AcDbEntity
  8
0
370
    -3
390
0
  6
Continuous
100
AcDbLine
 10
-268.058617
 20
334.597725
 30
0.0
 11
-267.436803
 21
334.061963
 31
0.0
  0
LINE
  5
37D
100
AcDbEntity
  8
0
370
    -3
390
0
  6
Continuous
100
AcDbLine
 10
-268.520667
 20
335.208973
 30
0.0
 11
-268.058617
 21
334.597725
 31
0.0
  0
LINE
  5
37E
100
AcDbEntity
  8
0
370
    -3
390
0
  6
Continuous
100
AcDbLine
 10
-268.805195
 20
335.872214
 30
0.0
 11
-268.520667
 21
335.208973
 31
0.0
  0
LINE
  5
37F
100
AcDbEntity
  8
0
370
    -3
390
0
  6
Continuous
100
AcDbLine
 10
-268.901269
 20
336.561963
 30
0.0
 11
-268.805195
 21
335.872214
 31
0.0
  0
ARC
  5
380
100
AcDbEntity
  8
0
370
    -3
390
0
  6
Continuous
100
AcDbCircle
 10
-278.648434
 20
235.537231
 30
0.0
 40
30.8
100
AcDbArc
 50
240.0
 51
270.0
  0
LINE
  5
381
100
AcDbEntity
  8
0
370
    -3
390
0
  6
Continuous
100
AcDbLine
 10
-212.901269
 20
209.537231
 30
0.0
 11
-212.901269
 21
208.537231
 31
0.0
  0
LINE
  5
382
100
AcDbEntity
  8
0
370
    -3
390
0
  6
Continuous
100
AcDbLine
 10
-246.901269
 20
208.537231
 30
0.0
 11
-212.901269
 21
208.537231
 31
0.0
  0
ARC
  5
383
100
AcDbEntity
  8
0
370
    -3
390
0
  6
Continuous
100
AcDbCircle
 10
-630.408848
 20
-239.712769
 30
0.0
 40
45.0
100
AcDbArc
 50
97.348661
 51
143.992931
  0
ARC
  5
384
100
AcDbEntity
  8
0
370
    -3
390
0
  6
Continuous
100
AcDbCircle
 10
-649.326914
 20
-262.995955
 30
0.0
 40
36.944
100
AcDbArc
 50
230.905432
 51
265.66015
  0
ARC
  5
385
100
AcDbEntity
  8
0
370
    -3
390
0
  6
Continuous
100
AcDbCircle
 10
-630.408848
 20
-239.712769
 30
0.0
 40
66.944
100
AcDbArc
 50
219.094568
 51
230.905432
  0
ARC
  5
386
100
AcDbEntity
  8
0
370
    -3
390
0
  6
Continuous
100
AcDbCircle
 10
-630.408848
 20
-239.712769
 30
0.0
 40
66.944
100
AcDbArc
 50
129.094568
 51
140.905432
  0
ARC
  5
387
100
AcDbEntity
  8
0
370
    -3
390
0
  6
Continuous
100
AcDbCircle
 10
-649.326914
 20
-216.429583
 30
0.0
 40
36.944
100
AcDbArc
 50
94.33985
 51
129.094568
  0
ARC
  5
388
100
AcDbEntity
  8
0
370
    -3
390
0
  6
Continuous
100
AcDbCircle
 10
-611.490781
 20
-216.429583
 30
0.0
 40
36.944
100
AcDbArc
 50
50.905432
 51
85.66015
  0
ARC
  5
389
100
AcDbEntity
  8
0
370
    -3
390
0
  6
Continuous
100
AcDbCircle
 10
-630.408848
 20
-239.712769
 30
0.0
 40
66.944
100
AcDbArc
 50
39.094568
 51
50.905432
  0
ARC
  5
38A
100
AcDbEntity
  8
0
370
    -3
390
0
  6
Continuous
100
AcDbCircle
 10
-607.125662
 20
-220.794702
 30
0.0
 40
36.944
100
AcDbArc
 50
4.33985
 51
39.094568
  0
ARC
  5
38B
100
AcDbEntity
  8
0
370
    -3
390
0
  6
Continuous
100
AcDbCircle
 10
-607.125662
 20
-258.630836
 30
0.0
 40
36.944
100
AcDbArc
 50
320.905432
 51
355.66015
  0
ARC
  5
38C
100
AcDbEntity
  8
0
370
    -3
390
0
  6
Continuous
100
AcDbCircle
 10
-630.408848
 20
-239.712769
 30
0.0
 40
66.944
100
AcDbArc
 50
309.094568
 51
320.905432
  0
ARC
  5
38D
100
AcDbEntity
  8
0
370
    -3
390
0
  6
Continuous
100
AcDbCircle
 10
-611.490781
 20
-262.995955
 30
0.0
 40
36.944
100
AcDbArc
 50
274.33985
 51
309.094568
  0
LINE
  5
38E
100
AcDbEntity
  8
0
370
    -3
390
0
  6
Continuous
100
AcDbLine
 10
-677.392451
 20
-263.952014
 30
0.0
 11
-675.653876
 21
-262.948246
 31
0.0
  0
LINE
  5
38F
100
AcDbEntity
  8
0
370
    -3
390
0
  6
Continuous
100
AcDbLine
 10
-668.69346
 20
-258.929648
 30
0.0
 11
-666.951375
 21
-257.923855
 31
0.0
  0
LINE
  5
390
100
AcDbEntity
  8
0
370
    -3
390
0
  6
Continuous
100
AcDbLine
 10
-659.970727
 20
-253.893576
 30
0.0
 11
-657.46219
 21
-252.445272
 31
0.0
  0
ARC
  5
391
100
AcDbEntity
  8
0
370
    -3
390
0
  6
Continuous
100
AcDbCircle
 10
-657.96219
 20
-251.579247
 30
0.0
 40
1.0
100
AcDbArc
 50
300.0
 51
23.300235
  0
LINE
  5
392
100
AcDbEntity
  8
0
370
    -3
390
0
  6
Continuous
100
AcDbLine
 10
-651.192472
 20
-248.825449
 30
0.0
 11
-649.422926
 21
-247.803801
 31
0.0
  0
LINE
  5
393
100
AcDbEntity
  8
0
370
    -3
390
0
  6
Continuous
100
AcDbLine
 10
-642.221163
 20
-243.645861
 30
0.0
 11
-640.351517
 21
-242.56642
 31
0.0
  0
ARC
  5
394
100
AcDbEntity
  8
0
370
    -3
390
0
  6
Continuous
100
AcDbCircle
 10
-630.408848
 20
-239.712769
 30
0.0
 40
9.0
100
AcDbArc
 50
180.0
 51
185.85226
  0
ARC
  5
395
100
AcDbEntity
  8
0
370
    -3
390
0
  6
Continuous
100
AcDbCircle
 10
-630.408848
 20
-239.712769
 30
0.0
 40
15.0
100
AcDbArc
 50
175.028999
 51
189.747753
  0
LINE
  5
396
100
AcDbEntity
  8
0
370
    -3
390
0
  6
Continuous
100
AcDbLine
 10
-642.35995
 20
-236.854248
 30
0.0
 11
-640.408848
 21
-237.980718
 31
0.0
  0
ARC
  5
397
100
AcDbEntity
  8
0
370
    -3
390
0
  6
Continuous
100
AcDbCircle
 10
-630.408848
 20
-239.712769
 30
0.0
 40
19.0
100
AcDbArc
 50
165.183114
 51
197.626375
  0
ARC
  5
398
100
AcDbEntity
  8
0
370
    -3
390
0
  6
Continuous
100
AcDbCircle
 10
-630.408848
 20
-239.712769
 30
0.0
 40
25.0
100
AcDbArc
 50
163.835224
 51
198.717176
  0
LINE
  5
399
100
AcDbEntity
  8
0
370
    -3
390
0
  6
Continuous
100
AcDbLine
 10
-651.499543
 20
-231.577502
 30
0.0
 11
-649.710557
 21
-232.610373
 31
0.0
  0
ARC
  5
39A
100
AcDbEntity
  8
0
370
    -3
390
0
  6
Continuous
100
AcDbCircle
 10
-630.408848
 20
-239.712769
 30
0.0
 40
29.0
100
AcDbArc
 50
160.21948
 51
203.300235
  0
ARC
  5
39B
100
AcDbEntity
  8
0
370
    -3
390
0
  6
Continuous
100
AcDbCircle
 10
-630.408848
 20
-239.712769
 30
0.0
 40
49.0
100
AcDbArc
 50
156.190997
 51
204.937907
  0
LINE
  5
39C
100
AcDbEntity
  8
0
370
    -3
390
0
  6
Continuous
100
AcDbLine
 10
-677.810381
 20
-216.386933
 30
0.0
 11
-676.068556
 21
-217.392576
 31
0.0
  0
ARC
  5
39D
100
AcDbEntity
  8
0
370
    -3
390
0
  6
Continuous
100
AcDbCircle
 10
-630.408848
 20
-239.712769
 30
0.0
 40
55.0
100
AcDbArc
 50
155.956512
 51
205.1294
  0
ARC
  5
39E
100
AcDbEntity
  8
0
370
    -3
390
0
  6
Continuous
100
AcDbCircle
 10
-630.408848
 20
-239.712769
 30
0.0
 40
45.0
100
AcDbArc
 50
157.348661
 51
203.992931
  0
ARC
  5
39F
100
AcDbEntity
  8
0
370
    -3
390
0
  6
Continuous
100
AcDbCircle
 10
-630.408848
 20
-239.712769
 30
0.0
 40
39.0
100
AcDbArc
 50
156.45945
 51
203.698744
  0
LINE
  5
3A0
100
AcDbEntity
  8
0
370
    -3
390
0
  6
Continuous
100
AcDbLine
 10
-669.092064
 20
-221.420455
 30
0.0
 11
-666.579953
 21
-222.870823
 31
0.0
  0
ARC
  5
3A1
100
AcDbEntity
  8
0
370
    -3
390
0
  6
Continuous
100
AcDbCircle
 10
-667.079953
 20
-223.736848
 30
0.0
 40
1.0
100
AcDbArc
 50
336.45945
 51
60.0
  0
LINE
  5
3A2
100
AcDbEntity
  8
0
370
    -3
390
0
  6
Continuous
100
AcDbLine
 10
-660.337962
 20
-226.474638
 30
0.0
 11
-658.57972
 21
-227.48976
 31
0.0
  0
ARC
  5
3A3
100
AcDbEntity
  8
0
370
    -3
390
0
  6
Continuous
100
AcDbCircle
 10
-630.408848
 20
-239.712769
 30
0.0
 40
35.0
100
AcDbArc
 50
159.594068
 51
202.16252
  0
LINE
  5
3A4
100
AcDbEntity
  8
0
370
    -3
390
0
  6
Continuous
100
AcDbLine
 10
-583.425244
 20
-263.952014
 30
0.0
 11
-585.163819
 21
-262.948246
 31
0.0
  0
LINE
  5
3A5
100
AcDbEntity
  8
0
370
    -3
390
0
  6
Continuous
100
AcDbLine
 10
-592.124235
 20
-258.929648
 30
0.0
 11
-593.86632
 21
-257.923855
 31
0.0
  0
LINE
  5
3A6
100
AcDbEntity
  8
0
370
    -3
390
0
  6
Continuous
100
AcDbLine
 10
-600.846968
 20
-253.893576
 30
0.0
 11
-602.596421
 21
-252.883529
 31
0.0
  0
LINE
  5
3A7
100
AcDbEntity
  8
0
370
    -3
390
0
  6
Continuous
100
AcDbLine
 10
-609.625223
 20
-248.825449
 30
0.0
 11
-611.394769
 21
-247.803801
 31
0.0
  0
LINE
  5
3A8
100
AcDbEntity
  8
0
370
    -3
390
0
  6
Continuous
100
AcDbLine
 10
-618.596532
 20
-243.645861
 30
0.0
 11
-620.466178
 21
-242.56642
 31
0.0
  0
ARC
  5
3A9
100
AcDbEntity
  8
0
370
    -3
390
0
  6
Continuous
100
AcDbCircle
 10
-630.408848
 20
-239.712769
 30
0.0
 40
9.0
100
AcDbArc
 50
354.14774
 51
360.0
  0
ARC
  5
3AA
100
AcDbEntity
  8
0
370
    -3
390
0
  6
Continuous
100
AcDbCircle
 10
-630.408848
 20
-239.712769
 30
0.0
 40
15.0
100
AcDbArc
 50
350.252247
 51
4.971001
  0
LINE
  5
3AB
100
AcDbEntity
  8
0
370
    -3
390
0
  6
Continuous
100
AcDbLine
 10
-618.457745
 20
-236.854248
 30
0.0
 11
-620.408848
 21
-237.980718
 31
0.0
  0
ARC
  5
3AC
100
AcDbEntity
  8
0
370
    -3
390
0
  6
Continuous
100
AcDbCircle
 10
-630.408848
 20
-239.712769
 30
0.0
 40
19.0
100
AcDbArc
 50
342.373625
 51
14.816886
  0
ARC
  5
3AD
100
AcDbEntity
  8
0
370
    -3
390
0
  6
Continuous
100
AcDbCircle
 10
-630.408848
 20
-239.712769
 30
0.0
 40
25.0
100
AcDbArc
 50
341.282824
 51
16.164776
  0
LINE
  5
3AE
100
AcDbEntity
  8
0
370
    -3
390
0
  6
Continuous
100
AcDbLine
 10
-609.318152
 20
-231.577502
 30
0.0
 11
-611.107138
 21
-232.610373
 31
0.0
  0
ARC
  5
3AF
100
AcDbEntity
  8
0
370
    -3
390
0
  6
Continuous
100
AcDbCircle
 10
-630.408848
 20
-239.712769
 30
0.0
 40
29.0
100
AcDbArc
 50
338.346619
 51
19.78052
  0
ARC
  5
3B0
100
AcDbEntity
  8
0
370
    -3
390
0
  6
Continuous
100
AcDbCircle
 10
-630.408848
 20
-239.712769
 30
0.0
 40
49.0
100
AcDbArc
 50
335.062093
 51
23.809003
  0
LINE
  5
3B1
100
AcDbEntity
  8
0
370
    -3
390
0
  6
Continuous
100
AcDbLine
 10
-583.007314
 20
-216.386933
 30
0.0
 11
-584.749139
 21
-217.392576
 31
0.0
  0
ARC
  5
3B2
100
AcDbEntity
  8
0
370
    -3
390
0
  6
Continuous
100
AcDbCircle
 10
-630.408848
 20
-239.712769
 30
0.0
 40
55.0
100
AcDbArc
 50
334.8706
 51
24.043488
  0
ARC
  5
3B3
100
AcDbEntity
  8
0
370
    -3
390
0
  6
Continuous
100
AcDbCircle
 10
-630.408848
 20
-239.712769
 30
0.0
 40
45.0
100
AcDbArc
 50
336.007069
 51
22.651339
  0
ARC
  5
3B4
100
AcDbEntity
  8
0
370
    -3
390
0
  6
Continuous
100
AcDbCircle
 10
-630.408848
 20
-239.712769
 30
0.0
 40
39.0
100
AcDbArc
 50
336.301256
 51
22.29074
  0
LINE
  5
3B5
100
AcDbEntity
  8
0
370
    -3
390
0
  6
Continuous
100
AcDbLine
 10
-591.725631
 20
-221.420455
 30
0.0
 11
-593.472735
 21
-222.429146
 31
0.0
  0
LINE
  5
3B6
100
AcDbEntity
  8
0
370
    -3
390
0
  6
Continuous
100
AcDbLine
 10
-600.479733
 20
-226.474638
 30
0.0
 11
-602.237975
 21
-227.48976
 31
0.0
  0
ARC
  5
3B7
100
AcDbEntity
  8
0
370
    -3
390
0
  6
Continuous
100
AcDbCircle
 10
-630.408848
 20
-239.712769
 30
0.0
 40
35.0
100
AcDbArc
 50
337.83748
 51
20.405932
  0
LINE
  5
3B8
100
AcDbEntity
  8
0
370
    -3
390
0
  6
Continuous
100
AcDbLine
 10
-639.721163
 20
-247.975988
 30
0.0
 11
-637.851517
 21
-246.896547
 31
0.0
  0
ARC
  5
3B9
100
AcDbEntity
  8
0
370
    -3
390
0
  6
Continuous
100
AcDbCircle
 10
-630.408848
 20
-239.712769
 30
0.0
 40
9.0
100
AcDbArc
 50
234.14774
 51
240.0
  0
ARC
  5
3BA
100
AcDbEntity
  8
0
370
    -3
390
0
  6
Continuous
100
AcDbCircle
 10
-630.408848
 20
-239.712769
 30
0.0
 40
15.0
100
AcDbArc
 50
230.252247
 51
244.971001
  0
LINE
  5
3BB
100
AcDbEntity
  8
0
370
    -3
390
0
  6
Continuous
100
AcDbLine
 10
-633.908848
 20
-251.491988
 30
0.0
 11
-633.908848
 21
-249.239048
 31
0.0
  0
LINE
  5
3BC
100
AcDbEntity
  8
0
370
    -3
390
0
  6
Continuous
100
AcDbLine
 10
-648.692472
 20
-253.155576
 30
0.0
 11
-646.922926
 21
-252.133928
 31
0.0
  0
ARC
  5
3BD
100
AcDbEntity
  8
0
370
    -3
390
0
  6
Continuous
100
AcDbCircle
 10
-630.408848
 20
-239.712769
 30
0.0
 40
19.0
100
AcDbArc
 50
222.373625
 51
254.816886
  0
ARC
  5
3BE
100
AcDbEntity
  8
0
370
    -3
390
0
  6
Continuous
100
AcDbCircle
 10
-630.408848
 20
-239.712769
 30
0.0
 40
25.0
100
AcDbArc
 50
221.282824
 51
256.164776
  0
LINE
  5
3BF
100
AcDbEntity
  8
0
370
    -3
390
0
  6
Continuous
100
AcDbLine
 10
-633.908848
 20
-262.04548
 30
0.0
 11
-633.908848
 21
-259.979737
 31
0.0
  0
LINE
  5
3C0
100
AcDbEntity
  8
0
370
    -3
390
0
  6
Continuous
100
AcDbLine
 10
-657.470727
 20
-258.223703
 30
0.0
 11
-655.721274
 21
-257.213656
 31
0.0
  0
ARC
  5
3C1
100
AcDbEntity
  8
0
370
    -3
390
0
  6
Continuous
100
AcDbCircle
 10
-630.408848
 20
-239.712769
 30
0.0
 40
29.0
100
AcDbArc
 50
218.346619
 51
259.78052
  0
LINE
  5
3C2
100
AcDbEntity
  8
0
370
    -3
390
0
  6
Continuous
100
AcDbLine
 10
-666.19346
 20
-263.259776
 30
0.0
 11
-664.451375
 21
-262.253982
 31
0.0
  0
LINE
  5
3C3
100
AcDbEntity
  8
0
370
    -3
390
0
  6
Continuous
100
AcDbLine
 10
-674.892451
 20
-268.282141
 30
0.0
 11
-673.153876
 21
-267.278374
 31
0.0
  0
ARC
  5
3C4
100
AcDbEntity
  8
0
370
    -3
390
0
  6
Continuous
100
AcDbCircle
 10
-630.408848
 20
-239.712769
 30
0.0
 40
49.0
100
AcDbArc
 50
215.062093
 51
263.809003
  0
LINE
  5
3C5
100
AcDbEntity
  8
0
370
    -3
390
0
  6
Continuous
100
AcDbLine
 10
-633.908848
 20
-292.426619
 30
0.0
 11
-633.908848
 21
-290.415333
 31
0.0
  0
ARC
  5
3C6
100
AcDbEntity
  8
0
370
    -3
390
0
  6
Continuous
100
AcDbCircle
 10
-630.408848
 20
-239.712769
 30
0.0
 40
55.0
100
AcDbArc
 50
214.8706
 51
264.043488
  0
ARC
  5
3C7
100
AcDbEntity
  8
0
370
    -3
390
0
  6
Continuous
100
AcDbCircle
 10
-630.408848
 20
-239.712769
 30
0.0
 40
45.0
100
AcDbArc
 50
216.007069
 51
262.651339
  0
ARC
  5
3C8
100
AcDbEntity
  8
0
370
    -3
390
0
  6
Continuous
100
AcDbCircle
 10
-630.408848
 20
-239.712769
 30
0.0
 40
39.0
100
AcDbArc
 50
216.301256
 51
262.29074
  0
LINE
  5
3C9
100
AcDbEntity
  8
0
370
    -3
390
0
  6
Continuous
100
AcDbLine
 10
-633.908848
 20
-282.359574
 30
0.0
 11
-633.908848
 21
-280.342192
 31
0.0
  0
LINE
  5
3CA
100
AcDbEntity
  8
0
370
    -3
390
0
  6
Continuous
100
AcDbLine
 10
-633.908848
 20
-272.251207
 30
0.0
 11
-633.908848
 21
-270.220964
 31
0.0
  0
ARC
  5
3CB
100
AcDbEntity
  8
0
370
    -3
390
0
  6
Continuous
100
AcDbCircle
 10
-630.408848
 20
-239.712769
 30
0.0
 40
35.0
100
AcDbArc
 50
217.83748
 51
260.405932
  0
LINE
  5
3CC
100
AcDbEntity
  8
0
370
    -3
390
0
  6
Continuous
100
AcDbLine
 10
-621.096532
 20
-247.975988
 30
0.0
 11
-623.546357
 21
-246.561581
 31
0.0
  0
ARC
  5
3CD
100
AcDbEntity
  8
0
370
    -3
390
0
  6
Continuous
100
AcDbCircle
 10
-624.046357
 20
-247.427606
 30
0.0
 40
1.0
100
AcDbArc
 50
60.0
 51
129.512685
  0
ARC
  5
3CE
100
AcDbEntity
  8
0
370
    -3
390
0
  6
Continuous
100
AcDbCircle
 10
-630.408848
 20
-239.712769
 30
0.0
 40
9.0
100
AcDbArc
 50
300.0
 51
309.512685
  0
ARC
  5
3CF
100
AcDbEntity
  8
0
370
    -3
390
0
  6
Continuous
100
AcDbCircle
 10
-630.408848
 20
-239.712769
 30
0.0
 40
15.0
100
AcDbArc
 50
295.028999
 51
309.747753
  0
LINE
  5
3D0
100
AcDbEntity
  8
0
370
    -3
390
0
  6
Continuous
100
AcDbLine
 10
-626.908848
 20
-251.491988
 30
0.0
 11
-626.908848
 21
-249.239048
 31
0.0
  0
LINE
  5
3D1
100
AcDbEntity
  8
0
370
    -3
390
0
  6
Continuous
100
AcDbLine
 10
-612.125223
 20
-253.155576
 30
0.0
 11
-613.894769
 21
-252.133928
 31
0.0
  0
ARC
  5
3D2
100
AcDbEntity
  8
0
370
    -3
390
0
  6
Continuous
100
AcDbCircle
 10
-630.408848
 20
-239.712769
 30
0.0
 40
19.0
100
AcDbArc
 50
285.183114
 51
317.626375
  0
ARC
  5
3D3
100
AcDbEntity
  8
0
370
    -3
390
0
  6
Continuous
100
AcDbCircle
 10
-630.408848
 20
-239.712769
 30
0.0
 40
25.0
100
AcDbArc
 50
283.835224
 51
318.717176
  0
LINE
  5
3D4
100
AcDbEntity
  8
0
370
    -3
390
0
  6
Continuous
100
AcDbLine
 10
-626.908848
 20
-262.04548
 30
0.0
 11
-626.908848
 21
-259.979737
 31
0.0
  0
LINE
  5
3D5
100
AcDbEntity
  8
0
370
    -3
390
0
  6
Continuous
100
AcDbLine
 10
-603.346968
 20
-258.223703
 30
0.0
 11
-605.096421
 21
-257.213656
 31
0.0
  0
ARC
  5
3D6
100
AcDbEntity
  8
0
370
    -3
390
0
  6
Continuous
100
AcDbCircle
 10
-630.408848
 20
-239.712769
 30
0.0
 40
29.0
100
AcDbArc
 50
280.21948
 51
321.653381
  0
LINE
  5
3D7
100
AcDbEntity
  8
0
370
    -3
390
0
  6
Continuous
100
AcDbLine
 10
-594.624235
 20
-263.259776
 30
0.0
 11
-596.36632
 21
-262.253982
 31
0.0
  0
LINE
  5
3D8
100
AcDbEntity
  8
0
370
    -3
390
0
  6
Continuous
100
AcDbLine
 10
-585.925244
 20
-268.282141
 30
0.0
 11
-588.463796
 21
-266.816507
 31
0.0
  0
ARC
  5
3D9
100
AcDbEntity
  8
0
370
    -3
390
0
  6
Continuous
100
AcDbCircle
 10
-588.963796
 20
-267.682532
 30
0.0
 40
1.0
100
AcDbArc
 50
60.0
 51
145.986013
  0
ARC
  5
3DA
100
AcDbEntity
  8
0
370
    -3
390
0
  6
Continuous
100
AcDbCircle
 10
-630.408848
 20
-239.712769
 30
0.0
 40
49.0
100
AcDbArc
 50
276.190997
 51
325.986013
  0
LINE
  5
3DB
100
AcDbEntity
  8
0
370
    -3
390
0
  6
Continuous
100
AcDbLine
 10
-626.908848
 20
-292.426619
 30
0.0
 11
-626.908848
 21
-290.415333
 31
0.0
  0
ARC
  5
3DC
100
AcDbEntity
  8
0
370
    -3
390
0
  6
Continuous
100
AcDbCircle
 10
-630.408848
 20
-239.712769
 30
0.0
 40
55.0
100
AcDbArc
 50
275.956512
 51
325.1294
  0
ARC
  5
3DD
100
AcDbEntity
  8
0
370
    -3
390
0
  6
Continuous
100
AcDbCircle
 10
-630.408848
 20
-239.712769
 30
0.0
 40
45.0
100
AcDbArc
 50
277.348661
 51
323.992931
  0
ARC
  5
3DE
100
AcDbEntity
  8
0
370
    -3
390
0
  6
Continuous
100
AcDbCircle
 10
-630.408848
 20
-239.712769
 30
0.0
 40
39.0
100
AcDbArc
 50
277.70926
 51
323.698744
  0
LINE
  5
3DF
100
AcDbEntity
  8
0
370
    -3
390
0
  6
Continuous
100
AcDbLine
 10
-626.908848
 20
-282.359574
 30
0.0
 11
-626.908848
 21
-280.342192
 31
0.0
  0
LINE
  5
3E0
100
AcDbEntity
  8
0
370
    -3
390
0
  6
Continuous
100
AcDbLine
 10
-626.908848
 20
-272.251207
 30
0.0
 11
-626.908848
 21
-270.220964
 31
0.0
  0
ARC
  5
3E1
100
AcDbEntity
  8
0
370
    -3
390
0
  6
Continuous
100
AcDbCircle
 10
-630.408848
 20
-239.712769
 30
0.0
 40
35.0
100
AcDbArc
 50
279.594068
 51
322.16252
  0
LINE
  5
3E2
100
AcDbEntity
  8
0
370
    -3
390
0
  6
Continuous
100
AcDbLine
 10
-621.096532
 20
-231.44955
 30
0.0
 11
-622.966178
 21
-232.52899
 31
0.0
  0
ARC
  5
3E3
100
AcDbEntity
  8
0
370
    -3
390
0
  6
Continuous
100
AcDbCircle
 10
-630.408848
 20
-239.712769
 30
0.0
 40
9.0
100
AcDbArc
 50
54.14774
 51
60.0
  0
ARC
  5
3E4
100
AcDbEntity
  8
0
370
    -3
390
0
  6
Continuous
100
AcDbCircle
 10
-630.408848
 20
-239.712769
 30
0.0
 40
15.0
100
AcDbArc
 50
50.252247
 51
64.971001
  0
LINE
  5
3E5
100
AcDbEntity
  8
0
370
    -3
390
0
  6
Continuous
100
AcDbLine
 10
-626.908848
 20
-227.93355
 30
0.0
 11
-626.908848
 21
-230.186489
 31
0.0
  0
LINE
  5
3E6
100
AcDbEntity
  8
0
370
    -3
390
0
  6
Continuous
100
AcDbLine
 10
-612.125223
 20
-226.269962
 30
0.0
 11
-613.894769
 21
-227.291609
 31
0.0
  0
ARC
  5
3E7
100
AcDbEntity
  8
0
370
    -3
390
0
  6
Continuous
100
AcDbCircle
 10
-630.408848
 20
-239.712769
 30
0.0
 40
19.0
100
AcDbArc
 50
42.373625
 51
74.816886
  0
ARC
  5
3E8
100
AcDbEntity
  8
0
370
    -3
390
0
  6
Continuous
100
AcDbCircle
 10
-630.408848
 20
-239.712769
 30
0.0
 40
25.0
100
AcDbArc
 50
41.282824
 51
76.164776
  0
LINE
  5
3E9
100
AcDbEntity
  8
0
370
    -3
390
0
  6
Continuous
100
AcDbLine
 10
-626.908848
 20
-217.380057
 30
0.0
 11
-626.908848
 21
-219.4458
 31
0.0
  0
LINE
  5
3EA
100
AcDbEntity
  8
0
370
    -3
390
0
  6
Continuous
100
AcDbLine
 10
-603.346968
 20
-221.201834
 30
0.0
 11
-605.096421
 21
-222.211881
 31
0.0
  0
ARC
  5
3EB
100
AcDbEntity
  8
0
370
    -3
390
0
  6
Continuous
100
AcDbCircle
 10
-630.408848
 20
-239.712769
 30
0.0
 40
29.0
100
AcDbArc
 50
38.346619
 51
79.78052
  0
LINE
  5
3EC
100
AcDbEntity
  8
0
370
    -3
390
0
  6
Continuous
100
AcDbLine
 10
-594.624235
 20
-216.165762
 30
0.0
 11
-596.36632
 21
-217.171555
 31
0.0
  0
LINE
  5
3ED
100
AcDbEntity
  8
0
370
    -3
390
0
  6
Continuous
100
AcDbLine
 10
-585.925244
 20
-211.143397
 30
0.0
 11
-587.663819
 21
-212.147164
 31
0.0
  0
ARC
  5
3EE
100
AcDbEntity
  8
0
370
    -3
390
0
  6
Continuous
100
AcDbCircle
 10
-630.408848
 20
-239.712769
 30
0.0
 40
49.0
100
AcDbArc
 50
35.062093
 51
83.809003
  0
LINE
  5
3EF
100
AcDbEntity
  8
0
370
    -3
390
0
  6
Continuous
100
AcDbLine
 10
-626.908848
 20
-186.998919
 30
0.0
 11
-626.908848
 21
-189.010205
 31
0.0
  0
ARC
  5
3F0
100
AcDbEntity
  8
0
370
    -3
390
0
  6
Continuous
100
AcDbCircle
 10
-630.408848
 20
-239.712769
 30
0.0
 40
55.0
100
AcDbArc
 50
34.8706
 51
84.043488
  0
ARC
  5
3F1
100
AcDbEntity
  8
0
370
    -3
390
0
  6
Continuous
100
AcDbCircle
 10
-630.408848
 20
-239.712769
 30
0.0
 40
45.0
100
AcDbArc
 50
36.007069
 51
82.651339
  0
ARC
  5
3F2
100
AcDbEntity
  8
0
370
    -3
390
0
  6
Continuous
100
AcDbCircle
 10
-630.408848
 20
-239.712769
 30
0.0
 40
39.0
100
AcDbArc
 50
36.301256
 51
82.29074
  0
LINE
  5
3F3
100
AcDbEntity
  8
0
370
    -3
390
0
  6
Continuous
100
AcDbLine
 10
-626.908848
 20
-197.065963
 30
0.0
 11
-626.908848
 21
-199.083346
 31
0.0
  0
LINE
  5
3F4
100
AcDbEntity
  8
0
370
    -3
390
0
  6
Continuous
100
AcDbLine
 10
-626.908848
 20
-207.17433
 30
0.0
 11
-626.908848
 21
-209.204573
 31
0.0
  0
ARC
  5
3F5
100
AcDbEntity
  8
0
370
    -3
390
0
  6
Continuous
100
AcDbCircle
 10
-630.408848
 20
-239.712769
 30
0.0
 40
35.0
100
AcDbArc
 50
37.83748
 51
80.405932
  0
LINE
  5
3F6
100
AcDbEntity
  8
0
370
    -3
390
0
  6
Continuous
100
AcDbLine
 10
-666.19346
 20
-216.165762
 30
0.0
 11
-664.451375
 21
-217.171555
 31
0.0
  0
LINE
  5
3F7
100
AcDbEntity
  8
0
370
    -3
390
0
  6
Continuous
100
AcDbLine
 10
-657.470727
 20
-221.201834
 30
0.0
 11
-655.721274
 21
-222.211881
 31
0.0
  0
LINE
  5
3F8
100
AcDbEntity
  8
0
370
    -3
390
0
  6
Continuous
100
AcDbLine
 10
-648.692472
 20
-226.269962
 30
0.0
 11
-646.922926
 21
-227.291609
 31
0.0
  0
LINE
  5
3F9
100
AcDbEntity
  8
0
370
    -3
390
0
  6
Continuous
100
AcDbLine
 10
-639.721163
 20
-231.44955
 30
0.0
 11
-637.851517
 21
-232.52899
 31
0.0
  0
LINE
  5
3FA
100
AcDbEntity
  8
0
370
    -3
390
0
  6
Continuous
100
AcDbLine
 10
-633.908848
 20
-227.93355
 30
0.0
 11
-633.908848
 21
-230.186489
 31
0.0
  0
LINE
  5
3FB
100
AcDbEntity
  8
0
370
    -3
390
0
  6
Continuous
100
AcDbLine
 10
-633.908848
 20
-217.380057
 30
0.0
 11
-633.908848
 21
-219.4458
 31
0.0
  0
LINE
  5
3FC
100
AcDbEntity
  8
0
370
    -3
390
0
  6
Continuous
100
AcDbLine
 10
-633.908848
 20
-207.17433
 30
0.0
 11
-633.908848
 21
-209.204573
 31
0.0
  0
LINE
  5
3FD
100
AcDbEntity
  8
0
370
    -3
390
0
  6
Continuous
100
AcDbLine
 10
-633.908848
 20
-197.065963
 30
0.0
 11
-633.908848
 21
-199.083346
 31
0.0
  0
ARC
  5
3FE
100
AcDbEntity
  8
0
370
    -3
390
0
  6
Continuous
100
AcDbCircle
 10
-630.408848
 20
-239.712769
 30
0.0
 40
9.0
100
AcDbArc
 50
120.0
 51
125.85226
  0
ARC
  5
3FF
100
AcDbEntity
  8
0
370
    -3
390
0
  6
Continuous
100
AcDbCircle
 10
-630.408848
 20
-239.712769
 30
0.0
 40
15.0
100
AcDbArc
 50
115.028999
 51
129.747753
  0
ARC
  5
400
100
AcDbEntity
  8
0
370
    -3
390
0
  6
Continuous
100
AcDbCircle
 10
-630.408848
 20
-239.712769
 30
0.0
 40
19.0
100
AcDbArc
 50
105.183114
 51
137.626375
  0
ARC
  5
401
100
AcDbEntity
  8
0
370
    -3
390
0
  6
Continuous
100
AcDbCircle
 10
-630.408848
 20
-239.712769
 30
0.0
 40
25.0
100
AcDbArc
 50
103.835224
 51
138.717176
  0
ARC
  5
402
100
AcDbEntity
  8
0
370
    -3
390
0
  6
Continuous
100
AcDbCircle
 10
-630.408848
 20
-239.712769
 30
0.0
 40
29.0
100
AcDbArc
 50
100.21948
 51
141.653381
  0
ARC
  5
403
100
AcDbEntity
  8
0
370
    -3
390
0
  6
Continuous
100
AcDbCircle
 10
-630.408848
 20
-239.712769
 30
0.0
 40
35.0
100
AcDbArc
 50
99.594068
 51
142.16252
  0
ARC
  5
404
100
AcDbEntity
  8
0
370
    -3
390
0
  6
Continuous
100
AcDbCircle
 10
-630.408848
 20
-239.712769
 30
0.0
 40
39.0
100
AcDbArc
 50
97.70926
 51
143.698744
  0
ARC
  5
405
100
AcDbEntity
  8
0
370
    -3
390
0
  6
Continuous
100
AcDbCircle
 10
-630.408848
 20
-239.712769
 30
0.0
 40
49.0
100
AcDbArc
 50
96.190997
 51
144.937907
  0
ARC
  5
406
100
AcDbEntity
  8
0
370
    -3
390
0
  6
Continuous
100
AcDbCircle
 10
-630.408848
 20
-239.712769
 30
0.0
 40
55.0
100
AcDbArc
 50
95.956512
 51
145.1294
  0
LINE
  5
407
100
AcDbEntity
  8
0
370
    -3
390
0
  6
Continuous
100
AcDbLine
 10
-674.892451
 20
-211.143397
 30
0.0
 11
-673.153876
 21
-212.147164
 31
0.0
  0
LINE
  5
408
100
AcDbEntity
  8
0
370
    -3
390
0
  6
Continuous
100
AcDbLine
 10
-633.908848
 20
-186.998919
 30
0.0
 11
-633.908848
 21
-189.010205
 31
0.0
  0
CIRCLE
  5
409
100
AcDbEntity
  8
0
370
    -3
390
0
  6
Continuous
100
AcDbCircle
 10
-630.408848
 20
-239.712769
 30
0.0
 40
5.0
  0
ARC
  5
40A
100
AcDbEntity
  8
0
370
    -3
390
0
  6
Continuous
100
AcDbCircle
 10
-630.408848
 20
-13.712769
 30
0.0
 40
286.944
100
AcDbArc
 50
265.66015
 51
274.33985
  0
ARC
  5
40B
100
AcDbEntity
  8
0
370
    -3
390
0
  6
Continuous
100
AcDbCircle
 10
-653.692033
 20
-258.630836
 30
0.0
 40
36.944
100
AcDbArc
 50
184.33985
 51
219.094568
  0
ARC
  5
40C
100
AcDbEntity
  8
0
370
    -3
390
0
  6
Continuous
100
AcDbCircle
 10
-404.408848
 20
-239.712769
 30
0.0
 40
286.944
100
AcDbArc
 50
175.66015
 51
184.33985
  0
ARC
  5
40D
100
AcDbEntity
  8
0
370
    -3
390
0
  6
Continuous
100
AcDbCircle
 10
-653.692033
 20
-220.794702
 30
0.0
 40
36.944
100
AcDbArc
 50
140.905432
 51
175.66015
  0
ARC
  5
40E
100
AcDbEntity
  8
0
370
    -3
390
0
  6
Continuous
100
AcDbCircle
 10
-630.408848
 20
-465.712769
 30
0.0
 40
286.944
100
AcDbArc
 50
85.66015
 51
94.33985
  0
ARC
  5
40F
100
AcDbEntity
  8
0
370
    -3
390
0
  6
Continuous
100
AcDbCircle
 10
-856.408848
 20
-239.712769
 30
0.0
 40
286.944
100
AcDbArc
 50
355.66015
 51
4.33985
  0
ARC
  5
410
100
AcDbEntity
  8
0
370
    -3
390
0
  6
Continuous
100
AcDbCircle
 10
-630.408848
 20
-13.712769
 30
0.0
 40
300.8
100
AcDbArc
 50
270.0
 51
274.33985
  0
ARC
  5
411
100
AcDbEntity
  8
0
370
    -3
390
0
  6
Continuous
100
AcDbCircle
 10
-856.408848
 20
-239.712769
 30
0.0
 40
300.8
100
AcDbArc
 50
355.66015
 51
360.0
  0
ARC
  5
412
100
AcDbEntity
  8
0
370
    -3
390
0
  6
Continuous
100
AcDbCircle
 10
-630.408848
 20
-239.712769
 30
0.0
 40
80.8
100
AcDbArc
 50
309.094568
 51
320.905432
  0
LINE
  5
413
100
AcDbEntity
  8
0
370
    -3
390
0
  6
Continuous
100
AcDbLine
 10
-575.890915
 20
-300.877505
 30
0.0
 11
-569.244111
 21
-294.230702
 31
0.0
  0
ARC
  5
414
100
AcDbEntity
  8
0
370
    -3
390
0
  6
Continuous
100
AcDbCircle
 10
-569.456243
 20
-294.018569
 30
0.0
 40
0.3
100
AcDbArc
 50
315.0
 51
45.0
  0
LINE
  5
415
100
AcDbEntity
  8
0
370
    -3
390
0
  6
Continuous
100
AcDbLine
 10
-569.244111
 20
-293.806437
 30
0.0
 11
-569.848582
 21
-293.201966
 31
0.0
  0
LINE
  5
416
100
AcDbEntity
  8
0
370
    -3
390
0
  6
Continuous
100
AcDbLine
 10
-575.183808
 20
-301.301769
 30
0.0
 11
-575.749493
 21
-300.736084
 31
0.0
  0
LINE
  5
417
100
AcDbEntity
  8
0
370
    -3
390
0
  6
Continuous
100
AcDbLine
 10
-573.522107
 20
-299.640068
 30
0.0
 11
-575.183808
 21
-301.301769
 31
0.0
  0
LINE
  5
418
100
AcDbEntity
  8
0
370
    -3
390
0
  6
Continuous
100
AcDbLine
 10
-568.819847
 20
-294.937808
 30
0.0
 11
-569.385532
 21
-294.372123
 31
0.0
  0
LINE
  5
419
100
AcDbEntity
  8
0
370
    -3
390
0
  6
Continuous
100
AcDbLine
 10
-570.481548
 20
-296.599509
 30
0.0
 11
-568.819847
 21
-294.937808
 31
0.0
  0
ARC
  5
41A
100
AcDbEntity
  8
0
370
    -3
390
0
  6
Continuous
100
AcDbCircle
 10
-576.103047
 20
-300.665373
 30
0.0
 40
0.3
100
AcDbArc
 50
225.0
 51
315.0
  0
LINE
  5
41B
100
AcDbEntity
  8
0
370
    -3
390
0
  6
Continuous
100
AcDbLine
 10
-576.315179
 20
-300.877505
 30
0.0
 11
-576.91965
 21
-300.273034
 31
0.0
  0
ARC
  5
41C
100
AcDbEntity
  8
0
370
    -3
390
0
  6
Continuous
100
AcDbCircle
 10
-611.490781
 20
-262.995955
 30
0.0
 40
50.8
100
AcDbArc
 50
274.33985
 51
309.094568
  0
ARC
  5
41D
100
AcDbEntity
  8
0
370
    -3
390
0
  6
Continuous
100
AcDbCircle
 10
-607.125662
 20
-258.630836
 30
0.0
 40
50.8
100
AcDbArc
 50
320.905432
 51
355.66015
  0
ARC
  5
41E
100
AcDbEntity
  8
0
370
    -3
390
0
  6
Continuous
100
AcDbCircle
 10
-630.408848
 20
-465.712769
 30
0.0
 40
300.8
100
AcDbArc
 50
85.66015
 51
90.0
  0
ARC
  5
41F
100
AcDbEntity
  8
0
370
    -3
390
0
  6
Continuous
100
AcDbCircle
 10
-856.408848
 20
-239.712769
 30
0.0
 40
300.8
100
AcDbArc
 50
0.0
 51
4.33985
  0
ARC
  5
420
100
AcDbEntity
  8
0
370
    -3
390
0
  6
Continuous
100
AcDbCircle
 10
-630.408848
 20
-239.712769
 30
0.0
 40
80.8
100
AcDbArc
 50
39.094568
 51
50.905432
  0
LINE
  5
421
100
AcDbEntity
  8
0
370
    -3
390
0
  6
Continuous
100
AcDbLine
 10
-575.890915
 20
-178.548032
 30
0.0
 11
-569.244111
 21
-185.194836
 31
0.0
  0
ARC
  5
422
100
AcDbEntity
  8
0
370
    -3
390
0
  6
Continuous
100
AcDbCircle
 10
-569.456243
 20
-185.406968
 30
0.0
 40
0.3
100
AcDbArc
 50
315.0
 51
45.0
  0
LINE
  5
423
100
AcDbEntity
  8
0
370
    -3
390
0
  6
Continuous
100
AcDbLine
 10
-569.244111
 20
-185.6191
 30
0.0
 11
-569.848582
 21
-186.223571
 31
0.0
  0
LINE
  5
424
100
AcDbEntity
  8
0
370
    -3
390
0
  6
Continuous
100
AcDbLine
 10
-575.183808
 20
-178.123768
 30
0.0
 11
-575.749493
 21
-178.689453
 31
0.0
  0
LINE
  5
425
100
AcDbEntity
  8
0
370
    -3
390
0
  6
Continuous
100
AcDbLine
 10
-573.522107
 20
-179.785469
 30
0.0
 11
-575.183808
 21
-178.123768
 31
0.0
  0
LINE
  5
426
100
AcDbEntity
  8
0
370
    -3
390
0
  6
Continuous
100
AcDbLine
 10
-568.819847
 20
-184.487729
 30
0.0
 11
-569.385532
 21
-185.053414
 31
0.0
  0
LINE
  5
427
100
AcDbEntity
  8
0
370
    -3
390
0
  6
Continuous
100
AcDbLine
 10
-570.481548
 20
-182.826028
 30
0.0
 11
-568.819847
 21
-184.487729
 31
0.0
  0
ARC
  5
428
100
AcDbEntity
  8
0
370
    -3
390
0
  6
Continuous
100
AcDbCircle
 10
-576.103047
 20
-178.760164
 30
0.0
 40
0.3
100
AcDbArc
 50
45.0
 51
135.0
  0
LINE
  5
429
100
AcDbEntity
  8
0
370
    -3
390
0
  6
Continuous
100
AcDbLine
 10
-576.315179
 20
-178.548032
 30
0.0
 11
-576.91965
 21
-179.152503
 31
0.0
  0
ARC
  5
42A
100
AcDbEntity
  8
0
370
    -3
390
0
  6
Continuous
100
AcDbCircle
 10
-611.490781
 20
-216.429583
 30
0.0
 40
50.8
100
AcDbArc
 50
50.905432
 51
85.66015
  0
ARC
  5
42B
100
AcDbEntity
  8
0
370
    -3
390
0
  6
Continuous
100
AcDbCircle
 10
-607.125662
 20
-220.794702
 30
0.0
 40
50.8
100
AcDbArc
 50
4.33985
 51
39.094568
  0
ARC
  5
42C
100
AcDbEntity
  8
0
370
    -3
390
0
  6
Continuous
100
AcDbCircle
 10
-630.408848
 20
-465.712769
 30
0.0
 40
300.8
100
AcDbArc
 50
90.0
 51
94.33985
  0
ARC
  5
42D
100
AcDbEntity
  8
0
370
    -3
390
0
  6
Continuous
100
AcDbCircle
 10
-404.408848
 20
-239.712769
 30
0.0
 40
300.8
100
AcDbArc
 50
175.66015
 51
180.0
  0
ARC
  5
42E
100
AcDbEntity
  8
0
370
    -3
390
0
  6
Continuous
100
AcDbCircle
 10
-630.408848
 20
-239.712769
 30
0.0
 40
80.8
100
AcDbArc
 50
129.094568
 51
140.905432
  0
LINE
  5
42F
100
AcDbEntity
  8
0
370
    -3
390
0
  6
Continuous
100
AcDbLine
 10
-684.92678
 20
-178.548032
 30
0.0
 11
-691.573584
 21
-185.194836
 31
0.0
  0
ARC
  5
430
100
AcDbEntity
  8
0
370
    -3
390
0
  6
Continuous
100
AcDbCircle
 10
-691.361452
 20
-185.406968
 30
0.0
 40
0.3
100
AcDbArc
 50
135.0
 51
225.0
  0
LINE
  5
431
100
AcDbEntity
  8
0
370
    -3
390
0
  6
Continuous
100
AcDbLine
 10
-691.573584
 20
-185.6191
 30
0.0
 11
-690.969113
 21
-186.223571
 31
0.0
  0
LINE
  5
432
100
AcDbEntity
  8
0
370
    -3
390
0
  6
Continuous
100
AcDbLine
 10
-685.633887
 20
-178.123768
 30
0.0
 11
-685.068202
 21
-178.689453
 31
0.0
  0
LINE
  5
433
100
AcDbEntity
  8
0
370
    -3
390
0
  6
Continuous
100
AcDbLine
 10
-687.295588
 20
-179.785469
 30
0.0
 11
-685.633887
 21
-178.123768
 31
0.0
  0
LINE
  5
434
100
AcDbEntity
  8
0
370
    -3
390
0
  6
Continuous
100
AcDbLine
 10
-691.997848
 20
-184.487729
 30
0.0
 11
-691.432163
 21
-185.053414
 31
0.0
  0
LINE
  5
435
100
AcDbEntity
  8
0
370
    -3
390
0
  6
Continuous
100
AcDbLine
 10
-690.336147
 20
-182.826028
 30
0.0
 11
-691.997848
 21
-184.487729
 31
0.0
  0
ARC
  5
436
100
AcDbEntity
  8
0
370
    -3
390
0
  6
Continuous
100
AcDbCircle
 10
-684.714648
 20
-178.760164
 30
0.0
 40
0.3
100
AcDbArc
 50
45.0
 51
135.0
  0
LINE
  5
437
100
AcDbEntity
  8
0
370
    -3
390
0
  6
Continuous
100
AcDbLine
 10
-684.502516
 20
-178.548032
 30
0.0
 11
-683.898045
 21
-179.152503
 31
0.0
  0
ARC
  5
438
100
AcDbEntity
  8
0
370
    -3
390
0
  6
Continuous
100
AcDbCircle
 10
-649.326914
 20
-216.429583
 30
0.0
 40
50.8
100
AcDbArc
 50
94.33985
 51
129.094568
  0
ARC
  5
439
100
AcDbEntity
  8
0
370
    -3
390
0
  6
Continuous
100
AcDbCircle
 10
-653.692033
 20
-220.794702
 30
0.0
 40
50.8
100
AcDbArc
 50
140.905432
 51
175.66015
  0
ARC
  5
43A
100
AcDbEntity
  8
0
370
    -3
390
0
  6
Continuous
100
AcDbCircle
 10
-556.208848
 20
-261.112769
 30
0.0
 40
3.2
100
AcDbArc
 50
262.236305
 51
270.0
  0
ARC
  5
43B
100
AcDbEntity
  8
0
370
    -3
390
0
  6
Continuous
100
AcDbCircle
 10
-630.408848
 20
-13.712769
 30
0.0
 40
300.8
100
AcDbArc
 50
265.66015
 51
270.0
  0
ARC
  5
43C
100
AcDbEntity
  8
0
370
    -3
390
0
  6
Continuous
100
AcDbCircle
 10
-404.408848
 20
-239.712769
 30
0.0
 40
300.8
100
AcDbArc
 50
180.0
 51
184.33985
  0
ARC
  5
43D
100
AcDbEntity
  8
0
370
    -3
390
0
  6
Continuous
100
AcDbCircle
 10
-630.408848
 20
-239.712769
 30
0.0
 40
80.8
100
AcDbArc
 50
219.094568
 51
230.905432
  0
LINE
  5
43E
100
AcDbEntity
  8
0
370
    -3
390
0
  6
Continuous
100
AcDbLine
 10
-684.92678
 20
-300.877505
 30
0.0
 11
-691.573584
 21
-294.230702
 31
0.0
  0
ARC
  5
43F
100
AcDbEntity
  8
0
370
    -3
390
0
  6
Continuous
100
AcDbCircle
 10
-556.208848
 20
-218.312769
 30
0.0
 40
3.2
100
AcDbArc
 50
90.0
 51
97.763695
  0
ARC
  5
440
100
AcDbEntity
  8
0
370
    -3
390
0
  6
Continuous
100
AcDbCircle
 10
-501.52724
 20
-295.889676
 30
0.0
 40
9.0
100
AcDbArc
 50
7.398452
 51
40.601531
  0
ARC
  5
441
100
AcDbEntity
  8
0
370
    -3
390
0
  6
Continuous
100
AcDbCircle
 10
-493.891344
 20
-294.898157
 30
0.0
 40
1.299999
100
AcDbArc
 50
293.999982
 51
7.398452
  0
LINE
  5
442
100
AcDbEntity
  8
0
370
    -3
390
0
  6
CENTER
100
AcDbLine
 10
-519.408848
 20
-271.830245
 30
0.0
 11
-519.408848
 21
-294.698754
 31
0.0
  0
LINE
  5
443
100
AcDbEntity
  8
0
370
    -3
390
0
  6
Continuous
100
AcDbLine
 10
-542.103411
 20
-198.36176
 30
0.0
 11
-496.386213
 21
-301.04427
 31
0.0
  0
LINE
  5
444
100
AcDbEntity
  8
0
370
    -3
390
0
  6
Continuous
100
AcDbLine
 10
-544.408848
 20
-208.712769
 30
0.0
 11
-544.408848
 21
-270.712769
 31
0.0
  0
LINE
  5
445
100
AcDbEntity
  8
0
370
    -3
390
0
  6
Continuous
100
AcDbLine
 10
-543.408848
 20
-207.021164
 30
0.0
 11
-543.408848
 21
-281.212769
 31
0.0
  0
LINE
  5
446
100
AcDbEntity
  8
0
370
    -3
390
0
  6
Continuous
100
AcDbLine
 10
-544.408848
 20
-270.712769
 30
0.0
 11
-543.408848
 21
-270.712769
 31
0.0
  0
LINE
  5
447
100
AcDbEntity
  8
0
370
    -3
390
0
  6
Continuous
100
AcDbLine
 10
-498.338549
 20
-296.659252
 30
0.0
 11
-501.855699
 21
-298.225188
 31
0.0
  0
LINE
  5
448
100
AcDbEntity
  8
0
370
    -3
390
0
  6
Continuous
100
AcDbLine
 10
-499.965495
 20
-293.00507
 30
0.0
 11
-503.482645
 21
-294.571006
 31
0.0
  0
ARC
  5
449
100
AcDbEntity
  8
0
370
    -3
390
0
  6
Continuous
100
AcDbCircle
 10
-499.038834
 20
-283.835403
 30
0.0
 40
2.0
100
AcDbArc
 50
294.0
 51
355.768662
  0
ARC
  5
44A
100
AcDbEntity
  8
0
370
    -3
390
0
  6
Continuous
100
AcDbCircle
 10
-497.61416
 20
-286.485007
 30
0.0
 40
1.0
100
AcDbArc
 50
114.0
 51
204.0
  0
LINE
  5
44B
100
AcDbEntity
  8
0
370
    -3
390
0
  6
Continuous
100
AcDbLine
 10
-519.533139
 20
-239.712769
 30
0.0
 11
-493.321477
 21
-298.585125
 31
0.0
  0
ARC
  5
44C
100
AcDbEntity
  8
0
370
    -3
390
0
  6
Continuous
100
AcDbCircle
 10
-494.235022
 20
-298.991862
 30
0.0
 40
1.0
100
AcDbArc
 50
294.0
 51
24.0
  0
LINE
  5
44D
100
AcDbEntity
  8
0
370
    -3
390
0
  6
Continuous
100
AcDbLine
 10
-493.828286
 20
-299.905407
 30
0.0
 11
-496.386213
 21
-301.04427
 31
0.0
  0
LINE
  5
44E
100
AcDbEntity
  8
0
370
    -3
390
0
  6
Continuous
100
AcDbLine
 10
-538.408848
 20
-286.212769
 30
0.0
 11
-502.989623
 21
-286.212769
 31
0.0
  0
ARC
  5
44F
100
AcDbEntity
  8
0
370
    -3
390
0
  6
Continuous
100
AcDbCircle
 10
-538.408848
 20
-281.212769
 30
0.0
 40
5.0
100
AcDbArc
 50
180.0
 51
270.0
  0
LINE
  5
450
100
AcDbEntity
  8
0
370
    -3
390
0
  6
Continuous
100
AcDbLine
 10
-544.408848
 20
-208.712769
 30
0.0
 11
-543.408848
 21
-208.712769
 31
0.0
  0
ARC
  5
451
100
AcDbEntity
  8
0
370
    -3
390
0
  6
Continuous
100
AcDbCircle
 10
-540.408848
 20
-207.021164
 30
0.0
 40
3.0
100
AcDbArc
 50
114.0
 51
180.0
  0
LINE
  5
452
100
AcDbEntity
  8
0
370
    -3
390
0
  6
Continuous
100
AcDbLine
 10
-539.825686
 20
-203.477615
 30
0.0
 11
-541.629057
 21
-204.280527
 31
0.0
  0
LINE
  5
453
100
AcDbEntity
  8
0
370
    -3
390
0
  6
Continuous
100
AcDbLine
 10
-539.545484
 20
-197.222898
 30
0.0
 11
-542.103411
 21
-198.36176
 31
0.0
  0
ARC
  5
454
100
AcDbEntity
  8
0
370
    -3
390
0
  6
Continuous
100
AcDbCircle
 10
-496.442799
 20
-289.115928
 30
0.0
 40
1.0
100
AcDbArc
 50
175.284875
 51
204.0
  0
ARC
  5
455
100
AcDbEntity
  8
0
370
    -3
390
0
  6
Continuous
100
AcDbCircle
 10
-1095.408848
 20
-239.712769
 30
0.0
 40
600.0
100
AcDbArc
 50
355.284875
 51
1.682769
  0
ARC
  5
456
100
AcDbEntity
  8
0
370
    -3
390
0
  6
Continuous
100
AcDbCircle
 10
-510.661137
 20
-222.533873
 30
0.0
 40
15.0
100
AcDbArc
 50
1.682769
 51
80.681877
  0
LINE
  5
457
100
AcDbEntity
  8
0
370
    -3
390
0
  6
Continuous
100
AcDbLine
 10
-534.188034
 20
-203.472975
 30
0.0
 11
-508.232397
 21
-207.731805
 31
0.0
  0
ARC
  5
458
100
AcDbEntity
  8
0
370
    -3
390
0
  6
Continuous
100
AcDbCircle
 10
-533.702286
 20
-200.512562
 30
0.0
 40
3.0
100
AcDbArc
 50
204.0
 51
260.681877
  0
LINE
  5
459
100
AcDbEntity
  8
0
370
    -3
390
0
  6
Continuous
100
AcDbLine
 10
-538.225202
 20
-197.729706
 30
0.0
 11
-519.533139
 21
-239.712769
 31
0.0
  0
LINE
  5
45A
100
AcDbEntity
  8
0
370
    -3
390
0
  6
Continuous
100
AcDbLine
 10
-541.774251
 20
-201.056098
 30
0.0
 11
-541.037847
 21
-201.368683
 31
0.0
  0
LINE
  5
45B
100
AcDbEntity
  8
0
370
    -3
390
0
  6
Continuous
100
AcDbLine
 10
-540.904505
 20
-201.054549
 30
0.0
 11
-541.037847
 21
-201.368683
 31
0.0
  0
LINE
  5
45C
100
AcDbEntity
  8
0
370
    -3
390
0
  6
Continuous
100
AcDbLine
 10
-541.349419
 20
-200.055256
 30
0.0
 11
-541.774251
 21
-201.056098
 31
0.0
  0
ARC
  5
45D
100
AcDbEntity
  8
0
370
    -3
390
0
  6
Continuous
100
AcDbCircle
 10
-495.680986
 20
-290.878555
 30
0.0
 40
1.299999
100
AcDbArc
 50
40.601531
 51
114.000001
  0
LINE
  5
45E
100
AcDbEntity
  8
0
370
    -3
390
0
  6
Continuous
100
AcDbLine
 10
-497.104127
 20
-290.089152
 30
0.0
 11
-496.209743
 21
-289.690947
 31
0.0
  0
LINE
  5
45F
100
AcDbEntity
  8
0
370
    -3
390
0
  6
Continuous
100
AcDbLine
 10
-494.256971
 20
-296.48397
 30
0.0
 11
-493.362587
 21
-296.085765
 31
0.0
  0
LINE
  5
460
100
AcDbEntity
  8
0
370
    -3
390
0
  6
Continuous
100
AcDbLine
 10
-497.104127
 20
-290.089152
 30
0.0
 11
-494.256971
 21
-296.48397
 31
0.0
  0
LINE
  5
461
100
AcDbEntity
  8
0
370
    -3
390
0
  6
Continuous
100
AcDbLine
 10
-497.104127
 20
-290.089152
 30
0.0
 11
-494.256971
 21
-296.48397
 31
0.0
  0
POINT
  5
462
100
AcDbEntity
  8
0
370
    -3
390
0
  6
Continuous
100
AcDbPoint
 10
-495.680549
 20
-293.286561
 30
0.0
  0
LINE
  5
463
100
AcDbEntity
  8
0
370
    -3
390
0
  6
Continuous
100
AcDbLine
 10
-503.660028
 20
-295.033105
 30
0.0
 11
-502.317797
 21
-298.047805
 31
0.0
  0
LINE
  5
464
100
AcDbEntity
  8
0
370
    -3
390
0
  6
Continuous
100
AcDbLine
 10
-501.855699
 20
-298.225188
 30
0.0
 11
-502.317797
 21
-298.047805
 31
0.0
  0
LINE
  5
465
100
AcDbEntity
  8
0
370
    -3
390
0
  6
Continuous
100
AcDbLine
 10
-503.482645
 20
-294.571006
 30
0.0
 11
-503.660028
 21
-295.033105
 31
0.0
  0
LINE
  5
466
100
AcDbEntity
  8
0
370
    -3
390
0
  6
Continuous
100
AcDbLine
 10
-499.823137
 20
-293.324811
 30
0.0
 11
-503.660028
 21
-295.033105
 31
0.0
  0
LINE
  5
467
100
AcDbEntity
  8
0
370
    -3
390
0
  6
Continuous
100
AcDbLine
 10
-498.480907
 20
-296.339511
 30
0.0
 11
-502.317797
 21
-298.047805
 31
0.0
  0
ARC
  5
468
100
AcDbEntity
  8
0
370
    -3
390
0
  6
Continuous
100
AcDbCircle
 10
-539.138748
 20
-198.136443
 30
0.0
 40
1.0
100
AcDbArc
 50
24.0
 51
114.0
  0
LINE
  5
469
100
AcDbEntity
  8
0
370
    -3
390
0
  6
Continuous
100
AcDbLine
 10
-544.408848
 20
-270.712769
 30
0.0
 11
-546.008848
 21
-270.712769
 31
0.0
  0
LINE
  5
46A
100
AcDbEntity
  8
0
370
    -3
390
0
  6
Continuous
100
AcDbLine
 10
-544.408848
 20
-239.712769
 30
0.0
 11
-544.408848
 21
-270.712769
 31
0.0
  0
LINE
  5
46B
100
AcDbEntity
  8
0
370
    -3
390
0
  6
Continuous
100
AcDbLine
 10
-544.408848
 20
-239.712769
 30
0.0
 11
-544.408848
 21
-208.712769
 31
0.0
  0
LINE
  5
46C
100
AcDbEntity
  8
0
370
    -3
390
0
  6
Continuous
100
AcDbLine
 10
-544.408848
 20
-208.712769
 30
0.0
 11
-546.008848
 21
-208.712769
 31
0.0
  0
LINE
  5
46D
100
AcDbEntity
  8
0
370
    -3
390
0
  6
Continuous
100
AcDbLine
 10
-546.008848
 20
-270.712769
 30
0.0
 11
-546.008848
 21
-208.712769
 31
0.0
  0
LINE
  5
46E
100
AcDbEntity
  8
0
370
    -3
390
0
  6
Continuous
100
AcDbLine
 10
-548.008848
 20
-215.112769
 30
0.0
 11
-556.208848
 21
-215.112769
 31
0.0
  0
ARC
  5
46F
100
AcDbEntity
  8
0
370
    -3
390
0
  6
Continuous
100
AcDbCircle
 10
-548.008848
 20
-213.112769
 30
0.0
 40
2.0
100
AcDbArc
 50
270.0
 51
0.0
  0
LINE
  5
470
100
AcDbEntity
  8
0
370
    -3
390
0
  6
Continuous
100
AcDbLine
 10
-548.008848
 20
-264.312769
 30
0.0
 11
-556.208848
 21
-264.312769
 31
0.0
  0
ARC
  5
471
100
AcDbEntity
  8
0
370
    -3
390
0
  6
Continuous
100
AcDbCircle
 10
-548.008848
 20
-266.312769
 30
0.0
 40
2.0
100
AcDbArc
 50
0.0
 51
90.0
  0
ARC
  5
472
100
AcDbEntity
  8
0
370
    -3
390
0
  6
Continuous
100
AcDbCircle
 10
-691.361452
 20
-294.018569
 30
0.0
 40
0.3
100
AcDbArc
 50
135.0
 51
225.0
  0
LINE
  5
473
100
AcDbEntity
  8
0
370
    -3
390
0
  6
Continuous
100
AcDbLine
 10
-691.573584
 20
-293.806437
 30
0.0
 11
-690.969113
 21
-293.201966
 31
0.0
  0
LINE
  5
474
100
AcDbEntity
  8
0
370
    -3
390
0
  6
Continuous
100
AcDbLine
 10
-685.633887
 20
-301.301769
 30
0.0
 11
-685.068202
 21
-300.736084
 31
0.0
  0
LINE
  5
475
100
AcDbEntity
  8
0
370
    -3
390
0
  6
Continuous
100
AcDbLine
 10
-687.295588
 20
-299.640068
 30
0.0
 11
-685.633887
 21
-301.301769
 31
0.0
  0
LINE
  5
476
100
AcDbEntity
  8
0
370
    -3
390
0
  6
Continuous
100
AcDbLine
 10
-691.997848
 20
-294.937808
 30
0.0
 11
-691.432163
 21
-294.372123
 31
0.0
  0
LINE
  5
477
100
AcDbEntity
  8
0
370
    -3
390
0
  6
Continuous
100
AcDbLine
 10
-690.336147
 20
-296.599509
 30
0.0
 11
-691.997848
 21
-294.937808
 31
0.0
  0
ARC
  5
478
100
AcDbEntity
  8
0
370
    -3
390
0
  6
Continuous
100
AcDbCircle
 10
-684.714648
 20
-300.665373
 30
0.0
 40
0.3
100
AcDbArc
 50
225.0
 51
315.0
  0
LINE
  5
479
100
AcDbEntity
  8
0
370
    -3
390
0
  6
Continuous
100
AcDbLine
 10
-684.502516
 20
-300.877505
 30
0.0
 11
-683.898045
 21
-300.273034
 31
0.0
  0
ARC
  5
47A
100
AcDbEntity
  8
0
370
    -3
390
0
  6
Continuous
100
AcDbCircle
 10
-649.326914
 20
-262.995955
 30
0.0
 40
50.8
100
AcDbArc
 50
230.905432
 51
265.66015
  0
ARC
  5
47B
100
AcDbEntity
  8
0
370
    -3
390
0
  6
Continuous
100
AcDbCircle
 10
-653.692033
 20
-258.630836
 30
0.0
 40
50.8
100
AcDbArc
 50
184.33985
 51
219.094568
  0
INSERT
  5
487
100
AcDbEntity
  8
0
390
0
100
AcDbBlockReference
  2
ZU_SYM__USR_MELCAD_MD_SYM_SYM_SYM11_00
 10
-572.001827
 20
-298.119789
 30
0.0
 50
135.0
  0
INSERT
  5
493
100
AcDbEntity
  8
0
390
0
100
AcDbBlockReference
  2
ZU_SYM__USR_MELCAD_MD_SYM_SYM_SYM10_00
 10
-572.001827
 20
-181.305749
 30
0.0
 41
-1.0
 50
45.0
  0
INSERT
  5
49F
100
AcDbEntity
  8
0
390
0
100
AcDbBlockReference
  2
ZU_SYM__USR_MELCAD_MD_SYM_SYM_SYM9_00
 10
-688.815868
 20
-181.305749
 30
0.0
 50
315.0
  0
INSERT
  5
4AB
100
AcDbEntity
  8
0
390
0
100
AcDbBlockReference
  2
ZU_SYM__USR_MELCAD_MD_SYM_SYM_SYM8_00
 10
-688.815868
 20
-298.119789
 30
0.0
 41
-1.0
 50
225.0
  0
ARC
  5
4AC
100
AcDbEntity
  8
0
370
    -3
390
0
  6
Continuous
100
AcDbCircle
 10
-673.892451
 20
-209.411346
 30
0.0
 40
2.0
100
AcDbArc
 50
145.1294
 51
240.0
  0
ARC
  5
4AD
100
AcDbEntity
  8
0
370
    -3
390
0
  6
Continuous
100
AcDbCircle
 10
-672.153876
 20
-210.415113
 30
0.0
 40
2.0
100
AcDbArc
 50
240.0
 51
324.937907
  0
ARC
  5
4AE
100
AcDbEntity
  8
0
370
    -3
390
0
  6
Continuous
100
AcDbCircle
 10
-678.810381
 20
-218.118983
 30
0.0
 40
2.0
100
AcDbArc
 50
60.0
 51
155.956512
  0
ARC
  5
4AF
100
AcDbEntity
  8
0
370
    -3
390
0
  6
Continuous
100
AcDbCircle
 10
-677.068556
 20
-219.124626
 30
0.0
 40
2.0
100
AcDbArc
 50
336.190997
 51
60.0
  0
ARC
  5
4B0
100
AcDbEntity
  8
0
370
    -3
390
0
  6
Continuous
100
AcDbCircle
 10
-676.653876
 20
-261.216196
 30
0.0
 40
2.0
100
AcDbArc
 50
300.0
 51
24.937907
  0
ARC
  5
4B1
100
AcDbEntity
  8
0
370
    -3
390
0
  6
Continuous
100
AcDbCircle
 10
-678.392451
 20
-262.219963
 30
0.0
 40
2.0
100
AcDbArc
 50
205.1294
 51
300.0
  0
ARC
  5
4B2
100
AcDbEntity
  8
0
370
    -3
390
0
  6
Continuous
100
AcDbCircle
 10
-673.892451
 20
-270.014191
 30
0.0
 40
2.0
100
AcDbArc
 50
120.0
 51
214.8706
  0
ARC
  5
4B3
100
AcDbEntity
  8
0
370
    -3
390
0
  6
Continuous
100
AcDbCircle
 10
-672.153876
 20
-269.010424
 30
0.0
 40
2.0
100
AcDbArc
 50
35.062093
 51
120.0
  0
ARC
  5
4B4
100
AcDbEntity
  8
0
370
    -3
390
0
  6
Continuous
100
AcDbCircle
 10
-635.908848
 20
-290.415333
 30
0.0
 40
2.0
100
AcDbArc
 50
0.0
 51
83.809003
  0
ARC
  5
4B5
100
AcDbEntity
  8
0
370
    -3
390
0
  6
Continuous
100
AcDbCircle
 10
-635.908848
 20
-292.426619
 30
0.0
 40
2.0
100
AcDbArc
 50
264.043488
 51
0.0
  0
ARC
  5
4B6
100
AcDbEntity
  8
0
370
    -3
390
0
  6
Continuous
100
AcDbCircle
 10
-624.908848
 20
-292.426619
 30
0.0
 40
2.0
100
AcDbArc
 50
180.0
 51
275.956512
  0
ARC
  5
4B7
100
AcDbEntity
  8
0
370
    -3
390
0
  6
Continuous
100
AcDbCircle
 10
-624.908848
 20
-290.415333
 30
0.0
 40
2.0
100
AcDbArc
 50
96.190997
 51
180.0
  0
ARC
  5
4B8
100
AcDbEntity
  8
0
370
    -3
390
0
  6
Continuous
100
AcDbCircle
 10
-624.908848
 20
-282.359574
 30
0.0
 40
2.0
100
AcDbArc
 50
180.0
 51
277.348661
  0
ARC
  5
4B9
100
AcDbEntity
  8
0
370
    -3
390
0
  6
Continuous
100
AcDbCircle
 10
-635.908848
 20
-282.359574
 30
0.0
 40
2.0
100
AcDbArc
 50
262.651339
 51
0.0
  0
ARC
  5
4BA
100
AcDbEntity
  8
0
370
    -3
390
0
  6
Continuous
100
AcDbCircle
 10
-635.908848
 20
-272.251207
 30
0.0
 40
2.0
100
AcDbArc
 50
260.405932
 51
0.0
  0
ARC
  5
4BB
100
AcDbEntity
  8
0
370
    -3
390
0
  6
Continuous
100
AcDbCircle
 10
-624.908848
 20
-272.251207
 30
0.0
 40
2.0
100
AcDbArc
 50
180.0
 51
279.594068
  0
ARC
  5
4BC
100
AcDbEntity
  8
0
370
    -3
390
0
  6
Continuous
100
AcDbCircle
 10
-624.908848
 20
-262.04548
 30
0.0
 40
2.0
100
AcDbArc
 50
180.0
 51
283.835224
  0
ARC
  5
4BD
100
AcDbEntity
  8
0
370
    -3
390
0
  6
Continuous
100
AcDbCircle
 10
-635.908848
 20
-262.04548
 30
0.0
 40
2.0
100
AcDbArc
 50
256.164776
 51
0.0
  0
ARC
  5
4BE
100
AcDbEntity
  8
0
370
    -3
390
0
  6
Continuous
100
AcDbCircle
 10
-635.908848
 20
-249.239048
 30
0.0
 40
2.0
100
AcDbArc
 50
0.0
 51
60.0
  0
ARC
  5
4BF
100
AcDbEntity
  8
0
370
    -3
390
0
  6
Continuous
100
AcDbCircle
 10
-636.851517
 20
-248.628598
 30
0.0
 40
2.0
100
AcDbArc
 50
54.14774
 51
120.0
  0
ARC
  5
4C0
100
AcDbEntity
  8
0
370
    -3
390
0
  6
Continuous
100
AcDbCircle
 10
-638.721163
 20
-249.708038
 30
0.0
 40
2.0
100
AcDbArc
 50
120.0
 51
230.252247
  0
ARC
  5
4C1
100
AcDbEntity
  8
0
370
    -3
390
0
  6
Continuous
100
AcDbCircle
 10
-635.908848
 20
-251.491988
 30
0.0
 40
2.0
100
AcDbArc
 50
244.971001
 51
0.0
  0
ARC
  5
4C2
100
AcDbEntity
  8
0
370
    -3
390
0
  6
Continuous
100
AcDbCircle
 10
-645.922926
 20
-253.865979
 30
0.0
 40
2.0
100
AcDbArc
 50
42.373625
 51
120.0
  0
ARC
  5
4C3
100
AcDbEntity
  8
0
370
    -3
390
0
  6
Continuous
100
AcDbCircle
 10
-647.692472
 20
-254.887627
 30
0.0
 40
2.0
100
AcDbArc
 50
120.0
 51
221.282824
  0
ARC
  5
4C4
100
AcDbEntity
  8
0
370
    -3
390
0
  6
Continuous
100
AcDbCircle
 10
-654.721274
 20
-258.945707
 30
0.0
 40
2.0
100
AcDbArc
 50
38.346619
 51
120.0
  0
ARC
  5
4C5
100
AcDbEntity
  8
0
370
    -3
390
0
  6
Continuous
100
AcDbCircle
 10
-656.470727
 20
-259.955754
 30
0.0
 40
2.0
100
AcDbArc
 50
120.0
 51
217.83748
  0
ARC
  5
4C6
100
AcDbEntity
  8
0
370
    -3
390
0
  6
Continuous
100
AcDbCircle
 10
-663.451375
 20
-263.986033
 30
0.0
 40
2.0
100
AcDbArc
 50
36.301256
 51
120.0
  0
ARC
  5
4C7
100
AcDbEntity
  8
0
370
    -3
390
0
  6
Continuous
100
AcDbCircle
 10
-665.19346
 20
-264.991826
 30
0.0
 40
2.0
100
AcDbArc
 50
120.0
 51
216.007069
  0
ARC
  5
4C8
100
AcDbEntity
  8
0
370
    -3
390
0
  6
Continuous
100
AcDbCircle
 10
-669.69346
 20
-257.197598
 30
0.0
 40
2.0
100
AcDbArc
 50
203.992931
 51
300.0
  0
ARC
  5
4C9
100
AcDbEntity
  8
0
370
    -3
390
0
  6
Continuous
100
AcDbCircle
 10
-667.951375
 20
-256.191805
 30
0.0
 40
2.0
100
AcDbArc
 50
300.0
 51
23.698744
  0
ARC
  5
4CA
100
AcDbEntity
  8
0
370
    -3
390
0
  6
Continuous
100
AcDbCircle
 10
-670.092064
 20
-223.152506
 30
0.0
 40
2.0
100
AcDbArc
 50
60.0
 51
157.348661
  0
ARC
  5
4CB
100
AcDbEntity
  8
0
370
    -3
390
0
  6
Continuous
100
AcDbCircle
 10
-665.19346
 20
-214.433711
 30
0.0
 40
2.0
100
AcDbArc
 50
143.992931
 51
240.0
  0
ARC
  5
4CC
100
AcDbEntity
  8
0
370
    -3
390
0
  6
Continuous
100
AcDbCircle
 10
-663.451375
 20
-215.439504
 30
0.0
 40
2.0
100
AcDbArc
 50
240.0
 51
323.698744
  0
ARC
  5
4CD
100
AcDbEntity
  8
0
370
    -3
390
0
  6
Continuous
100
AcDbCircle
 10
-635.908848
 20
-186.998919
 30
0.0
 40
2.0
100
AcDbArc
 50
0.0
 51
95.956512
  0
ARC
  5
4CE
100
AcDbEntity
  8
0
370
    -3
390
0
  6
Continuous
100
AcDbCircle
 10
-635.908848
 20
-189.010205
 30
0.0
 40
2.0
100
AcDbArc
 50
276.190997
 51
0.0
  0
ARC
  5
4CF
100
AcDbEntity
  8
0
370
    -3
390
0
  6
Continuous
100
AcDbCircle
 10
-635.908848
 20
-197.065963
 30
0.0
 40
2.0
100
AcDbArc
 50
0.0
 51
97.348661
  0
ARC
  5
4D0
100
AcDbEntity
  8
0
370
    -3
390
0
  6
Continuous
100
AcDbCircle
 10
-635.908848
 20
-207.17433
 30
0.0
 40
2.0
100
AcDbArc
 50
0.0
 51
99.594068
  0
ARC
  5
4D1
100
AcDbEntity
  8
0
370
    -3
390
0
  6
Continuous
100
AcDbCircle
 10
-635.908848
 20
-217.380057
 30
0.0
 40
2.0
100
AcDbArc
 50
0.0
 51
103.835224
  0
ARC
  5
4D2
100
AcDbEntity
  8
0
370
    -3
390
0
  6
Continuous
100
AcDbCircle
 10
-635.908848
 20
-219.4458
 30
0.0
 40
2.0
100
AcDbArc
 50
285.183114
 51
0.0
  0
ARC
  5
4D3
100
AcDbEntity
  8
0
370
    -3
390
0
  6
Continuous
100
AcDbCircle
 10
-635.908848
 20
-227.93355
 30
0.0
 40
2.0
100
AcDbArc
 50
0.0
 51
115.028999
  0
ARC
  5
4D4
100
AcDbEntity
  8
0
370
    -3
390
0
  6
Continuous
100
AcDbCircle
 10
-638.721163
 20
-229.717499
 30
0.0
 40
2.0
100
AcDbArc
 50
129.747753
 51
240.0
  0
ARC
  5
4D5
100
AcDbEntity
  8
0
370
    -3
390
0
  6
Continuous
100
AcDbCircle
 10
-645.922926
 20
-225.559559
 30
0.0
 40
2.0
100
AcDbArc
 50
240.0
 51
317.626375
  0
ARC
  5
4D6
100
AcDbEntity
  8
0
370
    -3
390
0
  6
Continuous
100
AcDbCircle
 10
-647.692472
 20
-224.537911
 30
0.0
 40
2.0
100
AcDbArc
 50
138.717176
 51
240.0
  0
ARC
  5
4D7
100
AcDbEntity
  8
0
370
    -3
390
0
  6
Continuous
100
AcDbCircle
 10
-654.721274
 20
-220.47983
 30
0.0
 40
2.0
100
AcDbArc
 50
240.0
 51
321.653381
  0
ARC
  5
4D8
100
AcDbEntity
  8
0
370
    -3
390
0
  6
Continuous
100
AcDbCircle
 10
-656.470727
 20
-219.469783
 30
0.0
 40
2.0
100
AcDbArc
 50
142.16252
 51
240.0
  0
ARC
  5
4D9
100
AcDbEntity
  8
0
370
    -3
390
0
  6
Continuous
100
AcDbCircle
 10
-661.337962
 20
-228.206689
 30
0.0
 40
2.0
100
AcDbArc
 50
60.0
 51
159.594068
  0
ARC
  5
4DA
100
AcDbEntity
  8
0
370
    -3
390
0
  6
Continuous
100
AcDbCircle
 10
-652.499543
 20
-233.309553
 30
0.0
 40
2.0
100
AcDbArc
 50
60.0
 51
163.835224
  0
ARC
  5
4DB
100
AcDbEntity
  8
0
370
    -3
390
0
  6
Continuous
100
AcDbCircle
 10
-650.710557
 20
-234.342424
 30
0.0
 40
2.0
100
AcDbArc
 50
345.183114
 51
60.0
  0
ARC
  5
4DC
100
AcDbEntity
  8
0
370
    -3
390
0
  6
Continuous
100
AcDbCircle
 10
-643.35995
 20
-238.586299
 30
0.0
 40
2.0
100
AcDbArc
 50
60.0
 51
175.028999
  0
ARC
  5
4DD
100
AcDbEntity
  8
0
370
    -3
390
0
  6
Continuous
100
AcDbCircle
 10
-643.221163
 20
-241.91381
 30
0.0
 40
2.0
100
AcDbArc
 50
189.747753
 51
300.0
  0
ARC
  5
4DE
100
AcDbEntity
  8
0
370
    -3
390
0
  6
Continuous
100
AcDbCircle
 10
-650.422926
 20
-246.07175
 30
0.0
 40
2.0
100
AcDbArc
 50
300.0
 51
17.626375
  0
ARC
  5
4DF
100
AcDbEntity
  8
0
370
    -3
390
0
  6
Continuous
100
AcDbCircle
 10
-652.192472
 20
-247.093398
 30
0.0
 40
2.0
100
AcDbArc
 50
198.717176
 51
300.0
  0
ARC
  5
4E0
100
AcDbEntity
  8
0
370
    -3
390
0
  6
Continuous
100
AcDbCircle
 10
-660.970727
 20
-252.161525
 30
0.0
 40
2.0
100
AcDbArc
 50
202.16252
 51
300.0
  0
ARC
  5
4E1
100
AcDbEntity
  8
0
370
    -3
390
0
  6
Continuous
100
AcDbCircle
 10
-641.351517
 20
-240.834369
 30
0.0
 40
2.0
100
AcDbArc
 50
300.0
 51
5.85226
  0
ARC
  5
4E2
100
AcDbEntity
  8
0
370
    -3
390
0
  6
Continuous
100
AcDbCircle
 10
-641.408848
 20
-239.712769
 30
0.0
 40
2.0
100
AcDbArc
 50
0.0
 51
60.0
  0
ARC
  5
4E3
100
AcDbEntity
  8
0
370
    -3
390
0
  6
Continuous
100
AcDbCircle
 10
-636.851517
 20
-230.796939
 30
0.0
 40
2.0
100
AcDbArc
 50
240.0
 51
305.85226
  0
ARC
  5
4E4
100
AcDbEntity
  8
0
370
    -3
390
0
  6
Continuous
100
AcDbCircle
 10
-635.908848
 20
-230.186489
 30
0.0
 40
2.0
100
AcDbArc
 50
300.0
 51
0.0
  0
ARC
  5
4E5
100
AcDbEntity
  8
0
370
    -3
390
0
  6
Continuous
100
AcDbCircle
 10
-624.908848
 20
-230.186489
 30
0.0
 40
2.0
100
AcDbArc
 50
180.0
 51
240.0
  0
ARC
  5
4E6
100
AcDbEntity
  8
0
370
    -3
390
0
  6
Continuous
100
AcDbCircle
 10
-623.966178
 20
-230.796939
 30
0.0
 40
2.0
100
AcDbArc
 50
234.14774
 51
300.0
  0
ARC
  5
4E7
100
AcDbEntity
  8
0
370
    -3
390
0
  6
Continuous
100
AcDbCircle
 10
-622.096532
 20
-229.717499
 30
0.0
 40
2.0
100
AcDbArc
 50
300.0
 51
50.252247
  0
ARC
  5
4E8
100
AcDbEntity
  8
0
370
    -3
390
0
  6
Continuous
100
AcDbCircle
 10
-624.908848
 20
-227.93355
 30
0.0
 40
2.0
100
AcDbArc
 50
64.971001
 51
180.0
  0
ARC
  5
4E9
100
AcDbEntity
  8
0
370
    -3
390
0
  6
Continuous
100
AcDbCircle
 10
-624.908848
 20
-219.4458
 30
0.0
 40
2.0
100
AcDbArc
 50
180.0
 51
254.816886
  0
ARC
  5
4EA
100
AcDbEntity
  8
0
370
    -3
390
0
  6
Continuous
100
AcDbCircle
 10
-614.894769
 20
-225.559559
 30
0.0
 40
2.0
100
AcDbArc
 50
222.373625
 51
300.0
  0
ARC
  5
4EB
100
AcDbEntity
  8
0
370
    -3
390
0
  6
Continuous
100
AcDbCircle
 10
-613.125223
 20
-224.537911
 30
0.0
 40
2.0
100
AcDbArc
 50
300.0
 51
41.282824
  0
ARC
  5
4EC
100
AcDbEntity
  8
0
370
    -3
390
0
  6
Continuous
100
AcDbCircle
 10
-624.908848
 20
-217.380057
 30
0.0
 40
2.0
100
AcDbArc
 50
76.164776
 51
180.0
  0
ARC
  5
4ED
100
AcDbEntity
  8
0
370
    -3
390
0
  6
Continuous
100
AcDbCircle
 10
-635.908848
 20
-209.204573
 30
0.0
 40
2.0
100
AcDbArc
 50
280.21948
 51
0.0
  0
ARC
  5
4EE
100
AcDbEntity
  8
0
370
    -3
390
0
  6
Continuous
100
AcDbCircle
 10
-635.908848
 20
-199.083346
 30
0.0
 40
2.0
100
AcDbArc
 50
277.70926
 51
0.0
  0
ARC
  5
4EF
100
AcDbEntity
  8
0
370
    -3
390
0
  6
Continuous
100
AcDbCircle
 10
-624.908848
 20
-199.083346
 30
0.0
 40
2.0
100
AcDbArc
 50
180.0
 51
262.29074
  0
ARC
  5
4F0
100
AcDbEntity
  8
0
370
    -3
390
0
  6
Continuous
100
AcDbCircle
 10
-624.908848
 20
-197.065963
 30
0.0
 40
2.0
100
AcDbArc
 50
82.651339
 51
180.0
  0
ARC
  5
4F1
100
AcDbEntity
  8
0
370
    -3
390
0
  6
Continuous
100
AcDbCircle
 10
-624.908848
 20
-186.998919
 30
0.0
 40
2.0
100
AcDbArc
 50
84.043488
 51
180.0
  0
ARC
  5
4F2
100
AcDbEntity
  8
0
370
    -3
390
0
  6
Continuous
100
AcDbCircle
 10
-624.908848
 20
-189.010205
 30
0.0
 40
2.0
100
AcDbArc
 50
180.0
 51
263.809003
  0
ARC
  5
4F3
100
AcDbEntity
  8
0
370
    -3
390
0
  6
Continuous
100
AcDbCircle
 10
-595.624235
 20
-214.433711
 30
0.0
 40
2.0
100
AcDbArc
 50
300.0
 51
36.007069
  0
ARC
  5
4F4
100
AcDbEntity
  8
0
370
    -3
390
0
  6
Continuous
100
AcDbCircle
 10
-597.36632
 20
-215.439504
 30
0.0
 40
2.0
100
AcDbArc
 50
216.301256
 51
300.0
  0
ARC
  5
4F5
100
AcDbEntity
  8
0
370
    -3
390
0
  6
Continuous
100
AcDbCircle
 10
-604.346968
 20
-219.469783
 30
0.0
 40
2.0
100
AcDbArc
 50
300.0
 51
37.83748
  0
ARC
  5
4F6
100
AcDbEntity
  8
0
370
    -3
390
0
  6
Continuous
100
AcDbCircle
 10
-606.096421
 20
-220.47983
 30
0.0
 40
2.0
100
AcDbArc
 50
218.346619
 51
300.0
  0
ARC
  5
4F7
100
AcDbEntity
  8
0
370
    -3
390
0
  6
Continuous
100
AcDbCircle
 10
-624.908848
 20
-209.204573
 30
0.0
 40
2.0
100
AcDbArc
 50
180.0
 51
259.78052
  0
ARC
  5
4F8
100
AcDbEntity
  8
0
370
    -3
390
0
  6
Continuous
100
AcDbCircle
 10
-624.908848
 20
-207.17433
 30
0.0
 40
2.0
100
AcDbArc
 50
80.405932
 51
180.0
  0
ARC
  5
4F9
100
AcDbEntity
  8
0
370
    -3
390
0
  6
Continuous
100
AcDbCircle
 10
-586.925244
 20
-209.411346
 30
0.0
 40
2.0
100
AcDbArc
 50
300.0
 51
34.8706
  0
ARC
  5
4FA
100
AcDbEntity
  8
0
370
    -3
390
0
  6
Continuous
100
AcDbCircle
 10
-588.663819
 20
-210.415113
 30
0.0
 40
2.0
100
AcDbArc
 50
215.062093
 51
300.0
  0
ARC
  5
4FB
100
AcDbEntity
  8
0
370
    -3
390
0
  6
Continuous
100
AcDbCircle
 10
-582.007314
 20
-218.118983
 30
0.0
 40
2.0
100
AcDbArc
 50
24.043488
 51
120.0
  0
ARC
  5
4FC
100
AcDbEntity
  8
0
370
    -3
390
0
  6
Continuous
100
AcDbCircle
 10
-583.749139
 20
-219.124626
 30
0.0
 40
2.0
100
AcDbArc
 50
120.0
 51
203.809003
  0
ARC
  5
4FD
100
AcDbEntity
  8
0
370
    -3
390
0
  6
Continuous
100
AcDbCircle
 10
-590.725631
 20
-223.152506
 30
0.0
 40
2.0
100
AcDbArc
 50
22.651339
 51
120.0
  0
ARC
  5
4FE
100
AcDbEntity
  8
0
370
    -3
390
0
  6
Continuous
100
AcDbCircle
 10
-592.472735
 20
-224.161197
 30
0.0
 40
2.0
100
AcDbArc
 50
120.0
 51
202.29074
  0
ARC
  5
4FF
100
AcDbEntity
  8
0
370
    -3
390
0
  6
Continuous
100
AcDbCircle
 10
-599.479733
 20
-228.206689
 30
0.0
 40
2.0
100
AcDbArc
 50
20.405932
 51
120.0
  0
ARC
  5
500
100
AcDbEntity
  8
0
370
    -3
390
0
  6
Continuous
100
AcDbCircle
 10
-601.237975
 20
-229.221811
 30
0.0
 40
2.0
100
AcDbArc
 50
120.0
 51
199.78052
  0
ARC
  5
501
100
AcDbEntity
  8
0
370
    -3
390
0
  6
Continuous
100
AcDbCircle
 10
-608.318152
 20
-233.309553
 30
0.0
 40
2.0
100
AcDbArc
 50
16.164776
 51
120.0
  0
ARC
  5
502
100
AcDbEntity
  8
0
370
    -3
390
0
  6
Continuous
100
AcDbCircle
 10
-610.107138
 20
-234.342424
 30
0.0
 40
2.0
100
AcDbArc
 50
120.0
 51
194.816886
  0
ARC
  5
503
100
AcDbEntity
  8
0
370
    -3
390
0
  6
Continuous
100
AcDbCircle
 10
-617.457745
 20
-238.586299
 30
0.0
 40
2.0
100
AcDbArc
 50
4.971001
 51
120.0
  0
ARC
  5
504
100
AcDbEntity
  8
0
370
    -3
390
0
  6
Continuous
100
AcDbCircle
 10
-619.408848
 20
-239.712769
 30
0.0
 40
2.0
100
AcDbArc
 50
120.0
 51
180.0
  0
ARC
  5
505
100
AcDbEntity
  8
0
370
    -3
390
0
  6
Continuous
100
AcDbCircle
 10
-619.466178
 20
-240.834369
 30
0.0
 40
2.0
100
AcDbArc
 50
174.14774
 51
240.0
  0
ARC
  5
506
100
AcDbEntity
  8
0
370
    -3
390
0
  6
Continuous
100
AcDbCircle
 10
-617.596532
 20
-241.91381
 30
0.0
 40
2.0
100
AcDbArc
 50
240.0
 51
350.252247
  0
ARC
  5
507
100
AcDbEntity
  8
0
370
    -3
390
0
  6
Continuous
100
AcDbCircle
 10
-624.908848
 20
-249.239048
 30
0.0
 40
2.0
100
AcDbArc
 50
120.0
 51
180.0
  0
ARC
  5
508
100
AcDbEntity
  8
0
370
    -3
390
0
  6
Continuous
100
AcDbCircle
 10
-624.908848
 20
-251.491988
 30
0.0
 40
2.0
100
AcDbArc
 50
180.0
 51
295.028999
  0
ARC
  5
509
100
AcDbEntity
  8
0
370
    -3
390
0
  6
Continuous
100
AcDbCircle
 10
-622.096532
 20
-249.708038
 30
0.0
 40
2.0
100
AcDbArc
 50
309.747753
 51
60.0
  0
ARC
  5
50A
100
AcDbEntity
  8
0
370
    -3
390
0
  6
Continuous
100
AcDbCircle
 10
-624.908848
 20
-259.979737
 30
0.0
 40
2.0
100
AcDbArc
 50
105.183114
 51
180.0
  0
ARC
  5
50B
100
AcDbEntity
  8
0
370
    -3
390
0
  6
Continuous
100
AcDbCircle
 10
-635.908848
 20
-259.979737
 30
0.0
 40
2.0
100
AcDbArc
 50
0.0
 51
74.816886
  0
ARC
  5
50C
100
AcDbEntity
  8
0
370
    -3
390
0
  6
Continuous
100
AcDbCircle
 10
-614.894769
 20
-253.865979
 30
0.0
 40
2.0
100
AcDbArc
 50
60.0
 51
137.626375
  0
ARC
  5
50D
100
AcDbEntity
  8
0
370
    -3
390
0
  6
Continuous
100
AcDbCircle
 10
-613.125223
 20
-254.887627
 30
0.0
 40
2.0
100
AcDbArc
 50
318.717176
 51
60.0
  0
ARC
  5
50E
100
AcDbEntity
  8
0
370
    -3
390
0
  6
Continuous
100
AcDbCircle
 10
-610.394769
 20
-246.07175
 30
0.0
 40
2.0
100
AcDbArc
 50
162.373625
 51
240.0
  0
ARC
  5
50F
100
AcDbEntity
  8
0
370
    -3
390
0
  6
Continuous
100
AcDbCircle
 10
-608.625223
 20
-247.093398
 30
0.0
 40
2.0
100
AcDbArc
 50
240.0
 51
341.282824
  0
ARC
  5
510
100
AcDbEntity
  8
0
370
    -3
390
0
  6
Continuous
100
AcDbCircle
 10
-601.596421
 20
-251.151478
 30
0.0
 40
2.0
100
AcDbArc
 50
158.346619
 51
240.0
  0
ARC
  5
511
100
AcDbEntity
  8
0
370
    -3
390
0
  6
Continuous
100
AcDbCircle
 10
-606.096421
 20
-258.945707
 30
0.0
 40
2.0
100
AcDbArc
 50
60.0
 51
141.653381
  0
ARC
  5
512
100
AcDbEntity
  8
0
370
    -3
390
0
  6
Continuous
100
AcDbCircle
 10
-604.346968
 20
-259.955754
 30
0.0
 40
2.0
100
AcDbArc
 50
322.16252
 51
60.0
  0
ARC
  5
513
100
AcDbEntity
  8
0
370
    -3
390
0
  6
Continuous
100
AcDbCircle
 10
-599.846968
 20
-252.161525
 30
0.0
 40
2.0
100
AcDbArc
 50
240.0
 51
337.83748
  0
ARC
  5
514
100
AcDbEntity
  8
0
370
    -3
390
0
  6
Continuous
100
AcDbCircle
 10
-592.86632
 20
-256.191805
 30
0.0
 40
2.0
100
AcDbArc
 50
156.301256
 51
240.0
  0
ARC
  5
515
100
AcDbEntity
  8
0
370
    -3
390
0
  6
Continuous
100
AcDbCircle
 10
-591.124235
 20
-257.197598
 30
0.0
 40
2.0
100
AcDbArc
 50
240.0
 51
336.007069
  0
ARC
  5
516
100
AcDbEntity
  8
0
370
    -3
390
0
  6
Continuous
100
AcDbCircle
 10
-584.163819
 20
-261.216196
 30
0.0
 40
2.0
100
AcDbArc
 50
155.062093
 51
240.0
  0
ARC
  5
517
100
AcDbEntity
  8
0
370
    -3
390
0
  6
Continuous
100
AcDbCircle
 10
-582.425244
 20
-262.219963
 30
0.0
 40
2.0
100
AcDbArc
 50
240.0
 51
334.8706
  0
ARC
  5
518
100
AcDbEntity
  8
0
370
    -3
390
0
  6
Continuous
100
AcDbCircle
 10
-597.36632
 20
-263.986033
 30
0.0
 40
2.0
100
AcDbArc
 50
60.0
 51
143.698744
  0
ARC
  5
519
100
AcDbEntity
  8
0
370
    -3
390
0
  6
Continuous
100
AcDbCircle
 10
-586.925244
 20
-270.014191
 30
0.0
 40
2.0
100
AcDbArc
 50
325.1294
 51
60.0
  0
ARC
  5
51A
100
AcDbEntity
  8
0
370
    -3
390
0
  6
Continuous
100
AcDbCircle
 10
-595.624235
 20
-264.991826
 30
0.0
 40
2.0
100
AcDbArc
 50
323.992931
 51
60.0
  0
ARC
  5
51B
100
AcDbEntity
  8
0
370
    -3
390
0
  6
Continuous
100
AcDbCircle
 10
-635.908848
 20
-280.342192
 30
0.0
 40
2.0
100
AcDbArc
 50
0.0
 51
82.29074
  0
ARC
  5
51C
100
AcDbEntity
  8
0
370
    -3
390
0
  6
Continuous
100
AcDbCircle
 10
-635.908848
 20
-270.220964
 30
0.0
 40
2.0
100
AcDbArc
 50
0.0
 51
79.78052
  0
ARC
  5
51D
100
AcDbEntity
  8
0
370
    -3
390
0
  6
Continuous
100
AcDbCircle
 10
-624.908848
 20
-270.220964
 30
0.0
 40
2.0
100
AcDbArc
 50
100.21948
 51
180.0
  0
ARC
  5
51E
100
AcDbEntity
  8
0
370
    -3
390
0
  6
Continuous
100
AcDbCircle
 10
-624.908848
 20
-280.342192
 30
0.0
 40
2.0
100
AcDbArc
 50
97.70926
 51
180.0
  0
ARC
  5
51F
100
AcDbEntity
  8
0
370
    -3
390
0
  6
Continuous
100
AcDbCircle
 10
-659.57972
 20
-229.221811
 30
0.0
 40
2.0
100
AcDbArc
 50
340.21948
 51
60.0
  0
ARC
  5
520
100
AcDbEntity
  8
0
370
    -3
390
0
  6
Continuous
100
AcDbCircle
 10
-30.901269
 20
375.287231
 30
0.0
 40
3.0
100
AcDbArc
 50
90.0
 51
180.0
  0
LINE
  5
521
100
AcDbEntity
  8
0
370
    -3
390
0
  6
Continuous
100
AcDbLine
 10
-30.901269
 20
378.287231
 30
0.0
 11
-23.901269
 21
378.287231
 31
0.0
  0
LINE
  5
522
100
AcDbEntity
  8
0
370
    -3
390
0
  6
Continuous
100
AcDbLine
 10
39.098731
 20
262.787231
 30
0.0
 11
125.608855
 21
262.787231
 31
0.0
  0
LINE
  5
523
100
AcDbEntity
  8
0
370
    -3
390
0
  6
Continuous
100
AcDbLine
 10
39.098731
 20
297.787231
 30
0.0
 11
125.608855
 21
297.787231
 31
0.0
  0
ARC
  5
524
100
AcDbEntity
  8
0
370
    -3
390
0
  6
Continuous
100
AcDbCircle
 10
39.098731
 20
280.287231
 30
0.0
 40
20.0
100
AcDbArc
 50
298.955024
 51
61.044976
  0
ARC
  5
525
100
AcDbEntity
  8
0
370
    -3
390
0
  6
Continuous
100
AcDbCircle
 10
39.098731
 20
280.287231
 30
0.0
 40
17.5
100
AcDbArc
 50
90.0
 51
270.0
  0
LINE
  5
526
100
AcDbEntity
  8
0
370
    -3
390
0
  6
CENTER
100
AcDbLine
 10
39.098731
 20
303.964625
 30
0.0
 11
39.098731
 21
256.321661
 31
0.0
  0
LINE
  5
527
100
AcDbEntity
  8
0
370
    -3
390
0
  6
Continuous
100
AcDbLine
 10
201.098731
 20
155.035969
 30
0.0
 11
193.098731
 21
155.035969
 31
0.0
  0
LINE
  5
528
100
AcDbEntity
  8
0
370
    -3
390
0
  6
Continuous
100
AcDbLine
 10
201.098731
 20
104.784706
 30
0.0
 11
193.098731
 21
104.784706
 31
0.0
  0
ARC
  5
529
100
AcDbEntity
  8
0
370
    -3
390
0
  6
Continuous
100
AcDbCircle
 10
193.098731
 20
106.784706
 30
0.0
 40
2.0
100
AcDbArc
 50
180.0
 51
270.0
  0
LINE
  5
52A
100
AcDbEntity
  8
0
370
    -3
390
0
  6
Continuous
100
AcDbLine
 10
191.098731
 20
280.287231
 30
0.0
 11
191.098731
 21
106.784706
 31
0.0
  0
ARC
  5
52B
100
AcDbEntity
  8
0
370
    -3
390
0
  6
Continuous
100
AcDbCircle
 10
193.098731
 20
157.035969
 30
0.0
 40
2.0
100
AcDbArc
 50
180.0
 51
270.0
  0
LINE
  5
52C
100
AcDbEntity
  8
0
370
    -3
390
0
  6
Continuous
100
AcDbLine
 10
201.098731
 20
405.538494
 30
0.0
 11
193.098731
 21
405.538494
 31
0.0
  0
LINE
  5
52D
100
AcDbEntity
  8
0
370
    -3
390
0
  6
Continuous
100
AcDbLine
 10
201.098731
 20
455.789757
 30
0.0
 11
193.098731
 21
455.789757
 31
0.0
  0
ARC
  5
52E
100
AcDbEntity
  8
0
370
    -3
390
0
  6
Continuous
100
AcDbCircle
 10
193.098731
 20
453.789757
 30
0.0
 40
2.0
100
AcDbArc
 50
90.0
 51
180.0
  0
LINE
  5
52F
100
AcDbEntity
  8
0
370
    -3
390
0
  6
Continuous
100
AcDbLine
 10
191.098731
 20
280.287231
 30
0.0
 11
191.098731
 21
453.789757
 31
0.0
  0
ARC
  5
530
100
AcDbEntity
  8
0
370
    -3
390
0
  6
Continuous
100
AcDbCircle
 10
193.098731
 20
403.538494
 30
0.0
 40
2.0
100
AcDbArc
 50
90.0
 51
180.0
  0
LINE
  5
531
100
AcDbEntity
  8
0
370
    -3
390
0
  6
Continuous
100
AcDbLine
 10
206.255739
 20
200.138236
 30
0.0
 11
206.098731
 21
200.138236
 31
0.0
  0
LINE
  5
532
100
AcDbEntity
  8
0
370
    -3
390
0
  6
Continuous
100
AcDbLine
 10
206.255739
 20
360.436226
 30
0.0
 11
206.098731
 21
360.436226
 31
0.0
  0
LINE
  5
533
100
AcDbEntity
  8
0
370
    -3
390
0
  6
Continuous
100
AcDbLine
 10
209.098731
 20
280.287231
 30
0.0
 11
209.098731
 21
357.440338
 31
0.0
  0
LINE
  5
534
100
AcDbEntity
  8
0
370
    -3
390
0
  6
Continuous
100
AcDbLine
 10
180.098731
 20
55.287231
 30
0.0
 11
201.098731
 21
55.287231
 31
0.0
  0
LINE
  5
535
100
AcDbEntity
  8
0
370
    -3
390
0
  6
Continuous
100
AcDbLine
 10
177.098731
 20
58.287231
 30
0.0
 11
177.098731
 21
502.287231
 31
0.0
  0
ARC
  5
536
100
AcDbEntity
  8
0
370
    -3
390
0
  6
Continuous
100
AcDbCircle
 10
180.098731
 20
58.287231
 30
0.0
 40
3.0
100
AcDbArc
 50
180.0
 51
270.0
  0
LINE
  5
537
100
AcDbEntity
  8
0
370
    -3
390
0
  6
Continuous
100
AcDbLine
 10
201.098731
 20
280.287231
 30
0.0
 11
201.098731
 21
55.287231
 31
0.0
  0
LINE
  5
538
100
AcDbEntity
  8
0
370
    -3
390
0
  6
Continuous
100
AcDbLine
 10
206.098731
 20
280.287231
 30
0.0
 11
206.098731
 21
71.287231
 31
0.0
  0
LINE
  5
539
100
AcDbEntity
  8
0
370
    -3
390
0
  6
Continuous
100
AcDbLine
 10
209.098731
 20
280.287231
 30
0.0
 11
209.098731
 21
203.134125
 31
0.0
  0
LINE
  5
53A
100
AcDbEntity
  8
0
370
    -3
390
0
  6
Continuous
100
AcDbLine
 10
201.098731
 20
280.287231
 30
0.0
 11
201.098731
 21
505.287231
 31
0.0
  0
LINE
  5
53B
100
AcDbEntity
  8
0
370
    -3
390
0
  6
Continuous
100
AcDbLine
 10
206.098731
 20
280.287231
 30
0.0
 11
206.098731
 21
489.287231
 31
0.0
  0
LINE
  5
53C
100
AcDbEntity
  8
0
370
    -3
390
0
  6
Continuous
100
AcDbLine
 10
14.098731
 20
448.287231
 30
0.0
 11
167.447726
 21
453.642296
 31
0.0
  0
LINE
  5
53D
100
AcDbEntity
  8
0
370
    -3
390
0
  6
Continuous
100
AcDbLine
 10
205.098731
 20
490.287231
 30
0.0
 11
206.098731
 21
489.287231
 31
0.0
  0
LINE
  5
53E
100
AcDbEntity
  8
0
370
    -3
390
0
  6
Continuous
100
AcDbLine
 10
206.098731
 20
71.287231
 30
0.0
 11
205.098731
 21
70.287231
 31
0.0
  0
ARC
  5
53F
100
AcDbEntity
  8
0
370
    -3
390
0
  6
Continuous
100
AcDbCircle
 10
180.098731
 20
502.287231
 30
0.0
 40
3.0
100
AcDbArc
 50
90.0
 51
180.0
  0
LINE
  5
540
100
AcDbEntity
  8
0
370
    -3
390
0
  6
Continuous
100
AcDbLine
 10
205.098731
 20
70.287231
 30
0.0
 11
201.098731
 21
70.287231
 31
0.0
  0
ARC
  5
541
100
AcDbEntity
  8
0
370
    -3
390
0
  6
Continuous
100
AcDbCircle
 10
206.098731
 20
203.134125
 30
0.0
 40
3.0
100
AcDbArc
 50
273.0
 51
0.0
  0
LINE
  5
542
100
AcDbEntity
  8
0
370
    -3
390
0
  6
Continuous
100
AcDbLine
 10
211.098731
 20
227.787231
 30
0.0
 11
210.098731
 21
227.787231
 31
0.0
  0
LINE
  5
543
100
AcDbEntity
  8
0
370
    -3
390
0
  6
Continuous
100
AcDbLine
 10
211.098731
 20
332.787231
 30
0.0
 11
210.098731
 21
332.787231
 31
0.0
  0
ARC
  5
544
100
AcDbEntity
  8
0
370
    -3
390
0
  6
Continuous
100
AcDbCircle
 10
206.098731
 20
357.440338
 30
0.0
 40
3.0
100
AcDbArc
 50
0.0
 51
87.0
  0
ARC
  5
545
100
AcDbEntity
  8
0
370
    -3
390
0
  6
Continuous
100
AcDbCircle
 10
167.098731
 20
463.636204
 30
0.0
 40
10.0
100
AcDbArc
 50
272.0
 51
0.0
  0
LINE
  5
546
100
AcDbEntity
  8
0
370
    -3
390
0
  6
Continuous
100
AcDbLine
 10
201.098731
 20
505.287231
 30
0.0
 11
180.098731
 21
505.287231
 31
0.0
  0
LINE
  5
547
100
AcDbEntity
  8
0
370
    -3
390
0
  6
Continuous
100
AcDbLine
 10
205.098731
 20
490.287231
 30
0.0
 11
201.098731
 21
490.287231
 31
0.0
  0
LINE
  5
548
100
AcDbEntity
  8
0
370
    -3
390
0
  6
Continuous
100
AcDbLine
 10
14.098731
 20
112.287231
 30
0.0
 11
14.098731
 21
448.287231
 31
0.0
  0
ARC
  5
549
100
AcDbEntity
  8
0
370
    -3
390
0
  6
Continuous
100
AcDbCircle
 10
210.098731
 20
226.787231
 30
0.0
 40
1.0
100
AcDbArc
 50
90.0
 51
180.0
  0
ARC
  5
54A
100
AcDbEntity
  8
0
370
    -3
390
0
  6
Continuous
100
AcDbCircle
 10
210.098731
 20
333.787231
 30
0.0
 40
1.0
100
AcDbArc
 50
180.0
 51
270.0
  0
LINE
  5
54B
100
AcDbEntity
  8
0
370
    -3
390
0
  6
Continuous
100
AcDbLine
 10
211.098731
 20
227.787231
 30
0.0
 11
211.098731
 21
332.787231
 31
0.0
  0
LINE
  5
54C
100
AcDbEntity
  8
0
370
    -3
390
0
  6
Continuous
100
AcDbLine
 10
14.098731
 20
112.287231
 30
0.0
 11
167.447726
 21
106.932166
 31
0.0
  0
ARC
  5
54D
100
AcDbEntity
  8
0
370
    -3
390
0
  6
Continuous
100
AcDbCircle
 10
167.098731
 20
96.938258
 30
0.0
 40
10.0
100
AcDbArc
 50
0.0
 51
88.0
  0
ARC
  5
54E
100
AcDbEntity
  8
0
370
    -3
390
0
  6
Continuous
100
AcDbCircle
 10
125.608855
 20
259.787231
 30
0.0
 40
3.0
100
AcDbArc
 50
0.0
 51
90.0
  0
ARC
  5
54F
100
AcDbEntity
  8
0
370
    -3
390
0
  6
Continuous
100
AcDbCircle
 10
125.608855
 20
300.787231
 30
0.0
 40
3.0
100
AcDbArc
 50
270.0
 51
0.0
  0
LINE
  5
550
100
AcDbEntity
  8
0
370
    -3
390
0
  6
Continuous
100
AcDbLine
 10
172.001997
 20
179.289958
 30
0.0
 11
137.064746
 21
179.289958
 31
0.0
  0
LINE
  5
551
100
AcDbEntity
  8
0
370
    -3
390
0
  6
Continuous
100
AcDbLine
 10
131.869531
 20
177.387615
 30
0.0
 11
176.02359
 21
121.442599
 31
0.0
  0
LINE
  5
552
100
AcDbEntity
  8
0
370
    -3
390
0
  6
Continuous
100
AcDbLine
 10
172.098731
 20
284.787231
 30
0.0
 11
135.368125
 21
284.787231
 31
0.0
  0
LINE
  5
553
100
AcDbEntity
  8
0
370
    -3
390
0
  6
Continuous
100
AcDbLine
 10
172.098731
 20
275.787231
 30
0.0
 11
135.368125
 21
275.787231
 31
0.0
  0
ARC
  5
554
100
AcDbEntity
  8
0
370
    -3
390
0
  6
Continuous
100
AcDbCircle
 10
135.368125
 20
289.787231
 30
0.0
 40
5.0
100
AcDbArc
 50
180.0
 51
270.0
  0
ARC
  5
555
100
AcDbEntity
  8
0
370
    -3
390
0
  6
Continuous
100
AcDbCircle
 10
135.368125
 20
270.787231
 30
0.0
 40
5.0
100
AcDbArc
 50
90.0
 51
180.0
  0
ARC
  5
556
100
AcDbEntity
  8
0
370
    -3
390
0
  6
Continuous
100
AcDbCircle
 10
172.098731
 20
270.787231
 30
0.0
 40
5.0
100
AcDbArc
 50
0.0
 51
90.0
  0
ARC
  5
557
100
AcDbEntity
  8
0
370
    -3
390
0
  6
Continuous
100
AcDbCircle
 10
172.098731
 20
289.787231
 30
0.0
 40
5.0
100
AcDbArc
 50
270.0
 51
0.0
  0
ARC
  5
558
100
AcDbEntity
  8
0
370
    -3
390
0
  6
Continuous
100
AcDbCircle
 10
127.944672
 20
174.289958
 30
0.0
 40
5.0
100
AcDbArc
 50
38.281923
 51
90.0
  0
ARC
  5
559
100
AcDbEntity
  8
0
370
    -3
390
0
  6
Continuous
100
AcDbCircle
 10
172.098731
 20
118.344942
 30
0.0
 40
5.0
100
AcDbArc
 50
0.0
 51
38.281923
  0
ARC
  5
55A
100
AcDbEntity
  8
0
370
    -3
390
0
  6
Continuous
100
AcDbCircle
 10
172.098731
 20
108.217305
 30
0.0
 40
5.0
100
AcDbArc
 50
0.0
 51
38.281923
  0
LINE
  5
55B
100
AcDbEntity
  8
0
370
    -3
390
0
  6
Continuous
100
AcDbLine
 10
131.869531
 20
167.259978
 30
0.0
 11
176.02359
 21
111.314962
 31
0.0
  0
ARC
  5
55C
100
AcDbEntity
  8
0
370
    -3
390
0
  6
Continuous
100
AcDbCircle
 10
127.944672
 20
164.162321
 30
0.0
 40
5.0
100
AcDbArc
 50
38.281923
 51
90.0
  0
LINE
  5
55D
100
AcDbEntity
  8
0
370
    -3
390
0
  6
Continuous
100
AcDbLine
 10
172.001997
 20
381.284505
 30
0.0
 11
137.064746
 21
381.284505
 31
0.0
  0
ARC
  5
55E
100
AcDbEntity
  8
0
370
    -3
390
0
  6
Continuous
100
AcDbCircle
 10
172.098731
 20
452.357157
 30
0.0
 40
5.0
100
AcDbArc
 50
321.718077
 51
0.0
  0
LINE
  5
55F
100
AcDbEntity
  8
0
370
    -3
390
0
  6
Continuous
100
AcDbLine
 10
131.869531
 20
393.314484
 30
0.0
 11
176.02359
 21
449.2595
 31
0.0
  0
ARC
  5
560
100
AcDbEntity
  8
0
370
    -3
390
0
  6
Continuous
100
AcDbCircle
 10
127.944672
 20
396.412141
 30
0.0
 40
5.0
100
AcDbArc
 50
270.0
 51
321.718077
  0
ARC
  5
561
100
AcDbEntity
  8
0
370
    -3
390
0
  6
Continuous
100
AcDbCircle
 10
172.098731
 20
442.229521
 30
0.0
 40
5.0
100
AcDbArc
 50
321.718077
 51
0.0
  0
LINE
  5
562
100
AcDbEntity
  8
0
370
    -3
390
0
  6
Continuous
100
AcDbLine
 10
131.869531
 20
383.186848
 30
0.0
 11
176.02359
 21
439.131864
 31
0.0
  0
ARC
  5
563
100
AcDbEntity
  8
0
370
    -3
390
0
  6
Continuous
100
AcDbCircle
 10
127.944672
 20
386.284505
 30
0.0
 40
5.0
100
AcDbArc
 50
270.0
 51
321.718077
  0
CIRCLE
  5
564
100
AcDbEntity
  8
0
370
    -3
390
0
  6
Continuous
100
AcDbCircle
 10
39.098731
 20
280.287231
 30
0.0
 40
16.0
  0
LINE
  5
565
100
AcDbEntity
  8
0
370
    -3
390
0
  6
Continuous
100
AcDbLine
 10
306.098716
 20
280.287231
 30
0.0
 11
306.098716
 21
251.087231
 31
0.0
  0
ARC
  5
566
100
AcDbEntity
  8
0
370
    -3
390
0
  6
Continuous
100
AcDbCircle
 10
305.298716
 20
251.087231
 30
0.0
 40
0.8
100
AcDbArc
 50
270.0
 51
0.0
  0
LINE
  5
567
100
AcDbEntity
  8
0
370
    -3
390
0
  6
Continuous
100
AcDbLine
 10
215.298716
 20
248.787231
 30
0.0
 11
211.098716
 21
248.787231
 31
0.0
  0
LINE
  5
568
100
AcDbEntity
  8
0
370
    -3
390
0
  6
Continuous
100
AcDbLine
 10
305.298716
 20
250.287231
 30
0.0
 11
218.658523
 21
250.287231
 31
0.0
  0
LINE
  5
569
100
AcDbEntity
  8
0
370
    -3
390
0
  6
Continuous
100
AcDbLine
 10
216.098716
 20
280.287231
 30
0.0
 11
216.098716
 21
249.587231
 31
0.0
  0
LINE
  5
56A
100
AcDbEntity
  8
0
370
    -3
390
0
  6
Continuous
100
AcDbLine
 10
216.098716
 20
249.587231
 30
0.0
 11
215.298716
 21
248.787231
 31
0.0
  0
ARC
  5
56B
100
AcDbEntity
  8
0
370
    -3
390
0
  6
Continuous
100
AcDbCircle
 10
216.898716
 20
249.637231
 30
0.0
 40
0.8
100
AcDbArc
 50
90.0
 51
180.0
  0
LINE
  5
56C
100
AcDbEntity
  8
0
370
    -3
390
0
  6
Continuous
100
AcDbLine
 10
218.658523
 20
250.287231
 30
0.0
 11
218.098716
 21
250.437231
 31
0.0
  0
LINE
  5
56D
100
AcDbEntity
  8
0
370
    -3
390
0
  6
Continuous
100
AcDbLine
 10
218.098716
 20
250.437231
 30
0.0
 11
216.898716
 21
250.437231
 31
0.0
  0
LINE
  5
56E
100
AcDbEntity
  8
0
370
    -3
390
0
  6
Continuous
100
AcDbLine
 10
215.298716
 20
311.787231
 30
0.0
 11
211.098716
 21
311.787231
 31
0.0
  0
LINE
  5
56F
100
AcDbEntity
  8
0
370
    -3
390
0
  6
Continuous
100
AcDbLine
 10
216.098716
 20
280.287231
 30
0.0
 11
216.098716
 21
310.987231
 31
0.0
  0
LINE
  5
570
100
AcDbEntity
  8
0
370
    -3
390
0
  6
Continuous
100
AcDbLine
 10
216.098716
 20
310.987231
 30
0.0
 11
215.298716
 21
311.787231
 31
0.0
  0
ARC
  5
571
100
AcDbEntity
  8
0
370
    -3
390
0
  6
Continuous
100
AcDbCircle
 10
216.898716
 20
310.937231
 30
0.0
 40
0.8
100
AcDbArc
 50
180.0
 51
270.0
  0
LINE
  5
572
100
AcDbEntity
  8
0
370
    -3
390
0
  6
Continuous
100
AcDbLine
 10
218.658523
 20
310.287231
 30
0.0
 11
218.098716
 21
310.137231
 31
0.0
  0
LINE
  5
573
100
AcDbEntity
  8
0
370
    -3
390
0
  6
Continuous
100
AcDbLine
 10
218.098716
 20
310.137231
 30
0.0
 11
216.898716
 21
310.137231
 31
0.0
  0
LINE
  5
574
100
AcDbEntity
  8
0
370
    -3
390
0
  6
Continuous
100
AcDbLine
 10
306.098716
 20
280.287231
 30
0.0
 11
306.098716
 21
309.487231
 31
0.0
  0
LINE
  5
575
100
AcDbEntity
  8
0
370
    -3
390
0
  6
Continuous
100
AcDbLine
 10
305.298716
 20
310.287231
 30
0.0
 11
218.658523
 21
310.287231
 31
0.0
  0
ARC
  5
576
100
AcDbEntity
  8
0
370
    -3
390
0
  6
Continuous
100
AcDbCircle
 10
305.298716
 20
309.487231
 30
0.0
 40
0.8
100
AcDbArc
 50
0.0
 51
90.0
  0
LINE
  5
577
100
AcDbEntity
  8
0
370
    -3
390
0
  6
Continuous
100
AcDbLine
 10
234.098716
 20
250.287231
 30
0.0
 11
234.098716
 21
246.287231
 31
0.0
  0
LINE
  5
578
100
AcDbEntity
  8
0
370
    -3
390
0
  6
Continuous
100
AcDbLine
 10
306.098716
 20
246.287231
 30
0.0
 11
306.098716
 21
251.087231
 31
0.0
  0
LINE
  5
579
100
AcDbEntity
  8
0
370
    -3
390
0
  6
Continuous
100
AcDbLine
 10
306.098716
 20
246.287231
 30
0.0
 11
234.098716
 21
246.287231
 31
0.0
  0
LINE
  5
57A
100
AcDbEntity
  8
0
370
    -3
390
0
  6
Continuous
100
AcDbLine
 10
-9.958273
 20
380.913137
 30
0.0
 11
-23.901269
 21
380.182416
 31
0.0
  0
LINE
  5
57B
100
AcDbEntity
  8
0
370
    -3
390
0
  6
Continuous
100
AcDbLine
 10
-16.901269
 20
351.053838
 30
0.0
 11
-11.401234
 21
351.053838
 31
0.0
  0
LINE
  5
57C
100
AcDbEntity
  8
0
370
    -3
390
0
  6
Continuous
100
AcDbLine
 10
-15.827646
 20
361.483043
 30
0.0
 11
0.385118
 21
415.154116
 31
0.0
  0
ARC
  5
57D
100
AcDbEntity
  8
0
370
    -3
390
0
  6
Continuous
100
AcDbCircle
 10
-4.401269
 20
416.599971
 30
0.0
 40
5.0
100
AcDbArc
 50
343.191673
 51
0.0
  0
LINE
  5
57E
100
AcDbEntity
  8
0
370
    -3
390
0
  6
Continuous
100
AcDbLine
 10
-15.827646
 20
354.607984
 30
0.0
 11
0.385118
 21
408.279057
 31
0.0
  0
ARC
  5
57F
100
AcDbEntity
  8
0
370
    -3
390
0
  6
Continuous
100
AcDbCircle
 10
-4.401269
 20
409.724912
 30
0.0
 40
5.0
100
AcDbArc
 50
343.191673
 51
0.0
  0
LINE
  5
580
100
AcDbEntity
  8
0
370
    -3
390
0
  6
Continuous
100
AcDbLine
 10
0.598731
 20
280.287231
 30
0.0
 11
0.598731
 21
445.287231
 31
0.0
  0
INSERT
  5
58C
100
AcDbEntity
  8
0
390
0
100
AcDbBlockReference
  2
ZU_SYM__USR_MELCAD_MD_SYM_SYM_SYM7_00
 10
0.598731
 20
350.287231
 30
0.0
 41
-1.0
 50
180.0
  0
LINE
  5
58D
100
AcDbEntity
  8
0
370
    -3
390
0
  6
Continuous
100
AcDbLine
 10
-15.901268
 20
291.665649
 30
0.0
 11
-13.901269
 21
290.937712
 31
0.0
  0
LINE
  5
58E
100
AcDbEntity
  8
0
370
    -3
390
0
  6
Continuous
100
AcDbLine
 10
-13.901269
 20
298.487231
 30
0.0
 11
-15.901269
 21
298.487231
 31
0.0
  0
LINE
  5
58F
100
AcDbEntity
  8
0
370
    -3
390
0
  6
Continuous
100
AcDbLine
 10
-15.901268
 20
290.614409
 30
0.0
 11
-13.901268
 21
289.88647
 31
0.0
  0
LINE
  5
590
100
AcDbEntity
  8
0
370
    -3
390
0
  6
Continuous
100
AcDbLine
 10
-13.901269
 20
283.087232
 30
0.0
 11
-15.901269
 21
283.087232
 31
0.0
  0
LINE
  5
591
100
AcDbEntity
  8
0
370
    -3
390
0
  6
Continuous
100
AcDbLine
 10
-15.901269
 20
298.487231
 30
0.0
 11
-15.901269
 21
283.087232
 31
0.0
  0
LINE
  5
592
100
AcDbEntity
  8
0
370
    -3
390
0
  6
Continuous
100
AcDbLine
 10
-13.901269
 20
300.787231
 30
0.0
 11
-9.401269
 21
300.787231
 31
0.0
  0
LINE
  5
593
100
AcDbEntity
  8
0
370
    -3
390
0
  6
Continuous
100
AcDbLine
 10
-9.401269
 20
280.287231
 30
0.0
 11
-9.401269
 21
300.787231
 31
0.0
  0
LINE
  5
594
100
AcDbEntity
  8
0
370
    -3
390
0
  6
Continuous
100
AcDbLine
 10
-13.901269
 20
280.287231
 30
0.0
 11
-13.901269
 21
300.787231
 31
0.0
  0
ARC
  5
595
100
AcDbEntity
  8
0
370
    -3
390
0
  6
Continuous
100
AcDbCircle
 10
-2.401269
 20
303.787231
 30
0.0
 40
3.0
100
AcDbArc
 50
270.0
 51
0.0
  0
LINE
  5
596
100
AcDbEntity
  8
0
370
    -3
390
0
  6
Continuous
100
AcDbLine
 10
-6.401269
 20
300.787231
 30
0.0
 11
-2.401269
 21
300.787231
 31
0.0
  0
ARC
  5
597
100
AcDbEntity
  8
0
370
    -3
390
0
  6
Continuous
100
AcDbCircle
 10
-6.401269
 20
297.787231
 30
0.0
 40
3.0
100
AcDbArc
 50
90.0
 51
180.0
  0
LINE
  5
598
100
AcDbEntity
  8
0
370
    -3
390
0
  6
Continuous
100
AcDbLine
 10
-4.401269
 20
424.287231
 30
0.0
 11
-10.701245
 21
424.287231
 31
0.0
  0
LINE
  5
599
100
AcDbEntity
  8
0
370
    -3
390
0
  6
Continuous
100
AcDbLine
 10
-4.401269
 20
442.287231
 30
0.0
 11
-10.70123
 21
442.287231
 31
0.0
  0
LINE
  5
59A
100
AcDbEntity
  8
0
370
    -3
390
0
  6
Continuous
100
AcDbLine
 10
-10.701245
 20
424.287231
 30
0.0
 11
-10.701245
 21
442.287231
 31
0.0
  0
LINE
  5
59B
100
AcDbEntity
  8
0
370
    -3
390
0
  6
Continuous
100
AcDbLine
 10
-10.701231
 20
442.287234
 30
0.0
 11
-11.401228
 21
441.07497
 31
0.0
  0
LINE
  5
59C
100
AcDbEntity
  8
0
370
    -3
390
0
  6
Continuous
100
AcDbLine
 10
-10.70125
 20
424.287231
 30
0.0
 11
-11.401247
 21
425.49989
 31
0.0
  0
LINE
  5
59D
100
AcDbEntity
  8
0
370
    -3
390
0
  6
Continuous
100
AcDbLine
 10
-11.401227
 20
441.074967
 30
0.0
 11
-11.401242
 21
425.499892
 31
0.0
  0
ARC
  5
59E
100
AcDbEntity
  8
0
370
    -3
390
0
  6
Continuous
100
AcDbCircle
 10
-2.401269
 20
417.371152
 30
0.0
 40
3.0
100
AcDbArc
 50
0.0
 51
80.405932
  0
ARC
  5
59F
100
AcDbEntity
  8
0
370
    -3
390
0
  6
Continuous
100
AcDbCircle
 10
-1.401269
 20
423.287231
 30
0.0
 40
3.0
100
AcDbArc
 50
180.0
 51
260.405932
  0
LINE
  5
5A0
100
AcDbEntity
  8
0
370
    -3
390
0
  6
Continuous
100
AcDbLine
 10
-4.401269
 20
423.287231
 30
0.0
 11
-4.401269
 21
445.287231
 31
0.0
  0
ARC
  5
5A1
100
AcDbEntity
  8
0
370
    -3
390
0
  6
Continuous
100
AcDbCircle
 10
-1.401269
 20
445.287231
 30
0.0
 40
3.0
100
AcDbArc
 50
90.0
 51
180.0
  0
LINE
  5
5A2
100
AcDbEntity
  8
0
370
    -3
390
0
  6
Continuous
100
AcDbLine
 10
-1.401269
 20
448.287231
 30
0.0
 11
14.098731
 21
448.287231
 31
0.0
  0
LINE
  5
5A3
100
AcDbEntity
  8
0
370
    -3
390
0
  6
Continuous
100
AcDbLine
 10
13.598731
 20
280.287231
 30
0.0
 11
13.598731
 21
448.287231
 31
0.0
  0
ARC
  5
5A4
100
AcDbEntity
  8
0
370
    -3
390
0
  6
Continuous
100
AcDbCircle
 10
3.598731
 20
445.287231
 30
0.0
 40
3.0
100
AcDbArc
 50
90.0
 51
180.0
  0
LINE
  5
5A5
100
AcDbEntity
  8
0
370
    -3
390
0
  6
Continuous
100
AcDbLine
 10
-16.901269
 20
209.520624
 30
0.0
 11
-11.401373
 21
209.520624
 31
0.0
  0
LINE
  5
5A6
100
AcDbEntity
  8
0
370
    -3
390
0
  6
Continuous
100
AcDbLine
 10
-15.827646
 20
199.09142
 30
0.0
 11
0.385118
 21
145.420346
 31
0.0
  0
ARC
  5
5A7
100
AcDbEntity
  8
0
370
    -3
390
0
  6
Continuous
100
AcDbCircle
 10
-4.401269
 20
143.974492
 30
0.0
 40
5.0
100
AcDbArc
 50
0.0
 51
16.808327
  0
LINE
  5
5A8
100
AcDbEntity
  8
0
370
    -3
390
0
  6
Continuous
100
AcDbLine
 10
-15.827646
 20
205.966479
 30
0.0
 11
0.385118
 21
152.295405
 31
0.0
  0
ARC
  5
5A9
100
AcDbEntity
  8
0
370
    -3
390
0
  6
Continuous
100
AcDbCircle
 10
-4.401269
 20
150.849551
 30
0.0
 40
5.0
100
AcDbArc
 50
0.0
 51
16.808327
  0
LINE
  5
5AA
100
AcDbEntity
  8
0
370
    -3
390
0
  6
Continuous
100
AcDbLine
 10
0.598731
 20
280.287231
 30
0.0
 11
0.598731
 21
115.287231
 31
0.0
  0
INSERT
  5
5B6
100
AcDbEntity
  8
0
390
0
100
AcDbBlockReference
  2
ZU_SYM__USR_MELCAD_MD_SYM_SYM_SYM7_0000600
 10
0.598731
 20
210.287231
 30
0.0
  0
LINE
  5
5B7
100
AcDbEntity
  8
0
370
    -3
390
0
  6
Continuous
100
AcDbLine
 10
-15.901268
 20
268.908813
 30
0.0
 11
-13.901269
 21
269.636751
 31
0.0
  0
LINE
  5
5B8
100
AcDbEntity
  8
0
370
    -3
390
0
  6
Continuous
100
AcDbLine
 10
-13.901269
 20
262.087232
 30
0.0
 11
-15.901269
 21
262.087232
 31
0.0
  0
LINE
  5
5B9
100
AcDbEntity
  8
0
370
    -3
390
0
  6
Continuous
100
AcDbLine
 10
-15.901268
 20
269.960054
 30
0.0
 11
-13.901268
 21
270.687992
 31
0.0
  0
LINE
  5
5BA
100
AcDbEntity
  8
0
370
    -3
390
0
  6
Continuous
100
AcDbLine
 10
-13.901269
 20
277.487231
 30
0.0
 11
-15.901269
 21
277.487231
 31
0.0
  0
LINE
  5
5BB
100
AcDbEntity
  8
0
370
    -3
390
0
  6
Continuous
100
AcDbLine
 10
-15.901269
 20
262.087232
 30
0.0
 11
-15.901269
 21
277.487231
 31
0.0
  0
LINE
  5
5BC
100
AcDbEntity
  8
0
370
    -3
390
0
  6
Continuous
100
AcDbLine
 10
-13.901269
 20
259.787231
 30
0.0
 11
-9.401269
 21
259.787231
 31
0.0
  0
LINE
  5
5BD
100
AcDbEntity
  8
0
370
    -3
390
0
  6
Continuous
100
AcDbLine
 10
-9.401269
 20
280.287231
 30
0.0
 11
-9.401269
 21
259.787231
 31
0.0
  0
LINE
  5
5BE
100
AcDbEntity
  8
0
370
    -3
390
0
  6
Continuous
100
AcDbLine
 10
-13.901269
 20
280.287231
 30
0.0
 11
-13.901269
 21
259.787231
 31
0.0
  0
ARC
  5
5BF
100
AcDbEntity
  8
0
370
    -3
390
0
  6
Continuous
100
AcDbCircle
 10
-2.401269
 20
256.787231
 30
0.0
 40
3.0
100
AcDbArc
 50
0.0
 51
90.0
  0
LINE
  5
5C0
100
AcDbEntity
  8
0
370
    -3
390
0
  6
Continuous
100
AcDbLine
 10
-6.401269
 20
259.787231
 30
0.0
 11
-2.401269
 21
259.787231
 31
0.0
  0
ARC
  5
5C1
100
AcDbEntity
  8
0
370
    -3
390
0
  6
Continuous
100
AcDbCircle
 10
-6.401269
 20
262.787231
 30
0.0
 40
3.0
100
AcDbArc
 50
180.0
 51
270.0
  0
LINE
  5
5C2
100
AcDbEntity
  8
0
370
    -3
390
0
  6
Continuous
100
AcDbLine
 10
-4.401269
 20
136.287231
 30
0.0
 11
-10.701245
 21
136.287231
 31
0.0
  0
LINE
  5
5C3
100
AcDbEntity
  8
0
370
    -3
390
0
  6
Continuous
100
AcDbLine
 10
-4.401269
 20
118.287231
 30
0.0
 11
-10.70123
 21
118.287231
 31
0.0
  0
LINE
  5
5C4
100
AcDbEntity
  8
0
370
    -3
390
0
  6
Continuous
100
AcDbLine
 10
-10.701245
 20
136.287231
 30
0.0
 11
-10.701245
 21
118.287231
 31
0.0
  0
LINE
  5
5C5
100
AcDbEntity
  8
0
370
    -3
390
0
  6
Continuous
100
AcDbLine
 10
-10.701231
 20
118.287228
 30
0.0
 11
-11.401228
 21
119.499492
 31
0.0
  0
LINE
  5
5C6
100
AcDbEntity
  8
0
370
    -3
390
0
  6
Continuous
100
AcDbLine
 10
-10.70125
 20
136.287232
 30
0.0
 11
-11.401247
 21
135.074572
 31
0.0
  0
LINE
  5
5C7
100
AcDbEntity
  8
0
370
    -3
390
0
  6
Continuous
100
AcDbLine
 10
-11.401227
 20
119.499496
 30
0.0
 11
-11.401242
 21
135.074571
 31
0.0
  0
ARC
  5
5C8
100
AcDbEntity
  8
0
370
    -3
390
0
  6
Continuous
100
AcDbCircle
 10
-2.401269
 20
143.203311
 30
0.0
 40
3.0
100
AcDbArc
 50
279.594068
 51
0.0
  0
ARC
  5
5C9
100
AcDbEntity
  8
0
370
    -3
390
0
  6
Continuous
100
AcDbCircle
 10
-1.401269
 20
137.287231
 30
0.0
 40
3.0
100
AcDbArc
 50
99.594068
 51
180.0
  0
LINE
  5
5CA
100
AcDbEntity
  8
0
370
    -3
390
0
  6
Continuous
100
AcDbLine
 10
-4.401269
 20
137.287231
 30
0.0
 11
-4.401269
 21
115.287231
 31
0.0
  0
ARC
  5
5CB
100
AcDbEntity
  8
0
370
    -3
390
0
  6
Continuous
100
AcDbCircle
 10
-1.401269
 20
115.287231
 30
0.0
 40
3.0
100
AcDbArc
 50
180.0
 51
270.0
  0
LINE
  5
5CC
100
AcDbEntity
  8
0
370
    -3
390
0
  6
Continuous
100
AcDbLine
 10
-1.401269
 20
112.287231
 30
0.0
 11
14.098731
 21
112.287231
 31
0.0
  0
LINE
  5
5CD
100
AcDbEntity
  8
0
370
    -3
390
0
  6
Continuous
100
AcDbLine
 10
13.598731
 20
280.287231
 30
0.0
 11
13.598731
 21
112.287231
 31
0.0
  0
ARC
  5
5CE
100
AcDbEntity
  8
0
370
    -3
390
0
  6
Continuous
100
AcDbCircle
 10
3.598731
 20
115.287231
 30
0.0
 40
3.0
100
AcDbArc
 50
180.0
 51
270.0
  0
INSERT
  5
5DD
100
AcDbEntity
  8
0
390
0
100
AcDbBlockReference
  2
ZU_SYM__USR_MELCAD_MD_SYM_SYM_SYM5_00
 10
-640.908848
 20
-100.712769
 30
0.0
 41
-1.0
  0
INSERT
  5
5EA
100
AcDbEntity
  8
0
390
0
100
AcDbBlockReference
  2
ZU_SYM__USR_MELCAD_MD_SYM_SYM_SYM6_00
 10
-700.408848
 20
-108.712769
 30
0.0
 41
-1.0
  0
INSERT
  5
5F7
100
AcDbEntity
  8
0
390
0
100
AcDbBlockReference
  2
ZU_SYM__USR_MELCAD_MD_SYM_SYM_SYM6_0000700
 10
-783.408848
 20
-248.712769
 30
0.0
 41
-1.0
  0
INSERT
  5
604
100
AcDbEntity
  8
0
390
0
100
AcDbBlockReference
  2
ZU_SYM__USR_MELCAD_MD_SYM_SYM_SYM6_0000800
 10
-784.408848
 20
-388.712769
 30
0.0
 41
-1.0
  0
INSERT
  5
611
100
AcDbEntity
  8
0
390
0
100
AcDbBlockReference
  2
ZU_SYM__USR_MELCAD_MD_SYM_SYM_SYM6_0000900
 10
-705.408848
 20
-432.712769
 30
0.0
 41
-1.0
  0
INSERT
  5
61E
100
AcDbEntity
  8
0
390
0
100
AcDbBlockReference
  2
ZU_SYM__USR_MELCAD_MD_SYM_SYM_SYM6_0001000
 10
-555.408848
 20
-432.712769
 30
0.0
  0
INSERT
  5
62B
100
AcDbEntity
  8
0
390
0
100
AcDbBlockReference
  2
ZU_SYM__USR_MELCAD_MD_SYM_SYM_SYM6_0001100
 10
-476.408848
 20
-388.712769
 30
0.0
  0
INSERT
  5
638
100
AcDbEntity
  8
0
390
0
100
AcDbBlockReference
  2
ZU_SYM__USR_MELCAD_MD_SYM_SYM_SYM6_0001200
 10
-477.408848
 20
-248.712769
 30
0.0
  0
INSERT
  5
645
100
AcDbEntity
  8
0
390
0
100
AcDbBlockReference
  2
ZU_SYM__USR_MELCAD_MD_SYM_SYM_SYM6_0001300
 10
-560.408848
 20
-108.712769
 30
0.0
  0
INSERT
  5
654
100
AcDbEntity
  8
0
390
0
100
AcDbBlockReference
  2
ZU_SYM__USR_MELCAD_MD_SYM_SYM_SYM5_0001400
 10
-619.908848
 20
-100.712769
 30
0.0
  0
LINE
  5
655
100
AcDbEntity
  8
0
370
    -3
390
0
  6
CENTER
100
AcDbLine
 10
-659.670113
 20
-217.712769
 30
0.0
 11
-600.674508
 21
-217.712769
 31
0.0
  0
LINE
  5
656
100
AcDbEntity
  8
0
370
    -3
390
0
  6
CENTER
100
AcDbLine
 10
-630.408848
 20
17.171022
 30
0.0
 11
-630.408848
 21
-449.3269
 31
0.0
  0
ARC
  5
657
100
AcDbEntity
  8
0
370
    -3
390
0
  6
Continuous
100
AcDbCircle
 10
-718.568626
 20
-342.69824
 30
0.0
 40
5.0
100
AcDbArc
 50
1.201123
 51
34.370004
  0
ARC
  5
658
100
AcDbEntity
  8
0
370
    -3
390
0
  6
Continuous
100
AcDbCircle
 10
-566.157067
 20
-330.724753
 30
0.0
 40
53.0
100
AcDbArc
 50
235.67812
 51
306.375549
  0
ARC
  5
659
100
AcDbEntity
  8
0
370
    -3
390
0
  6
Continuous
100
AcDbCircle
 10
-527.408848
 20
-287.567187
 30
0.0
 40
5.0
100
AcDbArc
 50
180.0
 51
228.081508
  0
ARC
  5
65A
100
AcDbEntity
  8
0
370
    -3
390
0
  6
Continuous
100
AcDbCircle
 10
-598.859872
 20
-378.62597
 30
0.0
 40
5.0
100
AcDbArc
 50
55.67812
 51
99.172055
  0
ARC
  5
65B
100
AcDbEntity
  8
0
370
    -3
390
0
  6
Continuous
100
AcDbCircle
 10
-566.157067
 20
-330.724753
 30
0.0
 40
53.0
100
AcDbArc
 50
306.375549
 51
48.081508
  0
ARC
  5
65C
100
AcDbEntity
  8
0
370
    -3
390
0
  6
Continuous
100
AcDbCircle
 10
-641.637724
 20
-381.923595
 30
0.0
 40
5.0
100
AcDbArc
 50
62.531037
 51
124.766833
  0
ARC
  5
65D
100
AcDbEntity
  8
0
370
    -3
390
0
  6
Continuous
100
AcDbCircle
 10
-669.579393
 20
-341.671102
 30
0.0
 40
44.0
100
AcDbArc
 50
181.201123
 51
304.766833
  0
ARC
  5
65E
100
AcDbEntity
  8
0
370
    -3
390
0
  6
Continuous
100
AcDbCircle
 10
-527.408848
 20
-287.212769
 30
0.0
 40
5.0
100
AcDbArc
 50
168.463041
 51
180.0
  0
ARC
  5
65F
100
AcDbEntity
  8
0
370
    -3
390
0
  6
Continuous
100
AcDbCircle
 10
-733.408848
 20
-268.212769
 30
0.0
 40
5.0
100
AcDbArc
 50
270.0
 51
0.0
  0
ARC
  5
660
100
AcDbEntity
  8
0
370
    -3
390
0
  6
Continuous
100
AcDbCircle
 10
-733.408848
 20
-287.212769
 30
0.0
 40
5.0
100
AcDbArc
 50
0.0
 51
90.0
  0
ARC
  5
661
100
AcDbEntity
  8
0
370
    -3
390
0
  6
Continuous
100
AcDbCircle
 10
-788.408848
 20
-268.212769
 30
0.0
 40
5.0
100
AcDbArc
 50
180.0
 51
270.0
  0
ARC
  5
662
100
AcDbEntity
  8
0
370
    -3
390
0
  6
Continuous
100
AcDbCircle
 10
-788.408848
 20
-287.212769
 30
0.0
 40
5.0
100
AcDbArc
 50
90.0
 51
180.0
  0
ARC
  5
663
100
AcDbEntity
  8
0
370
    -3
390
0
  6
Continuous
100
AcDbCircle
 10
-639.908848
 20
-434.712769
 30
0.0
 40
5.0
100
AcDbArc
 50
270.0
 51
0.0
  0
ARC
  5
664
100
AcDbEntity
  8
0
370
    -3
390
0
  6
Continuous
100
AcDbCircle
 10
-620.908848
 20
-434.712769
 30
0.0
 40
5.0
100
AcDbArc
 50
180.0
 51
270.0
  0
ARC
  5
665
100
AcDbEntity
  8
0
370
    -3
390
0
  6
Continuous
100
AcDbCircle
 10
-472.408848
 20
-268.212769
 30
0.0
 40
5.0
100
AcDbArc
 50
270.0
 51
0.0
  0
ARC
  5
666
100
AcDbEntity
  8
0
370
    -3
390
0
  6
Continuous
100
AcDbCircle
 10
-472.408848
 20
-287.212769
 30
0.0
 40
5.0
100
AcDbArc
 50
0.0
 51
90.0
  0
ARC
  5
667
100
AcDbEntity
  8
0
370
    -3
390
0
  6
Continuous
100
AcDbCircle
 10
-639.908848
 20
-117.712769
 30
0.0
 40
5.0
100
AcDbArc
 50
0.0
 51
90.0
  0
ARC
  5
668
100
AcDbEntity
  8
0
370
    -3
390
0
  6
Continuous
100
AcDbCircle
 10
-620.908848
 20
-117.712769
 30
0.0
 40
5.0
100
AcDbArc
 50
90.0
 51
180.0
  0
ARC
  5
669
100
AcDbEntity
  8
0
370
    -3
390
0
  6
Continuous
100
AcDbCircle
 10
-602.408848
 20
-228.565733
 30
0.0
 40
140.0
100
AcDbArc
 50
0.0
 51
86.510274
  0
ARC
  5
66A
100
AcDbEntity
  8
0
370
    -3
390
0
  6
Continuous
100
AcDbCircle
 10
-630.408848
 20
-687.712769
 30
0.0
 40
600.0
100
AcDbArc
 50
86.510274
 51
88.042013
  0
ARC
  5
66B
100
AcDbEntity
  8
0
370
    -3
390
0
  6
Continuous
100
AcDbCircle
 10
-658.408848
 20
-228.565733
 30
0.0
 40
140.0
100
AcDbArc
 50
93.489726
 51
180.0
  0
ARC
  5
66C
100
AcDbEntity
  8
0
370
    -3
390
0
  6
Continuous
100
AcDbCircle
 10
-476.408848
 20
-388.712769
 30
0.0
 40
14.0
100
AcDbArc
 50
270.0
 51
0.0
  0
ARC
  5
66D
100
AcDbEntity
  8
0
370
    -3
390
0
  6
Continuous
100
AcDbCircle
 10
-487.60127
 20
-414.712769
 30
0.0
 40
12.0
100
AcDbArc
 50
90.0
 51
133.085886
  0
ARC
  5
66E
100
AcDbEntity
  8
0
370
    -3
390
0
  6
Continuous
100
AcDbCircle
 10
-566.157067
 20
-330.724753
 30
0.0
 40
103.0
100
AcDbArc
 50
288.08165
 51
313.085886
  0
ARC
  5
66F
100
AcDbEntity
  8
0
370
    -3
390
0
  6
Continuous
100
AcDbCircle
 10
-530.464288
 20
-440.045499
 30
0.0
 40
12.0
100
AcDbArc
 50
108.08165
 51
163.618714
  0
ARC
  5
670
100
AcDbEntity
  8
0
370
    -3
390
0
  6
Continuous
100
AcDbCircle
 10
-555.408848
 20
-432.712769
 30
0.0
 40
14.0
100
AcDbArc
 50
301.002719
 51
343.618714
  0
ARC
  5
671
100
AcDbEntity
  8
0
370
    -3
390
0
  6
Continuous
100
AcDbCircle
 10
-705.408848
 20
-432.712769
 30
0.0
 40
14.0
100
AcDbArc
 50
196.381286
 51
238.997281
  0
ARC
  5
672
100
AcDbEntity
  8
0
370
    -3
390
0
  6
Continuous
100
AcDbCircle
 10
-730.353407
 20
-440.045499
 30
0.0
 40
12.0
100
AcDbArc
 50
16.381286
 51
71.91835
  0
ARC
  5
673
100
AcDbEntity
  8
0
370
    -3
390
0
  6
Continuous
100
AcDbCircle
 10
-694.660628
 20
-330.724753
 30
0.0
 40
103.0
100
AcDbArc
 50
226.914114
 51
251.91835
  0
ARC
  5
674
100
AcDbEntity
  8
0
370
    -3
390
0
  6
Continuous
100
AcDbCircle
 10
-773.216425
 20
-414.712769
 30
0.0
 40
12.0
100
AcDbArc
 50
46.914114
 51
90.0
  0
ARC
  5
675
100
AcDbEntity
  8
0
370
    -3
390
0
  6
Continuous
100
AcDbCircle
 10
-784.408848
 20
-388.712769
 30
0.0
 40
14.0
100
AcDbArc
 50
180.0
 51
270.0
  0
ARC
  5
676
100
AcDbEntity
  8
0
370
    -3
390
0
  6
Continuous
100
AcDbCircle
 10
-471.641744
 20
-187.712769
 30
0.0
 40
3.0
100
AcDbArc
 50
270.0
 51
17.349332
  0
ARC
  5
677
100
AcDbEntity
  8
0
370
    -3
390
0
  6
Continuous
100
AcDbCircle
 10
-477.408848
 20
-203.712769
 30
0.0
 40
13.0
100
AcDbArc
 50
90.0
 51
270.0
  0
ARC
  5
678
100
AcDbEntity
  8
0
370
    -3
390
0
  6
Continuous
100
AcDbCircle
 10
-465.695187
 20
-219.712769
 30
0.0
 40
3.0
100
AcDbArc
 50
3.705045
 51
90.0
  0
ARC
  5
679
100
AcDbEntity
  8
0
370
    -3
390
0
  6
Continuous
100
AcDbCircle
 10
-789.175951
 20
-187.712769
 30
0.0
 40
3.0
100
AcDbArc
 50
162.650668
 51
270.0
  0
ARC
  5
67A
100
AcDbEntity
  8
0
370
    -3
390
0
  6
Continuous
100
AcDbCircle
 10
-783.408848
 20
-203.712769
 30
0.0
 40
13.0
100
AcDbArc
 50
270.0
 51
90.0
  0
ARC
  5
67B
100
AcDbEntity
  8
0
370
    -3
390
0
  6
Continuous
100
AcDbCircle
 10
-795.122508
 20
-219.712769
 30
0.0
 40
3.0
100
AcDbArc
 50
90.0
 51
176.294955
  0
ARC
  5
67C
100
AcDbEntity
  8
0
370
    -3
390
0
  6
Continuous
100
AcDbCircle
 10
-647.908848
 20
-109.712769
 30
0.0
 40
3.0
100
AcDbArc
 50
180.0
 51
270.0
  0
ARC
  5
67D
100
AcDbEntity
  8
0
370
    -3
390
0
  6
Continuous
100
AcDbCircle
 10
-612.908848
 20
-109.712769
 30
0.0
 40
3.0
100
AcDbArc
 50
270.0
 51
0.0
  0
ARC
  5
67E
100
AcDbEntity
  8
0
370
    -3
390
0
  6
Continuous
100
AcDbCircle
 10
-506.709874
 20
-140.578766
 30
0.0
 40
5.0
100
AcDbArc
 50
315.0
 51
42.595864
  0
ARC
  5
67F
100
AcDbEntity
  8
0
370
    -3
390
0
  6
Continuous
100
AcDbCircle
 10
-494.834815
 20
-155.573765
 30
0.0
 40
5.0
100
AcDbArc
 50
34.157982
 51
135.0
  0
ARC
  5
680
100
AcDbEntity
  8
0
370
    -3
390
0
  6
Continuous
100
AcDbCircle
 10
-546.40971
 20
-207.14866
 30
0.0
 40
5.0
100
AcDbArc
 50
135.0
 51
219.06237
  0
ARC
  5
681
100
AcDbEntity
  8
0
370
    -3
390
0
  6
Continuous
100
AcDbCircle
 10
-559.957212
 20
-193.826104
 30
0.0
 40
5.0
100
AcDbArc
 50
252.889251
 51
315.0
  0
ARC
  5
682
100
AcDbEntity
  8
0
370
    -3
390
0
  6
Continuous
100
AcDbCircle
 10
-754.107821
 20
-140.578766
 30
0.0
 40
5.0
100
AcDbArc
 50
137.404136
 51
225.0
  0
ARC
  5
683
100
AcDbEntity
  8
0
370
    -3
390
0
  6
Continuous
100
AcDbCircle
 10
-765.98288
 20
-155.573765
 30
0.0
 40
5.0
100
AcDbArc
 50
45.0
 51
145.842018
  0
ARC
  5
684
100
AcDbEntity
  8
0
370
    -3
390
0
  6
Continuous
100
AcDbCircle
 10
-714.407986
 20
-207.14866
 30
0.0
 40
5.0
100
AcDbArc
 50
320.93763
 51
45.0
  0
ARC
  5
685
100
AcDbEntity
  8
0
370
    -3
390
0
  6
Continuous
100
AcDbCircle
 10
-700.860483
 20
-193.826104
 30
0.0
 40
5.0
100
AcDbArc
 50
225.0
 51
287.110749
  0
ARC
  5
686
100
AcDbEntity
  8
0
370
    -3
390
0
  6
Continuous
100
AcDbCircle
 10
-639.908848
 20
-382.550166
 30
0.0
 40
5.0
100
AcDbArc
 50
0.0
 51
77.626375
  0
ARC
  5
687
100
AcDbEntity
  8
0
370
    -3
390
0
  6
Continuous
100
AcDbCircle
 10
-620.908848
 20
-382.550166
 30
0.0
 40
5.0
100
AcDbArc
 50
102.373625
 51
180.0
  0
ARC
  5
688
100
AcDbEntity
  8
0
370
    -3
390
0
  6
Continuous
100
AcDbCircle
 10
-539.381972
 20
-382.174673
 30
0.0
 40
5.0
100
AcDbArc
 50
45.0
 51
117.492957
  0
ARC
  5
689
100
AcDbEntity
  8
0
370
    -3
390
0
  6
Continuous
100
AcDbCircle
 10
-524.061948
 20
-370.62464
 30
0.0
 40
5.0
100
AcDbArc
 50
136.5336
 51
225.0
  0
ARC
  5
68A
100
AcDbEntity
  8
0
370
    -3
390
0
  6
Continuous
100
AcDbCircle
 10
-709.435865
 20
-370.174815
 30
0.0
 40
5.0
100
AcDbArc
 50
35.570794
 51
135.0
  0
ARC
  5
68B
100
AcDbEntity
  8
0
370
    -3
390
0
  6
Continuous
100
AcDbCircle
 10
-717.591563
 20
-351.460456
 30
0.0
 40
5.0
100
AcDbArc
 50
315.0
 51
11.524254
  0
CIRCLE
  5
68C
100
AcDbEntity
  8
0
370
    -3
390
0
  6
Continuous
100
AcDbCircle
 10
-540.408848
 20
-137.712769
 30
0.0
 40
17.5
  0
CIRCLE
  5
68D
100
AcDbEntity
  8
0
370
    -3
390
0
  6
Continuous
100
AcDbCircle
 10
-540.408848
 20
-137.712769
 30
0.0
 40
9.35
  0
CIRCLE
  5
68E
100
AcDbEntity
  8
0
370
    -3
390
0
  6
Continuous
100
AcDbCircle
 10
-540.408848
 20
-137.712769
 30
0.0
 40
10.5
  0
ARC
  5
68F
100
AcDbEntity
  8
0
370
    -3
390
0
  6
Continuous
100
AcDbCircle
 10
-746.916468
 20
-407.655418
 30
0.0
 40
5.0
100
AcDbArc
 50
135.0
 51
235.813343
  0
ARC
  5
690
100
AcDbEntity
  8
0
370
    -3
390
0
  6
Continuous
100
AcDbCircle
 10
-761.948523
 20
-395.817415
 30
0.0
 40
5.0
100
AcDbArc
 50
239.191027
 51
315.0
  0
ARC
  5
691
100
AcDbEntity
  8
0
370
    -3
390
0
  6
Continuous
100
AcDbCircle
 10
-513.901227
 20
-407.655418
 30
0.0
 40
5.0
100
AcDbArc
 50
304.186657
 51
45.0
  0
ARC
  5
692
100
AcDbEntity
  8
0
370
    -3
390
0
  6
Continuous
100
AcDbCircle
 10
-498.869172
 20
-395.817415
 30
0.0
 40
5.0
100
AcDbArc
 50
225.0
 51
300.808973
  0
LINE
  5
693
100
AcDbEntity
  8
0
370
    -3
390
0
  6
Continuous
100
AcDbLine
 10
-733.408848
 20
-273.212769
 30
0.0
 11
-788.408848
 21
-273.212769
 31
0.0
  0
LINE
  5
694
100
AcDbEntity
  8
0
370
    -3
390
0
  6
Continuous
100
AcDbLine
 10
-733.408848
 20
-282.212769
 30
0.0
 11
-788.408848
 21
-282.212769
 31
0.0
  0
LINE
  5
695
100
AcDbEntity
  8
0
370
    -3
390
0
  6
Continuous
100
AcDbLine
 10
-634.908848
 20
-382.550166
 30
0.0
 11
-634.908848
 21
-434.712769
 31
0.0
  0
LINE
  5
696
100
AcDbEntity
  8
0
370
    -3
390
0
  6
Continuous
100
AcDbLine
 10
-625.908848
 20
-382.550166
 30
0.0
 11
-625.908848
 21
-434.712769
 31
0.0
  0
LINE
  5
697
100
AcDbEntity
  8
0
370
    -3
390
0
  6
Continuous
100
AcDbLine
 10
-496.915949
 20
-282.212769
 30
0.0
 11
-472.408848
 21
-282.212769
 31
0.0
  0
LINE
  5
698
100
AcDbEntity
  8
0
370
    -3
390
0
  6
Continuous
100
AcDbLine
 10
-496.344786
 20
-273.212769
 30
0.0
 11
-472.408848
 21
-273.212769
 31
0.0
  0
LINE
  5
699
100
AcDbEntity
  8
0
370
    -3
390
0
  6
Continuous
100
AcDbLine
 10
-630.408848
 20
-112.712769
 30
0.0
 11
-612.908848
 21
-112.712769
 31
0.0
  0
LINE
  5
69A
100
AcDbEntity
  8
0
370
    -3
390
0
  6
Continuous
100
AcDbLine
 10
-634.908848
 20
-117.712769
 30
0.0
 11
-634.908848
 21
-164.946431
 31
0.0
  0
LINE
  5
69B
100
AcDbEntity
  8
0
370
    -3
390
0
  6
Continuous
100
AcDbLine
 10
-625.908848
 20
-117.712769
 30
0.0
 11
-625.908848
 21
-164.946431
 31
0.0
  0
LINE
  5
69C
100
AcDbEntity
  8
0
370
    -3
390
0
  6
Continuous
100
AcDbLine
 10
-650.908848
 20
-88.063079
 30
0.0
 11
-650.908848
 21
-109.712769
 31
0.0
  0
LINE
  5
69D
100
AcDbEntity
  8
0
370
    -3
390
0
  6
Continuous
100
AcDbLine
 10
-609.908848
 20
-88.063079
 30
0.0
 11
-609.908848
 21
-109.712769
 31
0.0
  0
LINE
  5
69E
100
AcDbEntity
  8
0
370
    -3
390
0
  6
Continuous
100
AcDbLine
 10
-647.908848
 20
-112.712769
 30
0.0
 11
-630.408848
 21
-112.712769
 31
0.0
  0
LINE
  5
69F
100
AcDbEntity
  8
0
370
    -3
390
0
  6
Continuous
100
AcDbLine
 10
-462.408848
 20
-228.565733
 30
0.0
 11
-462.408848
 21
-388.712769
 31
0.0
  0
LINE
  5
6A0
100
AcDbEntity
  8
0
370
    -3
390
0
  6
Continuous
100
AcDbLine
 10
-798.408848
 20
-228.565733
 30
0.0
 11
-798.408848
 21
-388.712769
 31
0.0
  0
LINE
  5
6A1
100
AcDbEntity
  8
0
370
    -3
390
0
  6
Continuous
100
AcDbLine
 10
-476.408848
 20
-402.712769
 30
0.0
 11
-487.60127
 21
-402.712769
 31
0.0
  0
LINE
  5
6A2
100
AcDbEntity
  8
0
370
    -3
390
0
  6
Continuous
100
AcDbLine
 10
-630.408848
 20
-444.712769
 30
0.0
 11
-548.197745
 21
-444.712769
 31
0.0
  0
LINE
  5
6A3
100
AcDbEntity
  8
0
370
    -3
390
0
  6
Continuous
100
AcDbLine
 10
-630.408848
 20
-444.712769
 30
0.0
 11
-712.61995
 21
-444.712769
 31
0.0
  0
LINE
  5
6A4
100
AcDbEntity
  8
0
370
    -3
390
0
  6
Continuous
100
AcDbLine
 10
-784.408848
 20
-402.712769
 30
0.0
 11
-773.216425
 21
-402.712769
 31
0.0
  0
LINE
  5
6A5
100
AcDbEntity
  8
0
370
    -3
390
0
  6
Continuous
100
AcDbLine
 10
-471.641744
 20
-190.712769
 30
0.0
 11
-477.408848
 21
-190.712769
 31
0.0
  0
LINE
  5
6A6
100
AcDbEntity
  8
0
370
    -3
390
0
  6
Continuous
100
AcDbLine
 10
-465.695187
 20
-216.712769
 30
0.0
 11
-477.408848
 21
-216.712769
 31
0.0
  0
LINE
  5
6A7
100
AcDbEntity
  8
0
370
    -3
390
0
  6
Continuous
100
AcDbLine
 10
-789.175951
 20
-190.712769
 30
0.0
 11
-783.408848
 21
-190.712769
 31
0.0
  0
LINE
  5
6A8
100
AcDbEntity
  8
0
370
    -3
390
0
  6
Continuous
100
AcDbLine
 10
-795.122508
 20
-216.712769
 30
0.0
 11
-783.408848
 21
-216.712769
 31
0.0
  0
LINE
  5
6A9
100
AcDbEntity
  8
0
370
    -3
390
0
  6
Continuous
100
AcDbLine
 10
-549.945243
 20
-203.613126
 30
0.0
 11
-498.370349
 21
-152.038231
 31
0.0
  0
LINE
  5
6AA
100
AcDbEntity
  8
0
370
    -3
390
0
  6
Continuous
100
AcDbLine
 10
-556.421678
 20
-197.361638
 30
0.0
 11
-503.17434
 21
-144.1143
 31
0.0
  0
LINE
  5
6AB
100
AcDbEntity
  8
0
370
    -3
390
0
  6
Continuous
100
AcDbLine
 10
-704.396017
 20
-197.361638
 30
0.0
 11
-757.643355
 21
-144.1143
 31
0.0
  0
LINE
  5
6AC
100
AcDbEntity
  8
0
370
    -3
390
0
  6
Continuous
100
AcDbLine
 10
-710.872452
 20
-203.613126
 30
0.0
 11
-762.447346
 21
-152.038231
 31
0.0
  0
LINE
  5
6AD
100
AcDbEntity
  8
0
370
    -3
390
0
  6
Continuous
100
AcDbLine
 10
-712.971399
 20
-366.639281
 30
0.0
 11
-750.452002
 21
-404.119884
 31
0.0
  0
LINE
  5
6AE
100
AcDbEntity
  8
0
370
    -3
390
0
  6
Continuous
100
AcDbLine
 10
-714.05603
 20
-354.99599
 30
0.0
 11
-758.412989
 21
-399.352949
 31
0.0
  0
LINE
  5
6AF
100
AcDbEntity
  8
0
370
    -3
390
0
  6
Continuous
100
AcDbLine
 10
-535.846438
 20
-378.63914
 30
0.0
 11
-510.365693
 21
-404.119884
 31
0.0
  0
LINE
  5
6B0
100
AcDbEntity
  8
0
370
    -3
390
0
  6
Continuous
100
AcDbLine
 10
-527.597482
 20
-374.160174
 30
0.0
 11
-502.404706
 21
-399.352949
 31
0.0
  0
LINE
  5
6B1
100
AcDbEntity
  8
0
370
    -3
390
0
  6
Continuous
100
AcDbLine
 10
-835.408848
 20
-442.712769
 30
0.0
 11
-722.729356
 21
-442.712769
 31
0.0
  0
LINE
  5
6B2
100
AcDbEntity
  8
0
370
    -3
390
0
  6
Continuous
100
AcDbLine
 10
-770.408848
 20
-403.045828
 30
0.0
 11
-770.408848
 21
-432.712769
 31
0.0
  0
LINE
  5
6B3
100
AcDbEntity
  8
0
370
    -3
390
0
  6
Continuous
100
AcDbLine
 10
-490.408848
 20
-403.045828
 30
0.0
 11
-490.408848
 21
-432.712769
 31
0.0
  0
ARC
  5
6B4
100
AcDbEntity
  8
0
370
    -3
390
0
  6
Continuous
100
AcDbCircle
 10
-513.378039
 20
-114.116989
 30
0.0
 40
5.0
100
AcDbArc
 50
135.0
 51
232.120301
  0
ARC
  5
6B5
100
AcDbEntity
  8
0
370
    -3
390
0
  6
Continuous
100
AcDbCircle
 10
-529.411574
 20
-103.280467
 30
0.0
 40
5.0
100
AcDbArc
 50
239.772847
 51
315.0
  0
LINE
  5
6B6
100
AcDbEntity
  8
0
370
    -3
390
0
  6
Continuous
100
AcDbLine
 10
-463.609865
 20
-57.277747
 30
0.0
 11
-516.913573
 21
-110.581455
 31
0.0
  0
LINE
  5
6B7
100
AcDbEntity
  8
0
370
    -3
390
0
  6
Continuous
100
AcDbLine
 10
-471.666434
 20
-52.606394
 30
0.0
 11
-525.87604
 21
-106.816
 31
0.0
  0
ARC
  5
6B8
100
AcDbEntity
  8
0
370
    -3
390
0
  6
Continuous
100
AcDbCircle
 10
-460.074331
 20
-60.813281
 30
0.0
 40
5.0
100
AcDbArc
 50
49.686078
 51
135.0
  0
ARC
  5
6B9
100
AcDbEntity
  8
0
370
    -3
390
0
  6
Continuous
100
AcDbCircle
 10
-475.201967
 20
-49.07086
 30
0.0
 40
5.0
100
AcDbArc
 50
315.0
 51
54.675041
  0
ARC
  5
6BA
100
AcDbEntity
  8
0
370
    -3
390
0
  6
Continuous
100
AcDbCircle
 10
-768.408848
 20
-432.712769
 30
0.0
 40
2.0
100
AcDbArc
 50
180.0
 51
270.0
  0
LINE
  5
6BB
100
AcDbEntity
  8
0
370
    -3
390
0
  6
Continuous
100
AcDbLine
 10
-720.925104
 20
-434.712769
 30
0.0
 11
-768.408848
 21
-434.712769
 31
0.0
  0
ARC
  5
6BC
100
AcDbEntity
  8
0
370
    -3
390
0
  6
Continuous
100
AcDbCircle
 10
-632.908848
 20
-53.944903
 30
0.0
 40
2.0
100
AcDbArc
 50
90.0
 51
141.97048
  0
ARC
  5
6BD
100
AcDbEntity
  8
0
370
    -3
390
0
  6
Continuous
100
AcDbCircle
 10
-627.908848
 20
-53.944903
 30
0.0
 40
2.0
100
AcDbArc
 50
38.02952
 51
90.0
  0
LINE
  5
6BE
100
AcDbEntity
  8
0
370
    -3
390
0
  6
Continuous
100
AcDbLine
 10
-632.908848
 20
-51.944903
 30
0.0
 11
-627.908848
 21
-51.944903
 31
0.0
  0
ARC
  5
6BF
100
AcDbEntity
  8
0
370
    -3
390
0
  6
Continuous
100
AcDbCircle
 10
-800.743364
 20
-60.813281
 30
0.0
 40
5.0
100
AcDbArc
 50
45.0
 51
130.313922
  0
ARC
  5
6C0
100
AcDbEntity
  8
0
370
    -3
390
0
  6
Continuous
100
AcDbCircle
 10
-785.615728
 20
-49.07086
 30
0.0
 40
5.0
100
AcDbArc
 50
125.324959
 51
225.0
  0
ARC
  5
6C1
100
AcDbEntity
  8
0
370
    -3
390
0
  6
Continuous
100
AcDbCircle
 10
-747.439656
 20
-114.116989
 30
0.0
 40
5.0
100
AcDbArc
 50
307.879699
 51
45.0
  0
ARC
  5
6C2
100
AcDbEntity
  8
0
370
    -3
390
0
  6
Continuous
100
AcDbCircle
 10
-731.406121
 20
-103.280467
 30
0.0
 40
5.0
100
AcDbArc
 50
225.0
 51
300.227153
  0
LINE
  5
6C3
100
AcDbEntity
  8
0
370
    -3
390
0
  6
Continuous
100
AcDbLine
 10
-797.20783
 20
-57.277747
 30
0.0
 11
-743.904122
 21
-110.581455
 31
0.0
  0
LINE
  5
6C4
100
AcDbEntity
  8
0
370
    -3
390
0
  6
Continuous
100
AcDbLine
 10
-789.151262
 20
-52.606394
 30
0.0
 11
-734.941655
 21
-106.816
 31
0.0
  0
ARC
  5
6C5
100
AcDbEntity
  8
0
370
    -3
390
0
  6
Continuous
100
AcDbCircle
 10
-639.908848
 20
-7.712769
 30
0.0
 40
5.0
100
AcDbArc
 50
0.0
 51
90.0
  0
ARC
  5
6C6
100
AcDbEntity
  8
0
370
    -3
390
0
  6
Continuous
100
AcDbCircle
 10
-620.908848
 20
-7.712769
 30
0.0
 40
5.0
100
AcDbArc
 50
90.0
 51
180.0
  0
LINE
  5
6C7
100
AcDbEntity
  8
0
370
    -3
390
0
  6
Continuous
100
AcDbLine
 10
-625.908848
 20
-7.712769
 30
0.0
 11
-625.908848
 21
-52.712769
 31
0.0
  0
LINE
  5
6C8
100
AcDbEntity
  8
0
370
    -3
390
0
  6
Continuous
100
AcDbLine
 10
-634.908848
 20
-7.712769
 30
0.0
 11
-634.908848
 21
-52.712769
 31
0.0
  0
ARC
  5
6C9
100
AcDbEntity
  8
0
370
    -3
390
0
  6
Continuous
100
AcDbCircle
 10
-492.408848
 20
-432.712769
 30
0.0
 40
2.0
100
AcDbArc
 50
270.0
 51
0.0
  0
LINE
  5
6CA
100
AcDbEntity
  8
0
370
    -3
390
0
  6
Continuous
100
AcDbLine
 10
-539.892591
 20
-434.712769
 30
0.0
 11
-492.408848
 21
-434.712769
 31
0.0
  0
LINE
  5
6CB
100
AcDbEntity
  8
0
370
    -3
390
0
  6
Continuous
100
AcDbLine
 10
-425.408848
 20
-442.712769
 30
0.0
 11
-538.088339
 21
-442.712769
 31
0.0
  0
CIRCLE
  5
6CC
100
AcDbEntity
  8
0
370
    -3
390
0
  6
Continuous
100
AcDbCircle
 10
-435.954483
 20
-23.258404
 30
0.0
 40
14.0
  0
ARC
  5
6CD
100
AcDbEntity
  8
0
370
    -3
390
0
  6
Continuous
100
AcDbCircle
 10
-425.408848
 20
-12.712769
 30
0.0
 40
20.0
100
AcDbArc
 50
0.0
 51
90.0
  0
LINE
  5
6CE
100
AcDbEntity
  8
0
370
    -3
390
0
  6
Continuous
100
AcDbLine
 10
-835.408848
 20
7.287231
 30
0.0
 11
-425.408848
 21
7.287231
 31
0.0
  0
CIRCLE
  5
6CF
100
AcDbEntity
  8
0
370
    -3
390
0
  6
Continuous
100
AcDbCircle
 10
-824.863212
 20
-23.258404
 30
0.0
 40
14.0
  0
ARC
  5
6D0
100
AcDbEntity
  8
0
370
    -3
390
0
  6
Continuous
100
AcDbCircle
 10
-835.408848
 20
-12.712769
 30
0.0
 40
20.0
100
AcDbArc
 50
90.0
 51
180.0
  0
LINE
  5
6D1
100
AcDbEntity
  8
0
370
    -3
390
0
  6
Continuous
100
AcDbLine
 10
-855.408848
 20
-12.712769
 30
0.0
 11
-855.408848
 21
-422.712769
 31
0.0
  0
ARC
  5
6D2
100
AcDbEntity
  8
0
370
    -3
390
0
  6
Continuous
100
AcDbCircle
 10
-835.408848
 20
-422.712769
 30
0.0
 40
20.0
100
AcDbArc
 50
180.0
 51
270.0
  0
CIRCLE
  5
6D3
100
AcDbEntity
  8
0
370
    -3
390
0
  6
Continuous
100
AcDbCircle
 10
-824.863212
 20
-412.167134
 30
0.0
 40
14.0
  0
LINE
  5
6D4
100
AcDbEntity
  8
0
370
    -3
390
0
  6
Continuous
100
AcDbLine
 10
-405.408848
 20
-12.712769
 30
0.0
 11
-405.408848
 21
-422.712769
 31
0.0
  0
CIRCLE
  5
6D5
100
AcDbEntity
  8
0
370
    -3
390
0
  6
Continuous
100
AcDbCircle
 10
-435.954483
 20
-412.167134
 30
0.0
 40
14.0
  0
ARC
  5
6D6
100
AcDbEntity
  8
0
370
    -3
390
0
  6
Continuous
100
AcDbCircle
 10
-425.408848
 20
-422.712769
 30
0.0
 40
20.0
100
AcDbArc
 50
270.0
 51
0.0
  0
LINE
  5
6D7
100
AcDbEntity
  8
0
370
    -3
390
0
  6
CENTER
100
AcDbLine
 10
-607.240935
 20
-72.712769
 30
0.0
 11
-654.263448
 21
-72.712769
 31
0.0
  0
LINE
  5
6D8
100
AcDbEntity
  8
0
370
    -3
390
0
  6
Continuous
100
AcDbLine
 10
-650.908848
 20
-62.712769
 30
0.0
 11
-650.908848
 21
-88.063079
 31
0.0
  0
ARC
  5
6D9
100
AcDbEntity
  8
0
370
    -3
390
0
  6
Continuous
100
AcDbCircle
 10
-640.908848
 20
-62.712769
 30
0.0
 40
10.0
100
AcDbArc
 50
90.0
 51
180.0
  0
LINE
  5
6DA
100
AcDbEntity
  8
0
370
    -3
390
0
  6
Continuous
100
AcDbLine
 10
-619.908848
 20
-52.712769
 30
0.0
 11
-640.908848
 21
-52.712769
 31
0.0
  0
LINE
  5
6DB
100
AcDbEntity
  8
0
370
    -3
390
0
  6
Continuous
100
AcDbLine
 10
-609.908848
 20
-62.712769
 30
0.0
 11
-609.908848
 21
-88.063079
 31
0.0
  0
ARC
  5
6DC
100
AcDbEntity
  8
0
370
    -3
390
0
  6
Continuous
100
AcDbCircle
 10
-619.908848
 20
-62.712769
 30
0.0
 40
10.0
100
AcDbArc
 50
0.0
 51
90.0
  0
ARC
  5
6DD
100
AcDbEntity
  8
0
370
    -3
390
0
  6
Continuous
100
AcDbCircle
 10
-630.408848
 20
-687.712769
 30
0.0
 40
600.0
100
AcDbArc
 50
91.957987
 51
93.489726
  0
INSERT
  5
6E9
100
AcDbEntity
  8
0
390
0
100
AcDbBlockReference
  2
ZU_SYM__USR_MELCAD_MD_SYM_SYM_SYM4_00
 10
-694.048458
 20
-341.352379
 30
0.0
 41
-1.0
  0
INSERT
  5
6F5
100
AcDbEntity
  8
0
390
0
100
AcDbBlockReference
  2
ZU_SYM__USR_MELCAD_MD_SYM_SYM_SYM3_00
 10
-566.769237
 20
-341.352379
 30
0.0
  0
LINE
  5
6F6
100
AcDbEntity
  8
0
370
    -3
390
0
  6
CENTER
100
AcDbLine
 10
-540.408848
 20
-108.212769
 30
0.0
 11
-540.408848
 21
-167.212769
 31
0.0
  0
LINE
  5
6F7
100
AcDbEntity
  8
0
370
    -3
390
0
  6
CENTER
100
AcDbLine
 10
-510.908848
 20
-137.712769
 30
0.0
 11
-569.908848
 21
-137.712769
 31
0.0
  0
LINE
  5
6F8
100
AcDbEntity
  8
0
370
    -3
390
0
  6
CENTER
100
AcDbLine
 10
-867.115782
 20
-239.712769
 30
0.0
 11
-395.049334
 21
-239.712769
 31
0.0
  0
ARC
  5
6F9
100
AcDbEntity
  8
0
370
    -3
390
0
  6
Continuous
100
AcDbCircle
 10
-630.408848
 20
-277.712769
 30
0.0
 40
40.0
100
AcDbArc
 50
245.280189
 51
294.719811
  0
LINE
  5
6FA
100
AcDbEntity
  8
0
370
    -3
390
0
  6
Continuous
100
AcDbLine
 10
-607.908848
 20
-368.532752
 30
0.0
 11
-607.908848
 21
-313.670082
 31
0.0
  0
LINE
  5
6FB
100
AcDbEntity
  8
0
370
    -3
390
0
  6
Continuous
100
AcDbLine
 10
-647.908848
 20
-368.912769
 30
0.0
 11
-647.908848
 21
-318.194246
 31
0.0
  0
ARC
  5
6FC
100
AcDbEntity
  8
0
370
    -3
390
0
  6
Continuous
100
AcDbCircle
 10
-644.908848
 20
-318.194246
 30
0.0
 40
3.0
100
AcDbArc
 50
70.293059
 51
180.0
  0
LINE
  5
6FD
100
AcDbEntity
  8
0
370
    -3
390
0
  6
Continuous
100
AcDbLine
 10
-652.908848
 20
-368.532752
 30
0.0
 11
-652.908848
 21
-313.670082
 31
0.0
  0
ARC
  5
6FE
100
AcDbEntity
  8
0
370
    -3
390
0
  6
Continuous
100
AcDbCircle
 10
-655.908848
 20
-368.532752
 30
0.0
 40
3.0
100
AcDbArc
 50
264.19874
 51
0.0
  0
ARC
  5
6FF
100
AcDbEntity
  8
0
370
    -3
390
0
  6
Continuous
100
AcDbCircle
 10
-644.908848
 20
-368.912769
 30
0.0
 40
3.0
100
AcDbArc
 50
180.0
 51
270.0
  0
ARC
  5
700
100
AcDbEntity
  8
0
370
    -3
390
0
  6
Continuous
100
AcDbCircle
 10
-615.908848
 20
-318.194246
 30
0.0
 40
3.0
100
AcDbArc
 50
0.0
 51
109.706941
  0
LINE
  5
701
100
AcDbEntity
  8
0
370
    -3
390
0
  6
Continuous
100
AcDbLine
 10
-612.908848
 20
-368.912769
 30
0.0
 11
-612.908848
 21
-318.194246
 31
0.0
  0
ARC
  5
702
100
AcDbEntity
  8
0
370
    -3
390
0
  6
Continuous
100
AcDbCircle
 10
-604.908848
 20
-368.532752
 30
0.0
 40
3.0
100
AcDbArc
 50
180.0
 51
275.80126
  0
LINE
  5
703
100
AcDbEntity
  8
0
370
    -3
390
0
  6
DIVIDE
100
AcDbLine
 10
-532.408848
 20
-287.567187
 30
0.0
 11
-532.408848
 21
-294.712769
 31
0.0
  0
LINE
  5
704
100
AcDbEntity
  8
0
370
    -3
390
0
  6
Continuous
100
AcDbLine
 10
-532.408848
 20
-286.212769
 30
0.0
 11
-532.408848
 21
-294.712769
 31
0.0
  0
ARC
  5
705
100
AcDbEntity
  8
0
370
    -3
390
0
  6
Continuous
100
AcDbCircle
 10
-612.408848
 20
-260.712769
 30
0.0
 40
80.0
100
AcDbArc
 50
35.038738
 51
50.078415
  0
ARC
  5
706
100
AcDbEntity
  8
0
370
    -3
390
0
  6
Continuous
100
AcDbCircle
 10
-648.408848
 20
-260.712769
 30
0.0
 40
80.0
100
AcDbArc
 50
129.921585
 51
180.0
  0
LINE
  5
707
100
AcDbEntity
  8
0
370
    -3
390
0
  6
Continuous
100
AcDbLine
 10
-728.408848
 20
-277.712769
 30
0.0
 11
-728.408848
 21
-260.712769
 31
0.0
  0
LINE
  5
708
100
AcDbEntity
  8
0
370
    -3
390
0
  6
Continuous
100
AcDbLine
 10
-728.408848
 20
-277.712769
 30
0.0
 11
-728.408848
 21
-294.712769
 31
0.0
  0
ARC
  5
709
100
AcDbEntity
  8
0
370
    -3
390
0
  6
Continuous
100
AcDbCircle
 10
-648.408848
 20
-294.712769
 30
0.0
 40
80.0
100
AcDbArc
 50
180.0
 51
202.119118
  0
ARC
  5
70A
100
AcDbEntity
  8
0
370
    -3
390
0
  6
Continuous
100
AcDbCircle
 10
-648.408848
 20
-294.712769
 30
0.0
 40
80.0
100
AcDbArc
 50
202.119118
 51
242.258787
  0
ARC
  5
70B
100
AcDbEntity
  8
0
370
    -3
390
0
  6
Continuous
100
AcDbCircle
 10
-648.408848
 20
-294.712769
 30
0.0
 40
80.0
100
AcDbArc
 50
242.258787
 51
270.0
  0
LINE
  5
70C
100
AcDbEntity
  8
0
370
    -3
390
0
  6
Continuous
100
AcDbLine
 10
-642.281831
 20
-374.712769
 30
0.0
 11
-648.408848
 21
-374.712769
 31
0.0
  0
ARC
  5
70D
100
AcDbEntity
  8
0
370
    -3
390
0
  6
Continuous
100
AcDbCircle
 10
-642.281831
 20
-376.712769
 30
0.0
 40
2.0
100
AcDbArc
 50
14.477512
 51
90.0
  0
ARC
  5
70E
100
AcDbEntity
  8
0
370
    -3
390
0
  6
Continuous
100
AcDbCircle
 10
-638.408848
 20
-375.712769
 30
0.0
 40
2.0
100
AcDbArc
 50
194.477512
 51
270.0
  0
LINE
  5
70F
100
AcDbEntity
  8
0
370
    -3
390
0
  6
Continuous
100
AcDbLine
 10
-630.408848
 20
-377.712769
 30
0.0
 11
-638.408848
 21
-377.712769
 31
0.0
  0
LINE
  5
710
100
AcDbEntity
  8
0
370
    -3
390
0
  6
Continuous
100
AcDbLine
 10
-630.408848
 20
-377.712769
 30
0.0
 11
-622.408848
 21
-377.712769
 31
0.0
  0
ARC
  5
711
100
AcDbEntity
  8
0
370
    -3
390
0
  6
Continuous
100
AcDbCircle
 10
-622.408848
 20
-375.712769
 30
0.0
 40
2.0
100
AcDbArc
 50
270.0
 51
345.522488
  0
ARC
  5
712
100
AcDbEntity
  8
0
370
    -3
390
0
  6
Continuous
100
AcDbCircle
 10
-618.535864
 20
-376.712769
 30
0.0
 40
2.0
100
AcDbArc
 50
90.0
 51
165.522488
  0
LINE
  5
713
100
AcDbEntity
  8
0
370
    -3
390
0
  6
Continuous
100
AcDbLine
 10
-618.535864
 20
-374.712769
 30
0.0
 11
-612.408848
 21
-374.712769
 31
0.0
  0
ARC
  5
714
100
AcDbEntity
  8
0
370
    -3
390
0
  6
Continuous
100
AcDbCircle
 10
-612.408848
 20
-294.712769
 30
0.0
 40
80.0
100
AcDbArc
 50
270.0
 51
279.172055
  0
ARC
  5
715
100
AcDbEntity
  8
0
370
    -3
390
0
  6
Continuous
100
AcDbCircle
 10
-612.408848
 20
-294.712769
 30
0.0
 40
80.0
100
AcDbArc
 50
279.172055
 51
323.661144
  0
ARC
  5
716
100
AcDbEntity
  8
0
370
    -3
390
0
  6
Continuous
100
AcDbCircle
 10
-612.408848
 20
-294.712769
 30
0.0
 40
80.0
100
AcDbArc
 50
323.661144
 51
0.0
  0
ARC
  5
717
100
AcDbEntity
  8
0
370
    -3
390
0
  6
Continuous
100
AcDbCircle
 10
-575.801327
 20
-349.253098
 30
0.0
 40
3.0
100
AcDbArc
 50
307.354893
 51
41.177446
  0
ARC
  5
718
100
AcDbEntity
  8
0
370
    -3
390
0
  6
Continuous
100
AcDbCircle
 10
-566.769237
 20
-341.352379
 30
0.0
 40
9.0
100
AcDbArc
 50
48.822554
 51
221.177446
  0
ARC
  5
719
100
AcDbEntity
  8
0
370
    -3
390
0
  6
Continuous
100
AcDbCircle
 10
-701.949177
 20
-332.320289
 30
0.0
 40
3.0
100
AcDbArc
 50
217.354893
 51
311.177446
  0
ARC
  5
71A
100
AcDbEntity
  8
0
370
    -3
390
0
  6
Continuous
100
AcDbCircle
 10
-694.048458
 20
-341.352379
 30
0.0
 40
9.0
100
AcDbArc
 50
318.822554
 51
131.177446
  0
ARC
  5
71B
100
AcDbEntity
  8
0
370
    -3
390
0
  6
Continuous
100
AcDbCircle
 10
-685.016368
 20
-349.253098
 30
0.0
 40
3.0
100
AcDbArc
 50
138.822554
 51
232.645107
  0
ARC
  5
71C
100
AcDbEntity
  8
0
370
    -3
390
0
  6
Continuous
100
AcDbCircle
 10
-558.868518
 20
-332.320289
 30
0.0
 40
3.0
100
AcDbArc
 50
228.822554
 51
322.645107
  0
ARC
  5
71D
100
AcDbEntity
  8
0
370
    -3
390
0
  6
Continuous
100
AcDbCircle
 10
-615.908848
 20
-368.912769
 30
0.0
 40
3.0
100
AcDbArc
 50
270.0
 51
0.0
  0
LINE
  5
71E
100
AcDbEntity
  8
0
370
    -3
390
0
  6
Continuous
100
AcDbLine
 10
-619.908848
 20
-110.712769
 30
0.0
 11
-640.908848
 21
-110.712769
 31
0.0
  0
ARC
  5
71F
100
AcDbEntity
  8
0
370
    -3
390
0
  6
Continuous
100
AcDbCircle
 10
-640.908848
 20
-100.712769
 30
0.0
 40
10.0
100
AcDbArc
 50
180.0
 51
270.0
  0
ARC
  5
720
100
AcDbEntity
  8
0
370
    -3
390
0
  6
Continuous
100
AcDbCircle
 10
-619.908848
 20
-100.712769
 30
0.0
 40
10.0
100
AcDbArc
 50
270.0
 51
0.0
  0
ARC
  5
721
100
AcDbEntity
  8
0
370
    -3
390
0
  6
Continuous
100
AcDbCircle
 10
-539.892591
 20
-436.712769
 30
0.0
 40
2.0
100
AcDbArc
 50
90.0
 51
160.532441
  0
ARC
  5
722
100
AcDbEntity
  8
0
370
    -3
390
0
  6
Continuous
100
AcDbCircle
 10
-720.925104
 20
-436.712769
 30
0.0
 40
2.0
100
AcDbArc
 50
19.467559
 51
90.0
  0
LINE
  5
723
100
AcDbEntity
  8
0
370
    -3
390
0
  6
Continuous
100
AcDbLine
 10
-77.401269
 20
295.287231
 30
0.0
 11
-36.901269
 21
295.287231
 31
0.0
  0
ARC
  5
724
100
AcDbEntity
  8
0
370
    -3
390
0
  6
Continuous
100
AcDbCircle
 10
-36.901269
 20
298.287231
 30
0.0
 40
3.0
100
AcDbArc
 50
270.0
 51
0.0
  0
LINE
  5
725
100
AcDbEntity
  8
0
370
    -3
390
0
  6
Continuous
100
AcDbLine
 10
-77.401269
 20
265.287231
 30
0.0
 11
-36.901269
 21
265.287231
 31
0.0
  0
ARC
  5
726
100
AcDbEntity
  8
0
370
    -3
390
0
  6
Continuous
100
AcDbCircle
 10
-36.901269
 20
262.287231
 30
0.0
 40
3.0
100
AcDbArc
 50
0.0
 51
90.0
  0
LINE
  5
727
100
AcDbEntity
  8
0
370
    -3
390
0
  6
Continuous
100
AcDbLine
 10
-80.401269
 20
280.287231
 30
0.0
 11
-80.401269
 21
346.787231
 31
0.0
  0
ARC
  5
728
100
AcDbEntity
  8
0
370
    -3
390
0
  6
Continuous
100
AcDbCircle
 10
-77.401269
 20
298.287231
 30
0.0
 40
3.0
100
AcDbArc
 50
180.0
 51
270.0
  0
LINE
  5
729
100
AcDbEntity
  8
0
370
    -3
390
0
  6
Continuous
100
AcDbLine
 10
-80.401269
 20
213.787231
 30
0.0
 11
-80.401269
 21
280.287231
 31
0.0
  0
ARC
  5
72A
100
AcDbEntity
  8
0
370
    -3
390
0
  6
Continuous
100
AcDbCircle
 10
-77.401269
 20
262.287231
 30
0.0
 40
3.0
100
AcDbArc
 50
90.0
 51
180.0
  0
ARC
  5
72B
100
AcDbEntity
  8
0
370
    -3
390
0
  6
Continuous
100
AcDbCircle
 10
-85.401269
 20
346.787231
 30
0.0
 40
5.0
100
AcDbArc
 50
0.0
 51
90.0
  0
ARC
  5
72C
100
AcDbEntity
  8
0
370
    -3
390
0
  6
Continuous
100
AcDbCircle
 10
-85.401269
 20
213.787231
 30
0.0
 40
5.0
100
AcDbArc
 50
270.0
 51
0.0
  0
LINE
  5
72D
100
AcDbEntity
  8
0
370
    -3
390
0
  6
Continuous
100
AcDbLine
 10
-23.901269
 20
280.287231
 30
0.0
 11
-23.901269
 21
180.392047
 31
0.0
  0
LINE
  5
72E
100
AcDbEntity
  8
0
370
    -3
390
0
  6
Continuous
100
AcDbLine
 10
-23.401268
 20
276.287231
 30
0.0
 11
-23.401268
 21
263.287231
 31
0.0
  0
LINE
  5
72F
100
AcDbEntity
  8
0
370
    -3
390
0
  6
Continuous
100
AcDbLine
 10
-23.401267
 20
263.287231
 30
0.0
 11
-23.901268
 21
264.153161
 31
0.0
  0
LINE
  5
730
100
AcDbEntity
  8
0
370
    -3
390
0
  6
Continuous
100
AcDbLine
 10
-23.401267
 20
276.287231
 30
0.0
 11
-23.901267
 21
275.421107
 31
0.0
  0
LINE
  5
731
100
AcDbEntity
  8
0
370
    -3
390
0
  6
Continuous
100
AcDbLine
 10
-15.901269
 20
276.287231
 30
0.0
 11
-23.401268
 21
276.287231
 31
0.0
  0
LINE
  5
732
100
AcDbEntity
  8
0
370
    -3
390
0
  6
Continuous
100
AcDbLine
 10
-23.901268
 20
275.421107
 30
0.0
 11
-23.901268
 21
264.153161
 31
0.0
  0
LINE
  5
733
100
AcDbEntity
  8
0
370
    -3
390
0
  6
Continuous
100
AcDbLine
 10
-15.901269
 20
263.287231
 30
0.0
 11
-23.401267
 21
263.287231
 31
0.0
  0
ARC
  5
734
100
AcDbEntity
  8
0
370
    -3
390
0
  6
Continuous
100
AcDbCircle
 10
-20.614033
 20
204.520624
 30
0.0
 40
5.0
100
AcDbArc
 50
16.808327
 51
90.0
  0
ARC
  5
735
100
AcDbEntity
  8
0
370
    -3
390
0
  6
Continuous
100
AcDbCircle
 10
-20.614033
 20
197.645565
 30
0.0
 40
5.0
100
AcDbArc
 50
16.808327
 51
90.0
  0
LINE
  5
736
100
AcDbEntity
  8
0
370
    -3
390
0
  6
Continuous
100
AcDbLine
 10
-9.958273
 20
179.661325
 30
0.0
 11
-23.901269
 21
180.392047
 31
0.0
  0
LINE
  5
737
100
AcDbEntity
  8
0
370
    -3
390
0
  6
Continuous
100
AcDbLine
 10
-23.901269
 20
280.287231
 30
0.0
 11
-23.901269
 21
380.182416
 31
0.0
  0
LINE
  5
738
100
AcDbEntity
  8
0
370
    -3
390
0
  6
Continuous
100
AcDbLine
 10
-23.401268
 20
284.287231
 30
0.0
 11
-23.401268
 21
297.287231
 31
0.0
  0
LINE
  5
739
100
AcDbEntity
  8
0
370
    -3
390
0
  6
Continuous
100
AcDbLine
 10
-23.401267
 20
297.287231
 30
0.0
 11
-23.901268
 21
296.421302
 31
0.0
  0
LINE
  5
73A
100
AcDbEntity
  8
0
370
    -3
390
0
  6
Continuous
100
AcDbLine
 10
-23.401267
 20
284.287231
 30
0.0
 11
-23.901267
 21
285.153355
 31
0.0
  0
LINE
  5
73B
100
AcDbEntity
  8
0
370
    -3
390
0
  6
Continuous
100
AcDbLine
 10
-15.901269
 20
284.287231
 30
0.0
 11
-23.401268
 21
284.287231
 31
0.0
  0
LINE
  5
73C
100
AcDbEntity
  8
0
370
    -3
390
0
  6
Continuous
100
AcDbLine
 10
-23.901268
 20
285.153355
 30
0.0
 11
-23.901268
 21
296.421302
 31
0.0
  0
LINE
  5
73D
100
AcDbEntity
  8
0
370
    -3
390
0
  6
Continuous
100
AcDbLine
 10
-15.901269
 20
297.287231
 30
0.0
 11
-23.401267
 21
297.287231
 31
0.0
  0
ARC
  5
73E
100
AcDbEntity
  8
0
370
    -3
390
0
  6
Continuous
100
AcDbCircle
 10
-20.614033
 20
356.053838
 30
0.0
 40
5.0
100
AcDbArc
 50
270.0
 51
343.191673
  0
ARC
  5
73F
100
AcDbEntity
  8
0
370
    -3
390
0
  6
Continuous
100
AcDbCircle
 10
-20.614033
 20
362.928897
 30
0.0
 40
5.0
100
AcDbArc
 50
270.0
 51
343.191673
  0
LINE
  5
740
100
AcDbEntity
  8
0
370
    -3
390
0
  6
CENTER
100
AcDbLine
 10
316.181246
 20
280.287231
 30
0.0
 11
-320.277453
 21
280.287231
 31
0.0
  0
LINE
  5
741
100
AcDbEntity
  8
0
370
    -3
390
0
  6
Continuous
100
AcDbLine
 10
-33.901269
 20
280.287231
 30
0.0
 11
-33.901269
 21
375.287231
 31
0.0
  0
INSERT
  5
751
100
AcDbEntity
  8
0
390
0
100
AcDbBlockReference
  2
ZU_SYM__USR_MELCAD_MD_SYM_SYM_SYM1_00
 10
-33.901269
 20
216.647621
 30
0.0
  0
LINE
  5
752
100
AcDbEntity
  8
0
370
    -3
390
0
  6
Continuous
100
AcDbLine
 10
-33.901269
 20
280.287231
 30
0.0
 11
-33.901269
 21
185.287231
 31
0.0
  0
LINE
  5
753
100
AcDbEntity
  8
0
370
    -3
390
0
  6
Continuous
100
AcDbLine
 10
-103.901269
 20
208.787231
 30
0.0
 11
-103.901269
 21
280.287231
 31
0.0
  0
LINE
  5
754
100
AcDbEntity
  8
0
370
    -3
390
0
  6
Continuous
100
AcDbLine
 10
-30.901269
 20
182.287231
 30
0.0
 11
-23.901269
 21
182.287231
 31
0.0
  0
ARC
  5
755
100
AcDbEntity
  8
0
370
    -3
390
0
  6
Continuous
100
AcDbCircle
 10
-30.901269
 20
185.287231
 30
0.0
 40
3.0
100
AcDbArc
 50
180.0
 51
270.0
  0
LINE
  5
756
100
AcDbEntity
  8
0
370
    -3
390
0
  6
Continuous
100
AcDbLine
 10
-38.901269
 20
208.787231
 30
0.0
 11
-103.901269
 21
208.787231
 31
0.0
  0
ARC
  5
757
100
AcDbEntity
  8
0
370
    -3
390
0
  6
Continuous
100
AcDbCircle
 10
-38.901269
 20
203.787231
 30
0.0
 40
5.0
100
AcDbArc
 50
0.0
 51
90.0
  0
LINE
  5
758
100
AcDbEntity
  8
0
370
    -3
390
0
  6
Continuous
100
AcDbLine
 10
-33.901269
 20
270.35074
 30
0.0
 11
-23.901269
 21
270.35074
 31
0.0
  0
CIRCLE
  5
759
100
AcDbEntity
  8
0
370
    -3
390
0
  6
Continuous
100
AcDbCircle
 10
-54.901269
 20
280.287231
 30
0.0
 40
10.5
  0
LINE
  5
75A
100
AcDbEntity
  8
0
370
    -3
390
0
  6
Continuous
100
AcDbLine
 10
-33.901269
 20
290.223723
 30
0.0
 11
-23.901269
 21
290.223723
 31
0.0
  0
LINE
  5
75B
100
AcDbEntity
  8
0
370
    -3
390
0
  6
Continuous
100
AcDbLine
 10
-103.901269
 20
351.787231
 30
0.0
 11
-103.901269
 21
280.287231
 31
0.0
  0
ARC
  5
75C
100
AcDbEntity
  8
0
370
    -3
390
0
  6
Continuous
100
AcDbCircle
 10
-38.901269
 20
356.787231
 30
0.0
 40
5.0
100
AcDbArc
 50
270.0
 51
0.0
  0
LINE
  5
75D
100
AcDbEntity
  8
0
370
    -3
390
0
  6
Continuous
100
AcDbLine
 10
-38.901269
 20
351.787231
 30
0.0
 11
-103.901269
 21
351.787231
 31
0.0
  0
INSERT
  5
76D
100
AcDbEntity
  8
0
390
0
100
AcDbBlockReference
  2
ZU_SYM__USR_MELCAD_MD_SYM_SYM_SYM1_0001500
 10
-33.901269
 20
343.926842
 30
0.0
 41
-1.0
 50
180.0
  0
LINE
  5
76E
100
AcDbEntity
  8
0
370
    -3
390
0
  6
CENTER
100
AcDbLine
 10
-54.901269
 20
263.261188
 30
0.0
 11
-54.901269
 21
298.93882
 31
0.0
  0
LINE
  5
76F
100
AcDbEntity
  8
0
370
    -3
390
0
  6
Continuous
100
AcDbLine
 10
-212.901269
 20
209.537231
 30
0.0
 11
-246.901269
 21
209.537231
 31
0.0
  0
LINE
  5
770
100
AcDbEntity
  8
0
370
    -3
390
0
  6
Continuous
100
AcDbLine
 10
-103.901269
 20
279.537231
 30
0.0
 11
-103.901269
 21
351.037231
 31
0.0
  0
LINE
  5
771
100
AcDbEntity
  8
0
370
    -3
390
0
  6
Continuous
100
AcDbLine
 10
-103.901269
 20
351.787231
 30
0.0
 11
-246.901269
 21
351.787231
 31
0.0
  0
LINE
  5
772
100
AcDbEntity
  8
0
370
    -3
390
0
  6
Continuous
100
AcDbLine
 10
-103.901269
 20
349.787231
 30
0.0
 11
-246.901269
 21
349.787231
 31
0.0
  0
LINE
  5
773
100
AcDbEntity
  8
0
370
    -3
390
0
  6
Continuous
100
AcDbLine
 10
-103.901269
 20
346.787231
 30
0.0
 11
-246.901269
 21
346.787231
 31
0.0
  0
LINE
  5
774
100
AcDbEntity
  8
0
370
    -3
390
0
  6
Continuous
100
AcDbLine
 10
-103.901269
 20
342.287231
 30
0.0
 11
-246.901269
 21
342.287231
 31
0.0
  0
LINE
  5
775
100
AcDbEntity
  8
0
370
    -3
390
0
  6
Continuous
100
AcDbLine
 10
-103.901269
 20
335.873031
 30
0.0
 11
-246.901269
 21
335.873031
 31
0.0
  0
LINE
  5
776
100
AcDbEntity
  8
0
370
    -3
390
0
  6
Continuous
100
AcDbLine
 10
-103.901269
 20
329.50907
 30
0.0
 11
-246.901269
 21
329.50907
 31
0.0
  0
LINE
  5
777
100
AcDbEntity
  8
0
370
    -3
390
0
  6
Continuous
100
AcDbLine
 10
-103.901269
 20
321.1365
 30
0.0
 11
-246.901269
 21
321.1365
 31
0.0
  0
LINE
  5
778
100
AcDbEntity
  8
0
370
    -3
390
0
  6
Continuous
100
AcDbLine
 10
-103.901269
 20
319.487873
 30
0.0
 11
-246.901269
 21
319.487873
 31
0.0
  0
LINE
  5
779
100
AcDbEntity
  8
0
370
    -3
390
0
  6
Continuous
100
AcDbLine
 10
-103.901269
 20
313.130003
 30
0.0
 11
-246.901269
 21
313.130003
 31
0.0
  0
LINE
  5
77A
100
AcDbEntity
  8
0
370
    -3
390
0
  6
Continuous
100
AcDbLine
 10
-103.901269
 20
311.497276
 30
0.0
 11
-246.901269
 21
311.497276
 31
0.0
  0
LINE
  5
77B
100
AcDbEntity
  8
0
370
    -3
390
0
  6
Continuous
100
AcDbLine
 10
-103.901269
 20
305.101739
 30
0.0
 11
-246.901269
 21
305.101739
 31
0.0
  0
LINE
  5
77C
100
AcDbEntity
  8
0
370
    -3
390
0
  6
Continuous
100
AcDbLine
 10
-103.901269
 20
281.017027
 30
0.0
 11
-246.901269
 21
281.017027
 31
0.0
  0
LINE
  5
77D
100
AcDbEntity
  8
0
370
    -3
390
0
  6
Continuous
100
AcDbLine
 10
-103.901269
 20
289.035387
 30
0.0
 11
-246.901269
 21
289.035387
 31
0.0
  0
LINE
  5
77E
100
AcDbEntity
  8
0
370
    -3
390
0
  6
Continuous
100
AcDbLine
 10
-103.901269
 20
287.550229
 30
0.0
 11
-246.901269
 21
287.550229
 31
0.0
  0
LINE
  5
77F
100
AcDbEntity
  8
0
370
    -3
390
0
  6
Continuous
100
AcDbLine
 10
-103.901269
 20
297.067232
 30
0.0
 11
-246.901269
 21
297.067232
 31
0.0
  0
LINE
  5
780
100
AcDbEntity
  8
0
370
    -3
390
0
  6
Continuous
100
AcDbLine
 10
-103.901269
 20
295.530396
 30
0.0
 11
-246.901269
 21
295.530396
 31
0.0
  0
LINE
  5
781
100
AcDbEntity
  8
0
370
    -3
390
0
  6
Continuous
100
AcDbLine
 10
-103.901269
 20
351.287231
 30
0.0
 11
-246.901269
 21
351.287231
 31
0.0
  0
LINE
  5
782
100
AcDbEntity
  8
0
370
    -3
390
0
  6
Continuous
100
AcDbLine
 10
-103.901269
 20
303.509487
 30
0.0
 11
-246.901269
 21
303.509487
 31
0.0
  0
LINE
  5
783
100
AcDbEntity
  8
0
370
    -3
390
0
  6
Continuous
100
AcDbLine
 10
-103.901269
 20
279.537231
 30
0.0
 11
-103.901269
 21
209.537231
 31
0.0
  0
LINE
  5
784
100
AcDbEntity
  8
0
370
    -3
390
0
  6
Continuous
100
AcDbLine
 10
-103.901269
 20
257.064976
 30
0.0
 11
-246.901269
 21
257.064976
 31
0.0
  0
LINE
  5
785
100
AcDbEntity
  8
0
370
    -3
390
0
  6
Continuous
100
AcDbLine
 10
-103.901269
 20
209.287231
 30
0.0
 11
-212.901269
 21
209.287231
 31
0.0
  0
LINE
  5
786
100
AcDbEntity
  8
0
370
    -3
390
0
  6
Continuous
100
AcDbLine
 10
-103.901269
 20
265.044067
 30
0.0
 11
-246.901269
 21
265.044067
 31
0.0
  0
LINE
  5
787
100
AcDbEntity
  8
0
370
    -3
390
0
  6
Continuous
100
AcDbLine
 10
-103.901269
 20
263.507231
 30
0.0
 11
-246.901269
 21
263.507231
 31
0.0
  0
LINE
  5
788
100
AcDbEntity
  8
0
370
    -3
390
0
  6
Continuous
100
AcDbLine
 10
-103.901269
 20
273.024233
 30
0.0
 11
-246.901269
 21
273.024233
 31
0.0
  0
LINE
  5
789
100
AcDbEntity
  8
0
370
    -3
390
0
  6
Continuous
100
AcDbLine
 10
-103.901269
 20
271.539075
 30
0.0
 11
-246.901269
 21
271.539075
 31
0.0
  0
LINE
  5
78A
100
AcDbEntity
  8
0
370
    -3
390
0
  6
Continuous
100
AcDbLine
 10
-103.901269
 20
279.557436
 30
0.0
 11
-246.901269
 21
279.557436
 31
0.0
  0
LINE
  5
78B
100
AcDbEntity
  8
0
370
    -3
390
0
  6
Continuous
100
AcDbLine
 10
-103.901269
 20
255.472724
 30
0.0
 11
-246.901269
 21
255.472724
 31
0.0
  0
LINE
  5
78C
100
AcDbEntity
  8
0
370
    -3
390
0
  6
Continuous
100
AcDbLine
 10
-103.901269
 20
249.077187
 30
0.0
 11
-246.901269
 21
249.077187
 31
0.0
  0
LINE
  5
78D
100
AcDbEntity
  8
0
370
    -3
390
0
  6
Continuous
100
AcDbLine
 10
-103.901269
 20
247.44446
 30
0.0
 11
-246.901269
 21
247.44446
 31
0.0
  0
LINE
  5
78E
100
AcDbEntity
  8
0
370
    -3
390
0
  6
Continuous
100
AcDbLine
 10
-103.901269
 20
241.086589
 30
0.0
 11
-246.901269
 21
241.086589
 31
0.0
  0
LINE
  5
78F
100
AcDbEntity
  8
0
370
    -3
390
0
  6
Continuous
100
AcDbLine
 10
-103.901269
 20
239.437962
 30
0.0
 11
-246.901269
 21
239.437962
 31
0.0
  0
LINE
  5
790
100
AcDbEntity
  8
0
370
    -3
390
0
  6
Continuous
100
AcDbLine
 10
-103.901269
 20
231.065393
 30
0.0
 11
-246.901269
 21
231.065393
 31
0.0
  0
LINE
  5
791
100
AcDbEntity
  8
0
370
    -3
390
0
  6
Continuous
100
AcDbLine
 10
-103.901269
 20
224.701432
 30
0.0
 11
-246.901269
 21
224.701432
 31
0.0
  0
LINE
  5
792
100
AcDbEntity
  8
0
370
    -3
390
0
  6
Continuous
100
AcDbLine
 10
-103.901269
 20
218.287231
 30
0.0
 11
-246.901269
 21
218.287231
 31
0.0
  0
LINE
  5
793
100
AcDbEntity
  8
0
370
    -3
390
0
  6
Continuous
100
AcDbLine
 10
-103.901269
 20
213.787231
 30
0.0
 11
-246.901269
 21
213.787231
 31
0.0
  0
LINE
  5
794
100
AcDbEntity
  8
0
370
    -3
390
0
  6
Continuous
100
AcDbLine
 10
-103.901269
 20
210.787231
 30
0.0
 11
-246.901269
 21
210.787231
 31
0.0
  0
LINE
  5
795
100
AcDbEntity
  8
0
370
    -3
390
0
  6
Continuous
100
AcDbLine
 10
-103.901269
 20
208.787231
 30
0.0
 11
-212.901269
 21
208.787231
 31
0.0
  0
LINE
  5
796
100
AcDbEntity
  8
0
370
    -3
390
0
  6
CENTER
100
AcDbLine
 10
-418.392726
 20
-5.696647
 30
0.0
 11
-455.053782
 21
-42.357703
 31
0.0
  0
ARC
  5
797
100
AcDbEntity
  8
0
370
    -3
390
0
  6
CENTER
100
AcDbCircle
 10
-630.408848
 20
-217.712769
 30
0.0
 40
275.0
100
AcDbArc
 50
39.87658
 51
50.430519
  0
ARC
  5
798
100
AcDbEntity
  8
0
370
    -3
390
0
  6
CENTER
100
AcDbCircle
 10
-630.408848
 20
-217.712769
 30
0.0
 40
275.0
100
AcDbArc
 50
309.569481
 51
320.12342
  0
LINE
  5
799
100
AcDbEntity
  8
0
370
    -3
390
0
  6
CENTER
100
AcDbLine
 10
-418.392726
 20
-429.728891
 30
0.0
 11
-455.053782
 21
-393.067834
 31
0.0
  0
ARC
  5
79A
100
AcDbEntity
  8
0
370
    -3
390
0
  6
CENTER
100
AcDbCircle
 10
-630.408848
 20
-217.712769
 30
0.0
 40
275.0
100
AcDbArc
 50
219.87658
 51
230.430519
  0
LINE
  5
79B
100
AcDbEntity
  8
0
370
    -3
390
0
  6
CENTER
100
AcDbLine
 10
-842.424969
 20
-429.728891
 30
0.0
 11
-805.763913
 21
-393.067834
 31
0.0
  0
ARC
  5
79C
100
AcDbEntity
  8
0
370
    -3
390
0
  6
CENTER
100
AcDbCircle
 10
-630.408848
 20
-217.712769
 30
0.0
 40
275.0
100
AcDbArc
 50
129.569481
 51
140.12342
  0
LINE
  5
79D
100
AcDbEntity
  8
0
370
    -3
390
0
  6
CENTER
100
AcDbLine
 10
-842.424969
 20
-5.696647
 30
0.0
 11
-805.763913
 21
-42.357703
 31
0.0
  0
ENDSEC
  0
SECTION
  2
OBJECTS
  0
DICTIONARY
  5
19
100
AcDbDictionary
280
     0
281
     1
  3
ACAD_GROUP
350
1A
  3
ACAD_MLINESTYLE
350
1B
  3
ACAD_LAYOUT
350
1E
  3
ACAD_PLOTSETTINGS
350
22
  3
ACAD_PLOTSTYLENAME
350
1F
  3
ACAD_WIPEOUT_VARS
350
23
  3
DWGPROPS
350
79E
  0
DICTIONARY
  5
1A
102
{ACAD_REACTORS
330
19
102
}
100
AcDbDictionary
280
     0
281
     1
  0
DICTIONARY
  5
1B
102
{ACAD_REACTORS
330
19
102
}
100
AcDbDictionary
280
     0
281
     1
  3
Standard
350
1C
  0
MLINESTYLE
  5
1C
102
{ACAD_REACTORS
330
1B
102
}
100
AcDbMlineStyle
  2
Standard
 70
     0
  3

 62
     0
 51
90.0
 52
90.0
 71
     2
 49
0.5
 62
   256
  6
ByLayer
 49
-0.5
 62
   256
  6
ByLayer
  0
ACDBDICTIONARYWDFLT
  5
1F
102
{ACAD_REACTORS
330
19
102
}
100
AcDbDictionary
281
     1
  3
Normal
350
1D
100
AcDbDictionaryWithDefault
340
1D
  0
ACDBPLACEHOLDER
  5
1D
102
{ACAD_REACTORS
330
1F
102
}
  0
LAYOUT
  5
20
102
{ACAD_REACTORS
330
1E
102
}
100
AcDbPlotSettings
  1

  2

  4

  6

 40
0.0
 41
0.0
 42
0.0
 43
0.0
 44
0.0
 45
0.0
 46
0.0
 47
0.0
 48
0.0
 49
0.0
140
0.0
141
0.0
142
1.0
143
1.0
 70
  1024
 72
     0
 73
     0
 74
     0
  7

 75
     0
147
1.0
148
0.0
149
0.0
100
AcDbLayout
  1
Model
 70
     0
 71
     0
 10
0.0
 20
0.0
 11
0.0
 21
0.0
 12
0.0
 22
0.0
 32
0.0
 14
0.0
 24
0.0
 34
0.0
 15
0.0
 25
0.0
 35
0.0
146
0.0
 13
0.0
 23
0.0
 33
0.0
 16
0.0
 26
0.0
 36
0.0
 17
0.0
 27
0.0
 37
0.0
 76
     0
330
A
331
0
345
0
346
0
  0
LAYOUT
  5
21
102
{ACAD_REACTORS
330
1E
102
}
100
AcDbPlotSettings
  1

  2

  4

  6

 40
0.0
 41
0.0
 42
0.0
 43
0.0
 44
0.0
 45
0.0
 46
0.0
 47
0.0
 48
0.0
 49
0.0
140
0.0
141
0.0
142
1.0
143
1.0
 70
     0
 72
     0
 73
     0
 74
     0
  7

 75
     0
147
1.0
148
0.0
149
0.0
100
AcDbLayout
  1
Layout1
 70
     0
 71
     0
 10
0.0
 20
0.0
 11
0.0
 21
0.0
 12
0.0
 22
0.0
 32
0.0
 14
0.0
 24
0.0
 34
0.0
 15
0.0
 25
0.0
 35
0.0
146
0.0
 13
0.0
 23
0.0
 33
0.0
 16
0.0
 26
0.0
 36
0.0
 17
0.0
 27
0.0
 37
0.0
 76
     0
330
B
331
0
345
0
346
0
  0
DICTIONARY
  5
1E
102
{ACAD_REACTORS
330
19
102
}
100
AcDbDictionary
280
     0
281
     1
  3
Layout1
350
21
  3
Model
350
20
  0
DICTIONARY
  5
22
102
{ACAD_REACTORS
330
19
102
}
100
AcDbDictionary
280
     0
281
     1
  0
WIPEOUTVARIABLES
  5
23
100
AcDbWipeoutVariables
 70
     1
  0
XRECORD
  5
79E
100
AcDbXrecord
280
     1
  1
DWGPROPS COOKIE
  2

  3

  4

  6

  7

  8
YP81315
  9

300
=
301
=
302
=
303
=
304
=
305
=
306
=
307
=
308
=
309
=
 40
0.0
 41
2456812.582187
 42
2456812.582187
  1

 90
        0
  0
ENDSEC
  0
EOF
