  0
SECTION
  2
HEADER
  9
$ACADVER
  1
AC1015
  9
$ACADMAINTVER
 70
     6
  9
$DWGCODEPAGE
  3
ANSI_932
  9
$INSBASE
 10
0.0
 20
0.0
 30
0.0
  9
$EXTMIN
 10
1.000000E+20
 20
1.000000E+20
 30
1.000000E+20
  9
$EXTMAX
 10
-1.000000E+20
 20
-1.000000E+20
 30
-1.000000E+20
  9
$LIMMIN
 10
0.0
 20
0.0
  9
$LIMMAX
 10
0.0
 20
0.0
  9
$ORTHOMODE
 70
     0
  9
$REGENMODE
 70
     1
  9
$FILLMODE
 70
     1
  9
$QTEXTMODE
 70
     0
  9
$MIRRTEXT
 70
     1
  9
$LTSCALE
 40
1.0
  9
$ATTMODE
 70
     1
  9
$TEXTSIZE
 40
3.3
  9
$TRACEWID
 40
0.05
  9
$TEXTSTYLE
  7
Standard
  9
$CLAYER
  8
0
  9
$CELTYPE
  6
Continuous
  9
$CECOLOR
 62
   256
  9
$CELTSCALE
 40
1.0
  9
$DISPSILH
 70
     0
  9
$DIMSCALE
 40
1.0
  9
$DIMASZ
 40
1.931852
  9
$DIMEXO
 40
1.0
  9
$DIMDLI
 40
0.38
  9
$DIMRND
 40
0.0
  9
$DIMDLE
 40
0.0
  9
$DIMEXE
 40
2.0
  9
$DIMTP
 40
0.0
  9
$DIMTM
 40
0.0
  9
$DIMTXT
 40
3.2
  9
$DIMCEN
 40
0.09
  9
$DIMTSZ
 40
0.0
  9
$DIMTOL
 70
     0
  9
$DIMLIM
 70
     0
  9
$DIMTIH
 70
     1
  9
$DIMTOH
 70
     1
  9
$DIMSE1
 70
     0
  9
$DIMSE2
 70
     0
  9
$DIMTAD
 70
     1
  9
$DIMZIN
 70
     0
  9
$DIMBLK
  1

  9
$DIMASO
 70
     1
  9
$DIMSHO
 70
     1
  9
$DIMPOST
  1

  9
$DIMAPOST
  1

  9
$DIMALT
 70
     0
  9
$DIMALTD
 70
     2
  9
$DIMALTF
 40
25.4
  9
$DIMLFAC
 40
1.0
  9
$DIMTOFL
 70
     0
  9
$DIMTVP
 40
0.0
  9
$DIMTIX
 70
     0
  9
$DIMSOXD
 70
     0
  9
$DIMSAH
 70
     0
  9
$DIMBLK1
  1

  9
$DIMBLK2
  1

  9
$DIMSTYLE
  2
Standard
  9
$DIMCLRD
 70
     0
  9
$DIMCLRE
 70
     0
  9
$DIMCLRT
 70
     0
  9
$DIMTFAC
 40
0.714286
  9
$DIMGAP
 40
0.09
  9
$DIMJUST
 70
     0
  9
$DIMSD1
 70
     0
  9
$DIMSD2
 70
     0
  9
$DIMTOLJ
 70
     1
  9
$DIMTZIN
 70
     0
  9
$DIMALTZ
 70
     0
  9
$DIMALTTZ
 70
     0
  9
$DIMUPT
 70
     0
  9
$DIMDEC
 70
     4
  9
$DIMTDEC
 70
     4
  9
$DIMALTU
 70
     2
  9
$DIMALTTD
 70
     2
  9
$DIMTXSTY
  7
Standard
  9
$DIMAUNIT
 70
     0
  9
$DIMADEC
 70
     0
  9
$DIMALTRND
 40
0.0
  9
$DIMAZIN
 70
     0
  9
$DIMDSEP
 70
     0
  9
$DIMATFIT
 70
     3
  9
$DIMFRAC
 70
     0
  9
$DIMLDRBLK
  1

  9
$DIMLUNIT
 70
     2
  9
$DIMLWD
 70
     0
  9
$DIMLWE
 70
     0
  9
$DIMTMOVE
 70
     0
  9
$LUNITS
 70
     2
  9
$LUPREC
 70
     3
  9
$SKETCHINC
 40
0.1
  9
$FILLETRAD
 40
0.0
  9
$AUNITS
 70
     0
  9
$AUPREC
 70
     0
  9
$MENU
  1
acad
  9
$ELEVATION
 40
0.0
  9
$PELEVATION
 40
0.0
  9
$THICKNESS
 40
0.0
  9
$LIMCHECK
 70
     0
  9
$CHAMFERA
 40
0.0
  9
$CHAMFERB
 40
0.0
  9
$CHAMFERC
 40
0.0
  9
$CHAMFERD
 40
0.0
  9
$SKPOLY
 70
     0
  9
$TDCREATE
 40
0.000000000
  9
$TDUCREATE
 40
0.000000000
  9
$TDUPDATE
 40
0.000000000
  9
$TDUUPDATE
 40
0.000000000
  9
$TDINDWG
 40
0.0000000000
  9
$TDUSRTIMER
 40
0.0000000000
  9
$USRTIMER
 70
     1
  9
$ANGBASE
 50
0.0
  9
$ANGDIR
 70
     0
  9
$PDMODE
 70
     0
  9
$PDSIZE
 40
0.0
  9
$PLINEWID
 40
0.0
  9
$SPLFRAME
 70
     0
  9
$SPLINETYPE
 70
     6
  9
$SPLINESEGS
 70
     8
  9
$HANDSEED
  5
5DD
  9
$SURFTAB1
 70
     6
  9
$SURFTAB2
 70
     6
  9
$SURFTYPE
 70
     6
  9
$SURFU
 70
     6
  9
$SURFV
 70
     6
  9
$UCSBASE
  2

  9
$UCSNAME
  2

  9
$UCSORG
 10
0.0
 20
0.0
 30
0.0
  9
$UCSXDIR
 10
1.0
 20
0.0
 30
0.0
  9
$UCSYDIR
 10
0.0
 20
1.0
 30
0.0
  9
$UCSORTHOREF
  2

  9
$UCSORTHOVIEW
 70
     0
  9
$UCSORGTOP
 10
0.0
 20
0.0
 30
0.0
  9
$UCSORGBOTTOM
 10
0.0
 20
0.0
 30
0.0
  9
$UCSORGLEFT
 10
0.0
 20
0.0
 30
0.0
  9
$UCSORGRIGHT
 10
0.0
 20
0.0
 30
0.0
  9
$UCSORGFRONT
 10
0.0
 20
0.0
 30
0.0
  9
$UCSORGBACK
 10
0.0
 20
0.0
 30
0.0
  9
$PUCSBASE
  2

  9
$PUCSNAME
  2

  9
$PUCSORG
 10
0.0
 20
0.0
 30
0.0
  9
$PUCSXDIR
 10
1.0
 20
0.0
 30
0.0
  9
$PUCSYDIR
 10
0.0
 20
1.0
 30
0.0
  9
$PUCSORTHOREF
  2

  9
$PUCSORTHOVIEW
 70
     0
  9
$PUCSORGTOP
 10
0.0
 20
0.0
 30
0.0
  9
$PUCSORGBOTTOM
 10
0.0
 20
0.0
 30
0.0
  9
$PUCSORGLEFT
 10
0.0
 20
0.0
 30
0.0
  9
$PUCSORGRIGHT
 10
0.0
 20
0.0
 30
0.0
  9
$PUCSORGFRONT
 10
0.0
 20
0.0
 30
0.0
  9
$PUCSORGBACK
 10
0.0
 20
0.0
 30
0.0
  9
$USERI1
 70
     0
  9
$USERI2
 70
     0
  9
$USERI3
 70
     0
  9
$USERI4
 70
     0
  9
$USERI5
 70
     0
  9
$USERR1
 40
0.0
  9
$USERR2
 40
0.0
  9
$USERR3
 40
0.0
  9
$USERR4
 40
0.0
  9
$USERR5
 40
0.0
  9
$WORLDVIEW
 70
     1
  9
$SHADEDGE
 70
     3
  9
$SHADEDIF
 70
    70
  9
$TILEMODE
 70
     1
  9
$MAXACTVP
 70
    16
  9
$PINSBASE
 10
0.0
 20
0.0
 30
0.0
  9
$PLIMCHECK
 70
     0
  9
$PEXTMIN
 10
1.000000E+20
 20
1.000000E+20
 30
1.000000E+20
  9
$PEXTMAX
 10
-1.000000E+20
 20
-1.000000E+20
 30
-1.000000E+20
  9
$PLIMMIN
 10
0.0
 20
0.0
  9
$PLIMMAX
 10
12.0
 20
9.0
  9
$UNITMODE
 70
     0
  9
$VISRETAIN
 70
     0
  9
$PLINEGEN
 70
     1
  9
$PSLTSCALE
 70
     0
  9
$TREEDEPTH
 70
  3020
  9
$CMLSTYLE
  2
Standard
  9
$CMLJUST
 70
     0
  9
$CMLSCALE
 40
1.0
  9
$PROXYGRAPHICS
 70
     0
  9
$MEASUREMENT
 70
     0
  9
$CELWEIGHT
370
     0
  9
$ENDCAPS
280
     0
  9
$JOINSTYLE
280
     0
  9
$LWDISPLAY
290
     0
  9
$INSUNITS
 70
     0
  9
$HYPERLINKBASE
  1

  9
$STYLESHEET
  1

  9
$XEDIT
290
     1
  9
$CEPSNTYPE
380
     0
  9
$PSTYLEMODE
290
     1
  9
$FINGERPRINTGUID
  2

  9
$VERSIONGUID
  2

  9
$EXTNAMES
290
     1
  9
$PSVPSCALE
 40
0.0
  0
ENDSEC
  0
SECTION
  2
CLASSES
  0
CLASS
  1
LWPOLYLINE
  2
AcDbPolyline
  3
AutoCAD 2000
 90
        0
280
     0
281
     1
  0
CLASS
  1
IMAGE
  2
AcDbRasterImage
  3
ISM
 90
      127
280
     0
281
     1
  0
CLASS
  1
OLE2FRAME
  2
AcDbOle2Frame
  3
AutoCAD 2000
 90
        0
280
     0
281
     1
  0
CLASS
  1
HATCH
  2
AcDbHatch
  3
AutoCAD 2000
 90
        0
280
     0
281
     1
  0
CLASS
  1
DICTIONARYVAR
  2
AcDbDictionaryVar
  3
AutoCAD 2000
 90
        0
280
     0
281
     0
  0
CLASS
  1
RASTERVARIABLES
  2
AcDbRasterVariables
  3
ISM
 90
        0
280
     0
281
     0
  0
CLASS
  1
IMAGEDEF
  2
AcDbRasterImageDef
  3
ISM
 90
        0
280
     0
281
     0
  0
CLASS
  1
IMAGEDEF_REACTOR
  2
AcDbRasterImageDefReactor
  3
ISM
 90
        1
280
     0
281
     0
  0
CLASS
  1
IDBUFFER
  2
AcDbIdBuffer
  3
AutoCAD 2000
 90
        0
280
     0
281
     0
  0
CLASS
  1
SPATIAL_FILTER
  2
AcDbSpatialFilter
  3
AutoCAD 2000
 90
        0
280
     0
281
     0
  0
CLASS
  1
XRECORD
  2
AcDbXrecord
  3
AutoCAD 2000
 90
        0
280
     0
281
     0
  0
CLASS
  1
SORTENTSTABLE
  2
AcDbSortentsTable
  3
AutoCAD 2000
 90
        0
280
     0
281
     0
  0
CLASS
  1
LAYER_INDEX
  2
AcDbLayerIndex
  3
AutoCAD 2000
 90
        0
280
     0
281
     0
  0
CLASS
  1
SPATIAL_INDEX
  2
AcDbSpatialIndex
  3
AutoCAD 2000
 90
        0
280
     0
281
     0
  0
CLASS
  1
OBJECT_PTR
  2
CAseDLPNTableRecord
  3
"ASE-LPNTableRecord"
 90
        1
280
     0
281
     0
  0
CLASS
  1
LAYOUT
  2
AcDbLayout
  3
AutoCAD 2000
 90
        0
280
     0
281
     0
  0
CLASS
  1
PLOTSETTINGS
  2
AcDbPlotSettings
  3
AutoCAD 2000
 90
        0
280
     0
281
     0
  0
CLASS
  1
ACDBDICTIONARYWDFLT
  2
AcDbDictionaryWithDefault
  3
AutoCAD 2000
 90
        0
280
     0
281
     0
  0
CLASS
  1
ACDBPLACEHOLDER
  2
AcDbPlaceHolder
  3
AutoCAD 2000
 90
        0
280
     0
281
     0
  0
CLASS
  1
VBA_PROJECT
  2
AcDbVbaProject
  3
acadvba
 90
        0
280
     0
281
     0
  0
CLASS
  1
WIPEOUT
  2
AcDbWipeout
  3
WipeOut|AutoCAD Express Tool|expresstools@autodesk.com
 90
      127
280
     0
281
     1
  0
CLASS
  1
WIPEOUTVARIABLES
  2
AcDbWipeoutVariables
  3
WipeOut|AutoCAD Express Tool|expresstools@autodesk.com
 90
        0
280
     0
281
     0
  0
CLASS
  1
RTEXT
  2
RText
  3
RText|AutoCAD Express Tool|expresstools@autodesk.com
 90
        0
280
     0
281
     1
  0
CLASS
  1
ARCALIGNEDTEXT
  2
AcDbArcAlignedText
  3
ATEXT|AutoCAD Express Tool|expresstools@autodesk.com
 90
        0
280
     0
281
     1
  0
ENDSEC
  0
SECTION
  2
TABLES
  0
TABLE
  2
VPORT
  5
7
100
AcDbSymbolTable
 70
     1
  0
VPORT
  5
15
100
AcDbSymbolTableRecord
100
AcDbViewportTableRecord
  2
*ACTIVE
 70
     0
 10
0.0
 20
0.0
 11
1.0
 21
1.0
 12
0.0
 22
0.0
 13
0.0
 23
0.0
 14
1.0
 24
1.0
 15
0.0
 25
0.0
 16
0.0
 26
0.0
 36
1.0
 17
0.0
 27
0.0
 37
0.0
 40
100.0
 41
1.0
 42
50.0
 43
0.0
 44
0.0
 50
0.0
 51
0.0
 71
     0
 72
   100
 73
     1
 74
     1
 75
     0
 76
     0
 77
     0
 78
     0
281
     0
 65
     0
110
0.0
120
0.0
130
0.0
111
1.0
121
0.0
131
0.0
112
0.0
122
1.0
132
0.0
345
0
346
0
 79
     0
146
0.0
  0
ENDTAB
  0
TABLE
  2
LTYPE
  5
4
100
AcDbSymbolTable
 70
     7
  0
LTYPE
  5
11
100
AcDbSymbolTableRecord
100
AcDbLinetypeTableRecord
  2
ByBlock
 70
    64
  3

 72
    65
 73
     0
 40
0.0
  0
LTYPE
  5
12
100
AcDbSymbolTableRecord
100
AcDbLinetypeTableRecord
  2
ByLayer
 70
    64
  3

 72
    65
 73
     0
 40
0.0
  0
LTYPE
  5
13
100
AcDbSymbolTableRecord
100
AcDbLinetypeTableRecord
  2
Continuous
 70
    64
  3
Solid line
 72
    65
 73
     0
 40
0.0
  0
LTYPE
  5
24
100
AcDbSymbolTableRecord
100
AcDbLinetypeTableRecord
  2
DASHED
 70
    64
  3
Dashed __ __ __ __ __ __ __ __ __ __ __ __ __ _
 72
    65
 73
     2
 40
0.75
 49
0.5
 74
     0
 49
-0.25
 74
     0
  0
LTYPE
  5
25
100
AcDbSymbolTableRecord
100
AcDbLinetypeTableRecord
  2
CENTER
 70
    64
  3
Center ____ _ ____ _ ____ _ ____ _ ____ _ ____
 72
    65
 73
     4
 40
1.0
 49
0.5
 74
     0
 49
-0.25
 74
     0
 49
0.0
 74
     0
 49
-0.25
 74
     0
  0
LTYPE
  5
26
100
AcDbSymbolTableRecord
100
AcDbLinetypeTableRecord
  2
DIVIDE
 70
    64
  3
Divide ____ . . ____ . . ____ . . ____ . . ____
 72
    65
 73
     6
 40
1.25
 49
0.5
 74
     0
 49
-0.25
 74
     0
 49
0.0
 74
     0
 49
-0.25
 74
     0
 49
0.0
 74
     0
 49
-0.25
 74
     0
  0
LTYPE
  5
27
100
AcDbSymbolTableRecord
100
AcDbLinetypeTableRecord
  2
PHANTOM
 70
    64
  3
Phantom ______  __  __  ______  __  __  ______
 72
    65
 73
     6
 40
9.0
 49
4.3
 74
     0
 49
-0.7
 74
     0
 49
1.3
 74
     0
 49
-0.7
 74
     0
 49
1.3
 74
     0
 49
-0.7
 74
     0
  0
ENDTAB
  0
TABLE
  2
LAYER
  5
2
100
AcDbSymbolTable
 70
     1
  0
LAYER
  5
14
100
AcDbSymbolTableRecord
100
AcDbLayerTableRecord
  2
0
 70
    64
 62
   102
  6
Continuous
290
     1
370
    -3
390
1D
  0
ENDTAB
  0
TABLE
  2
STYLE
  5
3
100
AcDbSymbolTable
 70
     2
  0
STYLE
  5
17
100
AcDbSymbolTableRecord
100
AcDbTextStyleTableRecord
  2
Standard
 70
     0
 40
0.0
 41
1.0
 50
0.0
 71
     0
 42
0.0
  3
txt
  4

  0
STYLE
  5
5D6
100
AcDbSymbolTableRecord
100
AcDbTextStyleTableRecord
  2
ZU_SHPTB00001
 70
     0
 40
0.0
 41
1.0
 50
0.0
 71
     0
 42
0.0
  3
monotxt
  4
bigfont
  0
ENDTAB
  0
TABLE
  2
VIEW
  5
5
100
AcDbSymbolTable
 70
     0
  0
ENDTAB
  0
TABLE
  2
UCS
  5
6
100
AcDbSymbolTable
 70
     0
  0
ENDTAB
  0
TABLE
  2
APPID
  5
8
100
AcDbSymbolTable
 70
     1
  0
APPID
  5
16
100
AcDbSymbolTableRecord
100
AcDbRegAppTableRecord
  2
ACAD
 70
     0
  0
ENDTAB
  0
TABLE
  2
DIMSTYLE
  5
9
100
AcDbSymbolTable
 70
     1
100
AcDbDimStyleTable
 71
     0
  0
DIMSTYLE
105
18
100
AcDbSymbolTableRecord
100
AcDbDimStyleTableRecord
  2
Standard
 70
     0
  3

  4

 40
1.0
 41
0.18
 42
0.0625
 43
0.38
 44
0.18
 45
0.0
 46
0.0
 47
0.0
 48
0.0
 71
     0
 72
     0
 73
     1
 74
     1
 75
     0
 76
     0
 77
     0
 78
     0
 79
     0
140
0.18
141
0.09
142
0.0
143
25.4
144
1.0
145
0.0
146
1.0
147
0.09
148
0.0
170
     0
171
     2
172
     0
173
     0
174
     0
175
     0
176
     0
177
     0
178
     0
179
     0
271
     4
272
     4
273
     2
274
     2
275
     0
276
     0
277
     2
278
    46
279
     0
280
     0
281
     0
282
     0
283
     1
284
     0
285
     0
286
     0
288
     0
289
     3
340
17
341
0
342
0
343
0
344
0
371
    -2
372
    -2
  0
ENDTAB
  0
TABLE
  2
BLOCK_RECORD
  5
1
100
AcDbSymbolTable
 70
     9
  0
BLOCK_RECORD
  5
A
100
AcDbSymbolTableRecord
100
AcDbBlockTableRecord
  2
*MODEL_SPACE
340
20
  0
BLOCK_RECORD
  5
B
100
AcDbSymbolTableRecord
100
AcDbBlockTableRecord
  2
*PAPER_SPACE
340
21
  0
BLOCK_RECORD
  5
E6
100
AcDbSymbolTableRecord
100
AcDbBlockTableRecord
  2
ZU_SYM__USERS_HOME_SYMBOL_POO_SYM_B20_18
340
0
102
{BLKREFS
331
F1
102
}
  0
BLOCK_RECORD
  5
F2
100
AcDbSymbolTableRecord
100
AcDbBlockTableRecord
  2
ZU_SYM__USERS_HOME_SYMBOL_POO_SYM_B20_19
340
0
102
{BLKREFS
331
FE
102
}
  0
BLOCK_RECORD
  5
113
100
AcDbSymbolTableRecord
100
AcDbBlockTableRecord
  2
ZU_SYM__USERS_HOME_SYMBOL_POO_SYM_B20_0000119
340
0
102
{BLKREFS
331
11F
102
}
  0
BLOCK_RECORD
  5
127
100
AcDbSymbolTableRecord
100
AcDbBlockTableRecord
  2
ZU_SYM__USERS_HOME_SYMBOL_POO_SYM_B20_0000219
340
0
102
{BLKREFS
331
133
102
}
  0
BLOCK_RECORD
  5
140
100
AcDbSymbolTableRecord
100
AcDbBlockTableRecord
  2
ZU_SYM__USERS_HOME_SYMBOL_POO_SYM_B20_0000319
340
0
102
{BLKREFS
331
14C
102
}
  0
BLOCK_RECORD
  5
5A6
100
AcDbSymbolTableRecord
100
AcDbBlockTableRecord
  2
ZU_SYM__USERS_HOME_SYMBOL_POO_SYM_S07_15
340
0
102
{BLKREFS
331
5B1
102
}
  0
BLOCK_RECORD
  5
5B2
100
AcDbSymbolTableRecord
100
AcDbBlockTableRecord
  2
ZU_SYM__USERS_HOME_SYMBOL_POO_SYM_S07_0000415
340
0
102
{BLKREFS
331
5BD
102
}
  0
BLOCK_RECORD
  5
5BE
100
AcDbSymbolTableRecord
100
AcDbBlockTableRecord
  2
ZU_SYM__USERS_HOME_SYMBOL_POO_SYM_S07_0000515
340
0
102
{BLKREFS
331
5C9
102
}
  0
BLOCK_RECORD
  5
5CA
100
AcDbSymbolTableRecord
100
AcDbBlockTableRecord
  2
ZU_SYM__USERS_HOME_SYMBOL_POO_SYM_S07_0000615
340
0
102
{BLKREFS
331
5D5
102
}
  0
ENDTAB
  0
ENDSEC
  0
SECTION
  2
BLOCKS
  0
BLOCK
  5
D
100
AcDbEntity
  8
0
390
0
100
AcDbBlockBegin
  2
*MODEL_SPACE
 70
     0
 10
0.0
 20
0.0
 30
0.0
  3
*MODEL_SPACE
  1

  0
ENDBLK
  5
E
100
AcDbEntity
  8
0
390
0
100
AcDbBlockEnd
  0
BLOCK
  5
F
100
AcDbEntity
 67
     1
  8
0
390
0
100
AcDbBlockBegin
  2
*PAPER_SPACE
 70
     0
 10
0.0
 20
0.0
 30
0.0
  3
*PAPER_SPACE
  1

  0
ENDBLK
  5
10
100
AcDbEntity
 67
     1
  8
0
390
0
100
AcDbBlockEnd
  0
BLOCK
  5
E7
100
AcDbEntity
  8
0
390
0
100
AcDbBlockBegin
  2
ZU_SYM__USERS_HOME_SYMBOL_POO_SYM_B20_18
 70
    64
 10
0.0
 20
0.0
 30
0.0
  3
ZU_SYM__USERS_HOME_SYMBOL_POO_SYM_B20_18
  1

  0
LINE
  5
E8
100
AcDbEntity
  8
0
370
    -3
390
0
  6
Continuous
100
AcDbLine
 10
-7.499999
 20
6.5
 30
0.0
 11
-7.499999
 21
-6.5
 31
0.0
  0
LINE
  5
E9
100
AcDbEntity
  8
0
370
    -3
390
0
  6
Continuous
100
AcDbLine
 10
-7.499998
 20
-6.499999
 30
0.0
 11
-7.999999
 21
-5.63407
 31
0.0
  0
LINE
  5
EA
100
AcDbEntity
  8
0
370
    -3
390
0
  6
Continuous
100
AcDbLine
 10
-7.499999
 20
6.5
 30
0.0
 11
-7.999999
 21
5.633876
 31
0.0
  0
LINE
  5
EB
100
AcDbEntity
  8
0
370
    -3
390
0
  6
Continuous
100
AcDbLine
 10
0.0
 20
-6.5
 30
0.0
 11
-7.499998
 21
-6.5
 31
0.0
  0
LINE
  5
EC
100
AcDbEntity
  8
0
370
    -3
390
0
  6
Continuous
100
AcDbLine
 10
0.0
 20
6.5
 30
0.0
 11
-7.499999
 21
6.5
 31
0.0
  0
LINE
  5
ED
100
AcDbEntity
  8
0
370
    -3
390
0
  6
Continuous
100
AcDbLine
 10
-7.999999
 20
5.633876
 30
0.0
 11
-7.999999
 21
-5.63407
 31
0.0
  0
LINE
  5
EE
100
AcDbEntity
  8
0
370
    -3
390
0
  6
Continuous
100
AcDbLine
 10
0.0
 20
-6.5
 30
0.0
 11
0.0
 21
6.5
 31
0.0
  0
POINT
  5
EF
100
AcDbEntity
  8
0
370
    -3
390
0
  6
Continuous
100
AcDbPoint
 10
0.0
 20
0.0
 30
0.0
  0
ENDBLK
  5
F0
100
AcDbEntity
  8
0
390
0
100
AcDbBlockEnd
  0
BLOCK
  5
F3
100
AcDbEntity
  8
0
390
0
100
AcDbBlockBegin
  2
ZU_SYM__USERS_HOME_SYMBOL_POO_SYM_B20_19
 70
    64
 10
0.0
 20
0.0
 30
0.0
  3
ZU_SYM__USERS_HOME_SYMBOL_POO_SYM_B20_19
  1

  0
LINE
  5
F4
100
AcDbEntity
  8
0
370
    -3
390
0
  6
Continuous
100
AcDbLine
 10
-9.4
 20
8.0
 30
0.0
 11
-9.4
 21
-8.0
 31
0.0
  0
LINE
  5
F5
100
AcDbEntity
  8
0
370
    -3
390
0
  6
Continuous
100
AcDbLine
 10
-9.399999
 20
-7.999999
 30
0.0
 11
-9.999998
 21
-6.96091
 31
0.0
  0
LINE
  5
F6
100
AcDbEntity
  8
0
370
    -3
390
0
  6
Continuous
100
AcDbLine
 10
-9.399996
 20
7.999998
 30
0.0
 11
-9.999996
 21
6.960609
 31
0.0
  0
POINT
  5
F7
100
AcDbEntity
  8
0
370
    -3
390
0
  6
Continuous
100
AcDbPoint
 10
0.0
 20
0.0
 30
0.0
  0
LINE
  5
F8
100
AcDbEntity
  8
0
370
    -3
390
0
  6
Continuous
100
AcDbLine
 10
0.0
 20
-8.0
 30
0.0
 11
-9.4
 21
-8.0
 31
0.0
  0
LINE
  5
F9
100
AcDbEntity
  8
0
370
    -3
390
0
  6
Continuous
100
AcDbLine
 10
0.0
 20
8.0
 30
0.0
 11
-9.4
 21
8.0
 31
0.0
  0
LINE
  5
FA
100
AcDbEntity
  8
0
370
    -3
390
0
  6
Continuous
100
AcDbLine
 10
-10.0
 20
6.960613
 30
0.0
 11
-10.0
 21
-6.960911
 31
0.0
  0
LINE
  5
FB
100
AcDbEntity
  8
0
370
    -3
390
0
  6
Continuous
100
AcDbLine
 10
0.0
 20
8.0
 30
0.0
 11
0.0
 21
-8.0
 31
0.0
  0
POINT
  5
FC
100
AcDbEntity
  8
0
370
    -3
390
0
  6
Continuous
100
AcDbPoint
 10
0.0
 20
0.0
 30
0.0
  0
ENDBLK
  5
FD
100
AcDbEntity
  8
0
390
0
100
AcDbBlockEnd
  0
BLOCK
  5
114
100
AcDbEntity
  8
0
390
0
100
AcDbBlockBegin
  2
ZU_SYM__USERS_HOME_SYMBOL_POO_SYM_B20_0000119
 70
    64
 10
0.0
 20
0.0
 30
0.0
  3
ZU_SYM__USERS_HOME_SYMBOL_POO_SYM_B20_0000119
  1

  0
LINE
  5
115
100
AcDbEntity
  8
0
370
    -3
390
0
  6
Continuous
100
AcDbLine
 10
-9.4
 20
8.0
 30
0.0
 11
-9.4
 21
-8.0
 31
0.0
  0
LINE
  5
116
100
AcDbEntity
  8
0
370
    -3
390
0
  6
Continuous
100
AcDbLine
 10
-9.399999
 20
-7.999999
 30
0.0
 11
-9.999998
 21
-6.96091
 31
0.0
  0
LINE
  5
117
100
AcDbEntity
  8
0
370
    -3
390
0
  6
Continuous
100
AcDbLine
 10
-9.399996
 20
7.999998
 30
0.0
 11
-9.999996
 21
6.960609
 31
0.0
  0
POINT
  5
118
100
AcDbEntity
  8
0
370
    -3
390
0
  6
Continuous
100
AcDbPoint
 10
0.0
 20
0.0
 30
0.0
  0
LINE
  5
119
100
AcDbEntity
  8
0
370
    -3
390
0
  6
Continuous
100
AcDbLine
 10
0.0
 20
-8.0
 30
0.0
 11
-9.4
 21
-8.0
 31
0.0
  0
LINE
  5
11A
100
AcDbEntity
  8
0
370
    -3
390
0
  6
Continuous
100
AcDbLine
 10
0.0
 20
8.0
 30
0.0
 11
-9.4
 21
8.0
 31
0.0
  0
LINE
  5
11B
100
AcDbEntity
  8
0
370
    -3
390
0
  6
Continuous
100
AcDbLine
 10
-10.0
 20
6.960613
 30
0.0
 11
-10.0
 21
-6.960911
 31
0.0
  0
LINE
  5
11C
100
AcDbEntity
  8
0
370
    -3
390
0
  6
Continuous
100
AcDbLine
 10
0.0
 20
8.0
 30
0.0
 11
0.0
 21
-8.0
 31
0.0
  0
POINT
  5
11D
100
AcDbEntity
  8
0
370
    -3
390
0
  6
Continuous
100
AcDbPoint
 10
0.0
 20
0.0
 30
0.0
  0
ENDBLK
  5
11E
100
AcDbEntity
  8
0
390
0
100
AcDbBlockEnd
  0
BLOCK
  5
128
100
AcDbEntity
  8
0
390
0
100
AcDbBlockBegin
  2
ZU_SYM__USERS_HOME_SYMBOL_POO_SYM_B20_0000219
 70
    64
 10
0.0
 20
0.0
 30
0.0
  3
ZU_SYM__USERS_HOME_SYMBOL_POO_SYM_B20_0000219
  1

  0
LINE
  5
129
100
AcDbEntity
  8
0
370
    -3
390
0
  6
Continuous
100
AcDbLine
 10
-9.4
 20
8.0
 30
0.0
 11
-9.4
 21
-8.0
 31
0.0
  0
LINE
  5
12A
100
AcDbEntity
  8
0
370
    -3
390
0
  6
Continuous
100
AcDbLine
 10
-9.399999
 20
-7.999999
 30
0.0
 11
-9.999998
 21
-6.96091
 31
0.0
  0
LINE
  5
12B
100
AcDbEntity
  8
0
370
    -3
390
0
  6
Continuous
100
AcDbLine
 10
-9.399996
 20
7.999998
 30
0.0
 11
-9.999996
 21
6.960609
 31
0.0
  0
POINT
  5
12C
100
AcDbEntity
  8
0
370
    -3
390
0
  6
Continuous
100
AcDbPoint
 10
0.0
 20
0.0
 30
0.0
  0
LINE
  5
12D
100
AcDbEntity
  8
0
370
    -3
390
0
  6
Continuous
100
AcDbLine
 10
0.0
 20
-8.0
 30
0.0
 11
-9.4
 21
-8.0
 31
0.0
  0
LINE
  5
12E
100
AcDbEntity
  8
0
370
    -3
390
0
  6
Continuous
100
AcDbLine
 10
0.0
 20
8.0
 30
0.0
 11
-9.4
 21
8.0
 31
0.0
  0
LINE
  5
12F
100
AcDbEntity
  8
0
370
    -3
390
0
  6
Continuous
100
AcDbLine
 10
-10.0
 20
6.960613
 30
0.0
 11
-10.0
 21
-6.960911
 31
0.0
  0
LINE
  5
130
100
AcDbEntity
  8
0
370
    -3
390
0
  6
Continuous
100
AcDbLine
 10
0.0
 20
8.0
 30
0.0
 11
0.0
 21
-8.0
 31
0.0
  0
POINT
  5
131
100
AcDbEntity
  8
0
370
    -3
390
0
  6
Continuous
100
AcDbPoint
 10
0.0
 20
0.0
 30
0.0
  0
ENDBLK
  5
132
100
AcDbEntity
  8
0
390
0
100
AcDbBlockEnd
  0
BLOCK
  5
141
100
AcDbEntity
  8
0
390
0
100
AcDbBlockBegin
  2
ZU_SYM__USERS_HOME_SYMBOL_POO_SYM_B20_0000319
 70
    64
 10
0.0
 20
0.0
 30
0.0
  3
ZU_SYM__USERS_HOME_SYMBOL_POO_SYM_B20_0000319
  1

  0
LINE
  5
142
100
AcDbEntity
  8
0
370
    -3
390
0
  6
Continuous
100
AcDbLine
 10
-9.4
 20
8.0
 30
0.0
 11
-9.4
 21
-8.0
 31
0.0
  0
LINE
  5
143
100
AcDbEntity
  8
0
370
    -3
390
0
  6
Continuous
100
AcDbLine
 10
-9.399999
 20
-7.999999
 30
0.0
 11
-9.999998
 21
-6.96091
 31
0.0
  0
LINE
  5
144
100
AcDbEntity
  8
0
370
    -3
390
0
  6
Continuous
100
AcDbLine
 10
-9.399996
 20
7.999998
 30
0.0
 11
-9.999996
 21
6.960609
 31
0.0
  0
POINT
  5
145
100
AcDbEntity
  8
0
370
    -3
390
0
  6
Continuous
100
AcDbPoint
 10
0.0
 20
0.0
 30
0.0
  0
LINE
  5
146
100
AcDbEntity
  8
0
370
    -3
390
0
  6
Continuous
100
AcDbLine
 10
0.0
 20
-8.0
 30
0.0
 11
-9.4
 21
-8.0
 31
0.0
  0
LINE
  5
147
100
AcDbEntity
  8
0
370
    -3
390
0
  6
Continuous
100
AcDbLine
 10
0.0
 20
8.0
 30
0.0
 11
-9.4
 21
8.0
 31
0.0
  0
LINE
  5
148
100
AcDbEntity
  8
0
370
    -3
390
0
  6
Continuous
100
AcDbLine
 10
-10.0
 20
6.960613
 30
0.0
 11
-10.0
 21
-6.960911
 31
0.0
  0
LINE
  5
149
100
AcDbEntity
  8
0
370
    -3
390
0
  6
Continuous
100
AcDbLine
 10
0.0
 20
8.0
 30
0.0
 11
0.0
 21
-8.0
 31
0.0
  0
POINT
  5
14A
100
AcDbEntity
  8
0
370
    -3
390
0
  6
Continuous
100
AcDbPoint
 10
0.0
 20
0.0
 30
0.0
  0
ENDBLK
  5
14B
100
AcDbEntity
  8
0
390
0
100
AcDbBlockEnd
  0
BLOCK
  5
5A7
100
AcDbEntity
  8
0
390
0
100
AcDbBlockBegin
  2
ZU_SYM__USERS_HOME_SYMBOL_POO_SYM_S07_15
 70
    64
 10
0.0
 20
0.0
 30
0.0
  3
ZU_SYM__USERS_HOME_SYMBOL_POO_SYM_S07_15
  1

  0
ARC
  5
5A8
100
AcDbEntity
  8
0
370
    -3
390
0
  6
Continuous
100
AcDbCircle
 10
-0.979025
 20
-2.200001
 30
0.0
 40
1.299999
100
AcDbArc
 50
196.601531
 51
270.0
  0
ARC
  5
5A9
100
AcDbEntity
  8
0
370
    -3
390
0
  6
Continuous
100
AcDbCircle
 10
-0.979025
 20
2.200001
 30
0.0
 40
1.299999
100
AcDbArc
 50
90.0
 51
163.398452
  0
LINE
  5
5AA
100
AcDbEntity
  8
0
370
    -3
390
0
  6
Continuous
100
AcDbLine
 10
0.0
 20
-3.5
 30
0.0
 11
-0.979025
 21
-3.5
 31
0.0
  0
LINE
  5
5AB
100
AcDbEntity
  8
0
370
    -3
390
0
  6
Continuous
100
AcDbLine
 10
0.0
 20
3.5
 30
0.0
 11
-0.979025
 21
3.5
 31
0.0
  0
LINE
  5
5AC
100
AcDbEntity
  8
0
370
    -3
390
0
  6
Continuous
100
AcDbLine
 10
0.0
 20
-3.5
 30
0.0
 11
0.0
 21
3.5
 31
0.0
  0
LINE
  5
5AD
100
AcDbEntity
  8
0
370
    -3
390
0
  6
Continuous
100
AcDbLine
 10
0.0
 20
-3.5
 30
0.0
 11
0.0
 21
3.5
 31
0.0
  0
POINT
  5
5AE
100
AcDbEntity
  8
0
370
    -3
390
0
  6
Continuous
100
AcDbPoint
 10
0.0
 20
0.0
 30
0.0
  0
ARC
  5
5AF
100
AcDbEntity
  8
0
370
    -3
390
0
  6
Continuous
100
AcDbCircle
 10
6.4
 20
0.0
 30
0.0
 40
9.0
100
AcDbArc
 50
163.398452
 51
196.601531
  0
ENDBLK
  5
5B0
100
AcDbEntity
  8
0
390
0
100
AcDbBlockEnd
  0
BLOCK
  5
5B3
100
AcDbEntity
  8
0
390
0
100
AcDbBlockBegin
  2
ZU_SYM__USERS_HOME_SYMBOL_POO_SYM_S07_0000415
 70
    64
 10
0.0
 20
0.0
 30
0.0
  3
ZU_SYM__USERS_HOME_SYMBOL_POO_SYM_S07_0000415
  1

  0
ARC
  5
5B4
100
AcDbEntity
  8
0
370
    -3
390
0
  6
Continuous
100
AcDbCircle
 10
-0.979025
 20
-2.200001
 30
0.0
 40
1.299999
100
AcDbArc
 50
196.601531
 51
270.0
  0
ARC
  5
5B5
100
AcDbEntity
  8
0
370
    -3
390
0
  6
Continuous
100
AcDbCircle
 10
-0.979025
 20
2.200001
 30
0.0
 40
1.299999
100
AcDbArc
 50
90.0
 51
163.398452
  0
LINE
  5
5B6
100
AcDbEntity
  8
0
370
    -3
390
0
  6
Continuous
100
AcDbLine
 10
0.0
 20
-3.5
 30
0.0
 11
-0.979025
 21
-3.5
 31
0.0
  0
LINE
  5
5B7
100
AcDbEntity
  8
0
370
    -3
390
0
  6
Continuous
100
AcDbLine
 10
0.0
 20
3.5
 30
0.0
 11
-0.979025
 21
3.5
 31
0.0
  0
LINE
  5
5B8
100
AcDbEntity
  8
0
370
    -3
390
0
  6
Continuous
100
AcDbLine
 10
0.0
 20
-3.5
 30
0.0
 11
0.0
 21
3.5
 31
0.0
  0
LINE
  5
5B9
100
AcDbEntity
  8
0
370
    -3
390
0
  6
Continuous
100
AcDbLine
 10
0.0
 20
-3.5
 30
0.0
 11
0.0
 21
3.5
 31
0.0
  0
POINT
  5
5BA
100
AcDbEntity
  8
0
370
    -3
390
0
  6
Continuous
100
AcDbPoint
 10
0.0
 20
0.0
 30
0.0
  0
ARC
  5
5BB
100
AcDbEntity
  8
0
370
    -3
390
0
  6
Continuous
100
AcDbCircle
 10
6.4
 20
0.0
 30
0.0
 40
9.0
100
AcDbArc
 50
163.398452
 51
196.601531
  0
ENDBLK
  5
5BC
100
AcDbEntity
  8
0
390
0
100
AcDbBlockEnd
  0
BLOCK
  5
5BF
100
AcDbEntity
  8
0
390
0
100
AcDbBlockBegin
  2
ZU_SYM__USERS_HOME_SYMBOL_POO_SYM_S07_0000515
 70
    64
 10
0.0
 20
0.0
 30
0.0
  3
ZU_SYM__USERS_HOME_SYMBOL_POO_SYM_S07_0000515
  1

  0
ARC
  5
5C0
100
AcDbEntity
  8
0
370
    -3
390
0
  6
Continuous
100
AcDbCircle
 10
-0.979025
 20
-2.200001
 30
0.0
 40
1.299999
100
AcDbArc
 50
196.601531
 51
270.0
  0
ARC
  5
5C1
100
AcDbEntity
  8
0
370
    -3
390
0
  6
Continuous
100
AcDbCircle
 10
-0.979025
 20
2.200001
 30
0.0
 40
1.299999
100
AcDbArc
 50
90.0
 51
163.398452
  0
LINE
  5
5C2
100
AcDbEntity
  8
0
370
    -3
390
0
  6
Continuous
100
AcDbLine
 10
0.0
 20
-3.5
 30
0.0
 11
-0.979025
 21
-3.5
 31
0.0
  0
LINE
  5
5C3
100
AcDbEntity
  8
0
370
    -3
390
0
  6
Continuous
100
AcDbLine
 10
0.0
 20
3.5
 30
0.0
 11
-0.979025
 21
3.5
 31
0.0
  0
LINE
  5
5C4
100
AcDbEntity
  8
0
370
    -3
390
0
  6
Continuous
100
AcDbLine
 10
0.0
 20
-3.5
 30
0.0
 11
0.0
 21
3.5
 31
0.0
  0
LINE
  5
5C5
100
AcDbEntity
  8
0
370
    -3
390
0
  6
Continuous
100
AcDbLine
 10
0.0
 20
-3.5
 30
0.0
 11
0.0
 21
3.5
 31
0.0
  0
POINT
  5
5C6
100
AcDbEntity
  8
0
370
    -3
390
0
  6
Continuous
100
AcDbPoint
 10
0.0
 20
0.0
 30
0.0
  0
ARC
  5
5C7
100
AcDbEntity
  8
0
370
    -3
390
0
  6
Continuous
100
AcDbCircle
 10
6.4
 20
0.0
 30
0.0
 40
9.0
100
AcDbArc
 50
163.398452
 51
196.601531
  0
ENDBLK
  5
5C8
100
AcDbEntity
  8
0
390
0
100
AcDbBlockEnd
  0
BLOCK
  5
5CB
100
AcDbEntity
  8
0
390
0
100
AcDbBlockBegin
  2
ZU_SYM__USERS_HOME_SYMBOL_POO_SYM_S07_0000615
 70
    64
 10
0.0
 20
0.0
 30
0.0
  3
ZU_SYM__USERS_HOME_SYMBOL_POO_SYM_S07_0000615
  1

  0
ARC
  5
5CC
100
AcDbEntity
  8
0
370
    -3
390
0
  6
Continuous
100
AcDbCircle
 10
-0.979025
 20
-2.200001
 30
0.0
 40
1.299999
100
AcDbArc
 50
196.601531
 51
270.0
  0
ARC
  5
5CD
100
AcDbEntity
  8
0
370
    -3
390
0
  6
Continuous
100
AcDbCircle
 10
-0.979025
 20
2.200001
 30
0.0
 40
1.299999
100
AcDbArc
 50
90.0
 51
163.398452
  0
LINE
  5
5CE
100
AcDbEntity
  8
0
370
    -3
390
0
  6
Continuous
100
AcDbLine
 10
0.0
 20
-3.5
 30
0.0
 11
-0.979025
 21
-3.5
 31
0.0
  0
LINE
  5
5CF
100
AcDbEntity
  8
0
370
    -3
390
0
  6
Continuous
100
AcDbLine
 10
0.0
 20
3.5
 30
0.0
 11
-0.979025
 21
3.5
 31
0.0
  0
LINE
  5
5D0
100
AcDbEntity
  8
0
370
    -3
390
0
  6
Continuous
100
AcDbLine
 10
0.0
 20
-3.5
 30
0.0
 11
0.0
 21
3.5
 31
0.0
  0
LINE
  5
5D1
100
AcDbEntity
  8
0
370
    -3
390
0
  6
Continuous
100
AcDbLine
 10
0.0
 20
-3.5
 30
0.0
 11
0.0
 21
3.5
 31
0.0
  0
POINT
  5
5D2
100
AcDbEntity
  8
0
370
    -3
390
0
  6
Continuous
100
AcDbPoint
 10
0.0
 20
0.0
 30
0.0
  0
ARC
  5
5D3
100
AcDbEntity
  8
0
370
    -3
390
0
  6
Continuous
100
AcDbCircle
 10
6.4
 20
0.0
 30
0.0
 40
9.0
100
AcDbArc
 50
163.398452
 51
196.601531
  0
ENDBLK
  5
5D4
100
AcDbEntity
  8
0
390
0
100
AcDbBlockEnd
  0
ENDSEC
  0
SECTION
  2
ENTITIES
  0
ARC
  5
28
100
AcDbEntity
  8
0
370
    -3
390
0
  6
Continuous
100
AcDbCircle
 10
-183.989226
 20
70.676413
 30
0.0
 40
9.0
100
AcDbArc
 50
253.398469
 51
286.601548
  0
ARC
  5
29
100
AcDbEntity
  8
0
370
    -3
390
0
  6
Continuous
100
AcDbCircle
 10
-185.989226
 20
63.693915
 30
0.0
 40
1.5
100
AcDbArc
 50
147.769047
 51
180.0
  0
ARC
  5
2A
100
AcDbEntity
  8
0
370
    -3
390
0
  6
Continuous
100
AcDbCircle
 10
-181.989226
 20
63.693915
 30
0.0
 40
1.5
100
AcDbArc
 50
0.0
 51
32.230953
  0
LINE
  5
2B
100
AcDbEntity
  8
0
370
    -3
390
0
  6
Continuous
100
AcDbLine
 10
-180.489226
 20
63.297388
 30
0.0
 11
-180.489226
 21
63.693915
 31
0.0
  0
ARC
  5
2C
100
AcDbEntity
  8
0
370
    -3
390
0
  6
Continuous
100
AcDbCircle
 10
-181.789226
 20
63.297388
 30
0.0
 40
1.299999
100
AcDbArc
 50
286.601531
 51
0.0
  0
ARC
  5
2D
100
AcDbEntity
  8
0
370
    -3
390
0
  6
Continuous
100
AcDbCircle
 10
-186.189227
 20
63.297388
 30
0.0
 40
1.299999
100
AcDbArc
 50
180.0
 51
253.398469
  0
LINE
  5
2E
100
AcDbEntity
  8
0
370
    -3
390
0
  6
Continuous
100
AcDbLine
 10
-187.489226
 20
63.297388
 30
0.0
 11
-187.489226
 21
63.693915
 31
0.0
  0
ARC
  5
2F
100
AcDbEntity
  8
0
370
    -3
390
0
  6
Continuous
100
AcDbCircle
 10
-507.27322
 20
-85.006085
 30
0.0
 40
10.0
100
AcDbArc
 50
270.0
 51
0.0
  0
LINE
  5
30
100
AcDbEntity
  8
0
370
    -3
390
0
  6
Continuous
100
AcDbLine
 10
-507.27322
 20
-95.006085
 30
0.0
 11
-528.27322
 21
-95.006085
 31
0.0
  0
ARC
  5
31
100
AcDbEntity
  8
0
370
    -3
390
0
  6
Continuous
100
AcDbCircle
 10
-528.27322
 20
-85.006085
 30
0.0
 40
10.0
100
AcDbArc
 50
180.0
 51
270.0
  0
LINE
  5
32
100
AcDbEntity
  8
0
370
    -3
390
0
  6
Continuous
100
AcDbLine
 10
-521.77322
 20
-47.84094
 30
0.0
 11
-521.77322
 21
-49.569688
 31
0.0
  0
LINE
  5
33
100
AcDbEntity
  8
0
370
    -3
390
0
  6
Continuous
100
AcDbLine
 10
-513.77322
 20
-47.84094
 30
0.0
 11
-513.77322
 21
-49.569688
 31
0.0
  0
LINE
  5
34
100
AcDbEntity
  8
0
370
    -3
390
0
  6
Continuous
100
AcDbLine
 10
-508.87528
 20
-61.569688
 30
0.0
 11
-509.561086
 21
-61.569688
 31
0.0
  0
LINE
  5
35
100
AcDbEntity
  8
0
370
    -3
390
0
  6
Continuous
100
AcDbLine
 10
-509.38002
 20
-51.569688
 30
0.0
 11
-517.77322
 21
-51.569688
 31
0.0
  0
LINE
  5
36
100
AcDbEntity
  8
0
370
    -3
390
0
  6
Continuous
100
AcDbLine
 10
-511.087392
 20
-49.569688
 30
0.0
 11
-517.77322
 21
-49.569688
 31
0.0
  0
LINE
  5
37
100
AcDbEntity
  8
0
370
    -3
390
0
  6
Continuous
100
AcDbLine
 10
-509.463822
 20
-62.569688
 30
0.0
 11
-517.77322
 21
-62.569688
 31
0.0
  0
LINE
  5
38
100
AcDbEntity
  8
0
370
    -3
390
0
  6
Continuous
100
AcDbLine
 10
-510.228762
 20
-63.569688
 30
0.0
 11
-517.77322
 21
-63.569688
 31
0.0
  0
LINE
  5
39
100
AcDbEntity
  8
0
370
    -3
390
0
  6
Continuous
100
AcDbLine
 10
-514.851387
 20
-66.569715
 30
0.0
 11
-517.77322
 21
-66.569715
 31
0.0
  0
LINE
  5
3A
100
AcDbEntity
  8
0
370
    -3
390
0
  6
Continuous
100
AcDbLine
 10
-520.695053
 20
-66.569715
 30
0.0
 11
-517.77322
 21
-66.569715
 31
0.0
  0
LINE
  5
3B
100
AcDbEntity
  8
0
370
    -3
390
0
  6
Continuous
100
AcDbLine
 10
-525.317678
 20
-63.569688
 30
0.0
 11
-517.77322
 21
-63.569688
 31
0.0
  0
LINE
  5
3C
100
AcDbEntity
  8
0
370
    -3
390
0
  6
Continuous
100
AcDbLine
 10
-526.082618
 20
-62.569688
 30
0.0
 11
-517.77322
 21
-62.569688
 31
0.0
  0
LINE
  5
3D
100
AcDbEntity
  8
0
370
    -3
390
0
  6
Continuous
100
AcDbLine
 10
-526.67116
 20
-61.569688
 30
0.0
 11
-525.985355
 21
-61.569688
 31
0.0
  0
LINE
  5
3E
100
AcDbEntity
  8
0
370
    -3
390
0
  6
Continuous
100
AcDbLine
 10
-526.16642
 20
-51.569688
 30
0.0
 11
-517.77322
 21
-51.569688
 31
0.0
  0
LINE
  5
3F
100
AcDbEntity
  8
0
370
    -3
390
0
  6
Continuous
100
AcDbLine
 10
-524.459049
 20
-49.569688
 30
0.0
 11
-517.77322
 21
-49.569688
 31
0.0
  0
LINE
  5
40
100
AcDbEntity
  8
0
370
    -3
390
0
  6
Continuous
100
AcDbLine
 10
-513.870265
 20
-51.569688
 30
0.0
 11
-513.870265
 21
-61.569688
 31
0.0
  0
LINE
  5
41
100
AcDbEntity
  8
0
370
    -3
390
0
  6
Continuous
100
AcDbLine
 10
-509.561086
 20
-51.569688
 30
0.0
 11
-509.561086
 21
-61.569688
 31
0.0
  0
LINE
  5
42
100
AcDbEntity
  8
0
370
    -3
390
0
  6
Continuous
100
AcDbLine
 10
-513.870265
 20
-61.569688
 30
0.0
 11
-517.77322
 21
-61.569688
 31
0.0
  0
LINE
  5
43
100
AcDbEntity
  8
0
370
    -3
390
0
  6
Continuous
100
AcDbLine
 10
-521.676175
 20
-51.569688
 30
0.0
 11
-521.676175
 21
-61.569688
 31
0.0
  0
LINE
  5
44
100
AcDbEntity
  8
0
370
    -3
390
0
  6
Continuous
100
AcDbLine
 10
-525.985355
 20
-51.569688
 30
0.0
 11
-525.985355
 21
-61.569688
 31
0.0
  0
LINE
  5
45
100
AcDbEntity
  8
0
370
    -3
390
0
  6
Continuous
100
AcDbLine
 10
-521.676175
 20
-61.569688
 30
0.0
 11
-517.77322
 21
-61.569688
 31
0.0
  0
CIRCLE
  5
46
100
AcDbEntity
  8
0
370
    -3
390
0
  6
Continuous
100
AcDbCircle
 10
-517.77322
 20
-57.006092
 30
0.0
 40
10.0
  0
LINE
  5
47
100
AcDbEntity
  8
0
370
    -3
390
0
  6
Continuous
100
AcDbLine
 10
-507.27322
 20
-95.006085
 30
0.0
 11
-528.27322
 21
-95.006085
 31
0.0
  0
LINE
  5
48
100
AcDbEntity
  8
0
370
    -3
390
0
  6
Continuous
100
AcDbLine
 10
-517.77322
 20
-384.006085
 30
0.0
 11
-598.042411
 21
-384.006085
 31
0.0
  0
ARC
  5
49
100
AcDbEntity
  8
0
370
    -3
390
0
  6
Continuous
100
AcDbCircle
 10
-592.211459
 20
-367.506085
 30
0.0
 40
17.5
100
AcDbArc
 50
206.539105
 51
250.537049
  0
ARC
  5
4A
100
AcDbEntity
  8
0
370
    -3
390
0
  6
Continuous
100
AcDbCircle
 10
-613.235255
 20
-378.006085
 30
0.0
 40
6.0
100
AcDbArc
 50
26.539105
 51
90.0
  0
ARC
  5
4B
100
AcDbEntity
  8
0
370
    -3
390
0
  6
Continuous
100
AcDbCircle
 10
-443.334981
 20
-367.506085
 30
0.0
 40
17.5
100
AcDbArc
 50
289.462951
 51
333.460895
  0
ARC
  5
4C
100
AcDbEntity
  8
0
370
    -3
390
0
  6
Continuous
100
AcDbCircle
 10
-422.311185
 20
-378.006085
 30
0.0
 40
6.0
100
AcDbArc
 50
90.0
 51
153.460895
  0
LINE
  5
4D
100
AcDbEntity
  8
0
370
    -3
390
0
  6
Continuous
100
AcDbLine
 10
-517.77322
 20
-384.006085
 30
0.0
 11
-437.504029
 21
-384.006085
 31
0.0
  0
ARC
  5
4E
100
AcDbEntity
  8
0
370
    -3
390
0
  6
Continuous
100
AcDbCircle
 10
-371.77322
 20
-252.006085
 30
0.0
 40
2.0
100
AcDbArc
 50
0.0
 51
90.0
  0
LINE
  5
4F
100
AcDbEntity
  8
0
370
    -3
390
0
  6
Continuous
100
AcDbLine
 10
-372.91407
 20
-250.006085
 30
0.0
 11
-371.77322
 21
-250.006085
 31
0.0
  0
ARC
  5
50
100
AcDbEntity
  8
0
370
    -3
390
0
  6
Continuous
100
AcDbCircle
 10
-371.77322
 20
-222.006085
 30
0.0
 40
2.0
100
AcDbArc
 50
270.0
 51
0.0
  0
LINE
  5
51
100
AcDbEntity
  8
0
370
    -3
390
0
  6
Continuous
100
AcDbLine
 10
-372.91407
 20
-224.006085
 30
0.0
 11
-371.77322
 21
-224.006085
 31
0.0
  0
ARC
  5
52
100
AcDbEntity
  8
0
370
    -3
390
0
  6
Continuous
100
AcDbCircle
 10
513.161226
 20
-187.006085
 30
0.0
 40
75.0
100
AcDbArc
 50
90.0
 51
0.0
  0
ARC
  5
53
100
AcDbEntity
  8
0
370
    -3
390
0
  6
DASHED
100
AcDbCircle
 10
366.987401
 20
-296.285178
 30
0.0
 40
1.0
100
AcDbArc
 50
156.0
 51
246.0
  0
ARC
  5
54
100
AcDbEntity
  8
0
370
    -3
390
0
  6
DASHED
100
AcDbCircle
 10
366.643723
 20
-292.191473
 30
0.0
 40
1.299999
100
AcDbArc
 50
172.601548
 51
246.000018
  0
ARC
  5
55
100
AcDbEntity
  8
0
370
    -3
390
0
  6
DASHED
100
AcDbCircle
 10
383.413515
 20
-219.827189
 30
0.0
 40
15.0
100
AcDbArc
 50
99.318123
 51
178.317231
  0
ARC
  5
56
100
AcDbEntity
  8
0
370
    -3
390
0
  6
DASHED
100
AcDbCircle
 10
374.279619
 20
-293.182992
 30
0.0
 40
9.0
100
AcDbArc
 50
139.398469
 51
172.601548
  0
LINE
  5
57
100
AcDbEntity
  8
0
370
    -3
390
0
  6
DASHED
100
AcDbLine
 10
371.090927
 20
-293.952567
 30
0.0
 11
374.608078
 21
-295.518504
 31
0.0
  0
LINE
  5
58
100
AcDbEntity
  8
0
370
    -3
390
0
  6
DASHED
100
AcDbLine
 10
372.717874
 20
-290.298386
 30
0.0
 11
376.235024
 21
-291.864322
 31
0.0
  0
ARC
  5
59
100
AcDbEntity
  8
0
370
    -3
390
0
  6
DASHED
100
AcDbCircle
 10
371.791213
 20
-281.128719
 30
0.0
 40
2.0
100
AcDbArc
 50
184.231338
 51
246.0
  0
ARC
  5
5A
100
AcDbEntity
  8
0
370
    -3
390
0
  6
DASHED
100
AcDbCircle
 10
370.366539
 20
-283.778322
 30
0.0
 40
1.0
100
AcDbArc
 50
336.0
 51
66.0
  0
LINE
  5
5B
100
AcDbEntity
  8
0
370
    -3
390
0
  6
DASHED
100
AcDbLine
 10
392.285517
 20
-237.006085
 30
0.0
 11
366.073856
 21
-295.878441
 31
0.0
  0
LINE
  5
5C
100
AcDbEntity
  8
0
370
    -3
390
0
  6
DASHED
100
AcDbLine
 10
366.580664
 20
-297.198723
 30
0.0
 11
369.138592
 21
-298.337586
 31
0.0
  0
ARC
  5
5D
100
AcDbEntity
  8
0
370
    -3
390
0
  6
DASHED
100
AcDbCircle
 10
369.195177
 20
-286.409244
 30
0.0
 40
1.0
100
AcDbArc
 50
336.0
 51
4.715125
  0
ARC
  5
5E
100
AcDbEntity
  8
0
370
    -3
390
0
  6
DASHED
100
AcDbCircle
 10
968.161226
 20
-237.006085
 30
0.0
 40
600.0
100
AcDbArc
 50
178.317231
 51
184.715125
  0
ARC
  5
5F
100
AcDbEntity
  8
0
370
    -3
390
0
  6
DASHED
100
AcDbCircle
 10
368.433365
 20
-288.171871
 30
0.0
 40
1.299999
100
AcDbArc
 50
65.999999
 51
139.398469
  0
LINE
  5
60
100
AcDbEntity
  8
0
370
    -3
390
0
  6
DASHED
100
AcDbLine
 10
369.856506
 20
-287.382468
 30
0.0
 11
368.962122
 21
-286.984263
 31
0.0
  0
LINE
  5
61
100
AcDbEntity
  8
0
370
    -3
390
0
  6
DASHED
100
AcDbLine
 10
367.00935
 20
-293.777286
 30
0.0
 11
366.114966
 21
-293.379081
 31
0.0
  0
POINT
  5
62
100
AcDbEntity
  8
0
370
    -3
390
0
  6
DASHED
100
AcDbPoint
 10
368.432928
 20
-290.579877
 30
0.0
  0
LINE
  5
63
100
AcDbEntity
  8
0
370
    -3
390
0
  6
DASHED
100
AcDbLine
 10
376.412407
 20
-292.32642
 30
0.0
 11
375.070176
 21
-295.34112
 31
0.0
  0
LINE
  5
64
100
AcDbEntity
  8
0
370
    -3
390
0
  6
DASHED
100
AcDbLine
 10
374.608078
 20
-295.518504
 30
0.0
 11
375.070176
 21
-295.34112
 31
0.0
  0
LINE
  5
65
100
AcDbEntity
  8
0
370
    -3
390
0
  6
DASHED
100
AcDbLine
 10
376.235024
 20
-291.864322
 30
0.0
 11
376.412407
 21
-292.32642
 31
0.0
  0
LINE
  5
66
100
AcDbEntity
  8
0
370
    -3
390
0
  6
DASHED
100
AcDbLine
 10
372.575516
 20
-290.618127
 30
0.0
 11
376.412407
 21
-292.32642
 31
0.0
  0
LINE
  5
67
100
AcDbEntity
  8
0
370
    -3
390
0
  6
DASHED
100
AcDbLine
 10
371.233285
 20
-293.632827
 30
0.0
 11
375.070176
 21
-295.34112
 31
0.0
  0
LINE
  5
68
100
AcDbEntity
  8
0
370
    -3
390
0
  6
DASHED
100
AcDbLine
 10
416.161226
 20
-204.31448
 30
0.0
 11
416.161226
 21
-278.506085
 31
0.0
  0
LINE
  5
69
100
AcDbEntity
  8
0
370
    -3
390
0
  6
DASHED
100
AcDbLine
 10
411.161226
 20
-283.506085
 30
0.0
 11
375.742001
 21
-283.506085
 31
0.0
  0
ARC
  5
6A
100
AcDbEntity
  8
0
370
    -3
390
0
  6
DASHED
100
AcDbCircle
 10
411.161226
 20
-278.506085
 30
0.0
 40
5.0
100
AcDbArc
 50
270.0
 51
0.0
  0
LINE
  5
6B
100
AcDbEntity
  8
0
370
    -3
390
0
  6
DASHED
100
AcDbLine
 10
414.85579
 20
-195.655076
 30
0.0
 11
369.138592
 21
-298.337586
 31
0.0
  0
ARC
  5
6C
100
AcDbEntity
  8
0
370
    -3
390
0
  6
DASHED
100
AcDbCircle
 10
413.161226
 20
-204.31448
 30
0.0
 40
3.0
100
AcDbArc
 50
0.0
 51
66.0
  0
LINE
  5
6D
100
AcDbEntity
  8
0
370
    -3
390
0
  6
DASHED
100
AcDbLine
 10
412.578065
 20
-200.770931
 30
0.0
 11
414.381436
 21
-201.573843
 31
0.0
  0
LINE
  5
6E
100
AcDbEntity
  8
0
370
    -3
390
0
  6
DASHED
100
AcDbLine
 10
412.297863
 20
-194.516214
 30
0.0
 11
414.85579
 21
-195.655076
 31
0.0
  0
LINE
  5
6F
100
AcDbEntity
  8
0
370
    -3
390
0
  6
DASHED
100
AcDbLine
 10
406.940413
 20
-200.766291
 30
0.0
 11
380.984776
 21
-205.025121
 31
0.0
  0
ARC
  5
70
100
AcDbEntity
  8
0
370
    -3
390
0
  6
DASHED
100
AcDbCircle
 10
406.454665
 20
-197.805878
 30
0.0
 40
3.0
100
AcDbArc
 50
279.318123
 51
336.0
  0
LINE
  5
71
100
AcDbEntity
  8
0
370
    -3
390
0
  6
DASHED
100
AcDbLine
 10
410.977581
 20
-195.023022
 30
0.0
 11
392.285517
 21
-237.006085
 31
0.0
  0
LINE
  5
72
100
AcDbEntity
  8
0
370
    -3
390
0
  6
DASHED
100
AcDbLine
 10
414.52663
 20
-198.349414
 30
0.0
 11
413.790226
 21
-198.661999
 31
0.0
  0
LINE
  5
73
100
AcDbEntity
  8
0
370
    -3
390
0
  6
DASHED
100
AcDbLine
 10
413.656884
 20
-198.347865
 30
0.0
 11
413.790226
 21
-198.661999
 31
0.0
  0
LINE
  5
74
100
AcDbEntity
  8
0
370
    -3
390
0
  6
DASHED
100
AcDbLine
 10
414.101797
 20
-197.348572
 30
0.0
 11
414.52663
 21
-198.349414
 31
0.0
  0
ARC
  5
75
100
AcDbEntity
  8
0
370
    -3
390
0
  6
DASHED
100
AcDbCircle
 10
411.891126
 20
-195.429759
 30
0.0
 40
1.0
100
AcDbArc
 50
66.0
 51
156.0
  0
ARC
  5
76
100
AcDbEntity
  8
0
370
    -3
390
0
  6
Continuous
100
AcDbCircle
 10
-23.989226
 20
-161.006085
 30
0.0
 40
2.0
100
AcDbArc
 50
270.0
 51
0.0
  0
ARC
  5
77
100
AcDbEntity
  8
0
370
    -3
390
0
  6
Continuous
100
AcDbCircle
 10
-23.989226
 20
-313.006085
 30
0.0
 40
2.0
100
AcDbArc
 50
0.0
 51
90.0
  0
LINE
  5
78
100
AcDbEntity
  8
0
370
    -3
390
0
  6
Continuous
100
AcDbLine
 10
-23.989226
 20
-237.006085
 30
0.0
 11
-23.989226
 21
-163.006085
 31
0.0
  0
LINE
  5
79
100
AcDbEntity
  8
0
370
    -3
390
0
  6
Continuous
100
AcDbLine
 10
-23.989226
 20
-237.006085
 30
0.0
 11
-23.989226
 21
-311.006085
 31
0.0
  0
LINE
  5
7A
100
AcDbEntity
  8
0
370
    -3
390
0
  6
Continuous
100
AcDbLine
 10
-21.989226
 20
-237.006085
 30
0.0
 11
-21.989226
 21
-318.608156
 31
0.0
  0
LINE
  5
7B
100
AcDbEntity
  8
0
370
    -3
390
0
  6
Continuous
100
AcDbLine
 10
-21.989226
 20
-237.006085
 30
0.0
 11
-21.989226
 21
-155.404014
 31
0.0
  0
LINE
  5
7C
100
AcDbEntity
  8
0
370
    -3
390
0
  6
Continuous
100
AcDbLine
 10
-23.989226
 20
-153.506085
 30
0.0
 11
-23.989226
 21
-320.506085
 31
0.0
  0
LINE
  5
7D
100
AcDbEntity
  8
0
370
    -3
390
0
  6
CENTER
100
AcDbLine
 10
-278.23159
 20
-237.006085
 30
0.0
 11
43.016346
 21
-237.006085
 31
0.0
  0
LINE
  5
7E
100
AcDbEntity
  8
0
370
    -3
390
0
  6
CENTER
100
AcDbLine
 10
550.886916
 20
-237.006085
 30
0.0
 11
478.517846
 21
-237.006085
 31
0.0
  0
LINE
  5
7F
100
AcDbEntity
  8
0
370
    -3
390
0
  6
CENTER
100
AcDbLine
 10
513.161226
 20
9.229472
 30
0.0
 11
513.161226
 21
-398.238272
 31
0.0
  0
LINE
  5
80
100
AcDbEntity
  8
0
370
    -3
390
0
  6
CENTER
100
AcDbLine
 10
421.167017
 20
-237.006085
 30
0.0
 11
366.425714
 21
-237.006085
 31
0.0
  0
LINE
  5
81
100
AcDbEntity
  8
0
370
    -3
390
0
  6
Continuous
100
AcDbLine
 10
-23.989226
 20
-295.814229
 30
0.0
 11
-141.941938
 21
-295.814229
 31
0.0
  0
LINE
  5
82
100
AcDbEntity
  8
0
370
    -3
390
0
  6
Continuous
100
AcDbLine
 10
-23.989226
 20
-283.143809
 30
0.0
 11
-137.539226
 21
-283.143809
 31
0.0
  0
LINE
  5
83
100
AcDbEntity
  8
0
370
    -3
390
0
  6
Continuous
100
AcDbLine
 10
-23.989226
 20
-280.921482
 30
0.0
 11
-137.539226
 21
-280.921482
 31
0.0
  0
LINE
  5
84
100
AcDbEntity
  8
0
370
    -3
390
0
  6
Continuous
100
AcDbLine
 10
-23.989226
 20
-273.111023
 30
0.0
 11
-137.539226
 21
-273.111023
 31
0.0
  0
LINE
  5
85
100
AcDbEntity
  8
0
370
    -3
390
0
  6
Continuous
100
AcDbLine
 10
-23.989226
 20
-320.506085
 30
0.0
 11
-193.989227
 21
-320.506085
 31
0.0
  0
LINE
  5
86
100
AcDbEntity
  8
0
370
    -3
390
0
  6
Continuous
100
AcDbLine
 10
-23.989226
 20
-261.006085
 30
0.0
 11
-137.539226
 21
-261.006085
 31
0.0
  0
LINE
  5
87
100
AcDbEntity
  8
0
370
    -3
390
0
  6
Continuous
100
AcDbLine
 10
-23.989226
 20
-270.944313
 30
0.0
 11
-137.791351
 21
-270.944313
 31
0.0
  0
LINE
  5
88
100
AcDbEntity
  8
0
370
    -3
390
0
  6
Continuous
100
AcDbLine
 10
-23.989226
 20
-302.885297
 30
0.0
 11
-193.989227
 21
-302.885297
 31
0.0
  0
LINE
  5
89
100
AcDbEntity
  8
0
370
    -3
390
0
  6
Continuous
100
AcDbLine
 10
-23.989226
 20
-312.006085
 30
0.0
 11
-193.989227
 21
-312.006085
 31
0.0
  0
LINE
  5
8A
100
AcDbEntity
  8
0
370
    -3
390
0
  6
Continuous
100
AcDbLine
 10
-23.989226
 20
-317.006085
 30
0.0
 11
-193.989227
 21
-317.006085
 31
0.0
  0
LINE
  5
8B
100
AcDbEntity
  8
0
370
    -3
390
0
  6
Continuous
100
AcDbLine
 10
-23.989226
 20
-319.506085
 30
0.0
 11
-193.989227
 21
-319.506085
 31
0.0
  0
LINE
  5
8C
100
AcDbEntity
  8
0
370
    -3
390
0
  6
Continuous
100
AcDbLine
 10
-23.989226
 20
-320.006085
 30
0.0
 11
-193.989227
 21
-320.006085
 31
0.0
  0
LINE
  5
8D
100
AcDbEntity
  8
0
370
    -3
390
0
  6
Continuous
100
AcDbLine
 10
-23.989226
 20
-213.006085
 30
0.0
 11
-137.539226
 21
-213.006085
 31
0.0
  0
LINE
  5
8E
100
AcDbEntity
  8
0
370
    -3
390
0
  6
Continuous
100
AcDbLine
 10
-23.989226
 20
-178.19794
 30
0.0
 11
-193.989227
 21
-178.19794
 31
0.0
  0
LINE
  5
8F
100
AcDbEntity
  8
0
370
    -3
390
0
  6
Continuous
100
AcDbLine
 10
-23.989226
 20
-193.090687
 30
0.0
 11
-193.989227
 21
-193.090687
 31
0.0
  0
LINE
  5
90
100
AcDbEntity
  8
0
370
    -3
390
0
  6
Continuous
100
AcDbLine
 10
-23.989226
 20
-190.86836
 30
0.0
 11
-193.989227
 21
-190.86836
 31
0.0
  0
LINE
  5
91
100
AcDbEntity
  8
0
370
    -3
390
0
  6
Continuous
100
AcDbLine
 10
-23.989226
 20
-200.901146
 30
0.0
 11
-138.505535
 21
-200.901146
 31
0.0
  0
LINE
  5
92
100
AcDbEntity
  8
0
370
    -3
390
0
  6
Continuous
100
AcDbLine
 10
-23.989226
 20
-203.067857
 30
0.0
 11
-137.791351
 21
-203.067857
 31
0.0
  0
LINE
  5
93
100
AcDbEntity
  8
0
370
    -3
390
0
  6
Continuous
100
AcDbLine
 10
-23.989226
 20
-171.126872
 30
0.0
 11
-193.989227
 21
-171.126872
 31
0.0
  0
LINE
  5
94
100
AcDbEntity
  8
0
370
    -3
390
0
  6
Continuous
100
AcDbLine
 10
-23.989226
 20
-162.006085
 30
0.0
 11
-193.989227
 21
-162.006085
 31
0.0
  0
LINE
  5
95
100
AcDbEntity
  8
0
370
    -3
390
0
  6
Continuous
100
AcDbLine
 10
-23.989226
 20
-157.006085
 30
0.0
 11
-193.989227
 21
-157.006085
 31
0.0
  0
LINE
  5
96
100
AcDbEntity
  8
0
370
    -3
390
0
  6
Continuous
100
AcDbLine
 10
-23.989226
 20
-154.506085
 30
0.0
 11
-193.989227
 21
-154.506085
 31
0.0
  0
LINE
  5
97
100
AcDbEntity
  8
0
370
    -3
390
0
  6
Continuous
100
AcDbLine
 10
-23.989226
 20
-154.006085
 30
0.0
 11
-193.989227
 21
-154.006085
 31
0.0
  0
LINE
  5
98
100
AcDbEntity
  8
0
370
    -3
390
0
  6
Continuous
100
AcDbLine
 10
-23.989226
 20
-153.506085
 30
0.0
 11
-193.989227
 21
-153.506085
 31
0.0
  0
LINE
  5
99
100
AcDbEntity
  8
0
370
    -3
390
0
  6
Continuous
100
AcDbLine
 10
-193.989227
 20
-149.706085
 30
0.0
 11
-193.989227
 21
-194.409477
 31
0.0
  0
LINE
  5
9A
100
AcDbEntity
  8
0
370
    -3
390
0
  6
Continuous
100
AcDbLine
 10
-228.05726
 20
-149.706085
 30
0.0
 11
-193.989227
 21
-149.706085
 31
0.0
  0
LINE
  5
9B
100
AcDbEntity
  8
0
370
    -3
390
0
  6
Continuous
100
AcDbLine
 10
-193.989227
 20
-324.306085
 30
0.0
 11
-193.989227
 21
-298.012196
 31
0.0
  0
LINE
  5
9C
100
AcDbEntity
  8
0
370
    -3
390
0
  6
Continuous
100
AcDbLine
 10
-228.05726
 20
-324.306085
 30
0.0
 11
-193.989227
 21
-324.306085
 31
0.0
  0
ARC
  5
9D
100
AcDbEntity
  8
0
370
    -3
390
0
  6
Continuous
100
AcDbCircle
 10
-263.189227
 20
-168.065616
 30
0.0
 40
3.8
100
AcDbArc
 50
120.0
 51
180.0
  0
LINE
  5
9E
100
AcDbEntity
  8
0
370
    -3
390
0
  6
Continuous
100
AcDbLine
 10
-265.089227
 20
-164.774719
 30
0.0
 11
-248.45726
 21
-155.172248
 31
0.0
  0
LINE
  5
9F
100
AcDbEntity
  8
0
370
    -3
390
0
  6
Continuous
100
AcDbLine
 10
-266.989227
 20
-168.065616
 30
0.0
 11
-266.989227
 21
-237.006085
 31
0.0
  0
ARC
  5
A0
100
AcDbEntity
  8
0
370
    -3
390
0
  6
Continuous
100
AcDbCircle
 10
-228.05726
 20
-190.506085
 30
0.0
 40
40.8
100
AcDbArc
 50
90.0
 51
120.0
  0
LINE
  5
A1
100
AcDbEntity
  8
0
370
    -3
390
0
  6
Continuous
100
AcDbLine
 10
-219.489226
 20
-305.878285
 30
0.0
 11
-221.418431
 21
-307.088948
 31
0.0
  0
LINE
  5
A2
100
AcDbEntity
  8
0
370
    -3
390
0
  6
Continuous
100
AcDbLine
 10
-219.489226
 20
-305.878285
 30
0.0
 11
-221.489226
 21
-304.304948
 31
0.0
  0
LINE
  5
A3
100
AcDbEntity
  8
0
370
    -3
390
0
  6
Continuous
100
AcDbLine
 10
-219.489226
 20
-305.878285
 30
0.0
 11
-217.560022
 21
-307.088948
 31
0.0
  0
LINE
  5
A4
100
AcDbEntity
  8
0
370
    -3
390
0
  6
Continuous
100
AcDbLine
 10
-219.489226
 20
-305.878285
 30
0.0
 11
-217.489226
 21
-304.304948
 31
0.0
  0
ELLIPSE
  5
A5
100
AcDbEntity
  8
0
370
    -3
390
0
  6
Continuous
100
AcDbEllipse
 10
-219.489226
 20
-304.039808
 30
0.0
 11
4.5
 21
0.0
 31
0.0
210
0.0
220
0.0
230
1.0
 40
0.707107
 41
5.3002993159359626
 42
4.1244786448334168
  0
ELLIPSE
  5
A6
100
AcDbEntity
  8
0
370
    -3
390
0
  6
Continuous
100
AcDbEllipse
 10
-219.489226
 20
-304.576326
 30
0.0
 11
3.5
 21
0.0
 31
0.0
210
0.0
220
0.0
230
1.0
 40
0.860398
 41
0.0
 42
6.2831853071795862
  0
ELLIPSE
  5
A7
100
AcDbEntity
  8
0
370
    -3
390
0
  6
Continuous
100
AcDbEllipse
 10
-219.489226
 20
-303.474122
 30
0.0
 11
5.0
 21
0.0
 31
0.0
210
0.0
220
0.0
230
1.0
 40
0.707107
 41
3.1415926535897931
 42
3.8808644805304136
  0
ELLIPSE
  5
A8
100
AcDbEntity
  8
0
370
    -3
390
0
  6
Continuous
100
AcDbEllipse
 10
-219.489226
 20
-303.474122
 30
0.0
 11
5.0
 21
0.0
 31
0.0
210
0.0
220
0.0
230
1.0
 40
0.707107
 41
5.5439134802389658
 42
0.0
  0
LINE
  5
A9
100
AcDbEntity
  8
0
370
    -3
390
0
  6
Continuous
100
AcDbLine
 10
-214.989226
 20
-304.039808
 30
0.0
 11
-214.989226
 21
-303.474122
 31
0.0
  0
LINE
  5
AA
100
AcDbEntity
  8
0
370
    -3
390
0
  6
Continuous
100
AcDbLine
 10
-223.989226
 20
-304.039808
 30
0.0
 11
-223.989226
 21
-303.474122
 31
0.0
  0
ELLIPSE
  5
AB
100
AcDbEntity
  8
0
370
    -3
390
0
  6
Continuous
100
AcDbEllipse
 10
-219.489226
 20
-303.474122
 30
0.0
 11
4.5
 21
0.0
 31
0.0
210
0.0
220
0.0
230
1.0
 40
0.707107
 41
0.0
 42
3.1415926535897931
  0
LINE
  5
AC
100
AcDbEntity
  8
0
370
    -3
390
0
  6
Continuous
100
AcDbLine
 10
-214.489226
 20
-303.474122
 30
0.0
 11
-214.489226
 21
-302.657519
 31
0.0
  0
LINE
  5
AD
100
AcDbEntity
  8
0
370
    -3
390
0
  6
Continuous
100
AcDbLine
 10
-224.489226
 20
-303.474122
 30
0.0
 11
-224.489226
 21
-302.657519
 31
0.0
  0
ELLIPSE
  5
AE
100
AcDbEntity
  8
0
370
    -3
390
0
  6
Continuous
100
AcDbEllipse
 10
-219.489226
 20
-302.657519
 30
0.0
 11
5.0
 21
0.0
 31
0.0
210
0.0
220
0.0
230
1.0
 40
0.707107
 41
0.0
 42
3.1415926535897931
  0
LINE
  5
AF
100
AcDbEntity
  8
0
370
    -3
390
0
  6
Continuous
100
AcDbLine
 10
-219.489226
 20
-168.133884
 30
0.0
 11
-221.418431
 21
-166.923222
 31
0.0
  0
LINE
  5
B0
100
AcDbEntity
  8
0
370
    -3
390
0
  6
Continuous
100
AcDbLine
 10
-219.489226
 20
-168.133884
 30
0.0
 11
-221.489226
 21
-169.707222
 31
0.0
  0
LINE
  5
B1
100
AcDbEntity
  8
0
370
    -3
390
0
  6
Continuous
100
AcDbLine
 10
-219.489226
 20
-168.133884
 30
0.0
 11
-217.560022
 21
-166.923222
 31
0.0
  0
LINE
  5
B2
100
AcDbEntity
  8
0
370
    -3
390
0
  6
Continuous
100
AcDbLine
 10
-219.489226
 20
-168.133884
 30
0.0
 11
-217.489226
 21
-169.707222
 31
0.0
  0
ELLIPSE
  5
B3
100
AcDbEntity
  8
0
370
    -3
390
0
  6
Continuous
100
AcDbEllipse
 10
-219.489226
 20
-169.972362
 30
0.0
 11
4.5
 21
0.0
 31
0.0
210
0.0
220
0.0
230
1.0
 40
0.707107
 41
2.158706662346169
 42
0.9828859912436241
  0
ELLIPSE
  5
B4
100
AcDbEntity
  8
0
370
    -3
390
0
  6
Continuous
100
AcDbEllipse
 10
-219.489226
 20
-169.435844
 30
0.0
 11
3.5
 21
0.0
 31
0.0
210
0.0
220
0.0
230
1.0
 40
0.860398
 41
0.0
 42
6.2831853071795862
  0
ELLIPSE
  5
B5
100
AcDbEntity
  8
0
370
    -3
390
0
  6
Continuous
100
AcDbEllipse
 10
-219.489226
 20
-170.538047
 30
0.0
 11
5.0
 21
0.0
 31
0.0
210
0.0
220
0.0
230
1.0
 40
0.707107
 41
2.4023208266491727
 42
3.1415926535897931
  0
ELLIPSE
  5
B6
100
AcDbEntity
  8
0
370
    -3
390
0
  6
Continuous
100
AcDbEllipse
 10
-219.489226
 20
-170.538047
 30
0.0
 11
5.0
 21
0.0
 31
0.0
210
0.0
220
0.0
230
1.0
 40
0.707107
 41
0.0
 42
0.7392718269406207
  0
LINE
  5
B7
100
AcDbEntity
  8
0
370
    -3
390
0
  6
Continuous
100
AcDbLine
 10
-214.989226
 20
-169.972362
 30
0.0
 11
-214.989226
 21
-170.538047
 31
0.0
  0
LINE
  5
B8
100
AcDbEntity
  8
0
370
    -3
390
0
  6
Continuous
100
AcDbLine
 10
-223.989226
 20
-169.972362
 30
0.0
 11
-223.989226
 21
-170.538047
 31
0.0
  0
ELLIPSE
  5
B9
100
AcDbEntity
  8
0
370
    -3
390
0
  6
Continuous
100
AcDbEllipse
 10
-219.489226
 20
-170.538047
 30
0.0
 11
4.5
 21
0.0
 31
0.0
210
0.0
220
0.0
230
1.0
 40
0.707107
 41
3.1415926535897931
 42
0.0
  0
LINE
  5
BA
100
AcDbEntity
  8
0
370
    -3
390
0
  6
Continuous
100
AcDbLine
 10
-214.489226
 20
-170.538047
 30
0.0
 11
-214.489226
 21
-171.35465
 31
0.0
  0
LINE
  5
BB
100
AcDbEntity
  8
0
370
    -3
390
0
  6
Continuous
100
AcDbLine
 10
-224.489226
 20
-170.538047
 30
0.0
 11
-224.489226
 21
-171.35465
 31
0.0
  0
ELLIPSE
  5
BC
100
AcDbEntity
  8
0
370
    -3
390
0
  6
Continuous
100
AcDbEllipse
 10
-219.489226
 20
-171.35465
 30
0.0
 11
5.0
 21
0.0
 31
0.0
210
0.0
220
0.0
230
1.0
 40
0.707107
 41
3.1415926535897931
 42
0.0
  0
ARC
  5
BD
100
AcDbEntity
  8
0
370
    -3
390
0
  6
Continuous
100
AcDbCircle
 10
-263.189227
 20
-305.946554
 30
0.0
 40
3.8
100
AcDbArc
 50
180.0
 51
240.0
  0
ARC
  5
BE
100
AcDbEntity
  8
0
370
    -3
390
0
  6
Continuous
100
AcDbCircle
 10
-228.05726
 20
-283.506085
 30
0.0
 40
40.8
100
AcDbArc
 50
240.0
 51
270.0
  0
LINE
  5
BF
100
AcDbEntity
  8
0
370
    -3
390
0
  6
Continuous
100
AcDbLine
 10
-265.089227
 20
-309.23745
 30
0.0
 11
-248.45726
 21
-318.839921
 31
0.0
  0
LINE
  5
C0
100
AcDbEntity
  8
0
370
    -3
390
0
  6
Continuous
100
AcDbLine
 10
-266.989227
 20
-305.946554
 30
0.0
 11
-266.989227
 21
-237.006085
 31
0.0
  0
LINE
  5
C1
100
AcDbEntity
  8
0
370
    -3
390
0
  6
CENTER
100
AcDbLine
 10
392.161226
 20
-269.123561
 30
0.0
 11
392.161226
 21
-291.99207
 31
0.0
  0
LINE
  5
C2
100
AcDbEntity
  8
0
370
    -3
390
0
  6
CENTER
100
AcDbLine
 10
365.297051
 20
-289.183695
 30
0.0
 11
376.503371
 21
-294.17307
 31
0.0
  0
ARC
  5
C3
100
AcDbEntity
  8
0
370
    -3
390
0
  6
Continuous
100
AcDbCircle
 10
32.510774
 20
-68.069688
 30
0.0
 40
1.5
100
AcDbArc
 50
180.0
 51
270.0
  0
ARC
  5
C4
100
AcDbEntity
  8
0
370
    -3
390
0
  6
Continuous
100
AcDbCircle
 10
51.510774
 20
-68.069688
 30
0.0
 40
1.5
100
AcDbArc
 50
298.212605
 51
0.0
  0
LINE
  5
C5
100
AcDbEntity
  8
0
370
    -3
390
0
  6
Continuous
100
AcDbLine
 10
32.510774
 20
-69.569688
 30
0.0
 11
42.010774
 21
-69.569688
 31
0.0
  0
LINE
  5
C6
100
AcDbEntity
  8
0
370
    -3
390
0
  6
Continuous
100
AcDbLine
 10
57.260774
 20
-66.569688
 30
0.0
 11
42.010774
 21
-66.569688
 31
0.0
  0
LINE
  5
C7
100
AcDbEntity
  8
0
370
    -3
390
0
  6
Continuous
100
AcDbLine
 10
55.010774
 20
-49.569688
 30
0.0
 11
56.510774
 21
-51.569688
 31
0.0
  0
LINE
  5
C8
100
AcDbEntity
  8
0
370
    -3
390
0
  6
Continuous
100
AcDbLine
 10
58.010774
 20
-62.569688
 30
0.0
 11
42.010774
 21
-62.569688
 31
0.0
  0
LINE
  5
C9
100
AcDbEntity
  8
0
370
    -3
390
0
  6
Continuous
100
AcDbLine
 10
55.010774
 20
-49.569688
 30
0.0
 11
56.510774
 21
-51.569688
 31
0.0
  0
ARC
  5
CA
100
AcDbEntity
  8
0
370
    -3
390
0
  6
Continuous
100
AcDbCircle
 10
51.510774
 20
-68.069688
 30
0.0
 40
1.5
100
AcDbArc
 50
0.0
 51
90.0
  0
LINE
  5
CB
100
AcDbEntity
  8
0
370
    -3
390
0
  6
Continuous
100
AcDbLine
 10
45.913728
 20
-51.569688
 30
0.0
 11
45.913728
 21
-61.569688
 31
0.0
  0
LINE
  5
CC
100
AcDbEntity
  8
0
370
    -3
390
0
  6
Continuous
100
AcDbLine
 10
50.222908
 20
-51.569688
 30
0.0
 11
50.222908
 21
-61.569688
 31
0.0
  0
LINE
  5
CD
100
AcDbEntity
  8
0
370
    -3
390
0
  6
Continuous
100
AcDbLine
 10
55.74252
 20
-51.569688
 30
0.0
 11
55.74252
 21
-61.569688
 31
0.0
  0
LINE
  5
CE
100
AcDbEntity
  8
0
370
    -3
390
0
  6
Continuous
100
AcDbLine
 10
55.74252
 20
-61.569688
 30
0.0
 11
50.222908
 21
-61.569688
 31
0.0
  0
LINE
  5
CF
100
AcDbEntity
  8
0
370
    -3
390
0
  6
Continuous
100
AcDbLine
 10
55.010774
 20
-49.569688
 30
0.0
 11
42.010774
 21
-49.569688
 31
0.0
  0
LINE
  5
D0
100
AcDbEntity
  8
0
370
    -3
390
0
  6
Continuous
100
AcDbLine
 10
58.010774
 20
-51.569688
 30
0.0
 11
42.010774
 21
-51.569688
 31
0.0
  0
LINE
  5
D1
100
AcDbEntity
  8
0
370
    -3
390
0
  6
Continuous
100
AcDbLine
 10
45.913728
 20
-61.569688
 30
0.0
 11
42.010774
 21
-61.569688
 31
0.0
  0
LINE
  5
D2
100
AcDbEntity
  8
0
370
    -3
390
0
  6
Continuous
100
AcDbLine
 10
57.260774
 20
-63.569688
 30
0.0
 11
42.010774
 21
-63.569688
 31
0.0
  0
LINE
  5
D3
100
AcDbEntity
  8
0
370
    -3
390
0
  6
Continuous
100
AcDbLine
 10
29.010774
 20
-49.569688
 30
0.0
 11
42.010774
 21
-49.569688
 31
0.0
  0
LINE
  5
D4
100
AcDbEntity
  8
0
370
    -3
390
0
  6
Continuous
100
AcDbLine
 10
26.760774
 20
-66.569688
 30
0.0
 11
42.010774
 21
-66.569688
 31
0.0
  0
LINE
  5
D5
100
AcDbEntity
  8
0
370
    -3
390
0
  6
Continuous
100
AcDbLine
 10
26.010774
 20
-51.569688
 30
0.0
 11
42.010774
 21
-51.569688
 31
0.0
  0
LINE
  5
D6
100
AcDbEntity
  8
0
370
    -3
390
0
  6
Continuous
100
AcDbLine
 10
29.010774
 20
-49.569688
 30
0.0
 11
27.510774
 21
-51.569688
 31
0.0
  0
LINE
  5
D7
100
AcDbEntity
  8
0
370
    -3
390
0
  6
Continuous
100
AcDbLine
 10
26.010774
 20
-62.569688
 30
0.0
 11
26.010774
 21
-51.569688
 31
0.0
  0
LINE
  5
D8
100
AcDbEntity
  8
0
370
    -3
390
0
  6
Continuous
100
AcDbLine
 10
26.010774
 20
-62.569688
 30
0.0
 11
42.010774
 21
-62.569688
 31
0.0
  0
LINE
  5
D9
100
AcDbEntity
  8
0
370
    -3
390
0
  6
Continuous
100
AcDbLine
 10
29.010774
 20
-49.569688
 30
0.0
 11
27.510774
 21
-51.569688
 31
0.0
  0
LINE
  5
DA
100
AcDbEntity
  8
0
370
    -3
390
0
  6
Continuous
100
AcDbLine
 10
26.010774
 20
-62.569688
 30
0.0
 11
26.010774
 21
-51.569688
 31
0.0
  0
LINE
  5
DB
100
AcDbEntity
  8
0
370
    -3
390
0
  6
Continuous
100
AcDbLine
 10
26.010774
 20
-61.569688
 30
0.0
 11
26.494107
 21
-61.569688
 31
0.0
  0
LINE
  5
DC
100
AcDbEntity
  8
0
370
    -3
390
0
  6
Continuous
100
AcDbLine
 10
26.760774
 20
-63.569688
 30
0.0
 11
42.010774
 21
-63.569688
 31
0.0
  0
LINE
  5
DD
100
AcDbEntity
  8
0
370
    -3
390
0
  6
Continuous
100
AcDbLine
 10
26.760774
 20
-63.569688
 30
0.0
 11
26.760774
 21
-66.569688
 31
0.0
  0
ARC
  5
DE
100
AcDbEntity
  8
0
370
    -3
390
0
  6
Continuous
100
AcDbCircle
 10
32.510774
 20
-68.069688
 30
0.0
 40
1.5
100
AcDbArc
 50
90.0
 51
180.0
  0
LINE
  5
DF
100
AcDbEntity
  8
0
370
    -3
390
0
  6
Continuous
100
AcDbLine
 10
38.107819
 20
-51.569688
 30
0.0
 11
38.107819
 21
-61.569688
 31
0.0
  0
LINE
  5
E0
100
AcDbEntity
  8
0
370
    -3
390
0
  6
Continuous
100
AcDbLine
 10
33.798639
 20
-51.569688
 30
0.0
 11
33.798639
 21
-61.569688
 31
0.0
  0
LINE
  5
E1
100
AcDbEntity
  8
0
370
    -3
390
0
  6
Continuous
100
AcDbLine
 10
28.279028
 20
-51.569688
 30
0.0
 11
28.279028
 21
-61.569688
 31
0.0
  0
LINE
  5
E2
100
AcDbEntity
  8
0
370
    -3
390
0
  6
Continuous
100
AcDbLine
 10
26.494107
 20
-51.569688
 30
0.0
 11
26.494107
 21
-61.569688
 31
0.0
  0
LINE
  5
E3
100
AcDbEntity
  8
0
370
    -3
390
0
  6
Continuous
100
AcDbLine
 10
38.107819
 20
-61.569688
 30
0.0
 11
42.010774
 21
-61.569688
 31
0.0
  0
LINE
  5
E4
100
AcDbEntity
  8
0
370
    -3
390
0
  6
Continuous
100
AcDbLine
 10
28.279028
 20
-61.569688
 30
0.0
 11
33.798639
 21
-61.569688
 31
0.0
  0
ARC
  5
E5
100
AcDbEntity
  8
0
370
    -3
390
0
  6
Continuous
100
AcDbCircle
 10
-3.489227
 20
-95.006085
 30
0.0
 40
3.0
100
AcDbArc
 50
180.0
 51
228.189671
  0
INSERT
  5
F1
100
AcDbEntity
  8
0
390
0
100
AcDbBlockReference
  2
ZU_SYM__USERS_HOME_SYMBOL_POO_SYM_B20_18
 10
-10.989226
 20
-85.006085
 30
0.0
  0
INSERT
  5
FE
100
AcDbEntity
  8
0
390
0
100
AcDbBlockReference
  2
ZU_SYM__USERS_HOME_SYMBOL_POO_SYM_B20_19
 10
4.510773
 20
-91.420264
 30
0.0
  0
LINE
  5
FF
100
AcDbEntity
  8
0
370
    -3
390
0
  6
Continuous
100
AcDbLine
 10
4.510774
 20
-221.006085
 30
0.0
 11
4.510774
 21
-75.006085
 31
0.0
  0
LINE
  5
100
100
AcDbEntity
  8
0
370
    -3
390
0
  6
CENTER
100
AcDbLine
 10
-22.888471
 20
-85.006085
 30
0.0
 11
-5.079071
 21
-85.006085
 31
0.0
  0
LINE
  5
101
100
AcDbEntity
  8
0
370
    -3
390
0
  6
Continuous
100
AcDbLine
 10
17.010774
 20
-72.006085
 30
0.0
 11
-3.489226
 21
-72.006085
 31
0.0
  0
LINE
  5
102
100
AcDbEntity
  8
0
370
    -3
390
0
  6
Continuous
100
AcDbLine
 10
16.510774
 20
-237.006085
 30
0.0
 11
16.510774
 21
-72.006085
 31
0.0
  0
ARC
  5
103
100
AcDbEntity
  8
0
370
    -3
390
0
  6
Continuous
100
AcDbCircle
 10
7.510774
 20
-75.006085
 30
0.0
 40
3.0
100
AcDbArc
 50
90.0
 51
180.0
  0
LINE
  5
104
100
AcDbEntity
  8
0
370
    -3
390
0
  6
Continuous
100
AcDbLine
 10
-6.489226
 20
-37.006085
 30
0.0
 11
-6.489226
 21
-83.420264
 31
0.0
  0
LINE
  5
105
100
AcDbEntity
  8
0
370
    -3
390
0
  6
Continuous
100
AcDbLine
 10
-10.989226
 20
-37.006085
 30
0.0
 11
-6.489226
 21
-37.006085
 31
0.0
  0
LINE
  5
106
100
AcDbEntity
  8
0
370
    -3
390
0
  6
Continuous
100
AcDbLine
 10
-10.989226
 20
-95.006085
 30
0.0
 11
-10.989226
 21
-37.006085
 31
0.0
  0
LINE
  5
107
100
AcDbEntity
  8
0
370
    -3
390
0
  6
CENTER
100
AcDbLine
 10
-16.719474
 20
-57.006085
 30
0.0
 11
1.379792
 21
-57.006085
 31
0.0
  0
LINE
  5
108
100
AcDbEntity
  8
0
370
    -3
390
0
  6
Continuous
100
AcDbLine
 10
-10.989226
 20
-95.006085
 30
0.0
 11
-6.489227
 21
-95.006085
 31
0.0
  0
LINE
  5
109
100
AcDbEntity
  8
0
370
    -3
390
0
  6
Continuous
100
AcDbLine
 10
-3.489226
 20
-147.791718
 30
0.0
 11
-3.489226
 21
-100.251083
 31
0.0
  0
ARC
  5
10A
100
AcDbEntity
  8
0
370
    -3
390
0
  6
Continuous
100
AcDbCircle
 10
-8.489226
 20
-100.251083
 30
0.0
 40
5.0
100
AcDbArc
 50
0.0
 51
9.564842
  0
LINE
  5
10B
100
AcDbEntity
  8
0
370
    -3
390
0
  6
Continuous
100
AcDbLine
 10
-6.489226
 20
-95.006085
 30
0.0
 11
-6.489226
 21
-75.006085
 31
0.0
  0
ARC
  5
10C
100
AcDbEntity
  8
0
370
    -3
390
0
  6
Continuous
100
AcDbCircle
 10
-3.489226
 20
-75.006085
 30
0.0
 40
3.0
100
AcDbArc
 50
90.0
 51
180.0
  0
LINE
  5
10D
100
AcDbEntity
  8
0
370
    -3
390
0
  6
Continuous
100
AcDbLine
 10
17.010774
 20
-72.006065
 30
0.0
 11
152.175568
 21
-67.286006
 31
0.0
  0
LINE
  5
10E
100
AcDbEntity
  8
0
370
    -3
390
0
  6
CENTER
100
AcDbLine
 10
42.010774
 20
-79.73433
 30
0.0
 11
42.010774
 21
-47.566222
 31
0.0
  0
LINE
  5
10F
100
AcDbEntity
  8
0
370
    -3
390
0
  6
Continuous
100
AcDbLine
 10
17.010774
 20
-72.006065
 30
0.0
 11
17.010774
 21
-379.006085
 31
0.0
  0
LINE
  5
110
100
AcDbEntity
  8
0
370
    -3
390
0
  6
Continuous
100
AcDbLine
 10
25.493321
 20
-69.858002
 30
0.0
 11
131.520898
 21
-68.007283
 31
0.0
  0
ARC
  5
111
100
AcDbEntity
  8
0
370
    -3
390
0
  6
Continuous
100
AcDbCircle
 10
25.510774
 20
-70.857849
 30
0.0
 40
1.0
100
AcDbArc
 50
91.0
 51
178.726076
  0
ARC
  5
112
100
AcDbEntity
  8
0
370
    -3
390
0
  6
Continuous
100
AcDbCircle
 10
23.511268
 20
-70.813385
 30
0.0
 40
1.0
100
AcDbArc
 50
287.183957
 51
358.726076
  0
INSERT
  5
11F
100
AcDbEntity
  8
0
390
0
100
AcDbBlockReference
  2
ZU_SYM__USERS_HOME_SYMBOL_POO_SYM_B20_0000119
 10
4.510773
 20
-166.920264
 30
0.0
  0
LINE
  5
120
100
AcDbEntity
  8
0
370
    -3
390
0
  6
Continuous
100
AcDbLine
 10
-0.227547
 20
-152.365603
 30
0.0
 11
-20.093898
 21
-153.406755
 31
0.0
  0
ARC
  5
121
100
AcDbEntity
  8
0
370
    -3
390
0
  6
Continuous
100
AcDbCircle
 10
-8.489226
 20
-147.791718
 30
0.0
 40
5.0
100
AcDbArc
 50
273.0
 51
0.0
  0
ARC
  5
122
100
AcDbEntity
  8
0
370
    -3
390
0
  6
Continuous
100
AcDbCircle
 10
-0.489226
 20
-147.372456
 30
0.0
 40
5.0
100
AcDbArc
 50
273.0
 51
0.0
  0
ARC
  5
123
100
AcDbEntity
  8
0
370
    -3
390
0
  6
Continuous
100
AcDbCircle
 10
-19.989226
 20
-155.404014
 30
0.0
 40
2.0
100
AcDbArc
 50
93.0
 51
180.0
  0
ARC
  5
124
100
AcDbEntity
  8
0
370
    -3
390
0
  6
Continuous
100
AcDbCircle
 10
1.510774
 20
-221.006085
 30
0.0
 40
3.0
100
AcDbArc
 50
270.0
 51
0.0
  0
ARC
  5
125
100
AcDbEntity
  8
0
370
    -3
390
0
  6
Continuous
100
AcDbCircle
 10
1.510774
 20
-227.006085
 30
0.0
 40
3.0
100
AcDbArc
 50
90.0
 51
180.0
  0
LINE
  5
126
100
AcDbEntity
  8
0
370
    -3
390
0
  6
Continuous
100
AcDbLine
 10
-1.489226
 20
-247.006085
 30
0.0
 11
-1.489226
 21
-227.006085
 31
0.0
  0
INSERT
  5
133
100
AcDbEntity
  8
0
390
0
100
AcDbBlockReference
  2
ZU_SYM__USERS_HOME_SYMBOL_POO_SYM_B20_0000219
 10
4.510773
 20
-266.920264
 30
0.0
  0
LINE
  5
134
100
AcDbEntity
  8
0
370
    -3
390
0
  6
Continuous
100
AcDbLine
 10
-20.093898
 20
-320.605415
 30
0.0
 11
-0.227547
 21
-321.646566
 31
0.0
  0
LINE
  5
135
100
AcDbEntity
  8
0
370
    -3
390
0
  6
Continuous
100
AcDbLine
 10
-17.646234
 20
-328.309542
 30
0.0
 11
-0.227547
 21
-329.222416
 31
0.0
  0
ARC
  5
136
100
AcDbEntity
  8
0
370
    -3
390
0
  6
Continuous
100
AcDbCircle
 10
-0.489226
 20
-334.215564
 30
0.0
 40
5.0
100
AcDbArc
 50
0.0
 51
87.0
  0
ARC
  5
137
100
AcDbEntity
  8
0
370
    -3
390
0
  6
Continuous
100
AcDbCircle
 10
-0.489226
 20
-326.639714
 30
0.0
 40
5.0
100
AcDbArc
 50
0.0
 51
87.0
  0
LINE
  5
138
100
AcDbEntity
  8
0
370
    -3
390
0
  6
Continuous
100
AcDbLine
 10
4.510774
 20
-376.006085
 30
0.0
 11
4.510774
 21
-253.006085
 31
0.0
  0
ARC
  5
139
100
AcDbEntity
  8
0
370
    -3
390
0
  6
Continuous
100
AcDbCircle
 10
1.510774
 20
-253.006085
 30
0.0
 40
3.0
100
AcDbArc
 50
0.0
 51
90.0
  0
ARC
  5
13A
100
AcDbEntity
  8
0
370
    -3
390
0
  6
Continuous
100
AcDbCircle
 10
1.510774
 20
-247.006085
 30
0.0
 40
3.0
100
AcDbArc
 50
180.0
 51
270.0
  0
LINE
  5
13B
100
AcDbEntity
  8
0
370
    -3
390
0
  6
Continuous
100
AcDbLine
 10
16.510774
 20
-237.006085
 30
0.0
 11
16.510774
 21
-379.006085
 31
0.0
  0
LINE
  5
13C
100
AcDbEntity
  8
0
370
    -3
390
0
  6
CENTER
100
AcDbLine
 10
56.259046
 20
-295.006085
 30
0.0
 11
19.300293
 21
-295.006085
 31
0.0
  0
LINE
  5
13D
100
AcDbEntity
  8
0
370
    -3
390
0
  6
CENTER
100
AcDbLine
 10
37.010774
 20
-274.873458
 30
0.0
 11
37.010774
 21
-316.713555
 31
0.0
  0
CIRCLE
  5
13E
100
AcDbEntity
  8
0
370
    -3
390
0
  6
Continuous
100
AcDbCircle
 10
37.010774
 20
-295.006085
 30
0.0
 40
15.0
  0
LINE
  5
13F
100
AcDbEntity
  8
0
370
    -3
390
0
  6
Continuous
100
AcDbLine
 10
17.010774
 20
-320.006085
 30
0.0
 11
160.685271
 21
-325.023309
 31
0.0
  0
INSERT
  5
14C
100
AcDbEntity
  8
0
390
0
100
AcDbBlockReference
  2
ZU_SYM__USERS_HOME_SYMBOL_POO_SYM_B20_0000319
 10
4.510773
 20
-368.067328
 30
0.0
  0
ARC
  5
14D
100
AcDbEntity
  8
0
370
    -3
390
0
  6
Continuous
100
AcDbCircle
 10
7.510774
 20
-376.006085
 30
0.0
 40
3.0
100
AcDbArc
 50
180.0
 51
270.0
  0
LINE
  5
14E
100
AcDbEntity
  8
0
370
    -3
390
0
  6
Continuous
100
AcDbLine
 10
7.510774
 20
-379.006085
 30
0.0
 11
17.010774
 21
-379.006085
 31
0.0
  0
ARC
  5
14F
100
AcDbEntity
  8
0
370
    -3
390
0
  6
Continuous
100
AcDbCircle
 10
-17.489226
 20
-325.313653
 30
0.0
 40
3.0
100
AcDbArc
 50
180.0
 51
267.0
  0
LINE
  5
150
100
AcDbEntity
  8
0
370
    -3
390
0
  6
Continuous
100
AcDbLine
 10
-20.489226
 20
-322.17887
 30
0.0
 11
-20.489226
 21
-325.313653
 31
0.0
  0
ARC
  5
151
100
AcDbEntity
  8
0
370
    -3
390
0
  6
Continuous
100
AcDbCircle
 10
-23.489226
 20
-322.17887
 30
0.0
 40
3.0
100
AcDbArc
 50
0.0
 51
45.572996
  0
ARC
  5
152
100
AcDbEntity
  8
0
370
    -3
390
0
  6
Continuous
100
AcDbCircle
 10
-19.989226
 20
-318.608156
 30
0.0
 40
2.0
100
AcDbArc
 50
180.0
 51
267.0
  0
LINE
  5
153
100
AcDbEntity
  8
0
370
    -3
390
0
  6
Continuous
100
AcDbLine
 10
167.510774
 20
-384.006085
 30
0.0
 11
17.010774
 21
-379.006085
 31
0.0
  0
LINE
  5
154
100
AcDbEntity
  8
0
370
    -3
390
0
  6
CENTER
100
AcDbLine
 10
194.680033
 20
-346.10511
 30
0.0
 11
158.418616
 21
-346.10511
 31
0.0
  0
LINE
  5
155
100
AcDbEntity
  8
0
370
    -3
390
0
  6
CENTER
100
AcDbLine
 10
148.010774
 20
-375.365574
 30
0.0
 11
148.010774
 21
-392.267708
 31
0.0
  0
LINE
  5
156
100
AcDbEntity
  8
0
370
    -3
390
0
  6
Continuous
100
AcDbLine
 10
189.510774
 20
-187.006085
 30
0.0
 11
189.510774
 21
-356.006085
 31
0.0
  0
LINE
  5
157
100
AcDbEntity
  8
0
370
    -3
390
0
  6
Continuous
100
AcDbLine
 10
185.510774
 20
-187.006085
 30
0.0
 11
185.510774
 21
-372.006085
 31
0.0
  0
LINE
  5
158
100
AcDbEntity
  8
0
370
    -3
390
0
  6
Continuous
100
AcDbLine
 10
165.510774
 20
-370.006104
 30
0.0
 11
165.510774
 21
-4.006065
 31
0.0
  0
ARC
  5
159
100
AcDbEntity
  8
0
370
    -3
390
0
  6
Continuous
100
AcDbCircle
 10
160.510774
 20
-330.020263
 30
0.0
 40
5.0
100
AcDbArc
 50
0.0
 51
88.0
  0
ARC
  5
15A
100
AcDbEntity
  8
0
370
    -3
390
0
  6
Continuous
100
AcDbCircle
 10
180.510774
 20
-291.513279
 30
0.0
 40
2.0
100
AcDbArc
 50
180.0
 51
270.0
  0
LINE
  5
15B
100
AcDbEntity
  8
0
370
    -3
390
0
  6
Continuous
100
AcDbLine
 10
178.510774
 20
-194.006085
 30
0.0
 11
178.510774
 21
-327.579678
 31
0.0
  0
ARC
  5
15C
100
AcDbEntity
  8
0
370
    -3
390
0
  6
Continuous
100
AcDbCircle
 10
180.510774
 20
-327.579678
 30
0.0
 40
2.0
100
AcDbArc
 50
180.0
 51
270.0
  0
LINE
  5
15D
100
AcDbEntity
  8
0
370
    -3
390
0
  6
Continuous
100
AcDbLine
 10
185.510774
 20
-329.579678
 30
0.0
 11
180.510774
 21
-329.579678
 31
0.0
  0
LINE
  5
15E
100
AcDbEntity
  8
0
370
    -3
390
0
  6
Continuous
100
AcDbLine
 10
185.510774
 20
-293.513279
 30
0.0
 11
180.510774
 21
-293.513279
 31
0.0
  0
ARC
  5
15F
100
AcDbEntity
  8
0
370
    -3
390
0
  6
Continuous
100
AcDbCircle
 10
164.762913
 20
-372.912846
 30
0.0
 40
2.0
100
AcDbArc
 50
46.609654
 51
87.0
  0
LINE
  5
160
100
AcDbEntity
  8
0
370
    -3
390
0
  6
Continuous
100
AcDbLine
 10
124.010774
 20
-338.587885
 30
0.0
 11
160.510774
 21
-338.587885
 31
0.0
  0
LINE
  5
161
100
AcDbEntity
  8
0
370
    -3
390
0
  6
Continuous
100
AcDbLine
 10
129.010774
 20
-351.006085
 30
0.0
 11
129.010774
 21
-343.587885
 31
0.0
  0
LINE
  5
162
100
AcDbEntity
  8
0
370
    -3
390
0
  6
Continuous
100
AcDbLine
 10
147.016391
 20
-369.980046
 30
0.0
 11
164.867585
 21
-370.915587
 31
0.0
  0
ARC
  5
163
100
AcDbEntity
  8
0
370
    -3
390
0
  6
Continuous
100
AcDbCircle
 10
124.010774
 20
-343.587885
 30
0.0
 40
5.0
100
AcDbArc
 50
0.0
 51
90.0
  0
ARC
  5
164
100
AcDbEntity
  8
0
370
    -3
390
0
  6
Continuous
100
AcDbCircle
 10
148.010774
 20
-351.006085
 30
0.0
 40
19.0
100
AcDbArc
 50
180.0
 51
267.0
  0
ARC
  5
165
100
AcDbEntity
  8
0
370
    -3
390
0
  6
Continuous
100
AcDbCircle
 10
160.510774
 20
-333.587885
 30
0.0
 40
5.0
100
AcDbArc
 50
270.0
 51
0.0
  0
ARC
  5
166
100
AcDbEntity
  8
0
370
    -3
390
0
  6
Continuous
100
AcDbCircle
 10
167.510774
 20
-370.006104
 30
0.0
 40
2.0
100
AcDbArc
 50
180.0
 51
270.0
  0
LINE
  5
167
100
AcDbEntity
  8
0
370
    -3
390
0
  6
Continuous
100
AcDbLine
 10
188.510774
 20
-357.006085
 30
0.0
 11
189.510774
 21
-356.006085
 31
0.0
  0
LINE
  5
168
100
AcDbEntity
  8
0
370
    -3
390
0
  6
Continuous
100
AcDbLine
 10
185.510774
 20
-357.006085
 30
0.0
 11
188.510774
 21
-357.006085
 31
0.0
  0
LINE
  5
169
100
AcDbEntity
  8
0
370
    -3
390
0
  6
Continuous
100
AcDbLine
 10
171.510774
 20
-376.006085
 30
0.0
 11
171.510774
 21
-380.006085
 31
0.0
  0
LINE
  5
16A
100
AcDbEntity
  8
0
370
    -3
390
0
  6
Continuous
100
AcDbLine
 10
167.501895
 20
-372.006085
 30
0.0
 11
185.510774
 21
-372.006085
 31
0.0
  0
ARC
  5
16B
100
AcDbEntity
  8
0
370
    -3
390
0
  6
Continuous
100
AcDbCircle
 10
175.510774
 20
-376.006085
 30
0.0
 40
4.0
100
AcDbArc
 50
90.0
 51
180.0
  0
ARC
  5
16C
100
AcDbEntity
  8
0
370
    -3
390
0
  6
Continuous
100
AcDbCircle
 10
167.510774
 20
-380.006085
 30
0.0
 40
4.0
100
AcDbArc
 50
270.0
 51
0.0
  0
ARC
  5
16D
100
AcDbEntity
  8
0
370
    -3
390
0
  6
Continuous
100
AcDbCircle
 10
133.214358
 20
-62.945099
 30
0.0
 40
5.0
100
AcDbArc
 50
272.0
 51
330.0
  0
ARC
  5
16E
100
AcDbEntity
  8
0
370
    -3
390
0
  6
Continuous
100
AcDbCircle
 10
160.510774
 20
-56.982682
 30
0.0
 40
5.0
100
AcDbArc
 50
320.612186
 51
0.0
  0
ARC
  5
16F
100
AcDbEntity
  8
0
370
    -3
390
0
  6
Continuous
100
AcDbCircle
 10
160.510774
 20
-49.25476
 30
0.0
 40
5.0
100
AcDbArc
 50
320.612186
 51
0.0
  0
LINE
  5
170
100
AcDbEntity
  8
0
370
    -3
390
0
  6
Continuous
100
AcDbLine
 10
137.544485
 20
-65.445099
 30
0.0
 11
164.840901
 21
-18.166319
 31
0.0
  0
ARC
  5
171
100
AcDbEntity
  8
0
370
    -3
390
0
  6
Continuous
100
AcDbCircle
 10
160.510774
 20
-15.666319
 30
0.0
 40
5.0
100
AcDbArc
 50
330.0
 51
0.0
  0
LINE
  5
172
100
AcDbEntity
  8
0
370
    -3
390
0
  6
Continuous
100
AcDbLine
 10
137.658915
 20
-92.694456
 30
0.0
 11
164.375116
 21
-60.155513
 31
0.0
  0
ARC
  5
173
100
AcDbEntity
  8
0
370
    -3
390
0
  6
Continuous
100
AcDbCircle
 10
133.794572
 20
-89.521625
 30
0.0
 40
5.0
100
AcDbArc
 50
270.0
 51
320.612186
  0
ARC
  5
174
100
AcDbEntity
  8
0
370
    -3
390
0
  6
Continuous
100
AcDbCircle
 10
133.794572
 20
-81.793703
 30
0.0
 40
5.0
100
AcDbArc
 50
270.0
 51
320.612186
  0
LINE
  5
175
100
AcDbEntity
  8
0
370
    -3
390
0
  6
Continuous
100
AcDbLine
 10
137.658915
 20
-84.966534
 30
0.0
 11
164.375116
 21
-52.427591
 31
0.0
  0
LINE
  5
176
100
AcDbEntity
  8
0
370
    -3
390
0
  6
Continuous
100
AcDbLine
 10
160.077539
 20
-94.521625
 30
0.0
 11
140.606641
 21
-94.521625
 31
0.0
  0
LINE
  5
177
100
AcDbEntity
  8
0
370
    -3
390
0
  6
CENTER
100
AcDbLine
 10
193.285363
 20
-27.907059
 30
0.0
 11
160.859288
 21
-27.907059
 31
0.0
  0
LINE
  5
178
100
AcDbEntity
  8
0
370
    -3
390
0
  6
Continuous
100
AcDbLine
 10
188.510774
 20
-17.006065
 30
0.0
 11
189.510774
 21
-18.006065
 31
0.0
  0
LINE
  5
179
100
AcDbEntity
  8
0
370
    -3
390
0
  6
Continuous
100
AcDbLine
 10
188.510774
 20
-17.006065
 30
0.0
 11
185.510774
 21
-17.006065
 31
0.0
  0
LINE
  5
17A
100
AcDbEntity
  8
0
370
    -3
390
0
  6
Continuous
100
AcDbLine
 10
189.510774
 20
-187.006085
 30
0.0
 11
189.510774
 21
-18.006065
 31
0.0
  0
LINE
  5
17B
100
AcDbEntity
  8
0
370
    -3
390
0
  6
CENTER
100
AcDbLine
 10
282.195569
 20
-187.006085
 30
0.0
 11
111.348507
 21
-187.006085
 31
0.0
  0
LINE
  5
17C
100
AcDbEntity
  8
0
370
    -3
390
0
  6
Continuous
100
AcDbLine
 10
137.544485
 20
-65.445099
 30
0.0
 11
164.840901
 21
-18.166319
 31
0.0
  0
LINE
  5
17D
100
AcDbEntity
  8
0
370
    -3
390
0
  6
Continuous
100
AcDbLine
 10
185.510774
 20
-187.006085
 30
0.0
 11
185.510774
 21
-2.006065
 31
0.0
  0
LINE
  5
17E
100
AcDbEntity
  8
0
370
    -3
390
0
  6
Continuous
100
AcDbLine
 10
185.510774
 20
-2.006065
 30
0.0
 11
167.510774
 21
-2.006065
 31
0.0
  0
ARC
  5
17F
100
AcDbEntity
  8
0
370
    -3
390
0
  6
Continuous
100
AcDbCircle
 10
133.214358
 20
-62.945099
 30
0.0
 40
5.0
100
AcDbArc
 50
272.0
 51
330.0
  0
ARC
  5
180
100
AcDbEntity
  8
0
370
    -3
390
0
  6
Continuous
100
AcDbCircle
 10
160.510774
 20
-15.666319
 30
0.0
 40
5.0
100
AcDbArc
 50
330.0
 51
0.0
  0
ARC
  5
181
100
AcDbEntity
  8
0
370
    -3
390
0
  6
Continuous
100
AcDbCircle
 10
167.510774
 20
-4.006065
 30
0.0
 40
2.0
100
AcDbArc
 50
90.0
 51
180.0
  0
ARC
  5
182
100
AcDbEntity
  8
0
370
    -3
390
0
  6
Continuous
100
AcDbCircle
 10
180.510774
 20
-194.006085
 30
0.0
 40
2.0
100
AcDbArc
 50
90.0
 51
180.0
  0
LINE
  5
183
100
AcDbEntity
  8
0
370
    -3
390
0
  6
Continuous
100
AcDbLine
 10
185.510774
 20
-192.006085
 30
0.0
 11
180.510774
 21
-192.006085
 31
0.0
  0
ARC
  5
184
100
AcDbEntity
  8
0
370
    -3
390
0
  6
Continuous
100
AcDbCircle
 10
180.510774
 20
-180.006085
 30
0.0
 40
2.0
100
AcDbArc
 50
180.0
 51
270.0
  0
ARC
  5
185
100
AcDbEntity
  8
0
370
    -3
390
0
  6
Continuous
100
AcDbCircle
 10
180.510774
 20
-82.49889
 30
0.0
 40
2.0
100
AcDbArc
 50
90.0
 51
180.0
  0
LINE
  5
186
100
AcDbEntity
  8
0
370
    -3
390
0
  6
Continuous
100
AcDbLine
 10
178.510774
 20
-180.006085
 30
0.0
 11
178.510774
 21
-46.432492
 31
0.0
  0
ARC
  5
187
100
AcDbEntity
  8
0
370
    -3
390
0
  6
Continuous
100
AcDbCircle
 10
180.510774
 20
-46.432492
 30
0.0
 40
2.0
100
AcDbArc
 50
90.0
 51
180.0
  0
LINE
  5
188
100
AcDbEntity
  8
0
370
    -3
390
0
  6
Continuous
100
AcDbLine
 10
185.510774
 20
-44.432492
 30
0.0
 11
180.510774
 21
-44.432492
 31
0.0
  0
LINE
  5
189
100
AcDbEntity
  8
0
370
    -3
390
0
  6
Continuous
100
AcDbLine
 10
185.510774
 20
-80.49889
 30
0.0
 11
180.510774
 21
-80.49889
 31
0.0
  0
LINE
  5
18A
100
AcDbEntity
  8
0
370
    -3
390
0
  6
Continuous
100
AcDbLine
 10
185.510774
 20
-182.006085
 30
0.0
 11
180.510774
 21
-182.006085
 31
0.0
  0
LINE
  5
18B
100
AcDbEntity
  8
0
370
    -3
390
0
  6
Continuous
100
AcDbLine
 10
274.710774
 20
-214.506085
 30
0.0
 11
211.510774
 21
-214.506085
 31
0.0
  0
LINE
  5
18C
100
AcDbEntity
  8
0
370
    -3
390
0
  6
Continuous
100
AcDbLine
 10
275.510774
 20
-187.006085
 30
0.0
 11
275.510774
 21
-213.706085
 31
0.0
  0
ARC
  5
18D
100
AcDbEntity
  8
0
370
    -3
390
0
  6
Continuous
100
AcDbCircle
 10
274.710774
 20
-213.706085
 30
0.0
 40
0.8
100
AcDbArc
 50
270.0
 51
0.0
  0
LINE
  5
18E
100
AcDbEntity
  8
0
370
    -3
390
0
  6
Continuous
100
AcDbLine
 10
203.510774
 20
-214.506085
 30
0.0
 11
196.070581
 21
-214.506085
 31
0.0
  0
LINE
  5
18F
100
AcDbEntity
  8
0
370
    -3
390
0
  6
Continuous
100
AcDbLine
 10
211.510774
 20
-214.506085
 30
0.0
 11
203.510774
 21
-214.506085
 31
0.0
  0
LINE
  5
190
100
AcDbEntity
  8
0
370
    -3
390
0
  6
Continuous
100
AcDbLine
 10
193.510774
 20
-187.006085
 30
0.0
 11
193.510774
 21
-215.206085
 31
0.0
  0
LINE
  5
191
100
AcDbEntity
  8
0
370
    -3
390
0
  6
Continuous
100
AcDbLine
 10
192.710774
 20
-216.006085
 30
0.0
 11
189.510774
 21
-216.006085
 31
0.0
  0
LINE
  5
192
100
AcDbEntity
  8
0
370
    -3
390
0
  6
Continuous
100
AcDbLine
 10
193.510774
 20
-215.206085
 30
0.0
 11
193.510774
 21
-187.006085
 31
0.0
  0
LINE
  5
193
100
AcDbEntity
  8
0
370
    -3
390
0
  6
Continuous
100
AcDbLine
 10
195.510774
 20
-214.356085
 30
0.0
 11
194.310774
 21
-214.356085
 31
0.0
  0
LINE
  5
194
100
AcDbEntity
  8
0
370
    -3
390
0
  6
Continuous
100
AcDbLine
 10
195.510774
 20
-214.356085
 30
0.0
 11
196.070581
 21
-214.506085
 31
0.0
  0
ARC
  5
195
100
AcDbEntity
  8
0
370
    -3
390
0
  6
Continuous
100
AcDbCircle
 10
194.310774
 20
-215.156085
 30
0.0
 40
0.8
100
AcDbArc
 50
90.0
 51
180.0
  0
LINE
  5
196
100
AcDbEntity
  8
0
370
    -3
390
0
  6
Continuous
100
AcDbLine
 10
192.710774
 20
-216.006085
 30
0.0
 11
193.510774
 21
-215.206085
 31
0.0
  0
LINE
  5
197
100
AcDbEntity
  8
0
370
    -3
390
0
  6
Continuous
100
AcDbLine
 10
193.510774
 20
-187.006085
 30
0.0
 11
193.510774
 21
-158.806085
 31
0.0
  0
LINE
  5
198
100
AcDbEntity
  8
0
370
    -3
390
0
  6
Continuous
100
AcDbLine
 10
193.510774
 20
-158.806085
 30
0.0
 11
193.510774
 21
-187.006085
 31
0.0
  0
LINE
  5
199
100
AcDbEntity
  8
0
370
    -3
390
0
  6
Continuous
100
AcDbLine
 10
274.710774
 20
-159.506085
 30
0.0
 11
196.070581
 21
-159.506085
 31
0.0
  0
LINE
  5
19A
100
AcDbEntity
  8
0
370
    -3
390
0
  6
Continuous
100
AcDbLine
 10
195.510774
 20
-159.656085
 30
0.0
 11
194.310774
 21
-159.656085
 31
0.0
  0
LINE
  5
19B
100
AcDbEntity
  8
0
370
    -3
390
0
  6
Continuous
100
AcDbLine
 10
195.510774
 20
-159.656085
 30
0.0
 11
196.070581
 21
-159.506085
 31
0.0
  0
ARC
  5
19C
100
AcDbEntity
  8
0
370
    -3
390
0
  6
Continuous
100
AcDbCircle
 10
194.310774
 20
-158.856085
 30
0.0
 40
0.8
100
AcDbArc
 50
180.0
 51
270.0
  0
LINE
  5
19D
100
AcDbEntity
  8
0
370
    -3
390
0
  6
Continuous
100
AcDbLine
 10
192.710774
 20
-158.006085
 30
0.0
 11
193.510774
 21
-158.806085
 31
0.0
  0
LINE
  5
19E
100
AcDbEntity
  8
0
370
    -3
390
0
  6
Continuous
100
AcDbLine
 10
192.710774
 20
-158.006085
 30
0.0
 11
189.510774
 21
-158.006085
 31
0.0
  0
LINE
  5
19F
100
AcDbEntity
  8
0
370
    -3
390
0
  6
Continuous
100
AcDbLine
 10
275.510774
 20
-187.006085
 30
0.0
 11
275.510774
 21
-160.306085
 31
0.0
  0
ARC
  5
1A0
100
AcDbEntity
  8
0
370
    -3
390
0
  6
Continuous
100
AcDbCircle
 10
274.710774
 20
-160.306085
 30
0.0
 40
0.8
100
AcDbArc
 50
0.0
 51
90.0
  0
LINE
  5
1A1
100
AcDbEntity
  8
0
370
    -3
390
0
  6
Continuous
100
AcDbLine
 10
212.510774
 20
-179.006085
 30
0.0
 11
275.510774
 21
-179.006085
 31
0.0
  0
LINE
  5
1A2
100
AcDbEntity
  8
0
370
    -3
390
0
  6
Continuous
100
AcDbLine
 10
212.510774
 20
-195.006085
 30
0.0
 11
275.510774
 21
-195.006085
 31
0.0
  0
ARC
  5
1A3
100
AcDbEntity
  8
0
370
    -3
390
0
  6
Continuous
100
AcDbCircle
 10
212.510774
 20
-187.006085
 30
0.0
 40
8.0
100
AcDbArc
 50
90.0
 51
270.0
  0
LINE
  5
1A4
100
AcDbEntity
  8
0
370
    -3
390
0
  6
Continuous
100
AcDbLine
 10
58.010774
 20
-62.569688
 30
0.0
 11
58.010774
 21
-51.569688
 31
0.0
  0
LINE
  5
1A5
100
AcDbEntity
  8
0
370
    -3
390
0
  6
Continuous
100
AcDbLine
 10
58.010774
 20
-62.569688
 30
0.0
 11
58.010774
 21
-51.569688
 31
0.0
  0
LINE
  5
1A6
100
AcDbEntity
  8
0
370
    -3
390
0
  6
Continuous
100
AcDbLine
 10
58.010774
 20
-61.569688
 30
0.0
 11
57.52744
 21
-61.569688
 31
0.0
  0
LINE
  5
1A7
100
AcDbEntity
  8
0
370
    -3
390
0
  6
Continuous
100
AcDbLine
 10
57.260774
 20
-63.569688
 30
0.0
 11
57.260774
 21
-66.569688
 31
0.0
  0
LINE
  5
1A8
100
AcDbEntity
  8
0
370
    -3
390
0
  6
Continuous
100
AcDbLine
 10
57.52744
 20
-51.569688
 30
0.0
 11
57.52744
 21
-61.569688
 31
0.0
  0
CIRCLE
  5
1A9
100
AcDbEntity
  8
0
370
    -3
390
0
  6
Continuous
100
AcDbCircle
 10
513.161226
 20
-187.006085
 30
0.0
 40
162.0
  0
LINE
  5
1AA
100
AcDbEntity
  8
0
370
    -3
390
0
  6
Continuous
100
AcDbLine
 10
509.161226
 20
-30.264259
 30
0.0
 11
509.161226
 21
-107.513947
 31
0.0
  0
LINE
  5
1AB
100
AcDbEntity
  8
0
370
    -3
390
0
  6
Continuous
100
AcDbLine
 10
328.161226
 20
-22.006085
 30
0.0
 11
328.161226
 21
-352.006085
 31
0.0
  0
LINE
  5
1AC
100
AcDbEntity
  8
0
370
    -3
390
0
  6
CENTER
100
AcDbLine
 10
338.76982
 20
-12.614679
 30
0.0
 11
371.394382
 21
-45.239241
 31
0.0
  0
LINE
  5
1AD
100
AcDbEntity
  8
0
370
    -3
390
0
  6
Continuous
100
AcDbLine
 10
348.161226
 20
-2.006085
 30
0.0
 11
678.161226
 21
-2.006085
 31
0.0
  0
LINE
  5
1AE
100
AcDbEntity
  8
0
370
    -3
390
0
  6
Continuous
100
AcDbLine
 10
329.625692
 20
-45.896958
 30
0.0
 11
364.227625
 21
-80.49889
 31
0.0
  0
LINE
  5
1AF
100
AcDbEntity
  8
0
370
    -3
390
0
  6
Continuous
100
AcDbLine
 10
372.052099
 20
-3.470551
 30
0.0
 11
406.654032
 21
-38.072483
 31
0.0
  0
CIRCLE
  5
1B0
100
AcDbEntity
  8
0
370
    -3
390
0
  6
Continuous
100
AcDbCircle
 10
513.161226
 20
-187.006085
 30
0.0
 40
50.0
  0
ARC
  5
1B1
100
AcDbEntity
  8
0
370
    -3
390
0
  6
Continuous
100
AcDbCircle
 10
485.161226
 20
-192.823447
 30
0.0
 40
117.460244
100
AcDbArc
 50
93.344152
 51
171.841595
  0
ARC
  5
1B2
100
AcDbEntity
  8
0
370
    -3
390
0
  6
Continuous
100
AcDbCircle
 10
513.161226
 20
-672.006085
 30
0.0
 40
597.460244
100
AcDbArc
 50
90.968764
 51
93.344152
  0
ARC
  5
1B3
100
AcDbEntity
  8
0
370
    -3
390
0
  6
Continuous
100
AcDbCircle
 10
503.161226
 20
-80.630383
 30
0.0
 40
6.0
100
AcDbArc
 50
0.0
 51
90.968764
  0
CIRCLE
  5
1B4
100
AcDbEntity
  8
0
370
    -3
390
0
  6
Continuous
100
AcDbCircle
 10
513.161226
 20
-187.006085
 30
0.0
 40
40.0
  0
ARC
  5
1B5
100
AcDbEntity
  8
0
370
    -3
390
0
  6
Continuous
100
AcDbCircle
 10
513.161226
 20
-187.006085
 30
0.0
 40
75.0
100
AcDbArc
 50
0.0
 51
90.0
  0
CIRCLE
  5
1B6
100
AcDbEntity
  8
0
370
    -3
390
0
  6
Continuous
100
AcDbCircle
 10
513.161226
 20
-187.006085
 30
0.0
 40
170.0
  0
ARC
  5
1B7
100
AcDbEntity
  8
0
370
    -3
390
0
  6
Continuous
100
AcDbCircle
 10
348.161226
 20
-22.006085
 30
0.0
 40
20.0
100
AcDbArc
 50
90.0
 51
180.0
  0
ARC
  5
1B8
100
AcDbEntity
  8
0
370
    -3
390
0
  6
CENTER
100
AcDbCircle
 10
513.161226
 20
-187.006085
 30
0.0
 40
225.0
100
AcDbArc
 50
128.728213
 51
140.944594
  0
CIRCLE
  5
1B9
100
AcDbEntity
  8
0
370
    -3
390
0
  6
Continuous
100
AcDbCircle
 10
354.062201
 20
-27.907059
 30
0.0
 40
12.0
  0
ARC
  5
1BA
100
AcDbEntity
  8
0
370
    -3
390
0
  6
Continuous
100
AcDbCircle
 10
333.161226
 20
-42.361424
 30
0.0
 40
5.0
100
AcDbArc
 50
180.0
 51
225.0
  0
ARC
  5
1BB
100
AcDbEntity
  8
0
370
    -3
390
0
  6
Continuous
100
AcDbCircle
 10
368.516565
 20
-7.006085
 30
0.0
 40
5.0
100
AcDbArc
 50
45.0
 51
90.0
  0
ARC
  5
1BC
100
AcDbEntity
  8
0
370
    -3
390
0
  6
Continuous
100
AcDbCircle
 10
513.161226
 20
-187.006085
 30
0.0
 40
175.0
100
AcDbArc
 50
147.48689
 51
177.424041
  0
ARC
  5
1BD
100
AcDbEntity
  8
0
370
    -3
390
0
  6
Continuous
100
AcDbCircle
 10
357.156557
 20
-87.569958
 30
0.0
 40
10.0
100
AcDbArc
 50
327.48689
 51
45.0
  0
ARC
  5
1BE
100
AcDbEntity
  8
0
370
    -3
390
0
  6
Continuous
100
AcDbCircle
 10
513.161226
 20
-187.006085
 30
0.0
 40
175.0
100
AcDbArc
 50
90.0
 51
122.51311
  0
ARC
  5
1BF
100
AcDbEntity
  8
0
370
    -3
390
0
  6
Continuous
100
AcDbCircle
 10
413.7251
 20
-31.001416
 30
0.0
 40
10.0
100
AcDbArc
 50
225.0
 51
302.51311
  0
ARC
  5
1C0
100
AcDbEntity
  8
0
370
    -3
390
0
  6
Continuous
100
AcDbCircle
 10
504.161226
 20
-30.264259
 30
0.0
 40
5.0
100
AcDbArc
 50
0.0
 51
93.286273
  0
ARC
  5
1C1
100
AcDbEntity
  8
0
370
    -3
390
0
  6
Continuous
100
AcDbCircle
 10
504.161226
 20
-107.513947
 30
0.0
 40
5.0
100
AcDbArc
 50
276.45945
 51
0.0
  0
LINE
  5
1C2
100
AcDbEntity
  8
0
370
    -3
390
0
  6
Continuous
100
AcDbLine
 10
658.477326
 20
-197.006085
 30
0.0
 11
658.477326
 21
-257.198851
 31
0.0
  0
LINE
  5
1C3
100
AcDbEntity
  8
0
370
    -3
390
0
  6
Continuous
100
AcDbLine
 10
696.161226
 20
-192.006085
 30
0.0
 11
690.98136
 21
-192.006085
 31
0.0
  0
LINE
  5
1C4
100
AcDbEntity
  8
0
370
    -3
390
0
  6
Continuous
100
AcDbLine
 10
696.161226
 20
-182.006085
 30
0.0
 11
690.98136
 21
-182.006085
 31
0.0
  0
LINE
  5
1C5
100
AcDbEntity
  8
0
370
    -3
390
0
  6
Continuous
100
AcDbLine
 10
669.903052
 20
-191.006085
 30
0.0
 11
592.653364
 21
-191.006085
 31
0.0
  0
LINE
  5
1C6
100
AcDbEntity
  8
0
370
    -3
390
0
  6
Continuous
100
AcDbLine
 10
669.903052
 20
-183.006085
 30
0.0
 11
592.653364
 21
-183.006085
 31
0.0
  0
LINE
  5
1C7
100
AcDbEntity
  8
0
370
    -3
390
0
  6
Continuous
100
AcDbLine
 10
517.161226
 20
-30.264259
 30
0.0
 11
517.161226
 21
-107.513947
 31
0.0
  0
LINE
  5
1C8
100
AcDbEntity
  8
0
370
    -3
390
0
  6
Continuous
100
AcDbLine
 10
698.161226
 20
-22.006085
 30
0.0
 11
698.161226
 21
-352.006085
 31
0.0
  0
LINE
  5
1C9
100
AcDbEntity
  8
0
370
    -3
390
0
  6
Continuous
100
AcDbLine
 10
696.69676
 20
-45.896958
 30
0.0
 11
662.094828
 21
-80.49889
 31
0.0
  0
LINE
  5
1CA
100
AcDbEntity
  8
0
370
    -3
390
0
  6
Continuous
100
AcDbLine
 10
654.270353
 20
-3.470551
 30
0.0
 11
619.668421
 21
-38.072483
 31
0.0
  0
LINE
  5
1CB
100
AcDbEntity
  8
0
370
    -3
390
0
  6
Continuous
100
AcDbLine
 10
696.69676
 20
-328.115212
 30
0.0
 11
662.094828
 21
-293.513279
 31
0.0
  0
ARC
  5
1CC
100
AcDbEntity
  8
0
370
    -3
390
0
  6
Continuous
100
AcDbCircle
 10
652.477326
 20
-257.198851
 30
0.0
 40
6.0
100
AcDbArc
 50
333.259291
 51
0.0
  0
ARC
  5
1CD
100
AcDbEntity
  8
0
370
    -3
390
0
  6
Continuous
100
AcDbCircle
 10
541.161226
 20
-192.823447
 30
0.0
 40
117.460244
100
AcDbArc
 50
8.158405
 51
86.655848
  0
ARC
  5
1CE
100
AcDbEntity
  8
0
370
    -3
390
0
  6
Continuous
100
AcDbCircle
 10
513.161226
 20
-672.006085
 30
0.0
 40
597.460244
100
AcDbArc
 50
86.655848
 51
89.031236
  0
ARC
  5
1CF
100
AcDbEntity
  8
0
370
    -3
390
0
  6
Continuous
100
AcDbCircle
 10
696.161226
 20
-184.006085
 30
0.0
 40
2.0
100
AcDbArc
 50
0.0
 51
90.0
  0
ARC
  5
1D0
100
AcDbEntity
  8
0
370
    -3
390
0
  6
Continuous
100
AcDbCircle
 10
696.161226
 20
-190.006085
 30
0.0
 40
2.0
100
AcDbArc
 50
270.0
 51
0.0
  0
ARC
  5
1D1
100
AcDbEntity
  8
0
370
    -3
390
0
  6
Continuous
100
AcDbCircle
 10
690.98136
 20
-195.006085
 30
0.0
 40
3.0
100
AcDbArc
 50
90.0
 51
177.424041
  0
ARC
  5
1D2
100
AcDbEntity
  8
0
370
    -3
390
0
  6
Continuous
100
AcDbCircle
 10
690.98136
 20
-179.006085
 30
0.0
 40
3.0
100
AcDbArc
 50
182.575959
 51
270.0
  0
ARC
  5
1D3
100
AcDbEntity
  8
0
370
    -3
390
0
  6
Continuous
100
AcDbCircle
 10
624.784585
 20
-290.176941
 30
0.0
 40
10.0
100
AcDbArc
 50
176.272299
 51
317.25352
  0
ARC
  5
1D4
100
AcDbEntity
  8
0
370
    -3
390
0
  6
Continuous
100
AcDbCircle
 10
652.477326
 20
-197.006085
 30
0.0
 40
6.0
100
AcDbArc
 50
0.0
 51
90.0
  0
ARC
  5
1D5
100
AcDbEntity
  8
0
370
    -3
390
0
  6
Continuous
100
AcDbCircle
 10
651.493438
 20
-177.006085
 30
0.0
 40
6.0
100
AcDbArc
 50
270.0
 51
8.158405
  0
ARC
  5
1D6
100
AcDbEntity
  8
0
370
    -3
390
0
  6
Continuous
100
AcDbCircle
 10
523.161226
 20
-80.630383
 30
0.0
 40
6.0
100
AcDbArc
 50
89.031236
 51
180.0
  0
ARC
  5
1D7
100
AcDbEntity
  8
0
370
    -3
390
0
  6
Continuous
100
AcDbCircle
 10
678.161226
 20
-22.006085
 30
0.0
 40
20.0
100
AcDbArc
 50
0.0
 51
90.0
  0
ARC
  5
1D8
100
AcDbEntity
  8
0
370
    -3
390
0
  6
CENTER
100
AcDbCircle
 10
513.161226
 20
-187.006085
 30
0.0
 40
225.0
100
AcDbArc
 50
38.574845
 51
50.7236
  0
CIRCLE
  5
1D9
100
AcDbEntity
  8
0
370
    -3
390
0
  6
Continuous
100
AcDbCircle
 10
672.260252
 20
-27.907059
 30
0.0
 40
12.0
  0
ARC
  5
1DA
100
AcDbEntity
  8
0
370
    -3
390
0
  6
Continuous
100
AcDbCircle
 10
657.805887
 20
-7.006085
 30
0.0
 40
5.0
100
AcDbArc
 50
90.0
 51
135.0
  0
ARC
  5
1DB
100
AcDbEntity
  8
0
370
    -3
390
0
  6
Continuous
100
AcDbCircle
 10
693.161226
 20
-42.361424
 30
0.0
 40
5.0
100
AcDbArc
 50
315.0
 51
0.0
  0
ARC
  5
1DC
100
AcDbEntity
  8
0
370
    -3
390
0
  6
Continuous
100
AcDbCircle
 10
669.165895
 20
-87.569958
 30
0.0
 40
10.0
100
AcDbArc
 50
135.0
 51
212.51311
  0
ARC
  5
1DD
100
AcDbEntity
  8
0
370
    -3
390
0
  6
Continuous
100
AcDbCircle
 10
513.161226
 20
-187.006085
 30
0.0
 40
175.0
100
AcDbArc
 50
2.575959
 51
32.51311
  0
ARC
  5
1DE
100
AcDbEntity
  8
0
370
    -3
390
0
  6
Continuous
100
AcDbCircle
 10
585.587658
 20
-231.496668
 30
0.0
 40
10.0
100
AcDbArc
 50
148.438153
 51
251.211529
  0
ARC
  5
1DF
100
AcDbEntity
  8
0
370
    -3
390
0
  6
Continuous
100
AcDbCircle
 10
566.907296
 20
-286.406085
 30
0.0
 40
48.0
100
AcDbArc
 50
356.272299
 51
71.211529
  0
ARC
  5
1E0
100
AcDbEntity
  8
0
370
    -3
390
0
  6
Continuous
100
AcDbCircle
 10
513.161226
 20
-187.006085
 30
0.0
 40
175.0
100
AcDbArc
 50
327.48689
 51
357.424041
  0
ARC
  5
1E1
100
AcDbEntity
  8
0
370
    -3
390
0
  6
Continuous
100
AcDbCircle
 10
669.165895
 20
-286.442211
 30
0.0
 40
10.0
100
AcDbArc
 50
147.48689
 51
225.0
  0
ARC
  5
1E2
100
AcDbEntity
  8
0
370
    -3
390
0
  6
Continuous
100
AcDbCircle
 10
612.597353
 20
-31.001416
 30
0.0
 40
10.0
100
AcDbArc
 50
237.48689
 51
315.0
  0
ARC
  5
1E3
100
AcDbEntity
  8
0
370
    -3
390
0
  6
Continuous
100
AcDbCircle
 10
513.161226
 20
-187.006085
 30
0.0
 40
175.0
100
AcDbArc
 50
57.48689
 51
90.0
  0
ARC
  5
1E4
100
AcDbEntity
  8
0
370
    -3
390
0
  6
Continuous
100
AcDbCircle
 10
566.907296
 20
-286.406085
 30
0.0
 40
56.0
100
AcDbArc
 50
4.769311
 51
69.984266
  0
ARC
  5
1E5
100
AcDbEntity
  8
0
370
    -3
390
0
  6
Continuous
100
AcDbCircle
 10
632.678773
 20
-280.918576
 30
0.0
 40
10.0
100
AcDbArc
 50
184.769311
 51
321.84104
  0
ARC
  5
1E6
100
AcDbEntity
  8
0
370
    -3
390
0
  6
Continuous
100
AcDbCircle
 10
589.497656
 20
-224.392573
 30
0.0
 40
10.0
100
AcDbArc
 50
153.906261
 51
249.984266
  0
ARC
  5
1E7
100
AcDbEntity
  8
0
370
    -3
390
0
  6
Continuous
100
AcDbCircle
 10
522.161226
 20
-30.264259
 30
0.0
 40
5.0
100
AcDbArc
 50
86.713727
 51
180.0
  0
ARC
  5
1E8
100
AcDbEntity
  8
0
370
    -3
390
0
  6
Continuous
100
AcDbCircle
 10
522.161226
 20
-107.513947
 30
0.0
 40
5.0
100
AcDbArc
 50
180.0
 51
263.54055
  0
ARC
  5
1E9
100
AcDbEntity
  8
0
370
    -3
390
0
  6
Continuous
100
AcDbCircle
 10
669.903052
 20
-178.006085
 30
0.0
 40
5.0
100
AcDbArc
 50
270.0
 51
3.286273
  0
ARC
  5
1EA
100
AcDbEntity
  8
0
370
    -3
390
0
  6
Continuous
100
AcDbCircle
 10
669.903052
 20
-196.006085
 30
0.0
 40
5.0
100
AcDbArc
 50
356.713727
 51
90.0
  0
ARC
  5
1EB
100
AcDbEntity
  8
0
370
    -3
390
0
  6
Continuous
100
AcDbCircle
 10
592.653364
 20
-196.006085
 30
0.0
 40
5.0
100
AcDbArc
 50
90.0
 51
173.54055
  0
ARC
  5
1EC
100
AcDbEntity
  8
0
370
    -3
390
0
  6
Continuous
100
AcDbCircle
 10
592.653364
 20
-178.006085
 30
0.0
 40
5.0
100
AcDbArc
 50
186.45945
 51
270.0
  0
LINE
  5
1ED
100
AcDbEntity
  8
0
370
    -3
390
0
  6
CENTER
100
AcDbLine
 10
513.161226
 20
-237.006085
 30
0.0
 11
554.631821
 21
-237.006085
 31
0.0
  0
LINE
  5
1EE
100
AcDbEntity
  8
0
370
    -3
390
0
  6
CENTER
100
AcDbLine
 10
687.552632
 20
-12.614679
 30
0.0
 11
654.92807
 21
-45.239241
 31
0.0
  0
LINE
  5
1EF
100
AcDbEntity
  8
0
370
    -3
390
0
  6
CENTER
100
AcDbLine
 10
705.386864
 20
-187.006085
 30
0.0
 11
315.214548
 21
-187.006085
 31
0.0
  0
LINE
  5
1F0
100
AcDbEntity
  8
0
370
    -3
390
0
  6
Continuous
100
AcDbLine
 10
481.661226
 20
-179.006085
 30
0.0
 11
491.661226
 21
-179.006085
 31
0.0
  0
LINE
  5
1F1
100
AcDbEntity
  8
0
370
    -3
390
0
  6
Continuous
100
AcDbLine
 10
491.661226
 20
-179.006085
 30
0.0
 11
491.661226
 21
-195.006085
 31
0.0
  0
LINE
  5
1F2
100
AcDbEntity
  8
0
370
    -3
390
0
  6
Continuous
100
AcDbLine
 10
481.661226
 20
-195.006085
 30
0.0
 11
491.661226
 21
-195.006085
 31
0.0
  0
ARC
  5
1F3
100
AcDbEntity
  8
0
370
    -3
390
0
  6
Continuous
100
AcDbCircle
 10
513.161226
 20
-187.006085
 30
0.0
 40
27.5
100
AcDbArc
 50
196.91239
 51
163.08761
  0
CIRCLE
  5
1F4
100
AcDbEntity
  8
0
370
    -3
390
0
  6
Continuous
100
AcDbCircle
 10
513.161226
 20
-187.006085
 30
0.0
 40
5.0
  0
CIRCLE
  5
1F5
100
AcDbEntity
  8
0
370
    -3
390
0
  6
Continuous
100
AcDbCircle
 10
513.161226
 20
-187.006085
 30
0.0
 40
4.188
  0
LINE
  5
1F6
100
AcDbEntity
  8
0
370
    -3
390
0
  6
Continuous
100
AcDbLine
 10
654.270353
 20
-370.541619
 30
0.0
 11
619.668421
 21
-335.939686
 31
0.0
  0
LINE
  5
1F7
100
AcDbEntity
  8
0
370
    -3
390
0
  6
Continuous
100
AcDbLine
 10
513.161226
 20
-372.006085
 30
0.0
 11
678.161226
 21
-372.006085
 31
0.0
  0
LINE
  5
1F8
100
AcDbEntity
  8
0
370
    -3
390
0
  6
Continuous
100
AcDbLine
 10
513.161226
 20
-372.006085
 30
0.0
 11
348.161226
 21
-372.006085
 31
0.0
  0
ARC
  5
1F9
100
AcDbEntity
  8
0
370
    -3
390
0
  6
Continuous
100
AcDbCircle
 10
587.599466
 20
-367.506085
 30
0.0
 40
17.5
100
AcDbArc
 50
289.462951
 51
333.460895
  0
ARC
  5
1FA
100
AcDbEntity
  8
0
370
    -3
390
0
  6
Continuous
100
AcDbCircle
 10
608.623262
 20
-378.006085
 30
0.0
 40
6.0
100
AcDbArc
 50
90.0
 51
153.460895
  0
ARC
  5
1FB
100
AcDbEntity
  8
0
370
    -3
390
0
  6
Continuous
100
AcDbCircle
 10
678.161226
 20
-352.006085
 30
0.0
 40
20.0
100
AcDbArc
 50
270.0
 51
0.0
  0
CIRCLE
  5
1FC
100
AcDbEntity
  8
0
370
    -3
390
0
  6
Continuous
100
AcDbCircle
 10
672.260252
 20
-346.10511
 30
0.0
 40
12.0
  0
ARC
  5
1FD
100
AcDbEntity
  8
0
370
    -3
390
0
  6
Continuous
100
AcDbCircle
 10
657.805887
 20
-367.006085
 30
0.0
 40
5.0
100
AcDbArc
 50
225.0
 51
270.0
  0
ARC
  5
1FE
100
AcDbEntity
  8
0
370
    -3
390
0
  6
Continuous
100
AcDbCircle
 10
446.941424
 20
-240.297151
 30
0.0
 40
10.0
100
AcDbArc
 50
300.36921
 51
38.82573
  0
ARC
  5
1FF
100
AcDbEntity
  8
0
370
    -3
390
0
  6
Continuous
100
AcDbCircle
 10
513.161226
 20
-187.006085
 30
0.0
 40
175.0
100
AcDbArc
 50
270.0
 51
302.51311
  0
ARC
  5
200
100
AcDbEntity
  8
0
370
    -3
390
0
  6
Continuous
100
AcDbCircle
 10
612.597353
 20
-343.010754
 30
0.0
 40
10.0
100
AcDbArc
 50
45.0
 51
122.51311
  0
ARC
  5
201
100
AcDbEntity
  8
0
370
    -3
390
0
  6
Continuous
100
AcDbCircle
 10
693.161226
 20
-331.650746
 30
0.0
 40
5.0
100
AcDbArc
 50
0.0
 51
45.0
  0
ARC
  5
202
100
AcDbEntity
  8
0
370
    -3
390
0
  6
Continuous
100
AcDbCircle
 10
513.161226
 20
-187.006085
 30
0.0
 40
175.0
100
AcDbArc
 50
237.48689
 51
270.0
  0
LINE
  5
203
100
AcDbEntity
  8
0
370
    -3
390
0
  6
Continuous
100
AcDbLine
 10
513.161226
 20
-384.006085
 30
0.0
 11
432.892035
 21
-384.006085
 31
0.0
  0
LINE
  5
204
100
AcDbEntity
  8
0
370
    -3
390
0
  6
Continuous
100
AcDbLine
 10
513.161226
 20
-384.006085
 30
0.0
 11
593.430418
 21
-384.006085
 31
0.0
  0
LINE
  5
205
100
AcDbEntity
  8
0
370
    -3
390
0
  6
CENTER
100
AcDbLine
 10
687.552632
 20
-361.397491
 30
0.0
 11
654.92807
 21
-328.772929
 31
0.0
  0
ARC
  5
206
100
AcDbEntity
  8
0
370
    -3
390
0
  6
CENTER
100
AcDbCircle
 10
513.161226
 20
-187.006085
 30
0.0
 40
225.0
100
AcDbArc
 50
308.728213
 51
320.944594
  0
LINE
  5
207
100
AcDbEntity
  8
0
370
    -3
390
0
  6
Continuous
100
AcDbLine
 10
481.661226
 20
-179.006085
 30
0.0
 11
481.661226
 21
-195.006085
 31
0.0
  0
LINE
  5
208
100
AcDbEntity
  8
0
370
    -3
390
0
  6
Continuous
100
AcDbLine
 10
372.052099
 20
-370.541619
 30
0.0
 11
406.654032
 21
-335.939686
 31
0.0
  0
LINE
  5
209
100
AcDbEntity
  8
0
370
    -3
390
0
  6
Continuous
100
AcDbLine
 10
329.625692
 20
-328.115212
 30
0.0
 11
364.227625
 21
-293.513279
 31
0.0
  0
ARC
  5
20A
100
AcDbEntity
  8
0
370
    -3
390
0
  6
Continuous
100
AcDbCircle
 10
438.722987
 20
-367.506085
 30
0.0
 40
17.5
100
AcDbArc
 50
206.539105
 51
250.537049
  0
ARC
  5
20B
100
AcDbEntity
  8
0
370
    -3
390
0
  6
Continuous
100
AcDbCircle
 10
417.699191
 20
-378.006085
 30
0.0
 40
6.0
100
AcDbArc
 50
26.539105
 51
90.0
  0
ARC
  5
20C
100
AcDbEntity
  8
0
370
    -3
390
0
  6
Continuous
100
AcDbCircle
 10
348.161226
 20
-352.006085
 30
0.0
 40
20.0
100
AcDbArc
 50
180.0
 51
270.0
  0
ARC
  5
20D
100
AcDbEntity
  8
0
370
    -3
390
0
  6
CENTER
100
AcDbCircle
 10
513.161226
 20
-187.006085
 30
0.0
 40
225.0
100
AcDbArc
 50
219.057743
 51
231.429795
  0
CIRCLE
  5
20E
100
AcDbEntity
  8
0
370
    -3
390
0
  6
Continuous
100
AcDbCircle
 10
354.062201
 20
-346.10511
 30
0.0
 40
12.0
  0
ARC
  5
20F
100
AcDbEntity
  8
0
370
    -3
390
0
  6
Continuous
100
AcDbCircle
 10
368.516565
 20
-367.006085
 30
0.0
 40
5.0
100
AcDbArc
 50
270.0
 51
315.0
  0
ARC
  5
210
100
AcDbEntity
  8
0
370
    -3
390
0
  6
Continuous
100
AcDbCircle
 10
416.542669
 20
-304.346847
 30
0.0
 40
10.0
100
AcDbArc
 50
230.531908
 51
8.851634
  0
ARC
  5
211
100
AcDbEntity
  8
0
370
    -3
390
0
  6
Continuous
100
AcDbCircle
 10
478.792346
 20
-294.652636
 30
0.0
 40
53.0
100
AcDbArc
 50
120.36921
 51
188.851634
  0
ARC
  5
212
100
AcDbEntity
  8
0
370
    -3
390
0
  6
Continuous
100
AcDbCircle
 10
513.161226
 20
-187.006085
 30
0.0
 40
175.0
100
AcDbArc
 50
182.575959
 51
212.51311
  0
ARC
  5
213
100
AcDbEntity
  8
0
370
    -3
390
0
  6
Continuous
100
AcDbCircle
 10
357.156557
 20
-286.442211
 30
0.0
 40
10.0
100
AcDbArc
 50
315.0
 51
32.51311
  0
ARC
  5
214
100
AcDbEntity
  8
0
370
    -3
390
0
  6
Continuous
100
AcDbCircle
 10
413.7251
 20
-343.010754
 30
0.0
 40
10.0
100
AcDbArc
 50
57.48689
 51
135.0
  0
ARC
  5
215
100
AcDbEntity
  8
0
370
    -3
390
0
  6
Continuous
100
AcDbCircle
 10
333.161226
 20
-331.650746
 30
0.0
 40
5.0
100
AcDbArc
 50
135.0
 51
180.0
  0
ARC
  5
216
100
AcDbEntity
  8
0
370
    -3
390
0
  6
Continuous
100
AcDbCircle
 10
478.792346
 20
-294.652636
 30
0.0
 40
61.0
100
AcDbArc
 50
121.018602
 51
181.557316
  0
ARC
  5
217
100
AcDbEntity
  8
0
370
    -3
390
0
  6
Continuous
100
AcDbCircle
 10
407.818571
 20
-296.582199
 30
0.0
 40
10.0
100
AcDbArc
 50
226.128463
 51
1.557316
  0
LINE
  5
218
100
AcDbEntity
  8
0
370
    -3
390
0
  6
CENTER
100
AcDbLine
 10
338.76982
 20
-361.397491
 30
0.0
 11
371.394382
 21
-328.772929
 31
0.0
  0
ARC
  5
219
100
AcDbEntity
  8
0
370
    -3
390
0
  6
Continuous
100
AcDbCircle
 10
442.204886
 20
-233.805633
 30
0.0
 40
10.0
100
AcDbArc
 50
301.018602
 51
33.407013
  0
LINE
  5
21A
100
AcDbEntity
  8
0
370
    -3
390
0
  6
Continuous
100
AcDbLine
 10
356.4194
 20
-183.006085
 30
0.0
 11
433.669088
 21
-183.006085
 31
0.0
  0
LINE
  5
21B
100
AcDbEntity
  8
0
370
    -3
390
0
  6
Continuous
100
AcDbLine
 10
356.4194
 20
-191.006085
 30
0.0
 11
433.669088
 21
-191.006085
 31
0.0
  0
ARC
  5
21C
100
AcDbEntity
  8
0
370
    -3
390
0
  6
Continuous
100
AcDbCircle
 10
433.669088
 20
-178.006085
 30
0.0
 40
5.0
100
AcDbArc
 50
270.0
 51
353.54055
  0
ARC
  5
21D
100
AcDbEntity
  8
0
370
    -3
390
0
  6
Continuous
100
AcDbCircle
 10
433.669088
 20
-196.006085
 30
0.0
 40
5.0
100
AcDbArc
 50
6.45945
 51
90.0
  0
LINE
  5
21E
100
AcDbEntity
  8
0
370
    -3
390
0
  6
Continuous
100
AcDbLine
 10
330.161226
 20
-192.006085
 30
0.0
 11
335.341093
 21
-192.006085
 31
0.0
  0
LINE
  5
21F
100
AcDbEntity
  8
0
370
    -3
390
0
  6
Continuous
100
AcDbLine
 10
330.161226
 20
-182.006085
 30
0.0
 11
335.341093
 21
-182.006085
 31
0.0
  0
ARC
  5
220
100
AcDbEntity
  8
0
370
    -3
390
0
  6
Continuous
100
AcDbCircle
 10
330.161226
 20
-190.006085
 30
0.0
 40
2.0
100
AcDbArc
 50
180.0
 51
270.0
  0
ARC
  5
221
100
AcDbEntity
  8
0
370
    -3
390
0
  6
Continuous
100
AcDbCircle
 10
335.341093
 20
-195.006085
 30
0.0
 40
3.0
100
AcDbArc
 50
2.575959
 51
90.0
  0
ARC
  5
222
100
AcDbEntity
  8
0
370
    -3
390
0
  6
Continuous
100
AcDbCircle
 10
330.161226
 20
-184.006085
 30
0.0
 40
2.0
100
AcDbArc
 50
90.0
 51
180.0
  0
ARC
  5
223
100
AcDbEntity
  8
0
370
    -3
390
0
  6
Continuous
100
AcDbCircle
 10
335.341093
 20
-179.006085
 30
0.0
 40
3.0
100
AcDbArc
 50
270.0
 51
357.424041
  0
ARC
  5
224
100
AcDbEntity
  8
0
370
    -3
390
0
  6
Continuous
100
AcDbCircle
 10
356.4194
 20
-196.006085
 30
0.0
 40
5.0
100
AcDbArc
 50
90.0
 51
183.286273
  0
ARC
  5
225
100
AcDbEntity
  8
0
370
    -3
390
0
  6
Continuous
100
AcDbCircle
 10
356.4194
 20
-178.006085
 30
0.0
 40
5.0
100
AcDbArc
 50
176.713727
 51
270.0
  0
LINE
  5
226
100
AcDbEntity
  8
0
370
    -3
390
0
  6
Continuous
100
AcDbLine
 10
29.010774
 20
-63.569688
 30
0.0
 11
29.010774
 21
-62.569688
 31
0.0
  0
LINE
  5
227
100
AcDbEntity
  8
0
370
    -3
390
0
  6
Continuous
100
AcDbLine
 10
55.010774
 20
-63.569688
 30
0.0
 11
55.010774
 21
-62.569688
 31
0.0
  0
ARC
  5
228
100
AcDbEntity
  8
0
370
    -3
390
0
  6
Continuous
100
AcDbCircle
 10
-219.039226
 20
-205.504295
 30
0.0
 40
5.0
100
AcDbArc
 50
90.0
 51
180.0
  0
LINE
  5
229
100
AcDbEntity
  8
0
370
    -3
390
0
  6
Continuous
100
AcDbLine
 10
-183.989226
 20
-200.504295
 30
0.0
 11
-219.039226
 21
-200.504295
 31
0.0
  0
ARC
  5
22A
100
AcDbEntity
  8
0
370
    -3
390
0
  6
Continuous
100
AcDbCircle
 10
-219.439226
 20
-205.409477
 30
0.0
 40
11.0
100
AcDbArc
 50
90.0
 51
180.0
  0
LINE
  5
22B
100
AcDbEntity
  8
0
370
    -3
390
0
  6
Continuous
100
AcDbLine
 10
-219.439226
 20
-194.409477
 30
0.0
 11
-183.989226
 21
-194.409477
 31
0.0
  0
ARC
  5
22C
100
AcDbEntity
  8
0
370
    -3
390
0
  6
Continuous
100
AcDbCircle
 10
-219.039226
 20
-212.006085
 30
0.0
 40
5.0
100
AcDbArc
 50
90.0
 51
180.0
  0
LINE
  5
22D
100
AcDbEntity
  8
0
370
    -3
390
0
  6
Continuous
100
AcDbLine
 10
-183.989226
 20
-207.006085
 30
0.0
 11
-219.039226
 21
-207.006085
 31
0.0
  0
LINE
  5
22E
100
AcDbEntity
  8
0
370
    -3
390
0
  6
Continuous
100
AcDbLine
 10
-148.539226
 20
-296.791986
 30
0.0
 11
-183.989226
 21
-296.791986
 31
0.0
  0
LINE
  5
22F
100
AcDbEntity
  8
0
370
    -3
390
0
  6
Continuous
100
AcDbLine
 10
-148.539226
 20
-298.012196
 30
0.0
 11
-183.989226
 21
-298.012196
 31
0.0
  0
ELLIPSE
  5
230
100
AcDbEntity
  8
0
370
    -3
390
0
  6
Continuous
100
AcDbEllipse
 10
-183.989226
 20
-289.778173
 30
0.0
 11
8.0
 21
0.0
 31
0.0
210
0.0
220
0.0
230
1.0
 40
0.913545
 41
1.5707963267948966
 42
2.4673754548869451
  0
ELLIPSE
  5
231
100
AcDbEntity
  8
0
370
    -3
390
0
  6
Continuous
100
AcDbEllipse
 10
-183.989226
 20
-290.579877
 30
0.0
 11
8.0
 21
0.0
 31
0.0
210
0.0
220
0.0
230
1.0
 40
0.913545
 41
1.5707963267948966
 42
2.3717426386694425
  0
LINE
  5
232
100
AcDbEntity
  8
0
370
    -3
390
0
  6
Continuous
100
AcDbLine
 10
-181.989226
 20
-291.440983
 30
0.0
 11
-185.989226
 21
-287.786801
 31
0.0
  0
LINE
  5
233
100
AcDbEntity
  8
0
370
    -3
390
0
  6
Continuous
100
AcDbLine
 10
-185.989226
 20
-291.440983
 30
0.0
 11
-181.989226
 21
-287.786801
 31
0.0
  0
ELLIPSE
  5
234
100
AcDbEntity
  8
0
370
    -3
390
0
  6
Continuous
100
AcDbEllipse
 10
-183.989226
 20
-290.324579
 30
0.0
 11
3.5
 21
0.0
 31
0.0
210
0.0
220
0.0
230
1.0
 40
0.986488
 41
0.0
 42
6.2831853071795862
  0
ELLIPSE
  5
235
100
AcDbEntity
  8
0
370
    -3
390
0
  6
Continuous
100
AcDbEllipse
 10
-183.989226
 20
-290.579877
 30
0.0
 11
8.0
 21
0.0
 31
0.0
210
0.0
220
0.0
230
1.0
 40
0.913545
 41
0.7698500149201927
 42
1.5707963267948966
  0
ARC
  5
236
100
AcDbEntity
  8
0
370
    -3
390
0
  6
Continuous
100
AcDbCircle
 10
-175.501752
 20
-282.582039
 30
0.0
 40
4.0
100
AcDbArc
 50
226.698421
 51
270.0
  0
ELLIPSE
  5
237
100
AcDbEntity
  8
0
370
    -3
390
0
  6
Continuous
100
AcDbEllipse
 10
-183.989226
 20
-289.778173
 30
0.0
 11
8.0
 21
0.0
 31
0.0
210
0.0
220
0.0
230
1.0
 40
0.913545
 41
0.6742171987028479
 42
1.5707963267948966
  0
ARC
  5
238
100
AcDbEntity
  8
0
370
    -3
390
0
  6
Continuous
100
AcDbCircle
 10
-174.729008
 20
-282.582039
 30
0.0
 40
4.0
100
AcDbArc
 50
221.178434
 51
270.0
  0
LINE
  5
239
100
AcDbEntity
  8
0
370
    -3
390
0
  6
Continuous
100
AcDbLine
 10
-219.439226
 20
-296.791986
 30
0.0
 11
-183.989226
 21
-296.791986
 31
0.0
  0
LINE
  5
23A
100
AcDbEntity
  8
0
370
    -3
390
0
  6
Continuous
100
AcDbLine
 10
-219.439226
 20
-298.012196
 30
0.0
 11
-183.989226
 21
-298.012196
 31
0.0
  0
POINT
  5
23B
100
AcDbEntity
  8
0
370
    -3
390
0
  6
CENTER
100
AcDbPoint
 10
-183.989226
 20
-298.012196
 30
0.0
  0
LINE
  5
23C
100
AcDbEntity
  8
0
370
    -3
390
0
  6
Continuous
100
AcDbLine
 10
-230.439226
 20
-205.409477
 30
0.0
 11
-230.439226
 21
-287.012196
 31
0.0
  0
LINE
  5
23D
100
AcDbEntity
  8
0
370
    -3
390
0
  6
Continuous
100
AcDbLine
 10
-224.039226
 20
-205.504295
 30
0.0
 11
-224.039226
 21
-281.582039
 31
0.0
  0
ARC
  5
23E
100
AcDbEntity
  8
0
370
    -3
390
0
  6
Continuous
100
AcDbCircle
 10
-219.039226
 20
-281.582039
 30
0.0
 40
5.0
100
AcDbArc
 50
180.0
 51
270.0
  0
LINE
  5
23F
100
AcDbEntity
  8
0
370
    -3
390
0
  6
Continuous
100
AcDbLine
 10
-192.476701
 20
-286.582039
 30
0.0
 11
-219.039226
 21
-286.582039
 31
0.0
  0
ARC
  5
240
100
AcDbEntity
  8
0
370
    -3
390
0
  6
Continuous
100
AcDbCircle
 10
-219.439226
 20
-287.012196
 30
0.0
 40
11.0
100
AcDbArc
 50
180.0
 51
270.0
  0
ARC
  5
241
100
AcDbEntity
  8
0
370
    -3
390
0
  6
Continuous
100
AcDbCircle
 10
-219.439226
 20
-285.791986
 30
0.0
 40
11.0
100
AcDbArc
 50
180.0
 51
270.0
  0
LINE
  5
242
100
AcDbEntity
  8
0
370
    -3
390
0
  6
Continuous
100
AcDbLine
 10
-175.501752
 20
-286.582039
 30
0.0
 11
-148.939226
 21
-286.582039
 31
0.0
  0
ARC
  5
243
100
AcDbEntity
  8
0
370
    -3
390
0
  6
Continuous
100
AcDbCircle
 10
-193.249444
 20
-282.582039
 30
0.0
 40
4.0
100
AcDbArc
 50
270.0
 51
318.821566
  0
ARC
  5
244
100
AcDbEntity
  8
0
370
    -3
390
0
  6
Continuous
100
AcDbCircle
 10
-192.476701
 20
-282.582039
 30
0.0
 40
4.0
100
AcDbArc
 50
270.0
 51
313.301579
  0
ARC
  5
245
100
AcDbEntity
  8
0
370
    -3
390
0
  6
Continuous
100
AcDbCircle
 10
-148.539226
 20
-287.012196
 30
0.0
 40
11.0
100
AcDbArc
 50
270.0
 51
0.0
  0
ARC
  5
246
100
AcDbEntity
  8
0
370
    -3
390
0
  6
Continuous
100
AcDbCircle
 10
-148.539226
 20
-285.791986
 30
0.0
 40
11.0
100
AcDbArc
 50
270.0
 51
0.0
  0
POINT
  5
247
100
AcDbEntity
  8
0
370
    -3
390
0
  6
CENTER
100
AcDbPoint
 10
-170.489226
 20
-296.791986
 30
0.0
  0
POINT
  5
248
100
AcDbEntity
  8
0
370
    -3
390
0
  6
CENTER
100
AcDbPoint
 10
-197.489226
 20
-296.791986
 30
0.0
  0
ARC
  5
249
100
AcDbEntity
  8
0
370
    -3
390
0
  6
Continuous
100
AcDbCircle
 10
-148.939226
 20
-281.582039
 30
0.0
 40
5.0
100
AcDbArc
 50
270.0
 51
0.0
  0
LINE
  5
24A
100
AcDbEntity
  8
0
370
    -3
390
0
  6
Continuous
100
AcDbLine
 10
-143.939226
 20
-205.504295
 30
0.0
 11
-143.939226
 21
-281.582039
 31
0.0
  0
LINE
  5
24B
100
AcDbEntity
  8
0
370
    -3
390
0
  6
Continuous
100
AcDbLine
 10
-137.539226
 20
-205.409477
 30
0.0
 11
-137.539226
 21
-287.012196
 31
0.0
  0
LINE
  5
24C
100
AcDbEntity
  8
0
370
    -3
390
0
  6
Continuous
100
AcDbLine
 10
-183.989226
 20
-207.006085
 30
0.0
 11
-148.939226
 21
-207.006085
 31
0.0
  0
ARC
  5
24D
100
AcDbEntity
  8
0
370
    -3
390
0
  6
Continuous
100
AcDbCircle
 10
-148.539226
 20
-205.409477
 30
0.0
 40
11.0
100
AcDbArc
 50
0.0
 51
90.0
  0
ARC
  5
24E
100
AcDbEntity
  8
0
370
    -3
390
0
  6
Continuous
100
AcDbCircle
 10
-148.939226
 20
-205.504295
 30
0.0
 40
5.0
100
AcDbArc
 50
0.0
 51
90.0
  0
LINE
  5
24F
100
AcDbEntity
  8
0
370
    -3
390
0
  6
Continuous
100
AcDbLine
 10
-183.989226
 20
-200.504295
 30
0.0
 11
-148.939226
 21
-200.504295
 31
0.0
  0
ARC
  5
250
100
AcDbEntity
  8
0
370
    -3
390
0
  6
Continuous
100
AcDbCircle
 10
-148.939226
 20
-212.006085
 30
0.0
 40
5.0
100
AcDbArc
 50
0.0
 51
90.0
  0
LINE
  5
251
100
AcDbEntity
  8
0
370
    -3
390
0
  6
Continuous
100
AcDbLine
 10
-148.539226
 20
-194.409477
 30
0.0
 11
-183.989226
 21
-194.409477
 31
0.0
  0
LINE
  5
252
100
AcDbEntity
  8
0
370
    -3
390
0
  6
CENTER
100
AcDbLine
 10
-183.989226
 20
-191.506485
 30
0.0
 11
-183.989226
 21
-304.160204
 31
0.0
  0
LINE
  5
253
100
AcDbEntity
  8
0
370
    -3
390
0
  6
CENTER
100
AcDbLine
 10
-320.635601
 20
-237.006085
 30
0.0
 11
-718.68272
 21
-237.006085
 31
0.0
  0
LINE
  5
254
100
AcDbEntity
  8
0
370
    -3
390
0
  6
Continuous
100
AcDbLine
 10
-23.989226
 20
208.949418
 30
0.0
 11
-193.989227
 21
208.949418
 31
0.0
  0
LINE
  5
255
100
AcDbEntity
  8
0
370
    -3
390
0
  6
Continuous
100
AcDbLine
 10
-23.989226
 20
207.054646
 30
0.0
 11
-193.989227
 21
207.054646
 31
0.0
  0
LINE
  5
256
100
AcDbEntity
  8
0
370
    -3
390
0
  6
Continuous
100
AcDbLine
 10
-23.989226
 20
198.964571
 30
0.0
 11
-193.989227
 21
198.964571
 31
0.0
  0
LINE
  5
257
100
AcDbEntity
  8
0
370
    -3
390
0
  6
Continuous
100
AcDbLine
 10
-23.989226
 20
197.022187
 30
0.0
 11
-193.989227
 21
197.022187
 31
0.0
  0
LINE
  5
258
100
AcDbEntity
  8
0
370
    -3
390
0
  6
Continuous
100
AcDbLine
 10
-23.989226
 20
189.016058
 30
0.0
 11
-193.989227
 21
189.016058
 31
0.0
  0
LINE
  5
259
100
AcDbEntity
  8
0
370
    -3
390
0
  6
Continuous
100
AcDbLine
 10
-23.989226
 20
186.951295
 30
0.0
 11
-193.989227
 21
186.951295
 31
0.0
  0
LINE
  5
25A
100
AcDbEntity
  8
0
370
    -3
390
0
  6
Continuous
100
AcDbLine
 10
-23.989226
 20
179.055687
 30
0.0
 11
-193.989227
 21
179.055687
 31
0.0
  0
LINE
  5
25B
100
AcDbEntity
  8
0
370
    -3
390
0
  6
Continuous
100
AcDbLine
 10
-23.989226
 20
176.888977
 30
0.0
 11
-193.989227
 21
176.888977
 31
0.0
  0
LINE
  5
25C
100
AcDbEntity
  8
0
370
    -3
390
0
  6
Continuous
100
AcDbLine
 10
-23.989226
 20
169.078518
 30
0.0
 11
-193.989227
 21
169.078518
 31
0.0
  0
LINE
  5
25D
100
AcDbEntity
  8
0
370
    -3
390
0
  6
Continuous
100
AcDbLine
 10
-23.989226
 20
166.856191
 30
0.0
 11
-193.989227
 21
166.856191
 31
0.0
  0
LINE
  5
25E
100
AcDbEntity
  8
0
370
    -3
390
0
  6
Continuous
100
AcDbLine
 10
-23.989226
 20
154.185771
 30
0.0
 11
-193.989227
 21
154.185771
 31
0.0
  0
LINE
  5
25F
100
AcDbEntity
  8
0
370
    -3
390
0
  6
Continuous
100
AcDbLine
 10
-23.989226
 20
147.114703
 30
0.0
 11
-193.989227
 21
147.114703
 31
0.0
  0
LINE
  5
260
100
AcDbEntity
  8
0
370
    -3
390
0
  6
Continuous
100
AcDbLine
 10
-23.989226
 20
137.993915
 30
0.0
 11
-193.989227
 21
137.993915
 31
0.0
  0
LINE
  5
261
100
AcDbEntity
  8
0
370
    -3
390
0
  6
Continuous
100
AcDbLine
 10
-23.989226
 20
132.993915
 30
0.0
 11
-193.989227
 21
132.993915
 31
0.0
  0
LINE
  5
262
100
AcDbEntity
  8
0
370
    -3
390
0
  6
Continuous
100
AcDbLine
 10
-23.989226
 20
130.493915
 30
0.0
 11
-193.989227
 21
130.493915
 31
0.0
  0
LINE
  5
263
100
AcDbEntity
  8
0
370
    -3
390
0
  6
Continuous
100
AcDbLine
 10
-193.989227
 20
129.493915
 30
0.0
 11
-23.989226
 21
129.493915
 31
0.0
  0
LINE
  5
264
100
AcDbEntity
  8
0
370
    -3
390
0
  6
Continuous
100
AcDbLine
 10
-21.989226
 20
212.993915
 30
0.0
 11
-21.989226
 21
131.391844
 31
0.0
  0
LINE
  5
265
100
AcDbEntity
  8
0
370
    -3
390
0
  6
Continuous
100
AcDbLine
 10
-23.989226
 20
212.993915
 30
0.0
 11
-23.989226
 21
138.993915
 31
0.0
  0
ARC
  5
266
100
AcDbEntity
  8
0
370
    -3
390
0
  6
Continuous
100
AcDbCircle
 10
-23.989226
 20
136.993915
 30
0.0
 40
2.0
100
AcDbArc
 50
0.0
 51
90.0
  0
ARC
  5
267
100
AcDbEntity
  8
0
370
    -3
390
0
  6
Continuous
100
AcDbCircle
 10
-19.989226
 20
131.391844
 30
0.0
 40
2.0
100
AcDbArc
 50
180.0
 51
267.0
  0
LINE
  5
268
100
AcDbEntity
  8
0
370
    -3
390
0
  6
Continuous
100
AcDbLine
 10
16.510774
 20
212.993915
 30
0.0
 11
16.510774
 21
64.993915
 31
0.0
  0
ARC
  5
269
100
AcDbEntity
  8
0
370
    -3
390
0
  6
Continuous
100
AcDbCircle
 10
7.510774
 20
67.993915
 30
0.0
 40
3.0
100
AcDbArc
 50
180.0
 51
270.0
  0
LINE
  5
26A
100
AcDbEntity
  8
0
370
    -3
390
0
  6
Continuous
100
AcDbLine
 10
1.510774
 20
64.993915
 30
0.0
 11
17.010774
 21
64.993915
 31
0.0
  0
ARC
  5
26B
100
AcDbEntity
  8
0
370
    -3
390
0
  6
Continuous
100
AcDbCircle
 10
1.510774
 20
67.993915
 30
0.0
 40
3.0
100
AcDbArc
 50
180.0
 51
270.0
  0
ARC
  5
26C
100
AcDbEntity
  8
0
370
    -3
390
0
  6
Continuous
100
AcDbCircle
 10
1.510774
 20
87.993915
 30
0.0
 40
3.0
100
AcDbArc
 50
90.0
 51
160.528779
  0
LINE
  5
26D
100
AcDbEntity
  8
0
370
    -3
390
0
  6
Continuous
100
AcDbLine
 10
-1.489226
 20
72.993915
 30
0.0
 11
-1.489226
 21
67.993915
 31
0.0
  0
ARC
  5
26E
100
AcDbEntity
  8
0
370
    -3
390
0
  6
Continuous
100
AcDbCircle
 10
1.510774
 20
94.455633
 30
0.0
 40
3.0
100
AcDbArc
 50
0.0
 51
22.103229
  0
LINE
  5
26F
100
AcDbEntity
  8
0
370
    -3
390
0
  6
Continuous
100
AcDbLine
 10
-18.2293
 20
151.034575
 30
0.0
 11
4.290296
 21
95.584463
 31
0.0
  0
ARC
  5
270
100
AcDbEntity
  8
0
370
    -3
390
0
  6
Continuous
100
AcDbCircle
 10
-21.008822
 20
149.905746
 30
0.0
 40
3.0
100
AcDbArc
 50
22.103229
 51
90.0
  0
ARC
  5
271
100
AcDbEntity
  8
0
370
    -3
390
0
  6
Continuous
100
AcDbCircle
 10
-21.008822
 20
144.791089
 30
0.0
 40
3.0
100
AcDbArc
 50
22.103229
 51
90.0
  0
ARC
  5
272
100
AcDbEntity
  8
0
370
    -3
390
0
  6
Continuous
100
AcDbCircle
 10
1.510774
 20
89.340977
 30
0.0
 40
3.0
100
AcDbArc
 50
0.0
 51
22.103229
  0
LINE
  5
273
100
AcDbEntity
  8
0
370
    -3
390
0
  6
Continuous
100
AcDbLine
 10
-18.2293
 20
145.919919
 30
0.0
 11
4.290296
 21
90.469806
 31
0.0
  0
LINE
  5
274
100
AcDbEntity
  8
0
370
    -3
390
0
  6
Continuous
100
AcDbLine
 10
-20.093898
 20
129.394585
 30
0.0
 11
-11.331473
 21
128.935366
 31
0.0
  0
ARC
  5
275
100
AcDbEntity
  8
0
370
    -3
390
0
  6
Continuous
100
AcDbCircle
 10
1.510774
 20
93.993915
 30
0.0
 40
3.0
100
AcDbArc
 50
270.0
 51
316.710922
  0
LINE
  5
276
100
AcDbEntity
  8
0
370
    -3
390
0
  6
Continuous
100
AcDbLine
 10
-5.489227
 20
87.954528
 30
0.0
 11
-5.489226
 21
74.033004
 31
0.0
  0
LINE
  5
277
100
AcDbEntity
  8
0
370
    -3
390
0
  6
Continuous
100
AcDbLine
 10
4.510774
 20
88.993915
 30
0.0
 11
-4.889226
 21
88.993915
 31
0.0
  0
LINE
  5
278
100
AcDbEntity
  8
0
370
    -3
390
0
  6
Continuous
100
AcDbLine
 10
4.510774
 20
72.993915
 30
0.0
 11
-4.889226
 21
72.993915
 31
0.0
  0
LINE
  5
279
100
AcDbEntity
  8
0
370
    -3
390
0
  6
Continuous
100
AcDbLine
 10
-4.889222
 20
88.993914
 30
0.0
 11
-5.489223
 21
87.954525
 31
0.0
  0
LINE
  5
27A
100
AcDbEntity
  8
0
370
    -3
390
0
  6
Continuous
100
AcDbLine
 10
-4.889226
 20
72.993916
 30
0.0
 11
-5.489225
 21
74.033005
 31
0.0
  0
LINE
  5
27B
100
AcDbEntity
  8
0
370
    -3
390
0
  6
Continuous
100
AcDbLine
 10
-4.889226
 20
88.993915
 30
0.0
 11
-4.889226
 21
72.993915
 31
0.0
  0
LINE
  5
27C
100
AcDbEntity
  8
0
370
    -3
390
0
  6
Continuous
100
AcDbLine
 10
-16.68253
 20
152.905746
 30
0.0
 11
-5.489226
 21
152.905746
 31
0.0
  0
LINE
  5
27D
100
AcDbEntity
  8
0
370
    -3
390
0
  6
Continuous
100
AcDbLine
 10
4.510774
 20
67.993915
 30
0.0
 11
4.510774
 21
189.493915
 31
0.0
  0
ARC
  5
27E
100
AcDbEntity
  8
0
370
    -3
390
0
  6
Continuous
100
AcDbCircle
 10
1.510774
 20
189.493915
 30
0.0
 40
3.0
100
AcDbArc
 50
0.0
 51
90.0
  0
ARC
  5
27F
100
AcDbEntity
  8
0
370
    -3
390
0
  6
Continuous
100
AcDbCircle
 10
-3.489226
 20
195.493915
 30
0.0
 40
3.0
100
AcDbArc
 50
180.0
 51
270.0
  0
LINE
  5
280
100
AcDbEntity
  8
0
370
    -3
390
0
  6
Continuous
100
AcDbLine
 10
-6.489226
 20
212.993915
 30
0.0
 11
-6.489226
 21
192.493915
 31
0.0
  0
LINE
  5
281
100
AcDbEntity
  8
0
370
    -3
390
0
  6
Continuous
100
AcDbLine
 10
-10.989226
 20
192.493915
 30
0.0
 11
-6.489226
 21
192.493915
 31
0.0
  0
LINE
  5
282
100
AcDbEntity
  8
0
370
    -3
390
0
  6
Continuous
100
AcDbLine
 10
-3.489226
 20
192.493915
 30
0.0
 11
1.510774
 21
192.493915
 31
0.0
  0
LINE
  5
283
100
AcDbEntity
  8
0
370
    -3
390
0
  6
Continuous
100
AcDbLine
 10
-10.989226
 20
212.993915
 30
0.0
 11
-10.989226
 21
192.493915
 31
0.0
  0
LINE
  5
284
100
AcDbEntity
  8
0
370
    -3
390
0
  6
Continuous
100
AcDbLine
 10
-21.989226
 20
212.993915
 30
0.0
 11
-21.989226
 21
294.595986
 31
0.0
  0
LINE
  5
285
100
AcDbEntity
  8
0
370
    -3
390
0
  6
Continuous
100
AcDbLine
 10
-23.989226
 20
212.993915
 30
0.0
 11
-23.989226
 21
286.993915
 31
0.0
  0
ARC
  5
286
100
AcDbEntity
  8
0
370
    -3
390
0
  6
Continuous
100
AcDbCircle
 10
-23.989226
 20
288.993915
 30
0.0
 40
2.0
100
AcDbArc
 50
270.0
 51
0.0
  0
ARC
  5
287
100
AcDbEntity
  8
0
370
    -3
390
0
  6
Continuous
100
AcDbCircle
 10
-19.989226
 20
294.595986
 30
0.0
 40
2.0
100
AcDbArc
 50
93.0
 51
180.0
  0
LINE
  5
288
100
AcDbEntity
  8
0
370
    -3
390
0
  6
Continuous
100
AcDbLine
 10
16.510774
 20
212.993915
 30
0.0
 11
16.510774
 21
360.993915
 31
0.0
  0
ARC
  5
289
100
AcDbEntity
  8
0
370
    -3
390
0
  6
Continuous
100
AcDbCircle
 10
7.510774
 20
357.993915
 30
0.0
 40
3.0
100
AcDbArc
 50
90.0
 51
180.0
  0
LINE
  5
28A
100
AcDbEntity
  8
0
370
    -3
390
0
  6
Continuous
100
AcDbLine
 10
1.510774
 20
360.993915
 30
0.0
 11
17.010774
 21
360.993915
 31
0.0
  0
ARC
  5
28B
100
AcDbEntity
  8
0
370
    -3
390
0
  6
Continuous
100
AcDbCircle
 10
1.510774
 20
357.993915
 30
0.0
 40
3.0
100
AcDbArc
 50
90.0
 51
180.0
  0
ARC
  5
28C
100
AcDbEntity
  8
0
370
    -3
390
0
  6
Continuous
100
AcDbCircle
 10
1.510774
 20
337.993915
 30
0.0
 40
3.0
100
AcDbArc
 50
199.471221
 51
270.0
  0
LINE
  5
28D
100
AcDbEntity
  8
0
370
    -3
390
0
  6
Continuous
100
AcDbLine
 10
-1.489226
 20
352.993915
 30
0.0
 11
-1.489226
 21
357.993915
 31
0.0
  0
ARC
  5
28E
100
AcDbEntity
  8
0
370
    -3
390
0
  6
Continuous
100
AcDbCircle
 10
1.510774
 20
331.532197
 30
0.0
 40
3.0
100
AcDbArc
 50
337.896771
 51
0.0
  0
LINE
  5
28F
100
AcDbEntity
  8
0
370
    -3
390
0
  6
Continuous
100
AcDbLine
 10
-18.2293
 20
274.953255
 30
0.0
 11
4.290296
 21
330.403368
 31
0.0
  0
ARC
  5
290
100
AcDbEntity
  8
0
370
    -3
390
0
  6
Continuous
100
AcDbCircle
 10
-21.008822
 20
276.082085
 30
0.0
 40
3.0
100
AcDbArc
 50
270.0
 51
337.896771
  0
ARC
  5
291
100
AcDbEntity
  8
0
370
    -3
390
0
  6
Continuous
100
AcDbCircle
 10
-21.008822
 20
281.196741
 30
0.0
 40
3.0
100
AcDbArc
 50
270.0
 51
337.896771
  0
ARC
  5
292
100
AcDbEntity
  8
0
370
    -3
390
0
  6
Continuous
100
AcDbCircle
 10
1.510774
 20
336.646854
 30
0.0
 40
3.0
100
AcDbArc
 50
337.896771
 51
0.0
  0
LINE
  5
293
100
AcDbEntity
  8
0
370
    -3
390
0
  6
Continuous
100
AcDbLine
 10
-18.2293
 20
280.067912
 30
0.0
 11
4.290296
 21
335.518025
 31
0.0
  0
LINE
  5
294
100
AcDbEntity
  8
0
370
    -3
390
0
  6
Continuous
100
AcDbLine
 10
-20.093898
 20
296.593245
 30
0.0
 11
-11.331473
 21
297.052465
 31
0.0
  0
ARC
  5
295
100
AcDbEntity
  8
0
370
    -3
390
0
  6
Continuous
100
AcDbCircle
 10
1.510774
 20
331.993915
 30
0.0
 40
3.0
100
AcDbArc
 50
43.289078
 51
90.0
  0
LINE
  5
296
100
AcDbEntity
  8
0
370
    -3
390
0
  6
Continuous
100
AcDbLine
 10
-5.489227
 20
338.033303
 30
0.0
 11
-5.489226
 21
351.954827
 31
0.0
  0
LINE
  5
297
100
AcDbEntity
  8
0
370
    -3
390
0
  6
Continuous
100
AcDbLine
 10
4.510774
 20
336.993915
 30
0.0
 11
-4.889226
 21
336.993915
 31
0.0
  0
LINE
  5
298
100
AcDbEntity
  8
0
370
    -3
390
0
  6
Continuous
100
AcDbLine
 10
4.510774
 20
352.993915
 30
0.0
 11
-4.889226
 21
352.993915
 31
0.0
  0
LINE
  5
299
100
AcDbEntity
  8
0
370
    -3
390
0
  6
Continuous
100
AcDbLine
 10
-4.889222
 20
336.993917
 30
0.0
 11
-5.489223
 21
338.033305
 31
0.0
  0
LINE
  5
29A
100
AcDbEntity
  8
0
370
    -3
390
0
  6
Continuous
100
AcDbLine
 10
-4.889226
 20
352.993914
 30
0.0
 11
-5.489225
 21
351.954826
 31
0.0
  0
LINE
  5
29B
100
AcDbEntity
  8
0
370
    -3
390
0
  6
Continuous
100
AcDbLine
 10
-4.889226
 20
336.993915
 30
0.0
 11
-4.889226
 21
352.993915
 31
0.0
  0
LINE
  5
29C
100
AcDbEntity
  8
0
370
    -3
390
0
  6
Continuous
100
AcDbLine
 10
-16.68253
 20
273.082085
 30
0.0
 11
-5.489226
 21
273.082085
 31
0.0
  0
LINE
  5
29D
100
AcDbEntity
  8
0
370
    -3
390
0
  6
Continuous
100
AcDbLine
 10
4.510774
 20
357.993915
 30
0.0
 11
4.510774
 21
236.493915
 31
0.0
  0
ARC
  5
29E
100
AcDbEntity
  8
0
370
    -3
390
0
  6
Continuous
100
AcDbCircle
 10
1.510774
 20
236.493915
 30
0.0
 40
3.0
100
AcDbArc
 50
270.0
 51
0.0
  0
ARC
  5
29F
100
AcDbEntity
  8
0
370
    -3
390
0
  6
Continuous
100
AcDbCircle
 10
-3.489226
 20
230.493915
 30
0.0
 40
3.0
100
AcDbArc
 50
90.0
 51
180.0
  0
LINE
  5
2A0
100
AcDbEntity
  8
0
370
    -3
390
0
  6
Continuous
100
AcDbLine
 10
-6.489226
 20
212.993915
 30
0.0
 11
-6.489226
 21
233.493915
 31
0.0
  0
LINE
  5
2A1
100
AcDbEntity
  8
0
370
    -3
390
0
  6
Continuous
100
AcDbLine
 10
-10.989226
 20
233.493915
 30
0.0
 11
-6.489226
 21
233.493915
 31
0.0
  0
LINE
  5
2A2
100
AcDbEntity
  8
0
370
    -3
390
0
  6
Continuous
100
AcDbLine
 10
-3.489226
 20
233.493915
 30
0.0
 11
1.510774
 21
233.493915
 31
0.0
  0
LINE
  5
2A3
100
AcDbEntity
  8
0
370
    -3
390
0
  6
Continuous
100
AcDbLine
 10
-10.989226
 20
212.993915
 30
0.0
 11
-10.989226
 21
233.493915
 31
0.0
  0
ARC
  5
2A4
100
AcDbEntity
  8
0
370
    -3
390
0
  6
Continuous
100
AcDbCircle
 10
133.724993
 20
308.782237
 30
0.0
 40
5.0
100
AcDbArc
 50
270.0
 51
321.908433
  0
LINE
  5
2A5
100
AcDbEntity
  8
0
370
    -3
390
0
  6
Continuous
100
AcDbLine
 10
137.660122
 20
305.697636
 30
0.0
 11
164.445903
 21
339.869167
 31
0.0
  0
ARC
  5
2A6
100
AcDbEntity
  8
0
370
    -3
390
0
  6
Continuous
100
AcDbCircle
 10
160.510774
 20
342.953767
 30
0.0
 40
5.0
100
AcDbArc
 50
321.908433
 51
0.0
  0
ARC
  5
2A7
100
AcDbEntity
  8
0
370
    -3
390
0
  6
Continuous
100
AcDbCircle
 10
133.724993
 20
316.510159
 30
0.0
 40
5.0
100
AcDbArc
 50
270.0
 51
321.908433
  0
LINE
  5
2A8
100
AcDbEntity
  8
0
370
    -3
390
0
  6
Continuous
100
AcDbLine
 10
137.660122
 20
313.425559
 30
0.0
 11
164.445903
 21
347.597089
 31
0.0
  0
ARC
  5
2A9
100
AcDbEntity
  8
0
370
    -3
390
0
  6
Continuous
100
AcDbCircle
 10
160.510774
 20
350.681689
 30
0.0
 40
5.0
100
AcDbArc
 50
321.908433
 51
0.0
  0
LINE
  5
2AA
100
AcDbEntity
  8
0
370
    -3
390
0
  6
Continuous
100
AcDbLine
 10
160.635317
 20
303.782237
 30
0.0
 11
139.854463
 21
303.782237
 31
0.0
  0
ARC
  5
2AB
100
AcDbEntity
  8
0
370
    -3
390
0
  6
Continuous
100
AcDbCircle
 10
141.158712
 20
221.993915
 30
0.0
 40
5.0
100
AcDbArc
 50
180.0
 51
270.0
  0
ARC
  5
2AC
100
AcDbEntity
  8
0
370
    -3
390
0
  6
Continuous
100
AcDbCircle
 10
141.158712
 20
203.993915
 30
0.0
 40
5.0
100
AcDbArc
 50
90.0
 51
180.0
  0
LINE
  5
2AD
100
AcDbEntity
  8
0
370
    -3
390
0
  6
Continuous
100
AcDbLine
 10
160.510774
 20
208.993915
 30
0.0
 11
141.158712
 21
208.993915
 31
0.0
  0
ARC
  5
2AE
100
AcDbEntity
  8
0
370
    -3
390
0
  6
Continuous
100
AcDbCircle
 10
160.510774
 20
203.993915
 30
0.0
 40
5.0
100
AcDbArc
 50
0.0
 51
90.0
  0
LINE
  5
2AF
100
AcDbEntity
  8
0
370
    -3
390
0
  6
Continuous
100
AcDbLine
 10
160.510774
 20
216.993915
 30
0.0
 11
141.158712
 21
216.993915
 31
0.0
  0
ARC
  5
2B0
100
AcDbEntity
  8
0
370
    -3
390
0
  6
Continuous
100
AcDbCircle
 10
160.510774
 20
221.993915
 30
0.0
 40
5.0
100
AcDbArc
 50
270.0
 51
0.0
  0
ARC
  5
2B1
100
AcDbEntity
  8
0
370
    -3
390
0
  6
Continuous
100
AcDbCircle
 10
133.724993
 20
117.205594
 30
0.0
 40
5.0
100
AcDbArc
 50
38.091567
 51
90.0
  0
LINE
  5
2B2
100
AcDbEntity
  8
0
370
    -3
390
0
  6
Continuous
100
AcDbLine
 10
137.660122
 20
120.290194
 30
0.0
 11
164.445903
 21
86.118664
 31
0.0
  0
ARC
  5
2B3
100
AcDbEntity
  8
0
370
    -3
390
0
  6
Continuous
100
AcDbCircle
 10
160.510774
 20
83.034064
 30
0.0
 40
5.0
100
AcDbArc
 50
0.0
 51
38.091567
  0
ARC
  5
2B4
100
AcDbEntity
  8
0
370
    -3
390
0
  6
Continuous
100
AcDbCircle
 10
133.724993
 20
109.477672
 30
0.0
 40
5.0
100
AcDbArc
 50
38.091567
 51
90.0
  0
LINE
  5
2B5
100
AcDbEntity
  8
0
370
    -3
390
0
  6
Continuous
100
AcDbLine
 10
137.660122
 20
112.562272
 30
0.0
 11
164.445903
 21
78.390742
 31
0.0
  0
ARC
  5
2B6
100
AcDbEntity
  8
0
370
    -3
390
0
  6
Continuous
100
AcDbCircle
 10
160.510774
 20
75.306142
 30
0.0
 40
5.0
100
AcDbArc
 50
0.0
 51
38.091567
  0
LINE
  5
2B7
100
AcDbEntity
  8
0
370
    -3
390
0
  6
Continuous
100
AcDbLine
 10
160.635317
 20
122.205594
 30
0.0
 11
139.854463
 21
122.205594
 31
0.0
  0
LINE
  5
2B8
100
AcDbEntity
  8
0
370
    -3
390
0
  6
CENTER
100
AcDbLine
 10
198.372402
 20
53.89489
 30
0.0
 11
151.242258
 21
53.89489
 31
0.0
  0
LINE
  5
2B9
100
AcDbEntity
  8
0
370
    -3
390
0
  6
CENTER
100
AcDbLine
 10
198.372402
 20
372.092941
 30
0.0
 11
151.242258
 21
372.092941
 31
0.0
  0
LINE
  5
2BA
100
AcDbEntity
  8
0
370
    -3
390
0
  6
Continuous
100
AcDbLine
 10
188.510774
 20
42.993915
 30
0.0
 11
189.510774
 21
43.993915
 31
0.0
  0
LINE
  5
2BB
100
AcDbEntity
  8
0
370
    -3
390
0
  6
Continuous
100
AcDbLine
 10
185.510774
 20
42.993915
 30
0.0
 11
188.510774
 21
42.993915
 31
0.0
  0
LINE
  5
2BC
100
AcDbEntity
  8
0
370
    -3
390
0
  6
CENTER
100
AcDbLine
 10
296.674346
 20
212.993915
 30
0.0
 11
-281.52445
 21
212.993915
 31
0.0
  0
LINE
  5
2BD
100
AcDbEntity
  8
0
370
    -3
390
0
  6
Continuous
100
AcDbLine
 10
185.510774
 20
212.993915
 30
0.0
 11
185.510774
 21
397.993935
 31
0.0
  0
LINE
  5
2BE
100
AcDbEntity
  8
0
370
    -3
390
0
  6
Continuous
100
AcDbLine
 10
189.510774
 20
183.993915
 30
0.0
 11
189.510774
 21
381.993935
 31
0.0
  0
LINE
  5
2BF
100
AcDbEntity
  8
0
370
    -3
390
0
  6
Continuous
100
AcDbLine
 10
185.510774
 20
212.993915
 30
0.0
 11
185.510774
 21
27.993915
 31
0.0
  0
LINE
  5
2C0
100
AcDbEntity
  8
0
370
    -3
390
0
  6
Continuous
100
AcDbLine
 10
189.510774
 20
212.993915
 30
0.0
 11
189.510774
 21
43.993915
 31
0.0
  0
ARC
  5
2C1
100
AcDbEntity
  8
0
370
    -3
390
0
  6
Continuous
100
AcDbCircle
 10
167.510774
 20
29.993896
 30
0.0
 40
2.0
100
AcDbArc
 50
180.0
 51
270.0
  0
LINE
  5
2C2
100
AcDbEntity
  8
0
370
    -3
390
0
  6
Continuous
100
AcDbLine
 10
167.501895
 20
27.993915
 30
0.0
 11
185.510774
 21
27.993915
 31
0.0
  0
LINE
  5
2C3
100
AcDbEntity
  8
0
370
    -3
390
0
  6
Continuous
100
AcDbLine
 10
165.510774
 20
29.993896
 30
0.0
 11
165.510774
 21
395.993935
 31
0.0
  0
ARC
  5
2C4
100
AcDbEntity
  8
0
370
    -3
390
0
  6
Continuous
100
AcDbCircle
 10
160.510774
 20
54.979737
 30
0.0
 40
5.0
100
AcDbArc
 50
0.0
 51
88.0
  0
LINE
  5
2C5
100
AcDbEntity
  8
0
370
    -3
390
0
  6
Continuous
100
AcDbLine
 10
17.010774
 20
64.993915
 30
0.0
 11
160.685271
 21
59.976691
 31
0.0
  0
LINE
  5
2C6
100
AcDbEntity
  8
0
370
    -3
390
0
  6
Continuous
100
AcDbLine
 10
17.010774
 20
360.993915
 30
0.0
 11
17.010774
 21
64.993915
 31
0.0
  0
LINE
  5
2C7
100
AcDbEntity
  8
0
370
    -3
390
0
  6
CENTER
100
AcDbLine
 10
42.010774
 20
239.289923
 30
0.0
 11
42.010774
 21
187.219836
 31
0.0
  0
ARC
  5
2C8
100
AcDbEntity
  8
0
370
    -3
390
0
  6
Continuous
100
AcDbCircle
 10
42.010774
 20
213.25488
 30
0.0
 40
17.5
100
AcDbArc
 50
90.0
 51
270.0
  0
ARC
  5
2C9
100
AcDbEntity
  8
0
370
    -3
390
0
  6
Continuous
100
AcDbCircle
 10
42.010774
 20
212.993915
 30
0.0
 40
20.0
100
AcDbArc
 50
300.46356
 51
62.629003
  0
LINE
  5
2CA
100
AcDbEntity
  8
0
370
    -3
390
0
  6
Continuous
100
AcDbLine
 10
42.010774
 20
195.75488
 30
0.0
 11
128.520898
 21
195.75488
 31
0.0
  0
ARC
  5
2CB
100
AcDbEntity
  8
0
370
    -3
390
0
  6
Continuous
100
AcDbCircle
 10
128.520898
 20
192.75488
 30
0.0
 40
3.0
100
AcDbArc
 50
0.0
 51
90.0
  0
LINE
  5
2CC
100
AcDbEntity
  8
0
370
    -3
390
0
  6
Continuous
100
AcDbLine
 10
42.010774
 20
230.75488
 30
0.0
 11
128.520898
 21
230.75488
 31
0.0
  0
ARC
  5
2CD
100
AcDbEntity
  8
0
370
    -3
390
0
  6
Continuous
100
AcDbCircle
 10
128.520898
 20
233.75488
 30
0.0
 40
3.0
100
AcDbArc
 50
270.0
 51
0.0
  0
ARC
  5
2CE
100
AcDbEntity
  8
0
370
    -3
390
0
  6
Continuous
100
AcDbCircle
 10
180.510774
 20
108.486721
 30
0.0
 40
2.0
100
AcDbArc
 50
180.0
 51
270.0
  0
ARC
  5
2CF
100
AcDbEntity
  8
0
370
    -3
390
0
  6
Continuous
100
AcDbCircle
 10
180.510774
 20
72.420322
 30
0.0
 40
2.0
100
AcDbArc
 50
180.0
 51
270.0
  0
LINE
  5
2D0
100
AcDbEntity
  8
0
370
    -3
390
0
  6
Continuous
100
AcDbLine
 10
185.510774
 20
70.420322
 30
0.0
 11
180.510774
 21
70.420322
 31
0.0
  0
LINE
  5
2D1
100
AcDbEntity
  8
0
370
    -3
390
0
  6
Continuous
100
AcDbLine
 10
185.510774
 20
106.486721
 30
0.0
 11
180.510774
 21
106.486721
 31
0.0
  0
LINE
  5
2D2
100
AcDbEntity
  8
0
370
    -3
390
0
  6
Continuous
100
AcDbLine
 10
178.510774
 20
212.993915
 30
0.0
 11
178.510774
 21
353.567508
 31
0.0
  0
LINE
  5
2D3
100
AcDbEntity
  8
0
370
    -3
390
0
  6
Continuous
100
AcDbLine
 10
178.510774
 20
212.993915
 30
0.0
 11
178.510774
 21
72.420322
 31
0.0
  0
CIRCLE
  5
2D4
100
AcDbEntity
  8
0
370
    -3
390
0
  6
Continuous
100
AcDbCircle
 10
42.010774
 20
212.993915
 30
0.0
 40
16.0
  0
LINE
  5
2D5
100
AcDbEntity
  8
0
370
    -3
390
0
  6
Continuous
100
AcDbLine
 10
274.710774
 20
185.493915
 30
0.0
 11
211.510774
 21
185.493915
 31
0.0
  0
LINE
  5
2D6
100
AcDbEntity
  8
0
370
    -3
390
0
  6
Continuous
100
AcDbLine
 10
203.510774
 20
185.493915
 30
0.0
 11
196.070581
 21
185.493915
 31
0.0
  0
LINE
  5
2D7
100
AcDbEntity
  8
0
370
    -3
390
0
  6
Continuous
100
AcDbLine
 10
211.510774
 20
185.493915
 30
0.0
 11
203.510774
 21
185.493915
 31
0.0
  0
LINE
  5
2D8
100
AcDbEntity
  8
0
370
    -3
390
0
  6
Continuous
100
AcDbLine
 10
193.510774
 20
212.993915
 30
0.0
 11
193.510774
 21
184.793915
 31
0.0
  0
LINE
  5
2D9
100
AcDbEntity
  8
0
370
    -3
390
0
  6
Continuous
100
AcDbLine
 10
192.710774
 20
183.993915
 30
0.0
 11
189.510774
 21
183.993915
 31
0.0
  0
LINE
  5
2DA
100
AcDbEntity
  8
0
370
    -3
390
0
  6
Continuous
100
AcDbLine
 10
193.510774
 20
184.793915
 30
0.0
 11
193.510774
 21
212.993915
 31
0.0
  0
LINE
  5
2DB
100
AcDbEntity
  8
0
370
    -3
390
0
  6
Continuous
100
AcDbLine
 10
195.510774
 20
185.643915
 30
0.0
 11
194.310774
 21
185.643915
 31
0.0
  0
LINE
  5
2DC
100
AcDbEntity
  8
0
370
    -3
390
0
  6
Continuous
100
AcDbLine
 10
195.510774
 20
185.643915
 30
0.0
 11
196.070581
 21
185.493915
 31
0.0
  0
ARC
  5
2DD
100
AcDbEntity
  8
0
370
    -3
390
0
  6
Continuous
100
AcDbCircle
 10
194.310774
 20
184.843915
 30
0.0
 40
0.8
100
AcDbArc
 50
90.0
 51
180.0
  0
LINE
  5
2DE
100
AcDbEntity
  8
0
370
    -3
390
0
  6
Continuous
100
AcDbLine
 10
192.710774
 20
183.993915
 30
0.0
 11
193.510774
 21
184.793915
 31
0.0
  0
LINE
  5
2DF
100
AcDbEntity
  8
0
370
    -3
390
0
  6
Continuous
100
AcDbLine
 10
204.510774
 20
185.493915
 30
0.0
 11
204.510774
 21
181.493915
 31
0.0
  0
LINE
  5
2E0
100
AcDbEntity
  8
0
370
    -3
390
0
  6
Continuous
100
AcDbLine
 10
275.510774
 20
181.493915
 30
0.0
 11
204.510774
 21
181.493915
 31
0.0
  0
LINE
  5
2E1
100
AcDbEntity
  8
0
370
    -3
390
0
  6
Continuous
100
AcDbLine
 10
192.710774
 20
241.993915
 30
0.0
 11
189.510774
 21
241.993915
 31
0.0
  0
LINE
  5
2E2
100
AcDbEntity
  8
0
370
    -3
390
0
  6
Continuous
100
AcDbLine
 10
192.710774
 20
241.993915
 30
0.0
 11
193.510774
 21
241.193915
 31
0.0
  0
ARC
  5
2E3
100
AcDbEntity
  8
0
370
    -3
390
0
  6
Continuous
100
AcDbCircle
 10
194.310774
 20
241.143915
 30
0.0
 40
0.8
100
AcDbArc
 50
180.0
 51
270.0
  0
LINE
  5
2E4
100
AcDbEntity
  8
0
370
    -3
390
0
  6
Continuous
100
AcDbLine
 10
195.510774
 20
240.343915
 30
0.0
 11
196.070581
 21
240.493915
 31
0.0
  0
LINE
  5
2E5
100
AcDbEntity
  8
0
370
    -3
390
0
  6
Continuous
100
AcDbLine
 10
195.510774
 20
240.343915
 30
0.0
 11
194.310774
 21
240.343915
 31
0.0
  0
LINE
  5
2E6
100
AcDbEntity
  8
0
370
    -3
390
0
  6
Continuous
100
AcDbLine
 10
274.710774
 20
240.493915
 30
0.0
 11
196.070581
 21
240.493915
 31
0.0
  0
LINE
  5
2E7
100
AcDbEntity
  8
0
370
    -3
390
0
  6
Continuous
100
AcDbLine
 10
193.510774
 20
241.193915
 30
0.0
 11
193.510774
 21
212.993915
 31
0.0
  0
LINE
  5
2E8
100
AcDbEntity
  8
0
370
    -3
390
0
  6
Continuous
100
AcDbLine
 10
193.510774
 20
212.993915
 30
0.0
 11
193.510774
 21
241.193915
 31
0.0
  0
LINE
  5
2E9
100
AcDbEntity
  8
0
370
    -3
390
0
  6
Continuous
100
AcDbLine
 10
275.510774
 20
212.993915
 30
0.0
 11
275.510774
 21
186.293915
 31
0.0
  0
ARC
  5
2EA
100
AcDbEntity
  8
0
370
    -3
390
0
  6
Continuous
100
AcDbCircle
 10
274.710774
 20
186.293915
 30
0.0
 40
0.8
100
AcDbArc
 50
270.0
 51
0.0
  0
LINE
  5
2EB
100
AcDbEntity
  8
0
370
    -3
390
0
  6
Continuous
100
AcDbLine
 10
275.510774
 20
181.493915
 30
0.0
 11
275.510774
 21
186.293915
 31
0.0
  0
ARC
  5
2EC
100
AcDbEntity
  8
0
370
    -3
390
0
  6
Continuous
100
AcDbCircle
 10
274.710774
 20
239.693915
 30
0.0
 40
0.8
100
AcDbArc
 50
0.0
 51
90.0
  0
LINE
  5
2ED
100
AcDbEntity
  8
0
370
    -3
390
0
  6
Continuous
100
AcDbLine
 10
275.510774
 20
212.993915
 30
0.0
 11
275.510774
 21
239.693915
 31
0.0
  0
ARC
  5
2EE
100
AcDbEntity
  8
0
370
    -3
390
0
  6
Continuous
100
AcDbCircle
 10
180.510774
 20
317.50111
 30
0.0
 40
2.0
100
AcDbArc
 50
90.0
 51
180.0
  0
ARC
  5
2EF
100
AcDbEntity
  8
0
370
    -3
390
0
  6
Continuous
100
AcDbCircle
 10
180.510774
 20
353.567508
 30
0.0
 40
2.0
100
AcDbArc
 50
90.0
 51
180.0
  0
LINE
  5
2F0
100
AcDbEntity
  8
0
370
    -3
390
0
  6
Continuous
100
AcDbLine
 10
185.510774
 20
355.567508
 30
0.0
 11
180.510774
 21
355.567508
 31
0.0
  0
LINE
  5
2F1
100
AcDbEntity
  8
0
370
    -3
390
0
  6
Continuous
100
AcDbLine
 10
185.510774
 20
319.50111
 30
0.0
 11
180.510774
 21
319.50111
 31
0.0
  0
LINE
  5
2F2
100
AcDbEntity
  8
0
370
    -3
390
0
  6
Continuous
100
AcDbLine
 10
188.510774
 20
382.993935
 30
0.0
 11
189.510774
 21
381.993935
 31
0.0
  0
LINE
  5
2F3
100
AcDbEntity
  8
0
370
    -3
390
0
  6
Continuous
100
AcDbLine
 10
188.510774
 20
382.993935
 30
0.0
 11
185.510774
 21
382.993935
 31
0.0
  0
LINE
  5
2F4
100
AcDbEntity
  8
0
370
    -3
390
0
  6
Continuous
100
AcDbLine
 10
185.510774
 20
397.993935
 30
0.0
 11
167.510774
 21
397.993935
 31
0.0
  0
ARC
  5
2F5
100
AcDbEntity
  8
0
370
    -3
390
0
  6
Continuous
100
AcDbCircle
 10
167.510774
 20
395.993935
 30
0.0
 40
2.0
100
AcDbArc
 50
90.0
 51
180.0
  0
ARC
  5
2F6
100
AcDbEntity
  8
0
370
    -3
390
0
  6
Continuous
100
AcDbCircle
 10
160.510774
 20
371.008093
 30
0.0
 40
5.0
100
AcDbArc
 50
272.0
 51
0.0
  0
LINE
  5
2F7
100
AcDbEntity
  8
0
370
    -3
390
0
  6
Continuous
100
AcDbLine
 10
17.010774
 20
360.993915
 30
0.0
 11
160.685271
 21
366.011139
 31
0.0
  0
LINE
  5
2F8
100
AcDbEntity
  8
0
370
    -3
390
0
  6
Continuous
100
AcDbLine
 10
-4.889226
 20
265.082085
 30
0.0
 11
-4.889226
 21
281.082085
 31
0.0
  0
LINE
  5
2F9
100
AcDbEntity
  8
0
370
    -3
390
0
  6
Continuous
100
AcDbLine
 10
-4.889226
 20
281.082084
 30
0.0
 11
-5.489225
 21
280.042995
 31
0.0
  0
LINE
  5
2FA
100
AcDbEntity
  8
0
370
    -3
390
0
  6
Continuous
100
AcDbLine
 10
-4.889222
 20
265.082086
 30
0.0
 11
-5.489223
 21
266.121475
 31
0.0
  0
LINE
  5
2FB
100
AcDbEntity
  8
0
370
    -3
390
0
  6
Continuous
100
AcDbLine
 10
4.510774
 20
281.082085
 30
0.0
 11
-4.889226
 21
281.082085
 31
0.0
  0
LINE
  5
2FC
100
AcDbEntity
  8
0
370
    -3
390
0
  6
Continuous
100
AcDbLine
 10
4.510774
 20
265.082085
 30
0.0
 11
-4.889226
 21
265.082085
 31
0.0
  0
LINE
  5
2FD
100
AcDbEntity
  8
0
370
    -3
390
0
  6
Continuous
100
AcDbLine
 10
-5.489227
 20
266.121472
 30
0.0
 11
-5.489226
 21
280.042996
 31
0.0
  0
LINE
  5
2FE
100
AcDbEntity
  8
0
370
    -3
390
0
  6
Continuous
100
AcDbLine
 10
-18.489225
 20
216.993915
 30
0.0
 11
-18.489225
 21
229.993915
 31
0.0
  0
LINE
  5
2FF
100
AcDbEntity
  8
0
370
    -3
390
0
  6
Continuous
100
AcDbLine
 10
-18.489224
 20
229.993915
 30
0.0
 11
-18.989225
 21
229.127986
 31
0.0
  0
LINE
  5
300
100
AcDbEntity
  8
0
370
    -3
390
0
  6
Continuous
100
AcDbLine
 10
-18.489225
 20
216.993915
 30
0.0
 11
-18.989225
 21
217.860039
 31
0.0
  0
LINE
  5
301
100
AcDbEntity
  8
0
370
    -3
390
0
  6
Continuous
100
AcDbLine
 10
-10.989226
 20
229.993915
 30
0.0
 11
-18.489224
 21
229.993915
 31
0.0
  0
LINE
  5
302
100
AcDbEntity
  8
0
370
    -3
390
0
  6
Continuous
100
AcDbLine
 10
-10.989226
 20
216.993915
 30
0.0
 11
-18.489225
 21
216.993915
 31
0.0
  0
LINE
  5
303
100
AcDbEntity
  8
0
370
    -3
390
0
  6
Continuous
100
AcDbLine
 10
-18.989225
 20
217.86004
 30
0.0
 11
-18.989225
 21
229.127986
 31
0.0
  0
LINE
  5
304
100
AcDbEntity
  8
0
370
    -3
390
0
  6
Continuous
100
AcDbLine
 10
-18.489225
 20
208.993915
 30
0.0
 11
-18.489225
 21
195.993915
 31
0.0
  0
LINE
  5
305
100
AcDbEntity
  8
0
370
    -3
390
0
  6
Continuous
100
AcDbLine
 10
-18.489224
 20
195.993915
 30
0.0
 11
-18.989225
 21
196.859845
 31
0.0
  0
LINE
  5
306
100
AcDbEntity
  8
0
370
    -3
390
0
  6
Continuous
100
AcDbLine
 10
-18.489225
 20
208.993915
 30
0.0
 11
-18.989225
 21
208.127791
 31
0.0
  0
LINE
  5
307
100
AcDbEntity
  8
0
370
    -3
390
0
  6
Continuous
100
AcDbLine
 10
-10.989226
 20
195.993915
 30
0.0
 11
-18.489224
 21
195.993915
 31
0.0
  0
LINE
  5
308
100
AcDbEntity
  8
0
370
    -3
390
0
  6
Continuous
100
AcDbLine
 10
-10.989226
 20
208.993915
 30
0.0
 11
-18.489225
 21
208.993915
 31
0.0
  0
LINE
  5
309
100
AcDbEntity
  8
0
370
    -3
390
0
  6
Continuous
100
AcDbLine
 10
-18.989225
 20
208.127791
 30
0.0
 11
-18.989225
 21
196.859845
 31
0.0
  0
LINE
  5
30A
100
AcDbEntity
  8
0
370
    -3
390
0
  6
Continuous
100
AcDbLine
 10
-4.889226
 20
160.905746
 30
0.0
 11
-4.889226
 21
144.905746
 31
0.0
  0
LINE
  5
30B
100
AcDbEntity
  8
0
370
    -3
390
0
  6
Continuous
100
AcDbLine
 10
-4.889226
 20
144.905747
 30
0.0
 11
-5.489225
 21
145.944835
 31
0.0
  0
LINE
  5
30C
100
AcDbEntity
  8
0
370
    -3
390
0
  6
Continuous
100
AcDbLine
 10
-4.889222
 20
160.905745
 30
0.0
 11
-5.489223
 21
159.866356
 31
0.0
  0
LINE
  5
30D
100
AcDbEntity
  8
0
370
    -3
390
0
  6
Continuous
100
AcDbLine
 10
4.510774
 20
144.905746
 30
0.0
 11
-4.889226
 21
144.905746
 31
0.0
  0
LINE
  5
30E
100
AcDbEntity
  8
0
370
    -3
390
0
  6
Continuous
100
AcDbLine
 10
4.510774
 20
160.905746
 30
0.0
 11
-4.889226
 21
160.905746
 31
0.0
  0
LINE
  5
30F
100
AcDbEntity
  8
0
370
    -3
390
0
  6
Continuous
100
AcDbLine
 10
-5.489227
 20
159.866358
 30
0.0
 11
-5.489226
 21
145.944834
 31
0.0
  0
LINE
  5
310
100
AcDbEntity
  8
0
370
    -3
390
0
  6
Continuous
100
AcDbLine
 10
-409.086068
 20
-340.036382
 30
0.0
 11
-436.067649
 21
-313.054802
 31
0.0
  0
LINE
  5
311
100
AcDbEntity
  8
0
370
    -3
390
0
  6
Continuous
100
AcDbLine
 10
-415.25483
 20
-345.181329
 30
0.0
 11
-437.490351
 21
-322.945808
 31
0.0
  0
LINE
  5
312
100
AcDbEntity
  8
0
370
    -3
390
0
  6
Continuous
100
AcDbLine
 10
-620.29161
 20
-345.181329
 30
0.0
 11
-595.700352
 21
-320.590071
 31
0.0
  0
LINE
  5
313
100
AcDbEntity
  8
0
370
    -3
390
0
  6
Continuous
100
AcDbLine
 10
-636.715118
 20
-123.721041
 30
0.0
 11
-587.63537
 21
-172.800789
 31
0.0
  0
LINE
  5
314
100
AcDbEntity
  8
0
370
    -3
390
0
  6
Continuous
100
AcDbLine
 10
-632.335043
 20
-116.787407
 30
0.0
 11
-581.978516
 21
-167.143935
 31
0.0
  0
LINE
  5
315
100
AcDbEntity
  8
0
370
    -3
390
0
  6
Continuous
100
AcDbLine
 10
-398.831322
 20
-123.721041
 30
0.0
 11
-447.91107
 21
-172.800789
 31
0.0
  0
LINE
  5
316
100
AcDbEntity
  8
0
370
    -3
390
0
  6
Continuous
100
AcDbLine
 10
-403.211397
 20
-116.787407
 30
0.0
 11
-453.567924
 21
-167.143935
 31
0.0
  0
LINE
  5
317
100
AcDbEntity
  8
0
370
    -3
390
0
  6
Continuous
100
AcDbLine
 10
-513.77322
 20
-100.006085
 30
0.0
 11
-513.77322
 21
-148.506085
 31
0.0
  0
LINE
  5
318
100
AcDbEntity
  8
0
370
    -3
390
0
  6
Continuous
100
AcDbLine
 10
-521.77322
 20
-100.006085
 30
0.0
 11
-521.77322
 21
-148.506085
 31
0.0
  0
LINE
  5
319
100
AcDbEntity
  8
0
370
    -3
390
0
  6
CENTER
100
AcDbLine
 10
-517.77322
 20
15.402905
 30
0.0
 11
-517.77322
 21
-393.271708
 31
0.0
  0
LINE
  5
31A
100
AcDbEntity
  8
0
370
    -3
390
0
  6
CENTER
100
AcDbLine
 10
-544.395017
 20
-187.006085
 30
0.0
 11
-492.108706
 21
-187.006085
 31
0.0
  0
LINE
  5
31B
100
AcDbEntity
  8
0
370
    -3
390
0
  6
Continuous
100
AcDbLine
 10
-374.830275
 20
-295.912564
 30
0.0
 11
-393.013067
 21
-327.406085
 31
0.0
  0
ARC
  5
31C
100
AcDbEntity
  8
0
370
    -3
390
0
  6
Continuous
100
AcDbCircle
 10
-508.77322
 20
-148.506085
 30
0.0
 40
5.0
100
AcDbArc
 50
180.0
 51
194.147004
  0
ARC
  5
31D
100
AcDbEntity
  8
0
370
    -3
390
0
  6
Continuous
100
AcDbCircle
 10
-526.77322
 20
-148.506085
 30
0.0
 40
5.0
100
AcDbArc
 50
345.852996
 51
0.0
  0
ARC
  5
31E
100
AcDbEntity
  8
0
370
    -3
390
0
  6
Continuous
100
AcDbCircle
 10
-432.532115
 20
-309.519268
 30
0.0
 40
5.0
100
AcDbArc
 50
163.709803
 51
225.0
  0
ARC
  5
31F
100
AcDbEntity
  8
0
370
    -3
390
0
  6
Continuous
100
AcDbCircle
 10
-441.025885
 20
-326.481342
 30
0.0
 40
5.0
100
AcDbArc
 50
45.0
 51
143.091302
  0
ARC
  5
320
100
AcDbEntity
  8
0
370
    -3
390
0
  6
Continuous
100
AcDbCircle
 10
-592.164818
 20
-324.125604
 30
0.0
 40
5.0
100
AcDbArc
 50
61.306201
 51
135.0
  0
ARC
  5
321
100
AcDbEntity
  8
0
370
    -3
390
0
  6
Continuous
100
AcDbCircle
 10
-571.51929
 20
-286.406085
 30
0.0
 40
38.0
100
AcDbArc
 50
147.382623
 51
295.72765
  0
ARC
  5
322
100
AcDbEntity
  8
0
370
    -3
390
0
  6
Continuous
100
AcDbCircle
 10
-483.40434
 20
-294.652636
 30
0.0
 40
48.0
100
AcDbArc
 50
218.131928
 51
15.469317
  0
ARC
  5
323
100
AcDbEntity
  8
0
370
    -3
390
0
  6
Continuous
100
AcDbCircle
 10
-395.295788
 20
-127.256574
 30
0.0
 40
5.0
100
AcDbArc
 50
34.760458
 51
135.0
  0
ARC
  5
324
100
AcDbEntity
  8
0
370
    -3
390
0
  6
Continuous
100
AcDbCircle
 10
-406.746931
 20
-113.251874
 30
0.0
 40
5.0
100
AcDbArc
 50
315.0
 51
43.78282
  0
ARC
  5
325
100
AcDbEntity
  8
0
370
    -3
390
0
  6
Continuous
100
AcDbCircle
 10
-489.77322
 20
-192.823447
 30
0.0
 40
120.0
100
AcDbArc
 50
0.0
 51
86.655848
  0
ARC
  5
326
100
AcDbEntity
  8
0
370
    -3
390
0
  6
Continuous
100
AcDbCircle
 10
-545.77322
 20
-192.823447
 30
0.0
 40
120.0
100
AcDbArc
 50
93.344152
 51
180.0
  0
LINE
  5
327
100
AcDbEntity
  8
0
370
    -3
390
0
  6
Continuous
100
AcDbLine
 10
-626.460372
 20
-340.036382
 30
0.0
 11
-602.290062
 21
-315.866073
 31
0.0
  0
LINE
  5
328
100
AcDbEntity
  8
0
370
    -3
390
0
  6
Continuous
100
AcDbLine
 10
-517.77322
 20
-379.006085
 30
0.0
 11
-598.569052
 21
-379.006085
 31
0.0
  0
LINE
  5
329
100
AcDbEntity
  8
0
370
    -3
390
0
  6
Continuous
100
AcDbLine
 10
-665.77322
 20
-192.823447
 30
0.0
 11
-665.77322
 21
-284.473997
 31
0.0
  0
LINE
  5
32A
100
AcDbEntity
  8
0
370
    -3
390
0
  6
Continuous
100
AcDbLine
 10
-517.77322
 20
-379.006085
 30
0.0
 11
-436.977389
 21
-379.006085
 31
0.0
  0
LINE
  5
32B
100
AcDbEntity
  8
0
370
    -3
390
0
  6
Continuous
100
AcDbLine
 10
-664.433474
 20
-289.473997
 30
0.0
 11
-642.533373
 21
-327.406085
 31
0.0
  0
LINE
  5
32C
100
AcDbEntity
  8
0
370
    -3
390
0
  6
Continuous
100
AcDbLine
 10
-652.77322
 20
-224.006085
 30
0.0
 11
-663.77322
 21
-224.006085
 31
0.0
  0
LINE
  5
32D
100
AcDbEntity
  8
0
370
    -3
390
0
  6
Continuous
100
AcDbLine
 10
-652.77322
 20
-250.006085
 30
0.0
 11
-663.77322
 21
-250.006085
 31
0.0
  0
ARC
  5
32E
100
AcDbEntity
  8
0
370
    -3
390
0
  6
Continuous
100
AcDbCircle
 10
-605.825596
 20
-312.330539
 30
0.0
 40
5.0
100
AcDbArc
 50
315.0
 51
37.077468
  0
ARC
  5
32F
100
AcDbEntity
  8
0
370
    -3
390
0
  6
Continuous
100
AcDbCircle
 10
-616.756077
 20
-348.716863
 30
0.0
 40
5.0
100
AcDbArc
 50
135.0
 51
234.020855
  0
ARC
  5
330
100
AcDbEntity
  8
0
370
    -3
390
0
  6
Continuous
100
AcDbCircle
 10
-629.995906
 20
-336.500848
 30
0.0
 40
5.0
100
AcDbArc
 50
220.585447
 51
315.0
  0
ARC
  5
331
100
AcDbEntity
  8
0
370
    -3
390
0
  6
Continuous
100
AcDbCircle
 10
-441.77322
 20
-368.006085
 30
0.0
 40
12.0
100
AcDbArc
 50
293.556464
 51
2.427809
  0
ARC
  5
332
100
AcDbEntity
  8
0
370
    -3
390
0
  6
Continuous
100
AcDbCircle
 10
-464.02715
 20
-286.406085
 30
0.0
 40
82.0
100
AcDbArc
 50
298.738078
 51
330.0
  0
ARC
  5
333
100
AcDbEntity
  8
0
370
    -3
390
0
  6
Continuous
100
AcDbCircle
 10
-571.51929
 20
-286.406085
 30
0.0
 40
82.0
100
AcDbArc
 50
210.0
 51
241.261922
  0
ARC
  5
334
100
AcDbEntity
  8
0
370
    -3
390
0
  6
Continuous
100
AcDbCircle
 10
-593.77322
 20
-368.006085
 30
0.0
 40
12.0
100
AcDbArc
 50
177.572191
 51
246.443536
  0
ARC
  5
335
100
AcDbEntity
  8
0
370
    -3
390
0
  6
Continuous
100
AcDbCircle
 10
-655.77322
 20
-284.473997
 30
0.0
 40
10.0
100
AcDbArc
 50
180.0
 51
210.0
  0
ARC
  5
336
100
AcDbEntity
  8
0
370
    -3
390
0
  6
Continuous
100
AcDbCircle
 10
-615.753473
 20
-367.074152
 30
0.0
 40
10.0
100
AcDbArc
 50
357.572191
 51
61.261922
  0
ARC
  5
337
100
AcDbEntity
  8
0
370
    -3
390
0
  6
Continuous
100
AcDbCircle
 10
-419.792968
 20
-367.074152
 30
0.0
 40
10.0
100
AcDbArc
 50
118.738078
 51
182.427809
  0
ARC
  5
338
100
AcDbEntity
  8
0
370
    -3
390
0
  6
Continuous
100
AcDbCircle
 10
-663.77322
 20
-222.006085
 30
0.0
 40
2.0
100
AcDbArc
 50
180.0
 51
270.0
  0
ARC
  5
339
100
AcDbEntity
  8
0
370
    -3
390
0
  6
Continuous
100
AcDbCircle
 10
-652.77322
 20
-237.006085
 30
0.0
 40
13.0
100
AcDbArc
 50
270.0
 51
90.0
  0
ARC
  5
33A
100
AcDbEntity
  8
0
370
    -3
390
0
  6
Continuous
100
AcDbCircle
 10
-663.77322
 20
-252.006085
 30
0.0
 40
2.0
100
AcDbArc
 50
90.0
 51
180.0
  0
ARC
  5
33B
100
AcDbEntity
  8
0
370
    -3
390
0
  6
Continuous
100
AcDbCircle
 10
-405.550534
 20
-336.500848
 30
0.0
 40
5.0
100
AcDbArc
 50
225.0
 51
319.414553
  0
ARC
  5
33C
100
AcDbEntity
  8
0
370
    -3
390
0
  6
Continuous
100
AcDbCircle
 10
-418.790364
 20
-348.716863
 30
0.0
 40
5.0
100
AcDbArc
 50
305.979145
 51
45.0
  0
ARC
  5
33D
100
AcDbEntity
  8
0
370
    -3
390
0
  6
Continuous
100
AcDbCircle
 10
-628.799509
 20
-113.251874
 30
0.0
 40
5.0
100
AcDbArc
 50
136.21718
 51
225.0
  0
ARC
  5
33E
100
AcDbEntity
  8
0
370
    -3
390
0
  6
Continuous
100
AcDbCircle
 10
-640.250652
 20
-127.256574
 30
0.0
 40
5.0
100
AcDbArc
 50
45.0
 51
145.239542
  0
LINE
  5
33F
100
AcDbEntity
  8
0
370
    -3
390
0
  6
Continuous
100
AcDbLine
 10
-500.27322
 20
-95.006085
 30
0.0
 11
-517.77322
 21
-95.006085
 31
0.0
  0
LINE
  5
340
100
AcDbEntity
  8
0
370
    -3
390
0
  6
Continuous
100
AcDbLine
 10
-535.27322
 20
-95.006085
 30
0.0
 11
-517.77322
 21
-95.006085
 31
0.0
  0
LINE
  5
341
100
AcDbEntity
  8
0
370
    -3
390
0
  6
Continuous
100
AcDbLine
 10
-497.27322
 20
-72.356395
 30
0.0
 11
-497.27322
 21
-92.006085
 31
0.0
  0
LINE
  5
342
100
AcDbEntity
  8
0
370
    -3
390
0
  6
Continuous
100
AcDbLine
 10
-538.27322
 20
-72.356395
 30
0.0
 11
-538.27322
 21
-92.006085
 31
0.0
  0
LINE
  5
343
100
AcDbEntity
  8
0
370
    -3
390
0
  6
Continuous
100
AcDbLine
 10
-369.77322
 20
-192.823447
 30
0.0
 11
-369.77322
 21
-284.473997
 31
0.0
  0
ARC
  5
344
100
AcDbEntity
  8
0
370
    -3
390
0
  6
Continuous
100
AcDbCircle
 10
-508.77322
 20
-100.006085
 30
0.0
 40
5.0
100
AcDbArc
 50
90.0
 51
180.0
  0
ARC
  5
345
100
AcDbEntity
  8
0
370
    -3
390
0
  6
Continuous
100
AcDbCircle
 10
-526.77322
 20
-100.006085
 30
0.0
 40
5.0
100
AcDbArc
 50
0.0
 51
90.0
  0
ARC
  5
346
100
AcDbEntity
  8
0
370
    -3
390
0
  6
Continuous
100
AcDbCircle
 10
-517.77322
 20
-672.006085
 30
0.0
 40
600.0
100
AcDbArc
 50
86.655848
 51
88.042013
  0
ARC
  5
347
100
AcDbEntity
  8
0
370
    -3
390
0
  6
Continuous
100
AcDbCircle
 10
-517.77322
 20
-672.006085
 30
0.0
 40
600.0
100
AcDbArc
 50
91.957987
 51
93.344152
  0
ARC
  5
348
100
AcDbEntity
  8
0
370
    -3
390
0
  6
Continuous
100
AcDbCircle
 10
-379.77322
 20
-284.473997
 30
0.0
 40
10.0
100
AcDbArc
 50
332.673414
 51
0.0
  0
ARC
  5
349
100
AcDbEntity
  8
0
370
    -3
390
0
  6
Continuous
100
AcDbCircle
 10
-500.27322
 20
-92.006085
 30
0.0
 40
3.0
100
AcDbArc
 50
270.0
 51
0.0
  0
ARC
  5
34A
100
AcDbEntity
  8
0
370
    -3
390
0
  6
Continuous
100
AcDbCircle
 10
-535.27322
 20
-92.006085
 30
0.0
 40
3.0
100
AcDbArc
 50
180.0
 51
270.0
  0
LINE
  5
34B
100
AcDbEntity
  8
0
370
    -3
390
0
  6
Continuous
100
AcDbLine
 10
-521.77322
 20
-22.068395
 30
0.0
 11
-521.77322
 21
-37.006092
 31
0.0
  0
LINE
  5
34C
100
AcDbEntity
  8
0
370
    -3
390
0
  6
Continuous
100
AcDbLine
 10
-513.77322
 20
-22.068395
 30
0.0
 11
-513.77322
 21
-37.006092
 31
0.0
  0
CIRCLE
  5
34D
100
AcDbEntity
  8
0
370
    -3
390
0
  6
Continuous
100
AcDbCircle
 10
-358.674194
 20
-346.10511
 30
0.0
 40
12.0
  0
CIRCLE
  5
34E
100
AcDbEntity
  8
0
370
    -3
390
0
  6
Continuous
100
AcDbCircle
 10
-676.872246
 20
-27.907059
 30
0.0
 40
12.0
  0
ARC
  5
34F
100
AcDbEntity
  8
0
370
    -3
390
0
  6
Continuous
100
AcDbCircle
 10
-682.77322
 20
-22.006085
 30
0.0
 40
20.0
100
AcDbArc
 50
90.0
 51
180.0
  0
CIRCLE
  5
350
100
AcDbEntity
  8
0
370
    -3
390
0
  6
Continuous
100
AcDbCircle
 10
-358.674194
 20
-27.907059
 30
0.0
 40
12.0
  0
ARC
  5
351
100
AcDbEntity
  8
0
370
    -3
390
0
  6
Continuous
100
AcDbCircle
 10
-352.77322
 20
-22.006085
 30
0.0
 40
20.0
100
AcDbArc
 50
0.0
 51
90.0
  0
ARC
  5
352
100
AcDbEntity
  8
0
370
    -3
390
0
  6
Continuous
100
AcDbCircle
 10
-352.77322
 20
-352.006085
 30
0.0
 40
20.0
100
AcDbArc
 50
270.0
 51
0.0
  0
CIRCLE
  5
353
100
AcDbEntity
  8
0
370
    -3
390
0
  6
Continuous
100
AcDbCircle
 10
-676.872246
 20
-346.10511
 30
0.0
 40
12.0
  0
ARC
  5
354
100
AcDbEntity
  8
0
370
    -3
390
0
  6
Continuous
100
AcDbCircle
 10
-682.77322
 20
-352.006085
 30
0.0
 40
20.0
100
AcDbArc
 50
180.0
 51
270.0
  0
ARC
  5
355
100
AcDbEntity
  8
0
370
    -3
390
0
  6
Continuous
100
AcDbCircle
 10
-508.77322
 20
-22.068395
 30
0.0
 40
5.0
100
AcDbArc
 50
89.206648
 51
180.0
  0
ARC
  5
356
100
AcDbEntity
  8
0
370
    -3
390
0
  6
Continuous
100
AcDbCircle
 10
-526.77322
 20
-22.068395
 30
0.0
 40
5.0
100
AcDbArc
 50
0.0
 51
90.793352
  0
ARC
  5
357
100
AcDbEntity
  8
0
370
    -3
390
0
  6
Continuous
100
AcDbCircle
 10
-641.006963
 20
-51.04442
 30
0.0
 40
5.0
100
AcDbArc
 50
135.0
 51
225.0
  0
ARC
  5
358
100
AcDbEntity
  8
0
370
    -3
390
0
  6
Continuous
100
AcDbCircle
 10
-607.770057
 20
-84.281326
 30
0.0
 40
5.0
100
AcDbArc
 50
225.0
 51
299.734043
  0
ARC
  5
359
100
AcDbEntity
  8
0
370
    -3
390
0
  6
Continuous
100
AcDbCircle
 10
-622.985601
 20
-94.521625
 30
0.0
 40
5.0
100
AcDbArc
 50
308.148301
 51
45.0
  0
ARC
  5
35A
100
AcDbEntity
  8
0
370
    -3
390
0
  6
Continuous
100
AcDbCircle
 10
-653.734885
 20
-63.772342
 30
0.0
 40
5.0
100
AcDbArc
 50
45.0
 51
135.0
  0
ARC
  5
35B
100
AcDbEntity
  8
0
370
    -3
390
0
  6
Continuous
100
AcDbCircle
 10
-381.811555
 20
-63.772342
 30
0.0
 40
5.0
100
AcDbArc
 50
45.0
 51
135.0
  0
ARC
  5
35C
100
AcDbEntity
  8
0
370
    -3
390
0
  6
Continuous
100
AcDbCircle
 10
-394.539477
 20
-51.04442
 30
0.0
 40
5.0
100
AcDbArc
 50
315.0
 51
45.0
  0
ARC
  5
35D
100
AcDbEntity
  8
0
370
    -3
390
0
  6
Continuous
100
AcDbCircle
 10
-427.776383
 20
-84.281326
 30
0.0
 40
5.0
100
AcDbArc
 50
240.265957
 51
315.0
  0
ARC
  5
35E
100
AcDbEntity
  8
0
370
    -3
390
0
  6
Continuous
100
AcDbCircle
 10
-412.560839
 20
-94.521625
 30
0.0
 40
5.0
100
AcDbArc
 50
135.0
 51
231.851699
  0
ARC
  5
35F
100
AcDbEntity
  8
0
370
    -3
390
0
  6
Continuous
100
AcDbCircle
 10
-402.77322
 20
-368.006085
 30
0.0
 40
2.0
100
AcDbArc
 50
270.0
 51
0.0
  0
ARC
  5
360
100
AcDbEntity
  8
0
370
    -3
390
0
  6
Continuous
100
AcDbCircle
 10
-428.356812
 20
-372.006085
 30
0.0
 40
2.0
100
AcDbArc
 50
90.0
 51
163.39845
  0
ARC
  5
361
100
AcDbEntity
  8
0
370
    -3
390
0
  6
Continuous
100
AcDbCircle
 10
-607.189628
 20
-372.006085
 30
0.0
 40
2.0
100
AcDbArc
 50
16.60155
 51
90.0
  0
ARC
  5
362
100
AcDbEntity
  8
0
370
    -3
390
0
  6
Continuous
100
AcDbCircle
 10
-632.77322
 20
-368.006085
 30
0.0
 40
2.0
100
AcDbArc
 50
180.0
 51
270.0
  0
LINE
  5
363
100
AcDbEntity
  8
0
370
    -3
390
0
  6
Continuous
100
AcDbLine
 10
-613.235255
 20
-372.006085
 30
0.0
 11
-682.77322
 21
-372.006085
 31
0.0
  0
LINE
  5
364
100
AcDbEntity
  8
0
370
    -3
390
0
  6
Continuous
100
AcDbLine
 10
-422.311185
 20
-372.006085
 30
0.0
 11
-352.77322
 21
-372.006085
 31
0.0
  0
LINE
  5
365
100
AcDbEntity
  8
0
370
    -3
390
0
  6
Continuous
100
AcDbLine
 10
-682.77322
 20
-2.006085
 30
0.0
 11
-352.77322
 21
-2.006085
 31
0.0
  0
LINE
  5
366
100
AcDbEntity
  8
0
370
    -3
390
0
  6
Continuous
100
AcDbLine
 10
-332.77322
 20
-22.006085
 30
0.0
 11
-332.77322
 21
-352.006085
 31
0.0
  0
LINE
  5
367
100
AcDbEntity
  8
0
370
    -3
390
0
  6
Continuous
100
AcDbLine
 10
-702.77322
 20
-22.006085
 30
0.0
 11
-702.77322
 21
-352.006085
 31
0.0
  0
LINE
  5
368
100
AcDbEntity
  8
0
370
    -3
390
0
  6
Continuous
100
AcDbLine
 10
-644.542497
 20
-54.579953
 30
0.0
 11
-611.305591
 21
-87.816859
 31
0.0
  0
LINE
  5
369
100
AcDbEntity
  8
0
370
    -3
390
0
  6
Continuous
100
AcDbLine
 10
-650.199351
 20
-60.236808
 30
0.0
 11
-619.450068
 21
-90.986092
 31
0.0
  0
LINE
  5
36A
100
AcDbEntity
  8
0
370
    -3
390
0
  6
Continuous
100
AcDbLine
 10
-391.003943
 20
-54.579953
 30
0.0
 11
-424.240849
 21
-87.816859
 31
0.0
  0
LINE
  5
36B
100
AcDbEntity
  8
0
370
    -3
390
0
  6
Continuous
100
AcDbLine
 10
-385.347089
 20
-60.236808
 30
0.0
 11
-416.096373
 21
-90.986092
 31
0.0
  0
LINE
  5
36C
100
AcDbEntity
  8
0
370
    -3
390
0
  6
Continuous
100
AcDbLine
 10
-428.356812
 20
-370.006085
 30
0.0
 11
-402.77322
 21
-370.006085
 31
0.0
  0
LINE
  5
36D
100
AcDbEntity
  8
0
370
    -3
390
0
  6
Continuous
100
AcDbLine
 10
-607.189628
 20
-370.006085
 30
0.0
 11
-632.77322
 21
-370.006085
 31
0.0
  0
LINE
  5
36E
100
AcDbEntity
  8
0
370
    -3
390
0
  6
Continuous
100
AcDbLine
 10
-634.77322
 20
-338.587885
 30
0.0
 11
-634.77322
 21
-368.006085
 31
0.0
  0
LINE
  5
36F
100
AcDbEntity
  8
0
370
    -3
390
0
  6
Continuous
100
AcDbLine
 10
-400.77322
 20
-368.006085
 30
0.0
 11
-400.77322
 21
-338.587885
 31
0.0
  0
ARC
  5
370
100
AcDbEntity
  8
0
370
    -3
390
0
  6
Continuous
100
AcDbCircle
 10
-528.27322
 20
-47.006092
 30
0.0
 40
10.0
100
AcDbArc
 50
90.0
 51
180.0
  0
LINE
  5
371
100
AcDbEntity
  8
0
370
    -3
390
0
  6
CENTER
100
AcDbLine
 10
-494.605307
 20
-57.006092
 30
0.0
 11
-541.627821
 21
-57.006092
 31
0.0
  0
LINE
  5
372
100
AcDbEntity
  8
0
370
    -3
390
0
  6
Continuous
100
AcDbLine
 10
-507.27322
 20
-37.006092
 30
0.0
 11
-528.27322
 21
-37.006092
 31
0.0
  0
LINE
  5
373
100
AcDbEntity
  8
0
370
    -3
390
0
  6
Continuous
100
AcDbLine
 10
-538.27322
 20
-47.006092
 30
0.0
 11
-538.27322
 21
-72.356395
 31
0.0
  0
ARC
  5
374
100
AcDbEntity
  8
0
370
    -3
390
0
  6
Continuous
100
AcDbCircle
 10
-507.27322
 20
-47.006092
 30
0.0
 40
10.0
100
AcDbArc
 50
0.0
 51
90.0
  0
LINE
  5
375
100
AcDbEntity
  8
0
370
    -3
390
0
  6
Continuous
100
AcDbLine
 10
-497.27322
 20
-47.006092
 30
0.0
 11
-497.27322
 21
-72.356395
 31
0.0
  0
LINE
  5
376
100
AcDbEntity
  8
0
370
    -3
390
0
  6
Continuous
100
AcDbLine
 10
-437.773221
 20
-370.315487
 30
0.0
 11
-441.773227
 21
-372.624884
 31
0.0
  0
LINE
  5
377
100
AcDbEntity
  8
0
370
    -3
390
0
  6
Continuous
100
AcDbLine
 10
-445.773219
 20
-365.692032
 30
0.0
 11
-441.773213
 21
-363.382635
 31
0.0
  0
LINE
  5
378
100
AcDbEntity
  8
0
370
    -3
390
0
  6
Continuous
100
AcDbLine
 10
-441.773227
 20
-372.624884
 30
0.0
 11
-445.773217
 21
-370.31548
 31
0.0
  0
LINE
  5
379
100
AcDbEntity
  8
0
370
    -3
390
0
  6
Continuous
100
AcDbLine
 10
-437.773222
 20
-365.69204
 30
0.0
 11
-441.773213
 21
-363.382635
 31
0.0
  0
LINE
  5
37A
100
AcDbEntity
  8
0
370
    -3
390
0
  6
Continuous
100
AcDbLine
 10
-437.773222
 20
-365.692041
 30
0.0
 11
-437.773221
 21
-370.315487
 31
0.0
  0
LINE
  5
37B
100
AcDbEntity
  8
0
370
    -3
390
0
  6
Continuous
100
AcDbLine
 10
-445.773217
 20
-370.31548
 30
0.0
 11
-445.773219
 21
-365.692032
 31
0.0
  0
CIRCLE
  5
37C
100
AcDbEntity
  8
0
370
    -3
390
0
  6
Continuous
100
AcDbCircle
 10
-441.77322
 20
-368.006085
 30
0.0
 40
8.0
  0
CIRCLE
  5
37D
100
AcDbEntity
  8
0
370
    -3
390
0
  6
Continuous
100
AcDbCircle
 10
-441.77322
 20
-368.006085
 30
0.0
 40
6.960738
  0
LINE
  5
37E
100
AcDbEntity
  8
0
370
    -3
390
0
  6
Continuous
100
AcDbLine
 10
-597.773219
 20
-370.315487
 30
0.0
 11
-593.773214
 21
-372.624884
 31
0.0
  0
LINE
  5
37F
100
AcDbEntity
  8
0
370
    -3
390
0
  6
Continuous
100
AcDbLine
 10
-589.773221
 20
-365.692032
 30
0.0
 11
-593.773227
 21
-363.382635
 31
0.0
  0
LINE
  5
380
100
AcDbEntity
  8
0
370
    -3
390
0
  6
Continuous
100
AcDbLine
 10
-593.773214
 20
-372.624884
 30
0.0
 11
-589.773223
 21
-370.31548
 31
0.0
  0
LINE
  5
381
100
AcDbEntity
  8
0
370
    -3
390
0
  6
Continuous
100
AcDbLine
 10
-597.773218
 20
-365.69204
 30
0.0
 11
-593.773228
 21
-363.382635
 31
0.0
  0
LINE
  5
382
100
AcDbEntity
  8
0
370
    -3
390
0
  6
Continuous
100
AcDbLine
 10
-597.773219
 20
-365.692041
 30
0.0
 11
-597.77322
 21
-370.315487
 31
0.0
  0
LINE
  5
383
100
AcDbEntity
  8
0
370
    -3
390
0
  6
Continuous
100
AcDbLine
 10
-589.773223
 20
-370.31548
 30
0.0
 11
-589.773221
 21
-365.692032
 31
0.0
  0
CIRCLE
  5
384
100
AcDbEntity
  8
0
370
    -3
390
0
  6
Continuous
100
AcDbCircle
 10
-593.77322
 20
-368.006085
 30
0.0
 40
8.0
  0
CIRCLE
  5
385
100
AcDbEntity
  8
0
370
    -3
390
0
  6
Continuous
100
AcDbCircle
 10
-593.77322
 20
-368.006085
 30
0.0
 40
6.960738
  0
LINE
  5
386
100
AcDbEntity
  8
0
370
    -3
390
0
  6
Continuous
100
AcDbLine
 10
-656.773219
 20
-269.315487
 30
0.0
 11
-652.773214
 21
-271.624884
 31
0.0
  0
LINE
  5
387
100
AcDbEntity
  8
0
370
    -3
390
0
  6
Continuous
100
AcDbLine
 10
-648.773221
 20
-264.692032
 30
0.0
 11
-652.773227
 21
-262.382635
 31
0.0
  0
LINE
  5
388
100
AcDbEntity
  8
0
370
    -3
390
0
  6
Continuous
100
AcDbLine
 10
-652.773214
 20
-271.624884
 30
0.0
 11
-648.773223
 21
-269.31548
 31
0.0
  0
LINE
  5
389
100
AcDbEntity
  8
0
370
    -3
390
0
  6
Continuous
100
AcDbLine
 10
-656.773218
 20
-264.69204
 30
0.0
 11
-652.773228
 21
-262.382635
 31
0.0
  0
LINE
  5
38A
100
AcDbEntity
  8
0
370
    -3
390
0
  6
Continuous
100
AcDbLine
 10
-656.773219
 20
-264.692041
 30
0.0
 11
-656.77322
 21
-269.315487
 31
0.0
  0
LINE
  5
38B
100
AcDbEntity
  8
0
370
    -3
390
0
  6
Continuous
100
AcDbLine
 10
-648.773223
 20
-269.31548
 30
0.0
 11
-648.773221
 21
-264.692032
 31
0.0
  0
CIRCLE
  5
38C
100
AcDbEntity
  8
0
370
    -3
390
0
  6
Continuous
100
AcDbCircle
 10
-652.77322
 20
-267.006085
 30
0.0
 40
8.0
  0
CIRCLE
  5
38D
100
AcDbEntity
  8
0
370
    -3
390
0
  6
Continuous
100
AcDbCircle
 10
-652.77322
 20
-267.006085
 30
0.0
 40
6.960738
  0
LINE
  5
38E
100
AcDbEntity
  8
0
370
    -3
390
0
  6
Continuous
100
AcDbLine
 10
-653.773219
 20
-169.315487
 30
0.0
 11
-649.773214
 21
-171.624884
 31
0.0
  0
LINE
  5
38F
100
AcDbEntity
  8
0
370
    -3
390
0
  6
Continuous
100
AcDbLine
 10
-645.773221
 20
-164.692032
 30
0.0
 11
-649.773227
 21
-162.382635
 31
0.0
  0
LINE
  5
390
100
AcDbEntity
  8
0
370
    -3
390
0
  6
Continuous
100
AcDbLine
 10
-649.773214
 20
-171.624884
 30
0.0
 11
-645.773223
 21
-169.31548
 31
0.0
  0
LINE
  5
391
100
AcDbEntity
  8
0
370
    -3
390
0
  6
Continuous
100
AcDbLine
 10
-653.773218
 20
-164.69204
 30
0.0
 11
-649.773228
 21
-162.382635
 31
0.0
  0
LINE
  5
392
100
AcDbEntity
  8
0
370
    -3
390
0
  6
Continuous
100
AcDbLine
 10
-653.773219
 20
-164.692041
 30
0.0
 11
-653.77322
 21
-169.315487
 31
0.0
  0
LINE
  5
393
100
AcDbEntity
  8
0
370
    -3
390
0
  6
Continuous
100
AcDbLine
 10
-645.773223
 20
-169.31548
 30
0.0
 11
-645.773221
 21
-164.692032
 31
0.0
  0
CIRCLE
  5
394
100
AcDbEntity
  8
0
370
    -3
390
0
  6
Continuous
100
AcDbCircle
 10
-649.77322
 20
-167.006085
 30
0.0
 40
8.0
  0
CIRCLE
  5
395
100
AcDbEntity
  8
0
370
    -3
390
0
  6
Continuous
100
AcDbCircle
 10
-649.77322
 20
-167.006085
 30
0.0
 40
6.960738
  0
LINE
  5
396
100
AcDbEntity
  8
0
370
    -3
390
0
  6
Continuous
100
AcDbLine
 10
-581.773219
 20
-93.815487
 30
0.0
 11
-577.773214
 21
-96.124884
 31
0.0
  0
LINE
  5
397
100
AcDbEntity
  8
0
370
    -3
390
0
  6
Continuous
100
AcDbLine
 10
-573.773221
 20
-89.192032
 30
0.0
 11
-577.773227
 21
-86.882635
 31
0.0
  0
LINE
  5
398
100
AcDbEntity
  8
0
370
    -3
390
0
  6
Continuous
100
AcDbLine
 10
-577.773214
 20
-96.124884
 30
0.0
 11
-573.773223
 21
-93.81548
 31
0.0
  0
LINE
  5
399
100
AcDbEntity
  8
0
370
    -3
390
0
  6
Continuous
100
AcDbLine
 10
-581.773218
 20
-89.19204
 30
0.0
 11
-577.773228
 21
-86.882635
 31
0.0
  0
LINE
  5
39A
100
AcDbEntity
  8
0
370
    -3
390
0
  6
Continuous
100
AcDbLine
 10
-581.773219
 20
-89.192041
 30
0.0
 11
-581.77322
 21
-93.815487
 31
0.0
  0
LINE
  5
39B
100
AcDbEntity
  8
0
370
    -3
390
0
  6
Continuous
100
AcDbLine
 10
-573.773223
 20
-93.81548
 30
0.0
 11
-573.773221
 21
-89.192032
 31
0.0
  0
CIRCLE
  5
39C
100
AcDbEntity
  8
0
370
    -3
390
0
  6
Continuous
100
AcDbCircle
 10
-577.77322
 20
-91.506085
 30
0.0
 40
8.0
  0
CIRCLE
  5
39D
100
AcDbEntity
  8
0
370
    -3
390
0
  6
Continuous
100
AcDbCircle
 10
-577.77322
 20
-91.506085
 30
0.0
 40
6.960738
  0
LINE
  5
39E
100
AcDbEntity
  8
0
370
    -3
390
0
  6
Continuous
100
AcDbLine
 10
-528.273215
 20
-88.470183
 30
0.0
 11
-525.273223
 21
-86.738131
 31
0.0
  0
LINE
  5
39F
100
AcDbEntity
  8
0
370
    -3
390
0
  6
Continuous
100
AcDbLine
 10
-528.273227
 20
-81.541988
 30
0.0
 11
-531.273218
 21
-83.274038
 31
0.0
  0
LINE
  5
3A0
100
AcDbEntity
  8
0
370
    -3
390
0
  6
Continuous
100
AcDbLine
 10
-531.273218
 20
-86.738136
 30
0.0
 11
-528.273216
 21
-88.470183
 31
0.0
  0
LINE
  5
3A1
100
AcDbEntity
  8
0
370
    -3
390
0
  6
Continuous
100
AcDbLine
 10
-528.273227
 20
-81.541988
 30
0.0
 11
-525.273222
 21
-83.274033
 31
0.0
  0
LINE
  5
3A2
100
AcDbEntity
  8
0
370
    -3
390
0
  6
Continuous
100
AcDbLine
 10
-531.273217
 20
-83.274038
 30
0.0
 11
-531.273218
 21
-86.738136
 31
0.0
  0
LINE
  5
3A3
100
AcDbEntity
  8
0
370
    -3
390
0
  6
Continuous
100
AcDbLine
 10
-525.273223
 20
-86.738131
 30
0.0
 11
-525.273223
 21
-83.274033
 31
0.0
  0
CIRCLE
  5
3A4
100
AcDbEntity
  8
0
370
    -3
390
0
  6
Continuous
100
AcDbCircle
 10
-528.27322
 20
-85.006085
 30
0.0
 40
6.5
  0
CIRCLE
  5
3A5
100
AcDbEntity
  8
0
370
    -3
390
0
  6
Continuous
100
AcDbCircle
 10
-528.27322
 20
-85.006085
 30
0.0
 40
5.633955
  0
LINE
  5
3A6
100
AcDbEntity
  8
0
370
    -3
390
0
  6
Continuous
100
AcDbLine
 10
-507.273225
 20
-88.470183
 30
0.0
 11
-510.273218
 21
-86.738131
 31
0.0
  0
LINE
  5
3A7
100
AcDbEntity
  8
0
370
    -3
390
0
  6
Continuous
100
AcDbLine
 10
-507.273214
 20
-81.541988
 30
0.0
 11
-504.273223
 21
-83.274038
 31
0.0
  0
LINE
  5
3A8
100
AcDbEntity
  8
0
370
    -3
390
0
  6
Continuous
100
AcDbLine
 10
-504.273222
 20
-86.738136
 30
0.0
 11
-507.273225
 21
-88.470183
 31
0.0
  0
LINE
  5
3A9
100
AcDbEntity
  8
0
370
    -3
390
0
  6
Continuous
100
AcDbLine
 10
-507.273213
 20
-81.541988
 30
0.0
 11
-510.273218
 21
-83.274033
 31
0.0
  0
LINE
  5
3AA
100
AcDbEntity
  8
0
370
    -3
390
0
  6
Continuous
100
AcDbLine
 10
-504.273223
 20
-83.274038
 30
0.0
 11
-504.273223
 21
-86.738136
 31
0.0
  0
LINE
  5
3AB
100
AcDbEntity
  8
0
370
    -3
390
0
  6
Continuous
100
AcDbLine
 10
-510.273217
 20
-86.738131
 30
0.0
 11
-510.273218
 21
-83.274033
 31
0.0
  0
CIRCLE
  5
3AC
100
AcDbEntity
  8
0
370
    -3
390
0
  6
Continuous
100
AcDbCircle
 10
-507.27322
 20
-85.006085
 30
0.0
 40
6.5
  0
CIRCLE
  5
3AD
100
AcDbEntity
  8
0
370
    -3
390
0
  6
Continuous
100
AcDbCircle
 10
-507.27322
 20
-85.006085
 30
0.0
 40
5.633955
  0
LINE
  5
3AE
100
AcDbEntity
  8
0
370
    -3
390
0
  6
Continuous
100
AcDbLine
 10
-453.773221
 20
-93.815487
 30
0.0
 11
-457.773227
 21
-96.124884
 31
0.0
  0
LINE
  5
3AF
100
AcDbEntity
  8
0
370
    -3
390
0
  6
Continuous
100
AcDbLine
 10
-461.773219
 20
-89.192032
 30
0.0
 11
-457.773213
 21
-86.882635
 31
0.0
  0
LINE
  5
3B0
100
AcDbEntity
  8
0
370
    -3
390
0
  6
Continuous
100
AcDbLine
 10
-457.773227
 20
-96.124884
 30
0.0
 11
-461.773217
 21
-93.81548
 31
0.0
  0
LINE
  5
3B1
100
AcDbEntity
  8
0
370
    -3
390
0
  6
Continuous
100
AcDbLine
 10
-453.773222
 20
-89.19204
 30
0.0
 11
-457.773213
 21
-86.882635
 31
0.0
  0
LINE
  5
3B2
100
AcDbEntity
  8
0
370
    -3
390
0
  6
Continuous
100
AcDbLine
 10
-453.773222
 20
-89.192041
 30
0.0
 11
-453.773221
 21
-93.815487
 31
0.0
  0
LINE
  5
3B3
100
AcDbEntity
  8
0
370
    -3
390
0
  6
Continuous
100
AcDbLine
 10
-461.773217
 20
-93.81548
 30
0.0
 11
-461.773219
 21
-89.192032
 31
0.0
  0
CIRCLE
  5
3B4
100
AcDbEntity
  8
0
370
    -3
390
0
  6
Continuous
100
AcDbCircle
 10
-457.77322
 20
-91.506085
 30
0.0
 40
8.0
  0
CIRCLE
  5
3B5
100
AcDbEntity
  8
0
370
    -3
390
0
  6
Continuous
100
AcDbCircle
 10
-457.77322
 20
-91.506085
 30
0.0
 40
6.960738
  0
LINE
  5
3B6
100
AcDbEntity
  8
0
370
    -3
390
0
  6
Continuous
100
AcDbLine
 10
-381.773221
 20
-169.315487
 30
0.0
 11
-385.773227
 21
-171.624884
 31
0.0
  0
LINE
  5
3B7
100
AcDbEntity
  8
0
370
    -3
390
0
  6
Continuous
100
AcDbLine
 10
-389.773219
 20
-164.692032
 30
0.0
 11
-385.773213
 21
-162.382635
 31
0.0
  0
LINE
  5
3B8
100
AcDbEntity
  8
0
370
    -3
390
0
  6
Continuous
100
AcDbLine
 10
-385.773227
 20
-171.624884
 30
0.0
 11
-389.773217
 21
-169.31548
 31
0.0
  0
LINE
  5
3B9
100
AcDbEntity
  8
0
370
    -3
390
0
  6
Continuous
100
AcDbLine
 10
-381.773222
 20
-164.69204
 30
0.0
 11
-385.773213
 21
-162.382635
 31
0.0
  0
LINE
  5
3BA
100
AcDbEntity
  8
0
370
    -3
390
0
  6
Continuous
100
AcDbLine
 10
-381.773222
 20
-164.692041
 30
0.0
 11
-381.773221
 21
-169.315487
 31
0.0
  0
LINE
  5
3BB
100
AcDbEntity
  8
0
370
    -3
390
0
  6
Continuous
100
AcDbLine
 10
-389.773217
 20
-169.31548
 30
0.0
 11
-389.773219
 21
-164.692032
 31
0.0
  0
CIRCLE
  5
3BC
100
AcDbEntity
  8
0
370
    -3
390
0
  6
Continuous
100
AcDbCircle
 10
-385.77322
 20
-167.006085
 30
0.0
 40
8.0
  0
CIRCLE
  5
3BD
100
AcDbEntity
  8
0
370
    -3
390
0
  6
Continuous
100
AcDbCircle
 10
-385.77322
 20
-167.006085
 30
0.0
 40
6.960738
  0
LINE
  5
3BE
100
AcDbEntity
  8
0
370
    -3
390
0
  6
CENTER
100
AcDbLine
 10
-379.887398
 20
-49.120262
 30
0.0
 11
-337.460991
 21
-6.693855
 31
0.0
  0
ARC
  5
3BF
100
AcDbEntity
  8
0
370
    -3
390
0
  6
CENTER
100
AcDbCircle
 10
-517.77322
 20
-187.006085
 30
0.0
 40
225.0
100
AcDbArc
 50
37.3602
 51
52.6398
  0
LINE
  5
3C0
100
AcDbEntity
  8
0
370
    -3
390
0
  6
CENTER
100
AcDbLine
 10
-655.659042
 20
-49.120262
 30
0.0
 11
-698.085449
 21
-6.693855
 31
0.0
  0
ARC
  5
3C1
100
AcDbEntity
  8
0
370
    -3
390
0
  6
CENTER
100
AcDbCircle
 10
-517.77322
 20
-187.006085
 30
0.0
 40
225.0
100
AcDbArc
 50
127.3602
 51
142.6398
  0
LINE
  5
3C2
100
AcDbEntity
  8
0
370
    -3
390
0
  6
CENTER
100
AcDbLine
 10
-655.659042
 20
-324.891907
 30
0.0
 11
-698.085449
 21
-367.318314
 31
0.0
  0
ARC
  5
3C3
100
AcDbEntity
  8
0
370
    -3
390
0
  6
CENTER
100
AcDbCircle
 10
-517.77322
 20
-187.006085
 30
0.0
 40
225.0
100
AcDbArc
 50
217.3602
 51
232.6398
  0
LINE
  5
3C4
100
AcDbEntity
  8
0
370
    -3
390
0
  6
CENTER
100
AcDbLine
 10
-379.887398
 20
-324.891907
 30
0.0
 11
-337.460991
 21
-367.318314
 31
0.0
  0
ARC
  5
3C5
100
AcDbEntity
  8
0
370
    -3
390
0
  6
CENTER
100
AcDbCircle
 10
-517.77322
 20
-187.006085
 30
0.0
 40
225.0
100
AcDbArc
 50
307.3602
 51
322.6398
  0
LINE
  5
3C6
100
AcDbEntity
  8
0
370
    -3
390
0
  6
CENTER
100
AcDbLine
 10
-471.476509
 20
-115.506085
 30
0.0
 11
-401.930074
 21
-115.506085
 31
0.0
  0
LINE
  5
3C7
100
AcDbEntity
  8
0
370
    -3
390
0
  6
CENTER
100
AcDbLine
 10
-437.77322
 20
-139.598891
 30
0.0
 11
-437.77322
 21
-90.004562
 31
0.0
  0
CIRCLE
  5
3C8
100
AcDbEntity
  8
0
370
    -3
390
0
  6
Continuous
100
AcDbCircle
 10
-437.77322
 20
-115.506085
 30
0.0
 40
9.35
  0
CIRCLE
  5
3C9
100
AcDbEntity
  8
0
370
    -3
390
0
  6
Continuous
100
AcDbCircle
 10
-437.77322
 20
-115.506085
 30
0.0
 40
10.5
  0
CIRCLE
  5
3CA
100
AcDbEntity
  8
0
370
    -3
390
0
  6
Continuous
100
AcDbCircle
 10
-437.77322
 20
-115.506085
 30
0.0
 40
17.5
  0
LINE
  5
3CB
100
AcDbEntity
  8
0
370
    -3
390
0
  6
Continuous
100
AcDbLine
 10
-266.989227
 20
142.303446
 30
0.0
 11
-266.989227
 21
211.243915
 31
0.0
  0
LINE
  5
3CC
100
AcDbEntity
  8
0
370
    -3
390
0
  6
Continuous
100
AcDbLine
 10
-265.089227
 20
139.01255
 30
0.0
 11
-248.45726
 21
129.410079
 31
0.0
  0
ARC
  5
3CD
100
AcDbEntity
  8
0
370
    -3
390
0
  6
Continuous
100
AcDbCircle
 10
-228.05726
 20
164.743915
 30
0.0
 40
40.8
100
AcDbArc
 50
240.0
 51
270.0
  0
ARC
  5
3CE
100
AcDbEntity
  8
0
370
    -3
390
0
  6
Continuous
100
AcDbCircle
 10
-263.189227
 20
142.303446
 30
0.0
 40
3.8
100
AcDbArc
 50
180.0
 51
240.0
  0
ELLIPSE
  5
3CF
100
AcDbEntity
  8
0
370
    -3
390
0
  6
Continuous
100
AcDbEllipse
 10
-219.489226
 20
276.89535
 30
0.0
 11
5.0
 21
0.0
 31
0.0
210
0.0
220
0.0
230
1.0
 40
0.707107
 41
3.1415926535897931
 42
0.0
  0
LINE
  5
3D0
100
AcDbEntity
  8
0
370
    -3
390
0
  6
Continuous
100
AcDbLine
 10
-224.489226
 20
277.711953
 30
0.0
 11
-224.489226
 21
276.89535
 31
0.0
  0
LINE
  5
3D1
100
AcDbEntity
  8
0
370
    -3
390
0
  6
Continuous
100
AcDbLine
 10
-214.489226
 20
277.711953
 30
0.0
 11
-214.489226
 21
276.89535
 31
0.0
  0
ELLIPSE
  5
3D2
100
AcDbEntity
  8
0
370
    -3
390
0
  6
Continuous
100
AcDbEllipse
 10
-219.489226
 20
277.711953
 30
0.0
 11
4.5
 21
0.0
 31
0.0
210
0.0
220
0.0
230
1.0
 40
0.707107
 41
3.1415926535897931
 42
0.0
  0
LINE
  5
3D3
100
AcDbEntity
  8
0
370
    -3
390
0
  6
Continuous
100
AcDbLine
 10
-223.989226
 20
278.277638
 30
0.0
 11
-223.989226
 21
277.711953
 31
0.0
  0
LINE
  5
3D4
100
AcDbEntity
  8
0
370
    -3
390
0
  6
Continuous
100
AcDbLine
 10
-214.989226
 20
278.277638
 30
0.0
 11
-214.989226
 21
277.711953
 31
0.0
  0
ELLIPSE
  5
3D5
100
AcDbEntity
  8
0
370
    -3
390
0
  6
Continuous
100
AcDbEllipse
 10
-219.489226
 20
277.711953
 30
0.0
 11
5.0
 21
0.0
 31
0.0
210
0.0
220
0.0
230
1.0
 40
0.707107
 41
0.0
 42
0.7392718269406207
  0
ELLIPSE
  5
3D6
100
AcDbEntity
  8
0
370
    -3
390
0
  6
Continuous
100
AcDbEllipse
 10
-219.489226
 20
277.711953
 30
0.0
 11
5.0
 21
0.0
 31
0.0
210
0.0
220
0.0
230
1.0
 40
0.707107
 41
2.4023208266491727
 42
3.1415926535897931
  0
ELLIPSE
  5
3D7
100
AcDbEntity
  8
0
370
    -3
390
0
  6
Continuous
100
AcDbEllipse
 10
-219.489226
 20
278.814156
 30
0.0
 11
3.5
 21
0.0
 31
0.0
210
0.0
220
0.0
230
1.0
 40
0.860398
 41
0.0
 42
6.2831853071795862
  0
ELLIPSE
  5
3D8
100
AcDbEntity
  8
0
370
    -3
390
0
  6
Continuous
100
AcDbEllipse
 10
-219.489226
 20
278.277638
 30
0.0
 11
4.5
 21
0.0
 31
0.0
210
0.0
220
0.0
230
1.0
 40
0.707107
 41
2.158706662346169
 42
0.9828859912436241
  0
LINE
  5
3D9
100
AcDbEntity
  8
0
370
    -3
390
0
  6
Continuous
100
AcDbLine
 10
-219.489226
 20
280.116116
 30
0.0
 11
-217.489226
 21
278.542778
 31
0.0
  0
LINE
  5
3DA
100
AcDbEntity
  8
0
370
    -3
390
0
  6
Continuous
100
AcDbLine
 10
-219.489226
 20
280.116116
 30
0.0
 11
-217.560022
 21
281.326778
 31
0.0
  0
LINE
  5
3DB
100
AcDbEntity
  8
0
370
    -3
390
0
  6
Continuous
100
AcDbLine
 10
-219.489226
 20
280.116116
 30
0.0
 11
-221.489226
 21
278.542778
 31
0.0
  0
LINE
  5
3DC
100
AcDbEntity
  8
0
370
    -3
390
0
  6
Continuous
100
AcDbLine
 10
-219.489226
 20
280.116116
 30
0.0
 11
-221.418431
 21
281.326778
 31
0.0
  0
ELLIPSE
  5
3DD
100
AcDbEntity
  8
0
370
    -3
390
0
  6
Continuous
100
AcDbEllipse
 10
-219.489226
 20
145.592481
 30
0.0
 11
5.0
 21
0.0
 31
0.0
210
0.0
220
0.0
230
1.0
 40
0.707107
 41
0.0
 42
3.1415926535897931
  0
LINE
  5
3DE
100
AcDbEntity
  8
0
370
    -3
390
0
  6
Continuous
100
AcDbLine
 10
-224.489226
 20
144.775878
 30
0.0
 11
-224.489226
 21
145.592481
 31
0.0
  0
LINE
  5
3DF
100
AcDbEntity
  8
0
370
    -3
390
0
  6
Continuous
100
AcDbLine
 10
-214.489226
 20
144.775878
 30
0.0
 11
-214.489226
 21
145.592481
 31
0.0
  0
ELLIPSE
  5
3E0
100
AcDbEntity
  8
0
370
    -3
390
0
  6
Continuous
100
AcDbEllipse
 10
-219.489226
 20
144.775878
 30
0.0
 11
4.5
 21
0.0
 31
0.0
210
0.0
220
0.0
230
1.0
 40
0.707107
 41
0.0
 42
3.1415926535897931
  0
LINE
  5
3E1
100
AcDbEntity
  8
0
370
    -3
390
0
  6
Continuous
100
AcDbLine
 10
-223.989226
 20
144.210192
 30
0.0
 11
-223.989226
 21
144.775878
 31
0.0
  0
LINE
  5
3E2
100
AcDbEntity
  8
0
370
    -3
390
0
  6
Continuous
100
AcDbLine
 10
-214.989226
 20
144.210192
 30
0.0
 11
-214.989226
 21
144.775878
 31
0.0
  0
ELLIPSE
  5
3E3
100
AcDbEntity
  8
0
370
    -3
390
0
  6
Continuous
100
AcDbEllipse
 10
-219.489226
 20
144.775878
 30
0.0
 11
5.0
 21
0.0
 31
0.0
210
0.0
220
0.0
230
1.0
 40
0.707107
 41
5.5439134802389658
 42
0.0
  0
ELLIPSE
  5
3E4
100
AcDbEntity
  8
0
370
    -3
390
0
  6
Continuous
100
AcDbEllipse
 10
-219.489226
 20
144.775878
 30
0.0
 11
5.0
 21
0.0
 31
0.0
210
0.0
220
0.0
230
1.0
 40
0.707107
 41
3.1415926535897931
 42
3.8808644805304136
  0
ELLIPSE
  5
3E5
100
AcDbEntity
  8
0
370
    -3
390
0
  6
Continuous
100
AcDbEllipse
 10
-219.489226
 20
143.673674
 30
0.0
 11
3.5
 21
0.0
 31
0.0
210
0.0
220
0.0
230
1.0
 40
0.860398
 41
0.0
 42
6.2831853071795862
  0
ELLIPSE
  5
3E6
100
AcDbEntity
  8
0
370
    -3
390
0
  6
Continuous
100
AcDbEllipse
 10
-219.489226
 20
144.210192
 30
0.0
 11
4.5
 21
0.0
 31
0.0
210
0.0
220
0.0
230
1.0
 40
0.707107
 41
5.3002993159359626
 42
4.1244786448334168
  0
LINE
  5
3E7
100
AcDbEntity
  8
0
370
    -3
390
0
  6
Continuous
100
AcDbLine
 10
-219.489226
 20
142.371715
 30
0.0
 11
-217.489226
 21
143.945052
 31
0.0
  0
LINE
  5
3E8
100
AcDbEntity
  8
0
370
    -3
390
0
  6
Continuous
100
AcDbLine
 10
-219.489226
 20
142.371715
 30
0.0
 11
-217.560022
 21
141.161052
 31
0.0
  0
LINE
  5
3E9
100
AcDbEntity
  8
0
370
    -3
390
0
  6
Continuous
100
AcDbLine
 10
-219.489226
 20
142.371715
 30
0.0
 11
-221.489226
 21
143.945052
 31
0.0
  0
LINE
  5
3EA
100
AcDbEntity
  8
0
370
    -3
390
0
  6
Continuous
100
AcDbLine
 10
-219.489226
 20
142.371715
 30
0.0
 11
-221.418431
 21
141.161052
 31
0.0
  0
ARC
  5
3EB
100
AcDbEntity
  8
0
370
    -3
390
0
  6
Continuous
100
AcDbCircle
 10
-228.05726
 20
257.743915
 30
0.0
 40
40.8
100
AcDbArc
 50
90.0
 51
120.0
  0
LINE
  5
3EC
100
AcDbEntity
  8
0
370
    -3
390
0
  6
Continuous
100
AcDbLine
 10
-266.989227
 20
280.184384
 30
0.0
 11
-266.989227
 21
211.243915
 31
0.0
  0
LINE
  5
3ED
100
AcDbEntity
  8
0
370
    -3
390
0
  6
Continuous
100
AcDbLine
 10
-265.089227
 20
283.475281
 30
0.0
 11
-248.45726
 21
293.077752
 31
0.0
  0
ARC
  5
3EE
100
AcDbEntity
  8
0
370
    -3
390
0
  6
Continuous
100
AcDbCircle
 10
-263.189227
 20
280.184384
 30
0.0
 40
3.8
100
AcDbArc
 50
120.0
 51
180.0
  0
LINE
  5
3EF
100
AcDbEntity
  8
0
370
    -3
390
0
  6
Continuous
100
AcDbLine
 10
-228.05726
 20
298.543915
 30
0.0
 11
-193.989227
 21
298.543915
 31
0.0
  0
ARC
  5
3F0
100
AcDbEntity
  8
0
370
    -3
390
0
  6
Continuous
100
AcDbCircle
 10
-196.989227
 20
127.884406
 30
0.0
 40
3.0
100
AcDbArc
 50
270.0
 51
0.0
  0
LINE
  5
3F1
100
AcDbEntity
  8
0
370
    -3
390
0
  6
Continuous
100
AcDbLine
 10
-196.989227
 20
124.884406
 30
0.0
 11
-212.989227
 21
124.884406
 31
0.0
  0
ARC
  5
3F2
100
AcDbEntity
  8
0
370
    -3
390
0
  6
Continuous
100
AcDbCircle
 10
-212.989227
 20
123.884406
 30
0.0
 40
1.0
100
AcDbArc
 50
90.0
 51
176.588332
  0
LINE
  5
3F3
100
AcDbEntity
  8
0
370
    -3
390
0
  6
Continuous
100
AcDbLine
 10
-228.05726
 20
123.943915
 30
0.0
 11
-213.987455
 21
123.943915
 31
0.0
  0
LINE
  5
3F4
100
AcDbEntity
  8
0
370
    -3
390
0
  6
Continuous
100
AcDbLine
 10
-193.989227
 20
127.884406
 30
0.0
 11
-193.989227
 21
298.543915
 31
0.0
  0
LINE
  5
3F5
100
AcDbEntity
  8
0
370
    -3
390
0
  6
Continuous
100
AcDbLine
 10
-159.989226
 20
129.493915
 30
0.0
 11
-159.989226
 21
128.493915
 31
0.0
  0
ARC
  5
3F6
100
AcDbEntity
  8
0
370
    -3
390
0
  6
Continuous
100
AcDbCircle
 10
-162.589226
 20
125.293915
 30
0.0
 40
3.2
100
AcDbArc
 50
0.0
 51
90.0
  0
ARC
  5
3F7
100
AcDbEntity
  8
0
370
    -3
390
0
  6
Continuous
100
AcDbCircle
 10
-157.389226
 20
117.093915
 30
0.0
 40
2.0
100
AcDbArc
 50
180.0
 51
270.0
  0
ARC
  5
3F8
100
AcDbEntity
  8
0
370
    -3
390
0
  6
Continuous
100
AcDbCircle
 10
-210.589226
 20
117.093915
 30
0.0
 40
2.0
100
AcDbArc
 50
270.0
 51
0.0
  0
LINE
  5
3F9
100
AcDbEntity
  8
0
370
    -3
390
0
  6
Continuous
100
AcDbLine
 10
-152.989226
 20
113.493915
 30
0.0
 11
-152.989226
 21
115.093915
 31
0.0
  0
LINE
  5
3FA
100
AcDbEntity
  8
0
370
    -3
390
0
  6
Continuous
100
AcDbLine
 10
-159.389226
 20
117.093915
 30
0.0
 11
-159.389226
 21
125.293915
 31
0.0
  0
LINE
  5
3FB
100
AcDbEntity
  8
0
370
    -3
390
0
  6
Continuous
100
AcDbLine
 10
-208.589226
 20
117.093915
 30
0.0
 11
-208.589226
 21
124.884406
 31
0.0
  0
LINE
  5
3FC
100
AcDbEntity
  8
0
370
    -3
390
0
  6
Continuous
100
AcDbLine
 10
-193.989227
 20
128.493915
 30
0.0
 11
-159.989226
 21
128.493915
 31
0.0
  0
LINE
  5
3FD
100
AcDbEntity
  8
0
370
    -3
390
0
  6
Continuous
100
AcDbLine
 10
-214.989226
 20
115.093915
 30
0.0
 11
-152.989226
 21
115.093915
 31
0.0
  0
LINE
  5
3FE
100
AcDbEntity
  8
0
370
    -3
390
0
  6
Continuous
100
AcDbLine
 10
-214.989226
 20
113.493915
 30
0.0
 11
-214.989226
 21
115.093915
 31
0.0
  0
LINE
  5
3FF
100
AcDbEntity
  8
0
370
    -3
390
0
  6
Continuous
100
AcDbLine
 10
-152.989226
 20
113.493915
 30
0.0
 11
-152.989226
 21
112.493915
 31
0.0
  0
LINE
  5
400
100
AcDbEntity
  8
0
370
    -3
390
0
  6
Continuous
100
AcDbLine
 10
-214.989226
 20
113.493915
 30
0.0
 11
-214.989226
 21
112.493915
 31
0.0
  0
LINE
  5
401
100
AcDbEntity
  8
0
370
    -3
390
0
  6
Continuous
100
AcDbLine
 10
-217.789226
 20
112.493915
 30
0.0
 11
-150.189226
 21
112.493915
 31
0.0
  0
LINE
  5
402
100
AcDbEntity
  8
0
370
    -3
390
0
  6
CENTER
100
AcDbLine
 10
-183.989226
 20
119.327629
 30
0.0
 11
-183.989226
 21
57.265215
 31
0.0
  0
LINE
  5
403
100
AcDbEntity
  8
0
370
    -3
390
0
  6
Continuous
100
AcDbLine
 10
-219.439226
 20
62.32009
 30
0.0
 11
-187.046483
 21
62.32009
 31
0.0
  0
LINE
  5
404
100
AcDbEntity
  8
0
370
    -3
390
0
  6
Continuous
100
AcDbLine
 10
-219.439226
 20
111.188479
 30
0.0
 11
-148.539226
 21
111.188479
 31
0.0
  0
LINE
  5
405
100
AcDbEntity
  8
0
370
    -3
390
0
  6
Continuous
100
AcDbLine
 10
-219.439226
 20
107.717007
 30
0.0
 11
-148.539226
 21
107.717007
 31
0.0
  0
LINE
  5
406
100
AcDbEntity
  8
0
370
    -3
390
0
  6
Continuous
100
AcDbLine
 10
-137.539226
 20
100.188479
 30
0.0
 11
-137.539226
 21
73.32009
 31
0.0
  0
LINE
  5
407
100
AcDbEntity
  8
0
370
    -3
390
0
  6
Continuous
100
AcDbLine
 10
-143.939226
 20
70.293915
 30
0.0
 11
-143.939226
 21
99.86985
 31
0.0
  0
LINE
  5
408
100
AcDbEntity
  8
0
370
    -3
390
0
  6
Continuous
100
AcDbLine
 10
-224.039226
 20
70.293915
 30
0.0
 11
-224.039226
 21
99.86985
 31
0.0
  0
LINE
  5
409
100
AcDbEntity
  8
0
370
    -3
390
0
  6
Continuous
100
AcDbLine
 10
-219.039226
 20
104.86985
 30
0.0
 11
-148.939226
 21
104.86985
 31
0.0
  0
ARC
  5
40A
100
AcDbEntity
  8
0
370
    -3
390
0
  6
Continuous
100
AcDbCircle
 10
-148.939226
 20
99.86985
 30
0.0
 40
5.0
100
AcDbArc
 50
0.0
 51
90.0
  0
ARC
  5
40B
100
AcDbEntity
  8
0
370
    -3
390
0
  6
Continuous
100
AcDbCircle
 10
-219.039226
 20
99.86985
 30
0.0
 40
5.0
100
AcDbArc
 50
90.0
 51
180.0
  0
ARC
  5
40C
100
AcDbEntity
  8
0
370
    -3
390
0
  6
Continuous
100
AcDbCircle
 10
-148.539226
 20
73.32009
 30
0.0
 40
11.0
100
AcDbArc
 50
270.0
 51
0.0
  0
ARC
  5
40D
100
AcDbEntity
  8
0
370
    -3
390
0
  6
Continuous
100
AcDbCircle
 10
-219.439226
 20
73.32009
 30
0.0
 40
11.0
100
AcDbArc
 50
180.0
 51
270.0
  0
LINE
  5
40E
100
AcDbEntity
  8
0
370
    -3
390
0
  6
Continuous
100
AcDbLine
 10
-218.239226
 20
64.493915
 30
0.0
 11
-149.739226
 21
64.493915
 31
0.0
  0
ARC
  5
40F
100
AcDbEntity
  8
0
370
    -3
390
0
  6
Continuous
100
AcDbCircle
 10
-149.739226
 20
70.293915
 30
0.0
 40
5.8
100
AcDbArc
 50
270.0
 51
0.0
  0
ARC
  5
410
100
AcDbEntity
  8
0
370
    -3
390
0
  6
Continuous
100
AcDbCircle
 10
-218.239226
 20
70.293915
 30
0.0
 40
5.8
100
AcDbArc
 50
180.0
 51
270.0
  0
ARC
  5
411
100
AcDbEntity
  8
0
370
    -3
390
0
  6
Continuous
100
AcDbCircle
 10
-148.539226
 20
96.717007
 30
0.0
 40
11.0
100
AcDbArc
 50
0.0
 51
90.0
  0
ARC
  5
412
100
AcDbEntity
  8
0
370
    -3
390
0
  6
Continuous
100
AcDbCircle
 10
-148.539226
 20
100.188479
 30
0.0
 40
11.0
100
AcDbArc
 50
0.0
 51
90.0
  0
ARC
  5
413
100
AcDbEntity
  8
0
370
    -3
390
0
  6
Continuous
100
AcDbCircle
 10
-219.439226
 20
96.717007
 30
0.0
 40
11.0
100
AcDbArc
 50
90.0
 51
180.0
  0
ARC
  5
414
100
AcDbEntity
  8
0
370
    -3
390
0
  6
Continuous
100
AcDbCircle
 10
-219.439226
 20
100.188479
 30
0.0
 40
11.0
100
AcDbArc
 50
90.0
 51
180.0
  0
ARC
  5
415
100
AcDbEntity
  8
0
370
    -3
390
0
  6
Continuous
100
AcDbCircle
 10
-150.189226
 20
107.493915
 30
0.0
 40
5.0
100
AcDbArc
 50
44.925956
 51
90.0
  0
ARC
  5
416
100
AcDbEntity
  8
0
370
    -3
390
0
  6
Continuous
100
AcDbCircle
 10
-217.789226
 20
107.493915
 30
0.0
 40
5.0
100
AcDbArc
 50
90.0
 51
135.074044
  0
LINE
  5
417
100
AcDbEntity
  8
0
370
    -3
390
0
  6
CENTER
100
AcDbLine
 10
-206.812858
 20
88.493915
 30
0.0
 11
-162.52514
 21
88.493915
 31
0.0
  0
CIRCLE
  5
418
100
AcDbEntity
  8
0
370
    -3
390
0
  6
DASHED
100
AcDbCircle
 10
-183.989226
 20
88.493915
 30
0.0
 40
13.5
  0
LINE
  5
419
100
AcDbEntity
  8
0
370
    -3
390
0
  6
Continuous
100
AcDbLine
 10
-180.93197
 20
62.32009
 30
0.0
 11
-148.539226
 21
62.32009
 31
0.0
  0
LINE
  5
41A
100
AcDbEntity
  8
0
370
    -3
390
0
  6
Continuous
100
AcDbLine
 10
-230.439226
 20
100.188479
 30
0.0
 11
-230.439226
 21
73.32009
 31
0.0
  0
LINE
  5
41B
100
AcDbEntity
  8
0
370
    -3
390
0
  6
Continuous
100
AcDbLine
 10
-214.989226
 20
113.493915
 30
0.0
 11
-152.989226
 21
113.493915
 31
0.0
  0
LINE
  5
41C
100
AcDbEntity
  8
0
370
    -3
390
0
  6
Continuous
100
AcDbLine
 10
-23.989226
 20
296.493915
 30
0.0
 11
-23.989226
 21
129.493915
 31
0.0
  0
LINE
  5
41D
100
AcDbEntity
  8
0
370
    -3
390
0
  6
Continuous
100
AcDbLine
 10
-193.989227
 20
296.493915
 30
0.0
 11
-23.989226
 21
296.493915
 31
0.0
  0
LINE
  5
41E
100
AcDbEntity
  8
0
370
    -3
390
0
  6
Continuous
100
AcDbLine
 10
-23.989226
 20
295.493915
 30
0.0
 11
-193.989227
 21
295.493915
 31
0.0
  0
LINE
  5
41F
100
AcDbEntity
  8
0
370
    -3
390
0
  6
Continuous
100
AcDbLine
 10
-23.989226
 20
292.993915
 30
0.0
 11
-193.989227
 21
292.993915
 31
0.0
  0
LINE
  5
420
100
AcDbEntity
  8
0
370
    -3
390
0
  6
Continuous
100
AcDbLine
 10
-23.989226
 20
287.993915
 30
0.0
 11
-193.989227
 21
287.993915
 31
0.0
  0
LINE
  5
421
100
AcDbEntity
  8
0
370
    -3
390
0
  6
Continuous
100
AcDbLine
 10
-23.989226
 20
278.873128
 30
0.0
 11
-193.989227
 21
278.873128
 31
0.0
  0
LINE
  5
422
100
AcDbEntity
  8
0
370
    -3
390
0
  6
Continuous
100
AcDbLine
 10
-23.989226
 20
271.80206
 30
0.0
 11
-193.989227
 21
271.80206
 31
0.0
  0
LINE
  5
423
100
AcDbEntity
  8
0
370
    -3
390
0
  6
Continuous
100
AcDbLine
 10
-23.989226
 20
259.13164
 30
0.0
 11
-193.989227
 21
259.13164
 31
0.0
  0
LINE
  5
424
100
AcDbEntity
  8
0
370
    -3
390
0
  6
Continuous
100
AcDbLine
 10
-23.989226
 20
256.909313
 30
0.0
 11
-193.989227
 21
256.909313
 31
0.0
  0
LINE
  5
425
100
AcDbEntity
  8
0
370
    -3
390
0
  6
Continuous
100
AcDbLine
 10
-23.989226
 20
249.098854
 30
0.0
 11
-193.989227
 21
249.098854
 31
0.0
  0
LINE
  5
426
100
AcDbEntity
  8
0
370
    -3
390
0
  6
Continuous
100
AcDbLine
 10
-23.989226
 20
246.932143
 30
0.0
 11
-193.989227
 21
246.932143
 31
0.0
  0
LINE
  5
427
100
AcDbEntity
  8
0
370
    -3
390
0
  6
Continuous
100
AcDbLine
 10
-23.989226
 20
239.036536
 30
0.0
 11
-193.989227
 21
239.036536
 31
0.0
  0
LINE
  5
428
100
AcDbEntity
  8
0
370
    -3
390
0
  6
Continuous
100
AcDbLine
 10
-23.989226
 20
236.971773
 30
0.0
 11
-193.989227
 21
236.971773
 31
0.0
  0
LINE
  5
429
100
AcDbEntity
  8
0
370
    -3
390
0
  6
Continuous
100
AcDbLine
 10
-23.989226
 20
228.965644
 30
0.0
 11
-193.989227
 21
228.965644
 31
0.0
  0
LINE
  5
42A
100
AcDbEntity
  8
0
370
    -3
390
0
  6
Continuous
100
AcDbLine
 10
-23.989226
 20
227.02326
 30
0.0
 11
-193.989227
 21
227.02326
 31
0.0
  0
LINE
  5
42B
100
AcDbEntity
  8
0
370
    -3
390
0
  6
Continuous
100
AcDbLine
 10
-23.989226
 20
218.933185
 30
0.0
 11
-193.989227
 21
218.933185
 31
0.0
  0
LINE
  5
42C
100
AcDbEntity
  8
0
370
    -3
390
0
  6
Continuous
100
AcDbLine
 10
-23.989226
 20
217.038413
 30
0.0
 11
-193.989227
 21
217.038413
 31
0.0
  0
ARC
  5
42D
100
AcDbEntity
  8
0
370
    -3
390
0
  6
Continuous
100
AcDbCircle
 10
-517.77322
 20
-237.006085
 30
0.0
 40
76.8
100
AcDbArc
 50
38.737581
 51
51.262419
  0
ARC
  5
42E
100
AcDbEntity
  8
0
370
    -3
390
0
  6
Continuous
100
AcDbCircle
 10
-517.77322
 20
66.493915
 30
0.0
 40
374.8
100
AcDbArc
 50
270.0
 51
272.979907
  0
ARC
  5
42F
100
AcDbEntity
  8
0
370
    -3
390
0
  6
Continuous
100
AcDbCircle
 10
-821.27322
 20
-237.006085
 30
0.0
 40
374.8
100
AcDbArc
 50
360.0
 51
2.979907
  0
ARC
  5
430
100
AcDbEntity
  8
0
370
    -3
390
0
  6
Continuous
100
AcDbCircle
 10
-821.27322
 20
-237.006085
 30
0.0
 40
374.8
100
AcDbArc
 50
357.020093
 51
0.0
  0
ARC
  5
431
100
AcDbEntity
  8
0
370
    -3
390
0
  6
Continuous
100
AcDbCircle
 10
-496.712676
 20
-253.901454
 30
0.0
 40
49.8
100
AcDbArc
 50
321.262419
 51
357.020093
  0
ARC
  5
432
100
AcDbEntity
  8
0
370
    -3
390
0
  6
Continuous
100
AcDbCircle
 10
-517.77322
 20
-237.006085
 30
0.0
 40
76.8
100
AcDbArc
 50
308.737581
 51
321.262419
  0
ARC
  5
433
100
AcDbEntity
  8
0
370
    -3
390
0
  6
Continuous
100
AcDbCircle
 10
-500.877851
 20
-258.066628
 30
0.0
 40
49.8
100
AcDbArc
 50
272.979907
 51
308.737581
  0
ARC
  5
434
100
AcDbEntity
  8
0
370
    -3
390
0
  6
Continuous
100
AcDbCircle
 10
-517.77322
 20
66.493915
 30
0.0
 40
374.8
100
AcDbArc
 50
267.020093
 51
270.0
  0
ARC
  5
435
100
AcDbEntity
  8
0
370
    -3
390
0
  6
Continuous
100
AcDbCircle
 10
-517.77322
 20
-237.006085
 30
0.0
 40
76.8
100
AcDbArc
 50
218.737581
 51
231.262419
  0
ARC
  5
436
100
AcDbEntity
  8
0
370
    -3
390
0
  6
Continuous
100
AcDbCircle
 10
-534.668589
 20
-258.066628
 30
0.0
 40
49.8
100
AcDbArc
 50
231.262419
 51
267.020093
  0
ARC
  5
437
100
AcDbEntity
  8
0
370
    -3
390
0
  6
Continuous
100
AcDbCircle
 10
-538.833764
 20
-253.901454
 30
0.0
 40
49.8
100
AcDbArc
 50
182.979907
 51
218.737581
  0
ARC
  5
438
100
AcDbEntity
  8
0
370
    -3
390
0
  6
Continuous
100
AcDbCircle
 10
-214.27322
 20
-237.006085
 30
0.0
 40
374.8
100
AcDbArc
 50
180.0
 51
182.979907
  0
ARC
  5
439
100
AcDbEntity
  8
0
370
    -3
390
0
  6
Continuous
100
AcDbCircle
 10
-538.833764
 20
-220.110715
 30
0.0
 40
49.8
100
AcDbArc
 50
141.262419
 51
177.020093
  0
ARC
  5
43A
100
AcDbEntity
  8
0
370
    -3
390
0
  6
Continuous
100
AcDbCircle
 10
-517.77322
 20
-237.006085
 30
0.0
 40
76.8
100
AcDbArc
 50
128.737581
 51
141.262419
  0
ARC
  5
43B
100
AcDbEntity
  8
0
370
    -3
390
0
  6
Continuous
100
AcDbCircle
 10
-534.668589
 20
-215.945541
 30
0.0
 40
49.8
100
AcDbArc
 50
92.979907
 51
128.737581
  0
ARC
  5
43C
100
AcDbEntity
  8
0
370
    -3
390
0
  6
Continuous
100
AcDbCircle
 10
-517.77322
 20
-540.506085
 30
0.0
 40
374.8
100
AcDbArc
 50
90.0
 51
92.979907
  0
ARC
  5
43D
100
AcDbEntity
  8
0
370
    -3
390
0
  6
Continuous
100
AcDbCircle
 10
-517.77322
 20
-540.506085
 30
0.0
 40
374.8
100
AcDbArc
 50
87.020093
 51
90.0
  0
ARC
  5
43E
100
AcDbEntity
  8
0
370
    -3
390
0
  6
Continuous
100
AcDbCircle
 10
-500.877851
 20
-215.945541
 30
0.0
 40
49.8
100
AcDbArc
 50
51.262419
 51
87.020093
  0
ARC
  5
43F
100
AcDbEntity
  8
0
370
    -3
390
0
  6
Continuous
100
AcDbCircle
 10
-496.712676
 20
-220.110715
 30
0.0
 40
49.8
100
AcDbArc
 50
2.979907
 51
38.737581
  0
ARC
  5
440
100
AcDbEntity
  8
0
370
    -3
390
0
  6
Continuous
100
AcDbCircle
 10
-517.77322
 20
-237.006085
 30
0.0
 40
92.8
100
AcDbArc
 50
308.737581
 51
321.262419
  0
ARC
  5
441
100
AcDbEntity
  8
0
370
    -3
390
0
  6
Continuous
100
AcDbCircle
 10
-500.877851
 20
-258.066628
 30
0.0
 40
65.8
100
AcDbArc
 50
272.979907
 51
308.737581
  0
ARC
  5
442
100
AcDbEntity
  8
0
370
    -3
390
0
  6
Continuous
100
AcDbCircle
 10
-517.77322
 20
-237.006085
 30
0.0
 40
92.8
100
AcDbArc
 50
218.737581
 51
231.262419
  0
ARC
  5
443
100
AcDbEntity
  8
0
370
    -3
390
0
  6
Continuous
100
AcDbCircle
 10
-534.668589
 20
-258.066628
 30
0.0
 40
65.8
100
AcDbArc
 50
231.262419
 51
267.020093
  0
ARC
  5
444
100
AcDbEntity
  8
0
370
    -3
390
0
  6
Continuous
100
AcDbCircle
 10
-538.833764
 20
-253.901454
 30
0.0
 40
65.8
100
AcDbArc
 50
182.979907
 51
218.737581
  0
ARC
  5
445
100
AcDbEntity
  8
0
370
    -3
390
0
  6
Continuous
100
AcDbCircle
 10
-517.77322
 20
-237.006085
 30
0.0
 40
92.8
100
AcDbArc
 50
128.737581
 51
141.262419
  0
ARC
  5
446
100
AcDbEntity
  8
0
370
    -3
390
0
  6
Continuous
100
AcDbCircle
 10
-538.833764
 20
-220.110715
 30
0.0
 40
65.8
100
AcDbArc
 50
141.262419
 51
177.020093
  0
ARC
  5
447
100
AcDbEntity
  8
0
370
    -3
390
0
  6
Continuous
100
AcDbCircle
 10
-534.668589
 20
-215.945541
 30
0.0
 40
65.8
100
AcDbArc
 50
92.979907
 51
128.737581
  0
ARC
  5
448
100
AcDbEntity
  8
0
370
    -3
390
0
  6
Continuous
100
AcDbCircle
 10
-517.77322
 20
-237.006085
 30
0.0
 40
92.8
100
AcDbArc
 50
38.737581
 51
51.262419
  0
ARC
  5
449
100
AcDbEntity
  8
0
370
    -3
390
0
  6
Continuous
100
AcDbCircle
 10
-500.877851
 20
-215.945541
 30
0.0
 40
65.8
100
AcDbArc
 50
51.262419
 51
87.020093
  0
ARC
  5
44A
100
AcDbEntity
  8
0
370
    -3
390
0
  6
Continuous
100
AcDbCircle
 10
-496.712676
 20
-220.110715
 30
0.0
 40
65.8
100
AcDbArc
 50
2.979907
 51
38.737581
  0
ARC
  5
44B
100
AcDbEntity
  8
0
370
    -3
390
0
  6
Continuous
100
AcDbCircle
 10
-821.27322
 20
-237.006085
 30
0.0
 40
390.8
100
AcDbArc
 50
357.020093
 51
2.979907
  0
ARC
  5
44C
100
AcDbEntity
  8
0
370
    -3
390
0
  6
Continuous
100
AcDbCircle
 10
-496.712676
 20
-253.901454
 30
0.0
 40
65.8
100
AcDbArc
 50
321.262419
 51
357.020093
  0
CIRCLE
  5
44D
100
AcDbEntity
  8
0
370
    -3
390
0
  6
Continuous
100
AcDbCircle
 10
-517.77322
 20
-237.006085
 30
0.0
 40
5.0
  0
LINE
  5
44E
100
AcDbEntity
  8
0
370
    -3
390
0
  6
Continuous
100
AcDbLine
 10
-509.825998
 20
-228.953652
 30
0.0
 11
-506.567414
 21
-227.072308
 31
0.0
  0
LINE
  5
44F
100
AcDbEntity
  8
0
370
    -3
390
0
  6
Continuous
100
AcDbLine
 10
-513.77322
 20
-226.61378
 30
0.0
 11
-513.77322
 21
-222.714479
 31
0.0
  0
LINE
  5
450
100
AcDbEntity
  8
0
370
    -3
390
0
  6
Continuous
100
AcDbLine
 10
-521.77322
 20
-226.61378
 30
0.0
 11
-521.77322
 21
-222.714479
 31
0.0
  0
LINE
  5
451
100
AcDbEntity
  8
0
370
    -3
390
0
  6
Continuous
100
AcDbLine
 10
-506.825998
 20
-234.149805
 30
0.0
 11
-503.567414
 21
-232.26846
 31
0.0
  0
ARC
  5
452
100
AcDbEntity
  8
0
370
    -3
390
0
  6
Continuous
100
AcDbCircle
 10
-517.77322
 20
-237.006085
 30
0.0
 40
65.0
100
AcDbArc
 50
335.465024
 51
25.447929
  0
ARC
  5
453
100
AcDbEntity
  8
0
370
    -3
390
0
  6
Continuous
100
AcDbCircle
 10
-465.885722
 20
-201.275321
 30
0.0
 40
2.0
100
AcDbArc
 50
300.0
 51
34.552071
  0
ARC
  5
454
100
AcDbEntity
  8
0
370
    -3
390
0
  6
Continuous
100
AcDbCircle
 10
-511.77322
 20
-174.29245
 30
0.0
 40
2.0
100
AcDbArc
 50
84.534976
 51
180.0
  0
ARC
  5
455
100
AcDbEntity
  8
0
370
    -3
390
0
  6
Continuous
100
AcDbCircle
 10
-523.77322
 20
-174.29245
 30
0.0
 40
2.0
100
AcDbArc
 50
0.0
 51
95.465024
  0
ARC
  5
456
100
AcDbEntity
  8
0
370
    -3
390
0
  6
Continuous
100
AcDbCircle
 10
-460.885722
 20
-209.935575
 30
0.0
 40
2.0
100
AcDbArc
 50
25.447929
 51
120.0
  0
LINE
  5
457
100
AcDbEntity
  8
0
370
    -3
390
0
  6
Continuous
100
AcDbLine
 10
-525.720442
 20
-228.953652
 30
0.0
 11
-528.979026
 21
-227.072308
 31
0.0
  0
ARC
  5
458
100
AcDbEntity
  8
0
370
    -3
390
0
  6
Continuous
100
AcDbCircle
 10
-569.660719
 20
-201.275321
 30
0.0
 40
2.0
100
AcDbArc
 50
145.447929
 51
240.0
  0
ARC
  5
459
100
AcDbEntity
  8
0
370
    -3
390
0
  6
Continuous
100
AcDbCircle
 10
-517.77322
 20
-237.006085
 30
0.0
 40
65.0
100
AcDbArc
 50
95.465024
 51
145.447929
  0
LINE
  5
45A
100
AcDbEntity
  8
0
370
    -3
390
0
  6
Continuous
100
AcDbLine
 10
-521.77322
 20
-175.29709
 30
0.0
 11
-521.77322
 21
-174.29245
 31
0.0
  0
LINE
  5
45B
100
AcDbEntity
  8
0
370
    -3
390
0
  6
Continuous
100
AcDbLine
 10
-521.77322
 20
-187.871067
 30
0.0
 11
-521.77322
 21
-184.346802
 31
0.0
  0
LINE
  5
45C
100
AcDbEntity
  8
0
370
    -3
390
0
  6
Continuous
100
AcDbLine
 10
-521.77322
 20
-200.495812
 30
0.0
 11
-521.77322
 21
-196.952995
 31
0.0
  0
LINE
  5
45D
100
AcDbEntity
  8
0
370
    -3
390
0
  6
Continuous
100
AcDbLine
 10
-521.77322
 20
-213.252138
 30
0.0
 11
-521.77322
 21
-209.656496
 31
0.0
  0
LINE
  5
45E
100
AcDbEntity
  8
0
370
    -3
390
0
  6
Continuous
100
AcDbLine
 10
-513.77322
 20
-175.29709
 30
0.0
 11
-513.77322
 21
-174.29245
 31
0.0
  0
LINE
  5
45F
100
AcDbEntity
  8
0
370
    -3
390
0
  6
Continuous
100
AcDbLine
 10
-513.77322
 20
-187.871067
 30
0.0
 11
-513.77322
 21
-184.346802
 31
0.0
  0
LINE
  5
460
100
AcDbEntity
  8
0
370
    -3
390
0
  6
Continuous
100
AcDbLine
 10
-513.77322
 20
-200.495812
 30
0.0
 11
-513.77322
 21
-196.952995
 31
0.0
  0
LINE
  5
461
100
AcDbEntity
  8
0
370
    -3
390
0
  6
Continuous
100
AcDbLine
 10
-513.77322
 20
-213.252138
 30
0.0
 11
-513.77322
 21
-209.656496
 31
0.0
  0
LINE
  5
462
100
AcDbEntity
  8
0
370
    -3
390
0
  6
Continuous
100
AcDbLine
 10
-569.791908
 20
-203.508979
 30
0.0
 11
-570.660719
 21
-203.007372
 31
0.0
  0
LINE
  5
463
100
AcDbEntity
  8
0
370
    -3
390
0
  6
Continuous
100
AcDbLine
 10
-558.922224
 20
-209.784595
 30
0.0
 11
-561.967859
 21
-208.026197
 31
0.0
  0
LINE
  5
464
100
AcDbEntity
  8
0
370
    -3
390
0
  6
Continuous
100
AcDbLine
 10
-548.022236
 20
-216.077706
 30
0.0
 11
-551.078931
 21
-214.312922
 31
0.0
  0
LINE
  5
465
100
AcDbEntity
  8
0
370
    -3
390
0
  6
Continuous
100
AcDbLine
 10
-537.044294
 20
-222.415823
 30
0.0
 11
-540.132181
 21
-220.633031
 31
0.0
  0
LINE
  5
466
100
AcDbEntity
  8
0
370
    -3
390
0
  6
Continuous
100
AcDbLine
 10
-465.754532
 20
-203.508979
 30
0.0
 11
-464.885722
 21
-203.007372
 31
0.0
  0
LINE
  5
467
100
AcDbEntity
  8
0
370
    -3
390
0
  6
Continuous
100
AcDbLine
 10
-476.624217
 20
-209.784595
 30
0.0
 11
-473.578581
 21
-208.026197
 31
0.0
  0
LINE
  5
468
100
AcDbEntity
  8
0
370
    -3
390
0
  6
Continuous
100
AcDbLine
 10
-487.524204
 20
-216.077706
 30
0.0
 11
-484.467509
 21
-214.312922
 31
0.0
  0
LINE
  5
469
100
AcDbEntity
  8
0
370
    -3
390
0
  6
Continuous
100
AcDbLine
 10
-498.502146
 20
-222.415823
 30
0.0
 11
-495.41426
 21
-220.633031
 31
0.0
  0
LINE
  5
46A
100
AcDbEntity
  8
0
370
    -3
390
0
  6
Continuous
100
AcDbLine
 10
-462.754532
 20
-208.705132
 30
0.0
 11
-461.885722
 21
-208.203524
 31
0.0
  0
LINE
  5
46B
100
AcDbEntity
  8
0
370
    -3
390
0
  6
Continuous
100
AcDbLine
 10
-473.624217
 20
-214.980747
 30
0.0
 11
-470.578581
 21
-213.222349
 31
0.0
  0
LINE
  5
46C
100
AcDbEntity
  8
0
370
    -3
390
0
  6
Continuous
100
AcDbLine
 10
-484.524204
 20
-221.273858
 30
0.0
 11
-481.467509
 21
-219.509074
 31
0.0
  0
LINE
  5
46D
100
AcDbEntity
  8
0
370
    -3
390
0
  6
Continuous
100
AcDbLine
 10
-495.502146
 20
-227.611976
 30
0.0
 11
-492.41426
 21
-225.829184
 31
0.0
  0
ARC
  5
46E
100
AcDbEntity
  8
0
370
    -3
390
0
  6
Continuous
100
AcDbCircle
 10
-517.77322
 20
-237.006085
 30
0.0
 40
65.0
100
AcDbArc
 50
34.552071
 51
84.534976
  0
ARC
  5
46F
100
AcDbEntity
  8
0
370
    -3
390
0
  6
Continuous
100
AcDbCircle
 10
-517.77322
 20
-237.006085
 30
0.0
 40
65.0
100
AcDbArc
 50
154.552071
 51
204.534976
  0
LINE
  5
470
100
AcDbEntity
  8
0
370
    -3
390
0
  6
Continuous
100
AcDbLine
 10
-572.791908
 20
-208.705132
 30
0.0
 11
-573.660719
 21
-208.203524
 31
0.0
  0
ARC
  5
471
100
AcDbEntity
  8
0
370
    -3
390
0
  6
Continuous
100
AcDbCircle
 10
-574.660719
 20
-209.935575
 30
0.0
 40
2.0
100
AcDbArc
 50
60.0
 51
154.552071
  0
LINE
  5
472
100
AcDbEntity
  8
0
370
    -3
390
0
  6
Continuous
100
AcDbLine
 10
-573.214777
 20
-264.39648
 30
0.0
 11
-574.084821
 21
-264.8988
 31
0.0
  0
ARC
  5
473
100
AcDbEntity
  8
0
370
    -3
390
0
  6
Continuous
100
AcDbCircle
 10
-575.084821
 20
-263.16675
 30
0.0
 40
2.0
100
AcDbArc
 50
204.534976
 51
300.0
  0
LINE
  5
474
100
AcDbEntity
  8
0
370
    -3
390
0
  6
Continuous
100
AcDbLine
 10
-562.325394
 20
-258.109492
 30
0.0
 11
-565.377496
 21
-259.871624
 31
0.0
  0
LINE
  5
475
100
AcDbEntity
  8
0
370
    -3
390
0
  6
Continuous
100
AcDbLine
 10
-561.922224
 20
-214.980747
 30
0.0
 11
-564.967859
 21
-213.222349
 31
0.0
  0
LINE
  5
476
100
AcDbEntity
  8
0
370
    -3
390
0
  6
Continuous
100
AcDbLine
 10
-551.022236
 20
-221.273858
 30
0.0
 11
-554.078931
 21
-219.509074
 31
0.0
  0
LINE
  5
477
100
AcDbEntity
  8
0
370
    -3
390
0
  6
Continuous
100
AcDbLine
 10
-528.720442
 20
-234.149805
 30
0.0
 11
-531.979026
 21
-232.26846
 31
0.0
  0
LINE
  5
478
100
AcDbEntity
  8
0
370
    -3
390
0
  6
Continuous
100
AcDbLine
 10
-528.77322
 20
-238.738135
 30
0.0
 11
-532.150114
 21
-240.687786
 31
0.0
  0
LINE
  5
479
100
AcDbEntity
  8
0
370
    -3
390
0
  6
Continuous
100
AcDbLine
 10
-540.344742
 20
-245.418957
 30
0.0
 11
-543.458659
 21
-247.216777
 31
0.0
  0
LINE
  5
47A
100
AcDbEntity
  8
0
370
    -3
390
0
  6
Continuous
100
AcDbLine
 10
-551.392044
 20
-251.797119
 30
0.0
 11
-554.460213
 21
-253.568528
 31
0.0
  0
LINE
  5
47B
100
AcDbEntity
  8
0
370
    -3
390
0
  6
Continuous
100
AcDbLine
 10
-540.044294
 20
-227.611976
 30
0.0
 11
-543.132181
 21
-225.829184
 31
0.0
  0
ARC
  5
47C
100
AcDbEntity
  8
0
370
    -3
390
0
  6
Continuous
100
AcDbCircle
 10
-517.77322
 20
-237.006085
 30
0.0
 40
65.0
100
AcDbArc
 50
215.465024
 51
265.447929
  0
LINE
  5
47D
100
AcDbEntity
  8
0
370
    -3
390
0
  6
Continuous
100
AcDbLine
 10
-520.77322
 20
-247.914797
 30
0.0
 11
-520.77322
 21
-251.677485
 31
0.0
  0
LINE
  5
47E
100
AcDbEntity
  8
0
370
    -3
390
0
  6
Continuous
100
AcDbLine
 10
-524.77322
 20
-245.666339
 30
0.0
 11
-528.150114
 21
-247.615989
 31
0.0
  0
LINE
  5
47F
100
AcDbEntity
  8
0
370
    -3
390
0
  6
Continuous
100
AcDbLine
 10
-547.392044
 20
-258.725323
 30
0.0
 11
-550.460213
 21
-260.496731
 31
0.0
  0
LINE
  5
480
100
AcDbEntity
  8
0
370
    -3
390
0
  6
Continuous
100
AcDbLine
 10
-558.325394
 20
-265.037695
 30
0.0
 11
-561.377496
 21
-266.799827
 31
0.0
  0
LINE
  5
481
100
AcDbEntity
  8
0
370
    -3
390
0
  6
Continuous
100
AcDbLine
 10
-569.214777
 20
-271.324684
 30
0.0
 11
-570.084821
 21
-271.827004
 31
0.0
  0
LINE
  5
482
100
AcDbEntity
  8
0
370
    -3
390
0
  6
Continuous
100
AcDbLine
 10
-520.77322
 20
-298.804143
 30
0.0
 11
-520.77322
 21
-299.807359
 31
0.0
  0
ARC
  5
483
100
AcDbEntity
  8
0
370
    -3
390
0
  6
Continuous
100
AcDbCircle
 10
-522.77322
 20
-299.807359
 30
0.0
 40
2.0
100
AcDbArc
 50
265.447929
 51
0.0
  0
LINE
  5
484
100
AcDbEntity
  8
0
370
    -3
390
0
  6
Continuous
100
AcDbLine
 10
-520.77322
 20
-286.252912
 30
0.0
 11
-520.77322
 21
-289.769708
 31
0.0
  0
LINE
  5
485
100
AcDbEntity
  8
0
370
    -3
390
0
  6
Continuous
100
AcDbLine
 10
-520.77322
 20
-273.66669
 30
0.0
 11
-520.77322
 21
-277.196258
 31
0.0
  0
LINE
  5
486
100
AcDbEntity
  8
0
370
    -3
390
0
  6
Continuous
100
AcDbLine
 10
-520.77322
 20
-260.990455
 30
0.0
 11
-520.77322
 21
-264.556039
 31
0.0
  0
ARC
  5
487
100
AcDbEntity
  8
0
370
    -3
390
0
  6
Continuous
100
AcDbCircle
 10
-517.77322
 20
-237.006085
 30
0.0
 40
65.0
100
AcDbArc
 50
274.552071
 51
324.534976
  0
LINE
  5
488
100
AcDbEntity
  8
0
370
    -3
390
0
  6
Continuous
100
AcDbLine
 10
-514.77322
 20
-298.804143
 30
0.0
 11
-514.77322
 21
-299.807359
 31
0.0
  0
ARC
  5
489
100
AcDbEntity
  8
0
370
    -3
390
0
  6
Continuous
100
AcDbCircle
 10
-512.77322
 20
-299.807359
 30
0.0
 40
2.0
100
AcDbArc
 50
180.0
 51
274.552071
  0
LINE
  5
48A
100
AcDbEntity
  8
0
370
    -3
390
0
  6
Continuous
100
AcDbLine
 10
-514.77322
 20
-286.252912
 30
0.0
 11
-514.77322
 21
-289.769708
 31
0.0
  0
LINE
  5
48B
100
AcDbEntity
  8
0
370
    -3
390
0
  6
Continuous
100
AcDbLine
 10
-514.77322
 20
-273.66669
 30
0.0
 11
-514.77322
 21
-277.196258
 31
0.0
  0
LINE
  5
48C
100
AcDbEntity
  8
0
370
    -3
390
0
  6
Continuous
100
AcDbLine
 10
-514.77322
 20
-260.990455
 30
0.0
 11
-514.77322
 21
-264.556039
 31
0.0
  0
LINE
  5
48D
100
AcDbEntity
  8
0
370
    -3
390
0
  6
Continuous
100
AcDbLine
 10
-514.77322
 20
-247.914797
 30
0.0
 11
-514.77322
 21
-251.677485
 31
0.0
  0
ARC
  5
48E
100
AcDbEntity
  8
0
370
    -3
390
0
  6
Continuous
100
AcDbCircle
 10
-214.27322
 20
-237.006085
 30
0.0
 40
374.8
100
AcDbArc
 50
177.020093
 51
180.0
  0
ARC
  5
48F
100
AcDbEntity
  8
0
370
    -3
390
0
  6
Continuous
100
AcDbCircle
 10
-517.77322
 20
-540.506085
 30
0.0
 40
390.8
100
AcDbArc
 50
87.020093
 51
92.979907
  0
ARC
  5
490
100
AcDbEntity
  8
0
370
    -3
390
0
  6
Continuous
100
AcDbCircle
 10
-214.27322
 20
-237.006085
 30
0.0
 40
390.8
100
AcDbArc
 50
177.020093
 51
182.979907
  0
ARC
  5
491
100
AcDbEntity
  8
0
370
    -3
390
0
  6
Continuous
100
AcDbCircle
 10
-517.77322
 20
66.493915
 30
0.0
 40
390.8
100
AcDbArc
 50
267.020093
 51
272.979907
  0
ARC
  5
492
100
AcDbEntity
  8
0
370
    -3
390
0
  6
Continuous
100
AcDbCircle
 10
-517.77322
 20
-237.006085
 30
0.0
 40
60.0
100
AcDbArc
 50
95.553444
 51
145.374349
  0
ARC
  5
493
100
AcDbEntity
  8
0
370
    -3
390
0
  6
Continuous
100
AcDbCircle
 10
-517.77322
 20
-237.006085
 30
0.0
 40
60.0
100
AcDbArc
 50
154.625651
 51
204.446556
  0
ARC
  5
494
100
AcDbEntity
  8
0
370
    -3
390
0
  6
Continuous
100
AcDbCircle
 10
-517.77322
 20
-237.006085
 30
0.0
 40
60.0
100
AcDbArc
 50
215.553444
 51
265.374349
  0
ARC
  5
495
100
AcDbEntity
  8
0
370
    -3
390
0
  6
Continuous
100
AcDbCircle
 10
-517.77322
 20
-237.006085
 30
0.0
 40
60.0
100
AcDbArc
 50
274.625651
 51
324.446556
  0
ARC
  5
496
100
AcDbEntity
  8
0
370
    -3
390
0
  6
Continuous
100
AcDbCircle
 10
-517.77322
 20
-237.006085
 30
0.0
 40
60.0
100
AcDbArc
 50
335.553444
 51
25.374349
  0
ARC
  5
497
100
AcDbEntity
  8
0
370
    -3
390
0
  6
Continuous
100
AcDbCircle
 10
-517.77322
 20
-237.006085
 30
0.0
 40
60.0
100
AcDbArc
 50
34.625651
 51
84.446556
  0
ARC
  5
498
100
AcDbEntity
  8
0
370
    -3
390
0
  6
Continuous
100
AcDbCircle
 10
-511.77322
 20
-175.29709
 30
0.0
 40
2.0
100
AcDbArc
 50
180.0
 51
264.446556
  0
ARC
  5
499
100
AcDbEntity
  8
0
370
    -3
390
0
  6
Continuous
100
AcDbCircle
 10
-466.754532
 20
-201.776929
 30
0.0
 40
2.0
100
AcDbArc
 50
214.625651
 51
300.0
  0
ARC
  5
49A
100
AcDbEntity
  8
0
370
    -3
390
0
  6
Continuous
100
AcDbCircle
 10
-461.754532
 20
-210.437183
 30
0.0
 40
2.0
100
AcDbArc
 50
120.0
 51
205.374349
  0
ARC
  5
49B
100
AcDbEntity
  8
0
370
    -3
390
0
  6
Continuous
100
AcDbCircle
 10
-512.77322
 20
-298.804143
 30
0.0
 40
2.0
100
AcDbArc
 50
94.625651
 51
180.0
  0
ARC
  5
49C
100
AcDbEntity
  8
0
370
    -3
390
0
  6
Continuous
100
AcDbCircle
 10
-522.77322
 20
-298.804143
 30
0.0
 40
2.0
100
AcDbArc
 50
0.0
 51
85.374349
  0
ARC
  5
49D
100
AcDbEntity
  8
0
370
    -3
390
0
  6
Continuous
100
AcDbCircle
 10
-568.214777
 20
-273.056734
 30
0.0
 40
2.0
100
AcDbArc
 50
35.553444
 51
120.0
  0
ARC
  5
49E
100
AcDbEntity
  8
0
370
    -3
390
0
  6
Continuous
100
AcDbCircle
 10
-574.214777
 20
-262.664429
 30
0.0
 40
2.0
100
AcDbArc
 50
300.0
 51
24.446556
  0
ARC
  5
49F
100
AcDbEntity
  8
0
370
    -3
390
0
  6
Continuous
100
AcDbCircle
 10
-573.791908
 20
-210.437183
 30
0.0
 40
2.0
100
AcDbArc
 50
334.625651
 51
60.0
  0
ARC
  5
4A0
100
AcDbEntity
  8
0
370
    -3
390
0
  6
Continuous
100
AcDbCircle
 10
-568.791908
 20
-201.776929
 30
0.0
 40
2.0
100
AcDbArc
 50
240.0
 51
325.374349
  0
ARC
  5
4A1
100
AcDbEntity
  8
0
370
    -3
390
0
  6
Continuous
100
AcDbCircle
 10
-523.77322
 20
-175.29709
 30
0.0
 40
2.0
100
AcDbArc
 50
275.553444
 51
0.0
  0
ARC
  5
4A2
100
AcDbEntity
  8
0
370
    -3
390
0
  6
Continuous
100
AcDbCircle
 10
-517.77322
 20
-237.006085
 30
0.0
 40
55.0
100
AcDbArc
 50
96.50025
 51
144.586688
  0
ARC
  5
4A3
100
AcDbEntity
  8
0
370
    -3
390
0
  6
Continuous
100
AcDbCircle
 10
-517.77322
 20
-237.006085
 30
0.0
 40
47.5
100
AcDbArc
 50
96.962063
 51
144.20266
  0
ARC
  5
4A4
100
AcDbEntity
  8
0
370
    -3
390
0
  6
Continuous
100
AcDbCircle
 10
-517.77322
 20
-237.006085
 30
0.0
 40
42.5
100
AcDbArc
 50
98.519624
 51
142.908354
  0
ARC
  5
4A5
100
AcDbEntity
  8
0
370
    -3
390
0
  6
Continuous
100
AcDbCircle
 10
-517.77322
 20
-237.006085
 30
0.0
 40
35.0
100
AcDbArc
 50
99.332418
 51
142.233566
  0
ARC
  5
4A6
100
AcDbEntity
  8
0
370
    -3
390
0
  6
Continuous
100
AcDbCircle
 10
-517.77322
 20
-237.006085
 30
0.0
 40
30.0
100
AcDbArc
 50
102.373625
 51
139.713439
  0
ARC
  5
4A7
100
AcDbEntity
  8
0
370
    -3
390
0
  6
Continuous
100
AcDbCircle
 10
-517.77322
 20
-237.006085
 30
0.0
 40
22.5
100
AcDbArc
 50
104.175804
 51
138.224256
  0
ARC
  5
4A8
100
AcDbEntity
  8
0
370
    -3
390
0
  6
Continuous
100
AcDbCircle
 10
-517.77322
 20
-237.006085
 30
0.0
 40
17.5
100
AcDbArc
 50
112.773972
 51
131.180937
  0
ARC
  5
4A9
100
AcDbEntity
  8
0
370
    -3
390
0
  6
Continuous
100
AcDbCircle
 10
-517.77322
 20
-237.006085
 30
0.0
 40
10.0
100
AcDbArc
 50
120.0
 51
125.375682
  0
ARC
  5
4AA
100
AcDbEntity
  8
0
370
    -3
390
0
  6
Continuous
100
AcDbCircle
 10
-517.77322
 20
-237.006085
 30
0.0
 40
55.0
100
AcDbArc
 50
35.413312
 51
83.49975
  0
ARC
  5
4AB
100
AcDbEntity
  8
0
370
    -3
390
0
  6
Continuous
100
AcDbCircle
 10
-517.77322
 20
-237.006085
 30
0.0
 40
47.5
100
AcDbArc
 50
35.79734
 51
83.037937
  0
ARC
  5
4AC
100
AcDbEntity
  8
0
370
    -3
390
0
  6
Continuous
100
AcDbCircle
 10
-517.77322
 20
-237.006085
 30
0.0
 40
42.5
100
AcDbArc
 50
37.091646
 51
81.480376
  0
ARC
  5
4AD
100
AcDbEntity
  8
0
370
    -3
390
0
  6
Continuous
100
AcDbCircle
 10
-517.77322
 20
-237.006085
 30
0.0
 40
35.0
100
AcDbArc
 50
37.766434
 51
80.667582
  0
ARC
  5
4AE
100
AcDbEntity
  8
0
370
    -3
390
0
  6
Continuous
100
AcDbCircle
 10
-517.77322
 20
-237.006085
 30
0.0
 40
30.0
100
AcDbArc
 50
40.286561
 51
77.626375
  0
ARC
  5
4AF
100
AcDbEntity
  8
0
370
    -3
390
0
  6
Continuous
100
AcDbCircle
 10
-517.77322
 20
-237.006085
 30
0.0
 40
22.5
100
AcDbArc
 50
41.775744
 51
75.824196
  0
ARC
  5
4B0
100
AcDbEntity
  8
0
370
    -3
390
0
  6
Continuous
100
AcDbCircle
 10
-517.77322
 20
-237.006085
 30
0.0
 40
17.5
100
AcDbArc
 50
48.819063
 51
67.226028
  0
ARC
  5
4B1
100
AcDbEntity
  8
0
370
    -3
390
0
  6
Continuous
100
AcDbCircle
 10
-511.77322
 20
-184.346802
 30
0.0
 40
2.0
100
AcDbArc
 50
83.49975
 51
180.0
  0
ARC
  5
4B2
100
AcDbEntity
  8
0
370
    -3
390
0
  6
Continuous
100
AcDbCircle
 10
-511.77322
 20
-187.871067
 30
0.0
 40
2.0
100
AcDbArc
 50
180.0
 51
263.037937
  0
ARC
  5
4B3
100
AcDbEntity
  8
0
370
    -3
390
0
  6
Continuous
100
AcDbCircle
 10
-474.578581
 20
-206.294146
 30
0.0
 40
2.0
100
AcDbArc
 50
300.0
 51
35.413312
  0
ARC
  5
4B4
100
AcDbEntity
  8
0
370
    -3
390
0
  6
Continuous
100
AcDbCircle
 10
-477.624217
 20
-208.052544
 30
0.0
 40
2.0
100
AcDbArc
 50
215.79734
 51
300.0
  0
ARC
  5
4B5
100
AcDbEntity
  8
0
370
    -3
390
0
  6
Continuous
100
AcDbCircle
 10
-485.467509
 20
-212.580871
 30
0.0
 40
2.0
100
AcDbArc
 50
300.0
 51
37.091646
  0
ARC
  5
4B6
100
AcDbEntity
  8
0
370
    -3
390
0
  6
Continuous
100
AcDbCircle
 10
-511.77322
 20
-196.952995
 30
0.0
 40
2.0
100
AcDbArc
 50
81.480376
 51
180.0
  0
ARC
  5
4B7
100
AcDbEntity
  8
0
370
    -3
390
0
  6
Continuous
100
AcDbCircle
 10
-511.77322
 20
-200.495812
 30
0.0
 40
2.0
100
AcDbArc
 50
180.0
 51
260.667582
  0
ARC
  5
4B8
100
AcDbEntity
  8
0
370
    -3
390
0
  6
Continuous
100
AcDbCircle
 10
-488.524204
 20
-214.345655
 30
0.0
 40
2.0
100
AcDbArc
 50
217.766434
 51
300.0
  0
ARC
  5
4B9
100
AcDbEntity
  8
0
370
    -3
390
0
  6
Continuous
100
AcDbCircle
 10
-496.41426
 20
-218.90098
 30
0.0
 40
2.0
100
AcDbArc
 50
300.0
 51
40.286561
  0
ARC
  5
4BA
100
AcDbEntity
  8
0
370
    -3
390
0
  6
Continuous
100
AcDbCircle
 10
-511.77322
 20
-209.656496
 30
0.0
 40
2.0
100
AcDbArc
 50
77.626375
 51
180.0
  0
ARC
  5
4BB
100
AcDbEntity
  8
0
370
    -3
390
0
  6
Continuous
100
AcDbCircle
 10
-511.77322
 20
-213.252138
 30
0.0
 40
2.0
100
AcDbArc
 50
180.0
 51
255.824196
  0
ARC
  5
4BC
100
AcDbEntity
  8
0
370
    -3
390
0
  6
Continuous
100
AcDbCircle
 10
-499.502146
 20
-220.683773
 30
0.0
 40
2.0
100
AcDbArc
 50
221.775744
 51
300.0
  0
ARC
  5
4BD
100
AcDbEntity
  8
0
370
    -3
390
0
  6
Continuous
100
AcDbCircle
 10
-507.567414
 20
-225.340257
 30
0.0
 40
2.0
100
AcDbArc
 50
300.0
 51
48.819063
  0
ARC
  5
4BE
100
AcDbEntity
  8
0
370
    -3
390
0
  6
Continuous
100
AcDbCircle
 10
-511.77322
 20
-222.714479
 30
0.0
 40
2.0
100
AcDbArc
 50
67.226028
 51
180.0
  0
ARC
  5
4BF
100
AcDbEntity
  8
0
370
    -3
390
0
  6
Continuous
100
AcDbCircle
 10
-517.77322
 20
-237.006085
 30
0.0
 40
10.0
100
AcDbArc
 50
294.624318
 51
300.0
  0
ARC
  5
4C0
100
AcDbEntity
  8
0
370
    -3
390
0
  6
Continuous
100
AcDbCircle
 10
-517.77322
 20
-237.006085
 30
0.0
 40
10.0
100
AcDbArc
 50
54.624318
 51
60.0
  0
ARC
  5
4C1
100
AcDbEntity
  8
0
370
    -3
390
0
  6
Continuous
100
AcDbCircle
 10
-511.77322
 20
-226.61378
 30
0.0
 40
2.0
100
AcDbArc
 50
180.0
 51
240.0
  0
ARC
  5
4C2
100
AcDbEntity
  8
0
370
    -3
390
0
  6
Continuous
100
AcDbCircle
 10
-510.825998
 20
-227.221602
 30
0.0
 40
2.0
100
AcDbArc
 50
234.624318
 51
300.0
  0
ARC
  5
4C3
100
AcDbEntity
  8
0
370
    -3
390
0
  6
Continuous
100
AcDbCircle
 10
-517.77322
 20
-237.006085
 30
0.0
 40
55.0
100
AcDbArc
 50
336.50025
 51
24.586688
  0
ARC
  5
4C4
100
AcDbEntity
  8
0
370
    -3
390
0
  6
Continuous
100
AcDbCircle
 10
-517.77322
 20
-237.006085
 30
0.0
 40
47.5
100
AcDbArc
 50
336.962063
 51
24.20266
  0
ARC
  5
4C5
100
AcDbEntity
  8
0
370
    -3
390
0
  6
Continuous
100
AcDbCircle
 10
-517.77322
 20
-237.006085
 30
0.0
 40
42.5
100
AcDbArc
 50
338.519624
 51
22.908354
  0
ARC
  5
4C6
100
AcDbEntity
  8
0
370
    -3
390
0
  6
Continuous
100
AcDbCircle
 10
-517.77322
 20
-237.006085
 30
0.0
 40
35.0
100
AcDbArc
 50
339.332418
 51
22.233566
  0
ARC
  5
4C7
100
AcDbEntity
  8
0
370
    -3
390
0
  6
Continuous
100
AcDbCircle
 10
-517.77322
 20
-237.006085
 30
0.0
 40
30.0
100
AcDbArc
 50
342.373625
 51
19.713439
  0
ARC
  5
4C8
100
AcDbEntity
  8
0
370
    -3
390
0
  6
Continuous
100
AcDbCircle
 10
-517.77322
 20
-237.006085
 30
0.0
 40
22.5
100
AcDbArc
 50
344.175804
 51
18.224256
  0
ARC
  5
4C9
100
AcDbEntity
  8
0
370
    -3
390
0
  6
Continuous
100
AcDbCircle
 10
-517.77322
 20
-237.006085
 30
0.0
 40
17.5
100
AcDbArc
 50
352.773972
 51
11.180937
  0
ARC
  5
4CA
100
AcDbEntity
  8
0
370
    -3
390
0
  6
Continuous
100
AcDbCircle
 10
-517.77322
 20
-237.006085
 30
0.0
 40
10.0
100
AcDbArc
 50
0.0
 51
5.375682
  0
ARC
  5
4CB
100
AcDbEntity
  8
0
370
    -3
390
0
  6
Continuous
100
AcDbCircle
 10
-517.77322
 20
-237.006085
 30
0.0
 40
17.5
100
AcDbArc
 50
288.819063
 51
307.226028
  0
ARC
  5
4CC
100
AcDbEntity
  8
0
370
    -3
390
0
  6
Continuous
100
AcDbCircle
 10
-517.77322
 20
-237.006085
 30
0.0
 40
22.5
100
AcDbArc
 50
281.775744
 51
315.824196
  0
ARC
  5
4CD
100
AcDbEntity
  8
0
370
    -3
390
0
  6
Continuous
100
AcDbCircle
 10
-517.77322
 20
-237.006085
 30
0.0
 40
30.0
100
AcDbArc
 50
280.286561
 51
317.626375
  0
ARC
  5
4CE
100
AcDbEntity
  8
0
370
    -3
390
0
  6
Continuous
100
AcDbCircle
 10
-517.77322
 20
-237.006085
 30
0.0
 40
35.0
100
AcDbArc
 50
277.766434
 51
320.667582
  0
ARC
  5
4CF
100
AcDbEntity
  8
0
370
    -3
390
0
  6
Continuous
100
AcDbCircle
 10
-517.77322
 20
-237.006085
 30
0.0
 40
42.5
100
AcDbArc
 50
277.091646
 51
321.480376
  0
ARC
  5
4D0
100
AcDbEntity
  8
0
370
    -3
390
0
  6
Continuous
100
AcDbCircle
 10
-517.77322
 20
-237.006085
 30
0.0
 40
47.5
100
AcDbArc
 50
275.79734
 51
323.037937
  0
ARC
  5
4D1
100
AcDbEntity
  8
0
370
    -3
390
0
  6
Continuous
100
AcDbCircle
 10
-517.77322
 20
-237.006085
 30
0.0
 40
55.0
100
AcDbArc
 50
275.413312
 51
323.49975
  0
ARC
  5
4D2
100
AcDbEntity
  8
0
370
    -3
390
0
  6
Continuous
100
AcDbCircle
 10
-517.77322
 20
-237.006085
 30
0.0
 40
55.0
100
AcDbArc
 50
216.50025
 51
264.586688
  0
ARC
  5
4D3
100
AcDbEntity
  8
0
370
    -3
390
0
  6
Continuous
100
AcDbCircle
 10
-517.77322
 20
-237.006085
 30
0.0
 40
47.5
100
AcDbArc
 50
216.962063
 51
264.20266
  0
ARC
  5
4D4
100
AcDbEntity
  8
0
370
    -3
390
0
  6
Continuous
100
AcDbCircle
 10
-517.77322
 20
-237.006085
 30
0.0
 40
42.5
100
AcDbArc
 50
218.519624
 51
262.908354
  0
ARC
  5
4D5
100
AcDbEntity
  8
0
370
    -3
390
0
  6
Continuous
100
AcDbCircle
 10
-517.77322
 20
-237.006085
 30
0.0
 40
35.0
100
AcDbArc
 50
219.332418
 51
262.233566
  0
ARC
  5
4D6
100
AcDbEntity
  8
0
370
    -3
390
0
  6
Continuous
100
AcDbCircle
 10
-517.77322
 20
-237.006085
 30
0.0
 40
30.0
100
AcDbArc
 50
222.373625
 51
259.713439
  0
ARC
  5
4D7
100
AcDbEntity
  8
0
370
    -3
390
0
  6
Continuous
100
AcDbCircle
 10
-517.77322
 20
-237.006085
 30
0.0
 40
22.5
100
AcDbArc
 50
224.175804
 51
258.224256
  0
ARC
  5
4D8
100
AcDbEntity
  8
0
370
    -3
390
0
  6
Continuous
100
AcDbCircle
 10
-517.77322
 20
-237.006085
 30
0.0
 40
17.5
100
AcDbArc
 50
232.773972
 51
251.180937
  0
ARC
  5
4D9
100
AcDbEntity
  8
0
370
    -3
390
0
  6
Continuous
100
AcDbCircle
 10
-517.77322
 20
-237.006085
 30
0.0
 40
10.0
100
AcDbArc
 50
240.0
 51
245.375682
  0
ARC
  5
4DA
100
AcDbEntity
  8
0
370
    -3
390
0
  6
Continuous
100
AcDbCircle
 10
-517.77322
 20
-237.006085
 30
0.0
 40
55.0
100
AcDbArc
 50
155.413312
 51
203.49975
  0
ARC
  5
4DB
100
AcDbEntity
  8
0
370
    -3
390
0
  6
Continuous
100
AcDbCircle
 10
-517.77322
 20
-237.006085
 30
0.0
 40
47.5
100
AcDbArc
 50
155.79734
 51
203.037937
  0
ARC
  5
4DC
100
AcDbEntity
  8
0
370
    -3
390
0
  6
Continuous
100
AcDbCircle
 10
-517.77322
 20
-237.006085
 30
0.0
 40
42.5
100
AcDbArc
 50
157.091646
 51
201.480376
  0
ARC
  5
4DD
100
AcDbEntity
  8
0
370
    -3
390
0
  6
Continuous
100
AcDbCircle
 10
-517.77322
 20
-237.006085
 30
0.0
 40
35.0
100
AcDbArc
 50
157.766434
 51
200.667582
  0
ARC
  5
4DE
100
AcDbEntity
  8
0
370
    -3
390
0
  6
Continuous
100
AcDbCircle
 10
-517.77322
 20
-237.006085
 30
0.0
 40
30.0
100
AcDbArc
 50
160.286561
 51
197.626375
  0
ARC
  5
4DF
100
AcDbEntity
  8
0
370
    -3
390
0
  6
Continuous
100
AcDbCircle
 10
-517.77322
 20
-237.006085
 30
0.0
 40
22.5
100
AcDbArc
 50
161.775744
 51
195.824196
  0
ARC
  5
4E0
100
AcDbEntity
  8
0
370
    -3
390
0
  6
Continuous
100
AcDbCircle
 10
-517.77322
 20
-237.006085
 30
0.0
 40
17.5
100
AcDbArc
 50
168.819063
 51
187.226028
  0
ARC
  5
4E1
100
AcDbEntity
  8
0
370
    -3
390
0
  6
Continuous
100
AcDbCircle
 10
-517.77322
 20
-237.006085
 30
0.0
 40
10.0
100
AcDbArc
 50
174.624318
 51
180.0
  0
ARC
  5
4E2
100
AcDbEntity
  8
0
370
    -3
390
0
  6
Continuous
100
AcDbCircle
 10
-469.578581
 20
-214.9544
 30
0.0
 40
2.0
100
AcDbArc
 50
24.586688
 51
120.0
  0
ARC
  5
4E3
100
AcDbEntity
  8
0
370
    -3
390
0
  6
Continuous
100
AcDbCircle
 10
-472.624217
 20
-216.712798
 30
0.0
 40
2.0
100
AcDbArc
 50
120.0
 51
204.20266
  0
ARC
  5
4E4
100
AcDbEntity
  8
0
370
    -3
390
0
  6
Continuous
100
AcDbCircle
 10
-512.77322
 20
-286.252912
 30
0.0
 40
2.0
100
AcDbArc
 50
95.79734
 51
180.0
  0
ARC
  5
4E5
100
AcDbEntity
  8
0
370
    -3
390
0
  6
Continuous
100
AcDbCircle
 10
-512.77322
 20
-289.769708
 30
0.0
 40
2.0
100
AcDbArc
 50
180.0
 51
275.413312
  0
ARC
  5
4E6
100
AcDbEntity
  8
0
370
    -3
390
0
  6
Continuous
100
AcDbCircle
 10
-522.77322
 20
-289.769708
 30
0.0
 40
2.0
100
AcDbArc
 50
264.586688
 51
0.0
  0
ARC
  5
4E7
100
AcDbEntity
  8
0
370
    -3
390
0
  6
Continuous
100
AcDbCircle
 10
-522.77322
 20
-286.252912
 30
0.0
 40
2.0
100
AcDbArc
 50
0.0
 51
84.20266
  0
ARC
  5
4E8
100
AcDbEntity
  8
0
370
    -3
390
0
  6
Continuous
100
AcDbCircle
 10
-557.325394
 20
-266.769746
 30
0.0
 40
2.0
100
AcDbArc
 50
36.962063
 51
120.0
  0
ARC
  5
4E9
100
AcDbEntity
  8
0
370
    -3
390
0
  6
Continuous
100
AcDbCircle
 10
-560.377496
 20
-268.531878
 30
0.0
 40
2.0
100
AcDbArc
 50
120.0
 51
216.50025
  0
ARC
  5
4EA
100
AcDbEntity
  8
0
370
    -3
390
0
  6
Continuous
100
AcDbCircle
 10
-566.377496
 20
-258.139573
 30
0.0
 40
2.0
100
AcDbArc
 50
203.49975
 51
300.0
  0
ARC
  5
4EB
100
AcDbEntity
  8
0
370
    -3
390
0
  6
Continuous
100
AcDbCircle
 10
-565.967859
 20
-214.9544
 30
0.0
 40
2.0
100
AcDbArc
 50
60.0
 51
155.413312
  0
ARC
  5
4EC
100
AcDbEntity
  8
0
370
    -3
390
0
  6
Continuous
100
AcDbCircle
 10
-560.967859
 20
-206.294146
 30
0.0
 40
2.0
100
AcDbArc
 50
144.586688
 51
240.0
  0
ARC
  5
4ED
100
AcDbEntity
  8
0
370
    -3
390
0
  6
Continuous
100
AcDbCircle
 10
-523.77322
 20
-184.346802
 30
0.0
 40
2.0
100
AcDbArc
 50
0.0
 51
96.50025
  0
ARC
  5
4EE
100
AcDbEntity
  8
0
370
    -3
390
0
  6
Continuous
100
AcDbCircle
 10
-523.77322
 20
-187.871067
 30
0.0
 40
2.0
100
AcDbArc
 50
276.962063
 51
0.0
  0
ARC
  5
4EF
100
AcDbEntity
  8
0
370
    -3
390
0
  6
Continuous
100
AcDbCircle
 10
-557.922224
 20
-208.052544
 30
0.0
 40
2.0
100
AcDbArc
 50
240.0
 51
324.20266
  0
ARC
  5
4F0
100
AcDbEntity
  8
0
370
    -3
390
0
  6
Continuous
100
AcDbCircle
 10
-523.77322
 20
-196.952995
 30
0.0
 40
2.0
100
AcDbArc
 50
0.0
 51
98.519624
  0
ARC
  5
4F1
100
AcDbEntity
  8
0
370
    -3
390
0
  6
Continuous
100
AcDbCircle
 10
-523.77322
 20
-200.495812
 30
0.0
 40
2.0
100
AcDbArc
 50
279.332418
 51
0.0
  0
ARC
  5
4F2
100
AcDbEntity
  8
0
370
    -3
390
0
  6
Continuous
100
AcDbCircle
 10
-547.022236
 20
-214.345655
 30
0.0
 40
2.0
100
AcDbArc
 50
240.0
 51
322.233566
  0
ARC
  5
4F3
100
AcDbEntity
  8
0
370
    -3
390
0
  6
Continuous
100
AcDbCircle
 10
-550.078931
 20
-212.580871
 30
0.0
 40
2.0
100
AcDbArc
 50
142.908354
 51
240.0
  0
ARC
  5
4F4
100
AcDbEntity
  8
0
370
    -3
390
0
  6
Continuous
100
AcDbCircle
 10
-552.022236
 20
-223.005909
 30
0.0
 40
2.0
100
AcDbArc
 50
337.766434
 51
60.0
  0
ARC
  5
4F5
100
AcDbEntity
  8
0
370
    -3
390
0
  6
Continuous
100
AcDbCircle
 10
-555.078931
 20
-221.241125
 30
0.0
 40
2.0
100
AcDbArc
 50
60.0
 51
157.091646
  0
ARC
  5
4F6
100
AcDbEntity
  8
0
370
    -3
390
0
  6
Continuous
100
AcDbCircle
 10
-562.922224
 20
-216.712798
 30
0.0
 40
2.0
100
AcDbArc
 50
335.79734
 51
60.0
  0
ARC
  5
4F7
100
AcDbEntity
  8
0
370
    -3
390
0
  6
Continuous
100
AcDbCircle
 10
-523.77322
 20
-209.656496
 30
0.0
 40
2.0
100
AcDbArc
 50
0.0
 51
102.373625
  0
ARC
  5
4F8
100
AcDbEntity
  8
0
370
    -3
390
0
  6
Continuous
100
AcDbCircle
 10
-539.132181
 20
-218.90098
 30
0.0
 40
2.0
100
AcDbArc
 50
139.713439
 51
240.0
  0
ARC
  5
4F9
100
AcDbEntity
  8
0
370
    -3
390
0
  6
Continuous
100
AcDbCircle
 10
-536.044294
 20
-220.683773
 30
0.0
 40
2.0
100
AcDbArc
 50
240.0
 51
318.224256
  0
ARC
  5
4FA
100
AcDbEntity
  8
0
370
    -3
390
0
  6
Continuous
100
AcDbCircle
 10
-523.77322
 20
-213.252138
 30
0.0
 40
2.0
100
AcDbArc
 50
284.175804
 51
0.0
  0
ARC
  5
4FB
100
AcDbEntity
  8
0
370
    -3
390
0
  6
Continuous
100
AcDbCircle
 10
-523.77322
 20
-222.714479
 30
0.0
 40
2.0
100
AcDbArc
 50
0.0
 51
112.773972
  0
ARC
  5
4FC
100
AcDbEntity
  8
0
370
    -3
390
0
  6
Continuous
100
AcDbCircle
 10
-527.979026
 20
-225.340257
 30
0.0
 40
2.0
100
AcDbArc
 50
131.180937
 51
240.0
  0
ARC
  5
4FD
100
AcDbEntity
  8
0
370
    -3
390
0
  6
Continuous
100
AcDbCircle
 10
-523.77322
 20
-226.61378
 30
0.0
 40
2.0
100
AcDbArc
 50
300.0
 51
0.0
  0
ARC
  5
4FE
100
AcDbEntity
  8
0
370
    -3
390
0
  6
Continuous
100
AcDbCircle
 10
-524.720442
 20
-227.221602
 30
0.0
 40
2.0
100
AcDbArc
 50
240.0
 51
305.375682
  0
ARC
  5
4FF
100
AcDbEntity
  8
0
370
    -3
390
0
  6
Continuous
100
AcDbCircle
 10
-529.720442
 20
-235.881856
 30
0.0
 40
2.0
100
AcDbArc
 50
354.624318
 51
60.0
  0
ARC
  5
500
100
AcDbEntity
  8
0
370
    -3
390
0
  6
Continuous
100
AcDbCircle
 10
-532.979026
 20
-234.000511
 30
0.0
 40
2.0
100
AcDbArc
 50
60.0
 51
168.819063
  0
ARC
  5
501
100
AcDbEntity
  8
0
370
    -3
390
0
  6
Continuous
100
AcDbCircle
 10
-533.150114
 20
-238.955735
 30
0.0
 40
2.0
100
AcDbArc
 50
187.226028
 51
300.0
  0
ARC
  5
502
100
AcDbEntity
  8
0
370
    -3
390
0
  6
Continuous
100
AcDbCircle
 10
-529.77322
 20
-237.006085
 30
0.0
 40
2.0
100
AcDbArc
 50
300.0
 51
0.0
  0
ARC
  5
503
100
AcDbEntity
  8
0
370
    -3
390
0
  6
Continuous
100
AcDbCircle
 10
-523.77322
 20
-247.398389
 30
0.0
 40
2.0
100
AcDbArc
 50
60.0
 51
120.0
  0
ARC
  5
504
100
AcDbEntity
  8
0
370
    -3
390
0
  6
Continuous
100
AcDbCircle
 10
-522.77322
 20
-247.914797
 30
0.0
 40
2.0
100
AcDbArc
 50
0.0
 51
65.375682
  0
ARC
  5
505
100
AcDbEntity
  8
0
370
    -3
390
0
  6
Continuous
100
AcDbCircle
 10
-527.150114
 20
-249.34804
 30
0.0
 40
2.0
100
AcDbArc
 50
120.0
 51
232.773972
  0
ARC
  5
506
100
AcDbEntity
  8
0
370
    -3
390
0
  6
Continuous
100
AcDbCircle
 10
-522.77322
 20
-251.677485
 30
0.0
 40
2.0
100
AcDbArc
 50
251.180937
 51
0.0
  0
ARC
  5
507
100
AcDbEntity
  8
0
370
    -3
390
0
  6
Continuous
100
AcDbCircle
 10
-512.77322
 20
-251.677485
 30
0.0
 40
2.0
100
AcDbArc
 50
180.0
 51
288.819063
  0
ARC
  5
508
100
AcDbEntity
  8
0
370
    -3
390
0
  6
Continuous
100
AcDbCircle
 10
-512.77322
 20
-247.914797
 30
0.0
 40
2.0
100
AcDbArc
 50
114.624318
 51
180.0
  0
ARC
  5
509
100
AcDbEntity
  8
0
370
    -3
390
0
  6
Continuous
100
AcDbCircle
 10
-505.825998
 20
-235.881856
 30
0.0
 40
2.0
100
AcDbArc
 50
120.0
 51
185.375682
  0
ARC
  5
50A
100
AcDbEntity
  8
0
370
    -3
390
0
  6
Continuous
100
AcDbCircle
 10
-502.567414
 20
-234.000511
 30
0.0
 40
2.0
100
AcDbArc
 50
11.180937
 51
120.0
  0
ARC
  5
50B
100
AcDbEntity
  8
0
370
    -3
390
0
  6
Continuous
100
AcDbCircle
 10
-494.502146
 20
-229.344027
 30
0.0
 40
2.0
100
AcDbArc
 50
120.0
 51
198.224256
  0
ARC
  5
50C
100
AcDbEntity
  8
0
370
    -3
390
0
  6
Continuous
100
AcDbCircle
 10
-491.41426
 20
-227.561234
 30
0.0
 40
2.0
100
AcDbArc
 50
19.713439
 51
120.0
  0
ARC
  5
50D
100
AcDbEntity
  8
0
370
    -3
390
0
  6
Continuous
100
AcDbCircle
 10
-483.524204
 20
-223.005909
 30
0.0
 40
2.0
100
AcDbArc
 50
120.0
 51
202.233566
  0
ARC
  5
50E
100
AcDbEntity
  8
0
370
    -3
390
0
  6
Continuous
100
AcDbCircle
 10
-480.467509
 20
-221.241125
 30
0.0
 40
2.0
100
AcDbArc
 50
22.908354
 51
120.0
  0
ARC
  5
50F
100
AcDbEntity
  8
0
370
    -3
390
0
  6
Continuous
100
AcDbCircle
 10
-512.77322
 20
-260.990455
 30
0.0
 40
2.0
100
AcDbArc
 50
101.775744
 51
180.0
  0
ARC
  5
510
100
AcDbEntity
  8
0
370
    -3
390
0
  6
Continuous
100
AcDbCircle
 10
-512.77322
 20
-264.556039
 30
0.0
 40
2.0
100
AcDbArc
 50
180.0
 51
280.286561
  0
ARC
  5
511
100
AcDbEntity
  8
0
370
    -3
390
0
  6
Continuous
100
AcDbCircle
 10
-512.77322
 20
-273.66669
 30
0.0
 40
2.0
100
AcDbArc
 50
97.766434
 51
180.0
  0
ARC
  5
512
100
AcDbEntity
  8
0
370
    -3
390
0
  6
Continuous
100
AcDbCircle
 10
-512.77322
 20
-277.196258
 30
0.0
 40
2.0
100
AcDbArc
 50
180.0
 51
277.091646
  0
ARC
  5
513
100
AcDbEntity
  8
0
370
    -3
390
0
  6
Continuous
100
AcDbCircle
 10
-522.77322
 20
-277.196258
 30
0.0
 40
2.0
100
AcDbArc
 50
262.908354
 51
0.0
  0
ARC
  5
514
100
AcDbEntity
  8
0
370
    -3
390
0
  6
Continuous
100
AcDbCircle
 10
-522.77322
 20
-273.66669
 30
0.0
 40
2.0
100
AcDbArc
 50
0.0
 51
82.233566
  0
ARC
  5
515
100
AcDbEntity
  8
0
370
    -3
390
0
  6
Continuous
100
AcDbCircle
 10
-522.77322
 20
-264.556039
 30
0.0
 40
2.0
100
AcDbArc
 50
259.713439
 51
0.0
  0
ARC
  5
516
100
AcDbEntity
  8
0
370
    -3
390
0
  6
Continuous
100
AcDbCircle
 10
-522.77322
 20
-260.990455
 30
0.0
 40
2.0
100
AcDbArc
 50
0.0
 51
78.224256
  0
ARC
  5
517
100
AcDbEntity
  8
0
370
    -3
390
0
  6
Continuous
100
AcDbCircle
 10
-549.460213
 20
-262.228782
 30
0.0
 40
2.0
100
AcDbArc
 50
120.0
 51
218.519624
  0
ARC
  5
518
100
AcDbEntity
  8
0
370
    -3
390
0
  6
Continuous
100
AcDbCircle
 10
-546.392044
 20
-260.457373
 30
0.0
 40
2.0
100
AcDbArc
 50
39.332418
 51
120.0
  0
ARC
  5
519
100
AcDbEntity
  8
0
370
    -3
390
0
  6
Continuous
100
AcDbCircle
 10
-552.392044
 20
-250.065068
 30
0.0
 40
2.0
100
AcDbArc
 50
300.0
 51
20.667582
  0
ARC
  5
51A
100
AcDbEntity
  8
0
370
    -3
390
0
  6
Continuous
100
AcDbCircle
 10
-555.460213
 20
-251.836477
 30
0.0
 40
2.0
100
AcDbArc
 50
201.480376
 51
300.0
  0
ARC
  5
51B
100
AcDbEntity
  8
0
370
    -3
390
0
  6
Continuous
100
AcDbCircle
 10
-544.458659
 20
-245.484727
 30
0.0
 40
2.0
100
AcDbArc
 50
197.626375
 51
300.0
  0
ARC
  5
51C
100
AcDbEntity
  8
0
370
    -3
390
0
  6
Continuous
100
AcDbCircle
 10
-541.344742
 20
-243.686906
 30
0.0
 40
2.0
100
AcDbArc
 50
300.0
 51
15.824196
  0
ARC
  5
51D
100
AcDbEntity
  8
0
370
    -3
390
0
  6
Continuous
100
AcDbCircle
 10
-541.044294
 20
-229.344027
 30
0.0
 40
2.0
100
AcDbArc
 50
341.775744
 51
60.0
  0
ARC
  5
51E
100
AcDbEntity
  8
0
370
    -3
390
0
  6
Continuous
100
AcDbCircle
 10
-544.132181
 20
-227.561234
 30
0.0
 40
2.0
100
AcDbArc
 50
60.0
 51
160.286561
  0
ARC
  5
51F
100
AcDbEntity
  8
0
370
    -3
390
0
  6
Continuous
100
AcDbCircle
 10
-563.325394
 20
-256.377441
 30
0.0
 40
2.0
100
AcDbArc
 50
300.0
 51
23.037937
  0
LINE
  5
520
100
AcDbEntity
  8
0
370
    -3
390
0
  6
Continuous
100
AcDbLine
 10
-536.344742
 20
-252.34716
 30
0.0
 11
-539.458659
 21
-254.144981
 31
0.0
  0
ARC
  5
521
100
AcDbEntity
  8
0
370
    -3
390
0
  6
Continuous
100
AcDbCircle
 10
-535.344742
 20
-254.079211
 30
0.0
 40
2.0
100
AcDbArc
 50
44.175804
 51
120.0
  0
ARC
  5
522
100
AcDbEntity
  8
0
370
    -3
390
0
  6
Continuous
100
AcDbCircle
 10
-538.458659
 20
-255.877031
 30
0.0
 40
2.0
100
AcDbArc
 50
120.0
 51
222.373625
  0
LINE
  5
523
100
AcDbEntity
  8
0
370
    -3
390
0
  6
Continuous
100
AcDbLine
 10
-506.77322
 20
-238.738135
 30
0.0
 11
-503.396326
 21
-240.687786
 31
0.0
  0
LINE
  5
524
100
AcDbEntity
  8
0
370
    -3
390
0
  6
Continuous
100
AcDbLine
 10
-510.77322
 20
-245.666339
 30
0.0
 11
-507.396326
 21
-247.615989
 31
0.0
  0
LINE
  5
525
100
AcDbEntity
  8
0
370
    -3
390
0
  6
Continuous
100
AcDbLine
 10
-462.331663
 20
-264.39648
 30
0.0
 11
-461.461619
 21
-264.8988
 31
0.0
  0
LINE
  5
526
100
AcDbEntity
  8
0
370
    -3
390
0
  6
Continuous
100
AcDbLine
 10
-473.221046
 20
-258.109492
 30
0.0
 11
-470.168944
 21
-259.871624
 31
0.0
  0
LINE
  5
527
100
AcDbEntity
  8
0
370
    -3
390
0
  6
Continuous
100
AcDbLine
 10
-484.154397
 20
-251.797119
 30
0.0
 11
-481.086227
 21
-253.568528
 31
0.0
  0
LINE
  5
528
100
AcDbEntity
  8
0
370
    -3
390
0
  6
Continuous
100
AcDbLine
 10
-495.201699
 20
-245.418957
 30
0.0
 11
-492.087782
 21
-247.216777
 31
0.0
  0
LINE
  5
529
100
AcDbEntity
  8
0
370
    -3
390
0
  6
Continuous
100
AcDbLine
 10
-499.201699
 20
-252.34716
 30
0.0
 11
-496.087782
 21
-254.144981
 31
0.0
  0
LINE
  5
52A
100
AcDbEntity
  8
0
370
    -3
390
0
  6
Continuous
100
AcDbLine
 10
-488.154397
 20
-258.725323
 30
0.0
 11
-485.086227
 21
-260.496731
 31
0.0
  0
LINE
  5
52B
100
AcDbEntity
  8
0
370
    -3
390
0
  6
Continuous
100
AcDbLine
 10
-477.221046
 20
-265.037695
 30
0.0
 11
-474.168944
 21
-266.799827
 31
0.0
  0
LINE
  5
52C
100
AcDbEntity
  8
0
370
    -3
390
0
  6
Continuous
100
AcDbLine
 10
-466.331663
 20
-271.324684
 30
0.0
 11
-465.461619
 21
-271.827004
 31
0.0
  0
ARC
  5
52D
100
AcDbEntity
  8
0
370
    -3
390
0
  6
Continuous
100
AcDbCircle
 10
-460.461619
 20
-263.16675
 30
0.0
 40
2.0
100
AcDbArc
 50
240.0
 51
335.465024
  0
ARC
  5
52E
100
AcDbEntity
  8
0
370
    -3
390
0
  6
Continuous
100
AcDbCircle
 10
-461.331663
 20
-262.664429
 30
0.0
 40
2.0
100
AcDbArc
 50
155.553444
 51
240.0
  0
ARC
  5
52F
100
AcDbEntity
  8
0
370
    -3
390
0
  6
Continuous
100
AcDbCircle
 10
-469.168944
 20
-258.139573
 30
0.0
 40
2.0
100
AcDbArc
 50
240.0
 51
336.50025
  0
ARC
  5
530
100
AcDbEntity
  8
0
370
    -3
390
0
  6
Continuous
100
AcDbCircle
 10
-472.221046
 20
-256.377441
 30
0.0
 40
2.0
100
AcDbArc
 50
156.962063
 51
240.0
  0
ARC
  5
531
100
AcDbEntity
  8
0
370
    -3
390
0
  6
Continuous
100
AcDbCircle
 10
-480.086227
 20
-251.836477
 30
0.0
 40
2.0
100
AcDbArc
 50
240.0
 51
338.519624
  0
ARC
  5
532
100
AcDbEntity
  8
0
370
    -3
390
0
  6
Continuous
100
AcDbCircle
 10
-483.154397
 20
-250.065068
 30
0.0
 40
2.0
100
AcDbArc
 50
159.332418
 51
240.0
  0
ARC
  5
533
100
AcDbEntity
  8
0
370
    -3
390
0
  6
Continuous
100
AcDbCircle
 10
-491.087782
 20
-245.484727
 30
0.0
 40
2.0
100
AcDbArc
 50
240.0
 51
342.373625
  0
ARC
  5
534
100
AcDbEntity
  8
0
370
    -3
390
0
  6
Continuous
100
AcDbCircle
 10
-494.201699
 20
-243.686906
 30
0.0
 40
2.0
100
AcDbArc
 50
164.175804
 51
240.0
  0
ARC
  5
535
100
AcDbEntity
  8
0
370
    -3
390
0
  6
Continuous
100
AcDbCircle
 10
-502.396326
 20
-238.955735
 30
0.0
 40
2.0
100
AcDbArc
 50
240.0
 51
352.773972
  0
ARC
  5
536
100
AcDbEntity
  8
0
370
    -3
390
0
  6
Continuous
100
AcDbCircle
 10
-505.77322
 20
-237.006085
 30
0.0
 40
2.0
100
AcDbArc
 50
180.0
 51
240.0
  0
ARC
  5
537
100
AcDbEntity
  8
0
370
    -3
390
0
  6
Continuous
100
AcDbCircle
 10
-511.77322
 20
-247.398389
 30
0.0
 40
2.0
100
AcDbArc
 50
60.0
 51
120.0
  0
ARC
  5
538
100
AcDbEntity
  8
0
370
    -3
390
0
  6
Continuous
100
AcDbCircle
 10
-508.396326
 20
-249.34804
 30
0.0
 40
2.0
100
AcDbArc
 50
307.226028
 51
60.0
  0
ARC
  5
539
100
AcDbEntity
  8
0
370
    -3
390
0
  6
Continuous
100
AcDbCircle
 10
-500.201699
 20
-254.079211
 30
0.0
 40
2.0
100
AcDbArc
 50
60.0
 51
135.824196
  0
ARC
  5
53A
100
AcDbEntity
  8
0
370
    -3
390
0
  6
Continuous
100
AcDbCircle
 10
-497.087782
 20
-255.877031
 30
0.0
 40
2.0
100
AcDbArc
 50
317.626375
 51
60.0
  0
ARC
  5
53B
100
AcDbEntity
  8
0
370
    -3
390
0
  6
Continuous
100
AcDbCircle
 10
-489.154397
 20
-260.457373
 30
0.0
 40
2.0
100
AcDbArc
 50
60.0
 51
140.667582
  0
ARC
  5
53C
100
AcDbEntity
  8
0
370
    -3
390
0
  6
Continuous
100
AcDbCircle
 10
-486.086227
 20
-262.228782
 30
0.0
 40
2.0
100
AcDbArc
 50
321.480376
 51
60.0
  0
ARC
  5
53D
100
AcDbEntity
  8
0
370
    -3
390
0
  6
Continuous
100
AcDbCircle
 10
-478.221046
 20
-266.769746
 30
0.0
 40
2.0
100
AcDbArc
 50
60.0
 51
143.037937
  0
ARC
  5
53E
100
AcDbEntity
  8
0
370
    -3
390
0
  6
Continuous
100
AcDbCircle
 10
-475.168944
 20
-268.531878
 30
0.0
 40
2.0
100
AcDbArc
 50
323.49975
 51
60.0
  0
ARC
  5
53F
100
AcDbEntity
  8
0
370
    -3
390
0
  6
Continuous
100
AcDbCircle
 10
-467.331663
 20
-273.056734
 30
0.0
 40
2.0
100
AcDbArc
 50
60.0
 51
144.446556
  0
ARC
  5
540
100
AcDbEntity
  8
0
370
    -3
390
0
  6
Continuous
100
AcDbCircle
 10
-466.461619
 20
-273.559055
 30
0.0
 40
2.0
100
AcDbArc
 50
324.534976
 51
60.0
  0
ARC
  5
541
100
AcDbEntity
  8
0
370
    -3
390
0
  6
Continuous
100
AcDbCircle
 10
-569.084821
 20
-273.559055
 30
0.0
 40
2.0
100
AcDbArc
 50
120.0
 51
215.465024
  0
ARC
  5
542
100
AcDbEntity
  8
0
370
    -3
390
0
  6
Continuous
100
AcDbCircle
 10
-448.193913
 20
-174.073581
 30
0.0
 40
0.3
100
AcDbArc
 50
315.0
 51
45.0
  0
LINE
  5
543
100
AcDbEntity
  8
0
370
    -3
390
0
  6
Continuous
100
AcDbLine
 10
-447.557517
 20
-173.154342
 30
0.0
 11
-448.123202
 21
-173.720028
 31
0.0
  0
LINE
  5
544
100
AcDbEntity
  8
0
370
    -3
390
0
  6
Continuous
100
AcDbLine
 10
-449.784903
 20
-172.058327
 30
0.0
 11
-447.981781
 21
-173.861449
 31
0.0
  0
LINE
  5
545
100
AcDbEntity
  8
0
370
    -3
390
0
  6
Continuous
100
AcDbLine
 10
-452.825462
 20
-169.017768
 30
0.0
 11
-454.487163
 21
-167.356067
 31
0.0
  0
LINE
  5
546
100
AcDbEntity
  8
0
370
    -3
390
0
  6
Continuous
100
AcDbLine
 10
-447.981781
 20
-174.285713
 30
0.0
 11
-448.713492
 21
-175.017425
 31
0.0
  0
LINE
  5
547
100
AcDbEntity
  8
0
370
    -3
390
0
  6
Continuous
100
AcDbLine
 10
-450.739497
 20
-169.972362
 30
0.0
 11
-447.557517
 21
-173.154342
 31
0.0
  0
LINE
  5
548
100
AcDbEntity
  8
0
370
    -3
390
0
  6
Continuous
100
AcDbLine
 10
-451.305183
 20
-170.538047
 30
0.0
 11
-447.981781
 21
-173.861449
 31
0.0
  0
ARC
  5
549
100
AcDbEntity
  8
0
370
    -3
390
0
  6
Continuous
100
AcDbCircle
 10
-454.840717
 20
-167.426777
 30
0.0
 40
0.3
100
AcDbArc
 50
45.0
 51
135.0
  0
LINE
  5
54A
100
AcDbEntity
  8
0
370
    -3
390
0
  6
Continuous
100
AcDbLine
 10
-453.921478
 20
-166.790381
 30
0.0
 11
-454.487163
 21
-167.356067
 31
0.0
  0
LINE
  5
54B
100
AcDbEntity
  8
0
370
    -3
390
0
  6
Continuous
100
AcDbLine
 10
-452.825462
 20
-169.017768
 30
0.0
 11
-454.628585
 21
-167.214645
 31
0.0
  0
LINE
  5
54C
100
AcDbEntity
  8
0
370
    -3
390
0
  6
Continuous
100
AcDbLine
 10
-455.052849
 20
-167.214645
 30
0.0
 11
-455.78456
 21
-167.946357
 31
0.0
  0
LINE
  5
54D
100
AcDbEntity
  8
0
370
    -3
390
0
  6
Continuous
100
AcDbLine
 10
-450.739497
 20
-169.972362
 30
0.0
 11
-453.921478
 21
-166.790381
 31
0.0
  0
LINE
  5
54E
100
AcDbEntity
  8
0
370
    -3
390
0
  6
Continuous
100
AcDbLine
 10
-451.305183
 20
-170.538047
 30
0.0
 11
-454.628585
 21
-167.214645
 31
0.0
  0
ARC
  5
54F
100
AcDbEntity
  8
0
370
    -3
390
0
  6
Continuous
100
AcDbCircle
 10
-448.193913
 20
-299.938588
 30
0.0
 40
0.3
100
AcDbArc
 50
315.0
 51
45.0
  0
LINE
  5
550
100
AcDbEntity
  8
0
370
    -3
390
0
  6
Continuous
100
AcDbLine
 10
-447.557517
 20
-300.857827
 30
0.0
 11
-448.123202
 21
-300.292142
 31
0.0
  0
LINE
  5
551
100
AcDbEntity
  8
0
370
    -3
390
0
  6
Continuous
100
AcDbLine
 10
-449.784903
 20
-301.953843
 30
0.0
 11
-447.981781
 21
-300.15072
 31
0.0
  0
LINE
  5
552
100
AcDbEntity
  8
0
370
    -3
390
0
  6
Continuous
100
AcDbLine
 10
-452.825462
 20
-304.994402
 30
0.0
 11
-454.487163
 21
-306.656103
 31
0.0
  0
LINE
  5
553
100
AcDbEntity
  8
0
370
    -3
390
0
  6
Continuous
100
AcDbLine
 10
-447.981781
 20
-299.726456
 30
0.0
 11
-448.713492
 21
-298.994745
 31
0.0
  0
LINE
  5
554
100
AcDbEntity
  8
0
370
    -3
390
0
  6
Continuous
100
AcDbLine
 10
-450.739497
 20
-304.039808
 30
0.0
 11
-447.557517
 21
-300.857827
 31
0.0
  0
LINE
  5
555
100
AcDbEntity
  8
0
370
    -3
390
0
  6
Continuous
100
AcDbLine
 10
-451.305183
 20
-303.474122
 30
0.0
 11
-447.981781
 21
-300.15072
 31
0.0
  0
ARC
  5
556
100
AcDbEntity
  8
0
370
    -3
390
0
  6
Continuous
100
AcDbCircle
 10
-454.840717
 20
-306.585392
 30
0.0
 40
0.3
100
AcDbArc
 50
225.0
 51
315.0
  0
LINE
  5
557
100
AcDbEntity
  8
0
370
    -3
390
0
  6
Continuous
100
AcDbLine
 10
-453.921478
 20
-307.221788
 30
0.0
 11
-454.487163
 21
-306.656103
 31
0.0
  0
LINE
  5
558
100
AcDbEntity
  8
0
370
    -3
390
0
  6
Continuous
100
AcDbLine
 10
-452.825462
 20
-304.994402
 30
0.0
 11
-454.628585
 21
-306.797524
 31
0.0
  0
LINE
  5
559
100
AcDbEntity
  8
0
370
    -3
390
0
  6
Continuous
100
AcDbLine
 10
-455.052849
 20
-306.797524
 30
0.0
 11
-455.78456
 21
-306.065813
 31
0.0
  0
LINE
  5
55A
100
AcDbEntity
  8
0
370
    -3
390
0
  6
Continuous
100
AcDbLine
 10
-450.739497
 20
-304.039808
 30
0.0
 11
-453.921478
 21
-307.221788
 31
0.0
  0
LINE
  5
55B
100
AcDbEntity
  8
0
370
    -3
390
0
  6
Continuous
100
AcDbLine
 10
-451.305183
 20
-303.474122
 30
0.0
 11
-454.628585
 21
-306.797524
 31
0.0
  0
ARC
  5
55C
100
AcDbEntity
  8
0
370
    -3
390
0
  6
Continuous
100
AcDbCircle
 10
-587.352527
 20
-299.938588
 30
0.0
 40
0.3
100
AcDbArc
 50
135.0
 51
225.0
  0
LINE
  5
55D
100
AcDbEntity
  8
0
370
    -3
390
0
  6
Continuous
100
AcDbLine
 10
-587.988923
 20
-300.857827
 30
0.0
 11
-587.423238
 21
-300.292142
 31
0.0
  0
LINE
  5
55E
100
AcDbEntity
  8
0
370
    -3
390
0
  6
Continuous
100
AcDbLine
 10
-585.761537
 20
-301.953843
 30
0.0
 11
-587.564659
 21
-300.15072
 31
0.0
  0
LINE
  5
55F
100
AcDbEntity
  8
0
370
    -3
390
0
  6
Continuous
100
AcDbLine
 10
-582.720978
 20
-304.994402
 30
0.0
 11
-581.059277
 21
-306.656103
 31
0.0
  0
LINE
  5
560
100
AcDbEntity
  8
0
370
    -3
390
0
  6
Continuous
100
AcDbLine
 10
-587.564659
 20
-299.726456
 30
0.0
 11
-586.832948
 21
-298.994745
 31
0.0
  0
LINE
  5
561
100
AcDbEntity
  8
0
370
    -3
390
0
  6
Continuous
100
AcDbLine
 10
-584.806943
 20
-304.039808
 30
0.0
 11
-587.988923
 21
-300.857827
 31
0.0
  0
LINE
  5
562
100
AcDbEntity
  8
0
370
    -3
390
0
  6
Continuous
100
AcDbLine
 10
-584.241258
 20
-303.474122
 30
0.0
 11
-587.564659
 21
-300.15072
 31
0.0
  0
ARC
  5
563
100
AcDbEntity
  8
0
370
    -3
390
0
  6
Continuous
100
AcDbCircle
 10
-580.705724
 20
-306.585392
 30
0.0
 40
0.3
100
AcDbArc
 50
225.0
 51
315.0
  0
LINE
  5
564
100
AcDbEntity
  8
0
370
    -3
390
0
  6
Continuous
100
AcDbLine
 10
-581.624962
 20
-307.221788
 30
0.0
 11
-581.059277
 21
-306.656103
 31
0.0
  0
LINE
  5
565
100
AcDbEntity
  8
0
370
    -3
390
0
  6
Continuous
100
AcDbLine
 10
-582.720978
 20
-304.994402
 30
0.0
 11
-580.917856
 21
-306.797524
 31
0.0
  0
LINE
  5
566
100
AcDbEntity
  8
0
370
    -3
390
0
  6
Continuous
100
AcDbLine
 10
-580.493592
 20
-306.797524
 30
0.0
 11
-579.76188
 21
-306.065813
 31
0.0
  0
LINE
  5
567
100
AcDbEntity
  8
0
370
    -3
390
0
  6
Continuous
100
AcDbLine
 10
-584.806943
 20
-304.039808
 30
0.0
 11
-581.624962
 21
-307.221788
 31
0.0
  0
LINE
  5
568
100
AcDbEntity
  8
0
370
    -3
390
0
  6
Continuous
100
AcDbLine
 10
-584.241258
 20
-303.474122
 30
0.0
 11
-580.917856
 21
-306.797524
 31
0.0
  0
ARC
  5
569
100
AcDbEntity
  8
0
370
    -3
390
0
  6
Continuous
100
AcDbCircle
 10
-587.352527
 20
-174.073581
 30
0.0
 40
0.3
100
AcDbArc
 50
135.0
 51
225.0
  0
LINE
  5
56A
100
AcDbEntity
  8
0
370
    -3
390
0
  6
Continuous
100
AcDbLine
 10
-587.988923
 20
-173.154342
 30
0.0
 11
-587.423238
 21
-173.720028
 31
0.0
  0
LINE
  5
56B
100
AcDbEntity
  8
0
370
    -3
390
0
  6
Continuous
100
AcDbLine
 10
-585.761537
 20
-172.058327
 30
0.0
 11
-587.564659
 21
-173.861449
 31
0.0
  0
LINE
  5
56C
100
AcDbEntity
  8
0
370
    -3
390
0
  6
Continuous
100
AcDbLine
 10
-582.720978
 20
-169.017768
 30
0.0
 11
-581.059277
 21
-167.356067
 31
0.0
  0
LINE
  5
56D
100
AcDbEntity
  8
0
370
    -3
390
0
  6
Continuous
100
AcDbLine
 10
-587.564659
 20
-174.285713
 30
0.0
 11
-586.832948
 21
-175.017425
 31
0.0
  0
LINE
  5
56E
100
AcDbEntity
  8
0
370
    -3
390
0
  6
Continuous
100
AcDbLine
 10
-584.806943
 20
-169.972362
 30
0.0
 11
-587.988923
 21
-173.154342
 31
0.0
  0
LINE
  5
56F
100
AcDbEntity
  8
0
370
    -3
390
0
  6
Continuous
100
AcDbLine
 10
-584.241258
 20
-170.538047
 30
0.0
 11
-587.564659
 21
-173.861449
 31
0.0
  0
ARC
  5
570
100
AcDbEntity
  8
0
370
    -3
390
0
  6
Continuous
100
AcDbCircle
 10
-580.705724
 20
-167.426777
 30
0.0
 40
0.3
100
AcDbArc
 50
45.0
 51
135.0
  0
LINE
  5
571
100
AcDbEntity
  8
0
370
    -3
390
0
  6
Continuous
100
AcDbLine
 10
-581.624962
 20
-166.790381
 30
0.0
 11
-581.059277
 21
-167.356067
 31
0.0
  0
LINE
  5
572
100
AcDbEntity
  8
0
370
    -3
390
0
  6
Continuous
100
AcDbLine
 10
-582.720978
 20
-169.017768
 30
0.0
 11
-580.917856
 21
-167.214645
 31
0.0
  0
LINE
  5
573
100
AcDbEntity
  8
0
370
    -3
390
0
  6
Continuous
100
AcDbLine
 10
-580.493592
 20
-167.214645
 30
0.0
 11
-579.76188
 21
-167.946357
 31
0.0
  0
LINE
  5
574
100
AcDbEntity
  8
0
370
    -3
390
0
  6
Continuous
100
AcDbLine
 10
-584.806943
 20
-169.972362
 30
0.0
 11
-581.624962
 21
-166.790381
 31
0.0
  0
LINE
  5
575
100
AcDbEntity
  8
0
370
    -3
390
0
  6
Continuous
100
AcDbLine
 10
-584.241258
 20
-170.538047
 30
0.0
 11
-580.917856
 21
-167.214645
 31
0.0
  0
ARC
  5
576
100
AcDbEntity
  8
0
370
    -3
390
0
  6
Continuous
100
AcDbCircle
 10
-425.37322
 20
-263.606085
 30
0.0
 40
2.0
100
AcDbArc
 50
0.0
 51
90.0
  0
LINE
  5
577
100
AcDbEntity
  8
0
370
    -3
390
0
  6
Continuous
100
AcDbLine
 10
-421.77322
 20
-268.006085
 30
0.0
 11
-423.37322
 21
-268.006085
 31
0.0
  0
LINE
  5
578
100
AcDbEntity
  8
0
370
    -3
390
0
  6
Continuous
100
AcDbLine
 10
-421.77322
 20
-206.006085
 30
0.0
 11
-423.37322
 21
-206.006085
 31
0.0
  0
LINE
  5
579
100
AcDbEntity
  8
0
370
    -3
390
0
  6
Continuous
100
AcDbLine
 10
-421.77322
 20
-268.006085
 30
0.0
 11
-421.77322
 21
-206.006085
 31
0.0
  0
ARC
  5
57A
100
AcDbEntity
  8
0
370
    -3
390
0
  6
Continuous
100
AcDbCircle
 10
-425.37322
 20
-210.406085
 30
0.0
 40
2.0
100
AcDbArc
 50
270.0
 51
0.0
  0
LINE
  5
57B
100
AcDbEntity
  8
0
370
    -3
390
0
  6
Continuous
100
AcDbLine
 10
-423.37322
 20
-268.006085
 30
0.0
 11
-423.37322
 21
-206.006085
 31
0.0
  0
LINE
  5
57C
100
AcDbEntity
  8
0
370
    -3
390
0
  6
Continuous
100
AcDbLine
 10
-425.37322
 20
-212.406085
 30
0.0
 11
-431.365307
 21
-212.406085
 31
0.0
  0
LINE
  5
57D
100
AcDbEntity
  8
0
370
    -3
390
0
  6
Continuous
100
AcDbLine
 10
-425.37322
 20
-261.606085
 30
0.0
 11
-431.365307
 21
-261.606085
 31
0.0
  0
LINE
  5
57E
100
AcDbEntity
  8
0
370
    -3
390
0
  6
Continuous
100
AcDbLine
 10
-421.77322
 20
-206.006085
 30
0.0
 11
-420.77322
 21
-206.006085
 31
0.0
  0
LINE
  5
57F
100
AcDbEntity
  8
0
370
    -3
390
0
  6
Continuous
100
AcDbLine
 10
-421.77322
 20
-268.006085
 30
0.0
 11
-420.77322
 21
-268.006085
 31
0.0
  0
ARC
  5
580
100
AcDbEntity
  8
0
370
    -3
390
0
  6
Continuous
100
AcDbCircle
 10
-388.025509
 20
-219.827189
 30
0.0
 40
15.0
100
AcDbArc
 50
1.682769
 51
80.681877
  0
ARC
  5
581
100
AcDbEntity
  8
0
370
    -3
390
0
  6
Continuous
100
AcDbCircle
 10
-378.891612
 20
-293.182992
 30
0.0
 40
9.0
100
AcDbArc
 50
7.398452
 51
40.601531
  0
ARC
  5
582
100
AcDbEntity
  8
0
370
    -3
390
0
  6
Continuous
100
AcDbCircle
 10
-371.255717
 20
-292.191473
 30
0.0
 40
1.299999
100
AcDbArc
 50
293.999982
 51
7.398452
  0
LINE
  5
583
100
AcDbEntity
  8
0
370
    -3
390
0
  6
CENTER
100
AcDbLine
 10
-396.77322
 20
-269.123561
 30
0.0
 11
-396.77322
 21
-291.99207
 31
0.0
  0
LINE
  5
584
100
AcDbEntity
  8
0
370
    -3
390
0
  6
Continuous
100
AcDbLine
 10
-420.77322
 20
-204.31448
 30
0.0
 11
-420.77322
 21
-278.506085
 31
0.0
  0
LINE
  5
585
100
AcDbEntity
  8
0
370
    -3
390
0
  6
Continuous
100
AcDbLine
 10
-375.702921
 20
-293.952567
 30
0.0
 11
-379.220071
 21
-295.518504
 31
0.0
  0
LINE
  5
586
100
AcDbEntity
  8
0
370
    -3
390
0
  6
Continuous
100
AcDbLine
 10
-377.329868
 20
-290.298386
 30
0.0
 11
-380.847018
 21
-291.864322
 31
0.0
  0
ARC
  5
587
100
AcDbEntity
  8
0
370
    -3
390
0
  6
Continuous
100
AcDbCircle
 10
-376.403207
 20
-281.128719
 30
0.0
 40
2.0
100
AcDbArc
 50
294.0
 51
355.768662
  0
ARC
  5
588
100
AcDbEntity
  8
0
370
    -3
390
0
  6
Continuous
100
AcDbCircle
 10
-374.978533
 20
-283.778322
 30
0.0
 40
1.0
100
AcDbArc
 50
114.0
 51
204.0
  0
LINE
  5
589
100
AcDbEntity
  8
0
370
    -3
390
0
  6
Continuous
100
AcDbLine
 10
-396.897511
 20
-237.006085
 30
0.0
 11
-370.685849
 21
-295.878441
 31
0.0
  0
ARC
  5
58A
100
AcDbEntity
  8
0
370
    -3
390
0
  6
Continuous
100
AcDbCircle
 10
-371.599395
 20
-296.285178
 30
0.0
 40
1.0
100
AcDbArc
 50
294.0
 51
24.0
  0
LINE
  5
58B
100
AcDbEntity
  8
0
370
    -3
390
0
  6
Continuous
100
AcDbLine
 10
-371.192658
 20
-297.198723
 30
0.0
 11
-373.750585
 21
-298.337586
 31
0.0
  0
LINE
  5
58C
100
AcDbEntity
  8
0
370
    -3
390
0
  6
Continuous
100
AcDbLine
 10
-415.77322
 20
-283.506085
 30
0.0
 11
-380.353995
 21
-283.506085
 31
0.0
  0
ARC
  5
58D
100
AcDbEntity
  8
0
370
    -3
390
0
  6
Continuous
100
AcDbCircle
 10
-415.77322
 20
-278.506085
 30
0.0
 40
5.0
100
AcDbArc
 50
180.0
 51
270.0
  0
ARC
  5
58E
100
AcDbEntity
  8
0
370
    -3
390
0
  6
Continuous
100
AcDbCircle
 10
-373.807171
 20
-286.409244
 30
0.0
 40
1.0
100
AcDbArc
 50
175.284875
 51
204.0
  0
ARC
  5
58F
100
AcDbEntity
  8
0
370
    -3
390
0
  6
Continuous
100
AcDbCircle
 10
-972.77322
 20
-237.006085
 30
0.0
 40
600.0
100
AcDbArc
 50
355.284875
 51
1.682769
  0
ARC
  5
590
100
AcDbEntity
  8
0
370
    -3
390
0
  6
Continuous
100
AcDbCircle
 10
-373.045359
 20
-288.171871
 30
0.0
 40
1.299999
100
AcDbArc
 50
40.601531
 51
114.000001
  0
LINE
  5
591
100
AcDbEntity
  8
0
370
    -3
390
0
  6
Continuous
100
AcDbLine
 10
-374.4685
 20
-287.382468
 30
0.0
 11
-373.574116
 21
-286.984263
 31
0.0
  0
LINE
  5
592
100
AcDbEntity
  8
0
370
    -3
390
0
  6
Continuous
100
AcDbLine
 10
-371.621344
 20
-293.777286
 30
0.0
 11
-370.726959
 21
-293.379081
 31
0.0
  0
LINE
  5
593
100
AcDbEntity
  8
0
370
    -3
390
0
  6
Continuous
100
AcDbLine
 10
-374.4685
 20
-287.382468
 30
0.0
 11
-371.621344
 21
-293.777286
 31
0.0
  0
LINE
  5
594
100
AcDbEntity
  8
0
370
    -3
390
0
  6
Continuous
100
AcDbLine
 10
-374.4685
 20
-287.382468
 30
0.0
 11
-371.621344
 21
-293.777286
 31
0.0
  0
POINT
  5
595
100
AcDbEntity
  8
0
370
    -3
390
0
  6
Continuous
100
AcDbPoint
 10
-373.044922
 20
-290.579877
 30
0.0
  0
LINE
  5
596
100
AcDbEntity
  8
0
370
    -3
390
0
  6
Continuous
100
AcDbLine
 10
-381.024401
 20
-292.32642
 30
0.0
 11
-379.68217
 21
-295.34112
 31
0.0
  0
LINE
  5
597
100
AcDbEntity
  8
0
370
    -3
390
0
  6
Continuous
100
AcDbLine
 10
-379.220071
 20
-295.518504
 30
0.0
 11
-379.68217
 21
-295.34112
 31
0.0
  0
LINE
  5
598
100
AcDbEntity
  8
0
370
    -3
390
0
  6
Continuous
100
AcDbLine
 10
-380.847018
 20
-291.864322
 30
0.0
 11
-381.024401
 21
-292.32642
 31
0.0
  0
LINE
  5
599
100
AcDbEntity
  8
0
370
    -3
390
0
  6
Continuous
100
AcDbLine
 10
-377.18751
 20
-290.618127
 30
0.0
 11
-381.024401
 21
-292.32642
 31
0.0
  0
LINE
  5
59A
100
AcDbEntity
  8
0
370
    -3
390
0
  6
Continuous
100
AcDbLine
 10
-375.845279
 20
-293.632827
 30
0.0
 11
-379.68217
 21
-295.34112
 31
0.0
  0
LINE
  5
59B
100
AcDbEntity
  8
0
370
    -3
390
0
  6
Continuous
100
AcDbLine
 10
-419.467784
 20
-195.655076
 30
0.0
 11
-373.750585
 21
-298.337586
 31
0.0
  0
ARC
  5
59C
100
AcDbEntity
  8
0
370
    -3
390
0
  6
Continuous
100
AcDbCircle
 10
-417.77322
 20
-204.31448
 30
0.0
 40
3.0
100
AcDbArc
 50
114.0
 51
180.0
  0
LINE
  5
59D
100
AcDbEntity
  8
0
370
    -3
390
0
  6
Continuous
100
AcDbLine
 10
-417.190059
 20
-200.770931
 30
0.0
 11
-418.99343
 21
-201.573843
 31
0.0
  0
LINE
  5
59E
100
AcDbEntity
  8
0
370
    -3
390
0
  6
Continuous
100
AcDbLine
 10
-416.909857
 20
-194.516214
 30
0.0
 11
-419.467784
 21
-195.655076
 31
0.0
  0
LINE
  5
59F
100
AcDbEntity
  8
0
370
    -3
390
0
  6
Continuous
100
AcDbLine
 10
-411.552407
 20
-200.766291
 30
0.0
 11
-385.59677
 21
-205.025121
 31
0.0
  0
ARC
  5
5A0
100
AcDbEntity
  8
0
370
    -3
390
0
  6
Continuous
100
AcDbCircle
 10
-411.066659
 20
-197.805878
 30
0.0
 40
3.0
100
AcDbArc
 50
204.0
 51
260.681877
  0
LINE
  5
5A1
100
AcDbEntity
  8
0
370
    -3
390
0
  6
Continuous
100
AcDbLine
 10
-415.589575
 20
-195.023022
 30
0.0
 11
-396.897511
 21
-237.006085
 31
0.0
  0
LINE
  5
5A2
100
AcDbEntity
  8
0
370
    -3
390
0
  6
Continuous
100
AcDbLine
 10
-419.138623
 20
-198.349414
 30
0.0
 11
-418.402219
 21
-198.661999
 31
0.0
  0
LINE
  5
5A3
100
AcDbEntity
  8
0
370
    -3
390
0
  6
Continuous
100
AcDbLine
 10
-418.268877
 20
-198.347865
 30
0.0
 11
-418.402219
 21
-198.661999
 31
0.0
  0
LINE
  5
5A4
100
AcDbEntity
  8
0
370
    -3
390
0
  6
Continuous
100
AcDbLine
 10
-418.713791
 20
-197.348572
 30
0.0
 11
-419.138623
 21
-198.349414
 31
0.0
  0
ARC
  5
5A5
100
AcDbEntity
  8
0
370
    -3
390
0
  6
Continuous
100
AcDbCircle
 10
-416.50312
 20
-195.429759
 30
0.0
 40
1.0
100
AcDbArc
 50
24.0
 51
114.0
  0
INSERT
  5
5B1
100
AcDbEntity
  8
0
390
0
100
AcDbBlockReference
  2
ZU_SYM__USERS_HOME_SYMBOL_POO_SYM_S07_15
 10
-450.739497
 20
-169.972362
 30
0.0
 41
-1.0
 42
1.0
 50
45.0
  0
INSERT
  5
5BD
100
AcDbEntity
  8
0
390
0
100
AcDbBlockReference
  2
ZU_SYM__USERS_HOME_SYMBOL_POO_SYM_S07_0000415
 10
-450.739497
 20
-304.039808
 30
0.0
 41
1.0
 42
1.0
 50
135.0
  0
INSERT
  5
5C9
100
AcDbEntity
  8
0
390
0
100
AcDbBlockReference
  2
ZU_SYM__USERS_HOME_SYMBOL_POO_SYM_S07_0000515
 10
-584.806943
 20
-304.039808
 30
0.0
 41
-1.0
 42
1.0
 50
225.0
  0
INSERT
  5
5D5
100
AcDbEntity
  8
0
390
0
100
AcDbBlockReference
  2
ZU_SYM__USERS_HOME_SYMBOL_POO_SYM_S07_0000615
 10
-584.806943
 20
-169.972362
 30
0.0
 41
1.0
 42
1.0
 50
315.0
  0
MTEXT
  5
5D7
100
AcDbEntity
  8
0
370
    -3
390
0
  6
Continuous
100
AcDbMText
 10
-547.040527
 20
210.904373
 30
0.0
 40
16.0
 41
0.0
 71
     7
 72
     1
  1
\W0.83;三菱ギヤードモータ  
  7
ZU_SHPTB00001
 11
1.0
 21
0.0
 31
0.0
 73
     1
 44
1.0
  0
MTEXT
  5
5D8
100
AcDbEntity
  8
0
370
    -3
390
0
  6
Continuous
100
AcDbMText
 10
-547.040527
 20
189.704376
 30
0.0
 40
16.0
 41
0.0
 71
     7
 72
     1
  1
\W0.60;GM-DPF
  7
ZU_SHPTB00001
 11
1.0
 21
0.0
 31
0.0
 73
     1
 44
1.0
  0
MTEXT
  5
5D9
100
AcDbEntity
  8
0
370
    -3
390
0
  6
Continuous
100
AcDbMText
 10
-547.040527
 20
168.504379
 30
0.0
 40
16.0
 41
0.0
 71
     7
 72
     1
  1
\W0.60;1.5(kW)
  7
ZU_SHPTB00001
 11
1.0
 21
0.0
 31
0.0
 73
     1
 44
1.0
  0
MTEXT
  5
5DA
100
AcDbEntity
  8
0
370
    -3
390
0
  6
Continuous
100
AcDbMText
 10
-547.040527
 20
147.304382
 30
0.0
 40
16.0
 41
0.0
 71
     7
 72
     1
  1
\W0.60;1/120\W0.83;～\W0.60;1/200
  7
ZU_SHPTB00001
 11
1.0
 21
0.0
 31
0.0
 73
     1
 44
1.0
  0
MTEXT
  5
5DB
100
AcDbEntity
  8
0
370
    -3
390
0
  6
Continuous
100
AcDbMText
 10
-547.040527
 20
126.104378
 30
0.0
 40
16.0
 41
0.0
 71
     7
 72
     1
  1
\W0.60;SCALE\W1.00; \W0.60;1/1
  7
ZU_SHPTB00001
 11
1.0
 21
0.0
 31
0.0
 73
     1
 44
1.0
  0
ENDSEC
  0
SECTION
  2
OBJECTS
  0
DICTIONARY
  5
19
100
AcDbDictionary
280
     0
281
     1
  3
ACAD_GROUP
350
1A
  3
ACAD_MLINESTYLE
350
1B
  3
ACAD_LAYOUT
350
1E
  3
ACAD_PLOTSETTINGS
350
22
  3
ACAD_PLOTSTYLENAME
350
1F
  3
ACAD_WIPEOUT_VARS
350
23
  3
DWGPROPS
350
5DC
  0
DICTIONARY
  5
1A
102
{ACAD_REACTORS
330
19
102
}
100
AcDbDictionary
280
     0
281
     1
  0
DICTIONARY
  5
1B
102
{ACAD_REACTORS
330
19
102
}
100
AcDbDictionary
280
     0
281
     1
  3
Standard
350
1C
  0
MLINESTYLE
  5
1C
102
{ACAD_REACTORS
330
1B
102
}
100
AcDbMlineStyle
  2
Standard
 70
     0
  3

 62
     0
 51
90.0
 52
90.0
 71
     2
 49
0.5
 62
   256
  6
ByLayer
 49
-0.5
 62
   256
  6
ByLayer
  0
ACDBDICTIONARYWDFLT
  5
1F
102
{ACAD_REACTORS
330
19
102
}
100
AcDbDictionary
281
     1
  3
Normal
350
1D
100
AcDbDictionaryWithDefault
340
1D
  0
ACDBPLACEHOLDER
  5
1D
102
{ACAD_REACTORS
330
1F
102
}
  0
LAYOUT
  5
20
102
{ACAD_REACTORS
330
1E
102
}
100
AcDbPlotSettings
  1

  2

  4

  6

 40
0.0
 41
0.0
 42
0.0
 43
0.0
 44
0.0
 45
0.0
 46
0.0
 47
0.0
 48
0.0
 49
0.0
140
0.0
141
0.0
142
1.0
143
1.0
 70
  1024
 72
     0
 73
     0
 74
     0
  7

 75
     0
147
1.0
148
0.0
149
0.0
100
AcDbLayout
  1
Model
 70
     0
 71
     0
 10
0.0
 20
0.0
 11
0.0
 21
0.0
 12
0.0
 22
0.0
 32
0.0
 14
0.0
 24
0.0
 34
0.0
 15
0.0
 25
0.0
 35
0.0
146
0.0
 13
0.0
 23
0.0
 33
0.0
 16
0.0
 26
0.0
 36
0.0
 17
0.0
 27
0.0
 37
0.0
 76
     0
330
A
331
0
345
0
346
0
  0
LAYOUT
  5
21
102
{ACAD_REACTORS
330
1E
102
}
100
AcDbPlotSettings
  1

  2

  4

  6

 40
0.0
 41
0.0
 42
0.0
 43
0.0
 44
0.0
 45
0.0
 46
0.0
 47
0.0
 48
0.0
 49
0.0
140
0.0
141
0.0
142
1.0
143
1.0
 70
     0
 72
     0
 73
     0
 74
     0
  7

 75
     0
147
1.0
148
0.0
149
0.0
100
AcDbLayout
  1
Layout1
 70
     0
 71
     0
 10
0.0
 20
0.0
 11
0.0
 21
0.0
 12
0.0
 22
0.0
 32
0.0
 14
0.0
 24
0.0
 34
0.0
 15
0.0
 25
0.0
 35
0.0
146
0.0
 13
0.0
 23
0.0
 33
0.0
 16
0.0
 26
0.0
 36
0.0
 17
0.0
 27
0.0
 37
0.0
 76
     0
330
B
331
0
345
0
346
0
  0
DICTIONARY
  5
1E
102
{ACAD_REACTORS
330
19
102
}
100
AcDbDictionary
280
     0
281
     1
  3
Layout1
350
21
  3
Model
350
20
  0
DICTIONARY
  5
22
102
{ACAD_REACTORS
330
19
102
}
100
AcDbDictionary
280
     0
281
     1
  0
WIPEOUTVARIABLES
  5
23
100
AcDbWipeoutVariables
 70
     1
  0
XRECORD
  5
5DC
100
AcDbXrecord
280
     1
  1
DWGPROPS COOKIE
  2

  3

  4

  6

  7

  8
YP81315
  9

300
=
301
=
302
=
303
=
304
=
305
=
306
=
307
=
308
=
309
=
 40
0.0
 41
2456812.582199
 42
2456812.582199
  1

 90
        0
  0
ENDSEC
  0
EOF
