  0
SECTION
  2
HEADER
  9
$ACADVER
  1
AC1015
  9
$ACADMAINTVER
 70
     6
  9
$DWGCODEPAGE
  3
ANSI_932
  9
$INSBASE
 10
0.0
 20
0.0
 30
0.0
  9
$EXTMIN
 10
1.000000E+20
 20
1.000000E+20
 30
1.000000E+20
  9
$EXTMAX
 10
-1.000000E+20
 20
-1.000000E+20
 30
-1.000000E+20
  9
$LIMMIN
 10
0.0
 20
0.0
  9
$LIMMAX
 10
0.0
 20
0.0
  9
$ORTHOMODE
 70
     0
  9
$REGENMODE
 70
     1
  9
$FILLMODE
 70
     1
  9
$QTEXTMODE
 70
     0
  9
$MIRRTEXT
 70
     1
  9
$LTSCALE
 40
1.0
  9
$ATTMODE
 70
     1
  9
$TEXTSIZE
 40
3.3
  9
$TRACEWID
 40
0.05
  9
$TEXTSTYLE
  7
Standard
  9
$CLAYER
  8
0
  9
$CELTYPE
  6
Continuous
  9
$CECOLOR
 62
   256
  9
$CELTSCALE
 40
1.0
  9
$DISPSILH
 70
     0
  9
$DIMSCALE
 40
1.0
  9
$DIMASZ
 40
1.931852
  9
$DIMEXO
 40
1.0
  9
$DIMDLI
 40
0.38
  9
$DIMRND
 40
0.0
  9
$DIMDLE
 40
0.0
  9
$DIMEXE
 40
2.0
  9
$DIMTP
 40
0.0
  9
$DIMTM
 40
0.0
  9
$DIMTXT
 40
2.8
  9
$DIMCEN
 40
0.09
  9
$DIMTSZ
 40
0.0
  9
$DIMTOL
 70
     0
  9
$DIMLIM
 70
     0
  9
$DIMTIH
 70
     1
  9
$DIMTOH
 70
     1
  9
$DIMSE1
 70
     0
  9
$DIMSE2
 70
     0
  9
$DIMTAD
 70
     1
  9
$DIMZIN
 70
     0
  9
$DIMBLK
  1

  9
$DIMASO
 70
     1
  9
$DIMSHO
 70
     1
  9
$DIMPOST
  1

  9
$DIMAPOST
  1

  9
$DIMALT
 70
     0
  9
$DIMALTD
 70
     2
  9
$DIMALTF
 40
25.4
  9
$DIMLFAC
 40
1.0
  9
$DIMTOFL
 70
     0
  9
$DIMTVP
 40
0.0
  9
$DIMTIX
 70
     0
  9
$DIMSOXD
 70
     0
  9
$DIMSAH
 70
     0
  9
$DIMBLK1
  1

  9
$DIMBLK2
  1

  9
$DIMSTYLE
  2
Standard
  9
$DIMCLRD
 70
     0
  9
$DIMCLRE
 70
     0
  9
$DIMCLRT
 70
     0
  9
$DIMTFAC
 40
0.714286
  9
$DIMGAP
 40
0.09
  9
$DIMJUST
 70
     0
  9
$DIMSD1
 70
     0
  9
$DIMSD2
 70
     0
  9
$DIMTOLJ
 70
     1
  9
$DIMTZIN
 70
     0
  9
$DIMALTZ
 70
     0
  9
$DIMALTTZ
 70
     0
  9
$DIMUPT
 70
     0
  9
$DIMDEC
 70
     4
  9
$DIMTDEC
 70
     4
  9
$DIMALTU
 70
     2
  9
$DIMALTTD
 70
     2
  9
$DIMTXSTY
  7
Standard
  9
$DIMAUNIT
 70
     0
  9
$DIMADEC
 70
     0
  9
$DIMALTRND
 40
0.0
  9
$DIMAZIN
 70
     0
  9
$DIMDSEP
 70
     0
  9
$DIMATFIT
 70
     3
  9
$DIMFRAC
 70
     0
  9
$DIMLDRBLK
  1

  9
$DIMLUNIT
 70
     2
  9
$DIMLWD
 70
     0
  9
$DIMLWE
 70
     0
  9
$DIMTMOVE
 70
     0
  9
$LUNITS
 70
     2
  9
$LUPREC
 70
     3
  9
$SKETCHINC
 40
0.1
  9
$FILLETRAD
 40
0.0
  9
$AUNITS
 70
     0
  9
$AUPREC
 70
     0
  9
$MENU
  1
acad
  9
$ELEVATION
 40
0.0
  9
$PELEVATION
 40
0.0
  9
$THICKNESS
 40
0.0
  9
$LIMCHECK
 70
     0
  9
$CHAMFERA
 40
0.0
  9
$CHAMFERB
 40
0.0
  9
$CHAMFERC
 40
0.0
  9
$CHAMFERD
 40
0.0
  9
$SKPOLY
 70
     0
  9
$TDCREATE
 40
0.000000000
  9
$TDUCREATE
 40
0.000000000
  9
$TDUPDATE
 40
0.000000000
  9
$TDUUPDATE
 40
0.000000000
  9
$TDINDWG
 40
0.0000000000
  9
$TDUSRTIMER
 40
0.0000000000
  9
$USRTIMER
 70
     1
  9
$ANGBASE
 50
0.0
  9
$ANGDIR
 70
     0
  9
$PDMODE
 70
     0
  9
$PDSIZE
 40
0.0
  9
$PLINEWID
 40
0.0
  9
$SPLFRAME
 70
     0
  9
$SPLINETYPE
 70
     6
  9
$SPLINESEGS
 70
     8
  9
$HANDSEED
  5
54D
  9
$SURFTAB1
 70
     6
  9
$SURFTAB2
 70
     6
  9
$SURFTYPE
 70
     6
  9
$SURFU
 70
     6
  9
$SURFV
 70
     6
  9
$UCSBASE
  2

  9
$UCSNAME
  2

  9
$UCSORG
 10
0.0
 20
0.0
 30
0.0
  9
$UCSXDIR
 10
1.0
 20
0.0
 30
0.0
  9
$UCSYDIR
 10
0.0
 20
1.0
 30
0.0
  9
$UCSORTHOREF
  2

  9
$UCSORTHOVIEW
 70
     0
  9
$UCSORGTOP
 10
0.0
 20
0.0
 30
0.0
  9
$UCSORGBOTTOM
 10
0.0
 20
0.0
 30
0.0
  9
$UCSORGLEFT
 10
0.0
 20
0.0
 30
0.0
  9
$UCSORGRIGHT
 10
0.0
 20
0.0
 30
0.0
  9
$UCSORGFRONT
 10
0.0
 20
0.0
 30
0.0
  9
$UCSORGBACK
 10
0.0
 20
0.0
 30
0.0
  9
$PUCSBASE
  2

  9
$PUCSNAME
  2

  9
$PUCSORG
 10
0.0
 20
0.0
 30
0.0
  9
$PUCSXDIR
 10
1.0
 20
0.0
 30
0.0
  9
$PUCSYDIR
 10
0.0
 20
1.0
 30
0.0
  9
$PUCSORTHOREF
  2

  9
$PUCSORTHOVIEW
 70
     0
  9
$PUCSORGTOP
 10
0.0
 20
0.0
 30
0.0
  9
$PUCSORGBOTTOM
 10
0.0
 20
0.0
 30
0.0
  9
$PUCSORGLEFT
 10
0.0
 20
0.0
 30
0.0
  9
$PUCSORGRIGHT
 10
0.0
 20
0.0
 30
0.0
  9
$PUCSORGFRONT
 10
0.0
 20
0.0
 30
0.0
  9
$PUCSORGBACK
 10
0.0
 20
0.0
 30
0.0
  9
$USERI1
 70
     0
  9
$USERI2
 70
     0
  9
$USERI3
 70
     0
  9
$USERI4
 70
     0
  9
$USERI5
 70
     0
  9
$USERR1
 40
0.0
  9
$USERR2
 40
0.0
  9
$USERR3
 40
0.0
  9
$USERR4
 40
0.0
  9
$USERR5
 40
0.0
  9
$WORLDVIEW
 70
     1
  9
$SHADEDGE
 70
     3
  9
$SHADEDIF
 70
    70
  9
$TILEMODE
 70
     1
  9
$MAXACTVP
 70
    16
  9
$PINSBASE
 10
0.0
 20
0.0
 30
0.0
  9
$PLIMCHECK
 70
     0
  9
$PEXTMIN
 10
1.000000E+20
 20
1.000000E+20
 30
1.000000E+20
  9
$PEXTMAX
 10
-1.000000E+20
 20
-1.000000E+20
 30
-1.000000E+20
  9
$PLIMMIN
 10
0.0
 20
0.0
  9
$PLIMMAX
 10
12.0
 20
9.0
  9
$UNITMODE
 70
     0
  9
$VISRETAIN
 70
     0
  9
$PLINEGEN
 70
     1
  9
$PSLTSCALE
 70
     0
  9
$TREEDEPTH
 70
  3020
  9
$CMLSTYLE
  2
Standard
  9
$CMLJUST
 70
     0
  9
$CMLSCALE
 40
1.0
  9
$PROXYGRAPHICS
 70
     0
  9
$MEASUREMENT
 70
     0
  9
$CELWEIGHT
370
     0
  9
$ENDCAPS
280
     0
  9
$JOINSTYLE
280
     0
  9
$LWDISPLAY
290
     0
  9
$INSUNITS
 70
     0
  9
$HYPERLINKBASE
  1

  9
$STYLESHEET
  1

  9
$XEDIT
290
     1
  9
$CEPSNTYPE
380
     0
  9
$PSTYLEMODE
290
     1
  9
$FINGERPRINTGUID
  2

  9
$VERSIONGUID
  2

  9
$EXTNAMES
290
     1
  9
$PSVPSCALE
 40
0.0
  0
ENDSEC
  0
SECTION
  2
CLASSES
  0
CLASS
  1
LWPOLYLINE
  2
AcDbPolyline
  3
AutoCAD 2000
 90
        0
280
     0
281
     1
  0
CLASS
  1
IMAGE
  2
AcDbRasterImage
  3
ISM
 90
      127
280
     0
281
     1
  0
CLASS
  1
OLE2FRAME
  2
AcDbOle2Frame
  3
AutoCAD 2000
 90
        0
280
     0
281
     1
  0
CLASS
  1
HATCH
  2
AcDbHatch
  3
AutoCAD 2000
 90
        0
280
     0
281
     1
  0
CLASS
  1
DICTIONARYVAR
  2
AcDbDictionaryVar
  3
AutoCAD 2000
 90
        0
280
     0
281
     0
  0
CLASS
  1
RASTERVARIABLES
  2
AcDbRasterVariables
  3
ISM
 90
        0
280
     0
281
     0
  0
CLASS
  1
IMAGEDEF
  2
AcDbRasterImageDef
  3
ISM
 90
        0
280
     0
281
     0
  0
CLASS
  1
IMAGEDEF_REACTOR
  2
AcDbRasterImageDefReactor
  3
ISM
 90
        1
280
     0
281
     0
  0
CLASS
  1
IDBUFFER
  2
AcDbIdBuffer
  3
AutoCAD 2000
 90
        0
280
     0
281
     0
  0
CLASS
  1
SPATIAL_FILTER
  2
AcDbSpatialFilter
  3
AutoCAD 2000
 90
        0
280
     0
281
     0
  0
CLASS
  1
XRECORD
  2
AcDbXrecord
  3
AutoCAD 2000
 90
        0
280
     0
281
     0
  0
CLASS
  1
SORTENTSTABLE
  2
AcDbSortentsTable
  3
AutoCAD 2000
 90
        0
280
     0
281
     0
  0
CLASS
  1
LAYER_INDEX
  2
AcDbLayerIndex
  3
AutoCAD 2000
 90
        0
280
     0
281
     0
  0
CLASS
  1
SPATIAL_INDEX
  2
AcDbSpatialIndex
  3
AutoCAD 2000
 90
        0
280
     0
281
     0
  0
CLASS
  1
OBJECT_PTR
  2
CAseDLPNTableRecord
  3
"ASE-LPNTableRecord"
 90
        1
280
     0
281
     0
  0
CLASS
  1
LAYOUT
  2
AcDbLayout
  3
AutoCAD 2000
 90
        0
280
     0
281
     0
  0
CLASS
  1
PLOTSETTINGS
  2
AcDbPlotSettings
  3
AutoCAD 2000
 90
        0
280
     0
281
     0
  0
CLASS
  1
ACDBDICTIONARYWDFLT
  2
AcDbDictionaryWithDefault
  3
AutoCAD 2000
 90
        0
280
     0
281
     0
  0
CLASS
  1
ACDBPLACEHOLDER
  2
AcDbPlaceHolder
  3
AutoCAD 2000
 90
        0
280
     0
281
     0
  0
CLASS
  1
VBA_PROJECT
  2
AcDbVbaProject
  3
acadvba
 90
        0
280
     0
281
     0
  0
CLASS
  1
WIPEOUT
  2
AcDbWipeout
  3
WipeOut|AutoCAD Express Tool|expresstools@autodesk.com
 90
      127
280
     0
281
     1
  0
CLASS
  1
WIPEOUTVARIABLES
  2
AcDbWipeoutVariables
  3
WipeOut|AutoCAD Express Tool|expresstools@autodesk.com
 90
        0
280
     0
281
     0
  0
CLASS
  1
RTEXT
  2
RText
  3
RText|AutoCAD Express Tool|expresstools@autodesk.com
 90
        0
280
     0
281
     1
  0
CLASS
  1
ARCALIGNEDTEXT
  2
AcDbArcAlignedText
  3
ATEXT|AutoCAD Express Tool|expresstools@autodesk.com
 90
        0
280
     0
281
     1
  0
ENDSEC
  0
SECTION
  2
TABLES
  0
TABLE
  2
VPORT
  5
7
100
AcDbSymbolTable
 70
     1
  0
VPORT
  5
15
100
AcDbSymbolTableRecord
100
AcDbViewportTableRecord
  2
*ACTIVE
 70
     0
 10
0.0
 20
0.0
 11
1.0
 21
1.0
 12
0.0
 22
0.0
 13
0.0
 23
0.0
 14
1.0
 24
1.0
 15
0.0
 25
0.0
 16
0.0
 26
0.0
 36
1.0
 17
0.0
 27
0.0
 37
0.0
 40
100.0
 41
1.0
 42
50.0
 43
0.0
 44
0.0
 50
0.0
 51
0.0
 71
     0
 72
   100
 73
     1
 74
     1
 75
     0
 76
     0
 77
     0
 78
     0
281
     0
 65
     0
110
0.0
120
0.0
130
0.0
111
1.0
121
0.0
131
0.0
112
0.0
122
1.0
132
0.0
345
0
346
0
 79
     0
146
0.0
  0
ENDTAB
  0
TABLE
  2
LTYPE
  5
4
100
AcDbSymbolTable
 70
     7
  0
LTYPE
  5
11
100
AcDbSymbolTableRecord
100
AcDbLinetypeTableRecord
  2
ByBlock
 70
    64
  3

 72
    65
 73
     0
 40
0.0
  0
LTYPE
  5
12
100
AcDbSymbolTableRecord
100
AcDbLinetypeTableRecord
  2
ByLayer
 70
    64
  3

 72
    65
 73
     0
 40
0.0
  0
LTYPE
  5
13
100
AcDbSymbolTableRecord
100
AcDbLinetypeTableRecord
  2
Continuous
 70
    64
  3
Solid line
 72
    65
 73
     0
 40
0.0
  0
LTYPE
  5
24
100
AcDbSymbolTableRecord
100
AcDbLinetypeTableRecord
  2
DASHED
 70
    64
  3
Dashed __ __ __ __ __ __ __ __ __ __ __ __ __ _
 72
    65
 73
     2
 40
0.75
 49
0.5
 74
     0
 49
-0.25
 74
     0
  0
LTYPE
  5
25
100
AcDbSymbolTableRecord
100
AcDbLinetypeTableRecord
  2
CENTER
 70
    64
  3
Center ____ _ ____ _ ____ _ ____ _ ____ _ ____
 72
    65
 73
     4
 40
1.0
 49
0.5
 74
     0
 49
-0.25
 74
     0
 49
0.0
 74
     0
 49
-0.25
 74
     0
  0
LTYPE
  5
26
100
AcDbSymbolTableRecord
100
AcDbLinetypeTableRecord
  2
DIVIDE
 70
    64
  3
Divide ____ . . ____ . . ____ . . ____ . . ____
 72
    65
 73
     6
 40
1.25
 49
0.5
 74
     0
 49
-0.25
 74
     0
 49
0.0
 74
     0
 49
-0.25
 74
     0
 49
0.0
 74
     0
 49
-0.25
 74
     0
  0
LTYPE
  5
27
100
AcDbSymbolTableRecord
100
AcDbLinetypeTableRecord
  2
PHANTOM
 70
    64
  3
Phantom ______  __  __  ______  __  __  ______
 72
    65
 73
     6
 40
9.0
 49
4.3
 74
     0
 49
-0.7
 74
     0
 49
1.3
 74
     0
 49
-0.7
 74
     0
 49
1.3
 74
     0
 49
-0.7
 74
     0
  0
ENDTAB
  0
TABLE
  2
LAYER
  5
2
100
AcDbSymbolTable
 70
     1
  0
LAYER
  5
14
100
AcDbSymbolTableRecord
100
AcDbLayerTableRecord
  2
0
 70
    64
 62
   102
  6
Continuous
290
     1
370
    -3
390
1D
  0
ENDTAB
  0
TABLE
  2
STYLE
  5
3
100
AcDbSymbolTable
 70
     2
  0
STYLE
  5
17
100
AcDbSymbolTableRecord
100
AcDbTextStyleTableRecord
  2
Standard
 70
     0
 40
0.0
 41
1.0
 50
0.0
 71
     0
 42
0.0
  3
txt
  4

  0
STYLE
  5
546
100
AcDbSymbolTableRecord
100
AcDbTextStyleTableRecord
  2
ZU_SHPTB00001
 70
     0
 40
0.0
 41
1.0
 50
0.0
 71
     0
 42
0.0
  3
monotxt
  4
bigfont
  0
ENDTAB
  0
TABLE
  2
VIEW
  5
5
100
AcDbSymbolTable
 70
     0
  0
ENDTAB
  0
TABLE
  2
UCS
  5
6
100
AcDbSymbolTable
 70
     0
  0
ENDTAB
  0
TABLE
  2
APPID
  5
8
100
AcDbSymbolTable
 70
     1
  0
APPID
  5
16
100
AcDbSymbolTableRecord
100
AcDbRegAppTableRecord
  2
ACAD
 70
     0
  0
ENDTAB
  0
TABLE
  2
DIMSTYLE
  5
9
100
AcDbSymbolTable
 70
     1
100
AcDbDimStyleTable
 71
     0
  0
DIMSTYLE
105
18
100
AcDbSymbolTableRecord
100
AcDbDimStyleTableRecord
  2
Standard
 70
     0
  3

  4

 40
1.0
 41
0.18
 42
0.0625
 43
0.38
 44
0.18
 45
0.0
 46
0.0
 47
0.0
 48
0.0
 71
     0
 72
     0
 73
     1
 74
     1
 75
     0
 76
     0
 77
     0
 78
     0
 79
     0
140
0.18
141
0.09
142
0.0
143
25.4
144
1.0
145
0.0
146
1.0
147
0.09
148
0.0
170
     0
171
     2
172
     0
173
     0
174
     0
175
     0
176
     0
177
     0
178
     0
179
     0
271
     4
272
     4
273
     2
274
     2
275
     0
276
     0
277
     2
278
    46
279
     0
280
     0
281
     0
282
     0
283
     1
284
     0
285
     0
286
     0
288
     0
289
     3
340
17
341
0
342
0
343
0
344
0
371
    -2
372
    -2
  0
ENDTAB
  0
TABLE
  2
BLOCK_RECORD
  5
1
100
AcDbSymbolTable
 70
     5
  0
BLOCK_RECORD
  5
A
100
AcDbSymbolTableRecord
100
AcDbBlockTableRecord
  2
*MODEL_SPACE
340
20
  0
BLOCK_RECORD
  5
B
100
AcDbSymbolTableRecord
100
AcDbBlockTableRecord
  2
*PAPER_SPACE
340
21
  0
BLOCK_RECORD
  5
86
100
AcDbSymbolTableRecord
100
AcDbBlockTableRecord
  2
ZU_SYM__USERS_HOME_SYMBOL_POO_SYM_B20_18
340
0
102
{BLKREFS
331
91
102
}
  0
BLOCK_RECORD
  5
A1
100
AcDbSymbolTableRecord
100
AcDbBlockTableRecord
  2
ZU_SYM__USERS_HOME_SYMBOL_POO_SYM_B20_0000118
340
0
102
{BLKREFS
331
AC
102
}
  0
BLOCK_RECORD
  5
104
100
AcDbSymbolTableRecord
100
AcDbBlockTableRecord
  2
ZU_SYM__USERS_HOME_SYMBOL_POO_SYM_B20_0000218
340
0
102
{BLKREFS
331
10F
102
}
  0
BLOCK_RECORD
  5
110
100
AcDbSymbolTableRecord
100
AcDbBlockTableRecord
  2
ZU_SYM__USERS_HOME_SYMBOL_POO_SYM_B20_0000318
340
0
102
{BLKREFS
331
11B
102
}
  0
BLOCK_RECORD
  5
11F
100
AcDbSymbolTableRecord
100
AcDbBlockTableRecord
  2
ZU_SYM__USERS_HOME_SYMBOL_POO_SYM_B20_0000418
340
0
102
{BLKREFS
331
12A
102
}
  0
ENDTAB
  0
ENDSEC
  0
SECTION
  2
BLOCKS
  0
BLOCK
  5
D
100
AcDbEntity
  8
0
390
0
100
AcDbBlockBegin
  2
*MODEL_SPACE
 70
     0
 10
0.0
 20
0.0
 30
0.0
  3
*MODEL_SPACE
  1

  0
ENDBLK
  5
E
100
AcDbEntity
  8
0
390
0
100
AcDbBlockEnd
  0
BLOCK
  5
F
100
AcDbEntity
 67
     1
  8
0
390
0
100
AcDbBlockBegin
  2
*PAPER_SPACE
 70
     0
 10
0.0
 20
0.0
 30
0.0
  3
*PAPER_SPACE
  1

  0
ENDBLK
  5
10
100
AcDbEntity
 67
     1
  8
0
390
0
100
AcDbBlockEnd
  0
BLOCK
  5
87
100
AcDbEntity
  8
0
390
0
100
AcDbBlockBegin
  2
ZU_SYM__USERS_HOME_SYMBOL_POO_SYM_B20_18
 70
    64
 10
0.0
 20
0.0
 30
0.0
  3
ZU_SYM__USERS_HOME_SYMBOL_POO_SYM_B20_18
  1

  0
LINE
  5
88
100
AcDbEntity
  8
0
370
    -3
390
0
  6
Continuous
100
AcDbLine
 10
-7.499999
 20
6.5
 30
0.0
 11
-7.499999
 21
-6.5
 31
0.0
  0
LINE
  5
89
100
AcDbEntity
  8
0
370
    -3
390
0
  6
Continuous
100
AcDbLine
 10
-7.499998
 20
-6.499999
 30
0.0
 11
-7.999999
 21
-5.63407
 31
0.0
  0
LINE
  5
8A
100
AcDbEntity
  8
0
370
    -3
390
0
  6
Continuous
100
AcDbLine
 10
-7.499999
 20
6.5
 30
0.0
 11
-7.999999
 21
5.633876
 31
0.0
  0
LINE
  5
8B
100
AcDbEntity
  8
0
370
    -3
390
0
  6
Continuous
100
AcDbLine
 10
0.0
 20
-6.5
 30
0.0
 11
-7.499998
 21
-6.5
 31
0.0
  0
LINE
  5
8C
100
AcDbEntity
  8
0
370
    -3
390
0
  6
Continuous
100
AcDbLine
 10
0.0
 20
6.5
 30
0.0
 11
-7.499999
 21
6.5
 31
0.0
  0
LINE
  5
8D
100
AcDbEntity
  8
0
370
    -3
390
0
  6
Continuous
100
AcDbLine
 10
-7.999999
 20
5.633876
 30
0.0
 11
-7.999999
 21
-5.63407
 31
0.0
  0
LINE
  5
8E
100
AcDbEntity
  8
0
370
    -3
390
0
  6
Continuous
100
AcDbLine
 10
0.0
 20
-6.5
 30
0.0
 11
0.0
 21
6.5
 31
0.0
  0
POINT
  5
8F
100
AcDbEntity
  8
0
370
    -3
390
0
  6
Continuous
100
AcDbPoint
 10
0.0
 20
0.0
 30
0.0
  0
ENDBLK
  5
90
100
AcDbEntity
  8
0
390
0
100
AcDbBlockEnd
  0
BLOCK
  5
A2
100
AcDbEntity
  8
0
390
0
100
AcDbBlockBegin
  2
ZU_SYM__USERS_HOME_SYMBOL_POO_SYM_B20_0000118
 70
    64
 10
0.0
 20
0.0
 30
0.0
  3
ZU_SYM__USERS_HOME_SYMBOL_POO_SYM_B20_0000118
  1

  0
LINE
  5
A3
100
AcDbEntity
  8
0
370
    -3
390
0
  6
Continuous
100
AcDbLine
 10
-7.499999
 20
6.5
 30
0.0
 11
-7.499999
 21
-6.5
 31
0.0
  0
LINE
  5
A4
100
AcDbEntity
  8
0
370
    -3
390
0
  6
Continuous
100
AcDbLine
 10
-7.499998
 20
-6.499999
 30
0.0
 11
-7.999999
 21
-5.63407
 31
0.0
  0
LINE
  5
A5
100
AcDbEntity
  8
0
370
    -3
390
0
  6
Continuous
100
AcDbLine
 10
-7.499999
 20
6.5
 30
0.0
 11
-7.999999
 21
5.633876
 31
0.0
  0
LINE
  5
A6
100
AcDbEntity
  8
0
370
    -3
390
0
  6
Continuous
100
AcDbLine
 10
0.0
 20
-6.5
 30
0.0
 11
-7.499998
 21
-6.5
 31
0.0
  0
LINE
  5
A7
100
AcDbEntity
  8
0
370
    -3
390
0
  6
Continuous
100
AcDbLine
 10
0.0
 20
6.5
 30
0.0
 11
-7.499999
 21
6.5
 31
0.0
  0
LINE
  5
A8
100
AcDbEntity
  8
0
370
    -3
390
0
  6
Continuous
100
AcDbLine
 10
-7.999999
 20
5.633876
 30
0.0
 11
-7.999999
 21
-5.63407
 31
0.0
  0
LINE
  5
A9
100
AcDbEntity
  8
0
370
    -3
390
0
  6
Continuous
100
AcDbLine
 10
0.0
 20
-6.5
 30
0.0
 11
0.0
 21
6.5
 31
0.0
  0
POINT
  5
AA
100
AcDbEntity
  8
0
370
    -3
390
0
  6
Continuous
100
AcDbPoint
 10
0.0
 20
0.0
 30
0.0
  0
ENDBLK
  5
AB
100
AcDbEntity
  8
0
390
0
100
AcDbBlockEnd
  0
BLOCK
  5
105
100
AcDbEntity
  8
0
390
0
100
AcDbBlockBegin
  2
ZU_SYM__USERS_HOME_SYMBOL_POO_SYM_B20_0000218
 70
    64
 10
0.0
 20
0.0
 30
0.0
  3
ZU_SYM__USERS_HOME_SYMBOL_POO_SYM_B20_0000218
  1

  0
LINE
  5
106
100
AcDbEntity
  8
0
370
    -3
390
0
  6
Continuous
100
AcDbLine
 10
-7.499999
 20
6.5
 30
0.0
 11
-7.499999
 21
-6.5
 31
0.0
  0
LINE
  5
107
100
AcDbEntity
  8
0
370
    -3
390
0
  6
Continuous
100
AcDbLine
 10
-7.499998
 20
-6.499999
 30
0.0
 11
-7.999999
 21
-5.63407
 31
0.0
  0
LINE
  5
108
100
AcDbEntity
  8
0
370
    -3
390
0
  6
Continuous
100
AcDbLine
 10
-7.499999
 20
6.5
 30
0.0
 11
-7.999999
 21
5.633876
 31
0.0
  0
LINE
  5
109
100
AcDbEntity
  8
0
370
    -3
390
0
  6
Continuous
100
AcDbLine
 10
0.0
 20
-6.5
 30
0.0
 11
-7.499998
 21
-6.5
 31
0.0
  0
LINE
  5
10A
100
AcDbEntity
  8
0
370
    -3
390
0
  6
Continuous
100
AcDbLine
 10
0.0
 20
6.5
 30
0.0
 11
-7.499999
 21
6.5
 31
0.0
  0
LINE
  5
10B
100
AcDbEntity
  8
0
370
    -3
390
0
  6
Continuous
100
AcDbLine
 10
-7.999999
 20
5.633876
 30
0.0
 11
-7.999999
 21
-5.63407
 31
0.0
  0
LINE
  5
10C
100
AcDbEntity
  8
0
370
    -3
390
0
  6
Continuous
100
AcDbLine
 10
0.0
 20
-6.5
 30
0.0
 11
0.0
 21
6.5
 31
0.0
  0
POINT
  5
10D
100
AcDbEntity
  8
0
370
    -3
390
0
  6
Continuous
100
AcDbPoint
 10
0.0
 20
0.0
 30
0.0
  0
ENDBLK
  5
10E
100
AcDbEntity
  8
0
390
0
100
AcDbBlockEnd
  0
BLOCK
  5
111
100
AcDbEntity
  8
0
390
0
100
AcDbBlockBegin
  2
ZU_SYM__USERS_HOME_SYMBOL_POO_SYM_B20_0000318
 70
    64
 10
0.0
 20
0.0
 30
0.0
  3
ZU_SYM__USERS_HOME_SYMBOL_POO_SYM_B20_0000318
  1

  0
LINE
  5
112
100
AcDbEntity
  8
0
370
    -3
390
0
  6
Continuous
100
AcDbLine
 10
-7.499999
 20
6.5
 30
0.0
 11
-7.499999
 21
-6.5
 31
0.0
  0
LINE
  5
113
100
AcDbEntity
  8
0
370
    -3
390
0
  6
Continuous
100
AcDbLine
 10
-7.499998
 20
-6.499999
 30
0.0
 11
-7.999999
 21
-5.63407
 31
0.0
  0
LINE
  5
114
100
AcDbEntity
  8
0
370
    -3
390
0
  6
Continuous
100
AcDbLine
 10
-7.499999
 20
6.5
 30
0.0
 11
-7.999999
 21
5.633876
 31
0.0
  0
LINE
  5
115
100
AcDbEntity
  8
0
370
    -3
390
0
  6
Continuous
100
AcDbLine
 10
0.0
 20
-6.5
 30
0.0
 11
-7.499998
 21
-6.5
 31
0.0
  0
LINE
  5
116
100
AcDbEntity
  8
0
370
    -3
390
0
  6
Continuous
100
AcDbLine
 10
0.0
 20
6.5
 30
0.0
 11
-7.499999
 21
6.5
 31
0.0
  0
LINE
  5
117
100
AcDbEntity
  8
0
370
    -3
390
0
  6
Continuous
100
AcDbLine
 10
-7.999999
 20
5.633876
 30
0.0
 11
-7.999999
 21
-5.63407
 31
0.0
  0
LINE
  5
118
100
AcDbEntity
  8
0
370
    -3
390
0
  6
Continuous
100
AcDbLine
 10
0.0
 20
-6.5
 30
0.0
 11
0.0
 21
6.5
 31
0.0
  0
POINT
  5
119
100
AcDbEntity
  8
0
370
    -3
390
0
  6
Continuous
100
AcDbPoint
 10
0.0
 20
0.0
 30
0.0
  0
ENDBLK
  5
11A
100
AcDbEntity
  8
0
390
0
100
AcDbBlockEnd
  0
BLOCK
  5
120
100
AcDbEntity
  8
0
390
0
100
AcDbBlockBegin
  2
ZU_SYM__USERS_HOME_SYMBOL_POO_SYM_B20_0000418
 70
    64
 10
0.0
 20
0.0
 30
0.0
  3
ZU_SYM__USERS_HOME_SYMBOL_POO_SYM_B20_0000418
  1

  0
LINE
  5
121
100
AcDbEntity
  8
0
370
    -3
390
0
  6
Continuous
100
AcDbLine
 10
-7.499999
 20
6.5
 30
0.0
 11
-7.499999
 21
-6.5
 31
0.0
  0
LINE
  5
122
100
AcDbEntity
  8
0
370
    -3
390
0
  6
Continuous
100
AcDbLine
 10
-7.499998
 20
-6.499999
 30
0.0
 11
-7.999999
 21
-5.63407
 31
0.0
  0
LINE
  5
123
100
AcDbEntity
  8
0
370
    -3
390
0
  6
Continuous
100
AcDbLine
 10
-7.499999
 20
6.5
 30
0.0
 11
-7.999999
 21
5.633876
 31
0.0
  0
LINE
  5
124
100
AcDbEntity
  8
0
370
    -3
390
0
  6
Continuous
100
AcDbLine
 10
0.0
 20
-6.5
 30
0.0
 11
-7.499998
 21
-6.5
 31
0.0
  0
LINE
  5
125
100
AcDbEntity
  8
0
370
    -3
390
0
  6
Continuous
100
AcDbLine
 10
0.0
 20
6.5
 30
0.0
 11
-7.499999
 21
6.5
 31
0.0
  0
LINE
  5
126
100
AcDbEntity
  8
0
370
    -3
390
0
  6
Continuous
100
AcDbLine
 10
-7.999999
 20
5.633876
 30
0.0
 11
-7.999999
 21
-5.63407
 31
0.0
  0
LINE
  5
127
100
AcDbEntity
  8
0
370
    -3
390
0
  6
Continuous
100
AcDbLine
 10
0.0
 20
-6.5
 30
0.0
 11
0.0
 21
6.5
 31
0.0
  0
POINT
  5
128
100
AcDbEntity
  8
0
370
    -3
390
0
  6
Continuous
100
AcDbPoint
 10
0.0
 20
0.0
 30
0.0
  0
ENDBLK
  5
129
100
AcDbEntity
  8
0
390
0
100
AcDbBlockEnd
  0
ENDSEC
  0
SECTION
  2
ENTITIES
  0
ARC
  5
28
100
AcDbEntity
  8
0
370
    -3
390
0
  6
Continuous
100
AcDbCircle
 10
-190.208973
 20
30.101036
 30
0.0
 40
9.0
100
AcDbArc
 50
253.398469
 51
286.601548
  0
ARC
  5
29
100
AcDbEntity
  8
0
370
    -3
390
0
  6
Continuous
100
AcDbCircle
 10
-192.208973
 20
23.118538
 30
0.0
 40
1.5
100
AcDbArc
 50
147.769047
 51
180.0
  0
ARC
  5
2A
100
AcDbEntity
  8
0
370
    -3
390
0
  6
Continuous
100
AcDbCircle
 10
-188.208973
 20
23.118538
 30
0.0
 40
1.5
100
AcDbArc
 50
0.0
 51
32.230953
  0
LINE
  5
2B
100
AcDbEntity
  8
0
370
    -3
390
0
  6
Continuous
100
AcDbLine
 10
-186.708973
 20
22.722011
 30
0.0
 11
-186.708973
 21
23.118538
 31
0.0
  0
ARC
  5
2C
100
AcDbEntity
  8
0
370
    -3
390
0
  6
Continuous
100
AcDbCircle
 10
-188.008972
 20
22.722011
 30
0.0
 40
1.299999
100
AcDbArc
 50
286.601531
 51
0.0
  0
ARC
  5
2D
100
AcDbEntity
  8
0
370
    -3
390
0
  6
Continuous
100
AcDbCircle
 10
-192.408974
 20
22.722011
 30
0.0
 40
1.299999
100
AcDbArc
 50
180.0
 51
253.398469
  0
LINE
  5
2E
100
AcDbEntity
  8
0
370
    -3
390
0
  6
Continuous
100
AcDbLine
 10
-193.708973
 20
22.722011
 30
0.0
 11
-193.708973
 21
23.118538
 31
0.0
  0
LINE
  5
2F
100
AcDbEntity
  8
0
370
    -3
390
0
  6
Continuous
100
AcDbLine
 10
-457.534683
 20
-337.081462
 30
0.0
 11
-537.034683
 21
-337.081462
 31
0.0
  0
ARC
  5
30
100
AcDbEntity
  8
0
370
    -3
390
0
  6
Continuous
100
AcDbCircle
 10
-439.559089
 20
-325.018489
 30
0.0
 40
6.0
100
AcDbArc
 50
156.035454
 51
177.016
  0
ARC
  5
31
100
AcDbEntity
  8
0
370
    -3
390
0
  6
Continuous
100
AcDbCircle
 10
-457.534683
 20
-325.081462
 30
0.0
 40
12.0
100
AcDbArc
 50
270.0
 51
2.865984
  0
LINE
  5
32
100
AcDbEntity
  8
0
370
    -3
390
0
  6
Continuous
100
AcDbLine
 10
-616.534683
 20
-337.081462
 30
0.0
 11
-537.034683
 21
-337.081462
 31
0.0
  0
ARC
  5
33
100
AcDbEntity
  8
0
370
    -3
390
0
  6
Continuous
100
AcDbCircle
 10
-616.534683
 20
-325.081462
 30
0.0
 40
12.0
100
AcDbArc
 50
177.134016
 51
270.0
  0
ARC
  5
34
100
AcDbEntity
  8
0
370
    -3
390
0
  6
Continuous
100
AcDbCircle
 10
-634.510277
 20
-325.018489
 30
0.0
 40
6.0
100
AcDbArc
 50
2.984
 51
23.964546
  0
ARC
  5
35
100
AcDbEntity
  8
0
370
    -3
390
0
  6
Continuous
100
AcDbCircle
 10
488.190753
 20
-165.081462
 30
0.0
 40
70.0
100
AcDbArc
 50
90.0
 51
0.0
  0
LINE
  5
36
100
AcDbEntity
  8
0
370
    -3
390
0
  6
CENTER
100
AcDbLine
 10
519.342771
 20
-205.081462
 30
0.0
 11
459.047378
 21
-205.081462
 31
0.0
  0
LINE
  5
37
100
AcDbEntity
  8
0
370
    -3
390
0
  6
CENTER
100
AcDbLine
 10
488.190753
 20
6.730846
 30
0.0
 11
488.190753
 21
-342.42162
 31
0.0
  0
LINE
  5
38
100
AcDbEntity
  8
0
370
    -3
390
0
  6
Continuous
100
AcDbLine
 10
1.791027
 20
-319.081462
 30
0.0
 11
1.791027
 21
-205.081462
 31
0.0
  0
LINE
  5
39
100
AcDbEntity
  8
0
370
    -3
390
0
  6
Continuous
100
AcDbLine
 10
1.791027
 20
-91.081462
 30
0.0
 11
1.791027
 21
-205.081462
 31
0.0
  0
LINE
  5
3A
100
AcDbEntity
  8
0
370
    -3
390
0
  6
Continuous
100
AcDbLine
 10
-0.208973
 20
-300.081462
 30
0.0
 11
-0.208973
 21
-205.081462
 31
0.0
  0
LINE
  5
3B
100
AcDbEntity
  8
0
370
    -3
390
0
  6
Continuous
100
AcDbLine
 10
-0.208973
 20
-110.081462
 30
0.0
 11
-0.208973
 21
-205.081462
 31
0.0
  0
ARC
  5
3C
100
AcDbEntity
  8
0
370
    -3
390
0
  6
Continuous
100
AcDbCircle
 10
-0.208973
 20
-302.081462
 30
0.0
 40
2.0
100
AcDbArc
 50
0.0
 51
90.0
  0
ARC
  5
3D
100
AcDbEntity
  8
0
370
    -3
390
0
  6
Continuous
100
AcDbCircle
 10
-0.208973
 20
-108.081462
 30
0.0
 40
2.0
100
AcDbArc
 50
270.0
 51
0.0
  0
LINE
  5
3E
100
AcDbEntity
  8
0
370
    -3
390
0
  6
Continuous
100
AcDbLine
 10
-0.208973
 20
-319.081462
 30
0.0
 11
-0.208973
 21
-91.081462
 31
0.0
  0
LINE
  5
3F
100
AcDbEntity
  8
0
370
    -3
390
0
  6
CENTER
100
AcDbLine
 10
23.680656
 20
-205.081462
 30
0.0
 11
-318.861203
 21
-205.081462
 31
0.0
  0
LINE
  5
40
100
AcDbEntity
  8
0
370
    -3
390
0
  6
Continuous
100
AcDbLine
 10
-205.208973
 20
-143.610294
 30
0.0
 11
-0.208973
 21
-143.610294
 31
0.0
  0
LINE
  5
41
100
AcDbEntity
  8
0
370
    -3
390
0
  6
Continuous
100
AcDbLine
 10
-205.208973
 20
-146.564774
 30
0.0
 11
-0.208973
 21
-146.564774
 31
0.0
  0
LINE
  5
42
100
AcDbEntity
  8
0
370
    -3
390
0
  6
Continuous
100
AcDbLine
 10
-205.208973
 20
-155.59341
 30
0.0
 11
-0.208973
 21
-155.59341
 31
0.0
  0
LINE
  5
43
100
AcDbEntity
  8
0
370
    -3
390
0
  6
Continuous
100
AcDbLine
 10
-205.208973
 20
-158.508968
 30
0.0
 11
-0.208973
 21
-158.508968
 31
0.0
  0
LINE
  5
44
100
AcDbEntity
  8
0
370
    -3
390
0
  6
Continuous
100
AcDbLine
 10
-145.364427
 20
-167.762747
 30
0.0
 11
-0.208973
 21
-167.762747
 31
0.0
  0
LINE
  5
45
100
AcDbEntity
  8
0
370
    -3
390
0
  6
Continuous
100
AcDbLine
 10
-144.209859
 20
-170.367774
 30
0.0
 11
-0.208973
 21
-170.367774
 31
0.0
  0
LINE
  5
46
100
AcDbEntity
  8
0
370
    -3
390
0
  6
Continuous
100
AcDbLine
 10
-143.758973
 20
-181.081462
 30
0.0
 11
-0.208973
 21
-181.081462
 31
0.0
  0
LINE
  5
47
100
AcDbEntity
  8
0
370
    -3
390
0
  6
Continuous
100
AcDbLine
 10
-205.208973
 20
-282.997491
 30
0.0
 11
-0.208973
 21
-282.997491
 31
0.0
  0
LINE
  5
48
100
AcDbEntity
  8
0
370
    -3
390
0
  6
Continuous
100
AcDbLine
 10
-205.208973
 20
-266.55263
 30
0.0
 11
-0.208973
 21
-266.55263
 31
0.0
  0
LINE
  5
49
100
AcDbEntity
  8
0
370
    -3
390
0
  6
Continuous
100
AcDbLine
 10
-143.758973
 20
-229.081462
 30
0.0
 11
-0.208973
 21
-229.081462
 31
0.0
  0
LINE
  5
4A
100
AcDbEntity
  8
0
370
    -3
390
0
  6
Continuous
100
AcDbLine
 10
-143.758973
 20
-242.400176
 30
0.0
 11
-0.208973
 21
-242.400176
 31
0.0
  0
LINE
  5
4B
100
AcDbEntity
  8
0
370
    -3
390
0
  6
Continuous
100
AcDbLine
 10
-143.758973
 20
-239.795149
 30
0.0
 11
-0.208973
 21
-239.795149
 31
0.0
  0
LINE
  5
4C
100
AcDbEntity
  8
0
370
    -3
390
0
  6
Continuous
100
AcDbLine
 10
-143.758973
 20
-251.653955
 30
0.0
 11
-0.208973
 21
-251.653955
 31
0.0
  0
LINE
  5
4D
100
AcDbEntity
  8
0
370
    -3
390
0
  6
Continuous
100
AcDbLine
 10
-147.789748
 20
-263.598149
 30
0.0
 11
-0.208973
 21
-263.598149
 31
0.0
  0
LINE
  5
4E
100
AcDbEntity
  8
0
370
    -3
390
0
  6
Continuous
100
AcDbLine
 10
-143.758973
 20
-254.569513
 30
0.0
 11
-0.208973
 21
-254.569513
 31
0.0
  0
LINE
  5
4F
100
AcDbEntity
  8
0
370
    -3
390
0
  6
Continuous
100
AcDbLine
 10
-205.208973
 20
-91.081462
 30
0.0
 11
-0.208973
 21
-91.081462
 31
0.0
  0
LINE
  5
50
100
AcDbEntity
  8
0
370
    -3
390
0
  6
Continuous
100
AcDbLine
 10
-205.208973
 20
-96.081462
 30
0.0
 11
-0.208973
 21
-96.081462
 31
0.0
  0
LINE
  5
51
100
AcDbEntity
  8
0
370
    -3
390
0
  6
Continuous
100
AcDbLine
 10
-205.208973
 20
-95.081462
 30
0.0
 11
-0.208973
 21
-95.081462
 31
0.0
  0
LINE
  5
52
100
AcDbEntity
  8
0
370
    -3
390
0
  6
Continuous
100
AcDbLine
 10
-205.208973
 20
-99.581462
 30
0.0
 11
-0.208973
 21
-99.581462
 31
0.0
  0
LINE
  5
53
100
AcDbEntity
  8
0
370
    -3
390
0
  6
Continuous
100
AcDbLine
 10
-205.208973
 20
-105.081462
 30
0.0
 11
-0.208973
 21
-105.081462
 31
0.0
  0
LINE
  5
54
100
AcDbEntity
  8
0
370
    -3
390
0
  6
Continuous
100
AcDbLine
 10
-205.208973
 20
-117.973044
 30
0.0
 11
-0.208973
 21
-117.973044
 31
0.0
  0
LINE
  5
55
100
AcDbEntity
  8
0
370
    -3
390
0
  6
Continuous
100
AcDbLine
 10
-205.208973
 20
-127.165432
 30
0.0
 11
-0.208973
 21
-127.165432
 31
0.0
  0
LINE
  5
56
100
AcDbEntity
  8
0
370
    -3
390
0
  6
Continuous
100
AcDbLine
 10
-245.208973
 20
-113.22829
 30
0.0
 11
-243.208973
 21
-111.932757
 31
0.0
  0
LINE
  5
57
100
AcDbEntity
  8
0
370
    -3
390
0
  6
Continuous
100
AcDbLine
 10
-245.208973
 20
-113.22829
 30
0.0
 11
-243.208973
 21
-114.761184
 31
0.0
  0
LINE
  5
58
100
AcDbEntity
  8
0
370
    -3
390
0
  6
Continuous
100
AcDbLine
 10
-245.208973
 20
-113.22829
 30
0.0
 11
-247.208973
 21
-114.761184
 31
0.0
  0
LINE
  5
59
100
AcDbEntity
  8
0
370
    -3
390
0
  6
Continuous
100
AcDbLine
 10
-245.208973
 20
-113.22829
 30
0.0
 11
-247.208973
 21
-111.932757
 31
0.0
  0
ELLIPSE
  5
5A
100
AcDbEntity
  8
0
370
    -3
390
0
  6
Continuous
100
AcDbEllipse
 10
-245.208973
 20
-116.230982
 30
0.0
 11
6.0
 21
0.0
 31
0.0
210
0.0
220
0.0
230
1.0
 40
0.689848
 41
3.1415926535897931
 42
0.0
  0
ELLIPSE
  5
5B
100
AcDbEntity
  8
0
370
    -3
390
0
  6
Continuous
100
AcDbEllipse
 10
-245.208973
 20
-116.230982
 30
0.0
 11
6.0
 21
0.0
 31
0.0
210
0.0
220
0.0
230
1.0
 40
0.689848
 41
0.0
 42
0.8313376885249334
  0
ELLIPSE
  5
5C
100
AcDbEntity
  8
0
370
    -3
390
0
  6
Continuous
100
AcDbEllipse
 10
-245.208973
 20
-114.872231
 30
0.0
 11
4.5
 21
0.0
 31
0.0
210
0.0
220
0.0
230
1.0
 40
0.860332
 41
0.0
 42
6.2831853071795862
  0
ELLIPSE
  5
5D
100
AcDbEntity
  8
0
370
    -3
390
0
  6
Continuous
100
AcDbEllipse
 10
-245.208973
 20
-115.844586
 30
0.0
 11
5.0
 21
0.0
 31
0.0
210
0.0
220
0.0
230
1.0
 40
0.763675
 41
3.1415926535897931
 42
0.0
  0
ELLIPSE
  5
5E
100
AcDbEntity
  8
0
370
    -3
390
0
  6
Continuous
100
AcDbEllipse
 10
-245.208973
 20
-115.561743
 30
0.0
 11
5.0
 21
0.0
 31
0.0
210
0.0
220
0.0
230
1.0
 40
0.707107
 41
2.6124407455910408
 42
0.5291519079987521
  0
LINE
  5
5F
100
AcDbEntity
  8
0
370
    -3
390
0
  6
Continuous
100
AcDbLine
 10
-240.208973
 20
-115.844586
 30
0.0
 11
-240.208973
 21
-115.561743
 31
0.0
  0
LINE
  5
60
100
AcDbEntity
  8
0
370
    -3
390
0
  6
Continuous
100
AcDbLine
 10
-250.208973
 20
-115.844586
 30
0.0
 11
-250.208973
 21
-115.561743
 31
0.0
  0
ELLIPSE
  5
61
100
AcDbEntity
  8
0
370
    -3
390
0
  6
Continuous
100
AcDbEllipse
 10
-245.208973
 20
-117.517079
 30
0.0
 11
6.0
 21
0.0
 31
0.0
210
0.0
220
0.0
230
1.0
 40
0.707107
 41
3.1415926535897931
 42
0.0
  0
ELLIPSE
  5
62
100
AcDbEntity
  8
0
370
    -3
390
0
  6
Continuous
100
AcDbEllipse
 10
-245.208973
 20
-116.230982
 30
0.0
 11
6.0
 21
0.0
 31
0.0
210
0.0
220
0.0
230
1.0
 40
0.689848
 41
2.3102549650648596
 42
3.1415926535897931
  0
LINE
  5
63
100
AcDbEntity
  8
0
370
    -3
390
0
  6
Continuous
100
AcDbLine
 10
-239.208973
 20
-117.517079
 30
0.0
 11
-239.208973
 21
-116.230982
 31
0.0
  0
LINE
  5
64
100
AcDbEntity
  8
0
370
    -3
390
0
  6
Continuous
100
AcDbLine
 10
-251.208973
 20
-117.517079
 30
0.0
 11
-251.208973
 21
-116.230982
 31
0.0
  0
ARC
  5
65
100
AcDbEntity
  8
0
370
    -3
390
0
  6
Continuous
100
AcDbCircle
 10
-294.008973
 20
-110.513592
 30
0.0
 40
6.2
100
AcDbArc
 50
120.0
 51
180.0
  0
LINE
  5
66
100
AcDbEntity
  8
0
370
    -3
390
0
  6
Continuous
100
AcDbLine
 10
-297.108973
 20
-105.144235
 30
0.0
 11
-281.410483
 21
-96.080707
 31
0.0
  0
ARC
  5
67
100
AcDbEntity
  8
0
370
    -3
390
0
  6
Continuous
100
AcDbCircle
 10
-250.810483
 20
-149.081462
 30
0.0
 40
61.2
100
AcDbArc
 50
90.0
 51
120.0
  0
LINE
  5
68
100
AcDbEntity
  8
0
370
    -3
390
0
  6
Continuous
100
AcDbLine
 10
-205.208973
 20
-87.881462
 30
0.0
 11
-250.810483
 21
-87.881462
 31
0.0
  0
LINE
  5
69
100
AcDbEntity
  8
0
370
    -3
390
0
  6
Continuous
100
AcDbLine
 10
-205.208973
 20
-162.484854
 30
0.0
 11
-205.208973
 21
-87.881462
 31
0.0
  0
LINE
  5
6A
100
AcDbEntity
  8
0
370
    -3
390
0
  6
Continuous
100
AcDbLine
 10
-300.208973
 20
-299.649331
 30
0.0
 11
-300.208973
 21
-110.513592
 31
0.0
  0
LINE
  5
6B
100
AcDbEntity
  8
0
370
    -3
390
0
  6
Continuous
100
AcDbLine
 10
-205.208973
 20
-319.081462
 30
0.0
 11
-0.208973
 21
-319.081462
 31
0.0
  0
LINE
  5
6C
100
AcDbEntity
  8
0
370
    -3
390
0
  6
Continuous
100
AcDbLine
 10
-205.208973
 20
-314.081462
 30
0.0
 11
-0.208973
 21
-314.081462
 31
0.0
  0
LINE
  5
6D
100
AcDbEntity
  8
0
370
    -3
390
0
  6
Continuous
100
AcDbLine
 10
-205.208973
 20
-315.081462
 30
0.0
 11
-0.208973
 21
-315.081462
 31
0.0
  0
LINE
  5
6E
100
AcDbEntity
  8
0
370
    -3
390
0
  6
Continuous
100
AcDbLine
 10
-205.208973
 20
-310.581462
 30
0.0
 11
-0.208973
 21
-310.581462
 31
0.0
  0
LINE
  5
6F
100
AcDbEntity
  8
0
370
    -3
390
0
  6
Continuous
100
AcDbLine
 10
-205.208973
 20
-305.081462
 30
0.0
 11
-0.208973
 21
-305.081462
 31
0.0
  0
LINE
  5
70
100
AcDbEntity
  8
0
370
    -3
390
0
  6
Continuous
100
AcDbLine
 10
-205.208973
 20
-292.189879
 30
0.0
 11
-0.208973
 21
-292.189879
 31
0.0
  0
LINE
  5
71
100
AcDbEntity
  8
0
370
    -3
390
0
  6
Continuous
100
AcDbLine
 10
-245.208973
 20
-296.934633
 30
0.0
 11
-243.208973
 21
-298.230166
 31
0.0
  0
LINE
  5
72
100
AcDbEntity
  8
0
370
    -3
390
0
  6
Continuous
100
AcDbLine
 10
-245.208973
 20
-296.934633
 30
0.0
 11
-243.208973
 21
-295.401739
 31
0.0
  0
LINE
  5
73
100
AcDbEntity
  8
0
370
    -3
390
0
  6
Continuous
100
AcDbLine
 10
-245.208973
 20
-296.934633
 30
0.0
 11
-247.208973
 21
-295.401739
 31
0.0
  0
LINE
  5
74
100
AcDbEntity
  8
0
370
    -3
390
0
  6
Continuous
100
AcDbLine
 10
-245.208973
 20
-296.934633
 30
0.0
 11
-247.208973
 21
-298.230166
 31
0.0
  0
ELLIPSE
  5
75
100
AcDbEntity
  8
0
370
    -3
390
0
  6
Continuous
100
AcDbEllipse
 10
-245.208973
 20
-293.931941
 30
0.0
 11
6.0
 21
0.0
 31
0.0
210
0.0
220
0.0
230
1.0
 40
0.689848
 41
0.0
 42
3.1415926535897931
  0
ELLIPSE
  5
76
100
AcDbEntity
  8
0
370
    -3
390
0
  6
Continuous
100
AcDbEllipse
 10
-245.208973
 20
-293.931941
 30
0.0
 11
6.0
 21
0.0
 31
0.0
210
0.0
220
0.0
230
1.0
 40
0.689848
 41
5.4518476186546492
 42
0.0
  0
ELLIPSE
  5
77
100
AcDbEntity
  8
0
370
    -3
390
0
  6
Continuous
100
AcDbEllipse
 10
-245.208973
 20
-295.290692
 30
0.0
 11
4.5
 21
0.0
 31
0.0
210
0.0
220
0.0
230
1.0
 40
0.860332
 41
0.0
 42
6.2831853071795862
  0
ELLIPSE
  5
78
100
AcDbEntity
  8
0
370
    -3
390
0
  6
Continuous
100
AcDbEllipse
 10
-245.208973
 20
-294.318337
 30
0.0
 11
5.0
 21
0.0
 31
0.0
210
0.0
220
0.0
230
1.0
 40
0.763675
 41
0.0
 42
3.1415926535897931
  0
ELLIPSE
  5
79
100
AcDbEntity
  8
0
370
    -3
390
0
  6
Continuous
100
AcDbEllipse
 10
-245.208973
 20
-294.60118
 30
0.0
 11
5.0
 21
0.0
 31
0.0
210
0.0
220
0.0
230
1.0
 40
0.707107
 41
5.7540333991808303
 42
3.670744561588549
  0
LINE
  5
7A
100
AcDbEntity
  8
0
370
    -3
390
0
  6
Continuous
100
AcDbLine
 10
-240.208973
 20
-294.318337
 30
0.0
 11
-240.208973
 21
-294.60118
 31
0.0
  0
LINE
  5
7B
100
AcDbEntity
  8
0
370
    -3
390
0
  6
Continuous
100
AcDbLine
 10
-250.208973
 20
-294.318337
 30
0.0
 11
-250.208973
 21
-294.60118
 31
0.0
  0
ELLIPSE
  5
7C
100
AcDbEntity
  8
0
370
    -3
390
0
  6
Continuous
100
AcDbEllipse
 10
-245.208973
 20
-292.645844
 30
0.0
 11
6.0
 21
0.0
 31
0.0
210
0.0
220
0.0
230
1.0
 40
0.707107
 41
0.0
 42
3.1415926535897931
  0
ELLIPSE
  5
7D
100
AcDbEntity
  8
0
370
    -3
390
0
  6
Continuous
100
AcDbEllipse
 10
-245.208973
 20
-293.931941
 30
0.0
 11
6.0
 21
0.0
 31
0.0
210
0.0
220
0.0
230
1.0
 40
0.689848
 41
3.1415926535897931
 42
3.9729303421147302
  0
LINE
  5
7E
100
AcDbEntity
  8
0
370
    -3
390
0
  6
Continuous
100
AcDbLine
 10
-239.208973
 20
-292.645844
 30
0.0
 11
-239.208973
 21
-293.931941
 31
0.0
  0
LINE
  5
7F
100
AcDbEntity
  8
0
370
    -3
390
0
  6
Continuous
100
AcDbLine
 10
-251.208973
 20
-292.645844
 30
0.0
 11
-251.208973
 21
-293.931941
 31
0.0
  0
LINE
  5
80
100
AcDbEntity
  8
0
370
    -3
390
0
  6
Continuous
100
AcDbLine
 10
-205.208973
 20
-266.087573
 30
0.0
 11
-205.208973
 21
-322.281462
 31
0.0
  0
LINE
  5
81
100
AcDbEntity
  8
0
370
    -3
390
0
  6
Continuous
100
AcDbLine
 10
-205.208973
 20
-322.281462
 30
0.0
 11
-250.810483
 21
-322.281462
 31
0.0
  0
ARC
  5
82
100
AcDbEntity
  8
0
370
    -3
390
0
  6
Continuous
100
AcDbCircle
 10
-250.810483
 20
-261.081462
 30
0.0
 40
61.2
100
AcDbArc
 50
240.0
 51
270.0
  0
ARC
  5
83
100
AcDbEntity
  8
0
370
    -3
390
0
  6
Continuous
100
AcDbCircle
 10
-294.008973
 20
-299.649331
 30
0.0
 40
6.2
100
AcDbArc
 50
180.0
 51
240.0
  0
LINE
  5
84
100
AcDbEntity
  8
0
370
    -3
390
0
  6
Continuous
100
AcDbLine
 10
-297.108973
 20
-305.018688
 30
0.0
 11
-281.410483
 21
-314.082216
 31
0.0
  0
LINE
  5
85
100
AcDbEntity
  8
0
370
    -3
390
0
  6
CENTER
100
AcDbLine
 10
365.947859
 20
-205.081462
 30
0.0
 11
314.881866
 21
-205.081462
 31
0.0
  0
INSERT
  5
91
100
AcDbEntity
  8
0
390
0
100
AcDbBlockReference
  2
ZU_SYM__USERS_HOME_SYMBOL_POO_SYM_B20_18
 10
22.291027
 20
-70.081462
 30
0.0
  0
LINE
  5
92
100
AcDbEntity
  8
0
370
    -3
390
0
  6
Continuous
100
AcDbLine
 10
22.291027
 20
-80.081462
 30
0.0
 11
26.791027
 21
-80.081462
 31
0.0
  0
LINE
  5
93
100
AcDbEntity
  8
0
370
    -3
390
0
  6
CENTER
100
AcDbLine
 10
16.560779
 20
-42.081462
 30
0.0
 11
34.660045
 21
-42.081462
 31
0.0
  0
LINE
  5
94
100
AcDbEntity
  8
0
370
    -3
390
0
  6
Continuous
100
AcDbLine
 10
26.791027
 20
-22.081462
 30
0.0
 11
26.791027
 21
-80.081462
 31
0.0
  0
LINE
  5
95
100
AcDbEntity
  8
0
370
    -3
390
0
  6
Continuous
100
AcDbLine
 10
22.291027
 20
-22.081462
 30
0.0
 11
26.791027
 21
-22.081462
 31
0.0
  0
LINE
  5
96
100
AcDbEntity
  8
0
370
    -3
390
0
  6
Continuous
100
AcDbLine
 10
22.291027
 20
-80.081462
 30
0.0
 11
22.291027
 21
-22.081462
 31
0.0
  0
ARC
  5
97
100
AcDbEntity
  8
0
370
    -3
390
0
  6
Continuous
100
AcDbCircle
 10
33.791027
 20
-84.397551
 30
0.0
 40
5.0
100
AcDbArc
 50
273.0
 51
0.0
  0
ARC
  5
98
100
AcDbEntity
  8
0
370
    -3
390
0
  6
Continuous
100
AcDbCircle
 10
28.791027
 20
-62.081462
 30
0.0
 40
2.0
100
AcDbArc
 50
90.0
 51
180.0
  0
ARC
  5
99
100
AcDbEntity
  8
0
370
    -3
390
0
  6
Continuous
100
AcDbCircle
 10
23.791027
 20
-86.924373
 30
0.0
 40
3.0
100
AcDbArc
 50
273.0
 51
0.0
  0
ARC
  5
9A
100
AcDbEntity
  8
0
370
    -3
390
0
  6
Continuous
100
AcDbCircle
 10
40.791027
 20
-62.081462
 30
0.0
 40
2.0
100
AcDbArc
 50
90.0
 51
180.0
  0
LINE
  5
9B
100
AcDbEntity
  8
0
370
    -3
390
0
  6
Continuous
100
AcDbLine
 10
26.791027
 20
-86.924373
 30
0.0
 11
26.791027
 21
-62.081462
 31
0.0
  0
LINE
  5
9C
100
AcDbEntity
  8
0
370
    -3
390
0
  6
Continuous
100
AcDbLine
 10
49.791027
 20
-205.081462
 30
0.0
 11
49.791027
 21
-60.081462
 31
0.0
  0
LINE
  5
9D
100
AcDbEntity
  8
0
370
    -3
390
0
  6
Continuous
100
AcDbLine
 10
28.791027
 20
-60.081462
 30
0.0
 11
49.791027
 21
-60.081462
 31
0.0
  0
LINE
  5
9E
100
AcDbEntity
  8
0
370
    -3
390
0
  6
Continuous
100
AcDbLine
 10
38.791027
 20
-205.081462
 30
0.0
 11
38.791027
 21
-62.081462
 31
0.0
  0
LINE
  5
9F
100
AcDbEntity
  8
0
370
    -3
390
0
  6
Continuous
100
AcDbLine
 10
34.052707
 20
-89.390699
 30
0.0
 11
1.791027
 21
-91.081462
 31
0.0
  0
LINE
  5
A0
100
AcDbEntity
  8
0
370
    -3
390
0
  6
CENTER
100
AcDbLine
 10
6.799383
 20
-70.081462
 30
0.0
 11
33.114043
 21
-70.081462
 31
0.0
  0
INSERT
  5
AC
100
AcDbEntity
  8
0
390
0
100
AcDbBlockReference
  2
ZU_SYM__USERS_HOME_SYMBOL_POO_SYM_B20_0000118
 10
38.791027
 20
-74.081462
 30
0.0
  0
LINE
  5
AD
100
AcDbEntity
  8
0
370
    -3
390
0
  6
Continuous
100
AcDbLine
 10
156.004211
 20
-56.372415
 30
0.0
 11
50.290722
 21
-60.064012
 31
0.0
  0
LINE
  5
AE
100
AcDbEntity
  8
0
370
    -3
390
0
  6
Continuous
100
AcDbLine
 10
50.291027
 20
-333.081462
 30
0.0
 11
50.291027
 21
-60.064001
 31
0.0
  0
LINE
  5
AF
100
AcDbEntity
  8
0
370
    -3
390
0
  6
Continuous
100
AcDbLine
 10
186.291027
 20
-78.176628
 30
0.0
 11
181.291027
 21
-78.176628
 31
0.0
  0
LINE
  5
B0
100
AcDbEntity
  8
0
370
    -3
390
0
  6
Continuous
100
AcDbLine
 10
186.291027
 20
-42.936801
 30
0.0
 11
181.291027
 21
-42.936801
 31
0.0
  0
ARC
  5
B1
100
AcDbEntity
  8
0
370
    -3
390
0
  6
Continuous
100
AcDbCircle
 10
181.291027
 20
-44.936801
 30
0.0
 40
2.0
100
AcDbArc
 50
90.0
 51
180.0
  0
LINE
  5
B2
100
AcDbEntity
  8
0
370
    -3
390
0
  6
Continuous
100
AcDbLine
 10
179.291027
 20
-158.081462
 30
0.0
 11
179.291027
 21
-44.936801
 31
0.0
  0
ARC
  5
B3
100
AcDbEntity
  8
0
370
    -3
390
0
  6
Continuous
100
AcDbCircle
 10
181.291027
 20
-80.176628
 30
0.0
 40
2.0
100
AcDbArc
 50
90.0
 51
180.0
  0
LINE
  5
B4
100
AcDbEntity
  8
0
370
    -3
390
0
  6
CENTER
100
AcDbLine
 10
193.967183
 20
-30.731173
 30
0.0
 11
160.655149
 21
-30.731173
 31
0.0
  0
LINE
  5
B5
100
AcDbEntity
  8
0
370
    -3
390
0
  6
Continuous
100
AcDbLine
 10
166.291027
 20
-319.581462
 30
0.0
 11
166.291027
 21
-10.581462
 31
0.0
  0
ARC
  5
B6
100
AcDbEntity
  8
0
370
    -3
390
0
  6
Continuous
100
AcDbCircle
 10
188.791027
 20
-99.826284
 30
0.0
 40
5.0
100
AcDbArc
 50
0.0
 51
72.542397
  0
LINE
  5
B7
100
AcDbEntity
  8
0
370
    -3
390
0
  6
Continuous
100
AcDbLine
 10
190.291027
 20
-165.081462
 30
0.0
 11
190.291027
 21
-21.081462
 31
0.0
  0
LINE
  5
B8
100
AcDbEntity
  8
0
370
    -3
390
0
  6
Continuous
100
AcDbLine
 10
193.791027
 20
-165.081462
 30
0.0
 11
193.791027
 21
-99.826284
 31
0.0
  0
LINE
  5
B9
100
AcDbEntity
  8
0
370
    -3
390
0
  6
Continuous
100
AcDbLine
 10
186.291027
 20
-165.081462
 30
0.0
 11
186.291027
 21
-7.581462
 31
0.0
  0
ARC
  5
BA
100
AcDbEntity
  8
0
370
    -3
390
0
  6
Continuous
100
AcDbCircle
 10
194.791027
 20
-120.081462
 30
0.0
 40
1.0
100
AcDbArc
 50
180.0
 51
270.0
  0
ARC
  5
BB
100
AcDbEntity
  8
0
370
    -3
390
0
  6
Continuous
100
AcDbCircle
 10
169.291027
 20
-10.581462
 30
0.0
 40
3.0
100
AcDbArc
 50
90.0
 51
180.0
  0
ARC
  5
BC
100
AcDbEntity
  8
0
370
    -3
390
0
  6
Continuous
100
AcDbCircle
 10
161.291027
 20
-17.992944
 30
0.0
 40
5.0
100
AcDbArc
 50
315.0
 51
0.0
  0
ARC
  5
BD
100
AcDbEntity
  8
0
370
    -3
390
0
  6
Continuous
100
AcDbCircle
 10
126.898199
 20
-52.385772
 30
0.0
 40
5.0
100
AcDbArc
 50
272.0
 51
315.0
  0
LINE
  5
BE
100
AcDbEntity
  8
0
370
    -3
390
0
  6
Continuous
100
AcDbLine
 10
186.291027
 20
-7.581462
 30
0.0
 11
169.291027
 21
-7.581462
 31
0.0
  0
LINE
  5
BF
100
AcDbEntity
  8
0
370
    -3
390
0
  6
Continuous
100
AcDbLine
 10
189.291027
 20
-20.081462
 30
0.0
 11
186.291027
 21
-20.081462
 31
0.0
  0
LINE
  5
C0
100
AcDbEntity
  8
0
370
    -3
390
0
  6
Continuous
100
AcDbLine
 10
190.291027
 20
-21.081462
 30
0.0
 11
189.291027
 21
-20.081462
 31
0.0
  0
LINE
  5
C1
100
AcDbEntity
  8
0
370
    -3
390
0
  6
Continuous
100
AcDbLine
 10
164.826561
 20
-21.528478
 30
0.0
 11
130.433733
 21
-55.921306
 31
0.0
  0
LINE
  5
C2
100
AcDbEntity
  8
0
370
    -3
390
0
  6
Continuous
100
AcDbLine
 10
161.596347
 20
-80.62823
 30
0.0
 11
133.752837
 21
-80.62823
 31
0.0
  0
ARC
  5
C3
100
AcDbEntity
  8
0
370
    -3
390
0
  6
Continuous
100
AcDbCircle
 10
127.452621
 20
-70.427109
 30
0.0
 40
5.0
100
AcDbArc
 50
270.0
 51
305.248603
  0
LINE
  5
C4
100
AcDbEntity
  8
0
370
    -3
390
0
  6
Continuous
100
AcDbLine
 10
164.176653
 20
-50.597003
 30
0.0
 11
130.338247
 21
-74.510387
 31
0.0
  0
ARC
  5
C5
100
AcDbEntity
  8
0
370
    -3
390
0
  6
Continuous
100
AcDbCircle
 10
127.452621
 20
-75.62823
 30
0.0
 40
5.0
100
AcDbArc
 50
270.0
 51
305.248603
  0
LINE
  5
C6
100
AcDbEntity
  8
0
370
    -3
390
0
  6
Continuous
100
AcDbLine
 10
164.176653
 20
-55.798124
 30
0.0
 11
130.338247
 21
-79.711508
 31
0.0
  0
ARC
  5
C7
100
AcDbEntity
  8
0
370
    -3
390
0
  6
Continuous
100
AcDbCircle
 10
161.291027
 20
-46.513725
 30
0.0
 40
5.0
100
AcDbArc
 50
305.248603
 51
0.0
  0
ARC
  5
C8
100
AcDbEntity
  8
0
370
    -3
390
0
  6
Continuous
100
AcDbCircle
 10
161.291027
 20
-51.714846
 30
0.0
 40
5.0
100
AcDbArc
 50
305.248603
 51
0.0
  0
ARC
  5
C9
100
AcDbEntity
  8
0
370
    -3
390
0
  6
Continuous
100
AcDbCircle
 10
209.790619
 20
-165.112694
 30
0.0
 40
7.0
100
AcDbArc
 50
90.0
 51
270.0
  0
LINE
  5
CA
100
AcDbEntity
  8
0
370
    -3
390
0
  6
Continuous
100
AcDbLine
 10
272.791027
 20
-158.112694
 30
0.0
 11
209.790619
 21
-158.112694
 31
0.0
  0
LINE
  5
CB
100
AcDbEntity
  8
0
370
    -3
390
0
  6
Continuous
100
AcDbLine
 10
272.791027
 20
-172.112694
 30
0.0
 11
209.790619
 21
-172.112694
 31
0.0
  0
LINE
  5
CC
100
AcDbEntity
  8
0
370
    -3
390
0
  6
Continuous
100
AcDbLine
 10
272.791027
 20
-165.081462
 30
0.0
 11
272.791027
 21
-141.481462
 31
0.0
  0
ARC
  5
CD
100
AcDbEntity
  8
0
370
    -3
390
0
  6
Continuous
100
AcDbCircle
 10
272.391027
 20
-141.481462
 30
0.0
 40
0.4
100
AcDbArc
 50
0.0
 51
90.0
  0
LINE
  5
CE
100
AcDbEntity
  8
0
370
    -3
390
0
  6
Continuous
100
AcDbLine
 10
272.391027
 20
-141.081462
 30
0.0
 11
200.350834
 21
-141.081462
 31
0.0
  0
ARC
  5
CF
100
AcDbEntity
  8
0
370
    -3
390
0
  6
Continuous
100
AcDbCircle
 10
272.391027
 20
-188.681462
 30
0.0
 40
0.4
100
AcDbArc
 50
270.0
 51
0.0
  0
LINE
  5
D0
100
AcDbEntity
  8
0
370
    -3
390
0
  6
Continuous
100
AcDbLine
 10
272.791027
 20
-165.081462
 30
0.0
 11
272.791027
 21
-188.681462
 31
0.0
  0
LINE
  5
D1
100
AcDbEntity
  8
0
370
    -3
390
0
  6
Continuous
100
AcDbLine
 10
272.391027
 20
-189.081462
 30
0.0
 11
200.350834
 21
-189.081462
 31
0.0
  0
LINE
  5
D2
100
AcDbEntity
  8
0
370
    -3
390
0
  6
Continuous
100
AcDbLine
 10
197.591027
 20
-140.081462
 30
0.0
 11
195.791027
 21
-140.081462
 31
0.0
  0
LINE
  5
D3
100
AcDbEntity
  8
0
370
    -3
390
0
  6
Continuous
100
AcDbLine
 10
197.591027
 20
-190.081462
 30
0.0
 11
195.791027
 21
-190.081462
 31
0.0
  0
LINE
  5
D4
100
AcDbEntity
  8
0
370
    -3
390
0
  6
Continuous
100
AcDbLine
 10
197.791027
 20
-189.881462
 30
0.0
 11
197.591027
 21
-190.081462
 31
0.0
  0
ARC
  5
D5
100
AcDbEntity
  8
0
370
    -3
390
0
  6
Continuous
100
AcDbCircle
 10
198.591027
 20
-189.731462
 30
0.0
 40
0.8
100
AcDbArc
 50
90.0
 51
180.0
  0
LINE
  5
D6
100
AcDbEntity
  8
0
370
    -3
390
0
  6
Continuous
100
AcDbLine
 10
197.791027
 20
-189.731462
 30
0.0
 11
197.791027
 21
-189.881462
 31
0.0
  0
LINE
  5
D7
100
AcDbEntity
  8
0
370
    -3
390
0
  6
Continuous
100
AcDbLine
 10
199.791027
 20
-188.931462
 30
0.0
 11
198.591027
 21
-188.931462
 31
0.0
  0
LINE
  5
D8
100
AcDbEntity
  8
0
370
    -3
390
0
  6
Continuous
100
AcDbLine
 10
199.791027
 20
-188.931462
 30
0.0
 11
200.350834
 21
-189.081462
 31
0.0
  0
LINE
  5
D9
100
AcDbEntity
  8
0
370
    -3
390
0
  6
Continuous
100
AcDbLine
 10
197.791027
 20
-165.081462
 30
0.0
 11
197.791027
 21
-189.731462
 31
0.0
  0
LINE
  5
DA
100
AcDbEntity
  8
0
370
    -3
390
0
  6
Continuous
100
AcDbLine
 10
197.791027
 20
-140.281462
 30
0.0
 11
197.591027
 21
-140.081462
 31
0.0
  0
ARC
  5
DB
100
AcDbEntity
  8
0
370
    -3
390
0
  6
Continuous
100
AcDbCircle
 10
198.591027
 20
-140.431462
 30
0.0
 40
0.8
100
AcDbArc
 50
180.0
 51
270.0
  0
LINE
  5
DC
100
AcDbEntity
  8
0
370
    -3
390
0
  6
Continuous
100
AcDbLine
 10
197.791027
 20
-140.431462
 30
0.0
 11
197.791027
 21
-140.281462
 31
0.0
  0
LINE
  5
DD
100
AcDbEntity
  8
0
370
    -3
390
0
  6
Continuous
100
AcDbLine
 10
199.791027
 20
-141.231462
 30
0.0
 11
198.591027
 21
-141.231462
 31
0.0
  0
LINE
  5
DE
100
AcDbEntity
  8
0
370
    -3
390
0
  6
Continuous
100
AcDbLine
 10
199.791027
 20
-141.231462
 30
0.0
 11
200.350834
 21
-141.081462
 31
0.0
  0
LINE
  5
DF
100
AcDbEntity
  8
0
370
    -3
390
0
  6
Continuous
100
AcDbLine
 10
197.791027
 20
-165.081462
 30
0.0
 11
197.791027
 21
-140.431462
 31
0.0
  0
LINE
  5
E0
100
AcDbEntity
  8
0
370
    -3
390
0
  6
Continuous
100
AcDbLine
 10
186.291027
 20
-170.081462
 30
0.0
 11
181.291027
 21
-170.081462
 31
0.0
  0
LINE
  5
E1
100
AcDbEntity
  8
0
370
    -3
390
0
  6
Continuous
100
AcDbLine
 10
179.291027
 20
-172.081462
 30
0.0
 11
179.291027
 21
-285.226122
 31
0.0
  0
ARC
  5
E2
100
AcDbEntity
  8
0
370
    -3
390
0
  6
Continuous
100
AcDbCircle
 10
181.291027
 20
-172.081462
 30
0.0
 40
2.0
100
AcDbArc
 50
90.0
 51
180.0
  0
LINE
  5
E3
100
AcDbEntity
  8
0
370
    -3
390
0
  6
Continuous
100
AcDbLine
 10
186.291027
 20
-160.081462
 30
0.0
 11
181.291027
 21
-160.081462
 31
0.0
  0
ARC
  5
E4
100
AcDbEntity
  8
0
370
    -3
390
0
  6
Continuous
100
AcDbCircle
 10
181.291027
 20
-158.081462
 30
0.0
 40
2.0
100
AcDbArc
 50
180.0
 51
270.0
  0
LINE
  5
E5
100
AcDbEntity
  8
0
370
    -3
390
0
  6
CENTER
100
AcDbLine
 10
278.812764
 20
-165.081462
 30
0.0
 11
135.426182
 21
-165.081462
 31
0.0
  0
LINE
  5
E6
100
AcDbEntity
  8
0
370
    -3
390
0
  6
Continuous
100
AcDbLine
 10
186.291027
 20
-165.081462
 30
0.0
 11
186.291027
 21
-322.581462
 31
0.0
  0
LINE
  5
E7
100
AcDbEntity
  8
0
370
    -3
390
0
  6
Continuous
100
AcDbLine
 10
190.291027
 20
-165.081462
 30
0.0
 11
190.291027
 21
-309.081462
 31
0.0
  0
LINE
  5
E8
100
AcDbEntity
  8
0
370
    -3
390
0
  6
Continuous
100
AcDbLine
 10
193.791027
 20
-165.081462
 30
0.0
 11
193.791027
 21
-230.081462
 31
0.0
  0
ARC
  5
E9
100
AcDbEntity
  8
0
370
    -3
390
0
  6
Continuous
100
AcDbCircle
 10
194.791027
 20
-210.081462
 30
0.0
 40
1.0
100
AcDbArc
 50
90.0
 51
180.0
  0
LINE
  5
EA
100
AcDbEntity
  8
0
370
    -3
390
0
  6
Continuous
100
AcDbLine
 10
195.791027
 20
-209.081462
 30
0.0
 11
195.791027
 21
-121.081462
 31
0.0
  0
LINE
  5
EB
100
AcDbEntity
  8
0
370
    -3
390
0
  6
Continuous
100
AcDbLine
 10
194.791027
 20
-121.081462
 30
0.0
 11
195.791027
 21
-121.081462
 31
0.0
  0
LINE
  5
EC
100
AcDbEntity
  8
0
370
    -3
390
0
  6
Continuous
100
AcDbLine
 10
194.791027
 20
-209.081462
 30
0.0
 11
195.791027
 21
-209.081462
 31
0.0
  0
LINE
  5
ED
100
AcDbEntity
  8
0
370
    -3
390
0
  6
Continuous
100
AcDbLine
 10
186.291027
 20
-251.986295
 30
0.0
 11
181.291027
 21
-251.986295
 31
0.0
  0
LINE
  5
EE
100
AcDbEntity
  8
0
370
    -3
390
0
  6
Continuous
100
AcDbLine
 10
186.291027
 20
-287.226122
 30
0.0
 11
181.291027
 21
-287.226122
 31
0.0
  0
ARC
  5
EF
100
AcDbEntity
  8
0
370
    -3
390
0
  6
Continuous
100
AcDbCircle
 10
181.291027
 20
-285.226122
 30
0.0
 40
2.0
100
AcDbArc
 50
180.0
 51
270.0
  0
ARC
  5
F0
100
AcDbEntity
  8
0
370
    -3
390
0
  6
Continuous
100
AcDbCircle
 10
181.291027
 20
-249.986295
 30
0.0
 40
2.0
100
AcDbArc
 50
180.0
 51
270.0
  0
LINE
  5
F1
100
AcDbEntity
  8
0
370
    -3
390
0
  6
CENTER
100
AcDbLine
 10
194.691358
 20
-299.43175
 30
0.0
 11
158.844713
 21
-299.43175
 31
0.0
  0
ARC
  5
F2
100
AcDbEntity
  8
0
370
    -3
390
0
  6
Continuous
100
AcDbCircle
 10
194.291027
 20
-238.433108
 30
0.0
 40
5.0
100
AcDbArc
 50
123.367013
 51
143.130102
  0
LINE
  5
F3
100
AcDbEntity
  8
0
370
    -3
390
0
  6
Continuous
100
AcDbLine
 10
186.291027
 20
-322.581462
 30
0.0
 11
169.291027
 21
-322.581462
 31
0.0
  0
ARC
  5
F4
100
AcDbEntity
  8
0
370
    -3
390
0
  6
Continuous
100
AcDbCircle
 10
169.291027
 20
-319.581462
 30
0.0
 40
3.0
100
AcDbArc
 50
180.0
 51
270.0
  0
ARC
  5
F5
100
AcDbEntity
  8
0
370
    -3
390
0
  6
Continuous
100
AcDbCircle
 10
175.291027
 20
-325.581462
 30
0.0
 40
3.0
100
AcDbArc
 50
90.0
 51
180.0
  0
ARC
  5
F6
100
AcDbEntity
  8
0
370
    -3
390
0
  6
Continuous
100
AcDbCircle
 10
169.291027
 20
-333.981489
 30
0.0
 40
3.0
100
AcDbArc
 50
268.122123
 51
0.0
  0
ARC
  5
F7
100
AcDbEntity
  8
0
370
    -3
390
0
  6
Continuous
100
AcDbCircle
 10
188.791027
 20
-230.081462
 30
0.0
 40
5.0
100
AcDbArc
 50
303.367013
 51
0.0
  0
LINE
  5
F8
100
AcDbEntity
  8
0
370
    -3
390
0
  6
Continuous
100
AcDbLine
 10
189.291027
 20
-310.081462
 30
0.0
 11
186.291027
 21
-310.081462
 31
0.0
  0
LINE
  5
F9
100
AcDbEntity
  8
0
370
    -3
390
0
  6
Continuous
100
AcDbLine
 10
172.291027
 20
-333.981489
 30
0.0
 11
172.291027
 21
-325.581462
 31
0.0
  0
LINE
  5
FA
100
AcDbEntity
  8
0
370
    -3
390
0
  6
Continuous
100
AcDbLine
 10
50.291027
 20
-333.081462
 30
0.0
 11
169.192719
 21
-336.979878
 31
0.0
  0
LINE
  5
FB
100
AcDbEntity
  8
0
370
    -3
390
0
  6
Continuous
100
AcDbLine
 10
190.291027
 20
-309.081462
 30
0.0
 11
189.291027
 21
-310.081462
 31
0.0
  0
ARC
  5
FC
100
AcDbEntity
  8
0
370
    -3
390
0
  6
Continuous
100
AcDbCircle
 10
40.791027
 20
-331.081462
 30
0.0
 40
2.0
100
AcDbArc
 50
180.0
 51
270.0
  0
LINE
  5
FD
100
AcDbEntity
  8
0
370
    -3
390
0
  6
Continuous
100
AcDbLine
 10
38.791027
 20
-205.081462
 30
0.0
 11
38.791027
 21
-331.081462
 31
0.0
  0
LINE
  5
FE
100
AcDbEntity
  8
0
370
    -3
390
0
  6
Continuous
100
AcDbLine
 10
40.791027
 20
-333.081462
 30
0.0
 11
49.791027
 21
-333.081462
 31
0.0
  0
LINE
  5
FF
100
AcDbEntity
  8
0
370
    -3
390
0
  6
Continuous
100
AcDbLine
 10
49.791027
 20
-205.081462
 30
0.0
 11
49.791027
 21
-333.081462
 31
0.0
  0
LINE
  5
100
100
AcDbEntity
  8
0
370
    -3
390
0
  6
Continuous
100
AcDbLine
 10
30.791028
 20
-320.601287
 30
0.0
 11
1.791027
 21
-319.081462
 31
0.0
  0
LINE
  5
101
100
AcDbEntity
  8
0
370
    -3
390
0
  6
Continuous
100
AcDbLine
 10
33.791027
 20
-216.081462
 30
0.0
 11
33.791027
 21
-209.081462
 31
0.0
  0
ARC
  5
102
100
AcDbEntity
  8
0
370
    -3
390
0
  6
Continuous
100
AcDbCircle
 10
35.791027
 20
-221.997541
 30
0.0
 40
3.0
100
AcDbArc
 50
0.0
 51
80.405932
  0
ARC
  5
103
100
AcDbEntity
  8
0
370
    -3
390
0
  6
Continuous
100
AcDbCircle
 10
36.791027
 20
-216.081462
 30
0.0
 40
3.0
100
AcDbArc
 50
180.0
 51
260.405932
  0
INSERT
  5
10F
100
AcDbEntity
  8
0
390
0
100
AcDbBlockReference
  2
ZU_SYM__USERS_HOME_SYMBOL_POO_SYM_B20_0000218
 10
38.791027
 20
-233.081462
 30
0.0
  0
INSERT
  5
11B
100
AcDbEntity
  8
0
390
0
100
AcDbBlockReference
  2
ZU_SYM__USERS_HOME_SYMBOL_POO_SYM_B20_0000318
 10
38.791027
 20
-324.081462
 30
0.0
  0
LINE
  5
11C
100
AcDbEntity
  8
0
370
    -3
390
0
  6
Continuous
100
AcDbLine
 10
33.791027
 20
-202.081462
 30
0.0
 11
33.791027
 21
-209.081462
 31
0.0
  0
ARC
  5
11D
100
AcDbEntity
  8
0
370
    -3
390
0
  6
Continuous
100
AcDbCircle
 10
35.791027
 20
-196.165382
 30
0.0
 40
3.0
100
AcDbArc
 50
279.594068
 51
0.0
  0
ARC
  5
11E
100
AcDbEntity
  8
0
370
    -3
390
0
  6
Continuous
100
AcDbCircle
 10
36.791027
 20
-202.081462
 30
0.0
 40
3.0
100
AcDbArc
 50
99.594068
 51
180.0
  0
INSERT
  5
12A
100
AcDbEntity
  8
0
390
0
100
AcDbBlockReference
  2
ZU_SYM__USERS_HOME_SYMBOL_POO_SYM_B20_0000418
 10
38.791027
 20
-143.081462
 30
0.0
  0
LINE
  5
12B
100
AcDbEntity
  8
0
370
    -3
390
0
  6
Continuous
100
AcDbLine
 10
330.690753
 20
-22.581462
 30
0.0
 11
330.690753
 21
-307.581462
 31
0.0
  0
LINE
  5
12C
100
AcDbEntity
  8
0
370
    -3
390
0
  6
Continuous
100
AcDbLine
 10
630.690753
 20
-7.581462
 30
0.0
 11
345.690753
 21
-7.581462
 31
0.0
  0
LINE
  5
12D
100
AcDbEntity
  8
0
370
    -3
390
0
  6
Continuous
100
AcDbLine
 10
360.116073
 20
-72.36212
 30
0.0
 11
332.155219
 21
-44.401267
 31
0.0
  0
LINE
  5
12E
100
AcDbEntity
  8
0
370
    -3
390
0
  6
Continuous
100
AcDbLine
 10
395.471412
 20
-37.006781
 30
0.0
 11
367.510558
 21
-9.045928
 31
0.0
  0
LINE
  5
12F
100
AcDbEntity
  8
0
370
    -3
390
0
  6
CENTER
100
AcDbLine
 10
367.629047
 20
-44.519755
 30
0.0
 11
340.051882
 21
-16.942591
 31
0.0
  0
ARC
  5
130
100
AcDbEntity
  8
0
370
    -3
390
0
  6
Continuous
100
AcDbCircle
 10
463.15952
 20
-170.719632
 30
0.0
 40
107.308449
100
AcDbArc
 50
92.924524
 51
172.056783
  0
ARC
  5
131
100
AcDbEntity
  8
0
370
    -3
390
0
  6
Continuous
100
AcDbCircle
 10
488.15952
 20
-660.081462
 30
0.0
 40
597.308449
100
AcDbArc
 50
90.819237
 51
92.924524
  0
ARC
  5
132
100
AcDbEntity
  8
0
370
    -3
390
0
  6
Continuous
100
AcDbCircle
 10
345.690753
 20
-22.581462
 30
0.0
 40
15.0
100
AcDbArc
 50
90.0
 51
180.0
  0
ARC
  5
133
100
AcDbEntity
  8
0
370
    -3
390
0
  6
Continuous
100
AcDbCircle
 10
488.190753
 20
-165.081462
 30
0.0
 40
150.0
100
AcDbArc
 50
57.635625
 51
122.364375
  0
ARC
  5
134
100
AcDbEntity
  8
0
370
    -3
390
0
  6
Continuous
100
AcDbCircle
 10
402.542479
 20
-29.935713
 30
0.0
 40
10.0
100
AcDbArc
 50
225.0
 51
302.364375
  0
ARC
  5
135
100
AcDbEntity
  8
0
370
    -3
390
0
  6
Continuous
100
AcDbCircle
 10
488.190753
 20
-165.081462
 30
0.0
 40
150.0
100
AcDbArc
 50
147.635625
 51
177.002775
  0
ARC
  5
136
100
AcDbEntity
  8
0
370
    -3
390
0
  6
Continuous
100
AcDbCircle
 10
353.045005
 20
-79.433188
 30
0.0
 40
10.0
100
AcDbArc
 50
327.635625
 51
45.0
  0
ARC
  5
137
100
AcDbEntity
  8
0
370
    -3
390
0
  6
Continuous
100
AcDbCircle
 10
363.975024
 20
-12.581462
 30
0.0
 40
5.0
100
AcDbArc
 50
45.0
 51
90.0
  0
ARC
  5
138
100
AcDbEntity
  8
0
370
    -3
390
0
  6
CENTER
100
AcDbCircle
 10
488.190753
 20
-165.081462
 30
0.0
 40
190.0
100
AcDbArc
 50
129.119042
 51
140.880958
  0
CIRCLE
  5
139
100
AcDbEntity
  8
0
370
    -3
390
0
  6
Continuous
100
AcDbCircle
 10
353.840464
 20
-30.731173
 30
0.0
 40
12.0
  0
ARC
  5
13A
100
AcDbEntity
  8
0
370
    -3
390
0
  6
Continuous
100
AcDbCircle
 10
335.690753
 20
-40.865733
 30
0.0
 40
5.0
100
AcDbArc
 50
180.0
 51
225.0
  0
CIRCLE
  5
13B
100
AcDbEntity
  8
0
370
    -3
390
0
  6
Continuous
100
AcDbCircle
 10
488.190753
 20
-165.081462
 30
0.0
 40
145.0
  0
CIRCLE
  5
13C
100
AcDbEntity
  8
0
370
    -3
390
0
  6
Continuous
100
AcDbCircle
 10
488.190753
 20
-165.081462
 30
0.0
 40
138.0
  0
ARC
  5
13D
100
AcDbEntity
  8
0
370
    -3
390
0
  6
Continuous
100
AcDbCircle
 10
488.190753
 20
-165.081462
 30
0.0
 40
70.0
100
AcDbArc
 50
0.0
 51
90.0
  0
LINE
  5
13E
100
AcDbEntity
  8
0
370
    -3
390
0
  6
CENTER
100
AcDbLine
 10
650.610183
 20
-165.081462
 30
0.0
 11
327.985447
 21
-165.081462
 31
0.0
  0
CIRCLE
  5
13F
100
AcDbEntity
  8
0
370
    -3
390
0
  6
Continuous
100
AcDbCircle
 10
488.190753
 20
-165.081462
 30
0.0
 40
3.325
  0
CIRCLE
  5
140
100
AcDbEntity
  8
0
370
    -3
390
0
  6
Continuous
100
AcDbCircle
 10
488.190753
 20
-165.081462
 30
0.0
 40
4.0
  0
LINE
  5
141
100
AcDbEntity
  8
0
370
    -3
390
0
  6
Continuous
100
AcDbLine
 10
460.690753
 20
-172.112694
 30
0.0
 11
469.690753
 21
-172.112694
 31
0.0
  0
LINE
  5
142
100
AcDbEntity
  8
0
370
    -3
390
0
  6
Continuous
100
AcDbLine
 10
460.690753
 20
-158.112694
 30
0.0
 11
469.690753
 21
-158.112694
 31
0.0
  0
ARC
  5
143
100
AcDbEntity
  8
0
370
    -3
390
0
  6
Continuous
100
AcDbCircle
 10
488.190753
 20
-165.112694
 30
0.0
 40
24.0
100
AcDbArc
 50
196.957763
 51
163.042237
  0
LINE
  5
144
100
AcDbEntity
  8
0
370
    -3
390
0
  6
Continuous
100
AcDbLine
 10
469.690753
 20
-158.112694
 30
0.0
 11
469.690753
 21
-172.112694
 31
0.0
  0
LINE
  5
145
100
AcDbEntity
  8
0
370
    -3
390
0
  6
Continuous
100
AcDbLine
 10
460.690753
 20
-158.112694
 30
0.0
 11
460.690753
 21
-172.112694
 31
0.0
  0
LINE
  5
146
100
AcDbEntity
  8
0
370
    -3
390
0
  6
Continuous
100
AcDbLine
 10
491.690753
 20
-30.238034
 30
0.0
 11
491.690753
 21
-92.371421
 31
0.0
  0
LINE
  5
147
100
AcDbEntity
  8
0
370
    -3
390
0
  6
Continuous
100
AcDbLine
 10
484.690753
 20
-30.238034
 30
0.0
 11
484.690753
 21
-92.371421
 31
0.0
  0
LINE
  5
148
100
AcDbEntity
  8
0
370
    -3
390
0
  6
Continuous
100
AcDbLine
 10
620.530434
 20
-173.581462
 30
0.0
 11
620.530434
 21
-203.469031
 31
0.0
  0
LINE
  5
149
100
AcDbEntity
  8
0
370
    -3
390
0
  6
Continuous
100
AcDbLine
 10
623.034181
 20
-168.581462
 30
0.0
 11
560.900793
 21
-168.581462
 31
0.0
  0
LINE
  5
14A
100
AcDbEntity
  8
0
370
    -3
390
0
  6
Continuous
100
AcDbLine
 10
623.034181
 20
-161.581462
 30
0.0
 11
560.900793
 21
-161.581462
 31
0.0
  0
LINE
  5
14B
100
AcDbEntity
  8
0
370
    -3
390
0
  6
Continuous
100
AcDbLine
 10
640.981459
 20
-170.081462
 30
0.0
 11
643.690753
 21
-170.081462
 31
0.0
  0
LINE
  5
14C
100
AcDbEntity
  8
0
370
    -3
390
0
  6
Continuous
100
AcDbLine
 10
640.981459
 20
-160.081462
 30
0.0
 11
643.690753
 21
-160.081462
 31
0.0
  0
LINE
  5
14D
100
AcDbEntity
  8
0
370
    -3
390
0
  6
Continuous
100
AcDbLine
 10
645.690753
 20
-22.581462
 30
0.0
 11
645.690753
 21
-307.581462
 31
0.0
  0
LINE
  5
14E
100
AcDbEntity
  8
0
370
    -3
390
0
  6
Continuous
100
AcDbLine
 10
580.910094
 20
-37.006781
 30
0.0
 11
608.870948
 21
-9.045928
 31
0.0
  0
LINE
  5
14F
100
AcDbEntity
  8
0
370
    -3
390
0
  6
Continuous
100
AcDbLine
 10
616.265433
 20
-72.36212
 30
0.0
 11
644.226287
 21
-44.401267
 31
0.0
  0
LINE
  5
150
100
AcDbEntity
  8
0
370
    -3
390
0
  6
CENTER
100
AcDbLine
 10
608.752459
 20
-44.519755
 30
0.0
 11
636.329624
 21
-16.942591
 31
0.0
  0
ARC
  5
151
100
AcDbEntity
  8
0
370
    -3
390
0
  6
Continuous
100
AcDbCircle
 10
415.11329
 20
-197.634255
 30
0.0
 40
10.0
100
AcDbArc
 50
294.11503
 51
24.010868
  0
ARC
  5
152
100
AcDbEntity
  8
0
370
    -3
390
0
  6
Continuous
100
AcDbCircle
 10
519.416914
 20
-263.243962
 30
0.0
 40
48.0
100
AcDbArc
 50
6.015134
 51
56.987252
  0
ARC
  5
153
100
AcDbEntity
  8
0
370
    -3
390
0
  6
Continuous
100
AcDbCircle
 10
551.016801
 20
-214.608098
 30
0.0
 40
10.0
100
AcDbArc
 50
141.750802
 51
236.987252
  0
ARC
  5
154
100
AcDbEntity
  8
0
370
    -3
390
0
  6
Continuous
100
AcDbCircle
 10
479.690753
 20
-67.833558
 30
0.0
 40
5.0
100
AcDbArc
 50
0.0
 51
90.819237
  0
ARC
  5
155
100
AcDbEntity
  8
0
370
    -3
390
0
  6
Continuous
100
AcDbCircle
 10
496.690753
 20
-67.833558
 30
0.0
 40
5.0
100
AcDbArc
 50
89.180763
 51
180.0
  0
ARC
  5
156
100
AcDbEntity
  8
0
370
    -3
390
0
  6
Continuous
100
AcDbCircle
 10
488.221985
 20
-660.081462
 30
0.0
 40
597.308449
100
AcDbArc
 50
87.075476
 51
89.180763
  0
ARC
  5
157
100
AcDbEntity
  8
0
370
    -3
390
0
  6
Continuous
100
AcDbCircle
 10
494.690753
 20
-92.371421
 30
0.0
 40
3.0
100
AcDbArc
 50
180.0
 51
264.891556
  0
ARC
  5
158
100
AcDbEntity
  8
0
370
    -3
390
0
  6
Continuous
100
AcDbCircle
 10
481.690753
 20
-92.371421
 30
0.0
 40
3.0
100
AcDbArc
 50
275.108444
 51
0.0
  0
ARC
  5
159
100
AcDbEntity
  8
0
370
    -3
390
0
  6
Continuous
100
AcDbCircle
 10
481.690753
 20
-30.238034
 30
0.0
 40
3.0
100
AcDbArc
 50
0.0
 51
92.759753
  0
ARC
  5
15A
100
AcDbEntity
  8
0
370
    -3
390
0
  6
Continuous
100
AcDbCircle
 10
494.690753
 20
-30.238034
 30
0.0
 40
3.0
100
AcDbArc
 50
87.240247
 51
180.0
  0
ARC
  5
15B
100
AcDbEntity
  8
0
370
    -3
390
0
  6
Continuous
100
AcDbCircle
 10
615.530434
 20
-173.581462
 30
0.0
 40
5.0
100
AcDbArc
 50
0.0
 51
90.0
  0
ARC
  5
15C
100
AcDbEntity
  8
0
370
    -3
390
0
  6
Continuous
100
AcDbCircle
 10
614.548837
 20
-156.581462
 30
0.0
 40
5.0
100
AcDbArc
 50
270.0
 51
7.943217
  0
ARC
  5
15D
100
AcDbEntity
  8
0
370
    -3
390
0
  6
Continuous
100
AcDbCircle
 10
513.221985
 20
-170.719632
 30
0.0
 40
107.308449
100
AcDbArc
 50
7.943217
 51
87.075476
  0
ARC
  5
15E
100
AcDbEntity
  8
0
370
    -3
390
0
  6
Continuous
100
AcDbCircle
 10
560.900793
 20
-171.581462
 30
0.0
 40
3.0
100
AcDbArc
 50
90.0
 51
174.891556
  0
ARC
  5
15F
100
AcDbEntity
  8
0
370
    -3
390
0
  6
Continuous
100
AcDbCircle
 10
560.900793
 20
-158.581462
 30
0.0
 40
3.0
100
AcDbArc
 50
185.108444
 51
270.0
  0
ARC
  5
160
100
AcDbEntity
  8
0
370
    -3
390
0
  6
Continuous
100
AcDbCircle
 10
623.034181
 20
-171.581462
 30
0.0
 40
3.0
100
AcDbArc
 50
357.240247
 51
90.0
  0
ARC
  5
161
100
AcDbEntity
  8
0
370
    -3
390
0
  6
Continuous
100
AcDbCircle
 10
623.034181
 20
-158.581462
 30
0.0
 40
3.0
100
AcDbArc
 50
270.0
 51
2.759753
  0
ARC
  5
162
100
AcDbEntity
  8
0
370
    -3
390
0
  6
Continuous
100
AcDbCircle
 10
643.690753
 20
-168.081462
 30
0.0
 40
2.0
100
AcDbArc
 50
270.0
 51
0.0
  0
ARC
  5
163
100
AcDbEntity
  8
0
370
    -3
390
0
  6
Continuous
100
AcDbCircle
 10
643.690753
 20
-162.081462
 30
0.0
 40
2.0
100
AcDbArc
 50
0.0
 51
90.0
  0
ARC
  5
164
100
AcDbEntity
  8
0
370
    -3
390
0
  6
Continuous
100
AcDbCircle
 10
615.530434
 20
-203.469031
 30
0.0
 40
5.0
100
AcDbArc
 50
343.224145
 51
0.0
  0
ARC
  5
165
100
AcDbEntity
  8
0
370
    -3
390
0
  6
Continuous
100
AcDbCircle
 10
640.981459
 20
-173.081462
 30
0.0
 40
3.0
100
AcDbArc
 50
90.0
 51
177.002775
  0
ARC
  5
166
100
AcDbEntity
  8
0
370
    -3
390
0
  6
Continuous
100
AcDbCircle
 10
640.981459
 20
-157.081462
 30
0.0
 40
3.0
100
AcDbArc
 50
182.997225
 51
270.0
  0
CIRCLE
  5
167
100
AcDbEntity
  8
0
370
    -3
390
0
  6
Continuous
100
AcDbCircle
 10
488.190753
 20
-165.081462
 30
0.0
 40
44.0
  0
ARC
  5
168
100
AcDbEntity
  8
0
370
    -3
390
0
  6
Continuous
100
AcDbCircle
 10
488.190753
 20
-165.081462
 30
0.0
 40
150.0
100
AcDbArc
 50
2.997225
 51
32.364375
  0
CIRCLE
  5
169
100
AcDbEntity
  8
0
370
    -3
390
0
  6
Continuous
100
AcDbCircle
 10
488.190753
 20
-165.081462
 30
0.0
 40
34.0
  0
ARC
  5
16A
100
AcDbEntity
  8
0
370
    -3
390
0
  6
Continuous
100
AcDbCircle
 10
630.690753
 20
-22.581462
 30
0.0
 40
15.0
100
AcDbArc
 50
0.0
 51
90.0
  0
ARC
  5
16B
100
AcDbEntity
  8
0
370
    -3
390
0
  6
Continuous
100
AcDbCircle
 10
488.190753
 20
-165.081462
 30
0.0
 40
150.0
100
AcDbArc
 50
327.635625
 51
357.002775
  0
ARC
  5
16C
100
AcDbEntity
  8
0
370
    -3
390
0
  6
Continuous
100
AcDbCircle
 10
623.336501
 20
-79.433188
 30
0.0
 40
10.0
100
AcDbArc
 50
135.0
 51
212.364375
  0
ARC
  5
16D
100
AcDbEntity
  8
0
370
    -3
390
0
  6
Continuous
100
AcDbCircle
 10
573.839026
 20
-29.935713
 30
0.0
 40
10.0
100
AcDbArc
 50
237.635625
 51
315.0
  0
ARC
  5
16E
100
AcDbEntity
  8
0
370
    -3
390
0
  6
Continuous
100
AcDbCircle
 10
640.690753
 20
-40.865733
 30
0.0
 40
5.0
100
AcDbArc
 50
315.0
 51
0.0
  0
CIRCLE
  5
16F
100
AcDbEntity
  8
0
370
    -3
390
0
  6
Continuous
100
AcDbCircle
 10
622.541041
 20
-30.731173
 30
0.0
 40
12.0
  0
ARC
  5
170
100
AcDbEntity
  8
0
370
    -3
390
0
  6
Continuous
100
AcDbCircle
 10
612.406482
 20
-12.581462
 30
0.0
 40
5.0
100
AcDbArc
 50
90.0
 51
135.0
  0
ARC
  5
171
100
AcDbEntity
  8
0
370
    -3
390
0
  6
Continuous
100
AcDbCircle
 10
519.416914
 20
-263.243962
 30
0.0
 40
41.0
100
AcDbArc
 50
0.074479
 51
58.061808
  0
ARC
  5
172
100
AcDbEntity
  8
0
370
    -3
390
0
  6
Continuous
100
AcDbCircle
 10
546.396125
 20
-219.96438
 30
0.0
 40
10.0
100
AcDbArc
 50
136.682825
 51
238.061808
  0
ARC
  5
173
100
AcDbEntity
  8
0
370
    -3
390
0
  6
Continuous
100
AcDbCircle
 10
418.242044
 20
-203.903853
 30
0.0
 40
10.0
100
AcDbArc
 50
293.824471
 51
29.030812
  0
ARC
  5
174
100
AcDbEntity
  8
0
370
    -3
390
0
  6
CENTER
100
AcDbCircle
 10
488.190753
 20
-165.081462
 30
0.0
 40
190.0
100
AcDbArc
 50
37.548673
 51
51.697379
  0
LINE
  5
175
100
AcDbEntity
  8
0
370
    -3
390
0
  6
Continuous
100
AcDbLine
 10
353.347325
 20
-161.581462
 30
0.0
 11
415.480712
 21
-161.581462
 31
0.0
  0
LINE
  5
176
100
AcDbEntity
  8
0
370
    -3
390
0
  6
Continuous
100
AcDbLine
 10
353.347325
 20
-168.581462
 30
0.0
 11
415.480712
 21
-168.581462
 31
0.0
  0
LINE
  5
177
100
AcDbEntity
  8
0
370
    -3
390
0
  6
Continuous
100
AcDbLine
 10
567.690753
 20
-337.081462
 30
0.0
 11
488.190753
 21
-337.081462
 31
0.0
  0
LINE
  5
178
100
AcDbEntity
  8
0
370
    -3
390
0
  6
Continuous
100
AcDbLine
 10
408.690753
 20
-337.081462
 30
0.0
 11
488.190753
 21
-337.081462
 31
0.0
  0
LINE
  5
179
100
AcDbEntity
  8
0
370
    -3
390
0
  6
Continuous
100
AcDbLine
 10
630.690753
 20
-322.581462
 30
0.0
 11
345.690753
 21
-322.581462
 31
0.0
  0
LINE
  5
17A
100
AcDbEntity
  8
0
370
    -3
390
0
  6
Continuous
100
AcDbLine
 10
616.265433
 20
-257.800803
 30
0.0
 11
644.226287
 21
-285.761656
 31
0.0
  0
LINE
  5
17B
100
AcDbEntity
  8
0
370
    -3
390
0
  6
Continuous
100
AcDbLine
 10
580.910094
 20
-293.156142
 30
0.0
 11
608.870948
 21
-321.116995
 31
0.0
  0
LINE
  5
17C
100
AcDbEntity
  8
0
370
    -3
390
0
  6
CENTER
100
AcDbLine
 10
608.752459
 20
-285.643168
 30
0.0
 11
636.329624
 21
-313.220332
 31
0.0
  0
ARC
  5
17D
100
AcDbEntity
  8
0
370
    -3
390
0
  6
Continuous
100
AcDbCircle
 10
441.670334
 20
-256.961512
 30
0.0
 40
55.0
100
AcDbArc
 50
114.11503
 51
159.806926
  0
ARC
  5
17E
100
AcDbEntity
  8
0
370
    -3
390
0
  6
Continuous
100
AcDbCircle
 10
577.097581
 20
-257.166074
 30
0.0
 40
10.0
100
AcDbArc
 50
186.015134
 51
313.994124
  0
ARC
  5
17F
100
AcDbEntity
  8
0
370
    -3
390
0
  6
Continuous
100
AcDbCircle
 10
415.480712
 20
-158.581462
 30
0.0
 40
3.0
100
AcDbArc
 50
270.0
 51
354.891556
  0
ARC
  5
180
100
AcDbEntity
  8
0
370
    -3
390
0
  6
Continuous
100
AcDbCircle
 10
415.480712
 20
-171.581462
 30
0.0
 40
3.0
100
AcDbArc
 50
5.108444
 51
90.0
  0
ARC
  5
181
100
AcDbEntity
  8
0
370
    -3
390
0
  6
Continuous
100
AcDbCircle
 10
585.666347
 20
-325.018489
 30
0.0
 40
6.0
100
AcDbArc
 50
156.035454
 51
177.016
  0
ARC
  5
182
100
AcDbEntity
  8
0
370
    -3
390
0
  6
Continuous
100
AcDbCircle
 10
567.690753
 20
-325.081462
 30
0.0
 40
12.0
100
AcDbArc
 50
270.0
 51
2.865984
  0
ARC
  5
183
100
AcDbEntity
  8
0
370
    -3
390
0
  6
Continuous
100
AcDbCircle
 10
408.690753
 20
-325.081462
 30
0.0
 40
12.0
100
AcDbArc
 50
177.134016
 51
270.0
  0
ARC
  5
184
100
AcDbEntity
  8
0
370
    -3
390
0
  6
Continuous
100
AcDbCircle
 10
630.690753
 20
-307.581462
 30
0.0
 40
15.0
100
AcDbArc
 50
270.0
 51
0.0
  0
ARC
  5
185
100
AcDbEntity
  8
0
370
    -3
390
0
  6
Continuous
100
AcDbCircle
 10
488.190753
 20
-165.081462
 30
0.0
 40
150.0
100
AcDbArc
 50
237.635625
 51
302.364375
  0
ARC
  5
186
100
AcDbEntity
  8
0
370
    -3
390
0
  6
Continuous
100
AcDbCircle
 10
402.542479
 20
-300.22721
 30
0.0
 40
10.0
100
AcDbArc
 50
57.635625
 51
135.0
  0
ARC
  5
187
100
AcDbEntity
  8
0
370
    -3
390
0
  6
Continuous
100
AcDbCircle
 10
573.839026
 20
-300.22721
 30
0.0
 40
10.0
100
AcDbArc
 50
45.0
 51
122.364375
  0
ARC
  5
188
100
AcDbEntity
  8
0
370
    -3
390
0
  6
Continuous
100
AcDbCircle
 10
623.336501
 20
-250.729735
 30
0.0
 40
10.0
100
AcDbArc
 50
147.635625
 51
225.0
  0
ARC
  5
189
100
AcDbEntity
  8
0
370
    -3
390
0
  6
Continuous
100
AcDbCircle
 10
612.406482
 20
-317.581462
 30
0.0
 40
5.0
100
AcDbArc
 50
225.0
 51
270.0
  0
ARC
  5
18A
100
AcDbEntity
  8
0
370
    -3
390
0
  6
CENTER
100
AcDbCircle
 10
488.190753
 20
-165.081462
 30
0.0
 40
190.0
100
AcDbArc
 50
309.119042
 51
320.880958
  0
CIRCLE
  5
18B
100
AcDbEntity
  8
0
370
    -3
390
0
  6
Continuous
100
AcDbCircle
 10
622.541041
 20
-299.43175
 30
0.0
 40
12.0
  0
ARC
  5
18C
100
AcDbEntity
  8
0
370
    -3
390
0
  6
Continuous
100
AcDbCircle
 10
640.690753
 20
-289.29719
 30
0.0
 40
5.0
100
AcDbArc
 50
0.0
 51
45.0
  0
ARC
  5
18D
100
AcDbEntity
  8
0
370
    -3
390
0
  6
Continuous
100
AcDbCircle
 10
441.670334
 20
-256.961512
 30
0.0
 40
48.0
100
AcDbArc
 50
113.824471
 51
164.803707
  0
ARC
  5
18E
100
AcDbEntity
  8
0
370
    -3
390
0
  6
Continuous
100
AcDbCircle
 10
570.416871
 20
-263.177667
 30
0.0
 40
10.0
100
AcDbArc
 50
180.074479
 51
309.970383
  0
LINE
  5
18F
100
AcDbEntity
  8
0
370
    -3
390
0
  6
CENTER
100
AcDbLine
 10
367.629047
 20
-285.643168
 30
0.0
 11
340.051882
 21
-313.220332
 31
0.0
  0
LINE
  5
190
100
AcDbEntity
  8
0
370
    -3
390
0
  6
Continuous
100
AcDbLine
 10
360.116073
 20
-257.800803
 30
0.0
 11
332.155219
 21
-285.761656
 31
0.0
  0
LINE
  5
191
100
AcDbEntity
  8
0
370
    -3
390
0
  6
Continuous
100
AcDbLine
 10
395.471412
 20
-293.156142
 30
0.0
 11
367.510558
 21
-321.116995
 31
0.0
  0
ARC
  5
192
100
AcDbEntity
  8
0
370
    -3
390
0
  6
Continuous
100
AcDbCircle
 10
390.715159
 20
-325.018489
 30
0.0
 40
6.0
100
AcDbArc
 50
2.984
 51
23.964546
  0
CIRCLE
  5
193
100
AcDbEntity
  8
0
370
    -3
390
0
  6
Continuous
100
AcDbCircle
 10
353.840464
 20
-299.43175
 30
0.0
 40
12.0
  0
ARC
  5
194
100
AcDbEntity
  8
0
370
    -3
390
0
  6
Continuous
100
AcDbCircle
 10
345.690753
 20
-307.581462
 30
0.0
 40
15.0
100
AcDbArc
 50
180.0
 51
270.0
  0
ARC
  5
195
100
AcDbEntity
  8
0
370
    -3
390
0
  6
Continuous
100
AcDbCircle
 10
335.690753
 20
-289.29719
 30
0.0
 40
5.0
100
AcDbArc
 50
135.0
 51
180.0
  0
ARC
  5
196
100
AcDbEntity
  8
0
370
    -3
390
0
  6
Continuous
100
AcDbCircle
 10
363.975024
 20
-317.581462
 30
0.0
 40
5.0
100
AcDbArc
 50
270.0
 51
315.0
  0
ARC
  5
197
100
AcDbEntity
  8
0
370
    -3
390
0
  6
CENTER
100
AcDbCircle
 10
488.190753
 20
-165.081462
 30
0.0
 40
190.0
100
AcDbArc
 50
218.501181
 51
231.759041
  0
LINE
  5
198
100
AcDbEntity
  8
0
370
    -3
390
0
  6
Continuous
100
AcDbLine
 10
355.851071
 20
-173.581462
 30
0.0
 11
355.851071
 21
-203.469031
 31
0.0
  0
ARC
  5
199
100
AcDbEntity
  8
0
370
    -3
390
0
  6
Continuous
100
AcDbCircle
 10
380.665575
 20
-234.524503
 30
0.0
 40
10.0
100
AcDbArc
 50
212.855608
 51
339.806926
  0
ARC
  5
19A
100
AcDbEntity
  8
0
370
    -3
390
0
  6
Continuous
100
AcDbCircle
 10
360.851071
 20
-203.469031
 30
0.0
 40
5.0
100
AcDbArc
 50
180.0
 51
196.775855
  0
ARC
  5
19B
100
AcDbEntity
  8
0
370
    -3
390
0
  6
Continuous
100
AcDbCircle
 10
488.190753
 20
-165.081462
 30
0.0
 40
150.0
100
AcDbArc
 50
182.997225
 51
212.364375
  0
ARC
  5
19C
100
AcDbEntity
  8
0
370
    -3
390
0
  6
Continuous
100
AcDbCircle
 10
353.045005
 20
-250.729735
 30
0.0
 40
10.0
100
AcDbArc
 50
315.0
 51
32.364375
  0
ARC
  5
19D
100
AcDbEntity
  8
0
370
    -3
390
0
  6
Continuous
100
AcDbCircle
 10
385.698393
 20
-241.758161
 30
0.0
 40
10.0
100
AcDbArc
 50
216.800938
 51
344.803707
  0
LINE
  5
19E
100
AcDbEntity
  8
0
370
    -3
390
0
  6
Continuous
100
AcDbLine
 10
335.400046
 20
-170.081462
 30
0.0
 11
332.690753
 21
-170.081462
 31
0.0
  0
LINE
  5
19F
100
AcDbEntity
  8
0
370
    -3
390
0
  6
Continuous
100
AcDbLine
 10
335.400046
 20
-160.081462
 30
0.0
 11
332.690753
 21
-160.081462
 31
0.0
  0
ARC
  5
1A0
100
AcDbEntity
  8
0
370
    -3
390
0
  6
Continuous
100
AcDbCircle
 10
360.851071
 20
-173.581462
 30
0.0
 40
5.0
100
AcDbArc
 50
90.0
 51
180.0
  0
ARC
  5
1A1
100
AcDbEntity
  8
0
370
    -3
390
0
  6
Continuous
100
AcDbCircle
 10
361.832669
 20
-156.581462
 30
0.0
 40
5.0
100
AcDbArc
 50
172.056783
 51
270.0
  0
ARC
  5
1A2
100
AcDbEntity
  8
0
370
    -3
390
0
  6
Continuous
100
AcDbCircle
 10
353.347325
 20
-171.581462
 30
0.0
 40
3.0
100
AcDbArc
 50
90.0
 51
182.759753
  0
ARC
  5
1A3
100
AcDbEntity
  8
0
370
    -3
390
0
  6
Continuous
100
AcDbCircle
 10
353.347325
 20
-158.581462
 30
0.0
 40
3.0
100
AcDbArc
 50
177.240247
 51
270.0
  0
ARC
  5
1A4
100
AcDbEntity
  8
0
370
    -3
390
0
  6
Continuous
100
AcDbCircle
 10
332.690753
 20
-168.081462
 30
0.0
 40
2.0
100
AcDbArc
 50
180.0
 51
270.0
  0
ARC
  5
1A5
100
AcDbEntity
  8
0
370
    -3
390
0
  6
Continuous
100
AcDbCircle
 10
332.690753
 20
-162.081462
 30
0.0
 40
2.0
100
AcDbArc
 50
90.0
 51
180.0
  0
ARC
  5
1A6
100
AcDbEntity
  8
0
370
    -3
390
0
  6
Continuous
100
AcDbCircle
 10
335.400046
 20
-157.081462
 30
0.0
 40
3.0
100
AcDbArc
 50
270.0
 51
357.002775
  0
ARC
  5
1A7
100
AcDbEntity
  8
0
370
    -3
390
0
  6
Continuous
100
AcDbCircle
 10
335.400046
 20
-173.081462
 30
0.0
 40
3.0
100
AcDbArc
 50
2.997225
 51
90.0
  0
LINE
  5
1A8
100
AcDbEntity
  8
0
370
    -3
390
0
  6
Continuous
100
AcDbLine
 10
330.690753
 20
-238.286664
 30
0.0
 11
318.168118
 21
-266.412963
 31
0.0
  0
LINE
  5
1A9
100
AcDbEntity
  8
0
370
    -3
390
0
  6
Continuous
100
AcDbLine
 10
320.262812
 20
-261.708203
 30
0.0
 11
324.099703
 21
-263.416497
 31
0.0
  0
LINE
  5
1AA
100
AcDbEntity
  8
0
370
    -3
390
0
  6
Continuous
100
AcDbLine
 10
321.605043
 20
-258.693503
 30
0.0
 11
325.441934
 21
-260.401797
 31
0.0
  0
LINE
  5
1AB
100
AcDbEntity
  8
0
370
    -3
390
0
  6
Continuous
100
AcDbLine
 10
325.264551
 20
-259.939699
 30
0.0
 11
325.441934
 21
-260.401797
 31
0.0
  0
LINE
  5
1AC
100
AcDbEntity
  8
0
370
    -3
390
0
  6
Continuous
100
AcDbLine
 10
323.637604
 20
-263.59388
 30
0.0
 11
324.099703
 21
-263.416497
 31
0.0
  0
LINE
  5
1AD
100
AcDbEntity
  8
0
370
    -3
390
0
  6
Continuous
100
AcDbLine
 10
325.441934
 20
-260.401797
 30
0.0
 11
324.099703
 21
-263.416497
 31
0.0
  0
POINT
  5
1AE
100
AcDbEntity
  8
0
370
    -3
390
0
  6
Continuous
100
AcDbPoint
 10
317.462455
 20
-258.655254
 30
0.0
  0
LINE
  5
1AF
100
AcDbEntity
  8
0
370
    -3
390
0
  6
Continuous
100
AcDbLine
 10
318.886033
 20
-255.457845
 30
0.0
 11
316.038876
 21
-261.852663
 31
0.0
  0
LINE
  5
1B0
100
AcDbEntity
  8
0
370
    -3
390
0
  6
Continuous
100
AcDbLine
 10
318.886033
 20
-255.457845
 30
0.0
 11
316.038876
 21
-261.852663
 31
0.0
  0
LINE
  5
1B1
100
AcDbEntity
  8
0
370
    -3
390
0
  6
Continuous
100
AcDbLine
 10
316.038876
 20
-261.852663
 30
0.0
 11
315.144492
 21
-261.454458
 31
0.0
  0
LINE
  5
1B2
100
AcDbEntity
  8
0
370
    -3
390
0
  6
Continuous
100
AcDbLine
 10
318.886033
 20
-255.457845
 30
0.0
 11
317.991649
 21
-255.05964
 31
0.0
  0
ARC
  5
1B3
100
AcDbEntity
  8
0
370
    -3
390
0
  6
Continuous
100
AcDbCircle
 10
317.462891
 20
-256.247248
 30
0.0
 40
1.299999
100
AcDbArc
 50
65.999999
 51
139.398469
  0
ARC
  5
1B4
100
AcDbEntity
  8
0
370
    -3
390
0
  6
Continuous
100
AcDbCircle
 10
917.190753
 20
-205.081462
 30
0.0
 40
600.0
100
AcDbArc
 50
178.317231
 51
184.715125
  0
ARC
  5
1B5
100
AcDbEntity
  8
0
370
    -3
390
0
  6
Continuous
100
AcDbCircle
 10
318.224704
 20
-254.484621
 30
0.0
 40
1.0
100
AcDbArc
 50
336.0
 51
4.715125
  0
LINE
  5
1B6
100
AcDbEntity
  8
0
370
    -3
390
0
  6
Continuous
100
AcDbLine
 10
330.690753
 20
-251.581462
 30
0.0
 11
324.771528
 21
-251.581462
 31
0.0
  0
LINE
  5
1B7
100
AcDbEntity
  8
0
370
    -3
390
0
  6
Continuous
100
AcDbLine
 10
315.610191
 20
-265.2741
 30
0.0
 11
318.168118
 21
-266.412963
 31
0.0
  0
ARC
  5
1B8
100
AcDbEntity
  8
0
370
    -3
390
0
  6
Continuous
100
AcDbCircle
 10
316.016928
 20
-264.360555
 30
0.0
 40
1.0
100
AcDbArc
 50
156.0
 51
246.0
  0
LINE
  5
1B9
100
AcDbEntity
  8
0
370
    -3
390
0
  6
Continuous
100
AcDbLine
 10
330.690753
 20
-228.94401
 30
0.0
 11
315.103382
 21
-263.953818
 31
0.0
  0
ARC
  5
1BA
100
AcDbEntity
  8
0
370
    -3
390
0
  6
Continuous
100
AcDbCircle
 10
319.396066
 20
-251.853699
 30
0.0
 40
1.0
100
AcDbArc
 50
336.0
 51
66.0
  0
ARC
  5
1BB
100
AcDbEntity
  8
0
370
    -3
390
0
  6
Continuous
100
AcDbCircle
 10
320.820739
 20
-249.204096
 30
0.0
 40
2.0
100
AcDbArc
 50
184.231338
 51
246.0
  0
LINE
  5
1BC
100
AcDbEntity
  8
0
370
    -3
390
0
  6
Continuous
100
AcDbLine
 10
321.747401
 20
-258.373763
 30
0.0
 11
325.264551
 21
-259.939699
 31
0.0
  0
LINE
  5
1BD
100
AcDbEntity
  8
0
370
    -3
390
0
  6
Continuous
100
AcDbLine
 10
320.120454
 20
-262.027944
 30
0.0
 11
323.637604
 21
-263.59388
 31
0.0
  0
ARC
  5
1BE
100
AcDbEntity
  8
0
370
    -3
390
0
  6
Continuous
100
AcDbCircle
 10
315.67325
 20
-260.266849
 30
0.0
 40
1.299999
100
AcDbArc
 50
172.601548
 51
246.000018
  0
ARC
  5
1BF
100
AcDbEntity
  8
0
370
    -3
390
0
  6
Continuous
100
AcDbCircle
 10
323.309145
 20
-261.258369
 30
0.0
 40
9.0
100
AcDbArc
 50
139.398469
 51
172.601548
  0
ARC
  5
1C0
100
AcDbEntity
  8
0
370
    -3
390
0
  6
Continuous
100
AcDbCircle
 10
332.443042
 20
-187.902566
 30
0.0
 40
15.0
100
AcDbArc
 50
96.708569
 51
178.317231
  0
ARC
  5
1C1
100
AcDbEntity
  8
0
370
    -3
390
0
  6
Continuous
100
AcDbCircle
 10
-155.158973
 20
-249.657416
 30
0.0
 40
5.0
100
AcDbArc
 50
270.0
 51
0.0
  0
ARC
  5
1C2
100
AcDbEntity
  8
0
370
    -3
390
0
  6
Continuous
100
AcDbCircle
 10
-154.758973
 20
-253.867363
 30
0.0
 40
11.0
100
AcDbArc
 50
270.0
 51
0.0
  0
ARC
  5
1C3
100
AcDbEntity
  8
0
370
    -3
390
0
  6
Continuous
100
AcDbCircle
 10
-154.758973
 20
-255.087573
 30
0.0
 40
11.0
100
AcDbArc
 50
270.0
 51
0.0
  0
LINE
  5
1C4
100
AcDbEntity
  8
0
370
    -3
390
0
  6
Continuous
100
AcDbLine
 10
-154.758973
 20
-264.867363
 30
0.0
 11
-190.208973
 21
-264.867363
 31
0.0
  0
LINE
  5
1C5
100
AcDbEntity
  8
0
370
    -3
390
0
  6
Continuous
100
AcDbLine
 10
-154.758973
 20
-266.087573
 30
0.0
 11
-190.208973
 21
-266.087573
 31
0.0
  0
LINE
  5
1C6
100
AcDbEntity
  8
0
370
    -3
390
0
  6
Continuous
100
AcDbLine
 10
-143.758973
 20
-173.484854
 30
0.0
 11
-143.758973
 21
-255.087573
 31
0.0
  0
LINE
  5
1C7
100
AcDbEntity
  8
0
370
    -3
390
0
  6
Continuous
100
AcDbLine
 10
-150.158973
 20
-173.579672
 30
0.0
 11
-150.158973
 21
-249.657416
 31
0.0
  0
LINE
  5
1C8
100
AcDbEntity
  8
0
370
    -3
390
0
  6
Continuous
100
AcDbLine
 10
-190.208973
 20
-168.579672
 30
0.0
 11
-155.158973
 21
-168.579672
 31
0.0
  0
ARC
  5
1C9
100
AcDbEntity
  8
0
370
    -3
390
0
  6
Continuous
100
AcDbCircle
 10
-155.158973
 20
-173.579672
 30
0.0
 40
5.0
100
AcDbArc
 50
0.0
 51
90.0
  0
ARC
  5
1CA
100
AcDbEntity
  8
0
370
    -3
390
0
  6
Continuous
100
AcDbCircle
 10
-155.158973
 20
-180.081462
 30
0.0
 40
5.0
100
AcDbArc
 50
0.0
 51
90.0
  0
ARC
  5
1CB
100
AcDbEntity
  8
0
370
    -3
390
0
  6
Continuous
100
AcDbCircle
 10
-154.758973
 20
-173.484854
 30
0.0
 40
11.0
100
AcDbArc
 50
0.0
 51
90.0
  0
LINE
  5
1CC
100
AcDbEntity
  8
0
370
    -3
390
0
  6
Continuous
100
AcDbLine
 10
-154.758973
 20
-162.484854
 30
0.0
 11
-190.208973
 21
-162.484854
 31
0.0
  0
POINT
  5
1CD
100
AcDbEntity
  8
0
370
    -3
390
0
  6
CENTER
100
AcDbPoint
 10
-203.708973
 20
-264.867363
 30
0.0
  0
POINT
  5
1CE
100
AcDbEntity
  8
0
370
    -3
390
0
  6
CENTER
100
AcDbPoint
 10
-176.708973
 20
-264.867363
 30
0.0
  0
LINE
  5
1CF
100
AcDbEntity
  8
0
370
    -3
390
0
  6
CENTER
100
AcDbLine
 10
-190.208973
 20
-159.581862
 30
0.0
 11
-190.208973
 21
-272.235581
 31
0.0
  0
LINE
  5
1D0
100
AcDbEntity
  8
0
370
    -3
390
0
  6
Continuous
100
AcDbLine
 10
-181.721499
 20
-254.657416
 30
0.0
 11
-155.158973
 21
-254.657416
 31
0.0
  0
ARC
  5
1D1
100
AcDbEntity
  8
0
370
    -3
390
0
  6
Continuous
100
AcDbCircle
 10
-199.469191
 20
-250.657416
 30
0.0
 40
4.0
100
AcDbArc
 50
270.0
 51
318.821566
  0
ELLIPSE
  5
1D2
100
AcDbEntity
  8
0
370
    -3
390
0
  6
Continuous
100
AcDbEllipse
 10
-190.208973
 20
-257.85355
 30
0.0
 11
8.0
 21
0.0
 31
0.0
210
0.0
220
0.0
230
1.0
 40
0.913545
 41
1.5707963267948966
 42
2.4673754548869451
  0
ARC
  5
1D3
100
AcDbEntity
  8
0
370
    -3
390
0
  6
Continuous
100
AcDbCircle
 10
-198.696447
 20
-250.657416
 30
0.0
 40
4.0
100
AcDbArc
 50
270.0
 51
313.301579
  0
ELLIPSE
  5
1D4
100
AcDbEntity
  8
0
370
    -3
390
0
  6
Continuous
100
AcDbEllipse
 10
-190.208973
 20
-258.655254
 30
0.0
 11
8.0
 21
0.0
 31
0.0
210
0.0
220
0.0
230
1.0
 40
0.913545
 41
1.5707963267948966
 42
2.3717426386695215
  0
LINE
  5
1D5
100
AcDbEntity
  8
0
370
    -3
390
0
  6
Continuous
100
AcDbLine
 10
-188.208973
 20
-259.51636
 30
0.0
 11
-192.208973
 21
-255.862178
 31
0.0
  0
LINE
  5
1D6
100
AcDbEntity
  8
0
370
    -3
390
0
  6
Continuous
100
AcDbLine
 10
-192.208973
 20
-259.51636
 30
0.0
 11
-188.208973
 21
-255.862178
 31
0.0
  0
ELLIPSE
  5
1D7
100
AcDbEntity
  8
0
370
    -3
390
0
  6
Continuous
100
AcDbEllipse
 10
-190.208973
 20
-258.399956
 30
0.0
 11
3.5
 21
0.0
 31
0.0
210
0.0
220
0.0
230
1.0
 40
0.986488
 41
0.0
 42
6.2831853071795862
  0
ELLIPSE
  5
1D8
100
AcDbEntity
  8
0
370
    -3
390
0
  6
Continuous
100
AcDbEllipse
 10
-190.208973
 20
-258.655254
 30
0.0
 11
8.0
 21
0.0
 31
0.0
210
0.0
220
0.0
230
1.0
 40
0.913545
 41
0.7698500149202718
 42
1.5707963267948966
  0
ARC
  5
1D9
100
AcDbEntity
  8
0
370
    -3
390
0
  6
Continuous
100
AcDbCircle
 10
-181.721499
 20
-250.657416
 30
0.0
 40
4.0
100
AcDbArc
 50
226.698421
 51
270.0
  0
ELLIPSE
  5
1DA
100
AcDbEntity
  8
0
370
    -3
390
0
  6
Continuous
100
AcDbEllipse
 10
-190.208973
 20
-257.85355
 30
0.0
 11
8.0
 21
0.0
 31
0.0
210
0.0
220
0.0
230
1.0
 40
0.913545
 41
0.6742171987028656
 42
1.5707963267948966
  0
ARC
  5
1DB
100
AcDbEntity
  8
0
370
    -3
390
0
  6
Continuous
100
AcDbCircle
 10
-180.948755
 20
-250.657416
 30
0.0
 40
4.0
100
AcDbArc
 50
221.178434
 51
270.0
  0
ARC
  5
1DC
100
AcDbEntity
  8
0
370
    -3
390
0
  6
Continuous
100
AcDbCircle
 10
-225.258973
 20
-249.657416
 30
0.0
 40
5.0
100
AcDbArc
 50
180.0
 51
270.0
  0
LINE
  5
1DD
100
AcDbEntity
  8
0
370
    -3
390
0
  6
Continuous
100
AcDbLine
 10
-198.696447
 20
-254.657416
 30
0.0
 11
-225.258973
 21
-254.657416
 31
0.0
  0
ARC
  5
1DE
100
AcDbEntity
  8
0
370
    -3
390
0
  6
Continuous
100
AcDbCircle
 10
-225.658973
 20
-255.087573
 30
0.0
 40
11.0
100
AcDbArc
 50
180.0
 51
270.0
  0
ARC
  5
1DF
100
AcDbEntity
  8
0
370
    -3
390
0
  6
Continuous
100
AcDbCircle
 10
-225.658973
 20
-253.867363
 30
0.0
 40
11.0
100
AcDbArc
 50
180.0
 51
270.0
  0
LINE
  5
1E0
100
AcDbEntity
  8
0
370
    -3
390
0
  6
Continuous
100
AcDbLine
 10
-225.658973
 20
-264.867363
 30
0.0
 11
-190.208973
 21
-264.867363
 31
0.0
  0
LINE
  5
1E1
100
AcDbEntity
  8
0
370
    -3
390
0
  6
Continuous
100
AcDbLine
 10
-225.658973
 20
-266.087573
 30
0.0
 11
-190.208973
 21
-266.087573
 31
0.0
  0
LINE
  5
1E2
100
AcDbEntity
  8
0
370
    -3
390
0
  6
Continuous
100
AcDbLine
 10
-225.258973
 20
-175.081462
 30
0.0
 11
-155.158973
 21
-175.081462
 31
0.0
  0
LINE
  5
1E3
100
AcDbEntity
  8
0
370
    -3
390
0
  6
Continuous
100
AcDbLine
 10
-236.658973
 20
-173.484854
 30
0.0
 11
-236.658973
 21
-255.087573
 31
0.0
  0
LINE
  5
1E4
100
AcDbEntity
  8
0
370
    -3
390
0
  6
Continuous
100
AcDbLine
 10
-230.258973
 20
-173.579672
 30
0.0
 11
-230.258973
 21
-249.657416
 31
0.0
  0
ARC
  5
1E5
100
AcDbEntity
  8
0
370
    -3
390
0
  6
Continuous
100
AcDbCircle
 10
-225.258973
 20
-173.579672
 30
0.0
 40
5.0
100
AcDbArc
 50
90.0
 51
180.0
  0
LINE
  5
1E6
100
AcDbEntity
  8
0
370
    -3
390
0
  6
Continuous
100
AcDbLine
 10
-190.208973
 20
-168.579672
 30
0.0
 11
-225.258973
 21
-168.579672
 31
0.0
  0
ARC
  5
1E7
100
AcDbEntity
  8
0
370
    -3
390
0
  6
Continuous
100
AcDbCircle
 10
-225.658973
 20
-173.484854
 30
0.0
 40
11.0
100
AcDbArc
 50
90.0
 51
180.0
  0
LINE
  5
1E8
100
AcDbEntity
  8
0
370
    -3
390
0
  6
Continuous
100
AcDbLine
 10
-225.658973
 20
-162.484854
 30
0.0
 11
-190.208973
 21
-162.484854
 31
0.0
  0
ARC
  5
1E9
100
AcDbEntity
  8
0
370
    -3
390
0
  6
Continuous
100
AcDbCircle
 10
-225.258973
 20
-180.081462
 30
0.0
 40
5.0
100
AcDbArc
 50
90.0
 51
180.0
  0
LINE
  5
1EA
100
AcDbEntity
  8
0
370
    -3
390
0
  6
CENTER
100
AcDbLine
 10
314.537374
 20
-257.352925
 30
0.0
 11
325.089015
 21
-262.050818
 31
0.0
  0
ARC
  5
1EB
100
AcDbEntity
  8
0
370
    -3
390
0
  6
Continuous
100
AcDbCircle
 10
-547.534683
 20
-70.081462
 30
0.0
 40
10.0
100
AcDbArc
 50
180.0
 51
270.0
  0
LINE
  5
1EC
100
AcDbEntity
  8
0
370
    -3
390
0
  6
Continuous
100
AcDbLine
 10
-547.534683
 20
-80.081462
 30
0.0
 11
-526.534683
 21
-80.081462
 31
0.0
  0
ARC
  5
1ED
100
AcDbEntity
  8
0
370
    -3
390
0
  6
Continuous
100
AcDbCircle
 10
-526.534683
 20
-70.081462
 30
0.0
 40
10.0
100
AcDbArc
 50
270.0
 51
0.0
  0
ARC
  5
1EE
100
AcDbEntity
  8
0
370
    -3
390
0
  6
Continuous
100
AcDbCircle
 10
-538.534683
 20
-36.704384
 30
0.0
 40
2.0
100
AcDbArc
 50
90.0
 51
180.0
  0
LINE
  5
1EF
100
AcDbEntity
  8
0
370
    -3
390
0
  6
Continuous
100
AcDbLine
 10
-538.534683
 20
-34.704384
 30
0.0
 11
-535.534683
 21
-34.704384
 31
0.0
  0
ARC
  5
1F0
100
AcDbEntity
  8
0
370
    -3
390
0
  6
Continuous
100
AcDbCircle
 10
-535.534683
 20
-36.704384
 30
0.0
 40
2.0
100
AcDbArc
 50
0.0
 51
90.0
  0
LINE
  5
1F1
100
AcDbEntity
  8
0
370
    -3
390
0
  6
Continuous
100
AcDbLine
 10
-379.534683
 20
-251.581462
 30
0.0
 11
-379.534683
 21
-307.581462
 31
0.0
  0
LINE
  5
1F2
100
AcDbEntity
  8
0
370
    -3
390
0
  6
Continuous
100
AcDbLine
 10
-416.634683
 20
-235.621799
 30
0.0
 11
-418.034681
 21
-234.813508
 31
0.0
  0
ARC
  5
1F3
100
AcDbEntity
  8
0
370
    -3
390
0
  6
Continuous
100
AcDbCircle
 10
-614.534683
 20
-325.081462
 30
0.0
 40
10.0
100
AcDbArc
 50
184.494157
 51
233.130102
  0
ARC
  5
1F4
100
AcDbEntity
  8
0
370
    -3
390
0
  6
Continuous
100
AcDbCircle
 10
-459.534683
 20
-325.081462
 30
0.0
 40
10.0
100
AcDbArc
 50
306.869898
 51
355.505843
  0
CIRCLE
  5
1F5
100
AcDbEntity
  8
0
370
    -3
390
0
  6
Continuous
100
AcDbCircle
 10
-671.384972
 20
-30.731173
 30
0.0
 40
12.0
  0
CIRCLE
  5
1F6
100
AcDbEntity
  8
0
370
    -3
390
0
  6
Continuous
100
AcDbCircle
 10
-402.684395
 20
-30.731173
 30
0.0
 40
12.0
  0
CIRCLE
  5
1F7
100
AcDbEntity
  8
0
370
    -3
390
0
  6
Continuous
100
AcDbCircle
 10
-402.684395
 20
-299.43175
 30
0.0
 40
12.0
  0
ARC
  5
1F8
100
AcDbEntity
  8
0
370
    -3
390
0
  6
Continuous
100
AcDbCircle
 10
-394.534683
 20
-22.581462
 30
0.0
 40
15.0
100
AcDbArc
 50
0.0
 51
90.0
  0
ARC
  5
1F9
100
AcDbEntity
  8
0
370
    -3
390
0
  6
Continuous
100
AcDbCircle
 10
-394.534683
 20
-307.581462
 30
0.0
 40
15.0
100
AcDbArc
 50
270.0
 51
0.0
  0
ARC
  5
1FA
100
AcDbEntity
  8
0
370
    -3
390
0
  6
Continuous
100
AcDbCircle
 10
-679.534683
 20
-307.581462
 30
0.0
 40
15.0
100
AcDbArc
 50
180.0
 51
270.0
  0
ARC
  5
1FB
100
AcDbEntity
  8
0
370
    -3
390
0
  6
Continuous
100
AcDbCircle
 10
-679.534683
 20
-22.581462
 30
0.0
 40
15.0
100
AcDbArc
 50
90.0
 51
180.0
  0
CIRCLE
  5
1FC
100
AcDbEntity
  8
0
370
    -3
390
0
  6
Continuous
100
AcDbCircle
 10
-671.384972
 20
-299.43175
 30
0.0
 40
12.0
  0
ARC
  5
1FD
100
AcDbEntity
  8
0
370
    -3
390
0
  6
Continuous
100
AcDbCircle
 10
-632.479339
 20
-326.491895
 30
0.0
 40
8.0
100
AcDbArc
 50
4.494157
 51
54.885533
  0
ARC
  5
1FE
100
AcDbEntity
  8
0
370
    -3
390
0
  6
Continuous
100
AcDbCircle
 10
-441.590027
 20
-326.491895
 30
0.0
 40
8.0
100
AcDbArc
 50
125.114467
 51
175.505843
  0
ARC
  5
1FF
100
AcDbEntity
  8
0
370
    -3
390
0
  6
Continuous
100
AcDbCircle
 10
-538.534683
 20
-36.704384
 30
0.0
 40
2.0
100
AcDbArc
 50
146.321129
 51
180.0
  0
ARC
  5
200
100
AcDbEntity
  8
0
370
    -3
390
0
  6
Continuous
100
AcDbCircle
 10
-545.534683
 20
-25.064001
 30
0.0
 40
5.0
100
AcDbArc
 50
36.620203
 51
90.0
  0
ARC
  5
201
100
AcDbEntity
  8
0
370
    -3
390
0
  6
Continuous
100
AcDbCircle
 10
-535.534683
 20
-36.704384
 30
0.0
 40
2.0
100
AcDbArc
 50
0.0
 51
33.678871
  0
ARC
  5
202
100
AcDbEntity
  8
0
370
    -3
390
0
  6
Continuous
100
AcDbCircle
 10
-528.534683
 20
-25.064001
 30
0.0
 40
5.0
100
AcDbArc
 50
90.0
 51
143.379797
  0
ARC
  5
203
100
AcDbEntity
  8
0
370
    -3
390
0
  6
Continuous
100
AcDbCircle
 10
-640.992541
 20
-49.102788
 30
0.0
 40
5.0
100
AcDbArc
 50
122.993026
 51
225.0
  0
ARC
  5
204
100
AcDbEntity
  8
0
370
    -3
390
0
  6
Continuous
100
AcDbCircle
 10
-619.175266
 20
-70.920064
 30
0.0
 40
5.0
100
AcDbArc
 50
225.0
 51
299.793442
  0
ARC
  5
205
100
AcDbEntity
  8
0
370
    -3
390
0
  6
Continuous
100
AcDbCircle
 10
-633.50873
 20
-80.62823
 30
0.0
 40
5.0
100
AcDbArc
 50
308.426739
 51
45.0
  0
ARC
  5
206
100
AcDbEntity
  8
0
370
    -3
390
0
  6
Continuous
100
AcDbCircle
 10
-654.83305
 20
-59.30391
 30
0.0
 40
5.0
100
AcDbArc
 50
45.0
 51
129.79098
  0
ARC
  5
207
100
AcDbEntity
  8
0
370
    -3
390
0
  6
Continuous
100
AcDbCircle
 10
-440.560637
 20
-80.62823
 30
0.0
 40
5.0
100
AcDbArc
 50
135.0
 51
231.573261
  0
ARC
  5
208
100
AcDbEntity
  8
0
370
    -3
390
0
  6
Continuous
100
AcDbCircle
 10
-454.894101
 20
-70.920064
 30
0.0
 40
5.0
100
AcDbArc
 50
240.206558
 51
315.0
  0
ARC
  5
209
100
AcDbEntity
  8
0
370
    -3
390
0
  6
Continuous
100
AcDbCircle
 10
-419.236317
 20
-59.30391
 30
0.0
 40
5.0
100
AcDbArc
 50
50.20902
 51
135.0
  0
ARC
  5
20A
100
AcDbEntity
  8
0
370
    -3
390
0
  6
Continuous
100
AcDbCircle
 10
-433.076826
 20
-49.102788
 30
0.0
 40
5.0
100
AcDbArc
 50
315.0
 51
57.006974
  0
LINE
  5
20B
100
AcDbEntity
  8
0
370
    -3
390
0
  6
Continuous
100
AcDbLine
 10
-537.034683
 20
-333.081462
 30
0.0
 11
-620.534683
 21
-333.081462
 31
0.0
  0
LINE
  5
20C
100
AcDbEntity
  8
0
370
    -3
390
0
  6
Continuous
100
AcDbLine
 10
-537.034683
 20
-333.081462
 30
0.0
 11
-453.534683
 21
-333.081462
 31
0.0
  0
LINE
  5
20D
100
AcDbEntity
  8
0
370
    -3
390
0
  6
Continuous
100
AcDbLine
 10
-394.534683
 20
-7.581462
 30
0.0
 11
-679.534683
 21
-7.581462
 31
0.0
  0
LINE
  5
20E
100
AcDbEntity
  8
0
370
    -3
390
0
  6
Continuous
100
AcDbLine
 10
-694.534683
 20
-22.581462
 30
0.0
 11
-694.534683
 21
-307.581462
 31
0.0
  0
LINE
  5
20F
100
AcDbEntity
  8
0
370
    -3
390
0
  6
Continuous
100
AcDbLine
 10
-379.534683
 20
-22.581462
 30
0.0
 11
-379.534683
 21
-172.989505
 31
0.0
  0
LINE
  5
210
100
AcDbEntity
  8
0
370
    -3
390
0
  6
Continuous
100
AcDbLine
 10
-629.027496
 20
-322.581462
 30
0.0
 11
-679.534683
 21
-322.581462
 31
0.0
  0
LINE
  5
211
100
AcDbEntity
  8
0
370
    -3
390
0
  6
Continuous
100
AcDbLine
 10
-394.534683
 20
-322.581462
 30
0.0
 11
-445.041871
 21
-322.581462
 31
0.0
  0
LINE
  5
212
100
AcDbEntity
  8
0
370
    -3
390
0
  6
Continuous
100
AcDbLine
 10
-644.528075
 20
-52.638322
 30
0.0
 11
-622.7108
 21
-74.455598
 31
0.0
  0
LINE
  5
213
100
AcDbEntity
  8
0
370
    -3
390
0
  6
Continuous
100
AcDbLine
 10
-651.297516
 20
-55.768376
 30
0.0
 11
-629.973196
 21
-77.092696
 31
0.0
  0
LINE
  5
214
100
AcDbEntity
  8
0
370
    -3
390
0
  6
Continuous
100
AcDbLine
 10
-429.541292
 20
-52.638322
 30
0.0
 11
-451.358567
 21
-74.455598
 31
0.0
  0
LINE
  5
215
100
AcDbEntity
  8
0
370
    -3
390
0
  6
Continuous
100
AcDbLine
 10
-422.771851
 20
-55.768376
 30
0.0
 11
-444.096171
 21
-77.092696
 31
0.0
  0
ARC
  5
216
100
AcDbEntity
  8
0
370
    -3
390
0
  6
Continuous
100
AcDbCircle
 10
-562.034683
 20
-170.719633
 30
0.0
 40
110.0
100
AcDbArc
 50
92.924524
 51
180.0
  0
ARC
  5
217
100
AcDbEntity
  8
0
370
    -3
390
0
  6
Continuous
100
AcDbCircle
 10
-512.034683
 20
-170.719633
 30
0.0
 40
110.0
100
AcDbArc
 50
0.741461
 51
87.075476
  0
LINE
  5
218
100
AcDbEntity
  8
0
370
    -3
390
0
  6
CENTER
100
AcDbLine
 10
-537.034683
 20
9.607924
 30
0.0
 11
-537.034683
 21
-348.99449
 31
0.0
  0
ARC
  5
219
100
AcDbEntity
  8
0
370
    -3
390
0
  6
Continuous
100
AcDbCircle
 10
-668.403863
 20
-225.081462
 30
0.0
 40
3.0
100
AcDbArc
 50
90.0
 51
194.970401
  0
ARC
  5
21A
100
AcDbEntity
  8
0
370
    -3
390
0
  6
Continuous
100
AcDbCircle
 10
-669.034683
 20
-193.081462
 30
0.0
 40
3.0
100
AcDbArc
 50
180.0
 51
270.0
  0
ARC
  5
21B
100
AcDbEntity
  8
0
370
    -3
390
0
  6
Continuous
100
AcDbCircle
 10
-490.483032
 20
-256.961512
 30
0.0
 40
77.0
100
AcDbArc
 50
305.114467
 51
340.0
  0
ARC
  5
21C
100
AcDbEntity
  8
0
370
    -3
390
0
  6
Continuous
100
AcDbCircle
 10
-441.590027
 20
-326.491895
 30
0.0
 40
8.0
100
AcDbArc
 50
125.114467
 51
175.505843
  0
ARC
  5
21D
100
AcDbEntity
  8
0
370
    -3
390
0
  6
Continuous
100
AcDbCircle
 10
-632.479339
 20
-326.491895
 30
0.0
 40
8.0
100
AcDbArc
 50
4.494157
 51
54.885533
  0
ARC
  5
21E
100
AcDbEntity
  8
0
370
    -3
390
0
  6
Continuous
100
AcDbCircle
 10
-583.586335
 20
-256.961512
 30
0.0
 40
77.0
100
AcDbArc
 50
200.0
 51
234.885533
  0
ARC
  5
21F
100
AcDbEntity
  8
0
370
    -3
390
0
  6
Continuous
100
AcDbCircle
 10
-652.034683
 20
-220.488707
 30
0.0
 40
20.0
100
AcDbArc
 50
180.0
 51
194.970401
  0
ARC
  5
220
100
AcDbEntity
  8
0
370
    -3
390
0
  6
Continuous
100
AcDbCircle
 10
-443.027637
 20
-311.109324
 30
0.0
 40
5.0
100
AcDbArc
 50
311.231476
 51
45.0
  0
ARC
  5
221
100
AcDbEntity
  8
0
370
    -3
390
0
  6
Continuous
100
AcDbCircle
 10
-431.641192
 20
-298.454137
 30
0.0
 40
5.0
100
AcDbArc
 50
225.0
 51
324.810226
  0
ARC
  5
222
100
AcDbEntity
  8
0
370
    -3
390
0
  6
Continuous
100
AcDbCircle
 10
-642.428175
 20
-298.454137
 30
0.0
 40
5.0
100
AcDbArc
 50
215.189774
 51
315.0
  0
ARC
  5
223
100
AcDbEntity
  8
0
370
    -3
390
0
  6
Continuous
100
AcDbCircle
 10
-631.04173
 20
-311.109324
 30
0.0
 40
5.0
100
AcDbArc
 50
135.0
 51
228.768524
  0
LINE
  5
224
100
AcDbEntity
  8
0
370
    -3
390
0
  6
Continuous
100
AcDbLine
 10
-653.946292
 20
-222.081462
 30
0.0
 11
-668.403863
 21
-222.081462
 31
0.0
  0
LINE
  5
225
100
AcDbEntity
  8
0
370
    -3
390
0
  6
Continuous
100
AcDbLine
 10
-654.153871
 20
-196.081462
 30
0.0
 11
-669.034683
 21
-196.081462
 31
0.0
  0
LINE
  5
226
100
AcDbEntity
  8
0
370
    -3
390
0
  6
Continuous
100
AcDbLine
 10
-672.034683
 20
-170.719633
 30
0.0
 11
-672.034683
 21
-220.488707
 31
0.0
  0
LINE
  5
227
100
AcDbEntity
  8
0
370
    -3
390
0
  6
Continuous
100
AcDbLine
 10
-409.636372
 20
-251.545127
 30
0.0
 11
-418.1267
 21
-283.297063
 31
0.0
  0
LINE
  5
228
100
AcDbEntity
  8
0
370
    -3
390
0
  6
Continuous
100
AcDbLine
 10
-671.355871
 20
-225.655108
 30
0.0
 11
-655.942667
 21
-283.297063
 31
0.0
  0
LINE
  5
229
100
AcDbEntity
  8
0
370
    -3
390
0
  6
CENTER
100
AcDbLine
 10
-711.461568
 20
-205.081462
 30
0.0
 11
-356.379432
 21
-205.081462
 31
0.0
  0
LINE
  5
22A
100
AcDbEntity
  8
0
370
    -3
390
0
  6
Continuous
100
AcDbLine
 10
-642.662886
 20
-104.403007
 30
0.0
 11
-630.993789
 21
-116.072103
 31
0.0
  0
LINE
  5
22B
100
AcDbEntity
  8
0
370
    -3
390
0
  6
Continuous
100
AcDbLine
 10
-638.475032
 20
-98.691366
 30
0.0
 11
-626.044042
 21
-111.122356
 31
0.0
  0
LINE
  5
22C
100
AcDbEntity
  8
0
370
    -3
390
0
  6
Continuous
100
AcDbLine
 10
-435.594335
 20
-98.691366
 30
0.0
 11
-448.025325
 21
-111.122356
 31
0.0
  0
LINE
  5
22D
100
AcDbEntity
  8
0
370
    -3
390
0
  6
Continuous
100
AcDbLine
 10
-431.406481
 20
-104.403007
 30
0.0
 11
-443.075578
 21
-116.072103
 31
0.0
  0
LINE
  5
22E
100
AcDbEntity
  8
0
370
    -3
390
0
  6
Continuous
100
AcDbLine
 10
-439.492103
 20
-307.57379
 30
0.0
 11
-448.025325
 21
-299.040567
 31
0.0
  0
LINE
  5
22F
100
AcDbEntity
  8
0
370
    -3
390
0
  6
Continuous
100
AcDbLine
 10
-435.176726
 20
-301.989671
 30
0.0
 11
-443.075578
 21
-294.09082
 31
0.0
  0
LINE
  5
230
100
AcDbEntity
  8
0
370
    -3
390
0
  6
Continuous
100
AcDbLine
 10
-638.892641
 20
-301.989671
 30
0.0
 11
-630.993789
 21
-294.09082
 31
0.0
  0
LINE
  5
231
100
AcDbEntity
  8
0
370
    -3
390
0
  6
Continuous
100
AcDbLine
 10
-634.577264
 20
-307.57379
 30
0.0
 11
-626.044042
 21
-299.040567
 31
0.0
  0
ARC
  5
232
100
AcDbEntity
  8
0
370
    -3
390
0
  6
Continuous
100
AcDbCircle
 10
-537.034683
 20
-660.081462
 30
0.0
 40
600.0
100
AcDbArc
 50
91.957987
 51
92.924524
  0
ARC
  5
233
100
AcDbEntity
  8
0
370
    -3
390
0
  6
Continuous
100
AcDbCircle
 10
-537.034683
 20
-660.081462
 30
0.0
 40
600.0
100
AcDbArc
 50
87.075476
 51
88.042013
  0
LINE
  5
234
100
AcDbEntity
  8
0
370
    -3
390
0
  6
Continuous
100
AcDbLine
 10
-557.534683
 20
-60.431773
 30
0.0
 11
-557.534683
 21
-86.081462
 31
0.0
  0
LINE
  5
235
100
AcDbEntity
  8
0
370
    -3
390
0
  6
Continuous
100
AcDbLine
 10
-516.534683
 20
-60.431773
 30
0.0
 11
-516.534683
 21
-86.081462
 31
0.0
  0
ARC
  5
236
100
AcDbEntity
  8
0
370
    -3
390
0
  6
Continuous
100
AcDbCircle
 10
-439.129869
 20
-95.155832
 30
0.0
 40
5.0
100
AcDbArc
 50
315.0
 51
46.026024
  0
ARC
  5
237
100
AcDbEntity
  8
0
370
    -3
390
0
  6
Continuous
100
AcDbCircle
 10
-427.870947
 20
-107.938541
 30
0.0
 40
5.0
100
AcDbArc
 50
36.720728
 51
135.0
  0
ARC
  5
238
100
AcDbEntity
  8
0
370
    -3
390
0
  6
Continuous
100
AcDbCircle
 10
-646.198419
 20
-107.938541
 30
0.0
 40
5.0
100
AcDbArc
 50
45.0
 51
143.279272
  0
ARC
  5
239
100
AcDbEntity
  8
0
370
    -3
390
0
  6
Continuous
100
AcDbCircle
 10
-634.939498
 20
-95.155832
 30
0.0
 40
5.0
100
AcDbArc
 50
133.973976
 51
225.0
  0
LINE
  5
23A
100
AcDbEntity
  8
0
370
    -3
390
0
  6
CENTER
100
AcDbLine
 10
-558.886879
 20
-165.081462
 30
0.0
 11
-506.909892
 21
-165.081462
 31
0.0
  0
CIRCLE
  5
23B
100
AcDbEntity
  8
0
370
    -3
390
0
  6
Continuous
100
AcDbCircle
 10
-537.034683
 20
-42.081462
 30
0.0
 40
10.0
  0
LINE
  5
23C
100
AcDbEntity
  8
0
370
    -3
390
0
  6
CENTER
100
AcDbLine
 10
-513.86677
 20
-42.081462
 30
0.0
 11
-560.889284
 21
-42.081462
 31
0.0
  0
LINE
  5
23D
100
AcDbEntity
  8
0
370
    -3
390
0
  6
Continuous
100
AcDbLine
 10
-526.534683
 20
-22.081462
 30
0.0
 11
-547.534683
 21
-22.081462
 31
0.0
  0
LINE
  5
23E
100
AcDbEntity
  8
0
370
    -3
390
0
  6
Continuous
100
AcDbLine
 10
-557.534683
 20
-32.081462
 30
0.0
 11
-557.534683
 21
-60.431773
 31
0.0
  0
ARC
  5
23F
100
AcDbEntity
  8
0
370
    -3
390
0
  6
Continuous
100
AcDbCircle
 10
-547.534683
 20
-32.081462
 30
0.0
 40
10.0
100
AcDbArc
 50
90.0
 51
180.0
  0
ARC
  5
240
100
AcDbEntity
  8
0
370
    -3
390
0
  6
Continuous
100
AcDbCircle
 10
-526.534683
 20
-32.081462
 30
0.0
 40
10.0
100
AcDbArc
 50
0.0
 51
90.0
  0
LINE
  5
241
100
AcDbEntity
  8
0
370
    -3
390
0
  6
Continuous
100
AcDbLine
 10
-516.534683
 20
-32.081462
 30
0.0
 11
-516.534683
 21
-60.431773
 31
0.0
  0
LINE
  5
242
100
AcDbEntity
  8
0
370
    -3
390
0
  6
Continuous
100
AcDbLine
 10
-533.534683
 20
-32.713965
 30
0.0
 11
-533.534683
 21
-51.448959
 31
0.0
  0
LINE
  5
243
100
AcDbEntity
  8
0
370
    -3
390
0
  6
Continuous
100
AcDbLine
 10
-540.534683
 20
-32.713965
 30
0.0
 11
-540.534683
 21
-51.448959
 31
0.0
  0
ARC
  5
244
100
AcDbEntity
  8
0
370
    -3
390
0
  6
Continuous
100
AcDbCircle
 10
-521.534683
 20
-86.081462
 30
0.0
 40
5.0
100
AcDbArc
 50
333.911117
 51
0.0
  0
ARC
  5
245
100
AcDbEntity
  8
0
370
    -3
390
0
  6
Continuous
100
AcDbCircle
 10
-552.534683
 20
-86.081462
 30
0.0
 40
5.0
100
AcDbArc
 50
180.0
 51
206.088883
  0
LINE
  5
246
100
AcDbEntity
  8
0
370
    -3
390
0
  6
Continuous
100
AcDbLine
 10
-459.534688
 20
-328.54556
 30
0.0
 11
-462.534681
 21
-326.813508
 31
0.0
  0
LINE
  5
247
100
AcDbEntity
  8
0
370
    -3
390
0
  6
Continuous
100
AcDbLine
 10
-459.534677
 20
-321.617365
 30
0.0
 11
-456.534686
 21
-323.349415
 31
0.0
  0
LINE
  5
248
100
AcDbEntity
  8
0
370
    -3
390
0
  6
Continuous
100
AcDbLine
 10
-456.534685
 20
-326.813513
 30
0.0
 11
-459.534688
 21
-328.54556
 31
0.0
  0
LINE
  5
249
100
AcDbEntity
  8
0
370
    -3
390
0
  6
Continuous
100
AcDbLine
 10
-459.534677
 20
-321.617365
 30
0.0
 11
-462.534681
 21
-323.34941
 31
0.0
  0
LINE
  5
24A
100
AcDbEntity
  8
0
370
    -3
390
0
  6
Continuous
100
AcDbLine
 10
-456.534687
 20
-323.349415
 30
0.0
 11
-456.534686
 21
-326.813513
 31
0.0
  0
LINE
  5
24B
100
AcDbEntity
  8
0
370
    -3
390
0
  6
Continuous
100
AcDbLine
 10
-462.53468
 20
-326.813508
 30
0.0
 11
-462.534681
 21
-323.34941
 31
0.0
  0
CIRCLE
  5
24C
100
AcDbEntity
  8
0
370
    -3
390
0
  6
Continuous
100
AcDbCircle
 10
-459.534683
 20
-325.081462
 30
0.0
 40
6.5
  0
CIRCLE
  5
24D
100
AcDbEntity
  8
0
370
    -3
390
0
  6
Continuous
100
AcDbCircle
 10
-459.534683
 20
-325.081462
 30
0.0
 40
5.633955
  0
LINE
  5
24E
100
AcDbEntity
  8
0
370
    -3
390
0
  6
Continuous
100
AcDbLine
 10
-529.534688
 20
-328.54556
 30
0.0
 11
-532.534681
 21
-326.813508
 31
0.0
  0
LINE
  5
24F
100
AcDbEntity
  8
0
370
    -3
390
0
  6
Continuous
100
AcDbLine
 10
-528.510006
 20
-322.20896
 30
0.0
 11
-526.534686
 21
-323.349415
 31
0.0
  0
LINE
  5
250
100
AcDbEntity
  8
0
370
    -3
390
0
  6
Continuous
100
AcDbLine
 10
-526.534685
 20
-326.813513
 30
0.0
 11
-529.534688
 21
-328.54556
 31
0.0
  0
LINE
  5
251
100
AcDbEntity
  8
0
370
    -3
390
0
  6
Continuous
100
AcDbLine
 10
-530.613689
 20
-322.240329
 30
0.0
 11
-532.534681
 21
-323.34941
 31
0.0
  0
LINE
  5
252
100
AcDbEntity
  8
0
370
    -3
390
0
  6
Continuous
100
AcDbLine
 10
-526.534687
 20
-323.349415
 30
0.0
 11
-526.534686
 21
-326.813513
 31
0.0
  0
LINE
  5
253
100
AcDbEntity
  8
0
370
    -3
390
0
  6
Continuous
100
AcDbLine
 10
-532.53468
 20
-326.813508
 30
0.0
 11
-532.534681
 21
-323.34941
 31
0.0
  0
ARC
  5
254
100
AcDbEntity
  8
0
370
    -3
390
0
  6
Continuous
100
AcDbCircle
 10
-529.534683
 20
-325.081462
 30
0.0
 40
6.5
100
AcDbArc
 50
154.457553
 51
27.247553
  0
ARC
  5
255
100
AcDbEntity
  8
0
370
    -3
390
0
  6
Continuous
100
AcDbCircle
 10
-529.534683
 20
-325.081462
 30
0.0
 40
5.633955
100
AcDbArc
 50
150.119185
 51
31.58592
  0
LINE
  5
256
100
AcDbEntity
  8
0
370
    -3
390
0
  6
Continuous
100
AcDbLine
 10
-614.534679
 20
-328.54556
 30
0.0
 11
-611.534686
 21
-326.813508
 31
0.0
  0
LINE
  5
257
100
AcDbEntity
  8
0
370
    -3
390
0
  6
Continuous
100
AcDbLine
 10
-614.53469
 20
-321.617365
 30
0.0
 11
-617.534681
 21
-323.349415
 31
0.0
  0
LINE
  5
258
100
AcDbEntity
  8
0
370
    -3
390
0
  6
Continuous
100
AcDbLine
 10
-617.534682
 20
-326.813513
 30
0.0
 11
-614.534679
 21
-328.54556
 31
0.0
  0
LINE
  5
259
100
AcDbEntity
  8
0
370
    -3
390
0
  6
Continuous
100
AcDbLine
 10
-614.53469
 20
-321.617365
 30
0.0
 11
-611.534685
 21
-323.34941
 31
0.0
  0
LINE
  5
25A
100
AcDbEntity
  8
0
370
    -3
390
0
  6
Continuous
100
AcDbLine
 10
-617.53468
 20
-323.349415
 30
0.0
 11
-617.534681
 21
-326.813513
 31
0.0
  0
LINE
  5
25B
100
AcDbEntity
  8
0
370
    -3
390
0
  6
Continuous
100
AcDbLine
 10
-611.534687
 20
-326.813508
 30
0.0
 11
-611.534686
 21
-323.34941
 31
0.0
  0
CIRCLE
  5
25C
100
AcDbEntity
  8
0
370
    -3
390
0
  6
Continuous
100
AcDbCircle
 10
-614.534683
 20
-325.081462
 30
0.0
 40
6.5
  0
CIRCLE
  5
25D
100
AcDbEntity
  8
0
370
    -3
390
0
  6
Continuous
100
AcDbCircle
 10
-614.534683
 20
-325.081462
 30
0.0
 40
5.633955
  0
LINE
  5
25E
100
AcDbEntity
  8
0
370
    -3
390
0
  6
Continuous
100
AcDbLine
 10
-659.034679
 20
-236.54556
 30
0.0
 11
-656.034686
 21
-234.813508
 31
0.0
  0
LINE
  5
25F
100
AcDbEntity
  8
0
370
    -3
390
0
  6
Continuous
100
AcDbLine
 10
-659.03469
 20
-229.617365
 30
0.0
 11
-662.034681
 21
-231.349415
 31
0.0
  0
LINE
  5
260
100
AcDbEntity
  8
0
370
    -3
390
0
  6
Continuous
100
AcDbLine
 10
-662.034682
 20
-234.813513
 30
0.0
 11
-659.034679
 21
-236.54556
 31
0.0
  0
LINE
  5
261
100
AcDbEntity
  8
0
370
    -3
390
0
  6
Continuous
100
AcDbLine
 10
-659.03469
 20
-229.617365
 30
0.0
 11
-656.034685
 21
-231.34941
 31
0.0
  0
LINE
  5
262
100
AcDbEntity
  8
0
370
    -3
390
0
  6
Continuous
100
AcDbLine
 10
-662.03468
 20
-231.349415
 30
0.0
 11
-662.034681
 21
-234.813513
 31
0.0
  0
LINE
  5
263
100
AcDbEntity
  8
0
370
    -3
390
0
  6
Continuous
100
AcDbLine
 10
-656.034687
 20
-234.813508
 30
0.0
 11
-656.034686
 21
-231.34941
 31
0.0
  0
ARC
  5
264
100
AcDbEntity
  8
0
370
    -3
390
0
  6
Continuous
100
AcDbCircle
 10
-659.034683
 20
-233.081462
 30
0.0
 40
6.5
100
AcDbArc
 50
33.93453
 51
333.328355
  0
ARC
  5
265
100
AcDbEntity
  8
0
370
    -3
390
0
  6
Continuous
100
AcDbCircle
 10
-659.034683
 20
-233.081462
 30
0.0
 40
5.633955
100
AcDbArc
 50
11.479296
 51
355.129055
  0
LINE
  5
266
100
AcDbEntity
  8
0
370
    -3
390
0
  6
Continuous
100
AcDbLine
 10
-658.034679
 20
-146.545561
 30
0.0
 11
-655.034686
 21
-144.813509
 31
0.0
  0
LINE
  5
267
100
AcDbEntity
  8
0
370
    -3
390
0
  6
Continuous
100
AcDbLine
 10
-658.03469
 20
-139.617365
 30
0.0
 11
-661.034681
 21
-141.349416
 31
0.0
  0
LINE
  5
268
100
AcDbEntity
  8
0
370
    -3
390
0
  6
Continuous
100
AcDbLine
 10
-661.034682
 20
-144.813514
 30
0.0
 11
-658.034679
 21
-146.545561
 31
0.0
  0
LINE
  5
269
100
AcDbEntity
  8
0
370
    -3
390
0
  6
Continuous
100
AcDbLine
 10
-658.03469
 20
-139.617365
 30
0.0
 11
-655.034685
 21
-141.349411
 31
0.0
  0
LINE
  5
26A
100
AcDbEntity
  8
0
370
    -3
390
0
  6
Continuous
100
AcDbLine
 10
-661.03468
 20
-141.349415
 30
0.0
 11
-661.034681
 21
-144.813513
 31
0.0
  0
LINE
  5
26B
100
AcDbEntity
  8
0
370
    -3
390
0
  6
Continuous
100
AcDbLine
 10
-655.034687
 20
-144.813508
 30
0.0
 11
-655.034686
 21
-141.34941
 31
0.0
  0
CIRCLE
  5
26C
100
AcDbEntity
  8
0
370
    -3
390
0
  6
Continuous
100
AcDbCircle
 10
-658.034683
 20
-143.081462
 30
0.0
 40
6.5
  0
CIRCLE
  5
26D
100
AcDbEntity
  8
0
370
    -3
390
0
  6
Continuous
100
AcDbCircle
 10
-658.034683
 20
-143.081462
 30
0.0
 40
5.633955
  0
LINE
  5
26E
100
AcDbEntity
  8
0
370
    -3
390
0
  6
Continuous
100
AcDbLine
 10
-587.034679
 20
-77.545561
 30
0.0
 11
-584.034686
 21
-75.813509
 31
0.0
  0
LINE
  5
26F
100
AcDbEntity
  8
0
370
    -3
390
0
  6
Continuous
100
AcDbLine
 10
-587.03469
 20
-70.617365
 30
0.0
 11
-590.034681
 21
-72.349416
 31
0.0
  0
LINE
  5
270
100
AcDbEntity
  8
0
370
    -3
390
0
  6
Continuous
100
AcDbLine
 10
-590.034682
 20
-75.813514
 30
0.0
 11
-587.034679
 21
-77.545561
 31
0.0
  0
LINE
  5
271
100
AcDbEntity
  8
0
370
    -3
390
0
  6
Continuous
100
AcDbLine
 10
-587.03469
 20
-70.617365
 30
0.0
 11
-584.034685
 21
-72.349411
 31
0.0
  0
LINE
  5
272
100
AcDbEntity
  8
0
370
    -3
390
0
  6
Continuous
100
AcDbLine
 10
-590.03468
 20
-72.349415
 30
0.0
 11
-590.034681
 21
-75.813513
 31
0.0
  0
LINE
  5
273
100
AcDbEntity
  8
0
370
    -3
390
0
  6
Continuous
100
AcDbLine
 10
-584.034687
 20
-75.813508
 30
0.0
 11
-584.034686
 21
-72.34941
 31
0.0
  0
CIRCLE
  5
274
100
AcDbEntity
  8
0
370
    -3
390
0
  6
Continuous
100
AcDbCircle
 10
-587.034683
 20
-74.081462
 30
0.0
 40
6.5
  0
CIRCLE
  5
275
100
AcDbEntity
  8
0
370
    -3
390
0
  6
Continuous
100
AcDbCircle
 10
-587.034683
 20
-74.081462
 30
0.0
 40
5.633955
  0
LINE
  5
276
100
AcDbEntity
  8
0
370
    -3
390
0
  6
Continuous
100
AcDbLine
 10
-415.034688
 20
-236.54556
 30
0.0
 11
-415.838527
 21
-236.081462
 31
0.0
  0
LINE
  5
277
100
AcDbEntity
  8
0
370
    -3
390
0
  6
Continuous
100
AcDbLine
 10
-414.230843
 20
-236.081462
 30
0.0
 11
-415.034688
 21
-236.54556
 31
0.0
  0
LINE
  5
278
100
AcDbEntity
  8
0
370
    -3
390
0
  6
Continuous
100
AcDbLine
 10
-416.896447
 20
-230.692253
 30
0.0
 11
-418.034681
 21
-231.34941
 31
0.0
  0
LINE
  5
279
100
AcDbEntity
  8
0
370
    -3
390
0
  6
Continuous
100
AcDbLine
 10
-418.03468
 20
-234.813508
 30
0.0
 11
-418.034681
 21
-231.34941
 31
0.0
  0
ARC
  5
27A
100
AcDbEntity
  8
0
370
    -3
390
0
  6
Continuous
100
AcDbCircle
 10
-415.034683
 20
-233.081462
 30
0.0
 40
6.5
100
AcDbArc
 50
206.671645
 51
278.849883
  0
ARC
  5
27B
100
AcDbEntity
  8
0
370
    -3
390
0
  6
Continuous
100
AcDbCircle
 10
-415.034683
 20
-233.081462
 30
0.0
 40
5.633955
100
AcDbArc
 50
184.870945
 51
280.223896
  0
LINE
  5
27C
100
AcDbEntity
  8
0
370
    -3
390
0
  6
Continuous
100
AcDbLine
 10
-416.034688
 20
-146.545561
 30
0.0
 11
-419.034681
 21
-144.813509
 31
0.0
  0
LINE
  5
27D
100
AcDbEntity
  8
0
370
    -3
390
0
  6
Continuous
100
AcDbLine
 10
-416.034677
 20
-139.617365
 30
0.0
 11
-413.034686
 21
-141.349416
 31
0.0
  0
LINE
  5
27E
100
AcDbEntity
  8
0
370
    -3
390
0
  6
Continuous
100
AcDbLine
 10
-413.034685
 20
-144.813514
 30
0.0
 11
-416.034688
 21
-146.545561
 31
0.0
  0
LINE
  5
27F
100
AcDbEntity
  8
0
370
    -3
390
0
  6
Continuous
100
AcDbLine
 10
-416.034677
 20
-139.617365
 30
0.0
 11
-419.034681
 21
-141.349411
 31
0.0
  0
LINE
  5
280
100
AcDbEntity
  8
0
370
    -3
390
0
  6
Continuous
100
AcDbLine
 10
-413.034687
 20
-141.349415
 30
0.0
 11
-413.034686
 21
-144.813513
 31
0.0
  0
LINE
  5
281
100
AcDbEntity
  8
0
370
    -3
390
0
  6
Continuous
100
AcDbLine
 10
-419.03468
 20
-144.813508
 30
0.0
 11
-419.034681
 21
-141.34941
 31
0.0
  0
CIRCLE
  5
282
100
AcDbEntity
  8
0
370
    -3
390
0
  6
Continuous
100
AcDbCircle
 10
-416.034683
 20
-143.081462
 30
0.0
 40
6.5
  0
CIRCLE
  5
283
100
AcDbEntity
  8
0
370
    -3
390
0
  6
Continuous
100
AcDbCircle
 10
-416.034683
 20
-143.081462
 30
0.0
 40
5.633955
  0
LINE
  5
284
100
AcDbEntity
  8
0
370
    -3
390
0
  6
Continuous
100
AcDbLine
 10
-547.534679
 20
-73.54556
 30
0.0
 11
-544.534686
 21
-71.813508
 31
0.0
  0
LINE
  5
285
100
AcDbEntity
  8
0
370
    -3
390
0
  6
Continuous
100
AcDbLine
 10
-547.53469
 20
-66.617365
 30
0.0
 11
-550.534681
 21
-68.349415
 31
0.0
  0
LINE
  5
286
100
AcDbEntity
  8
0
370
    -3
390
0
  6
Continuous
100
AcDbLine
 10
-550.534682
 20
-71.813513
 30
0.0
 11
-547.534679
 21
-73.54556
 31
0.0
  0
LINE
  5
287
100
AcDbEntity
  8
0
370
    -3
390
0
  6
Continuous
100
AcDbLine
 10
-547.53469
 20
-66.617365
 30
0.0
 11
-544.534685
 21
-68.34941
 31
0.0
  0
LINE
  5
288
100
AcDbEntity
  8
0
370
    -3
390
0
  6
Continuous
100
AcDbLine
 10
-550.53468
 20
-68.349415
 30
0.0
 11
-550.534681
 21
-71.813513
 31
0.0
  0
LINE
  5
289
100
AcDbEntity
  8
0
370
    -3
390
0
  6
Continuous
100
AcDbLine
 10
-544.534687
 20
-71.813508
 30
0.0
 11
-544.534686
 21
-68.34941
 31
0.0
  0
CIRCLE
  5
28A
100
AcDbEntity
  8
0
370
    -3
390
0
  6
Continuous
100
AcDbCircle
 10
-547.534683
 20
-70.081462
 30
0.0
 40
6.5
  0
CIRCLE
  5
28B
100
AcDbEntity
  8
0
370
    -3
390
0
  6
Continuous
100
AcDbCircle
 10
-547.534683
 20
-70.081462
 30
0.0
 40
5.633955
  0
LINE
  5
28C
100
AcDbEntity
  8
0
370
    -3
390
0
  6
Continuous
100
AcDbLine
 10
-526.534688
 20
-73.54556
 30
0.0
 11
-529.534681
 21
-71.813508
 31
0.0
  0
LINE
  5
28D
100
AcDbEntity
  8
0
370
    -3
390
0
  6
Continuous
100
AcDbLine
 10
-526.534677
 20
-66.617365
 30
0.0
 11
-523.534686
 21
-68.349415
 31
0.0
  0
LINE
  5
28E
100
AcDbEntity
  8
0
370
    -3
390
0
  6
Continuous
100
AcDbLine
 10
-523.534685
 20
-71.813513
 30
0.0
 11
-526.534688
 21
-73.54556
 31
0.0
  0
LINE
  5
28F
100
AcDbEntity
  8
0
370
    -3
390
0
  6
Continuous
100
AcDbLine
 10
-526.534677
 20
-66.617365
 30
0.0
 11
-529.534681
 21
-68.34941
 31
0.0
  0
LINE
  5
290
100
AcDbEntity
  8
0
370
    -3
390
0
  6
Continuous
100
AcDbLine
 10
-523.534687
 20
-68.349415
 30
0.0
 11
-523.534686
 21
-71.813513
 31
0.0
  0
LINE
  5
291
100
AcDbEntity
  8
0
370
    -3
390
0
  6
Continuous
100
AcDbLine
 10
-529.53468
 20
-71.813508
 30
0.0
 11
-529.534681
 21
-68.34941
 31
0.0
  0
CIRCLE
  5
292
100
AcDbEntity
  8
0
370
    -3
390
0
  6
Continuous
100
AcDbCircle
 10
-526.534683
 20
-70.081462
 30
0.0
 40
6.5
  0
CIRCLE
  5
293
100
AcDbEntity
  8
0
370
    -3
390
0
  6
Continuous
100
AcDbCircle
 10
-526.534683
 20
-70.081462
 30
0.0
 40
5.633955
  0
LINE
  5
294
100
AcDbEntity
  8
0
370
    -3
390
0
  6
Continuous
100
AcDbLine
 10
-487.034688
 20
-77.545561
 30
0.0
 11
-490.034681
 21
-75.813509
 31
0.0
  0
LINE
  5
295
100
AcDbEntity
  8
0
370
    -3
390
0
  6
Continuous
100
AcDbLine
 10
-487.034677
 20
-70.617365
 30
0.0
 11
-484.034686
 21
-72.349416
 31
0.0
  0
LINE
  5
296
100
AcDbEntity
  8
0
370
    -3
390
0
  6
Continuous
100
AcDbLine
 10
-484.034685
 20
-75.813514
 30
0.0
 11
-487.034688
 21
-77.545561
 31
0.0
  0
LINE
  5
297
100
AcDbEntity
  8
0
370
    -3
390
0
  6
Continuous
100
AcDbLine
 10
-487.034677
 20
-70.617365
 30
0.0
 11
-490.034681
 21
-72.349411
 31
0.0
  0
LINE
  5
298
100
AcDbEntity
  8
0
370
    -3
390
0
  6
Continuous
100
AcDbLine
 10
-484.034687
 20
-72.349415
 30
0.0
 11
-484.034686
 21
-75.813513
 31
0.0
  0
LINE
  5
299
100
AcDbEntity
  8
0
370
    -3
390
0
  6
Continuous
100
AcDbLine
 10
-490.03468
 20
-75.813508
 30
0.0
 11
-490.034681
 21
-72.34941
 31
0.0
  0
CIRCLE
  5
29A
100
AcDbEntity
  8
0
370
    -3
390
0
  6
Continuous
100
AcDbCircle
 10
-487.034683
 20
-74.081462
 30
0.0
 40
6.5
  0
CIRCLE
  5
29B
100
AcDbEntity
  8
0
370
    -3
390
0
  6
Continuous
100
AcDbCircle
 10
-487.034683
 20
-74.081462
 30
0.0
 40
5.633955
  0
LINE
  5
29C
100
AcDbEntity
  8
0
370
    -3
390
0
  6
CENTER
100
AcDbLine
 10
-426.018919
 20
-54.065697
 30
0.0
 11
-379.349871
 21
-7.396649
 31
0.0
  0
ARC
  5
29D
100
AcDbEntity
  8
0
370
    -3
390
0
  6
CENTER
100
AcDbCircle
 10
-537.034683
 20
-165.081462
 30
0.0
 40
190.0
100
AcDbArc
 50
35.048026
 51
54.951974
  0
LINE
  5
29E
100
AcDbEntity
  8
0
370
    -3
390
0
  6
CENTER
100
AcDbLine
 10
-648.050448
 20
-54.065697
 30
0.0
 11
-694.719496
 21
-7.396649
 31
0.0
  0
ARC
  5
29F
100
AcDbEntity
  8
0
370
    -3
390
0
  6
CENTER
100
AcDbCircle
 10
-537.034683
 20
-165.081462
 30
0.0
 40
190.0
100
AcDbArc
 50
125.048026
 51
144.951974
  0
LINE
  5
2A0
100
AcDbEntity
  8
0
370
    -3
390
0
  6
CENTER
100
AcDbLine
 10
-648.050448
 20
-276.097226
 30
0.0
 11
-694.719496
 21
-322.766274
 31
0.0
  0
ARC
  5
2A1
100
AcDbEntity
  8
0
370
    -3
390
0
  6
CENTER
100
AcDbCircle
 10
-537.034683
 20
-165.081462
 30
0.0
 40
190.0
100
AcDbArc
 50
215.048026
 51
234.951974
  0
LINE
  5
2A2
100
AcDbEntity
  8
0
370
    -3
390
0
  6
CENTER
100
AcDbLine
 10
-426.018919
 20
-276.097226
 30
0.0
 11
-379.349871
 21
-322.766274
 31
0.0
  0
ARC
  5
2A3
100
AcDbEntity
  8
0
370
    -3
390
0
  6
CENTER
100
AcDbCircle
 10
-537.034683
 20
-165.081462
 30
0.0
 40
190.0
100
AcDbArc
 50
305.048026
 51
324.951974
  0
ARC
  5
2A4
100
AcDbEntity
  8
0
370
    -3
390
0
  6
Continuous
100
AcDbCircle
 10
40.791027
 20
61.918538
 30
0.0
 40
2.0
100
AcDbArc
 50
180.0
 51
270.0
  0
LINE
  5
2A5
100
AcDbEntity
  8
0
370
    -3
390
0
  6
Continuous
100
AcDbLine
 10
35.791027
 20
59.918538
 30
0.0
 11
49.791027
 21
59.918538
 31
0.0
  0
LINE
  5
2A6
100
AcDbEntity
  8
0
370
    -3
390
0
  6
Continuous
100
AcDbLine
 10
49.791027
 20
194.918538
 30
0.0
 11
49.791027
 21
59.918538
 31
0.0
  0
LINE
  5
2A7
100
AcDbEntity
  8
0
370
    -3
390
0
  6
Continuous
100
AcDbLine
 10
38.791027
 20
194.918538
 30
0.0
 11
38.791027
 21
61.918538
 31
0.0
  0
ARC
  5
2A8
100
AcDbEntity
  8
0
370
    -3
390
0
  6
Continuous
100
AcDbCircle
 10
35.791027
 20
61.918538
 30
0.0
 40
2.0
100
AcDbArc
 50
180.0
 51
270.0
  0
LINE
  5
2A9
100
AcDbEntity
  8
0
370
    -3
390
0
  6
Continuous
100
AcDbLine
 10
33.965524
 20
174.063237
 30
0.0
 11
29.686328
 21
174.21267
 31
0.0
  0
LINE
  5
2AA
100
AcDbEntity
  8
0
370
    -3
390
0
  6
Continuous
100
AcDbLine
 10
26.791027
 20
194.918538
 30
0.0
 11
26.791027
 21
174.418538
 31
0.0
  0
ARC
  5
2AB
100
AcDbEntity
  8
0
370
    -3
390
0
  6
Continuous
100
AcDbCircle
 10
33.791027
 20
169.066283
 30
0.0
 40
5.0
100
AcDbArc
 50
0.0
 51
88.0
  0
ARC
  5
2AC
100
AcDbEntity
  8
0
370
    -3
390
0
  6
Continuous
100
AcDbCircle
 10
29.791027
 20
177.210842
 30
0.0
 40
3.0
100
AcDbArc
 50
180.0
 51
268.0
  0
LINE
  5
2AD
100
AcDbEntity
  8
0
370
    -3
390
0
  6
Continuous
100
AcDbLine
 10
22.291027
 20
194.918538
 30
0.0
 11
22.291027
 21
174.418538
 31
0.0
  0
LINE
  5
2AE
100
AcDbEntity
  8
0
370
    -3
390
0
  6
Continuous
100
AcDbLine
 10
26.791027
 20
174.418538
 30
0.0
 11
22.291027
 21
174.418538
 31
0.0
  0
LINE
  5
2AF
100
AcDbEntity
  8
0
370
    -3
390
0
  6
Continuous
100
AcDbLine
 10
34.052707
 20
83.227775
 30
0.0
 11
1.791027
 21
84.918538
 31
0.0
  0
ARC
  5
2B0
100
AcDbEntity
  8
0
370
    -3
390
0
  6
Continuous
100
AcDbCircle
 10
33.791027
 20
78.234628
 30
0.0
 40
5.0
100
AcDbArc
 50
25.898748
 51
87.0
  0
LINE
  5
2B1
100
AcDbEntity
  8
0
370
    -3
390
0
  6
Continuous
100
AcDbLine
 10
1.791027
 20
84.918538
 30
0.0
 11
1.791027
 21
194.918538
 31
0.0
  0
ARC
  5
2B2
100
AcDbEntity
  8
0
370
    -3
390
0
  6
Continuous
100
AcDbCircle
 10
-0.208973
 20
97.918538
 30
0.0
 40
2.0
100
AcDbArc
 50
0.0
 51
90.0
  0
LINE
  5
2B3
100
AcDbEntity
  8
0
370
    -3
390
0
  6
Continuous
100
AcDbLine
 10
-0.208973
 20
99.918538
 30
0.0
 11
-0.208973
 21
194.918538
 31
0.0
  0
ARC
  5
2B4
100
AcDbEntity
  8
0
370
    -3
390
0
  6
Continuous
100
AcDbCircle
 10
28.791027
 20
78.496667
 30
0.0
 40
5.0
100
AcDbArc
 50
22.604905
 51
87.0
  0
LINE
  5
2B5
100
AcDbEntity
  8
0
370
    -3
390
0
  6
Continuous
100
AcDbLine
 10
33.791027
 20
61.918538
 30
0.0
 11
33.791027
 21
67.418538
 31
0.0
  0
ARC
  5
2B6
100
AcDbEntity
  8
0
370
    -3
390
0
  6
Continuous
100
AcDbCircle
 10
40.791027
 20
327.918538
 30
0.0
 40
2.0
100
AcDbArc
 50
90.0
 51
180.0
  0
LINE
  5
2B7
100
AcDbEntity
  8
0
370
    -3
390
0
  6
Continuous
100
AcDbLine
 10
35.791027
 20
329.918538
 30
0.0
 11
49.791027
 21
329.918538
 31
0.0
  0
LINE
  5
2B8
100
AcDbEntity
  8
0
370
    -3
390
0
  6
Continuous
100
AcDbLine
 10
49.791027
 20
194.918538
 30
0.0
 11
49.791027
 21
329.918538
 31
0.0
  0
LINE
  5
2B9
100
AcDbEntity
  8
0
370
    -3
390
0
  6
Continuous
100
AcDbLine
 10
38.791027
 20
194.918538
 30
0.0
 11
38.791027
 21
327.918538
 31
0.0
  0
ARC
  5
2BA
100
AcDbEntity
  8
0
370
    -3
390
0
  6
Continuous
100
AcDbCircle
 10
35.791027
 20
327.918538
 30
0.0
 40
2.0
100
AcDbArc
 50
90.0
 51
180.0
  0
LINE
  5
2BB
100
AcDbEntity
  8
0
370
    -3
390
0
  6
Continuous
100
AcDbLine
 10
33.965524
 20
215.77384
 30
0.0
 11
29.686328
 21
215.624407
 31
0.0
  0
LINE
  5
2BC
100
AcDbEntity
  8
0
370
    -3
390
0
  6
Continuous
100
AcDbLine
 10
26.791027
 20
194.918538
 30
0.0
 11
26.791027
 21
215.418538
 31
0.0
  0
ARC
  5
2BD
100
AcDbEntity
  8
0
370
    -3
390
0
  6
Continuous
100
AcDbCircle
 10
33.791027
 20
220.770794
 30
0.0
 40
5.0
100
AcDbArc
 50
272.0
 51
0.0
  0
ARC
  5
2BE
100
AcDbEntity
  8
0
370
    -3
390
0
  6
Continuous
100
AcDbCircle
 10
29.791027
 20
212.626234
 30
0.0
 40
3.0
100
AcDbArc
 50
92.0
 51
180.0
  0
LINE
  5
2BF
100
AcDbEntity
  8
0
370
    -3
390
0
  6
Continuous
100
AcDbLine
 10
22.291027
 20
194.918538
 30
0.0
 11
22.291027
 21
215.418538
 31
0.0
  0
LINE
  5
2C0
100
AcDbEntity
  8
0
370
    -3
390
0
  6
Continuous
100
AcDbLine
 10
26.791027
 20
215.418538
 30
0.0
 11
22.291027
 21
215.418538
 31
0.0
  0
LINE
  5
2C1
100
AcDbEntity
  8
0
370
    -3
390
0
  6
Continuous
100
AcDbLine
 10
34.052707
 20
306.609301
 30
0.0
 11
1.791027
 21
304.918538
 31
0.0
  0
ARC
  5
2C2
100
AcDbEntity
  8
0
370
    -3
390
0
  6
Continuous
100
AcDbCircle
 10
33.791027
 20
311.602449
 30
0.0
 40
5.0
100
AcDbArc
 50
273.0
 51
334.101252
  0
LINE
  5
2C3
100
AcDbEntity
  8
0
370
    -3
390
0
  6
Continuous
100
AcDbLine
 10
1.791027
 20
304.918538
 30
0.0
 11
1.791027
 21
194.918538
 31
0.0
  0
ARC
  5
2C4
100
AcDbEntity
  8
0
370
    -3
390
0
  6
Continuous
100
AcDbCircle
 10
-0.208973
 20
291.918538
 30
0.0
 40
2.0
100
AcDbArc
 50
270.0
 51
0.0
  0
LINE
  5
2C5
100
AcDbEntity
  8
0
370
    -3
390
0
  6
Continuous
100
AcDbLine
 10
-0.208973
 20
289.918538
 30
0.0
 11
-0.208973
 21
194.918538
 31
0.0
  0
ARC
  5
2C6
100
AcDbEntity
  8
0
370
    -3
390
0
  6
Continuous
100
AcDbCircle
 10
28.791027
 20
311.34041
 30
0.0
 40
5.0
100
AcDbArc
 50
273.0
 51
337.395095
  0
LINE
  5
2C7
100
AcDbEntity
  8
0
370
    -3
390
0
  6
Continuous
100
AcDbLine
 10
33.791027
 20
327.918538
 30
0.0
 11
33.791027
 21
322.418538
 31
0.0
  0
ARC
  5
2C8
100
AcDbEntity
  8
0
370
    -3
390
0
  6
Continuous
100
AcDbCircle
 10
127.428447
 20
107.777956
 30
0.0
 40
5.0
100
AcDbArc
 50
54.248857
 51
90.0
  0
LINE
  5
2C9
100
AcDbEntity
  8
0
370
    -3
390
0
  6
Continuous
100
AcDbLine
 10
130.349776
 20
111.835768
 30
0.0
 11
164.212356
 21
87.457172
 31
0.0
  0
ARC
  5
2CA
100
AcDbEntity
  8
0
370
    -3
390
0
  6
Continuous
100
AcDbCircle
 10
161.291027
 20
83.399361
 30
0.0
 40
5.0
100
AcDbArc
 50
0.0
 51
54.248857
  0
ARC
  5
2CB
100
AcDbEntity
  8
0
370
    -3
390
0
  6
Continuous
100
AcDbCircle
 10
127.428447
 20
98.937447
 30
0.0
 40
5.0
100
AcDbArc
 50
54.248857
 51
90.0
  0
ARC
  5
2CC
100
AcDbEntity
  8
0
370
    -3
390
0
  6
Continuous
100
AcDbCircle
 10
161.291027
 20
74.558852
 30
0.0
 40
5.0
100
AcDbArc
 50
0.0
 51
54.248857
  0
LINE
  5
2CD
100
AcDbEntity
  8
0
370
    -3
390
0
  6
Continuous
100
AcDbLine
 10
130.349776
 20
102.995259
 30
0.0
 11
164.212356
 21
78.616663
 31
0.0
  0
LINE
  5
2CE
100
AcDbEntity
  8
0
370
    -3
390
0
  6
Continuous
100
AcDbLine
 10
161.541423
 20
112.777956
 30
0.0
 11
134.069044
 21
112.777956
 31
0.0
  0
ARC
  5
2CF
100
AcDbEntity
  8
0
370
    -3
390
0
  6
Continuous
100
AcDbCircle
 10
134.041049
 20
186.418538
 30
0.0
 40
5.0
100
AcDbArc
 50
90.0
 51
180.0
  0
ARC
  5
2D0
100
AcDbEntity
  8
0
370
    -3
390
0
  6
Continuous
100
AcDbCircle
 10
134.041049
 20
203.418538
 30
0.0
 40
5.0
100
AcDbArc
 50
180.0
 51
270.0
  0
LINE
  5
2D1
100
AcDbEntity
  8
0
370
    -3
390
0
  6
Continuous
100
AcDbLine
 10
161.291027
 20
198.418538
 30
0.0
 11
134.041049
 21
198.418538
 31
0.0
  0
ARC
  5
2D2
100
AcDbEntity
  8
0
370
    -3
390
0
  6
Continuous
100
AcDbCircle
 10
161.291027
 20
203.418538
 30
0.0
 40
5.0
100
AcDbArc
 50
270.0
 51
0.0
  0
LINE
  5
2D3
100
AcDbEntity
  8
0
370
    -3
390
0
  6
Continuous
100
AcDbLine
 10
161.291027
 20
191.418538
 30
0.0
 11
134.041049
 21
191.418538
 31
0.0
  0
ARC
  5
2D4
100
AcDbEntity
  8
0
370
    -3
390
0
  6
Continuous
100
AcDbCircle
 10
161.291027
 20
186.418538
 30
0.0
 40
5.0
100
AcDbArc
 50
0.0
 51
90.0
  0
ARC
  5
2D5
100
AcDbEntity
  8
0
370
    -3
390
0
  6
Continuous
100
AcDbCircle
 10
127.428447
 20
282.059121
 30
0.0
 40
5.0
100
AcDbArc
 50
270.0
 51
305.751143
  0
LINE
  5
2D6
100
AcDbEntity
  8
0
370
    -3
390
0
  6
Continuous
100
AcDbLine
 10
130.349776
 20
278.001309
 30
0.0
 11
164.212356
 21
302.379905
 31
0.0
  0
ARC
  5
2D7
100
AcDbEntity
  8
0
370
    -3
390
0
  6
Continuous
100
AcDbCircle
 10
161.291027
 20
306.437716
 30
0.0
 40
5.0
100
AcDbArc
 50
305.751143
 51
0.0
  0
ARC
  5
2D8
100
AcDbEntity
  8
0
370
    -3
390
0
  6
Continuous
100
AcDbCircle
 10
127.428447
 20
290.89963
 30
0.0
 40
5.0
100
AcDbArc
 50
270.0
 51
305.751143
  0
ARC
  5
2D9
100
AcDbEntity
  8
0
370
    -3
390
0
  6
Continuous
100
AcDbCircle
 10
161.291027
 20
315.278225
 30
0.0
 40
5.0
100
AcDbArc
 50
305.751143
 51
0.0
  0
LINE
  5
2DA
100
AcDbEntity
  8
0
370
    -3
390
0
  6
Continuous
100
AcDbLine
 10
130.349776
 20
286.841818
 30
0.0
 11
164.212356
 21
311.220413
 31
0.0
  0
LINE
  5
2DB
100
AcDbEntity
  8
0
370
    -3
390
0
  6
Continuous
100
AcDbLine
 10
161.541423
 20
277.059121
 30
0.0
 11
134.069044
 21
277.059121
 31
0.0
  0
LINE
  5
2DC
100
AcDbEntity
  8
0
370
    -3
390
0
  6
Continuous
100
AcDbLine
 10
194.791027
 20
150.918538
 30
0.0
 11
195.791027
 21
150.918538
 31
0.0
  0
LINE
  5
2DD
100
AcDbEntity
  8
0
370
    -3
390
0
  6
Continuous
100
AcDbLine
 10
194.791027
 20
238.918538
 30
0.0
 11
195.791027
 21
238.918538
 31
0.0
  0
LINE
  5
2DE
100
AcDbEntity
  8
0
370
    -3
390
0
  6
Continuous
100
AcDbLine
 10
190.291027
 20
338.918538
 30
0.0
 11
189.291027
 21
339.918538
 31
0.0
  0
LINE
  5
2DF
100
AcDbEntity
  8
0
370
    -3
390
0
  6
Continuous
100
AcDbLine
 10
190.291027
 20
50.918538
 30
0.0
 11
189.291027
 21
49.918538
 31
0.0
  0
LINE
  5
2E0
100
AcDbEntity
  8
0
370
    -3
390
0
  6
Continuous
100
AcDbLine
 10
195.791027
 20
150.918538
 30
0.0
 11
195.791027
 21
238.918538
 31
0.0
  0
LINE
  5
2E1
100
AcDbEntity
  8
0
370
    -3
390
0
  6
Continuous
100
AcDbLine
 10
189.291027
 20
339.918538
 30
0.0
 11
186.291027
 21
339.918538
 31
0.0
  0
LINE
  5
2E2
100
AcDbEntity
  8
0
370
    -3
390
0
  6
Continuous
100
AcDbLine
 10
186.291027
 20
352.418538
 30
0.0
 11
169.291027
 21
352.418538
 31
0.0
  0
LINE
  5
2E3
100
AcDbEntity
  8
0
370
    -3
390
0
  6
Continuous
100
AcDbLine
 10
189.291027
 20
49.918538
 30
0.0
 11
186.291027
 21
49.918538
 31
0.0
  0
ARC
  5
2E4
100
AcDbEntity
  8
0
370
    -3
390
0
  6
Continuous
100
AcDbCircle
 10
188.791027
 20
129.918538
 30
0.0
 40
5.0
100
AcDbArc
 50
303.367013
 51
0.0
  0
ARC
  5
2E5
100
AcDbEntity
  8
0
370
    -3
390
0
  6
Continuous
100
AcDbCircle
 10
169.291027
 20
349.418538
 30
0.0
 40
3.0
100
AcDbArc
 50
90.0
 51
180.0
  0
ARC
  5
2E6
100
AcDbEntity
  8
0
370
    -3
390
0
  6
Continuous
100
AcDbCircle
 10
194.791027
 20
239.918538
 30
0.0
 40
1.0
100
AcDbArc
 50
180.0
 51
270.0
  0
ARC
  5
2E7
100
AcDbEntity
  8
0
370
    -3
390
0
  6
Continuous
100
AcDbCircle
 10
194.791027
 20
149.918538
 30
0.0
 40
1.0
100
AcDbArc
 50
90.0
 51
180.0
  0
LINE
  5
2E8
100
AcDbEntity
  8
0
370
    -3
390
0
  6
Continuous
100
AcDbLine
 10
186.291027
 20
194.918538
 30
0.0
 11
186.291027
 21
352.418538
 31
0.0
  0
LINE
  5
2E9
100
AcDbEntity
  8
0
370
    -3
390
0
  6
Continuous
100
AcDbLine
 10
193.791027
 20
194.918538
 30
0.0
 11
193.791027
 21
260.173716
 31
0.0
  0
LINE
  5
2EA
100
AcDbEntity
  8
0
370
    -3
390
0
  6
Continuous
100
AcDbLine
 10
190.291027
 20
194.918538
 30
0.0
 11
190.291027
 21
338.918538
 31
0.0
  0
ARC
  5
2EB
100
AcDbEntity
  8
0
370
    -3
390
0
  6
Continuous
100
AcDbCircle
 10
188.791027
 20
260.173716
 30
0.0
 40
5.0
100
AcDbArc
 50
0.0
 51
72.542397
  0
ARC
  5
2EC
100
AcDbEntity
  8
0
370
    -3
390
0
  6
Continuous
100
AcDbCircle
 10
169.291027
 20
40.418538
 30
0.0
 40
3.0
100
AcDbArc
 50
180.0
 51
270.0
  0
LINE
  5
2ED
100
AcDbEntity
  8
0
370
    -3
390
0
  6
Continuous
100
AcDbLine
 10
186.291027
 20
37.418538
 30
0.0
 11
169.291027
 21
37.418538
 31
0.0
  0
LINE
  5
2EE
100
AcDbEntity
  8
0
370
    -3
390
0
  6
Continuous
100
AcDbLine
 10
193.791027
 20
194.918538
 30
0.0
 11
193.791027
 21
129.918538
 31
0.0
  0
LINE
  5
2EF
100
AcDbEntity
  8
0
370
    -3
390
0
  6
Continuous
100
AcDbLine
 10
190.291027
 20
194.918538
 30
0.0
 11
190.291027
 21
50.918538
 31
0.0
  0
LINE
  5
2F0
100
AcDbEntity
  8
0
370
    -3
390
0
  6
Continuous
100
AcDbLine
 10
186.291027
 20
194.918538
 30
0.0
 11
186.291027
 21
37.418538
 31
0.0
  0
ARC
  5
2F1
100
AcDbEntity
  8
0
370
    -3
390
0
  6
Continuous
100
AcDbCircle
 10
194.291027
 20
121.566892
 30
0.0
 40
5.0
100
AcDbArc
 50
123.367013
 51
143.130102
  0
LINE
  5
2F2
100
AcDbEntity
  8
0
370
    -3
390
0
  6
CENTER
100
AcDbLine
 10
280.506924
 20
194.918538
 30
0.0
 11
-310.75797
 21
194.918538
 31
0.0
  0
LINE
  5
2F3
100
AcDbEntity
  8
0
370
    -3
390
0
  6
Continuous
100
AcDbLine
 10
166.291027
 20
40.418538
 30
0.0
 11
166.291027
 21
349.418538
 31
0.0
  0
LINE
  5
2F4
100
AcDbEntity
  8
0
370
    -3
390
0
  6
CENTER
100
AcDbLine
 10
204.428896
 20
329.268827
 30
0.0
 11
152.273851
 21
329.268827
 31
0.0
  0
LINE
  5
2F5
100
AcDbEntity
  8
0
370
    -3
390
0
  6
CENTER
100
AcDbLine
 10
204.428896
 20
60.56825
 30
0.0
 11
152.273851
 21
60.56825
 31
0.0
  0
ARC
  5
2F6
100
AcDbEntity
  8
0
370
    -3
390
0
  6
Continuous
100
AcDbCircle
 10
161.291027
 20
338.797792
 30
0.0
 40
5.0
100
AcDbArc
 50
272.0
 51
0.0
  0
LINE
  5
2F7
100
AcDbEntity
  8
0
370
    -3
390
0
  6
Continuous
100
AcDbLine
 10
161.465524
 20
333.800837
 30
0.0
 11
50.290722
 21
329.918528
 31
0.0
  0
ARC
  5
2F8
100
AcDbEntity
  8
0
370
    -3
390
0
  6
Continuous
100
AcDbCircle
 10
161.291027
 20
51.039285
 30
0.0
 40
5.0
100
AcDbArc
 50
0.0
 51
88.0
  0
LINE
  5
2F9
100
AcDbEntity
  8
0
370
    -3
390
0
  6
Continuous
100
AcDbLine
 10
161.465524
 20
56.036239
 30
0.0
 11
50.290722
 21
59.918549
 31
0.0
  0
LINE
  5
2FA
100
AcDbEntity
  8
0
370
    -3
390
0
  6
Continuous
100
AcDbLine
 10
50.291027
 20
59.918538
 30
0.0
 11
50.291027
 21
299.935999
 31
0.0
  0
LINE
  5
2FB
100
AcDbEntity
  8
0
370
    -3
390
0
  6
Continuous
100
AcDbLine
 10
50.291027
 20
59.918538
 30
0.0
 11
50.291027
 21
329.918538
 31
0.0
  0
ARC
  5
2FC
100
AcDbEntity
  8
0
370
    -3
390
0
  6
Continuous
100
AcDbCircle
 10
181.291027
 20
110.013705
 30
0.0
 40
2.0
100
AcDbArc
 50
180.0
 51
270.0
  0
ARC
  5
2FD
100
AcDbEntity
  8
0
370
    -3
390
0
  6
Continuous
100
AcDbCircle
 10
181.291027
 20
74.773878
 30
0.0
 40
2.0
100
AcDbArc
 50
180.0
 51
270.0
  0
LINE
  5
2FE
100
AcDbEntity
  8
0
370
    -3
390
0
  6
Continuous
100
AcDbLine
 10
186.291027
 20
72.773878
 30
0.0
 11
181.291027
 21
72.773878
 31
0.0
  0
LINE
  5
2FF
100
AcDbEntity
  8
0
370
    -3
390
0
  6
Continuous
100
AcDbLine
 10
186.291027
 20
108.013705
 30
0.0
 11
181.291027
 21
108.013705
 31
0.0
  0
ARC
  5
300
100
AcDbEntity
  8
0
370
    -3
390
0
  6
Continuous
100
AcDbCircle
 10
181.291027
 20
279.823372
 30
0.0
 40
2.0
100
AcDbArc
 50
90.0
 51
180.0
  0
ARC
  5
301
100
AcDbEntity
  8
0
370
    -3
390
0
  6
Continuous
100
AcDbCircle
 10
181.291027
 20
315.063199
 30
0.0
 40
2.0
100
AcDbArc
 50
90.0
 51
180.0
  0
LINE
  5
302
100
AcDbEntity
  8
0
370
    -3
390
0
  6
Continuous
100
AcDbLine
 10
186.291027
 20
317.063199
 30
0.0
 11
181.291027
 21
317.063199
 31
0.0
  0
LINE
  5
303
100
AcDbEntity
  8
0
370
    -3
390
0
  6
Continuous
100
AcDbLine
 10
186.291027
 20
281.823372
 30
0.0
 11
181.291027
 21
281.823372
 31
0.0
  0
LINE
  5
304
100
AcDbEntity
  8
0
370
    -3
390
0
  6
Continuous
100
AcDbLine
 10
179.291027
 20
194.918538
 30
0.0
 11
179.291027
 21
315.063199
 31
0.0
  0
LINE
  5
305
100
AcDbEntity
  8
0
370
    -3
390
0
  6
Continuous
100
AcDbLine
 10
179.291027
 20
194.918538
 30
0.0
 11
179.291027
 21
74.773878
 31
0.0
  0
LINE
  5
306
100
AcDbEntity
  8
0
370
    -3
390
0
  6
Continuous
100
AcDbLine
 10
202.791027
 20
167.418538
 30
0.0
 11
202.791027
 21
170.918538
 31
0.0
  0
LINE
  5
307
100
AcDbEntity
  8
0
370
    -3
390
0
  6
Continuous
100
AcDbLine
 10
197.791027
 20
194.918538
 30
0.0
 11
197.791027
 21
219.568538
 31
0.0
  0
LINE
  5
308
100
AcDbEntity
  8
0
370
    -3
390
0
  6
Continuous
100
AcDbLine
 10
197.591027
 20
219.918538
 30
0.0
 11
195.791027
 21
219.918538
 31
0.0
  0
LINE
  5
309
100
AcDbEntity
  8
0
370
    -3
390
0
  6
Continuous
100
AcDbLine
 10
199.791027
 20
218.768538
 30
0.0
 11
200.350834
 21
218.918538
 31
0.0
  0
LINE
  5
30A
100
AcDbEntity
  8
0
370
    -3
390
0
  6
Continuous
100
AcDbLine
 10
199.791027
 20
218.768538
 30
0.0
 11
198.591027
 21
218.768538
 31
0.0
  0
LINE
  5
30B
100
AcDbEntity
  8
0
370
    -3
390
0
  6
Continuous
100
AcDbLine
 10
197.791027
 20
219.568538
 30
0.0
 11
197.791027
 21
219.718538
 31
0.0
  0
ARC
  5
30C
100
AcDbEntity
  8
0
370
    -3
390
0
  6
Continuous
100
AcDbCircle
 10
198.591027
 20
219.568538
 30
0.0
 40
0.8
100
AcDbArc
 50
180.0
 51
270.0
  0
LINE
  5
30D
100
AcDbEntity
  8
0
370
    -3
390
0
  6
Continuous
100
AcDbLine
 10
197.791027
 20
219.718538
 30
0.0
 11
197.591027
 21
219.918538
 31
0.0
  0
LINE
  5
30E
100
AcDbEntity
  8
0
370
    -3
390
0
  6
Continuous
100
AcDbLine
 10
197.791027
 20
194.918538
 30
0.0
 11
197.791027
 21
170.268538
 31
0.0
  0
LINE
  5
30F
100
AcDbEntity
  8
0
370
    -3
390
0
  6
Continuous
100
AcDbLine
 10
197.591027
 20
169.918538
 30
0.0
 11
195.791027
 21
169.918538
 31
0.0
  0
LINE
  5
310
100
AcDbEntity
  8
0
370
    -3
390
0
  6
Continuous
100
AcDbLine
 10
199.791027
 20
171.068538
 30
0.0
 11
200.350834
 21
170.918538
 31
0.0
  0
LINE
  5
311
100
AcDbEntity
  8
0
370
    -3
390
0
  6
Continuous
100
AcDbLine
 10
199.791027
 20
171.068538
 30
0.0
 11
198.591027
 21
171.068538
 31
0.0
  0
LINE
  5
312
100
AcDbEntity
  8
0
370
    -3
390
0
  6
Continuous
100
AcDbLine
 10
197.791027
 20
170.268538
 30
0.0
 11
197.791027
 21
170.118538
 31
0.0
  0
ARC
  5
313
100
AcDbEntity
  8
0
370
    -3
390
0
  6
Continuous
100
AcDbCircle
 10
198.591027
 20
170.268538
 30
0.0
 40
0.8
100
AcDbArc
 50
90.0
 51
180.0
  0
LINE
  5
314
100
AcDbEntity
  8
0
370
    -3
390
0
  6
Continuous
100
AcDbLine
 10
197.791027
 20
170.118538
 30
0.0
 11
197.591027
 21
169.918538
 31
0.0
  0
LINE
  5
315
100
AcDbEntity
  8
0
370
    -3
390
0
  6
Continuous
100
AcDbLine
 10
272.391027
 20
218.918538
 30
0.0
 11
200.350834
 21
218.918538
 31
0.0
  0
LINE
  5
316
100
AcDbEntity
  8
0
370
    -3
390
0
  6
Continuous
100
AcDbLine
 10
272.791027
 20
194.918538
 30
0.0
 11
272.791027
 21
218.518538
 31
0.0
  0
ARC
  5
317
100
AcDbEntity
  8
0
370
    -3
390
0
  6
Continuous
100
AcDbCircle
 10
272.391027
 20
218.518538
 30
0.0
 40
0.4
100
AcDbArc
 50
0.0
 51
90.0
  0
LINE
  5
318
100
AcDbEntity
  8
0
370
    -3
390
0
  6
Continuous
100
AcDbLine
 10
272.791027
 20
167.418538
 30
0.0
 11
202.791027
 21
167.418538
 31
0.0
  0
LINE
  5
319
100
AcDbEntity
  8
0
370
    -3
390
0
  6
Continuous
100
AcDbLine
 10
272.791027
 20
194.918538
 30
0.0
 11
272.791027
 21
167.418538
 31
0.0
  0
LINE
  5
31A
100
AcDbEntity
  8
0
370
    -3
390
0
  6
Continuous
100
AcDbLine
 10
272.391027
 20
170.918538
 30
0.0
 11
200.350834
 21
170.918538
 31
0.0
  0
ARC
  5
31B
100
AcDbEntity
  8
0
370
    -3
390
0
  6
Continuous
100
AcDbCircle
 10
272.391027
 20
171.318538
 30
0.0
 40
0.4
100
AcDbArc
 50
270.0
 51
0.0
  0
LINE
  5
31C
100
AcDbEntity
  8
0
370
    -3
390
0
  6
Continuous
100
AcDbLine
 10
31.291028
 20
309.418538
 30
0.0
 11
31.291028
 21
322.418538
 31
0.0
  0
LINE
  5
31D
100
AcDbEntity
  8
0
370
    -3
390
0
  6
Continuous
100
AcDbLine
 10
31.291029
 20
322.418538
 30
0.0
 11
30.791028
 21
321.552609
 31
0.0
  0
LINE
  5
31E
100
AcDbEntity
  8
0
370
    -3
390
0
  6
Continuous
100
AcDbLine
 10
31.291028
 20
309.418538
 30
0.0
 11
30.791028
 21
310.284663
 31
0.0
  0
LINE
  5
31F
100
AcDbEntity
  8
0
370
    -3
390
0
  6
Continuous
100
AcDbLine
 10
38.791027
 20
322.418538
 30
0.0
 11
31.291029
 21
322.418538
 31
0.0
  0
LINE
  5
320
100
AcDbEntity
  8
0
370
    -3
390
0
  6
Continuous
100
AcDbLine
 10
38.791027
 20
309.418538
 30
0.0
 11
31.291028
 21
309.418538
 31
0.0
  0
LINE
  5
321
100
AcDbEntity
  8
0
370
    -3
390
0
  6
Continuous
100
AcDbLine
 10
30.791028
 20
310.284663
 30
0.0
 11
30.791028
 21
321.552609
 31
0.0
  0
LINE
  5
322
100
AcDbEntity
  8
0
370
    -3
390
0
  6
Continuous
100
AcDbLine
 10
31.291028
 20
238.418538
 30
0.0
 11
31.291028
 21
251.418538
 31
0.0
  0
LINE
  5
323
100
AcDbEntity
  8
0
370
    -3
390
0
  6
Continuous
100
AcDbLine
 10
31.291029
 20
251.418538
 30
0.0
 11
30.791028
 21
250.552609
 31
0.0
  0
LINE
  5
324
100
AcDbEntity
  8
0
370
    -3
390
0
  6
Continuous
100
AcDbLine
 10
31.291028
 20
238.418538
 30
0.0
 11
30.791028
 21
239.284663
 31
0.0
  0
LINE
  5
325
100
AcDbEntity
  8
0
370
    -3
390
0
  6
Continuous
100
AcDbLine
 10
38.791027
 20
251.418538
 30
0.0
 11
31.291029
 21
251.418538
 31
0.0
  0
LINE
  5
326
100
AcDbEntity
  8
0
370
    -3
390
0
  6
Continuous
100
AcDbLine
 10
38.791027
 20
238.418538
 30
0.0
 11
31.291028
 21
238.418538
 31
0.0
  0
LINE
  5
327
100
AcDbEntity
  8
0
370
    -3
390
0
  6
Continuous
100
AcDbLine
 10
30.791028
 20
239.284663
 30
0.0
 11
30.791028
 21
250.552609
 31
0.0
  0
LINE
  5
328
100
AcDbEntity
  8
0
370
    -3
390
0
  6
Continuous
100
AcDbLine
 10
14.791028
 20
198.918538
 30
0.0
 11
14.791028
 21
211.918538
 31
0.0
  0
LINE
  5
329
100
AcDbEntity
  8
0
370
    -3
390
0
  6
Continuous
100
AcDbLine
 10
14.791029
 20
211.918538
 30
0.0
 11
14.291028
 21
211.052609
 31
0.0
  0
LINE
  5
32A
100
AcDbEntity
  8
0
370
    -3
390
0
  6
Continuous
100
AcDbLine
 10
14.791028
 20
198.918538
 30
0.0
 11
14.291028
 21
199.784663
 31
0.0
  0
LINE
  5
32B
100
AcDbEntity
  8
0
370
    -3
390
0
  6
Continuous
100
AcDbLine
 10
22.291027
 20
211.918538
 30
0.0
 11
14.791029
 21
211.918538
 31
0.0
  0
LINE
  5
32C
100
AcDbEntity
  8
0
370
    -3
390
0
  6
Continuous
100
AcDbLine
 10
22.291027
 20
198.918538
 30
0.0
 11
14.791028
 21
198.918538
 31
0.0
  0
LINE
  5
32D
100
AcDbEntity
  8
0
370
    -3
390
0
  6
Continuous
100
AcDbLine
 10
14.291028
 20
199.784663
 30
0.0
 11
14.291028
 21
211.052609
 31
0.0
  0
LINE
  5
32E
100
AcDbEntity
  8
0
370
    -3
390
0
  6
Continuous
100
AcDbLine
 10
14.791028
 20
190.918538
 30
0.0
 11
14.791028
 21
177.918538
 31
0.0
  0
LINE
  5
32F
100
AcDbEntity
  8
0
370
    -3
390
0
  6
Continuous
100
AcDbLine
 10
14.791029
 20
177.918538
 30
0.0
 11
14.291028
 21
178.784468
 31
0.0
  0
LINE
  5
330
100
AcDbEntity
  8
0
370
    -3
390
0
  6
Continuous
100
AcDbLine
 10
14.791028
 20
190.918538
 30
0.0
 11
14.291028
 21
190.052414
 31
0.0
  0
LINE
  5
331
100
AcDbEntity
  8
0
370
    -3
390
0
  6
Continuous
100
AcDbLine
 10
22.291027
 20
177.918538
 30
0.0
 11
14.791029
 21
177.918538
 31
0.0
  0
LINE
  5
332
100
AcDbEntity
  8
0
370
    -3
390
0
  6
Continuous
100
AcDbLine
 10
22.291027
 20
190.918538
 30
0.0
 11
14.791028
 21
190.918538
 31
0.0
  0
LINE
  5
333
100
AcDbEntity
  8
0
370
    -3
390
0
  6
Continuous
100
AcDbLine
 10
14.291028
 20
190.052414
 30
0.0
 11
14.291028
 21
178.784468
 31
0.0
  0
LINE
  5
334
100
AcDbEntity
  8
0
370
    -3
390
0
  6
Continuous
100
AcDbLine
 10
31.291028
 20
151.418538
 30
0.0
 11
31.291028
 21
138.418538
 31
0.0
  0
LINE
  5
335
100
AcDbEntity
  8
0
370
    -3
390
0
  6
Continuous
100
AcDbLine
 10
31.291029
 20
138.418538
 30
0.0
 11
30.791028
 21
139.284468
 31
0.0
  0
LINE
  5
336
100
AcDbEntity
  8
0
370
    -3
390
0
  6
Continuous
100
AcDbLine
 10
31.291028
 20
151.418538
 30
0.0
 11
30.791028
 21
150.552414
 31
0.0
  0
LINE
  5
337
100
AcDbEntity
  8
0
370
    -3
390
0
  6
Continuous
100
AcDbLine
 10
38.791027
 20
138.418538
 30
0.0
 11
31.291029
 21
138.418538
 31
0.0
  0
LINE
  5
338
100
AcDbEntity
  8
0
370
    -3
390
0
  6
Continuous
100
AcDbLine
 10
38.791027
 20
151.418538
 30
0.0
 11
31.291028
 21
151.418538
 31
0.0
  0
LINE
  5
339
100
AcDbEntity
  8
0
370
    -3
390
0
  6
Continuous
100
AcDbLine
 10
30.791028
 20
150.552414
 30
0.0
 11
30.791028
 21
139.284468
 31
0.0
  0
LINE
  5
33A
100
AcDbEntity
  8
0
370
    -3
390
0
  6
Continuous
100
AcDbLine
 10
31.291028
 20
80.418538
 30
0.0
 11
31.291028
 21
67.418538
 31
0.0
  0
LINE
  5
33B
100
AcDbEntity
  8
0
370
    -3
390
0
  6
Continuous
100
AcDbLine
 10
31.291029
 20
67.418538
 30
0.0
 11
30.791028
 21
68.284468
 31
0.0
  0
LINE
  5
33C
100
AcDbEntity
  8
0
370
    -3
390
0
  6
Continuous
100
AcDbLine
 10
31.291028
 20
80.418538
 30
0.0
 11
30.791028
 21
79.552414
 31
0.0
  0
LINE
  5
33D
100
AcDbEntity
  8
0
370
    -3
390
0
  6
Continuous
100
AcDbLine
 10
38.791027
 20
67.418538
 30
0.0
 11
31.291029
 21
67.418538
 31
0.0
  0
LINE
  5
33E
100
AcDbEntity
  8
0
370
    -3
390
0
  6
Continuous
100
AcDbLine
 10
38.791027
 20
80.418538
 30
0.0
 11
31.291028
 21
80.418538
 31
0.0
  0
LINE
  5
33F
100
AcDbEntity
  8
0
370
    -3
390
0
  6
Continuous
100
AcDbLine
 10
30.791028
 20
79.552414
 30
0.0
 11
30.791028
 21
68.284468
 31
0.0
  0
LINE
  5
340
100
AcDbEntity
  8
0
370
    -3
390
0
  6
Continuous
100
AcDbLine
 10
-416.634683
 20
-174.081462
 30
0.0
 11
-416.634683
 21
-205.081462
 31
0.0
  0
LINE
  5
341
100
AcDbEntity
  8
0
370
    -3
390
0
  6
Continuous
100
AcDbLine
 10
-416.634683
 20
-236.081462
 30
0.0
 11
-416.634683
 21
-205.081462
 31
0.0
  0
LINE
  5
342
100
AcDbEntity
  8
0
370
    -3
390
0
  6
Continuous
100
AcDbLine
 10
-415.034683
 20
-236.081462
 30
0.0
 11
-415.034683
 21
-174.081462
 31
0.0
  0
LINE
  5
343
100
AcDbEntity
  8
0
370
    -3
390
0
  6
Continuous
100
AcDbLine
 10
-415.034683
 20
-236.081462
 30
0.0
 11
-414.034683
 21
-236.081462
 31
0.0
  0
LINE
  5
344
100
AcDbEntity
  8
0
370
    -3
390
0
  6
Continuous
100
AcDbLine
 10
-415.034683
 20
-236.081462
 30
0.0
 11
-416.634683
 21
-236.081462
 31
0.0
  0
ARC
  5
345
100
AcDbEntity
  8
0
370
    -3
390
0
  6
Continuous
100
AcDbCircle
 10
-418.634683
 20
-231.681462
 30
0.0
 40
2.0
100
AcDbArc
 50
0.0
 51
90.0
  0
LINE
  5
346
100
AcDbEntity
  8
0
370
    -3
390
0
  6
Continuous
100
AcDbLine
 10
-415.034683
 20
-174.081462
 30
0.0
 11
-414.034683
 21
-174.081462
 31
0.0
  0
LINE
  5
347
100
AcDbEntity
  8
0
370
    -3
390
0
  6
Continuous
100
AcDbLine
 10
-415.034683
 20
-174.081462
 30
0.0
 11
-416.634683
 21
-174.081462
 31
0.0
  0
ARC
  5
348
100
AcDbEntity
  8
0
370
    -3
390
0
  6
Continuous
100
AcDbCircle
 10
-418.634683
 20
-178.481462
 30
0.0
 40
2.0
100
AcDbArc
 50
270.0
 51
0.0
  0
LINE
  5
349
100
AcDbEntity
  8
0
370
    -3
390
0
  6
Continuous
100
AcDbLine
 10
-412.729247
 20
-163.730453
 30
0.0
 11
-367.012049
 21
-266.412963
 31
0.0
  0
LINE
  5
34A
100
AcDbEntity
  8
0
370
    -3
390
0
  6
Continuous
100
AcDbLine
 10
-369.106742
 20
-261.708203
 30
0.0
 11
-372.943633
 21
-263.416497
 31
0.0
  0
LINE
  5
34B
100
AcDbEntity
  8
0
370
    -3
390
0
  6
Continuous
100
AcDbLine
 10
-370.448973
 20
-258.693503
 30
0.0
 11
-374.285864
 21
-260.401797
 31
0.0
  0
LINE
  5
34C
100
AcDbEntity
  8
0
370
    -3
390
0
  6
Continuous
100
AcDbLine
 10
-374.108481
 20
-259.939699
 30
0.0
 11
-374.285864
 21
-260.401797
 31
0.0
  0
LINE
  5
34D
100
AcDbEntity
  8
0
370
    -3
390
0
  6
Continuous
100
AcDbLine
 10
-372.481535
 20
-263.59388
 30
0.0
 11
-372.943633
 21
-263.416497
 31
0.0
  0
LINE
  5
34E
100
AcDbEntity
  8
0
370
    -3
390
0
  6
Continuous
100
AcDbLine
 10
-374.285864
 20
-260.401797
 30
0.0
 11
-372.943633
 21
-263.416497
 31
0.0
  0
POINT
  5
34F
100
AcDbEntity
  8
0
370
    -3
390
0
  6
Continuous
100
AcDbPoint
 10
-366.306385
 20
-258.655254
 30
0.0
  0
LINE
  5
350
100
AcDbEntity
  8
0
370
    -3
390
0
  6
Continuous
100
AcDbLine
 10
-367.729963
 20
-255.457845
 30
0.0
 11
-364.882807
 21
-261.852663
 31
0.0
  0
LINE
  5
351
100
AcDbEntity
  8
0
370
    -3
390
0
  6
Continuous
100
AcDbLine
 10
-367.729963
 20
-255.457845
 30
0.0
 11
-364.882807
 21
-261.852663
 31
0.0
  0
LINE
  5
352
100
AcDbEntity
  8
0
370
    -3
390
0
  6
Continuous
100
AcDbLine
 10
-364.882807
 20
-261.852663
 30
0.0
 11
-363.988423
 21
-261.454458
 31
0.0
  0
LINE
  5
353
100
AcDbEntity
  8
0
370
    -3
390
0
  6
Continuous
100
AcDbLine
 10
-367.729963
 20
-255.457845
 30
0.0
 11
-366.835579
 21
-255.05964
 31
0.0
  0
ARC
  5
354
100
AcDbEntity
  8
0
370
    -3
390
0
  6
Continuous
100
AcDbCircle
 10
-366.306822
 20
-256.247248
 30
0.0
 40
1.299999
100
AcDbArc
 50
40.601531
 51
114.000001
  0
ARC
  5
355
100
AcDbEntity
  8
0
370
    -3
390
0
  6
Continuous
100
AcDbCircle
 10
-966.034683
 20
-205.081462
 30
0.0
 40
600.0
100
AcDbArc
 50
355.284875
 51
1.682769
  0
ARC
  5
356
100
AcDbEntity
  8
0
370
    -3
390
0
  6
Continuous
100
AcDbCircle
 10
-367.068634
 20
-254.484621
 30
0.0
 40
1.0
100
AcDbArc
 50
175.284875
 51
204.0
  0
ARC
  5
357
100
AcDbEntity
  8
0
370
    -3
390
0
  6
Continuous
100
AcDbCircle
 10
-409.034683
 20
-246.581462
 30
0.0
 40
5.0
100
AcDbArc
 50
180.0
 51
270.0
  0
LINE
  5
358
100
AcDbEntity
  8
0
370
    -3
390
0
  6
Continuous
100
AcDbLine
 10
-409.034683
 20
-251.581462
 30
0.0
 11
-373.615458
 21
-251.581462
 31
0.0
  0
LINE
  5
359
100
AcDbEntity
  8
0
370
    -3
390
0
  6
Continuous
100
AcDbLine
 10
-364.454121
 20
-265.2741
 30
0.0
 11
-367.012049
 21
-266.412963
 31
0.0
  0
ARC
  5
35A
100
AcDbEntity
  8
0
370
    -3
390
0
  6
Continuous
100
AcDbCircle
 10
-364.860858
 20
-264.360555
 30
0.0
 40
1.0
100
AcDbArc
 50
294.0
 51
24.0
  0
LINE
  5
35B
100
AcDbEntity
  8
0
370
    -3
390
0
  6
Continuous
100
AcDbLine
 10
-390.158974
 20
-205.081462
 30
0.0
 11
-363.947313
 21
-263.953818
 31
0.0
  0
ARC
  5
35C
100
AcDbEntity
  8
0
370
    -3
390
0
  6
Continuous
100
AcDbCircle
 10
-368.239996
 20
-251.853699
 30
0.0
 40
1.0
100
AcDbArc
 50
114.0
 51
204.0
  0
ARC
  5
35D
100
AcDbEntity
  8
0
370
    -3
390
0
  6
Continuous
100
AcDbCircle
 10
-369.66467
 20
-249.204096
 30
0.0
 40
2.0
100
AcDbArc
 50
294.0
 51
355.768662
  0
LINE
  5
35E
100
AcDbEntity
  8
0
370
    -3
390
0
  6
Continuous
100
AcDbLine
 10
-370.591331
 20
-258.373763
 30
0.0
 11
-374.108481
 21
-259.939699
 31
0.0
  0
LINE
  5
35F
100
AcDbEntity
  8
0
370
    -3
390
0
  6
Continuous
100
AcDbLine
 10
-368.964385
 20
-262.027944
 30
0.0
 11
-372.481535
 21
-263.59388
 31
0.0
  0
LINE
  5
360
100
AcDbEntity
  8
0
370
    -3
390
0
  6
Continuous
100
AcDbLine
 10
-414.034683
 20
-172.389857
 30
0.0
 11
-414.034683
 21
-246.581462
 31
0.0
  0
LINE
  5
361
100
AcDbEntity
  8
0
370
    -3
390
0
  6
CENTER
100
AcDbLine
 10
-390.034683
 20
-237.198938
 30
0.0
 11
-390.034683
 21
-260.067447
 31
0.0
  0
ARC
  5
362
100
AcDbEntity
  8
0
370
    -3
390
0
  6
Continuous
100
AcDbCircle
 10
-364.51718
 20
-260.266849
 30
0.0
 40
1.299999
100
AcDbArc
 50
293.999982
 51
7.398452
  0
ARC
  5
363
100
AcDbEntity
  8
0
370
    -3
390
0
  6
Continuous
100
AcDbCircle
 10
-372.153076
 20
-261.258369
 30
0.0
 40
9.0
100
AcDbArc
 50
7.398452
 51
40.601531
  0
ARC
  5
364
100
AcDbEntity
  8
0
370
    -3
390
0
  6
Continuous
100
AcDbCircle
 10
-409.764583
 20
-163.505136
 30
0.0
 40
1.0
100
AcDbArc
 50
24.0
 51
114.0
  0
LINE
  5
365
100
AcDbEntity
  8
0
370
    -3
390
0
  6
Continuous
100
AcDbLine
 10
-411.975254
 20
-165.423949
 30
0.0
 11
-412.400087
 21
-166.424791
 31
0.0
  0
LINE
  5
366
100
AcDbEntity
  8
0
370
    -3
390
0
  6
Continuous
100
AcDbLine
 10
-411.530341
 20
-166.423242
 30
0.0
 11
-411.663683
 21
-166.737376
 31
0.0
  0
LINE
  5
367
100
AcDbEntity
  8
0
370
    -3
390
0
  6
Continuous
100
AcDbLine
 10
-412.400087
 20
-166.424791
 30
0.0
 11
-411.663683
 21
-166.737376
 31
0.0
  0
LINE
  5
368
100
AcDbEntity
  8
0
370
    -3
390
0
  6
Continuous
100
AcDbLine
 10
-408.851038
 20
-163.098399
 30
0.0
 11
-390.158974
 21
-205.081462
 31
0.0
  0
LINE
  5
369
100
AcDbEntity
  8
0
370
    -3
390
0
  6
Continuous
100
AcDbLine
 10
-410.17132
 20
-162.591591
 30
0.0
 11
-412.729247
 21
-163.730453
 31
0.0
  0
LINE
  5
36A
100
AcDbEntity
  8
0
370
    -3
390
0
  6
Continuous
100
AcDbLine
 10
-410.451522
 20
-168.846308
 30
0.0
 11
-412.254893
 21
-169.64922
 31
0.0
  0
ARC
  5
36B
100
AcDbEntity
  8
0
370
    -3
390
0
  6
Continuous
100
AcDbCircle
 10
-411.034683
 20
-172.389857
 30
0.0
 40
3.0
100
AcDbArc
 50
114.0
 51
180.0
  0
LINE
  5
36C
100
AcDbEntity
  8
0
370
    -3
390
0
  6
Continuous
100
AcDbLine
 10
-404.81387
 20
-168.841668
 30
0.0
 11
-378.858233
 21
-173.100497
 31
0.0
  0
ARC
  5
36D
100
AcDbEntity
  8
0
370
    -3
390
0
  6
Continuous
100
AcDbCircle
 10
-381.286972
 20
-187.902566
 30
0.0
 40
15.0
100
AcDbArc
 50
1.682769
 51
80.681877
  0
ARC
  5
36E
100
AcDbEntity
  8
0
370
    -3
390
0
  6
Continuous
100
AcDbCircle
 10
-404.328122
 20
-165.881255
 30
0.0
 40
3.0
100
AcDbArc
 50
204.0
 51
260.681877
  0
LINE
  5
36F
100
AcDbEntity
  8
0
370
    -3
390
0
  6
Continuous
100
AcDbLine
 10
-418.634683
 20
-180.481462
 30
0.0
 11
-420.438759
 21
-180.481462
 31
0.0
  0
LINE
  5
370
100
AcDbEntity
  8
0
370
    -3
390
0
  6
Continuous
100
AcDbLine
 10
-418.634683
 20
-229.681462
 30
0.0
 11
-420.438759
 21
-229.681462
 31
0.0
  0
LINE
  5
371
100
AcDbEntity
  8
0
370
    -3
390
0
  6
Continuous
100
AcDbLine
 10
-623.018868
 20
-112.026209
 30
0.0
 11
-630.089936
 21
-119.097277
 31
0.0
  0
LINE
  5
372
100
AcDbEntity
  8
0
370
    -3
390
0
  6
Continuous
100
AcDbLine
 10
-629.877804
 20
-120.016516
 30
0.0
 11
-622.099629
 21
-112.238341
 31
0.0
  0
LINE
  5
373
100
AcDbEntity
  8
0
370
    -3
390
0
  6
Continuous
100
AcDbLine
 10
-620.512166
 20
-113.118698
 30
0.0
 11
-621.392522
 21
-112.238341
 31
0.0
  0
LINE
  5
374
100
AcDbEntity
  8
0
370
    -3
390
0
  6
Continuous
100
AcDbLine
 10
-623.018868
 20
-112.026209
 30
0.0
 11
-622.453183
 21
-112.591895
 31
0.0
  0
ARC
  5
375
100
AcDbEntity
  8
0
370
    -3
390
0
  6
Continuous
100
AcDbCircle
 10
-625.414187
 20
-112.600737
 30
0.0
 40
1.599999
100
AcDbArc
 50
44.999982
 51
118.808591
  0
LINE
  5
376
100
AcDbEntity
  8
0
370
    -3
390
0
  6
Continuous
100
AcDbLine
 10
-623.372422
 20
-112.379762
 30
0.0
 11
-624.282817
 21
-111.469367
 31
0.0
  0
ARC
  5
377
100
AcDbEntity
  8
0
370
    -3
390
0
  6
Continuous
100
AcDbCircle
 10
-621.746076
 20
-112.591895
 30
0.0
 40
0.5
100
AcDbArc
 50
45.0
 51
135.0
  0
ARC
  5
378
100
AcDbEntity
  8
0
370
    -3
390
0
  6
Continuous
100
AcDbCircle
 10
-620.402574
 20
-121.713571
 30
0.0
 40
12.0
100
AcDbArc
 50
118.808645
 51
151.191337
  0
LINE
  5
379
100
AcDbEntity
  8
0
370
    -3
390
0
  6
Continuous
100
AcDbLine
 10
-628.997447
 20
-121.603979
 30
0.0
 11
-629.877804
 21
-120.723623
 31
0.0
  0
LINE
  5
37A
100
AcDbEntity
  8
0
370
    -3
390
0
  6
Continuous
100
AcDbLine
 10
-629.52425
 20
-119.662962
 30
0.0
 11
-630.089936
 21
-119.097277
 31
0.0
  0
ARC
  5
37B
100
AcDbEntity
  8
0
370
    -3
390
0
  6
Continuous
100
AcDbCircle
 10
-629.515408
 20
-116.701957
 30
0.0
 40
1.599999
100
AcDbArc
 50
151.191283
 51
225.000001
  0
LINE
  5
37C
100
AcDbEntity
  8
0
370
    -3
390
0
  6
Continuous
100
AcDbLine
 10
-629.736383
 20
-118.743723
 30
0.0
 11
-630.646778
 21
-117.833328
 31
0.0
  0
ARC
  5
37D
100
AcDbEntity
  8
0
370
    -3
390
0
  6
Continuous
100
AcDbCircle
 10
-629.52425
 20
-120.370069
 30
0.0
 40
0.5
100
AcDbArc
 50
135.0
 51
225.0
  0
LINE
  5
37E
100
AcDbEntity
  8
0
370
    -3
390
0
  6
Continuous
100
AcDbLine
 10
-623.018868
 20
-298.136714
 30
0.0
 11
-630.089936
 21
-291.065646
 31
0.0
  0
LINE
  5
37F
100
AcDbEntity
  8
0
370
    -3
390
0
  6
Continuous
100
AcDbLine
 10
-629.877804
 20
-290.146407
 30
0.0
 11
-622.099629
 21
-297.924582
 31
0.0
  0
LINE
  5
380
100
AcDbEntity
  8
0
370
    -3
390
0
  6
Continuous
100
AcDbLine
 10
-620.512166
 20
-297.044225
 30
0.0
 11
-621.392522
 21
-297.924582
 31
0.0
  0
LINE
  5
381
100
AcDbEntity
  8
0
370
    -3
390
0
  6
Continuous
100
AcDbLine
 10
-623.018868
 20
-298.136714
 30
0.0
 11
-622.453183
 21
-297.571029
 31
0.0
  0
ARC
  5
382
100
AcDbEntity
  8
0
370
    -3
390
0
  6
Continuous
100
AcDbCircle
 10
-625.414187
 20
-297.562186
 30
0.0
 40
1.599999
100
AcDbArc
 50
241.191409
 51
315.000018
  0
LINE
  5
383
100
AcDbEntity
  8
0
370
    -3
390
0
  6
Continuous
100
AcDbLine
 10
-623.372422
 20
-297.783161
 30
0.0
 11
-624.282817
 21
-298.693556
 31
0.0
  0
ARC
  5
384
100
AcDbEntity
  8
0
370
    -3
390
0
  6
Continuous
100
AcDbCircle
 10
-621.746076
 20
-297.571029
 30
0.0
 40
0.5
100
AcDbArc
 50
225.0
 51
315.0
  0
ARC
  5
385
100
AcDbEntity
  8
0
370
    -3
390
0
  6
Continuous
100
AcDbCircle
 10
-620.402574
 20
-288.449352
 30
0.0
 40
12.0
100
AcDbArc
 50
208.808663
 51
241.191355
  0
LINE
  5
386
100
AcDbEntity
  8
0
370
    -3
390
0
  6
Continuous
100
AcDbLine
 10
-628.997447
 20
-288.558944
 30
0.0
 11
-629.877804
 21
-289.439301
 31
0.0
  0
LINE
  5
387
100
AcDbEntity
  8
0
370
    -3
390
0
  6
Continuous
100
AcDbLine
 10
-629.52425
 20
-290.499961
 30
0.0
 11
-630.089936
 21
-291.065646
 31
0.0
  0
ARC
  5
388
100
AcDbEntity
  8
0
370
    -3
390
0
  6
Continuous
100
AcDbCircle
 10
-629.515408
 20
-293.460966
 30
0.0
 40
1.599999
100
AcDbArc
 50
134.999999
 51
208.808717
  0
LINE
  5
389
100
AcDbEntity
  8
0
370
    -3
390
0
  6
Continuous
100
AcDbLine
 10
-629.736383
 20
-291.4192
 30
0.0
 11
-630.646778
 21
-292.329595
 31
0.0
  0
ARC
  5
38A
100
AcDbEntity
  8
0
370
    -3
390
0
  6
Continuous
100
AcDbCircle
 10
-629.52425
 20
-289.792854
 30
0.0
 40
0.5
100
AcDbArc
 50
135.0
 51
225.0
  0
LINE
  5
38B
100
AcDbEntity
  8
0
370
    -3
390
0
  6
Continuous
100
AcDbLine
 10
-451.050499
 20
-298.136714
 30
0.0
 11
-443.979431
 21
-291.065646
 31
0.0
  0
LINE
  5
38C
100
AcDbEntity
  8
0
370
    -3
390
0
  6
Continuous
100
AcDbLine
 10
-444.191563
 20
-290.146407
 30
0.0
 11
-451.969738
 21
-297.924582
 31
0.0
  0
LINE
  5
38D
100
AcDbEntity
  8
0
370
    -3
390
0
  6
Continuous
100
AcDbLine
 10
-453.557201
 20
-297.044225
 30
0.0
 11
-452.676844
 21
-297.924582
 31
0.0
  0
LINE
  5
38E
100
AcDbEntity
  8
0
370
    -3
390
0
  6
Continuous
100
AcDbLine
 10
-451.050499
 20
-298.136714
 30
0.0
 11
-451.616184
 21
-297.571029
 31
0.0
  0
ARC
  5
38F
100
AcDbEntity
  8
0
370
    -3
390
0
  6
Continuous
100
AcDbCircle
 10
-448.655179
 20
-297.562186
 30
0.0
 40
1.599999
100
AcDbArc
 50
224.999982
 51
298.808591
  0
LINE
  5
390
100
AcDbEntity
  8
0
370
    -3
390
0
  6
Continuous
100
AcDbLine
 10
-450.696945
 20
-297.783161
 30
0.0
 11
-449.78655
 21
-298.693556
 31
0.0
  0
ARC
  5
391
100
AcDbEntity
  8
0
370
    -3
390
0
  6
Continuous
100
AcDbCircle
 10
-452.323291
 20
-297.571029
 30
0.0
 40
0.5
100
AcDbArc
 50
225.0
 51
315.0
  0
ARC
  5
392
100
AcDbEntity
  8
0
370
    -3
390
0
  6
Continuous
100
AcDbCircle
 10
-453.666793
 20
-288.449352
 30
0.0
 40
12.0
100
AcDbArc
 50
298.808645
 51
331.191337
  0
LINE
  5
393
100
AcDbEntity
  8
0
370
    -3
390
0
  6
Continuous
100
AcDbLine
 10
-445.07192
 20
-288.558944
 30
0.0
 11
-444.191563
 21
-289.439301
 31
0.0
  0
LINE
  5
394
100
AcDbEntity
  8
0
370
    -3
390
0
  6
Continuous
100
AcDbLine
 10
-444.545116
 20
-290.499961
 30
0.0
 11
-443.979431
 21
-291.065646
 31
0.0
  0
ARC
  5
395
100
AcDbEntity
  8
0
370
    -3
390
0
  6
Continuous
100
AcDbCircle
 10
-444.553959
 20
-293.460966
 30
0.0
 40
1.599999
100
AcDbArc
 50
331.191283
 51
45.000001
  0
LINE
  5
396
100
AcDbEntity
  8
0
370
    -3
390
0
  6
Continuous
100
AcDbLine
 10
-444.332984
 20
-291.4192
 30
0.0
 11
-443.422589
 21
-292.329595
 31
0.0
  0
ARC
  5
397
100
AcDbEntity
  8
0
370
    -3
390
0
  6
Continuous
100
AcDbCircle
 10
-444.545116
 20
-289.792854
 30
0.0
 40
0.5
100
AcDbArc
 50
315.0
 51
45.0
  0
ARC
  5
398
100
AcDbEntity
  8
0
370
    -3
390
0
  6
Continuous
100
AcDbCircle
 10
-537.034683
 20
-205.081462
 30
0.0
 40
124.2
100
AcDbArc
 50
306.942477
 51
315.0
  0
ARC
  5
399
100
AcDbEntity
  8
0
370
    -3
390
0
  6
Continuous
100
AcDbCircle
 10
-537.034683
 20
-205.081462
 30
0.0
 40
124.2
100
AcDbArc
 50
135.0
 51
143.057523
  0
ARC
  5
39A
100
AcDbEntity
  8
0
370
    -3
390
0
  6
Continuous
100
AcDbCircle
 10
-537.034683
 20
-205.081462
 30
0.0
 40
124.2
100
AcDbArc
 50
126.942477
 51
135.0
  0
LINE
  5
39B
100
AcDbEntity
  8
0
370
    -3
390
0
  6
Continuous
100
AcDbLine
 10
-451.050499
 20
-112.026209
 30
0.0
 11
-443.979431
 21
-119.097277
 31
0.0
  0
LINE
  5
39C
100
AcDbEntity
  8
0
370
    -3
390
0
  6
Continuous
100
AcDbLine
 10
-444.191563
 20
-120.016516
 30
0.0
 11
-451.969738
 21
-112.238341
 31
0.0
  0
LINE
  5
39D
100
AcDbEntity
  8
0
370
    -3
390
0
  6
Continuous
100
AcDbLine
 10
-453.557201
 20
-113.118698
 30
0.0
 11
-452.676844
 21
-112.238341
 31
0.0
  0
LINE
  5
39E
100
AcDbEntity
  8
0
370
    -3
390
0
  6
Continuous
100
AcDbLine
 10
-451.050499
 20
-112.026209
 30
0.0
 11
-451.616184
 21
-112.591895
 31
0.0
  0
ARC
  5
39F
100
AcDbEntity
  8
0
370
    -3
390
0
  6
Continuous
100
AcDbCircle
 10
-448.655179
 20
-112.600737
 30
0.0
 40
1.599999
100
AcDbArc
 50
61.191409
 51
135.000018
  0
LINE
  5
3A0
100
AcDbEntity
  8
0
370
    -3
390
0
  6
Continuous
100
AcDbLine
 10
-450.696945
 20
-112.379762
 30
0.0
 11
-449.78655
 21
-111.469367
 31
0.0
  0
ARC
  5
3A1
100
AcDbEntity
  8
0
370
    -3
390
0
  6
Continuous
100
AcDbCircle
 10
-452.323291
 20
-112.591895
 30
0.0
 40
0.5
100
AcDbArc
 50
45.0
 51
135.0
  0
ARC
  5
3A2
100
AcDbEntity
  8
0
370
    -3
390
0
  6
Continuous
100
AcDbCircle
 10
-453.666793
 20
-121.713571
 30
0.0
 40
12.0
100
AcDbArc
 50
28.808663
 51
61.191355
  0
LINE
  5
3A3
100
AcDbEntity
  8
0
370
    -3
390
0
  6
Continuous
100
AcDbLine
 10
-445.07192
 20
-121.603979
 30
0.0
 11
-444.191563
 21
-120.723623
 31
0.0
  0
LINE
  5
3A4
100
AcDbEntity
  8
0
370
    -3
390
0
  6
Continuous
100
AcDbLine
 10
-444.545116
 20
-119.662962
 30
0.0
 11
-443.979431
 21
-119.097277
 31
0.0
  0
ARC
  5
3A5
100
AcDbEntity
  8
0
370
    -3
390
0
  6
Continuous
100
AcDbCircle
 10
-444.553959
 20
-116.701957
 30
0.0
 40
1.599999
100
AcDbArc
 50
314.999999
 51
28.808717
  0
LINE
  5
3A6
100
AcDbEntity
  8
0
370
    -3
390
0
  6
Continuous
100
AcDbLine
 10
-444.332984
 20
-118.743723
 30
0.0
 11
-443.422589
 21
-117.833328
 31
0.0
  0
ARC
  5
3A7
100
AcDbEntity
  8
0
370
    -3
390
0
  6
Continuous
100
AcDbCircle
 10
-444.545116
 20
-120.370069
 30
0.0
 40
0.5
100
AcDbArc
 50
315.0
 51
45.0
  0
ARC
  5
3A8
100
AcDbEntity
  8
0
370
    -3
390
0
  6
Continuous
100
AcDbCircle
 10
-460.391435
 20
-249.331462
 30
0.0
 40
1.5
100
AcDbArc
 50
240.0
 51
60.0
  0
ARC
  5
3A9
100
AcDbEntity
  8
0
370
    -3
390
0
  6
Continuous
100
AcDbCircle
 10
-522.745264
 20
-213.331462
 30
0.0
 40
1.5
100
AcDbArc
 50
60.0
 51
240.0
  0
ARC
  5
3AA
100
AcDbEntity
  8
0
370
    -3
390
0
  6
Continuous
100
AcDbCircle
 10
-613.677932
 20
-249.331462
 30
0.0
 40
1.5
100
AcDbArc
 50
120.0
 51
300.0
  0
LINE
  5
3AB
100
AcDbEntity
  8
0
370
    -3
390
0
  6
Continuous
100
AcDbLine
 10
-612.927932
 20
-250.6305
 30
0.0
 11
-550.574103
 21
-214.6305
 31
0.0
  0
LINE
  5
3AC
100
AcDbEntity
  8
0
370
    -3
390
0
  6
Continuous
100
AcDbLine
 10
-614.427932
 20
-248.032423
 30
0.0
 11
-552.074103
 21
-212.032423
 31
0.0
  0
ARC
  5
3AD
100
AcDbEntity
  8
0
370
    -3
390
0
  6
Continuous
100
AcDbCircle
 10
-551.324103
 20
-213.331462
 30
0.0
 40
1.5
100
AcDbArc
 50
300.0
 51
120.0
  0
ARC
  5
3AE
100
AcDbEntity
  8
0
370
    -3
390
0
  6
Continuous
100
AcDbCircle
 10
-537.034683
 20
-116.581462
 30
0.0
 40
1.5
100
AcDbArc
 50
0.0
 51
180.0
  0
LINE
  5
3AF
100
AcDbEntity
  8
0
370
    -3
390
0
  6
Continuous
100
AcDbLine
 10
-538.534683
 20
-116.581462
 30
0.0
 11
-538.534683
 21
-188.581462
 31
0.0
  0
LINE
  5
3B0
100
AcDbEntity
  8
0
370
    -3
390
0
  6
Continuous
100
AcDbLine
 10
-535.534683
 20
-116.581462
 30
0.0
 11
-535.534683
 21
-188.581462
 31
0.0
  0
ARC
  5
3B1
100
AcDbEntity
  8
0
370
    -3
390
0
  6
Continuous
100
AcDbCircle
 10
-537.034683
 20
-188.581462
 30
0.0
 40
1.5
100
AcDbArc
 50
180.0
 51
0.0
  0
LINE
  5
3B2
100
AcDbEntity
  8
0
370
    -3
390
0
  6
Continuous
100
AcDbLine
 10
-461.141435
 20
-250.6305
 30
0.0
 11
-523.495264
 21
-214.6305
 31
0.0
  0
LINE
  5
3B3
100
AcDbEntity
  8
0
370
    -3
390
0
  6
Continuous
100
AcDbLine
 10
-459.641435
 20
-248.032423
 30
0.0
 11
-521.995264
 21
-212.032423
 31
0.0
  0
ARC
  5
3B4
100
AcDbEntity
  8
0
370
    -3
390
0
  6
Continuous
100
AcDbCircle
 10
-465.821966
 20
-169.740283
 30
0.0
 40
2.0
100
AcDbArc
 50
120.0
 51
206.394112
  0
ARC
  5
3B5
100
AcDbEntity
  8
0
370
    -3
390
0
  6
Continuous
100
AcDbCircle
 10
-465.382025
 20
-239.52194
 30
0.0
 40
2.0
100
AcDbArc
 50
154.328325
 51
240.0
  0
ARC
  5
3B6
100
AcDbEntity
  8
0
370
    -3
390
0
  6
Continuous
100
AcDbCircle
 10
-471.382025
 20
-249.914245
 30
0.0
 40
2.0
100
AcDbArc
 50
60.0
 51
145.671675
  0
ARC
  5
3B7
100
AcDbEntity
  8
0
370
    -3
390
0
  6
Continuous
100
AcDbCircle
 10
-532.034683
 20
-284.424073
 30
0.0
 40
2.0
100
AcDbArc
 50
93.605888
 51
180.0
  0
ARC
  5
3B8
100
AcDbEntity
  8
0
370
    -3
390
0
  6
Continuous
100
AcDbCircle
 10
-542.034683
 20
-284.424073
 30
0.0
 40
2.0
100
AcDbArc
 50
0.0
 51
86.394112
  0
ARC
  5
3B9
100
AcDbEntity
  8
0
370
    -3
390
0
  6
Continuous
100
AcDbCircle
 10
-602.687342
 20
-249.914245
 30
0.0
 40
2.0
100
AcDbArc
 50
34.328325
 51
120.0
  0
ARC
  5
3BA
100
AcDbEntity
  8
0
370
    -3
390
0
  6
Continuous
100
AcDbCircle
 10
-608.687342
 20
-239.52194
 30
0.0
 40
2.0
100
AcDbArc
 50
300.0
 51
25.671675
  0
ARC
  5
3BB
100
AcDbEntity
  8
0
370
    -3
390
0
  6
Continuous
100
AcDbCircle
 10
-608.247401
 20
-169.740283
 30
0.0
 40
2.0
100
AcDbArc
 50
333.605888
 51
60.0
  0
ARC
  5
3BC
100
AcDbEntity
  8
0
370
    -3
390
0
  6
Continuous
100
AcDbCircle
 10
-603.247401
 20
-161.080029
 30
0.0
 40
2.0
100
AcDbArc
 50
240.0
 51
326.394112
  0
ARC
  5
3BD
100
AcDbEntity
  8
0
370
    -3
390
0
  6
Continuous
100
AcDbCircle
 10
-543.034683
 20
-125.8082
 30
0.0
 40
2.0
100
AcDbArc
 50
274.328325
 51
0.0
  0
ARC
  5
3BE
100
AcDbEntity
  8
0
370
    -3
390
0
  6
Continuous
100
AcDbCircle
 10
-470.821966
 20
-161.080029
 30
0.0
 40
2.0
100
AcDbArc
 50
213.605888
 51
300.0
  0
ARC
  5
3BF
100
AcDbEntity
  8
0
370
    -3
390
0
  6
Continuous
100
AcDbCircle
 10
-531.034683
 20
-125.8082
 30
0.0
 40
2.0
100
AcDbArc
 50
180.0
 51
265.671675
  0
ARC
  5
3C0
100
AcDbEntity
  8
0
370
    -3
390
0
  6
Continuous
100
AcDbCircle
 10
-537.034683
 20
-205.081462
 30
0.0
 40
77.5
100
AcDbArc
 50
33.605888
 51
85.671675
  0
ARC
  5
3C1
100
AcDbEntity
  8
0
370
    -3
390
0
  6
Continuous
100
AcDbCircle
 10
-537.034683
 20
-205.081462
 30
0.0
 40
77.5
100
AcDbArc
 50
334.328325
 51
26.394112
  0
ARC
  5
3C2
100
AcDbEntity
  8
0
370
    -3
390
0
  6
Continuous
100
AcDbCircle
 10
-537.034683
 20
-205.081462
 30
0.0
 40
77.5
100
AcDbArc
 50
273.605888
 51
325.671675
  0
ARC
  5
3C3
100
AcDbEntity
  8
0
370
    -3
390
0
  6
Continuous
100
AcDbCircle
 10
-537.034683
 20
-205.081462
 30
0.0
 40
77.5
100
AcDbArc
 50
214.328325
 51
266.394112
  0
ARC
  5
3C4
100
AcDbEntity
  8
0
370
    -3
390
0
  6
Continuous
100
AcDbCircle
 10
-537.034683
 20
-205.081462
 30
0.0
 40
77.5
100
AcDbArc
 50
153.605888
 51
205.671675
  0
ARC
  5
3C5
100
AcDbEntity
  8
0
370
    -3
390
0
  6
Continuous
100
AcDbCircle
 10
-537.034683
 20
-205.081462
 30
0.0
 40
77.5
100
AcDbArc
 50
94.328325
 51
146.394112
  0
LINE
  5
3C6
100
AcDbEntity
  8
0
370
    -3
390
0
  6
Continuous
100
AcDbLine
 10
-466.382025
 20
-241.253991
 30
0.0
 11
-463.845235
 21
-242.718607
 31
0.0
  0
ARC
  5
3C7
100
AcDbEntity
  8
0
370
    -3
390
0
  6
Continuous
100
AcDbCircle
 10
-462.345235
 20
-240.120531
 30
0.0
 40
3.0
100
AcDbArc
 50
240.0
 51
334.867312
  0
LINE
  5
3C8
100
AcDbEntity
  8
0
370
    -3
390
0
  6
Continuous
100
AcDbLine
 10
-466.821966
 20
-168.008232
 30
0.0
 11
-464.276789
 21
-166.538773
 31
0.0
  0
ARC
  5
3C9
100
AcDbEntity
  8
0
370
    -3
390
0
  6
Continuous
100
AcDbCircle
 10
-462.776789
 20
-169.13685
 30
0.0
 40
3.0
100
AcDbArc
 50
25.829352
 51
120.0
  0
ARC
  5
3CA
100
AcDbEntity
  8
0
370
    -3
390
0
  6
Continuous
100
AcDbCircle
 10
-537.034683
 20
-205.081462
 30
0.0
 40
85.5
100
AcDbArc
 50
334.867312
 51
25.829352
  0
LINE
  5
3CB
100
AcDbEntity
  8
0
370
    -3
390
0
  6
Continuous
100
AcDbLine
 10
-470.382025
 20
-248.182194
 30
0.0
 11
-467.845235
 21
-249.64681
 31
0.0
  0
ARC
  5
3CC
100
AcDbEntity
  8
0
370
    -3
390
0
  6
Continuous
100
AcDbCircle
 10
-469.345235
 20
-252.244886
 30
0.0
 40
3.0
100
AcDbArc
 50
325.132688
 51
60.0
  0
LINE
  5
3CD
100
AcDbEntity
  8
0
370
    -3
390
0
  6
Continuous
100
AcDbLine
 10
-534.034683
 20
-284.424073
 30
0.0
 11
-534.034683
 21
-287.36299
 31
0.0
  0
ARC
  5
3CE
100
AcDbEntity
  8
0
370
    -3
390
0
  6
Continuous
100
AcDbCircle
 10
-531.034683
 20
-287.36299
 30
0.0
 40
3.0
100
AcDbArc
 50
180.0
 51
274.170648
  0
ARC
  5
3CF
100
AcDbEntity
  8
0
370
    -3
390
0
  6
Continuous
100
AcDbCircle
 10
-537.034683
 20
-205.081462
 30
0.0
 40
85.5
100
AcDbArc
 50
274.170648
 51
325.132688
  0
LINE
  5
3D0
100
AcDbEntity
  8
0
370
    -3
390
0
  6
Continuous
100
AcDbLine
 10
-603.687342
 20
-248.182194
 30
0.0
 11
-606.224131
 21
-249.64681
 31
0.0
  0
ARC
  5
3D1
100
AcDbEntity
  8
0
370
    -3
390
0
  6
Continuous
100
AcDbCircle
 10
-604.724131
 20
-252.244886
 30
0.0
 40
3.0
100
AcDbArc
 50
120.0
 51
214.867312
  0
LINE
  5
3D2
100
AcDbEntity
  8
0
370
    -3
390
0
  6
Continuous
100
AcDbLine
 10
-540.034683
 20
-284.424073
 30
0.0
 11
-540.034683
 21
-287.36299
 31
0.0
  0
ARC
  5
3D3
100
AcDbEntity
  8
0
370
    -3
390
0
  6
Continuous
100
AcDbCircle
 10
-543.034683
 20
-287.36299
 30
0.0
 40
3.0
100
AcDbArc
 50
265.829352
 51
0.0
  0
ARC
  5
3D4
100
AcDbEntity
  8
0
370
    -3
390
0
  6
Continuous
100
AcDbCircle
 10
-537.034683
 20
-205.081462
 30
0.0
 40
85.5
100
AcDbArc
 50
214.867312
 51
265.829352
  0
LINE
  5
3D5
100
AcDbEntity
  8
0
370
    -3
390
0
  6
Continuous
100
AcDbLine
 10
-607.687342
 20
-241.253991
 30
0.0
 11
-610.224131
 21
-242.718607
 31
0.0
  0
ARC
  5
3D6
100
AcDbEntity
  8
0
370
    -3
390
0
  6
Continuous
100
AcDbCircle
 10
-611.724131
 20
-240.120531
 30
0.0
 40
3.0
100
AcDbArc
 50
205.132688
 51
300.0
  0
LINE
  5
3D7
100
AcDbEntity
  8
0
370
    -3
390
0
  6
Continuous
100
AcDbLine
 10
-607.247401
 20
-168.008232
 30
0.0
 11
-609.792578
 21
-166.538773
 31
0.0
  0
ARC
  5
3D8
100
AcDbEntity
  8
0
370
    -3
390
0
  6
Continuous
100
AcDbCircle
 10
-611.292578
 20
-169.13685
 30
0.0
 40
3.0
100
AcDbArc
 50
60.0
 51
154.170648
  0
ARC
  5
3D9
100
AcDbEntity
  8
0
370
    -3
390
0
  6
Continuous
100
AcDbCircle
 10
-537.034683
 20
-205.081462
 30
0.0
 40
85.5
100
AcDbArc
 50
154.170648
 51
205.132688
  0
LINE
  5
3DA
100
AcDbEntity
  8
0
370
    -3
390
0
  6
Continuous
100
AcDbLine
 10
-541.034683
 20
-125.8082
 30
0.0
 11
-541.034683
 21
-122.878968
 31
0.0
  0
ARC
  5
3DB
100
AcDbEntity
  8
0
370
    -3
390
0
  6
Continuous
100
AcDbCircle
 10
-544.034683
 20
-122.878968
 30
0.0
 40
3.0
100
AcDbArc
 50
0.0
 51
94.867312
  0
LINE
  5
3DC
100
AcDbEntity
  8
0
370
    -3
390
0
  6
Continuous
100
AcDbLine
 10
-604.247401
 20
-162.81208
 30
0.0
 11
-606.792578
 21
-161.342621
 31
0.0
  0
ARC
  5
3DD
100
AcDbEntity
  8
0
370
    -3
390
0
  6
Continuous
100
AcDbCircle
 10
-605.292578
 20
-158.744545
 30
0.0
 40
3.0
100
AcDbArc
 50
145.829352
 51
240.0
  0
ARC
  5
3DE
100
AcDbEntity
  8
0
370
    -3
390
0
  6
Continuous
100
AcDbCircle
 10
-537.034683
 20
-205.081462
 30
0.0
 40
85.5
100
AcDbArc
 50
94.867312
 51
145.829352
  0
ARC
  5
3DF
100
AcDbEntity
  8
0
370
    -3
390
0
  6
Continuous
100
AcDbCircle
 10
-468.776789
 20
-158.744545
 30
0.0
 40
3.0
100
AcDbArc
 50
300.0
 51
34.170648
  0
LINE
  5
3E0
100
AcDbEntity
  8
0
370
    -3
390
0
  6
Continuous
100
AcDbLine
 10
-469.821966
 20
-162.81208
 30
0.0
 11
-467.276789
 21
-161.342621
 31
0.0
  0
LINE
  5
3E1
100
AcDbEntity
  8
0
370
    -3
390
0
  6
Continuous
100
AcDbLine
 10
-533.034683
 20
-125.8082
 30
0.0
 11
-533.034683
 21
-122.878968
 31
0.0
  0
ARC
  5
3E2
100
AcDbEntity
  8
0
370
    -3
390
0
  6
Continuous
100
AcDbCircle
 10
-530.034683
 20
-122.878968
 30
0.0
 40
3.0
100
AcDbArc
 50
85.132688
 51
180.0
  0
ARC
  5
3E3
100
AcDbEntity
  8
0
370
    -3
390
0
  6
Continuous
100
AcDbCircle
 10
-537.034683
 20
-205.081462
 30
0.0
 40
7.5
100
AcDbArc
 50
270.0
 51
90.0
  0
ARC
  5
3E4
100
AcDbEntity
  8
0
370
    -3
390
0
  6
Continuous
100
AcDbCircle
 10
-537.034683
 20
-205.081462
 30
0.0
 40
124.2
100
AcDbArc
 50
45.0
 51
53.057523
  0
ARC
  5
3E5
100
AcDbEntity
  8
0
370
    -3
390
0
  6
Continuous
100
AcDbCircle
 10
-514.196193
 20
-174.710368
 30
0.0
 40
86.2
100
AcDbArc
 50
53.057523
 51
86.845276
  0
ARC
  5
3E6
100
AcDbEntity
  8
0
370
    -3
390
0
  6
Continuous
100
AcDbCircle
 10
-537.034683
 20
-589.081462
 30
0.0
 40
501.2
100
AcDbArc
 50
86.845276
 51
90.0
  0
ARC
  5
3E7
100
AcDbEntity
  8
0
370
    -3
390
0
  6
Continuous
100
AcDbCircle
 10
-537.034683
 20
-205.081462
 30
0.0
 40
124.2
100
AcDbArc
 50
36.942477
 51
45.0
  0
ARC
  5
3E8
100
AcDbEntity
  8
0
370
    -3
390
0
  6
Continuous
100
AcDbCircle
 10
-506.66359
 20
-182.242971
 30
0.0
 40
86.2
100
AcDbArc
 50
3.154724
 51
36.942477
  0
ARC
  5
3E9
100
AcDbEntity
  8
0
370
    -3
390
0
  6
Continuous
100
AcDbCircle
 10
-921.034683
 20
-205.081462
 30
0.0
 40
501.2
100
AcDbArc
 50
360.0
 51
3.154724
  0
ARC
  5
3EA
100
AcDbEntity
  8
0
370
    -3
390
0
  6
Continuous
100
AcDbCircle
 10
-537.034683
 20
-205.081462
 30
0.0
 40
124.2
100
AcDbArc
 50
315.0
 51
323.057523
  0
ARC
  5
3EB
100
AcDbEntity
  8
0
370
    -3
390
0
  6
Continuous
100
AcDbCircle
 10
-506.66359
 20
-227.919952
 30
0.0
 40
86.2
100
AcDbArc
 50
323.057523
 51
356.845276
  0
ARC
  5
3EC
100
AcDbEntity
  8
0
370
    -3
390
0
  6
Continuous
100
AcDbCircle
 10
-921.034683
 20
-205.081462
 30
0.0
 40
501.2
100
AcDbArc
 50
356.845276
 51
0.0
  0
ARC
  5
3ED
100
AcDbEntity
  8
0
370
    -3
390
0
  6
Continuous
100
AcDbCircle
 10
-514.196193
 20
-235.452555
 30
0.0
 40
86.2
100
AcDbArc
 50
273.154724
 51
306.942477
  0
ARC
  5
3EE
100
AcDbEntity
  8
0
370
    -3
390
0
  6
Continuous
100
AcDbCircle
 10
-537.034683
 20
178.918538
 30
0.0
 40
501.2
100
AcDbArc
 50
270.0
 51
273.154724
  0
LINE
  5
3EF
100
AcDbEntity
  8
0
370
    -3
390
0
  6
Continuous
100
AcDbLine
 10
-509.991952
 20
-186.004232
 30
0.0
 11
-506.477118
 21
-183.974941
 31
0.0
  0
LINE
  5
3F0
100
AcDbEntity
  8
0
370
    -3
390
0
  6
Continuous
100
AcDbLine
 10
-533.034683
 20
-172.320967
 30
0.0
 11
-533.034683
 21
-168.240588
 31
0.0
  0
ARC
  5
3F1
100
AcDbEntity
  8
0
370
    -3
390
0
  6
Continuous
100
AcDbCircle
 10
-530.034683
 20
-172.320967
 30
0.0
 40
3.0
100
AcDbArc
 50
180.0
 51
257.938867
  0
ARC
  5
3F2
100
AcDbEntity
  8
0
370
    -3
390
0
  6
Continuous
100
AcDbCircle
 10
-537.034683
 20
-205.081462
 30
0.0
 40
30.5
100
AcDbArc
 50
40.317603
 51
77.938867
  0
ARC
  5
3F3
100
AcDbEntity
  8
0
370
    -3
390
0
  6
Continuous
100
AcDbCircle
 10
-511.491952
 20
-183.406156
 30
0.0
 40
3.0
100
AcDbArc
 50
220.317603
 51
300.0
  0
ARC
  5
3F4
100
AcDbEntity
  8
0
370
    -3
390
0
  6
Continuous
100
AcDbCircle
 10
-530.034683
 20
-183.698057
 30
0.0
 40
3.0
100
AcDbArc
 50
71.873796
 51
180.0
  0
ARC
  5
3F5
100
AcDbEntity
  8
0
370
    -3
390
0
  6
Continuous
100
AcDbCircle
 10
-537.034683
 20
-205.081462
 30
0.0
 40
25.5
100
AcDbArc
 50
45.46601
 51
71.873796
  0
LINE
  5
3F6
100
AcDbEntity
  8
0
370
    -3
390
0
  6
Continuous
100
AcDbLine
 10
-533.034683
 20
-187.956918
 30
0.0
 11
-533.034683
 21
-183.698057
 31
0.0
  0
ARC
  5
3F7
100
AcDbEntity
  8
0
370
    -3
390
0
  6
Continuous
100
AcDbCircle
 10
-521.254707
 20
-189.042685
 30
0.0
 40
3.0
100
AcDbArc
 50
300.0
 51
45.46601
  0
LINE
  5
3F8
100
AcDbEntity
  8
0
370
    -3
390
0
  6
Continuous
100
AcDbLine
 10
-523.379239
 20
-193.733385
 30
0.0
 11
-519.754707
 21
-191.640761
 31
0.0
  0
ARC
  5
3F9
100
AcDbEntity
  8
0
370
    -3
390
0
  6
Continuous
100
AcDbCircle
 10
-537.034683
 20
-205.081462
 30
0.0
 40
15.5
100
AcDbArc
 50
48.924644
 51
67.766728
  0
ARC
  5
3FA
100
AcDbEntity
  8
0
370
    -3
390
0
  6
Continuous
100
AcDbCircle
 10
-530.034683
 20
-187.956918
 30
0.0
 40
3.0
100
AcDbArc
 50
180.0
 51
247.766728
  0
ARC
  5
3FB
100
AcDbEntity
  8
0
370
    -3
390
0
  6
Continuous
100
AcDbCircle
 10
-524.879239
 20
-191.135309
 30
0.0
 40
3.0
100
AcDbArc
 50
228.924644
 51
300.0
  0
LINE
  5
3FC
100
AcDbEntity
  8
0
370
    -3
390
0
  6
Continuous
100
AcDbLine
 10
-533.034683
 20
-141.968468
 30
0.0
 11
-533.034683
 21
-137.945406
 31
0.0
  0
ARC
  5
3FD
100
AcDbEntity
  8
0
370
    -3
390
0
  6
Continuous
100
AcDbCircle
 10
-481.809367
 20
-166.268907
 30
0.0
 40
3.0
100
AcDbArc
 50
300.0
 51
35.099689
  0
LINE
  5
3FE
100
AcDbEntity
  8
0
370
    -3
390
0
  6
Continuous
100
AcDbLine
 10
-483.788108
 20
-170.875435
 30
0.0
 11
-480.309367
 21
-168.866983
 31
0.0
  0
ARC
  5
3FF
100
AcDbEntity
  8
0
370
    -3
390
0
  6
Continuous
100
AcDbCircle
 10
-530.034683
 20
-141.968468
 30
0.0
 40
3.0
100
AcDbArc
 50
180.0
 51
263.671067
  0
ARC
  5
400
100
AcDbEntity
  8
0
370
    -3
390
0
  6
Continuous
100
AcDbCircle
 10
-537.034683
 20
-205.081462
 30
0.0
 40
60.5
100
AcDbArc
 50
35.421863
 51
83.671067
  0
ARC
  5
401
100
AcDbEntity
  8
0
370
    -3
390
0
  6
Continuous
100
AcDbCircle
 10
-485.288108
 20
-168.277359
 30
0.0
 40
3.0
100
AcDbArc
 50
215.421863
 51
300.0
  0
ARC
  5
402
100
AcDbEntity
  8
0
370
    -3
390
0
  6
Continuous
100
AcDbCircle
 10
-494.866249
 20
-173.807301
 30
0.0
 40
3.0
100
AcDbArc
 50
300.0
 51
36.562428
  0
ARC
  5
403
100
AcDbEntity
  8
0
370
    -3
390
0
  6
Continuous
100
AcDbCircle
 10
-537.034683
 20
-205.081462
 30
0.0
 40
55.5
100
AcDbArc
 50
36.562428
 51
82.337744
  0
LINE
  5
404
100
AcDbEntity
  8
0
370
    -3
390
0
  6
Continuous
100
AcDbLine
 10
-496.855102
 20
-178.419668
 30
0.0
 11
-493.366249
 21
-176.405377
 31
0.0
  0
ARC
  5
405
100
AcDbEntity
  8
0
370
    -3
390
0
  6
Continuous
100
AcDbCircle
 10
-530.034683
 20
-153.050221
 30
0.0
 40
3.0
100
AcDbArc
 50
82.337744
 51
180.0
  0
LINE
  5
406
100
AcDbEntity
  8
0
370
    -3
390
0
  6
Continuous
100
AcDbLine
 10
-533.034683
 20
-157.089275
 30
0.0
 11
-533.034683
 21
-153.050221
 31
0.0
  0
ARC
  5
407
100
AcDbEntity
  8
0
370
    -3
390
0
  6
Continuous
100
AcDbCircle
 10
-530.034683
 20
-157.089275
 30
0.0
 40
3.0
100
AcDbArc
 50
180.0
 51
261.701523
  0
ARC
  5
408
100
AcDbEntity
  8
0
370
    -3
390
0
  6
Continuous
100
AcDbCircle
 10
-537.034683
 20
-205.081462
 30
0.0
 40
45.5
100
AcDbArc
 50
37.106343
 51
81.701523
  0
ARC
  5
409
100
AcDbEntity
  8
0
370
    -3
390
0
  6
Continuous
100
AcDbCircle
 10
-498.355102
 20
-175.821592
 30
0.0
 40
3.0
100
AcDbArc
 50
217.106343
 51
300.0
  0
ARC
  5
40A
100
AcDbEntity
  8
0
370
    -3
390
0
  6
Continuous
100
AcDbCircle
 10
-507.977118
 20
-181.376865
 30
0.0
 40
3.0
100
AcDbArc
 50
300.0
 51
39.206896
  0
ARC
  5
40B
100
AcDbEntity
  8
0
370
    -3
390
0
  6
Continuous
100
AcDbCircle
 10
-537.034683
 20
-205.081462
 30
0.0
 40
40.5
100
AcDbArc
 50
39.206896
 51
79.241682
  0
ARC
  5
40C
100
AcDbEntity
  8
0
370
    -3
390
0
  6
Continuous
100
AcDbCircle
 10
-530.034683
 20
-168.240588
 30
0.0
 40
3.0
100
AcDbArc
 50
79.241682
 51
180.0
  0
ARC
  5
40D
100
AcDbEntity
  8
0
370
    -3
390
0
  6
Continuous
100
AcDbCircle
 10
-530.034683
 20
-137.945406
 30
0.0
 40
3.0
100
AcDbArc
 50
84.047513
 51
180.0
  0
ARC
  5
40E
100
AcDbEntity
  8
0
370
    -3
390
0
  6
Continuous
100
AcDbCircle
 10
-537.034683
 20
-205.081462
 30
0.0
 40
70.5
100
AcDbArc
 50
35.099689
 51
84.047513
  0
ARC
  5
40F
100
AcDbEntity
  8
0
370
    -3
390
0
  6
Continuous
100
AcDbCircle
 10
-537.034683
 20
-205.081462
 30
0.0
 40
85.5
100
AcDbArc
 50
34.170648
 51
85.132688
  0
LINE
  5
410
100
AcDbEntity
  8
0
370
    -3
390
0
  6
Continuous
100
AcDbLine
 10
-506.991952
 20
-191.200384
 30
0.0
 11
-503.477118
 21
-189.171094
 31
0.0
  0
LINE
  5
411
100
AcDbEntity
  8
0
370
    -3
390
0
  6
Continuous
100
AcDbLine
 10
-506.663263
 20
-217.997607
 30
0.0
 11
-503.129551
 21
-220.037797
 31
0.0
  0
ARC
  5
412
100
AcDbEntity
  8
0
370
    -3
390
0
  6
Continuous
100
AcDbCircle
 10
-505.163263
 20
-215.399531
 30
0.0
 40
3.0
100
AcDbArc
 50
162.061133
 51
240.0
  0
ARC
  5
413
100
AcDbEntity
  8
0
370
    -3
390
0
  6
Continuous
100
AcDbCircle
 10
-537.034683
 20
-205.081462
 30
0.0
 40
30.5
100
AcDbArc
 50
342.061133
 51
19.682397
  0
ARC
  5
414
100
AcDbEntity
  8
0
370
    -3
390
0
  6
Continuous
100
AcDbCircle
 10
-505.491952
 20
-193.79846
 30
0.0
 40
3.0
100
AcDbArc
 50
120.0
 51
199.682397
  0
ARC
  5
415
100
AcDbEntity
  8
0
370
    -3
390
0
  6
Continuous
100
AcDbCircle
 10
-515.016112
 20
-209.710986
 30
0.0
 40
3.0
100
AcDbArc
 50
240.0
 51
348.126204
  0
ARC
  5
416
100
AcDbEntity
  8
0
370
    -3
390
0
  6
Continuous
100
AcDbCircle
 10
-537.034683
 20
-205.081462
 30
0.0
 40
25.5
100
AcDbArc
 50
348.126204
 51
14.53399
  0
LINE
  5
417
100
AcDbEntity
  8
0
370
    -3
390
0
  6
Continuous
100
AcDbLine
 10
-520.204393
 20
-210.179632
 30
0.0
 11
-516.516112
 21
-212.309062
 31
0.0
  0
ARC
  5
418
100
AcDbEntity
  8
0
370
    -3
390
0
  6
Continuous
100
AcDbCircle
 10
-515.254707
 20
-199.43499
 30
0.0
 40
3.0
100
AcDbArc
 50
14.53399
 51
120.0
  0
LINE
  5
419
100
AcDbEntity
  8
0
370
    -3
390
0
  6
Continuous
100
AcDbLine
 10
-520.379239
 20
-198.929538
 30
0.0
 11
-516.754707
 21
-196.836914
 31
0.0
  0
ARC
  5
41A
100
AcDbEntity
  8
0
370
    -3
390
0
  6
Continuous
100
AcDbCircle
 10
-537.034683
 20
-205.081462
 30
0.0
 40
15.5
100
AcDbArc
 50
352.233272
 51
11.075356
  0
ARC
  5
41B
100
AcDbEntity
  8
0
370
    -3
390
0
  6
Continuous
100
AcDbCircle
 10
-518.704393
 20
-207.581556
 30
0.0
 40
3.0
100
AcDbArc
 50
172.233272
 51
240.0
  0
ARC
  5
41C
100
AcDbEntity
  8
0
370
    -3
390
0
  6
Continuous
100
AcDbCircle
 10
-518.879239
 20
-201.527614
 30
0.0
 40
3.0
100
AcDbArc
 50
120.0
 51
191.075356
  0
LINE
  5
41D
100
AcDbEntity
  8
0
370
    -3
390
0
  6
Continuous
100
AcDbLine
 10
-480.377227
 20
-233.173857
 30
0.0
 11
-476.893153
 21
-235.185388
 31
0.0
  0
ARC
  5
41E
100
AcDbEntity
  8
0
370
    -3
390
0
  6
Continuous
100
AcDbCircle
 10
-475.809367
 20
-176.661212
 30
0.0
 40
3.0
100
AcDbArc
 50
24.900311
 51
120.0
  0
LINE
  5
41F
100
AcDbEntity
  8
0
370
    -3
390
0
  6
Continuous
100
AcDbLine
 10
-480.788108
 20
-176.071588
 30
0.0
 11
-477.309367
 21
-174.063136
 31
0.0
  0
ARC
  5
420
100
AcDbEntity
  8
0
370
    -3
390
0
  6
Continuous
100
AcDbCircle
 10
-478.877227
 20
-230.575781
 30
0.0
 40
3.0
100
AcDbArc
 50
156.328933
 51
240.0
  0
ARC
  5
421
100
AcDbEntity
  8
0
370
    -3
390
0
  6
Continuous
100
AcDbCircle
 10
-537.034683
 20
-205.081462
 30
0.0
 40
60.5
100
AcDbArc
 50
336.328933
 51
24.578137
  0
ARC
  5
422
100
AcDbEntity
  8
0
370
    -3
390
0
  6
Continuous
100
AcDbCircle
 10
-479.288108
 20
-178.669664
 30
0.0
 40
3.0
100
AcDbArc
 50
120.0
 51
204.578137
  0
ARC
  5
423
100
AcDbEntity
  8
0
370
    -3
390
0
  6
Continuous
100
AcDbCircle
 10
-488.866249
 20
-184.199606
 30
0.0
 40
3.0
100
AcDbArc
 50
23.437572
 51
120.0
  0
ARC
  5
424
100
AcDbEntity
  8
0
370
    -3
390
0
  6
Continuous
100
AcDbCircle
 10
-537.034683
 20
-205.081462
 30
0.0
 40
55.5
100
AcDbArc
 50
337.662256
 51
23.437572
  0
LINE
  5
425
100
AcDbEntity
  8
0
370
    -3
390
0
  6
Continuous
100
AcDbLine
 10
-493.855102
 20
-183.61582
 30
0.0
 11
-490.366249
 21
-181.60153
 31
0.0
  0
ARC
  5
426
100
AcDbEntity
  8
0
370
    -3
390
0
  6
Continuous
100
AcDbCircle
 10
-488.474307
 20
-225.034904
 30
0.0
 40
3.0
100
AcDbArc
 50
240.0
 51
337.662256
  0
LINE
  5
427
100
AcDbEntity
  8
0
370
    -3
390
0
  6
Continuous
100
AcDbLine
 10
-493.47223
 20
-225.613453
 30
0.0
 11
-489.974307
 21
-227.63298
 31
0.0
  0
ARC
  5
428
100
AcDbEntity
  8
0
370
    -3
390
0
  6
Continuous
100
AcDbCircle
 10
-491.97223
 20
-223.015377
 30
0.0
 40
3.0
100
AcDbArc
 50
158.298477
 51
240.0
  0
ARC
  5
429
100
AcDbEntity
  8
0
370
    -3
390
0
  6
Continuous
100
AcDbCircle
 10
-537.034683
 20
-205.081462
 30
0.0
 40
45.5
100
AcDbArc
 50
338.298477
 51
22.893657
  0
ARC
  5
42A
100
AcDbEntity
  8
0
370
    -3
390
0
  6
Continuous
100
AcDbCircle
 10
-492.355102
 20
-186.213896
 30
0.0
 40
3.0
100
AcDbArc
 50
120.0
 51
202.893657
  0
ARC
  5
42B
100
AcDbEntity
  8
0
370
    -3
390
0
  6
Continuous
100
AcDbCircle
 10
-501.977118
 20
-191.76917
 30
0.0
 40
3.0
100
AcDbArc
 50
20.793104
 51
120.0
  0
ARC
  5
42C
100
AcDbEntity
  8
0
370
    -3
390
0
  6
Continuous
100
AcDbCircle
 10
-537.034683
 20
-205.081462
 30
0.0
 40
40.5
100
AcDbArc
 50
340.758318
 51
20.793104
  0
ARC
  5
42D
100
AcDbEntity
  8
0
370
    -3
390
0
  6
Continuous
100
AcDbCircle
 10
-501.629551
 20
-217.439721
 30
0.0
 40
3.0
100
AcDbArc
 50
240.0
 51
340.758318
  0
ARC
  5
42E
100
AcDbEntity
  8
0
370
    -3
390
0
  6
Continuous
100
AcDbCircle
 10
-475.393153
 20
-232.587312
 30
0.0
 40
3.0
100
AcDbArc
 50
240.0
 51
335.952487
  0
ARC
  5
42F
100
AcDbEntity
  8
0
370
    -3
390
0
  6
Continuous
100
AcDbCircle
 10
-537.034683
 20
-205.081462
 30
0.0
 40
70.5
100
AcDbArc
 50
335.952487
 51
24.900311
  0
LINE
  5
430
100
AcDbEntity
  8
0
370
    -3
390
0
  6
Continuous
100
AcDbLine
 10
-534.034683
 20
-238.039769
 30
0.0
 11
-534.034683
 21
-242.09835
 31
0.0
  0
LINE
  5
431
100
AcDbEntity
  8
0
370
    -3
390
0
  6
Continuous
100
AcDbLine
 10
-510.663263
 20
-224.92581
 30
0.0
 11
-507.129551
 21
-226.966
 31
0.0
  0
ARC
  5
432
100
AcDbEntity
  8
0
370
    -3
390
0
  6
Continuous
100
AcDbCircle
 10
-512.163263
 20
-227.523887
 30
0.0
 40
3.0
100
AcDbArc
 50
60.0
 51
137.938867
  0
ARC
  5
433
100
AcDbEntity
  8
0
370
    -3
390
0
  6
Continuous
100
AcDbCircle
 10
-537.034683
 20
-205.081462
 30
0.0
 40
30.5
100
AcDbArc
 50
280.317603
 51
317.938867
  0
ARC
  5
434
100
AcDbEntity
  8
0
370
    -3
390
0
  6
Continuous
100
AcDbCircle
 10
-531.034683
 20
-238.039769
 30
0.0
 40
3.0
100
AcDbArc
 50
100.317603
 51
180.0
  0
ARC
  5
435
100
AcDbEntity
  8
0
370
    -3
390
0
  6
Continuous
100
AcDbCircle
 10
-522.016112
 20
-221.835342
 30
0.0
 40
3.0
100
AcDbArc
 50
311.873796
 51
60.0
  0
ARC
  5
436
100
AcDbEntity
  8
0
370
    -3
390
0
  6
Continuous
100
AcDbCircle
 10
-537.034683
 20
-205.081462
 30
0.0
 40
25.5
100
AcDbArc
 50
285.46601
 51
311.873796
  0
LINE
  5
437
100
AcDbEntity
  8
0
370
    -3
390
0
  6
Continuous
100
AcDbLine
 10
-524.204393
 20
-217.107835
 30
0.0
 11
-520.516112
 21
-219.237266
 31
0.0
  0
ARC
  5
438
100
AcDbEntity
  8
0
370
    -3
390
0
  6
Continuous
100
AcDbCircle
 10
-531.034683
 20
-226.76671
 30
0.0
 40
3.0
100
AcDbArc
 50
180.0
 51
285.46601
  0
LINE
  5
439
100
AcDbEntity
  8
0
370
    -3
390
0
  6
Continuous
100
AcDbLine
 10
-534.034683
 20
-222.581462
 30
0.0
 11
-534.034683
 21
-226.76671
 31
0.0
  0
ARC
  5
43A
100
AcDbEntity
  8
0
370
    -3
390
0
  6
Continuous
100
AcDbCircle
 10
-537.034683
 20
-205.081462
 30
0.0
 40
15.5
100
AcDbArc
 50
288.924644
 51
307.766728
  0
ARC
  5
43B
100
AcDbEntity
  8
0
370
    -3
390
0
  6
Continuous
100
AcDbCircle
 10
-525.704393
 20
-219.705911
 30
0.0
 40
3.0
100
AcDbArc
 50
60.0
 51
127.766728
  0
ARC
  5
43C
100
AcDbEntity
  8
0
370
    -3
390
0
  6
Continuous
100
AcDbCircle
 10
-531.034683
 20
-222.581462
 30
0.0
 40
3.0
100
AcDbArc
 50
108.924644
 51
180.0
  0
LINE
  5
43D
100
AcDbEntity
  8
0
370
    -3
390
0
  6
Continuous
100
AcDbLine
 10
-484.377227
 20
-240.10206
 30
0.0
 11
-480.893153
 21
-242.113591
 31
0.0
  0
ARC
  5
43E
100
AcDbEntity
  8
0
370
    -3
390
0
  6
Continuous
100
AcDbCircle
 10
-531.034683
 20
-272.314266
 30
0.0
 40
3.0
100
AcDbArc
 50
180.0
 51
275.099689
  0
LINE
  5
43F
100
AcDbEntity
  8
0
370
    -3
390
0
  6
Continuous
100
AcDbLine
 10
-534.034683
 20
-268.297361
 30
0.0
 11
-534.034683
 21
-272.314266
 31
0.0
  0
ARC
  5
440
100
AcDbEntity
  8
0
370
    -3
390
0
  6
Continuous
100
AcDbCircle
 10
-485.877227
 20
-242.700136
 30
0.0
 40
3.0
100
AcDbArc
 50
60.0
 51
143.671067
  0
ARC
  5
441
100
AcDbEntity
  8
0
370
    -3
390
0
  6
Continuous
100
AcDbCircle
 10
-537.034683
 20
-205.081462
 30
0.0
 40
60.5
100
AcDbArc
 50
275.421863
 51
323.671067
  0
ARC
  5
442
100
AcDbEntity
  8
0
370
    -3
390
0
  6
Continuous
100
AcDbCircle
 10
-531.034683
 20
-268.297361
 30
0.0
 40
3.0
100
AcDbArc
 50
95.421863
 51
180.0
  0
ARC
  5
443
100
AcDbEntity
  8
0
370
    -3
390
0
  6
Continuous
100
AcDbCircle
 10
-531.034683
 20
-257.237477
 30
0.0
 40
3.0
100
AcDbArc
 50
180.0
 51
276.562428
  0
ARC
  5
444
100
AcDbEntity
  8
0
370
    -3
390
0
  6
Continuous
100
AcDbCircle
 10
-537.034683
 20
-205.081462
 30
0.0
 40
55.5
100
AcDbArc
 50
276.562428
 51
322.337744
  0
LINE
  5
445
100
AcDbEntity
  8
0
370
    -3
390
0
  6
Continuous
100
AcDbLine
 10
-534.034683
 20
-253.208897
 30
0.0
 11
-534.034683
 21
-257.237477
 31
0.0
  0
ARC
  5
446
100
AcDbEntity
  8
0
370
    -3
390
0
  6
Continuous
100
AcDbCircle
 10
-495.474307
 20
-237.15926
 30
0.0
 40
3.0
100
AcDbArc
 50
322.337744
 51
60.0
  0
LINE
  5
447
100
AcDbEntity
  8
0
370
    -3
390
0
  6
Continuous
100
AcDbLine
 10
-497.47223
 20
-232.541657
 30
0.0
 11
-493.974307
 21
-234.561183
 31
0.0
  0
ARC
  5
448
100
AcDbEntity
  8
0
370
    -3
390
0
  6
Continuous
100
AcDbCircle
 10
-498.97223
 20
-235.139733
 30
0.0
 40
3.0
100
AcDbArc
 50
60.0
 51
141.701523
  0
ARC
  5
449
100
AcDbEntity
  8
0
370
    -3
390
0
  6
Continuous
100
AcDbCircle
 10
-537.034683
 20
-205.081462
 30
0.0
 40
45.5
100
AcDbArc
 50
277.106343
 51
321.701523
  0
ARC
  5
44A
100
AcDbEntity
  8
0
370
    -3
390
0
  6
Continuous
100
AcDbCircle
 10
-531.034683
 20
-253.208897
 30
0.0
 40
3.0
100
AcDbArc
 50
97.106343
 51
180.0
  0
ARC
  5
44B
100
AcDbEntity
  8
0
370
    -3
390
0
  6
Continuous
100
AcDbCircle
 10
-531.034683
 20
-242.09835
 30
0.0
 40
3.0
100
AcDbArc
 50
180.0
 51
279.206896
  0
ARC
  5
44C
100
AcDbEntity
  8
0
370
    -3
390
0
  6
Continuous
100
AcDbCircle
 10
-537.034683
 20
-205.081462
 30
0.0
 40
40.5
100
AcDbArc
 50
279.206896
 51
319.241682
  0
ARC
  5
44D
100
AcDbEntity
  8
0
370
    -3
390
0
  6
Continuous
100
AcDbCircle
 10
-508.629551
 20
-229.564076
 30
0.0
 40
3.0
100
AcDbArc
 50
319.241682
 51
60.0
  0
ARC
  5
44E
100
AcDbEntity
  8
0
370
    -3
390
0
  6
Continuous
100
AcDbCircle
 10
-482.393153
 20
-244.711667
 30
0.0
 40
3.0
100
AcDbArc
 50
324.047513
 51
60.0
  0
ARC
  5
44F
100
AcDbEntity
  8
0
370
    -3
390
0
  6
Continuous
100
AcDbCircle
 10
-537.034683
 20
-205.081462
 30
0.0
 40
70.5
100
AcDbArc
 50
275.099689
 51
324.047513
  0
ARC
  5
450
100
AcDbEntity
  8
0
370
    -3
390
0
  6
Continuous
100
AcDbCircle
 10
-537.034683
 20
178.918538
 30
0.0
 40
482.147
100
AcDbArc
 50
270.0
 51
273.154724
  0
ARC
  5
451
100
AcDbEntity
  8
0
370
    -3
390
0
  6
Continuous
100
AcDbCircle
 10
-514.196193
 20
-235.452555
 30
0.0
 40
67.147
100
AcDbArc
 50
273.154724
 51
306.942477
  0
ARC
  5
452
100
AcDbEntity
  8
0
370
    -3
390
0
  6
Continuous
100
AcDbCircle
 10
-537.034683
 20
-205.081462
 30
0.0
 40
105.147
100
AcDbArc
 50
306.942477
 51
315.0
  0
ARC
  5
453
100
AcDbEntity
  8
0
370
    -3
390
0
  6
Continuous
100
AcDbCircle
 10
-537.034683
 20
-205.081462
 30
0.0
 40
105.147
100
AcDbArc
 50
315.0
 51
323.057523
  0
ARC
  5
454
100
AcDbEntity
  8
0
370
    -3
390
0
  6
Continuous
100
AcDbCircle
 10
-506.66359
 20
-227.919952
 30
0.0
 40
67.147
100
AcDbArc
 50
323.057523
 51
356.845276
  0
ARC
  5
455
100
AcDbEntity
  8
0
370
    -3
390
0
  6
Continuous
100
AcDbCircle
 10
-921.034683
 20
-205.081462
 30
0.0
 40
482.147
100
AcDbArc
 50
356.845276
 51
0.0
  0
ARC
  5
456
100
AcDbEntity
  8
0
370
    -3
390
0
  6
Continuous
100
AcDbCircle
 10
-921.034683
 20
-205.081462
 30
0.0
 40
482.147
100
AcDbArc
 50
360.0
 51
3.154724
  0
ARC
  5
457
100
AcDbEntity
  8
0
370
    -3
390
0
  6
Continuous
100
AcDbCircle
 10
-506.66359
 20
-182.242971
 30
0.0
 40
67.147
100
AcDbArc
 50
3.154724
 51
36.942477
  0
ARC
  5
458
100
AcDbEntity
  8
0
370
    -3
390
0
  6
Continuous
100
AcDbCircle
 10
-537.034683
 20
-205.081462
 30
0.0
 40
105.147
100
AcDbArc
 50
36.942477
 51
45.0
  0
ARC
  5
459
100
AcDbEntity
  8
0
370
    -3
390
0
  6
Continuous
100
AcDbCircle
 10
-514.196193
 20
-174.710368
 30
0.0
 40
67.147
100
AcDbArc
 50
53.057523
 51
86.845276
  0
ARC
  5
45A
100
AcDbEntity
  8
0
370
    -3
390
0
  6
Continuous
100
AcDbCircle
 10
-537.034683
 20
-589.081462
 30
0.0
 40
482.147
100
AcDbArc
 50
86.845276
 51
90.0
  0
ARC
  5
45B
100
AcDbEntity
  8
0
370
    -3
390
0
  6
Continuous
100
AcDbCircle
 10
-537.034683
 20
-205.081462
 30
0.0
 40
105.147
100
AcDbArc
 50
45.0
 51
53.057523
  0
ARC
  5
45C
100
AcDbEntity
  8
0
370
    -3
390
0
  6
Continuous
100
AcDbCircle
 10
-537.034683
 20
-205.081462
 30
0.0
 40
7.5
100
AcDbArc
 50
90.0
 51
270.0
  0
ARC
  5
45D
100
AcDbEntity
  8
0
370
    -3
390
0
  6
Continuous
100
AcDbCircle
 10
-559.873174
 20
-174.710368
 30
0.0
 40
86.2
100
AcDbArc
 50
93.154724
 51
126.942477
  0
ARC
  5
45E
100
AcDbEntity
  8
0
370
    -3
390
0
  6
Continuous
100
AcDbCircle
 10
-537.034683
 20
-589.081462
 30
0.0
 40
501.2
100
AcDbArc
 50
90.0
 51
93.154724
  0
ARC
  5
45F
100
AcDbEntity
  8
0
370
    -3
390
0
  6
Continuous
100
AcDbCircle
 10
-567.405777
 20
-182.242971
 30
0.0
 40
86.2
100
AcDbArc
 50
143.057523
 51
176.845276
  0
ARC
  5
460
100
AcDbEntity
  8
0
370
    -3
390
0
  6
Continuous
100
AcDbCircle
 10
-153.034683
 20
-205.081462
 30
0.0
 40
501.2
100
AcDbArc
 50
176.845276
 51
180.0
  0
ARC
  5
461
100
AcDbEntity
  8
0
370
    -3
390
0
  6
Continuous
100
AcDbCircle
 10
-537.034683
 20
-205.081462
 30
0.0
 40
124.2
100
AcDbArc
 50
216.942477
 51
225.0
  0
ARC
  5
462
100
AcDbEntity
  8
0
370
    -3
390
0
  6
Continuous
100
AcDbCircle
 10
-567.405777
 20
-227.919952
 30
0.0
 40
86.2
100
AcDbArc
 50
183.154724
 51
216.942477
  0
ARC
  5
463
100
AcDbEntity
  8
0
370
    -3
390
0
  6
Continuous
100
AcDbCircle
 10
-153.034683
 20
-205.081462
 30
0.0
 40
501.2
100
AcDbArc
 50
180.0
 51
183.154724
  0
ARC
  5
464
100
AcDbEntity
  8
0
370
    -3
390
0
  6
Continuous
100
AcDbCircle
 10
-537.034683
 20
-205.081462
 30
0.0
 40
124.2
100
AcDbArc
 50
225.0
 51
233.057523
  0
ARC
  5
465
100
AcDbEntity
  8
0
370
    -3
390
0
  6
Continuous
100
AcDbCircle
 10
-559.873174
 20
-235.452555
 30
0.0
 40
86.2
100
AcDbArc
 50
233.057523
 51
266.845276
  0
ARC
  5
466
100
AcDbEntity
  8
0
370
    -3
390
0
  6
Continuous
100
AcDbCircle
 10
-537.034683
 20
178.918538
 30
0.0
 40
501.2
100
AcDbArc
 50
266.845276
 51
270.0
  0
LINE
  5
467
100
AcDbEntity
  8
0
370
    -3
390
0
  6
Continuous
100
AcDbLine
 10
-564.077415
 20
-186.004232
 30
0.0
 11
-567.592249
 21
-183.974941
 31
0.0
  0
LINE
  5
468
100
AcDbEntity
  8
0
370
    -3
390
0
  6
Continuous
100
AcDbLine
 10
-541.034683
 20
-172.320967
 30
0.0
 11
-541.034683
 21
-168.240588
 31
0.0
  0
ARC
  5
469
100
AcDbEntity
  8
0
370
    -3
390
0
  6
Continuous
100
AcDbCircle
 10
-544.034683
 20
-172.320967
 30
0.0
 40
3.0
100
AcDbArc
 50
282.061133
 51
0.0
  0
ARC
  5
46A
100
AcDbEntity
  8
0
370
    -3
390
0
  6
Continuous
100
AcDbCircle
 10
-537.034683
 20
-205.081462
 30
0.0
 40
30.5
100
AcDbArc
 50
102.061133
 51
139.682397
  0
ARC
  5
46B
100
AcDbEntity
  8
0
370
    -3
390
0
  6
Continuous
100
AcDbCircle
 10
-562.577415
 20
-183.406156
 30
0.0
 40
3.0
100
AcDbArc
 50
240.0
 51
319.682397
  0
ARC
  5
46C
100
AcDbEntity
  8
0
370
    -3
390
0
  6
Continuous
100
AcDbCircle
 10
-544.034683
 20
-183.698057
 30
0.0
 40
3.0
100
AcDbArc
 50
0.0
 51
108.126204
  0
ARC
  5
46D
100
AcDbEntity
  8
0
370
    -3
390
0
  6
Continuous
100
AcDbCircle
 10
-537.034683
 20
-205.081462
 30
0.0
 40
25.5
100
AcDbArc
 50
108.126204
 51
134.53399
  0
LINE
  5
46E
100
AcDbEntity
  8
0
370
    -3
390
0
  6
Continuous
100
AcDbLine
 10
-541.034683
 20
-187.956918
 30
0.0
 11
-541.034683
 21
-183.698057
 31
0.0
  0
ARC
  5
46F
100
AcDbEntity
  8
0
370
    -3
390
0
  6
Continuous
100
AcDbCircle
 10
-552.814659
 20
-189.042685
 30
0.0
 40
3.0
100
AcDbArc
 50
134.53399
 51
240.0
  0
LINE
  5
470
100
AcDbEntity
  8
0
370
    -3
390
0
  6
Continuous
100
AcDbLine
 10
-550.690128
 20
-193.733385
 30
0.0
 11
-554.314659
 21
-191.640761
 31
0.0
  0
ARC
  5
471
100
AcDbEntity
  8
0
370
    -3
390
0
  6
Continuous
100
AcDbCircle
 10
-537.034683
 20
-205.081462
 30
0.0
 40
15.5
100
AcDbArc
 50
112.233272
 51
131.075356
  0
ARC
  5
472
100
AcDbEntity
  8
0
370
    -3
390
0
  6
Continuous
100
AcDbCircle
 10
-544.034683
 20
-187.956918
 30
0.0
 40
3.0
100
AcDbArc
 50
292.233272
 51
0.0
  0
ARC
  5
473
100
AcDbEntity
  8
0
370
    -3
390
0
  6
Continuous
100
AcDbCircle
 10
-549.190128
 20
-191.135309
 30
0.0
 40
3.0
100
AcDbArc
 50
240.0
 51
311.075356
  0
LINE
  5
474
100
AcDbEntity
  8
0
370
    -3
390
0
  6
Continuous
100
AcDbLine
 10
-541.034683
 20
-141.968468
 30
0.0
 11
-541.034683
 21
-137.945406
 31
0.0
  0
ARC
  5
475
100
AcDbEntity
  8
0
370
    -3
390
0
  6
Continuous
100
AcDbCircle
 10
-592.26
 20
-166.268907
 30
0.0
 40
3.0
100
AcDbArc
 50
144.900311
 51
240.0
  0
LINE
  5
476
100
AcDbEntity
  8
0
370
    -3
390
0
  6
Continuous
100
AcDbLine
 10
-590.281259
 20
-170.875435
 30
0.0
 11
-593.76
 21
-168.866983
 31
0.0
  0
ARC
  5
477
100
AcDbEntity
  8
0
370
    -3
390
0
  6
Continuous
100
AcDbCircle
 10
-544.034683
 20
-141.968468
 30
0.0
 40
3.0
100
AcDbArc
 50
276.328933
 51
0.0
  0
ARC
  5
478
100
AcDbEntity
  8
0
370
    -3
390
0
  6
Continuous
100
AcDbCircle
 10
-537.034683
 20
-205.081462
 30
0.0
 40
60.5
100
AcDbArc
 50
96.328933
 51
144.578137
  0
ARC
  5
479
100
AcDbEntity
  8
0
370
    -3
390
0
  6
Continuous
100
AcDbCircle
 10
-588.781259
 20
-168.277359
 30
0.0
 40
3.0
100
AcDbArc
 50
240.0
 51
324.578137
  0
ARC
  5
47A
100
AcDbEntity
  8
0
370
    -3
390
0
  6
Continuous
100
AcDbCircle
 10
-579.203118
 20
-173.807301
 30
0.0
 40
3.0
100
AcDbArc
 50
143.437572
 51
240.0
  0
ARC
  5
47B
100
AcDbEntity
  8
0
370
    -3
390
0
  6
Continuous
100
AcDbCircle
 10
-537.034683
 20
-205.081462
 30
0.0
 40
55.5
100
AcDbArc
 50
97.662256
 51
143.437572
  0
LINE
  5
47C
100
AcDbEntity
  8
0
370
    -3
390
0
  6
Continuous
100
AcDbLine
 10
-577.214265
 20
-178.419668
 30
0.0
 11
-580.703118
 21
-176.405377
 31
0.0
  0
ARC
  5
47D
100
AcDbEntity
  8
0
370
    -3
390
0
  6
Continuous
100
AcDbCircle
 10
-544.034683
 20
-153.050221
 30
0.0
 40
3.0
100
AcDbArc
 50
0.0
 51
97.662256
  0
LINE
  5
47E
100
AcDbEntity
  8
0
370
    -3
390
0
  6
Continuous
100
AcDbLine
 10
-541.034683
 20
-157.089275
 30
0.0
 11
-541.034683
 21
-153.050221
 31
0.0
  0
ARC
  5
47F
100
AcDbEntity
  8
0
370
    -3
390
0
  6
Continuous
100
AcDbCircle
 10
-544.034683
 20
-157.089275
 30
0.0
 40
3.0
100
AcDbArc
 50
278.298477
 51
0.0
  0
ARC
  5
480
100
AcDbEntity
  8
0
370
    -3
390
0
  6
Continuous
100
AcDbCircle
 10
-537.034683
 20
-205.081462
 30
0.0
 40
45.5
100
AcDbArc
 50
98.298477
 51
142.893657
  0
ARC
  5
481
100
AcDbEntity
  8
0
370
    -3
390
0
  6
Continuous
100
AcDbCircle
 10
-575.714265
 20
-175.821592
 30
0.0
 40
3.0
100
AcDbArc
 50
240.0
 51
322.893657
  0
ARC
  5
482
100
AcDbEntity
  8
0
370
    -3
390
0
  6
Continuous
100
AcDbCircle
 10
-566.092249
 20
-181.376865
 30
0.0
 40
3.0
100
AcDbArc
 50
140.793104
 51
240.0
  0
ARC
  5
483
100
AcDbEntity
  8
0
370
    -3
390
0
  6
Continuous
100
AcDbCircle
 10
-537.034683
 20
-205.081462
 30
0.0
 40
40.5
100
AcDbArc
 50
100.758318
 51
140.793104
  0
ARC
  5
484
100
AcDbEntity
  8
0
370
    -3
390
0
  6
Continuous
100
AcDbCircle
 10
-544.034683
 20
-168.240588
 30
0.0
 40
3.0
100
AcDbArc
 50
360.0
 51
100.758318
  0
ARC
  5
485
100
AcDbEntity
  8
0
370
    -3
390
0
  6
Continuous
100
AcDbCircle
 10
-544.034683
 20
-137.945406
 30
0.0
 40
3.0
100
AcDbArc
 50
0.0
 51
95.952487
  0
ARC
  5
486
100
AcDbEntity
  8
0
370
    -3
390
0
  6
Continuous
100
AcDbCircle
 10
-537.034683
 20
-205.081462
 30
0.0
 40
70.5
100
AcDbArc
 50
95.952487
 51
144.900311
  0
LINE
  5
487
100
AcDbEntity
  8
0
370
    -3
390
0
  6
Continuous
100
AcDbLine
 10
-567.077415
 20
-191.200384
 30
0.0
 11
-570.592249
 21
-189.171094
 31
0.0
  0
LINE
  5
488
100
AcDbEntity
  8
0
370
    -3
390
0
  6
Continuous
100
AcDbLine
 10
-567.406104
 20
-217.997607
 30
0.0
 11
-570.939816
 21
-220.037797
 31
0.0
  0
ARC
  5
489
100
AcDbEntity
  8
0
370
    -3
390
0
  6
Continuous
100
AcDbCircle
 10
-568.906104
 20
-215.399531
 30
0.0
 40
3.0
100
AcDbArc
 50
300.0
 51
17.938867
  0
ARC
  5
48A
100
AcDbEntity
  8
0
370
    -3
390
0
  6
Continuous
100
AcDbCircle
 10
-537.034683
 20
-205.081462
 30
0.0
 40
30.5
100
AcDbArc
 50
160.317603
 51
197.938867
  0
ARC
  5
48B
100
AcDbEntity
  8
0
370
    -3
390
0
  6
Continuous
100
AcDbCircle
 10
-568.577415
 20
-193.79846
 30
0.0
 40
3.0
100
AcDbArc
 50
340.317603
 51
60.0
  0
ARC
  5
48C
100
AcDbEntity
  8
0
370
    -3
390
0
  6
Continuous
100
AcDbCircle
 10
-559.053255
 20
-209.710986
 30
0.0
 40
3.0
100
AcDbArc
 50
191.873796
 51
300.0
  0
ARC
  5
48D
100
AcDbEntity
  8
0
370
    -3
390
0
  6
Continuous
100
AcDbCircle
 10
-537.034683
 20
-205.081462
 30
0.0
 40
25.5
100
AcDbArc
 50
165.46601
 51
191.873796
  0
LINE
  5
48E
100
AcDbEntity
  8
0
370
    -3
390
0
  6
Continuous
100
AcDbLine
 10
-553.864973
 20
-210.179632
 30
0.0
 11
-557.553255
 21
-212.309062
 31
0.0
  0
ARC
  5
48F
100
AcDbEntity
  8
0
370
    -3
390
0
  6
Continuous
100
AcDbCircle
 10
-558.814659
 20
-199.43499
 30
0.0
 40
3.0
100
AcDbArc
 50
60.0
 51
165.46601
  0
LINE
  5
490
100
AcDbEntity
  8
0
370
    -3
390
0
  6
Continuous
100
AcDbLine
 10
-553.690128
 20
-198.929538
 30
0.0
 11
-557.314659
 21
-196.836914
 31
0.0
  0
ARC
  5
491
100
AcDbEntity
  8
0
370
    -3
390
0
  6
Continuous
100
AcDbCircle
 10
-537.034683
 20
-205.081462
 30
0.0
 40
15.5
100
AcDbArc
 50
168.924644
 51
187.766728
  0
ARC
  5
492
100
AcDbEntity
  8
0
370
    -3
390
0
  6
Continuous
100
AcDbCircle
 10
-555.364973
 20
-207.581556
 30
0.0
 40
3.0
100
AcDbArc
 50
300.0
 51
7.766728
  0
ARC
  5
493
100
AcDbEntity
  8
0
370
    -3
390
0
  6
Continuous
100
AcDbCircle
 10
-555.190128
 20
-201.527614
 30
0.0
 40
3.0
100
AcDbArc
 50
348.924644
 51
60.0
  0
LINE
  5
494
100
AcDbEntity
  8
0
370
    -3
390
0
  6
Continuous
100
AcDbLine
 10
-593.692139
 20
-233.173857
 30
0.0
 11
-597.176213
 21
-235.185388
 31
0.0
  0
ARC
  5
495
100
AcDbEntity
  8
0
370
    -3
390
0
  6
Continuous
100
AcDbCircle
 10
-598.26
 20
-176.661212
 30
0.0
 40
3.0
100
AcDbArc
 50
60.0
 51
155.099689
  0
LINE
  5
496
100
AcDbEntity
  8
0
370
    -3
390
0
  6
Continuous
100
AcDbLine
 10
-593.281259
 20
-176.071588
 30
0.0
 11
-596.76
 21
-174.063136
 31
0.0
  0
ARC
  5
497
100
AcDbEntity
  8
0
370
    -3
390
0
  6
Continuous
100
AcDbCircle
 10
-595.192139
 20
-230.575781
 30
0.0
 40
3.0
100
AcDbArc
 50
300.0
 51
23.671067
  0
ARC
  5
498
100
AcDbEntity
  8
0
370
    -3
390
0
  6
Continuous
100
AcDbCircle
 10
-537.034683
 20
-205.081462
 30
0.0
 40
60.5
100
AcDbArc
 50
155.421863
 51
203.671067
  0
ARC
  5
499
100
AcDbEntity
  8
0
370
    -3
390
0
  6
Continuous
100
AcDbCircle
 10
-594.781259
 20
-178.669664
 30
0.0
 40
3.0
100
AcDbArc
 50
335.421863
 51
60.0
  0
ARC
  5
49A
100
AcDbEntity
  8
0
370
    -3
390
0
  6
Continuous
100
AcDbCircle
 10
-585.203118
 20
-184.199606
 30
0.0
 40
3.0
100
AcDbArc
 50
60.0
 51
156.562428
  0
ARC
  5
49B
100
AcDbEntity
  8
0
370
    -3
390
0
  6
Continuous
100
AcDbCircle
 10
-537.034683
 20
-205.081462
 30
0.0
 40
55.5
100
AcDbArc
 50
156.562428
 51
202.337744
  0
LINE
  5
49C
100
AcDbEntity
  8
0
370
    -3
390
0
  6
Continuous
100
AcDbLine
 10
-580.214265
 20
-183.61582
 30
0.0
 11
-583.703118
 21
-181.60153
 31
0.0
  0
ARC
  5
49D
100
AcDbEntity
  8
0
370
    -3
390
0
  6
Continuous
100
AcDbCircle
 10
-585.59506
 20
-225.034904
 30
0.0
 40
3.0
100
AcDbArc
 50
202.337744
 51
300.0
  0
LINE
  5
49E
100
AcDbEntity
  8
0
370
    -3
390
0
  6
Continuous
100
AcDbLine
 10
-580.597136
 20
-225.613453
 30
0.0
 11
-584.09506
 21
-227.63298
 31
0.0
  0
ARC
  5
49F
100
AcDbEntity
  8
0
370
    -3
390
0
  6
Continuous
100
AcDbCircle
 10
-582.097136
 20
-223.015377
 30
0.0
 40
3.0
100
AcDbArc
 50
300.0
 51
21.701523
  0
ARC
  5
4A0
100
AcDbEntity
  8
0
370
    -3
390
0
  6
Continuous
100
AcDbCircle
 10
-537.034683
 20
-205.081462
 30
0.0
 40
45.5
100
AcDbArc
 50
157.106343
 51
201.701523
  0
ARC
  5
4A1
100
AcDbEntity
  8
0
370
    -3
390
0
  6
Continuous
100
AcDbCircle
 10
-581.714265
 20
-186.213896
 30
0.0
 40
3.0
100
AcDbArc
 50
337.106343
 51
60.0
  0
ARC
  5
4A2
100
AcDbEntity
  8
0
370
    -3
390
0
  6
Continuous
100
AcDbCircle
 10
-572.092249
 20
-191.76917
 30
0.0
 40
3.0
100
AcDbArc
 50
60.0
 51
159.206896
  0
ARC
  5
4A3
100
AcDbEntity
  8
0
370
    -3
390
0
  6
Continuous
100
AcDbCircle
 10
-537.034683
 20
-205.081462
 30
0.0
 40
40.5
100
AcDbArc
 50
159.206896
 51
199.241682
  0
ARC
  5
4A4
100
AcDbEntity
  8
0
370
    -3
390
0
  6
Continuous
100
AcDbCircle
 10
-572.439816
 20
-217.439721
 30
0.0
 40
3.0
100
AcDbArc
 50
199.241682
 51
300.0
  0
ARC
  5
4A5
100
AcDbEntity
  8
0
370
    -3
390
0
  6
Continuous
100
AcDbCircle
 10
-598.676213
 20
-232.587312
 30
0.0
 40
3.0
100
AcDbArc
 50
204.047513
 51
300.0
  0
ARC
  5
4A6
100
AcDbEntity
  8
0
370
    -3
390
0
  6
Continuous
100
AcDbCircle
 10
-537.034683
 20
-205.081462
 30
0.0
 40
70.5
100
AcDbArc
 50
155.099689
 51
204.047513
  0
LINE
  5
4A7
100
AcDbEntity
  8
0
370
    -3
390
0
  6
Continuous
100
AcDbLine
 10
-540.034683
 20
-238.039769
 30
0.0
 11
-540.034683
 21
-242.09835
 31
0.0
  0
LINE
  5
4A8
100
AcDbEntity
  8
0
370
    -3
390
0
  6
Continuous
100
AcDbLine
 10
-563.406104
 20
-224.92581
 30
0.0
 11
-566.939816
 21
-226.966
 31
0.0
  0
ARC
  5
4A9
100
AcDbEntity
  8
0
370
    -3
390
0
  6
Continuous
100
AcDbCircle
 10
-561.906104
 20
-227.523887
 30
0.0
 40
3.0
100
AcDbArc
 50
42.061133
 51
120.0
  0
ARC
  5
4AA
100
AcDbEntity
  8
0
370
    -3
390
0
  6
Continuous
100
AcDbCircle
 10
-537.034683
 20
-205.081462
 30
0.0
 40
30.5
100
AcDbArc
 50
222.061133
 51
259.682397
  0
ARC
  5
4AB
100
AcDbEntity
  8
0
370
    -3
390
0
  6
Continuous
100
AcDbCircle
 10
-543.034683
 20
-238.039769
 30
0.0
 40
3.0
100
AcDbArc
 50
0.0
 51
79.682397
  0
ARC
  5
4AC
100
AcDbEntity
  8
0
370
    -3
390
0
  6
Continuous
100
AcDbCircle
 10
-552.053255
 20
-221.835342
 30
0.0
 40
3.0
100
AcDbArc
 50
120.0
 51
228.126204
  0
ARC
  5
4AD
100
AcDbEntity
  8
0
370
    -3
390
0
  6
Continuous
100
AcDbCircle
 10
-537.034683
 20
-205.081462
 30
0.0
 40
25.5
100
AcDbArc
 50
228.126204
 51
254.53399
  0
LINE
  5
4AE
100
AcDbEntity
  8
0
370
    -3
390
0
  6
Continuous
100
AcDbLine
 10
-549.864973
 20
-217.107835
 30
0.0
 11
-553.553255
 21
-219.237266
 31
0.0
  0
ARC
  5
4AF
100
AcDbEntity
  8
0
370
    -3
390
0
  6
Continuous
100
AcDbCircle
 10
-543.034683
 20
-226.76671
 30
0.0
 40
3.0
100
AcDbArc
 50
254.53399
 51
0.0
  0
LINE
  5
4B0
100
AcDbEntity
  8
0
370
    -3
390
0
  6
Continuous
100
AcDbLine
 10
-540.034683
 20
-222.581462
 30
0.0
 11
-540.034683
 21
-226.76671
 31
0.0
  0
ARC
  5
4B1
100
AcDbEntity
  8
0
370
    -3
390
0
  6
Continuous
100
AcDbCircle
 10
-537.034683
 20
-205.081462
 30
0.0
 40
15.5
100
AcDbArc
 50
232.233272
 51
251.075356
  0
ARC
  5
4B2
100
AcDbEntity
  8
0
370
    -3
390
0
  6
Continuous
100
AcDbCircle
 10
-548.364973
 20
-219.705911
 30
0.0
 40
3.0
100
AcDbArc
 50
52.233272
 51
120.0
  0
ARC
  5
4B3
100
AcDbEntity
  8
0
370
    -3
390
0
  6
Continuous
100
AcDbCircle
 10
-543.034683
 20
-222.581462
 30
0.0
 40
3.0
100
AcDbArc
 50
0.0
 51
71.075356
  0
LINE
  5
4B4
100
AcDbEntity
  8
0
370
    -3
390
0
  6
Continuous
100
AcDbLine
 10
-589.692139
 20
-240.10206
 30
0.0
 11
-593.176213
 21
-242.113591
 31
0.0
  0
ARC
  5
4B5
100
AcDbEntity
  8
0
370
    -3
390
0
  6
Continuous
100
AcDbCircle
 10
-543.034683
 20
-272.314266
 30
0.0
 40
3.0
100
AcDbArc
 50
264.900311
 51
0.0
  0
LINE
  5
4B6
100
AcDbEntity
  8
0
370
    -3
390
0
  6
Continuous
100
AcDbLine
 10
-540.034683
 20
-268.297361
 30
0.0
 11
-540.034683
 21
-272.314266
 31
0.0
  0
ARC
  5
4B7
100
AcDbEntity
  8
0
370
    -3
390
0
  6
Continuous
100
AcDbCircle
 10
-588.192139
 20
-242.700136
 30
0.0
 40
3.0
100
AcDbArc
 50
36.328933
 51
120.0
  0
ARC
  5
4B8
100
AcDbEntity
  8
0
370
    -3
390
0
  6
Continuous
100
AcDbCircle
 10
-537.034683
 20
-205.081462
 30
0.0
 40
60.5
100
AcDbArc
 50
216.328933
 51
264.578137
  0
ARC
  5
4B9
100
AcDbEntity
  8
0
370
    -3
390
0
  6
Continuous
100
AcDbCircle
 10
-543.034683
 20
-268.297361
 30
0.0
 40
3.0
100
AcDbArc
 50
0.0
 51
84.578137
  0
ARC
  5
4BA
100
AcDbEntity
  8
0
370
    -3
390
0
  6
Continuous
100
AcDbCircle
 10
-543.034683
 20
-257.237477
 30
0.0
 40
3.0
100
AcDbArc
 50
263.437572
 51
0.0
  0
ARC
  5
4BB
100
AcDbEntity
  8
0
370
    -3
390
0
  6
Continuous
100
AcDbCircle
 10
-537.034683
 20
-205.081462
 30
0.0
 40
55.5
100
AcDbArc
 50
217.662256
 51
263.437572
  0
LINE
  5
4BC
100
AcDbEntity
  8
0
370
    -3
390
0
  6
Continuous
100
AcDbLine
 10
-540.034683
 20
-253.208897
 30
0.0
 11
-540.034683
 21
-257.237477
 31
0.0
  0
ARC
  5
4BD
100
AcDbEntity
  8
0
370
    -3
390
0
  6
Continuous
100
AcDbCircle
 10
-578.59506
 20
-237.15926
 30
0.0
 40
3.0
100
AcDbArc
 50
120.0
 51
217.662256
  0
LINE
  5
4BE
100
AcDbEntity
  8
0
370
    -3
390
0
  6
Continuous
100
AcDbLine
 10
-576.597136
 20
-232.541657
 30
0.0
 11
-580.09506
 21
-234.561183
 31
0.0
  0
ARC
  5
4BF
100
AcDbEntity
  8
0
370
    -3
390
0
  6
Continuous
100
AcDbCircle
 10
-575.097136
 20
-235.139733
 30
0.0
 40
3.0
100
AcDbArc
 50
38.298477
 51
120.0
  0
ARC
  5
4C0
100
AcDbEntity
  8
0
370
    -3
390
0
  6
Continuous
100
AcDbCircle
 10
-537.034683
 20
-205.081462
 30
0.0
 40
45.5
100
AcDbArc
 50
218.298477
 51
262.893657
  0
ARC
  5
4C1
100
AcDbEntity
  8
0
370
    -3
390
0
  6
Continuous
100
AcDbCircle
 10
-543.034683
 20
-253.208897
 30
0.0
 40
3.0
100
AcDbArc
 50
0.0
 51
82.893657
  0
ARC
  5
4C2
100
AcDbEntity
  8
0
370
    -3
390
0
  6
Continuous
100
AcDbCircle
 10
-543.034683
 20
-242.09835
 30
0.0
 40
3.0
100
AcDbArc
 50
260.793104
 51
0.0
  0
ARC
  5
4C3
100
AcDbEntity
  8
0
370
    -3
390
0
  6
Continuous
100
AcDbCircle
 10
-537.034683
 20
-205.081462
 30
0.0
 40
40.5
100
AcDbArc
 50
220.758318
 51
260.793104
  0
ARC
  5
4C4
100
AcDbEntity
  8
0
370
    -3
390
0
  6
Continuous
100
AcDbCircle
 10
-565.439816
 20
-229.564076
 30
0.0
 40
3.0
100
AcDbArc
 50
120.0
 51
220.758318
  0
ARC
  5
4C5
100
AcDbEntity
  8
0
370
    -3
390
0
  6
Continuous
100
AcDbCircle
 10
-591.676213
 20
-244.711667
 30
0.0
 40
3.0
100
AcDbArc
 50
120.0
 51
215.952487
  0
ARC
  5
4C6
100
AcDbEntity
  8
0
370
    -3
390
0
  6
Continuous
100
AcDbCircle
 10
-537.034683
 20
-205.081462
 30
0.0
 40
70.5
100
AcDbArc
 50
215.952487
 51
264.900311
  0
ARC
  5
4C7
100
AcDbEntity
  8
0
370
    -3
390
0
  6
Continuous
100
AcDbCircle
 10
-537.034683
 20
178.918538
 30
0.0
 40
482.147
100
AcDbArc
 50
266.845276
 51
270.0
  0
ARC
  5
4C8
100
AcDbEntity
  8
0
370
    -3
390
0
  6
Continuous
100
AcDbCircle
 10
-559.873174
 20
-235.452555
 30
0.0
 40
67.147
100
AcDbArc
 50
233.057523
 51
266.845276
  0
ARC
  5
4C9
100
AcDbEntity
  8
0
370
    -3
390
0
  6
Continuous
100
AcDbCircle
 10
-537.034683
 20
-205.081462
 30
0.0
 40
105.147
100
AcDbArc
 50
225.0
 51
233.057523
  0
ARC
  5
4CA
100
AcDbEntity
  8
0
370
    -3
390
0
  6
Continuous
100
AcDbCircle
 10
-537.034683
 20
-205.081462
 30
0.0
 40
105.147
100
AcDbArc
 50
216.942477
 51
225.0
  0
ARC
  5
4CB
100
AcDbEntity
  8
0
370
    -3
390
0
  6
Continuous
100
AcDbCircle
 10
-567.405777
 20
-227.919952
 30
0.0
 40
67.147
100
AcDbArc
 50
183.154724
 51
216.942477
  0
ARC
  5
4CC
100
AcDbEntity
  8
0
370
    -3
390
0
  6
Continuous
100
AcDbCircle
 10
-153.034683
 20
-205.081462
 30
0.0
 40
482.147
100
AcDbArc
 50
180.0
 51
183.154724
  0
ARC
  5
4CD
100
AcDbEntity
  8
0
370
    -3
390
0
  6
Continuous
100
AcDbCircle
 10
-153.034683
 20
-205.081462
 30
0.0
 40
482.147
100
AcDbArc
 50
176.845276
 51
180.0
  0
ARC
  5
4CE
100
AcDbEntity
  8
0
370
    -3
390
0
  6
Continuous
100
AcDbCircle
 10
-567.405777
 20
-182.242971
 30
0.0
 40
67.147
100
AcDbArc
 50
143.057523
 51
176.845276
  0
ARC
  5
4CF
100
AcDbEntity
  8
0
370
    -3
390
0
  6
Continuous
100
AcDbCircle
 10
-537.034683
 20
-205.081462
 30
0.0
 40
105.147
100
AcDbArc
 50
135.0
 51
143.057523
  0
ARC
  5
4D0
100
AcDbEntity
  8
0
370
    -3
390
0
  6
Continuous
100
AcDbCircle
 10
-559.873174
 20
-174.710368
 30
0.0
 40
67.147
100
AcDbArc
 50
93.154724
 51
126.942477
  0
ARC
  5
4D1
100
AcDbEntity
  8
0
370
    -3
390
0
  6
Continuous
100
AcDbCircle
 10
-537.034683
 20
-589.081462
 30
0.0
 40
482.147
100
AcDbArc
 50
90.0
 51
93.154724
  0
ARC
  5
4D2
100
AcDbEntity
  8
0
370
    -3
390
0
  6
Continuous
100
AcDbCircle
 10
-537.034683
 20
-205.081462
 30
0.0
 40
105.147
100
AcDbArc
 50
126.942477
 51
135.0
  0
LINE
  5
4D3
100
AcDbEntity
  8
0
370
    -3
390
0
  6
Continuous
100
AcDbLine
 10
-0.208973
 20
88.918538
 30
0.0
 11
-0.208973
 21
300.918538
 31
0.0
  0
LINE
  5
4D4
100
AcDbEntity
  8
0
370
    -3
390
0
  6
Continuous
100
AcDbLine
 10
-214.808973
 20
76.518538
 30
0.0
 11
-214.808973
 21
78.645449
 31
0.0
  0
ARC
  5
4D5
100
AcDbEntity
  8
0
370
    -3
390
0
  6
Continuous
100
AcDbCircle
 10
-219.208973
 20
77.645449
 30
0.0
 40
1.0
100
AcDbArc
 50
90.0
 51
175.808572
  0
LINE
  5
4D6
100
AcDbEntity
  8
0
370
    -3
390
0
  6
Continuous
100
AcDbLine
 10
-220.206299
 20
77.718538
 30
0.0
 11
-250.810483
 21
77.718538
 31
0.0
  0
LINE
  5
4D7
100
AcDbEntity
  8
0
370
    -3
390
0
  6
Continuous
100
AcDbLine
 10
-219.208973
 20
78.645449
 30
0.0
 11
-208.208973
 21
78.645449
 31
0.0
  0
ARC
  5
4D8
100
AcDbEntity
  8
0
370
    -3
390
0
  6
Continuous
100
AcDbCircle
 10
-208.208973
 20
81.645449
 30
0.0
 40
3.0
100
AcDbArc
 50
270.0
 51
0.0
  0
LINE
  5
4D9
100
AcDbEntity
  8
0
370
    -3
390
0
  6
Continuous
100
AcDbLine
 10
-205.208973
 20
312.118538
 30
0.0
 11
-205.208973
 21
81.645449
 31
0.0
  0
LINE
  5
4DA
100
AcDbEntity
  8
0
370
    -3
390
0
  6
Continuous
100
AcDbLine
 10
-205.208973
 20
312.118538
 30
0.0
 11
-250.810483
 21
312.118538
 31
0.0
  0
LINE
  5
4DB
100
AcDbEntity
  8
0
370
    -3
390
0
  6
Continuous
100
AcDbLine
 10
-0.208973
 20
294.918538
 30
0.0
 11
-205.208973
 21
294.918538
 31
0.0
  0
LINE
  5
4DC
100
AcDbEntity
  8
0
370
    -3
390
0
  6
Continuous
100
AcDbLine
 10
-0.208973
 20
282.026956
 30
0.0
 11
-205.208973
 21
282.026956
 31
0.0
  0
LINE
  5
4DD
100
AcDbEntity
  8
0
370
    -3
390
0
  6
Continuous
100
AcDbLine
 10
-0.208973
 20
272.834568
 30
0.0
 11
-205.208973
 21
272.834568
 31
0.0
  0
LINE
  5
4DE
100
AcDbEntity
  8
0
370
    -3
390
0
  6
Continuous
100
AcDbLine
 10
-0.208973
 20
256.389706
 30
0.0
 11
-205.208973
 21
256.389706
 31
0.0
  0
LINE
  5
4DF
100
AcDbEntity
  8
0
370
    -3
390
0
  6
Continuous
100
AcDbLine
 10
-0.208973
 20
253.435226
 30
0.0
 11
-205.208973
 21
253.435226
 31
0.0
  0
LINE
  5
4E0
100
AcDbEntity
  8
0
370
    -3
390
0
  6
Continuous
100
AcDbLine
 10
-0.208973
 20
244.40659
 30
0.0
 11
-205.208973
 21
244.40659
 31
0.0
  0
LINE
  5
4E1
100
AcDbEntity
  8
0
370
    -3
390
0
  6
Continuous
100
AcDbLine
 10
-0.208973
 20
241.491032
 30
0.0
 11
-205.208973
 21
241.491032
 31
0.0
  0
LINE
  5
4E2
100
AcDbEntity
  8
0
370
    -3
390
0
  6
Continuous
100
AcDbLine
 10
-0.208973
 20
232.329982
 30
0.0
 11
-205.208973
 21
232.329982
 31
0.0
  0
LINE
  5
4E3
100
AcDbEntity
  8
0
370
    -3
390
0
  6
Continuous
100
AcDbLine
 10
-0.208973
 20
229.541465
 30
0.0
 11
-205.208973
 21
229.541465
 31
0.0
  0
LINE
  5
4E4
100
AcDbEntity
  8
0
370
    -3
390
0
  6
Continuous
100
AcDbLine
 10
-0.208973
 20
220.2399
 30
0.0
 11
-205.208973
 21
220.2399
 31
0.0
  0
LINE
  5
4E5
100
AcDbEntity
  8
0
370
    -3
390
0
  6
Continuous
100
AcDbLine
 10
-0.208973
 20
217.609497
 30
0.0
 11
-205.208973
 21
217.609497
 31
0.0
  0
LINE
  5
4E6
100
AcDbEntity
  8
0
370
    -3
390
0
  6
Continuous
100
AcDbLine
 10
-0.208973
 20
210.708668
 30
0.0
 11
-205.208973
 21
210.708668
 31
0.0
  0
LINE
  5
4E7
100
AcDbEntity
  8
0
370
    -3
390
0
  6
Continuous
100
AcDbLine
 10
-0.208973
 20
207.918538
 30
0.0
 11
-205.208973
 21
207.918538
 31
0.0
  0
LINE
  5
4E8
100
AcDbEntity
  8
0
370
    -3
390
0
  6
Continuous
100
AcDbLine
 10
-0.208973
 20
200.168538
 30
0.0
 11
-205.208973
 21
200.168538
 31
0.0
  0
LINE
  5
4E9
100
AcDbEntity
  8
0
370
    -3
390
0
  6
Continuous
100
AcDbLine
 10
-205.208973
 20
300.418538
 30
0.0
 11
-0.208973
 21
300.418538
 31
0.0
  0
LINE
  5
4EA
100
AcDbEntity
  8
0
370
    -3
390
0
  6
Continuous
100
AcDbLine
 10
-205.208973
 20
300.918538
 30
0.0
 11
-0.208973
 21
300.918538
 31
0.0
  0
LINE
  5
4EB
100
AcDbEntity
  8
0
370
    -3
390
0
  6
Continuous
100
AcDbLine
 10
-0.208973
 20
94.918538
 30
0.0
 11
-205.208973
 21
94.918538
 31
0.0
  0
LINE
  5
4EC
100
AcDbEntity
  8
0
370
    -3
390
0
  6
Continuous
100
AcDbLine
 10
-0.208973
 20
107.810121
 30
0.0
 11
-205.208973
 21
107.810121
 31
0.0
  0
LINE
  5
4ED
100
AcDbEntity
  8
0
370
    -3
390
0
  6
Continuous
100
AcDbLine
 10
-0.208973
 20
117.002509
 30
0.0
 11
-205.208973
 21
117.002509
 31
0.0
  0
LINE
  5
4EE
100
AcDbEntity
  8
0
370
    -3
390
0
  6
Continuous
100
AcDbLine
 10
-0.208973
 20
133.44737
 30
0.0
 11
-205.208973
 21
133.44737
 31
0.0
  0
LINE
  5
4EF
100
AcDbEntity
  8
0
370
    -3
390
0
  6
Continuous
100
AcDbLine
 10
-0.208973
 20
136.401851
 30
0.0
 11
-205.208973
 21
136.401851
 31
0.0
  0
LINE
  5
4F0
100
AcDbEntity
  8
0
370
    -3
390
0
  6
Continuous
100
AcDbLine
 10
-0.208973
 20
145.430487
 30
0.0
 11
-205.208973
 21
145.430487
 31
0.0
  0
LINE
  5
4F1
100
AcDbEntity
  8
0
370
    -3
390
0
  6
Continuous
100
AcDbLine
 10
-0.208973
 20
148.346045
 30
0.0
 11
-205.208973
 21
148.346045
 31
0.0
  0
LINE
  5
4F2
100
AcDbEntity
  8
0
370
    -3
390
0
  6
Continuous
100
AcDbLine
 10
-0.208973
 20
157.507095
 30
0.0
 11
-205.208973
 21
157.507095
 31
0.0
  0
LINE
  5
4F3
100
AcDbEntity
  8
0
370
    -3
390
0
  6
Continuous
100
AcDbLine
 10
-0.208973
 20
160.295612
 30
0.0
 11
-205.208973
 21
160.295612
 31
0.0
  0
LINE
  5
4F4
100
AcDbEntity
  8
0
370
    -3
390
0
  6
Continuous
100
AcDbLine
 10
-0.208973
 20
169.597177
 30
0.0
 11
-205.208973
 21
169.597177
 31
0.0
  0
LINE
  5
4F5
100
AcDbEntity
  8
0
370
    -3
390
0
  6
Continuous
100
AcDbLine
 10
-0.208973
 20
172.22758
 30
0.0
 11
-205.208973
 21
172.22758
 31
0.0
  0
LINE
  5
4F6
100
AcDbEntity
  8
0
370
    -3
390
0
  6
Continuous
100
AcDbLine
 10
-0.208973
 20
179.128409
 30
0.0
 11
-205.208973
 21
179.128409
 31
0.0
  0
LINE
  5
4F7
100
AcDbEntity
  8
0
370
    -3
390
0
  6
Continuous
100
AcDbLine
 10
-0.208973
 20
181.918538
 30
0.0
 11
-205.208973
 21
181.918538
 31
0.0
  0
LINE
  5
4F8
100
AcDbEntity
  8
0
370
    -3
390
0
  6
Continuous
100
AcDbLine
 10
-0.208973
 20
189.668538
 30
0.0
 11
-205.208973
 21
189.668538
 31
0.0
  0
LINE
  5
4F9
100
AcDbEntity
  8
0
370
    -3
390
0
  6
Continuous
100
AcDbLine
 10
-221.208973
 20
72.918538
 30
0.0
 11
-221.208973
 21
74.518538
 31
0.0
  0
LINE
  5
4FA
100
AcDbEntity
  8
0
370
    -3
390
0
  6
Continuous
100
AcDbLine
 10
-159.208973
 20
72.918538
 30
0.0
 11
-159.208973
 21
74.518538
 31
0.0
  0
LINE
  5
4FB
100
AcDbEntity
  8
0
370
    -3
390
0
  6
Continuous
100
AcDbLine
 10
-221.208973
 20
72.918538
 30
0.0
 11
-221.208973
 21
71.918538
 31
0.0
  0
LINE
  5
4FC
100
AcDbEntity
  8
0
370
    -3
390
0
  6
Continuous
100
AcDbLine
 10
-159.208973
 20
72.918538
 30
0.0
 11
-159.208973
 21
71.918538
 31
0.0
  0
LINE
  5
4FD
100
AcDbEntity
  8
0
370
    -3
390
0
  6
Continuous
100
AcDbLine
 10
-224.008973
 20
71.918538
 30
0.0
 11
-156.408973
 21
71.918538
 31
0.0
  0
LINE
  5
4FE
100
AcDbEntity
  8
0
370
    -3
390
0
  6
Continuous
100
AcDbLine
 10
-236.658973
 20
59.613102
 30
0.0
 11
-236.658973
 21
32.744713
 31
0.0
  0
LINE
  5
4FF
100
AcDbEntity
  8
0
370
    -3
390
0
  6
Continuous
100
AcDbLine
 10
-187.151717
 20
21.744713
 30
0.0
 11
-154.758973
 21
21.744713
 31
0.0
  0
CIRCLE
  5
500
100
AcDbEntity
  8
0
370
    -3
390
0
  6
DASHED
100
AcDbCircle
 10
-190.208973
 20
47.918538
 30
0.0
 40
13.5
  0
LINE
  5
501
100
AcDbEntity
  8
0
370
    -3
390
0
  6
CENTER
100
AcDbLine
 10
-213.032605
 20
47.918538
 30
0.0
 11
-168.744887
 21
47.918538
 31
0.0
  0
ARC
  5
502
100
AcDbEntity
  8
0
370
    -3
390
0
  6
Continuous
100
AcDbCircle
 10
-224.008973
 20
66.918538
 30
0.0
 40
5.0
100
AcDbArc
 50
90.0
 51
135.074044
  0
ARC
  5
503
100
AcDbEntity
  8
0
370
    -3
390
0
  6
Continuous
100
AcDbCircle
 10
-156.408973
 20
66.918538
 30
0.0
 40
5.0
100
AcDbArc
 50
44.925956
 51
90.0
  0
ARC
  5
504
100
AcDbEntity
  8
0
370
    -3
390
0
  6
Continuous
100
AcDbCircle
 10
-225.658973
 20
59.613102
 30
0.0
 40
11.0
100
AcDbArc
 50
90.0
 51
180.0
  0
ARC
  5
505
100
AcDbEntity
  8
0
370
    -3
390
0
  6
Continuous
100
AcDbCircle
 10
-225.658973
 20
56.14163
 30
0.0
 40
11.0
100
AcDbArc
 50
90.0
 51
180.0
  0
ARC
  5
506
100
AcDbEntity
  8
0
370
    -3
390
0
  6
Continuous
100
AcDbCircle
 10
-154.758973
 20
59.613102
 30
0.0
 40
11.0
100
AcDbArc
 50
0.0
 51
90.0
  0
ARC
  5
507
100
AcDbEntity
  8
0
370
    -3
390
0
  6
Continuous
100
AcDbCircle
 10
-154.758973
 20
56.14163
 30
0.0
 40
11.0
100
AcDbArc
 50
0.0
 51
90.0
  0
ARC
  5
508
100
AcDbEntity
  8
0
370
    -3
390
0
  6
Continuous
100
AcDbCircle
 10
-224.458973
 20
29.718538
 30
0.0
 40
5.8
100
AcDbArc
 50
180.0
 51
270.0
  0
ARC
  5
509
100
AcDbEntity
  8
0
370
    -3
390
0
  6
Continuous
100
AcDbCircle
 10
-155.958973
 20
29.718538
 30
0.0
 40
5.8
100
AcDbArc
 50
270.0
 51
0.0
  0
LINE
  5
50A
100
AcDbEntity
  8
0
370
    -3
390
0
  6
Continuous
100
AcDbLine
 10
-224.458973
 20
23.918538
 30
0.0
 11
-155.958973
 21
23.918538
 31
0.0
  0
ARC
  5
50B
100
AcDbEntity
  8
0
370
    -3
390
0
  6
Continuous
100
AcDbCircle
 10
-225.658973
 20
32.744713
 30
0.0
 40
11.0
100
AcDbArc
 50
180.0
 51
270.0
  0
ARC
  5
50C
100
AcDbEntity
  8
0
370
    -3
390
0
  6
Continuous
100
AcDbCircle
 10
-154.758973
 20
32.744713
 30
0.0
 40
11.0
100
AcDbArc
 50
270.0
 51
0.0
  0
ARC
  5
50D
100
AcDbEntity
  8
0
370
    -3
390
0
  6
Continuous
100
AcDbCircle
 10
-225.258973
 20
59.294473
 30
0.0
 40
5.0
100
AcDbArc
 50
90.0
 51
180.0
  0
ARC
  5
50E
100
AcDbEntity
  8
0
370
    -3
390
0
  6
Continuous
100
AcDbCircle
 10
-155.158973
 20
59.294473
 30
0.0
 40
5.0
100
AcDbArc
 50
0.0
 51
90.0
  0
LINE
  5
50F
100
AcDbEntity
  8
0
370
    -3
390
0
  6
Continuous
100
AcDbLine
 10
-225.258973
 20
64.294473
 30
0.0
 11
-155.158973
 21
64.294473
 31
0.0
  0
LINE
  5
510
100
AcDbEntity
  8
0
370
    -3
390
0
  6
Continuous
100
AcDbLine
 10
-230.258973
 20
29.718538
 30
0.0
 11
-230.258973
 21
59.294473
 31
0.0
  0
LINE
  5
511
100
AcDbEntity
  8
0
370
    -3
390
0
  6
Continuous
100
AcDbLine
 10
-150.158973
 20
29.718538
 30
0.0
 11
-150.158973
 21
59.294473
 31
0.0
  0
LINE
  5
512
100
AcDbEntity
  8
0
370
    -3
390
0
  6
Continuous
100
AcDbLine
 10
-143.758973
 20
59.613102
 30
0.0
 11
-143.758973
 21
32.744713
 31
0.0
  0
LINE
  5
513
100
AcDbEntity
  8
0
370
    -3
390
0
  6
Continuous
100
AcDbLine
 10
-225.658973
 20
67.14163
 30
0.0
 11
-154.758973
 21
67.14163
 31
0.0
  0
LINE
  5
514
100
AcDbEntity
  8
0
370
    -3
390
0
  6
Continuous
100
AcDbLine
 10
-225.658973
 20
70.613102
 30
0.0
 11
-154.758973
 21
70.613102
 31
0.0
  0
LINE
  5
515
100
AcDbEntity
  8
0
370
    -3
390
0
  6
Continuous
100
AcDbLine
 10
-225.658973
 20
21.744713
 30
0.0
 11
-193.266229
 21
21.744713
 31
0.0
  0
LINE
  5
516
100
AcDbEntity
  8
0
370
    -3
390
0
  6
CENTER
100
AcDbLine
 10
-190.208973
 20
78.752252
 30
0.0
 11
-190.208973
 21
16.689838
 31
0.0
  0
ARC
  5
517
100
AcDbEntity
  8
0
370
    -3
390
0
  6
Continuous
100
AcDbCircle
 10
-163.608973
 20
76.518538
 30
0.0
 40
2.0
100
AcDbArc
 50
180.0
 51
270.0
  0
ARC
  5
518
100
AcDbEntity
  8
0
370
    -3
390
0
  6
Continuous
100
AcDbCircle
 10
-216.808973
 20
76.518538
 30
0.0
 40
2.0
100
AcDbArc
 50
270.0
 51
0.0
  0
LINE
  5
519
100
AcDbEntity
  8
0
370
    -3
390
0
  6
Continuous
100
AcDbLine
 10
-159.208973
 20
74.518538
 30
0.0
 11
-221.208973
 21
74.518538
 31
0.0
  0
LINE
  5
51A
100
AcDbEntity
  8
0
370
    -3
390
0
  6
Continuous
100
AcDbLine
 10
-166.208973
 20
88.918538
 30
0.0
 11
-166.208973
 21
87.918538
 31
0.0
  0
LINE
  5
51B
100
AcDbEntity
  8
0
370
    -3
390
0
  6
Continuous
100
AcDbLine
 10
-165.608973
 20
76.518538
 30
0.0
 11
-165.608973
 21
84.718538
 31
0.0
  0
ARC
  5
51C
100
AcDbEntity
  8
0
370
    -3
390
0
  6
Continuous
100
AcDbCircle
 10
-168.808973
 20
84.718538
 30
0.0
 40
3.2
100
AcDbArc
 50
0.0
 51
90.0
  0
LINE
  5
51D
100
AcDbEntity
  8
0
370
    -3
390
0
  6
Continuous
100
AcDbLine
 10
-190.208973
 20
87.918538
 30
0.0
 11
-166.208973
 21
87.918538
 31
0.0
  0
LINE
  5
51E
100
AcDbEntity
  8
0
370
    -3
390
0
  6
Continuous
100
AcDbLine
 10
-190.208973
 20
87.918538
 30
0.0
 11
-205.208973
 21
87.918538
 31
0.0
  0
LINE
  5
51F
100
AcDbEntity
  8
0
370
    -3
390
0
  6
Continuous
100
AcDbLine
 10
-205.208973
 20
89.418538
 30
0.0
 11
-0.208973
 21
89.418538
 31
0.0
  0
LINE
  5
520
100
AcDbEntity
  8
0
370
    -3
390
0
  6
Continuous
100
AcDbLine
 10
-205.208973
 20
88.918538
 30
0.0
 11
-0.208973
 21
88.918538
 31
0.0
  0
LINE
  5
521
100
AcDbEntity
  8
0
370
    -3
390
0
  6
Continuous
100
AcDbLine
 10
-300.208973
 20
100.350669
 30
0.0
 11
-300.208973
 21
289.486408
 31
0.0
  0
LINE
  5
522
100
AcDbEntity
  8
0
370
    -3
390
0
  6
Continuous
100
AcDbLine
 10
-297.108973
 20
294.855765
 30
0.0
 11
-281.410483
 21
303.919293
 31
0.0
  0
ARC
  5
523
100
AcDbEntity
  8
0
370
    -3
390
0
  6
Continuous
100
AcDbCircle
 10
-294.008973
 20
289.486408
 30
0.0
 40
6.2
100
AcDbArc
 50
120.0
 51
180.0
  0
ARC
  5
524
100
AcDbEntity
  8
0
370
    -3
390
0
  6
Continuous
100
AcDbCircle
 10
-250.810483
 20
250.918538
 30
0.0
 40
61.2
100
AcDbArc
 50
90.0
 51
120.0
  0
LINE
  5
525
100
AcDbEntity
  8
0
370
    -3
390
0
  6
Continuous
100
AcDbLine
 10
-251.208973
 20
107.354156
 30
0.0
 11
-251.208973
 21
106.068059
 31
0.0
  0
LINE
  5
526
100
AcDbEntity
  8
0
370
    -3
390
0
  6
Continuous
100
AcDbLine
 10
-239.208973
 20
107.354156
 30
0.0
 11
-239.208973
 21
106.068059
 31
0.0
  0
ELLIPSE
  5
527
100
AcDbEntity
  8
0
370
    -3
390
0
  6
Continuous
100
AcDbEllipse
 10
-245.208973
 20
106.068059
 30
0.0
 11
6.0
 21
0.0
 31
0.0
210
0.0
220
0.0
230
1.0
 40
0.689848
 41
3.1415926535897931
 42
3.9729303421147075
  0
ELLIPSE
  5
528
100
AcDbEntity
  8
0
370
    -3
390
0
  6
Continuous
100
AcDbEllipse
 10
-245.208973
 20
107.354156
 30
0.0
 11
6.0
 21
0.0
 31
0.0
210
0.0
220
0.0
230
1.0
 40
0.707107
 41
0.0
 42
3.1415926535897931
  0
LINE
  5
529
100
AcDbEntity
  8
0
370
    -3
390
0
  6
Continuous
100
AcDbLine
 10
-250.208973
 20
105.681663
 30
0.0
 11
-250.208973
 21
105.39882
 31
0.0
  0
LINE
  5
52A
100
AcDbEntity
  8
0
370
    -3
390
0
  6
Continuous
100
AcDbLine
 10
-240.208973
 20
105.681663
 30
0.0
 11
-240.208973
 21
105.39882
 31
0.0
  0
ELLIPSE
  5
52B
100
AcDbEntity
  8
0
370
    -3
390
0
  6
Continuous
100
AcDbEllipse
 10
-245.208973
 20
105.39882
 30
0.0
 11
5.0
 21
0.0
 31
0.0
210
0.0
220
0.0
230
1.0
 40
0.707107
 41
5.7540333991808064
 42
3.6707445615885725
  0
ELLIPSE
  5
52C
100
AcDbEntity
  8
0
370
    -3
390
0
  6
Continuous
100
AcDbEllipse
 10
-245.208973
 20
105.681663
 30
0.0
 11
5.0
 21
0.0
 31
0.0
210
0.0
220
0.0
230
1.0
 40
0.763675
 41
0.0
 42
3.1415926535897931
  0
ELLIPSE
  5
52D
100
AcDbEntity
  8
0
370
    -3
390
0
  6
Continuous
100
AcDbEllipse
 10
-245.208973
 20
104.709308
 30
0.0
 11
4.5
 21
0.0
 31
0.0
210
0.0
220
0.0
230
1.0
 40
0.860332
 41
0.0
 42
6.2831853071795862
  0
ELLIPSE
  5
52E
100
AcDbEntity
  8
0
370
    -3
390
0
  6
Continuous
100
AcDbEllipse
 10
-245.208973
 20
106.068059
 30
0.0
 11
6.0
 21
0.0
 31
0.0
210
0.0
220
0.0
230
1.0
 40
0.689848
 41
5.4518476186546714
 42
0.0
  0
ELLIPSE
  5
52F
100
AcDbEntity
  8
0
370
    -3
390
0
  6
Continuous
100
AcDbEllipse
 10
-245.208973
 20
106.068059
 30
0.0
 11
6.0
 21
0.0
 31
0.0
210
0.0
220
0.0
230
1.0
 40
0.689848
 41
0.0
 42
3.1415926535897931
  0
LINE
  5
530
100
AcDbEntity
  8
0
370
    -3
390
0
  6
Continuous
100
AcDbLine
 10
-245.208973
 20
103.065367
 30
0.0
 11
-247.208973
 21
101.769834
 31
0.0
  0
LINE
  5
531
100
AcDbEntity
  8
0
370
    -3
390
0
  6
Continuous
100
AcDbLine
 10
-245.208973
 20
103.065367
 30
0.0
 11
-247.208973
 21
104.598261
 31
0.0
  0
LINE
  5
532
100
AcDbEntity
  8
0
370
    -3
390
0
  6
Continuous
100
AcDbLine
 10
-245.208973
 20
103.065367
 30
0.0
 11
-243.208973
 21
104.598261
 31
0.0
  0
LINE
  5
533
100
AcDbEntity
  8
0
370
    -3
390
0
  6
Continuous
100
AcDbLine
 10
-245.208973
 20
103.065367
 30
0.0
 11
-243.208973
 21
101.769834
 31
0.0
  0
LINE
  5
534
100
AcDbEntity
  8
0
370
    -3
390
0
  6
Continuous
100
AcDbLine
 10
-297.108973
 20
94.981312
 30
0.0
 11
-281.410483
 21
85.917784
 31
0.0
  0
LINE
  5
535
100
AcDbEntity
  8
0
370
    -3
390
0
  6
Continuous
100
AcDbLine
 10
-251.208973
 20
282.482921
 30
0.0
 11
-251.208973
 21
283.769018
 31
0.0
  0
LINE
  5
536
100
AcDbEntity
  8
0
370
    -3
390
0
  6
Continuous
100
AcDbLine
 10
-239.208973
 20
282.482921
 30
0.0
 11
-239.208973
 21
283.769018
 31
0.0
  0
ELLIPSE
  5
537
100
AcDbEntity
  8
0
370
    -3
390
0
  6
Continuous
100
AcDbEllipse
 10
-245.208973
 20
283.769018
 30
0.0
 11
6.0
 21
0.0
 31
0.0
210
0.0
220
0.0
230
1.0
 40
0.689848
 41
2.3102549650648752
 42
3.1415926535897931
  0
ELLIPSE
  5
538
100
AcDbEntity
  8
0
370
    -3
390
0
  6
Continuous
100
AcDbEllipse
 10
-245.208973
 20
282.482921
 30
0.0
 11
6.0
 21
0.0
 31
0.0
210
0.0
220
0.0
230
1.0
 40
0.707107
 41
3.1415926535897931
 42
0.0
  0
LINE
  5
539
100
AcDbEntity
  8
0
370
    -3
390
0
  6
Continuous
100
AcDbLine
 10
-250.208973
 20
284.155414
 30
0.0
 11
-250.208973
 21
284.438257
 31
0.0
  0
LINE
  5
53A
100
AcDbEntity
  8
0
370
    -3
390
0
  6
Continuous
100
AcDbLine
 10
-240.208973
 20
284.155414
 30
0.0
 11
-240.208973
 21
284.438257
 31
0.0
  0
ELLIPSE
  5
53B
100
AcDbEntity
  8
0
370
    -3
390
0
  6
Continuous
100
AcDbEllipse
 10
-245.208973
 20
284.438257
 30
0.0
 11
5.0
 21
0.0
 31
0.0
210
0.0
220
0.0
230
1.0
 40
0.707107
 41
2.6124407455910101
 42
0.5291519079987834
  0
ELLIPSE
  5
53C
100
AcDbEntity
  8
0
370
    -3
390
0
  6
Continuous
100
AcDbEllipse
 10
-245.208973
 20
284.155414
 30
0.0
 11
5.0
 21
0.0
 31
0.0
210
0.0
220
0.0
230
1.0
 40
0.763675
 41
3.1415926535897931
 42
0.0
  0
ELLIPSE
  5
53D
100
AcDbEntity
  8
0
370
    -3
390
0
  6
Continuous
100
AcDbEllipse
 10
-245.208973
 20
285.127769
 30
0.0
 11
4.5
 21
0.0
 31
0.0
210
0.0
220
0.0
230
1.0
 40
0.860332
 41
0.0
 42
6.2831853071795862
  0
ELLIPSE
  5
53E
100
AcDbEntity
  8
0
370
    -3
390
0
  6
Continuous
100
AcDbEllipse
 10
-245.208973
 20
283.769018
 30
0.0
 11
6.0
 21
0.0
 31
0.0
210
0.0
220
0.0
230
1.0
 40
0.689848
 41
0.0
 42
0.8313376885249183
  0
ELLIPSE
  5
53F
100
AcDbEntity
  8
0
370
    -3
390
0
  6
Continuous
100
AcDbEllipse
 10
-245.208973
 20
283.769018
 30
0.0
 11
6.0
 21
0.0
 31
0.0
210
0.0
220
0.0
230
1.0
 40
0.689848
 41
3.1415926535897931
 42
0.0
  0
LINE
  5
540
100
AcDbEntity
  8
0
370
    -3
390
0
  6
Continuous
100
AcDbLine
 10
-245.208973
 20
286.77171
 30
0.0
 11
-247.208973
 21
288.067243
 31
0.0
  0
LINE
  5
541
100
AcDbEntity
  8
0
370
    -3
390
0
  6
Continuous
100
AcDbLine
 10
-245.208973
 20
286.77171
 30
0.0
 11
-247.208973
 21
285.238816
 31
0.0
  0
LINE
  5
542
100
AcDbEntity
  8
0
370
    -3
390
0
  6
Continuous
100
AcDbLine
 10
-245.208973
 20
286.77171
 30
0.0
 11
-243.208973
 21
285.238816
 31
0.0
  0
LINE
  5
543
100
AcDbEntity
  8
0
370
    -3
390
0
  6
Continuous
100
AcDbLine
 10
-245.208973
 20
286.77171
 30
0.0
 11
-243.208973
 21
288.067243
 31
0.0
  0
ARC
  5
544
100
AcDbEntity
  8
0
370
    -3
390
0
  6
Continuous
100
AcDbCircle
 10
-294.008973
 20
100.350669
 30
0.0
 40
6.2
100
AcDbArc
 50
180.0
 51
240.0
  0
ARC
  5
545
100
AcDbEntity
  8
0
370
    -3
390
0
  6
Continuous
100
AcDbCircle
 10
-250.810483
 20
138.918538
 30
0.0
 40
61.2
100
AcDbArc
 50
240.0
 51
270.0
  0
MTEXT
  5
547
100
AcDbEntity
  8
0
370
    -3
390
0
  6
Continuous
100
AcDbMText
 10
-610.734863
 20
180.746094
 30
0.0
 40
16.0
 41
0.0
 71
     7
 72
     1
  1
\W0.83;三菱ギヤードモータ  
  7
ZU_SHPTB00001
 11
1.0
 21
0.0
 31
0.0
 73
     1
 44
1.0
  0
MTEXT
  5
548
100
AcDbEntity
  8
0
370
    -3
390
0
  6
Continuous
100
AcDbMText
 10
-610.734863
 20
159.546097
 30
0.0
 40
16.0
 41
0.0
 71
     7
 72
     1
  1
\W0.60;GM-DPF
  7
ZU_SHPTB00001
 11
1.0
 21
0.0
 31
0.0
 73
     1
 44
1.0
  0
MTEXT
  5
549
100
AcDbEntity
  8
0
370
    -3
390
0
  6
Continuous
100
AcDbMText
 10
-610.734863
 20
138.346085
 30
0.0
 40
16.0
 41
0.0
 71
     7
 72
     1
  1
\W0.60;3.7(kW)
  7
ZU_SHPTB00001
 11
1.0
 21
0.0
 31
0.0
 73
     1
 44
1.0
  0
MTEXT
  5
54A
100
AcDbEntity
  8
0
370
    -3
390
0
  6
Continuous
100
AcDbMText
 10
-610.734863
 20
117.146088
 30
0.0
 40
16.0
 41
0.0
 71
     7
 72
     1
  1
\W0.60;1/3\W0.83;～\W0.60;1/30
  7
ZU_SHPTB00001
 11
1.0
 21
0.0
 31
0.0
 73
     1
 44
1.0
  0
MTEXT
  5
54B
100
AcDbEntity
  8
0
370
    -3
390
0
  6
Continuous
100
AcDbMText
 10
-610.734863
 20
95.946091
 30
0.0
 40
16.0
 41
0.0
 71
     7
 72
     1
  1
\W0.60;SCALE\W1.00; \W0.60;1/1
  7
ZU_SHPTB00001
 11
1.0
 21
0.0
 31
0.0
 73
     1
 44
1.0
  0
ENDSEC
  0
SECTION
  2
OBJECTS
  0
DICTIONARY
  5
19
100
AcDbDictionary
280
     0
281
     1
  3
ACAD_GROUP
350
1A
  3
ACAD_MLINESTYLE
350
1B
  3
ACAD_LAYOUT
350
1E
  3
ACAD_PLOTSETTINGS
350
22
  3
ACAD_PLOTSTYLENAME
350
1F
  3
ACAD_WIPEOUT_VARS
350
23
  3
DWGPROPS
350
54C
  0
DICTIONARY
  5
1A
102
{ACAD_REACTORS
330
19
102
}
100
AcDbDictionary
280
     0
281
     1
  0
DICTIONARY
  5
1B
102
{ACAD_REACTORS
330
19
102
}
100
AcDbDictionary
280
     0
281
     1
  3
Standard
350
1C
  0
MLINESTYLE
  5
1C
102
{ACAD_REACTORS
330
1B
102
}
100
AcDbMlineStyle
  2
Standard
 70
     0
  3

 62
     0
 51
90.0
 52
90.0
 71
     2
 49
0.5
 62
   256
  6
ByLayer
 49
-0.5
 62
   256
  6
ByLayer
  0
ACDBDICTIONARYWDFLT
  5
1F
102
{ACAD_REACTORS
330
19
102
}
100
AcDbDictionary
281
     1
  3
Normal
350
1D
100
AcDbDictionaryWithDefault
340
1D
  0
ACDBPLACEHOLDER
  5
1D
102
{ACAD_REACTORS
330
1F
102
}
  0
LAYOUT
  5
20
102
{ACAD_REACTORS
330
1E
102
}
100
AcDbPlotSettings
  1

  2

  4

  6

 40
0.0
 41
0.0
 42
0.0
 43
0.0
 44
0.0
 45
0.0
 46
0.0
 47
0.0
 48
0.0
 49
0.0
140
0.0
141
0.0
142
1.0
143
1.0
 70
  1024
 72
     0
 73
     0
 74
     0
  7

 75
     0
147
1.0
148
0.0
149
0.0
100
AcDbLayout
  1
Model
 70
     0
 71
     0
 10
0.0
 20
0.0
 11
0.0
 21
0.0
 12
0.0
 22
0.0
 32
0.0
 14
0.0
 24
0.0
 34
0.0
 15
0.0
 25
0.0
 35
0.0
146
0.0
 13
0.0
 23
0.0
 33
0.0
 16
0.0
 26
0.0
 36
0.0
 17
0.0
 27
0.0
 37
0.0
 76
     0
330
A
331
0
345
0
346
0
  0
LAYOUT
  5
21
102
{ACAD_REACTORS
330
1E
102
}
100
AcDbPlotSettings
  1

  2

  4

  6

 40
0.0
 41
0.0
 42
0.0
 43
0.0
 44
0.0
 45
0.0
 46
0.0
 47
0.0
 48
0.0
 49
0.0
140
0.0
141
0.0
142
1.0
143
1.0
 70
     0
 72
     0
 73
     0
 74
     0
  7

 75
     0
147
1.0
148
0.0
149
0.0
100
AcDbLayout
  1
Layout1
 70
     0
 71
     0
 10
0.0
 20
0.0
 11
0.0
 21
0.0
 12
0.0
 22
0.0
 32
0.0
 14
0.0
 24
0.0
 34
0.0
 15
0.0
 25
0.0
 35
0.0
146
0.0
 13
0.0
 23
0.0
 33
0.0
 16
0.0
 26
0.0
 36
0.0
 17
0.0
 27
0.0
 37
0.0
 76
     0
330
B
331
0
345
0
346
0
  0
DICTIONARY
  5
1E
102
{ACAD_REACTORS
330
19
102
}
100
AcDbDictionary
280
     0
281
     1
  3
Layout1
350
21
  3
Model
350
20
  0
DICTIONARY
  5
22
102
{ACAD_REACTORS
330
19
102
}
100
AcDbDictionary
280
     0
281
     1
  0
WIPEOUTVARIABLES
  5
23
100
AcDbWipeoutVariables
 70
     1
  0
XRECORD
  5
54C
100
AcDbXrecord
280
     1
  1
DWGPROPS COOKIE
  2

  3

  4

  6

  7

  8
YP81315
  9

300
=
301
=
302
=
303
=
304
=
305
=
306
=
307
=
308
=
309
=
 40
0.0
 41
2456812.582269
 42
2456812.582269
  1

 90
        0
  0
ENDSEC
  0
EOF
