  0
SECTION
  2
HEADER
  9
$ACADVER
  1
AC1015
  9
$ACADMAINTVER
 70
     6
  9
$DWGCODEPAGE
  3
ANSI_932
  9
$INSBASE
 10
0.0
 20
0.0
 30
0.0
  9
$EXTMIN
 10
1.000000E+20
 20
1.000000E+20
 30
1.000000E+20
  9
$EXTMAX
 10
-1.000000E+20
 20
-1.000000E+20
 30
-1.000000E+20
  9
$LIMMIN
 10
0.0
 20
0.0
  9
$LIMMAX
 10
0.0
 20
0.0
  9
$ORTHOMODE
 70
     0
  9
$REGENMODE
 70
     1
  9
$FILLMODE
 70
     1
  9
$QTEXTMODE
 70
     0
  9
$MIRRTEXT
 70
     1
  9
$LTSCALE
 40
1.0
  9
$ATTMODE
 70
     1
  9
$TEXTSIZE
 40
3.3
  9
$TRACEWID
 40
0.05
  9
$TEXTSTYLE
  7
Standard
  9
$CLAYER
  8
0
  9
$CELTYPE
  6
Continuous
  9
$CECOLOR
 62
   256
  9
$CELTSCALE
 40
1.0
  9
$DISPSILH
 70
     0
  9
$DIMSCALE
 40
1.0
  9
$DIMASZ
 40
1.931852
  9
$DIMEXO
 40
1.0
  9
$DIMDLI
 40
0.38
  9
$DIMRND
 40
0.0
  9
$DIMDLE
 40
0.0
  9
$DIMEXE
 40
2.0
  9
$DIMTP
 40
0.0
  9
$DIMTM
 40
0.0
  9
$DIMTXT
 40
10.0
  9
$DIMCEN
 40
0.09
  9
$DIMTSZ
 40
0.0
  9
$DIMTOL
 70
     0
  9
$DIMLIM
 70
     0
  9
$DIMTIH
 70
     1
  9
$DIMTOH
 70
     1
  9
$DIMSE1
 70
     0
  9
$DIMSE2
 70
     0
  9
$DIMTAD
 70
     1
  9
$DIMZIN
 70
     0
  9
$DIMBLK
  1

  9
$DIMASO
 70
     1
  9
$DIMSHO
 70
     1
  9
$DIMPOST
  1

  9
$DIMAPOST
  1

  9
$DIMALT
 70
     0
  9
$DIMALTD
 70
     2
  9
$DIMALTF
 40
25.4
  9
$DIMLFAC
 40
1.0
  9
$DIMTOFL
 70
     0
  9
$DIMTVP
 40
0.0
  9
$DIMTIX
 70
     0
  9
$DIMSOXD
 70
     0
  9
$DIMSAH
 70
     0
  9
$DIMBLK1
  1

  9
$DIMBLK2
  1

  9
$DIMSTYLE
  2
Standard
  9
$DIMCLRD
 70
     0
  9
$DIMCLRE
 70
     0
  9
$DIMCLRT
 70
     0
  9
$DIMTFAC
 40
0.714286
  9
$DIMGAP
 40
0.09
  9
$DIMJUST
 70
     0
  9
$DIMSD1
 70
     0
  9
$DIMSD2
 70
     0
  9
$DIMTOLJ
 70
     1
  9
$DIMTZIN
 70
     0
  9
$DIMALTZ
 70
     0
  9
$DIMALTTZ
 70
     0
  9
$DIMUPT
 70
     0
  9
$DIMDEC
 70
     4
  9
$DIMTDEC
 70
     4
  9
$DIMALTU
 70
     2
  9
$DIMALTTD
 70
     2
  9
$DIMTXSTY
  7
Standard
  9
$DIMAUNIT
 70
     0
  9
$DIMADEC
 70
     0
  9
$DIMALTRND
 40
0.0
  9
$DIMAZIN
 70
     0
  9
$DIMDSEP
 70
     0
  9
$DIMATFIT
 70
     3
  9
$DIMFRAC
 70
     0
  9
$DIMLDRBLK
  1

  9
$DIMLUNIT
 70
     2
  9
$DIMLWD
 70
     0
  9
$DIMLWE
 70
     0
  9
$DIMTMOVE
 70
     0
  9
$LUNITS
 70
     2
  9
$LUPREC
 70
     3
  9
$SKETCHINC
 40
0.1
  9
$FILLETRAD
 40
0.0
  9
$AUNITS
 70
     0
  9
$AUPREC
 70
     0
  9
$MENU
  1
acad
  9
$ELEVATION
 40
0.0
  9
$PELEVATION
 40
0.0
  9
$THICKNESS
 40
0.0
  9
$LIMCHECK
 70
     0
  9
$CHAMFERA
 40
0.0
  9
$CHAMFERB
 40
0.0
  9
$CHAMFERC
 40
0.0
  9
$CHAMFERD
 40
0.0
  9
$SKPOLY
 70
     0
  9
$TDCREATE
 40
0.000000000
  9
$TDUCREATE
 40
0.000000000
  9
$TDUPDATE
 40
0.000000000
  9
$TDUUPDATE
 40
0.000000000
  9
$TDINDWG
 40
0.0000000000
  9
$TDUSRTIMER
 40
0.0000000000
  9
$USRTIMER
 70
     1
  9
$ANGBASE
 50
0.0
  9
$ANGDIR
 70
     0
  9
$PDMODE
 70
     0
  9
$PDSIZE
 40
0.0
  9
$PLINEWID
 40
0.0
  9
$SPLFRAME
 70
     0
  9
$SPLINETYPE
 70
     6
  9
$SPLINESEGS
 70
     8
  9
$HANDSEED
  5
5E3
  9
$SURFTAB1
 70
     6
  9
$SURFTAB2
 70
     6
  9
$SURFTYPE
 70
     6
  9
$SURFU
 70
     6
  9
$SURFV
 70
     6
  9
$UCSBASE
  2

  9
$UCSNAME
  2

  9
$UCSORG
 10
0.0
 20
0.0
 30
0.0
  9
$UCSXDIR
 10
1.0
 20
0.0
 30
0.0
  9
$UCSYDIR
 10
0.0
 20
1.0
 30
0.0
  9
$UCSORTHOREF
  2

  9
$UCSORTHOVIEW
 70
     0
  9
$UCSORGTOP
 10
0.0
 20
0.0
 30
0.0
  9
$UCSORGBOTTOM
 10
0.0
 20
0.0
 30
0.0
  9
$UCSORGLEFT
 10
0.0
 20
0.0
 30
0.0
  9
$UCSORGRIGHT
 10
0.0
 20
0.0
 30
0.0
  9
$UCSORGFRONT
 10
0.0
 20
0.0
 30
0.0
  9
$UCSORGBACK
 10
0.0
 20
0.0
 30
0.0
  9
$PUCSBASE
  2

  9
$PUCSNAME
  2

  9
$PUCSORG
 10
0.0
 20
0.0
 30
0.0
  9
$PUCSXDIR
 10
1.0
 20
0.0
 30
0.0
  9
$PUCSYDIR
 10
0.0
 20
1.0
 30
0.0
  9
$PUCSORTHOREF
  2

  9
$PUCSORTHOVIEW
 70
     0
  9
$PUCSORGTOP
 10
0.0
 20
0.0
 30
0.0
  9
$PUCSORGBOTTOM
 10
0.0
 20
0.0
 30
0.0
  9
$PUCSORGLEFT
 10
0.0
 20
0.0
 30
0.0
  9
$PUCSORGRIGHT
 10
0.0
 20
0.0
 30
0.0
  9
$PUCSORGFRONT
 10
0.0
 20
0.0
 30
0.0
  9
$PUCSORGBACK
 10
0.0
 20
0.0
 30
0.0
  9
$USERI1
 70
     0
  9
$USERI2
 70
     0
  9
$USERI3
 70
     0
  9
$USERI4
 70
     0
  9
$USERI5
 70
     0
  9
$USERR1
 40
0.0
  9
$USERR2
 40
0.0
  9
$USERR3
 40
0.0
  9
$USERR4
 40
0.0
  9
$USERR5
 40
0.0
  9
$WORLDVIEW
 70
     1
  9
$SHADEDGE
 70
     3
  9
$SHADEDIF
 70
    70
  9
$TILEMODE
 70
     1
  9
$MAXACTVP
 70
    16
  9
$PINSBASE
 10
0.0
 20
0.0
 30
0.0
  9
$PLIMCHECK
 70
     0
  9
$PEXTMIN
 10
1.000000E+20
 20
1.000000E+20
 30
1.000000E+20
  9
$PEXTMAX
 10
-1.000000E+20
 20
-1.000000E+20
 30
-1.000000E+20
  9
$PLIMMIN
 10
0.0
 20
0.0
  9
$PLIMMAX
 10
12.0
 20
9.0
  9
$UNITMODE
 70
     0
  9
$VISRETAIN
 70
     0
  9
$PLINEGEN
 70
     1
  9
$PSLTSCALE
 70
     0
  9
$TREEDEPTH
 70
  3020
  9
$CMLSTYLE
  2
Standard
  9
$CMLJUST
 70
     0
  9
$CMLSCALE
 40
1.0
  9
$PROXYGRAPHICS
 70
     0
  9
$MEASUREMENT
 70
     0
  9
$CELWEIGHT
370
     0
  9
$ENDCAPS
280
     0
  9
$JOINSTYLE
280
     0
  9
$LWDISPLAY
290
     0
  9
$INSUNITS
 70
     0
  9
$HYPERLINKBASE
  1

  9
$STYLESHEET
  1

  9
$XEDIT
290
     1
  9
$CEPSNTYPE
380
     0
  9
$PSTYLEMODE
290
     1
  9
$FINGERPRINTGUID
  2

  9
$VERSIONGUID
  2

  9
$EXTNAMES
290
     1
  9
$PSVPSCALE
 40
0.0
  0
ENDSEC
  0
SECTION
  2
CLASSES
  0
CLASS
  1
LWPOLYLINE
  2
AcDbPolyline
  3
AutoCAD 2000
 90
        0
280
     0
281
     1
  0
CLASS
  1
IMAGE
  2
AcDbRasterImage
  3
ISM
 90
      127
280
     0
281
     1
  0
CLASS
  1
OLE2FRAME
  2
AcDbOle2Frame
  3
AutoCAD 2000
 90
        0
280
     0
281
     1
  0
CLASS
  1
HATCH
  2
AcDbHatch
  3
AutoCAD 2000
 90
        0
280
     0
281
     1
  0
CLASS
  1
DICTIONARYVAR
  2
AcDbDictionaryVar
  3
AutoCAD 2000
 90
        0
280
     0
281
     0
  0
CLASS
  1
RASTERVARIABLES
  2
AcDbRasterVariables
  3
ISM
 90
        0
280
     0
281
     0
  0
CLASS
  1
IMAGEDEF
  2
AcDbRasterImageDef
  3
ISM
 90
        0
280
     0
281
     0
  0
CLASS
  1
IMAGEDEF_REACTOR
  2
AcDbRasterImageDefReactor
  3
ISM
 90
        1
280
     0
281
     0
  0
CLASS
  1
IDBUFFER
  2
AcDbIdBuffer
  3
AutoCAD 2000
 90
        0
280
     0
281
     0
  0
CLASS
  1
SPATIAL_FILTER
  2
AcDbSpatialFilter
  3
AutoCAD 2000
 90
        0
280
     0
281
     0
  0
CLASS
  1
XRECORD
  2
AcDbXrecord
  3
AutoCAD 2000
 90
        0
280
     0
281
     0
  0
CLASS
  1
SORTENTSTABLE
  2
AcDbSortentsTable
  3
AutoCAD 2000
 90
        0
280
     0
281
     0
  0
CLASS
  1
LAYER_INDEX
  2
AcDbLayerIndex
  3
AutoCAD 2000
 90
        0
280
     0
281
     0
  0
CLASS
  1
SPATIAL_INDEX
  2
AcDbSpatialIndex
  3
AutoCAD 2000
 90
        0
280
     0
281
     0
  0
CLASS
  1
OBJECT_PTR
  2
CAseDLPNTableRecord
  3
"ASE-LPNTableRecord"
 90
        1
280
     0
281
     0
  0
CLASS
  1
LAYOUT
  2
AcDbLayout
  3
AutoCAD 2000
 90
        0
280
     0
281
     0
  0
CLASS
  1
PLOTSETTINGS
  2
AcDbPlotSettings
  3
AutoCAD 2000
 90
        0
280
     0
281
     0
  0
CLASS
  1
ACDBDICTIONARYWDFLT
  2
AcDbDictionaryWithDefault
  3
AutoCAD 2000
 90
        0
280
     0
281
     0
  0
CLASS
  1
ACDBPLACEHOLDER
  2
AcDbPlaceHolder
  3
AutoCAD 2000
 90
        0
280
     0
281
     0
  0
CLASS
  1
VBA_PROJECT
  2
AcDbVbaProject
  3
acadvba
 90
        0
280
     0
281
     0
  0
CLASS
  1
WIPEOUT
  2
AcDbWipeout
  3
WipeOut|AutoCAD Express Tool|expresstools@autodesk.com
 90
      127
280
     0
281
     1
  0
CLASS
  1
WIPEOUTVARIABLES
  2
AcDbWipeoutVariables
  3
WipeOut|AutoCAD Express Tool|expresstools@autodesk.com
 90
        0
280
     0
281
     0
  0
CLASS
  1
RTEXT
  2
RText
  3
RText|AutoCAD Express Tool|expresstools@autodesk.com
 90
        0
280
     0
281
     1
  0
CLASS
  1
ARCALIGNEDTEXT
  2
AcDbArcAlignedText
  3
ATEXT|AutoCAD Express Tool|expresstools@autodesk.com
 90
        0
280
     0
281
     1
  0
ENDSEC
  0
SECTION
  2
TABLES
  0
TABLE
  2
VPORT
  5
7
100
AcDbSymbolTable
 70
     1
  0
VPORT
  5
15
100
AcDbSymbolTableRecord
100
AcDbViewportTableRecord
  2
*ACTIVE
 70
     0
 10
0.0
 20
0.0
 11
1.0
 21
1.0
 12
0.0
 22
0.0
 13
0.0
 23
0.0
 14
1.0
 24
1.0
 15
0.0
 25
0.0
 16
0.0
 26
0.0
 36
1.0
 17
0.0
 27
0.0
 37
0.0
 40
100.0
 41
1.0
 42
50.0
 43
0.0
 44
0.0
 50
0.0
 51
0.0
 71
     0
 72
   100
 73
     1
 74
     1
 75
     0
 76
     0
 77
     0
 78
     0
281
     0
 65
     0
110
0.0
120
0.0
130
0.0
111
1.0
121
0.0
131
0.0
112
0.0
122
1.0
132
0.0
345
0
346
0
 79
     0
146
0.0
  0
ENDTAB
  0
TABLE
  2
LTYPE
  5
4
100
AcDbSymbolTable
 70
     7
  0
LTYPE
  5
11
100
AcDbSymbolTableRecord
100
AcDbLinetypeTableRecord
  2
ByBlock
 70
    64
  3

 72
    65
 73
     0
 40
0.0
  0
LTYPE
  5
12
100
AcDbSymbolTableRecord
100
AcDbLinetypeTableRecord
  2
ByLayer
 70
    64
  3

 72
    65
 73
     0
 40
0.0
  0
LTYPE
  5
13
100
AcDbSymbolTableRecord
100
AcDbLinetypeTableRecord
  2
Continuous
 70
    64
  3
Solid line
 72
    65
 73
     0
 40
0.0
  0
LTYPE
  5
24
100
AcDbSymbolTableRecord
100
AcDbLinetypeTableRecord
  2
DASHED
 70
    64
  3
Dashed __ __ __ __ __ __ __ __ __ __ __ __ __ _
 72
    65
 73
     2
 40
0.75
 49
0.5
 74
     0
 49
-0.25
 74
     0
  0
LTYPE
  5
25
100
AcDbSymbolTableRecord
100
AcDbLinetypeTableRecord
  2
CENTER
 70
    64
  3
Center ____ _ ____ _ ____ _ ____ _ ____ _ ____
 72
    65
 73
     4
 40
1.0
 49
0.5
 74
     0
 49
-0.25
 74
     0
 49
0.0
 74
     0
 49
-0.25
 74
     0
  0
LTYPE
  5
26
100
AcDbSymbolTableRecord
100
AcDbLinetypeTableRecord
  2
DIVIDE
 70
    64
  3
Divide ____ . . ____ . . ____ . . ____ . . ____
 72
    65
 73
     6
 40
1.25
 49
0.5
 74
     0
 49
-0.25
 74
     0
 49
0.0
 74
     0
 49
-0.25
 74
     0
 49
0.0
 74
     0
 49
-0.25
 74
     0
  0
LTYPE
  5
27
100
AcDbSymbolTableRecord
100
AcDbLinetypeTableRecord
  2
PHANTOM
 70
    64
  3
Phantom ______  __  __  ______  __  __  ______
 72
    65
 73
     6
 40
9.0
 49
4.3
 74
     0
 49
-0.7
 74
     0
 49
1.3
 74
     0
 49
-0.7
 74
     0
 49
1.3
 74
     0
 49
-0.7
 74
     0
  0
ENDTAB
  0
TABLE
  2
LAYER
  5
2
100
AcDbSymbolTable
 70
     1
  0
LAYER
  5
14
100
AcDbSymbolTableRecord
100
AcDbLayerTableRecord
  2
0
 70
    64
 62
   102
  6
Continuous
290
     1
370
    -3
390
1D
  0
ENDTAB
  0
TABLE
  2
STYLE
  5
3
100
AcDbSymbolTable
 70
     2
  0
STYLE
  5
17
100
AcDbSymbolTableRecord
100
AcDbTextStyleTableRecord
  2
Standard
 70
     0
 40
0.0
 41
1.0
 50
0.0
 71
     0
 42
0.0
  3
txt
  4

  0
STYLE
  5
5DC
100
AcDbSymbolTableRecord
100
AcDbTextStyleTableRecord
  2
ZU_SHPTB00001
 70
     0
 40
0.0
 41
1.0
 50
0.0
 71
     0
 42
0.0
  3
monotxt
  4
bigfont
  0
ENDTAB
  0
TABLE
  2
VIEW
  5
5
100
AcDbSymbolTable
 70
     0
  0
ENDTAB
  0
TABLE
  2
UCS
  5
6
100
AcDbSymbolTable
 70
     0
  0
ENDTAB
  0
TABLE
  2
APPID
  5
8
100
AcDbSymbolTable
 70
     1
  0
APPID
  5
16
100
AcDbSymbolTableRecord
100
AcDbRegAppTableRecord
  2
ACAD
 70
     0
  0
ENDTAB
  0
TABLE
  2
DIMSTYLE
  5
9
100
AcDbSymbolTable
 70
     1
100
AcDbDimStyleTable
 71
     0
  0
DIMSTYLE
105
18
100
AcDbSymbolTableRecord
100
AcDbDimStyleTableRecord
  2
Standard
 70
     0
  3

  4

 40
1.0
 41
0.18
 42
0.0625
 43
0.38
 44
0.18
 45
0.0
 46
0.0
 47
0.0
 48
0.0
 71
     0
 72
     0
 73
     1
 74
     1
 75
     0
 76
     0
 77
     0
 78
     0
 79
     0
140
0.18
141
0.09
142
0.0
143
25.4
144
1.0
145
0.0
146
1.0
147
0.09
148
0.0
170
     0
171
     2
172
     0
173
     0
174
     0
175
     0
176
     0
177
     0
178
     0
179
     0
271
     4
272
     4
273
     2
274
     2
275
     0
276
     0
277
     2
278
    46
279
     0
280
     0
281
     0
282
     0
283
     1
284
     0
285
     0
286
     0
288
     0
289
     3
340
17
341
0
342
0
343
0
344
0
371
    -2
372
    -2
  0
ENDTAB
  0
TABLE
  2
BLOCK_RECORD
  5
1
100
AcDbSymbolTable
 70
     5
  0
BLOCK_RECORD
  5
A
100
AcDbSymbolTableRecord
100
AcDbBlockTableRecord
  2
*MODEL_SPACE
340
20
  0
BLOCK_RECORD
  5
B
100
AcDbSymbolTableRecord
100
AcDbBlockTableRecord
  2
*PAPER_SPACE
340
21
  0
BLOCK_RECORD
  5
DB
100
AcDbSymbolTableRecord
100
AcDbBlockTableRecord
  2
ZU_SYM__USERS_HOME_SYMBOL_POO_SYM_B20_18
340
0
102
{BLKREFS
331
E6
102
}
  0
BLOCK_RECORD
  5
EE
100
AcDbSymbolTableRecord
100
AcDbBlockTableRecord
  2
ZU_SYM__USERS_HOME_SYMBOL_POO_SYM_B20_20
340
0
102
{BLKREFS
331
F9
102
}
  0
BLOCK_RECORD
  5
167
100
AcDbSymbolTableRecord
100
AcDbBlockTableRecord
  2
ZU_SYM__USERS_HOME_SYMBOL_POO_SYM_B20_0000120
340
0
102
{BLKREFS
331
172
102
}
  0
BLOCK_RECORD
  5
173
100
AcDbSymbolTableRecord
100
AcDbBlockTableRecord
  2
ZU_SYM__USERS_HOME_SYMBOL_POO_SYM_B20_0000220
340
0
102
{BLKREFS
331
17E
102
}
  0
BLOCK_RECORD
  5
18B
100
AcDbSymbolTableRecord
100
AcDbBlockTableRecord
  2
ZU_SYM__USERS_HOME_SYMBOL_POO_SYM_B20_0000320
340
0
102
{BLKREFS
331
196
102
}
  0
ENDTAB
  0
ENDSEC
  0
SECTION
  2
BLOCKS
  0
BLOCK
  5
D
100
AcDbEntity
  8
0
390
0
100
AcDbBlockBegin
  2
*MODEL_SPACE
 70
     0
 10
0.0
 20
0.0
 30
0.0
  3
*MODEL_SPACE
  1

  0
ENDBLK
  5
E
100
AcDbEntity
  8
0
390
0
100
AcDbBlockEnd
  0
BLOCK
  5
F
100
AcDbEntity
 67
     1
  8
0
390
0
100
AcDbBlockBegin
  2
*PAPER_SPACE
 70
     0
 10
0.0
 20
0.0
 30
0.0
  3
*PAPER_SPACE
  1

  0
ENDBLK
  5
10
100
AcDbEntity
 67
     1
  8
0
390
0
100
AcDbBlockEnd
  0
BLOCK
  5
DC
100
AcDbEntity
  8
0
390
0
100
AcDbBlockBegin
  2
ZU_SYM__USERS_HOME_SYMBOL_POO_SYM_B20_18
 70
    64
 10
0.0
 20
0.0
 30
0.0
  3
ZU_SYM__USERS_HOME_SYMBOL_POO_SYM_B20_18
  1

  0
LINE
  5
DD
100
AcDbEntity
  8
0
370
    -3
390
0
  6
Continuous
100
AcDbLine
 10
-7.499999
 20
6.5
 30
0.0
 11
-7.499999
 21
-6.5
 31
0.0
  0
LINE
  5
DE
100
AcDbEntity
  8
0
370
    -3
390
0
  6
Continuous
100
AcDbLine
 10
-7.499998
 20
-6.499999
 30
0.0
 11
-7.999999
 21
-5.63407
 31
0.0
  0
LINE
  5
DF
100
AcDbEntity
  8
0
370
    -3
390
0
  6
Continuous
100
AcDbLine
 10
-7.499999
 20
6.5
 30
0.0
 11
-7.999999
 21
5.633876
 31
0.0
  0
LINE
  5
E0
100
AcDbEntity
  8
0
370
    -3
390
0
  6
Continuous
100
AcDbLine
 10
0.0
 20
-6.5
 30
0.0
 11
-7.499998
 21
-6.5
 31
0.0
  0
LINE
  5
E1
100
AcDbEntity
  8
0
370
    -3
390
0
  6
Continuous
100
AcDbLine
 10
0.0
 20
6.5
 30
0.0
 11
-7.499999
 21
6.5
 31
0.0
  0
LINE
  5
E2
100
AcDbEntity
  8
0
370
    -3
390
0
  6
Continuous
100
AcDbLine
 10
-7.999999
 20
5.633876
 30
0.0
 11
-7.999999
 21
-5.63407
 31
0.0
  0
LINE
  5
E3
100
AcDbEntity
  8
0
370
    -3
390
0
  6
Continuous
100
AcDbLine
 10
0.0
 20
-6.5
 30
0.0
 11
0.0
 21
6.5
 31
0.0
  0
POINT
  5
E4
100
AcDbEntity
  8
0
370
    -3
390
0
  6
Continuous
100
AcDbPoint
 10
0.0
 20
0.0
 30
0.0
  0
ENDBLK
  5
E5
100
AcDbEntity
  8
0
390
0
100
AcDbBlockEnd
  0
BLOCK
  5
EF
100
AcDbEntity
  8
0
390
0
100
AcDbBlockBegin
  2
ZU_SYM__USERS_HOME_SYMBOL_POO_SYM_B20_20
 70
    64
 10
0.0
 20
0.0
 30
0.0
  3
ZU_SYM__USERS_HOME_SYMBOL_POO_SYM_B20_20
  1

  0
LINE
  5
F0
100
AcDbEntity
  8
0
370
    -3
390
0
  6
Continuous
100
AcDbLine
 10
-11.299976
 20
9.0
 30
0.0
 11
-11.299976
 21
-9.0
 31
0.0
  0
LINE
  5
F1
100
AcDbEntity
  8
0
370
    -3
390
0
  6
Continuous
100
AcDbLine
 10
-11.299961
 20
-9.000002
 30
0.0
 11
-11.999958
 21
-7.787738
 31
0.0
  0
LINE
  5
F2
100
AcDbEntity
  8
0
370
    -3
390
0
  6
Continuous
100
AcDbLine
 10
-11.299976
 20
8.999998
 30
0.0
 11
-11.999973
 21
7.787338
 31
0.0
  0
LINE
  5
F3
100
AcDbEntity
  8
0
370
    -3
390
0
  6
Continuous
100
AcDbLine
 10
0.0
 20
9.0
 30
0.0
 11
-11.299976
 21
9.0
 31
0.0
  0
LINE
  5
F4
100
AcDbEntity
  8
0
370
    -3
390
0
  6
Continuous
100
AcDbLine
 10
0.0
 20
-9.0
 30
0.0
 11
-11.299961
 21
-9.0
 31
0.0
  0
LINE
  5
F5
100
AcDbEntity
  8
0
370
    -3
390
0
  6
Continuous
100
AcDbLine
 10
-11.999958
 20
-7.787735
 30
0.0
 11
-11.999973
 21
7.78734
 31
0.0
  0
LINE
  5
F6
100
AcDbEntity
  8
0
370
    -3
390
0
  6
Continuous
100
AcDbLine
 10
0.0
 20
9.0
 30
0.0
 11
0.0
 21
-9.0
 31
0.0
  0
POINT
  5
F7
100
AcDbEntity
  8
0
370
    -3
390
0
  6
Continuous
100
AcDbPoint
 10
0.0
 20
0.0
 30
0.0
  0
ENDBLK
  5
F8
100
AcDbEntity
  8
0
390
0
100
AcDbBlockEnd
  0
BLOCK
  5
168
100
AcDbEntity
  8
0
390
0
100
AcDbBlockBegin
  2
ZU_SYM__USERS_HOME_SYMBOL_POO_SYM_B20_0000120
 70
    64
 10
0.0
 20
0.0
 30
0.0
  3
ZU_SYM__USERS_HOME_SYMBOL_POO_SYM_B20_0000120
  1

  0
LINE
  5
169
100
AcDbEntity
  8
0
370
    -3
390
0
  6
Continuous
100
AcDbLine
 10
-11.299976
 20
9.0
 30
0.0
 11
-11.299976
 21
-9.0
 31
0.0
  0
LINE
  5
16A
100
AcDbEntity
  8
0
370
    -3
390
0
  6
Continuous
100
AcDbLine
 10
-11.299961
 20
-9.000002
 30
0.0
 11
-11.999958
 21
-7.787738
 31
0.0
  0
LINE
  5
16B
100
AcDbEntity
  8
0
370
    -3
390
0
  6
Continuous
100
AcDbLine
 10
-11.299976
 20
8.999998
 30
0.0
 11
-11.999973
 21
7.787338
 31
0.0
  0
LINE
  5
16C
100
AcDbEntity
  8
0
370
    -3
390
0
  6
Continuous
100
AcDbLine
 10
0.0
 20
9.0
 30
0.0
 11
-11.299976
 21
9.0
 31
0.0
  0
LINE
  5
16D
100
AcDbEntity
  8
0
370
    -3
390
0
  6
Continuous
100
AcDbLine
 10
0.0
 20
-9.0
 30
0.0
 11
-11.299961
 21
-9.0
 31
0.0
  0
LINE
  5
16E
100
AcDbEntity
  8
0
370
    -3
390
0
  6
Continuous
100
AcDbLine
 10
-11.999958
 20
-7.787735
 30
0.0
 11
-11.999973
 21
7.78734
 31
0.0
  0
LINE
  5
16F
100
AcDbEntity
  8
0
370
    -3
390
0
  6
Continuous
100
AcDbLine
 10
0.0
 20
9.0
 30
0.0
 11
0.0
 21
-9.0
 31
0.0
  0
POINT
  5
170
100
AcDbEntity
  8
0
370
    -3
390
0
  6
Continuous
100
AcDbPoint
 10
0.0
 20
0.0
 30
0.0
  0
ENDBLK
  5
171
100
AcDbEntity
  8
0
390
0
100
AcDbBlockEnd
  0
BLOCK
  5
174
100
AcDbEntity
  8
0
390
0
100
AcDbBlockBegin
  2
ZU_SYM__USERS_HOME_SYMBOL_POO_SYM_B20_0000220
 70
    64
 10
0.0
 20
0.0
 30
0.0
  3
ZU_SYM__USERS_HOME_SYMBOL_POO_SYM_B20_0000220
  1

  0
LINE
  5
175
100
AcDbEntity
  8
0
370
    -3
390
0
  6
Continuous
100
AcDbLine
 10
-11.299976
 20
9.0
 30
0.0
 11
-11.299976
 21
-9.0
 31
0.0
  0
LINE
  5
176
100
AcDbEntity
  8
0
370
    -3
390
0
  6
Continuous
100
AcDbLine
 10
-11.299961
 20
-9.000002
 30
0.0
 11
-11.999958
 21
-7.787738
 31
0.0
  0
LINE
  5
177
100
AcDbEntity
  8
0
370
    -3
390
0
  6
Continuous
100
AcDbLine
 10
-11.299976
 20
8.999998
 30
0.0
 11
-11.999973
 21
7.787338
 31
0.0
  0
LINE
  5
178
100
AcDbEntity
  8
0
370
    -3
390
0
  6
Continuous
100
AcDbLine
 10
0.0
 20
9.0
 30
0.0
 11
-11.299976
 21
9.0
 31
0.0
  0
LINE
  5
179
100
AcDbEntity
  8
0
370
    -3
390
0
  6
Continuous
100
AcDbLine
 10
0.0
 20
-9.0
 30
0.0
 11
-11.299961
 21
-9.0
 31
0.0
  0
LINE
  5
17A
100
AcDbEntity
  8
0
370
    -3
390
0
  6
Continuous
100
AcDbLine
 10
-11.999958
 20
-7.787735
 30
0.0
 11
-11.999973
 21
7.78734
 31
0.0
  0
LINE
  5
17B
100
AcDbEntity
  8
0
370
    -3
390
0
  6
Continuous
100
AcDbLine
 10
0.0
 20
9.0
 30
0.0
 11
0.0
 21
-9.0
 31
0.0
  0
POINT
  5
17C
100
AcDbEntity
  8
0
370
    -3
390
0
  6
Continuous
100
AcDbPoint
 10
0.0
 20
0.0
 30
0.0
  0
ENDBLK
  5
17D
100
AcDbEntity
  8
0
390
0
100
AcDbBlockEnd
  0
BLOCK
  5
18C
100
AcDbEntity
  8
0
390
0
100
AcDbBlockBegin
  2
ZU_SYM__USERS_HOME_SYMBOL_POO_SYM_B20_0000320
 70
    64
 10
0.0
 20
0.0
 30
0.0
  3
ZU_SYM__USERS_HOME_SYMBOL_POO_SYM_B20_0000320
  1

  0
LINE
  5
18D
100
AcDbEntity
  8
0
370
    -3
390
0
  6
Continuous
100
AcDbLine
 10
-11.299976
 20
9.0
 30
0.0
 11
-11.299976
 21
-9.0
 31
0.0
  0
LINE
  5
18E
100
AcDbEntity
  8
0
370
    -3
390
0
  6
Continuous
100
AcDbLine
 10
-11.299961
 20
-9.000002
 30
0.0
 11
-11.999958
 21
-7.787738
 31
0.0
  0
LINE
  5
18F
100
AcDbEntity
  8
0
370
    -3
390
0
  6
Continuous
100
AcDbLine
 10
-11.299976
 20
8.999998
 30
0.0
 11
-11.999973
 21
7.787338
 31
0.0
  0
LINE
  5
190
100
AcDbEntity
  8
0
370
    -3
390
0
  6
Continuous
100
AcDbLine
 10
0.0
 20
9.0
 30
0.0
 11
-11.299976
 21
9.0
 31
0.0
  0
LINE
  5
191
100
AcDbEntity
  8
0
370
    -3
390
0
  6
Continuous
100
AcDbLine
 10
0.0
 20
-9.0
 30
0.0
 11
-11.299961
 21
-9.0
 31
0.0
  0
LINE
  5
192
100
AcDbEntity
  8
0
370
    -3
390
0
  6
Continuous
100
AcDbLine
 10
-11.999958
 20
-7.787735
 30
0.0
 11
-11.999973
 21
7.78734
 31
0.0
  0
LINE
  5
193
100
AcDbEntity
  8
0
370
    -3
390
0
  6
Continuous
100
AcDbLine
 10
0.0
 20
9.0
 30
0.0
 11
0.0
 21
-9.0
 31
0.0
  0
POINT
  5
194
100
AcDbEntity
  8
0
370
    -3
390
0
  6
Continuous
100
AcDbPoint
 10
0.0
 20
0.0
 30
0.0
  0
ENDBLK
  5
195
100
AcDbEntity
  8
0
390
0
100
AcDbBlockEnd
  0
ENDSEC
  0
SECTION
  2
ENTITIES
  0
ARC
  5
28
100
AcDbEntity
  8
0
370
    -3
390
0
  6
Continuous
100
AcDbCircle
 10
-206.448547
 20
97.909233
 30
0.0
 40
9.0
100
AcDbArc
 50
253.398469
 51
286.601548
  0
ARC
  5
29
100
AcDbEntity
  8
0
370
    -3
390
0
  6
Continuous
100
AcDbCircle
 10
-204.248546
 20
90.530208
 30
0.0
 40
1.299999
100
AcDbArc
 50
286.601531
 51
0.0
  0
LINE
  5
2A
100
AcDbEntity
  8
0
370
    -3
390
0
  6
Continuous
100
AcDbLine
 10
-202.948547
 20
90.530208
 30
0.0
 11
-202.948547
 21
90.926736
 31
0.0
  0
ARC
  5
2B
100
AcDbEntity
  8
0
370
    -3
390
0
  6
Continuous
100
AcDbCircle
 10
-204.448547
 20
90.926736
 30
0.0
 40
1.5
100
AcDbArc
 50
0.0
 51
32.230953
  0
LINE
  5
2C
100
AcDbEntity
  8
0
370
    -3
390
0
  6
Continuous
100
AcDbLine
 10
-209.948547
 20
90.530208
 30
0.0
 11
-209.948547
 21
90.926736
 31
0.0
  0
ARC
  5
2D
100
AcDbEntity
  8
0
370
    -3
390
0
  6
Continuous
100
AcDbCircle
 10
-208.648548
 20
90.530208
 30
0.0
 40
1.299999
100
AcDbArc
 50
180.0
 51
253.398469
  0
ARC
  5
2E
100
AcDbEntity
  8
0
370
    -3
390
0
  6
Continuous
100
AcDbCircle
 10
-208.448547
 20
90.926736
 30
0.0
 40
1.5
100
AcDbArc
 50
147.769047
 51
180.0
  0
CIRCLE
  5
2F
100
AcDbEntity
  8
0
370
    -3
390
0
  6
Continuous
100
AcDbCircle
 10
-606.532449
 20
-82.273264
 30
0.0
 40
10.0
  0
LINE
  5
30
100
AcDbEntity
  8
0
370
    -3
390
0
  6
Continuous
100
AcDbLine
 10
-610.435404
 20
-86.836888
 30
0.0
 11
-606.532449
 21
-86.836888
 31
0.0
  0
LINE
  5
31
100
AcDbEntity
  8
0
370
    -3
390
0
  6
Continuous
100
AcDbLine
 10
-614.744584
 20
-76.836888
 30
0.0
 11
-614.744584
 21
-86.836888
 31
0.0
  0
LINE
  5
32
100
AcDbEntity
  8
0
370
    -3
390
0
  6
Continuous
100
AcDbLine
 10
-610.435404
 20
-76.836888
 30
0.0
 11
-610.435404
 21
-86.836888
 31
0.0
  0
LINE
  5
33
100
AcDbEntity
  8
0
370
    -3
390
0
  6
Continuous
100
AcDbLine
 10
-602.629495
 20
-86.836888
 30
0.0
 11
-606.532449
 21
-86.836888
 31
0.0
  0
LINE
  5
34
100
AcDbEntity
  8
0
370
    -3
390
0
  6
Continuous
100
AcDbLine
 10
-598.320315
 20
-76.836888
 30
0.0
 11
-598.320315
 21
-86.836888
 31
0.0
  0
LINE
  5
35
100
AcDbEntity
  8
0
370
    -3
390
0
  6
Continuous
100
AcDbLine
 10
-602.629495
 20
-76.836888
 30
0.0
 11
-602.629495
 21
-86.836888
 31
0.0
  0
LINE
  5
36
100
AcDbEntity
  8
0
370
    -3
390
0
  6
Continuous
100
AcDbLine
 10
-602.032449
 20
-73.342979
 30
0.0
 11
-602.032449
 21
-74.836888
 31
0.0
  0
LINE
  5
37
100
AcDbEntity
  8
0
370
    -3
390
0
  6
Continuous
100
AcDbLine
 10
-611.032449
 20
-73.342979
 30
0.0
 11
-611.032449
 21
-74.836888
 31
0.0
  0
LINE
  5
38
100
AcDbEntity
  8
0
370
    -3
390
0
  6
Continuous
100
AcDbLine
 10
-613.218278
 20
-74.836888
 30
0.0
 11
-606.532449
 21
-74.836888
 31
0.0
  0
LINE
  5
39
100
AcDbEntity
  8
0
370
    -3
390
0
  6
Continuous
100
AcDbLine
 10
-614.92565
 20
-76.836888
 30
0.0
 11
-606.532449
 21
-76.836888
 31
0.0
  0
LINE
  5
3A
100
AcDbEntity
  8
0
370
    -3
390
0
  6
Continuous
100
AcDbLine
 10
-615.43039
 20
-86.836888
 30
0.0
 11
-614.744584
 21
-86.836888
 31
0.0
  0
LINE
  5
3B
100
AcDbEntity
  8
0
370
    -3
390
0
  6
Continuous
100
AcDbLine
 10
-614.841847
 20
-87.836888
 30
0.0
 11
-606.532449
 21
-87.836888
 31
0.0
  0
LINE
  5
3C
100
AcDbEntity
  8
0
370
    -3
390
0
  6
Continuous
100
AcDbLine
 10
-614.076907
 20
-88.836888
 30
0.0
 11
-606.532449
 21
-88.836888
 31
0.0
  0
LINE
  5
3D
100
AcDbEntity
  8
0
370
    -3
390
0
  6
Continuous
100
AcDbLine
 10
-609.454282
 20
-91.836888
 30
0.0
 11
-606.532449
 21
-91.836888
 31
0.0
  0
LINE
  5
3E
100
AcDbEntity
  8
0
370
    -3
390
0
  6
Continuous
100
AcDbLine
 10
-603.610616
 20
-91.836888
 30
0.0
 11
-606.532449
 21
-91.836888
 31
0.0
  0
LINE
  5
3F
100
AcDbEntity
  8
0
370
    -3
390
0
  6
Continuous
100
AcDbLine
 10
-598.987991
 20
-88.836888
 30
0.0
 11
-606.532449
 21
-88.836888
 31
0.0
  0
LINE
  5
40
100
AcDbEntity
  8
0
370
    -3
390
0
  6
Continuous
100
AcDbLine
 10
-598.223051
 20
-87.836888
 30
0.0
 11
-606.532449
 21
-87.836888
 31
0.0
  0
LINE
  5
41
100
AcDbEntity
  8
0
370
    -3
390
0
  6
Continuous
100
AcDbLine
 10
-599.846621
 20
-74.836888
 30
0.0
 11
-606.532449
 21
-74.836888
 31
0.0
  0
LINE
  5
42
100
AcDbEntity
  8
0
370
    -3
390
0
  6
Continuous
100
AcDbLine
 10
-598.139249
 20
-76.836888
 30
0.0
 11
-606.532449
 21
-76.836888
 31
0.0
  0
LINE
  5
43
100
AcDbEntity
  8
0
370
    -3
390
0
  6
Continuous
100
AcDbLine
 10
-597.634509
 20
-86.836888
 30
0.0
 11
-598.320315
 21
-86.836888
 31
0.0
  0
LINE
  5
44
100
AcDbEntity
  8
0
370
    -3
390
0
  6
Continuous
100
AcDbLine
 10
-606.532449
 20
-460.273264
 30
0.0
 11
-522.814651
 21
-460.273264
 31
0.0
  0
ARC
  5
45
100
AcDbEntity
  8
0
370
    -3
390
0
  6
Continuous
100
AcDbCircle
 10
-531.532449
 20
-442.273264
 30
0.0
 40
20.0
100
AcDbArc
 50
295.841933
 51
330.0
  0
LINE
  5
46
100
AcDbEntity
  8
0
370
    -3
390
0
  6
Continuous
100
AcDbLine
 10
-606.532449
 20
-460.273264
 30
0.0
 11
-690.250247
 21
-460.273264
 31
0.0
  0
ARC
  5
47
100
AcDbEntity
  8
0
370
    -3
390
0
  6
Continuous
100
AcDbCircle
 10
-681.532449
 20
-442.273264
 30
0.0
 40
20.0
100
AcDbArc
 50
210.0
 51
244.158067
  0
ARC
  5
48
100
AcDbEntity
  8
0
370
    -3
390
0
  6
Continuous
100
AcDbCircle
 10
628.553972
 20
-227.273264
 30
0.0
 40
80.0
100
AcDbArc
 50
90.0
 51
0.0
  0
LINE
  5
49
100
AcDbEntity
  8
0
370
    -3
390
0
  6
DASHED
100
AcDbLine
 10
505.553972
 20
-254.581659
 30
0.0
 11
505.553972
 21
-328.773264
 31
0.0
  0
LINE
  5
4A
100
AcDbEntity
  8
0
370
    -3
390
0
  6
DASHED
100
AcDbLine
 10
460.553972
 20
-344.061853
 30
0.0
 11
458.531337
 21
-348.604765
 31
0.0
  0
ARC
  5
4B
100
AcDbEntity
  8
0
370
    -3
390
0
  6
DASHED
100
AcDbCircle
 10
472.806261
 20
-270.094368
 30
0.0
 40
15.0
100
AcDbArc
 50
144.767646
 51
178.317231
  0
LINE
  5
4C
100
AcDbEntity
  8
0
370
    -3
390
0
  6
DASHED
100
AcDbLine
 10
460.626031
 20
-343.900006
 30
0.0
 11
464.462922
 21
-345.6083
 31
0.0
  0
LINE
  5
4D
100
AcDbEntity
  8
0
370
    -3
390
0
  6
DASHED
100
AcDbLine
 10
461.968262
 20
-340.885306
 30
0.0
 11
465.805153
 21
-342.5936
 31
0.0
  0
LINE
  5
4E
100
AcDbEntity
  8
0
370
    -3
390
0
  6
DASHED
100
AcDbLine
 10
465.62777
 20
-342.131501
 30
0.0
 11
465.805153
 21
-342.5936
 31
0.0
  0
LINE
  5
4F
100
AcDbEntity
  8
0
370
    -3
390
0
  6
DASHED
100
AcDbLine
 10
464.000823
 20
-345.785683
 30
0.0
 11
464.462922
 21
-345.6083
 31
0.0
  0
LINE
  5
50
100
AcDbEntity
  8
0
370
    -3
390
0
  6
DASHED
100
AcDbLine
 10
465.805153
 20
-342.5936
 30
0.0
 11
464.462922
 21
-345.6083
 31
0.0
  0
POINT
  5
51
100
AcDbEntity
  8
0
370
    -3
390
0
  6
DASHED
100
AcDbPoint
 10
457.825674
 20
-340.847057
 30
0.0
  0
LINE
  5
52
100
AcDbEntity
  8
0
370
    -3
390
0
  6
DASHED
100
AcDbLine
 10
459.249252
 20
-337.649648
 30
0.0
 11
455.466601
 21
-346.145621
 31
0.0
  0
LINE
  5
53
100
AcDbEntity
  8
0
370
    -3
390
0
  6
DASHED
100
AcDbLine
 10
456.402095
 20
-344.044466
 30
0.0
 11
455.507711
 21
-343.646261
 31
0.0
  0
LINE
  5
54
100
AcDbEntity
  8
0
370
    -3
390
0
  6
DASHED
100
AcDbLine
 10
459.249252
 20
-337.649648
 30
0.0
 11
458.354868
 21
-337.251442
 31
0.0
  0
ARC
  5
55
100
AcDbEntity
  8
0
370
    -3
390
0
  6
DASHED
100
AcDbCircle
 10
457.82611
 20
-338.439051
 30
0.0
 40
1.299999
100
AcDbArc
 50
65.999999
 51
139.398469
  0
ARC
  5
56
100
AcDbEntity
  8
0
370
    -3
390
0
  6
DASHED
100
AcDbCircle
 10
1057.553972
 20
-287.273264
 30
0.0
 40
600.0
100
AcDbArc
 50
178.317231
 51
184.715125
  0
ARC
  5
57
100
AcDbEntity
  8
0
370
    -3
390
0
  6
DASHED
100
AcDbCircle
 10
458.587923
 20
-336.676424
 30
0.0
 40
1.0
100
AcDbArc
 50
336.0
 51
4.715125
  0
LINE
  5
58
100
AcDbEntity
  8
0
370
    -3
390
0
  6
DASHED
100
AcDbLine
 10
455.97341
 20
-347.465903
 30
0.0
 11
458.531337
 21
-348.604765
 31
0.0
  0
ARC
  5
59
100
AcDbEntity
  8
0
370
    -3
390
0
  6
DASHED
100
AcDbCircle
 10
456.380146
 20
-346.552357
 30
0.0
 40
1.0
100
AcDbArc
 50
156.0
 51
246.0
  0
ARC
  5
5A
100
AcDbEntity
  8
0
370
    -3
390
0
  6
DASHED
100
AcDbCircle
 10
459.759285
 20
-334.045502
 30
0.0
 40
1.0
100
AcDbArc
 50
336.0
 51
66.0
  0
ARC
  5
5B
100
AcDbEntity
  8
0
370
    -3
390
0
  6
DASHED
100
AcDbCircle
 10
461.183958
 20
-331.395899
 30
0.0
 40
2.0
100
AcDbArc
 50
184.231338
 51
246.0
  0
LINE
  5
5C
100
AcDbEntity
  8
0
370
    -3
390
0
  6
DASHED
100
AcDbLine
 10
462.11062
 20
-340.565565
 30
0.0
 11
465.62777
 21
-342.131501
 31
0.0
  0
LINE
  5
5D
100
AcDbEntity
  8
0
370
    -3
390
0
  6
DASHED
100
AcDbLine
 10
460.483673
 20
-344.219747
 30
0.0
 11
464.000823
 21
-345.785683
 31
0.0
  0
ARC
  5
5E
100
AcDbEntity
  8
0
370
    -3
390
0
  6
DASHED
100
AcDbCircle
 10
456.036469
 20
-342.458652
 30
0.0
 40
1.299999
100
AcDbArc
 50
172.601548
 51
246.000018
  0
ARC
  5
5F
100
AcDbEntity
  8
0
370
    -3
390
0
  6
DASHED
100
AcDbCircle
 10
463.672364
 20
-343.450171
 30
0.0
 40
9.0
100
AcDbArc
 50
139.398469
 51
172.601548
  0
ARC
  5
60
100
AcDbEntity
  8
0
370
    -3
390
0
  6
DASHED
100
AcDbCircle
 10
472.806261
 20
-270.094368
 30
0.0
 40
15.0
100
AcDbArc
 50
99.318123
 51
144.767646
  0
LINE
  5
61
100
AcDbEntity
  8
0
370
    -3
390
0
  6
DASHED
100
AcDbLine
 10
504.248536
 20
-245.922256
 30
0.0
 11
460.553972
 21
-344.061853
 31
0.0
  0
ARC
  5
62
100
AcDbEntity
  8
0
370
    -3
390
0
  6
DASHED
100
AcDbCircle
 10
500.553972
 20
-328.773264
 30
0.0
 40
5.0
100
AcDbArc
 50
270.0
 51
0.0
  0
LINE
  5
63
100
AcDbEntity
  8
0
370
    -3
390
0
  6
DASHED
100
AcDbLine
 10
500.553972
 20
-333.773264
 30
0.0
 11
465.134747
 21
-333.773264
 31
0.0
  0
ARC
  5
64
100
AcDbEntity
  8
0
370
    -3
390
0
  6
DASHED
100
AcDbCircle
 10
501.283872
 20
-245.696939
 30
0.0
 40
1.0
100
AcDbArc
 50
66.0
 51
156.0
  0
LINE
  5
65
100
AcDbEntity
  8
0
370
    -3
390
0
  6
DASHED
100
AcDbLine
 10
503.494543
 20
-247.615752
 30
0.0
 11
503.919375
 21
-248.616594
 31
0.0
  0
LINE
  5
66
100
AcDbEntity
  8
0
370
    -3
390
0
  6
DASHED
100
AcDbLine
 10
503.049629
 20
-248.615044
 30
0.0
 11
503.182971
 21
-248.929179
 31
0.0
  0
LINE
  5
67
100
AcDbEntity
  8
0
370
    -3
390
0
  6
DASHED
100
AcDbLine
 10
503.919375
 20
-248.616594
 30
0.0
 11
503.182971
 21
-248.929179
 31
0.0
  0
LINE
  5
68
100
AcDbEntity
  8
0
370
    -3
390
0
  6
DASHED
100
AcDbLine
 10
500.370326
 20
-245.290202
 30
0.0
 11
459.249252
 21
-337.649648
 31
0.0
  0
LINE
  5
69
100
AcDbEntity
  8
0
370
    -3
390
0
  6
DASHED
100
AcDbLine
 10
501.690609
 20
-244.783393
 30
0.0
 11
504.248536
 21
-245.922256
 31
0.0
  0
LINE
  5
6A
100
AcDbEntity
  8
0
370
    -3
390
0
  6
DASHED
100
AcDbLine
 10
501.970811
 20
-251.03811
 30
0.0
 11
503.774182
 21
-251.841023
 31
0.0
  0
ARC
  5
6B
100
AcDbEntity
  8
0
370
    -3
390
0
  6
DASHED
100
AcDbCircle
 10
502.553972
 20
-254.581659
 30
0.0
 40
3.0
100
AcDbArc
 50
0.0
 51
66.0
  0
LINE
  5
6C
100
AcDbEntity
  8
0
370
    -3
390
0
  6
DASHED
100
AcDbLine
 10
496.333158
 20
-251.033471
 30
0.0
 11
470.377521
 21
-255.2923
 31
0.0
  0
ARC
  5
6D
100
AcDbEntity
  8
0
370
    -3
390
0
  6
DASHED
100
AcDbCircle
 10
495.847411
 20
-248.073057
 30
0.0
 40
3.0
100
AcDbArc
 50
279.318123
 51
336.0
  0
LINE
  5
6E
100
AcDbEntity
  8
0
370
    -3
390
0
  6
CENTER
100
AcDbLine
 10
71.107455
 20
-287.273264
 30
0.0
 11
-328.303965
 21
-287.273264
 31
0.0
  0
LINE
  5
6F
100
AcDbEntity
  8
0
370
    -3
390
0
  6
Continuous
100
AcDbLine
 10
-16.448547
 20
-401.273264
 30
0.0
 11
-16.448547
 21
-173.273264
 31
0.0
  0
LINE
  5
70
100
AcDbEntity
  8
0
370
    -3
390
0
  6
Continuous
100
AcDbLine
 10
-16.448547
 20
-401.168449
 30
0.0
 11
-16.448547
 21
-287.273264
 31
0.0
  0
LINE
  5
71
100
AcDbEntity
  8
0
370
    -3
390
0
  6
Continuous
100
AcDbLine
 10
-16.448547
 20
-173.37808
 30
0.0
 11
-16.448547
 21
-287.273264
 31
0.0
  0
LINE
  5
72
100
AcDbEntity
  8
0
370
    -3
390
0
  6
CENTER
100
AcDbLine
 10
628.553972
 20
22.463105
 30
0.0
 11
628.553972
 21
-472.255667
 31
0.0
  0
LINE
  5
73
100
AcDbEntity
  8
0
370
    -3
390
0
  6
CENTER
100
AcDbLine
 10
663.372852
 20
-287.273264
 30
0.0
 11
596.167593
 21
-287.273264
 31
0.0
  0
LINE
  5
74
100
AcDbEntity
  8
0
370
    -3
390
0
  6
Continuous
100
AcDbLine
 10
-221.448547
 20
-225.802096
 30
0.0
 11
-16.448547
 21
-225.802096
 31
0.0
  0
LINE
  5
75
100
AcDbEntity
  8
0
370
    -3
390
0
  6
Continuous
100
AcDbLine
 10
-221.448547
 20
-228.756577
 30
0.0
 11
-16.448547
 21
-228.756577
 31
0.0
  0
LINE
  5
76
100
AcDbEntity
  8
0
370
    -3
390
0
  6
Continuous
100
AcDbLine
 10
-221.448547
 20
-237.785213
 30
0.0
 11
-16.448547
 21
-237.785213
 31
0.0
  0
LINE
  5
77
100
AcDbEntity
  8
0
370
    -3
390
0
  6
Continuous
100
AcDbLine
 10
-221.448547
 20
-240.700771
 30
0.0
 11
-16.448547
 21
-240.700771
 31
0.0
  0
LINE
  5
78
100
AcDbEntity
  8
0
370
    -3
390
0
  6
Continuous
100
AcDbLine
 10
-161.604001
 20
-249.95455
 30
0.0
 11
-16.448547
 21
-249.95455
 31
0.0
  0
LINE
  5
79
100
AcDbEntity
  8
0
370
    -3
390
0
  6
Continuous
100
AcDbLine
 10
-160.449433
 20
-252.559577
 30
0.0
 11
-16.448547
 21
-252.559577
 31
0.0
  0
LINE
  5
7A
100
AcDbEntity
  8
0
370
    -3
390
0
  6
Continuous
100
AcDbLine
 10
-159.998547
 20
-263.273264
 30
0.0
 11
-16.448547
 21
-263.273264
 31
0.0
  0
LINE
  5
7B
100
AcDbEntity
  8
0
370
    -3
390
0
  6
Continuous
100
AcDbLine
 10
-221.448547
 20
-365.189294
 30
0.0
 11
-16.448547
 21
-365.189294
 31
0.0
  0
LINE
  5
7C
100
AcDbEntity
  8
0
370
    -3
390
0
  6
Continuous
100
AcDbLine
 10
-221.448547
 20
-348.744432
 30
0.0
 11
-16.448547
 21
-348.744432
 31
0.0
  0
LINE
  5
7D
100
AcDbEntity
  8
0
370
    -3
390
0
  6
Continuous
100
AcDbLine
 10
-159.998547
 20
-311.273264
 30
0.0
 11
-16.448547
 21
-311.273264
 31
0.0
  0
LINE
  5
7E
100
AcDbEntity
  8
0
370
    -3
390
0
  6
Continuous
100
AcDbLine
 10
-159.998547
 20
-324.591979
 30
0.0
 11
-16.448547
 21
-324.591979
 31
0.0
  0
LINE
  5
7F
100
AcDbEntity
  8
0
370
    -3
390
0
  6
Continuous
100
AcDbLine
 10
-159.998547
 20
-321.986952
 30
0.0
 11
-16.448547
 21
-321.986952
 31
0.0
  0
LINE
  5
80
100
AcDbEntity
  8
0
370
    -3
390
0
  6
Continuous
100
AcDbLine
 10
-159.998547
 20
-333.845758
 30
0.0
 11
-16.448547
 21
-333.845758
 31
0.0
  0
LINE
  5
81
100
AcDbEntity
  8
0
370
    -3
390
0
  6
Continuous
100
AcDbLine
 10
-164.029322
 20
-345.789952
 30
0.0
 11
-16.448547
 21
-345.789952
 31
0.0
  0
LINE
  5
82
100
AcDbEntity
  8
0
370
    -3
390
0
  6
Continuous
100
AcDbLine
 10
-159.998547
 20
-336.761316
 30
0.0
 11
-16.448547
 21
-336.761316
 31
0.0
  0
LINE
  5
83
100
AcDbEntity
  8
0
370
    -3
390
0
  6
Continuous
100
AcDbLine
 10
-221.448547
 20
-173.273264
 30
0.0
 11
-16.448547
 21
-173.273264
 31
0.0
  0
LINE
  5
84
100
AcDbEntity
  8
0
370
    -3
390
0
  6
Continuous
100
AcDbLine
 10
-221.448547
 20
-178.273264
 30
0.0
 11
-16.448547
 21
-178.273264
 31
0.0
  0
LINE
  5
85
100
AcDbEntity
  8
0
370
    -3
390
0
  6
Continuous
100
AcDbLine
 10
-221.448547
 20
-177.273264
 30
0.0
 11
-16.448547
 21
-177.273264
 31
0.0
  0
LINE
  5
86
100
AcDbEntity
  8
0
370
    -3
390
0
  6
Continuous
100
AcDbLine
 10
-221.448547
 20
-181.773264
 30
0.0
 11
-16.448547
 21
-181.773264
 31
0.0
  0
LINE
  5
87
100
AcDbEntity
  8
0
370
    -3
390
0
  6
Continuous
100
AcDbLine
 10
-221.448547
 20
-187.273264
 30
0.0
 11
-16.448547
 21
-187.273264
 31
0.0
  0
LINE
  5
88
100
AcDbEntity
  8
0
370
    -3
390
0
  6
Continuous
100
AcDbLine
 10
-221.448547
 20
-200.164847
 30
0.0
 11
-16.448547
 21
-200.164847
 31
0.0
  0
LINE
  5
89
100
AcDbEntity
  8
0
370
    -3
390
0
  6
Continuous
100
AcDbLine
 10
-221.448547
 20
-209.357235
 30
0.0
 11
-16.448547
 21
-209.357235
 31
0.0
  0
LINE
  5
8A
100
AcDbEntity
  8
0
370
    -3
390
0
  6
Continuous
100
AcDbLine
 10
-261.448547
 20
-195.420092
 30
0.0
 11
-259.448547
 21
-194.12456
 31
0.0
  0
LINE
  5
8B
100
AcDbEntity
  8
0
370
    -3
390
0
  6
Continuous
100
AcDbLine
 10
-261.448547
 20
-195.420092
 30
0.0
 11
-259.448547
 21
-196.952987
 31
0.0
  0
LINE
  5
8C
100
AcDbEntity
  8
0
370
    -3
390
0
  6
Continuous
100
AcDbLine
 10
-261.448547
 20
-195.420092
 30
0.0
 11
-263.448547
 21
-196.952987
 31
0.0
  0
LINE
  5
8D
100
AcDbEntity
  8
0
370
    -3
390
0
  6
Continuous
100
AcDbLine
 10
-261.448547
 20
-195.420092
 30
0.0
 11
-263.448547
 21
-194.12456
 31
0.0
  0
ELLIPSE
  5
8E
100
AcDbEntity
  8
0
370
    -3
390
0
  6
Continuous
100
AcDbEllipse
 10
-261.448547
 20
-198.422785
 30
0.0
 11
6.0
 21
0.0
 31
0.0
210
0.0
220
0.0
230
1.0
 40
0.689848
 41
3.1415926535897931
 42
0.0
  0
ELLIPSE
  5
8F
100
AcDbEntity
  8
0
370
    -3
390
0
  6
Continuous
100
AcDbEllipse
 10
-261.448547
 20
-198.422785
 30
0.0
 11
6.0
 21
0.0
 31
0.0
210
0.0
220
0.0
230
1.0
 40
0.689848
 41
0.0
 42
0.8313376885249334
  0
ELLIPSE
  5
90
100
AcDbEntity
  8
0
370
    -3
390
0
  6
Continuous
100
AcDbEllipse
 10
-261.448547
 20
-197.064033
 30
0.0
 11
4.5
 21
0.0
 31
0.0
210
0.0
220
0.0
230
1.0
 40
0.860332
 41
0.0
 42
6.2831853071795862
  0
ELLIPSE
  5
91
100
AcDbEntity
  8
0
370
    -3
390
0
  6
Continuous
100
AcDbEllipse
 10
-261.448547
 20
-198.036388
 30
0.0
 11
5.0
 21
0.0
 31
0.0
210
0.0
220
0.0
230
1.0
 40
0.763675
 41
3.1415926535897931
 42
0.0
  0
ELLIPSE
  5
92
100
AcDbEntity
  8
0
370
    -3
390
0
  6
Continuous
100
AcDbEllipse
 10
-261.448547
 20
-197.753546
 30
0.0
 11
5.0
 21
0.0
 31
0.0
210
0.0
220
0.0
230
1.0
 40
0.707107
 41
2.6124407455910639
 42
0.5291519079987751
  0
LINE
  5
93
100
AcDbEntity
  8
0
370
    -3
390
0
  6
Continuous
100
AcDbLine
 10
-256.448547
 20
-198.036388
 30
0.0
 11
-256.448547
 21
-197.753546
 31
0.0
  0
LINE
  5
94
100
AcDbEntity
  8
0
370
    -3
390
0
  6
Continuous
100
AcDbLine
 10
-266.448547
 20
-198.036388
 30
0.0
 11
-266.448547
 21
-197.753546
 31
0.0
  0
ELLIPSE
  5
95
100
AcDbEntity
  8
0
370
    -3
390
0
  6
Continuous
100
AcDbEllipse
 10
-261.448547
 20
-199.708882
 30
0.0
 11
6.0
 21
0.0
 31
0.0
210
0.0
220
0.0
230
1.0
 40
0.707107
 41
3.1415926535897931
 42
0.0
  0
ELLIPSE
  5
96
100
AcDbEntity
  8
0
370
    -3
390
0
  6
Continuous
100
AcDbEllipse
 10
-261.448547
 20
-198.422785
 30
0.0
 11
6.0
 21
0.0
 31
0.0
210
0.0
220
0.0
230
1.0
 40
0.689848
 41
2.3102549650648596
 42
3.1415926535897931
  0
LINE
  5
97
100
AcDbEntity
  8
0
370
    -3
390
0
  6
Continuous
100
AcDbLine
 10
-255.448547
 20
-199.708882
 30
0.0
 11
-255.448547
 21
-198.422785
 31
0.0
  0
LINE
  5
98
100
AcDbEntity
  8
0
370
    -3
390
0
  6
Continuous
100
AcDbLine
 10
-267.448547
 20
-199.708882
 30
0.0
 11
-267.448547
 21
-198.422785
 31
0.0
  0
ARC
  5
99
100
AcDbEntity
  8
0
370
    -3
390
0
  6
Continuous
100
AcDbCircle
 10
-310.248547
 20
-192.705395
 30
0.0
 40
6.2
100
AcDbArc
 50
120.0
 51
180.0
  0
LINE
  5
9A
100
AcDbEntity
  8
0
370
    -3
390
0
  6
Continuous
100
AcDbLine
 10
-313.348547
 20
-187.336037
 30
0.0
 11
-297.650056
 21
-178.27251
 31
0.0
  0
ARC
  5
9B
100
AcDbEntity
  8
0
370
    -3
390
0
  6
Continuous
100
AcDbCircle
 10
-267.050056
 20
-231.273264
 30
0.0
 40
61.2
100
AcDbArc
 50
90.0
 51
120.0
  0
LINE
  5
9C
100
AcDbEntity
  8
0
370
    -3
390
0
  6
Continuous
100
AcDbLine
 10
-221.448547
 20
-170.073264
 30
0.0
 11
-267.050056
 21
-170.073264
 31
0.0
  0
LINE
  5
9D
100
AcDbEntity
  8
0
370
    -3
390
0
  6
Continuous
100
AcDbLine
 10
-221.448547
 20
-244.676657
 30
0.0
 11
-221.448547
 21
-170.073264
 31
0.0
  0
LINE
  5
9E
100
AcDbEntity
  8
0
370
    -3
390
0
  6
Continuous
100
AcDbLine
 10
-316.448547
 20
-381.841134
 30
0.0
 11
-316.448547
 21
-192.705395
 31
0.0
  0
LINE
  5
9F
100
AcDbEntity
  8
0
370
    -3
390
0
  6
Continuous
100
AcDbLine
 10
-221.448547
 20
-401.273264
 30
0.0
 11
-16.448547
 21
-401.273264
 31
0.0
  0
LINE
  5
A0
100
AcDbEntity
  8
0
370
    -3
390
0
  6
Continuous
100
AcDbLine
 10
-221.448547
 20
-396.273264
 30
0.0
 11
-16.448547
 21
-396.273264
 31
0.0
  0
LINE
  5
A1
100
AcDbEntity
  8
0
370
    -3
390
0
  6
Continuous
100
AcDbLine
 10
-221.448547
 20
-397.273264
 30
0.0
 11
-16.448547
 21
-397.273264
 31
0.0
  0
LINE
  5
A2
100
AcDbEntity
  8
0
370
    -3
390
0
  6
Continuous
100
AcDbLine
 10
-221.448547
 20
-392.773264
 30
0.0
 11
-16.448547
 21
-392.773264
 31
0.0
  0
LINE
  5
A3
100
AcDbEntity
  8
0
370
    -3
390
0
  6
Continuous
100
AcDbLine
 10
-221.448547
 20
-387.273264
 30
0.0
 11
-16.448547
 21
-387.273264
 31
0.0
  0
LINE
  5
A4
100
AcDbEntity
  8
0
370
    -3
390
0
  6
Continuous
100
AcDbLine
 10
-221.448547
 20
-374.381682
 30
0.0
 11
-16.448547
 21
-374.381682
 31
0.0
  0
LINE
  5
A5
100
AcDbEntity
  8
0
370
    -3
390
0
  6
Continuous
100
AcDbLine
 10
-261.448547
 20
-379.126436
 30
0.0
 11
-259.448547
 21
-380.421969
 31
0.0
  0
LINE
  5
A6
100
AcDbEntity
  8
0
370
    -3
390
0
  6
Continuous
100
AcDbLine
 10
-261.448547
 20
-379.126436
 30
0.0
 11
-259.448547
 21
-377.593541
 31
0.0
  0
LINE
  5
A7
100
AcDbEntity
  8
0
370
    -3
390
0
  6
Continuous
100
AcDbLine
 10
-261.448547
 20
-379.126436
 30
0.0
 11
-263.448547
 21
-377.593541
 31
0.0
  0
LINE
  5
A8
100
AcDbEntity
  8
0
370
    -3
390
0
  6
Continuous
100
AcDbLine
 10
-261.448547
 20
-379.126436
 30
0.0
 11
-263.448547
 21
-380.421969
 31
0.0
  0
ELLIPSE
  5
A9
100
AcDbEntity
  8
0
370
    -3
390
0
  6
Continuous
100
AcDbEllipse
 10
-261.448547
 20
-376.123744
 30
0.0
 11
6.0
 21
0.0
 31
0.0
210
0.0
220
0.0
230
1.0
 40
0.689848
 41
0.0
 42
3.1415926535897931
  0
ELLIPSE
  5
AA
100
AcDbEntity
  8
0
370
    -3
390
0
  6
Continuous
100
AcDbEllipse
 10
-261.448547
 20
-376.123744
 30
0.0
 11
6.0
 21
0.0
 31
0.0
210
0.0
220
0.0
230
1.0
 40
0.689848
 41
5.4518476186546492
 42
0.0
  0
ELLIPSE
  5
AB
100
AcDbEntity
  8
0
370
    -3
390
0
  6
Continuous
100
AcDbEllipse
 10
-261.448547
 20
-377.482495
 30
0.0
 11
4.5
 21
0.0
 31
0.0
210
0.0
220
0.0
230
1.0
 40
0.860332
 41
0.0
 42
6.2831853071795862
  0
ELLIPSE
  5
AC
100
AcDbEntity
  8
0
370
    -3
390
0
  6
Continuous
100
AcDbEllipse
 10
-261.448547
 20
-376.51014
 30
0.0
 11
5.0
 21
0.0
 31
0.0
210
0.0
220
0.0
230
1.0
 40
0.763675
 41
0.0
 42
3.1415926535897931
  0
ELLIPSE
  5
AD
100
AcDbEntity
  8
0
370
    -3
390
0
  6
Continuous
100
AcDbEllipse
 10
-261.448547
 20
-376.792983
 30
0.0
 11
5.0
 21
0.0
 31
0.0
210
0.0
220
0.0
230
1.0
 40
0.707107
 41
5.7540333991808073
 42
3.6707445615885259
  0
LINE
  5
AE
100
AcDbEntity
  8
0
370
    -3
390
0
  6
Continuous
100
AcDbLine
 10
-256.448547
 20
-376.51014
 30
0.0
 11
-256.448547
 21
-376.792983
 31
0.0
  0
LINE
  5
AF
100
AcDbEntity
  8
0
370
    -3
390
0
  6
Continuous
100
AcDbLine
 10
-266.448547
 20
-376.51014
 30
0.0
 11
-266.448547
 21
-376.792983
 31
0.0
  0
ELLIPSE
  5
B0
100
AcDbEntity
  8
0
370
    -3
390
0
  6
Continuous
100
AcDbEllipse
 10
-261.448547
 20
-374.837647
 30
0.0
 11
6.0
 21
0.0
 31
0.0
210
0.0
220
0.0
230
1.0
 40
0.707107
 41
0.0
 42
3.1415926535897931
  0
ELLIPSE
  5
B1
100
AcDbEntity
  8
0
370
    -3
390
0
  6
Continuous
100
AcDbEllipse
 10
-261.448547
 20
-376.123744
 30
0.0
 11
6.0
 21
0.0
 31
0.0
210
0.0
220
0.0
230
1.0
 40
0.689848
 41
3.1415926535897931
 42
3.9729303421147302
  0
LINE
  5
B2
100
AcDbEntity
  8
0
370
    -3
390
0
  6
Continuous
100
AcDbLine
 10
-255.448547
 20
-374.837647
 30
0.0
 11
-255.448547
 21
-376.123744
 31
0.0
  0
LINE
  5
B3
100
AcDbEntity
  8
0
370
    -3
390
0
  6
Continuous
100
AcDbLine
 10
-267.448547
 20
-374.837647
 30
0.0
 11
-267.448547
 21
-376.123744
 31
0.0
  0
LINE
  5
B4
100
AcDbEntity
  8
0
370
    -3
390
0
  6
Continuous
100
AcDbLine
 10
-221.448547
 20
-348.279376
 30
0.0
 11
-221.448547
 21
-404.473264
 31
0.0
  0
LINE
  5
B5
100
AcDbEntity
  8
0
370
    -3
390
0
  6
Continuous
100
AcDbLine
 10
-221.448547
 20
-404.473264
 30
0.0
 11
-267.050056
 21
-404.473264
 31
0.0
  0
ARC
  5
B6
100
AcDbEntity
  8
0
370
    -3
390
0
  6
Continuous
100
AcDbCircle
 10
-267.050056
 20
-343.273264
 30
0.0
 40
61.2
100
AcDbArc
 50
240.0
 51
270.0
  0
ARC
  5
B7
100
AcDbEntity
  8
0
370
    -3
390
0
  6
Continuous
100
AcDbCircle
 10
-310.248547
 20
-381.841134
 30
0.0
 40
6.2
100
AcDbArc
 50
180.0
 51
240.0
  0
LINE
  5
B8
100
AcDbEntity
  8
0
370
    -3
390
0
  6
Continuous
100
AcDbLine
 10
-313.348547
 20
-387.210491
 30
0.0
 11
-297.650056
 21
-396.274019
 31
0.0
  0
LINE
  5
B9
100
AcDbEntity
  8
0
370
    -3
390
0
  6
CENTER
100
AcDbLine
 10
509.031953
 20
-287.273264
 30
0.0
 11
455.713331
 21
-287.273264
 31
0.0
  0
LINE
  5
BA
100
AcDbEntity
  8
0
370
    -3
390
0
  6
CENTER
100
AcDbLine
 10
481.553972
 20
-328.318715
 30
0.0
 11
481.553972
 21
-338.209695
 31
0.0
  0
LINE
  5
BB
100
AcDbEntity
  8
0
370
    -3
390
0
  6
CENTER
100
AcDbLine
 10
454.900593
 20
-339.544727
 30
0.0
 11
465.452234
 21
-344.242621
 31
0.0
  0
LINE
  5
BC
100
AcDbEntity
  8
0
370
    -3
390
0
  6
Continuous
100
AcDbLine
 10
-10.647403
 20
-171.637105
 30
0.0
 11
13.804229
 21
-126.49869
 31
0.0
  0
LINE
  5
BD
100
AcDbEntity
  8
0
370
    -3
390
0
  6
Continuous
100
AcDbLine
 10
20.813133
 20
-171.425278
 30
0.0
 11
-16.448547
 21
-173.37808
 31
0.0
  0
ARC
  5
BE
100
AcDbEntity
  8
0
370
    -3
390
0
  6
Continuous
100
AcDbCircle
 10
-13.285238
 20
-170.208181
 30
0.0
 40
3.0
100
AcDbArc
 50
273.0
 51
331.555446
  0
LINE
  5
BF
100
AcDbEntity
  8
0
370
    -3
390
0
  6
Continuous
100
AcDbLine
 10
54.551453
 20
-94.836888
 30
0.0
 11
64.051453
 21
-94.836888
 31
0.0
  0
LINE
  5
C0
100
AcDbEntity
  8
0
370
    -3
390
0
  6
Continuous
100
AcDbLine
 10
79.301453
 20
-91.836888
 30
0.0
 11
64.051453
 21
-91.836888
 31
0.0
  0
LINE
  5
C1
100
AcDbEntity
  8
0
370
    -3
390
0
  6
Continuous
100
AcDbLine
 10
80.051453
 20
-87.836888
 30
0.0
 11
64.051453
 21
-87.836888
 31
0.0
  0
LINE
  5
C2
100
AcDbEntity
  8
0
370
    -3
390
0
  6
Continuous
100
AcDbLine
 10
67.954408
 20
-76.836888
 30
0.0
 11
67.954408
 21
-86.836888
 31
0.0
  0
LINE
  5
C3
100
AcDbEntity
  8
0
370
    -3
390
0
  6
Continuous
100
AcDbLine
 10
77.051453
 20
-74.836888
 30
0.0
 11
64.051453
 21
-74.836888
 31
0.0
  0
LINE
  5
C4
100
AcDbEntity
  8
0
370
    -3
390
0
  6
Continuous
100
AcDbLine
 10
80.051453
 20
-76.836888
 30
0.0
 11
64.051453
 21
-76.836888
 31
0.0
  0
LINE
  5
C5
100
AcDbEntity
  8
0
370
    -3
390
0
  6
Continuous
100
AcDbLine
 10
67.954408
 20
-86.836888
 30
0.0
 11
64.051453
 21
-86.836888
 31
0.0
  0
LINE
  5
C6
100
AcDbEntity
  8
0
370
    -3
390
0
  6
Continuous
100
AcDbLine
 10
79.301453
 20
-88.836888
 30
0.0
 11
64.051453
 21
-88.836888
 31
0.0
  0
ARC
  5
C7
100
AcDbEntity
  8
0
370
    -3
390
0
  6
Continuous
100
AcDbCircle
 10
54.551453
 20
-93.336888
 30
0.0
 40
1.5
100
AcDbArc
 50
180.0
 51
270.0
  0
LINE
  5
C8
100
AcDbEntity
  8
0
370
    -3
390
0
  6
Continuous
100
AcDbLine
 10
51.051453
 20
-74.836888
 30
0.0
 11
64.051453
 21
-74.836888
 31
0.0
  0
LINE
  5
C9
100
AcDbEntity
  8
0
370
    -3
390
0
  6
Continuous
100
AcDbLine
 10
48.801453
 20
-91.836888
 30
0.0
 11
64.051453
 21
-91.836888
 31
0.0
  0
LINE
  5
CA
100
AcDbEntity
  8
0
370
    -3
390
0
  6
Continuous
100
AcDbLine
 10
48.051453
 20
-76.836888
 30
0.0
 11
64.051453
 21
-76.836888
 31
0.0
  0
LINE
  5
CB
100
AcDbEntity
  8
0
370
    -3
390
0
  6
Continuous
100
AcDbLine
 10
51.051453
 20
-74.836888
 30
0.0
 11
49.551453
 21
-76.836888
 31
0.0
  0
LINE
  5
CC
100
AcDbEntity
  8
0
370
    -3
390
0
  6
Continuous
100
AcDbLine
 10
48.051453
 20
-87.836888
 30
0.0
 11
48.051453
 21
-76.836888
 31
0.0
  0
LINE
  5
CD
100
AcDbEntity
  8
0
370
    -3
390
0
  6
Continuous
100
AcDbLine
 10
48.051453
 20
-87.836888
 30
0.0
 11
64.051453
 21
-87.836888
 31
0.0
  0
LINE
  5
CE
100
AcDbEntity
  8
0
370
    -3
390
0
  6
Continuous
100
AcDbLine
 10
51.051453
 20
-74.836888
 30
0.0
 11
49.551453
 21
-76.836888
 31
0.0
  0
LINE
  5
CF
100
AcDbEntity
  8
0
370
    -3
390
0
  6
Continuous
100
AcDbLine
 10
48.051453
 20
-87.836888
 30
0.0
 11
48.051453
 21
-76.836888
 31
0.0
  0
LINE
  5
D0
100
AcDbEntity
  8
0
370
    -3
390
0
  6
Continuous
100
AcDbLine
 10
48.051453
 20
-86.836888
 30
0.0
 11
48.534786
 21
-86.836888
 31
0.0
  0
LINE
  5
D1
100
AcDbEntity
  8
0
370
    -3
390
0
  6
Continuous
100
AcDbLine
 10
48.801453
 20
-88.836888
 30
0.0
 11
64.051453
 21
-88.836888
 31
0.0
  0
LINE
  5
D2
100
AcDbEntity
  8
0
370
    -3
390
0
  6
Continuous
100
AcDbLine
 10
48.801453
 20
-88.836888
 30
0.0
 11
48.801453
 21
-91.836888
 31
0.0
  0
ARC
  5
D3
100
AcDbEntity
  8
0
370
    -3
390
0
  6
Continuous
100
AcDbCircle
 10
54.551453
 20
-93.336888
 30
0.0
 40
1.5
100
AcDbArc
 50
90.0
 51
180.0
  0
LINE
  5
D4
100
AcDbEntity
  8
0
370
    -3
390
0
  6
Continuous
100
AcDbLine
 10
60.148498
 20
-76.836888
 30
0.0
 11
60.148498
 21
-86.836888
 31
0.0
  0
LINE
  5
D5
100
AcDbEntity
  8
0
370
    -3
390
0
  6
Continuous
100
AcDbLine
 10
55.839318
 20
-76.836888
 30
0.0
 11
55.839318
 21
-86.836888
 31
0.0
  0
LINE
  5
D6
100
AcDbEntity
  8
0
370
    -3
390
0
  6
Continuous
100
AcDbLine
 10
50.319707
 20
-76.836888
 30
0.0
 11
50.319707
 21
-86.836888
 31
0.0
  0
LINE
  5
D7
100
AcDbEntity
  8
0
370
    -3
390
0
  6
Continuous
100
AcDbLine
 10
48.534786
 20
-76.836888
 30
0.0
 11
48.534786
 21
-86.836888
 31
0.0
  0
LINE
  5
D8
100
AcDbEntity
  8
0
370
    -3
390
0
  6
Continuous
100
AcDbLine
 10
60.148498
 20
-86.836888
 30
0.0
 11
64.051453
 21
-86.836888
 31
0.0
  0
LINE
  5
D9
100
AcDbEntity
  8
0
370
    -3
390
0
  6
Continuous
100
AcDbLine
 10
50.319707
 20
-86.836888
 30
0.0
 11
55.839318
 21
-86.836888
 31
0.0
  0
LINE
  5
DA
100
AcDbEntity
  8
0
370
    -3
390
0
  6
Continuous
100
AcDbLine
 10
11.051453
 20
-120.273264
 30
0.0
 11
13.551489
 21
-120.273264
 31
0.0
  0
INSERT
  5
E6
100
AcDbEntity
  8
0
390
0
100
AcDbBlockReference
  2
ZU_SYM__USERS_HOME_SYMBOL_POO_SYM_B20_18
 10
11.051453
 20
-110.273264
 30
0.0
  0
LINE
  5
E7
100
AcDbEntity
  8
0
370
    -3
390
0
  6
Continuous
100
AcDbLine
 10
11.051453
 20
-120.273264
 30
0.0
 11
11.051453
 21
-62.273264
 31
0.0
  0
LINE
  5
E8
100
AcDbEntity
  8
0
370
    -3
390
0
  6
Continuous
100
AcDbLine
 10
11.051453
 20
-62.273264
 30
0.0
 11
15.551453
 21
-62.273264
 31
0.0
  0
LINE
  5
E9
100
AcDbEntity
  8
0
370
    -3
390
0
  6
Continuous
100
AcDbLine
 10
15.551453
 20
-62.273264
 30
0.0
 11
15.551453
 21
-100.273264
 31
0.0
  0
LINE
  5
EA
100
AcDbEntity
  8
0
370
    -3
390
0
  6
CENTER
100
AcDbLine
 10
5.321206
 20
-82.273264
 30
0.0
 11
23.420472
 21
-82.273264
 31
0.0
  0
LINE
  5
EB
100
AcDbEntity
  8
0
370
    -3
390
0
  6
Continuous
100
AcDbLine
 10
25.551453
 20
-287.273264
 30
0.0
 11
25.551453
 21
-100.273264
 31
0.0
  0
LINE
  5
EC
100
AcDbEntity
  8
0
370
    -3
390
0
  6
Continuous
100
AcDbLine
 10
18.551453
 20
-97.273264
 30
0.0
 11
38.551453
 21
-97.273264
 31
0.0
  0
ARC
  5
ED
100
AcDbEntity
  8
0
370
    -3
390
0
  6
Continuous
100
AcDbCircle
 10
28.551453
 20
-100.273264
 30
0.0
 40
3.0
100
AcDbArc
 50
90.0
 51
180.0
  0
INSERT
  5
F9
100
AcDbEntity
  8
0
390
0
100
AcDbBlockReference
  2
ZU_SYM__USERS_HOME_SYMBOL_POO_SYM_B20_20
 10
25.551453
 20
-118.273264
 30
0.0
  0
ARC
  5
FA
100
AcDbEntity
  8
0
370
    -3
390
0
  6
Continuous
100
AcDbCircle
 10
18.551453
 20
-100.273264
 30
0.0
 40
3.0
100
AcDbArc
 50
90.0
 51
180.0
  0
LINE
  5
FB
100
AcDbEntity
  8
0
370
    -3
390
0
  6
Continuous
100
AcDbLine
 10
15.551453
 20
-100.273264
 30
0.0
 11
15.551453
 21
-109.273264
 31
0.0
  0
LINE
  5
FC
100
AcDbEntity
  8
0
370
    -3
390
0
  6
Continuous
100
AcDbLine
 10
38.551453
 20
-97.273264
 30
0.0
 11
39.051453
 21
-97.273264
 31
0.0
  0
LINE
  5
FD
100
AcDbEntity
  8
0
370
    -3
390
0
  6
Continuous
100
AcDbLine
 10
38.551453
 20
-287.273264
 30
0.0
 11
38.551453
 21
-97.273264
 31
0.0
  0
ARC
  5
FE
100
AcDbEntity
  8
0
370
    -3
390
0
  6
Continuous
100
AcDbCircle
 10
45.553278
 20
-96.045606
 30
0.0
 40
1.0
100
AcDbArc
 50
272.0
 51
357.723663
  0
ARC
  5
FF
100
AcDbEntity
  8
0
370
    -3
390
0
  6
Continuous
100
AcDbCircle
 10
47.5517
 20
-96.125044
 30
0.0
 40
1.0
100
AcDbArc
 50
91.0
 51
177.723663
  0
LINE
  5
100
100
AcDbEntity
  8
0
370
    -3
390
0
  6
CENTER
100
AcDbLine
 10
64.051453
 20
-100.937477
 30
0.0
 11
64.051453
 21
-72.406363
 31
0.0
  0
LINE
  5
101
100
AcDbEntity
  8
0
370
    -3
390
0
  6
Continuous
100
AcDbLine
 10
47.534248
 20
-95.125197
 30
0.0
 11
153.561577
 21
-93.274483
 31
0.0
  0
LINE
  5
102
100
AcDbEntity
  8
0
370
    -3
390
0
  6
Continuous
100
AcDbLine
 10
39.051453
 20
-97.273264
 30
0.0
 11
175.14332
 21
-92.520832
 31
0.0
  0
LINE
  5
103
100
AcDbEntity
  8
0
370
    -3
390
0
  6
Continuous
100
AcDbLine
 10
39.051453
 20
-454.273264
 30
0.0
 11
39.051453
 21
-97.273264
 31
0.0
  0
LINE
  5
104
100
AcDbEntity
  8
0
370
    -3
390
0
  6
CENTER
100
AcDbLine
 10
237.93168
 20
-32.818899
 30
0.0
 11
196.97085
 21
-32.818899
 31
0.0
  0
ARC
  5
105
100
AcDbEntity
  8
0
370
    -3
390
0
  6
Continuous
100
AcDbCircle
 10
73.551453
 20
-93.336888
 30
0.0
 40
1.5
100
AcDbArc
 50
298.212605
 51
0.0
  0
LINE
  5
106
100
AcDbEntity
  8
0
370
    -3
390
0
  6
Continuous
100
AcDbLine
 10
77.051453
 20
-74.836888
 30
0.0
 11
78.551453
 21
-76.836888
 31
0.0
  0
LINE
  5
107
100
AcDbEntity
  8
0
370
    -3
390
0
  6
Continuous
100
AcDbLine
 10
80.051453
 20
-87.836888
 30
0.0
 11
80.051453
 21
-76.836888
 31
0.0
  0
LINE
  5
108
100
AcDbEntity
  8
0
370
    -3
390
0
  6
Continuous
100
AcDbLine
 10
77.051453
 20
-74.836888
 30
0.0
 11
78.551453
 21
-76.836888
 31
0.0
  0
LINE
  5
109
100
AcDbEntity
  8
0
370
    -3
390
0
  6
Continuous
100
AcDbLine
 10
80.051453
 20
-87.836888
 30
0.0
 11
80.051453
 21
-76.836888
 31
0.0
  0
LINE
  5
10A
100
AcDbEntity
  8
0
370
    -3
390
0
  6
Continuous
100
AcDbLine
 10
80.051453
 20
-86.836888
 30
0.0
 11
79.56812
 21
-86.836888
 31
0.0
  0
LINE
  5
10B
100
AcDbEntity
  8
0
370
    -3
390
0
  6
Continuous
100
AcDbLine
 10
79.301453
 20
-88.836888
 30
0.0
 11
79.301453
 21
-91.836888
 31
0.0
  0
ARC
  5
10C
100
AcDbEntity
  8
0
370
    -3
390
0
  6
Continuous
100
AcDbCircle
 10
73.551453
 20
-93.336888
 30
0.0
 40
1.5
100
AcDbArc
 50
0.0
 51
90.0
  0
LINE
  5
10D
100
AcDbEntity
  8
0
370
    -3
390
0
  6
Continuous
100
AcDbLine
 10
72.263587
 20
-76.836888
 30
0.0
 11
72.263587
 21
-86.836888
 31
0.0
  0
LINE
  5
10E
100
AcDbEntity
  8
0
370
    -3
390
0
  6
Continuous
100
AcDbLine
 10
77.783199
 20
-76.836888
 30
0.0
 11
77.783199
 21
-86.836888
 31
0.0
  0
LINE
  5
10F
100
AcDbEntity
  8
0
370
    -3
390
0
  6
Continuous
100
AcDbLine
 10
79.56812
 20
-76.836888
 30
0.0
 11
79.56812
 21
-86.836888
 31
0.0
  0
LINE
  5
110
100
AcDbEntity
  8
0
370
    -3
390
0
  6
Continuous
100
AcDbLine
 10
77.783199
 20
-86.836888
 30
0.0
 11
72.263587
 21
-86.836888
 31
0.0
  0
LINE
  5
111
100
AcDbEntity
  8
0
370
    -3
390
0
  6
Continuous
100
AcDbLine
 10
230.051453
 20
-17.273264
 30
0.0
 11
231.051453
 21
-18.273264
 31
0.0
  0
ARC
  5
112
100
AcDbEntity
  8
0
370
    -3
390
0
  6
Continuous
100
AcDbCircle
 10
152.387231
 20
-88.294219
 30
0.0
 40
5.0
100
AcDbArc
 50
271.0
 51
330.0
  0
ARC
  5
113
100
AcDbEntity
  8
0
370
    -3
390
0
  6
Continuous
100
AcDbCircle
 10
197.051453
 20
-10.933518
 30
0.0
 40
5.0
100
AcDbArc
 50
330.0
 51
0.0
  0
LINE
  5
114
100
AcDbEntity
  8
0
370
    -3
390
0
  6
Continuous
100
AcDbLine
 10
201.38158
 20
-13.433518
 30
0.0
 11
156.717358
 21
-90.794219
 31
0.0
  0
LINE
  5
115
100
AcDbEntity
  8
0
370
    -3
390
0
  6
Continuous
100
AcDbLine
 10
216.051453
 20
-220.273264
 30
0.0
 11
216.051453
 21
-53.770739
 31
0.0
  0
LINE
  5
116
100
AcDbEntity
  8
0
370
    -3
390
0
  6
Continuous
100
AcDbLine
 10
202.051453
 20
-449.273264
 30
0.0
 11
202.051453
 21
-5.273264
 31
0.0
  0
LINE
  5
117
100
AcDbEntity
  8
0
370
    -3
390
0
  6
Continuous
100
AcDbLine
 10
231.051453
 20
-227.273264
 30
0.0
 11
231.051453
 21
-18.273264
 31
0.0
  0
LINE
  5
118
100
AcDbEntity
  8
0
370
    -3
390
0
  6
Continuous
100
AcDbLine
 10
230.051453
 20
-17.273264
 30
0.0
 11
226.051453
 21
-17.273264
 31
0.0
  0
LINE
  5
119
100
AcDbEntity
  8
0
370
    -3
390
0
  6
Continuous
100
AcDbLine
 10
226.051453
 20
-227.273264
 30
0.0
 11
226.051453
 21
-2.273264
 31
0.0
  0
LINE
  5
11A
100
AcDbEntity
  8
0
370
    -3
390
0
  6
Continuous
100
AcDbLine
 10
226.051453
 20
-51.770739
 30
0.0
 11
218.051453
 21
-51.770739
 31
0.0
  0
LINE
  5
11B
100
AcDbEntity
  8
0
370
    -3
390
0
  6
Continuous
100
AcDbLine
 10
226.051453
 20
-102.022002
 30
0.0
 11
218.051453
 21
-102.022002
 31
0.0
  0
ARC
  5
11C
100
AcDbEntity
  8
0
370
    -3
390
0
  6
Continuous
100
AcDbCircle
 10
218.051453
 20
-104.022002
 30
0.0
 40
2.0
100
AcDbArc
 50
90.0
 51
180.0
  0
ARC
  5
11D
100
AcDbEntity
  8
0
370
    -3
390
0
  6
Continuous
100
AcDbCircle
 10
218.051453
 20
-53.770739
 30
0.0
 40
2.0
100
AcDbArc
 50
90.0
 51
180.0
  0
LINE
  5
11E
100
AcDbEntity
  8
0
370
    -3
390
0
  6
Continuous
100
AcDbLine
 10
194.894869
 20
-124.228688
 30
0.0
 11
162.234238
 21
-124.228688
 31
0.0
  0
LINE
  5
11F
100
AcDbEntity
  8
0
370
    -3
390
0
  6
Continuous
100
AcDbLine
 10
156.8222
 20
-122.337808
 30
0.0
 11
200.967238
 21
-66.739292
 31
0.0
  0
ARC
  5
120
100
AcDbEntity
  8
0
370
    -3
390
0
  6
Continuous
100
AcDbCircle
 10
197.051453
 20
-63.630172
 30
0.0
 40
5.0
100
AcDbArc
 50
321.55054
 51
0.0
  0
ARC
  5
121
100
AcDbEntity
  8
0
370
    -3
390
0
  6
Continuous
100
AcDbCircle
 10
152.906415
 20
-119.228688
 30
0.0
 40
5.0
100
AcDbArc
 50
270.0
 51
321.55054
  0
LINE
  5
122
100
AcDbEntity
  8
0
370
    -3
390
0
  6
Continuous
100
AcDbLine
 10
156.8222
 20
-115.595387
 30
0.0
 11
200.967238
 21
-59.996871
 31
0.0
  0
ARC
  5
123
100
AcDbEntity
  8
0
370
    -3
390
0
  6
Continuous
100
AcDbCircle
 10
197.051453
 20
-56.887751
 30
0.0
 40
5.0
100
AcDbArc
 50
321.55054
 51
0.0
  0
ARC
  5
124
100
AcDbEntity
  8
0
370
    -3
390
0
  6
Continuous
100
AcDbCircle
 10
152.906415
 20
-112.486266
 30
0.0
 40
5.0
100
AcDbArc
 50
270.0
 51
321.55054
  0
ARC
  5
125
100
AcDbEntity
  8
0
370
    -3
390
0
  6
Continuous
100
AcDbCircle
 10
205.051453
 20
-5.273264
 30
0.0
 40
3.0
100
AcDbArc
 50
90.0
 51
180.0
  0
LINE
  5
126
100
AcDbEntity
  8
0
370
    -3
390
0
  6
Continuous
100
AcDbLine
 10
226.051453
 20
-2.273264
 30
0.0
 11
205.051453
 21
-2.273264
 31
0.0
  0
LINE
  5
127
100
AcDbEntity
  8
0
370
    -3
390
0
  6
Continuous
100
AcDbLine
 10
231.051453
 20
-227.273264
 30
0.0
 11
231.051453
 21
-436.273264
 31
0.0
  0
LINE
  5
128
100
AcDbEntity
  8
0
370
    -3
390
0
  6
Continuous
100
AcDbLine
 10
226.051453
 20
-227.273264
 30
0.0
 11
226.051453
 21
-452.273264
 31
0.0
  0
ARC
  5
129
100
AcDbEntity
  8
0
370
    -3
390
0
  6
Continuous
100
AcDbCircle
 10
231.051453
 20
-304.426371
 30
0.0
 40
3.0
100
AcDbArc
 50
273.0
 51
0.0
  0
LINE
  5
12A
100
AcDbEntity
  8
0
370
    -3
390
0
  6
Continuous
100
AcDbLine
 10
236.051453
 20
-279.773264
 30
0.0
 11
235.051453
 21
-279.773264
 31
0.0
  0
LINE
  5
12B
100
AcDbEntity
  8
0
370
    -3
390
0
  6
Continuous
100
AcDbLine
 10
236.051453
 20
-174.773264
 30
0.0
 11
235.051453
 21
-174.773264
 31
0.0
  0
ARC
  5
12C
100
AcDbEntity
  8
0
370
    -3
390
0
  6
Continuous
100
AcDbCircle
 10
231.051453
 20
-150.120158
 30
0.0
 40
3.0
100
AcDbArc
 50
0.0
 51
87.0
  0
LINE
  5
12D
100
AcDbEntity
  8
0
370
    -3
390
0
  6
CENTER
100
AcDbLine
 10
336.192532
 20
-227.273264
 30
0.0
 11
167.313076
 21
-227.273264
 31
0.0
  0
LINE
  5
12E
100
AcDbEntity
  8
0
370
    -3
390
0
  6
Continuous
100
AcDbLine
 10
234.051453
 20
-227.273264
 30
0.0
 11
234.051453
 21
-150.120158
 31
0.0
  0
LINE
  5
12F
100
AcDbEntity
  8
0
370
    -3
390
0
  6
Continuous
100
AcDbLine
 10
234.051453
 20
-227.273264
 30
0.0
 11
234.051453
 21
-304.426371
 31
0.0
  0
ARC
  5
130
100
AcDbEntity
  8
0
370
    -3
390
0
  6
Continuous
100
AcDbCircle
 10
235.051453
 20
-280.773264
 30
0.0
 40
1.0
100
AcDbArc
 50
90.0
 51
180.0
  0
ARC
  5
131
100
AcDbEntity
  8
0
370
    -3
390
0
  6
Continuous
100
AcDbCircle
 10
235.051453
 20
-173.773264
 30
0.0
 40
1.0
100
AcDbArc
 50
180.0
 51
270.0
  0
LINE
  5
132
100
AcDbEntity
  8
0
370
    -3
390
0
  6
Continuous
100
AcDbLine
 10
236.051453
 20
-279.773264
 30
0.0
 11
236.051453
 21
-174.773264
 31
0.0
  0
LINE
  5
133
100
AcDbEntity
  8
0
370
    -3
390
0
  6
Continuous
100
AcDbLine
 10
231.208461
 20
-147.124269
 30
0.0
 11
231.051453
 21
-147.124269
 31
0.0
  0
LINE
  5
134
100
AcDbEntity
  8
0
370
    -3
390
0
  6
Continuous
100
AcDbLine
 10
231.208461
 20
-307.422259
 30
0.0
 11
231.051453
 21
-307.422259
 31
0.0
  0
LINE
  5
135
100
AcDbEntity
  8
0
370
    -3
390
0
  6
Continuous
100
AcDbLine
 10
226.051453
 20
-222.273264
 30
0.0
 11
218.051453
 21
-222.273264
 31
0.0
  0
ARC
  5
136
100
AcDbEntity
  8
0
370
    -3
390
0
  6
Continuous
100
AcDbCircle
 10
218.051453
 20
-220.273264
 30
0.0
 40
2.0
100
AcDbArc
 50
180.0
 51
270.0
  0
LINE
  5
137
100
AcDbEntity
  8
0
370
    -3
390
0
  6
Continuous
100
AcDbLine
 10
226.051453
 20
-232.273264
 30
0.0
 11
218.051453
 21
-232.273264
 31
0.0
  0
LINE
  5
138
100
AcDbEntity
  8
0
370
    -3
390
0
  6
Continuous
100
AcDbLine
 10
216.051453
 20
-234.273264
 30
0.0
 11
216.051453
 21
-400.77579
 31
0.0
  0
ARC
  5
139
100
AcDbEntity
  8
0
370
    -3
390
0
  6
Continuous
100
AcDbCircle
 10
218.051453
 20
-234.273264
 30
0.0
 40
2.0
100
AcDbArc
 50
90.0
 51
180.0
  0
ARC
  5
13A
100
AcDbEntity
  8
0
370
    -3
390
0
  6
Continuous
100
AcDbCircle
 10
268.051438
 20
-227.273264
 30
0.0
 40
9.0
100
AcDbArc
 50
90.0
 51
270.0
  0
LINE
  5
13B
100
AcDbEntity
  8
0
370
    -3
390
0
  6
Continuous
100
AcDbLine
 10
268.051438
 20
-236.273264
 30
0.0
 11
331.051438
 21
-236.273264
 31
0.0
  0
LINE
  5
13C
100
AcDbEntity
  8
0
370
    -3
390
0
  6
Continuous
100
AcDbLine
 10
268.051438
 20
-218.273264
 30
0.0
 11
331.051438
 21
-218.273264
 31
0.0
  0
LINE
  5
13D
100
AcDbEntity
  8
0
370
    -3
390
0
  6
Continuous
100
AcDbLine
 10
240.251438
 20
-258.773264
 30
0.0
 11
236.051438
 21
-258.773264
 31
0.0
  0
LINE
  5
13E
100
AcDbEntity
  8
0
370
    -3
390
0
  6
Continuous
100
AcDbLine
 10
330.251438
 20
-257.273264
 30
0.0
 11
243.611245
 21
-257.273264
 31
0.0
  0
LINE
  5
13F
100
AcDbEntity
  8
0
370
    -3
390
0
  6
Continuous
100
AcDbLine
 10
241.051438
 20
-227.273264
 30
0.0
 11
241.051438
 21
-257.973264
 31
0.0
  0
LINE
  5
140
100
AcDbEntity
  8
0
370
    -3
390
0
  6
Continuous
100
AcDbLine
 10
241.051438
 20
-257.973264
 30
0.0
 11
240.251438
 21
-258.773264
 31
0.0
  0
ARC
  5
141
100
AcDbEntity
  8
0
370
    -3
390
0
  6
Continuous
100
AcDbCircle
 10
241.851438
 20
-257.923264
 30
0.0
 40
0.8
100
AcDbArc
 50
90.0
 51
180.0
  0
LINE
  5
142
100
AcDbEntity
  8
0
370
    -3
390
0
  6
Continuous
100
AcDbLine
 10
243.611245
 20
-257.273264
 30
0.0
 11
243.051438
 21
-257.123264
 31
0.0
  0
LINE
  5
143
100
AcDbEntity
  8
0
370
    -3
390
0
  6
Continuous
100
AcDbLine
 10
243.051438
 20
-257.123264
 30
0.0
 11
241.851438
 21
-257.123264
 31
0.0
  0
LINE
  5
144
100
AcDbEntity
  8
0
370
    -3
390
0
  6
Continuous
100
AcDbLine
 10
240.251438
 20
-195.773264
 30
0.0
 11
236.051438
 21
-195.773264
 31
0.0
  0
LINE
  5
145
100
AcDbEntity
  8
0
370
    -3
390
0
  6
Continuous
100
AcDbLine
 10
241.051438
 20
-227.273264
 30
0.0
 11
241.051438
 21
-196.573264
 31
0.0
  0
LINE
  5
146
100
AcDbEntity
  8
0
370
    -3
390
0
  6
Continuous
100
AcDbLine
 10
241.051438
 20
-196.573264
 30
0.0
 11
240.251438
 21
-195.773264
 31
0.0
  0
ARC
  5
147
100
AcDbEntity
  8
0
370
    -3
390
0
  6
Continuous
100
AcDbCircle
 10
241.851438
 20
-196.623264
 30
0.0
 40
0.8
100
AcDbArc
 50
180.0
 51
270.0
  0
LINE
  5
148
100
AcDbEntity
  8
0
370
    -3
390
0
  6
Continuous
100
AcDbLine
 10
243.611245
 20
-197.273264
 30
0.0
 11
243.051438
 21
-197.423264
 31
0.0
  0
LINE
  5
149
100
AcDbEntity
  8
0
370
    -3
390
0
  6
Continuous
100
AcDbLine
 10
243.051438
 20
-197.423264
 30
0.0
 11
241.851438
 21
-197.423264
 31
0.0
  0
LINE
  5
14A
100
AcDbEntity
  8
0
370
    -3
390
0
  6
Continuous
100
AcDbLine
 10
331.051438
 20
-227.273264
 30
0.0
 11
331.051438
 21
-256.473264
 31
0.0
  0
ARC
  5
14B
100
AcDbEntity
  8
0
370
    -3
390
0
  6
Continuous
100
AcDbCircle
 10
330.251438
 20
-256.473264
 30
0.0
 40
0.8
100
AcDbArc
 50
270.0
 51
0.0
  0
LINE
  5
14C
100
AcDbEntity
  8
0
370
    -3
390
0
  6
Continuous
100
AcDbLine
 10
331.051438
 20
-227.273264
 30
0.0
 11
331.051438
 21
-198.073264
 31
0.0
  0
LINE
  5
14D
100
AcDbEntity
  8
0
370
    -3
390
0
  6
Continuous
100
AcDbLine
 10
330.251438
 20
-197.273264
 30
0.0
 11
243.611245
 21
-197.273264
 31
0.0
  0
ARC
  5
14E
100
AcDbEntity
  8
0
370
    -3
390
0
  6
Continuous
100
AcDbCircle
 10
330.251438
 20
-198.073264
 30
0.0
 40
0.8
100
AcDbArc
 50
0.0
 51
90.0
  0
LINE
  5
14F
100
AcDbEntity
  8
0
370
    -3
390
0
  6
CENTER
100
AcDbLine
 10
234.249808
 20
-421.727629
 30
0.0
 11
193.749211
 21
-421.727629
 31
0.0
  0
LINE
  5
150
100
AcDbEntity
  8
0
370
    -3
390
0
  6
Continuous
100
AcDbLine
 10
231.051453
 20
-436.273264
 30
0.0
 11
230.051453
 21
-437.273264
 31
0.0
  0
ARC
  5
151
100
AcDbEntity
  8
0
370
    -3
390
0
  6
Continuous
100
AcDbCircle
 10
212.051453
 20
-455.273264
 30
0.0
 40
3.0
100
AcDbArc
 50
90.0
 51
180.0
  0
ARC
  5
152
100
AcDbEntity
  8
0
370
    -3
390
0
  6
Continuous
100
AcDbCircle
 10
205.051453
 20
-456.129597
 30
0.0
 40
4.0
100
AcDbArc
 50
267.978635
 51
0.0
  0
LINE
  5
153
100
AcDbEntity
  8
0
370
    -3
390
0
  6
Continuous
100
AcDbLine
 10
39.051453
 20
-454.273264
 30
0.0
 11
204.910364
 21
-460.127108
 31
0.0
  0
LINE
  5
154
100
AcDbEntity
  8
0
370
    -3
390
0
  6
Continuous
100
AcDbLine
 10
209.051453
 20
-455.273264
 30
0.0
 11
209.051453
 21
-456.129597
 31
0.0
  0
LINE
  5
155
100
AcDbEntity
  8
0
370
    -3
390
0
  6
Continuous
100
AcDbLine
 10
205.051453
 20
-452.273264
 30
0.0
 11
226.051453
 21
-452.273264
 31
0.0
  0
LINE
  5
156
100
AcDbEntity
  8
0
370
    -3
390
0
  6
Continuous
100
AcDbLine
 10
230.051453
 20
-437.273264
 30
0.0
 11
226.051453
 21
-437.273264
 31
0.0
  0
ARC
  5
157
100
AcDbEntity
  8
0
370
    -3
390
0
  6
Continuous
100
AcDbCircle
 10
205.051453
 20
-449.273264
 30
0.0
 40
3.0
100
AcDbArc
 50
180.0
 51
270.0
  0
ARC
  5
158
100
AcDbEntity
  8
0
370
    -3
390
0
  6
Continuous
100
AcDbCircle
 10
158.051453
 20
-416.452848
 30
0.0
 40
5.0
100
AcDbArc
 50
0.0
 51
87.978635
  0
ARC
  5
159
100
AcDbEntity
  8
0
370
    -3
390
0
  6
Continuous
100
AcDbCircle
 10
197.051453
 20
-417.829319
 30
0.0
 40
5.0
100
AcDbArc
 50
0.0
 51
87.978635
  0
LINE
  5
15A
100
AcDbEntity
  8
0
370
    -3
390
0
  6
Continuous
100
AcDbLine
 10
39.051453
 20
-407.249735
 30
0.0
 11
197.227814
 21
-412.83243
 31
0.0
  0
LINE
  5
15B
100
AcDbEntity
  8
0
370
    -3
390
0
  6
Continuous
100
AcDbLine
 10
163.051453
 20
-425.273264
 30
0.0
 11
163.051453
 21
-416.452848
 31
0.0
  0
LINE
  5
15C
100
AcDbEntity
  8
0
370
    -3
390
0
  6
Continuous
100
AcDbLine
 10
181.05707
 20
-444.247225
 30
0.0
 11
200.156125
 21
-445.248165
 31
0.0
  0
ARC
  5
15D
100
AcDbEntity
  8
0
370
    -3
390
0
  6
Continuous
100
AcDbCircle
 10
182.051453
 20
-425.273264
 30
0.0
 40
19.0
100
AcDbArc
 50
180.0
 51
267.0
  0
LINE
  5
15E
100
AcDbEntity
  8
0
370
    -3
390
0
  6
CENTER
100
AcDbLine
 10
182.051453
 20
-451.793427
 30
0.0
 11
182.051453
 21
-468.274229
 31
0.0
  0
ARC
  5
15F
100
AcDbEntity
  8
0
370
    -3
390
0
  6
Continuous
100
AcDbCircle
 10
200.051453
 20
-447.245424
 30
0.0
 40
2.0
100
AcDbArc
 50
0.0
 51
87.0
  0
LINE
  5
160
100
AcDbEntity
  8
0
370
    -3
390
0
  6
Continuous
100
AcDbLine
 10
226.051453
 20
-352.524527
 30
0.0
 11
218.051453
 21
-352.524527
 31
0.0
  0
LINE
  5
161
100
AcDbEntity
  8
0
370
    -3
390
0
  6
Continuous
100
AcDbLine
 10
226.051453
 20
-402.77579
 30
0.0
 11
218.051453
 21
-402.77579
 31
0.0
  0
ARC
  5
162
100
AcDbEntity
  8
0
370
    -3
390
0
  6
Continuous
100
AcDbCircle
 10
218.051453
 20
-400.77579
 30
0.0
 40
2.0
100
AcDbArc
 50
180.0
 51
270.0
  0
ARC
  5
163
100
AcDbEntity
  8
0
370
    -3
390
0
  6
Continuous
100
AcDbCircle
 10
218.051453
 20
-350.524527
 30
0.0
 40
2.0
100
AcDbArc
 50
180.0
 51
270.0
  0
LINE
  5
164
100
AcDbEntity
  8
0
370
    -3
390
0
  6
Continuous
100
AcDbLine
 10
25.551453
 20
-287.273264
 30
0.0
 11
25.551453
 21
-451.273264
 31
0.0
  0
LINE
  5
165
100
AcDbEntity
  8
0
370
    -3
390
0
  6
Continuous
100
AcDbLine
 10
28.551453
 20
-454.273264
 30
0.0
 11
38.551453
 21
-454.273264
 31
0.0
  0
ARC
  5
166
100
AcDbEntity
  8
0
370
    -3
390
0
  6
Continuous
100
AcDbCircle
 10
28.551453
 20
-451.273264
 30
0.0
 40
3.0
100
AcDbArc
 50
180.0
 51
270.0
  0
INSERT
  5
172
100
AcDbEntity
  8
0
390
0
100
AcDbBlockReference
  2
ZU_SYM__USERS_HOME_SYMBOL_POO_SYM_B20_0000120
 10
25.551453
 20
-398.273264
 30
0.0
  0
INSERT
  5
17E
100
AcDbEntity
  8
0
390
0
100
AcDbBlockReference
  2
ZU_SYM__USERS_HOME_SYMBOL_POO_SYM_B20_0000220
 10
25.551453
 20
-442.273264
 30
0.0
  0
LINE
  5
17F
100
AcDbEntity
  8
0
370
    -3
390
0
  6
Continuous
100
AcDbLine
 10
13.551492
 20
-402.740684
 30
0.0
 11
-16.448547
 21
-401.168449
 31
0.0
  0
LINE
  5
180
100
AcDbEntity
  8
0
370
    -3
390
0
  6
Continuous
100
AcDbLine
 10
38.551453
 20
-454.273264
 30
0.0
 11
39.051453
 21
-454.273264
 31
0.0
  0
LINE
  5
181
100
AcDbEntity
  8
0
370
    -3
390
0
  6
Continuous
100
AcDbLine
 10
38.551453
 20
-287.273264
 30
0.0
 11
38.551453
 21
-454.273264
 31
0.0
  0
CIRCLE
  5
182
100
AcDbEntity
  8
0
370
    -3
390
0
  6
Continuous
100
AcDbCircle
 10
59.051468
 20
-360.273264
 30
0.0
 40
15.0
  0
LINE
  5
183
100
AcDbEntity
  8
0
370
    -3
390
0
  6
CENTER
100
AcDbLine
 10
59.051453
 20
-341.117846
 30
0.0
 11
59.051453
 21
-382.999145
 31
0.0
  0
LINE
  5
184
100
AcDbEntity
  8
0
370
    -3
390
0
  6
CENTER
100
AcDbLine
 10
80.0714
 20
-360.273264
 30
0.0
 11
40.031037
 21
-360.273264
 31
0.0
  0
LINE
  5
185
100
AcDbEntity
  8
0
370
    -3
390
0
  6
Continuous
100
AcDbLine
 10
20.551453
 20
-203.273264
 30
0.0
 11
20.551453
 21
-213.273264
 31
0.0
  0
LINE
  5
186
100
AcDbEntity
  8
0
370
    -3
390
0
  6
Continuous
100
AcDbLine
 10
20.551453
 20
-223.273264
 30
0.0
 11
20.551453
 21
-213.273264
 31
0.0
  0
ARC
  5
187
100
AcDbEntity
  8
0
370
    -3
390
0
  6
Continuous
100
AcDbCircle
 10
23.551453
 20
-223.273264
 30
0.0
 40
3.0
100
AcDbArc
 50
180.0
 51
260.405932
  0
ARC
  5
188
100
AcDbEntity
  8
0
370
    -3
390
0
  6
Continuous
100
AcDbCircle
 10
22.551453
 20
-229.189344
 30
0.0
 40
3.0
100
AcDbArc
 50
0.0
 51
80.405932
  0
ARC
  5
189
100
AcDbEntity
  8
0
370
    -3
390
0
  6
Continuous
100
AcDbCircle
 10
23.551453
 20
-203.273264
 30
0.0
 40
3.0
100
AcDbArc
 50
99.594068
 51
180.0
  0
ARC
  5
18A
100
AcDbEntity
  8
0
370
    -3
390
0
  6
Continuous
100
AcDbCircle
 10
22.551453
 20
-197.357185
 30
0.0
 40
3.0
100
AcDbArc
 50
279.594068
 51
0.0
  0
INSERT
  5
196
100
AcDbEntity
  8
0
390
0
100
AcDbBlockReference
  2
ZU_SYM__USERS_HOME_SYMBOL_POO_SYM_B20_0000320
 10
25.551453
 20
-258.273264
 30
0.0
  0
ARC
  5
197
100
AcDbEntity
  8
0
370
    -3
390
0
  6
CENTER
100
AcDbCircle
 10
628.553972
 20
-227.273264
 30
0.0
 40
275.0
100
AcDbArc
 50
128.693647
 51
140.926883
  0
LINE
  5
198
100
AcDbEntity
  8
0
370
    -3
390
0
  6
CENTER
100
AcDbLine
 10
413.446251
 20
-12.165543
 30
0.0
 11
454.913114
 21
-53.632407
 31
0.0
  0
LINE
  5
199
100
AcDbEntity
  8
0
370
    -3
390
0
  6
CENTER
100
AcDbLine
 10
843.661693
 20
-12.165543
 30
0.0
 11
802.19483
 21
-53.632407
 31
0.0
  0
ARC
  5
19A
100
AcDbEntity
  8
0
370
    -3
390
0
  6
Continuous
100
AcDbCircle
 10
628.553972
 20
-697.273264
 30
0.0
 40
593.892063
100
AcDbArc
 50
91.422993
 51
93.489726
  0
ARC
  5
19B
100
AcDbEntity
  8
0
370
    -3
390
0
  6
Continuous
100
AcDbCircle
 10
600.553972
 20
-238.126229
 30
0.0
 40
133.892063
100
AcDbArc
 50
93.489726
 51
168.191719
  0
ARC
  5
19C
100
AcDbEntity
  8
0
370
    -3
390
0
  6
Continuous
100
AcDbCircle
 10
656.553972
 20
-238.126229
 30
0.0
 40
133.892063
100
AcDbArc
 50
11.808281
 51
86.510274
  0
ARC
  5
19D
100
AcDbEntity
  8
0
370
    -3
390
0
  6
Continuous
100
AcDbCircle
 10
628.553972
 20
-697.273264
 30
0.0
 40
593.892063
100
AcDbArc
 50
86.510274
 51
88.577007
  0
CIRCLE
  5
19E
100
AcDbEntity
  8
0
370
    -3
390
0
  6
Continuous
100
AcDbCircle
 10
628.553972
 20
-227.273264
 30
0.0
 40
52.5
  0
ARC
  5
19F
100
AcDbEntity
  8
0
370
    -3
390
0
  6
Continuous
100
AcDbCircle
 10
432.784337
 20
-236.773264
 30
0.0
 40
5.0
100
AcDbArc
 50
90.0
 51
182.77818
  0
ARC
  5
1A0
100
AcDbEntity
  8
0
370
    -3
390
0
  6
Continuous
100
AcDbCircle
 10
432.784337
 20
-217.773264
 30
0.0
 40
5.0
100
AcDbArc
 50
177.22182
 51
270.0
  0
ARC
  5
1A1
100
AcDbEntity
  8
0
370
    -3
390
0
  6
Continuous
100
AcDbCircle
 10
619.053972
 20
-31.503629
 30
0.0
 40
5.0
100
AcDbArc
 50
0.0
 51
92.77818
  0
ARC
  5
1A2
100
AcDbEntity
  8
0
370
    -3
390
0
  6
Continuous
100
AcDbCircle
 10
638.053972
 20
-31.503629
 30
0.0
 40
5.0
100
AcDbArc
 50
87.22182
 51
180.0
  0
ARC
  5
1A3
100
AcDbEntity
  8
0
370
    -3
390
0
  6
Continuous
100
AcDbCircle
 10
824.323607
 20
-236.773264
 30
0.0
 40
5.0
100
AcDbArc
 50
357.22182
 51
90.0
  0
ARC
  5
1A4
100
AcDbEntity
  8
0
370
    -3
390
0
  6
Continuous
100
AcDbCircle
 10
824.323607
 20
-217.773264
 30
0.0
 40
5.0
100
AcDbArc
 50
270.0
 51
2.77818
  0
CIRCLE
  5
1A5
100
AcDbEntity
  8
0
370
    -3
390
0
  6
Continuous
100
AcDbCircle
 10
628.553972
 20
-227.273264
 30
0.0
 40
201.0
  0
ARC
  5
1A6
100
AcDbEntity
  8
0
370
    -3
390
0
  6
Continuous
100
AcDbCircle
 10
476.661908
 20
-241.773264
 30
0.0
 40
10.0
100
AcDbArc
 50
90.0
 51
180.0
  0
ARC
  5
1A7
100
AcDbEntity
  8
0
370
    -3
390
0
  6
Continuous
100
AcDbCircle
 10
479.283734
 20
-212.773264
 30
0.0
 40
10.0
100
AcDbArc
 50
168.191719
 51
270.0
  0
ARC
  5
1A8
100
AcDbEntity
  8
0
370
    -3
390
0
  6
Continuous
100
AcDbCircle
 10
614.053972
 20
-113.561271
 30
0.0
 40
10.0
100
AcDbArc
 50
0.0
 51
91.422993
  0
ARC
  5
1A9
100
AcDbEntity
  8
0
370
    -3
390
0
  6
Continuous
100
AcDbCircle
 10
643.053972
 20
-113.561271
 30
0.0
 40
10.0
100
AcDbArc
 50
88.577007
 51
180.0
  0
ARC
  5
1AA
100
AcDbEntity
  8
0
370
    -3
390
0
  6
Continuous
100
AcDbCircle
 10
544.086523
 20
-236.773264
 30
0.0
 40
5.0
100
AcDbArc
 50
6.417053
 51
90.0
  0
ARC
  5
1AB
100
AcDbEntity
  8
0
370
    -3
390
0
  6
Continuous
100
AcDbCircle
 10
544.086523
 20
-217.773264
 30
0.0
 40
5.0
100
AcDbArc
 50
270.0
 51
353.582947
  0
LINE
  5
1AC
100
AcDbEntity
  8
0
370
    -3
390
0
  6
Continuous
100
AcDbLine
 10
432.784337
 20
-222.773264
 30
0.0
 11
544.086523
 21
-222.773264
 31
0.0
  0
LINE
  5
1AD
100
AcDbEntity
  8
0
370
    -3
390
0
  6
Continuous
100
AcDbLine
 10
432.784337
 20
-231.773264
 30
0.0
 11
544.086523
 21
-231.773264
 31
0.0
  0
ARC
  5
1AE
100
AcDbEntity
  8
0
370
    -3
390
0
  6
Continuous
100
AcDbCircle
 10
619.053972
 20
-142.805815
 30
0.0
 40
5.0
100
AcDbArc
 50
276.417053
 51
0.0
  0
ARC
  5
1AF
100
AcDbEntity
  8
0
370
    -3
390
0
  6
Continuous
100
AcDbCircle
 10
638.053972
 20
-142.805815
 30
0.0
 40
5.0
100
AcDbArc
 50
180.0
 51
263.582947
  0
LINE
  5
1B0
100
AcDbEntity
  8
0
370
    -3
390
0
  6
Continuous
100
AcDbLine
 10
633.053972
 20
-31.503629
 30
0.0
 11
633.053972
 21
-142.805815
 31
0.0
  0
LINE
  5
1B1
100
AcDbEntity
  8
0
370
    -3
390
0
  6
Continuous
100
AcDbLine
 10
624.053972
 20
-31.503629
 30
0.0
 11
624.053972
 21
-142.805815
 31
0.0
  0
ARC
  5
1B2
100
AcDbEntity
  8
0
370
    -3
390
0
  6
Continuous
100
AcDbCircle
 10
780.446035
 20
-241.773264
 30
0.0
 40
10.0
100
AcDbArc
 50
0.0
 51
90.0
  0
ARC
  5
1B3
100
AcDbEntity
  8
0
370
    -3
390
0
  6
Continuous
100
AcDbCircle
 10
777.82421
 20
-212.773264
 30
0.0
 40
10.0
100
AcDbArc
 50
270.0
 51
11.808281
  0
ARC
  5
1B4
100
AcDbEntity
  8
0
370
    -3
390
0
  6
Continuous
100
AcDbCircle
 10
713.021421
 20
-217.773264
 30
0.0
 40
5.0
100
AcDbArc
 50
186.417053
 51
270.0
  0
ARC
  5
1B5
100
AcDbEntity
  8
0
370
    -3
390
0
  6
Continuous
100
AcDbCircle
 10
713.021421
 20
-236.773264
 30
0.0
 40
5.0
100
AcDbArc
 50
90.0
 51
173.582947
  0
LINE
  5
1B6
100
AcDbEntity
  8
0
370
    -3
390
0
  6
Continuous
100
AcDbLine
 10
824.323607
 20
-231.773264
 30
0.0
 11
713.021421
 21
-231.773264
 31
0.0
  0
LINE
  5
1B7
100
AcDbEntity
  8
0
370
    -3
390
0
  6
Continuous
100
AcDbLine
 10
824.323607
 20
-222.773264
 30
0.0
 11
713.021421
 21
-222.773264
 31
0.0
  0
ARC
  5
1B8
100
AcDbEntity
  8
0
370
    -3
390
0
  6
Continuous
100
AcDbCircle
 10
405.553972
 20
-230.273264
 30
0.0
 40
2.0
100
AcDbArc
 50
180.0
 51
270.0
  0
ARC
  5
1B9
100
AcDbEntity
  8
0
370
    -3
390
0
  6
Continuous
100
AcDbCircle
 10
405.553972
 20
-224.273264
 30
0.0
 40
2.0
100
AcDbArc
 50
90.0
 51
180.0
  0
ARC
  5
1BA
100
AcDbEntity
  8
0
370
    -3
390
0
  6
Continuous
100
AcDbCircle
 10
851.553972
 20
-230.273264
 30
0.0
 40
2.0
100
AcDbArc
 50
270.0
 51
0.0
  0
ARC
  5
1BB
100
AcDbEntity
  8
0
370
    -3
390
0
  6
Continuous
100
AcDbCircle
 10
851.553972
 20
-224.273264
 30
0.0
 40
2.0
100
AcDbArc
 50
0.0
 51
90.0
  0
LINE
  5
1BC
100
AcDbEntity
  8
0
370
    -3
390
0
  6
Continuous
100
AcDbLine
 10
851.553972
 20
-232.273264
 30
0.0
 11
846.407133
 21
-232.273264
 31
0.0
  0
ARC
  5
1BD
100
AcDbEntity
  8
0
370
    -3
390
0
  6
Continuous
100
AcDbCircle
 10
846.407133
 20
-235.273264
 30
0.0
 40
3.0
100
AcDbArc
 50
90.0
 51
177.89693
  0
LINE
  5
1BE
100
AcDbEntity
  8
0
370
    -3
390
0
  6
Continuous
100
AcDbLine
 10
851.553972
 20
-222.273264
 30
0.0
 11
846.407133
 21
-222.273264
 31
0.0
  0
ARC
  5
1BF
100
AcDbEntity
  8
0
370
    -3
390
0
  6
Continuous
100
AcDbCircle
 10
846.407133
 20
-219.273264
 30
0.0
 40
3.0
100
AcDbArc
 50
182.10307
 51
270.0
  0
ARC
  5
1C0
100
AcDbEntity
  8
0
370
    -3
390
0
  6
Continuous
100
AcDbCircle
 10
410.70081
 20
-219.273264
 30
0.0
 40
3.0
100
AcDbArc
 50
270.0
 51
357.89693
  0
ARC
  5
1C1
100
AcDbEntity
  8
0
370
    -3
390
0
  6
Continuous
100
AcDbCircle
 10
410.70081
 20
-235.273264
 30
0.0
 40
3.0
100
AcDbArc
 50
2.10307
 51
90.0
  0
LINE
  5
1C2
100
AcDbEntity
  8
0
370
    -3
390
0
  6
Continuous
100
AcDbLine
 10
405.553972
 20
-232.273264
 30
0.0
 11
410.70081
 21
-232.273264
 31
0.0
  0
LINE
  5
1C3
100
AcDbEntity
  8
0
370
    -3
390
0
  6
Continuous
100
AcDbLine
 10
405.553972
 20
-222.273264
 30
0.0
 11
410.70081
 21
-222.273264
 31
0.0
  0
ARC
  5
1C4
100
AcDbEntity
  8
0
370
    -3
390
0
  6
Continuous
100
AcDbCircle
 10
628.553972
 20
-227.273264
 30
0.0
 40
215.0
100
AcDbArc
 50
2.10307
 51
33.463041
  0
CIRCLE
  5
1C5
100
AcDbEntity
  8
0
370
    -3
390
0
  6
Continuous
100
AcDbCircle
 10
628.553972
 20
-227.273264
 30
0.0
 40
210.0
  0
ARC
  5
1C6
100
AcDbEntity
  8
0
370
    -3
390
0
  6
Continuous
100
AcDbCircle
 10
628.553972
 20
-227.273264
 30
0.0
 40
80.0
100
AcDbArc
 50
0.0
 51
90.0
  0
ARC
  5
1C7
100
AcDbEntity
  8
0
370
    -3
390
0
  6
Continuous
100
AcDbCircle
 10
628.553972
 20
-227.273264
 30
0.0
 40
215.0
100
AcDbArc
 50
326.536959
 51
357.89693
  0
LINE
  5
1C8
100
AcDbEntity
  8
0
370
    -3
390
0
  6
Continuous
100
AcDbLine
 10
853.553972
 20
-22.273264
 30
0.0
 11
853.553972
 21
-432.273264
 31
0.0
  0
ARC
  5
1C9
100
AcDbEntity
  8
0
370
    -3
390
0
  6
Continuous
100
AcDbCircle
 10
628.553972
 20
-227.273264
 30
0.0
 40
215.0
100
AcDbArc
 50
182.10307
 51
213.463041
  0
LINE
  5
1CA
100
AcDbEntity
  8
0
370
    -3
390
0
  6
Continuous
100
AcDbLine
 10
403.553972
 20
-22.273264
 30
0.0
 11
403.553972
 21
-432.273264
 31
0.0
  0
ARC
  5
1CB
100
AcDbEntity
  8
0
370
    -3
390
0
  6
Continuous
100
AcDbCircle
 10
423.553972
 20
-22.273264
 30
0.0
 40
20.0
100
AcDbArc
 50
90.0
 51
180.0
  0
ARC
  5
1CC
100
AcDbEntity
  8
0
370
    -3
390
0
  6
Continuous
100
AcDbCircle
 10
628.553972
 20
-227.273264
 30
0.0
 40
215.0
100
AcDbArc
 50
56.536959
 51
90.0
  0
ARC
  5
1CD
100
AcDbEntity
  8
0
370
    -3
390
0
  6
Continuous
100
AcDbCircle
 10
752.618739
 20
-39.568886
 30
0.0
 40
10.0
100
AcDbArc
 50
236.536959
 51
315.0
  0
ARC
  5
1CE
100
AcDbEntity
  8
0
370
    -3
390
0
  6
Continuous
100
AcDbCircle
 10
450.980379
 20
-7.273264
 30
0.0
 40
5.0
100
AcDbArc
 50
45.0
 51
90.0
  0
LINE
  5
1CF
100
AcDbEntity
  8
0
370
    -3
390
0
  6
Continuous
100
AcDbLine
 10
454.515913
 20
-3.73773
 30
0.0
 11
497.418137
 21
-46.639954
 31
0.0
  0
CIRCLE
  5
1D0
100
AcDbEntity
  8
0
370
    -3
390
0
  6
Continuous
100
AcDbCircle
 10
434.099607
 20
-32.818899
 30
0.0
 40
14.0
  0
ARC
  5
1D1
100
AcDbEntity
  8
0
370
    -3
390
0
  6
Continuous
100
AcDbCircle
 10
408.553972
 20
-49.699671
 30
0.0
 40
5.0
100
AcDbArc
 50
180.0
 51
225.0
  0
LINE
  5
1D2
100
AcDbEntity
  8
0
370
    -3
390
0
  6
Continuous
100
AcDbLine
 10
405.018438
 20
-53.235205
 30
0.0
 11
447.920662
 21
-96.137429
 31
0.0
  0
ARC
  5
1D3
100
AcDbEntity
  8
0
370
    -3
390
0
  6
Continuous
100
AcDbCircle
 10
440.849594
 20
-103.208497
 30
0.0
 40
10.0
100
AcDbArc
 50
326.536959
 51
45.0
  0
ARC
  5
1D4
100
AcDbEntity
  8
0
370
    -3
390
0
  6
Continuous
100
AcDbCircle
 10
628.553972
 20
-227.273264
 30
0.0
 40
215.0
100
AcDbArc
 50
146.536959
 51
177.89693
  0
ARC
  5
1D5
100
AcDbEntity
  8
0
370
    -3
390
0
  6
Continuous
100
AcDbCircle
 10
504.489204
 20
-39.568886
 30
0.0
 40
10.0
100
AcDbArc
 50
225.0
 51
303.463041
  0
ARC
  5
1D6
100
AcDbEntity
  8
0
370
    -3
390
0
  6
Continuous
100
AcDbCircle
 10
628.553972
 20
-227.273264
 30
0.0
 40
215.0
100
AcDbArc
 50
90.0
 51
123.463041
  0
LINE
  5
1D7
100
AcDbEntity
  8
0
370
    -3
390
0
  6
Continuous
100
AcDbLine
 10
423.553972
 20
-2.273264
 30
0.0
 11
833.553972
 21
-2.273264
 31
0.0
  0
ARC
  5
1D8
100
AcDbEntity
  8
0
370
    -3
390
0
  6
Continuous
100
AcDbCircle
 10
833.553972
 20
-22.273264
 30
0.0
 40
20.0
100
AcDbArc
 50
0.0
 51
90.0
  0
ARC
  5
1D9
100
AcDbEntity
  8
0
370
    -3
390
0
  6
CENTER
100
AcDbCircle
 10
628.553972
 20
-227.273264
 30
0.0
 40
275.0
100
AcDbArc
 50
39.151032
 51
50.751622
  0
CIRCLE
  5
1DA
100
AcDbEntity
  8
0
370
    -3
390
0
  6
Continuous
100
AcDbCircle
 10
823.008337
 20
-32.818899
 30
0.0
 40
14.0
  0
LINE
  5
1DB
100
AcDbEntity
  8
0
370
    -3
390
0
  6
Continuous
100
AcDbLine
 10
802.592031
 20
-3.73773
 30
0.0
 11
759.689807
 21
-46.639954
 31
0.0
  0
LINE
  5
1DC
100
AcDbEntity
  8
0
370
    -3
390
0
  6
Continuous
100
AcDbLine
 10
852.089506
 20
-53.235205
 30
0.0
 11
809.187282
 21
-96.137429
 31
0.0
  0
ARC
  5
1DD
100
AcDbEntity
  8
0
370
    -3
390
0
  6
Continuous
100
AcDbCircle
 10
816.25835
 20
-103.208497
 30
0.0
 40
10.0
100
AcDbArc
 50
135.0
 51
213.463041
  0
ARC
  5
1DE
100
AcDbEntity
  8
0
370
    -3
390
0
  6
Continuous
100
AcDbCircle
 10
806.127565
 20
-7.273264
 30
0.0
 40
5.0
100
AcDbArc
 50
90.0
 51
135.0
  0
ARC
  5
1DF
100
AcDbEntity
  8
0
370
    -3
390
0
  6
Continuous
100
AcDbCircle
 10
848.553972
 20
-49.699671
 30
0.0
 40
5.0
100
AcDbArc
 50
315.0
 51
0.0
  0
CIRCLE
  5
1E0
100
AcDbEntity
  8
0
370
    -3
390
0
  6
Continuous
100
AcDbCircle
 10
628.553972
 20
-227.273264
 30
0.0
 40
42.5
  0
CIRCLE
  5
1E1
100
AcDbEntity
  8
0
370
    -3
390
0
  6
Continuous
100
AcDbCircle
 10
628.553972
 20
-227.273264
 30
0.0
 40
4.188
  0
CIRCLE
  5
1E2
100
AcDbEntity
  8
0
370
    -3
390
0
  6
Continuous
100
AcDbCircle
 10
628.553972
 20
-227.273264
 30
0.0
 40
5.0
  0
ARC
  5
1E3
100
AcDbEntity
  8
0
370
    -3
390
0
  6
Continuous
100
AcDbCircle
 10
628.553972
 20
-227.273264
 30
0.0
 40
30.0
100
AcDbArc
 50
197.457603
 51
162.542397
  0
LINE
  5
1E4
100
AcDbEntity
  8
0
370
    -3
390
0
  6
Continuous
100
AcDbLine
 10
594.553972
 20
-218.273264
 30
0.0
 11
594.553972
 21
-236.273264
 31
0.0
  0
LINE
  5
1E5
100
AcDbEntity
  8
0
370
    -3
390
0
  6
Continuous
100
AcDbLine
 10
605.553972
 20
-218.273264
 30
0.0
 11
605.553972
 21
-236.273264
 31
0.0
  0
LINE
  5
1E6
100
AcDbEntity
  8
0
370
    -3
390
0
  6
Continuous
100
AcDbLine
 10
594.553972
 20
-236.273264
 30
0.0
 11
605.553972
 21
-236.273264
 31
0.0
  0
LINE
  5
1E7
100
AcDbEntity
  8
0
370
    -3
390
0
  6
Continuous
100
AcDbLine
 10
594.553972
 20
-218.273264
 30
0.0
 11
605.553972
 21
-218.273264
 31
0.0
  0
LINE
  5
1E8
100
AcDbEntity
  8
0
370
    -3
390
0
  6
CENTER
100
AcDbLine
 10
396.453322
 20
-227.273264
 30
0.0
 11
866.904926
 21
-227.273264
 31
0.0
  0
ARC
  5
1E9
100
AcDbEntity
  8
0
370
    -3
390
0
  6
Continuous
100
AcDbCircle
 10
770.446035
 20
-339.646047
 30
0.0
 40
20.0
100
AcDbArc
 50
321.622198
 51
0.0
  0
ARC
  5
1EA
100
AcDbEntity
  8
0
370
    -3
390
0
  6
Continuous
100
AcDbCircle
 10
748.489575
 20
-375.922015
 30
0.0
 40
10.0
100
AcDbArc
 50
240.0
 51
308.897941
  0
ARC
  5
1EB
100
AcDbEntity
  8
0
370
    -3
390
0
  6
Continuous
100
AcDbCircle
 10
729.243744
 20
-364.81043
 30
0.0
 40
10.0
100
AcDbArc
 50
167.552965
 51
240.0
  0
ARC
  5
1EC
100
AcDbEntity
  8
0
370
    -3
390
0
  6
Continuous
100
AcDbCircle
 10
737.368095
 20
-369.501026
 30
0.0
 40
10.0
100
AcDbArc
 50
165.300941
 51
240.0
  0
LINE
  5
1ED
100
AcDbEntity
  8
0
370
    -3
390
0
  6
Continuous
100
AcDbLine
 10
724.243744
 20
-373.470684
 30
0.0
 11
743.489575
 21
-384.582269
 31
0.0
  0
ARC
  5
1EE
100
AcDbEntity
  8
0
370
    -3
390
0
  6
Continuous
100
AcDbCircle
 10
690.552328
 20
-292.512852
 30
0.0
 40
10.0
100
AcDbArc
 50
133.540775
 51
248.755645
  0
ARC
  5
1EF
100
AcDbEntity
  8
0
370
    -3
390
0
  6
Continuous
100
AcDbCircle
 10
697.160641
 20
-285.523801
 30
0.0
 40
10.0
100
AcDbArc
 50
139.667057
 51
245.868324
  0
ARC
  5
1F0
100
AcDbEntity
  8
0
370
    -3
390
0
  6
Continuous
100
AcDbCircle
 10
667.724517
 20
-351.231598
 30
0.0
 40
62.0
100
AcDbArc
 50
345.300941
 51
65.868324
  0
LINE
  5
1F1
100
AcDbEntity
  8
0
370
    -3
390
0
  6
Continuous
100
AcDbLine
 10
790.446035
 20
-241.773264
 30
0.0
 11
790.446035
 21
-339.646047
 31
0.0
  0
ARC
  5
1F2
100
AcDbEntity
  8
0
370
    -3
390
0
  6
Continuous
100
AcDbCircle
 10
703.553972
 20
-442.273264
 30
0.0
 40
20.0
100
AcDbArc
 50
295.841933
 51
330.0
  0
LINE
  5
1F3
100
AcDbEntity
  8
0
370
    -3
390
0
  6
Continuous
100
AcDbLine
 10
628.553972
 20
-460.273264
 30
0.0
 11
712.27177
 21
-460.273264
 31
0.0
  0
ARC
  5
1F4
100
AcDbEntity
  8
0
370
    -3
390
0
  6
Continuous
100
AcDbCircle
 10
667.724517
 20
-351.231598
 30
0.0
 40
53.0
100
AcDbArc
 50
347.552965
 51
68.755645
  0
LINE
  5
1F5
100
AcDbEntity
  8
0
370
    -3
390
0
  6
Continuous
100
AcDbLine
 10
833.553972
 20
-452.273264
 30
0.0
 11
628.553972
 21
-452.273264
 31
0.0
  0
ARC
  5
1F6
100
AcDbEntity
  8
0
370
    -3
390
0
  6
Continuous
100
AcDbCircle
 10
833.553972
 20
-432.273264
 30
0.0
 40
20.0
100
AcDbArc
 50
270.0
 51
0.0
  0
ARC
  5
1F7
100
AcDbEntity
  8
0
370
    -3
390
0
  6
CENTER
100
AcDbCircle
 10
628.553972
 20
-227.273264
 30
0.0
 40
275.0
100
AcDbArc
 50
308.693647
 51
320.926883
  0
CIRCLE
  5
1F8
100
AcDbEntity
  8
0
370
    -3
390
0
  6
Continuous
100
AcDbCircle
 10
823.008337
 20
-421.727629
 30
0.0
 40
14.0
  0
ARC
  5
1F9
100
AcDbEntity
  8
0
370
    -3
390
0
  6
Continuous
100
AcDbCircle
 10
848.553972
 20
-404.846857
 30
0.0
 40
5.0
100
AcDbArc
 50
0.0
 51
45.0
  0
LINE
  5
1FA
100
AcDbEntity
  8
0
370
    -3
390
0
  6
Continuous
100
AcDbLine
 10
852.089506
 20
-401.311324
 30
0.0
 11
809.187282
 21
-358.4091
 31
0.0
  0
LINE
  5
1FB
100
AcDbEntity
  8
0
370
    -3
390
0
  6
Continuous
100
AcDbLine
 10
802.592031
 20
-450.808798
 30
0.0
 11
759.689807
 21
-407.906574
 31
0.0
  0
ARC
  5
1FC
100
AcDbEntity
  8
0
370
    -3
390
0
  6
Continuous
100
AcDbCircle
 10
752.618739
 20
-414.977642
 30
0.0
 40
10.0
100
AcDbArc
 50
45.0
 51
123.463041
  0
ARC
  5
1FD
100
AcDbEntity
  8
0
370
    -3
390
0
  6
Continuous
100
AcDbCircle
 10
628.553972
 20
-227.273264
 30
0.0
 40
215.0
100
AcDbArc
 50
270.0
 51
303.463041
  0
ARC
  5
1FE
100
AcDbEntity
  8
0
370
    -3
390
0
  6
Continuous
100
AcDbCircle
 10
816.25835
 20
-351.338032
 30
0.0
 40
10.0
100
AcDbArc
 50
146.536959
 51
225.0
  0
ARC
  5
1FF
100
AcDbEntity
  8
0
370
    -3
390
0
  6
Continuous
100
AcDbCircle
 10
806.127565
 20
-447.273264
 30
0.0
 40
5.0
100
AcDbArc
 50
225.0
 51
270.0
  0
LINE
  5
200
100
AcDbEntity
  8
0
370
    -3
390
0
  6
CENTER
100
AcDbLine
 10
843.661693
 20
-442.380985
 30
0.0
 11
802.19483
 21
-400.914122
 31
0.0
  0
ARC
  5
201
100
AcDbEntity
  8
0
370
    -3
390
0
  6
Continuous
100
AcDbCircle
 10
553.553972
 20
-442.273264
 30
0.0
 40
20.0
100
AcDbArc
 50
210.0
 51
244.158067
  0
LINE
  5
202
100
AcDbEntity
  8
0
370
    -3
390
0
  6
Continuous
100
AcDbLine
 10
628.553972
 20
-460.273264
 30
0.0
 11
544.836174
 21
-460.273264
 31
0.0
  0
ARC
  5
203
100
AcDbEntity
  8
0
370
    -3
390
0
  6
Continuous
100
AcDbCircle
 10
628.553972
 20
-227.273264
 30
0.0
 40
215.0
100
AcDbArc
 50
236.536959
 51
270.0
  0
LINE
  5
204
100
AcDbEntity
  8
0
370
    -3
390
0
  6
Continuous
100
AcDbLine
 10
423.553972
 20
-452.273264
 30
0.0
 11
628.553972
 21
-452.273264
 31
0.0
  0
ARC
  5
205
100
AcDbEntity
  8
0
370
    -3
390
0
  6
Continuous
100
AcDbCircle
 10
546.125163
 20
-263.404851
 30
0.0
 40
10.0
100
AcDbArc
 50
283.302309
 51
23.669611
  0
ARC
  5
206
100
AcDbEntity
  8
0
370
    -3
390
0
  6
Continuous
100
AcDbCircle
 10
550.285215
 20
-271.703004
 30
0.0
 40
10.0
100
AcDbArc
 50
281.551141
 51
29.581676
  0
ARC
  5
207
100
AcDbEntity
  8
0
370
    -3
390
0
  6
Continuous
100
AcDbCircle
 10
564.302191
 20
-340.285249
 30
0.0
 40
69.0
100
AcDbArc
 50
103.302309
 51
190.881295
  0
ARC
  5
208
100
AcDbEntity
  8
0
370
    -3
390
0
  6
Continuous
100
AcDbCircle
 10
564.302191
 20
-340.285249
 30
0.0
 40
60.0
100
AcDbArc
 50
101.551141
 51
204.149805
  0
ARC
  5
209
100
AcDbEntity
  8
0
370
    -3
390
0
  6
Continuous
100
AcDbCircle
 10
500.428669
 20
-368.923915
 30
0.0
 40
10.0
100
AcDbArc
 50
227.870148
 51
24.149805
  0
ARC
  5
20A
100
AcDbEntity
  8
0
370
    -3
390
0
  6
Continuous
100
AcDbCircle
 10
486.72258
 20
-355.198462
 30
0.0
 40
10.0
100
AcDbArc
 50
222.048964
 51
10.881295
  0
LINE
  5
20B
100
AcDbEntity
  8
0
370
    -3
390
0
  6
Continuous
100
AcDbLine
 10
405.018438
 20
-401.311324
 30
0.0
 11
447.920662
 21
-358.4091
 31
0.0
  0
ARC
  5
20C
100
AcDbEntity
  8
0
370
    -3
390
0
  6
Continuous
100
AcDbCircle
 10
440.849594
 20
-351.338032
 30
0.0
 40
10.0
100
AcDbArc
 50
315.0
 51
33.463041
  0
ARC
  5
20D
100
AcDbEntity
  8
0
370
    -3
390
0
  6
Continuous
100
AcDbCircle
 10
504.489204
 20
-414.977642
 30
0.0
 40
10.0
100
AcDbArc
 50
56.536959
 51
135.0
  0
LINE
  5
20E
100
AcDbEntity
  8
0
370
    -3
390
0
  6
Continuous
100
AcDbLine
 10
454.515913
 20
-450.808798
 30
0.0
 11
497.418137
 21
-407.906574
 31
0.0
  0
ARC
  5
20F
100
AcDbEntity
  8
0
370
    -3
390
0
  6
CENTER
100
AcDbCircle
 10
628.553972
 20
-227.273264
 30
0.0
 40
275.0
100
AcDbArc
 50
219.370608
 51
230.653696
  0
LINE
  5
210
100
AcDbEntity
  8
0
370
    -3
390
0
  6
CENTER
100
AcDbLine
 10
413.446251
 20
-442.380985
 30
0.0
 11
454.913114
 21
-400.914122
 31
0.0
  0
CIRCLE
  5
211
100
AcDbEntity
  8
0
370
    -3
390
0
  6
Continuous
100
AcDbCircle
 10
434.099607
 20
-421.727629
 30
0.0
 40
14.0
  0
ARC
  5
212
100
AcDbEntity
  8
0
370
    -3
390
0
  6
Continuous
100
AcDbCircle
 10
423.553972
 20
-432.273264
 30
0.0
 40
20.0
100
AcDbArc
 50
180.0
 51
270.0
  0
ARC
  5
213
100
AcDbEntity
  8
0
370
    -3
390
0
  6
Continuous
100
AcDbCircle
 10
450.980379
 20
-447.273264
 30
0.0
 40
5.0
100
AcDbArc
 50
270.0
 51
315.0
  0
ARC
  5
214
100
AcDbEntity
  8
0
370
    -3
390
0
  6
Continuous
100
AcDbCircle
 10
408.553972
 20
-404.846857
 30
0.0
 40
5.0
100
AcDbArc
 50
135.0
 51
180.0
  0
LINE
  5
215
100
AcDbEntity
  8
0
370
    -3
390
0
  6
Continuous
100
AcDbLine
 10
466.661908
 20
-241.773264
 30
0.0
 11
466.661908
 21
-339.646047
 31
0.0
  0
ARC
  5
216
100
AcDbEntity
  8
0
370
    -3
390
0
  6
Continuous
100
AcDbCircle
 10
486.661908
 20
-339.646047
 30
0.0
 40
20.0
100
AcDbArc
 50
180.0
 51
218.377802
  0
LINE
  5
217
100
AcDbEntity
  8
0
370
    -3
390
0
  6
Continuous
100
AcDbLine
 10
51.051453
 20
-88.836888
 30
0.0
 11
51.051453
 21
-87.836888
 31
0.0
  0
LINE
  5
218
100
AcDbEntity
  8
0
370
    -3
390
0
  6
Continuous
100
AcDbLine
 10
77.051453
 20
-88.836888
 30
0.0
 11
77.051453
 21
-87.836888
 31
0.0
  0
ARC
  5
219
100
AcDbEntity
  8
0
370
    -3
390
0
  6
Continuous
100
AcDbCircle
 10
-171.398547
 20
-331.849219
 30
0.0
 40
5.0
100
AcDbArc
 50
270.0
 51
0.0
  0
ARC
  5
21A
100
AcDbEntity
  8
0
370
    -3
390
0
  6
Continuous
100
AcDbCircle
 10
-170.998547
 20
-336.059166
 30
0.0
 40
11.0
100
AcDbArc
 50
270.0
 51
0.0
  0
ARC
  5
21B
100
AcDbEntity
  8
0
370
    -3
390
0
  6
Continuous
100
AcDbCircle
 10
-170.998547
 20
-337.279376
 30
0.0
 40
11.0
100
AcDbArc
 50
270.0
 51
0.0
  0
LINE
  5
21C
100
AcDbEntity
  8
0
370
    -3
390
0
  6
Continuous
100
AcDbLine
 10
-170.998547
 20
-347.059166
 30
0.0
 11
-206.448547
 21
-347.059166
 31
0.0
  0
LINE
  5
21D
100
AcDbEntity
  8
0
370
    -3
390
0
  6
Continuous
100
AcDbLine
 10
-170.998547
 20
-348.279376
 30
0.0
 11
-206.448547
 21
-348.279376
 31
0.0
  0
LINE
  5
21E
100
AcDbEntity
  8
0
370
    -3
390
0
  6
Continuous
100
AcDbLine
 10
-159.998547
 20
-255.676657
 30
0.0
 11
-159.998547
 21
-337.279376
 31
0.0
  0
LINE
  5
21F
100
AcDbEntity
  8
0
370
    -3
390
0
  6
Continuous
100
AcDbLine
 10
-166.398547
 20
-255.771475
 30
0.0
 11
-166.398547
 21
-331.849219
 31
0.0
  0
LINE
  5
220
100
AcDbEntity
  8
0
370
    -3
390
0
  6
Continuous
100
AcDbLine
 10
-206.448547
 20
-250.771475
 30
0.0
 11
-171.398547
 21
-250.771475
 31
0.0
  0
ARC
  5
221
100
AcDbEntity
  8
0
370
    -3
390
0
  6
Continuous
100
AcDbCircle
 10
-171.398547
 20
-255.771475
 30
0.0
 40
5.0
100
AcDbArc
 50
0.0
 51
90.0
  0
ARC
  5
222
100
AcDbEntity
  8
0
370
    -3
390
0
  6
Continuous
100
AcDbCircle
 10
-171.398547
 20
-262.273264
 30
0.0
 40
5.0
100
AcDbArc
 50
0.0
 51
90.0
  0
ARC
  5
223
100
AcDbEntity
  8
0
370
    -3
390
0
  6
Continuous
100
AcDbCircle
 10
-170.998547
 20
-255.676657
 30
0.0
 40
11.0
100
AcDbArc
 50
0.0
 51
90.0
  0
LINE
  5
224
100
AcDbEntity
  8
0
370
    -3
390
0
  6
Continuous
100
AcDbLine
 10
-170.998547
 20
-244.676657
 30
0.0
 11
-206.448547
 21
-244.676657
 31
0.0
  0
POINT
  5
225
100
AcDbEntity
  8
0
370
    -3
390
0
  6
CENTER
100
AcDbPoint
 10
-219.948547
 20
-347.059166
 30
0.0
  0
POINT
  5
226
100
AcDbEntity
  8
0
370
    -3
390
0
  6
CENTER
100
AcDbPoint
 10
-192.948547
 20
-347.059166
 30
0.0
  0
LINE
  5
227
100
AcDbEntity
  8
0
370
    -3
390
0
  6
CENTER
100
AcDbLine
 10
-206.448547
 20
-241.773664
 30
0.0
 11
-206.448547
 21
-354.427384
 31
0.0
  0
LINE
  5
228
100
AcDbEntity
  8
0
370
    -3
390
0
  6
Continuous
100
AcDbLine
 10
-197.961073
 20
-336.849219
 30
0.0
 11
-171.398547
 21
-336.849219
 31
0.0
  0
ARC
  5
229
100
AcDbEntity
  8
0
370
    -3
390
0
  6
Continuous
100
AcDbCircle
 10
-215.708765
 20
-332.849219
 30
0.0
 40
4.0
100
AcDbArc
 50
270.0
 51
318.821566
  0
ELLIPSE
  5
22A
100
AcDbEntity
  8
0
370
    -3
390
0
  6
Continuous
100
AcDbEllipse
 10
-206.448547
 20
-340.045353
 30
0.0
 11
8.0
 21
0.0
 31
0.0
210
0.0
220
0.0
230
1.0
 40
0.913545
 41
1.5707963267948966
 42
2.4673754548869451
  0
ARC
  5
22B
100
AcDbEntity
  8
0
370
    -3
390
0
  6
Continuous
100
AcDbCircle
 10
-214.936021
 20
-332.849219
 30
0.0
 40
4.0
100
AcDbArc
 50
270.0
 51
313.301579
  0
ELLIPSE
  5
22C
100
AcDbEntity
  8
0
370
    -3
390
0
  6
Continuous
100
AcDbEllipse
 10
-206.448547
 20
-340.847057
 30
0.0
 11
8.0
 21
0.0
 31
0.0
210
0.0
220
0.0
230
1.0
 40
0.913545
 41
1.5707963267948966
 42
2.3717426386695215
  0
LINE
  5
22D
100
AcDbEntity
  8
0
370
    -3
390
0
  6
Continuous
100
AcDbLine
 10
-204.448547
 20
-341.708163
 30
0.0
 11
-208.448547
 21
-338.053981
 31
0.0
  0
LINE
  5
22E
100
AcDbEntity
  8
0
370
    -3
390
0
  6
Continuous
100
AcDbLine
 10
-208.448547
 20
-341.708163
 30
0.0
 11
-204.448547
 21
-338.053981
 31
0.0
  0
ELLIPSE
  5
22F
100
AcDbEntity
  8
0
370
    -3
390
0
  6
Continuous
100
AcDbEllipse
 10
-206.448547
 20
-340.591759
 30
0.0
 11
3.5
 21
0.0
 31
0.0
210
0.0
220
0.0
230
1.0
 40
0.986488
 41
0.0
 42
6.2831853071795862
  0
ELLIPSE
  5
230
100
AcDbEntity
  8
0
370
    -3
390
0
  6
Continuous
100
AcDbEllipse
 10
-206.448547
 20
-340.847057
 30
0.0
 11
8.0
 21
0.0
 31
0.0
210
0.0
220
0.0
230
1.0
 40
0.913545
 41
0.7698500149202718
 42
1.5707963267948966
  0
ARC
  5
231
100
AcDbEntity
  8
0
370
    -3
390
0
  6
Continuous
100
AcDbCircle
 10
-197.961073
 20
-332.849219
 30
0.0
 40
4.0
100
AcDbArc
 50
226.698421
 51
270.0
  0
ELLIPSE
  5
232
100
AcDbEntity
  8
0
370
    -3
390
0
  6
Continuous
100
AcDbEllipse
 10
-206.448547
 20
-340.045353
 30
0.0
 11
8.0
 21
0.0
 31
0.0
210
0.0
220
0.0
230
1.0
 40
0.913545
 41
0.6742171987028833
 42
1.5707963267948966
  0
ARC
  5
233
100
AcDbEntity
  8
0
370
    -3
390
0
  6
Continuous
100
AcDbCircle
 10
-197.188329
 20
-332.849219
 30
0.0
 40
4.0
100
AcDbArc
 50
221.178434
 51
270.0
  0
ARC
  5
234
100
AcDbEntity
  8
0
370
    -3
390
0
  6
Continuous
100
AcDbCircle
 10
-241.498547
 20
-331.849219
 30
0.0
 40
5.0
100
AcDbArc
 50
180.0
 51
270.0
  0
LINE
  5
235
100
AcDbEntity
  8
0
370
    -3
390
0
  6
Continuous
100
AcDbLine
 10
-214.936021
 20
-336.849219
 30
0.0
 11
-241.498547
 21
-336.849219
 31
0.0
  0
ARC
  5
236
100
AcDbEntity
  8
0
370
    -3
390
0
  6
Continuous
100
AcDbCircle
 10
-241.898547
 20
-337.279376
 30
0.0
 40
11.0
100
AcDbArc
 50
180.0
 51
270.0
  0
ARC
  5
237
100
AcDbEntity
  8
0
370
    -3
390
0
  6
Continuous
100
AcDbCircle
 10
-241.898547
 20
-336.059166
 30
0.0
 40
11.0
100
AcDbArc
 50
180.0
 51
270.0
  0
LINE
  5
238
100
AcDbEntity
  8
0
370
    -3
390
0
  6
Continuous
100
AcDbLine
 10
-241.898547
 20
-347.059166
 30
0.0
 11
-206.448547
 21
-347.059166
 31
0.0
  0
LINE
  5
239
100
AcDbEntity
  8
0
370
    -3
390
0
  6
Continuous
100
AcDbLine
 10
-241.898547
 20
-348.279376
 30
0.0
 11
-206.448547
 21
-348.279376
 31
0.0
  0
LINE
  5
23A
100
AcDbEntity
  8
0
370
    -3
390
0
  6
Continuous
100
AcDbLine
 10
-241.498547
 20
-257.273264
 30
0.0
 11
-171.398547
 21
-257.273264
 31
0.0
  0
LINE
  5
23B
100
AcDbEntity
  8
0
370
    -3
390
0
  6
Continuous
100
AcDbLine
 10
-252.898547
 20
-255.676657
 30
0.0
 11
-252.898547
 21
-337.279376
 31
0.0
  0
LINE
  5
23C
100
AcDbEntity
  8
0
370
    -3
390
0
  6
Continuous
100
AcDbLine
 10
-246.498547
 20
-255.771475
 30
0.0
 11
-246.498547
 21
-331.849219
 31
0.0
  0
ARC
  5
23D
100
AcDbEntity
  8
0
370
    -3
390
0
  6
Continuous
100
AcDbCircle
 10
-241.498547
 20
-255.771475
 30
0.0
 40
5.0
100
AcDbArc
 50
90.0
 51
180.0
  0
LINE
  5
23E
100
AcDbEntity
  8
0
370
    -3
390
0
  6
Continuous
100
AcDbLine
 10
-206.448547
 20
-250.771475
 30
0.0
 11
-241.498547
 21
-250.771475
 31
0.0
  0
ARC
  5
23F
100
AcDbEntity
  8
0
370
    -3
390
0
  6
Continuous
100
AcDbCircle
 10
-241.898547
 20
-255.676657
 30
0.0
 40
11.0
100
AcDbArc
 50
90.0
 51
180.0
  0
LINE
  5
240
100
AcDbEntity
  8
0
370
    -3
390
0
  6
Continuous
100
AcDbLine
 10
-241.898547
 20
-244.676657
 30
0.0
 11
-206.448547
 21
-244.676657
 31
0.0
  0
ARC
  5
241
100
AcDbEntity
  8
0
370
    -3
390
0
  6
Continuous
100
AcDbCircle
 10
-241.498547
 20
-262.273264
 30
0.0
 40
5.0
100
AcDbArc
 50
90.0
 51
180.0
  0
CIRCLE
  5
242
100
AcDbEntity
  8
0
370
    -3
390
0
  6
Continuous
100
AcDbCircle
 10
-412.078085
 20
-421.727629
 30
0.0
 40
14.0
  0
LINE
  5
243
100
AcDbEntity
  8
0
370
    -3
390
0
  6
CENTER
100
AcDbLine
 10
-431.251939
 20
-402.553774
 30
0.0
 11
-392.335357
 21
-441.470357
 31
0.0
  0
ARC
  5
244
100
AcDbEntity
  8
0
370
    -3
390
0
  6
CENTER
100
AcDbCircle
 10
-606.532449
 20
-227.273264
 30
0.0
 40
275.0
100
AcDbArc
 50
308.508762
 51
320.842773
  0
CIRCLE
  5
245
100
AcDbEntity
  8
0
370
    -3
390
0
  6
Continuous
100
AcDbCircle
 10
-800.986814
 20
-421.727629
 30
0.0
 40
14.0
  0
LINE
  5
246
100
AcDbEntity
  8
0
370
    -3
390
0
  6
CENTER
100
AcDbLine
 10
-781.812959
 20
-402.553774
 30
0.0
 11
-820.729542
 21
-441.470357
 31
0.0
  0
ARC
  5
247
100
AcDbEntity
  8
0
370
    -3
390
0
  6
CENTER
100
AcDbCircle
 10
-606.532449
 20
-227.273264
 30
0.0
 40
275.0
100
AcDbArc
 50
219.157227
 51
231.491238
  0
CIRCLE
  5
248
100
AcDbEntity
  8
0
370
    -3
390
0
  6
Continuous
100
AcDbCircle
 10
-800.986814
 20
-32.818899
 30
0.0
 40
14.0
  0
LINE
  5
249
100
AcDbEntity
  8
0
370
    -3
390
0
  6
CENTER
100
AcDbLine
 10
-781.812959
 20
-51.992754
 30
0.0
 11
-820.729542
 21
-13.076172
 31
0.0
  0
ARC
  5
24A
100
AcDbEntity
  8
0
370
    -3
390
0
  6
CENTER
100
AcDbCircle
 10
-606.532449
 20
-227.273264
 30
0.0
 40
275.0
100
AcDbArc
 50
128.508762
 51
140.842773
  0
CIRCLE
  5
24B
100
AcDbEntity
  8
0
370
    -3
390
0
  6
Continuous
100
AcDbCircle
 10
-412.078085
 20
-32.818899
 30
0.0
 40
14.0
  0
LINE
  5
24C
100
AcDbEntity
  8
0
370
    -3
390
0
  6
CENTER
100
AcDbLine
 10
-431.251939
 20
-51.992754
 30
0.0
 11
-392.335357
 21
-13.076172
 31
0.0
  0
ARC
  5
24D
100
AcDbEntity
  8
0
370
    -3
390
0
  6
CENTER
100
AcDbCircle
 10
-606.532449
 20
-227.273264
 30
0.0
 40
275.0
100
AcDbArc
 50
39.157227
 51
51.491238
  0
LINE
  5
24E
100
AcDbEntity
  8
0
370
    -3
390
0
  6
CENTER
100
AcDbLine
 10
-372.422494
 20
-287.273264
 30
0.0
 11
-848.019907
 21
-287.273264
 31
0.0
  0
LINE
  5
24F
100
AcDbEntity
  8
0
370
    -3
390
0
  6
CENTER
100
AcDbLine
 10
158.07434
 20
68.272371
 30
0.0
 11
262.219925
 21
68.272371
 31
0.0
  0
LINE
  5
250
100
AcDbEntity
  8
0
370
    -3
390
0
  6
CENTER
100
AcDbLine
 10
158.07434
 20
457.181101
 30
0.0
 11
262.219925
 21
457.181101
 31
0.0
  0
ARC
  5
251
100
AcDbEntity
  8
0
370
    -3
390
0
  6
Continuous
100
AcDbCircle
 10
-596.032449
 20
-110.273264
 30
0.0
 40
10.0
100
AcDbArc
 50
270.0
 51
0.0
  0
ARC
  5
252
100
AcDbEntity
  8
0
370
    -3
390
0
  6
Continuous
100
AcDbCircle
 10
-617.032449
 20
-110.273264
 30
0.0
 40
10.0
100
AcDbArc
 50
180.0
 51
270.0
  0
LINE
  5
253
100
AcDbEntity
  8
0
370
    -3
390
0
  6
Continuous
100
AcDbLine
 10
-596.032449
 20
-120.273264
 30
0.0
 11
-617.032449
 21
-120.273264
 31
0.0
  0
ARC
  5
254
100
AcDbEntity
  8
0
370
    -3
390
0
  6
Continuous
100
AcDbCircle
 10
-450.784738
 20
-270.094368
 30
0.0
 40
15.0
100
AcDbArc
 50
71.951093
 51
80.681877
  0
LINE
  5
255
100
AcDbEntity
  8
0
370
    -3
390
0
  6
Continuous
100
AcDbLine
 10
-438.532449
 20
-344.251046
 30
0.0
 11
-438.532449
 21
-398.273264
 31
0.0
  0
LINE
  5
256
100
AcDbEntity
  8
0
370
    -3
390
0
  6
CENTER
100
AcDbLine
 10
-640.512708
 20
-227.273264
 30
0.0
 11
-572.22698
 21
-227.273264
 31
0.0
  0
ARC
  5
257
100
AcDbEntity
  8
0
370
    -3
390
0
  6
Continuous
100
AcDbCircle
 10
-500.185549
 20
-380.185135
 30
0.0
 40
5.0
100
AcDbArc
 50
136.5336
 51
225.0
  0
ARC
  5
258
100
AcDbEntity
  8
0
370
    -3
390
0
  6
Continuous
100
AcDbCircle
 10
-542.280669
 20
-340.285249
 30
0.0
 40
53.0
100
AcDbArc
 50
316.5336
 51
16.106155
  0
ARC
  5
259
100
AcDbEntity
  8
0
370
    -3
390
0
  6
Continuous
100
AcDbCircle
 10
-515.505573
 20
-391.735169
 30
0.0
 40
5.0
100
AcDbArc
 50
45.0
 51
117.492957
  0
ARC
  5
25A
100
AcDbEntity
  8
0
370
    -3
390
0
  6
Continuous
100
AcDbCircle
 10
-542.280669
 20
-340.285249
 30
0.0
 40
53.0
100
AcDbArc
 50
269.919566
 51
297.492957
  0
ARC
  5
25B
100
AcDbEntity
  8
0
370
    -3
390
0
  6
Continuous
100
AcDbCircle
 10
-473.529351
 20
-406.841334
 30
0.0
 40
5.0
100
AcDbArc
 50
225.0
 51
299.355303
  0
ARC
  5
25C
100
AcDbEntity
  8
0
370
    -3
390
0
  6
Continuous
100
AcDbCircle
 10
-488.585602
 20
-418.65514
 30
0.0
 40
5.0
100
AcDbArc
 50
304.41696
 51
45.0
  0
ARC
  5
25D
100
AcDbEntity
  8
0
370
    -3
390
0
  6
Continuous
100
AcDbCircle
 10
-597.032449
 20
-444.273264
 30
0.0
 40
5.0
100
AcDbArc
 50
180.0
 51
270.0
  0
ARC
  5
25E
100
AcDbEntity
  8
0
370
    -3
390
0
  6
Continuous
100
AcDbCircle
 10
-597.032449
 20
-406.273264
 30
0.0
 40
5.0
100
AcDbArc
 50
158.611962
 51
180.0
  0
ARC
  5
25F
100
AcDbEntity
  8
0
370
    -3
390
0
  6
Continuous
100
AcDbCircle
 10
-616.032449
 20
-444.273264
 30
0.0
 40
5.0
100
AcDbArc
 50
270.0
 51
0.0
  0
ARC
  5
260
100
AcDbEntity
  8
0
370
    -3
390
0
  6
Continuous
100
AcDbCircle
 10
-616.032449
 20
-406.273264
 30
0.0
 40
5.0
100
AcDbArc
 50
0.0
 51
21.388038
  0
ARC
  5
261
100
AcDbEntity
  8
0
370
    -3
390
0
  6
Continuous
100
AcDbCircle
 10
-739.535548
 20
-406.841334
 30
0.0
 40
5.0
100
AcDbArc
 50
240.644697
 51
315.0
  0
ARC
  5
262
100
AcDbEntity
  8
0
370
    -3
390
0
  6
Continuous
100
AcDbCircle
 10
-724.479296
 20
-418.65514
 30
0.0
 40
5.0
100
AcDbArc
 50
135.0
 51
235.58304
  0
ARC
  5
263
100
AcDbEntity
  8
0
370
    -3
390
0
  6
Continuous
100
AcDbCircle
 10
-764.532449
 20
-296.773264
 30
0.0
 40
5.0
100
AcDbArc
 50
90.0
 51
180.0
  0
ARC
  5
264
100
AcDbEntity
  8
0
370
    -3
390
0
  6
Continuous
100
AcDbCircle
 10
-764.532449
 20
-277.773264
 30
0.0
 40
5.0
100
AcDbArc
 50
180.0
 51
270.0
  0
ARC
  5
265
100
AcDbEntity
  8
0
370
    -3
390
0
  6
Continuous
100
AcDbCircle
 10
-730.231423
 20
-150.139262
 30
0.0
 40
5.0
100
AcDbArc
 50
137.404136
 51
225.0
  0
ARC
  5
266
100
AcDbEntity
  8
0
370
    -3
390
0
  6
Continuous
100
AcDbCircle
 10
-742.106482
 20
-165.13426
 30
0.0
 40
5.0
100
AcDbArc
 50
45.0
 51
145.842018
  0
ARC
  5
267
100
AcDbEntity
  8
0
370
    -3
390
0
  6
Continuous
100
AcDbCircle
 10
-470.958417
 20
-165.13426
 30
0.0
 40
5.0
100
AcDbArc
 50
34.157982
 51
135.0
  0
ARC
  5
268
100
AcDbEntity
  8
0
370
    -3
390
0
  6
Continuous
100
AcDbCircle
 10
-482.833476
 20
-150.139262
 30
0.0
 40
5.0
100
AcDbArc
 50
315.0
 51
42.595864
  0
ARC
  5
269
100
AcDbEntity
  8
0
370
    -3
390
0
  6
Continuous
100
AcDbCircle
 10
-765.299553
 20
-197.273264
 30
0.0
 40
3.0
100
AcDbArc
 50
162.650668
 51
270.0
  0
ARC
  5
26A
100
AcDbEntity
  8
0
370
    -3
390
0
  6
Continuous
100
AcDbCircle
 10
-759.532449
 20
-213.273264
 30
0.0
 40
13.0
100
AcDbArc
 50
270.0
 51
90.0
  0
ARC
  5
26B
100
AcDbEntity
  8
0
370
    -3
390
0
  6
Continuous
100
AcDbCircle
 10
-771.24611
 20
-229.273264
 30
0.0
 40
3.0
100
AcDbArc
 50
90.0
 51
176.294955
  0
ARC
  5
26C
100
AcDbEntity
  8
0
370
    -3
390
0
  6
Continuous
100
AcDbCircle
 10
-616.032449
 20
-127.273264
 30
0.0
 40
5.0
100
AcDbArc
 50
0.0
 51
90.0
  0
ARC
  5
26D
100
AcDbEntity
  8
0
370
    -3
390
0
  6
Continuous
100
AcDbCircle
 10
-447.765346
 20
-197.273264
 30
0.0
 40
3.0
100
AcDbArc
 50
270.0
 51
17.349332
  0
ARC
  5
26E
100
AcDbEntity
  8
0
370
    -3
390
0
  6
Continuous
100
AcDbCircle
 10
-453.532449
 20
-213.273264
 30
0.0
 40
13.0
100
AcDbArc
 50
90.0
 51
270.0
  0
ARC
  5
26F
100
AcDbEntity
  8
0
370
    -3
390
0
  6
Continuous
100
AcDbCircle
 10
-441.818789
 20
-229.273264
 30
0.0
 40
3.0
100
AcDbArc
 50
3.705045
 51
90.0
  0
ARC
  5
270
100
AcDbEntity
  8
0
370
    -3
390
0
  6
Continuous
100
AcDbCircle
 10
-760.532449
 20
-398.273264
 30
0.0
 40
14.0
100
AcDbArc
 50
180.0
 51
270.0
  0
ARC
  5
271
100
AcDbEntity
  8
0
370
    -3
390
0
  6
Continuous
100
AcDbCircle
 10
-749.340027
 20
-424.273264
 30
0.0
 40
12.0
100
AcDbArc
 50
46.914114
 51
90.0
  0
ARC
  5
272
100
AcDbEntity
  8
0
370
    -3
390
0
  6
Continuous
100
AcDbCircle
 10
-670.78423
 20
-340.285249
 30
0.0
 40
103.0
100
AcDbArc
 50
226.914114
 51
251.91835
  0
ARC
  5
273
100
AcDbEntity
  8
0
370
    -3
390
0
  6
Continuous
100
AcDbCircle
 10
-706.477009
 20
-449.605995
 30
0.0
 40
12.0
100
AcDbArc
 50
16.381286
 51
71.91835
  0
ARC
  5
274
100
AcDbEntity
  8
0
370
    -3
390
0
  6
Continuous
100
AcDbCircle
 10
-681.532449
 20
-442.273264
 30
0.0
 40
14.0
100
AcDbArc
 50
196.381286
 51
238.997281
  0
ARC
  5
275
100
AcDbEntity
  8
0
370
    -3
390
0
  6
Continuous
100
AcDbCircle
 10
-531.532449
 20
-442.273264
 30
0.0
 40
14.0
100
AcDbArc
 50
301.002719
 51
343.618714
  0
ARC
  5
276
100
AcDbEntity
  8
0
370
    -3
390
0
  6
Continuous
100
AcDbCircle
 10
-506.58789
 20
-449.605995
 30
0.0
 40
12.0
100
AcDbArc
 50
108.08165
 51
163.618714
  0
ARC
  5
277
100
AcDbEntity
  8
0
370
    -3
390
0
  6
Continuous
100
AcDbCircle
 10
-542.280669
 20
-340.285249
 30
0.0
 40
103.0
100
AcDbArc
 50
288.08165
 51
313.085886
  0
ARC
  5
278
100
AcDbEntity
  8
0
370
    -3
390
0
  6
Continuous
100
AcDbCircle
 10
-463.724871
 20
-424.273264
 30
0.0
 40
12.0
100
AcDbArc
 50
90.0
 51
133.085886
  0
ARC
  5
279
100
AcDbEntity
  8
0
370
    -3
390
0
  6
Continuous
100
AcDbCircle
 10
-452.532449
 20
-398.273264
 30
0.0
 40
14.0
100
AcDbArc
 50
270.0
 51
0.0
  0
ARC
  5
27A
100
AcDbEntity
  8
0
370
    -3
390
0
  6
Continuous
100
AcDbCircle
 10
-634.532449
 20
-238.126229
 30
0.0
 40
140.0
100
AcDbArc
 50
93.489726
 51
180.0
  0
ARC
  5
27B
100
AcDbEntity
  8
0
370
    -3
390
0
  6
Continuous
100
AcDbCircle
 10
-606.532449
 20
-697.273264
 30
0.0
 40
600.0
100
AcDbArc
 50
86.510274
 51
88.042013
  0
ARC
  5
27C
100
AcDbEntity
  8
0
370
    -3
390
0
  6
Continuous
100
AcDbCircle
 10
-578.532449
 20
-238.126229
 30
0.0
 40
140.0
100
AcDbArc
 50
0.0
 51
86.510274
  0
ARC
  5
27D
100
AcDbEntity
  8
0
370
    -3
390
0
  6
Continuous
100
AcDbCircle
 10
-597.032449
 20
-168.273264
 30
0.0
 40
5.0
100
AcDbArc
 50
180.0
 51
201.388038
  0
ARC
  5
27E
100
AcDbEntity
  8
0
370
    -3
390
0
  6
Continuous
100
AcDbCircle
 10
-616.032449
 20
-168.273264
 30
0.0
 40
5.0
100
AcDbArc
 50
338.611962
 51
0.0
  0
ARC
  5
27F
100
AcDbEntity
  8
0
370
    -3
390
0
  6
Continuous
100
AcDbCircle
 10
-597.032449
 20
-127.273264
 30
0.0
 40
5.0
100
AcDbArc
 50
90.0
 51
180.0
  0
ARC
  5
280
100
AcDbEntity
  8
0
370
    -3
390
0
  6
Continuous
100
AcDbCircle
 10
-589.032449
 20
-119.273264
 30
0.0
 40
3.0
100
AcDbArc
 50
270.0
 51
0.0
  0
ARC
  5
281
100
AcDbEntity
  8
0
370
    -3
390
0
  6
Continuous
100
AcDbCircle
 10
-624.032449
 20
-119.273264
 30
0.0
 40
3.0
100
AcDbArc
 50
180.0
 51
270.0
  0
LINE
  5
282
100
AcDbEntity
  8
0
370
    -3
390
0
  6
Continuous
100
AcDbLine
 10
-512.920355
 20
-374.521398
 30
0.0
 11
-477.064885
 21
-410.376868
 31
0.0
  0
LINE
  5
283
100
AcDbEntity
  8
0
370
    -3
390
0
  6
Continuous
100
AcDbLine
 10
-519.284316
 20
-380.885359
 30
0.0
 11
-485.050068
 21
-415.119606
 31
0.0
  0
LINE
  5
284
100
AcDbEntity
  8
0
370
    -3
390
0
  6
Continuous
100
AcDbLine
 10
-602.032449
 20
-406.273264
 30
0.0
 11
-602.032449
 21
-444.273264
 31
0.0
  0
LINE
  5
285
100
AcDbEntity
  8
0
370
    -3
390
0
  6
Continuous
100
AcDbLine
 10
-611.032449
 20
-406.273264
 30
0.0
 11
-611.032449
 21
-444.273264
 31
0.0
  0
LINE
  5
286
100
AcDbEntity
  8
0
370
    -3
390
0
  6
Continuous
100
AcDbLine
 10
-700.144544
 20
-374.521398
 30
0.0
 11
-736.000014
 21
-410.376868
 31
0.0
  0
LINE
  5
287
100
AcDbEntity
  8
0
370
    -3
390
0
  6
Continuous
100
AcDbLine
 10
-693.780583
 20
-380.885359
 30
0.0
 11
-728.01483
 21
-415.119606
 31
0.0
  0
LINE
  5
288
100
AcDbEntity
  8
0
370
    -3
390
0
  6
Continuous
100
AcDbLine
 10
-723.712247
 20
-291.773264
 30
0.0
 11
-764.532449
 21
-291.773264
 31
0.0
  0
LINE
  5
289
100
AcDbEntity
  8
0
370
    -3
390
0
  6
Continuous
100
AcDbLine
 10
-723.712247
 20
-282.773264
 30
0.0
 11
-764.532449
 21
-282.773264
 31
0.0
  0
LINE
  5
28A
100
AcDbEntity
  8
0
370
    -3
390
0
  6
Continuous
100
AcDbLine
 10
-693.780583
 20
-193.66117
 30
0.0
 11
-733.766957
 21
-153.674796
 31
0.0
  0
LINE
  5
28B
100
AcDbEntity
  8
0
370
    -3
390
0
  6
Continuous
100
AcDbLine
 10
-700.144544
 20
-200.025131
 30
0.0
 11
-738.570948
 21
-161.598727
 31
0.0
  0
LINE
  5
28C
100
AcDbEntity
  8
0
370
    -3
390
0
  6
Continuous
100
AcDbLine
 10
-512.920355
 20
-200.025131
 30
0.0
 11
-474.493951
 21
-161.598727
 31
0.0
  0
LINE
  5
28D
100
AcDbEntity
  8
0
370
    -3
390
0
  6
Continuous
100
AcDbLine
 10
-519.284316
 20
-193.66117
 30
0.0
 11
-479.297942
 21
-153.674796
 31
0.0
  0
LINE
  5
28E
100
AcDbEntity
  8
0
370
    -3
390
0
  6
Continuous
100
AcDbLine
 10
-765.299553
 20
-200.273264
 30
0.0
 11
-759.532449
 21
-200.273264
 31
0.0
  0
LINE
  5
28F
100
AcDbEntity
  8
0
370
    -3
390
0
  6
Continuous
100
AcDbLine
 10
-771.24611
 20
-226.273264
 30
0.0
 11
-759.532449
 21
-226.273264
 31
0.0
  0
LINE
  5
290
100
AcDbEntity
  8
0
370
    -3
390
0
  6
Continuous
100
AcDbLine
 10
-586.032449
 20
-97.623575
 30
0.0
 11
-586.032449
 21
-119.273264
 31
0.0
  0
LINE
  5
291
100
AcDbEntity
  8
0
370
    -3
390
0
  6
Continuous
100
AcDbLine
 10
-627.032449
 20
-97.623575
 30
0.0
 11
-627.032449
 21
-119.273264
 31
0.0
  0
LINE
  5
292
100
AcDbEntity
  8
0
370
    -3
390
0
  6
Continuous
100
AcDbLine
 10
-606.532449
 20
-122.273264
 30
0.0
 11
-589.032449
 21
-122.273264
 31
0.0
  0
LINE
  5
293
100
AcDbEntity
  8
0
370
    -3
390
0
  6
Continuous
100
AcDbLine
 10
-624.032449
 20
-122.273264
 30
0.0
 11
-606.532449
 21
-122.273264
 31
0.0
  0
LINE
  5
294
100
AcDbEntity
  8
0
370
    -3
390
0
  6
Continuous
100
AcDbLine
 10
-447.765346
 20
-200.273264
 30
0.0
 11
-453.532449
 21
-200.273264
 31
0.0
  0
LINE
  5
295
100
AcDbEntity
  8
0
370
    -3
390
0
  6
Continuous
100
AcDbLine
 10
-441.818789
 20
-226.273264
 30
0.0
 11
-453.532449
 21
-226.273264
 31
0.0
  0
LINE
  5
296
100
AcDbEntity
  8
0
370
    -3
390
0
  6
Continuous
100
AcDbLine
 10
-760.532449
 20
-412.273264
 30
0.0
 11
-749.340027
 21
-412.273264
 31
0.0
  0
LINE
  5
297
100
AcDbEntity
  8
0
370
    -3
390
0
  6
Continuous
100
AcDbLine
 10
-452.532449
 20
-412.273264
 30
0.0
 11
-463.724871
 21
-412.273264
 31
0.0
  0
LINE
  5
298
100
AcDbEntity
  8
0
370
    -3
390
0
  6
CENTER
100
AcDbLine
 10
-606.532449
 20
18.473734
 30
0.0
 11
-606.532449
 21
-476.497736
 31
0.0
  0
LINE
  5
299
100
AcDbEntity
  8
0
370
    -3
390
0
  6
Continuous
100
AcDbLine
 10
-774.532449
 20
-238.126229
 30
0.0
 11
-774.532449
 21
-398.273264
 31
0.0
  0
LINE
  5
29A
100
AcDbEntity
  8
0
370
    -3
390
0
  6
Continuous
100
AcDbLine
 10
-438.532449
 20
-238.126229
 30
0.0
 11
-438.532449
 21
-261.440964
 31
0.0
  0
LINE
  5
29B
100
AcDbEntity
  8
0
370
    -3
390
0
  6
Continuous
100
AcDbLine
 10
-602.032449
 20
-127.273264
 30
0.0
 11
-602.032449
 21
-168.273264
 31
0.0
  0
LINE
  5
29C
100
AcDbEntity
  8
0
370
    -3
390
0
  6
Continuous
100
AcDbLine
 10
-611.032449
 20
-127.273264
 30
0.0
 11
-611.032449
 21
-168.273264
 31
0.0
  0
LINE
  5
29D
100
AcDbEntity
  8
0
370
    -3
390
0
  6
Continuous
100
AcDbLine
 10
-606.532449
 20
-454.273264
 30
0.0
 11
-524.321347
 21
-454.273264
 31
0.0
  0
LINE
  5
29E
100
AcDbEntity
  8
0
370
    -3
390
0
  6
Continuous
100
AcDbLine
 10
-606.532449
 20
-454.273264
 30
0.0
 11
-688.743552
 21
-454.273264
 31
0.0
  0
ARC
  5
29F
100
AcDbEntity
  8
0
370
    -3
390
0
  6
Continuous
100
AcDbCircle
 10
-681.532449
 20
-442.273264
 30
0.0
 40
14.0
100
AcDbArc
 50
201.618272
 51
238.997281
  0
ARC
  5
2A0
100
AcDbEntity
  8
0
370
    -3
390
0
  6
Continuous
100
AcDbCircle
 10
-531.532449
 20
-442.273264
 30
0.0
 40
14.0
100
AcDbArc
 50
301.002719
 51
338.381728
  0
LINE
  5
2A1
100
AcDbEntity
  8
0
370
    -3
390
0
  6
Continuous
100
AcDbLine
 10
-746.532449
 20
-412.606324
 30
0.0
 11
-746.532449
 21
-442.273264
 31
0.0
  0
LINE
  5
2A2
100
AcDbEntity
  8
0
370
    -3
390
0
  6
Continuous
100
AcDbLine
 10
-466.532449
 20
-412.606324
 30
0.0
 11
-466.532449
 21
-442.273264
 31
0.0
  0
ARC
  5
2A3
100
AcDbEntity
  8
0
370
    -3
390
0
  6
Continuous
100
AcDbCircle
 10
-489.501641
 20
-123.677485
 30
0.0
 40
5.0
100
AcDbArc
 50
135.0
 51
232.120301
  0
ARC
  5
2A4
100
AcDbEntity
  8
0
370
    -3
390
0
  6
Continuous
100
AcDbCircle
 10
-505.535176
 20
-112.840962
 30
0.0
 40
5.0
100
AcDbArc
 50
239.772847
 51
315.0
  0
LINE
  5
2A5
100
AcDbEntity
  8
0
370
    -3
390
0
  6
Continuous
100
AcDbLine
 10
-439.733467
 20
-66.838243
 30
0.0
 11
-493.037175
 21
-120.141951
 31
0.0
  0
LINE
  5
2A6
100
AcDbEntity
  8
0
370
    -3
390
0
  6
Continuous
100
AcDbLine
 10
-447.790035
 20
-62.166889
 30
0.0
 11
-501.999642
 21
-116.376496
 31
0.0
  0
ARC
  5
2A7
100
AcDbEntity
  8
0
370
    -3
390
0
  6
Continuous
100
AcDbCircle
 10
-436.197933
 20
-70.373776
 30
0.0
 40
5.0
100
AcDbArc
 50
49.686078
 51
135.0
  0
ARC
  5
2A8
100
AcDbEntity
  8
0
370
    -3
390
0
  6
Continuous
100
AcDbCircle
 10
-451.325569
 20
-58.631355
 30
0.0
 40
5.0
100
AcDbArc
 50
315.0
 51
54.675041
  0
ARC
  5
2A9
100
AcDbEntity
  8
0
370
    -3
390
0
  6
Continuous
100
AcDbCircle
 10
-699.195971
 20
-449.273264
 30
0.0
 40
5.0
100
AcDbArc
 50
21.618272
 51
90.0
  0
ARC
  5
2AA
100
AcDbEntity
  8
0
370
    -3
390
0
  6
Continuous
100
AcDbCircle
 10
-744.532449
 20
-442.273264
 30
0.0
 40
2.0
100
AcDbArc
 50
180.0
 51
270.0
  0
LINE
  5
2AB
100
AcDbEntity
  8
0
370
    -3
390
0
  6
Continuous
100
AcDbLine
 10
-699.195971
 20
-444.273264
 30
0.0
 11
-744.532449
 21
-444.273264
 31
0.0
  0
ARC
  5
2AC
100
AcDbEntity
  8
0
370
    -3
390
0
  6
Continuous
100
AcDbCircle
 10
-513.868928
 20
-449.273264
 30
0.0
 40
5.0
100
AcDbArc
 50
90.0
 51
158.381728
  0
ARC
  5
2AD
100
AcDbEntity
  8
0
370
    -3
390
0
  6
Continuous
100
AcDbCircle
 10
-609.032449
 20
-63.505399
 30
0.0
 40
2.0
100
AcDbArc
 50
90.0
 51
141.97048
  0
ARC
  5
2AE
100
AcDbEntity
  8
0
370
    -3
390
0
  6
Continuous
100
AcDbCircle
 10
-604.032449
 20
-63.505399
 30
0.0
 40
2.0
100
AcDbArc
 50
38.02952
 51
90.0
  0
LINE
  5
2AF
100
AcDbEntity
  8
0
370
    -3
390
0
  6
Continuous
100
AcDbLine
 10
-609.032449
 20
-61.505399
 30
0.0
 11
-604.032449
 21
-61.505399
 31
0.0
  0
ARC
  5
2B0
100
AcDbEntity
  8
0
370
    -3
390
0
  6
Continuous
100
AcDbCircle
 10
-776.866966
 20
-70.373776
 30
0.0
 40
5.0
100
AcDbArc
 50
45.0
 51
130.313922
  0
ARC
  5
2B1
100
AcDbEntity
  8
0
370
    -3
390
0
  6
Continuous
100
AcDbCircle
 10
-761.739329
 20
-58.631355
 30
0.0
 40
5.0
100
AcDbArc
 50
125.324959
 51
225.0
  0
ARC
  5
2B2
100
AcDbEntity
  8
0
370
    -3
390
0
  6
Continuous
100
AcDbCircle
 10
-723.563258
 20
-123.677485
 30
0.0
 40
5.0
100
AcDbArc
 50
307.879699
 51
45.0
  0
ARC
  5
2B3
100
AcDbEntity
  8
0
370
    -3
390
0
  6
Continuous
100
AcDbCircle
 10
-707.529723
 20
-112.840962
 30
0.0
 40
5.0
100
AcDbArc
 50
225.0
 51
300.227153
  0
LINE
  5
2B4
100
AcDbEntity
  8
0
370
    -3
390
0
  6
Continuous
100
AcDbLine
 10
-773.331432
 20
-66.838243
 30
0.0
 11
-720.027724
 21
-120.141951
 31
0.0
  0
LINE
  5
2B5
100
AcDbEntity
  8
0
370
    -3
390
0
  6
Continuous
100
AcDbLine
 10
-765.274863
 20
-62.166889
 30
0.0
 11
-711.065257
 21
-116.376496
 31
0.0
  0
ARC
  5
2B6
100
AcDbEntity
  8
0
370
    -3
390
0
  6
Continuous
100
AcDbCircle
 10
-616.032449
 20
-17.273264
 30
0.0
 40
5.0
100
AcDbArc
 50
0.0
 51
90.0
  0
ARC
  5
2B7
100
AcDbEntity
  8
0
370
    -3
390
0
  6
Continuous
100
AcDbCircle
 10
-597.032449
 20
-17.273264
 30
0.0
 40
5.0
100
AcDbArc
 50
90.0
 51
180.0
  0
LINE
  5
2B8
100
AcDbEntity
  8
0
370
    -3
390
0
  6
Continuous
100
AcDbLine
 10
-602.032449
 20
-17.273264
 30
0.0
 11
-602.032449
 21
-62.273264
 31
0.0
  0
LINE
  5
2B9
100
AcDbEntity
  8
0
370
    -3
390
0
  6
Continuous
100
AcDbLine
 10
-611.032449
 20
-17.273264
 30
0.0
 11
-611.032449
 21
-62.273264
 31
0.0
  0
ARC
  5
2BA
100
AcDbEntity
  8
0
370
    -3
390
0
  6
Continuous
100
AcDbCircle
 10
-468.532449
 20
-442.273264
 30
0.0
 40
2.0
100
AcDbArc
 50
270.0
 51
0.0
  0
LINE
  5
2BB
100
AcDbEntity
  8
0
370
    -3
390
0
  6
Continuous
100
AcDbLine
 10
-513.868928
 20
-444.273264
 30
0.0
 11
-468.532449
 21
-444.273264
 31
0.0
  0
LINE
  5
2BC
100
AcDbEntity
  8
0
370
    -3
390
0
  6
Continuous
100
AcDbLine
 10
-401.532449
 20
-452.273264
 30
0.0
 11
-514.211941
 21
-452.273264
 31
0.0
  0
LINE
  5
2BD
100
AcDbEntity
  8
0
370
    -3
390
0
  6
Continuous
100
AcDbLine
 10
-811.532449
 20
-452.273264
 30
0.0
 11
-698.852957
 21
-452.273264
 31
0.0
  0
ARC
  5
2BE
100
AcDbEntity
  8
0
370
    -3
390
0
  6
Continuous
100
AcDbCircle
 10
-531.532449
 20
-442.273264
 30
0.0
 40
14.0
100
AcDbArc
 50
301.002719
 51
314.415309
  0
LINE
  5
2BF
100
AcDbEntity
  8
0
370
    -3
390
0
  6
Continuous
100
AcDbLine
 10
-606.532449
 20
-454.273264
 30
0.0
 11
-524.321347
 21
-454.273264
 31
0.0
  0
LINE
  5
2C0
100
AcDbEntity
  8
0
370
    -3
390
0
  6
Continuous
100
AcDbLine
 10
-606.532449
 20
-454.273264
 30
0.0
 11
-688.743552
 21
-454.273264
 31
0.0
  0
ARC
  5
2C1
100
AcDbEntity
  8
0
370
    -3
390
0
  6
Continuous
100
AcDbCircle
 10
-681.532449
 20
-442.273264
 30
0.0
 40
14.0
100
AcDbArc
 50
225.584691
 51
238.997281
  0
ARC
  5
2C2
100
AcDbEntity
  8
0
370
    -3
390
0
  6
Continuous
100
AcDbCircle
 10
-401.532449
 20
-22.273264
 30
0.0
 40
20.0
100
AcDbArc
 50
0.0
 51
90.0
  0
LINE
  5
2C3
100
AcDbEntity
  8
0
370
    -3
390
0
  6
Continuous
100
AcDbLine
 10
-811.532449
 20
-2.273264
 30
0.0
 11
-401.532449
 21
-2.273264
 31
0.0
  0
ARC
  5
2C4
100
AcDbEntity
  8
0
370
    -3
390
0
  6
Continuous
100
AcDbCircle
 10
-811.532449
 20
-22.273264
 30
0.0
 40
20.0
100
AcDbArc
 50
90.0
 51
180.0
  0
LINE
  5
2C5
100
AcDbEntity
  8
0
370
    -3
390
0
  6
Continuous
100
AcDbLine
 10
-831.532449
 20
-22.273264
 30
0.0
 11
-831.532449
 21
-432.273264
 31
0.0
  0
ARC
  5
2C6
100
AcDbEntity
  8
0
370
    -3
390
0
  6
Continuous
100
AcDbCircle
 10
-811.532449
 20
-432.273264
 30
0.0
 40
20.0
100
AcDbArc
 50
180.0
 51
270.0
  0
LINE
  5
2C7
100
AcDbEntity
  8
0
370
    -3
390
0
  6
Continuous
100
AcDbLine
 10
-381.532449
 20
-22.273264
 30
0.0
 11
-381.532449
 21
-432.273264
 31
0.0
  0
ARC
  5
2C8
100
AcDbEntity
  8
0
370
    -3
390
0
  6
Continuous
100
AcDbCircle
 10
-401.532449
 20
-432.273264
 30
0.0
 40
20.0
100
AcDbArc
 50
270.0
 51
0.0
  0
ARC
  5
2C9
100
AcDbEntity
  8
0
370
    -3
390
0
  6
Continuous
100
AcDbCircle
 10
-617.032449
 20
-72.273264
 30
0.0
 40
10.0
100
AcDbArc
 50
90.0
 51
180.0
  0
LINE
  5
2CA
100
AcDbEntity
  8
0
370
    -3
390
0
  6
Continuous
100
AcDbLine
 10
-627.032449
 20
-72.273264
 30
0.0
 11
-627.032449
 21
-97.623575
 31
0.0
  0
LINE
  5
2CB
100
AcDbEntity
  8
0
370
    -3
390
0
  6
CENTER
100
AcDbLine
 10
-583.364536
 20
-82.273264
 30
0.0
 11
-630.38705
 21
-82.273264
 31
0.0
  0
LINE
  5
2CC
100
AcDbEntity
  8
0
370
    -3
390
0
  6
Continuous
100
AcDbLine
 10
-596.032449
 20
-62.273264
 30
0.0
 11
-617.032449
 21
-62.273264
 31
0.0
  0
ARC
  5
2CD
100
AcDbEntity
  8
0
370
    -3
390
0
  6
Continuous
100
AcDbCircle
 10
-596.032449
 20
-72.273264
 30
0.0
 40
10.0
100
AcDbArc
 50
0.0
 51
90.0
  0
LINE
  5
2CE
100
AcDbEntity
  8
0
370
    -3
390
0
  6
Continuous
100
AcDbLine
 10
-586.032449
 20
-72.273264
 30
0.0
 11
-586.032449
 21
-97.623575
 31
0.0
  0
ARC
  5
2CF
100
AcDbEntity
  8
0
370
    -3
390
0
  6
Continuous
100
AcDbCircle
 10
-606.532449
 20
-697.273264
 30
0.0
 40
600.0
100
AcDbArc
 50
91.957987
 51
93.489726
  0
LINE
  5
2D0
100
AcDbEntity
  8
0
370
    -3
390
0
  6
Continuous
100
AcDbLine
 10
-617.032445
 20
-113.737362
 30
0.0
 11
-614.032452
 21
-112.005311
 31
0.0
  0
LINE
  5
2D1
100
AcDbEntity
  8
0
370
    -3
390
0
  6
Continuous
100
AcDbLine
 10
-617.032456
 20
-106.809167
 30
0.0
 11
-620.032447
 21
-108.541218
 31
0.0
  0
LINE
  5
2D2
100
AcDbEntity
  8
0
370
    -3
390
0
  6
Continuous
100
AcDbLine
 10
-620.032447
 20
-112.005316
 30
0.0
 11
-617.032445
 21
-113.737363
 31
0.0
  0
LINE
  5
2D3
100
AcDbEntity
  8
0
370
    -3
390
0
  6
Continuous
100
AcDbLine
 10
-617.032456
 20
-106.809167
 30
0.0
 11
-614.032451
 21
-108.541212
 31
0.0
  0
LINE
  5
2D4
100
AcDbEntity
  8
0
370
    -3
390
0
  6
Continuous
100
AcDbLine
 10
-620.032446
 20
-108.541217
 30
0.0
 11
-620.032447
 21
-112.005315
 31
0.0
  0
LINE
  5
2D5
100
AcDbEntity
  8
0
370
    -3
390
0
  6
Continuous
100
AcDbLine
 10
-614.032453
 20
-112.00531
 30
0.0
 11
-614.032452
 21
-108.541212
 31
0.0
  0
CIRCLE
  5
2D6
100
AcDbEntity
  8
0
370
    -3
390
0
  6
Continuous
100
AcDbCircle
 10
-617.032449
 20
-110.273264
 30
0.0
 40
6.5
  0
CIRCLE
  5
2D7
100
AcDbEntity
  8
0
370
    -3
390
0
  6
Continuous
100
AcDbCircle
 10
-617.032449
 20
-110.273264
 30
0.0
 40
5.633955
  0
LINE
  5
2D8
100
AcDbEntity
  8
0
370
    -3
390
0
  6
Continuous
100
AcDbLine
 10
-596.032454
 20
-113.737362
 30
0.0
 11
-599.032447
 21
-112.005311
 31
0.0
  0
LINE
  5
2D9
100
AcDbEntity
  8
0
370
    -3
390
0
  6
Continuous
100
AcDbLine
 10
-596.032443
 20
-106.809167
 30
0.0
 11
-593.032452
 21
-108.541218
 31
0.0
  0
LINE
  5
2DA
100
AcDbEntity
  8
0
370
    -3
390
0
  6
Continuous
100
AcDbLine
 10
-593.032451
 20
-112.005316
 30
0.0
 11
-596.032454
 21
-113.737363
 31
0.0
  0
LINE
  5
2DB
100
AcDbEntity
  8
0
370
    -3
390
0
  6
Continuous
100
AcDbLine
 10
-596.032443
 20
-106.809167
 30
0.0
 11
-599.032447
 21
-108.541212
 31
0.0
  0
LINE
  5
2DC
100
AcDbEntity
  8
0
370
    -3
390
0
  6
Continuous
100
AcDbLine
 10
-593.032453
 20
-108.541217
 30
0.0
 11
-593.032452
 21
-112.005315
 31
0.0
  0
LINE
  5
2DD
100
AcDbEntity
  8
0
370
    -3
390
0
  6
Continuous
100
AcDbLine
 10
-599.032446
 20
-112.00531
 30
0.0
 11
-599.032447
 21
-108.541212
 31
0.0
  0
CIRCLE
  5
2DE
100
AcDbEntity
  8
0
370
    -3
390
0
  6
Continuous
100
AcDbCircle
 10
-596.032449
 20
-110.273264
 30
0.0
 40
6.5
  0
CIRCLE
  5
2DF
100
AcDbEntity
  8
0
370
    -3
390
0
  6
Continuous
100
AcDbCircle
 10
-596.032449
 20
-110.273264
 30
0.0
 40
5.633955
  0
LINE
  5
2E0
100
AcDbEntity
  8
0
370
    -3
390
0
  6
Continuous
100
AcDbLine
 10
-531.53245
 20
-121.160019
 30
0.0
 11
-536.532458
 21
-124.046765
 31
0.0
  0
LINE
  5
2E1
100
AcDbEntity
  8
0
370
    -3
390
0
  6
Continuous
100
AcDbLine
 10
-541.532448
 20
-115.386509
 30
0.0
 11
-536.532441
 21
-112.499765
 31
0.0
  0
LINE
  5
2E2
100
AcDbEntity
  8
0
370
    -3
390
0
  6
Continuous
100
AcDbLine
 10
-536.532458
 20
-124.046763
 30
0.0
 11
-541.532447
 21
-121.160009
 31
0.0
  0
LINE
  5
2E3
100
AcDbEntity
  8
0
370
    -3
390
0
  6
Continuous
100
AcDbLine
 10
-531.532451
 20
-115.38652
 30
0.0
 11
-536.532441
 21
-112.499765
 31
0.0
  0
LINE
  5
2E4
100
AcDbEntity
  8
0
370
    -3
390
0
  6
Continuous
100
AcDbLine
 10
-531.532452
 20
-115.386521
 30
0.0
 11
-531.532451
 21
-121.160019
 31
0.0
  0
LINE
  5
2E5
100
AcDbEntity
  8
0
370
    -3
390
0
  6
Continuous
100
AcDbLine
 10
-541.532447
 20
-121.160009
 30
0.0
 11
-541.532448
 21
-115.386509
 31
0.0
  0
CIRCLE
  5
2E6
100
AcDbEntity
  8
0
370
    -3
390
0
  6
Continuous
100
AcDbCircle
 10
-536.532449
 20
-118.273264
 30
0.0
 40
9.0
  0
CIRCLE
  5
2E7
100
AcDbEntity
  8
0
370
    -3
390
0
  6
Continuous
100
AcDbCircle
 10
-536.532449
 20
-118.273264
 30
0.0
 40
7.787524
  0
LINE
  5
2E8
100
AcDbEntity
  8
0
370
    -3
390
0
  6
Continuous
100
AcDbLine
 10
-456.153297
 20
-254.012911
 30
0.0
 11
-453.532441
 21
-252.499765
 31
0.0
  0
LINE
  5
2E9
100
AcDbEntity
  8
0
370
    -3
390
0
  6
Continuous
100
AcDbLine
 10
-448.830495
 20
-255.214444
 30
0.0
 11
-453.532441
 21
-252.499765
 31
0.0
  0
ARC
  5
2EA
100
AcDbEntity
  8
0
370
    -3
390
0
  6
Continuous
100
AcDbCircle
 10
-453.532449
 20
-258.273264
 30
0.0
 40
9.0
100
AcDbArc
 50
12.223013
 51
145.84884
  0
ARC
  5
2EB
100
AcDbEntity
  8
0
370
    -3
390
0
  6
Continuous
100
AcDbCircle
 10
-453.532449
 20
-258.273264
 30
0.0
 40
7.787524
100
AcDbArc
 50
18.26558
 51
141.645595
  0
LINE
  5
2EC
100
AcDbEntity
  8
0
370
    -3
390
0
  6
Continuous
100
AcDbLine
 10
-447.53245
 20
-401.160019
 30
0.0
 11
-452.532458
 21
-404.046765
 31
0.0
  0
LINE
  5
2ED
100
AcDbEntity
  8
0
370
    -3
390
0
  6
Continuous
100
AcDbLine
 10
-457.532448
 20
-395.386509
 30
0.0
 11
-452.532441
 21
-392.499765
 31
0.0
  0
LINE
  5
2EE
100
AcDbEntity
  8
0
370
    -3
390
0
  6
Continuous
100
AcDbLine
 10
-452.532458
 20
-404.046763
 30
0.0
 11
-457.532447
 21
-401.160009
 31
0.0
  0
LINE
  5
2EF
100
AcDbEntity
  8
0
370
    -3
390
0
  6
Continuous
100
AcDbLine
 10
-447.532451
 20
-395.38652
 30
0.0
 11
-452.532441
 21
-392.499765
 31
0.0
  0
LINE
  5
2F0
100
AcDbEntity
  8
0
370
    -3
390
0
  6
Continuous
100
AcDbLine
 10
-447.532452
 20
-395.386521
 30
0.0
 11
-447.532451
 21
-401.160019
 31
0.0
  0
LINE
  5
2F1
100
AcDbEntity
  8
0
370
    -3
390
0
  6
Continuous
100
AcDbLine
 10
-457.532447
 20
-401.160009
 30
0.0
 11
-457.532448
 21
-395.386509
 31
0.0
  0
CIRCLE
  5
2F2
100
AcDbEntity
  8
0
370
    -3
390
0
  6
Continuous
100
AcDbCircle
 10
-452.532449
 20
-398.273264
 30
0.0
 40
9.0
  0
CIRCLE
  5
2F3
100
AcDbEntity
  8
0
370
    -3
390
0
  6
Continuous
100
AcDbCircle
 10
-452.532449
 20
-398.273264
 30
0.0
 40
7.787524
  0
LINE
  5
2F4
100
AcDbEntity
  8
0
370
    -3
390
0
  6
Continuous
100
AcDbLine
 10
-526.53245
 20
-445.160019
 30
0.0
 11
-531.532458
 21
-448.046765
 31
0.0
  0
LINE
  5
2F5
100
AcDbEntity
  8
0
370
    -3
390
0
  6
Continuous
100
AcDbLine
 10
-536.532448
 20
-439.386509
 30
0.0
 11
-531.532441
 21
-436.499765
 31
0.0
  0
LINE
  5
2F6
100
AcDbEntity
  8
0
370
    -3
390
0
  6
Continuous
100
AcDbLine
 10
-531.532458
 20
-448.046763
 30
0.0
 11
-536.532447
 21
-445.160009
 31
0.0
  0
LINE
  5
2F7
100
AcDbEntity
  8
0
370
    -3
390
0
  6
Continuous
100
AcDbLine
 10
-526.532451
 20
-439.38652
 30
0.0
 11
-531.532441
 21
-436.499765
 31
0.0
  0
LINE
  5
2F8
100
AcDbEntity
  8
0
370
    -3
390
0
  6
Continuous
100
AcDbLine
 10
-526.532452
 20
-439.386521
 30
0.0
 11
-526.532451
 21
-445.160019
 31
0.0
  0
LINE
  5
2F9
100
AcDbEntity
  8
0
370
    -3
390
0
  6
Continuous
100
AcDbLine
 10
-536.532447
 20
-445.160009
 30
0.0
 11
-536.532448
 21
-439.386509
 31
0.0
  0
CIRCLE
  5
2FA
100
AcDbEntity
  8
0
370
    -3
390
0
  6
Continuous
100
AcDbCircle
 10
-531.532449
 20
-442.273264
 30
0.0
 40
9.0
  0
CIRCLE
  5
2FB
100
AcDbEntity
  8
0
370
    -3
390
0
  6
Continuous
100
AcDbCircle
 10
-531.532449
 20
-442.273264
 30
0.0
 40
7.787524
  0
LINE
  5
2FC
100
AcDbEntity
  8
0
370
    -3
390
0
  6
Continuous
100
AcDbLine
 10
-686.532449
 20
-445.160019
 30
0.0
 11
-681.53244
 21
-448.046765
 31
0.0
  0
LINE
  5
2FD
100
AcDbEntity
  8
0
370
    -3
390
0
  6
Continuous
100
AcDbLine
 10
-676.53245
 20
-439.386509
 30
0.0
 11
-681.532457
 21
-436.499765
 31
0.0
  0
LINE
  5
2FE
100
AcDbEntity
  8
0
370
    -3
390
0
  6
Continuous
100
AcDbLine
 10
-681.532441
 20
-448.046763
 30
0.0
 11
-676.532452
 21
-445.160009
 31
0.0
  0
LINE
  5
2FF
100
AcDbEntity
  8
0
370
    -3
390
0
  6
Continuous
100
AcDbLine
 10
-686.532447
 20
-439.38652
 30
0.0
 11
-681.532458
 21
-436.499765
 31
0.0
  0
LINE
  5
300
100
AcDbEntity
  8
0
370
    -3
390
0
  6
Continuous
100
AcDbLine
 10
-686.532447
 20
-439.386521
 30
0.0
 11
-686.532448
 21
-445.160019
 31
0.0
  0
LINE
  5
301
100
AcDbEntity
  8
0
370
    -3
390
0
  6
Continuous
100
AcDbLine
 10
-676.532452
 20
-445.160009
 30
0.0
 11
-676.532451
 21
-439.386509
 31
0.0
  0
CIRCLE
  5
302
100
AcDbEntity
  8
0
370
    -3
390
0
  6
Continuous
100
AcDbCircle
 10
-681.532449
 20
-442.273264
 30
0.0
 40
9.0
  0
CIRCLE
  5
303
100
AcDbEntity
  8
0
370
    -3
390
0
  6
Continuous
100
AcDbCircle
 10
-681.532449
 20
-442.273264
 30
0.0
 40
7.787524
  0
LINE
  5
304
100
AcDbEntity
  8
0
370
    -3
390
0
  6
Continuous
100
AcDbLine
 10
-765.532449
 20
-401.160019
 30
0.0
 11
-760.53244
 21
-404.046765
 31
0.0
  0
LINE
  5
305
100
AcDbEntity
  8
0
370
    -3
390
0
  6
Continuous
100
AcDbLine
 10
-755.53245
 20
-395.386509
 30
0.0
 11
-760.532457
 21
-392.499765
 31
0.0
  0
LINE
  5
306
100
AcDbEntity
  8
0
370
    -3
390
0
  6
Continuous
100
AcDbLine
 10
-760.532441
 20
-404.046763
 30
0.0
 11
-755.532452
 21
-401.160009
 31
0.0
  0
LINE
  5
307
100
AcDbEntity
  8
0
370
    -3
390
0
  6
Continuous
100
AcDbLine
 10
-765.532447
 20
-395.38652
 30
0.0
 11
-760.532458
 21
-392.499765
 31
0.0
  0
LINE
  5
308
100
AcDbEntity
  8
0
370
    -3
390
0
  6
Continuous
100
AcDbLine
 10
-765.532447
 20
-395.386521
 30
0.0
 11
-765.532448
 21
-401.160019
 31
0.0
  0
LINE
  5
309
100
AcDbEntity
  8
0
370
    -3
390
0
  6
Continuous
100
AcDbLine
 10
-755.532452
 20
-401.160009
 30
0.0
 11
-755.532451
 21
-395.386509
 31
0.0
  0
CIRCLE
  5
30A
100
AcDbEntity
  8
0
370
    -3
390
0
  6
Continuous
100
AcDbCircle
 10
-760.532449
 20
-398.273264
 30
0.0
 40
9.0
  0
CIRCLE
  5
30B
100
AcDbEntity
  8
0
370
    -3
390
0
  6
Continuous
100
AcDbCircle
 10
-760.532449
 20
-398.273264
 30
0.0
 40
7.787524
  0
LINE
  5
30C
100
AcDbEntity
  8
0
370
    -3
390
0
  6
Continuous
100
AcDbLine
 10
-764.532449
 20
-261.160019
 30
0.0
 11
-759.53244
 21
-264.046765
 31
0.0
  0
LINE
  5
30D
100
AcDbEntity
  8
0
370
    -3
390
0
  6
Continuous
100
AcDbLine
 10
-754.53245
 20
-255.386509
 30
0.0
 11
-759.532457
 21
-252.499765
 31
0.0
  0
LINE
  5
30E
100
AcDbEntity
  8
0
370
    -3
390
0
  6
Continuous
100
AcDbLine
 10
-759.532441
 20
-264.046763
 30
0.0
 11
-754.532452
 21
-261.160009
 31
0.0
  0
LINE
  5
30F
100
AcDbEntity
  8
0
370
    -3
390
0
  6
Continuous
100
AcDbLine
 10
-764.532447
 20
-255.38652
 30
0.0
 11
-759.532458
 21
-252.499765
 31
0.0
  0
LINE
  5
310
100
AcDbEntity
  8
0
370
    -3
390
0
  6
Continuous
100
AcDbLine
 10
-764.532447
 20
-255.386521
 30
0.0
 11
-764.532448
 21
-261.160019
 31
0.0
  0
LINE
  5
311
100
AcDbEntity
  8
0
370
    -3
390
0
  6
Continuous
100
AcDbLine
 10
-754.532452
 20
-261.160009
 30
0.0
 11
-754.532451
 21
-255.386509
 31
0.0
  0
CIRCLE
  5
312
100
AcDbEntity
  8
0
370
    -3
390
0
  6
Continuous
100
AcDbCircle
 10
-759.532449
 20
-258.273264
 30
0.0
 40
9.0
  0
CIRCLE
  5
313
100
AcDbEntity
  8
0
370
    -3
390
0
  6
Continuous
100
AcDbCircle
 10
-759.532449
 20
-258.273264
 30
0.0
 40
7.787524
  0
LINE
  5
314
100
AcDbEntity
  8
0
370
    -3
390
0
  6
Continuous
100
AcDbLine
 10
-681.532449
 20
-121.160019
 30
0.0
 11
-676.53244
 21
-124.046765
 31
0.0
  0
LINE
  5
315
100
AcDbEntity
  8
0
370
    -3
390
0
  6
Continuous
100
AcDbLine
 10
-671.53245
 20
-115.386509
 30
0.0
 11
-676.532457
 21
-112.499765
 31
0.0
  0
LINE
  5
316
100
AcDbEntity
  8
0
370
    -3
390
0
  6
Continuous
100
AcDbLine
 10
-676.532441
 20
-124.046763
 30
0.0
 11
-671.532452
 21
-121.160009
 31
0.0
  0
LINE
  5
317
100
AcDbEntity
  8
0
370
    -3
390
0
  6
Continuous
100
AcDbLine
 10
-681.532447
 20
-115.38652
 30
0.0
 11
-676.532458
 21
-112.499765
 31
0.0
  0
LINE
  5
318
100
AcDbEntity
  8
0
370
    -3
390
0
  6
Continuous
100
AcDbLine
 10
-681.532447
 20
-115.386521
 30
0.0
 11
-681.532448
 21
-121.160019
 31
0.0
  0
LINE
  5
319
100
AcDbEntity
  8
0
370
    -3
390
0
  6
Continuous
100
AcDbLine
 10
-671.532452
 20
-121.160009
 30
0.0
 11
-671.532451
 21
-115.386509
 31
0.0
  0
CIRCLE
  5
31A
100
AcDbEntity
  8
0
370
    -3
390
0
  6
Continuous
100
AcDbCircle
 10
-676.532449
 20
-118.273264
 30
0.0
 40
9.0
  0
CIRCLE
  5
31B
100
AcDbEntity
  8
0
370
    -3
390
0
  6
Continuous
100
AcDbCircle
 10
-676.532449
 20
-118.273264
 30
0.0
 40
7.787524
  0
CIRCLE
  5
31C
100
AcDbEntity
  8
0
370
    -3
390
0
  6
Continuous
100
AcDbCircle
 10
-516.532449
 20
-147.273264
 30
0.0
 40
17.5
  0
CIRCLE
  5
31D
100
AcDbEntity
  8
0
370
    -3
390
0
  6
Continuous
100
AcDbCircle
 10
-516.532449
 20
-147.273264
 30
0.0
 40
9.35
  0
CIRCLE
  5
31E
100
AcDbEntity
  8
0
370
    -3
390
0
  6
Continuous
100
AcDbCircle
 10
-516.532449
 20
-147.273264
 30
0.0
 40
10.5
  0
LINE
  5
31F
100
AcDbEntity
  8
0
370
    -3
390
0
  6
CENTER
100
AcDbLine
 10
-516.532449
 20
-171.36607
 30
0.0
 11
-516.532449
 21
-121.771742
 31
0.0
  0
LINE
  5
320
100
AcDbEntity
  8
0
370
    -3
390
0
  6
CENTER
100
AcDbLine
 10
-552.825909
 20
-147.273264
 30
0.0
 11
-481.342868
 21
-147.273264
 31
0.0
  0
ARC
  5
321
100
AcDbEntity
  8
0
370
    -3
390
0
  6
Continuous
100
AcDbCircle
 10
28.551453
 20
97.726736
 30
0.0
 40
3.0
100
AcDbArc
 50
180.0
 51
270.0
  0
LINE
  5
322
100
AcDbEntity
  8
0
370
    -3
390
0
  6
Continuous
100
AcDbLine
 10
23.551453
 20
94.726736
 30
0.0
 11
38.551453
 21
94.726736
 31
0.0
  0
ARC
  5
323
100
AcDbEntity
  8
0
370
    -3
390
0
  6
Continuous
100
AcDbCircle
 10
23.551453
 20
97.726736
 30
0.0
 40
3.0
100
AcDbArc
 50
180.0
 51
270.0
  0
LINE
  5
324
100
AcDbEntity
  8
0
370
    -3
390
0
  6
Continuous
100
AcDbLine
 10
20.551453
 20
119.726736
 30
0.0
 11
20.551453
 21
97.726736
 31
0.0
  0
ARC
  5
325
100
AcDbEntity
  8
0
370
    -3
390
0
  6
Continuous
100
AcDbCircle
 10
23.551453
 20
119.726736
 30
0.0
 40
3.0
100
AcDbArc
 50
99.594068
 51
180.0
  0
ARC
  5
326
100
AcDbEntity
  8
0
370
    -3
390
0
  6
Continuous
100
AcDbCircle
 10
22.551453
 20
125.642815
 30
0.0
 40
3.0
100
AcDbArc
 50
279.594068
 51
0.0
  0
LINE
  5
327
100
AcDbEntity
  8
0
370
    -3
390
0
  6
Continuous
100
AcDbLine
 10
13.551495
 20
101.939
 30
0.0
 11
13.55148
 21
117.514075
 31
0.0
  0
LINE
  5
328
100
AcDbEntity
  8
0
370
    -3
390
0
  6
Continuous
100
AcDbLine
 10
14.251472
 20
118.726736
 30
0.0
 11
13.551475
 21
117.514077
 31
0.0
  0
LINE
  5
329
100
AcDbEntity
  8
0
370
    -3
390
0
  6
Continuous
100
AcDbLine
 10
14.251491
 20
100.726733
 30
0.0
 11
13.551494
 21
101.938997
 31
0.0
  0
LINE
  5
32A
100
AcDbEntity
  8
0
370
    -3
390
0
  6
Continuous
100
AcDbLine
 10
14.251477
 20
118.726736
 30
0.0
 11
14.251477
 21
100.726736
 31
0.0
  0
LINE
  5
32B
100
AcDbEntity
  8
0
370
    -3
390
0
  6
Continuous
100
AcDbLine
 10
20.551453
 20
100.726736
 30
0.0
 11
14.251492
 21
100.726736
 31
0.0
  0
LINE
  5
32C
100
AcDbEntity
  8
0
370
    -3
390
0
  6
Continuous
100
AcDbLine
 10
20.551453
 20
118.726736
 30
0.0
 11
14.251477
 21
118.726736
 31
0.0
  0
ARC
  5
32D
100
AcDbEntity
  8
0
370
    -3
390
0
  6
Continuous
100
AcDbCircle
 10
18.551453
 20
245.226736
 30
0.0
 40
3.0
100
AcDbArc
 50
180.0
 51
270.0
  0
LINE
  5
32E
100
AcDbEntity
  8
0
370
    -3
390
0
  6
Continuous
100
AcDbLine
 10
18.551453
 20
242.226736
 30
0.0
 11
22.551453
 21
242.226736
 31
0.0
  0
ARC
  5
32F
100
AcDbEntity
  8
0
370
    -3
390
0
  6
Continuous
100
AcDbCircle
 10
22.551453
 20
239.226736
 30
0.0
 40
3.0
100
AcDbArc
 50
0.0
 51
90.0
  0
LINE
  5
330
100
AcDbEntity
  8
0
370
    -3
390
0
  6
Continuous
100
AcDbLine
 10
11.051453
 20
262.726736
 30
0.0
 11
11.051453
 21
242.226736
 31
0.0
  0
LINE
  5
331
100
AcDbEntity
  8
0
370
    -3
390
0
  6
Continuous
100
AcDbLine
 10
15.551453
 20
262.726736
 30
0.0
 11
15.551453
 21
242.226736
 31
0.0
  0
LINE
  5
332
100
AcDbEntity
  8
0
370
    -3
390
0
  6
Continuous
100
AcDbLine
 10
11.051453
 20
242.226736
 30
0.0
 11
15.551453
 21
242.226736
 31
0.0
  0
LINE
  5
333
100
AcDbEntity
  8
0
370
    -3
390
0
  6
Continuous
100
AcDbLine
 10
3.551454
 20
258.726736
 30
0.0
 11
3.551454
 21
245.726736
 31
0.0
  0
LINE
  5
334
100
AcDbEntity
  8
0
370
    -3
390
0
  6
Continuous
100
AcDbLine
 10
3.551455
 20
245.726736
 30
0.0
 11
3.051454
 21
246.592665
 31
0.0
  0
LINE
  5
335
100
AcDbEntity
  8
0
370
    -3
390
0
  6
Continuous
100
AcDbLine
 10
3.551455
 20
258.726736
 30
0.0
 11
3.051455
 21
257.860612
 31
0.0
  0
LINE
  5
336
100
AcDbEntity
  8
0
370
    -3
390
0
  6
Continuous
100
AcDbLine
 10
11.051453
 20
258.726736
 30
0.0
 11
3.551454
 21
258.726736
 31
0.0
  0
LINE
  5
337
100
AcDbEntity
  8
0
370
    -3
390
0
  6
Continuous
100
AcDbLine
 10
3.051454
 20
257.860612
 30
0.0
 11
3.051454
 21
246.592665
 31
0.0
  0
LINE
  5
338
100
AcDbEntity
  8
0
370
    -3
390
0
  6
Continuous
100
AcDbLine
 10
11.051453
 20
245.726736
 30
0.0
 11
3.551455
 21
245.726736
 31
0.0
  0
LINE
  5
339
100
AcDbEntity
  8
0
370
    -3
390
0
  6
Continuous
100
AcDbLine
 10
25.551453
 20
262.726736
 30
0.0
 11
25.551453
 21
97.726736
 31
0.0
  0
LINE
  5
33A
100
AcDbEntity
  8
0
370
    -3
390
0
  6
Continuous
100
AcDbLine
 10
-16.448547
 20
152.726736
 30
0.0
 11
-16.448547
 21
262.726736
 31
0.0
  0
LINE
  5
33B
100
AcDbEntity
  8
0
370
    -3
390
0
  6
Continuous
100
AcDbLine
 10
-6.448547
 20
258.226736
 30
0.0
 11
3.262812
 21
258.226736
 31
0.0
  0
ARC
  5
33C
100
AcDbEntity
  8
0
370
    -3
390
0
  6
Continuous
100
AcDbCircle
 10
-6.448547
 20
253.226736
 30
0.0
 40
5.0
100
AcDbArc
 50
90.0
 51
180.0
  0
ARC
  5
33D
100
AcDbEntity
  8
0
370
    -3
390
0
  6
Continuous
100
AcDbCircle
 10
20.551453
 20
132.333324
 30
0.0
 40
5.0
100
AcDbArc
 50
0.0
 51
37.441769
  0
LINE
  5
33E
100
AcDbEntity
  8
0
370
    -3
390
0
  6
Continuous
100
AcDbLine
 10
-9.947576
 20
180.388479
 30
0.0
 11
24.521311
 21
135.373098
 31
0.0
  0
ARC
  5
33F
100
AcDbEntity
  8
0
370
    -3
390
0
  6
Continuous
100
AcDbCircle
 10
-13.917434
 20
177.348705
 30
0.0
 40
5.0
100
AcDbArc
 50
37.441769
 51
90.0
  0
LINE
  5
340
100
AcDbEntity
  8
0
370
    -3
390
0
  6
Continuous
100
AcDbLine
 10
-7.472733
 20
182.348705
 30
0.0
 11
23.061912
 21
182.348705
 31
0.0
  0
ARC
  5
341
100
AcDbEntity
  8
0
370
    -3
390
0
  6
Continuous
100
AcDbCircle
 10
-13.917434
 20
170.473646
 30
0.0
 40
5.0
100
AcDbArc
 50
37.441769
 51
90.0
  0
ARC
  5
342
100
AcDbEntity
  8
0
370
    -3
390
0
  6
Continuous
100
AcDbCircle
 10
20.551453
 20
125.458265
 30
0.0
 40
5.0
100
AcDbArc
 50
0.0
 51
37.441769
  0
LINE
  5
343
100
AcDbEntity
  8
0
370
    -3
390
0
  6
Continuous
100
AcDbLine
 10
-9.947576
 20
173.51342
 30
0.0
 11
24.521311
 21
128.498039
 31
0.0
  0
LINE
  5
344
100
AcDbEntity
  8
0
370
    -3
390
0
  6
Continuous
100
AcDbLine
 10
6.906284
 20
151.502761
 30
0.0
 11
-16.448547
 21
152.726736
 31
0.0
  0
ARC
  5
345
100
AcDbEntity
  8
0
370
    -3
390
0
  6
Continuous
100
AcDbCircle
 10
-14.1427
 20
147.59903
 30
0.0
 40
5.0
100
AcDbArc
 50
35.052805
 51
87.0
  0
LINE
  5
346
100
AcDbEntity
  8
0
370
    -3
390
0
  6
Continuous
100
AcDbLine
 10
-10.049585
 20
150.470685
 30
0.0
 11
13.55148
 21
116.8309
 31
0.0
  0
ARC
  5
347
100
AcDbEntity
  8
0
370
    -3
390
0
  6
Continuous
100
AcDbCircle
 10
28.551453
 20
427.726736
 30
0.0
 40
3.0
100
AcDbArc
 50
90.0
 51
180.0
  0
LINE
  5
348
100
AcDbEntity
  8
0
370
    -3
390
0
  6
Continuous
100
AcDbLine
 10
23.551453
 20
430.726736
 30
0.0
 11
38.551453
 21
430.726736
 31
0.0
  0
ARC
  5
349
100
AcDbEntity
  8
0
370
    -3
390
0
  6
Continuous
100
AcDbCircle
 10
23.551453
 20
427.726736
 30
0.0
 40
3.0
100
AcDbArc
 50
90.0
 51
180.0
  0
LINE
  5
34A
100
AcDbEntity
  8
0
370
    -3
390
0
  6
Continuous
100
AcDbLine
 10
20.551453
 20
405.726736
 30
0.0
 11
20.551453
 21
427.726736
 31
0.0
  0
ARC
  5
34B
100
AcDbEntity
  8
0
370
    -3
390
0
  6
Continuous
100
AcDbCircle
 10
23.551453
 20
405.726736
 30
0.0
 40
3.0
100
AcDbArc
 50
180.0
 51
260.405932
  0
ARC
  5
34C
100
AcDbEntity
  8
0
370
    -3
390
0
  6
Continuous
100
AcDbCircle
 10
22.551453
 20
399.810656
 30
0.0
 40
3.0
100
AcDbArc
 50
0.0
 51
80.405932
  0
LINE
  5
34D
100
AcDbEntity
  8
0
370
    -3
390
0
  6
Continuous
100
AcDbLine
 10
13.551495
 20
423.514471
 30
0.0
 11
13.55148
 21
407.939396
 31
0.0
  0
LINE
  5
34E
100
AcDbEntity
  8
0
370
    -3
390
0
  6
Continuous
100
AcDbLine
 10
14.251472
 20
406.726735
 30
0.0
 11
13.551475
 21
407.939395
 31
0.0
  0
LINE
  5
34F
100
AcDbEntity
  8
0
370
    -3
390
0
  6
Continuous
100
AcDbLine
 10
14.251491
 20
424.726739
 30
0.0
 11
13.551494
 21
423.514475
 31
0.0
  0
LINE
  5
350
100
AcDbEntity
  8
0
370
    -3
390
0
  6
Continuous
100
AcDbLine
 10
14.251477
 20
406.726736
 30
0.0
 11
14.251477
 21
424.726736
 31
0.0
  0
LINE
  5
351
100
AcDbEntity
  8
0
370
    -3
390
0
  6
Continuous
100
AcDbLine
 10
20.551453
 20
424.726736
 30
0.0
 11
14.251492
 21
424.726736
 31
0.0
  0
LINE
  5
352
100
AcDbEntity
  8
0
370
    -3
390
0
  6
Continuous
100
AcDbLine
 10
20.551453
 20
406.726736
 30
0.0
 11
14.251477
 21
406.726736
 31
0.0
  0
ARC
  5
353
100
AcDbEntity
  8
0
370
    -3
390
0
  6
Continuous
100
AcDbCircle
 10
18.551453
 20
280.226736
 30
0.0
 40
3.0
100
AcDbArc
 50
90.0
 51
180.0
  0
LINE
  5
354
100
AcDbEntity
  8
0
370
    -3
390
0
  6
Continuous
100
AcDbLine
 10
18.551453
 20
283.226736
 30
0.0
 11
22.551453
 21
283.226736
 31
0.0
  0
ARC
  5
355
100
AcDbEntity
  8
0
370
    -3
390
0
  6
Continuous
100
AcDbCircle
 10
22.551453
 20
286.226736
 30
0.0
 40
3.0
100
AcDbArc
 50
270.0
 51
0.0
  0
LINE
  5
356
100
AcDbEntity
  8
0
370
    -3
390
0
  6
Continuous
100
AcDbLine
 10
11.051453
 20
262.726736
 30
0.0
 11
11.051453
 21
283.226736
 31
0.0
  0
LINE
  5
357
100
AcDbEntity
  8
0
370
    -3
390
0
  6
Continuous
100
AcDbLine
 10
15.551453
 20
262.726736
 30
0.0
 11
15.551453
 21
283.226736
 31
0.0
  0
LINE
  5
358
100
AcDbEntity
  8
0
370
    -3
390
0
  6
Continuous
100
AcDbLine
 10
11.051453
 20
283.226736
 30
0.0
 11
15.551453
 21
283.226736
 31
0.0
  0
LINE
  5
359
100
AcDbEntity
  8
0
370
    -3
390
0
  6
Continuous
100
AcDbLine
 10
3.551454
 20
266.726736
 30
0.0
 11
3.551454
 21
279.726736
 31
0.0
  0
LINE
  5
35A
100
AcDbEntity
  8
0
370
    -3
390
0
  6
Continuous
100
AcDbLine
 10
3.551455
 20
279.726736
 30
0.0
 11
3.051454
 21
278.860806
 31
0.0
  0
LINE
  5
35B
100
AcDbEntity
  8
0
370
    -3
390
0
  6
Continuous
100
AcDbLine
 10
3.551455
 20
266.726736
 30
0.0
 11
3.051455
 21
267.59286
 31
0.0
  0
LINE
  5
35C
100
AcDbEntity
  8
0
370
    -3
390
0
  6
Continuous
100
AcDbLine
 10
11.051453
 20
266.726736
 30
0.0
 11
3.551454
 21
266.726736
 31
0.0
  0
LINE
  5
35D
100
AcDbEntity
  8
0
370
    -3
390
0
  6
Continuous
100
AcDbLine
 10
3.051454
 20
267.59286
 30
0.0
 11
3.051454
 21
278.860806
 31
0.0
  0
LINE
  5
35E
100
AcDbEntity
  8
0
370
    -3
390
0
  6
Continuous
100
AcDbLine
 10
11.051453
 20
279.726736
 30
0.0
 11
3.551455
 21
279.726736
 31
0.0
  0
LINE
  5
35F
100
AcDbEntity
  8
0
370
    -3
390
0
  6
Continuous
100
AcDbLine
 10
25.551453
 20
262.726736
 30
0.0
 11
25.551453
 21
427.726736
 31
0.0
  0
LINE
  5
360
100
AcDbEntity
  8
0
370
    -3
390
0
  6
Continuous
100
AcDbLine
 10
-16.448547
 20
372.726736
 30
0.0
 11
-16.448547
 21
262.726736
 31
0.0
  0
LINE
  5
361
100
AcDbEntity
  8
0
370
    -3
390
0
  6
Continuous
100
AcDbLine
 10
-6.448547
 20
267.226736
 30
0.0
 11
3.262812
 21
267.226736
 31
0.0
  0
ARC
  5
362
100
AcDbEntity
  8
0
370
    -3
390
0
  6
Continuous
100
AcDbCircle
 10
-6.448547
 20
272.226736
 30
0.0
 40
5.0
100
AcDbArc
 50
180.0
 51
270.0
  0
ARC
  5
363
100
AcDbEntity
  8
0
370
    -3
390
0
  6
Continuous
100
AcDbCircle
 10
20.551453
 20
393.120148
 30
0.0
 40
5.0
100
AcDbArc
 50
322.558231
 51
0.0
  0
LINE
  5
364
100
AcDbEntity
  8
0
370
    -3
390
0
  6
Continuous
100
AcDbLine
 10
-9.947576
 20
345.064992
 30
0.0
 11
24.521311
 21
390.080374
 31
0.0
  0
ARC
  5
365
100
AcDbEntity
  8
0
370
    -3
390
0
  6
Continuous
100
AcDbCircle
 10
-13.917434
 20
348.104766
 30
0.0
 40
5.0
100
AcDbArc
 50
270.0
 51
322.558231
  0
LINE
  5
366
100
AcDbEntity
  8
0
370
    -3
390
0
  6
Continuous
100
AcDbLine
 10
-7.472733
 20
343.104766
 30
0.0
 11
23.061912
 21
343.104766
 31
0.0
  0
ARC
  5
367
100
AcDbEntity
  8
0
370
    -3
390
0
  6
Continuous
100
AcDbCircle
 10
-13.917434
 20
354.979825
 30
0.0
 40
5.0
100
AcDbArc
 50
270.0
 51
322.558231
  0
ARC
  5
368
100
AcDbEntity
  8
0
370
    -3
390
0
  6
Continuous
100
AcDbCircle
 10
20.551453
 20
399.995207
 30
0.0
 40
5.0
100
AcDbArc
 50
322.558231
 51
0.0
  0
LINE
  5
369
100
AcDbEntity
  8
0
370
    -3
390
0
  6
Continuous
100
AcDbLine
 10
-9.947576
 20
351.940051
 30
0.0
 11
24.521311
 21
396.955433
 31
0.0
  0
LINE
  5
36A
100
AcDbEntity
  8
0
370
    -3
390
0
  6
Continuous
100
AcDbLine
 10
6.906284
 20
373.950711
 30
0.0
 11
-16.448547
 21
372.726736
 31
0.0
  0
ARC
  5
36B
100
AcDbEntity
  8
0
370
    -3
390
0
  6
Continuous
100
AcDbCircle
 10
-14.1427
 20
377.854442
 30
0.0
 40
5.0
100
AcDbArc
 50
273.0
 51
324.947195
  0
LINE
  5
36C
100
AcDbEntity
  8
0
370
    -3
390
0
  6
Continuous
100
AcDbLine
 10
-10.049585
 20
374.982786
 30
0.0
 11
13.55148
 21
408.622571
 31
0.0
  0
LINE
  5
36D
100
AcDbEntity
  8
0
370
    -3
390
0
  6
Continuous
100
AcDbLine
 10
38.551453
 20
94.726736
 30
0.0
 11
39.051453
 21
94.726736
 31
0.0
  0
LINE
  5
36E
100
AcDbEntity
  8
0
370
    -3
390
0
  6
Continuous
100
AcDbLine
 10
38.551453
 20
430.726736
 30
0.0
 11
39.051453
 21
430.726736
 31
0.0
  0
LINE
  5
36F
100
AcDbEntity
  8
0
370
    -3
390
0
  6
Continuous
100
AcDbLine
 10
64.051453
 20
245.226736
 30
0.0
 11
150.561577
 21
245.226736
 31
0.0
  0
LINE
  5
370
100
AcDbEntity
  8
0
370
    -3
390
0
  6
Continuous
100
AcDbLine
 10
64.051453
 20
280.226736
 30
0.0
 11
150.561577
 21
280.226736
 31
0.0
  0
ARC
  5
371
100
AcDbEntity
  8
0
370
    -3
390
0
  6
Continuous
100
AcDbCircle
 10
64.051453
 20
262.726736
 30
0.0
 40
20.0
100
AcDbArc
 50
298.955024
 51
61.044976
  0
ARC
  5
372
100
AcDbEntity
  8
0
370
    -3
390
0
  6
Continuous
100
AcDbCircle
 10
64.051453
 20
262.726736
 30
0.0
 40
17.5
100
AcDbArc
 50
90.0
 51
270.0
  0
LINE
  5
373
100
AcDbEntity
  8
0
370
    -3
390
0
  6
CENTER
100
AcDbLine
 10
64.051453
 20
286.404129
 30
0.0
 11
64.051453
 21
238.761166
 31
0.0
  0
LINE
  5
374
100
AcDbEntity
  8
0
370
    -3
390
0
  6
Continuous
100
AcDbLine
 10
226.051453
 20
137.475473
 30
0.0
 11
218.051453
 21
137.475473
 31
0.0
  0
LINE
  5
375
100
AcDbEntity
  8
0
370
    -3
390
0
  6
Continuous
100
AcDbLine
 10
226.051453
 20
87.22421
 30
0.0
 11
218.051453
 21
87.22421
 31
0.0
  0
ARC
  5
376
100
AcDbEntity
  8
0
370
    -3
390
0
  6
Continuous
100
AcDbCircle
 10
218.051453
 20
89.22421
 30
0.0
 40
2.0
100
AcDbArc
 50
180.0
 51
270.0
  0
LINE
  5
377
100
AcDbEntity
  8
0
370
    -3
390
0
  6
Continuous
100
AcDbLine
 10
216.051453
 20
262.726736
 30
0.0
 11
216.051453
 21
89.22421
 31
0.0
  0
ARC
  5
378
100
AcDbEntity
  8
0
370
    -3
390
0
  6
Continuous
100
AcDbCircle
 10
218.051453
 20
139.475473
 30
0.0
 40
2.0
100
AcDbArc
 50
180.0
 51
270.0
  0
LINE
  5
379
100
AcDbEntity
  8
0
370
    -3
390
0
  6
Continuous
100
AcDbLine
 10
226.051453
 20
387.977998
 30
0.0
 11
218.051453
 21
387.977998
 31
0.0
  0
LINE
  5
37A
100
AcDbEntity
  8
0
370
    -3
390
0
  6
Continuous
100
AcDbLine
 10
226.051453
 20
438.229261
 30
0.0
 11
218.051453
 21
438.229261
 31
0.0
  0
ARC
  5
37B
100
AcDbEntity
  8
0
370
    -3
390
0
  6
Continuous
100
AcDbCircle
 10
218.051453
 20
436.229261
 30
0.0
 40
2.0
100
AcDbArc
 50
90.0
 51
180.0
  0
LINE
  5
37C
100
AcDbEntity
  8
0
370
    -3
390
0
  6
Continuous
100
AcDbLine
 10
216.051453
 20
262.726736
 30
0.0
 11
216.051453
 21
436.229261
 31
0.0
  0
ARC
  5
37D
100
AcDbEntity
  8
0
370
    -3
390
0
  6
Continuous
100
AcDbCircle
 10
218.051453
 20
385.977998
 30
0.0
 40
2.0
100
AcDbArc
 50
90.0
 51
180.0
  0
LINE
  5
37E
100
AcDbEntity
  8
0
370
    -3
390
0
  6
Continuous
100
AcDbLine
 10
231.208461
 20
182.577741
 30
0.0
 11
231.051453
 21
182.577741
 31
0.0
  0
LINE
  5
37F
100
AcDbEntity
  8
0
370
    -3
390
0
  6
Continuous
100
AcDbLine
 10
231.208461
 20
342.875731
 30
0.0
 11
231.051453
 21
342.875731
 31
0.0
  0
LINE
  5
380
100
AcDbEntity
  8
0
370
    -3
390
0
  6
Continuous
100
AcDbLine
 10
234.051453
 20
262.726736
 30
0.0
 11
234.051453
 21
339.879842
 31
0.0
  0
LINE
  5
381
100
AcDbEntity
  8
0
370
    -3
390
0
  6
Continuous
100
AcDbLine
 10
205.051453
 20
37.726736
 30
0.0
 11
226.051453
 21
37.726736
 31
0.0
  0
LINE
  5
382
100
AcDbEntity
  8
0
370
    -3
390
0
  6
Continuous
100
AcDbLine
 10
202.051453
 20
40.726736
 30
0.0
 11
202.051453
 21
484.726736
 31
0.0
  0
ARC
  5
383
100
AcDbEntity
  8
0
370
    -3
390
0
  6
Continuous
100
AcDbCircle
 10
205.051453
 20
40.726736
 30
0.0
 40
3.0
100
AcDbArc
 50
180.0
 51
270.0
  0
LINE
  5
384
100
AcDbEntity
  8
0
370
    -3
390
0
  6
Continuous
100
AcDbLine
 10
226.051453
 20
262.726736
 30
0.0
 11
226.051453
 21
37.726736
 31
0.0
  0
LINE
  5
385
100
AcDbEntity
  8
0
370
    -3
390
0
  6
Continuous
100
AcDbLine
 10
231.051453
 20
262.726736
 30
0.0
 11
231.051453
 21
53.726736
 31
0.0
  0
LINE
  5
386
100
AcDbEntity
  8
0
370
    -3
390
0
  6
Continuous
100
AcDbLine
 10
234.051453
 20
262.726736
 30
0.0
 11
234.051453
 21
185.573629
 31
0.0
  0
LINE
  5
387
100
AcDbEntity
  8
0
370
    -3
390
0
  6
Continuous
100
AcDbLine
 10
226.051453
 20
262.726736
 30
0.0
 11
226.051453
 21
487.726736
 31
0.0
  0
LINE
  5
388
100
AcDbEntity
  8
0
370
    -3
390
0
  6
Continuous
100
AcDbLine
 10
231.051453
 20
262.726736
 30
0.0
 11
231.051453
 21
471.726736
 31
0.0
  0
LINE
  5
389
100
AcDbEntity
  8
0
370
    -3
390
0
  6
Continuous
100
AcDbLine
 10
39.051453
 20
430.726736
 30
0.0
 11
192.400448
 21
436.081801
 31
0.0
  0
LINE
  5
38A
100
AcDbEntity
  8
0
370
    -3
390
0
  6
Continuous
100
AcDbLine
 10
230.051453
 20
472.726736
 30
0.0
 11
231.051453
 21
471.726736
 31
0.0
  0
LINE
  5
38B
100
AcDbEntity
  8
0
370
    -3
390
0
  6
Continuous
100
AcDbLine
 10
231.051453
 20
53.726736
 30
0.0
 11
230.051453
 21
52.726736
 31
0.0
  0
ARC
  5
38C
100
AcDbEntity
  8
0
370
    -3
390
0
  6
Continuous
100
AcDbCircle
 10
205.051453
 20
484.726736
 30
0.0
 40
3.0
100
AcDbArc
 50
90.0
 51
180.0
  0
LINE
  5
38D
100
AcDbEntity
  8
0
370
    -3
390
0
  6
Continuous
100
AcDbLine
 10
230.051453
 20
52.726736
 30
0.0
 11
226.051453
 21
52.726736
 31
0.0
  0
ARC
  5
38E
100
AcDbEntity
  8
0
370
    -3
390
0
  6
Continuous
100
AcDbCircle
 10
231.051453
 20
185.573629
 30
0.0
 40
3.0
100
AcDbArc
 50
273.0
 51
0.0
  0
LINE
  5
38F
100
AcDbEntity
  8
0
370
    -3
390
0
  6
Continuous
100
AcDbLine
 10
236.051453
 20
210.226736
 30
0.0
 11
235.051453
 21
210.226736
 31
0.0
  0
LINE
  5
390
100
AcDbEntity
  8
0
370
    -3
390
0
  6
Continuous
100
AcDbLine
 10
236.051453
 20
315.226736
 30
0.0
 11
235.051453
 21
315.226736
 31
0.0
  0
ARC
  5
391
100
AcDbEntity
  8
0
370
    -3
390
0
  6
Continuous
100
AcDbCircle
 10
231.051453
 20
339.879842
 30
0.0
 40
3.0
100
AcDbArc
 50
0.0
 51
87.0
  0
ARC
  5
392
100
AcDbEntity
  8
0
370
    -3
390
0
  6
Continuous
100
AcDbCircle
 10
192.051453
 20
446.075709
 30
0.0
 40
10.0
100
AcDbArc
 50
272.0
 51
0.0
  0
LINE
  5
393
100
AcDbEntity
  8
0
370
    -3
390
0
  6
CENTER
100
AcDbLine
 10
340.624963
 20
262.726736
 30
0.0
 11
-331.692691
 21
262.726736
 31
0.0
  0
LINE
  5
394
100
AcDbEntity
  8
0
370
    -3
390
0
  6
Continuous
100
AcDbLine
 10
226.051453
 20
487.726736
 30
0.0
 11
205.051453
 21
487.726736
 31
0.0
  0
LINE
  5
395
100
AcDbEntity
  8
0
370
    -3
390
0
  6
Continuous
100
AcDbLine
 10
230.051453
 20
472.726736
 30
0.0
 11
226.051453
 21
472.726736
 31
0.0
  0
LINE
  5
396
100
AcDbEntity
  8
0
370
    -3
390
0
  6
Continuous
100
AcDbLine
 10
39.051453
 20
94.726736
 30
0.0
 11
39.051453
 21
430.726736
 31
0.0
  0
ARC
  5
397
100
AcDbEntity
  8
0
370
    -3
390
0
  6
Continuous
100
AcDbCircle
 10
235.051453
 20
209.226736
 30
0.0
 40
1.0
100
AcDbArc
 50
90.0
 51
180.0
  0
ARC
  5
398
100
AcDbEntity
  8
0
370
    -3
390
0
  6
Continuous
100
AcDbCircle
 10
235.051453
 20
316.226736
 30
0.0
 40
1.0
100
AcDbArc
 50
180.0
 51
270.0
  0
LINE
  5
399
100
AcDbEntity
  8
0
370
    -3
390
0
  6
Continuous
100
AcDbLine
 10
236.051453
 20
210.226736
 30
0.0
 11
236.051453
 21
315.226736
 31
0.0
  0
LINE
  5
39A
100
AcDbEntity
  8
0
370
    -3
390
0
  6
Continuous
100
AcDbLine
 10
39.051453
 20
94.726736
 30
0.0
 11
192.400448
 21
89.371671
 31
0.0
  0
ARC
  5
39B
100
AcDbEntity
  8
0
370
    -3
390
0
  6
Continuous
100
AcDbCircle
 10
192.051453
 20
79.377763
 30
0.0
 40
10.0
100
AcDbArc
 50
0.0
 51
88.0
  0
ARC
  5
39C
100
AcDbEntity
  8
0
370
    -3
390
0
  6
Continuous
100
AcDbCircle
 10
150.561577
 20
242.226736
 30
0.0
 40
3.0
100
AcDbArc
 50
0.0
 51
90.0
  0
ARC
  5
39D
100
AcDbEntity
  8
0
370
    -3
390
0
  6
Continuous
100
AcDbCircle
 10
150.561577
 20
283.226736
 30
0.0
 40
3.0
100
AcDbArc
 50
270.0
 51
0.0
  0
LINE
  5
39E
100
AcDbEntity
  8
0
370
    -3
390
0
  6
Continuous
100
AcDbLine
 10
196.954719
 20
161.729462
 30
0.0
 11
162.017467
 21
161.729462
 31
0.0
  0
LINE
  5
39F
100
AcDbEntity
  8
0
370
    -3
390
0
  6
Continuous
100
AcDbLine
 10
156.822253
 20
159.827119
 30
0.0
 11
200.976312
 21
103.882103
 31
0.0
  0
LINE
  5
3A0
100
AcDbEntity
  8
0
370
    -3
390
0
  6
Continuous
100
AcDbLine
 10
197.051453
 20
267.226736
 30
0.0
 11
160.320847
 21
267.226736
 31
0.0
  0
LINE
  5
3A1
100
AcDbEntity
  8
0
370
    -3
390
0
  6
Continuous
100
AcDbLine
 10
197.051453
 20
258.226736
 30
0.0
 11
160.320847
 21
258.226736
 31
0.0
  0
ARC
  5
3A2
100
AcDbEntity
  8
0
370
    -3
390
0
  6
Continuous
100
AcDbCircle
 10
160.320847
 20
272.226736
 30
0.0
 40
5.0
100
AcDbArc
 50
180.0
 51
270.0
  0
ARC
  5
3A3
100
AcDbEntity
  8
0
370
    -3
390
0
  6
Continuous
100
AcDbCircle
 10
160.320847
 20
253.226736
 30
0.0
 40
5.0
100
AcDbArc
 50
90.0
 51
180.0
  0
ARC
  5
3A4
100
AcDbEntity
  8
0
370
    -3
390
0
  6
Continuous
100
AcDbCircle
 10
197.051453
 20
253.226736
 30
0.0
 40
5.0
100
AcDbArc
 50
0.0
 51
90.0
  0
ARC
  5
3A5
100
AcDbEntity
  8
0
370
    -3
390
0
  6
Continuous
100
AcDbCircle
 10
197.051453
 20
272.226736
 30
0.0
 40
5.0
100
AcDbArc
 50
270.0
 51
0.0
  0
ARC
  5
3A6
100
AcDbEntity
  8
0
370
    -3
390
0
  6
Continuous
100
AcDbCircle
 10
152.897394
 20
156.729462
 30
0.0
 40
5.0
100
AcDbArc
 50
38.281923
 51
90.0
  0
ARC
  5
3A7
100
AcDbEntity
  8
0
370
    -3
390
0
  6
Continuous
100
AcDbCircle
 10
197.051453
 20
100.784446
 30
0.0
 40
5.0
100
AcDbArc
 50
0.0
 51
38.281923
  0
ARC
  5
3A8
100
AcDbEntity
  8
0
370
    -3
390
0
  6
Continuous
100
AcDbCircle
 10
197.051453
 20
90.65681
 30
0.0
 40
5.0
100
AcDbArc
 50
0.0
 51
38.281923
  0
LINE
  5
3A9
100
AcDbEntity
  8
0
370
    -3
390
0
  6
Continuous
100
AcDbLine
 10
156.822253
 20
149.699483
 30
0.0
 11
200.976312
 21
93.754467
 31
0.0
  0
ARC
  5
3AA
100
AcDbEntity
  8
0
370
    -3
390
0
  6
Continuous
100
AcDbCircle
 10
152.897394
 20
146.601826
 30
0.0
 40
5.0
100
AcDbArc
 50
38.281923
 51
90.0
  0
LINE
  5
3AB
100
AcDbEntity
  8
0
370
    -3
390
0
  6
Continuous
100
AcDbLine
 10
196.954719
 20
363.724009
 30
0.0
 11
162.017467
 21
363.724009
 31
0.0
  0
ARC
  5
3AC
100
AcDbEntity
  8
0
370
    -3
390
0
  6
Continuous
100
AcDbCircle
 10
197.051453
 20
434.796662
 30
0.0
 40
5.0
100
AcDbArc
 50
321.718077
 51
0.0
  0
LINE
  5
3AD
100
AcDbEntity
  8
0
370
    -3
390
0
  6
Continuous
100
AcDbLine
 10
156.822253
 20
375.753989
 30
0.0
 11
200.976312
 21
431.699005
 31
0.0
  0
ARC
  5
3AE
100
AcDbEntity
  8
0
370
    -3
390
0
  6
Continuous
100
AcDbCircle
 10
152.897394
 20
378.851646
 30
0.0
 40
5.0
100
AcDbArc
 50
270.0
 51
321.718077
  0
ARC
  5
3AF
100
AcDbEntity
  8
0
370
    -3
390
0
  6
Continuous
100
AcDbCircle
 10
197.051453
 20
424.669025
 30
0.0
 40
5.0
100
AcDbArc
 50
321.718077
 51
0.0
  0
LINE
  5
3B0
100
AcDbEntity
  8
0
370
    -3
390
0
  6
Continuous
100
AcDbLine
 10
156.822253
 20
365.626352
 30
0.0
 11
200.976312
 21
421.571368
 31
0.0
  0
ARC
  5
3B1
100
AcDbEntity
  8
0
370
    -3
390
0
  6
Continuous
100
AcDbCircle
 10
152.897394
 20
368.724009
 30
0.0
 40
5.0
100
AcDbArc
 50
270.0
 51
321.718077
  0
CIRCLE
  5
3B2
100
AcDbEntity
  8
0
370
    -3
390
0
  6
Continuous
100
AcDbCircle
 10
64.051453
 20
262.726736
 30
0.0
 40
16.0
  0
LINE
  5
3B3
100
AcDbEntity
  8
0
370
    -3
390
0
  6
Continuous
100
AcDbLine
 10
331.051438
 20
262.726736
 30
0.0
 11
331.051438
 21
233.526736
 31
0.0
  0
ARC
  5
3B4
100
AcDbEntity
  8
0
370
    -3
390
0
  6
Continuous
100
AcDbCircle
 10
330.251438
 20
233.526736
 30
0.0
 40
0.8
100
AcDbArc
 50
270.0
 51
0.0
  0
LINE
  5
3B5
100
AcDbEntity
  8
0
370
    -3
390
0
  6
Continuous
100
AcDbLine
 10
240.251438
 20
231.226736
 30
0.0
 11
236.051438
 21
231.226736
 31
0.0
  0
LINE
  5
3B6
100
AcDbEntity
  8
0
370
    -3
390
0
  6
Continuous
100
AcDbLine
 10
330.251438
 20
232.726736
 30
0.0
 11
243.611245
 21
232.726736
 31
0.0
  0
LINE
  5
3B7
100
AcDbEntity
  8
0
370
    -3
390
0
  6
Continuous
100
AcDbLine
 10
241.051438
 20
262.726736
 30
0.0
 11
241.051438
 21
232.026736
 31
0.0
  0
LINE
  5
3B8
100
AcDbEntity
  8
0
370
    -3
390
0
  6
Continuous
100
AcDbLine
 10
241.051438
 20
232.026736
 30
0.0
 11
240.251438
 21
231.226736
 31
0.0
  0
ARC
  5
3B9
100
AcDbEntity
  8
0
370
    -3
390
0
  6
Continuous
100
AcDbCircle
 10
241.851438
 20
232.076736
 30
0.0
 40
0.8
100
AcDbArc
 50
90.0
 51
180.0
  0
LINE
  5
3BA
100
AcDbEntity
  8
0
370
    -3
390
0
  6
Continuous
100
AcDbLine
 10
243.611245
 20
232.726736
 30
0.0
 11
243.051438
 21
232.876736
 31
0.0
  0
LINE
  5
3BB
100
AcDbEntity
  8
0
370
    -3
390
0
  6
Continuous
100
AcDbLine
 10
243.051438
 20
232.876736
 30
0.0
 11
241.851438
 21
232.876736
 31
0.0
  0
LINE
  5
3BC
100
AcDbEntity
  8
0
370
    -3
390
0
  6
Continuous
100
AcDbLine
 10
240.251438
 20
294.226736
 30
0.0
 11
236.051438
 21
294.226736
 31
0.0
  0
LINE
  5
3BD
100
AcDbEntity
  8
0
370
    -3
390
0
  6
Continuous
100
AcDbLine
 10
241.051438
 20
262.726736
 30
0.0
 11
241.051438
 21
293.426736
 31
0.0
  0
LINE
  5
3BE
100
AcDbEntity
  8
0
370
    -3
390
0
  6
Continuous
100
AcDbLine
 10
241.051438
 20
293.426736
 30
0.0
 11
240.251438
 21
294.226736
 31
0.0
  0
ARC
  5
3BF
100
AcDbEntity
  8
0
370
    -3
390
0
  6
Continuous
100
AcDbCircle
 10
241.851438
 20
293.376736
 30
0.0
 40
0.8
100
AcDbArc
 50
180.0
 51
270.0
  0
LINE
  5
3C0
100
AcDbEntity
  8
0
370
    -3
390
0
  6
Continuous
100
AcDbLine
 10
243.611245
 20
292.726736
 30
0.0
 11
243.051438
 21
292.576736
 31
0.0
  0
LINE
  5
3C1
100
AcDbEntity
  8
0
370
    -3
390
0
  6
Continuous
100
AcDbLine
 10
243.051438
 20
292.576736
 30
0.0
 11
241.851438
 21
292.576736
 31
0.0
  0
LINE
  5
3C2
100
AcDbEntity
  8
0
370
    -3
390
0
  6
Continuous
100
AcDbLine
 10
331.051438
 20
262.726736
 30
0.0
 11
331.051438
 21
291.926736
 31
0.0
  0
LINE
  5
3C3
100
AcDbEntity
  8
0
370
    -3
390
0
  6
Continuous
100
AcDbLine
 10
330.251438
 20
292.726736
 30
0.0
 11
243.611245
 21
292.726736
 31
0.0
  0
ARC
  5
3C4
100
AcDbEntity
  8
0
370
    -3
390
0
  6
Continuous
100
AcDbCircle
 10
330.251438
 20
291.926736
 30
0.0
 40
0.8
100
AcDbArc
 50
0.0
 51
90.0
  0
LINE
  5
3C5
100
AcDbEntity
  8
0
370
    -3
390
0
  6
Continuous
100
AcDbLine
 10
259.051438
 20
232.726736
 30
0.0
 11
259.051438
 21
228.726736
 31
0.0
  0
LINE
  5
3C6
100
AcDbEntity
  8
0
370
    -3
390
0
  6
Continuous
100
AcDbLine
 10
331.051438
 20
228.726736
 30
0.0
 11
331.051438
 21
233.526736
 31
0.0
  0
LINE
  5
3C7
100
AcDbEntity
  8
0
370
    -3
390
0
  6
Continuous
100
AcDbLine
 10
331.051438
 20
228.726736
 30
0.0
 11
259.051438
 21
228.726736
 31
0.0
  0
LINE
  5
3C8
100
AcDbEntity
  8
0
370
    -3
390
0
  6
Continuous
100
AcDbLine
 10
38.551453
 20
262.726736
 30
0.0
 11
38.551453
 21
430.726736
 31
0.0
  0
LINE
  5
3C9
100
AcDbEntity
  8
0
370
    -3
390
0
  6
Continuous
100
AcDbLine
 10
38.551453
 20
262.726736
 30
0.0
 11
38.551453
 21
94.726736
 31
0.0
  0
LINE
  5
3CA
100
AcDbEntity
  8
0
370
    -3
390
0
  6
Continuous
100
AcDbLine
 10
14.251477
 20
323.726736
 30
0.0
 11
14.251477
 21
341.726736
 31
0.0
  0
LINE
  5
3CB
100
AcDbEntity
  8
0
370
    -3
390
0
  6
Continuous
100
AcDbLine
 10
14.251491
 20
341.726739
 30
0.0
 11
13.551494
 21
340.514475
 31
0.0
  0
LINE
  5
3CC
100
AcDbEntity
  8
0
370
    -3
390
0
  6
Continuous
100
AcDbLine
 10
14.251472
 20
323.726735
 30
0.0
 11
13.551475
 21
324.939395
 31
0.0
  0
LINE
  5
3CD
100
AcDbEntity
  8
0
370
    -3
390
0
  6
Continuous
100
AcDbLine
 10
25.551453
 20
323.726736
 30
0.0
 11
14.251477
 21
323.726736
 31
0.0
  0
LINE
  5
3CE
100
AcDbEntity
  8
0
370
    -3
390
0
  6
Continuous
100
AcDbLine
 10
25.551453
 20
341.726736
 30
0.0
 11
14.251492
 21
341.726736
 31
0.0
  0
LINE
  5
3CF
100
AcDbEntity
  8
0
370
    -3
390
0
  6
Continuous
100
AcDbLine
 10
13.551495
 20
340.514471
 30
0.0
 11
13.55148
 21
324.939396
 31
0.0
  0
LINE
  5
3D0
100
AcDbEntity
  8
0
370
    -3
390
0
  6
Continuous
100
AcDbLine
 10
14.251477
 20
201.726736
 30
0.0
 11
14.251477
 21
183.726736
 31
0.0
  0
LINE
  5
3D1
100
AcDbEntity
  8
0
370
    -3
390
0
  6
Continuous
100
AcDbLine
 10
14.251491
 20
183.726733
 30
0.0
 11
13.551494
 21
184.938997
 31
0.0
  0
LINE
  5
3D2
100
AcDbEntity
  8
0
370
    -3
390
0
  6
Continuous
100
AcDbLine
 10
14.251472
 20
201.726736
 30
0.0
 11
13.551475
 21
200.514077
 31
0.0
  0
LINE
  5
3D3
100
AcDbEntity
  8
0
370
    -3
390
0
  6
Continuous
100
AcDbLine
 10
25.551453
 20
201.726736
 30
0.0
 11
14.251477
 21
201.726736
 31
0.0
  0
LINE
  5
3D4
100
AcDbEntity
  8
0
370
    -3
390
0
  6
Continuous
100
AcDbLine
 10
25.551453
 20
183.726736
 30
0.0
 11
14.251492
 21
183.726736
 31
0.0
  0
LINE
  5
3D5
100
AcDbEntity
  8
0
370
    -3
390
0
  6
Continuous
100
AcDbLine
 10
13.551495
 20
184.939
 30
0.0
 11
13.55148
 21
200.514075
 31
0.0
  0
ARC
  5
3D6
100
AcDbEntity
  8
0
370
    -3
390
0
  6
Continuous
100
AcDbCircle
 10
-606.532449
 20
-287.273264
 30
0.0
 40
105.147
100
AcDbArc
 50
126.942477
 51
135.0
  0
ARC
  5
3D7
100
AcDbEntity
  8
0
370
    -3
390
0
  6
Continuous
100
AcDbCircle
 10
-606.532449
 20
-671.273264
 30
0.0
 40
482.147
100
AcDbArc
 50
90.0
 51
93.154724
  0
ARC
  5
3D8
100
AcDbEntity
  8
0
370
    -3
390
0
  6
Continuous
100
AcDbCircle
 10
-629.37094
 20
-256.902171
 30
0.0
 40
67.147
100
AcDbArc
 50
93.154724
 51
126.942477
  0
ARC
  5
3D9
100
AcDbEntity
  8
0
370
    -3
390
0
  6
Continuous
100
AcDbCircle
 10
-606.532449
 20
-287.273264
 30
0.0
 40
105.147
100
AcDbArc
 50
135.0
 51
143.057523
  0
ARC
  5
3DA
100
AcDbEntity
  8
0
370
    -3
390
0
  6
Continuous
100
AcDbCircle
 10
-636.903543
 20
-264.434773
 30
0.0
 40
67.147
100
AcDbArc
 50
143.057523
 51
176.845276
  0
ARC
  5
3DB
100
AcDbEntity
  8
0
370
    -3
390
0
  6
Continuous
100
AcDbCircle
 10
-222.532449
 20
-287.273264
 30
0.0
 40
482.147
100
AcDbArc
 50
176.845276
 51
180.0
  0
ARC
  5
3DC
100
AcDbEntity
  8
0
370
    -3
390
0
  6
Continuous
100
AcDbCircle
 10
-222.532449
 20
-287.273264
 30
0.0
 40
482.147
100
AcDbArc
 50
180.0
 51
183.154724
  0
ARC
  5
3DD
100
AcDbEntity
  8
0
370
    -3
390
0
  6
Continuous
100
AcDbCircle
 10
-636.903543
 20
-310.111755
 30
0.0
 40
67.147
100
AcDbArc
 50
183.154724
 51
216.942477
  0
ARC
  5
3DE
100
AcDbEntity
  8
0
370
    -3
390
0
  6
Continuous
100
AcDbCircle
 10
-606.532449
 20
-287.273264
 30
0.0
 40
105.147
100
AcDbArc
 50
216.942477
 51
225.0
  0
ARC
  5
3DF
100
AcDbEntity
  8
0
370
    -3
390
0
  6
Continuous
100
AcDbCircle
 10
-606.532449
 20
-287.273264
 30
0.0
 40
105.147
100
AcDbArc
 50
225.0
 51
233.057523
  0
ARC
  5
3E0
100
AcDbEntity
  8
0
370
    -3
390
0
  6
Continuous
100
AcDbCircle
 10
-629.37094
 20
-317.644358
 30
0.0
 40
67.147
100
AcDbArc
 50
233.057523
 51
266.845276
  0
ARC
  5
3E1
100
AcDbEntity
  8
0
370
    -3
390
0
  6
Continuous
100
AcDbCircle
 10
-606.532449
 20
96.726736
 30
0.0
 40
482.147
100
AcDbArc
 50
266.845276
 51
270.0
  0
ARC
  5
3E2
100
AcDbEntity
  8
0
370
    -3
390
0
  6
Continuous
100
AcDbCircle
 10
-606.532449
 20
-287.273264
 30
0.0
 40
70.5
100
AcDbArc
 50
215.952487
 51
264.900311
  0
ARC
  5
3E3
100
AcDbEntity
  8
0
370
    -3
390
0
  6
Continuous
100
AcDbCircle
 10
-661.173979
 20
-326.90347
 30
0.0
 40
3.0
100
AcDbArc
 50
120.0
 51
215.952487
  0
ARC
  5
3E4
100
AcDbEntity
  8
0
370
    -3
390
0
  6
Continuous
100
AcDbCircle
 10
-634.937582
 20
-311.755879
 30
0.0
 40
3.0
100
AcDbArc
 50
120.0
 51
220.758318
  0
ARC
  5
3E5
100
AcDbEntity
  8
0
370
    -3
390
0
  6
Continuous
100
AcDbCircle
 10
-606.532449
 20
-287.273264
 30
0.0
 40
40.5
100
AcDbArc
 50
220.758318
 51
260.793104
  0
ARC
  5
3E6
100
AcDbEntity
  8
0
370
    -3
390
0
  6
Continuous
100
AcDbCircle
 10
-612.532449
 20
-324.290152
 30
0.0
 40
3.0
100
AcDbArc
 50
260.793104
 51
0.0
  0
ARC
  5
3E7
100
AcDbEntity
  8
0
370
    -3
390
0
  6
Continuous
100
AcDbCircle
 10
-612.532449
 20
-335.400699
 30
0.0
 40
3.0
100
AcDbArc
 50
0.0
 51
82.893657
  0
ARC
  5
3E8
100
AcDbEntity
  8
0
370
    -3
390
0
  6
Continuous
100
AcDbCircle
 10
-606.532449
 20
-287.273264
 30
0.0
 40
45.5
100
AcDbArc
 50
218.298477
 51
262.893657
  0
ARC
  5
3E9
100
AcDbEntity
  8
0
370
    -3
390
0
  6
Continuous
100
AcDbCircle
 10
-644.594902
 20
-317.331536
 30
0.0
 40
3.0
100
AcDbArc
 50
38.298477
 51
120.0
  0
LINE
  5
3EA
100
AcDbEntity
  8
0
370
    -3
390
0
  6
Continuous
100
AcDbLine
 10
-646.094902
 20
-314.733459
 30
0.0
 11
-649.592825
 21
-316.752986
 31
0.0
  0
ARC
  5
3EB
100
AcDbEntity
  8
0
370
    -3
390
0
  6
Continuous
100
AcDbCircle
 10
-648.092825
 20
-319.351062
 30
0.0
 40
3.0
100
AcDbArc
 50
120.0
 51
217.662256
  0
LINE
  5
3EC
100
AcDbEntity
  8
0
370
    -3
390
0
  6
Continuous
100
AcDbLine
 10
-609.532449
 20
-335.400699
 30
0.0
 11
-609.532449
 21
-339.42928
 31
0.0
  0
ARC
  5
3ED
100
AcDbEntity
  8
0
370
    -3
390
0
  6
Continuous
100
AcDbCircle
 10
-606.532449
 20
-287.273264
 30
0.0
 40
55.5
100
AcDbArc
 50
217.662256
 51
263.437572
  0
ARC
  5
3EE
100
AcDbEntity
  8
0
370
    -3
390
0
  6
Continuous
100
AcDbCircle
 10
-612.532449
 20
-339.42928
 30
0.0
 40
3.0
100
AcDbArc
 50
263.437572
 51
0.0
  0
ARC
  5
3EF
100
AcDbEntity
  8
0
370
    -3
390
0
  6
Continuous
100
AcDbCircle
 10
-612.532449
 20
-350.489164
 30
0.0
 40
3.0
100
AcDbArc
 50
0.0
 51
84.578137
  0
ARC
  5
3F0
100
AcDbEntity
  8
0
370
    -3
390
0
  6
Continuous
100
AcDbCircle
 10
-606.532449
 20
-287.273264
 30
0.0
 40
60.5
100
AcDbArc
 50
216.328933
 51
264.578137
  0
ARC
  5
3F1
100
AcDbEntity
  8
0
370
    -3
390
0
  6
Continuous
100
AcDbCircle
 10
-657.689905
 20
-324.891939
 30
0.0
 40
3.0
100
AcDbArc
 50
36.328933
 51
120.0
  0
LINE
  5
3F2
100
AcDbEntity
  8
0
370
    -3
390
0
  6
Continuous
100
AcDbLine
 10
-609.532449
 20
-350.489164
 30
0.0
 11
-609.532449
 21
-354.506069
 31
0.0
  0
ARC
  5
3F3
100
AcDbEntity
  8
0
370
    -3
390
0
  6
Continuous
100
AcDbCircle
 10
-612.532449
 20
-354.506069
 30
0.0
 40
3.0
100
AcDbArc
 50
264.900311
 51
0.0
  0
LINE
  5
3F4
100
AcDbEntity
  8
0
370
    -3
390
0
  6
Continuous
100
AcDbLine
 10
-659.189905
 20
-322.293863
 30
0.0
 11
-662.673979
 21
-324.305394
 31
0.0
  0
ARC
  5
3F5
100
AcDbEntity
  8
0
370
    -3
390
0
  6
Continuous
100
AcDbCircle
 10
-612.532449
 20
-304.773264
 30
0.0
 40
3.0
100
AcDbArc
 50
0.0
 51
71.075356
  0
ARC
  5
3F6
100
AcDbEntity
  8
0
370
    -3
390
0
  6
Continuous
100
AcDbCircle
 10
-617.862739
 20
-301.897714
 30
0.0
 40
3.0
100
AcDbArc
 50
52.233272
 51
120.0
  0
ARC
  5
3F7
100
AcDbEntity
  8
0
370
    -3
390
0
  6
Continuous
100
AcDbCircle
 10
-606.532449
 20
-287.273264
 30
0.0
 40
15.5
100
AcDbArc
 50
232.233272
 51
251.075356
  0
LINE
  5
3F8
100
AcDbEntity
  8
0
370
    -3
390
0
  6
Continuous
100
AcDbLine
 10
-609.532449
 20
-304.773264
 30
0.0
 11
-609.532449
 21
-308.958513
 31
0.0
  0
ARC
  5
3F9
100
AcDbEntity
  8
0
370
    -3
390
0
  6
Continuous
100
AcDbCircle
 10
-612.532449
 20
-308.958513
 30
0.0
 40
3.0
100
AcDbArc
 50
254.53399
 51
0.0
  0
LINE
  5
3FA
100
AcDbEntity
  8
0
370
    -3
390
0
  6
Continuous
100
AcDbLine
 10
-619.362739
 20
-299.299638
 30
0.0
 11
-623.051021
 21
-301.429068
 31
0.0
  0
ARC
  5
3FB
100
AcDbEntity
  8
0
370
    -3
390
0
  6
Continuous
100
AcDbCircle
 10
-606.532449
 20
-287.273264
 30
0.0
 40
25.5
100
AcDbArc
 50
228.126204
 51
254.53399
  0
ARC
  5
3FC
100
AcDbEntity
  8
0
370
    -3
390
0
  6
Continuous
100
AcDbCircle
 10
-621.551021
 20
-304.027145
 30
0.0
 40
3.0
100
AcDbArc
 50
120.0
 51
228.126204
  0
ARC
  5
3FD
100
AcDbEntity
  8
0
370
    -3
390
0
  6
Continuous
100
AcDbCircle
 10
-612.532449
 20
-320.231571
 30
0.0
 40
3.0
100
AcDbArc
 50
0.0
 51
79.682397
  0
ARC
  5
3FE
100
AcDbEntity
  8
0
370
    -3
390
0
  6
Continuous
100
AcDbCircle
 10
-606.532449
 20
-287.273264
 30
0.0
 40
30.5
100
AcDbArc
 50
222.061133
 51
259.682397
  0
ARC
  5
3FF
100
AcDbEntity
  8
0
370
    -3
390
0
  6
Continuous
100
AcDbCircle
 10
-631.40387
 20
-309.715689
 30
0.0
 40
3.0
100
AcDbArc
 50
42.061133
 51
120.0
  0
LINE
  5
400
100
AcDbEntity
  8
0
370
    -3
390
0
  6
Continuous
100
AcDbLine
 10
-632.90387
 20
-307.117613
 30
0.0
 11
-636.437582
 21
-309.157803
 31
0.0
  0
LINE
  5
401
100
AcDbEntity
  8
0
370
    -3
390
0
  6
Continuous
100
AcDbLine
 10
-609.532449
 20
-320.231571
 30
0.0
 11
-609.532449
 21
-324.290152
 31
0.0
  0
ARC
  5
402
100
AcDbEntity
  8
0
370
    -3
390
0
  6
Continuous
100
AcDbCircle
 10
-606.532449
 20
-287.273264
 30
0.0
 40
70.5
100
AcDbArc
 50
155.099689
 51
204.047513
  0
ARC
  5
403
100
AcDbEntity
  8
0
370
    -3
390
0
  6
Continuous
100
AcDbCircle
 10
-668.173979
 20
-314.779114
 30
0.0
 40
3.0
100
AcDbArc
 50
204.047513
 51
300.0
  0
ARC
  5
404
100
AcDbEntity
  8
0
370
    -3
390
0
  6
Continuous
100
AcDbCircle
 10
-641.937582
 20
-299.631524
 30
0.0
 40
3.0
100
AcDbArc
 50
199.241682
 51
300.0
  0
ARC
  5
405
100
AcDbEntity
  8
0
370
    -3
390
0
  6
Continuous
100
AcDbCircle
 10
-606.532449
 20
-287.273264
 30
0.0
 40
40.5
100
AcDbArc
 50
159.206896
 51
199.241682
  0
ARC
  5
406
100
AcDbEntity
  8
0
370
    -3
390
0
  6
Continuous
100
AcDbCircle
 10
-641.590015
 20
-273.960973
 30
0.0
 40
3.0
100
AcDbArc
 50
60.0
 51
159.206896
  0
ARC
  5
407
100
AcDbEntity
  8
0
370
    -3
390
0
  6
Continuous
100
AcDbCircle
 10
-651.212031
 20
-268.405699
 30
0.0
 40
3.0
100
AcDbArc
 50
337.106343
 51
60.0
  0
ARC
  5
408
100
AcDbEntity
  8
0
370
    -3
390
0
  6
Continuous
100
AcDbCircle
 10
-606.532449
 20
-287.273264
 30
0.0
 40
45.5
100
AcDbArc
 50
157.106343
 51
201.701523
  0
ARC
  5
409
100
AcDbEntity
  8
0
370
    -3
390
0
  6
Continuous
100
AcDbCircle
 10
-651.594902
 20
-305.20718
 30
0.0
 40
3.0
100
AcDbArc
 50
300.0
 51
21.701523
  0
LINE
  5
40A
100
AcDbEntity
  8
0
370
    -3
390
0
  6
Continuous
100
AcDbLine
 10
-650.094902
 20
-307.805256
 30
0.0
 11
-653.592825
 21
-309.824783
 31
0.0
  0
ARC
  5
40B
100
AcDbEntity
  8
0
370
    -3
390
0
  6
Continuous
100
AcDbCircle
 10
-655.092825
 20
-307.226707
 30
0.0
 40
3.0
100
AcDbArc
 50
202.337744
 51
300.0
  0
LINE
  5
40C
100
AcDbEntity
  8
0
370
    -3
390
0
  6
Continuous
100
AcDbLine
 10
-649.712031
 20
-265.807623
 30
0.0
 11
-653.200884
 21
-263.793333
 31
0.0
  0
ARC
  5
40D
100
AcDbEntity
  8
0
370
    -3
390
0
  6
Continuous
100
AcDbCircle
 10
-606.532449
 20
-287.273264
 30
0.0
 40
55.5
100
AcDbArc
 50
156.562428
 51
202.337744
  0
ARC
  5
40E
100
AcDbEntity
  8
0
370
    -3
390
0
  6
Continuous
100
AcDbCircle
 10
-654.700884
 20
-266.391409
 30
0.0
 40
3.0
100
AcDbArc
 50
60.0
 51
156.562428
  0
ARC
  5
40F
100
AcDbEntity
  8
0
370
    -3
390
0
  6
Continuous
100
AcDbCircle
 10
-664.279025
 20
-260.861467
 30
0.0
 40
3.0
100
AcDbArc
 50
335.421863
 51
60.0
  0
ARC
  5
410
100
AcDbEntity
  8
0
370
    -3
390
0
  6
Continuous
100
AcDbCircle
 10
-606.532449
 20
-287.273264
 30
0.0
 40
60.5
100
AcDbArc
 50
155.421863
 51
203.671067
  0
ARC
  5
411
100
AcDbEntity
  8
0
370
    -3
390
0
  6
Continuous
100
AcDbCircle
 10
-664.689905
 20
-312.767583
 30
0.0
 40
3.0
100
AcDbArc
 50
300.0
 51
23.671067
  0
LINE
  5
412
100
AcDbEntity
  8
0
370
    -3
390
0
  6
Continuous
100
AcDbLine
 10
-662.779025
 20
-258.263391
 30
0.0
 11
-666.257766
 21
-256.254938
 31
0.0
  0
ARC
  5
413
100
AcDbEntity
  8
0
370
    -3
390
0
  6
Continuous
100
AcDbCircle
 10
-667.757766
 20
-258.853014
 30
0.0
 40
3.0
100
AcDbArc
 50
60.0
 51
155.099689
  0
LINE
  5
414
100
AcDbEntity
  8
0
370
    -3
390
0
  6
Continuous
100
AcDbLine
 10
-663.189905
 20
-315.36566
 30
0.0
 11
-666.673979
 21
-317.377191
 31
0.0
  0
ARC
  5
415
100
AcDbEntity
  8
0
370
    -3
390
0
  6
Continuous
100
AcDbCircle
 10
-624.687894
 20
-283.719417
 30
0.0
 40
3.0
100
AcDbArc
 50
348.924644
 51
60.0
  0
ARC
  5
416
100
AcDbEntity
  8
0
370
    -3
390
0
  6
Continuous
100
AcDbCircle
 10
-624.862739
 20
-289.773358
 30
0.0
 40
3.0
100
AcDbArc
 50
300.0
 51
7.766728
  0
ARC
  5
417
100
AcDbEntity
  8
0
370
    -3
390
0
  6
Continuous
100
AcDbCircle
 10
-606.532449
 20
-287.273264
 30
0.0
 40
15.5
100
AcDbArc
 50
168.924644
 51
187.766728
  0
LINE
  5
418
100
AcDbEntity
  8
0
370
    -3
390
0
  6
Continuous
100
AcDbLine
 10
-623.187894
 20
-281.121341
 30
0.0
 11
-626.812425
 21
-279.028716
 31
0.0
  0
ARC
  5
419
100
AcDbEntity
  8
0
370
    -3
390
0
  6
Continuous
100
AcDbCircle
 10
-628.312425
 20
-281.626793
 30
0.0
 40
3.0
100
AcDbArc
 50
60.0
 51
165.46601
  0
LINE
  5
41A
100
AcDbEntity
  8
0
370
    -3
390
0
  6
Continuous
100
AcDbLine
 10
-623.362739
 20
-292.371435
 30
0.0
 11
-627.051021
 21
-294.500865
 31
0.0
  0
ARC
  5
41B
100
AcDbEntity
  8
0
370
    -3
390
0
  6
Continuous
100
AcDbCircle
 10
-606.532449
 20
-287.273264
 30
0.0
 40
25.5
100
AcDbArc
 50
165.46601
 51
191.873796
  0
ARC
  5
41C
100
AcDbEntity
  8
0
370
    -3
390
0
  6
Continuous
100
AcDbCircle
 10
-628.551021
 20
-291.902789
 30
0.0
 40
3.0
100
AcDbArc
 50
191.873796
 51
300.0
  0
ARC
  5
41D
100
AcDbEntity
  8
0
370
    -3
390
0
  6
Continuous
100
AcDbCircle
 10
-638.07518
 20
-275.990263
 30
0.0
 40
3.0
100
AcDbArc
 50
340.317603
 51
60.0
  0
ARC
  5
41E
100
AcDbEntity
  8
0
370
    -3
390
0
  6
Continuous
100
AcDbCircle
 10
-606.532449
 20
-287.273264
 30
0.0
 40
30.5
100
AcDbArc
 50
160.317603
 51
197.938867
  0
ARC
  5
41F
100
AcDbEntity
  8
0
370
    -3
390
0
  6
Continuous
100
AcDbCircle
 10
-638.40387
 20
-297.591334
 30
0.0
 40
3.0
100
AcDbArc
 50
300.0
 51
17.938867
  0
LINE
  5
420
100
AcDbEntity
  8
0
370
    -3
390
0
  6
Continuous
100
AcDbLine
 10
-636.90387
 20
-300.18941
 30
0.0
 11
-640.437582
 21
-302.2296
 31
0.0
  0
LINE
  5
421
100
AcDbEntity
  8
0
370
    -3
390
0
  6
Continuous
100
AcDbLine
 10
-636.57518
 20
-273.392187
 30
0.0
 11
-640.090015
 21
-271.362897
 31
0.0
  0
ARC
  5
422
100
AcDbEntity
  8
0
370
    -3
390
0
  6
Continuous
100
AcDbCircle
 10
-606.532449
 20
-287.273264
 30
0.0
 40
70.5
100
AcDbArc
 50
95.952487
 51
144.900311
  0
ARC
  5
423
100
AcDbEntity
  8
0
370
    -3
390
0
  6
Continuous
100
AcDbCircle
 10
-613.532449
 20
-220.137208
 30
0.0
 40
3.0
100
AcDbArc
 50
0.0
 51
95.952487
  0
ARC
  5
424
100
AcDbEntity
  8
0
370
    -3
390
0
  6
Continuous
100
AcDbCircle
 10
-613.532449
 20
-250.43239
 30
0.0
 40
3.0
100
AcDbArc
 50
360.0
 51
100.758318
  0
ARC
  5
425
100
AcDbEntity
  8
0
370
    -3
390
0
  6
Continuous
100
AcDbCircle
 10
-606.532449
 20
-287.273264
 30
0.0
 40
40.5
100
AcDbArc
 50
100.758318
 51
140.793104
  0
ARC
  5
426
100
AcDbEntity
  8
0
370
    -3
390
0
  6
Continuous
100
AcDbCircle
 10
-635.590015
 20
-263.568668
 30
0.0
 40
3.0
100
AcDbArc
 50
140.793104
 51
240.0
  0
ARC
  5
427
100
AcDbEntity
  8
0
370
    -3
390
0
  6
Continuous
100
AcDbCircle
 10
-645.212031
 20
-258.013394
 30
0.0
 40
3.0
100
AcDbArc
 50
240.0
 51
322.893657
  0
ARC
  5
428
100
AcDbEntity
  8
0
370
    -3
390
0
  6
Continuous
100
AcDbCircle
 10
-606.532449
 20
-287.273264
 30
0.0
 40
45.5
100
AcDbArc
 50
98.298477
 51
142.893657
  0
ARC
  5
429
100
AcDbEntity
  8
0
370
    -3
390
0
  6
Continuous
100
AcDbCircle
 10
-613.532449
 20
-239.281077
 30
0.0
 40
3.0
100
AcDbArc
 50
278.298477
 51
0.0
  0
LINE
  5
42A
100
AcDbEntity
  8
0
370
    -3
390
0
  6
Continuous
100
AcDbLine
 10
-610.532449
 20
-239.281077
 30
0.0
 11
-610.532449
 21
-235.242024
 31
0.0
  0
ARC
  5
42B
100
AcDbEntity
  8
0
370
    -3
390
0
  6
Continuous
100
AcDbCircle
 10
-613.532449
 20
-235.242024
 30
0.0
 40
3.0
100
AcDbArc
 50
0.0
 51
97.662256
  0
LINE
  5
42C
100
AcDbEntity
  8
0
370
    -3
390
0
  6
Continuous
100
AcDbLine
 10
-646.712031
 20
-260.611471
 30
0.0
 11
-650.200884
 21
-258.59718
 31
0.0
  0
ARC
  5
42D
100
AcDbEntity
  8
0
370
    -3
390
0
  6
Continuous
100
AcDbCircle
 10
-606.532449
 20
-287.273264
 30
0.0
 40
55.5
100
AcDbArc
 50
97.662256
 51
143.437572
  0
ARC
  5
42E
100
AcDbEntity
  8
0
370
    -3
390
0
  6
Continuous
100
AcDbCircle
 10
-648.700884
 20
-255.999104
 30
0.0
 40
3.0
100
AcDbArc
 50
143.437572
 51
240.0
  0
ARC
  5
42F
100
AcDbEntity
  8
0
370
    -3
390
0
  6
Continuous
100
AcDbCircle
 10
-658.279025
 20
-250.469162
 30
0.0
 40
3.0
100
AcDbArc
 50
240.0
 51
324.578137
  0
ARC
  5
430
100
AcDbEntity
  8
0
370
    -3
390
0
  6
Continuous
100
AcDbCircle
 10
-606.532449
 20
-287.273264
 30
0.0
 40
60.5
100
AcDbArc
 50
96.328933
 51
144.578137
  0
ARC
  5
431
100
AcDbEntity
  8
0
370
    -3
390
0
  6
Continuous
100
AcDbCircle
 10
-613.532449
 20
-224.16027
 30
0.0
 40
3.0
100
AcDbArc
 50
276.328933
 51
0.0
  0
LINE
  5
432
100
AcDbEntity
  8
0
370
    -3
390
0
  6
Continuous
100
AcDbLine
 10
-659.779025
 20
-253.067238
 30
0.0
 11
-663.257766
 21
-251.058786
 31
0.0
  0
ARC
  5
433
100
AcDbEntity
  8
0
370
    -3
390
0
  6
Continuous
100
AcDbCircle
 10
-661.757766
 20
-248.46071
 30
0.0
 40
3.0
100
AcDbArc
 50
144.900311
 51
240.0
  0
LINE
  5
434
100
AcDbEntity
  8
0
370
    -3
390
0
  6
Continuous
100
AcDbLine
 10
-610.532449
 20
-224.16027
 30
0.0
 11
-610.532449
 21
-220.137208
 31
0.0
  0
ARC
  5
435
100
AcDbEntity
  8
0
370
    -3
390
0
  6
Continuous
100
AcDbCircle
 10
-618.687894
 20
-273.327112
 30
0.0
 40
3.0
100
AcDbArc
 50
240.0
 51
311.075356
  0
ARC
  5
436
100
AcDbEntity
  8
0
370
    -3
390
0
  6
Continuous
100
AcDbCircle
 10
-613.532449
 20
-270.148721
 30
0.0
 40
3.0
100
AcDbArc
 50
292.233272
 51
0.0
  0
ARC
  5
437
100
AcDbEntity
  8
0
370
    -3
390
0
  6
Continuous
100
AcDbCircle
 10
-606.532449
 20
-287.273264
 30
0.0
 40
15.5
100
AcDbArc
 50
112.233272
 51
131.075356
  0
LINE
  5
438
100
AcDbEntity
  8
0
370
    -3
390
0
  6
Continuous
100
AcDbLine
 10
-620.187894
 20
-275.925188
 30
0.0
 11
-623.812425
 21
-273.832564
 31
0.0
  0
ARC
  5
439
100
AcDbEntity
  8
0
370
    -3
390
0
  6
Continuous
100
AcDbCircle
 10
-622.312425
 20
-271.234488
 30
0.0
 40
3.0
100
AcDbArc
 50
134.53399
 51
240.0
  0
LINE
  5
43A
100
AcDbEntity
  8
0
370
    -3
390
0
  6
Continuous
100
AcDbLine
 10
-610.532449
 20
-270.148721
 30
0.0
 11
-610.532449
 21
-265.88986
 31
0.0
  0
ARC
  5
43B
100
AcDbEntity
  8
0
370
    -3
390
0
  6
Continuous
100
AcDbCircle
 10
-606.532449
 20
-287.273264
 30
0.0
 40
25.5
100
AcDbArc
 50
108.126204
 51
134.53399
  0
ARC
  5
43C
100
AcDbEntity
  8
0
370
    -3
390
0
  6
Continuous
100
AcDbCircle
 10
-613.532449
 20
-265.88986
 30
0.0
 40
3.0
100
AcDbArc
 50
0.0
 51
108.126204
  0
ARC
  5
43D
100
AcDbEntity
  8
0
370
    -3
390
0
  6
Continuous
100
AcDbCircle
 10
-632.07518
 20
-265.597958
 30
0.0
 40
3.0
100
AcDbArc
 50
240.0
 51
319.682397
  0
ARC
  5
43E
100
AcDbEntity
  8
0
370
    -3
390
0
  6
Continuous
100
AcDbCircle
 10
-606.532449
 20
-287.273264
 30
0.0
 40
30.5
100
AcDbArc
 50
102.061133
 51
139.682397
  0
ARC
  5
43F
100
AcDbEntity
  8
0
370
    -3
390
0
  6
Continuous
100
AcDbCircle
 10
-613.532449
 20
-254.51277
 30
0.0
 40
3.0
100
AcDbArc
 50
282.061133
 51
0.0
  0
LINE
  5
440
100
AcDbEntity
  8
0
370
    -3
390
0
  6
Continuous
100
AcDbLine
 10
-610.532449
 20
-254.51277
 30
0.0
 11
-610.532449
 21
-250.43239
 31
0.0
  0
LINE
  5
441
100
AcDbEntity
  8
0
370
    -3
390
0
  6
Continuous
100
AcDbLine
 10
-633.57518
 20
-268.196035
 30
0.0
 11
-637.090015
 21
-266.166744
 31
0.0
  0
ARC
  5
442
100
AcDbEntity
  8
0
370
    -3
390
0
  6
Continuous
100
AcDbCircle
 10
-606.532449
 20
96.726736
 30
0.0
 40
501.2
100
AcDbArc
 50
266.845276
 51
270.0
  0
ARC
  5
443
100
AcDbEntity
  8
0
370
    -3
390
0
  6
Continuous
100
AcDbCircle
 10
-629.37094
 20
-317.644358
 30
0.0
 40
86.2
100
AcDbArc
 50
233.057523
 51
266.845276
  0
ARC
  5
444
100
AcDbEntity
  8
0
370
    -3
390
0
  6
Continuous
100
AcDbCircle
 10
-606.532449
 20
-287.273264
 30
0.0
 40
124.2
100
AcDbArc
 50
225.0
 51
233.057523
  0
ARC
  5
445
100
AcDbEntity
  8
0
370
    -3
390
0
  6
Continuous
100
AcDbCircle
 10
-222.532449
 20
-287.273264
 30
0.0
 40
501.2
100
AcDbArc
 50
180.0
 51
183.154724
  0
ARC
  5
446
100
AcDbEntity
  8
0
370
    -3
390
0
  6
Continuous
100
AcDbCircle
 10
-636.903543
 20
-310.111755
 30
0.0
 40
86.2
100
AcDbArc
 50
183.154724
 51
216.942477
  0
ARC
  5
447
100
AcDbEntity
  8
0
370
    -3
390
0
  6
Continuous
100
AcDbCircle
 10
-606.532449
 20
-287.273264
 30
0.0
 40
124.2
100
AcDbArc
 50
216.942477
 51
225.0
  0
ARC
  5
448
100
AcDbEntity
  8
0
370
    -3
390
0
  6
Continuous
100
AcDbCircle
 10
-222.532449
 20
-287.273264
 30
0.0
 40
501.2
100
AcDbArc
 50
176.845276
 51
180.0
  0
ARC
  5
449
100
AcDbEntity
  8
0
370
    -3
390
0
  6
Continuous
100
AcDbCircle
 10
-636.903543
 20
-264.434773
 30
0.0
 40
86.2
100
AcDbArc
 50
143.057523
 51
176.845276
  0
ARC
  5
44A
100
AcDbEntity
  8
0
370
    -3
390
0
  6
Continuous
100
AcDbCircle
 10
-606.532449
 20
-671.273264
 30
0.0
 40
501.2
100
AcDbArc
 50
90.0
 51
93.154724
  0
ARC
  5
44B
100
AcDbEntity
  8
0
370
    -3
390
0
  6
Continuous
100
AcDbCircle
 10
-629.37094
 20
-256.902171
 30
0.0
 40
86.2
100
AcDbArc
 50
93.154724
 51
126.942477
  0
ARC
  5
44C
100
AcDbEntity
  8
0
370
    -3
390
0
  6
Continuous
100
AcDbCircle
 10
-606.532449
 20
-287.273264
 30
0.0
 40
7.5
100
AcDbArc
 50
90.0
 51
270.0
  0
ARC
  5
44D
100
AcDbEntity
  8
0
370
    -3
390
0
  6
Continuous
100
AcDbCircle
 10
-606.532449
 20
-287.273264
 30
0.0
 40
105.147
100
AcDbArc
 50
45.0
 51
53.057523
  0
ARC
  5
44E
100
AcDbEntity
  8
0
370
    -3
390
0
  6
Continuous
100
AcDbCircle
 10
-606.532449
 20
-671.273264
 30
0.0
 40
482.147
100
AcDbArc
 50
86.845276
 51
90.0
  0
ARC
  5
44F
100
AcDbEntity
  8
0
370
    -3
390
0
  6
Continuous
100
AcDbCircle
 10
-583.693958
 20
-256.902171
 30
0.0
 40
67.147
100
AcDbArc
 50
53.057523
 51
86.845276
  0
ARC
  5
450
100
AcDbEntity
  8
0
370
    -3
390
0
  6
Continuous
100
AcDbCircle
 10
-606.532449
 20
-287.273264
 30
0.0
 40
105.147
100
AcDbArc
 50
36.942477
 51
45.0
  0
ARC
  5
451
100
AcDbEntity
  8
0
370
    -3
390
0
  6
Continuous
100
AcDbCircle
 10
-576.161356
 20
-264.434773
 30
0.0
 40
67.147
100
AcDbArc
 50
3.154724
 51
36.942477
  0
ARC
  5
452
100
AcDbEntity
  8
0
370
    -3
390
0
  6
Continuous
100
AcDbCircle
 10
-990.532449
 20
-287.273264
 30
0.0
 40
482.147
100
AcDbArc
 50
360.0
 51
3.154724
  0
ARC
  5
453
100
AcDbEntity
  8
0
370
    -3
390
0
  6
Continuous
100
AcDbCircle
 10
-990.532449
 20
-287.273264
 30
0.0
 40
482.147
100
AcDbArc
 50
356.845276
 51
0.0
  0
ARC
  5
454
100
AcDbEntity
  8
0
370
    -3
390
0
  6
Continuous
100
AcDbCircle
 10
-576.161356
 20
-310.111755
 30
0.0
 40
67.147
100
AcDbArc
 50
323.057523
 51
356.845276
  0
ARC
  5
455
100
AcDbEntity
  8
0
370
    -3
390
0
  6
Continuous
100
AcDbCircle
 10
-606.532449
 20
-287.273264
 30
0.0
 40
105.147
100
AcDbArc
 50
315.0
 51
323.057523
  0
ARC
  5
456
100
AcDbEntity
  8
0
370
    -3
390
0
  6
Continuous
100
AcDbCircle
 10
-606.532449
 20
-287.273264
 30
0.0
 40
105.147
100
AcDbArc
 50
306.942477
 51
315.0
  0
ARC
  5
457
100
AcDbEntity
  8
0
370
    -3
390
0
  6
Continuous
100
AcDbCircle
 10
-583.693958
 20
-317.644358
 30
0.0
 40
67.147
100
AcDbArc
 50
273.154724
 51
306.942477
  0
ARC
  5
458
100
AcDbEntity
  8
0
370
    -3
390
0
  6
Continuous
100
AcDbCircle
 10
-606.532449
 20
96.726736
 30
0.0
 40
482.147
100
AcDbArc
 50
270.0
 51
273.154724
  0
ARC
  5
459
100
AcDbEntity
  8
0
370
    -3
390
0
  6
Continuous
100
AcDbCircle
 10
-606.532449
 20
-287.273264
 30
0.0
 40
70.5
100
AcDbArc
 50
275.099689
 51
324.047513
  0
ARC
  5
45A
100
AcDbEntity
  8
0
370
    -3
390
0
  6
Continuous
100
AcDbCircle
 10
-551.890919
 20
-326.90347
 30
0.0
 40
3.0
100
AcDbArc
 50
324.047513
 51
60.0
  0
ARC
  5
45B
100
AcDbEntity
  8
0
370
    -3
390
0
  6
Continuous
100
AcDbCircle
 10
-578.127317
 20
-311.755879
 30
0.0
 40
3.0
100
AcDbArc
 50
319.241682
 51
60.0
  0
ARC
  5
45C
100
AcDbEntity
  8
0
370
    -3
390
0
  6
Continuous
100
AcDbCircle
 10
-606.532449
 20
-287.273264
 30
0.0
 40
40.5
100
AcDbArc
 50
279.206896
 51
319.241682
  0
ARC
  5
45D
100
AcDbEntity
  8
0
370
    -3
390
0
  6
Continuous
100
AcDbCircle
 10
-600.532449
 20
-324.290152
 30
0.0
 40
3.0
100
AcDbArc
 50
180.0
 51
279.206896
  0
ARC
  5
45E
100
AcDbEntity
  8
0
370
    -3
390
0
  6
Continuous
100
AcDbCircle
 10
-600.532449
 20
-335.400699
 30
0.0
 40
3.0
100
AcDbArc
 50
97.106343
 51
180.0
  0
ARC
  5
45F
100
AcDbEntity
  8
0
370
    -3
390
0
  6
Continuous
100
AcDbCircle
 10
-606.532449
 20
-287.273264
 30
0.0
 40
45.5
100
AcDbArc
 50
277.106343
 51
321.701523
  0
ARC
  5
460
100
AcDbEntity
  8
0
370
    -3
390
0
  6
Continuous
100
AcDbCircle
 10
-568.469996
 20
-317.331536
 30
0.0
 40
3.0
100
AcDbArc
 50
60.0
 51
141.701523
  0
LINE
  5
461
100
AcDbEntity
  8
0
370
    -3
390
0
  6
Continuous
100
AcDbLine
 10
-566.969996
 20
-314.733459
 30
0.0
 11
-563.472073
 21
-316.752986
 31
0.0
  0
ARC
  5
462
100
AcDbEntity
  8
0
370
    -3
390
0
  6
Continuous
100
AcDbCircle
 10
-564.972073
 20
-319.351062
 30
0.0
 40
3.0
100
AcDbArc
 50
322.337744
 51
60.0
  0
LINE
  5
463
100
AcDbEntity
  8
0
370
    -3
390
0
  6
Continuous
100
AcDbLine
 10
-603.532449
 20
-335.400699
 30
0.0
 11
-603.532449
 21
-339.42928
 31
0.0
  0
ARC
  5
464
100
AcDbEntity
  8
0
370
    -3
390
0
  6
Continuous
100
AcDbCircle
 10
-606.532449
 20
-287.273264
 30
0.0
 40
55.5
100
AcDbArc
 50
276.562428
 51
322.337744
  0
ARC
  5
465
100
AcDbEntity
  8
0
370
    -3
390
0
  6
Continuous
100
AcDbCircle
 10
-600.532449
 20
-339.42928
 30
0.0
 40
3.0
100
AcDbArc
 50
180.0
 51
276.562428
  0
ARC
  5
466
100
AcDbEntity
  8
0
370
    -3
390
0
  6
Continuous
100
AcDbCircle
 10
-600.532449
 20
-350.489164
 30
0.0
 40
3.0
100
AcDbArc
 50
95.421863
 51
180.0
  0
ARC
  5
467
100
AcDbEntity
  8
0
370
    -3
390
0
  6
Continuous
100
AcDbCircle
 10
-606.532449
 20
-287.273264
 30
0.0
 40
60.5
100
AcDbArc
 50
275.421863
 51
323.671067
  0
ARC
  5
468
100
AcDbEntity
  8
0
370
    -3
390
0
  6
Continuous
100
AcDbCircle
 10
-555.374993
 20
-324.891939
 30
0.0
 40
3.0
100
AcDbArc
 50
60.0
 51
143.671067
  0
LINE
  5
469
100
AcDbEntity
  8
0
370
    -3
390
0
  6
Continuous
100
AcDbLine
 10
-603.532449
 20
-350.489164
 30
0.0
 11
-603.532449
 21
-354.506069
 31
0.0
  0
ARC
  5
46A
100
AcDbEntity
  8
0
370
    -3
390
0
  6
Continuous
100
AcDbCircle
 10
-600.532449
 20
-354.506069
 30
0.0
 40
3.0
100
AcDbArc
 50
180.0
 51
275.099689
  0
LINE
  5
46B
100
AcDbEntity
  8
0
370
    -3
390
0
  6
Continuous
100
AcDbLine
 10
-553.874993
 20
-322.293863
 30
0.0
 11
-550.390919
 21
-324.305394
 31
0.0
  0
ARC
  5
46C
100
AcDbEntity
  8
0
370
    -3
390
0
  6
Continuous
100
AcDbCircle
 10
-600.532449
 20
-304.773264
 30
0.0
 40
3.0
100
AcDbArc
 50
108.924644
 51
180.0
  0
ARC
  5
46D
100
AcDbEntity
  8
0
370
    -3
390
0
  6
Continuous
100
AcDbCircle
 10
-595.202159
 20
-301.897714
 30
0.0
 40
3.0
100
AcDbArc
 50
60.0
 51
127.766728
  0
ARC
  5
46E
100
AcDbEntity
  8
0
370
    -3
390
0
  6
Continuous
100
AcDbCircle
 10
-606.532449
 20
-287.273264
 30
0.0
 40
15.5
100
AcDbArc
 50
288.924644
 51
307.766728
  0
LINE
  5
46F
100
AcDbEntity
  8
0
370
    -3
390
0
  6
Continuous
100
AcDbLine
 10
-603.532449
 20
-304.773264
 30
0.0
 11
-603.532449
 21
-308.958513
 31
0.0
  0
ARC
  5
470
100
AcDbEntity
  8
0
370
    -3
390
0
  6
Continuous
100
AcDbCircle
 10
-600.532449
 20
-308.958513
 30
0.0
 40
3.0
100
AcDbArc
 50
180.0
 51
285.46601
  0
LINE
  5
471
100
AcDbEntity
  8
0
370
    -3
390
0
  6
Continuous
100
AcDbLine
 10
-593.702159
 20
-299.299638
 30
0.0
 11
-590.013878
 21
-301.429068
 31
0.0
  0
ARC
  5
472
100
AcDbEntity
  8
0
370
    -3
390
0
  6
Continuous
100
AcDbCircle
 10
-606.532449
 20
-287.273264
 30
0.0
 40
25.5
100
AcDbArc
 50
285.46601
 51
311.873796
  0
ARC
  5
473
100
AcDbEntity
  8
0
370
    -3
390
0
  6
Continuous
100
AcDbCircle
 10
-591.513878
 20
-304.027145
 30
0.0
 40
3.0
100
AcDbArc
 50
311.873796
 51
60.0
  0
ARC
  5
474
100
AcDbEntity
  8
0
370
    -3
390
0
  6
Continuous
100
AcDbCircle
 10
-600.532449
 20
-320.231571
 30
0.0
 40
3.0
100
AcDbArc
 50
100.317603
 51
180.0
  0
ARC
  5
475
100
AcDbEntity
  8
0
370
    -3
390
0
  6
Continuous
100
AcDbCircle
 10
-606.532449
 20
-287.273264
 30
0.0
 40
30.5
100
AcDbArc
 50
280.317603
 51
317.938867
  0
ARC
  5
476
100
AcDbEntity
  8
0
370
    -3
390
0
  6
Continuous
100
AcDbCircle
 10
-581.661029
 20
-309.715689
 30
0.0
 40
3.0
100
AcDbArc
 50
60.0
 51
137.938867
  0
LINE
  5
477
100
AcDbEntity
  8
0
370
    -3
390
0
  6
Continuous
100
AcDbLine
 10
-580.161029
 20
-307.117613
 30
0.0
 11
-576.627317
 21
-309.157803
 31
0.0
  0
LINE
  5
478
100
AcDbEntity
  8
0
370
    -3
390
0
  6
Continuous
100
AcDbLine
 10
-603.532449
 20
-320.231571
 30
0.0
 11
-603.532449
 21
-324.290152
 31
0.0
  0
ARC
  5
479
100
AcDbEntity
  8
0
370
    -3
390
0
  6
Continuous
100
AcDbCircle
 10
-606.532449
 20
-287.273264
 30
0.0
 40
70.5
100
AcDbArc
 50
335.952487
 51
24.900311
  0
ARC
  5
47A
100
AcDbEntity
  8
0
370
    -3
390
0
  6
Continuous
100
AcDbCircle
 10
-544.890919
 20
-314.779114
 30
0.0
 40
3.0
100
AcDbArc
 50
240.0
 51
335.952487
  0
ARC
  5
47B
100
AcDbEntity
  8
0
370
    -3
390
0
  6
Continuous
100
AcDbCircle
 10
-571.127317
 20
-299.631524
 30
0.0
 40
3.0
100
AcDbArc
 50
240.0
 51
340.758318
  0
ARC
  5
47C
100
AcDbEntity
  8
0
370
    -3
390
0
  6
Continuous
100
AcDbCircle
 10
-606.532449
 20
-287.273264
 30
0.0
 40
40.5
100
AcDbArc
 50
340.758318
 51
20.793104
  0
ARC
  5
47D
100
AcDbEntity
  8
0
370
    -3
390
0
  6
Continuous
100
AcDbCircle
 10
-571.474884
 20
-273.960973
 30
0.0
 40
3.0
100
AcDbArc
 50
20.793104
 51
120.0
  0
ARC
  5
47E
100
AcDbEntity
  8
0
370
    -3
390
0
  6
Continuous
100
AcDbCircle
 10
-561.852868
 20
-268.405699
 30
0.0
 40
3.0
100
AcDbArc
 50
120.0
 51
202.893657
  0
ARC
  5
47F
100
AcDbEntity
  8
0
370
    -3
390
0
  6
Continuous
100
AcDbCircle
 10
-606.532449
 20
-287.273264
 30
0.0
 40
45.5
100
AcDbArc
 50
338.298477
 51
22.893657
  0
ARC
  5
480
100
AcDbEntity
  8
0
370
    -3
390
0
  6
Continuous
100
AcDbCircle
 10
-561.469996
 20
-305.20718
 30
0.0
 40
3.0
100
AcDbArc
 50
158.298477
 51
240.0
  0
LINE
  5
481
100
AcDbEntity
  8
0
370
    -3
390
0
  6
Continuous
100
AcDbLine
 10
-562.969996
 20
-307.805256
 30
0.0
 11
-559.472073
 21
-309.824783
 31
0.0
  0
ARC
  5
482
100
AcDbEntity
  8
0
370
    -3
390
0
  6
Continuous
100
AcDbCircle
 10
-557.972073
 20
-307.226707
 30
0.0
 40
3.0
100
AcDbArc
 50
240.0
 51
337.662256
  0
LINE
  5
483
100
AcDbEntity
  8
0
370
    -3
390
0
  6
Continuous
100
AcDbLine
 10
-563.352868
 20
-265.807623
 30
0.0
 11
-559.864015
 21
-263.793333
 31
0.0
  0
ARC
  5
484
100
AcDbEntity
  8
0
370
    -3
390
0
  6
Continuous
100
AcDbCircle
 10
-606.532449
 20
-287.273264
 30
0.0
 40
55.5
100
AcDbArc
 50
337.662256
 51
23.437572
  0
ARC
  5
485
100
AcDbEntity
  8
0
370
    -3
390
0
  6
Continuous
100
AcDbCircle
 10
-558.364015
 20
-266.391409
 30
0.0
 40
3.0
100
AcDbArc
 50
23.437572
 51
120.0
  0
ARC
  5
486
100
AcDbEntity
  8
0
370
    -3
390
0
  6
Continuous
100
AcDbCircle
 10
-548.785874
 20
-260.861467
 30
0.0
 40
3.0
100
AcDbArc
 50
120.0
 51
204.578137
  0
ARC
  5
487
100
AcDbEntity
  8
0
370
    -3
390
0
  6
Continuous
100
AcDbCircle
 10
-606.532449
 20
-287.273264
 30
0.0
 40
60.5
100
AcDbArc
 50
336.328933
 51
24.578137
  0
ARC
  5
488
100
AcDbEntity
  8
0
370
    -3
390
0
  6
Continuous
100
AcDbCircle
 10
-548.374993
 20
-312.767583
 30
0.0
 40
3.0
100
AcDbArc
 50
156.328933
 51
240.0
  0
LINE
  5
489
100
AcDbEntity
  8
0
370
    -3
390
0
  6
Continuous
100
AcDbLine
 10
-550.285874
 20
-258.263391
 30
0.0
 11
-546.807133
 21
-256.254938
 31
0.0
  0
ARC
  5
48A
100
AcDbEntity
  8
0
370
    -3
390
0
  6
Continuous
100
AcDbCircle
 10
-545.307133
 20
-258.853014
 30
0.0
 40
3.0
100
AcDbArc
 50
24.900311
 51
120.0
  0
LINE
  5
48B
100
AcDbEntity
  8
0
370
    -3
390
0
  6
Continuous
100
AcDbLine
 10
-549.874993
 20
-315.36566
 30
0.0
 11
-546.390919
 21
-317.377191
 31
0.0
  0
ARC
  5
48C
100
AcDbEntity
  8
0
370
    -3
390
0
  6
Continuous
100
AcDbCircle
 10
-588.377005
 20
-283.719417
 30
0.0
 40
3.0
100
AcDbArc
 50
120.0
 51
191.075356
  0
ARC
  5
48D
100
AcDbEntity
  8
0
370
    -3
390
0
  6
Continuous
100
AcDbCircle
 10
-588.202159
 20
-289.773358
 30
0.0
 40
3.0
100
AcDbArc
 50
172.233272
 51
240.0
  0
ARC
  5
48E
100
AcDbEntity
  8
0
370
    -3
390
0
  6
Continuous
100
AcDbCircle
 10
-606.532449
 20
-287.273264
 30
0.0
 40
15.5
100
AcDbArc
 50
352.233272
 51
11.075356
  0
LINE
  5
48F
100
AcDbEntity
  8
0
370
    -3
390
0
  6
Continuous
100
AcDbLine
 10
-589.877005
 20
-281.121341
 30
0.0
 11
-586.252473
 21
-279.028716
 31
0.0
  0
ARC
  5
490
100
AcDbEntity
  8
0
370
    -3
390
0
  6
Continuous
100
AcDbCircle
 10
-584.752473
 20
-281.626793
 30
0.0
 40
3.0
100
AcDbArc
 50
14.53399
 51
120.0
  0
LINE
  5
491
100
AcDbEntity
  8
0
370
    -3
390
0
  6
Continuous
100
AcDbLine
 10
-589.702159
 20
-292.371435
 30
0.0
 11
-586.013878
 21
-294.500865
 31
0.0
  0
ARC
  5
492
100
AcDbEntity
  8
0
370
    -3
390
0
  6
Continuous
100
AcDbCircle
 10
-606.532449
 20
-287.273264
 30
0.0
 40
25.5
100
AcDbArc
 50
348.126204
 51
14.53399
  0
ARC
  5
493
100
AcDbEntity
  8
0
370
    -3
390
0
  6
Continuous
100
AcDbCircle
 10
-584.513878
 20
-291.902789
 30
0.0
 40
3.0
100
AcDbArc
 50
240.0
 51
348.126204
  0
ARC
  5
494
100
AcDbEntity
  8
0
370
    -3
390
0
  6
Continuous
100
AcDbCircle
 10
-574.989718
 20
-275.990263
 30
0.0
 40
3.0
100
AcDbArc
 50
120.0
 51
199.682397
  0
ARC
  5
495
100
AcDbEntity
  8
0
370
    -3
390
0
  6
Continuous
100
AcDbCircle
 10
-606.532449
 20
-287.273264
 30
0.0
 40
30.5
100
AcDbArc
 50
342.061133
 51
19.682397
  0
ARC
  5
496
100
AcDbEntity
  8
0
370
    -3
390
0
  6
Continuous
100
AcDbCircle
 10
-574.661029
 20
-297.591334
 30
0.0
 40
3.0
100
AcDbArc
 50
162.061133
 51
240.0
  0
LINE
  5
497
100
AcDbEntity
  8
0
370
    -3
390
0
  6
Continuous
100
AcDbLine
 10
-576.161029
 20
-300.18941
 30
0.0
 11
-572.627317
 21
-302.2296
 31
0.0
  0
LINE
  5
498
100
AcDbEntity
  8
0
370
    -3
390
0
  6
Continuous
100
AcDbLine
 10
-576.489718
 20
-273.392187
 30
0.0
 11
-572.974884
 21
-271.362897
 31
0.0
  0
ARC
  5
499
100
AcDbEntity
  8
0
370
    -3
390
0
  6
Continuous
100
AcDbCircle
 10
-606.532449
 20
-287.273264
 30
0.0
 40
85.5
100
AcDbArc
 50
34.170648
 51
85.132688
  0
ARC
  5
49A
100
AcDbEntity
  8
0
370
    -3
390
0
  6
Continuous
100
AcDbCircle
 10
-606.532449
 20
-287.273264
 30
0.0
 40
70.5
100
AcDbArc
 50
35.099689
 51
84.047513
  0
ARC
  5
49B
100
AcDbEntity
  8
0
370
    -3
390
0
  6
Continuous
100
AcDbCircle
 10
-599.532449
 20
-220.137208
 30
0.0
 40
3.0
100
AcDbArc
 50
84.047513
 51
180.0
  0
ARC
  5
49C
100
AcDbEntity
  8
0
370
    -3
390
0
  6
Continuous
100
AcDbCircle
 10
-599.532449
 20
-250.43239
 30
0.0
 40
3.0
100
AcDbArc
 50
79.241682
 51
180.0
  0
ARC
  5
49D
100
AcDbEntity
  8
0
370
    -3
390
0
  6
Continuous
100
AcDbCircle
 10
-606.532449
 20
-287.273264
 30
0.0
 40
40.5
100
AcDbArc
 50
39.206896
 51
79.241682
  0
ARC
  5
49E
100
AcDbEntity
  8
0
370
    -3
390
0
  6
Continuous
100
AcDbCircle
 10
-577.474884
 20
-263.568668
 30
0.0
 40
3.0
100
AcDbArc
 50
300.0
 51
39.206896
  0
ARC
  5
49F
100
AcDbEntity
  8
0
370
    -3
390
0
  6
Continuous
100
AcDbCircle
 10
-567.852868
 20
-258.013394
 30
0.0
 40
3.0
100
AcDbArc
 50
217.106343
 51
300.0
  0
ARC
  5
4A0
100
AcDbEntity
  8
0
370
    -3
390
0
  6
Continuous
100
AcDbCircle
 10
-606.532449
 20
-287.273264
 30
0.0
 40
45.5
100
AcDbArc
 50
37.106343
 51
81.701523
  0
ARC
  5
4A1
100
AcDbEntity
  8
0
370
    -3
390
0
  6
Continuous
100
AcDbCircle
 10
-599.532449
 20
-239.281077
 30
0.0
 40
3.0
100
AcDbArc
 50
180.0
 51
261.701523
  0
LINE
  5
4A2
100
AcDbEntity
  8
0
370
    -3
390
0
  6
Continuous
100
AcDbLine
 10
-602.532449
 20
-239.281077
 30
0.0
 11
-602.532449
 21
-235.242024
 31
0.0
  0
ARC
  5
4A3
100
AcDbEntity
  8
0
370
    -3
390
0
  6
Continuous
100
AcDbCircle
 10
-599.532449
 20
-235.242024
 30
0.0
 40
3.0
100
AcDbArc
 50
82.337744
 51
180.0
  0
LINE
  5
4A4
100
AcDbEntity
  8
0
370
    -3
390
0
  6
Continuous
100
AcDbLine
 10
-566.352868
 20
-260.611471
 30
0.0
 11
-562.864015
 21
-258.59718
 31
0.0
  0
ARC
  5
4A5
100
AcDbEntity
  8
0
370
    -3
390
0
  6
Continuous
100
AcDbCircle
 10
-606.532449
 20
-287.273264
 30
0.0
 40
55.5
100
AcDbArc
 50
36.562428
 51
82.337744
  0
ARC
  5
4A6
100
AcDbEntity
  8
0
370
    -3
390
0
  6
Continuous
100
AcDbCircle
 10
-564.364015
 20
-255.999104
 30
0.0
 40
3.0
100
AcDbArc
 50
300.0
 51
36.562428
  0
ARC
  5
4A7
100
AcDbEntity
  8
0
370
    -3
390
0
  6
Continuous
100
AcDbCircle
 10
-554.785874
 20
-250.469162
 30
0.0
 40
3.0
100
AcDbArc
 50
215.421863
 51
300.0
  0
ARC
  5
4A8
100
AcDbEntity
  8
0
370
    -3
390
0
  6
Continuous
100
AcDbCircle
 10
-606.532449
 20
-287.273264
 30
0.0
 40
60.5
100
AcDbArc
 50
35.421863
 51
83.671067
  0
ARC
  5
4A9
100
AcDbEntity
  8
0
370
    -3
390
0
  6
Continuous
100
AcDbCircle
 10
-599.532449
 20
-224.16027
 30
0.0
 40
3.0
100
AcDbArc
 50
180.0
 51
263.671067
  0
LINE
  5
4AA
100
AcDbEntity
  8
0
370
    -3
390
0
  6
Continuous
100
AcDbLine
 10
-553.285874
 20
-253.067238
 30
0.0
 11
-549.807133
 21
-251.058786
 31
0.0
  0
ARC
  5
4AB
100
AcDbEntity
  8
0
370
    -3
390
0
  6
Continuous
100
AcDbCircle
 10
-551.307133
 20
-248.46071
 30
0.0
 40
3.0
100
AcDbArc
 50
300.0
 51
35.099689
  0
LINE
  5
4AC
100
AcDbEntity
  8
0
370
    -3
390
0
  6
Continuous
100
AcDbLine
 10
-602.532449
 20
-224.16027
 30
0.0
 11
-602.532449
 21
-220.137208
 31
0.0
  0
ARC
  5
4AD
100
AcDbEntity
  8
0
370
    -3
390
0
  6
Continuous
100
AcDbCircle
 10
-594.377005
 20
-273.327112
 30
0.0
 40
3.0
100
AcDbArc
 50
228.924644
 51
300.0
  0
ARC
  5
4AE
100
AcDbEntity
  8
0
370
    -3
390
0
  6
Continuous
100
AcDbCircle
 10
-599.532449
 20
-270.148721
 30
0.0
 40
3.0
100
AcDbArc
 50
180.0
 51
247.766728
  0
ARC
  5
4AF
100
AcDbEntity
  8
0
370
    -3
390
0
  6
Continuous
100
AcDbCircle
 10
-606.532449
 20
-287.273264
 30
0.0
 40
15.5
100
AcDbArc
 50
48.924644
 51
67.766728
  0
LINE
  5
4B0
100
AcDbEntity
  8
0
370
    -3
390
0
  6
Continuous
100
AcDbLine
 10
-592.877005
 20
-275.925188
 30
0.0
 11
-589.252473
 21
-273.832564
 31
0.0
  0
ARC
  5
4B1
100
AcDbEntity
  8
0
370
    -3
390
0
  6
Continuous
100
AcDbCircle
 10
-590.752473
 20
-271.234488
 30
0.0
 40
3.0
100
AcDbArc
 50
300.0
 51
45.46601
  0
LINE
  5
4B2
100
AcDbEntity
  8
0
370
    -3
390
0
  6
Continuous
100
AcDbLine
 10
-602.532449
 20
-270.148721
 30
0.0
 11
-602.532449
 21
-265.88986
 31
0.0
  0
ARC
  5
4B3
100
AcDbEntity
  8
0
370
    -3
390
0
  6
Continuous
100
AcDbCircle
 10
-606.532449
 20
-287.273264
 30
0.0
 40
25.5
100
AcDbArc
 50
45.46601
 51
71.873796
  0
ARC
  5
4B4
100
AcDbEntity
  8
0
370
    -3
390
0
  6
Continuous
100
AcDbCircle
 10
-599.532449
 20
-265.88986
 30
0.0
 40
3.0
100
AcDbArc
 50
71.873796
 51
180.0
  0
ARC
  5
4B5
100
AcDbEntity
  8
0
370
    -3
390
0
  6
Continuous
100
AcDbCircle
 10
-580.989718
 20
-265.597958
 30
0.0
 40
3.0
100
AcDbArc
 50
220.317603
 51
300.0
  0
ARC
  5
4B6
100
AcDbEntity
  8
0
370
    -3
390
0
  6
Continuous
100
AcDbCircle
 10
-606.532449
 20
-287.273264
 30
0.0
 40
30.5
100
AcDbArc
 50
40.317603
 51
77.938867
  0
ARC
  5
4B7
100
AcDbEntity
  8
0
370
    -3
390
0
  6
Continuous
100
AcDbCircle
 10
-599.532449
 20
-254.51277
 30
0.0
 40
3.0
100
AcDbArc
 50
180.0
 51
257.938867
  0
LINE
  5
4B8
100
AcDbEntity
  8
0
370
    -3
390
0
  6
Continuous
100
AcDbLine
 10
-602.532449
 20
-254.51277
 30
0.0
 11
-602.532449
 21
-250.43239
 31
0.0
  0
LINE
  5
4B9
100
AcDbEntity
  8
0
370
    -3
390
0
  6
Continuous
100
AcDbLine
 10
-579.489718
 20
-268.196035
 30
0.0
 11
-575.974884
 21
-266.166744
 31
0.0
  0
ARC
  5
4BA
100
AcDbEntity
  8
0
370
    -3
390
0
  6
Continuous
100
AcDbCircle
 10
-606.532449
 20
96.726736
 30
0.0
 40
501.2
100
AcDbArc
 50
270.0
 51
273.154724
  0
ARC
  5
4BB
100
AcDbEntity
  8
0
370
    -3
390
0
  6
Continuous
100
AcDbCircle
 10
-583.693958
 20
-317.644358
 30
0.0
 40
86.2
100
AcDbArc
 50
273.154724
 51
306.942477
  0
ARC
  5
4BC
100
AcDbEntity
  8
0
370
    -3
390
0
  6
Continuous
100
AcDbCircle
 10
-990.532449
 20
-287.273264
 30
0.0
 40
501.2
100
AcDbArc
 50
356.845276
 51
0.0
  0
ARC
  5
4BD
100
AcDbEntity
  8
0
370
    -3
390
0
  6
Continuous
100
AcDbCircle
 10
-576.161356
 20
-310.111755
 30
0.0
 40
86.2
100
AcDbArc
 50
323.057523
 51
356.845276
  0
ARC
  5
4BE
100
AcDbEntity
  8
0
370
    -3
390
0
  6
Continuous
100
AcDbCircle
 10
-606.532449
 20
-287.273264
 30
0.0
 40
124.2
100
AcDbArc
 50
315.0
 51
323.057523
  0
ARC
  5
4BF
100
AcDbEntity
  8
0
370
    -3
390
0
  6
Continuous
100
AcDbCircle
 10
-990.532449
 20
-287.273264
 30
0.0
 40
501.2
100
AcDbArc
 50
360.0
 51
3.154724
  0
ARC
  5
4C0
100
AcDbEntity
  8
0
370
    -3
390
0
  6
Continuous
100
AcDbCircle
 10
-576.161356
 20
-264.434773
 30
0.0
 40
86.2
100
AcDbArc
 50
3.154724
 51
36.942477
  0
ARC
  5
4C1
100
AcDbEntity
  8
0
370
    -3
390
0
  6
Continuous
100
AcDbCircle
 10
-606.532449
 20
-287.273264
 30
0.0
 40
124.2
100
AcDbArc
 50
36.942477
 51
45.0
  0
ARC
  5
4C2
100
AcDbEntity
  8
0
370
    -3
390
0
  6
Continuous
100
AcDbCircle
 10
-606.532449
 20
-671.273264
 30
0.0
 40
501.2
100
AcDbArc
 50
86.845276
 51
90.0
  0
ARC
  5
4C3
100
AcDbEntity
  8
0
370
    -3
390
0
  6
Continuous
100
AcDbCircle
 10
-583.693958
 20
-256.902171
 30
0.0
 40
86.2
100
AcDbArc
 50
53.057523
 51
86.845276
  0
ARC
  5
4C4
100
AcDbEntity
  8
0
370
    -3
390
0
  6
Continuous
100
AcDbCircle
 10
-606.532449
 20
-287.273264
 30
0.0
 40
124.2
100
AcDbArc
 50
45.0
 51
53.057523
  0
ARC
  5
4C5
100
AcDbEntity
  8
0
370
    -3
390
0
  6
Continuous
100
AcDbCircle
 10
-606.532449
 20
-287.273264
 30
0.0
 40
7.5
100
AcDbArc
 50
270.0
 51
90.0
  0
ARC
  5
4C6
100
AcDbEntity
  8
0
370
    -3
390
0
  6
Continuous
100
AcDbCircle
 10
-599.532449
 20
-205.07077
 30
0.0
 40
3.0
100
AcDbArc
 50
85.132688
 51
180.0
  0
LINE
  5
4C7
100
AcDbEntity
  8
0
370
    -3
390
0
  6
Continuous
100
AcDbLine
 10
-602.532449
 20
-208.000003
 30
0.0
 11
-602.532449
 21
-205.07077
 31
0.0
  0
LINE
  5
4C8
100
AcDbEntity
  8
0
370
    -3
390
0
  6
Continuous
100
AcDbLine
 10
-539.319732
 20
-245.003882
 30
0.0
 11
-536.774555
 21
-243.534424
 31
0.0
  0
ARC
  5
4C9
100
AcDbEntity
  8
0
370
    -3
390
0
  6
Continuous
100
AcDbCircle
 10
-538.274555
 20
-240.936347
 30
0.0
 40
3.0
100
AcDbArc
 50
300.0
 51
34.170648
  0
ARC
  5
4CA
100
AcDbEntity
  8
0
370
    -3
390
0
  6
Continuous
100
AcDbCircle
 10
-606.532449
 20
-287.273264
 30
0.0
 40
85.5
100
AcDbArc
 50
94.867312
 51
145.829352
  0
ARC
  5
4CB
100
AcDbEntity
  8
0
370
    -3
390
0
  6
Continuous
100
AcDbCircle
 10
-674.790344
 20
-240.936347
 30
0.0
 40
3.0
100
AcDbArc
 50
145.829352
 51
240.0
  0
LINE
  5
4CC
100
AcDbEntity
  8
0
370
    -3
390
0
  6
Continuous
100
AcDbLine
 10
-673.745166
 20
-245.003882
 30
0.0
 11
-676.290344
 21
-243.534424
 31
0.0
  0
ARC
  5
4CD
100
AcDbEntity
  8
0
370
    -3
390
0
  6
Continuous
100
AcDbCircle
 10
-613.532449
 20
-205.07077
 30
0.0
 40
3.0
100
AcDbArc
 50
0.0
 51
94.867312
  0
LINE
  5
4CE
100
AcDbEntity
  8
0
370
    -3
390
0
  6
Continuous
100
AcDbLine
 10
-610.532449
 20
-208.000003
 30
0.0
 11
-610.532449
 21
-205.07077
 31
0.0
  0
ARC
  5
4CF
100
AcDbEntity
  8
0
370
    -3
390
0
  6
Continuous
100
AcDbCircle
 10
-606.532449
 20
-287.273264
 30
0.0
 40
85.5
100
AcDbArc
 50
154.170648
 51
205.132688
  0
ARC
  5
4D0
100
AcDbEntity
  8
0
370
    -3
390
0
  6
Continuous
100
AcDbCircle
 10
-680.790344
 20
-251.328652
 30
0.0
 40
3.0
100
AcDbArc
 50
60.0
 51
154.170648
  0
LINE
  5
4D1
100
AcDbEntity
  8
0
370
    -3
390
0
  6
Continuous
100
AcDbLine
 10
-676.745166
 20
-250.200035
 30
0.0
 11
-679.290344
 21
-248.730576
 31
0.0
  0
ARC
  5
4D2
100
AcDbEntity
  8
0
370
    -3
390
0
  6
Continuous
100
AcDbCircle
 10
-681.221897
 20
-322.312333
 30
0.0
 40
3.0
100
AcDbArc
 50
205.132688
 51
300.0
  0
LINE
  5
4D3
100
AcDbEntity
  8
0
370
    -3
390
0
  6
Continuous
100
AcDbLine
 10
-677.185108
 20
-323.445793
 30
0.0
 11
-679.721897
 21
-324.91041
 31
0.0
  0
ARC
  5
4D4
100
AcDbEntity
  8
0
370
    -3
390
0
  6
Continuous
100
AcDbCircle
 10
-606.532449
 20
-287.273264
 30
0.0
 40
85.5
100
AcDbArc
 50
214.867312
 51
265.829352
  0
ARC
  5
4D5
100
AcDbEntity
  8
0
370
    -3
390
0
  6
Continuous
100
AcDbCircle
 10
-612.532449
 20
-369.554793
 30
0.0
 40
3.0
100
AcDbArc
 50
265.829352
 51
0.0
  0
LINE
  5
4D6
100
AcDbEntity
  8
0
370
    -3
390
0
  6
Continuous
100
AcDbLine
 10
-609.532449
 20
-366.615876
 30
0.0
 11
-609.532449
 21
-369.554793
 31
0.0
  0
ARC
  5
4D7
100
AcDbEntity
  8
0
370
    -3
390
0
  6
Continuous
100
AcDbCircle
 10
-674.221897
 20
-334.436689
 30
0.0
 40
3.0
100
AcDbArc
 50
120.0
 51
214.867312
  0
LINE
  5
4D8
100
AcDbEntity
  8
0
370
    -3
390
0
  6
Continuous
100
AcDbLine
 10
-673.185108
 20
-330.373997
 30
0.0
 11
-675.721897
 21
-331.838613
 31
0.0
  0
ARC
  5
4D9
100
AcDbEntity
  8
0
370
    -3
390
0
  6
Continuous
100
AcDbCircle
 10
-606.532449
 20
-287.273264
 30
0.0
 40
85.5
100
AcDbArc
 50
274.170648
 51
325.132688
  0
ARC
  5
4DA
100
AcDbEntity
  8
0
370
    -3
390
0
  6
Continuous
100
AcDbCircle
 10
-600.532449
 20
-369.554793
 30
0.0
 40
3.0
100
AcDbArc
 50
180.0
 51
274.170648
  0
LINE
  5
4DB
100
AcDbEntity
  8
0
370
    -3
390
0
  6
Continuous
100
AcDbLine
 10
-603.532449
 20
-366.615876
 30
0.0
 11
-603.532449
 21
-369.554793
 31
0.0
  0
ARC
  5
4DC
100
AcDbEntity
  8
0
370
    -3
390
0
  6
Continuous
100
AcDbCircle
 10
-538.843001
 20
-334.436689
 30
0.0
 40
3.0
100
AcDbArc
 50
325.132688
 51
60.0
  0
LINE
  5
4DD
100
AcDbEntity
  8
0
370
    -3
390
0
  6
Continuous
100
AcDbLine
 10
-539.879791
 20
-330.373997
 30
0.0
 11
-537.343001
 21
-331.838613
 31
0.0
  0
ARC
  5
4DE
100
AcDbEntity
  8
0
370
    -3
390
0
  6
Continuous
100
AcDbCircle
 10
-606.532449
 20
-287.273264
 30
0.0
 40
85.5
100
AcDbArc
 50
334.867312
 51
25.829352
  0
ARC
  5
4DF
100
AcDbEntity
  8
0
370
    -3
390
0
  6
Continuous
100
AcDbCircle
 10
-532.274555
 20
-251.328652
 30
0.0
 40
3.0
100
AcDbArc
 50
25.829352
 51
120.0
  0
LINE
  5
4E0
100
AcDbEntity
  8
0
370
    -3
390
0
  6
Continuous
100
AcDbLine
 10
-536.319732
 20
-250.200035
 30
0.0
 11
-533.774555
 21
-248.730576
 31
0.0
  0
ARC
  5
4E1
100
AcDbEntity
  8
0
370
    -3
390
0
  6
Continuous
100
AcDbCircle
 10
-531.843001
 20
-322.312333
 30
0.0
 40
3.0
100
AcDbArc
 50
240.0
 51
334.867312
  0
LINE
  5
4E2
100
AcDbEntity
  8
0
370
    -3
390
0
  6
Continuous
100
AcDbLine
 10
-535.879791
 20
-323.445793
 30
0.0
 11
-533.343001
 21
-324.91041
 31
0.0
  0
ARC
  5
4E3
100
AcDbEntity
  8
0
370
    -3
390
0
  6
Continuous
100
AcDbCircle
 10
-606.532449
 20
-287.273264
 30
0.0
 40
77.5
100
AcDbArc
 50
94.328325
 51
146.394112
  0
ARC
  5
4E4
100
AcDbEntity
  8
0
370
    -3
390
0
  6
Continuous
100
AcDbCircle
 10
-606.532449
 20
-287.273264
 30
0.0
 40
77.5
100
AcDbArc
 50
153.605888
 51
205.671675
  0
ARC
  5
4E5
100
AcDbEntity
  8
0
370
    -3
390
0
  6
Continuous
100
AcDbCircle
 10
-606.532449
 20
-287.273264
 30
0.0
 40
77.5
100
AcDbArc
 50
214.328325
 51
266.394112
  0
ARC
  5
4E6
100
AcDbEntity
  8
0
370
    -3
390
0
  6
Continuous
100
AcDbCircle
 10
-606.532449
 20
-287.273264
 30
0.0
 40
77.5
100
AcDbArc
 50
273.605888
 51
325.671675
  0
ARC
  5
4E7
100
AcDbEntity
  8
0
370
    -3
390
0
  6
Continuous
100
AcDbCircle
 10
-606.532449
 20
-287.273264
 30
0.0
 40
77.5
100
AcDbArc
 50
334.328325
 51
26.394112
  0
ARC
  5
4E8
100
AcDbEntity
  8
0
370
    -3
390
0
  6
Continuous
100
AcDbCircle
 10
-606.532449
 20
-287.273264
 30
0.0
 40
77.5
100
AcDbArc
 50
33.605888
 51
85.671675
  0
ARC
  5
4E9
100
AcDbEntity
  8
0
370
    -3
390
0
  6
Continuous
100
AcDbCircle
 10
-600.532449
 20
-208.000003
 30
0.0
 40
2.0
100
AcDbArc
 50
180.0
 51
265.671675
  0
ARC
  5
4EA
100
AcDbEntity
  8
0
370
    -3
390
0
  6
Continuous
100
AcDbCircle
 10
-540.319732
 20
-243.271832
 30
0.0
 40
2.0
100
AcDbArc
 50
213.605888
 51
300.0
  0
ARC
  5
4EB
100
AcDbEntity
  8
0
370
    -3
390
0
  6
Continuous
100
AcDbCircle
 10
-612.532449
 20
-208.000003
 30
0.0
 40
2.0
100
AcDbArc
 50
274.328325
 51
0.0
  0
ARC
  5
4EC
100
AcDbEntity
  8
0
370
    -3
390
0
  6
Continuous
100
AcDbCircle
 10
-672.745166
 20
-243.271832
 30
0.0
 40
2.0
100
AcDbArc
 50
240.0
 51
326.394112
  0
ARC
  5
4ED
100
AcDbEntity
  8
0
370
    -3
390
0
  6
Continuous
100
AcDbCircle
 10
-677.745166
 20
-251.932086
 30
0.0
 40
2.0
100
AcDbArc
 50
333.605888
 51
60.0
  0
ARC
  5
4EE
100
AcDbEntity
  8
0
370
    -3
390
0
  6
Continuous
100
AcDbCircle
 10
-678.185108
 20
-321.713743
 30
0.0
 40
2.0
100
AcDbArc
 50
300.0
 51
25.671675
  0
ARC
  5
4EF
100
AcDbEntity
  8
0
370
    -3
390
0
  6
Continuous
100
AcDbCircle
 10
-672.185108
 20
-332.106048
 30
0.0
 40
2.0
100
AcDbArc
 50
34.328325
 51
120.0
  0
ARC
  5
4F0
100
AcDbEntity
  8
0
370
    -3
390
0
  6
Continuous
100
AcDbCircle
 10
-611.532449
 20
-366.615876
 30
0.0
 40
2.0
100
AcDbArc
 50
0.0
 51
86.394112
  0
ARC
  5
4F1
100
AcDbEntity
  8
0
370
    -3
390
0
  6
Continuous
100
AcDbCircle
 10
-601.532449
 20
-366.615876
 30
0.0
 40
2.0
100
AcDbArc
 50
93.605888
 51
180.0
  0
ARC
  5
4F2
100
AcDbEntity
  8
0
370
    -3
390
0
  6
Continuous
100
AcDbCircle
 10
-540.879791
 20
-332.106048
 30
0.0
 40
2.0
100
AcDbArc
 50
60.0
 51
145.671675
  0
ARC
  5
4F3
100
AcDbEntity
  8
0
370
    -3
390
0
  6
Continuous
100
AcDbCircle
 10
-534.879791
 20
-321.713743
 30
0.0
 40
2.0
100
AcDbArc
 50
154.328325
 51
240.0
  0
ARC
  5
4F4
100
AcDbEntity
  8
0
370
    -3
390
0
  6
Continuous
100
AcDbCircle
 10
-535.319732
 20
-251.932086
 30
0.0
 40
2.0
100
AcDbArc
 50
120.0
 51
206.394112
  0
LINE
  5
4F5
100
AcDbEntity
  8
0
370
    -3
390
0
  6
Continuous
100
AcDbLine
 10
-529.139201
 20
-330.224226
 30
0.0
 11
-591.49303
 21
-294.224226
 31
0.0
  0
LINE
  5
4F6
100
AcDbEntity
  8
0
370
    -3
390
0
  6
Continuous
100
AcDbLine
 10
-530.639201
 20
-332.822302
 30
0.0
 11
-592.99303
 21
-296.822302
 31
0.0
  0
ARC
  5
4F7
100
AcDbEntity
  8
0
370
    -3
390
0
  6
Continuous
100
AcDbCircle
 10
-606.532449
 20
-270.773264
 30
0.0
 40
1.5
100
AcDbArc
 50
180.0
 51
0.0
  0
LINE
  5
4F8
100
AcDbEntity
  8
0
370
    -3
390
0
  6
Continuous
100
AcDbLine
 10
-605.032449
 20
-198.773264
 30
0.0
 11
-605.032449
 21
-270.773264
 31
0.0
  0
LINE
  5
4F9
100
AcDbEntity
  8
0
370
    -3
390
0
  6
Continuous
100
AcDbLine
 10
-608.032449
 20
-198.773264
 30
0.0
 11
-608.032449
 21
-270.773264
 31
0.0
  0
ARC
  5
4FA
100
AcDbEntity
  8
0
370
    -3
390
0
  6
Continuous
100
AcDbCircle
 10
-606.532449
 20
-198.773264
 30
0.0
 40
1.5
100
AcDbArc
 50
0.0
 51
180.0
  0
ARC
  5
4FB
100
AcDbEntity
  8
0
370
    -3
390
0
  6
Continuous
100
AcDbCircle
 10
-620.821868
 20
-295.523264
 30
0.0
 40
1.5
100
AcDbArc
 50
300.0
 51
120.0
  0
LINE
  5
4FC
100
AcDbEntity
  8
0
370
    -3
390
0
  6
Continuous
100
AcDbLine
 10
-683.925698
 20
-330.224226
 30
0.0
 11
-621.571868
 21
-294.224226
 31
0.0
  0
LINE
  5
4FD
100
AcDbEntity
  8
0
370
    -3
390
0
  6
Continuous
100
AcDbLine
 10
-682.425698
 20
-332.822302
 30
0.0
 11
-620.071868
 21
-296.822302
 31
0.0
  0
ARC
  5
4FE
100
AcDbEntity
  8
0
370
    -3
390
0
  6
Continuous
100
AcDbCircle
 10
-683.175698
 20
-331.523264
 30
0.0
 40
1.5
100
AcDbArc
 50
120.0
 51
300.0
  0
ARC
  5
4FF
100
AcDbEntity
  8
0
370
    -3
390
0
  6
Continuous
100
AcDbCircle
 10
-592.24303
 20
-295.523264
 30
0.0
 40
1.5
100
AcDbArc
 50
60.0
 51
240.0
  0
ARC
  5
500
100
AcDbEntity
  8
0
370
    -3
390
0
  6
Continuous
100
AcDbCircle
 10
-529.889201
 20
-331.523264
 30
0.0
 40
1.5
100
AcDbArc
 50
240.0
 51
60.0
  0
ARC
  5
501
100
AcDbEntity
  8
0
370
    -3
390
0
  6
Continuous
100
AcDbCircle
 10
-514.042882
 20
-202.561872
 30
0.0
 40
0.5
100
AcDbArc
 50
315.0
 51
45.0
  0
LINE
  5
502
100
AcDbEntity
  8
0
370
    -3
390
0
  6
Continuous
100
AcDbLine
 10
-513.83075
 20
-200.935526
 30
0.0
 11
-512.920355
 21
-200.025131
 31
0.0
  0
ARC
  5
503
100
AcDbEntity
  8
0
370
    -3
390
0
  6
Continuous
100
AcDbCircle
 10
-514.051725
 20
-198.89376
 30
0.0
 40
1.599999
100
AcDbArc
 50
314.999999
 51
28.808717
  0
LINE
  5
504
100
AcDbEntity
  8
0
370
    -3
390
0
  6
Continuous
100
AcDbLine
 10
-514.042882
 20
-201.854765
 30
0.0
 11
-513.477197
 21
-201.28908
 31
0.0
  0
LINE
  5
505
100
AcDbEntity
  8
0
370
    -3
390
0
  6
Continuous
100
AcDbLine
 10
-514.569686
 20
-203.795782
 30
0.0
 11
-513.689329
 21
-202.915425
 31
0.0
  0
ARC
  5
506
100
AcDbEntity
  8
0
370
    -3
390
0
  6
Continuous
100
AcDbCircle
 10
-523.164559
 20
-203.905374
 30
0.0
 40
12.0
100
AcDbArc
 50
28.808663
 51
61.191355
  0
ARC
  5
507
100
AcDbEntity
  8
0
370
    -3
390
0
  6
Continuous
100
AcDbCircle
 10
-521.821057
 20
-194.783697
 30
0.0
 40
0.5
100
AcDbArc
 50
45.0
 51
135.0
  0
LINE
  5
508
100
AcDbEntity
  8
0
370
    -3
390
0
  6
Continuous
100
AcDbLine
 10
-520.194711
 20
-194.571565
 30
0.0
 11
-519.284316
 21
-193.66117
 31
0.0
  0
ARC
  5
509
100
AcDbEntity
  8
0
370
    -3
390
0
  6
Continuous
100
AcDbCircle
 10
-518.152945
 20
-194.79254
 30
0.0
 40
1.599999
100
AcDbArc
 50
61.191409
 51
135.000018
  0
LINE
  5
50A
100
AcDbEntity
  8
0
370
    -3
390
0
  6
Continuous
100
AcDbLine
 10
-520.548265
 20
-194.218012
 30
0.0
 11
-521.11395
 21
-194.783697
 31
0.0
  0
LINE
  5
50B
100
AcDbEntity
  8
0
370
    -3
390
0
  6
Continuous
100
AcDbLine
 10
-523.054967
 20
-195.310501
 30
0.0
 11
-522.17461
 21
-194.430144
 31
0.0
  0
LINE
  5
50C
100
AcDbEntity
  8
0
370
    -3
390
0
  6
Continuous
100
AcDbLine
 10
-513.689329
 20
-202.208319
 30
0.0
 11
-521.467504
 21
-194.430144
 31
0.0
  0
LINE
  5
50D
100
AcDbEntity
  8
0
370
    -3
390
0
  6
Continuous
100
AcDbLine
 10
-520.548265
 20
-194.218012
 30
0.0
 11
-513.477197
 21
-201.28908
 31
0.0
  0
ARC
  5
50E
100
AcDbEntity
  8
0
370
    -3
390
0
  6
Continuous
100
AcDbCircle
 10
-606.532449
 20
-287.273264
 30
0.0
 40
124.2
100
AcDbArc
 50
126.942477
 51
135.0
  0
ARC
  5
50F
100
AcDbEntity
  8
0
370
    -3
390
0
  6
Continuous
100
AcDbCircle
 10
-606.532449
 20
-287.273264
 30
0.0
 40
124.2
100
AcDbArc
 50
135.0
 51
143.057523
  0
ARC
  5
510
100
AcDbEntity
  8
0
370
    -3
390
0
  6
Continuous
100
AcDbCircle
 10
-606.532449
 20
-287.273264
 30
0.0
 40
124.2
100
AcDbArc
 50
306.942477
 51
315.0
  0
ARC
  5
511
100
AcDbEntity
  8
0
370
    -3
390
0
  6
Continuous
100
AcDbCircle
 10
-514.042882
 20
-371.984657
 30
0.0
 40
0.5
100
AcDbArc
 50
315.0
 51
45.0
  0
LINE
  5
512
100
AcDbEntity
  8
0
370
    -3
390
0
  6
Continuous
100
AcDbLine
 10
-513.83075
 20
-373.611002
 30
0.0
 11
-512.920355
 21
-374.521398
 31
0.0
  0
ARC
  5
513
100
AcDbEntity
  8
0
370
    -3
390
0
  6
Continuous
100
AcDbCircle
 10
-514.051725
 20
-375.652768
 30
0.0
 40
1.599999
100
AcDbArc
 50
331.191283
 51
45.000001
  0
LINE
  5
514
100
AcDbEntity
  8
0
370
    -3
390
0
  6
Continuous
100
AcDbLine
 10
-514.042882
 20
-372.691763
 30
0.0
 11
-513.477197
 21
-373.257449
 31
0.0
  0
LINE
  5
515
100
AcDbEntity
  8
0
370
    -3
390
0
  6
Continuous
100
AcDbLine
 10
-514.569686
 20
-370.750747
 30
0.0
 11
-513.689329
 21
-371.631103
 31
0.0
  0
ARC
  5
516
100
AcDbEntity
  8
0
370
    -3
390
0
  6
Continuous
100
AcDbCircle
 10
-523.164559
 20
-370.641155
 30
0.0
 40
12.0
100
AcDbArc
 50
298.808645
 51
331.191337
  0
ARC
  5
517
100
AcDbEntity
  8
0
370
    -3
390
0
  6
Continuous
100
AcDbCircle
 10
-521.821057
 20
-379.762831
 30
0.0
 40
0.5
100
AcDbArc
 50
225.0
 51
315.0
  0
LINE
  5
518
100
AcDbEntity
  8
0
370
    -3
390
0
  6
Continuous
100
AcDbLine
 10
-520.194711
 20
-379.974963
 30
0.0
 11
-519.284316
 21
-380.885359
 31
0.0
  0
ARC
  5
519
100
AcDbEntity
  8
0
370
    -3
390
0
  6
Continuous
100
AcDbCircle
 10
-518.152945
 20
-379.753989
 30
0.0
 40
1.599999
100
AcDbArc
 50
224.999982
 51
298.808591
  0
LINE
  5
51A
100
AcDbEntity
  8
0
370
    -3
390
0
  6
Continuous
100
AcDbLine
 10
-520.548265
 20
-380.328517
 30
0.0
 11
-521.11395
 21
-379.762831
 31
0.0
  0
LINE
  5
51B
100
AcDbEntity
  8
0
370
    -3
390
0
  6
Continuous
100
AcDbLine
 10
-523.054967
 20
-379.236028
 30
0.0
 11
-522.17461
 21
-380.116385
 31
0.0
  0
LINE
  5
51C
100
AcDbEntity
  8
0
370
    -3
390
0
  6
Continuous
100
AcDbLine
 10
-513.689329
 20
-372.33821
 30
0.0
 11
-521.467504
 21
-380.116385
 31
0.0
  0
LINE
  5
51D
100
AcDbEntity
  8
0
370
    -3
390
0
  6
Continuous
100
AcDbLine
 10
-520.548265
 20
-380.328517
 30
0.0
 11
-513.477197
 21
-373.257449
 31
0.0
  0
ARC
  5
51E
100
AcDbEntity
  8
0
370
    -3
390
0
  6
Continuous
100
AcDbCircle
 10
-699.022016
 20
-371.984657
 30
0.0
 40
0.5
100
AcDbArc
 50
135.0
 51
225.0
  0
LINE
  5
51F
100
AcDbEntity
  8
0
370
    -3
390
0
  6
Continuous
100
AcDbLine
 10
-699.234148
 20
-373.611002
 30
0.0
 11
-700.144544
 21
-374.521398
 31
0.0
  0
ARC
  5
520
100
AcDbEntity
  8
0
370
    -3
390
0
  6
Continuous
100
AcDbCircle
 10
-699.013174
 20
-375.652768
 30
0.0
 40
1.599999
100
AcDbArc
 50
134.999999
 51
208.808717
  0
LINE
  5
521
100
AcDbEntity
  8
0
370
    -3
390
0
  6
Continuous
100
AcDbLine
 10
-699.022016
 20
-372.691763
 30
0.0
 11
-699.587702
 21
-373.257449
 31
0.0
  0
LINE
  5
522
100
AcDbEntity
  8
0
370
    -3
390
0
  6
Continuous
100
AcDbLine
 10
-698.495213
 20
-370.750747
 30
0.0
 11
-699.37557
 21
-371.631103
 31
0.0
  0
ARC
  5
523
100
AcDbEntity
  8
0
370
    -3
390
0
  6
Continuous
100
AcDbCircle
 10
-689.90034
 20
-370.641155
 30
0.0
 40
12.0
100
AcDbArc
 50
208.808663
 51
241.191355
  0
ARC
  5
524
100
AcDbEntity
  8
0
370
    -3
390
0
  6
Continuous
100
AcDbCircle
 10
-691.243842
 20
-379.762831
 30
0.0
 40
0.5
100
AcDbArc
 50
225.0
 51
315.0
  0
LINE
  5
525
100
AcDbEntity
  8
0
370
    -3
390
0
  6
Continuous
100
AcDbLine
 10
-692.870187
 20
-379.974963
 30
0.0
 11
-693.780583
 21
-380.885359
 31
0.0
  0
ARC
  5
526
100
AcDbEntity
  8
0
370
    -3
390
0
  6
Continuous
100
AcDbCircle
 10
-694.911953
 20
-379.753989
 30
0.0
 40
1.599999
100
AcDbArc
 50
241.191409
 51
315.000018
  0
LINE
  5
527
100
AcDbEntity
  8
0
370
    -3
390
0
  6
Continuous
100
AcDbLine
 10
-692.516634
 20
-380.328517
 30
0.0
 11
-691.950949
 21
-379.762831
 31
0.0
  0
LINE
  5
528
100
AcDbEntity
  8
0
370
    -3
390
0
  6
Continuous
100
AcDbLine
 10
-690.009932
 20
-379.236028
 30
0.0
 11
-690.890288
 21
-380.116385
 31
0.0
  0
LINE
  5
529
100
AcDbEntity
  8
0
370
    -3
390
0
  6
Continuous
100
AcDbLine
 10
-699.37557
 20
-372.33821
 30
0.0
 11
-691.597395
 21
-380.116385
 31
0.0
  0
LINE
  5
52A
100
AcDbEntity
  8
0
370
    -3
390
0
  6
Continuous
100
AcDbLine
 10
-692.516634
 20
-380.328517
 30
0.0
 11
-699.587702
 21
-373.257449
 31
0.0
  0
ARC
  5
52B
100
AcDbEntity
  8
0
370
    -3
390
0
  6
Continuous
100
AcDbCircle
 10
-699.022016
 20
-202.561872
 30
0.0
 40
0.5
100
AcDbArc
 50
135.0
 51
225.0
  0
LINE
  5
52C
100
AcDbEntity
  8
0
370
    -3
390
0
  6
Continuous
100
AcDbLine
 10
-699.234148
 20
-200.935526
 30
0.0
 11
-700.144544
 21
-200.025131
 31
0.0
  0
ARC
  5
52D
100
AcDbEntity
  8
0
370
    -3
390
0
  6
Continuous
100
AcDbCircle
 10
-699.013174
 20
-198.89376
 30
0.0
 40
1.599999
100
AcDbArc
 50
151.191283
 51
225.000001
  0
LINE
  5
52E
100
AcDbEntity
  8
0
370
    -3
390
0
  6
Continuous
100
AcDbLine
 10
-699.022016
 20
-201.854765
 30
0.0
 11
-699.587702
 21
-201.28908
 31
0.0
  0
LINE
  5
52F
100
AcDbEntity
  8
0
370
    -3
390
0
  6
Continuous
100
AcDbLine
 10
-698.495213
 20
-203.795782
 30
0.0
 11
-699.37557
 21
-202.915425
 31
0.0
  0
ARC
  5
530
100
AcDbEntity
  8
0
370
    -3
390
0
  6
Continuous
100
AcDbCircle
 10
-689.90034
 20
-203.905374
 30
0.0
 40
12.0
100
AcDbArc
 50
118.808645
 51
151.191337
  0
ARC
  5
531
100
AcDbEntity
  8
0
370
    -3
390
0
  6
Continuous
100
AcDbCircle
 10
-691.243842
 20
-194.783697
 30
0.0
 40
0.5
100
AcDbArc
 50
45.0
 51
135.0
  0
LINE
  5
532
100
AcDbEntity
  8
0
370
    -3
390
0
  6
Continuous
100
AcDbLine
 10
-692.870187
 20
-194.571565
 30
0.0
 11
-693.780583
 21
-193.66117
 31
0.0
  0
ARC
  5
533
100
AcDbEntity
  8
0
370
    -3
390
0
  6
Continuous
100
AcDbCircle
 10
-694.911953
 20
-194.79254
 30
0.0
 40
1.599999
100
AcDbArc
 50
44.999982
 51
118.808591
  0
LINE
  5
534
100
AcDbEntity
  8
0
370
    -3
390
0
  6
Continuous
100
AcDbLine
 10
-692.516634
 20
-194.218012
 30
0.0
 11
-691.950949
 21
-194.783697
 31
0.0
  0
LINE
  5
535
100
AcDbEntity
  8
0
370
    -3
390
0
  6
Continuous
100
AcDbLine
 10
-690.009932
 20
-195.310501
 30
0.0
 11
-690.890288
 21
-194.430144
 31
0.0
  0
LINE
  5
536
100
AcDbEntity
  8
0
370
    -3
390
0
  6
Continuous
100
AcDbLine
 10
-699.37557
 20
-202.208319
 30
0.0
 11
-691.597395
 21
-194.430144
 31
0.0
  0
LINE
  5
537
100
AcDbEntity
  8
0
370
    -3
390
0
  6
Continuous
100
AcDbLine
 10
-692.516634
 20
-194.218012
 30
0.0
 11
-699.587702
 21
-201.28908
 31
0.0
  0
LINE
  5
538
100
AcDbEntity
  8
0
370
    -3
390
0
  6
Continuous
100
AcDbLine
 10
-488.132449
 20
-311.873264
 30
0.0
 11
-489.936524
 21
-311.873264
 31
0.0
  0
LINE
  5
539
100
AcDbEntity
  8
0
370
    -3
390
0
  6
Continuous
100
AcDbLine
 10
-488.132449
 20
-262.673264
 30
0.0
 11
-489.936524
 21
-262.673264
 31
0.0
  0
ARC
  5
53A
100
AcDbEntity
  8
0
370
    -3
390
0
  6
Continuous
100
AcDbCircle
 10
-473.825888
 20
-248.073057
 30
0.0
 40
3.0
100
AcDbArc
 50
204.0
 51
260.681877
  0
ARC
  5
53B
100
AcDbEntity
  8
0
370
    -3
390
0
  6
Continuous
100
AcDbCircle
 10
-450.784738
 20
-270.094368
 30
0.0
 40
15.0
100
AcDbArc
 50
1.682769
 51
71.951093
  0
LINE
  5
53C
100
AcDbEntity
  8
0
370
    -3
390
0
  6
Continuous
100
AcDbLine
 10
-474.311636
 20
-251.033471
 30
0.0
 11
-448.355999
 21
-255.2923
 31
0.0
  0
ARC
  5
53D
100
AcDbEntity
  8
0
370
    -3
390
0
  6
Continuous
100
AcDbCircle
 10
-480.532449
 20
-254.581659
 30
0.0
 40
3.0
100
AcDbArc
 50
114.0
 51
180.0
  0
LINE
  5
53E
100
AcDbEntity
  8
0
370
    -3
390
0
  6
Continuous
100
AcDbLine
 10
-479.949288
 20
-251.03811
 30
0.0
 11
-481.752659
 21
-251.841023
 31
0.0
  0
LINE
  5
53F
100
AcDbEntity
  8
0
370
    -3
390
0
  6
Continuous
100
AcDbLine
 10
-479.669086
 20
-244.783393
 30
0.0
 11
-482.227013
 21
-245.922256
 31
0.0
  0
LINE
  5
540
100
AcDbEntity
  8
0
370
    -3
390
0
  6
Continuous
100
AcDbLine
 10
-478.348804
 20
-245.290202
 30
0.0
 11
-459.65674
 21
-287.273264
 31
0.0
  0
LINE
  5
541
100
AcDbEntity
  8
0
370
    -3
390
0
  6
Continuous
100
AcDbLine
 10
-481.897852
 20
-248.616594
 30
0.0
 11
-481.161449
 21
-248.929179
 31
0.0
  0
LINE
  5
542
100
AcDbEntity
  8
0
370
    -3
390
0
  6
Continuous
100
AcDbLine
 10
-481.028107
 20
-248.615044
 30
0.0
 11
-481.161449
 21
-248.929179
 31
0.0
  0
LINE
  5
543
100
AcDbEntity
  8
0
370
    -3
390
0
  6
Continuous
100
AcDbLine
 10
-481.47302
 20
-247.615752
 30
0.0
 11
-481.897852
 21
-248.616594
 31
0.0
  0
ARC
  5
544
100
AcDbEntity
  8
0
370
    -3
390
0
  6
Continuous
100
AcDbCircle
 10
-479.262349
 20
-245.696939
 30
0.0
 40
1.0
100
AcDbArc
 50
24.0
 51
114.0
  0
ARC
  5
545
100
AcDbEntity
  8
0
370
    -3
390
0
  6
Continuous
100
AcDbCircle
 10
-441.650842
 20
-343.450171
 30
0.0
 40
9.0
100
AcDbArc
 50
7.398452
 51
40.601531
  0
ARC
  5
546
100
AcDbEntity
  8
0
370
    -3
390
0
  6
Continuous
100
AcDbCircle
 10
-434.014946
 20
-342.458652
 30
0.0
 40
1.299999
100
AcDbArc
 50
293.999982
 51
7.398452
  0
LINE
  5
547
100
AcDbEntity
  8
0
370
    -3
390
0
  6
CENTER
100
AcDbLine
 10
-459.532449
 20
-319.390741
 30
0.0
 11
-459.532449
 21
-342.25925
 31
0.0
  0
LINE
  5
548
100
AcDbEntity
  8
0
370
    -3
390
0
  6
Continuous
100
AcDbLine
 10
-483.532449
 20
-254.581659
 30
0.0
 11
-483.532449
 21
-328.773264
 31
0.0
  0
LINE
  5
549
100
AcDbEntity
  8
0
370
    -3
390
0
  6
Continuous
100
AcDbLine
 10
-438.46215
 20
-344.219747
 30
0.0
 11
-441.9793
 21
-345.785683
 31
0.0
  0
LINE
  5
54A
100
AcDbEntity
  8
0
370
    -3
390
0
  6
Continuous
100
AcDbLine
 10
-440.089097
 20
-340.565565
 30
0.0
 11
-443.606247
 21
-342.131501
 31
0.0
  0
ARC
  5
54B
100
AcDbEntity
  8
0
370
    -3
390
0
  6
Continuous
100
AcDbCircle
 10
-439.162436
 20
-331.395899
 30
0.0
 40
2.0
100
AcDbArc
 50
294.0
 51
355.768662
  0
ARC
  5
54C
100
AcDbEntity
  8
0
370
    -3
390
0
  6
Continuous
100
AcDbCircle
 10
-437.737762
 20
-334.045502
 30
0.0
 40
1.0
100
AcDbArc
 50
114.0
 51
204.0
  0
LINE
  5
54D
100
AcDbEntity
  8
0
370
    -3
390
0
  6
Continuous
100
AcDbLine
 10
-459.65674
 20
-287.273264
 30
0.0
 11
-433.445078
 21
-346.145621
 31
0.0
  0
ARC
  5
54E
100
AcDbEntity
  8
0
370
    -3
390
0
  6
Continuous
100
AcDbCircle
 10
-434.358624
 20
-346.552357
 30
0.0
 40
1.0
100
AcDbArc
 50
294.0
 51
24.0
  0
LINE
  5
54F
100
AcDbEntity
  8
0
370
    -3
390
0
  6
Continuous
100
AcDbLine
 10
-433.951887
 20
-347.465903
 30
0.0
 11
-436.509815
 21
-348.604765
 31
0.0
  0
LINE
  5
550
100
AcDbEntity
  8
0
370
    -3
390
0
  6
Continuous
100
AcDbLine
 10
-478.532449
 20
-333.773264
 30
0.0
 11
-443.113224
 21
-333.773264
 31
0.0
  0
ARC
  5
551
100
AcDbEntity
  8
0
370
    -3
390
0
  6
Continuous
100
AcDbCircle
 10
-478.532449
 20
-328.773264
 30
0.0
 40
5.0
100
AcDbArc
 50
180.0
 51
270.0
  0
ARC
  5
552
100
AcDbEntity
  8
0
370
    -3
390
0
  6
Continuous
100
AcDbCircle
 10
-436.5664
 20
-336.676424
 30
0.0
 40
1.0
100
AcDbArc
 50
175.284875
 51
204.0
  0
ARC
  5
553
100
AcDbEntity
  8
0
370
    -3
390
0
  6
Continuous
100
AcDbCircle
 10
-1035.532449
 20
-287.273264
 30
0.0
 40
600.0
100
AcDbArc
 50
355.284875
 51
1.682769
  0
ARC
  5
554
100
AcDbEntity
  8
0
370
    -3
390
0
  6
Continuous
100
AcDbCircle
 10
-435.804588
 20
-338.439051
 30
0.0
 40
1.299999
100
AcDbArc
 50
40.601531
 51
114.000001
  0
LINE
  5
555
100
AcDbEntity
  8
0
370
    -3
390
0
  6
Continuous
100
AcDbLine
 10
-437.227729
 20
-337.649648
 30
0.0
 11
-436.333345
 21
-337.251442
 31
0.0
  0
LINE
  5
556
100
AcDbEntity
  8
0
370
    -3
390
0
  6
Continuous
100
AcDbLine
 10
-434.380573
 20
-344.044466
 30
0.0
 11
-433.486189
 21
-343.646261
 31
0.0
  0
LINE
  5
557
100
AcDbEntity
  8
0
370
    -3
390
0
  6
Continuous
100
AcDbLine
 10
-437.227729
 20
-337.649648
 30
0.0
 11
-434.380573
 21
-344.044466
 31
0.0
  0
LINE
  5
558
100
AcDbEntity
  8
0
370
    -3
390
0
  6
Continuous
100
AcDbLine
 10
-437.227729
 20
-337.649648
 30
0.0
 11
-434.380573
 21
-344.044466
 31
0.0
  0
POINT
  5
559
100
AcDbEntity
  8
0
370
    -3
390
0
  6
Continuous
100
AcDbPoint
 10
-435.804151
 20
-340.847057
 30
0.0
  0
LINE
  5
55A
100
AcDbEntity
  8
0
370
    -3
390
0
  6
Continuous
100
AcDbLine
 10
-443.78363
 20
-342.5936
 30
0.0
 11
-442.441399
 21
-345.6083
 31
0.0
  0
LINE
  5
55B
100
AcDbEntity
  8
0
370
    -3
390
0
  6
Continuous
100
AcDbLine
 10
-441.9793
 20
-345.785683
 30
0.0
 11
-442.441399
 21
-345.6083
 31
0.0
  0
LINE
  5
55C
100
AcDbEntity
  8
0
370
    -3
390
0
  6
Continuous
100
AcDbLine
 10
-443.606247
 20
-342.131501
 30
0.0
 11
-443.78363
 21
-342.5936
 31
0.0
  0
LINE
  5
55D
100
AcDbEntity
  8
0
370
    -3
390
0
  6
Continuous
100
AcDbLine
 10
-439.946739
 20
-340.885306
 30
0.0
 11
-443.78363
 21
-342.5936
 31
0.0
  0
LINE
  5
55E
100
AcDbEntity
  8
0
370
    -3
390
0
  6
Continuous
100
AcDbLine
 10
-438.604508
 20
-343.900006
 30
0.0
 11
-442.441399
 21
-345.6083
 31
0.0
  0
LINE
  5
55F
100
AcDbEntity
  8
0
370
    -3
390
0
  6
Continuous
100
AcDbLine
 10
-482.227013
 20
-245.922256
 30
0.0
 11
-436.509815
 21
-348.604765
 31
0.0
  0
ARC
  5
560
100
AcDbEntity
  8
0
370
    -3
390
0
  6
Continuous
100
AcDbCircle
 10
-488.132449
 20
-260.673264
 30
0.0
 40
2.0
100
AcDbArc
 50
270.0
 51
0.0
  0
LINE
  5
561
100
AcDbEntity
  8
0
370
    -3
390
0
  6
Continuous
100
AcDbLine
 10
-484.532449
 20
-256.273264
 30
0.0
 11
-486.132449
 21
-256.273264
 31
0.0
  0
LINE
  5
562
100
AcDbEntity
  8
0
370
    -3
390
0
  6
Continuous
100
AcDbLine
 10
-484.532449
 20
-256.273264
 30
0.0
 11
-483.532449
 21
-256.273264
 31
0.0
  0
ARC
  5
563
100
AcDbEntity
  8
0
370
    -3
390
0
  6
Continuous
100
AcDbCircle
 10
-488.132449
 20
-313.873264
 30
0.0
 40
2.0
100
AcDbArc
 50
0.0
 51
90.0
  0
LINE
  5
564
100
AcDbEntity
  8
0
370
    -3
390
0
  6
Continuous
100
AcDbLine
 10
-484.532449
 20
-318.273264
 30
0.0
 11
-486.132449
 21
-318.273264
 31
0.0
  0
LINE
  5
565
100
AcDbEntity
  8
0
370
    -3
390
0
  6
Continuous
100
AcDbLine
 10
-484.532449
 20
-318.273264
 30
0.0
 11
-483.532449
 21
-318.273264
 31
0.0
  0
LINE
  5
566
100
AcDbEntity
  8
0
370
    -3
390
0
  6
Continuous
100
AcDbLine
 10
-484.532449
 20
-318.273264
 30
0.0
 11
-484.532449
 21
-256.273264
 31
0.0
  0
LINE
  5
567
100
AcDbEntity
  8
0
370
    -3
390
0
  6
Continuous
100
AcDbLine
 10
-486.132449
 20
-318.273264
 30
0.0
 11
-486.132449
 21
-287.273264
 31
0.0
  0
LINE
  5
568
100
AcDbEntity
  8
0
370
    -3
390
0
  6
Continuous
100
AcDbLine
 10
-486.132449
 20
-256.273264
 30
0.0
 11
-486.132449
 21
-287.273264
 31
0.0
  0
ARC
  5
569
100
AcDbEntity
  8
0
370
    -3
390
0
  6
Continuous
100
AcDbCircle
 10
-267.050056
 20
206.726736
 30
0.0
 40
61.2
100
AcDbArc
 50
240.0
 51
270.0
  0
ARC
  5
56A
100
AcDbEntity
  8
0
370
    -3
390
0
  6
Continuous
100
AcDbCircle
 10
-310.248547
 20
168.158866
 30
0.0
 40
6.2
100
AcDbArc
 50
180.0
 51
240.0
  0
LINE
  5
56B
100
AcDbEntity
  8
0
370
    -3
390
0
  6
Continuous
100
AcDbLine
 10
-261.448547
 20
354.579908
 30
0.0
 11
-259.448547
 21
355.87544
 31
0.0
  0
LINE
  5
56C
100
AcDbEntity
  8
0
370
    -3
390
0
  6
Continuous
100
AcDbLine
 10
-261.448547
 20
354.579908
 30
0.0
 11
-259.448547
 21
353.047013
 31
0.0
  0
LINE
  5
56D
100
AcDbEntity
  8
0
370
    -3
390
0
  6
Continuous
100
AcDbLine
 10
-261.448547
 20
354.579908
 30
0.0
 11
-263.448547
 21
353.047013
 31
0.0
  0
LINE
  5
56E
100
AcDbEntity
  8
0
370
    -3
390
0
  6
Continuous
100
AcDbLine
 10
-261.448547
 20
354.579908
 30
0.0
 11
-263.448547
 21
355.87544
 31
0.0
  0
ELLIPSE
  5
56F
100
AcDbEntity
  8
0
370
    -3
390
0
  6
Continuous
100
AcDbEllipse
 10
-261.448547
 20
351.577215
 30
0.0
 11
6.0
 21
0.0
 31
0.0
210
0.0
220
0.0
230
1.0
 40
0.689848
 41
3.1415926535897931
 42
0.0
  0
ELLIPSE
  5
570
100
AcDbEntity
  8
0
370
    -3
390
0
  6
Continuous
100
AcDbEllipse
 10
-261.448547
 20
351.577215
 30
0.0
 11
6.0
 21
0.0
 31
0.0
210
0.0
220
0.0
230
1.0
 40
0.689848
 41
0.0
 42
0.8313376885249183
  0
ELLIPSE
  5
571
100
AcDbEntity
  8
0
370
    -3
390
0
  6
Continuous
100
AcDbEllipse
 10
-261.448547
 20
352.935967
 30
0.0
 11
4.5
 21
0.0
 31
0.0
210
0.0
220
0.0
230
1.0
 40
0.860332
 41
0.0
 42
6.2831853071795862
  0
ELLIPSE
  5
572
100
AcDbEntity
  8
0
370
    -3
390
0
  6
Continuous
100
AcDbEllipse
 10
-261.448547
 20
351.963612
 30
0.0
 11
5.0
 21
0.0
 31
0.0
210
0.0
220
0.0
230
1.0
 40
0.763675
 41
3.1415926535897931
 42
0.0
  0
ELLIPSE
  5
573
100
AcDbEntity
  8
0
370
    -3
390
0
  6
Continuous
100
AcDbEllipse
 10
-261.448547
 20
352.246454
 30
0.0
 11
5.0
 21
0.0
 31
0.0
210
0.0
220
0.0
230
1.0
 40
0.707107
 41
2.6124407455910101
 42
0.5291519079987834
  0
LINE
  5
574
100
AcDbEntity
  8
0
370
    -3
390
0
  6
Continuous
100
AcDbLine
 10
-256.448547
 20
351.963612
 30
0.0
 11
-256.448547
 21
352.246454
 31
0.0
  0
LINE
  5
575
100
AcDbEntity
  8
0
370
    -3
390
0
  6
Continuous
100
AcDbLine
 10
-266.448547
 20
351.963612
 30
0.0
 11
-266.448547
 21
352.246454
 31
0.0
  0
ELLIPSE
  5
576
100
AcDbEntity
  8
0
370
    -3
390
0
  6
Continuous
100
AcDbEllipse
 10
-261.448547
 20
350.291118
 30
0.0
 11
6.0
 21
0.0
 31
0.0
210
0.0
220
0.0
230
1.0
 40
0.707107
 41
3.1415926535897931
 42
0.0
  0
ELLIPSE
  5
577
100
AcDbEntity
  8
0
370
    -3
390
0
  6
Continuous
100
AcDbEllipse
 10
-261.448547
 20
351.577215
 30
0.0
 11
6.0
 21
0.0
 31
0.0
210
0.0
220
0.0
230
1.0
 40
0.689848
 41
2.3102549650648752
 42
3.1415926535897931
  0
LINE
  5
578
100
AcDbEntity
  8
0
370
    -3
390
0
  6
Continuous
100
AcDbLine
 10
-255.448547
 20
350.291118
 30
0.0
 11
-255.448547
 21
351.577215
 31
0.0
  0
LINE
  5
579
100
AcDbEntity
  8
0
370
    -3
390
0
  6
Continuous
100
AcDbLine
 10
-267.448547
 20
350.291118
 30
0.0
 11
-267.448547
 21
351.577215
 31
0.0
  0
LINE
  5
57A
100
AcDbEntity
  8
0
370
    -3
390
0
  6
Continuous
100
AcDbLine
 10
-313.348547
 20
162.789509
 30
0.0
 11
-297.650056
 21
153.725981
 31
0.0
  0
LINE
  5
57B
100
AcDbEntity
  8
0
370
    -3
390
0
  6
Continuous
100
AcDbLine
 10
-261.448547
 20
170.873564
 30
0.0
 11
-259.448547
 21
169.578031
 31
0.0
  0
LINE
  5
57C
100
AcDbEntity
  8
0
370
    -3
390
0
  6
Continuous
100
AcDbLine
 10
-261.448547
 20
170.873564
 30
0.0
 11
-259.448547
 21
172.406459
 31
0.0
  0
LINE
  5
57D
100
AcDbEntity
  8
0
370
    -3
390
0
  6
Continuous
100
AcDbLine
 10
-261.448547
 20
170.873564
 30
0.0
 11
-263.448547
 21
172.406459
 31
0.0
  0
LINE
  5
57E
100
AcDbEntity
  8
0
370
    -3
390
0
  6
Continuous
100
AcDbLine
 10
-261.448547
 20
170.873564
 30
0.0
 11
-263.448547
 21
169.578031
 31
0.0
  0
ELLIPSE
  5
57F
100
AcDbEntity
  8
0
370
    -3
390
0
  6
Continuous
100
AcDbEllipse
 10
-261.448547
 20
173.876256
 30
0.0
 11
6.0
 21
0.0
 31
0.0
210
0.0
220
0.0
230
1.0
 40
0.689848
 41
0.0
 42
3.1415926535897931
  0
ELLIPSE
  5
580
100
AcDbEntity
  8
0
370
    -3
390
0
  6
Continuous
100
AcDbEllipse
 10
-261.448547
 20
173.876256
 30
0.0
 11
6.0
 21
0.0
 31
0.0
210
0.0
220
0.0
230
1.0
 40
0.689848
 41
5.4518476186546714
 42
0.0
  0
ELLIPSE
  5
581
100
AcDbEntity
  8
0
370
    -3
390
0
  6
Continuous
100
AcDbEllipse
 10
-261.448547
 20
172.517505
 30
0.0
 11
4.5
 21
0.0
 31
0.0
210
0.0
220
0.0
230
1.0
 40
0.860332
 41
0.0
 42
6.2831853071795862
  0
ELLIPSE
  5
582
100
AcDbEntity
  8
0
370
    -3
390
0
  6
Continuous
100
AcDbEllipse
 10
-261.448547
 20
173.48986
 30
0.0
 11
5.0
 21
0.0
 31
0.0
210
0.0
220
0.0
230
1.0
 40
0.763675
 41
0.0
 42
3.1415926535897931
  0
ELLIPSE
  5
583
100
AcDbEntity
  8
0
370
    -3
390
0
  6
Continuous
100
AcDbEllipse
 10
-261.448547
 20
173.207017
 30
0.0
 11
5.0
 21
0.0
 31
0.0
210
0.0
220
0.0
230
1.0
 40
0.707107
 41
5.7540333991808064
 42
3.6707445615885725
  0
LINE
  5
584
100
AcDbEntity
  8
0
370
    -3
390
0
  6
Continuous
100
AcDbLine
 10
-256.448547
 20
173.48986
 30
0.0
 11
-256.448547
 21
173.207017
 31
0.0
  0
LINE
  5
585
100
AcDbEntity
  8
0
370
    -3
390
0
  6
Continuous
100
AcDbLine
 10
-266.448547
 20
173.48986
 30
0.0
 11
-266.448547
 21
173.207017
 31
0.0
  0
ELLIPSE
  5
586
100
AcDbEntity
  8
0
370
    -3
390
0
  6
Continuous
100
AcDbEllipse
 10
-261.448547
 20
175.162353
 30
0.0
 11
6.0
 21
0.0
 31
0.0
210
0.0
220
0.0
230
1.0
 40
0.707107
 41
0.0
 42
3.1415926535897931
  0
ELLIPSE
  5
587
100
AcDbEntity
  8
0
370
    -3
390
0
  6
Continuous
100
AcDbEllipse
 10
-261.448547
 20
173.876256
 30
0.0
 11
6.0
 21
0.0
 31
0.0
210
0.0
220
0.0
230
1.0
 40
0.689848
 41
3.1415926535897931
 42
3.9729303421147075
  0
LINE
  5
588
100
AcDbEntity
  8
0
370
    -3
390
0
  6
Continuous
100
AcDbLine
 10
-255.448547
 20
175.162353
 30
0.0
 11
-255.448547
 21
173.876256
 31
0.0
  0
LINE
  5
589
100
AcDbEntity
  8
0
370
    -3
390
0
  6
Continuous
100
AcDbLine
 10
-267.448547
 20
175.162353
 30
0.0
 11
-267.448547
 21
173.876256
 31
0.0
  0
ARC
  5
58A
100
AcDbEntity
  8
0
370
    -3
390
0
  6
Continuous
100
AcDbCircle
 10
-267.050056
 20
318.726736
 30
0.0
 40
61.2
100
AcDbArc
 50
90.0
 51
120.0
  0
ARC
  5
58B
100
AcDbEntity
  8
0
370
    -3
390
0
  6
Continuous
100
AcDbCircle
 10
-310.248547
 20
357.294605
 30
0.0
 40
6.2
100
AcDbArc
 50
120.0
 51
180.0
  0
LINE
  5
58C
100
AcDbEntity
  8
0
370
    -3
390
0
  6
Continuous
100
AcDbLine
 10
-313.348547
 20
362.663963
 30
0.0
 11
-297.650056
 21
371.72749
 31
0.0
  0
LINE
  5
58D
100
AcDbEntity
  8
0
370
    -3
390
0
  6
Continuous
100
AcDbLine
 10
-316.448547
 20
168.158866
 30
0.0
 11
-316.448547
 21
357.294605
 31
0.0
  0
LINE
  5
58E
100
AcDbEntity
  8
0
370
    -3
390
0
  6
Continuous
100
AcDbLine
 10
-221.448547
 20
156.726736
 30
0.0
 11
-16.448547
 21
156.726736
 31
0.0
  0
LINE
  5
58F
100
AcDbEntity
  8
0
370
    -3
390
0
  6
Continuous
100
AcDbLine
 10
-221.448547
 20
157.226736
 30
0.0
 11
-16.448547
 21
157.226736
 31
0.0
  0
LINE
  5
590
100
AcDbEntity
  8
0
370
    -3
390
0
  6
Continuous
100
AcDbLine
 10
-206.448547
 20
155.726736
 30
0.0
 11
-221.448547
 21
155.726736
 31
0.0
  0
LINE
  5
591
100
AcDbEntity
  8
0
370
    -3
390
0
  6
Continuous
100
AcDbLine
 10
-206.448547
 20
155.726736
 30
0.0
 11
-182.448547
 21
155.726736
 31
0.0
  0
ARC
  5
592
100
AcDbEntity
  8
0
370
    -3
390
0
  6
Continuous
100
AcDbCircle
 10
-185.048547
 20
152.526736
 30
0.0
 40
3.2
100
AcDbArc
 50
0.0
 51
90.0
  0
LINE
  5
593
100
AcDbEntity
  8
0
370
    -3
390
0
  6
Continuous
100
AcDbLine
 10
-181.848547
 20
144.326736
 30
0.0
 11
-181.848547
 21
152.526736
 31
0.0
  0
LINE
  5
594
100
AcDbEntity
  8
0
370
    -3
390
0
  6
Continuous
100
AcDbLine
 10
-182.448547
 20
156.726736
 30
0.0
 11
-182.448547
 21
155.726736
 31
0.0
  0
LINE
  5
595
100
AcDbEntity
  8
0
370
    -3
390
0
  6
Continuous
100
AcDbLine
 10
-175.448547
 20
142.326736
 30
0.0
 11
-237.448547
 21
142.326736
 31
0.0
  0
ARC
  5
596
100
AcDbEntity
  8
0
370
    -3
390
0
  6
Continuous
100
AcDbCircle
 10
-233.048547
 20
144.326736
 30
0.0
 40
2.0
100
AcDbArc
 50
270.0
 51
0.0
  0
ARC
  5
597
100
AcDbEntity
  8
0
370
    -3
390
0
  6
Continuous
100
AcDbCircle
 10
-179.848547
 20
144.326736
 30
0.0
 40
2.0
100
AcDbArc
 50
180.0
 51
270.0
  0
LINE
  5
598
100
AcDbEntity
  8
0
370
    -3
390
0
  6
CENTER
100
AcDbLine
 10
-206.448547
 20
146.560449
 30
0.0
 11
-206.448547
 21
84.498036
 31
0.0
  0
LINE
  5
599
100
AcDbEntity
  8
0
370
    -3
390
0
  6
Continuous
100
AcDbLine
 10
-241.898547
 20
89.55291
 30
0.0
 11
-209.505803
 21
89.55291
 31
0.0
  0
LINE
  5
59A
100
AcDbEntity
  8
0
370
    -3
390
0
  6
Continuous
100
AcDbLine
 10
-241.898547
 20
138.4213
 30
0.0
 11
-170.998547
 21
138.4213
 31
0.0
  0
LINE
  5
59B
100
AcDbEntity
  8
0
370
    -3
390
0
  6
Continuous
100
AcDbLine
 10
-241.898547
 20
134.949827
 30
0.0
 11
-170.998547
 21
134.949827
 31
0.0
  0
LINE
  5
59C
100
AcDbEntity
  8
0
370
    -3
390
0
  6
Continuous
100
AcDbLine
 10
-159.998547
 20
127.4213
 30
0.0
 11
-159.998547
 21
100.55291
 31
0.0
  0
LINE
  5
59D
100
AcDbEntity
  8
0
370
    -3
390
0
  6
Continuous
100
AcDbLine
 10
-166.398547
 20
97.526736
 30
0.0
 11
-166.398547
 21
127.10267
 31
0.0
  0
LINE
  5
59E
100
AcDbEntity
  8
0
370
    -3
390
0
  6
Continuous
100
AcDbLine
 10
-246.498547
 20
97.526736
 30
0.0
 11
-246.498547
 21
127.10267
 31
0.0
  0
LINE
  5
59F
100
AcDbEntity
  8
0
370
    -3
390
0
  6
Continuous
100
AcDbLine
 10
-241.498547
 20
132.10267
 30
0.0
 11
-171.398547
 21
132.10267
 31
0.0
  0
ARC
  5
5A0
100
AcDbEntity
  8
0
370
    -3
390
0
  6
Continuous
100
AcDbCircle
 10
-171.398547
 20
127.10267
 30
0.0
 40
5.0
100
AcDbArc
 50
0.0
 51
90.0
  0
ARC
  5
5A1
100
AcDbEntity
  8
0
370
    -3
390
0
  6
Continuous
100
AcDbCircle
 10
-241.498547
 20
127.10267
 30
0.0
 40
5.0
100
AcDbArc
 50
90.0
 51
180.0
  0
ARC
  5
5A2
100
AcDbEntity
  8
0
370
    -3
390
0
  6
Continuous
100
AcDbCircle
 10
-170.998547
 20
100.55291
 30
0.0
 40
11.0
100
AcDbArc
 50
270.0
 51
0.0
  0
ARC
  5
5A3
100
AcDbEntity
  8
0
370
    -3
390
0
  6
Continuous
100
AcDbCircle
 10
-241.898547
 20
100.55291
 30
0.0
 40
11.0
100
AcDbArc
 50
180.0
 51
270.0
  0
LINE
  5
5A4
100
AcDbEntity
  8
0
370
    -3
390
0
  6
Continuous
100
AcDbLine
 10
-240.698547
 20
91.726736
 30
0.0
 11
-172.198547
 21
91.726736
 31
0.0
  0
ARC
  5
5A5
100
AcDbEntity
  8
0
370
    -3
390
0
  6
Continuous
100
AcDbCircle
 10
-172.198547
 20
97.526736
 30
0.0
 40
5.8
100
AcDbArc
 50
270.0
 51
0.0
  0
ARC
  5
5A6
100
AcDbEntity
  8
0
370
    -3
390
0
  6
Continuous
100
AcDbCircle
 10
-240.698547
 20
97.526736
 30
0.0
 40
5.8
100
AcDbArc
 50
180.0
 51
270.0
  0
ARC
  5
5A7
100
AcDbEntity
  8
0
370
    -3
390
0
  6
Continuous
100
AcDbCircle
 10
-170.998547
 20
123.949827
 30
0.0
 40
11.0
100
AcDbArc
 50
0.0
 51
90.0
  0
ARC
  5
5A8
100
AcDbEntity
  8
0
370
    -3
390
0
  6
Continuous
100
AcDbCircle
 10
-170.998547
 20
127.4213
 30
0.0
 40
11.0
100
AcDbArc
 50
0.0
 51
90.0
  0
ARC
  5
5A9
100
AcDbEntity
  8
0
370
    -3
390
0
  6
Continuous
100
AcDbCircle
 10
-241.898547
 20
123.949827
 30
0.0
 40
11.0
100
AcDbArc
 50
90.0
 51
180.0
  0
ARC
  5
5AA
100
AcDbEntity
  8
0
370
    -3
390
0
  6
Continuous
100
AcDbCircle
 10
-241.898547
 20
127.4213
 30
0.0
 40
11.0
100
AcDbArc
 50
90.0
 51
180.0
  0
ARC
  5
5AB
100
AcDbEntity
  8
0
370
    -3
390
0
  6
Continuous
100
AcDbCircle
 10
-172.648547
 20
134.726736
 30
0.0
 40
5.0
100
AcDbArc
 50
44.925956
 51
90.0
  0
ARC
  5
5AC
100
AcDbEntity
  8
0
370
    -3
390
0
  6
Continuous
100
AcDbCircle
 10
-240.248547
 20
134.726736
 30
0.0
 40
5.0
100
AcDbArc
 50
90.0
 51
135.074044
  0
LINE
  5
5AD
100
AcDbEntity
  8
0
370
    -3
390
0
  6
CENTER
100
AcDbLine
 10
-229.272179
 20
115.726736
 30
0.0
 11
-184.984461
 21
115.726736
 31
0.0
  0
CIRCLE
  5
5AE
100
AcDbEntity
  8
0
370
    -3
390
0
  6
DASHED
100
AcDbCircle
 10
-206.448547
 20
115.726736
 30
0.0
 40
13.5
  0
LINE
  5
5AF
100
AcDbEntity
  8
0
370
    -3
390
0
  6
Continuous
100
AcDbLine
 10
-203.391291
 20
89.55291
 30
0.0
 11
-170.998547
 21
89.55291
 31
0.0
  0
LINE
  5
5B0
100
AcDbEntity
  8
0
370
    -3
390
0
  6
Continuous
100
AcDbLine
 10
-252.898547
 20
127.4213
 30
0.0
 11
-252.898547
 21
100.55291
 31
0.0
  0
LINE
  5
5B1
100
AcDbEntity
  8
0
370
    -3
390
0
  6
Continuous
100
AcDbLine
 10
-240.248547
 20
139.726736
 30
0.0
 11
-172.648547
 21
139.726736
 31
0.0
  0
LINE
  5
5B2
100
AcDbEntity
  8
0
370
    -3
390
0
  6
Continuous
100
AcDbLine
 10
-175.448547
 20
140.726736
 30
0.0
 11
-175.448547
 21
139.726736
 31
0.0
  0
LINE
  5
5B3
100
AcDbEntity
  8
0
370
    -3
390
0
  6
Continuous
100
AcDbLine
 10
-237.448547
 20
140.726736
 30
0.0
 11
-237.448547
 21
139.726736
 31
0.0
  0
LINE
  5
5B4
100
AcDbEntity
  8
0
370
    -3
390
0
  6
Continuous
100
AcDbLine
 10
-175.448547
 20
140.726736
 30
0.0
 11
-175.448547
 21
142.326736
 31
0.0
  0
LINE
  5
5B5
100
AcDbEntity
  8
0
370
    -3
390
0
  6
Continuous
100
AcDbLine
 10
-237.448547
 20
140.726736
 30
0.0
 11
-237.448547
 21
142.326736
 31
0.0
  0
LINE
  5
5B6
100
AcDbEntity
  8
0
370
    -3
390
0
  6
Continuous
100
AcDbLine
 10
-16.448547
 20
257.476736
 30
0.0
 11
-221.448547
 21
257.476736
 31
0.0
  0
LINE
  5
5B7
100
AcDbEntity
  8
0
370
    -3
390
0
  6
Continuous
100
AcDbLine
 10
-16.448547
 20
249.726736
 30
0.0
 11
-221.448547
 21
249.726736
 31
0.0
  0
LINE
  5
5B8
100
AcDbEntity
  8
0
370
    -3
390
0
  6
Continuous
100
AcDbLine
 10
-16.448547
 20
246.936606
 30
0.0
 11
-221.448547
 21
246.936606
 31
0.0
  0
LINE
  5
5B9
100
AcDbEntity
  8
0
370
    -3
390
0
  6
Continuous
100
AcDbLine
 10
-16.448547
 20
240.035777
 30
0.0
 11
-221.448547
 21
240.035777
 31
0.0
  0
LINE
  5
5BA
100
AcDbEntity
  8
0
370
    -3
390
0
  6
Continuous
100
AcDbLine
 10
-16.448547
 20
237.405374
 30
0.0
 11
-221.448547
 21
237.405374
 31
0.0
  0
LINE
  5
5BB
100
AcDbEntity
  8
0
370
    -3
390
0
  6
Continuous
100
AcDbLine
 10
-16.448547
 20
228.103809
 30
0.0
 11
-221.448547
 21
228.103809
 31
0.0
  0
LINE
  5
5BC
100
AcDbEntity
  8
0
370
    -3
390
0
  6
Continuous
100
AcDbLine
 10
-16.448547
 20
225.315292
 30
0.0
 11
-221.448547
 21
225.315292
 31
0.0
  0
LINE
  5
5BD
100
AcDbEntity
  8
0
370
    -3
390
0
  6
Continuous
100
AcDbLine
 10
-16.448547
 20
216.154242
 30
0.0
 11
-221.448547
 21
216.154242
 31
0.0
  0
LINE
  5
5BE
100
AcDbEntity
  8
0
370
    -3
390
0
  6
Continuous
100
AcDbLine
 10
-16.448547
 20
213.238684
 30
0.0
 11
-221.448547
 21
213.238684
 31
0.0
  0
LINE
  5
5BF
100
AcDbEntity
  8
0
370
    -3
390
0
  6
Continuous
100
AcDbLine
 10
-16.448547
 20
204.210048
 30
0.0
 11
-221.448547
 21
204.210048
 31
0.0
  0
LINE
  5
5C0
100
AcDbEntity
  8
0
370
    -3
390
0
  6
Continuous
100
AcDbLine
 10
-16.448547
 20
201.255568
 30
0.0
 11
-221.448547
 21
201.255568
 31
0.0
  0
LINE
  5
5C1
100
AcDbEntity
  8
0
370
    -3
390
0
  6
Continuous
100
AcDbLine
 10
-16.448547
 20
184.810706
 30
0.0
 11
-221.448547
 21
184.810706
 31
0.0
  0
LINE
  5
5C2
100
AcDbEntity
  8
0
370
    -3
390
0
  6
Continuous
100
AcDbLine
 10
-16.448547
 20
175.618318
 30
0.0
 11
-221.448547
 21
175.618318
 31
0.0
  0
LINE
  5
5C3
100
AcDbEntity
  8
0
370
    -3
390
0
  6
Continuous
100
AcDbLine
 10
-16.448547
 20
162.726736
 30
0.0
 11
-221.448547
 21
162.726736
 31
0.0
  0
LINE
  5
5C4
100
AcDbEntity
  8
0
370
    -3
390
0
  6
Continuous
100
AcDbLine
 10
-221.448547
 20
368.726736
 30
0.0
 11
-16.448547
 21
368.726736
 31
0.0
  0
LINE
  5
5C5
100
AcDbEntity
  8
0
370
    -3
390
0
  6
Continuous
100
AcDbLine
 10
-221.448547
 20
368.226736
 30
0.0
 11
-16.448547
 21
368.226736
 31
0.0
  0
LINE
  5
5C6
100
AcDbEntity
  8
0
370
    -3
390
0
  6
Continuous
100
AcDbLine
 10
-16.448547
 20
267.976736
 30
0.0
 11
-221.448547
 21
267.976736
 31
0.0
  0
LINE
  5
5C7
100
AcDbEntity
  8
0
370
    -3
390
0
  6
Continuous
100
AcDbLine
 10
-16.448547
 20
275.726736
 30
0.0
 11
-221.448547
 21
275.726736
 31
0.0
  0
LINE
  5
5C8
100
AcDbEntity
  8
0
370
    -3
390
0
  6
Continuous
100
AcDbLine
 10
-16.448547
 20
278.516865
 30
0.0
 11
-221.448547
 21
278.516865
 31
0.0
  0
LINE
  5
5C9
100
AcDbEntity
  8
0
370
    -3
390
0
  6
Continuous
100
AcDbLine
 10
-16.448547
 20
285.417695
 30
0.0
 11
-221.448547
 21
285.417695
 31
0.0
  0
LINE
  5
5CA
100
AcDbEntity
  8
0
370
    -3
390
0
  6
Continuous
100
AcDbLine
 10
-16.448547
 20
288.048097
 30
0.0
 11
-221.448547
 21
288.048097
 31
0.0
  0
LINE
  5
5CB
100
AcDbEntity
  8
0
370
    -3
390
0
  6
Continuous
100
AcDbLine
 10
-16.448547
 20
297.349663
 30
0.0
 11
-221.448547
 21
297.349663
 31
0.0
  0
LINE
  5
5CC
100
AcDbEntity
  8
0
370
    -3
390
0
  6
Continuous
100
AcDbLine
 10
-16.448547
 20
300.138179
 30
0.0
 11
-221.448547
 21
300.138179
 31
0.0
  0
LINE
  5
5CD
100
AcDbEntity
  8
0
370
    -3
390
0
  6
Continuous
100
AcDbLine
 10
-16.448547
 20
309.299229
 30
0.0
 11
-221.448547
 21
309.299229
 31
0.0
  0
LINE
  5
5CE
100
AcDbEntity
  8
0
370
    -3
390
0
  6
Continuous
100
AcDbLine
 10
-16.448547
 20
312.214787
 30
0.0
 11
-221.448547
 21
312.214787
 31
0.0
  0
LINE
  5
5CF
100
AcDbEntity
  8
0
370
    -3
390
0
  6
Continuous
100
AcDbLine
 10
-16.448547
 20
321.243423
 30
0.0
 11
-221.448547
 21
321.243423
 31
0.0
  0
LINE
  5
5D0
100
AcDbEntity
  8
0
370
    -3
390
0
  6
Continuous
100
AcDbLine
 10
-16.448547
 20
324.197904
 30
0.0
 11
-221.448547
 21
324.197904
 31
0.0
  0
LINE
  5
5D1
100
AcDbEntity
  8
0
370
    -3
390
0
  6
Continuous
100
AcDbLine
 10
-16.448547
 20
340.642765
 30
0.0
 11
-221.448547
 21
340.642765
 31
0.0
  0
LINE
  5
5D2
100
AcDbEntity
  8
0
370
    -3
390
0
  6
Continuous
100
AcDbLine
 10
-16.448547
 20
349.835153
 30
0.0
 11
-221.448547
 21
349.835153
 31
0.0
  0
LINE
  5
5D3
100
AcDbEntity
  8
0
370
    -3
390
0
  6
Continuous
100
AcDbLine
 10
-16.448547
 20
362.726736
 30
0.0
 11
-221.448547
 21
362.726736
 31
0.0
  0
LINE
  5
5D4
100
AcDbEntity
  8
0
370
    -3
390
0
  6
Continuous
100
AcDbLine
 10
-221.448547
 20
379.926736
 30
0.0
 11
-267.050056
 21
379.926736
 31
0.0
  0
LINE
  5
5D5
100
AcDbEntity
  8
0
370
    -3
390
0
  6
Continuous
100
AcDbLine
 10
-221.448547
 20
379.926736
 30
0.0
 11
-221.448547
 21
149.453647
 31
0.0
  0
ARC
  5
5D6
100
AcDbEntity
  8
0
370
    -3
390
0
  6
Continuous
100
AcDbCircle
 10
-224.448547
 20
149.453647
 30
0.0
 40
3.0
100
AcDbArc
 50
270.0
 51
0.0
  0
LINE
  5
5D7
100
AcDbEntity
  8
0
370
    -3
390
0
  6
Continuous
100
AcDbLine
 10
-235.448547
 20
146.453647
 30
0.0
 11
-224.448547
 21
146.453647
 31
0.0
  0
LINE
  5
5D8
100
AcDbEntity
  8
0
370
    -3
390
0
  6
Continuous
100
AcDbLine
 10
-236.445872
 20
145.526736
 30
0.0
 11
-267.050056
 21
145.526736
 31
0.0
  0
ARC
  5
5D9
100
AcDbEntity
  8
0
370
    -3
390
0
  6
Continuous
100
AcDbCircle
 10
-235.448547
 20
145.453647
 30
0.0
 40
1.0
100
AcDbArc
 50
90.0
 51
175.808572
  0
LINE
  5
5DA
100
AcDbEntity
  8
0
370
    -3
390
0
  6
Continuous
100
AcDbLine
 10
-231.048547
 20
144.326736
 30
0.0
 11
-231.048547
 21
146.453647
 31
0.0
  0
LINE
  5
5DB
100
AcDbEntity
  8
0
370
    -3
390
0
  6
Continuous
100
AcDbLine
 10
-16.448547
 20
156.726736
 30
0.0
 11
-16.448547
 21
368.726736
 31
0.0
  0
MTEXT
  5
5DD
100
AcDbEntity
  8
0
370
    -3
390
0
  6
Continuous
100
AcDbMText
 10
-827.200562
 20
359.998108
 30
0.0
 40
40.0
 41
0.0
 71
     7
 72
     1
  1
\W0.83;三菱ギヤードモータ  
  7
ZU_SHPTB00001
 11
1.0
 21
0.0
 31
0.0
 73
     1
 44
1.0
  0
MTEXT
  5
5DE
100
AcDbEntity
  8
0
370
    -3
390
0
  6
Continuous
100
AcDbMText
 10
-827.200562
 20
306.998108
 30
0.0
 40
40.0
 41
0.0
 71
     7
 72
     1
  1
\W0.60;GM-DPF
  7
ZU_SHPTB00001
 11
1.0
 21
0.0
 31
0.0
 73
     1
 44
1.0
  0
MTEXT
  5
5DF
100
AcDbEntity
  8
0
370
    -3
390
0
  6
Continuous
100
AcDbMText
 10
-827.200562
 20
253.998123
 30
0.0
 40
40.0
 41
0.0
 71
     7
 72
     1
  1
\W0.60;3.7(kW)
  7
ZU_SHPTB00001
 11
1.0
 21
0.0
 31
0.0
 73
     1
 44
1.0
  0
MTEXT
  5
5E0
100
AcDbEntity
  8
0
370
    -3
390
0
  6
Continuous
100
AcDbMText
 10
-827.200562
 20
200.998123
 30
0.0
 40
40.0
 41
0.0
 71
     7
 72
     1
  1
\W0.60;1/60\W0.83;～\W0.60;1/100
  7
ZU_SHPTB00001
 11
1.0
 21
0.0
 31
0.0
 73
     1
 44
1.0
  0
MTEXT
  5
5E1
100
AcDbEntity
  8
0
370
    -3
390
0
  6
Continuous
100
AcDbMText
 10
-827.200562
 20
147.998123
 30
0.0
 40
40.0
 41
0.0
 71
     7
 72
     1
  1
\W0.60;SCALE\W1.00; \W0.60;1/1
  7
ZU_SHPTB00001
 11
1.0
 21
0.0
 31
0.0
 73
     1
 44
1.0
  0
ENDSEC
  0
SECTION
  2
OBJECTS
  0
DICTIONARY
  5
19
100
AcDbDictionary
280
     0
281
     1
  3
ACAD_GROUP
350
1A
  3
ACAD_MLINESTYLE
350
1B
  3
ACAD_LAYOUT
350
1E
  3
ACAD_PLOTSETTINGS
350
22
  3
ACAD_PLOTSTYLENAME
350
1F
  3
ACAD_WIPEOUT_VARS
350
23
  3
DWGPROPS
350
5E2
  0
DICTIONARY
  5
1A
102
{ACAD_REACTORS
330
19
102
}
100
AcDbDictionary
280
     0
281
     1
  0
DICTIONARY
  5
1B
102
{ACAD_REACTORS
330
19
102
}
100
AcDbDictionary
280
     0
281
     1
  3
Standard
350
1C
  0
MLINESTYLE
  5
1C
102
{ACAD_REACTORS
330
1B
102
}
100
AcDbMlineStyle
  2
Standard
 70
     0
  3

 62
     0
 51
90.0
 52
90.0
 71
     2
 49
0.5
 62
   256
  6
ByLayer
 49
-0.5
 62
   256
  6
ByLayer
  0
ACDBDICTIONARYWDFLT
  5
1F
102
{ACAD_REACTORS
330
19
102
}
100
AcDbDictionary
281
     1
  3
Normal
350
1D
100
AcDbDictionaryWithDefault
340
1D
  0
ACDBPLACEHOLDER
  5
1D
102
{ACAD_REACTORS
330
1F
102
}
  0
LAYOUT
  5
20
102
{ACAD_REACTORS
330
1E
102
}
100
AcDbPlotSettings
  1

  2

  4

  6

 40
0.0
 41
0.0
 42
0.0
 43
0.0
 44
0.0
 45
0.0
 46
0.0
 47
0.0
 48
0.0
 49
0.0
140
0.0
141
0.0
142
1.0
143
1.0
 70
  1024
 72
     0
 73
     0
 74
     0
  7

 75
     0
147
1.0
148
0.0
149
0.0
100
AcDbLayout
  1
Model
 70
     0
 71
     0
 10
0.0
 20
0.0
 11
0.0
 21
0.0
 12
0.0
 22
0.0
 32
0.0
 14
0.0
 24
0.0
 34
0.0
 15
0.0
 25
0.0
 35
0.0
146
0.0
 13
0.0
 23
0.0
 33
0.0
 16
0.0
 26
0.0
 36
0.0
 17
0.0
 27
0.0
 37
0.0
 76
     0
330
A
331
0
345
0
346
0
  0
LAYOUT
  5
21
102
{ACAD_REACTORS
330
1E
102
}
100
AcDbPlotSettings
  1

  2

  4

  6

 40
0.0
 41
0.0
 42
0.0
 43
0.0
 44
0.0
 45
0.0
 46
0.0
 47
0.0
 48
0.0
 49
0.0
140
0.0
141
0.0
142
1.0
143
1.0
 70
     0
 72
     0
 73
     0
 74
     0
  7

 75
     0
147
1.0
148
0.0
149
0.0
100
AcDbLayout
  1
Layout1
 70
     0
 71
     0
 10
0.0
 20
0.0
 11
0.0
 21
0.0
 12
0.0
 22
0.0
 32
0.0
 14
0.0
 24
0.0
 34
0.0
 15
0.0
 25
0.0
 35
0.0
146
0.0
 13
0.0
 23
0.0
 33
0.0
 16
0.0
 26
0.0
 36
0.0
 17
0.0
 27
0.0
 37
0.0
 76
     0
330
B
331
0
345
0
346
0
  0
DICTIONARY
  5
1E
102
{ACAD_REACTORS
330
19
102
}
100
AcDbDictionary
280
     0
281
     1
  3
Layout1
350
21
  3
Model
350
20
  0
DICTIONARY
  5
22
102
{ACAD_REACTORS
330
19
102
}
100
AcDbDictionary
280
     0
281
     1
  0
WIPEOUTVARIABLES
  5
23
100
AcDbWipeoutVariables
 70
     1
  0
XRECORD
  5
5E2
100
AcDbXrecord
280
     1
  1
DWGPROPS COOKIE
  2

  3

  4

  6

  7

  8
YP81315
  9

300
=
301
=
302
=
303
=
304
=
305
=
306
=
307
=
308
=
309
=
 40
0.0
 41
2456812.58228
 42
2456812.58228
  1

 90
        0
  0
ENDSEC
  0
EOF
