  0
SECTION
  2
HEADER
  9
$ACADVER
  1
AC1015
  9
$ACADMAINTVER
 70
     6
  9
$DWGCODEPAGE
  3
ANSI_932
  9
$INSBASE
 10
0.0
 20
0.0
 30
0.0
  9
$EXTMIN
 10
1.000000E+20
 20
1.000000E+20
 30
1.000000E+20
  9
$EXTMAX
 10
-1.000000E+20
 20
-1.000000E+20
 30
-1.000000E+20
  9
$LIMMIN
 10
0.0
 20
0.0
  9
$LIMMAX
 10
0.0
 20
0.0
  9
$ORTHOMODE
 70
     0
  9
$REGENMODE
 70
     1
  9
$FILLMODE
 70
     1
  9
$QTEXTMODE
 70
     0
  9
$MIRRTEXT
 70
     1
  9
$LTSCALE
 40
1.0
  9
$ATTMODE
 70
     1
  9
$TEXTSIZE
 40
3.3
  9
$TRACEWID
 40
0.05
  9
$TEXTSTYLE
  7
Standard
  9
$CLAYER
  8
0
  9
$CELTYPE
  6
Continuous
  9
$CECOLOR
 62
   256
  9
$CELTSCALE
 40
1.0
  9
$DISPSILH
 70
     0
  9
$DIMSCALE
 40
1.0
  9
$DIMASZ
 40
1.931852
  9
$DIMEXO
 40
1.0
  9
$DIMDLI
 40
0.38
  9
$DIMRND
 40
0.0
  9
$DIMDLE
 40
0.0
  9
$DIMEXE
 40
2.0
  9
$DIMTP
 40
0.0
  9
$DIMTM
 40
0.0
  9
$DIMTXT
 40
20.0
  9
$DIMCEN
 40
0.09
  9
$DIMTSZ
 40
0.0
  9
$DIMTOL
 70
     0
  9
$DIMLIM
 70
     0
  9
$DIMTIH
 70
     1
  9
$DIMTOH
 70
     1
  9
$DIMSE1
 70
     0
  9
$DIMSE2
 70
     0
  9
$DIMTAD
 70
     1
  9
$DIMZIN
 70
     0
  9
$DIMBLK
  1

  9
$DIMASO
 70
     1
  9
$DIMSHO
 70
     1
  9
$DIMPOST
  1

  9
$DIMAPOST
  1

  9
$DIMALT
 70
     0
  9
$DIMALTD
 70
     2
  9
$DIMALTF
 40
25.4
  9
$DIMLFAC
 40
1.0
  9
$DIMTOFL
 70
     0
  9
$DIMTVP
 40
0.0
  9
$DIMTIX
 70
     0
  9
$DIMSOXD
 70
     0
  9
$DIMSAH
 70
     0
  9
$DIMBLK1
  1

  9
$DIMBLK2
  1

  9
$DIMSTYLE
  2
Standard
  9
$DIMCLRD
 70
     0
  9
$DIMCLRE
 70
     0
  9
$DIMCLRT
 70
     0
  9
$DIMTFAC
 40
0.714286
  9
$DIMGAP
 40
0.09
  9
$DIMJUST
 70
     0
  9
$DIMSD1
 70
     0
  9
$DIMSD2
 70
     0
  9
$DIMTOLJ
 70
     1
  9
$DIMTZIN
 70
     0
  9
$DIMALTZ
 70
     0
  9
$DIMALTTZ
 70
     0
  9
$DIMUPT
 70
     0
  9
$DIMDEC
 70
     4
  9
$DIMTDEC
 70
     4
  9
$DIMALTU
 70
     2
  9
$DIMALTTD
 70
     2
  9
$DIMTXSTY
  7
Standard
  9
$DIMAUNIT
 70
     0
  9
$DIMADEC
 70
     0
  9
$DIMALTRND
 40
0.0
  9
$DIMAZIN
 70
     0
  9
$DIMDSEP
 70
     0
  9
$DIMATFIT
 70
     3
  9
$DIMFRAC
 70
     0
  9
$DIMLDRBLK
  1

  9
$DIMLUNIT
 70
     2
  9
$DIMLWD
 70
     0
  9
$DIMLWE
 70
     0
  9
$DIMTMOVE
 70
     0
  9
$LUNITS
 70
     2
  9
$LUPREC
 70
     3
  9
$SKETCHINC
 40
0.1
  9
$FILLETRAD
 40
0.0
  9
$AUNITS
 70
     0
  9
$AUPREC
 70
     0
  9
$MENU
  1
acad
  9
$ELEVATION
 40
0.0
  9
$PELEVATION
 40
0.0
  9
$THICKNESS
 40
0.0
  9
$LIMCHECK
 70
     0
  9
$CHAMFERA
 40
0.0
  9
$CHAMFERB
 40
0.0
  9
$CHAMFERC
 40
0.0
  9
$CHAMFERD
 40
0.0
  9
$SKPOLY
 70
     0
  9
$TDCREATE
 40
0.000000000
  9
$TDUCREATE
 40
0.000000000
  9
$TDUPDATE
 40
0.000000000
  9
$TDUUPDATE
 40
0.000000000
  9
$TDINDWG
 40
0.0000000000
  9
$TDUSRTIMER
 40
0.0000000000
  9
$USRTIMER
 70
     1
  9
$ANGBASE
 50
0.0
  9
$ANGDIR
 70
     0
  9
$PDMODE
 70
     0
  9
$PDSIZE
 40
0.0
  9
$PLINEWID
 40
0.0
  9
$SPLFRAME
 70
     0
  9
$SPLINETYPE
 70
     6
  9
$SPLINESEGS
 70
     8
  9
$HANDSEED
  5
607
  9
$SURFTAB1
 70
     6
  9
$SURFTAB2
 70
     6
  9
$SURFTYPE
 70
     6
  9
$SURFU
 70
     6
  9
$SURFV
 70
     6
  9
$UCSBASE
  2

  9
$UCSNAME
  2

  9
$UCSORG
 10
0.0
 20
0.0
 30
0.0
  9
$UCSXDIR
 10
1.0
 20
0.0
 30
0.0
  9
$UCSYDIR
 10
0.0
 20
1.0
 30
0.0
  9
$UCSORTHOREF
  2

  9
$UCSORTHOVIEW
 70
     0
  9
$UCSORGTOP
 10
0.0
 20
0.0
 30
0.0
  9
$UCSORGBOTTOM
 10
0.0
 20
0.0
 30
0.0
  9
$UCSORGLEFT
 10
0.0
 20
0.0
 30
0.0
  9
$UCSORGRIGHT
 10
0.0
 20
0.0
 30
0.0
  9
$UCSORGFRONT
 10
0.0
 20
0.0
 30
0.0
  9
$UCSORGBACK
 10
0.0
 20
0.0
 30
0.0
  9
$PUCSBASE
  2

  9
$PUCSNAME
  2

  9
$PUCSORG
 10
0.0
 20
0.0
 30
0.0
  9
$PUCSXDIR
 10
1.0
 20
0.0
 30
0.0
  9
$PUCSYDIR
 10
0.0
 20
1.0
 30
0.0
  9
$PUCSORTHOREF
  2

  9
$PUCSORTHOVIEW
 70
     0
  9
$PUCSORGTOP
 10
0.0
 20
0.0
 30
0.0
  9
$PUCSORGBOTTOM
 10
0.0
 20
0.0
 30
0.0
  9
$PUCSORGLEFT
 10
0.0
 20
0.0
 30
0.0
  9
$PUCSORGRIGHT
 10
0.0
 20
0.0
 30
0.0
  9
$PUCSORGFRONT
 10
0.0
 20
0.0
 30
0.0
  9
$PUCSORGBACK
 10
0.0
 20
0.0
 30
0.0
  9
$USERI1
 70
     0
  9
$USERI2
 70
     0
  9
$USERI3
 70
     0
  9
$USERI4
 70
     0
  9
$USERI5
 70
     0
  9
$USERR1
 40
0.0
  9
$USERR2
 40
0.0
  9
$USERR3
 40
0.0
  9
$USERR4
 40
0.0
  9
$USERR5
 40
0.0
  9
$WORLDVIEW
 70
     1
  9
$SHADEDGE
 70
     3
  9
$SHADEDIF
 70
    70
  9
$TILEMODE
 70
     1
  9
$MAXACTVP
 70
    16
  9
$PINSBASE
 10
0.0
 20
0.0
 30
0.0
  9
$PLIMCHECK
 70
     0
  9
$PEXTMIN
 10
1.000000E+20
 20
1.000000E+20
 30
1.000000E+20
  9
$PEXTMAX
 10
-1.000000E+20
 20
-1.000000E+20
 30
-1.000000E+20
  9
$PLIMMIN
 10
0.0
 20
0.0
  9
$PLIMMAX
 10
12.0
 20
9.0
  9
$UNITMODE
 70
     0
  9
$VISRETAIN
 70
     0
  9
$PLINEGEN
 70
     1
  9
$PSLTSCALE
 70
     0
  9
$TREEDEPTH
 70
  3020
  9
$CMLSTYLE
  2
Standard
  9
$CMLJUST
 70
     0
  9
$CMLSCALE
 40
1.0
  9
$PROXYGRAPHICS
 70
     0
  9
$MEASUREMENT
 70
     0
  9
$CELWEIGHT
370
     0
  9
$ENDCAPS
280
     0
  9
$JOINSTYLE
280
     0
  9
$LWDISPLAY
290
     0
  9
$INSUNITS
 70
     0
  9
$HYPERLINKBASE
  1

  9
$STYLESHEET
  1

  9
$XEDIT
290
     1
  9
$CEPSNTYPE
380
     0
  9
$PSTYLEMODE
290
     1
  9
$FINGERPRINTGUID
  2

  9
$VERSIONGUID
  2

  9
$EXTNAMES
290
     1
  9
$PSVPSCALE
 40
0.0
  0
ENDSEC
  0
SECTION
  2
CLASSES
  0
CLASS
  1
LWPOLYLINE
  2
AcDbPolyline
  3
AutoCAD 2000
 90
        0
280
     0
281
     1
  0
CLASS
  1
IMAGE
  2
AcDbRasterImage
  3
ISM
 90
      127
280
     0
281
     1
  0
CLASS
  1
OLE2FRAME
  2
AcDbOle2Frame
  3
AutoCAD 2000
 90
        0
280
     0
281
     1
  0
CLASS
  1
HATCH
  2
AcDbHatch
  3
AutoCAD 2000
 90
        0
280
     0
281
     1
  0
CLASS
  1
DICTIONARYVAR
  2
AcDbDictionaryVar
  3
AutoCAD 2000
 90
        0
280
     0
281
     0
  0
CLASS
  1
RASTERVARIABLES
  2
AcDbRasterVariables
  3
ISM
 90
        0
280
     0
281
     0
  0
CLASS
  1
IMAGEDEF
  2
AcDbRasterImageDef
  3
ISM
 90
        0
280
     0
281
     0
  0
CLASS
  1
IMAGEDEF_REACTOR
  2
AcDbRasterImageDefReactor
  3
ISM
 90
        1
280
     0
281
     0
  0
CLASS
  1
IDBUFFER
  2
AcDbIdBuffer
  3
AutoCAD 2000
 90
        0
280
     0
281
     0
  0
CLASS
  1
SPATIAL_FILTER
  2
AcDbSpatialFilter
  3
AutoCAD 2000
 90
        0
280
     0
281
     0
  0
CLASS
  1
XRECORD
  2
AcDbXrecord
  3
AutoCAD 2000
 90
        0
280
     0
281
     0
  0
CLASS
  1
SORTENTSTABLE
  2
AcDbSortentsTable
  3
AutoCAD 2000
 90
        0
280
     0
281
     0
  0
CLASS
  1
LAYER_INDEX
  2
AcDbLayerIndex
  3
AutoCAD 2000
 90
        0
280
     0
281
     0
  0
CLASS
  1
SPATIAL_INDEX
  2
AcDbSpatialIndex
  3
AutoCAD 2000
 90
        0
280
     0
281
     0
  0
CLASS
  1
OBJECT_PTR
  2
CAseDLPNTableRecord
  3
"ASE-LPNTableRecord"
 90
        1
280
     0
281
     0
  0
CLASS
  1
LAYOUT
  2
AcDbLayout
  3
AutoCAD 2000
 90
        0
280
     0
281
     0
  0
CLASS
  1
PLOTSETTINGS
  2
AcDbPlotSettings
  3
AutoCAD 2000
 90
        0
280
     0
281
     0
  0
CLASS
  1
ACDBDICTIONARYWDFLT
  2
AcDbDictionaryWithDefault
  3
AutoCAD 2000
 90
        0
280
     0
281
     0
  0
CLASS
  1
ACDBPLACEHOLDER
  2
AcDbPlaceHolder
  3
AutoCAD 2000
 90
        0
280
     0
281
     0
  0
CLASS
  1
VBA_PROJECT
  2
AcDbVbaProject
  3
acadvba
 90
        0
280
     0
281
     0
  0
CLASS
  1
WIPEOUT
  2
AcDbWipeout
  3
WipeOut|AutoCAD Express Tool|expresstools@autodesk.com
 90
      127
280
     0
281
     1
  0
CLASS
  1
WIPEOUTVARIABLES
  2
AcDbWipeoutVariables
  3
WipeOut|AutoCAD Express Tool|expresstools@autodesk.com
 90
        0
280
     0
281
     0
  0
CLASS
  1
RTEXT
  2
RText
  3
RText|AutoCAD Express Tool|expresstools@autodesk.com
 90
        0
280
     0
281
     1
  0
CLASS
  1
ARCALIGNEDTEXT
  2
AcDbArcAlignedText
  3
ATEXT|AutoCAD Express Tool|expresstools@autodesk.com
 90
        0
280
     0
281
     1
  0
ENDSEC
  0
SECTION
  2
TABLES
  0
TABLE
  2
VPORT
  5
7
100
AcDbSymbolTable
 70
     1
  0
VPORT
  5
15
100
AcDbSymbolTableRecord
100
AcDbViewportTableRecord
  2
*ACTIVE
 70
     0
 10
0.0
 20
0.0
 11
1.0
 21
1.0
 12
0.0
 22
0.0
 13
0.0
 23
0.0
 14
1.0
 24
1.0
 15
0.0
 25
0.0
 16
0.0
 26
0.0
 36
1.0
 17
0.0
 27
0.0
 37
0.0
 40
100.0
 41
1.0
 42
50.0
 43
0.0
 44
0.0
 50
0.0
 51
0.0
 71
     0
 72
   100
 73
     1
 74
     1
 75
     0
 76
     0
 77
     0
 78
     0
281
     0
 65
     0
110
0.0
120
0.0
130
0.0
111
1.0
121
0.0
131
0.0
112
0.0
122
1.0
132
0.0
345
0
346
0
 79
     0
146
0.0
  0
ENDTAB
  0
TABLE
  2
LTYPE
  5
4
100
AcDbSymbolTable
 70
     7
  0
LTYPE
  5
11
100
AcDbSymbolTableRecord
100
AcDbLinetypeTableRecord
  2
ByBlock
 70
    64
  3

 72
    65
 73
     0
 40
0.0
  0
LTYPE
  5
12
100
AcDbSymbolTableRecord
100
AcDbLinetypeTableRecord
  2
ByLayer
 70
    64
  3

 72
    65
 73
     0
 40
0.0
  0
LTYPE
  5
13
100
AcDbSymbolTableRecord
100
AcDbLinetypeTableRecord
  2
Continuous
 70
    64
  3
Solid line
 72
    65
 73
     0
 40
0.0
  0
LTYPE
  5
24
100
AcDbSymbolTableRecord
100
AcDbLinetypeTableRecord
  2
DASHED
 70
    64
  3
Dashed __ __ __ __ __ __ __ __ __ __ __ __ __ _
 72
    65
 73
     2
 40
0.75
 49
0.5
 74
     0
 49
-0.25
 74
     0
  0
LTYPE
  5
25
100
AcDbSymbolTableRecord
100
AcDbLinetypeTableRecord
  2
CENTER
 70
    64
  3
Center ____ _ ____ _ ____ _ ____ _ ____ _ ____
 72
    65
 73
     4
 40
1.0
 49
0.5
 74
     0
 49
-0.25
 74
     0
 49
0.0
 74
     0
 49
-0.25
 74
     0
  0
LTYPE
  5
26
100
AcDbSymbolTableRecord
100
AcDbLinetypeTableRecord
  2
DIVIDE
 70
    64
  3
Divide ____ . . ____ . . ____ . . ____ . . ____
 72
    65
 73
     6
 40
1.25
 49
0.5
 74
     0
 49
-0.25
 74
     0
 49
0.0
 74
     0
 49
-0.25
 74
     0
 49
0.0
 74
     0
 49
-0.25
 74
     0
  0
LTYPE
  5
27
100
AcDbSymbolTableRecord
100
AcDbLinetypeTableRecord
  2
PHANTOM
 70
    64
  3
Phantom ______  __  __  ______  __  __  ______
 72
    65
 73
     6
 40
9.0
 49
4.3
 74
     0
 49
-0.7
 74
     0
 49
1.3
 74
     0
 49
-0.7
 74
     0
 49
1.3
 74
     0
 49
-0.7
 74
     0
  0
ENDTAB
  0
TABLE
  2
LAYER
  5
2
100
AcDbSymbolTable
 70
     1
  0
LAYER
  5
14
100
AcDbSymbolTableRecord
100
AcDbLayerTableRecord
  2
0
 70
    64
 62
   102
  6
Continuous
290
     1
370
    -3
390
1D
  0
ENDTAB
  0
TABLE
  2
STYLE
  5
3
100
AcDbSymbolTable
 70
     2
  0
STYLE
  5
17
100
AcDbSymbolTableRecord
100
AcDbTextStyleTableRecord
  2
Standard
 70
     0
 40
0.0
 41
1.0
 50
0.0
 71
     0
 42
0.0
  3
txt
  4

  0
STYLE
  5
600
100
AcDbSymbolTableRecord
100
AcDbTextStyleTableRecord
  2
ZU_SHPTB00001
 70
     0
 40
0.0
 41
1.0
 50
0.0
 71
     0
 42
0.0
  3
monotxt
  4
bigfont
  0
ENDTAB
  0
TABLE
  2
VIEW
  5
5
100
AcDbSymbolTable
 70
     0
  0
ENDTAB
  0
TABLE
  2
UCS
  5
6
100
AcDbSymbolTable
 70
     0
  0
ENDTAB
  0
TABLE
  2
APPID
  5
8
100
AcDbSymbolTable
 70
     1
  0
APPID
  5
16
100
AcDbSymbolTableRecord
100
AcDbRegAppTableRecord
  2
ACAD
 70
     0
  0
ENDTAB
  0
TABLE
  2
DIMSTYLE
  5
9
100
AcDbSymbolTable
 70
     1
100
AcDbDimStyleTable
 71
     0
  0
DIMSTYLE
105
18
100
AcDbSymbolTableRecord
100
AcDbDimStyleTableRecord
  2
Standard
 70
     0
  3

  4

 40
1.0
 41
0.18
 42
0.0625
 43
0.38
 44
0.18
 45
0.0
 46
0.0
 47
0.0
 48
0.0
 71
     0
 72
     0
 73
     1
 74
     1
 75
     0
 76
     0
 77
     0
 78
     0
 79
     0
140
0.18
141
0.09
142
0.0
143
25.4
144
1.0
145
0.0
146
1.0
147
0.09
148
0.0
170
     0
171
     2
172
     0
173
     0
174
     0
175
     0
176
     0
177
     0
178
     0
179
     0
271
     4
272
     4
273
     2
274
     2
275
     0
276
     0
277
     2
278
    46
279
     0
280
     0
281
     0
282
     0
283
     1
284
     0
285
     0
286
     0
288
     0
289
     3
340
17
341
0
342
0
343
0
344
0
371
    -2
372
    -2
  0
ENDTAB
  0
TABLE
  2
BLOCK_RECORD
  5
1
100
AcDbSymbolTable
 70
     5
  0
BLOCK_RECORD
  5
A
100
AcDbSymbolTableRecord
100
AcDbBlockTableRecord
  2
*MODEL_SPACE
340
20
  0
BLOCK_RECORD
  5
B
100
AcDbSymbolTableRecord
100
AcDbBlockTableRecord
  2
*PAPER_SPACE
340
21
  0
BLOCK_RECORD
  5
6F
100
AcDbSymbolTableRecord
100
AcDbBlockTableRecord
  2
ZU_SYM__USERS_HOME_SYMBOL_POO_SYM_B20_18
340
0
102
{BLKREFS
331
7A
102
}
  0
BLOCK_RECORD
  5
9B
100
AcDbSymbolTableRecord
100
AcDbBlockTableRecord
  2
ZU_SYM__USERS_HOME_SYMBOL_POO_SYM_B20_20
340
0
102
{BLKREFS
331
A6
102
}
  0
BLOCK_RECORD
  5
A7
100
AcDbSymbolTableRecord
100
AcDbBlockTableRecord
  2
ZU_SYM__USERS_HOME_SYMBOL_POO_SYM_B20_0000120
340
0
102
{BLKREFS
331
B2
102
}
  0
BLOCK_RECORD
  5
B3
100
AcDbSymbolTableRecord
100
AcDbBlockTableRecord
  2
ZU_SYM__USERS_HOME_SYMBOL_POO_SYM_B20_0000220
340
0
102
{BLKREFS
331
BE
102
}
  0
BLOCK_RECORD
  5
BF
100
AcDbSymbolTableRecord
100
AcDbBlockTableRecord
  2
ZU_SYM__USERS_HOME_SYMBOL_POO_SYM_B20_0000320
340
0
102
{BLKREFS
331
CA
102
}
  0
ENDTAB
  0
ENDSEC
  0
SECTION
  2
BLOCKS
  0
BLOCK
  5
D
100
AcDbEntity
  8
0
390
0
100
AcDbBlockBegin
  2
*MODEL_SPACE
 70
     0
 10
0.0
 20
0.0
 30
0.0
  3
*MODEL_SPACE
  1

  0
ENDBLK
  5
E
100
AcDbEntity
  8
0
390
0
100
AcDbBlockEnd
  0
BLOCK
  5
F
100
AcDbEntity
 67
     1
  8
0
390
0
100
AcDbBlockBegin
  2
*PAPER_SPACE
 70
     0
 10
0.0
 20
0.0
 30
0.0
  3
*PAPER_SPACE
  1

  0
ENDBLK
  5
10
100
AcDbEntity
 67
     1
  8
0
390
0
100
AcDbBlockEnd
  0
BLOCK
  5
70
100
AcDbEntity
  8
0
390
0
100
AcDbBlockBegin
  2
ZU_SYM__USERS_HOME_SYMBOL_POO_SYM_B20_18
 70
    64
 10
0.0
 20
0.0
 30
0.0
  3
ZU_SYM__USERS_HOME_SYMBOL_POO_SYM_B20_18
  1

  0
LINE
  5
71
100
AcDbEntity
  8
0
370
    -3
390
0
  6
Continuous
100
AcDbLine
 10
-7.499999
 20
6.5
 30
0.0
 11
-7.499999
 21
-6.5
 31
0.0
  0
LINE
  5
72
100
AcDbEntity
  8
0
370
    -3
390
0
  6
Continuous
100
AcDbLine
 10
-7.499998
 20
-6.499999
 30
0.0
 11
-7.999999
 21
-5.63407
 31
0.0
  0
LINE
  5
73
100
AcDbEntity
  8
0
370
    -3
390
0
  6
Continuous
100
AcDbLine
 10
-7.499999
 20
6.5
 30
0.0
 11
-7.999999
 21
5.633876
 31
0.0
  0
LINE
  5
74
100
AcDbEntity
  8
0
370
    -3
390
0
  6
Continuous
100
AcDbLine
 10
0.0
 20
-6.5
 30
0.0
 11
-7.499998
 21
-6.5
 31
0.0
  0
LINE
  5
75
100
AcDbEntity
  8
0
370
    -3
390
0
  6
Continuous
100
AcDbLine
 10
0.0
 20
6.5
 30
0.0
 11
-7.499999
 21
6.5
 31
0.0
  0
LINE
  5
76
100
AcDbEntity
  8
0
370
    -3
390
0
  6
Continuous
100
AcDbLine
 10
-7.999999
 20
5.633876
 30
0.0
 11
-7.999999
 21
-5.63407
 31
0.0
  0
LINE
  5
77
100
AcDbEntity
  8
0
370
    -3
390
0
  6
Continuous
100
AcDbLine
 10
0.0
 20
-6.5
 30
0.0
 11
0.0
 21
6.5
 31
0.0
  0
POINT
  5
78
100
AcDbEntity
  8
0
370
    -3
390
0
  6
Continuous
100
AcDbPoint
 10
0.0
 20
0.0
 30
0.0
  0
ENDBLK
  5
79
100
AcDbEntity
  8
0
390
0
100
AcDbBlockEnd
  0
BLOCK
  5
9C
100
AcDbEntity
  8
0
390
0
100
AcDbBlockBegin
  2
ZU_SYM__USERS_HOME_SYMBOL_POO_SYM_B20_20
 70
    64
 10
0.0
 20
0.0
 30
0.0
  3
ZU_SYM__USERS_HOME_SYMBOL_POO_SYM_B20_20
  1

  0
LINE
  5
9D
100
AcDbEntity
  8
0
370
    -3
390
0
  6
Continuous
100
AcDbLine
 10
-11.299976
 20
9.0
 30
0.0
 11
-11.299976
 21
-9.0
 31
0.0
  0
LINE
  5
9E
100
AcDbEntity
  8
0
370
    -3
390
0
  6
Continuous
100
AcDbLine
 10
-11.299961
 20
-9.000002
 30
0.0
 11
-11.999958
 21
-7.787738
 31
0.0
  0
LINE
  5
9F
100
AcDbEntity
  8
0
370
    -3
390
0
  6
Continuous
100
AcDbLine
 10
-11.299976
 20
8.999998
 30
0.0
 11
-11.999973
 21
7.787338
 31
0.0
  0
LINE
  5
A0
100
AcDbEntity
  8
0
370
    -3
390
0
  6
Continuous
100
AcDbLine
 10
0.0
 20
9.0
 30
0.0
 11
-11.299976
 21
9.0
 31
0.0
  0
LINE
  5
A1
100
AcDbEntity
  8
0
370
    -3
390
0
  6
Continuous
100
AcDbLine
 10
0.0
 20
-9.0
 30
0.0
 11
-11.299961
 21
-9.0
 31
0.0
  0
LINE
  5
A2
100
AcDbEntity
  8
0
370
    -3
390
0
  6
Continuous
100
AcDbLine
 10
-11.999958
 20
-7.787735
 30
0.0
 11
-11.999973
 21
7.78734
 31
0.0
  0
LINE
  5
A3
100
AcDbEntity
  8
0
370
    -3
390
0
  6
Continuous
100
AcDbLine
 10
0.0
 20
9.0
 30
0.0
 11
0.0
 21
-9.0
 31
0.0
  0
POINT
  5
A4
100
AcDbEntity
  8
0
370
    -3
390
0
  6
Continuous
100
AcDbPoint
 10
0.0
 20
0.0
 30
0.0
  0
ENDBLK
  5
A5
100
AcDbEntity
  8
0
390
0
100
AcDbBlockEnd
  0
BLOCK
  5
A8
100
AcDbEntity
  8
0
390
0
100
AcDbBlockBegin
  2
ZU_SYM__USERS_HOME_SYMBOL_POO_SYM_B20_0000120
 70
    64
 10
0.0
 20
0.0
 30
0.0
  3
ZU_SYM__USERS_HOME_SYMBOL_POO_SYM_B20_0000120
  1

  0
LINE
  5
A9
100
AcDbEntity
  8
0
370
    -3
390
0
  6
Continuous
100
AcDbLine
 10
-11.299976
 20
9.0
 30
0.0
 11
-11.299976
 21
-9.0
 31
0.0
  0
LINE
  5
AA
100
AcDbEntity
  8
0
370
    -3
390
0
  6
Continuous
100
AcDbLine
 10
-11.299961
 20
-9.000002
 30
0.0
 11
-11.999958
 21
-7.787738
 31
0.0
  0
LINE
  5
AB
100
AcDbEntity
  8
0
370
    -3
390
0
  6
Continuous
100
AcDbLine
 10
-11.299976
 20
8.999998
 30
0.0
 11
-11.999973
 21
7.787338
 31
0.0
  0
LINE
  5
AC
100
AcDbEntity
  8
0
370
    -3
390
0
  6
Continuous
100
AcDbLine
 10
0.0
 20
9.0
 30
0.0
 11
-11.299976
 21
9.0
 31
0.0
  0
LINE
  5
AD
100
AcDbEntity
  8
0
370
    -3
390
0
  6
Continuous
100
AcDbLine
 10
0.0
 20
-9.0
 30
0.0
 11
-11.299961
 21
-9.0
 31
0.0
  0
LINE
  5
AE
100
AcDbEntity
  8
0
370
    -3
390
0
  6
Continuous
100
AcDbLine
 10
-11.999958
 20
-7.787735
 30
0.0
 11
-11.999973
 21
7.78734
 31
0.0
  0
LINE
  5
AF
100
AcDbEntity
  8
0
370
    -3
390
0
  6
Continuous
100
AcDbLine
 10
0.0
 20
9.0
 30
0.0
 11
0.0
 21
-9.0
 31
0.0
  0
POINT
  5
B0
100
AcDbEntity
  8
0
370
    -3
390
0
  6
Continuous
100
AcDbPoint
 10
0.0
 20
0.0
 30
0.0
  0
ENDBLK
  5
B1
100
AcDbEntity
  8
0
390
0
100
AcDbBlockEnd
  0
BLOCK
  5
B4
100
AcDbEntity
  8
0
390
0
100
AcDbBlockBegin
  2
ZU_SYM__USERS_HOME_SYMBOL_POO_SYM_B20_0000220
 70
    64
 10
0.0
 20
0.0
 30
0.0
  3
ZU_SYM__USERS_HOME_SYMBOL_POO_SYM_B20_0000220
  1

  0
LINE
  5
B5
100
AcDbEntity
  8
0
370
    -3
390
0
  6
Continuous
100
AcDbLine
 10
-11.299976
 20
9.0
 30
0.0
 11
-11.299976
 21
-9.0
 31
0.0
  0
LINE
  5
B6
100
AcDbEntity
  8
0
370
    -3
390
0
  6
Continuous
100
AcDbLine
 10
-11.299961
 20
-9.000002
 30
0.0
 11
-11.999958
 21
-7.787738
 31
0.0
  0
LINE
  5
B7
100
AcDbEntity
  8
0
370
    -3
390
0
  6
Continuous
100
AcDbLine
 10
-11.299976
 20
8.999998
 30
0.0
 11
-11.999973
 21
7.787338
 31
0.0
  0
LINE
  5
B8
100
AcDbEntity
  8
0
370
    -3
390
0
  6
Continuous
100
AcDbLine
 10
0.0
 20
9.0
 30
0.0
 11
-11.299976
 21
9.0
 31
0.0
  0
LINE
  5
B9
100
AcDbEntity
  8
0
370
    -3
390
0
  6
Continuous
100
AcDbLine
 10
0.0
 20
-9.0
 30
0.0
 11
-11.299961
 21
-9.0
 31
0.0
  0
LINE
  5
BA
100
AcDbEntity
  8
0
370
    -3
390
0
  6
Continuous
100
AcDbLine
 10
-11.999958
 20
-7.787735
 30
0.0
 11
-11.999973
 21
7.78734
 31
0.0
  0
LINE
  5
BB
100
AcDbEntity
  8
0
370
    -3
390
0
  6
Continuous
100
AcDbLine
 10
0.0
 20
9.0
 30
0.0
 11
0.0
 21
-9.0
 31
0.0
  0
POINT
  5
BC
100
AcDbEntity
  8
0
370
    -3
390
0
  6
Continuous
100
AcDbPoint
 10
0.0
 20
0.0
 30
0.0
  0
ENDBLK
  5
BD
100
AcDbEntity
  8
0
390
0
100
AcDbBlockEnd
  0
BLOCK
  5
C0
100
AcDbEntity
  8
0
390
0
100
AcDbBlockBegin
  2
ZU_SYM__USERS_HOME_SYMBOL_POO_SYM_B20_0000320
 70
    64
 10
0.0
 20
0.0
 30
0.0
  3
ZU_SYM__USERS_HOME_SYMBOL_POO_SYM_B20_0000320
  1

  0
LINE
  5
C1
100
AcDbEntity
  8
0
370
    -3
390
0
  6
Continuous
100
AcDbLine
 10
-11.299976
 20
9.0
 30
0.0
 11
-11.299976
 21
-9.0
 31
0.0
  0
LINE
  5
C2
100
AcDbEntity
  8
0
370
    -3
390
0
  6
Continuous
100
AcDbLine
 10
-11.299961
 20
-9.000002
 30
0.0
 11
-11.999958
 21
-7.787738
 31
0.0
  0
LINE
  5
C3
100
AcDbEntity
  8
0
370
    -3
390
0
  6
Continuous
100
AcDbLine
 10
-11.299976
 20
8.999998
 30
0.0
 11
-11.999973
 21
7.787338
 31
0.0
  0
LINE
  5
C4
100
AcDbEntity
  8
0
370
    -3
390
0
  6
Continuous
100
AcDbLine
 10
0.0
 20
9.0
 30
0.0
 11
-11.299976
 21
9.0
 31
0.0
  0
LINE
  5
C5
100
AcDbEntity
  8
0
370
    -3
390
0
  6
Continuous
100
AcDbLine
 10
0.0
 20
-9.0
 30
0.0
 11
-11.299961
 21
-9.0
 31
0.0
  0
LINE
  5
C6
100
AcDbEntity
  8
0
370
    -3
390
0
  6
Continuous
100
AcDbLine
 10
-11.999958
 20
-7.787735
 30
0.0
 11
-11.999973
 21
7.78734
 31
0.0
  0
LINE
  5
C7
100
AcDbEntity
  8
0
370
    -3
390
0
  6
Continuous
100
AcDbLine
 10
0.0
 20
9.0
 30
0.0
 11
0.0
 21
-9.0
 31
0.0
  0
POINT
  5
C8
100
AcDbEntity
  8
0
370
    -3
390
0
  6
Continuous
100
AcDbPoint
 10
0.0
 20
0.0
 30
0.0
  0
ENDBLK
  5
C9
100
AcDbEntity
  8
0
390
0
100
AcDbBlockEnd
  0
ENDSEC
  0
SECTION
  2
ENTITIES
  0
ARC
  5
28
100
AcDbEntity
  8
0
370
    -3
390
0
  6
Continuous
100
AcDbCircle
 10
-226.539633
 20
76.49149
 30
0.0
 40
9.0
100
AcDbArc
 50
253.398469
 51
286.601548
  0
ARC
  5
29
100
AcDbEntity
  8
0
370
    -3
390
0
  6
Continuous
100
AcDbCircle
 10
-224.339632
 20
69.112465
 30
0.0
 40
1.299999
100
AcDbArc
 50
286.601531
 51
311.255851
  0
ARC
  5
2A
100
AcDbEntity
  8
0
370
    -3
390
0
  6
Continuous
100
AcDbCircle
 10
-228.739634
 20
69.112465
 30
0.0
 40
1.299999
100
AcDbArc
 50
228.744149
 51
253.398469
  0
LINE
  5
2B
100
AcDbEntity
  8
0
370
    -3
390
0
  6
Continuous
100
AcDbLine
 10
-644.996939
 20
-88.676498
 30
0.0
 11
-645.672311
 21
-88.676498
 31
0.0
  0
LINE
  5
2C
100
AcDbEntity
  8
0
370
    -3
390
0
  6
Continuous
100
AcDbLine
 10
-645.47814
 20
-78.676498
 30
0.0
 11
-653.884445
 21
-78.676498
 31
0.0
  0
LINE
  5
2D
100
AcDbEntity
  8
0
370
    -3
390
0
  6
Continuous
100
AcDbLine
 10
-647.176122
 20
-76.676498
 30
0.0
 11
-653.884445
 21
-76.676498
 31
0.0
  0
LINE
  5
2E
100
AcDbEntity
  8
0
370
    -3
390
0
  6
Continuous
100
AcDbLine
 10
-645.588666
 20
-89.676498
 30
0.0
 11
-653.884445
 21
-89.676498
 31
0.0
  0
LINE
  5
2F
100
AcDbEntity
  8
0
370
    -3
390
0
  6
Continuous
100
AcDbLine
 10
-646.357684
 20
-90.676498
 30
0.0
 11
-653.884445
 21
-90.676498
 31
0.0
  0
LINE
  5
30
100
AcDbEntity
  8
0
370
    -3
390
0
  6
Continuous
100
AcDbLine
 10
-650.962612
 20
-93.676498
 30
0.0
 11
-653.884445
 21
-93.676498
 31
0.0
  0
LINE
  5
31
100
AcDbEntity
  8
0
370
    -3
390
0
  6
Continuous
100
AcDbLine
 10
-656.806278
 20
-93.676498
 30
0.0
 11
-653.884445
 21
-93.676498
 31
0.0
  0
LINE
  5
32
100
AcDbEntity
  8
0
370
    -3
390
0
  6
Continuous
100
AcDbLine
 10
-661.411206
 20
-90.676498
 30
0.0
 11
-653.884445
 21
-90.676498
 31
0.0
  0
LINE
  5
33
100
AcDbEntity
  8
0
370
    -3
390
0
  6
Continuous
100
AcDbLine
 10
-662.180224
 20
-89.676498
 30
0.0
 11
-653.884445
 21
-89.676498
 31
0.0
  0
LINE
  5
34
100
AcDbEntity
  8
0
370
    -3
390
0
  6
Continuous
100
AcDbLine
 10
-662.771952
 20
-88.676498
 30
0.0
 11
-662.09658
 21
-88.676498
 31
0.0
  0
LINE
  5
35
100
AcDbEntity
  8
0
370
    -3
390
0
  6
Continuous
100
AcDbLine
 10
-662.290751
 20
-78.676498
 30
0.0
 11
-653.884445
 21
-78.676498
 31
0.0
  0
LINE
  5
36
100
AcDbEntity
  8
0
370
    -3
390
0
  6
Continuous
100
AcDbLine
 10
-660.592769
 20
-76.676498
 30
0.0
 11
-653.884445
 21
-76.676498
 31
0.0
  0
LINE
  5
37
100
AcDbEntity
  8
0
370
    -3
390
0
  6
Continuous
100
AcDbLine
 10
-658.384445
 20
-75.162303
 30
0.0
 11
-658.384445
 21
-76.676498
 31
0.0
  0
LINE
  5
38
100
AcDbEntity
  8
0
370
    -3
390
0
  6
Continuous
100
AcDbLine
 10
-649.384445
 20
-75.162303
 30
0.0
 11
-649.384445
 21
-76.676498
 31
0.0
  0
LINE
  5
39
100
AcDbEntity
  8
0
370
    -3
390
0
  6
Continuous
100
AcDbLine
 10
-649.981491
 20
-78.676498
 30
0.0
 11
-649.981491
 21
-88.676498
 31
0.0
  0
LINE
  5
3A
100
AcDbEntity
  8
0
370
    -3
390
0
  6
Continuous
100
AcDbLine
 10
-645.672311
 20
-78.676498
 30
0.0
 11
-645.672311
 21
-88.676498
 31
0.0
  0
LINE
  5
3B
100
AcDbEntity
  8
0
370
    -3
390
0
  6
Continuous
100
AcDbLine
 10
-649.981491
 20
-88.676498
 30
0.0
 11
-653.884445
 21
-88.676498
 31
0.0
  0
LINE
  5
3C
100
AcDbEntity
  8
0
370
    -3
390
0
  6
Continuous
100
AcDbLine
 10
-657.7874
 20
-78.676498
 30
0.0
 11
-657.7874
 21
-88.676498
 31
0.0
  0
LINE
  5
3D
100
AcDbEntity
  8
0
370
    -3
390
0
  6
Continuous
100
AcDbLine
 10
-662.09658
 20
-78.676498
 30
0.0
 11
-662.09658
 21
-88.676498
 31
0.0
  0
LINE
  5
3E
100
AcDbEntity
  8
0
370
    -3
390
0
  6
Continuous
100
AcDbLine
 10
-657.7874
 20
-88.676498
 30
0.0
 11
-653.884445
 21
-88.676498
 31
0.0
  0
CIRCLE
  5
3F
100
AcDbEntity
  8
0
370
    -3
390
0
  6
Continuous
100
AcDbCircle
 10
-653.884445
 20
-84.092588
 30
0.0
 40
10.0
  0
ARC
  5
40
100
AcDbEntity
  8
0
370
    -3
390
0
  6
Continuous
100
AcDbCircle
 10
-728.884445
 20
-444.112875
 30
0.0
 40
20.0
100
AcDbArc
 50
210.0
 51
244.158067
  0
LINE
  5
41
100
AcDbEntity
  8
0
370
    -3
390
0
  6
Continuous
100
AcDbLine
 10
-653.884445
 20
-462.112875
 30
0.0
 11
-737.602243
 21
-462.112875
 31
0.0
  0
ARC
  5
42
100
AcDbEntity
  8
0
370
    -3
390
0
  6
Continuous
100
AcDbCircle
 10
-578.884445
 20
-444.112875
 30
0.0
 40
20.0
100
AcDbArc
 50
295.841933
 51
330.0
  0
LINE
  5
43
100
AcDbEntity
  8
0
370
    -3
390
0
  6
Continuous
100
AcDbLine
 10
-653.884445
 20
-462.112875
 30
0.0
 11
-570.166648
 21
-462.112875
 31
0.0
  0
ARC
  5
44
100
AcDbEntity
  8
0
370
    -3
390
0
  6
Continuous
100
AcDbCircle
 10
623.819279
 20
-229.112875
 30
0.0
 40
80.0
100
AcDbArc
 50
90.0
 51
0.0
  0
LINE
  5
45
100
AcDbEntity
  8
0
370
    -3
390
0
  6
CENTER
100
AcDbLine
 10
245.009603
 20
-34.65851
 30
0.0
 11
208.05256
 21
-34.65851
 31
0.0
  0
LINE
  5
46
100
AcDbEntity
  8
0
370
    -3
390
0
  6
CENTER
100
AcDbLine
 10
245.744755
 20
-423.56724
 30
0.0
 11
207.810894
 21
-423.56724
 31
0.0
  0
ARC
  5
47
100
AcDbEntity
  8
0
370
    -3
390
0
  6
Continuous
100
AcDbCircle
 10
84.460367
 20
-95.176498
 30
0.0
 40
1.5
100
AcDbArc
 50
298.212605
 51
0.0
  0
LINE
  5
48
100
AcDbEntity
  8
0
370
    -3
390
0
  6
Continuous
100
AcDbLine
 10
90.210367
 20
-93.676498
 30
0.0
 11
74.960367
 21
-93.676498
 31
0.0
  0
LINE
  5
49
100
AcDbEntity
  8
0
370
    -3
390
0
  6
Continuous
100
AcDbLine
 10
87.960367
 20
-76.676498
 30
0.0
 11
89.460367
 21
-78.676498
 31
0.0
  0
LINE
  5
4A
100
AcDbEntity
  8
0
370
    -3
390
0
  6
Continuous
100
AcDbLine
 10
90.960367
 20
-89.676498
 30
0.0
 11
90.960367
 21
-78.676498
 31
0.0
  0
LINE
  5
4B
100
AcDbEntity
  8
0
370
    -3
390
0
  6
Continuous
100
AcDbLine
 10
90.960367
 20
-89.676498
 30
0.0
 11
74.960367
 21
-89.676498
 31
0.0
  0
LINE
  5
4C
100
AcDbEntity
  8
0
370
    -3
390
0
  6
Continuous
100
AcDbLine
 10
87.960367
 20
-76.676498
 30
0.0
 11
89.460367
 21
-78.676498
 31
0.0
  0
LINE
  5
4D
100
AcDbEntity
  8
0
370
    -3
390
0
  6
Continuous
100
AcDbLine
 10
90.960367
 20
-89.676498
 30
0.0
 11
90.960367
 21
-78.676498
 31
0.0
  0
LINE
  5
4E
100
AcDbEntity
  8
0
370
    -3
390
0
  6
Continuous
100
AcDbLine
 10
90.960367
 20
-88.676498
 30
0.0
 11
90.477034
 21
-88.676498
 31
0.0
  0
LINE
  5
4F
100
AcDbEntity
  8
0
370
    -3
390
0
  6
Continuous
100
AcDbLine
 10
90.210367
 20
-90.676498
 30
0.0
 11
90.210367
 21
-93.676498
 31
0.0
  0
ARC
  5
50
100
AcDbEntity
  8
0
370
    -3
390
0
  6
Continuous
100
AcDbCircle
 10
84.460367
 20
-95.176498
 30
0.0
 40
1.5
100
AcDbArc
 50
0.0
 51
90.0
  0
LINE
  5
51
100
AcDbEntity
  8
0
370
    -3
390
0
  6
Continuous
100
AcDbLine
 10
78.863322
 20
-78.676498
 30
0.0
 11
78.863322
 21
-88.676498
 31
0.0
  0
LINE
  5
52
100
AcDbEntity
  8
0
370
    -3
390
0
  6
Continuous
100
AcDbLine
 10
83.172502
 20
-78.676498
 30
0.0
 11
83.172502
 21
-88.676498
 31
0.0
  0
LINE
  5
53
100
AcDbEntity
  8
0
370
    -3
390
0
  6
Continuous
100
AcDbLine
 10
88.692113
 20
-78.676498
 30
0.0
 11
88.692113
 21
-88.676498
 31
0.0
  0
LINE
  5
54
100
AcDbEntity
  8
0
370
    -3
390
0
  6
Continuous
100
AcDbLine
 10
90.477034
 20
-78.676498
 30
0.0
 11
90.477034
 21
-88.676498
 31
0.0
  0
LINE
  5
55
100
AcDbEntity
  8
0
370
    -3
390
0
  6
Continuous
100
AcDbLine
 10
88.692113
 20
-88.676498
 30
0.0
 11
83.172502
 21
-88.676498
 31
0.0
  0
LINE
  5
56
100
AcDbEntity
  8
0
370
    -3
390
0
  6
Continuous
100
AcDbLine
 10
87.960367
 20
-76.676498
 30
0.0
 11
74.960367
 21
-76.676498
 31
0.0
  0
LINE
  5
57
100
AcDbEntity
  8
0
370
    -3
390
0
  6
Continuous
100
AcDbLine
 10
90.960367
 20
-78.676498
 30
0.0
 11
74.960367
 21
-78.676498
 31
0.0
  0
LINE
  5
58
100
AcDbEntity
  8
0
370
    -3
390
0
  6
Continuous
100
AcDbLine
 10
78.863322
 20
-88.676498
 30
0.0
 11
74.960367
 21
-88.676498
 31
0.0
  0
LINE
  5
59
100
AcDbEntity
  8
0
370
    -3
390
0
  6
Continuous
100
AcDbLine
 10
90.210367
 20
-90.676498
 30
0.0
 11
74.960367
 21
-90.676498
 31
0.0
  0
LINE
  5
5A
100
AcDbEntity
  8
0
370
    -3
390
0
  6
Continuous
100
AcDbLine
 10
65.460367
 20
-96.676498
 30
0.0
 11
74.960367
 21
-96.676498
 31
0.0
  0
ARC
  5
5B
100
AcDbEntity
  8
0
370
    -3
390
0
  6
Continuous
100
AcDbCircle
 10
65.460367
 20
-95.176498
 30
0.0
 40
1.5
100
AcDbArc
 50
180.0
 51
270.0
  0
LINE
  5
5C
100
AcDbEntity
  8
0
370
    -3
390
0
  6
Continuous
100
AcDbLine
 10
61.960367
 20
-76.676498
 30
0.0
 11
74.960367
 21
-76.676498
 31
0.0
  0
LINE
  5
5D
100
AcDbEntity
  8
0
370
    -3
390
0
  6
Continuous
100
AcDbLine
 10
59.710367
 20
-93.676498
 30
0.0
 11
74.960367
 21
-93.676498
 31
0.0
  0
LINE
  5
5E
100
AcDbEntity
  8
0
370
    -3
390
0
  6
Continuous
100
AcDbLine
 10
58.960367
 20
-78.676498
 30
0.0
 11
74.960367
 21
-78.676498
 31
0.0
  0
LINE
  5
5F
100
AcDbEntity
  8
0
370
    -3
390
0
  6
Continuous
100
AcDbLine
 10
61.960367
 20
-76.676498
 30
0.0
 11
60.460367
 21
-78.676498
 31
0.0
  0
LINE
  5
60
100
AcDbEntity
  8
0
370
    -3
390
0
  6
Continuous
100
AcDbLine
 10
58.960367
 20
-89.676498
 30
0.0
 11
58.960367
 21
-78.676498
 31
0.0
  0
LINE
  5
61
100
AcDbEntity
  8
0
370
    -3
390
0
  6
Continuous
100
AcDbLine
 10
58.960367
 20
-89.676498
 30
0.0
 11
74.960367
 21
-89.676498
 31
0.0
  0
LINE
  5
62
100
AcDbEntity
  8
0
370
    -3
390
0
  6
Continuous
100
AcDbLine
 10
61.960367
 20
-76.676498
 30
0.0
 11
60.460367
 21
-78.676498
 31
0.0
  0
LINE
  5
63
100
AcDbEntity
  8
0
370
    -3
390
0
  6
Continuous
100
AcDbLine
 10
58.960367
 20
-89.676498
 30
0.0
 11
58.960367
 21
-78.676498
 31
0.0
  0
LINE
  5
64
100
AcDbEntity
  8
0
370
    -3
390
0
  6
Continuous
100
AcDbLine
 10
58.960367
 20
-88.676498
 30
0.0
 11
59.443701
 21
-88.676498
 31
0.0
  0
LINE
  5
65
100
AcDbEntity
  8
0
370
    -3
390
0
  6
Continuous
100
AcDbLine
 10
59.710367
 20
-90.676498
 30
0.0
 11
74.960367
 21
-90.676498
 31
0.0
  0
LINE
  5
66
100
AcDbEntity
  8
0
370
    -3
390
0
  6
Continuous
100
AcDbLine
 10
59.710367
 20
-90.676498
 30
0.0
 11
59.710367
 21
-93.676498
 31
0.0
  0
ARC
  5
67
100
AcDbEntity
  8
0
370
    -3
390
0
  6
Continuous
100
AcDbCircle
 10
65.460367
 20
-95.176498
 30
0.0
 40
1.5
100
AcDbArc
 50
90.0
 51
180.0
  0
LINE
  5
68
100
AcDbEntity
  8
0
370
    -3
390
0
  6
Continuous
100
AcDbLine
 10
71.057413
 20
-78.676498
 30
0.0
 11
71.057413
 21
-88.676498
 31
0.0
  0
LINE
  5
69
100
AcDbEntity
  8
0
370
    -3
390
0
  6
Continuous
100
AcDbLine
 10
66.748233
 20
-78.676498
 30
0.0
 11
66.748233
 21
-88.676498
 31
0.0
  0
LINE
  5
6A
100
AcDbEntity
  8
0
370
    -3
390
0
  6
Continuous
100
AcDbLine
 10
61.228621
 20
-78.676498
 30
0.0
 11
61.228621
 21
-88.676498
 31
0.0
  0
LINE
  5
6B
100
AcDbEntity
  8
0
370
    -3
390
0
  6
Continuous
100
AcDbLine
 10
59.443701
 20
-78.676498
 30
0.0
 11
59.443701
 21
-88.676498
 31
0.0
  0
LINE
  5
6C
100
AcDbEntity
  8
0
370
    -3
390
0
  6
Continuous
100
AcDbLine
 10
71.057413
 20
-88.676498
 30
0.0
 11
74.960367
 21
-88.676498
 31
0.0
  0
LINE
  5
6D
100
AcDbEntity
  8
0
370
    -3
390
0
  6
Continuous
100
AcDbLine
 10
61.228621
 20
-88.676498
 30
0.0
 11
66.748233
 21
-88.676498
 31
0.0
  0
LINE
  5
6E
100
AcDbEntity
  8
0
370
    -3
390
0
  6
Continuous
100
AcDbLine
 10
21.960367
 20
-123.092588
 30
0.0
 11
24.460405
 21
-123.092588
 31
0.0
  0
INSERT
  5
7A
100
AcDbEntity
  8
0
390
0
100
AcDbBlockReference
  2
ZU_SYM__USERS_HOME_SYMBOL_POO_SYM_B20_18
 10
21.960367
 20
-113.092588
 30
0.0
  0
LINE
  5
7B
100
AcDbEntity
  8
0
370
    -3
390
0
  6
Continuous
100
AcDbLine
 10
-8.233556
 20
-154.699385
 30
0.0
 11
24.460407
 21
-125.87606
 31
0.0
  0
LINE
  5
7C
100
AcDbEntity
  8
0
370
    -3
390
0
  6
Continuous
100
AcDbLine
 10
26.460367
 20
-102.112875
 30
0.0
 11
26.460367
 21
-111.112875
 31
0.0
  0
LINE
  5
7D
100
AcDbEntity
  8
0
370
    -3
390
0
  6
Continuous
100
AcDbLine
 10
21.960367
 20
-123.092588
 30
0.0
 11
21.960367
 21
-64.092588
 31
0.0
  0
LINE
  5
7E
100
AcDbEntity
  8
0
370
    -3
390
0
  6
Continuous
100
AcDbLine
 10
21.960367
 20
-64.092588
 30
0.0
 11
26.460367
 21
-64.092588
 31
0.0
  0
LINE
  5
7F
100
AcDbEntity
  8
0
370
    -3
390
0
  6
Continuous
100
AcDbLine
 10
26.460367
 20
-64.092588
 30
0.0
 11
26.460367
 21
-102.092588
 31
0.0
  0
LINE
  5
80
100
AcDbEntity
  8
0
370
    -3
390
0
  6
CENTER
100
AcDbLine
 10
16.23012
 20
-84.092588
 30
0.0
 11
34.329386
 21
-84.092588
 31
0.0
  0
LINE
  5
81
100
AcDbEntity
  8
0
370
    -3
390
0
  6
Continuous
100
AcDbLine
 10
-16.539633
 20
-179.112875
 30
0.0
 11
-16.539633
 21
-289.112875
 31
0.0
  0
LINE
  5
82
100
AcDbEntity
  8
0
370
    -3
390
0
  6
Continuous
100
AcDbLine
 10
-16.539633
 20
-399.112875
 30
0.0
 11
-16.539633
 21
-289.112875
 31
0.0
  0
LINE
  5
83
100
AcDbEntity
  8
0
370
    -3
390
0
  6
Continuous
100
AcDbLine
 10
-14.539633
 20
-420.214946
 30
0.0
 11
-14.539633
 21
-289.112875
 31
0.0
  0
LINE
  5
84
100
AcDbEntity
  8
0
370
    -3
390
0
  6
Continuous
100
AcDbLine
 10
-14.539633
 20
-158.010804
 30
0.0
 11
-14.539633
 21
-289.112875
 31
0.0
  0
ARC
  5
85
100
AcDbEntity
  8
0
370
    -3
390
0
  6
Continuous
100
AcDbCircle
 10
31.460367
 20
-429.530494
 30
0.0
 40
5.0
100
AcDbArc
 50
0.0
 51
87.0
  0
LINE
  5
86
100
AcDbEntity
  8
0
370
    -3
390
0
  6
Continuous
100
AcDbLine
 10
-12.644305
 20
-422.212205
 30
0.0
 11
31.722047
 21
-424.537347
 31
0.0
  0
LINE
  5
87
100
AcDbEntity
  8
0
370
    -3
390
0
  6
Continuous
100
AcDbLine
 10
-12.644305
 20
-156.013545
 30
0.0
 11
31.722047
 21
-153.688403
 31
0.0
  0
ARC
  5
88
100
AcDbEntity
  8
0
370
    -3
390
0
  6
Continuous
100
AcDbCircle
 10
31.460367
 20
-148.695255
 30
0.0
 40
5.0
100
AcDbArc
 50
273.0
 51
0.0
  0
ARC
  5
89
100
AcDbEntity
  8
0
370
    -3
390
0
  6
Continuous
100
AcDbCircle
 10
29.460367
 20
-102.112875
 30
0.0
 40
3.0
100
AcDbArc
 50
90.0
 51
180.0
  0
ARC
  5
8A
100
AcDbEntity
  8
0
370
    -3
390
0
  6
Continuous
100
AcDbCircle
 10
-12.539633
 20
-158.010804
 30
0.0
 40
2.0
100
AcDbArc
 50
93.0
 51
180.0
  0
ARC
  5
8B
100
AcDbEntity
  8
0
370
    -3
390
0
  6
Continuous
100
AcDbCircle
 10
-11.540097
 20
-150.948814
 30
0.0
 40
5.0
100
AcDbArc
 50
273.0
 51
311.399724
  0
ARC
  5
8C
100
AcDbEntity
  8
0
370
    -3
390
0
  6
Continuous
100
AcDbCircle
 10
-16.539633
 20
-177.112875
 30
0.0
 40
2.0
100
AcDbArc
 50
270.0
 51
0.0
  0
ARC
  5
8D
100
AcDbEntity
  8
0
370
    -3
390
0
  6
Continuous
100
AcDbCircle
 10
-16.539633
 20
-401.112875
 30
0.0
 40
2.0
100
AcDbArc
 50
0.0
 51
90.0
  0
ARC
  5
8E
100
AcDbEntity
  8
0
370
    -3
390
0
  6
Continuous
100
AcDbCircle
 10
-12.539633
 20
-420.214946
 30
0.0
 40
2.0
100
AcDbArc
 50
180.0
 51
267.0
  0
LINE
  5
8F
100
AcDbEntity
  8
0
370
    -3
390
0
  6
Continuous
100
AcDbLine
 10
36.460367
 20
-289.112875
 30
0.0
 11
36.460367
 21
-453.112875
 31
0.0
  0
LINE
  5
90
100
AcDbEntity
  8
0
370
    -3
390
0
  6
Continuous
100
AcDbLine
 10
39.460367
 20
-456.112875
 30
0.0
 11
49.460367
 21
-456.112875
 31
0.0
  0
LINE
  5
91
100
AcDbEntity
  8
0
370
    -3
390
0
  6
Continuous
100
AcDbLine
 10
36.460367
 20
-289.112875
 30
0.0
 11
36.460367
 21
-102.112875
 31
0.0
  0
LINE
  5
92
100
AcDbEntity
  8
0
370
    -3
390
0
  6
Continuous
100
AcDbLine
 10
29.460367
 20
-99.112875
 30
0.0
 11
49.460367
 21
-99.112875
 31
0.0
  0
LINE
  5
93
100
AcDbEntity
  8
0
370
    -3
390
0
  6
Continuous
100
AcDbLine
 10
31.460367
 20
-205.112875
 30
0.0
 11
31.460367
 21
-215.112875
 31
0.0
  0
LINE
  5
94
100
AcDbEntity
  8
0
370
    -3
390
0
  6
Continuous
100
AcDbLine
 10
31.460367
 20
-225.112875
 30
0.0
 11
31.460367
 21
-215.112875
 31
0.0
  0
ARC
  5
95
100
AcDbEntity
  8
0
370
    -3
390
0
  6
Continuous
100
AcDbCircle
 10
39.460367
 20
-102.112875
 30
0.0
 40
3.0
100
AcDbArc
 50
90.0
 51
180.0
  0
ARC
  5
96
100
AcDbEntity
  8
0
370
    -3
390
0
  6
Continuous
100
AcDbCircle
 10
39.460367
 20
-453.112875
 30
0.0
 40
3.0
100
AcDbArc
 50
180.0
 51
270.0
  0
ARC
  5
97
100
AcDbEntity
  8
0
370
    -3
390
0
  6
Continuous
100
AcDbCircle
 10
34.460367
 20
-225.112875
 30
0.0
 40
3.0
100
AcDbArc
 50
180.0
 51
260.405932
  0
ARC
  5
98
100
AcDbEntity
  8
0
370
    -3
390
0
  6
Continuous
100
AcDbCircle
 10
33.460367
 20
-231.028955
 30
0.0
 40
3.0
100
AcDbArc
 50
0.0
 51
80.405932
  0
ARC
  5
99
100
AcDbEntity
  8
0
370
    -3
390
0
  6
Continuous
100
AcDbCircle
 10
34.460367
 20
-205.112875
 30
0.0
 40
3.0
100
AcDbArc
 50
99.594068
 51
180.0
  0
ARC
  5
9A
100
AcDbEntity
  8
0
370
    -3
390
0
  6
Continuous
100
AcDbCircle
 10
33.460367
 20
-199.196795
 30
0.0
 40
3.0
100
AcDbArc
 50
279.594068
 51
0.0
  0
INSERT
  5
A6
100
AcDbEntity
  8
0
390
0
100
AcDbBlockReference
  2
ZU_SYM__USERS_HOME_SYMBOL_POO_SYM_B20_20
 10
36.460367
 20
-120.112875
 30
0.0
  0
INSERT
  5
B2
100
AcDbEntity
  8
0
390
0
100
AcDbBlockReference
  2
ZU_SYM__USERS_HOME_SYMBOL_POO_SYM_B20_0000120
 10
36.460367
 20
-260.112875
 30
0.0
  0
INSERT
  5
BE
100
AcDbEntity
  8
0
390
0
100
AcDbBlockReference
  2
ZU_SYM__USERS_HOME_SYMBOL_POO_SYM_B20_0000220
 10
36.460367
 20
-400.112875
 30
0.0
  0
INSERT
  5
CA
100
AcDbEntity
  8
0
390
0
100
AcDbBlockReference
  2
ZU_SYM__USERS_HOME_SYMBOL_POO_SYM_B20_0000320
 10
36.460367
 20
-444.112875
 30
0.0
  0
LINE
  5
CB
100
AcDbEntity
  8
0
370
    -3
390
0
  6
Continuous
100
AcDbLine
 10
49.460367
 20
-456.112875
 30
0.0
 11
49.960367
 21
-456.112875
 31
0.0
  0
LINE
  5
CC
100
AcDbEntity
  8
0
370
    -3
390
0
  6
Continuous
100
AcDbLine
 10
49.460367
 20
-289.112875
 30
0.0
 11
49.460367
 21
-456.112875
 31
0.0
  0
LINE
  5
CD
100
AcDbEntity
  8
0
370
    -3
390
0
  6
Continuous
100
AcDbLine
 10
49.460367
 20
-289.112875
 30
0.0
 11
49.460367
 21
-99.112875
 31
0.0
  0
LINE
  5
CE
100
AcDbEntity
  8
0
370
    -3
390
0
  6
Continuous
100
AcDbLine
 10
49.460367
 20
-99.112875
 30
0.0
 11
49.960367
 21
-99.112875
 31
0.0
  0
LINE
  5
CF
100
AcDbEntity
  8
0
370
    -3
390
0
  6
Continuous
100
AcDbLine
 10
240.960367
 20
-19.112875
 30
0.0
 11
241.960367
 21
-20.112875
 31
0.0
  0
LINE
  5
D0
100
AcDbEntity
  8
0
370
    -3
390
0
  6
Continuous
100
AcDbLine
 10
241.960367
 20
-438.112875
 30
0.0
 11
240.960367
 21
-439.112875
 31
0.0
  0
ARC
  5
D1
100
AcDbEntity
  8
0
370
    -3
390
0
  6
Continuous
100
AcDbCircle
 10
56.462193
 20
-97.885217
 30
0.0
 40
1.0
100
AcDbArc
 50
272.0
 51
357.723663
  0
ARC
  5
D2
100
AcDbEntity
  8
0
370
    -3
390
0
  6
Continuous
100
AcDbCircle
 10
58.460614
 20
-97.964655
 30
0.0
 40
1.0
100
AcDbArc
 50
91.0
 51
177.723663
  0
ARC
  5
D3
100
AcDbEntity
  8
0
370
    -3
390
0
  6
Continuous
100
AcDbCircle
 10
222.960367
 20
-457.112875
 30
0.0
 40
3.0
100
AcDbArc
 50
90.0
 51
180.0
  0
ARC
  5
D4
100
AcDbEntity
  8
0
370
    -3
390
0
  6
Continuous
100
AcDbCircle
 10
215.960367
 20
-457.969208
 30
0.0
 40
4.0
100
AcDbArc
 50
267.978635
 51
0.0
  0
LINE
  5
D5
100
AcDbEntity
  8
0
370
    -3
390
0
  6
Continuous
100
AcDbLine
 10
49.960367
 20
-456.112875
 30
0.0
 11
215.819279
 21
-461.966719
 31
0.0
  0
ARC
  5
D6
100
AcDbEntity
  8
0
370
    -3
390
0
  6
Continuous
100
AcDbCircle
 10
163.296146
 20
-90.13383
 30
0.0
 40
5.0
100
AcDbArc
 50
271.0
 51
330.0
  0
ARC
  5
D7
100
AcDbEntity
  8
0
370
    -3
390
0
  6
Continuous
100
AcDbCircle
 10
207.960367
 20
-12.773129
 30
0.0
 40
5.0
100
AcDbArc
 50
330.0
 51
0.0
  0
LINE
  5
D8
100
AcDbEntity
  8
0
370
    -3
390
0
  6
Continuous
100
AcDbLine
 10
212.290494
 20
-15.273129
 30
0.0
 11
167.626273
 21
-92.63383
 31
0.0
  0
LINE
  5
D9
100
AcDbEntity
  8
0
370
    -3
390
0
  6
Continuous
100
AcDbLine
 10
219.960367
 20
-457.112875
 30
0.0
 11
219.960367
 21
-457.969208
 31
0.0
  0
ARC
  5
DA
100
AcDbEntity
  8
0
370
    -3
390
0
  6
Continuous
100
AcDbCircle
 10
215.960367
 20
-7.112875
 30
0.0
 40
3.0
100
AcDbArc
 50
90.0
 51
180.0
  0
LINE
  5
DB
100
AcDbEntity
  8
0
370
    -3
390
0
  6
CENTER
100
AcDbLine
 10
74.960367
 20
-102.103272
 30
0.0
 11
74.960367
 21
-74.807126
 31
0.0
  0
LINE
  5
DC
100
AcDbEntity
  8
0
370
    -3
390
0
  6
Continuous
100
AcDbLine
 10
58.443162
 20
-96.964807
 30
0.0
 11
164.470492
 21
-95.114093
 31
0.0
  0
LINE
  5
DD
100
AcDbEntity
  8
0
370
    -3
390
0
  6
Continuous
100
AcDbLine
 10
226.960367
 20
-222.112875
 30
0.0
 11
226.960367
 21
-55.61035
 31
0.0
  0
LINE
  5
DE
100
AcDbEntity
  8
0
370
    -3
390
0
  6
Continuous
100
AcDbLine
 10
215.960367
 20
-454.112875
 30
0.0
 11
236.960367
 21
-454.112875
 31
0.0
  0
LINE
  5
DF
100
AcDbEntity
  8
0
370
    -3
390
0
  6
Continuous
100
AcDbLine
 10
240.960367
 20
-439.112875
 30
0.0
 11
236.960367
 21
-439.112875
 31
0.0
  0
LINE
  5
E0
100
AcDbEntity
  8
0
370
    -3
390
0
  6
Continuous
100
AcDbLine
 10
241.960367
 20
-229.112875
 30
0.0
 11
241.960367
 21
-438.112875
 31
0.0
  0
LINE
  5
E1
100
AcDbEntity
  8
0
370
    -3
390
0
  6
Continuous
100
AcDbLine
 10
236.960367
 20
-229.112875
 30
0.0
 11
236.960367
 21
-454.112875
 31
0.0
  0
ARC
  5
E2
100
AcDbEntity
  8
0
370
    -3
390
0
  6
Continuous
100
AcDbCircle
 10
241.960367
 20
-306.265981
 30
0.0
 40
3.0
100
AcDbArc
 50
273.0
 51
0.0
  0
LINE
  5
E3
100
AcDbEntity
  8
0
370
    -3
390
0
  6
Continuous
100
AcDbLine
 10
246.960367
 20
-281.612875
 30
0.0
 11
245.960367
 21
-281.612875
 31
0.0
  0
LINE
  5
E4
100
AcDbEntity
  8
0
370
    -3
390
0
  6
Continuous
100
AcDbLine
 10
246.960367
 20
-176.612875
 30
0.0
 11
245.960367
 21
-176.612875
 31
0.0
  0
ARC
  5
E5
100
AcDbEntity
  8
0
370
    -3
390
0
  6
Continuous
100
AcDbCircle
 10
241.960367
 20
-151.959769
 30
0.0
 40
3.0
100
AcDbArc
 50
0.0
 51
87.0
  0
CIRCLE
  5
E6
100
AcDbEntity
  8
0
370
    -3
390
0
  6
Continuous
100
AcDbCircle
 10
69.960383
 20
-362.112875
 30
0.0
 40
15.0
  0
LINE
  5
E7
100
AcDbEntity
  8
0
370
    -3
390
0
  6
CENTER
100
AcDbLine
 10
69.960367
 20
-340.414257
 30
0.0
 11
69.960367
 21
-384.792124
 31
0.0
  0
LINE
  5
E8
100
AcDbEntity
  8
0
370
    -3
390
0
  6
CENTER
100
AcDbLine
 10
89.21472
 20
-362.112875
 30
0.0
 11
51.517393
 21
-362.112875
 31
0.0
  0
LINE
  5
E9
100
AcDbEntity
  8
0
370
    -3
390
0
  6
Continuous
100
AcDbLine
 10
49.960367
 20
-99.112875
 30
0.0
 11
186.052235
 21
-94.360442
 31
0.0
  0
LINE
  5
EA
100
AcDbEntity
  8
0
370
    -3
390
0
  6
CENTER
100
AcDbLine
 10
347.604254
 20
-229.112875
 30
0.0
 11
178.22199
 21
-229.112875
 31
0.0
  0
LINE
  5
EB
100
AcDbEntity
  8
0
370
    -3
390
0
  6
Continuous
100
AcDbLine
 10
212.960367
 20
-451.112875
 30
0.0
 11
212.960367
 21
-7.112875
 31
0.0
  0
LINE
  5
EC
100
AcDbEntity
  8
0
370
    -3
390
0
  6
Continuous
100
AcDbLine
 10
244.960367
 20
-229.112875
 30
0.0
 11
244.960367
 21
-151.959769
 31
0.0
  0
LINE
  5
ED
100
AcDbEntity
  8
0
370
    -3
390
0
  6
Continuous
100
AcDbLine
 10
241.960367
 20
-229.112875
 30
0.0
 11
241.960367
 21
-20.112875
 31
0.0
  0
LINE
  5
EE
100
AcDbEntity
  8
0
370
    -3
390
0
  6
Continuous
100
AcDbLine
 10
236.960367
 20
-4.112875
 30
0.0
 11
215.960367
 21
-4.112875
 31
0.0
  0
LINE
  5
EF
100
AcDbEntity
  8
0
370
    -3
390
0
  6
Continuous
100
AcDbLine
 10
240.960367
 20
-19.112875
 30
0.0
 11
236.960367
 21
-19.112875
 31
0.0
  0
LINE
  5
F0
100
AcDbEntity
  8
0
370
    -3
390
0
  6
Continuous
100
AcDbLine
 10
236.960367
 20
-229.112875
 30
0.0
 11
236.960367
 21
-4.112875
 31
0.0
  0
LINE
  5
F1
100
AcDbEntity
  8
0
370
    -3
390
0
  6
Continuous
100
AcDbLine
 10
49.960367
 20
-456.112875
 30
0.0
 11
49.960367
 21
-99.112875
 31
0.0
  0
LINE
  5
F2
100
AcDbEntity
  8
0
370
    -3
390
0
  6
Continuous
100
AcDbLine
 10
244.960367
 20
-229.112875
 30
0.0
 11
244.960367
 21
-306.265981
 31
0.0
  0
ARC
  5
F3
100
AcDbEntity
  8
0
370
    -3
390
0
  6
Continuous
100
AcDbCircle
 10
245.960367
 20
-282.612875
 30
0.0
 40
1.0
100
AcDbArc
 50
90.0
 51
180.0
  0
ARC
  5
F4
100
AcDbEntity
  8
0
370
    -3
390
0
  6
Continuous
100
AcDbCircle
 10
245.960367
 20
-175.612875
 30
0.0
 40
1.0
100
AcDbArc
 50
180.0
 51
270.0
  0
LINE
  5
F5
100
AcDbEntity
  8
0
370
    -3
390
0
  6
Continuous
100
AcDbLine
 10
246.960367
 20
-281.612875
 30
0.0
 11
246.960367
 21
-176.612875
 31
0.0
  0
ARC
  5
F6
100
AcDbEntity
  8
0
370
    -3
390
0
  6
Continuous
100
AcDbCircle
 10
215.960367
 20
-451.112875
 30
0.0
 40
3.0
100
AcDbArc
 50
180.0
 51
270.0
  0
ARC
  5
F7
100
AcDbEntity
  8
0
370
    -3
390
0
  6
Continuous
100
AcDbCircle
 10
168.960367
 20
-418.292459
 30
0.0
 40
5.0
100
AcDbArc
 50
0.0
 51
87.978635
  0
ARC
  5
F8
100
AcDbEntity
  8
0
370
    -3
390
0
  6
Continuous
100
AcDbCircle
 10
207.960367
 20
-419.668929
 30
0.0
 40
5.0
100
AcDbArc
 50
0.0
 51
87.978635
  0
LINE
  5
F9
100
AcDbEntity
  8
0
370
    -3
390
0
  6
Continuous
100
AcDbLine
 10
49.960367
 20
-409.089345
 30
0.0
 11
208.136728
 21
-414.672041
 31
0.0
  0
LINE
  5
FA
100
AcDbEntity
  8
0
370
    -3
390
0
  6
Continuous
100
AcDbLine
 10
173.960367
 20
-427.112875
 30
0.0
 11
173.960367
 21
-418.292459
 31
0.0
  0
LINE
  5
FB
100
AcDbEntity
  8
0
370
    -3
390
0
  6
Continuous
100
AcDbLine
 10
191.965984
 20
-446.086836
 30
0.0
 11
211.065039
 21
-447.087775
 31
0.0
  0
ARC
  5
FC
100
AcDbEntity
  8
0
370
    -3
390
0
  6
Continuous
100
AcDbCircle
 10
192.960367
 20
-427.112875
 30
0.0
 40
19.0
100
AcDbArc
 50
180.0
 51
267.0
  0
LINE
  5
FD
100
AcDbEntity
  8
0
370
    -3
390
0
  6
CENTER
100
AcDbLine
 10
192.960367
 20
-450.761756
 30
0.0
 11
192.960367
 21
-474.310927
 31
0.0
  0
LINE
  5
FE
100
AcDbEntity
  8
0
370
    -3
390
0
  6
Continuous
100
AcDbLine
 10
242.117375
 20
-148.96388
 30
0.0
 11
241.960367
 21
-148.96388
 31
0.0
  0
LINE
  5
FF
100
AcDbEntity
  8
0
370
    -3
390
0
  6
Continuous
100
AcDbLine
 10
242.117375
 20
-309.26187
 30
0.0
 11
241.960367
 21
-309.26187
 31
0.0
  0
ARC
  5
100
100
AcDbEntity
  8
0
370
    -3
390
0
  6
Continuous
100
AcDbCircle
 10
210.960367
 20
-449.085034
 30
0.0
 40
2.0
100
AcDbArc
 50
0.0
 51
87.0
  0
LINE
  5
101
100
AcDbEntity
  8
0
370
    -3
390
0
  6
Continuous
100
AcDbLine
 10
236.960367
 20
-53.61035
 30
0.0
 11
228.960367
 21
-53.61035
 31
0.0
  0
LINE
  5
102
100
AcDbEntity
  8
0
370
    -3
390
0
  6
Continuous
100
AcDbLine
 10
236.960367
 20
-103.861612
 30
0.0
 11
228.960367
 21
-103.861612
 31
0.0
  0
LINE
  5
103
100
AcDbEntity
  8
0
370
    -3
390
0
  6
Continuous
100
AcDbLine
 10
236.960367
 20
-224.112875
 30
0.0
 11
228.960367
 21
-224.112875
 31
0.0
  0
ARC
  5
104
100
AcDbEntity
  8
0
370
    -3
390
0
  6
Continuous
100
AcDbCircle
 10
228.960367
 20
-222.112875
 30
0.0
 40
2.0
100
AcDbArc
 50
180.0
 51
270.0
  0
ARC
  5
105
100
AcDbEntity
  8
0
370
    -3
390
0
  6
Continuous
100
AcDbCircle
 10
228.960367
 20
-105.861612
 30
0.0
 40
2.0
100
AcDbArc
 50
90.0
 51
180.0
  0
ARC
  5
106
100
AcDbEntity
  8
0
370
    -3
390
0
  6
Continuous
100
AcDbCircle
 10
228.960367
 20
-55.61035
 30
0.0
 40
2.0
100
AcDbArc
 50
90.0
 51
180.0
  0
LINE
  5
107
100
AcDbEntity
  8
0
370
    -3
390
0
  6
Continuous
100
AcDbLine
 10
236.960367
 20
-234.112875
 30
0.0
 11
228.960367
 21
-234.112875
 31
0.0
  0
LINE
  5
108
100
AcDbEntity
  8
0
370
    -3
390
0
  6
Continuous
100
AcDbLine
 10
236.960367
 20
-354.364138
 30
0.0
 11
228.960367
 21
-354.364138
 31
0.0
  0
LINE
  5
109
100
AcDbEntity
  8
0
370
    -3
390
0
  6
Continuous
100
AcDbLine
 10
236.960367
 20
-404.6154
 30
0.0
 11
228.960367
 21
-404.6154
 31
0.0
  0
ARC
  5
10A
100
AcDbEntity
  8
0
370
    -3
390
0
  6
Continuous
100
AcDbCircle
 10
228.960367
 20
-402.6154
 30
0.0
 40
2.0
100
AcDbArc
 50
180.0
 51
270.0
  0
LINE
  5
10B
100
AcDbEntity
  8
0
370
    -3
390
0
  6
Continuous
100
AcDbLine
 10
226.960367
 20
-236.112875
 30
0.0
 11
226.960367
 21
-402.6154
 31
0.0
  0
ARC
  5
10C
100
AcDbEntity
  8
0
370
    -3
390
0
  6
Continuous
100
AcDbCircle
 10
228.960367
 20
-352.364138
 30
0.0
 40
2.0
100
AcDbArc
 50
180.0
 51
270.0
  0
ARC
  5
10D
100
AcDbEntity
  8
0
370
    -3
390
0
  6
Continuous
100
AcDbCircle
 10
228.960367
 20
-236.112875
 30
0.0
 40
2.0
100
AcDbArc
 50
90.0
 51
180.0
  0
LINE
  5
10E
100
AcDbEntity
  8
0
370
    -3
390
0
  6
Continuous
100
AcDbLine
 10
205.803784
 20
-126.068298
 30
0.0
 11
173.143152
 21
-126.068298
 31
0.0
  0
LINE
  5
10F
100
AcDbEntity
  8
0
370
    -3
390
0
  6
Continuous
100
AcDbLine
 10
167.731114
 20
-124.177418
 30
0.0
 11
211.876152
 21
-68.578903
 31
0.0
  0
ARC
  5
110
100
AcDbEntity
  8
0
370
    -3
390
0
  6
Continuous
100
AcDbCircle
 10
207.960367
 20
-65.469783
 30
0.0
 40
5.0
100
AcDbArc
 50
321.55054
 51
0.0
  0
ARC
  5
111
100
AcDbEntity
  8
0
370
    -3
390
0
  6
Continuous
100
AcDbCircle
 10
163.815329
 20
-121.068298
 30
0.0
 40
5.0
100
AcDbArc
 50
270.0
 51
321.55054
  0
LINE
  5
112
100
AcDbEntity
  8
0
370
    -3
390
0
  6
Continuous
100
AcDbLine
 10
167.731114
 20
-117.434997
 30
0.0
 11
211.876152
 21
-61.836482
 31
0.0
  0
ARC
  5
113
100
AcDbEntity
  8
0
370
    -3
390
0
  6
Continuous
100
AcDbCircle
 10
207.960367
 20
-58.727362
 30
0.0
 40
5.0
100
AcDbArc
 50
321.55054
 51
0.0
  0
ARC
  5
114
100
AcDbEntity
  8
0
370
    -3
390
0
  6
Continuous
100
AcDbCircle
 10
163.815329
 20
-114.325877
 30
0.0
 40
5.0
100
AcDbArc
 50
270.0
 51
321.55054
  0
ARC
  5
115
100
AcDbEntity
  8
0
370
    -3
390
0
  6
Continuous
100
AcDbCircle
 10
278.960352
 20
-229.112875
 30
0.0
 40
9.0
100
AcDbArc
 50
90.0
 51
270.0
  0
LINE
  5
116
100
AcDbEntity
  8
0
370
    -3
390
0
  6
Continuous
100
AcDbLine
 10
278.960352
 20
-238.112875
 30
0.0
 11
341.960352
 21
-238.112875
 31
0.0
  0
LINE
  5
117
100
AcDbEntity
  8
0
370
    -3
390
0
  6
Continuous
100
AcDbLine
 10
278.960352
 20
-220.112875
 30
0.0
 11
341.960352
 21
-220.112875
 31
0.0
  0
LINE
  5
118
100
AcDbEntity
  8
0
370
    -3
390
0
  6
Continuous
100
AcDbLine
 10
251.160352
 20
-260.612875
 30
0.0
 11
246.960352
 21
-260.612875
 31
0.0
  0
LINE
  5
119
100
AcDbEntity
  8
0
370
    -3
390
0
  6
Continuous
100
AcDbLine
 10
341.160352
 20
-259.112875
 30
0.0
 11
254.52016
 21
-259.112875
 31
0.0
  0
LINE
  5
11A
100
AcDbEntity
  8
0
370
    -3
390
0
  6
Continuous
100
AcDbLine
 10
251.960352
 20
-229.112875
 30
0.0
 11
251.960352
 21
-259.812875
 31
0.0
  0
LINE
  5
11B
100
AcDbEntity
  8
0
370
    -3
390
0
  6
Continuous
100
AcDbLine
 10
251.960352
 20
-259.812875
 30
0.0
 11
251.160352
 21
-260.612875
 31
0.0
  0
ARC
  5
11C
100
AcDbEntity
  8
0
370
    -3
390
0
  6
Continuous
100
AcDbCircle
 10
252.760352
 20
-259.762875
 30
0.0
 40
0.8
100
AcDbArc
 50
90.0
 51
180.0
  0
LINE
  5
11D
100
AcDbEntity
  8
0
370
    -3
390
0
  6
Continuous
100
AcDbLine
 10
254.52016
 20
-259.112875
 30
0.0
 11
253.960352
 21
-258.962875
 31
0.0
  0
LINE
  5
11E
100
AcDbEntity
  8
0
370
    -3
390
0
  6
Continuous
100
AcDbLine
 10
253.960352
 20
-258.962875
 30
0.0
 11
252.760352
 21
-258.962875
 31
0.0
  0
LINE
  5
11F
100
AcDbEntity
  8
0
370
    -3
390
0
  6
Continuous
100
AcDbLine
 10
251.160352
 20
-197.612875
 30
0.0
 11
246.960352
 21
-197.612875
 31
0.0
  0
LINE
  5
120
100
AcDbEntity
  8
0
370
    -3
390
0
  6
Continuous
100
AcDbLine
 10
251.960352
 20
-229.112875
 30
0.0
 11
251.960352
 21
-198.412875
 31
0.0
  0
LINE
  5
121
100
AcDbEntity
  8
0
370
    -3
390
0
  6
Continuous
100
AcDbLine
 10
251.960352
 20
-198.412875
 30
0.0
 11
251.160352
 21
-197.612875
 31
0.0
  0
ARC
  5
122
100
AcDbEntity
  8
0
370
    -3
390
0
  6
Continuous
100
AcDbCircle
 10
252.760352
 20
-198.462875
 30
0.0
 40
0.8
100
AcDbArc
 50
180.0
 51
270.0
  0
LINE
  5
123
100
AcDbEntity
  8
0
370
    -3
390
0
  6
Continuous
100
AcDbLine
 10
254.52016
 20
-199.112875
 30
0.0
 11
253.960352
 21
-199.262875
 31
0.0
  0
LINE
  5
124
100
AcDbEntity
  8
0
370
    -3
390
0
  6
Continuous
100
AcDbLine
 10
253.960352
 20
-199.262875
 30
0.0
 11
252.760352
 21
-199.262875
 31
0.0
  0
LINE
  5
125
100
AcDbEntity
  8
0
370
    -3
390
0
  6
Continuous
100
AcDbLine
 10
341.960352
 20
-229.112875
 30
0.0
 11
341.960352
 21
-258.312875
 31
0.0
  0
ARC
  5
126
100
AcDbEntity
  8
0
370
    -3
390
0
  6
Continuous
100
AcDbCircle
 10
341.160352
 20
-258.312875
 30
0.0
 40
0.8
100
AcDbArc
 50
270.0
 51
0.0
  0
LINE
  5
127
100
AcDbEntity
  8
0
370
    -3
390
0
  6
Continuous
100
AcDbLine
 10
341.960352
 20
-229.112875
 30
0.0
 11
341.960352
 21
-199.912875
 31
0.0
  0
LINE
  5
128
100
AcDbEntity
  8
0
370
    -3
390
0
  6
Continuous
100
AcDbLine
 10
341.160352
 20
-199.112875
 30
0.0
 11
254.52016
 21
-199.112875
 31
0.0
  0
ARC
  5
129
100
AcDbEntity
  8
0
370
    -3
390
0
  6
Continuous
100
AcDbCircle
 10
341.160352
 20
-199.912875
 30
0.0
 40
0.8
100
AcDbArc
 50
0.0
 51
90.0
  0
LINE
  5
12A
100
AcDbEntity
  8
0
370
    -3
390
0
  6
Continuous
100
AcDbLine
 10
-16.539633
 20
-399.112875
 30
0.0
 11
-16.539633
 21
-289.112875
 31
0.0
  0
LINE
  5
12B
100
AcDbEntity
  8
0
370
    -3
390
0
  6
Continuous
100
AcDbLine
 10
-16.539633
 20
-179.112875
 30
0.0
 11
-16.539633
 21
-289.112875
 31
0.0
  0
LINE
  5
12C
100
AcDbEntity
  8
0
370
    -3
390
0
  6
Continuous
100
AcDbLine
 10
-16.539633
 20
-156.112875
 30
0.0
 11
-16.539633
 21
-422.112875
 31
0.0
  0
LINE
  5
12D
100
AcDbEntity
  8
0
370
    -3
390
0
  6
CENTER
100
AcDbLine
 10
64.993155
 20
-289.112875
 30
0.0
 11
-374.397127
 21
-289.112875
 31
0.0
  0
ARC
  5
12E
100
AcDbEntity
  8
0
370
    -3
390
0
  6
Continuous
100
AcDbCircle
 10
618.819279
 20
-289.112875
 30
0.0
 40
131.5
100
AcDbArc
 50
180.0
 51
180.010286
  0
ARC
  5
12F
100
AcDbEntity
  8
0
370
    -3
390
0
  6
CENTER
100
AcDbCircle
 10
623.819279
 20
-229.112875
 30
0.0
 40
275.0
100
AcDbArc
 50
128.693647
 51
140.926883
  0
LINE
  5
130
100
AcDbEntity
  8
0
370
    -3
390
0
  6
CENTER
100
AcDbLine
 10
408.711558
 20
-14.005154
 30
0.0
 11
450.178422
 21
-55.472017
 31
0.0
  0
ARC
  5
131
100
AcDbEntity
  8
0
370
    -3
390
0
  6
Continuous
100
AcDbCircle
 10
595.819279
 20
-239.96584
 30
0.0
 40
133.892063
100
AcDbArc
 50
93.489726
 51
168.191719
  0
ARC
  5
132
100
AcDbEntity
  8
0
370
    -3
390
0
  6
Continuous
100
AcDbCircle
 10
428.049644
 20
-238.612875
 30
0.0
 40
5.0
100
AcDbArc
 50
90.0
 51
182.77818
  0
ARC
  5
133
100
AcDbEntity
  8
0
370
    -3
390
0
  6
Continuous
100
AcDbCircle
 10
428.049644
 20
-219.612875
 30
0.0
 40
5.0
100
AcDbArc
 50
177.22182
 51
270.0
  0
CIRCLE
  5
134
100
AcDbEntity
  8
0
370
    -3
390
0
  6
Continuous
100
AcDbCircle
 10
623.819279
 20
-229.112875
 30
0.0
 40
201.0
  0
ARC
  5
135
100
AcDbEntity
  8
0
370
    -3
390
0
  6
Continuous
100
AcDbCircle
 10
471.927216
 20
-243.612875
 30
0.0
 40
10.0
100
AcDbArc
 50
90.0
 51
180.0
  0
ARC
  5
136
100
AcDbEntity
  8
0
370
    -3
390
0
  6
Continuous
100
AcDbCircle
 10
474.549042
 20
-214.612875
 30
0.0
 40
10.0
100
AcDbArc
 50
168.191719
 51
270.0
  0
ARC
  5
137
100
AcDbEntity
  8
0
370
    -3
390
0
  6
Continuous
100
AcDbCircle
 10
539.35183
 20
-238.612875
 30
0.0
 40
5.0
100
AcDbArc
 50
6.417053
 51
90.0
  0
ARC
  5
138
100
AcDbEntity
  8
0
370
    -3
390
0
  6
Continuous
100
AcDbCircle
 10
539.35183
 20
-219.612875
 30
0.0
 40
5.0
100
AcDbArc
 50
270.0
 51
353.582947
  0
LINE
  5
139
100
AcDbEntity
  8
0
370
    -3
390
0
  6
Continuous
100
AcDbLine
 10
428.049644
 20
-224.612875
 30
0.0
 11
539.35183
 21
-224.612875
 31
0.0
  0
LINE
  5
13A
100
AcDbEntity
  8
0
370
    -3
390
0
  6
Continuous
100
AcDbLine
 10
428.049644
 20
-233.612875
 30
0.0
 11
539.35183
 21
-233.612875
 31
0.0
  0
ARC
  5
13B
100
AcDbEntity
  8
0
370
    -3
390
0
  6
Continuous
100
AcDbCircle
 10
541.390471
 20
-265.244461
 30
0.0
 40
10.0
100
AcDbArc
 50
283.302309
 51
23.669611
  0
ARC
  5
13C
100
AcDbEntity
  8
0
370
    -3
390
0
  6
Continuous
100
AcDbCircle
 10
545.550523
 20
-273.542614
 30
0.0
 40
10.0
100
AcDbArc
 50
281.551141
 51
29.581676
  0
ARC
  5
13D
100
AcDbEntity
  8
0
370
    -3
390
0
  6
Continuous
100
AcDbCircle
 10
559.567499
 20
-342.12486
 30
0.0
 40
69.0
100
AcDbArc
 50
103.302309
 51
190.881295
  0
ARC
  5
13E
100
AcDbEntity
  8
0
370
    -3
390
0
  6
Continuous
100
AcDbCircle
 10
400.819279
 20
-232.112875
 30
0.0
 40
2.0
100
AcDbArc
 50
180.0
 51
270.0
  0
ARC
  5
13F
100
AcDbEntity
  8
0
370
    -3
390
0
  6
Continuous
100
AcDbCircle
 10
400.819279
 20
-226.112875
 30
0.0
 40
2.0
100
AcDbArc
 50
90.0
 51
180.0
  0
ARC
  5
140
100
AcDbEntity
  8
0
370
    -3
390
0
  6
Continuous
100
AcDbCircle
 10
405.966118
 20
-221.112875
 30
0.0
 40
3.0
100
AcDbArc
 50
270.0
 51
357.89693
  0
ARC
  5
141
100
AcDbEntity
  8
0
370
    -3
390
0
  6
Continuous
100
AcDbCircle
 10
405.966118
 20
-237.112875
 30
0.0
 40
3.0
100
AcDbArc
 50
2.10307
 51
90.0
  0
LINE
  5
142
100
AcDbEntity
  8
0
370
    -3
390
0
  6
Continuous
100
AcDbLine
 10
400.819279
 20
-234.112875
 30
0.0
 11
405.966118
 21
-234.112875
 31
0.0
  0
LINE
  5
143
100
AcDbEntity
  8
0
370
    -3
390
0
  6
Continuous
100
AcDbLine
 10
400.819279
 20
-224.112875
 30
0.0
 11
405.966118
 21
-224.112875
 31
0.0
  0
LINE
  5
144
100
AcDbEntity
  8
0
370
    -3
390
0
  6
Continuous
100
AcDbLine
 10
461.927216
 20
-243.612875
 30
0.0
 11
461.927216
 21
-341.485658
 31
0.0
  0
CIRCLE
  5
145
100
AcDbEntity
  8
0
370
    -3
390
0
  6
Continuous
100
AcDbCircle
 10
623.819279
 20
-229.112875
 30
0.0
 40
210.0
  0
ARC
  5
146
100
AcDbEntity
  8
0
370
    -3
390
0
  6
Continuous
100
AcDbCircle
 10
623.819279
 20
-229.112875
 30
0.0
 40
80.0
100
AcDbArc
 50
0.0
 51
90.0
  0
ARC
  5
147
100
AcDbEntity
  8
0
370
    -3
390
0
  6
Continuous
100
AcDbCircle
 10
559.567499
 20
-342.12486
 30
0.0
 40
60.0
100
AcDbArc
 50
101.551141
 51
204.149805
  0
ARC
  5
148
100
AcDbEntity
  8
0
370
    -3
390
0
  6
Continuous
100
AcDbCircle
 10
623.819279
 20
-229.112875
 30
0.0
 40
215.0
100
AcDbArc
 50
182.10307
 51
213.463041
  0
LINE
  5
149
100
AcDbEntity
  8
0
370
    -3
390
0
  6
Continuous
100
AcDbLine
 10
398.819279
 20
-24.112875
 30
0.0
 11
398.819279
 21
-434.112875
 31
0.0
  0
ARC
  5
14A
100
AcDbEntity
  8
0
370
    -3
390
0
  6
Continuous
100
AcDbCircle
 10
418.819279
 20
-24.112875
 30
0.0
 40
20.0
100
AcDbArc
 50
90.0
 51
180.0
  0
ARC
  5
14B
100
AcDbEntity
  8
0
370
    -3
390
0
  6
Continuous
100
AcDbCircle
 10
446.245686
 20
-9.112875
 30
0.0
 40
5.0
100
AcDbArc
 50
45.0
 51
90.0
  0
LINE
  5
14C
100
AcDbEntity
  8
0
370
    -3
390
0
  6
Continuous
100
AcDbLine
 10
449.78122
 20
-5.577341
 30
0.0
 11
492.683444
 21
-48.479565
 31
0.0
  0
CIRCLE
  5
14D
100
AcDbEntity
  8
0
370
    -3
390
0
  6
Continuous
100
AcDbCircle
 10
429.364915
 20
-34.65851
 30
0.0
 40
14.0
  0
ARC
  5
14E
100
AcDbEntity
  8
0
370
    -3
390
0
  6
Continuous
100
AcDbCircle
 10
403.819279
 20
-51.539282
 30
0.0
 40
5.0
100
AcDbArc
 50
180.0
 51
225.0
  0
LINE
  5
14F
100
AcDbEntity
  8
0
370
    -3
390
0
  6
Continuous
100
AcDbLine
 10
400.283746
 20
-55.074816
 30
0.0
 11
443.185969
 21
-97.97704
 31
0.0
  0
ARC
  5
150
100
AcDbEntity
  8
0
370
    -3
390
0
  6
Continuous
100
AcDbCircle
 10
436.114902
 20
-105.048107
 30
0.0
 40
10.0
100
AcDbArc
 50
326.536959
 51
45.0
  0
ARC
  5
151
100
AcDbEntity
  8
0
370
    -3
390
0
  6
Continuous
100
AcDbCircle
 10
623.819279
 20
-229.112875
 30
0.0
 40
215.0
100
AcDbArc
 50
146.536959
 51
177.89693
  0
ARC
  5
152
100
AcDbEntity
  8
0
370
    -3
390
0
  6
Continuous
100
AcDbCircle
 10
499.754512
 20
-41.408497
 30
0.0
 40
10.0
100
AcDbArc
 50
225.0
 51
303.463041
  0
ARC
  5
153
100
AcDbEntity
  8
0
370
    -3
390
0
  6
Continuous
100
AcDbCircle
 10
623.819279
 20
-229.112875
 30
0.0
 40
215.0
100
AcDbArc
 50
90.0
 51
123.463041
  0
LINE
  5
154
100
AcDbEntity
  8
0
370
    -3
390
0
  6
Continuous
100
AcDbLine
 10
418.819279
 20
-4.112875
 30
0.0
 11
828.819279
 21
-4.112875
 31
0.0
  0
LINE
  5
155
100
AcDbEntity
  8
0
370
    -3
390
0
  6
CENTER
100
AcDbLine
 10
399.516102
 20
-229.112875
 30
0.0
 11
848.601304
 21
-229.112875
 31
0.0
  0
LINE
  5
156
100
AcDbEntity
  8
0
370
    -3
390
0
  6
CENTER
100
AcDbLine
 10
408.711558
 20
-444.220596
 30
0.0
 11
450.178422
 21
-402.753733
 31
0.0
  0
ARC
  5
157
100
AcDbEntity
  8
0
370
    -3
390
0
  6
Continuous
100
AcDbCircle
 10
481.927216
 20
-341.485658
 30
0.0
 40
20.0
100
AcDbArc
 50
180.0
 51
218.377802
  0
ARC
  5
158
100
AcDbEntity
  8
0
370
    -3
390
0
  6
Continuous
100
AcDbCircle
 10
495.693977
 20
-370.763525
 30
0.0
 40
10.0
100
AcDbArc
 50
227.870148
 51
24.149805
  0
ARC
  5
159
100
AcDbEntity
  8
0
370
    -3
390
0
  6
Continuous
100
AcDbCircle
 10
481.987888
 20
-357.038073
 30
0.0
 40
10.0
100
AcDbArc
 50
222.048964
 51
10.881295
  0
ARC
  5
15A
100
AcDbEntity
  8
0
370
    -3
390
0
  6
Continuous
100
AcDbCircle
 10
548.819279
 20
-444.112875
 30
0.0
 40
20.0
100
AcDbArc
 50
210.0
 51
244.158067
  0
LINE
  5
15B
100
AcDbEntity
  8
0
370
    -3
390
0
  6
Continuous
100
AcDbLine
 10
623.819279
 20
-462.112875
 30
0.0
 11
540.101482
 21
-462.112875
 31
0.0
  0
ARC
  5
15C
100
AcDbEntity
  8
0
370
    -3
390
0
  6
Continuous
100
AcDbCircle
 10
499.754512
 20
-416.817253
 30
0.0
 40
10.0
100
AcDbArc
 50
56.536959
 51
135.0
  0
LINE
  5
15D
100
AcDbEntity
  8
0
370
    -3
390
0
  6
Continuous
100
AcDbLine
 10
449.78122
 20
-452.648409
 30
0.0
 11
492.683444
 21
-409.746185
 31
0.0
  0
ARC
  5
15E
100
AcDbEntity
  8
0
370
    -3
390
0
  6
Continuous
100
AcDbCircle
 10
623.819279
 20
-229.112875
 30
0.0
 40
215.0
100
AcDbArc
 50
236.536959
 51
270.0
  0
ARC
  5
15F
100
AcDbEntity
  8
0
370
    -3
390
0
  6
CENTER
100
AcDbCircle
 10
623.819279
 20
-229.112875
 30
0.0
 40
275.0
100
AcDbArc
 50
219.361191
 51
230.434252
  0
CIRCLE
  5
160
100
AcDbEntity
  8
0
370
    -3
390
0
  6
Continuous
100
AcDbCircle
 10
429.364915
 20
-423.56724
 30
0.0
 40
14.0
  0
LINE
  5
161
100
AcDbEntity
  8
0
370
    -3
390
0
  6
Continuous
100
AcDbLine
 10
418.819279
 20
-454.112875
 30
0.0
 11
623.819279
 21
-454.112875
 31
0.0
  0
ARC
  5
162
100
AcDbEntity
  8
0
370
    -3
390
0
  6
Continuous
100
AcDbCircle
 10
418.819279
 20
-434.112875
 30
0.0
 40
20.0
100
AcDbArc
 50
180.0
 51
270.0
  0
ARC
  5
163
100
AcDbEntity
  8
0
370
    -3
390
0
  6
Continuous
100
AcDbCircle
 10
403.819279
 20
-406.686468
 30
0.0
 40
5.0
100
AcDbArc
 50
135.0
 51
180.0
  0
LINE
  5
164
100
AcDbEntity
  8
0
370
    -3
390
0
  6
Continuous
100
AcDbLine
 10
400.283746
 20
-403.150934
 30
0.0
 11
443.185969
 21
-360.24871
 31
0.0
  0
ARC
  5
165
100
AcDbEntity
  8
0
370
    -3
390
0
  6
Continuous
100
AcDbCircle
 10
436.114902
 20
-353.177642
 30
0.0
 40
10.0
100
AcDbArc
 50
315.0
 51
33.463041
  0
ARC
  5
166
100
AcDbEntity
  8
0
370
    -3
390
0
  6
Continuous
100
AcDbCircle
 10
446.245686
 20
-449.112875
 30
0.0
 40
5.0
100
AcDbArc
 50
270.0
 51
315.0
  0
LINE
  5
167
100
AcDbEntity
  8
0
370
    -3
390
0
  6
CENTER
100
AcDbLine
 10
838.927001
 20
-14.005154
 30
0.0
 11
797.460137
 21
-55.472017
 31
0.0
  0
ARC
  5
168
100
AcDbEntity
  8
0
370
    -3
390
0
  6
Continuous
100
AcDbCircle
 10
623.819279
 20
-699.112875
 30
0.0
 40
593.892063
100
AcDbArc
 50
91.422993
 51
93.489726
  0
ARC
  5
169
100
AcDbEntity
  8
0
370
    -3
390
0
  6
Continuous
100
AcDbCircle
 10
651.819279
 20
-239.96584
 30
0.0
 40
133.892063
100
AcDbArc
 50
11.808281
 51
86.510274
  0
ARC
  5
16A
100
AcDbEntity
  8
0
370
    -3
390
0
  6
Continuous
100
AcDbCircle
 10
623.819279
 20
-699.112875
 30
0.0
 40
593.892063
100
AcDbArc
 50
86.510274
 51
88.577007
  0
ARC
  5
16B
100
AcDbEntity
  8
0
370
    -3
390
0
  6
Continuous
100
AcDbCircle
 10
765.711343
 20
-341.485658
 30
0.0
 40
20.0
100
AcDbArc
 50
321.622198
 51
0.0
  0
ARC
  5
16C
100
AcDbEntity
  8
0
370
    -3
390
0
  6
Continuous
100
AcDbCircle
 10
743.754882
 20
-377.761626
 30
0.0
 40
10.0
100
AcDbArc
 50
240.0
 51
308.897941
  0
CIRCLE
  5
16D
100
AcDbEntity
  8
0
370
    -3
390
0
  6
Continuous
100
AcDbCircle
 10
623.819279
 20
-229.112875
 30
0.0
 40
52.5
  0
ARC
  5
16E
100
AcDbEntity
  8
0
370
    -3
390
0
  6
Continuous
100
AcDbCircle
 10
614.319279
 20
-33.34324
 30
0.0
 40
5.0
100
AcDbArc
 50
0.0
 51
92.77818
  0
ARC
  5
16F
100
AcDbEntity
  8
0
370
    -3
390
0
  6
Continuous
100
AcDbCircle
 10
633.319279
 20
-33.34324
 30
0.0
 40
5.0
100
AcDbArc
 50
87.22182
 51
180.0
  0
ARC
  5
170
100
AcDbEntity
  8
0
370
    -3
390
0
  6
Continuous
100
AcDbCircle
 10
819.588914
 20
-238.612875
 30
0.0
 40
5.0
100
AcDbArc
 50
357.22182
 51
90.0
  0
ARC
  5
171
100
AcDbEntity
  8
0
370
    -3
390
0
  6
Continuous
100
AcDbCircle
 10
819.588914
 20
-219.612875
 30
0.0
 40
5.0
100
AcDbArc
 50
270.0
 51
2.77818
  0
ARC
  5
172
100
AcDbEntity
  8
0
370
    -3
390
0
  6
Continuous
100
AcDbCircle
 10
609.319279
 20
-115.400881
 30
0.0
 40
10.0
100
AcDbArc
 50
0.0
 51
91.422993
  0
ARC
  5
173
100
AcDbEntity
  8
0
370
    -3
390
0
  6
Continuous
100
AcDbCircle
 10
638.319279
 20
-115.400881
 30
0.0
 40
10.0
100
AcDbArc
 50
88.577007
 51
180.0
  0
ARC
  5
174
100
AcDbEntity
  8
0
370
    -3
390
0
  6
Continuous
100
AcDbCircle
 10
614.319279
 20
-144.645426
 30
0.0
 40
5.0
100
AcDbArc
 50
276.417053
 51
0.0
  0
ARC
  5
175
100
AcDbEntity
  8
0
370
    -3
390
0
  6
Continuous
100
AcDbCircle
 10
633.319279
 20
-144.645426
 30
0.0
 40
5.0
100
AcDbArc
 50
180.0
 51
263.582947
  0
LINE
  5
176
100
AcDbEntity
  8
0
370
    -3
390
0
  6
Continuous
100
AcDbLine
 10
628.319279
 20
-33.34324
 30
0.0
 11
628.319279
 21
-144.645426
 31
0.0
  0
LINE
  5
177
100
AcDbEntity
  8
0
370
    -3
390
0
  6
Continuous
100
AcDbLine
 10
619.319279
 20
-33.34324
 30
0.0
 11
619.319279
 21
-144.645426
 31
0.0
  0
ARC
  5
178
100
AcDbEntity
  8
0
370
    -3
390
0
  6
Continuous
100
AcDbCircle
 10
775.711343
 20
-243.612875
 30
0.0
 40
10.0
100
AcDbArc
 50
0.0
 51
90.0
  0
ARC
  5
179
100
AcDbEntity
  8
0
370
    -3
390
0
  6
Continuous
100
AcDbCircle
 10
773.089517
 20
-214.612875
 30
0.0
 40
10.0
100
AcDbArc
 50
270.0
 51
11.808281
  0
ARC
  5
17A
100
AcDbEntity
  8
0
370
    -3
390
0
  6
Continuous
100
AcDbCircle
 10
708.286729
 20
-219.612875
 30
0.0
 40
5.0
100
AcDbArc
 50
186.417053
 51
270.0
  0
ARC
  5
17B
100
AcDbEntity
  8
0
370
    -3
390
0
  6
Continuous
100
AcDbCircle
 10
708.286729
 20
-238.612875
 30
0.0
 40
5.0
100
AcDbArc
 50
90.0
 51
173.582947
  0
LINE
  5
17C
100
AcDbEntity
  8
0
370
    -3
390
0
  6
Continuous
100
AcDbLine
 10
819.588914
 20
-233.612875
 30
0.0
 11
708.286729
 21
-233.612875
 31
0.0
  0
LINE
  5
17D
100
AcDbEntity
  8
0
370
    -3
390
0
  6
Continuous
100
AcDbLine
 10
819.588914
 20
-224.612875
 30
0.0
 11
708.286729
 21
-224.612875
 31
0.0
  0
ARC
  5
17E
100
AcDbEntity
  8
0
370
    -3
390
0
  6
Continuous
100
AcDbCircle
 10
724.509052
 20
-366.65004
 30
0.0
 40
10.0
100
AcDbArc
 50
167.552965
 51
240.0
  0
ARC
  5
17F
100
AcDbEntity
  8
0
370
    -3
390
0
  6
Continuous
100
AcDbCircle
 10
732.633403
 20
-371.340637
 30
0.0
 40
10.0
100
AcDbArc
 50
165.300941
 51
240.0
  0
LINE
  5
180
100
AcDbEntity
  8
0
370
    -3
390
0
  6
Continuous
100
AcDbLine
 10
719.509052
 20
-375.310294
 30
0.0
 11
738.754882
 21
-386.42188
 31
0.0
  0
ARC
  5
181
100
AcDbEntity
  8
0
370
    -3
390
0
  6
Continuous
100
AcDbCircle
 10
685.817635
 20
-294.352463
 30
0.0
 40
10.0
100
AcDbArc
 50
133.540775
 51
248.755645
  0
ARC
  5
182
100
AcDbEntity
  8
0
370
    -3
390
0
  6
Continuous
100
AcDbCircle
 10
692.425948
 20
-287.363411
 30
0.0
 40
10.0
100
AcDbArc
 50
139.667057
 51
245.868324
  0
ARC
  5
183
100
AcDbEntity
  8
0
370
    -3
390
0
  6
Continuous
100
AcDbCircle
 10
662.989824
 20
-353.071208
 30
0.0
 40
62.0
100
AcDbArc
 50
345.300941
 51
65.868324
  0
ARC
  5
184
100
AcDbEntity
  8
0
370
    -3
390
0
  6
Continuous
100
AcDbCircle
 10
846.819279
 20
-232.112875
 30
0.0
 40
2.0
100
AcDbArc
 50
270.0
 51
0.0
  0
ARC
  5
185
100
AcDbEntity
  8
0
370
    -3
390
0
  6
Continuous
100
AcDbCircle
 10
846.819279
 20
-226.112875
 30
0.0
 40
2.0
100
AcDbArc
 50
0.0
 51
90.0
  0
LINE
  5
186
100
AcDbEntity
  8
0
370
    -3
390
0
  6
Continuous
100
AcDbLine
 10
846.819279
 20
-234.112875
 30
0.0
 11
841.672441
 21
-234.112875
 31
0.0
  0
ARC
  5
187
100
AcDbEntity
  8
0
370
    -3
390
0
  6
Continuous
100
AcDbCircle
 10
841.672441
 20
-237.112875
 30
0.0
 40
3.0
100
AcDbArc
 50
90.0
 51
177.89693
  0
LINE
  5
188
100
AcDbEntity
  8
0
370
    -3
390
0
  6
Continuous
100
AcDbLine
 10
846.819279
 20
-224.112875
 30
0.0
 11
841.672441
 21
-224.112875
 31
0.0
  0
ARC
  5
189
100
AcDbEntity
  8
0
370
    -3
390
0
  6
Continuous
100
AcDbCircle
 10
841.672441
 20
-221.112875
 30
0.0
 40
3.0
100
AcDbArc
 50
182.10307
 51
270.0
  0
LINE
  5
18A
100
AcDbEntity
  8
0
370
    -3
390
0
  6
Continuous
100
AcDbLine
 10
785.711343
 20
-243.612875
 30
0.0
 11
785.711343
 21
-341.485658
 31
0.0
  0
ARC
  5
18B
100
AcDbEntity
  8
0
370
    -3
390
0
  6
Continuous
100
AcDbCircle
 10
698.819279
 20
-444.112875
 30
0.0
 40
20.0
100
AcDbArc
 50
295.841933
 51
330.0
  0
LINE
  5
18C
100
AcDbEntity
  8
0
370
    -3
390
0
  6
Continuous
100
AcDbLine
 10
623.819279
 20
-462.112875
 30
0.0
 11
707.537077
 21
-462.112875
 31
0.0
  0
LINE
  5
18D
100
AcDbEntity
  8
0
370
    -3
390
0
  6
CENTER
100
AcDbLine
 10
669.040441
 20
-289.112875
 30
0.0
 11
578.270793
 21
-289.112875
 31
0.0
  0
ARC
  5
18E
100
AcDbEntity
  8
0
370
    -3
390
0
  6
Continuous
100
AcDbCircle
 10
623.819279
 20
-229.112875
 30
0.0
 40
215.0
100
AcDbArc
 50
2.10307
 51
33.463041
  0
ARC
  5
18F
100
AcDbEntity
  8
0
370
    -3
390
0
  6
Continuous
100
AcDbCircle
 10
662.989824
 20
-353.071208
 30
0.0
 40
53.0
100
AcDbArc
 50
347.552965
 51
68.755645
  0
LINE
  5
190
100
AcDbEntity
  8
0
370
    -3
390
0
  6
Continuous
100
AcDbLine
 10
828.819279
 20
-454.112875
 30
0.0
 11
623.819279
 21
-454.112875
 31
0.0
  0
ARC
  5
191
100
AcDbEntity
  8
0
370
    -3
390
0
  6
Continuous
100
AcDbCircle
 10
828.819279
 20
-434.112875
 30
0.0
 40
20.0
100
AcDbArc
 50
270.0
 51
0.0
  0
ARC
  5
192
100
AcDbEntity
  8
0
370
    -3
390
0
  6
CENTER
100
AcDbCircle
 10
623.819279
 20
-229.112875
 30
0.0
 40
275.0
100
AcDbArc
 50
308.693647
 51
320.926883
  0
CIRCLE
  5
193
100
AcDbEntity
  8
0
370
    -3
390
0
  6
Continuous
100
AcDbCircle
 10
818.273644
 20
-423.56724
 30
0.0
 40
14.0
  0
ARC
  5
194
100
AcDbEntity
  8
0
370
    -3
390
0
  6
Continuous
100
AcDbCircle
 10
843.819279
 20
-406.686468
 30
0.0
 40
5.0
100
AcDbArc
 50
0.0
 51
45.0
  0
LINE
  5
195
100
AcDbEntity
  8
0
370
    -3
390
0
  6
Continuous
100
AcDbLine
 10
847.354813
 20
-403.150934
 30
0.0
 11
804.452589
 21
-360.24871
 31
0.0
  0
LINE
  5
196
100
AcDbEntity
  8
0
370
    -3
390
0
  6
Continuous
100
AcDbLine
 10
797.857339
 20
-452.648409
 30
0.0
 11
754.955115
 21
-409.746185
 31
0.0
  0
ARC
  5
197
100
AcDbEntity
  8
0
370
    -3
390
0
  6
Continuous
100
AcDbCircle
 10
747.884047
 20
-416.817253
 30
0.0
 40
10.0
100
AcDbArc
 50
45.0
 51
123.463041
  0
ARC
  5
198
100
AcDbEntity
  8
0
370
    -3
390
0
  6
Continuous
100
AcDbCircle
 10
623.819279
 20
-229.112875
 30
0.0
 40
215.0
100
AcDbArc
 50
270.0
 51
303.463041
  0
ARC
  5
199
100
AcDbEntity
  8
0
370
    -3
390
0
  6
Continuous
100
AcDbCircle
 10
623.819279
 20
-229.112875
 30
0.0
 40
215.0
100
AcDbArc
 50
326.536959
 51
357.89693
  0
ARC
  5
19A
100
AcDbEntity
  8
0
370
    -3
390
0
  6
Continuous
100
AcDbCircle
 10
811.523657
 20
-353.177642
 30
0.0
 40
10.0
100
AcDbArc
 50
146.536959
 51
225.0
  0
ARC
  5
19B
100
AcDbEntity
  8
0
370
    -3
390
0
  6
Continuous
100
AcDbCircle
 10
801.392873
 20
-449.112875
 30
0.0
 40
5.0
100
AcDbArc
 50
225.0
 51
270.0
  0
LINE
  5
19C
100
AcDbEntity
  8
0
370
    -3
390
0
  6
CENTER
100
AcDbLine
 10
838.927001
 20
-444.220596
 30
0.0
 11
797.460137
 21
-402.753733
 31
0.0
  0
LINE
  5
19D
100
AcDbEntity
  8
0
370
    -3
390
0
  6
Continuous
100
AcDbLine
 10
848.819279
 20
-24.112875
 30
0.0
 11
848.819279
 21
-434.112875
 31
0.0
  0
ARC
  5
19E
100
AcDbEntity
  8
0
370
    -3
390
0
  6
Continuous
100
AcDbCircle
 10
623.819279
 20
-229.112875
 30
0.0
 40
215.0
100
AcDbArc
 50
56.536959
 51
90.0
  0
ARC
  5
19F
100
AcDbEntity
  8
0
370
    -3
390
0
  6
Continuous
100
AcDbCircle
 10
747.884047
 20
-41.408497
 30
0.0
 40
10.0
100
AcDbArc
 50
236.536959
 51
315.0
  0
ARC
  5
1A0
100
AcDbEntity
  8
0
370
    -3
390
0
  6
Continuous
100
AcDbCircle
 10
828.819279
 20
-24.112875
 30
0.0
 40
20.0
100
AcDbArc
 50
0.0
 51
90.0
  0
ARC
  5
1A1
100
AcDbEntity
  8
0
370
    -3
390
0
  6
CENTER
100
AcDbCircle
 10
623.819279
 20
-229.112875
 30
0.0
 40
275.0
100
AcDbArc
 50
38.491713
 51
50.473255
  0
CIRCLE
  5
1A2
100
AcDbEntity
  8
0
370
    -3
390
0
  6
Continuous
100
AcDbCircle
 10
818.273644
 20
-34.65851
 30
0.0
 40
14.0
  0
LINE
  5
1A3
100
AcDbEntity
  8
0
370
    -3
390
0
  6
Continuous
100
AcDbLine
 10
797.857339
 20
-5.577341
 30
0.0
 11
754.955115
 21
-48.479565
 31
0.0
  0
LINE
  5
1A4
100
AcDbEntity
  8
0
370
    -3
390
0
  6
Continuous
100
AcDbLine
 10
847.354813
 20
-55.074816
 30
0.0
 11
804.452589
 21
-97.97704
 31
0.0
  0
ARC
  5
1A5
100
AcDbEntity
  8
0
370
    -3
390
0
  6
Continuous
100
AcDbCircle
 10
811.523657
 20
-105.048107
 30
0.0
 40
10.0
100
AcDbArc
 50
135.0
 51
213.463041
  0
ARC
  5
1A6
100
AcDbEntity
  8
0
370
    -3
390
0
  6
Continuous
100
AcDbCircle
 10
801.392873
 20
-9.112875
 30
0.0
 40
5.0
100
AcDbArc
 50
90.0
 51
135.0
  0
ARC
  5
1A7
100
AcDbEntity
  8
0
370
    -3
390
0
  6
Continuous
100
AcDbCircle
 10
843.819279
 20
-51.539282
 30
0.0
 40
5.0
100
AcDbArc
 50
315.0
 51
0.0
  0
CIRCLE
  5
1A8
100
AcDbEntity
  8
0
370
    -3
390
0
  6
Continuous
100
AcDbCircle
 10
623.819279
 20
-229.112875
 30
0.0
 40
42.5
  0
CIRCLE
  5
1A9
100
AcDbEntity
  8
0
370
    -3
390
0
  6
Continuous
100
AcDbCircle
 10
623.819279
 20
-229.112875
 30
0.0
 40
4.188
  0
CIRCLE
  5
1AA
100
AcDbEntity
  8
0
370
    -3
390
0
  6
Continuous
100
AcDbCircle
 10
623.819279
 20
-229.112875
 30
0.0
 40
5.0
  0
ARC
  5
1AB
100
AcDbEntity
  8
0
370
    -3
390
0
  6
Continuous
100
AcDbCircle
 10
623.819279
 20
-229.112875
 30
0.0
 40
30.0
100
AcDbArc
 50
197.457603
 51
162.542397
  0
LINE
  5
1AC
100
AcDbEntity
  8
0
370
    -3
390
0
  6
Continuous
100
AcDbLine
 10
589.819279
 20
-220.112875
 30
0.0
 11
589.819279
 21
-238.112875
 31
0.0
  0
LINE
  5
1AD
100
AcDbEntity
  8
0
370
    -3
390
0
  6
Continuous
100
AcDbLine
 10
600.819279
 20
-220.112875
 30
0.0
 11
600.819279
 21
-238.112875
 31
0.0
  0
LINE
  5
1AE
100
AcDbEntity
  8
0
370
    -3
390
0
  6
Continuous
100
AcDbLine
 10
589.819279
 20
-238.112875
 30
0.0
 11
600.819279
 21
-238.112875
 31
0.0
  0
LINE
  5
1AF
100
AcDbEntity
  8
0
370
    -3
390
0
  6
Continuous
100
AcDbLine
 10
589.819279
 20
-220.112875
 30
0.0
 11
600.819279
 21
-220.112875
 31
0.0
  0
LINE
  5
1B0
100
AcDbEntity
  8
0
370
    -3
390
0
  6
CENTER
100
AcDbLine
 10
623.819279
 20
2.042925
 30
0.0
 11
623.819279
 21
-474.095277
 31
0.0
  0
LINE
  5
1B1
100
AcDbEntity
  8
0
370
    -3
390
0
  6
Continuous
100
AcDbLine
 10
61.960367
 20
-90.676498
 30
0.0
 11
61.960367
 21
-89.676498
 31
0.0
  0
LINE
  5
1B2
100
AcDbEntity
  8
0
370
    -3
390
0
  6
Continuous
100
AcDbLine
 10
87.960367
 20
-90.676498
 30
0.0
 11
87.960367
 21
-89.676498
 31
0.0
  0
LINE
  5
1B3
100
AcDbEntity
  8
0
370
    -3
390
0
  6
Continuous
100
AcDbLine
 10
-246.539633
 20
-381.092452
 30
0.0
 11
-16.539633
 21
-381.092452
 31
0.0
  0
LINE
  5
1B4
100
AcDbEntity
  8
0
370
    -3
390
0
  6
Continuous
100
AcDbLine
 10
-246.539633
 20
-418.612875
 30
0.0
 11
-16.539633
 21
-418.612875
 31
0.0
  0
LINE
  5
1B5
100
AcDbEntity
  8
0
370
    -3
390
0
  6
Continuous
100
AcDbLine
 10
-246.539633
 20
-422.112875
 30
0.0
 11
-16.539633
 21
-422.112875
 31
0.0
  0
LINE
  5
1B6
100
AcDbEntity
  8
0
370
    -3
390
0
  6
Continuous
100
AcDbLine
 10
-246.539633
 20
-417.112875
 30
0.0
 11
-16.539633
 21
-417.112875
 31
0.0
  0
LINE
  5
1B7
100
AcDbEntity
  8
0
370
    -3
390
0
  6
Continuous
100
AcDbLine
 10
-246.539633
 20
-413.112875
 30
0.0
 11
-16.539633
 21
-413.112875
 31
0.0
  0
LINE
  5
1B8
100
AcDbEntity
  8
0
370
    -3
390
0
  6
Continuous
100
AcDbLine
 10
-246.539633
 20
-407.112875
 30
0.0
 11
-16.539633
 21
-407.112875
 31
0.0
  0
LINE
  5
1B9
100
AcDbEntity
  8
0
370
    -3
390
0
  6
Continuous
100
AcDbLine
 10
-246.539633
 20
-393.820374
 30
0.0
 11
-16.539633
 21
-393.820374
 31
0.0
  0
LINE
  5
1BA
100
AcDbEntity
  8
0
370
    -3
390
0
  6
Continuous
100
AcDbLine
 10
-177.62793
 20
-346.755646
 30
0.0
 11
-16.539633
 21
-346.755646
 31
0.0
  0
LINE
  5
1BB
100
AcDbEntity
  8
0
370
    -3
390
0
  6
Continuous
100
AcDbLine
 10
-177.539633
 20
-343.536233
 30
0.0
 11
-16.539633
 21
-343.536233
 31
0.0
  0
LINE
  5
1BC
100
AcDbEntity
  8
0
370
    -3
390
0
  6
Continuous
100
AcDbLine
 10
-177.539633
 20
-332.557487
 30
0.0
 11
-16.539633
 21
-332.557487
 31
0.0
  0
LINE
  5
1BD
100
AcDbEntity
  8
0
370
    -3
390
0
  6
Continuous
100
AcDbLine
 10
-177.539633
 20
-329.703853
 30
0.0
 11
-16.539633
 21
-329.703853
 31
0.0
  0
LINE
  5
1BE
100
AcDbEntity
  8
0
370
    -3
390
0
  6
Continuous
100
AcDbLine
 10
-177.539633
 20
-313.112875
 30
0.0
 11
-16.539633
 21
-313.112875
 31
0.0
  0
LINE
  5
1BF
100
AcDbEntity
  8
0
370
    -3
390
0
  6
Continuous
100
AcDbLine
 10
-246.539633
 20
-357.456088
 30
0.0
 11
-16.539633
 21
-357.456088
 31
0.0
  0
LINE
  5
1C0
100
AcDbEntity
  8
0
370
    -3
390
0
  6
Continuous
100
AcDbLine
 10
-246.539633
 20
-360.692816
 30
0.0
 11
-16.539633
 21
-360.692816
 31
0.0
  0
LINE
  5
1C1
100
AcDbEntity
  8
0
370
    -3
390
0
  6
Continuous
100
AcDbLine
 10
-177.539633
 20
-265.112875
 30
0.0
 11
-16.539633
 21
-265.112875
 31
0.0
  0
LINE
  5
1C2
100
AcDbEntity
  8
0
370
    -3
390
0
  6
Continuous
100
AcDbLine
 10
-246.539633
 20
-245.668263
 30
0.0
 11
-16.539633
 21
-245.668263
 31
0.0
  0
LINE
  5
1C3
100
AcDbEntity
  8
0
370
    -3
390
0
  6
Continuous
100
AcDbLine
 10
-246.539633
 20
-248.521896
 30
0.0
 11
-16.539633
 21
-248.521896
 31
0.0
  0
LINE
  5
1C4
100
AcDbEntity
  8
0
370
    -3
390
0
  6
Continuous
100
AcDbLine
 10
-246.539633
 20
-234.689517
 30
0.0
 11
-16.539633
 21
-234.689517
 31
0.0
  0
LINE
  5
1C5
100
AcDbEntity
  8
0
370
    -3
390
0
  6
Continuous
100
AcDbLine
 10
-246.539633
 20
-231.470104
 30
0.0
 11
-16.539633
 21
-231.470104
 31
0.0
  0
LINE
  5
1C6
100
AcDbEntity
  8
0
370
    -3
390
0
  6
Continuous
100
AcDbLine
 10
-246.539633
 20
-220.769662
 30
0.0
 11
-16.539633
 21
-220.769662
 31
0.0
  0
LINE
  5
1C7
100
AcDbEntity
  8
0
370
    -3
390
0
  6
Continuous
100
AcDbLine
 10
-246.539633
 20
-217.532934
 30
0.0
 11
-16.539633
 21
-217.532934
 31
0.0
  0
LINE
  5
1C8
100
AcDbEntity
  8
0
370
    -3
390
0
  6
Continuous
100
AcDbLine
 10
-246.539633
 20
-197.133297
 30
0.0
 11
-16.539633
 21
-197.133297
 31
0.0
  0
LINE
  5
1C9
100
AcDbEntity
  8
0
370
    -3
390
0
  6
Continuous
100
AcDbLine
 10
-246.539633
 20
-184.405375
 30
0.0
 11
-16.539633
 21
-184.405375
 31
0.0
  0
LINE
  5
1CA
100
AcDbEntity
  8
0
370
    -3
390
0
  6
Continuous
100
AcDbLine
 10
-246.539633
 20
-171.112875
 30
0.0
 11
-16.539633
 21
-171.112875
 31
0.0
  0
LINE
  5
1CB
100
AcDbEntity
  8
0
370
    -3
390
0
  6
Continuous
100
AcDbLine
 10
-246.539633
 20
-165.112875
 30
0.0
 11
-16.539633
 21
-165.112875
 31
0.0
  0
LINE
  5
1CC
100
AcDbEntity
  8
0
370
    -3
390
0
  6
Continuous
100
AcDbLine
 10
-246.539633
 20
-161.112875
 30
0.0
 11
-16.539633
 21
-161.112875
 31
0.0
  0
LINE
  5
1CD
100
AcDbEntity
  8
0
370
    -3
390
0
  6
Continuous
100
AcDbLine
 10
-246.539633
 20
-159.612875
 30
0.0
 11
-16.539633
 21
-159.612875
 31
0.0
  0
LINE
  5
1CE
100
AcDbEntity
  8
0
370
    -3
390
0
  6
Continuous
100
AcDbLine
 10
-246.539633
 20
-156.112875
 30
0.0
 11
-16.539633
 21
-156.112875
 31
0.0
  0
LINE
  5
1CF
100
AcDbEntity
  8
0
370
    -3
390
0
  6
Continuous
100
AcDbLine
 10
-281.539633
 20
-185.852427
 30
0.0
 11
-281.539633
 21
-184.211071
 31
0.0
  0
LINE
  5
1D0
100
AcDbEntity
  8
0
370
    -3
390
0
  6
Continuous
100
AcDbLine
 10
-295.539633
 20
-185.852427
 30
0.0
 11
-295.539633
 21
-184.211071
 31
0.0
  0
ELLIPSE
  5
1D1
100
AcDbEntity
  8
0
370
    -3
390
0
  6
Continuous
100
AcDbEllipse
 10
-288.539633
 20
-185.852427
 30
0.0
 11
7.0
 21
0.0
 31
0.0
210
0.0
220
0.0
230
1.0
 40
0.707107
 41
3.1415926535897931
 42
0.0
  0
ELLIPSE
  5
1D2
100
AcDbEntity
  8
0
370
    -3
390
0
  6
Continuous
100
AcDbEllipse
 10
-288.539633
 20
-184.211071
 30
0.0
 11
7.0
 21
0.0
 31
0.0
210
0.0
220
0.0
230
1.0
 40
0.692313
 41
3.1415926535897931
 42
0.0
  0
ELLIPSE
  5
1D3
100
AcDbEntity
  8
0
370
    -3
390
0
  6
Continuous
100
AcDbEllipse
 10
-288.539633
 20
-184.211071
 30
0.0
 11
7.0
 21
0.0
 31
0.0
210
0.0
220
0.0
230
1.0
 40
0.692313
 41
0.0
 42
0.5464396163983571
  0
ELLIPSE
  5
1D4
100
AcDbEntity
  8
0
370
    -3
390
0
  6
Continuous
100
AcDbEllipse
 10
-288.539633
 20
-184.211071
 30
0.0
 11
7.0
 21
0.0
 31
0.0
210
0.0
220
0.0
230
1.0
 40
0.692313
 41
2.595153037191436
 42
3.1415926535897931
  0
ELLIPSE
  5
1D5
100
AcDbEntity
  8
0
370
    -3
390
0
  6
Continuous
100
AcDbEllipse
 10
-288.539633
 20
-184.107518
 30
0.0
 11
6.25
 21
0.0
 31
0.0
210
0.0
220
0.0
230
1.0
 40
0.707107
 41
3.1415926535897931
 42
0.0
  0
LINE
  5
1D6
100
AcDbEntity
  8
0
370
    -3
390
0
  6
Continuous
100
AcDbLine
 10
-282.289633
 20
-184.107518
 30
0.0
 11
-282.289633
 21
-182.976147
 31
0.0
  0
LINE
  5
1D7
100
AcDbEntity
  8
0
370
    -3
390
0
  6
Continuous
100
AcDbLine
 10
-294.789633
 20
-184.107518
 30
0.0
 11
-294.789633
 21
-182.976147
 31
0.0
  0
ELLIPSE
  5
1D8
100
AcDbEntity
  8
0
370
    -3
390
0
  6
Continuous
100
AcDbEllipse
 10
-288.539633
 20
-182.158017
 30
0.0
 11
5.25
 21
0.0
 31
0.0
210
0.0
220
0.0
230
1.0
 40
0.862941
 41
0.0
 42
6.2831853071795862
  0
ELLIPSE
  5
1D9
100
AcDbEntity
  8
0
370
    -3
390
0
  6
Continuous
100
AcDbEllipse
 10
-288.539633
 20
-182.976147
 30
0.0
 11
6.25
 21
0.0
 31
0.0
210
0.0
220
0.0
230
1.0
 40
0.707107
 41
2.4008084267828176
 42
0.7407842268070249
  0
LINE
  5
1DA
100
AcDbEntity
  8
0
370
    -3
390
0
  6
Continuous
100
AcDbLine
 10
-288.539633
 20
-180.21843
 30
0.0
 11
-285.539633
 21
-182.569706
 31
0.0
  0
LINE
  5
1DB
100
AcDbEntity
  8
0
370
    -3
390
0
  6
Continuous
100
AcDbLine
 10
-285.632459
 20
-178.385588
 30
0.0
 11
-288.539633
 21
-180.21843
 31
0.0
  0
LINE
  5
1DC
100
AcDbEntity
  8
0
370
    -3
390
0
  6
Continuous
100
AcDbLine
 10
-288.539633
 20
-180.21843
 30
0.0
 11
-291.539633
 21
-182.569706
 31
0.0
  0
LINE
  5
1DD
100
AcDbEntity
  8
0
370
    -3
390
0
  6
Continuous
100
AcDbLine
 10
-291.446806
 20
-178.385588
 30
0.0
 11
-288.539633
 21
-180.21843
 31
0.0
  0
LINE
  5
1DE
100
AcDbEntity
  8
0
370
    -3
390
0
  6
Continuous
100
AcDbLine
 10
-352.023174
 20
-412.754646
 30
0.0
 11
-360.439633
 21
-407.895401
 31
0.0
  0
ARC
  5
1DF
100
AcDbEntity
  8
0
370
    -3
390
0
  6
Continuous
100
AcDbCircle
 10
-301.423174
 20
-325.112875
 30
0.0
 40
101.2
100
AcDbArc
 50
240.0
 51
270.0
  0
ARC
  5
1E0
100
AcDbEntity
  8
0
370
    -3
390
0
  6
Continuous
100
AcDbCircle
 10
-357.339633
 20
-402.526044
 30
0.0
 40
6.2
100
AcDbArc
 50
180.0
 51
240.0
  0
LINE
  5
1E1
100
AcDbEntity
  8
0
370
    -3
390
0
  6
Continuous
100
AcDbLine
 10
-281.539633
 20
-392.373322
 30
0.0
 11
-281.539633
 21
-394.014678
 31
0.0
  0
LINE
  5
1E2
100
AcDbEntity
  8
0
370
    -3
390
0
  6
Continuous
100
AcDbLine
 10
-295.539633
 20
-392.373322
 30
0.0
 11
-295.539633
 21
-394.014678
 31
0.0
  0
ELLIPSE
  5
1E3
100
AcDbEntity
  8
0
370
    -3
390
0
  6
Continuous
100
AcDbEllipse
 10
-288.539633
 20
-392.373322
 30
0.0
 11
7.0
 21
0.0
 31
0.0
210
0.0
220
0.0
230
1.0
 40
0.707107
 41
0.0
 42
3.1415926535897931
  0
ELLIPSE
  5
1E4
100
AcDbEntity
  8
0
370
    -3
390
0
  6
Continuous
100
AcDbEllipse
 10
-288.539633
 20
-394.014678
 30
0.0
 11
7.0
 21
0.0
 31
0.0
210
0.0
220
0.0
230
1.0
 40
0.692313
 41
0.0
 42
3.1415926535897931
  0
ELLIPSE
  5
1E5
100
AcDbEntity
  8
0
370
    -3
390
0
  6
Continuous
100
AcDbEllipse
 10
-288.539633
 20
-394.014678
 30
0.0
 11
7.0
 21
0.0
 31
0.0
210
0.0
220
0.0
230
1.0
 40
0.692313
 41
5.7367456907812269
 42
0.0
  0
ELLIPSE
  5
1E6
100
AcDbEntity
  8
0
370
    -3
390
0
  6
Continuous
100
AcDbEllipse
 10
-288.539633
 20
-394.014678
 30
0.0
 11
7.0
 21
0.0
 31
0.0
210
0.0
220
0.0
230
1.0
 40
0.692313
 41
3.1415926535897931
 42
3.6880322699881529
  0
ELLIPSE
  5
1E7
100
AcDbEntity
  8
0
370
    -3
390
0
  6
Continuous
100
AcDbEllipse
 10
-288.539633
 20
-394.118232
 30
0.0
 11
6.25
 21
0.0
 31
0.0
210
0.0
220
0.0
230
1.0
 40
0.707107
 41
0.0
 42
3.1415926535897931
  0
LINE
  5
1E8
100
AcDbEntity
  8
0
370
    -3
390
0
  6
Continuous
100
AcDbLine
 10
-282.289633
 20
-394.118232
 30
0.0
 11
-282.289633
 21
-395.249603
 31
0.0
  0
LINE
  5
1E9
100
AcDbEntity
  8
0
370
    -3
390
0
  6
Continuous
100
AcDbLine
 10
-294.789633
 20
-394.118232
 30
0.0
 11
-294.789633
 21
-395.249603
 31
0.0
  0
ELLIPSE
  5
1EA
100
AcDbEntity
  8
0
370
    -3
390
0
  6
Continuous
100
AcDbEllipse
 10
-288.539633
 20
-396.067733
 30
0.0
 11
5.25
 21
0.0
 31
0.0
210
0.0
220
0.0
230
1.0
 40
0.862941
 41
0.0
 42
6.2831853071795862
  0
ELLIPSE
  5
1EB
100
AcDbEntity
  8
0
370
    -3
390
0
  6
Continuous
100
AcDbEllipse
 10
-288.539633
 20
-395.249603
 30
0.0
 11
6.25
 21
0.0
 31
0.0
210
0.0
220
0.0
230
1.0
 40
0.707107
 41
5.5424010803725237
 42
3.8823768803968073
  0
LINE
  5
1EC
100
AcDbEntity
  8
0
370
    -3
390
0
  6
Continuous
100
AcDbLine
 10
-288.539633
 20
-398.00732
 30
0.0
 11
-285.539633
 21
-395.656044
 31
0.0
  0
LINE
  5
1ED
100
AcDbEntity
  8
0
370
    -3
390
0
  6
Continuous
100
AcDbLine
 10
-285.632459
 20
-399.840162
 30
0.0
 11
-288.539633
 21
-398.00732
 31
0.0
  0
LINE
  5
1EE
100
AcDbEntity
  8
0
370
    -3
390
0
  6
Continuous
100
AcDbLine
 10
-288.539633
 20
-398.00732
 30
0.0
 11
-291.539633
 21
-395.656044
 31
0.0
  0
LINE
  5
1EF
100
AcDbEntity
  8
0
370
    -3
390
0
  6
Continuous
100
AcDbLine
 10
-291.446806
 20
-399.840162
 30
0.0
 11
-288.539633
 21
-398.00732
 31
0.0
  0
LINE
  5
1F0
100
AcDbEntity
  8
0
370
    -3
390
0
  6
Continuous
100
AcDbLine
 10
-301.744714
 20
-426.312875
 30
0.0
 11
-246.539633
 21
-426.312875
 31
0.0
  0
LINE
  5
1F1
100
AcDbEntity
  8
0
370
    -3
390
0
  6
Continuous
100
AcDbLine
 10
-352.023174
 20
-165.471104
 30
0.0
 11
-360.439633
 21
-170.330348
 31
0.0
  0
ARC
  5
1F2
100
AcDbEntity
  8
0
370
    -3
390
0
  6
Continuous
100
AcDbCircle
 10
-301.423174
 20
-253.112875
 30
0.0
 40
101.2
100
AcDbArc
 50
90.0
 51
120.0
  0
ARC
  5
1F3
100
AcDbEntity
  8
0
370
    -3
390
0
  6
Continuous
100
AcDbCircle
 10
-357.339633
 20
-175.699706
 30
0.0
 40
6.2
100
AcDbArc
 50
120.0
 51
180.0
  0
LINE
  5
1F4
100
AcDbEntity
  8
0
370
    -3
390
0
  6
Continuous
100
AcDbLine
 10
-301.744714
 20
-151.912875
 30
0.0
 11
-246.539633
 21
-151.912875
 31
0.0
  0
LINE
  5
1F5
100
AcDbEntity
  8
0
370
    -3
390
0
  6
Continuous
100
AcDbLine
 10
-363.539633
 20
-289.112875
 30
0.0
 11
-363.539633
 21
-402.526044
 31
0.0
  0
LINE
  5
1F6
100
AcDbEntity
  8
0
370
    -3
390
0
  6
Continuous
100
AcDbLine
 10
-363.539633
 20
-289.112875
 30
0.0
 11
-363.539633
 21
-175.699706
 31
0.0
  0
LINE
  5
1F7
100
AcDbEntity
  8
0
370
    -3
390
0
  6
Continuous
100
AcDbLine
 10
-246.539633
 20
-249.270948
 30
0.0
 11
-246.539633
 21
-151.912875
 31
0.0
  0
LINE
  5
1F8
100
AcDbEntity
  8
0
370
    -3
390
0
  6
Continuous
100
AcDbLine
 10
-246.539633
 20
-354.312166
 30
0.0
 11
-246.539633
 21
-426.312875
 31
0.0
  0
ARC
  5
1F9
100
AcDbEntity
  8
0
370
    -3
390
0
  6
DASHED
100
AcDbCircle
 10
477.435486
 20
-250.497608
 30
0.0
 40
1.0
100
AcDbArc
 50
284.484557
 51
335.0
  0
LINE
  5
1FA
100
AcDbEntity
  8
0
370
    -3
390
0
  6
DASHED
100
AcDbLine
 10
482.754229
 20
-250.449293
 30
0.0
 11
438.819279
 21
-344.668097
 31
0.0
  0
LINE
  5
1FB
100
AcDbEntity
  8
0
370
    -3
390
0
  6
DASHED
100
AcDbLine
 10
478.760856
 20
-250.021544
 30
0.0
 11
438.819279
 21
-335.676531
 31
0.0
  0
LINE
  5
1FC
100
AcDbEntity
  8
0
370
    -3
390
0
  6
DASHED
100
AcDbLine
 10
481.819279
 20
-255.989952
 30
0.0
 11
481.819279
 21
-336.312875
 31
0.0
  0
LINE
  5
1FD
100
AcDbEntity
  8
0
370
    -3
390
0
  6
DASHED
100
AcDbLine
 10
480.48846
 20
-249.392748
 30
0.0
 11
482.754229
 21
-250.449293
 31
0.0
  0
ARC
  5
1FE
100
AcDbEntity
  8
0
370
    -3
390
0
  6
DASHED
100
AcDbCircle
 10
479.939056
 20
-250.570948
 30
0.0
 40
1.3
100
AcDbArc
 50
65.0
 51
155.0
  0
LINE
  5
1FF
100
AcDbEntity
  8
0
370
    -3
390
0
  6
DASHED
100
AcDbLine
 10
481.802948
 20
-252.872364
 30
0.0
 11
481.616736
 21
-252.888655
 31
0.0
  0
LINE
  5
200
100
AcDbEntity
  8
0
370
    -3
390
0
  6
DASHED
100
AcDbLine
 10
481.77473
 20
-252.549835
 30
0.0
 11
481.802948
 21
-252.872364
 31
0.0
  0
ARC
  5
201
100
AcDbEntity
  8
0
370
    -3
390
0
  6
DASHED
100
AcDbCircle
 10
479.019279
 20
-255.989952
 30
0.0
 40
2.8
100
AcDbArc
 50
0.0
 51
43.120625
  0
ARC
  5
202
100
AcDbEntity
  8
0
370
    -3
390
0
  6
DASHED
100
AcDbCircle
 10
552.921414
 20
-542.704922
 30
0.0
 40
300.8
100
AcDbArc
 50
104.484557
 51
112.29212
  0
ARC
  5
203
100
AcDbEntity
  8
0
370
    -3
390
0
  6
DASHED
100
AcDbCircle
 10
552.921414
 20
-542.704922
 30
0.0
 40
300.8
100
AcDbArc
 50
112.29212
 51
113.260322
  0
ARC
  5
204
100
AcDbEntity
  8
0
370
    -3
390
0
  6
DASHED
100
AcDbCircle
 10
436.028241
 20
-270.763778
 30
0.0
 40
4.8
100
AcDbArc
 50
113.260322
 51
178.668513
  0
ARC
  5
205
100
AcDbEntity
  8
0
370
    -3
390
0
  6
DASHED
100
AcDbCircle
 10
1031.867315
 20
-284.612875
 30
0.0
 40
600.8
100
AcDbArc
 50
178.668513
 51
185.829691
  0
LINE
  5
206
100
AcDbEntity
  8
0
370
    -3
390
0
  6
DASHED
100
AcDbLine
 10
438.819279
 20
-351.608519
 30
0.0
 11
439.688348
 21
-351.995454
 31
0.0
  0
LINE
  5
207
100
AcDbEntity
  8
0
370
    -3
390
0
  6
DASHED
100
AcDbLine
 10
438.819279
 20
-351.225397
 30
0.0
 11
440.150447
 21
-351.818071
 31
0.0
  0
LINE
  5
208
100
AcDbEntity
  8
0
370
    -3
390
0
  6
DASHED
100
AcDbLine
 10
438.819279
 20
-347.613097
 30
0.0
 11
441.492678
 21
-348.803371
 31
0.0
  0
LINE
  5
209
100
AcDbEntity
  8
0
370
    -3
390
0
  6
DASHED
100
AcDbLine
 10
438.819279
 20
-347.229974
 30
0.0
 11
441.315295
 21
-348.341272
 31
0.0
  0
LINE
  5
20A
100
AcDbEntity
  8
0
370
    -3
390
0
  6
DASHED
100
AcDbLine
 10
436.313556
 20
-350.109777
 30
0.0
 11
438.819279
 21
-351.225397
 31
0.0
  0
LINE
  5
20B
100
AcDbEntity
  8
0
370
    -3
390
0
  6
DASHED
100
AcDbLine
 10
439.688348
 20
-351.995454
 30
0.0
 11
440.150447
 21
-351.818071
 31
0.0
  0
LINE
  5
20C
100
AcDbEntity
  8
0
370
    -3
390
0
  6
DASHED
100
AcDbLine
 10
436.171198
 20
-350.429518
 30
0.0
 11
438.819279
 21
-351.608519
 31
0.0
  0
LINE
  5
20D
100
AcDbEntity
  8
0
370
    -3
390
0
  6
DASHED
100
AcDbLine
 10
437.655787
 20
-347.095077
 30
0.0
 11
438.819279
 21
-347.613097
 31
0.0
  0
LINE
  5
20E
100
AcDbEntity
  8
0
370
    -3
390
0
  6
DASHED
100
AcDbLine
 10
441.315295
 20
-348.341272
 30
0.0
 11
441.492678
 21
-348.803371
 31
0.0
  0
LINE
  5
20F
100
AcDbEntity
  8
0
370
    -3
390
0
  6
DASHED
100
AcDbLine
 10
441.492678
 20
-348.803371
 30
0.0
 11
440.150447
 21
-351.818071
 31
0.0
  0
LINE
  5
210
100
AcDbEntity
  8
0
370
    -3
390
0
  6
DASHED
100
AcDbLine
 10
437.798145
 20
-346.775336
 30
0.0
 11
438.819279
 21
-347.229974
 31
0.0
  0
LINE
  5
211
100
AcDbEntity
  8
0
370
    -3
390
0
  6
DASHED
100
AcDbLine
 10
438.819279
 20
-344.668097
 30
0.0
 11
434.322176
 21
-354.312166
 31
0.0
  0
LINE
  5
212
100
AcDbEntity
  8
0
370
    -3
390
0
  6
DASHED
100
AcDbLine
 10
438.819279
 20
-335.676531
 30
0.0
 11
431.427611
 21
-351.528016
 31
0.0
  0
ARC
  5
213
100
AcDbEntity
  8
0
370
    -3
390
0
  6
DASHED
100
AcDbCircle
 10
433.583164
 20
-344.588846
 30
0.0
 40
1.299999
100
AcDbArc
 50
73.864553
 51
138.398452
  0
ARC
  5
214
100
AcDbEntity
  8
0
370
    -3
390
0
  6
DASHED
100
AcDbCircle
 10
431.723643
 20
-348.576601
 30
0.0
 40
1.299999
100
AcDbArc
 50
171.601531
 51
245.000001
  0
LINE
  5
215
100
AcDbEntity
  8
0
370
    -3
390
0
  6
DASHED
100
AcDbLine
 10
432.061538
 20
-350.168555
 30
0.0
 11
431.17424
 21
-349.754801
 31
0.0
  0
POINT
  5
216
100
AcDbEntity
  8
0
370
    -3
390
0
  6
Continuous
100
AcDbPoint
 10
433.540702
 20
-346.996477
 30
0.0
  0
ARC
  5
217
100
AcDbEntity
  8
0
370
    -3
390
0
  6
DASHED
100
AcDbCircle
 10
439.341071
 20
-349.701234
 30
0.0
 40
9.0
100
AcDbArc
 50
138.398452
 51
171.601531
  0
LINE
  5
218
100
AcDbEntity
  8
0
370
    -3
390
0
  6
CENTER
100
AcDbLine
 10
441.210932
 20
-350.573164
 30
0.0
 11
430.301025
 21
-345.485791
 31
0.0
  0
LINE
  5
219
100
AcDbEntity
  8
0
370
    -3
390
0
  6
DASHED
100
AcDbLine
 10
432.056407
 20
-353.25562
 30
0.0
 11
434.322176
 21
-354.312166
 31
0.0
  0
ARC
  5
21A
100
AcDbEntity
  8
0
370
    -3
390
0
  6
DASHED
100
AcDbCircle
 10
432.605811
 20
-352.07742
 30
0.0
 40
1.3
100
AcDbArc
 50
155.0
 51
245.0
  0
LINE
  5
21B
100
AcDbEntity
  8
0
370
    -3
390
0
  6
DASHED
100
AcDbLine
 10
439.544492
 20
-343.112875
 30
0.0
 11
475.019279
 21
-343.112875
 31
0.0
  0
LINE
  5
21C
100
AcDbEntity
  8
0
370
    -3
390
0
  6
CENTER
100
AcDbLine
 10
455.819279
 20
-334.394967
 30
0.0
 11
455.819279
 21
-347.430352
 31
0.0
  0
ARC
  5
21D
100
AcDbEntity
  8
0
370
    -3
390
0
  6
DASHED
100
AcDbCircle
 10
475.019279
 20
-336.312875
 30
0.0
 40
6.8
100
AcDbArc
 50
270.0
 51
0.0
  0
LINE
  5
21E
100
AcDbEntity
  8
0
370
    -3
390
0
  6
CENTER
100
AcDbLine
 10
486.97664
 20
-289.112875
 30
0.0
 11
425.108448
 21
-289.112875
 31
0.0
  0
ARC
  5
21F
100
AcDbEntity
  8
0
370
    -3
390
0
  6
Continuous
100
AcDbCircle
 10
-268.539633
 20
-272.384985
 30
0.0
 40
4.8
100
AcDbArc
 50
90.0
 51
180.0
  0
LINE
  5
220
100
AcDbEntity
  8
0
370
    -3
390
0
  6
Continuous
100
AcDbLine
 10
-268.539633
 20
-267.584985
 30
0.0
 11
-184.539633
 21
-267.584985
 31
0.0
  0
LINE
  5
221
100
AcDbEntity
  8
0
370
    -3
390
0
  6
Continuous
100
AcDbLine
 10
-268.539633
 20
-251.348252
 30
0.0
 11
-184.539633
 21
-251.348252
 31
0.0
  0
ARC
  5
222
100
AcDbEntity
  8
0
370
    -3
390
0
  6
Continuous
100
AcDbCircle
 10
-268.539633
 20
-256.148252
 30
0.0
 40
4.8
100
AcDbArc
 50
90.0
 51
180.0
  0
LINE
  5
223
100
AcDbEntity
  8
0
370
    -3
390
0
  6
Continuous
100
AcDbLine
 10
-273.339633
 20
-256.148252
 30
0.0
 11
-273.339633
 21
-340.837232
 31
0.0
  0
ARC
  5
224
100
AcDbEntity
  8
0
370
    -3
390
0
  6
Continuous
100
AcDbCircle
 10
-266.739633
 20
-258.070948
 30
0.0
 40
8.8
100
AcDbArc
 50
90.0
 51
180.0
  0
LINE
  5
225
100
AcDbEntity
  8
0
370
    -3
390
0
  6
Continuous
100
AcDbLine
 10
-266.739633
 20
-249.270948
 30
0.0
 11
-186.339633
 21
-249.270948
 31
0.0
  0
LINE
  5
226
100
AcDbEntity
  8
0
370
    -3
390
0
  6
Continuous
100
AcDbLine
 10
-275.539633
 20
-258.070948
 30
0.0
 11
-275.539633
 21
-345.512166
 31
0.0
  0
POINT
  5
227
100
AcDbEntity
  8
0
370
    -3
390
0
  6
CENTER
100
AcDbPoint
 10
-212.920826
 20
-352.358569
 30
0.0
  0
POINT
  5
228
100
AcDbEntity
  8
0
370
    -3
390
0
  6
CENTER
100
AcDbPoint
 10
-239.920826
 20
-352.358569
 30
0.0
  0
LINE
  5
229
100
AcDbEntity
  8
0
370
    -3
390
0
  6
CENTER
100
AcDbLine
 10
-226.539633
 20
-242.461143
 30
0.0
 11
-226.539633
 21
-363.101224
 31
0.0
  0
LINE
  5
22A
100
AcDbEntity
  8
0
370
    -3
390
0
  6
Continuous
100
AcDbLine
 10
-226.539633
 20
-345.89767
 30
0.0
 11
-228.539633
 21
-347.805389
 31
0.0
  0
LINE
  5
22B
100
AcDbEntity
  8
0
370
    -3
390
0
  6
Continuous
100
AcDbLine
 10
-224.539633
 20
-344.180158
 30
0.0
 11
-226.539633
 21
-345.89767
 31
0.0
  0
LINE
  5
22C
100
AcDbEntity
  8
0
370
    -3
390
0
  6
Continuous
100
AcDbLine
 10
-226.539633
 20
-345.89767
 30
0.0
 11
-228.539633
 21
-344.180158
 31
0.0
  0
LINE
  5
22D
100
AcDbEntity
  8
0
370
    -3
390
0
  6
Continuous
100
AcDbLine
 10
-224.539633
 20
-347.805389
 30
0.0
 11
-226.539633
 21
-345.89767
 31
0.0
  0
ELLIPSE
  5
22E
100
AcDbEntity
  8
0
370
    -3
390
0
  6
Continuous
100
AcDbEllipse
 10
-226.539633
 20
-346.7287
 30
0.0
 11
3.5
 21
0.0
 31
0.0
210
0.0
220
0.0
230
1.0
 40
0.982815
 41
0.0
 42
6.2831853071795862
  0
ARC
  5
22F
100
AcDbEntity
  8
0
370
    -3
390
0
  6
Continuous
100
AcDbCircle
 10
-237.857419
 20
-341.637232
 30
0.0
 40
4.0
100
AcDbArc
 50
270.0
 51
339.413394
  0
ELLIPSE
  5
230
100
AcDbEntity
  8
0
370
    -3
390
0
  6
Continuous
100
AcDbEllipse
 10
-226.539633
 20
-345.380232
 30
0.0
 11
8.0
 21
0.0
 31
0.0
210
0.0
220
0.0
230
1.0
 40
0.906308
 41
0.3281121824263434
 42
2.8134804711640689
  0
LINE
  5
231
100
AcDbEntity
  8
0
370
    -3
390
0
  6
Continuous
100
AcDbLine
 10
-237.857419
 20
-345.637232
 30
0.0
 11
-268.539633
 21
-345.637232
 31
0.0
  0
ARC
  5
232
100
AcDbEntity
  8
0
370
    -3
390
0
  6
Continuous
100
AcDbCircle
 10
-237.093286
 20
-341.637232
 30
0.0
 40
4.0
100
AcDbArc
 50
270.0
 51
330.013396
  0
ELLIPSE
  5
233
100
AcDbEntity
  8
0
370
    -3
390
0
  6
Continuous
100
AcDbEllipse
 10
-226.539633
 20
-346.996477
 30
0.0
 11
8.0
 21
0.0
 31
0.0
210
0.0
220
0.0
230
1.0
 40
0.906308
 41
0.4818578688787102
 42
2.6597347847155328
  0
ARC
  5
234
100
AcDbEntity
  8
0
370
    -3
390
0
  6
Continuous
100
AcDbCircle
 10
-215.98598
 20
-341.637232
 30
0.0
 40
4.0
100
AcDbArc
 50
209.986604
 51
270.0
  0
LINE
  5
235
100
AcDbEntity
  8
0
370
    -3
390
0
  6
Continuous
100
AcDbLine
 10
-184.539633
 20
-345.637232
 30
0.0
 11
-215.98598
 21
-345.637232
 31
0.0
  0
ARC
  5
236
100
AcDbEntity
  8
0
370
    -3
390
0
  6
Continuous
100
AcDbCircle
 10
-215.221847
 20
-341.637232
 30
0.0
 40
4.0
100
AcDbArc
 50
200.586606
 51
270.0
  0
ARC
  5
237
100
AcDbEntity
  8
0
370
    -3
390
0
  6
Continuous
100
AcDbCircle
 10
-268.539633
 20
-340.837232
 30
0.0
 40
4.8
100
AcDbArc
 50
180.0
 51
270.0
  0
LINE
  5
238
100
AcDbEntity
  8
0
370
    -3
390
0
  6
Continuous
100
AcDbLine
 10
-186.339633
 20
-352.706216
 30
0.0
 11
-266.739633
 21
-352.706216
 31
0.0
  0
ARC
  5
239
100
AcDbEntity
  8
0
370
    -3
390
0
  6
Continuous
100
AcDbCircle
 10
-266.739633
 20
-343.906216
 30
0.0
 40
8.8
100
AcDbArc
 50
180.0
 51
270.0
  0
ARC
  5
23A
100
AcDbEntity
  8
0
370
    -3
390
0
  6
Continuous
100
AcDbCircle
 10
-266.739633
 20
-345.512166
 30
0.0
 40
8.8
100
AcDbArc
 50
180.0
 51
270.0
  0
LINE
  5
23B
100
AcDbEntity
  8
0
370
    -3
390
0
  6
Continuous
100
AcDbLine
 10
-266.739633
 20
-354.312166
 30
0.0
 11
-186.339633
 21
-354.312166
 31
0.0
  0
ARC
  5
23C
100
AcDbEntity
  8
0
370
    -3
390
0
  6
Continuous
100
AcDbCircle
 10
-184.539633
 20
-340.837232
 30
0.0
 40
4.8
100
AcDbArc
 50
270.0
 51
0.0
  0
ARC
  5
23D
100
AcDbEntity
  8
0
370
    -3
390
0
  6
Continuous
100
AcDbCircle
 10
-186.339633
 20
-343.906216
 30
0.0
 40
8.8
100
AcDbArc
 50
270.0
 51
0.0
  0
ARC
  5
23E
100
AcDbEntity
  8
0
370
    -3
390
0
  6
Continuous
100
AcDbCircle
 10
-186.339633
 20
-345.512166
 30
0.0
 40
8.8
100
AcDbArc
 50
270.0
 51
0.0
  0
LINE
  5
23F
100
AcDbEntity
  8
0
370
    -3
390
0
  6
Continuous
100
AcDbLine
 10
-179.739633
 20
-256.148252
 30
0.0
 11
-179.739633
 21
-340.837232
 31
0.0
  0
LINE
  5
240
100
AcDbEntity
  8
0
370
    -3
390
0
  6
Continuous
100
AcDbLine
 10
-177.539633
 20
-258.070948
 30
0.0
 11
-177.539633
 21
-345.512166
 31
0.0
  0
ARC
  5
241
100
AcDbEntity
  8
0
370
    -3
390
0
  6
Continuous
100
AcDbCircle
 10
-184.539633
 20
-272.384985
 30
0.0
 40
4.8
100
AcDbArc
 50
0.0
 51
90.0
  0
ARC
  5
242
100
AcDbEntity
  8
0
370
    -3
390
0
  6
Continuous
100
AcDbCircle
 10
-184.539633
 20
-256.148252
 30
0.0
 40
4.8
100
AcDbArc
 50
0.0
 51
90.0
  0
ARC
  5
243
100
AcDbEntity
  8
0
370
    -3
390
0
  6
Continuous
100
AcDbCircle
 10
-186.339633
 20
-258.070948
 30
0.0
 40
8.8
100
AcDbArc
 50
0.0
 51
90.0
  0
LINE
  5
244
100
AcDbEntity
  8
0
370
    -3
390
0
  6
CENTER
100
AcDbLine
 10
202.913363
 20
66.43276
 30
0.0
 11
253.394031
 21
66.43276
 31
0.0
  0
LINE
  5
245
100
AcDbEntity
  8
0
370
    -3
390
0
  6
CENTER
100
AcDbLine
 10
204.478655
 20
455.34149
 30
0.0
 11
246.74154
 21
455.34149
 31
0.0
  0
ARC
  5
246
100
AcDbEntity
  8
0
370
    -3
390
0
  6
Continuous
100
AcDbCircle
 10
-664.384445
 20
-113.092588
 30
0.0
 40
10.0
100
AcDbArc
 50
180.0
 51
270.0
  0
LINE
  5
247
100
AcDbEntity
  8
0
370
    -3
390
0
  6
Continuous
100
AcDbLine
 10
-643.384445
 20
-123.092588
 30
0.0
 11
-664.384445
 21
-123.092588
 31
0.0
  0
ARC
  5
248
100
AcDbEntity
  8
0
370
    -3
390
0
  6
Continuous
100
AcDbCircle
 10
-643.384445
 20
-113.092588
 30
0.0
 40
10.0
100
AcDbArc
 50
270.0
 51
0.0
  0
LINE
  5
249
100
AcDbEntity
  8
0
370
    -3
390
0
  6
CENTER
100
AcDbLine
 10
-414.580318
 20
-289.112875
 30
0.0
 11
-902.894569
 21
-289.112875
 31
0.0
  0
LINE
  5
24A
100
AcDbEntity
  8
0
370
    -3
390
0
  6
Continuous
100
AcDbLine
 10
-485.884445
 20
-343.112875
 30
0.0
 11
-485.884445
 21
-400.112875
 31
0.0
  0
LINE
  5
24B
100
AcDbEntity
  8
0
370
    -3
390
0
  6
Continuous
100
AcDbLine
 10
-655.384445
 20
-180.612875
 30
0.0
 11
-655.384445
 21
-272.612875
 31
0.0
  0
ARC
  5
24C
100
AcDbEntity
  8
0
370
    -3
390
0
  6
Continuous
100
AcDbCircle
 10
-653.884445
 20
-289.112875
 30
0.0
 40
93.0
100
AcDbArc
 50
93.882372
 51
146.117628
  0
LINE
  5
24D
100
AcDbEntity
  8
0
370
    -3
390
0
  6
Continuous
100
AcDbLine
 10
-793.884445
 20
-414.445934
 30
0.0
 11
-793.884445
 21
-444.112875
 31
0.0
  0
LINE
  5
24E
100
AcDbEntity
  8
0
370
    -3
390
0
  6
Continuous
100
AcDbLine
 10
-513.884445
 20
-414.445934
 30
0.0
 11
-513.884445
 21
-444.112875
 31
0.0
  0
ARC
  5
24F
100
AcDbEntity
  8
0
370
    -3
390
0
  6
Continuous
100
AcDbCircle
 10
-536.853637
 20
-125.517095
 30
0.0
 40
5.0
100
AcDbArc
 50
135.0
 51
232.120301
  0
ARC
  5
250
100
AcDbEntity
  8
0
370
    -3
390
0
  6
Continuous
100
AcDbCircle
 10
-552.887172
 20
-114.680573
 30
0.0
 40
5.0
100
AcDbArc
 50
239.772847
 51
315.0
  0
LINE
  5
251
100
AcDbEntity
  8
0
370
    -3
390
0
  6
Continuous
100
AcDbLine
 10
-487.085463
 20
-68.677853
 30
0.0
 11
-540.389171
 21
-121.981561
 31
0.0
  0
LINE
  5
252
100
AcDbEntity
  8
0
370
    -3
390
0
  6
Continuous
100
AcDbLine
 10
-495.142031
 20
-64.0065
 30
0.0
 11
-549.351638
 21
-118.216107
 31
0.0
  0
ARC
  5
253
100
AcDbEntity
  8
0
370
    -3
390
0
  6
Continuous
100
AcDbCircle
 10
-483.549929
 20
-72.213387
 30
0.0
 40
5.0
100
AcDbArc
 50
49.686078
 51
135.0
  0
ARC
  5
254
100
AcDbEntity
  8
0
370
    -3
390
0
  6
Continuous
100
AcDbCircle
 10
-498.677565
 20
-60.470966
 30
0.0
 40
5.0
100
AcDbArc
 50
315.0
 51
54.675041
  0
ARC
  5
255
100
AcDbEntity
  8
0
370
    -3
390
0
  6
Continuous
100
AcDbCircle
 10
-746.547967
 20
-451.112875
 30
0.0
 40
5.0
100
AcDbArc
 50
21.618272
 51
90.0
  0
ARC
  5
256
100
AcDbEntity
  8
0
370
    -3
390
0
  6
Continuous
100
AcDbCircle
 10
-791.884445
 20
-444.112875
 30
0.0
 40
2.0
100
AcDbArc
 50
180.0
 51
270.0
  0
LINE
  5
257
100
AcDbEntity
  8
0
370
    -3
390
0
  6
Continuous
100
AcDbLine
 10
-746.547967
 20
-446.112875
 30
0.0
 11
-791.884445
 21
-446.112875
 31
0.0
  0
ARC
  5
258
100
AcDbEntity
  8
0
370
    -3
390
0
  6
Continuous
100
AcDbCircle
 10
-561.220924
 20
-451.112875
 30
0.0
 40
5.0
100
AcDbArc
 50
90.0
 51
158.381728
  0
ARC
  5
259
100
AcDbEntity
  8
0
370
    -3
390
0
  6
Continuous
100
AcDbCircle
 10
-656.384445
 20
-65.34501
 30
0.0
 40
2.0
100
AcDbArc
 50
90.0
 51
141.97048
  0
ARC
  5
25A
100
AcDbEntity
  8
0
370
    -3
390
0
  6
Continuous
100
AcDbCircle
 10
-651.384445
 20
-65.34501
 30
0.0
 40
2.0
100
AcDbArc
 50
38.02952
 51
90.0
  0
LINE
  5
25B
100
AcDbEntity
  8
0
370
    -3
390
0
  6
Continuous
100
AcDbLine
 10
-656.384445
 20
-63.34501
 30
0.0
 11
-651.384445
 21
-63.34501
 31
0.0
  0
ARC
  5
25C
100
AcDbEntity
  8
0
370
    -3
390
0
  6
Continuous
100
AcDbCircle
 10
-824.218962
 20
-72.213387
 30
0.0
 40
5.0
100
AcDbArc
 50
45.0
 51
130.313922
  0
ARC
  5
25D
100
AcDbEntity
  8
0
370
    -3
390
0
  6
Continuous
100
AcDbCircle
 10
-809.091325
 20
-60.470966
 30
0.0
 40
5.0
100
AcDbArc
 50
125.324959
 51
225.0
  0
ARC
  5
25E
100
AcDbEntity
  8
0
370
    -3
390
0
  6
Continuous
100
AcDbCircle
 10
-770.915254
 20
-125.517095
 30
0.0
 40
5.0
100
AcDbArc
 50
307.879699
 51
45.0
  0
ARC
  5
25F
100
AcDbEntity
  8
0
370
    -3
390
0
  6
Continuous
100
AcDbCircle
 10
-754.881719
 20
-114.680573
 30
0.0
 40
5.0
100
AcDbArc
 50
225.0
 51
300.227153
  0
LINE
  5
260
100
AcDbEntity
  8
0
370
    -3
390
0
  6
Continuous
100
AcDbLine
 10
-820.683428
 20
-68.677853
 30
0.0
 11
-767.37972
 21
-121.981561
 31
0.0
  0
LINE
  5
261
100
AcDbEntity
  8
0
370
    -3
390
0
  6
Continuous
100
AcDbLine
 10
-812.626859
 20
-64.0065
 30
0.0
 11
-758.417253
 21
-118.216107
 31
0.0
  0
ARC
  5
262
100
AcDbEntity
  8
0
370
    -3
390
0
  6
Continuous
100
AcDbCircle
 10
-663.384445
 20
-19.112875
 30
0.0
 40
5.0
100
AcDbArc
 50
0.0
 51
90.0
  0
ARC
  5
263
100
AcDbEntity
  8
0
370
    -3
390
0
  6
Continuous
100
AcDbCircle
 10
-644.384445
 20
-19.112875
 30
0.0
 40
5.0
100
AcDbArc
 50
90.0
 51
180.0
  0
LINE
  5
264
100
AcDbEntity
  8
0
370
    -3
390
0
  6
Continuous
100
AcDbLine
 10
-649.384445
 20
-19.112875
 30
0.0
 11
-649.384445
 21
-64.112875
 31
0.0
  0
LINE
  5
265
100
AcDbEntity
  8
0
370
    -3
390
0
  6
Continuous
100
AcDbLine
 10
-658.384445
 20
-19.112875
 30
0.0
 11
-658.384445
 21
-64.112875
 31
0.0
  0
ARC
  5
266
100
AcDbEntity
  8
0
370
    -3
390
0
  6
Continuous
100
AcDbCircle
 10
-515.884445
 20
-444.112875
 30
0.0
 40
2.0
100
AcDbArc
 50
270.0
 51
0.0
  0
LINE
  5
267
100
AcDbEntity
  8
0
370
    -3
390
0
  6
Continuous
100
AcDbLine
 10
-561.220924
 20
-446.112875
 30
0.0
 11
-515.884445
 21
-446.112875
 31
0.0
  0
LINE
  5
268
100
AcDbEntity
  8
0
370
    -3
390
0
  6
Continuous
100
AcDbLine
 10
-448.884445
 20
-454.112875
 30
0.0
 11
-561.563937
 21
-454.112875
 31
0.0
  0
ARC
  5
269
100
AcDbEntity
  8
0
370
    -3
390
0
  6
Continuous
100
AcDbCircle
 10
-578.884445
 20
-444.112875
 30
0.0
 40
14.0
100
AcDbArc
 50
301.002719
 51
338.381728
  0
ARC
  5
26A
100
AcDbEntity
  8
0
370
    -3
390
0
  6
Continuous
100
AcDbCircle
 10
-728.884445
 20
-444.112875
 30
0.0
 40
14.0
100
AcDbArc
 50
201.618272
 51
238.997281
  0
LINE
  5
26B
100
AcDbEntity
  8
0
370
    -3
390
0
  6
Continuous
100
AcDbLine
 10
-858.884445
 20
-454.112875
 30
0.0
 11
-746.204953
 21
-454.112875
 31
0.0
  0
ARC
  5
26C
100
AcDbEntity
  8
0
370
    -3
390
0
  6
Continuous
100
AcDbCircle
 10
-578.884445
 20
-444.112875
 30
0.0
 40
14.0
100
AcDbArc
 50
301.002719
 51
314.415309
  0
LINE
  5
26D
100
AcDbEntity
  8
0
370
    -3
390
0
  6
Continuous
100
AcDbLine
 10
-653.884445
 20
-456.112875
 30
0.0
 11
-571.673343
 21
-456.112875
 31
0.0
  0
LINE
  5
26E
100
AcDbEntity
  8
0
370
    -3
390
0
  6
Continuous
100
AcDbLine
 10
-653.884445
 20
-456.112875
 30
0.0
 11
-736.095548
 21
-456.112875
 31
0.0
  0
ARC
  5
26F
100
AcDbEntity
  8
0
370
    -3
390
0
  6
Continuous
100
AcDbCircle
 10
-728.884445
 20
-444.112875
 30
0.0
 40
14.0
100
AcDbArc
 50
225.584691
 51
238.997281
  0
CIRCLE
  5
270
100
AcDbEntity
  8
0
370
    -3
390
0
  6
Continuous
100
AcDbCircle
 10
-459.430081
 20
-34.65851
 30
0.0
 40
14.0
  0
ARC
  5
271
100
AcDbEntity
  8
0
370
    -3
390
0
  6
Continuous
100
AcDbCircle
 10
-448.884445
 20
-24.112875
 30
0.0
 40
20.0
100
AcDbArc
 50
0.0
 51
90.0
  0
LINE
  5
272
100
AcDbEntity
  8
0
370
    -3
390
0
  6
Continuous
100
AcDbLine
 10
-858.884445
 20
-4.112875
 30
0.0
 11
-448.884445
 21
-4.112875
 31
0.0
  0
CIRCLE
  5
273
100
AcDbEntity
  8
0
370
    -3
390
0
  6
Continuous
100
AcDbCircle
 10
-848.33881
 20
-34.65851
 30
0.0
 40
14.0
  0
ARC
  5
274
100
AcDbEntity
  8
0
370
    -3
390
0
  6
Continuous
100
AcDbCircle
 10
-858.884445
 20
-24.112875
 30
0.0
 40
20.0
100
AcDbArc
 50
90.0
 51
180.0
  0
LINE
  5
275
100
AcDbEntity
  8
0
370
    -3
390
0
  6
Continuous
100
AcDbLine
 10
-878.884445
 20
-24.112875
 30
0.0
 11
-878.884445
 21
-434.112875
 31
0.0
  0
ARC
  5
276
100
AcDbEntity
  8
0
370
    -3
390
0
  6
Continuous
100
AcDbCircle
 10
-858.884445
 20
-434.112875
 30
0.0
 40
20.0
100
AcDbArc
 50
180.0
 51
270.0
  0
CIRCLE
  5
277
100
AcDbEntity
  8
0
370
    -3
390
0
  6
Continuous
100
AcDbCircle
 10
-848.33881
 20
-423.56724
 30
0.0
 40
14.0
  0
LINE
  5
278
100
AcDbEntity
  8
0
370
    -3
390
0
  6
Continuous
100
AcDbLine
 10
-428.884445
 20
-24.112875
 30
0.0
 11
-428.884445
 21
-434.112875
 31
0.0
  0
CIRCLE
  5
279
100
AcDbEntity
  8
0
370
    -3
390
0
  6
Continuous
100
AcDbCircle
 10
-459.430081
 20
-423.56724
 30
0.0
 40
14.0
  0
ARC
  5
27A
100
AcDbEntity
  8
0
370
    -3
390
0
  6
Continuous
100
AcDbCircle
 10
-448.884445
 20
-434.112875
 30
0.0
 40
20.0
100
AcDbArc
 50
270.0
 51
0.0
  0
LINE
  5
27B
100
AcDbEntity
  8
0
370
    -3
390
0
  6
CENTER
100
AcDbLine
 10
-694.121988
 20
-229.112875
 30
0.0
 11
-611.607163
 21
-229.112875
 31
0.0
  0
ARC
  5
27C
100
AcDbEntity
  8
0
370
    -3
390
0
  6
Continuous
100
AcDbCircle
 10
-681.884445
 20
-239.96584
 30
0.0
 40
140.0
100
AcDbArc
 50
93.489726
 51
180.0
  0
ARC
  5
27D
100
AcDbEntity
  8
0
370
    -3
390
0
  6
Continuous
100
AcDbCircle
 10
-653.884445
 20
-699.112875
 30
0.0
 40
600.0
100
AcDbArc
 50
86.510274
 51
88.042013
  0
ARC
  5
27E
100
AcDbEntity
  8
0
370
    -3
390
0
  6
Continuous
100
AcDbCircle
 10
-625.884445
 20
-239.96584
 30
0.0
 40
140.0
100
AcDbArc
 50
0.0
 51
86.510274
  0
ARC
  5
27F
100
AcDbEntity
  8
0
370
    -3
390
0
  6
Continuous
100
AcDbCircle
 10
-499.884445
 20
-400.112875
 30
0.0
 40
14.0
100
AcDbArc
 50
270.0
 51
0.0
  0
ARC
  5
280
100
AcDbEntity
  8
0
370
    -3
390
0
  6
Continuous
100
AcDbCircle
 10
-644.384445
 20
-129.112875
 30
0.0
 40
5.0
100
AcDbArc
 50
90.0
 51
180.0
  0
ARC
  5
281
100
AcDbEntity
  8
0
370
    -3
390
0
  6
Continuous
100
AcDbCircle
 10
-663.384445
 20
-129.112875
 30
0.0
 40
5.0
100
AcDbArc
 50
0.0
 51
90.0
  0
ARC
  5
282
100
AcDbEntity
  8
0
370
    -3
390
0
  6
Continuous
100
AcDbCircle
 10
-644.384445
 20
-151.112875
 30
0.0
 40
5.0
100
AcDbArc
 50
180.0
 51
189.415294
  0
ARC
  5
283
100
AcDbEntity
  8
0
370
    -3
390
0
  6
Continuous
100
AcDbCircle
 10
-663.384445
 20
-151.112875
 30
0.0
 40
5.0
100
AcDbArc
 50
350.584706
 51
0.0
  0
ARC
  5
284
100
AcDbEntity
  8
0
370
    -3
390
0
  6
Continuous
100
AcDbCircle
 10
-663.384445
 20
-427.112875
 30
0.0
 40
5.0
100
AcDbArc
 50
0.0
 51
9.415294
  0
ARC
  5
285
100
AcDbEntity
  8
0
370
    -3
390
0
  6
Continuous
100
AcDbCircle
 10
-644.384445
 20
-427.112875
 30
0.0
 40
5.0
100
AcDbArc
 50
170.584706
 51
180.0
  0
ARC
  5
286
100
AcDbEntity
  8
0
370
    -3
390
0
  6
Continuous
100
AcDbCircle
 10
-644.384445
 20
-446.112875
 30
0.0
 40
5.0
100
AcDbArc
 50
180.0
 51
270.0
  0
ARC
  5
287
100
AcDbEntity
  8
0
370
    -3
390
0
  6
Continuous
100
AcDbCircle
 10
-663.384445
 20
-446.112875
 30
0.0
 40
5.0
100
AcDbArc
 50
270.0
 51
0.0
  0
ARC
  5
288
100
AcDbEntity
  8
0
370
    -3
390
0
  6
Continuous
100
AcDbCircle
 10
-811.884445
 20
-298.612875
 30
0.0
 40
5.0
100
AcDbArc
 50
90.0
 51
180.0
  0
ARC
  5
289
100
AcDbEntity
  8
0
370
    -3
390
0
  6
Continuous
100
AcDbCircle
 10
-811.884445
 20
-279.612875
 30
0.0
 40
5.0
100
AcDbArc
 50
180.0
 51
270.0
  0
ARC
  5
28A
100
AcDbEntity
  8
0
370
    -3
390
0
  6
Continuous
100
AcDbCircle
 10
-812.651549
 20
-199.112875
 30
0.0
 40
3.0
100
AcDbArc
 50
162.650668
 51
270.0
  0
ARC
  5
28B
100
AcDbEntity
  8
0
370
    -3
390
0
  6
Continuous
100
AcDbCircle
 10
-806.884445
 20
-215.112875
 30
0.0
 40
13.0
100
AcDbArc
 50
270.0
 51
90.0
  0
ARC
  5
28C
100
AcDbEntity
  8
0
370
    -3
390
0
  6
Continuous
100
AcDbCircle
 10
-818.598106
 20
-231.112875
 30
0.0
 40
3.0
100
AcDbArc
 50
90.0
 51
176.294955
  0
ARC
  5
28D
100
AcDbEntity
  8
0
370
    -3
390
0
  6
Continuous
100
AcDbCircle
 10
-495.117342
 20
-199.112875
 30
0.0
 40
3.0
100
AcDbArc
 50
270.0
 51
17.349332
  0
ARC
  5
28E
100
AcDbEntity
  8
0
370
    -3
390
0
  6
Continuous
100
AcDbCircle
 10
-500.884445
 20
-215.112875
 30
0.0
 40
13.0
100
AcDbArc
 50
90.0
 51
270.0
  0
ARC
  5
28F
100
AcDbEntity
  8
0
370
    -3
390
0
  6
Continuous
100
AcDbCircle
 10
-489.170785
 20
-231.112875
 30
0.0
 40
3.0
100
AcDbArc
 50
3.705045
 51
90.0
  0
ARC
  5
290
100
AcDbEntity
  8
0
370
    -3
390
0
  6
Continuous
100
AcDbCircle
 10
-671.384445
 20
-121.112875
 30
0.0
 40
3.0
100
AcDbArc
 50
180.0
 51
270.0
  0
ARC
  5
291
100
AcDbEntity
  8
0
370
    -3
390
0
  6
Continuous
100
AcDbCircle
 10
-636.384445
 20
-121.112875
 30
0.0
 40
3.0
100
AcDbArc
 50
270.0
 51
0.0
  0
ARC
  5
292
100
AcDbEntity
  8
0
370
    -3
390
0
  6
Continuous
100
AcDbCircle
 10
-530.159957
 20
-151.953358
 30
0.0
 40
5.0
100
AcDbArc
 50
315.0
 51
38.378777
  0
ARC
  5
293
100
AcDbEntity
  8
0
370
    -3
390
0
  6
Continuous
100
AcDbCircle
 10
-518.284457
 20
-166.947916
 30
0.0
 40
5.0
100
AcDbArc
 50
38.378777
 51
135.0
  0
ARC
  5
294
100
AcDbEntity
  8
0
370
    -3
390
0
  6
Continuous
100
AcDbCircle
 10
-753.829005
 20
-451.445606
 30
0.0
 40
12.0
100
AcDbArc
 50
16.381286
 51
71.91835
  0
ARC
  5
295
100
AcDbEntity
  8
0
370
    -3
390
0
  6
Continuous
100
AcDbCircle
 10
-807.884445
 20
-400.112875
 30
0.0
 40
14.0
100
AcDbArc
 50
180.0
 51
270.0
  0
ARC
  5
296
100
AcDbEntity
  8
0
370
    -3
390
0
  6
Continuous
100
AcDbCircle
 10
-796.692023
 20
-426.112875
 30
0.0
 40
12.0
100
AcDbArc
 50
46.914114
 51
90.0
  0
ARC
  5
297
100
AcDbEntity
  8
0
370
    -3
390
0
  6
Continuous
100
AcDbCircle
 10
-718.136226
 20
-342.12486
 30
0.0
 40
103.0
100
AcDbArc
 50
226.914114
 51
251.91835
  0
ARC
  5
298
100
AcDbEntity
  8
0
370
    -3
390
0
  6
Continuous
100
AcDbCircle
 10
-511.076867
 20
-426.112875
 30
0.0
 40
12.0
100
AcDbArc
 50
90.0
 51
133.085886
  0
ARC
  5
299
100
AcDbEntity
  8
0
370
    -3
390
0
  6
Continuous
100
AcDbCircle
 10
-589.632665
 20
-342.12486
 30
0.0
 40
103.0
100
AcDbArc
 50
288.08165
 51
313.085886
  0
ARC
  5
29A
100
AcDbEntity
  8
0
370
    -3
390
0
  6
Continuous
100
AcDbCircle
 10
-553.939886
 20
-451.445606
 30
0.0
 40
12.0
100
AcDbArc
 50
108.08165
 51
163.618714
  0
ARC
  5
29B
100
AcDbEntity
  8
0
370
    -3
390
0
  6
Continuous
100
AcDbCircle
 10
-537.376825
 20
-419.055524
 30
0.0
 40
5.0
100
AcDbArc
 50
304.186657
 51
45.0
  0
ARC
  5
29C
100
AcDbEntity
  8
0
370
    -3
390
0
  6
Continuous
100
AcDbCircle
 10
-522.783278
 20
-406.779013
 30
0.0
 40
5.0
100
AcDbArc
 50
225.0
 51
315.956369
  0
ARC
  5
29D
100
AcDbEntity
  8
0
370
    -3
390
0
  6
Continuous
100
AcDbCircle
 10
-784.985612
 20
-406.779013
 30
0.0
 40
5.0
100
AcDbArc
 50
224.043631
 51
315.0
  0
ARC
  5
29E
100
AcDbEntity
  8
0
370
    -3
390
0
  6
Continuous
100
AcDbCircle
 10
-770.392066
 20
-419.055524
 30
0.0
 40
5.0
100
AcDbArc
 50
135.0
 51
235.813343
  0
ARC
  5
29F
100
AcDbEntity
  8
0
370
    -3
390
0
  6
Continuous
100
AcDbCircle
 10
-777.583419
 20
-151.978872
 30
0.0
 40
5.0
100
AcDbArc
 50
137.404136
 51
225.0
  0
ARC
  5
2A0
100
AcDbEntity
  8
0
370
    -3
390
0
  6
Continuous
100
AcDbCircle
 10
-789.458478
 20
-166.973871
 30
0.0
 40
5.0
100
AcDbArc
 50
45.0
 51
145.842018
  0
LINE
  5
2A1
100
AcDbEntity
  8
0
370
    -3
390
0
  6
Continuous
100
AcDbLine
 10
-821.884445
 20
-239.96584
 30
0.0
 11
-821.884445
 21
-400.112875
 31
0.0
  0
LINE
  5
2A2
100
AcDbEntity
  8
0
370
    -3
390
0
  6
Continuous
100
AcDbLine
 10
-485.884445
 20
-239.96584
 30
0.0
 11
-485.884445
 21
-258.008917
 31
0.0
  0
LINE
  5
2A3
100
AcDbEntity
  8
0
370
    -3
390
0
  6
CENTER
100
AcDbLine
 10
-653.884445
 20
3.198588
 30
0.0
 11
-653.884445
 21
-467.379143
 31
0.0
  0
LINE
  5
2A4
100
AcDbEntity
  8
0
370
    -3
390
0
  6
Continuous
100
AcDbLine
 10
-671.384445
 20
-124.112875
 30
0.0
 11
-653.884445
 21
-124.112875
 31
0.0
  0
LINE
  5
2A5
100
AcDbEntity
  8
0
370
    -3
390
0
  6
Continuous
100
AcDbLine
 10
-633.384445
 20
-99.463185
 30
0.0
 11
-633.384445
 21
-121.112875
 31
0.0
  0
LINE
  5
2A6
100
AcDbEntity
  8
0
370
    -3
390
0
  6
Continuous
100
AcDbLine
 10
-674.384445
 20
-99.463185
 30
0.0
 11
-674.384445
 21
-121.112875
 31
0.0
  0
LINE
  5
2A7
100
AcDbEntity
  8
0
370
    -3
390
0
  6
Continuous
100
AcDbLine
 10
-649.384445
 20
-129.112875
 30
0.0
 11
-649.384445
 21
-151.112875
 31
0.0
  0
LINE
  5
2A8
100
AcDbEntity
  8
0
370
    -3
390
0
  6
Continuous
100
AcDbLine
 10
-658.384445
 20
-129.112875
 30
0.0
 11
-658.384445
 21
-151.112875
 31
0.0
  0
LINE
  5
2A9
100
AcDbEntity
  8
0
370
    -3
390
0
  6
Continuous
100
AcDbLine
 10
-653.884445
 20
-124.112875
 30
0.0
 11
-636.384445
 21
-124.112875
 31
0.0
  0
LINE
  5
2AA
100
AcDbEntity
  8
0
370
    -3
390
0
  6
Continuous
100
AcDbLine
 10
-649.384445
 20
-427.112875
 30
0.0
 11
-649.384445
 21
-446.112875
 31
0.0
  0
LINE
  5
2AB
100
AcDbEntity
  8
0
370
    -3
390
0
  6
Continuous
100
AcDbLine
 10
-658.384445
 20
-427.112875
 30
0.0
 11
-658.384445
 21
-446.112875
 31
0.0
  0
LINE
  5
2AC
100
AcDbEntity
  8
0
370
    -3
390
0
  6
Continuous
100
AcDbLine
 10
-791.067024
 20
-293.612875
 30
0.0
 11
-811.884445
 21
-293.612875
 31
0.0
  0
LINE
  5
2AD
100
AcDbEntity
  8
0
370
    -3
390
0
  6
Continuous
100
AcDbLine
 10
-791.067024
 20
-284.612875
 30
0.0
 11
-811.884445
 21
-284.612875
 31
0.0
  0
LINE
  5
2AE
100
AcDbEntity
  8
0
370
    -3
390
0
  6
Continuous
100
AcDbLine
 10
-812.651549
 20
-202.112875
 30
0.0
 11
-806.884445
 21
-202.112875
 31
0.0
  0
LINE
  5
2AF
100
AcDbEntity
  8
0
370
    -3
390
0
  6
Continuous
100
AcDbLine
 10
-818.598106
 20
-228.112875
 30
0.0
 11
-806.884445
 21
-228.112875
 31
0.0
  0
LINE
  5
2B0
100
AcDbEntity
  8
0
370
    -3
390
0
  6
Continuous
100
AcDbLine
 10
-495.117342
 20
-202.112875
 30
0.0
 11
-500.884445
 21
-202.112875
 31
0.0
  0
LINE
  5
2B1
100
AcDbEntity
  8
0
370
    -3
390
0
  6
Continuous
100
AcDbLine
 10
-489.170785
 20
-228.112875
 30
0.0
 11
-500.884445
 21
-228.112875
 31
0.0
  0
LINE
  5
2B2
100
AcDbEntity
  8
0
370
    -3
390
0
  6
Continuous
100
AcDbLine
 10
-548.69731
 20
-177.561778
 30
0.0
 11
-526.624423
 21
-155.488892
 31
0.0
  0
LINE
  5
2B3
100
AcDbEntity
  8
0
370
    -3
390
0
  6
Continuous
100
AcDbLine
 10
-542.333348
 20
-183.925739
 30
0.0
 11
-521.819991
 21
-163.412382
 31
0.0
  0
LINE
  5
2B4
100
AcDbEntity
  8
0
370
    -3
390
0
  6
Continuous
100
AcDbLine
 10
-548.69731
 20
-400.663972
 30
0.0
 11
-533.841291
 21
-415.51999
 31
0.0
  0
LINE
  5
2B5
100
AcDbEntity
  8
0
370
    -3
390
0
  6
Continuous
100
AcDbLine
 10
-542.333348
 20
-394.300011
 30
0.0
 11
-526.318812
 21
-410.314547
 31
0.0
  0
LINE
  5
2B6
100
AcDbEntity
  8
0
370
    -3
390
0
  6
Continuous
100
AcDbLine
 10
-807.884445
 20
-414.112875
 30
0.0
 11
-796.692023
 21
-414.112875
 31
0.0
  0
LINE
  5
2B7
100
AcDbEntity
  8
0
370
    -3
390
0
  6
Continuous
100
AcDbLine
 10
-499.884445
 20
-414.112875
 30
0.0
 11
-511.076867
 21
-414.112875
 31
0.0
  0
LINE
  5
2B8
100
AcDbEntity
  8
0
370
    -3
390
0
  6
Continuous
100
AcDbLine
 10
-765.435542
 20
-394.300011
 30
0.0
 11
-781.450078
 21
-410.314547
 31
0.0
  0
LINE
  5
2B9
100
AcDbEntity
  8
0
370
    -3
390
0
  6
Continuous
100
AcDbLine
 10
-759.071581
 20
-400.663972
 30
0.0
 11
-773.9276
 21
-415.51999
 31
0.0
  0
LINE
  5
2BA
100
AcDbEntity
  8
0
370
    -3
390
0
  6
Continuous
100
AcDbLine
 10
-759.071581
 20
-177.561778
 30
0.0
 11
-781.118953
 21
-155.514406
 31
0.0
  0
LINE
  5
2BB
100
AcDbEntity
  8
0
370
    -3
390
0
  6
Continuous
100
AcDbLine
 10
-765.435542
 20
-183.925739
 30
0.0
 11
-785.922944
 21
-163.438337
 31
0.0
  0
ARC
  5
2BC
100
AcDbEntity
  8
0
370
    -3
390
0
  6
Continuous
100
AcDbCircle
 10
-664.384445
 20
-74.092588
 30
0.0
 40
10.0
100
AcDbArc
 50
90.0
 51
180.0
  0
LINE
  5
2BD
100
AcDbEntity
  8
0
370
    -3
390
0
  6
Continuous
100
AcDbLine
 10
-674.384445
 20
-74.112875
 30
0.0
 11
-674.384445
 21
-99.463185
 31
0.0
  0
LINE
  5
2BE
100
AcDbEntity
  8
0
370
    -3
390
0
  6
CENTER
100
AcDbLine
 10
-630.716532
 20
-84.092588
 30
0.0
 11
-677.739046
 21
-84.092588
 31
0.0
  0
LINE
  5
2BF
100
AcDbEntity
  8
0
370
    -3
390
0
  6
Continuous
100
AcDbLine
 10
-643.384445
 20
-64.092588
 30
0.0
 11
-664.384445
 21
-64.092588
 31
0.0
  0
ARC
  5
2C0
100
AcDbEntity
  8
0
370
    -3
390
0
  6
Continuous
100
AcDbCircle
 10
-643.384445
 20
-74.092588
 30
0.0
 40
10.0
100
AcDbArc
 50
0.0
 51
90.0
  0
LINE
  5
2C1
100
AcDbEntity
  8
0
370
    -3
390
0
  6
Continuous
100
AcDbLine
 10
-633.384445
 20
-74.112875
 30
0.0
 11
-633.384445
 21
-99.463185
 31
0.0
  0
ARC
  5
2C2
100
AcDbEntity
  8
0
370
    -3
390
0
  6
Continuous
100
AcDbCircle
 10
-653.884445
 20
-699.112875
 30
0.0
 40
600.0
100
AcDbArc
 50
91.957987
 51
93.489726
  0
LINE
  5
2C3
100
AcDbEntity
  8
0
370
    -3
390
0
  6
Continuous
100
AcDbLine
 10
-664.384441
 20
-115.576973
 30
0.0
 11
-661.384448
 21
-113.844921
 31
0.0
  0
LINE
  5
2C4
100
AcDbEntity
  8
0
370
    -3
390
0
  6
Continuous
100
AcDbLine
 10
-664.384452
 20
-108.648778
 30
0.0
 11
-667.384443
 21
-110.380828
 31
0.0
  0
LINE
  5
2C5
100
AcDbEntity
  8
0
370
    -3
390
0
  6
Continuous
100
AcDbLine
 10
-667.384444
 20
-113.844926
 30
0.0
 11
-664.384441
 21
-115.576973
 31
0.0
  0
LINE
  5
2C6
100
AcDbEntity
  8
0
370
    -3
390
0
  6
Continuous
100
AcDbLine
 10
-664.384452
 20
-108.648778
 30
0.0
 11
-661.384447
 21
-110.380823
 31
0.0
  0
LINE
  5
2C7
100
AcDbEntity
  8
0
370
    -3
390
0
  6
Continuous
100
AcDbLine
 10
-667.384442
 20
-110.380828
 30
0.0
 11
-667.384443
 21
-113.844926
 31
0.0
  0
LINE
  5
2C8
100
AcDbEntity
  8
0
370
    -3
390
0
  6
Continuous
100
AcDbLine
 10
-661.384449
 20
-113.844921
 30
0.0
 11
-661.384448
 21
-110.380823
 31
0.0
  0
CIRCLE
  5
2C9
100
AcDbEntity
  8
0
370
    -3
390
0
  6
Continuous
100
AcDbCircle
 10
-664.384445
 20
-112.112875
 30
0.0
 40
6.5
  0
CIRCLE
  5
2CA
100
AcDbEntity
  8
0
370
    -3
390
0
  6
Continuous
100
AcDbCircle
 10
-664.384445
 20
-112.112875
 30
0.0
 40
5.633955
  0
LINE
  5
2CB
100
AcDbEntity
  8
0
370
    -3
390
0
  6
Continuous
100
AcDbLine
 10
-643.38445
 20
-115.576973
 30
0.0
 11
-646.384443
 21
-113.844921
 31
0.0
  0
LINE
  5
2CC
100
AcDbEntity
  8
0
370
    -3
390
0
  6
Continuous
100
AcDbLine
 10
-643.384439
 20
-108.648778
 30
0.0
 11
-640.384448
 21
-110.380828
 31
0.0
  0
LINE
  5
2CD
100
AcDbEntity
  8
0
370
    -3
390
0
  6
Continuous
100
AcDbLine
 10
-640.384447
 20
-113.844926
 30
0.0
 11
-643.38445
 21
-115.576973
 31
0.0
  0
LINE
  5
2CE
100
AcDbEntity
  8
0
370
    -3
390
0
  6
Continuous
100
AcDbLine
 10
-643.384439
 20
-108.648778
 30
0.0
 11
-646.384443
 21
-110.380823
 31
0.0
  0
LINE
  5
2CF
100
AcDbEntity
  8
0
370
    -3
390
0
  6
Continuous
100
AcDbLine
 10
-640.384449
 20
-110.380828
 30
0.0
 11
-640.384448
 21
-113.844926
 31
0.0
  0
LINE
  5
2D0
100
AcDbEntity
  8
0
370
    -3
390
0
  6
Continuous
100
AcDbLine
 10
-646.384442
 20
-113.844921
 30
0.0
 11
-646.384443
 21
-110.380823
 31
0.0
  0
CIRCLE
  5
2D1
100
AcDbEntity
  8
0
370
    -3
390
0
  6
Continuous
100
AcDbCircle
 10
-643.384445
 20
-112.112875
 30
0.0
 40
6.5
  0
CIRCLE
  5
2D2
100
AcDbEntity
  8
0
370
    -3
390
0
  6
Continuous
100
AcDbCircle
 10
-643.384445
 20
-112.112875
 30
0.0
 40
5.633955
  0
LINE
  5
2D3
100
AcDbEntity
  8
0
370
    -3
390
0
  6
Continuous
100
AcDbLine
 10
-578.884446
 20
-122.99963
 30
0.0
 11
-583.884454
 21
-125.886375
 31
0.0
  0
LINE
  5
2D4
100
AcDbEntity
  8
0
370
    -3
390
0
  6
Continuous
100
AcDbLine
 10
-588.884444
 20
-117.22612
 30
0.0
 11
-583.884438
 21
-114.339375
 31
0.0
  0
LINE
  5
2D5
100
AcDbEntity
  8
0
370
    -3
390
0
  6
Continuous
100
AcDbLine
 10
-583.884454
 20
-125.886374
 30
0.0
 11
-588.884443
 21
-122.999619
 31
0.0
  0
LINE
  5
2D6
100
AcDbEntity
  8
0
370
    -3
390
0
  6
Continuous
100
AcDbLine
 10
-578.884447
 20
-117.226131
 30
0.0
 11
-583.884437
 21
-114.339375
 31
0.0
  0
LINE
  5
2D7
100
AcDbEntity
  8
0
370
    -3
390
0
  6
Continuous
100
AcDbLine
 10
-578.884448
 20
-117.226131
 30
0.0
 11
-578.884447
 21
-122.99963
 31
0.0
  0
LINE
  5
2D8
100
AcDbEntity
  8
0
370
    -3
390
0
  6
Continuous
100
AcDbLine
 10
-588.884443
 20
-122.999619
 30
0.0
 11
-588.884444
 21
-117.22612
 31
0.0
  0
CIRCLE
  5
2D9
100
AcDbEntity
  8
0
370
    -3
390
0
  6
Continuous
100
AcDbCircle
 10
-583.884445
 20
-120.112875
 30
0.0
 40
9.0
  0
CIRCLE
  5
2DA
100
AcDbEntity
  8
0
370
    -3
390
0
  6
Continuous
100
AcDbCircle
 10
-583.884445
 20
-120.112875
 30
0.0
 40
7.787524
  0
ARC
  5
2DB
100
AcDbEntity
  8
0
370
    -3
390
0
  6
Continuous
100
AcDbCircle
 10
-500.884445
 20
-260.112875
 30
0.0
 40
9.0
100
AcDbArc
 50
29.648562
 51
117.950857
  0
ARC
  5
2DC
100
AcDbEntity
  8
0
370
    -3
390
0
  6
Continuous
100
AcDbCircle
 10
-500.884445
 20
-260.112875
 30
0.0
 40
7.787524
100
AcDbArc
 50
40.275999
 51
107.323419
  0
LINE
  5
2DD
100
AcDbEntity
  8
0
370
    -3
390
0
  6
Continuous
100
AcDbLine
 10
-494.884446
 20
-402.99963
 30
0.0
 11
-499.884454
 21
-405.886375
 31
0.0
  0
LINE
  5
2DE
100
AcDbEntity
  8
0
370
    -3
390
0
  6
Continuous
100
AcDbLine
 10
-504.884444
 20
-397.22612
 30
0.0
 11
-499.884438
 21
-394.339375
 31
0.0
  0
LINE
  5
2DF
100
AcDbEntity
  8
0
370
    -3
390
0
  6
Continuous
100
AcDbLine
 10
-499.884454
 20
-405.886374
 30
0.0
 11
-504.884443
 21
-402.999619
 31
0.0
  0
LINE
  5
2E0
100
AcDbEntity
  8
0
370
    -3
390
0
  6
Continuous
100
AcDbLine
 10
-494.884447
 20
-397.226131
 30
0.0
 11
-499.884437
 21
-394.339375
 31
0.0
  0
LINE
  5
2E1
100
AcDbEntity
  8
0
370
    -3
390
0
  6
Continuous
100
AcDbLine
 10
-494.884448
 20
-397.226131
 30
0.0
 11
-494.884447
 21
-402.99963
 31
0.0
  0
LINE
  5
2E2
100
AcDbEntity
  8
0
370
    -3
390
0
  6
Continuous
100
AcDbLine
 10
-504.884443
 20
-402.999619
 30
0.0
 11
-504.884444
 21
-397.22612
 31
0.0
  0
CIRCLE
  5
2E3
100
AcDbEntity
  8
0
370
    -3
390
0
  6
Continuous
100
AcDbCircle
 10
-499.884445
 20
-400.112875
 30
0.0
 40
9.0
  0
CIRCLE
  5
2E4
100
AcDbEntity
  8
0
370
    -3
390
0
  6
Continuous
100
AcDbCircle
 10
-499.884445
 20
-400.112875
 30
0.0
 40
7.787524
  0
LINE
  5
2E5
100
AcDbEntity
  8
0
370
    -3
390
0
  6
Continuous
100
AcDbLine
 10
-573.884446
 20
-446.99963
 30
0.0
 11
-578.884454
 21
-449.886375
 31
0.0
  0
LINE
  5
2E6
100
AcDbEntity
  8
0
370
    -3
390
0
  6
Continuous
100
AcDbLine
 10
-583.884444
 20
-441.22612
 30
0.0
 11
-578.884438
 21
-438.339375
 31
0.0
  0
LINE
  5
2E7
100
AcDbEntity
  8
0
370
    -3
390
0
  6
Continuous
100
AcDbLine
 10
-578.884454
 20
-449.886374
 30
0.0
 11
-583.884443
 21
-446.999619
 31
0.0
  0
LINE
  5
2E8
100
AcDbEntity
  8
0
370
    -3
390
0
  6
Continuous
100
AcDbLine
 10
-573.884447
 20
-441.226131
 30
0.0
 11
-578.884437
 21
-438.339375
 31
0.0
  0
LINE
  5
2E9
100
AcDbEntity
  8
0
370
    -3
390
0
  6
Continuous
100
AcDbLine
 10
-573.884448
 20
-441.226131
 30
0.0
 11
-573.884447
 21
-446.99963
 31
0.0
  0
LINE
  5
2EA
100
AcDbEntity
  8
0
370
    -3
390
0
  6
Continuous
100
AcDbLine
 10
-583.884443
 20
-446.999619
 30
0.0
 11
-583.884444
 21
-441.22612
 31
0.0
  0
CIRCLE
  5
2EB
100
AcDbEntity
  8
0
370
    -3
390
0
  6
Continuous
100
AcDbCircle
 10
-578.884445
 20
-444.112875
 30
0.0
 40
9.0
  0
CIRCLE
  5
2EC
100
AcDbEntity
  8
0
370
    -3
390
0
  6
Continuous
100
AcDbCircle
 10
-578.884445
 20
-444.112875
 30
0.0
 40
7.787524
  0
LINE
  5
2ED
100
AcDbEntity
  8
0
370
    -3
390
0
  6
Continuous
100
AcDbLine
 10
-733.884445
 20
-446.99963
 30
0.0
 11
-728.884436
 21
-449.886375
 31
0.0
  0
LINE
  5
2EE
100
AcDbEntity
  8
0
370
    -3
390
0
  6
Continuous
100
AcDbLine
 10
-723.884446
 20
-441.22612
 30
0.0
 11
-728.884453
 21
-438.339375
 31
0.0
  0
LINE
  5
2EF
100
AcDbEntity
  8
0
370
    -3
390
0
  6
Continuous
100
AcDbLine
 10
-728.884437
 20
-449.886374
 30
0.0
 11
-723.884448
 21
-446.999619
 31
0.0
  0
LINE
  5
2F0
100
AcDbEntity
  8
0
370
    -3
390
0
  6
Continuous
100
AcDbLine
 10
-733.884443
 20
-441.226131
 30
0.0
 11
-728.884454
 21
-438.339375
 31
0.0
  0
LINE
  5
2F1
100
AcDbEntity
  8
0
370
    -3
390
0
  6
Continuous
100
AcDbLine
 10
-733.884443
 20
-441.226131
 30
0.0
 11
-733.884444
 21
-446.99963
 31
0.0
  0
LINE
  5
2F2
100
AcDbEntity
  8
0
370
    -3
390
0
  6
Continuous
100
AcDbLine
 10
-723.884448
 20
-446.999619
 30
0.0
 11
-723.884447
 21
-441.22612
 31
0.0
  0
CIRCLE
  5
2F3
100
AcDbEntity
  8
0
370
    -3
390
0
  6
Continuous
100
AcDbCircle
 10
-728.884445
 20
-444.112875
 30
0.0
 40
9.0
  0
CIRCLE
  5
2F4
100
AcDbEntity
  8
0
370
    -3
390
0
  6
Continuous
100
AcDbCircle
 10
-728.884445
 20
-444.112875
 30
0.0
 40
7.787524
  0
LINE
  5
2F5
100
AcDbEntity
  8
0
370
    -3
390
0
  6
Continuous
100
AcDbLine
 10
-812.884445
 20
-402.99963
 30
0.0
 11
-807.884436
 21
-405.886375
 31
0.0
  0
LINE
  5
2F6
100
AcDbEntity
  8
0
370
    -3
390
0
  6
Continuous
100
AcDbLine
 10
-802.884446
 20
-397.22612
 30
0.0
 11
-807.884453
 21
-394.339375
 31
0.0
  0
LINE
  5
2F7
100
AcDbEntity
  8
0
370
    -3
390
0
  6
Continuous
100
AcDbLine
 10
-807.884437
 20
-405.886374
 30
0.0
 11
-802.884448
 21
-402.999619
 31
0.0
  0
LINE
  5
2F8
100
AcDbEntity
  8
0
370
    -3
390
0
  6
Continuous
100
AcDbLine
 10
-812.884443
 20
-397.226131
 30
0.0
 11
-807.884454
 21
-394.339375
 31
0.0
  0
LINE
  5
2F9
100
AcDbEntity
  8
0
370
    -3
390
0
  6
Continuous
100
AcDbLine
 10
-812.884443
 20
-397.226131
 30
0.0
 11
-812.884444
 21
-402.99963
 31
0.0
  0
LINE
  5
2FA
100
AcDbEntity
  8
0
370
    -3
390
0
  6
Continuous
100
AcDbLine
 10
-802.884448
 20
-402.999619
 30
0.0
 11
-802.884447
 21
-397.22612
 31
0.0
  0
CIRCLE
  5
2FB
100
AcDbEntity
  8
0
370
    -3
390
0
  6
Continuous
100
AcDbCircle
 10
-807.884445
 20
-400.112875
 30
0.0
 40
9.0
  0
CIRCLE
  5
2FC
100
AcDbEntity
  8
0
370
    -3
390
0
  6
Continuous
100
AcDbCircle
 10
-807.884445
 20
-400.112875
 30
0.0
 40
7.787524
  0
LINE
  5
2FD
100
AcDbEntity
  8
0
370
    -3
390
0
  6
Continuous
100
AcDbLine
 10
-811.884445
 20
-262.99963
 30
0.0
 11
-806.884436
 21
-265.886375
 31
0.0
  0
LINE
  5
2FE
100
AcDbEntity
  8
0
370
    -3
390
0
  6
Continuous
100
AcDbLine
 10
-801.884446
 20
-257.22612
 30
0.0
 11
-806.884453
 21
-254.339375
 31
0.0
  0
LINE
  5
2FF
100
AcDbEntity
  8
0
370
    -3
390
0
  6
Continuous
100
AcDbLine
 10
-806.884437
 20
-265.886374
 30
0.0
 11
-801.884448
 21
-262.999619
 31
0.0
  0
LINE
  5
300
100
AcDbEntity
  8
0
370
    -3
390
0
  6
Continuous
100
AcDbLine
 10
-811.884443
 20
-257.226131
 30
0.0
 11
-806.884454
 21
-254.339375
 31
0.0
  0
LINE
  5
301
100
AcDbEntity
  8
0
370
    -3
390
0
  6
Continuous
100
AcDbLine
 10
-811.884443
 20
-257.226131
 30
0.0
 11
-811.884444
 21
-262.99963
 31
0.0
  0
LINE
  5
302
100
AcDbEntity
  8
0
370
    -3
390
0
  6
Continuous
100
AcDbLine
 10
-801.884448
 20
-262.999619
 30
0.0
 11
-801.884447
 21
-257.22612
 31
0.0
  0
CIRCLE
  5
303
100
AcDbEntity
  8
0
370
    -3
390
0
  6
Continuous
100
AcDbCircle
 10
-806.884445
 20
-260.112875
 30
0.0
 40
9.0
  0
CIRCLE
  5
304
100
AcDbEntity
  8
0
370
    -3
390
0
  6
Continuous
100
AcDbCircle
 10
-806.884445
 20
-260.112875
 30
0.0
 40
7.787524
  0
LINE
  5
305
100
AcDbEntity
  8
0
370
    -3
390
0
  6
Continuous
100
AcDbLine
 10
-728.884445
 20
-122.99963
 30
0.0
 11
-723.884436
 21
-125.886375
 31
0.0
  0
LINE
  5
306
100
AcDbEntity
  8
0
370
    -3
390
0
  6
Continuous
100
AcDbLine
 10
-718.884446
 20
-117.22612
 30
0.0
 11
-723.884453
 21
-114.339375
 31
0.0
  0
LINE
  5
307
100
AcDbEntity
  8
0
370
    -3
390
0
  6
Continuous
100
AcDbLine
 10
-723.884437
 20
-125.886374
 30
0.0
 11
-718.884448
 21
-122.999619
 31
0.0
  0
LINE
  5
308
100
AcDbEntity
  8
0
370
    -3
390
0
  6
Continuous
100
AcDbLine
 10
-728.884443
 20
-117.226131
 30
0.0
 11
-723.884454
 21
-114.339375
 31
0.0
  0
LINE
  5
309
100
AcDbEntity
  8
0
370
    -3
390
0
  6
Continuous
100
AcDbLine
 10
-728.884443
 20
-117.226131
 30
0.0
 11
-728.884444
 21
-122.99963
 31
0.0
  0
LINE
  5
30A
100
AcDbEntity
  8
0
370
    -3
390
0
  6
Continuous
100
AcDbLine
 10
-718.884448
 20
-122.999619
 30
0.0
 11
-718.884447
 21
-117.22612
 31
0.0
  0
CIRCLE
  5
30B
100
AcDbEntity
  8
0
370
    -3
390
0
  6
Continuous
100
AcDbCircle
 10
-723.884445
 20
-120.112875
 30
0.0
 40
9.0
  0
CIRCLE
  5
30C
100
AcDbEntity
  8
0
370
    -3
390
0
  6
Continuous
100
AcDbCircle
 10
-723.884445
 20
-120.112875
 30
0.0
 40
7.787524
  0
LINE
  5
30D
100
AcDbEntity
  8
0
370
    -3
390
0
  6
CENTER
100
AcDbLine
 10
-482.057498
 20
-57.285927
 30
0.0
 11
-436.802664
 21
-12.031093
 31
0.0
  0
ARC
  5
30E
100
AcDbEntity
  8
0
370
    -3
390
0
  6
CENTER
100
AcDbCircle
 10
-653.884445
 20
-229.112875
 30
0.0
 40
275.0
100
AcDbArc
 50
38.33254
 51
51.66746
  0
LINE
  5
30F
100
AcDbEntity
  8
0
370
    -3
390
0
  6
CENTER
100
AcDbLine
 10
-825.711393
 20
-57.285927
 30
0.0
 11
-870.966227
 21
-12.031093
 31
0.0
  0
ARC
  5
310
100
AcDbEntity
  8
0
370
    -3
390
0
  6
CENTER
100
AcDbCircle
 10
-653.884445
 20
-229.112875
 30
0.0
 40
275.0
100
AcDbArc
 50
128.33254
 51
141.66746
  0
LINE
  5
311
100
AcDbEntity
  8
0
370
    -3
390
0
  6
CENTER
100
AcDbLine
 10
-825.711393
 20
-400.939823
 30
0.0
 11
-870.966227
 21
-446.194657
 31
0.0
  0
ARC
  5
312
100
AcDbEntity
  8
0
370
    -3
390
0
  6
CENTER
100
AcDbCircle
 10
-653.884445
 20
-229.112875
 30
0.0
 40
275.0
100
AcDbArc
 50
218.33254
 51
231.66746
  0
LINE
  5
313
100
AcDbEntity
  8
0
370
    -3
390
0
  6
CENTER
100
AcDbLine
 10
-482.057498
 20
-400.939823
 30
0.0
 11
-436.802664
 21
-446.194657
 31
0.0
  0
ARC
  5
314
100
AcDbEntity
  8
0
370
    -3
390
0
  6
CENTER
100
AcDbCircle
 10
-653.884445
 20
-229.112875
 30
0.0
 40
275.0
100
AcDbArc
 50
308.33254
 51
321.66746
  0
CIRCLE
  5
315
100
AcDbEntity
  8
0
370
    -3
390
0
  6
Continuous
100
AcDbCircle
 10
-563.884445
 20
-149.112875
 30
0.0
 40
17.5
  0
CIRCLE
  5
316
100
AcDbEntity
  8
0
370
    -3
390
0
  6
Continuous
100
AcDbCircle
 10
-563.884445
 20
-149.112875
 30
0.0
 40
9.35
  0
CIRCLE
  5
317
100
AcDbEntity
  8
0
370
    -3
390
0
  6
Continuous
100
AcDbCircle
 10
-563.884445
 20
-149.112875
 30
0.0
 40
10.5
  0
LINE
  5
318
100
AcDbEntity
  8
0
370
    -3
390
0
  6
CENTER
100
AcDbLine
 10
-600.177906
 20
-149.112875
 30
0.0
 11
-528.694864
 21
-149.112875
 31
0.0
  0
LINE
  5
319
100
AcDbEntity
  8
0
370
    -3
390
0
  6
CENTER
100
AcDbLine
 10
-563.884445
 20
-173.205681
 30
0.0
 11
-563.884445
 21
-123.611353
 31
0.0
  0
ARC
  5
31A
100
AcDbEntity
  8
0
370
    -3
390
0
  6
Continuous
100
AcDbCircle
 10
215.960367
 20
482.887125
 30
0.0
 40
3.0
100
AcDbArc
 50
90.0
 51
180.0
  0
LINE
  5
31B
100
AcDbEntity
  8
0
370
    -3
390
0
  6
Continuous
100
AcDbLine
 10
236.960367
 20
485.887125
 30
0.0
 11
215.960367
 21
485.887125
 31
0.0
  0
ARC
  5
31C
100
AcDbEntity
  8
0
370
    -3
390
0
  6
Continuous
100
AcDbCircle
 10
39.460367
 20
95.887125
 30
0.0
 40
3.0
100
AcDbArc
 50
180.0
 51
270.0
  0
LINE
  5
31D
100
AcDbEntity
  8
0
370
    -3
390
0
  6
Continuous
100
AcDbLine
 10
34.460367
 20
92.887125
 30
0.0
 11
49.460367
 21
92.887125
 31
0.0
  0
ARC
  5
31E
100
AcDbEntity
  8
0
370
    -3
390
0
  6
Continuous
100
AcDbCircle
 10
34.460367
 20
95.887125
 30
0.0
 40
3.0
100
AcDbArc
 50
180.0
 51
270.0
  0
LINE
  5
31F
100
AcDbEntity
  8
0
370
    -3
390
0
  6
Continuous
100
AcDbLine
 10
31.460367
 20
117.887125
 30
0.0
 11
31.460367
 21
95.887125
 31
0.0
  0
ARC
  5
320
100
AcDbEntity
  8
0
370
    -3
390
0
  6
Continuous
100
AcDbCircle
 10
34.460367
 20
117.887125
 30
0.0
 40
3.0
100
AcDbArc
 50
99.594068
 51
180.0
  0
ARC
  5
321
100
AcDbEntity
  8
0
370
    -3
390
0
  6
Continuous
100
AcDbCircle
 10
29.460367
 20
243.387125
 30
0.0
 40
3.0
100
AcDbArc
 50
180.0
 51
270.0
  0
LINE
  5
322
100
AcDbEntity
  8
0
370
    -3
390
0
  6
Continuous
100
AcDbLine
 10
29.460367
 20
240.387125
 30
0.0
 11
33.460367
 21
240.387125
 31
0.0
  0
ARC
  5
323
100
AcDbEntity
  8
0
370
    -3
390
0
  6
Continuous
100
AcDbCircle
 10
33.460367
 20
237.387125
 30
0.0
 40
3.0
100
AcDbArc
 50
0.0
 51
90.0
  0
LINE
  5
324
100
AcDbEntity
  8
0
370
    -3
390
0
  6
Continuous
100
AcDbLine
 10
21.960367
 20
260.887125
 30
0.0
 11
21.960367
 21
240.387125
 31
0.0
  0
LINE
  5
325
100
AcDbEntity
  8
0
370
    -3
390
0
  6
Continuous
100
AcDbLine
 10
26.460367
 20
260.887125
 30
0.0
 11
26.460367
 21
240.387125
 31
0.0
  0
LINE
  5
326
100
AcDbEntity
  8
0
370
    -3
390
0
  6
Continuous
100
AcDbLine
 10
21.960367
 20
240.387125
 30
0.0
 11
26.460367
 21
240.387125
 31
0.0
  0
LINE
  5
327
100
AcDbEntity
  8
0
370
    -3
390
0
  6
Continuous
100
AcDbLine
 10
36.460367
 20
260.887125
 30
0.0
 11
36.460367
 21
95.887125
 31
0.0
  0
LINE
  5
328
100
AcDbEntity
  8
0
370
    -3
390
0
  6
Continuous
100
AcDbLine
 10
-16.539633
 20
150.887125
 30
0.0
 11
-16.539633
 21
260.887125
 31
0.0
  0
ARC
  5
329
100
AcDbEntity
  8
0
370
    -3
390
0
  6
Continuous
100
AcDbCircle
 10
-16.539633
 20
148.887125
 30
0.0
 40
2.0
100
AcDbArc
 50
0.0
 51
90.0
  0
LINE
  5
32A
100
AcDbEntity
  8
0
370
    -3
390
0
  6
Continuous
100
AcDbLine
 10
-4.539633
 20
256.387125
 30
0.0
 11
14.171727
 21
256.387125
 31
0.0
  0
ARC
  5
32B
100
AcDbEntity
  8
0
370
    -3
390
0
  6
Continuous
100
AcDbCircle
 10
-4.539633
 20
251.387125
 30
0.0
 40
5.0
100
AcDbArc
 50
90.0
 51
180.0
  0
ARC
  5
32C
100
AcDbEntity
  8
0
370
    -3
390
0
  6
Continuous
100
AcDbCircle
 10
-12.539633
 20
132.785054
 30
0.0
 40
2.0
100
AcDbArc
 50
180.0
 51
267.0
  0
LINE
  5
32D
100
AcDbEntity
  8
0
370
    -3
390
0
  6
Continuous
100
AcDbLine
 10
-12.644305
 20
130.787795
 30
0.0
 11
31.722047
 21
128.462653
 31
0.0
  0
LINE
  5
32E
100
AcDbEntity
  8
0
370
    -3
390
0
  6
Continuous
100
AcDbLine
 10
-14.539633
 20
132.785054
 30
0.0
 11
-14.539633
 21
260.887125
 31
0.0
  0
ARC
  5
32F
100
AcDbEntity
  8
0
370
    -3
390
0
  6
Continuous
100
AcDbCircle
 10
31.460367
 20
129.63287
 30
0.0
 40
5.0
100
AcDbArc
 50
0.0
 51
53.674564
  0
LINE
  5
330
100
AcDbEntity
  8
0
370
    -3
390
0
  6
Continuous
100
AcDbLine
 10
-8.21809
 20
165.012774
 30
0.0
 11
34.422222
 21
133.661197
 31
0.0
  0
ARC
  5
331
100
AcDbEntity
  8
0
370
    -3
390
0
  6
Continuous
100
AcDbCircle
 10
-11.179945
 20
160.984447
 30
0.0
 40
5.0
100
AcDbArc
 50
53.674564
 51
90.0
  0
LINE
  5
332
100
AcDbEntity
  8
0
370
    -3
390
0
  6
Continuous
100
AcDbLine
 10
-5.583843
 20
165.984447
 30
0.0
 11
32.02634
 21
165.984447
 31
0.0
  0
ARC
  5
333
100
AcDbEntity
  8
0
370
    -3
390
0
  6
Continuous
100
AcDbCircle
 10
-11.179945
 20
154.108948
 30
0.0
 40
5.0
100
AcDbArc
 50
53.674564
 51
90.0
  0
ARC
  5
334
100
AcDbEntity
  8
0
370
    -3
390
0
  6
Continuous
100
AcDbCircle
 10
31.460367
 20
122.75737
 30
0.0
 40
5.0
100
AcDbArc
 50
0.0
 51
53.674564
  0
LINE
  5
335
100
AcDbEntity
  8
0
370
    -3
390
0
  6
Continuous
100
AcDbLine
 10
-8.21809
 20
158.137275
 30
0.0
 11
34.422222
 21
126.785697
 31
0.0
  0
ARC
  5
336
100
AcDbEntity
  8
0
370
    -3
390
0
  6
Continuous
100
AcDbCircle
 10
31.460367
 20
123.469506
 30
0.0
 40
5.0
100
AcDbArc
 50
81.39208
 51
87.0
  0
ARC
  5
337
100
AcDbEntity
  8
0
370
    -3
390
0
  6
Continuous
100
AcDbCircle
 10
33.460367
 20
123.803205
 30
0.0
 40
3.0
100
AcDbArc
 50
279.594068
 51
351.253336
  0
ARC
  5
338
100
AcDbEntity
  8
0
370
    -3
390
0
  6
Continuous
100
AcDbCircle
 10
-11.253811
 20
125.708061
 30
0.0
 40
5.0
100
AcDbArc
 50
54.560739
 51
87.0
  0
LINE
  5
339
100
AcDbEntity
  8
0
370
    -3
390
0
  6
Continuous
100
AcDbLine
 10
24.460403
 20
106.427437
 30
0.0
 11
-8.354613
 21
129.781714
 31
0.0
  0
ARC
  5
33A
100
AcDbEntity
  8
0
370
    -3
390
0
  6
Continuous
100
AcDbCircle
 10
39.460367
 20
425.887125
 30
0.0
 40
3.0
100
AcDbArc
 50
90.0
 51
180.0
  0
LINE
  5
33B
100
AcDbEntity
  8
0
370
    -3
390
0
  6
Continuous
100
AcDbLine
 10
34.460367
 20
428.887125
 30
0.0
 11
49.460367
 21
428.887125
 31
0.0
  0
ARC
  5
33C
100
AcDbEntity
  8
0
370
    -3
390
0
  6
Continuous
100
AcDbCircle
 10
34.460367
 20
425.887125
 30
0.0
 40
3.0
100
AcDbArc
 50
90.0
 51
180.0
  0
LINE
  5
33D
100
AcDbEntity
  8
0
370
    -3
390
0
  6
Continuous
100
AcDbLine
 10
31.460367
 20
403.887125
 30
0.0
 11
31.460367
 21
425.887125
 31
0.0
  0
ARC
  5
33E
100
AcDbEntity
  8
0
370
    -3
390
0
  6
Continuous
100
AcDbCircle
 10
34.460367
 20
403.887125
 30
0.0
 40
3.0
100
AcDbArc
 50
180.0
 51
260.405932
  0
ARC
  5
33F
100
AcDbEntity
  8
0
370
    -3
390
0
  6
Continuous
100
AcDbCircle
 10
29.460367
 20
278.387125
 30
0.0
 40
3.0
100
AcDbArc
 50
90.0
 51
180.0
  0
LINE
  5
340
100
AcDbEntity
  8
0
370
    -3
390
0
  6
Continuous
100
AcDbLine
 10
29.460367
 20
281.387125
 30
0.0
 11
33.460367
 21
281.387125
 31
0.0
  0
ARC
  5
341
100
AcDbEntity
  8
0
370
    -3
390
0
  6
Continuous
100
AcDbCircle
 10
33.460367
 20
284.387125
 30
0.0
 40
3.0
100
AcDbArc
 50
270.0
 51
0.0
  0
LINE
  5
342
100
AcDbEntity
  8
0
370
    -3
390
0
  6
Continuous
100
AcDbLine
 10
21.960367
 20
260.887125
 30
0.0
 11
21.960367
 21
281.387125
 31
0.0
  0
LINE
  5
343
100
AcDbEntity
  8
0
370
    -3
390
0
  6
Continuous
100
AcDbLine
 10
26.460367
 20
260.887125
 30
0.0
 11
26.460367
 21
281.387125
 31
0.0
  0
LINE
  5
344
100
AcDbEntity
  8
0
370
    -3
390
0
  6
Continuous
100
AcDbLine
 10
21.960367
 20
281.387125
 30
0.0
 11
26.460367
 21
281.387125
 31
0.0
  0
LINE
  5
345
100
AcDbEntity
  8
0
370
    -3
390
0
  6
Continuous
100
AcDbLine
 10
36.460367
 20
260.887125
 30
0.0
 11
36.460367
 21
425.887125
 31
0.0
  0
LINE
  5
346
100
AcDbEntity
  8
0
370
    -3
390
0
  6
Continuous
100
AcDbLine
 10
-16.539633
 20
370.887125
 30
0.0
 11
-16.539633
 21
260.887125
 31
0.0
  0
ARC
  5
347
100
AcDbEntity
  8
0
370
    -3
390
0
  6
Continuous
100
AcDbCircle
 10
-16.539633
 20
372.887125
 30
0.0
 40
2.0
100
AcDbArc
 50
270.0
 51
0.0
  0
LINE
  5
348
100
AcDbEntity
  8
0
370
    -3
390
0
  6
Continuous
100
AcDbLine
 10
-4.539633
 20
265.387125
 30
0.0
 11
14.171727
 21
265.387125
 31
0.0
  0
ARC
  5
349
100
AcDbEntity
  8
0
370
    -3
390
0
  6
Continuous
100
AcDbCircle
 10
-4.539633
 20
270.387125
 30
0.0
 40
5.0
100
AcDbArc
 50
180.0
 51
270.0
  0
ARC
  5
34A
100
AcDbEntity
  8
0
370
    -3
390
0
  6
Continuous
100
AcDbCircle
 10
-12.539633
 20
388.989196
 30
0.0
 40
2.0
100
AcDbArc
 50
93.0
 51
180.0
  0
LINE
  5
34B
100
AcDbEntity
  8
0
370
    -3
390
0
  6
Continuous
100
AcDbLine
 10
-12.644305
 20
390.986455
 30
0.0
 11
31.722047
 21
393.311597
 31
0.0
  0
LINE
  5
34C
100
AcDbEntity
  8
0
370
    -3
390
0
  6
Continuous
100
AcDbLine
 10
-14.539633
 20
388.989196
 30
0.0
 11
-14.539633
 21
260.887125
 31
0.0
  0
ARC
  5
34D
100
AcDbEntity
  8
0
370
    -3
390
0
  6
Continuous
100
AcDbCircle
 10
31.460367
 20
392.14138
 30
0.0
 40
5.0
100
AcDbArc
 50
306.325436
 51
0.0
  0
LINE
  5
34E
100
AcDbEntity
  8
0
370
    -3
390
0
  6
Continuous
100
AcDbLine
 10
-8.21809
 20
356.761476
 30
0.0
 11
34.422222
 21
388.113053
 31
0.0
  0
ARC
  5
34F
100
AcDbEntity
  8
0
370
    -3
390
0
  6
Continuous
100
AcDbCircle
 10
-11.179945
 20
360.789803
 30
0.0
 40
5.0
100
AcDbArc
 50
270.0
 51
306.325436
  0
LINE
  5
350
100
AcDbEntity
  8
0
370
    -3
390
0
  6
Continuous
100
AcDbLine
 10
-5.583843
 20
355.789803
 30
0.0
 11
32.02634
 21
355.789803
 31
0.0
  0
ARC
  5
351
100
AcDbEntity
  8
0
370
    -3
390
0
  6
Continuous
100
AcDbCircle
 10
-11.179945
 20
367.665303
 30
0.0
 40
5.0
100
AcDbArc
 50
270.0
 51
306.325436
  0
ARC
  5
352
100
AcDbEntity
  8
0
370
    -3
390
0
  6
Continuous
100
AcDbCircle
 10
31.460367
 20
399.01688
 30
0.0
 40
5.0
100
AcDbArc
 50
306.325436
 51
0.0
  0
LINE
  5
353
100
AcDbEntity
  8
0
370
    -3
390
0
  6
Continuous
100
AcDbLine
 10
-8.21809
 20
363.636976
 30
0.0
 11
34.422222
 21
394.988553
 31
0.0
  0
ARC
  5
354
100
AcDbEntity
  8
0
370
    -3
390
0
  6
Continuous
100
AcDbCircle
 10
31.460367
 20
398.304745
 30
0.0
 40
5.0
100
AcDbArc
 50
273.0
 51
278.60792
  0
ARC
  5
355
100
AcDbEntity
  8
0
370
    -3
390
0
  6
Continuous
100
AcDbCircle
 10
33.460367
 20
397.971045
 30
0.0
 40
3.0
100
AcDbArc
 50
8.746664
 51
80.405932
  0
ARC
  5
356
100
AcDbEntity
  8
0
370
    -3
390
0
  6
Continuous
100
AcDbCircle
 10
-11.253811
 20
396.066189
 30
0.0
 40
5.0
100
AcDbArc
 50
273.0
 51
305.439261
  0
LINE
  5
357
100
AcDbEntity
  8
0
370
    -3
390
0
  6
Continuous
100
AcDbLine
 10
24.460403
 20
415.346813
 30
0.0
 11
-8.354613
 21
391.992536
 31
0.0
  0
LINE
  5
358
100
AcDbEntity
  8
0
370
    -3
390
0
  6
Continuous
100
AcDbLine
 10
49.460367
 20
260.887125
 30
0.0
 11
49.460367
 21
92.887125
 31
0.0
  0
LINE
  5
359
100
AcDbEntity
  8
0
370
    -3
390
0
  6
Continuous
100
AcDbLine
 10
49.460367
 20
92.887125
 30
0.0
 11
49.960367
 21
92.887125
 31
0.0
  0
LINE
  5
35A
100
AcDbEntity
  8
0
370
    -3
390
0
  6
Continuous
100
AcDbLine
 10
49.460367
 20
260.887125
 30
0.0
 11
49.460367
 21
428.887125
 31
0.0
  0
LINE
  5
35B
100
AcDbEntity
  8
0
370
    -3
390
0
  6
Continuous
100
AcDbLine
 10
49.460367
 20
428.887125
 30
0.0
 11
49.960367
 21
428.887125
 31
0.0
  0
LINE
  5
35C
100
AcDbEntity
  8
0
370
    -3
390
0
  6
Continuous
100
AcDbLine
 10
74.960367
 20
243.387125
 30
0.0
 11
161.470492
 21
243.387125
 31
0.0
  0
LINE
  5
35D
100
AcDbEntity
  8
0
370
    -3
390
0
  6
Continuous
100
AcDbLine
 10
74.960367
 20
278.387125
 30
0.0
 11
161.470492
 21
278.387125
 31
0.0
  0
ARC
  5
35E
100
AcDbEntity
  8
0
370
    -3
390
0
  6
Continuous
100
AcDbCircle
 10
74.960367
 20
260.887125
 30
0.0
 40
20.0
100
AcDbArc
 50
298.955024
 51
61.044976
  0
ARC
  5
35F
100
AcDbEntity
  8
0
370
    -3
390
0
  6
Continuous
100
AcDbCircle
 10
74.960367
 20
260.887125
 30
0.0
 40
17.5
100
AcDbArc
 50
90.0
 51
270.0
  0
LINE
  5
360
100
AcDbEntity
  8
0
370
    -3
390
0
  6
CENTER
100
AcDbLine
 10
74.960367
 20
284.564519
 30
0.0
 11
74.960367
 21
236.921555
 31
0.0
  0
LINE
  5
361
100
AcDbEntity
  8
0
370
    -3
390
0
  6
Continuous
100
AcDbLine
 10
236.960367
 20
135.635862
 30
0.0
 11
228.960367
 21
135.635862
 31
0.0
  0
LINE
  5
362
100
AcDbEntity
  8
0
370
    -3
390
0
  6
Continuous
100
AcDbLine
 10
236.960367
 20
85.3846
 30
0.0
 11
228.960367
 21
85.3846
 31
0.0
  0
ARC
  5
363
100
AcDbEntity
  8
0
370
    -3
390
0
  6
Continuous
100
AcDbCircle
 10
228.960367
 20
87.3846
 30
0.0
 40
2.0
100
AcDbArc
 50
180.0
 51
270.0
  0
LINE
  5
364
100
AcDbEntity
  8
0
370
    -3
390
0
  6
Continuous
100
AcDbLine
 10
226.960367
 20
260.887125
 30
0.0
 11
226.960367
 21
87.3846
 31
0.0
  0
ARC
  5
365
100
AcDbEntity
  8
0
370
    -3
390
0
  6
Continuous
100
AcDbCircle
 10
228.960367
 20
137.635862
 30
0.0
 40
2.0
100
AcDbArc
 50
180.0
 51
270.0
  0
LINE
  5
366
100
AcDbEntity
  8
0
370
    -3
390
0
  6
Continuous
100
AcDbLine
 10
236.960367
 20
386.138388
 30
0.0
 11
228.960367
 21
386.138388
 31
0.0
  0
LINE
  5
367
100
AcDbEntity
  8
0
370
    -3
390
0
  6
Continuous
100
AcDbLine
 10
236.960367
 20
436.38965
 30
0.0
 11
228.960367
 21
436.38965
 31
0.0
  0
ARC
  5
368
100
AcDbEntity
  8
0
370
    -3
390
0
  6
Continuous
100
AcDbCircle
 10
228.960367
 20
434.38965
 30
0.0
 40
2.0
100
AcDbArc
 50
90.0
 51
180.0
  0
LINE
  5
369
100
AcDbEntity
  8
0
370
    -3
390
0
  6
Continuous
100
AcDbLine
 10
226.960367
 20
260.887125
 30
0.0
 11
226.960367
 21
434.38965
 31
0.0
  0
ARC
  5
36A
100
AcDbEntity
  8
0
370
    -3
390
0
  6
Continuous
100
AcDbCircle
 10
228.960367
 20
384.138388
 30
0.0
 40
2.0
100
AcDbArc
 50
90.0
 51
180.0
  0
LINE
  5
36B
100
AcDbEntity
  8
0
370
    -3
390
0
  6
Continuous
100
AcDbLine
 10
242.117375
 20
180.73813
 30
0.0
 11
241.960367
 21
180.73813
 31
0.0
  0
LINE
  5
36C
100
AcDbEntity
  8
0
370
    -3
390
0
  6
Continuous
100
AcDbLine
 10
242.117375
 20
341.03612
 30
0.0
 11
241.960367
 21
341.03612
 31
0.0
  0
LINE
  5
36D
100
AcDbEntity
  8
0
370
    -3
390
0
  6
Continuous
100
AcDbLine
 10
244.960367
 20
260.887125
 30
0.0
 11
244.960367
 21
338.040231
 31
0.0
  0
LINE
  5
36E
100
AcDbEntity
  8
0
370
    -3
390
0
  6
Continuous
100
AcDbLine
 10
215.960367
 20
35.887125
 30
0.0
 11
236.960367
 21
35.887125
 31
0.0
  0
LINE
  5
36F
100
AcDbEntity
  8
0
370
    -3
390
0
  6
Continuous
100
AcDbLine
 10
212.960367
 20
38.887125
 30
0.0
 11
212.960367
 21
482.887125
 31
0.0
  0
ARC
  5
370
100
AcDbEntity
  8
0
370
    -3
390
0
  6
Continuous
100
AcDbCircle
 10
215.960367
 20
38.887125
 30
0.0
 40
3.0
100
AcDbArc
 50
180.0
 51
270.0
  0
LINE
  5
371
100
AcDbEntity
  8
0
370
    -3
390
0
  6
Continuous
100
AcDbLine
 10
236.960367
 20
260.887125
 30
0.0
 11
236.960367
 21
35.887125
 31
0.0
  0
LINE
  5
372
100
AcDbEntity
  8
0
370
    -3
390
0
  6
Continuous
100
AcDbLine
 10
241.960367
 20
260.887125
 30
0.0
 11
241.960367
 21
51.887125
 31
0.0
  0
LINE
  5
373
100
AcDbEntity
  8
0
370
    -3
390
0
  6
Continuous
100
AcDbLine
 10
244.960367
 20
260.887125
 30
0.0
 11
244.960367
 21
183.734019
 31
0.0
  0
LINE
  5
374
100
AcDbEntity
  8
0
370
    -3
390
0
  6
Continuous
100
AcDbLine
 10
236.960367
 20
260.887125
 30
0.0
 11
236.960367
 21
485.887125
 31
0.0
  0
LINE
  5
375
100
AcDbEntity
  8
0
370
    -3
390
0
  6
Continuous
100
AcDbLine
 10
241.960367
 20
260.887125
 30
0.0
 11
241.960367
 21
469.887125
 31
0.0
  0
LINE
  5
376
100
AcDbEntity
  8
0
370
    -3
390
0
  6
Continuous
100
AcDbLine
 10
49.960367
 20
428.887125
 30
0.0
 11
203.309362
 21
434.24219
 31
0.0
  0
LINE
  5
377
100
AcDbEntity
  8
0
370
    -3
390
0
  6
Continuous
100
AcDbLine
 10
240.960367
 20
470.887125
 30
0.0
 11
241.960367
 21
469.887125
 31
0.0
  0
LINE
  5
378
100
AcDbEntity
  8
0
370
    -3
390
0
  6
Continuous
100
AcDbLine
 10
241.960367
 20
51.887125
 30
0.0
 11
240.960367
 21
50.887125
 31
0.0
  0
LINE
  5
379
100
AcDbEntity
  8
0
370
    -3
390
0
  6
Continuous
100
AcDbLine
 10
240.960367
 20
50.887125
 30
0.0
 11
236.960367
 21
50.887125
 31
0.0
  0
ARC
  5
37A
100
AcDbEntity
  8
0
370
    -3
390
0
  6
Continuous
100
AcDbCircle
 10
241.960367
 20
183.734019
 30
0.0
 40
3.0
100
AcDbArc
 50
273.0
 51
0.0
  0
LINE
  5
37B
100
AcDbEntity
  8
0
370
    -3
390
0
  6
Continuous
100
AcDbLine
 10
246.960367
 20
208.387125
 30
0.0
 11
245.960367
 21
208.387125
 31
0.0
  0
LINE
  5
37C
100
AcDbEntity
  8
0
370
    -3
390
0
  6
Continuous
100
AcDbLine
 10
246.960367
 20
313.387125
 30
0.0
 11
245.960367
 21
313.387125
 31
0.0
  0
ARC
  5
37D
100
AcDbEntity
  8
0
370
    -3
390
0
  6
Continuous
100
AcDbCircle
 10
241.960367
 20
338.040231
 30
0.0
 40
3.0
100
AcDbArc
 50
0.0
 51
87.0
  0
ARC
  5
37E
100
AcDbEntity
  8
0
370
    -3
390
0
  6
Continuous
100
AcDbCircle
 10
202.960367
 20
444.236098
 30
0.0
 40
10.0
100
AcDbArc
 50
272.0
 51
0.0
  0
LINE
  5
37F
100
AcDbEntity
  8
0
370
    -3
390
0
  6
CENTER
100
AcDbLine
 10
351.224783
 20
260.887125
 30
0.0
 11
-385.310176
 21
260.887125
 31
0.0
  0
LINE
  5
380
100
AcDbEntity
  8
0
370
    -3
390
0
  6
Continuous
100
AcDbLine
 10
240.960367
 20
470.887125
 30
0.0
 11
236.960367
 21
470.887125
 31
0.0
  0
LINE
  5
381
100
AcDbEntity
  8
0
370
    -3
390
0
  6
Continuous
100
AcDbLine
 10
49.960367
 20
92.887125
 30
0.0
 11
49.960367
 21
428.887125
 31
0.0
  0
ARC
  5
382
100
AcDbEntity
  8
0
370
    -3
390
0
  6
Continuous
100
AcDbCircle
 10
245.960367
 20
207.387125
 30
0.0
 40
1.0
100
AcDbArc
 50
90.0
 51
180.0
  0
ARC
  5
383
100
AcDbEntity
  8
0
370
    -3
390
0
  6
Continuous
100
AcDbCircle
 10
245.960367
 20
314.387125
 30
0.0
 40
1.0
100
AcDbArc
 50
180.0
 51
270.0
  0
LINE
  5
384
100
AcDbEntity
  8
0
370
    -3
390
0
  6
Continuous
100
AcDbLine
 10
246.960367
 20
208.387125
 30
0.0
 11
246.960367
 21
313.387125
 31
0.0
  0
LINE
  5
385
100
AcDbEntity
  8
0
370
    -3
390
0
  6
Continuous
100
AcDbLine
 10
49.960367
 20
92.887125
 30
0.0
 11
203.309362
 21
87.53206
 31
0.0
  0
ARC
  5
386
100
AcDbEntity
  8
0
370
    -3
390
0
  6
Continuous
100
AcDbCircle
 10
202.960367
 20
77.538152
 30
0.0
 40
10.0
100
AcDbArc
 50
0.0
 51
88.0
  0
ARC
  5
387
100
AcDbEntity
  8
0
370
    -3
390
0
  6
Continuous
100
AcDbCircle
 10
161.470492
 20
240.387125
 30
0.0
 40
3.0
100
AcDbArc
 50
0.0
 51
90.0
  0
ARC
  5
388
100
AcDbEntity
  8
0
370
    -3
390
0
  6
Continuous
100
AcDbCircle
 10
161.470492
 20
281.387125
 30
0.0
 40
3.0
100
AcDbArc
 50
270.0
 51
0.0
  0
LINE
  5
389
100
AcDbEntity
  8
0
370
    -3
390
0
  6
Continuous
100
AcDbLine
 10
207.863633
 20
159.889852
 30
0.0
 11
172.926382
 21
159.889852
 31
0.0
  0
LINE
  5
38A
100
AcDbEntity
  8
0
370
    -3
390
0
  6
Continuous
100
AcDbLine
 10
167.731167
 20
157.987509
 30
0.0
 11
211.885227
 21
102.042493
 31
0.0
  0
LINE
  5
38B
100
AcDbEntity
  8
0
370
    -3
390
0
  6
Continuous
100
AcDbLine
 10
207.960367
 20
265.387125
 30
0.0
 11
171.229762
 21
265.387125
 31
0.0
  0
LINE
  5
38C
100
AcDbEntity
  8
0
370
    -3
390
0
  6
Continuous
100
AcDbLine
 10
207.960367
 20
256.387125
 30
0.0
 11
171.229762
 21
256.387125
 31
0.0
  0
ARC
  5
38D
100
AcDbEntity
  8
0
370
    -3
390
0
  6
Continuous
100
AcDbCircle
 10
171.229762
 20
270.387125
 30
0.0
 40
5.0
100
AcDbArc
 50
180.0
 51
270.0
  0
ARC
  5
38E
100
AcDbEntity
  8
0
370
    -3
390
0
  6
Continuous
100
AcDbCircle
 10
171.229762
 20
251.387125
 30
0.0
 40
5.0
100
AcDbArc
 50
90.0
 51
180.0
  0
ARC
  5
38F
100
AcDbEntity
  8
0
370
    -3
390
0
  6
Continuous
100
AcDbCircle
 10
207.960367
 20
251.387125
 30
0.0
 40
5.0
100
AcDbArc
 50
0.0
 51
90.0
  0
ARC
  5
390
100
AcDbEntity
  8
0
370
    -3
390
0
  6
Continuous
100
AcDbCircle
 10
207.960367
 20
270.387125
 30
0.0
 40
5.0
100
AcDbArc
 50
270.0
 51
0.0
  0
ARC
  5
391
100
AcDbEntity
  8
0
370
    -3
390
0
  6
Continuous
100
AcDbCircle
 10
163.806308
 20
154.889852
 30
0.0
 40
5.0
100
AcDbArc
 50
38.281923
 51
90.0
  0
ARC
  5
392
100
AcDbEntity
  8
0
370
    -3
390
0
  6
Continuous
100
AcDbCircle
 10
207.960367
 20
98.944836
 30
0.0
 40
5.0
100
AcDbArc
 50
0.0
 51
38.281923
  0
ARC
  5
393
100
AcDbEntity
  8
0
370
    -3
390
0
  6
Continuous
100
AcDbCircle
 10
207.960367
 20
88.817199
 30
0.0
 40
5.0
100
AcDbArc
 50
0.0
 51
38.281923
  0
LINE
  5
394
100
AcDbEntity
  8
0
370
    -3
390
0
  6
Continuous
100
AcDbLine
 10
167.731167
 20
147.859872
 30
0.0
 11
211.885227
 21
91.914856
 31
0.0
  0
ARC
  5
395
100
AcDbEntity
  8
0
370
    -3
390
0
  6
Continuous
100
AcDbCircle
 10
163.806308
 20
144.762215
 30
0.0
 40
5.0
100
AcDbArc
 50
38.281923
 51
90.0
  0
LINE
  5
396
100
AcDbEntity
  8
0
370
    -3
390
0
  6
Continuous
100
AcDbLine
 10
207.863633
 20
361.884398
 30
0.0
 11
172.926382
 21
361.884398
 31
0.0
  0
ARC
  5
397
100
AcDbEntity
  8
0
370
    -3
390
0
  6
Continuous
100
AcDbCircle
 10
207.960367
 20
432.957051
 30
0.0
 40
5.0
100
AcDbArc
 50
321.718077
 51
0.0
  0
LINE
  5
398
100
AcDbEntity
  8
0
370
    -3
390
0
  6
Continuous
100
AcDbLine
 10
167.731167
 20
373.914378
 30
0.0
 11
211.885227
 21
429.859394
 31
0.0
  0
ARC
  5
399
100
AcDbEntity
  8
0
370
    -3
390
0
  6
Continuous
100
AcDbCircle
 10
163.806308
 20
377.012035
 30
0.0
 40
5.0
100
AcDbArc
 50
270.0
 51
321.718077
  0
ARC
  5
39A
100
AcDbEntity
  8
0
370
    -3
390
0
  6
Continuous
100
AcDbCircle
 10
207.960367
 20
422.829415
 30
0.0
 40
5.0
100
AcDbArc
 50
321.718077
 51
0.0
  0
LINE
  5
39B
100
AcDbEntity
  8
0
370
    -3
390
0
  6
Continuous
100
AcDbLine
 10
167.731167
 20
363.786741
 30
0.0
 11
211.885227
 21
419.731758
 31
0.0
  0
ARC
  5
39C
100
AcDbEntity
  8
0
370
    -3
390
0
  6
Continuous
100
AcDbCircle
 10
163.806308
 20
366.884398
 30
0.0
 40
5.0
100
AcDbArc
 50
270.0
 51
321.718077
  0
CIRCLE
  5
39D
100
AcDbEntity
  8
0
370
    -3
390
0
  6
Continuous
100
AcDbCircle
 10
74.960367
 20
260.887125
 30
0.0
 40
16.0
  0
LINE
  5
39E
100
AcDbEntity
  8
0
370
    -3
390
0
  6
Continuous
100
AcDbLine
 10
341.960352
 20
260.887125
 30
0.0
 11
341.960352
 21
231.687125
 31
0.0
  0
ARC
  5
39F
100
AcDbEntity
  8
0
370
    -3
390
0
  6
Continuous
100
AcDbCircle
 10
341.160352
 20
231.687125
 30
0.0
 40
0.8
100
AcDbArc
 50
270.0
 51
0.0
  0
LINE
  5
3A0
100
AcDbEntity
  8
0
370
    -3
390
0
  6
Continuous
100
AcDbLine
 10
251.160352
 20
229.387125
 30
0.0
 11
246.960352
 21
229.387125
 31
0.0
  0
LINE
  5
3A1
100
AcDbEntity
  8
0
370
    -3
390
0
  6
Continuous
100
AcDbLine
 10
341.160352
 20
230.887125
 30
0.0
 11
254.52016
 21
230.887125
 31
0.0
  0
LINE
  5
3A2
100
AcDbEntity
  8
0
370
    -3
390
0
  6
Continuous
100
AcDbLine
 10
251.960352
 20
260.887125
 30
0.0
 11
251.960352
 21
230.187125
 31
0.0
  0
LINE
  5
3A3
100
AcDbEntity
  8
0
370
    -3
390
0
  6
Continuous
100
AcDbLine
 10
251.960352
 20
230.187125
 30
0.0
 11
251.160352
 21
229.387125
 31
0.0
  0
ARC
  5
3A4
100
AcDbEntity
  8
0
370
    -3
390
0
  6
Continuous
100
AcDbCircle
 10
252.760352
 20
230.237125
 30
0.0
 40
0.8
100
AcDbArc
 50
90.0
 51
180.0
  0
LINE
  5
3A5
100
AcDbEntity
  8
0
370
    -3
390
0
  6
Continuous
100
AcDbLine
 10
254.52016
 20
230.887125
 30
0.0
 11
253.960352
 21
231.037125
 31
0.0
  0
LINE
  5
3A6
100
AcDbEntity
  8
0
370
    -3
390
0
  6
Continuous
100
AcDbLine
 10
253.960352
 20
231.037125
 30
0.0
 11
252.760352
 21
231.037125
 31
0.0
  0
LINE
  5
3A7
100
AcDbEntity
  8
0
370
    -3
390
0
  6
Continuous
100
AcDbLine
 10
251.160352
 20
292.387125
 30
0.0
 11
246.960352
 21
292.387125
 31
0.0
  0
LINE
  5
3A8
100
AcDbEntity
  8
0
370
    -3
390
0
  6
Continuous
100
AcDbLine
 10
251.960352
 20
260.887125
 30
0.0
 11
251.960352
 21
291.587125
 31
0.0
  0
LINE
  5
3A9
100
AcDbEntity
  8
0
370
    -3
390
0
  6
Continuous
100
AcDbLine
 10
251.960352
 20
291.587125
 30
0.0
 11
251.160352
 21
292.387125
 31
0.0
  0
ARC
  5
3AA
100
AcDbEntity
  8
0
370
    -3
390
0
  6
Continuous
100
AcDbCircle
 10
252.760352
 20
291.537125
 30
0.0
 40
0.8
100
AcDbArc
 50
180.0
 51
270.0
  0
LINE
  5
3AB
100
AcDbEntity
  8
0
370
    -3
390
0
  6
Continuous
100
AcDbLine
 10
254.52016
 20
290.887125
 30
0.0
 11
253.960352
 21
290.737125
 31
0.0
  0
LINE
  5
3AC
100
AcDbEntity
  8
0
370
    -3
390
0
  6
Continuous
100
AcDbLine
 10
253.960352
 20
290.737125
 30
0.0
 11
252.760352
 21
290.737125
 31
0.0
  0
LINE
  5
3AD
100
AcDbEntity
  8
0
370
    -3
390
0
  6
Continuous
100
AcDbLine
 10
341.960352
 20
260.887125
 30
0.0
 11
341.960352
 21
290.087125
 31
0.0
  0
LINE
  5
3AE
100
AcDbEntity
  8
0
370
    -3
390
0
  6
Continuous
100
AcDbLine
 10
341.160352
 20
290.887125
 30
0.0
 11
254.52016
 21
290.887125
 31
0.0
  0
ARC
  5
3AF
100
AcDbEntity
  8
0
370
    -3
390
0
  6
Continuous
100
AcDbCircle
 10
341.160352
 20
290.087125
 30
0.0
 40
0.8
100
AcDbArc
 50
0.0
 51
90.0
  0
LINE
  5
3B0
100
AcDbEntity
  8
0
370
    -3
390
0
  6
Continuous
100
AcDbLine
 10
269.960352
 20
230.887125
 30
0.0
 11
269.960352
 21
226.887125
 31
0.0
  0
LINE
  5
3B1
100
AcDbEntity
  8
0
370
    -3
390
0
  6
Continuous
100
AcDbLine
 10
341.960352
 20
226.887125
 30
0.0
 11
341.960352
 21
231.687125
 31
0.0
  0
LINE
  5
3B2
100
AcDbEntity
  8
0
370
    -3
390
0
  6
Continuous
100
AcDbLine
 10
341.960352
 20
226.887125
 30
0.0
 11
269.960352
 21
226.887125
 31
0.0
  0
LINE
  5
3B3
100
AcDbEntity
  8
0
370
    -3
390
0
  6
Continuous
100
AcDbLine
 10
31.460367
 20
422.887125
 30
0.0
 11
25.160406
 21
422.887125
 31
0.0
  0
LINE
  5
3B4
100
AcDbEntity
  8
0
370
    -3
390
0
  6
Continuous
100
AcDbLine
 10
25.160391
 20
404.887125
 30
0.0
 11
25.160391
 21
422.887125
 31
0.0
  0
LINE
  5
3B5
100
AcDbEntity
  8
0
370
    -3
390
0
  6
Continuous
100
AcDbLine
 10
25.160405
 20
422.887128
 30
0.0
 11
24.460408
 21
421.674864
 31
0.0
  0
LINE
  5
3B6
100
AcDbEntity
  8
0
370
    -3
390
0
  6
Continuous
100
AcDbLine
 10
24.460409
 20
421.674861
 30
0.0
 11
24.460394
 21
406.099785
 31
0.0
  0
LINE
  5
3B7
100
AcDbEntity
  8
0
370
    -3
390
0
  6
Continuous
100
AcDbLine
 10
31.460367
 20
404.887125
 30
0.0
 11
25.160391
 21
404.887125
 31
0.0
  0
LINE
  5
3B8
100
AcDbEntity
  8
0
370
    -3
390
0
  6
Continuous
100
AcDbLine
 10
25.160386
 20
404.887124
 30
0.0
 11
24.460389
 21
406.099784
 31
0.0
  0
LINE
  5
3B9
100
AcDbEntity
  8
0
370
    -3
390
0
  6
Continuous
100
AcDbLine
 10
25.160391
 20
321.887125
 30
0.0
 11
25.160391
 21
339.887125
 31
0.0
  0
LINE
  5
3BA
100
AcDbEntity
  8
0
370
    -3
390
0
  6
Continuous
100
AcDbLine
 10
25.160405
 20
339.887128
 30
0.0
 11
24.460408
 21
338.674864
 31
0.0
  0
LINE
  5
3BB
100
AcDbEntity
  8
0
370
    -3
390
0
  6
Continuous
100
AcDbLine
 10
25.160386
 20
321.887124
 30
0.0
 11
24.460389
 21
323.099784
 31
0.0
  0
LINE
  5
3BC
100
AcDbEntity
  8
0
370
    -3
390
0
  6
Continuous
100
AcDbLine
 10
36.460367
 20
321.887125
 30
0.0
 11
25.160391
 21
321.887125
 31
0.0
  0
LINE
  5
3BD
100
AcDbEntity
  8
0
370
    -3
390
0
  6
Continuous
100
AcDbLine
 10
36.460367
 20
339.887125
 30
0.0
 11
25.160406
 21
339.887125
 31
0.0
  0
LINE
  5
3BE
100
AcDbEntity
  8
0
370
    -3
390
0
  6
Continuous
100
AcDbLine
 10
24.460409
 20
338.674861
 30
0.0
 11
24.460394
 21
323.099785
 31
0.0
  0
LINE
  5
3BF
100
AcDbEntity
  8
0
370
    -3
390
0
  6
Continuous
100
AcDbLine
 10
21.960367
 20
277.887125
 30
0.0
 11
14.460369
 21
277.887125
 31
0.0
  0
LINE
  5
3C0
100
AcDbEntity
  8
0
370
    -3
390
0
  6
Continuous
100
AcDbLine
 10
13.960368
 20
265.753249
 30
0.0
 11
13.960368
 21
277.021196
 31
0.0
  0
LINE
  5
3C1
100
AcDbEntity
  8
0
370
    -3
390
0
  6
Continuous
100
AcDbLine
 10
21.960367
 20
264.887125
 30
0.0
 11
14.460368
 21
264.887125
 31
0.0
  0
LINE
  5
3C2
100
AcDbEntity
  8
0
370
    -3
390
0
  6
Continuous
100
AcDbLine
 10
14.460369
 20
264.887125
 30
0.0
 11
13.960369
 21
265.753249
 31
0.0
  0
LINE
  5
3C3
100
AcDbEntity
  8
0
370
    -3
390
0
  6
Continuous
100
AcDbLine
 10
14.460369
 20
277.887125
 30
0.0
 11
13.960369
 21
277.021196
 31
0.0
  0
LINE
  5
3C4
100
AcDbEntity
  8
0
370
    -3
390
0
  6
Continuous
100
AcDbLine
 10
14.460368
 20
264.887125
 30
0.0
 11
14.460368
 21
277.887125
 31
0.0
  0
LINE
  5
3C5
100
AcDbEntity
  8
0
370
    -3
390
0
  6
Continuous
100
AcDbLine
 10
21.960367
 20
243.887125
 30
0.0
 11
14.460369
 21
243.887125
 31
0.0
  0
LINE
  5
3C6
100
AcDbEntity
  8
0
370
    -3
390
0
  6
Continuous
100
AcDbLine
 10
13.960368
 20
256.021001
 30
0.0
 11
13.960368
 21
244.753055
 31
0.0
  0
LINE
  5
3C7
100
AcDbEntity
  8
0
370
    -3
390
0
  6
Continuous
100
AcDbLine
 10
21.960367
 20
256.887125
 30
0.0
 11
14.460368
 21
256.887125
 31
0.0
  0
LINE
  5
3C8
100
AcDbEntity
  8
0
370
    -3
390
0
  6
Continuous
100
AcDbLine
 10
14.460369
 20
256.887125
 30
0.0
 11
13.960369
 21
256.021001
 31
0.0
  0
LINE
  5
3C9
100
AcDbEntity
  8
0
370
    -3
390
0
  6
Continuous
100
AcDbLine
 10
14.460369
 20
243.887125
 30
0.0
 11
13.960369
 21
244.753055
 31
0.0
  0
LINE
  5
3CA
100
AcDbEntity
  8
0
370
    -3
390
0
  6
Continuous
100
AcDbLine
 10
14.460368
 20
256.887125
 30
0.0
 11
14.460368
 21
243.887125
 31
0.0
  0
LINE
  5
3CB
100
AcDbEntity
  8
0
370
    -3
390
0
  6
Continuous
100
AcDbLine
 10
25.160391
 20
199.887125
 30
0.0
 11
25.160391
 21
181.887125
 31
0.0
  0
LINE
  5
3CC
100
AcDbEntity
  8
0
370
    -3
390
0
  6
Continuous
100
AcDbLine
 10
25.160405
 20
181.887122
 30
0.0
 11
24.460408
 21
183.099386
 31
0.0
  0
LINE
  5
3CD
100
AcDbEntity
  8
0
370
    -3
390
0
  6
Continuous
100
AcDbLine
 10
25.160386
 20
199.887126
 30
0.0
 11
24.460389
 21
198.674466
 31
0.0
  0
LINE
  5
3CE
100
AcDbEntity
  8
0
370
    -3
390
0
  6
Continuous
100
AcDbLine
 10
36.460367
 20
199.887125
 30
0.0
 11
25.160391
 21
199.887125
 31
0.0
  0
LINE
  5
3CF
100
AcDbEntity
  8
0
370
    -3
390
0
  6
Continuous
100
AcDbLine
 10
36.460367
 20
181.887125
 30
0.0
 11
25.160406
 21
181.887125
 31
0.0
  0
LINE
  5
3D0
100
AcDbEntity
  8
0
370
    -3
390
0
  6
Continuous
100
AcDbLine
 10
24.460409
 20
183.09939
 30
0.0
 11
24.460394
 21
198.674465
 31
0.0
  0
LINE
  5
3D1
100
AcDbEntity
  8
0
370
    -3
390
0
  6
Continuous
100
AcDbLine
 10
31.460367
 20
98.887125
 30
0.0
 11
25.160406
 21
98.887125
 31
0.0
  0
LINE
  5
3D2
100
AcDbEntity
  8
0
370
    -3
390
0
  6
Continuous
100
AcDbLine
 10
31.460367
 20
116.887125
 30
0.0
 11
25.160391
 21
116.887125
 31
0.0
  0
LINE
  5
3D3
100
AcDbEntity
  8
0
370
    -3
390
0
  6
Continuous
100
AcDbLine
 10
25.160391
 20
116.887125
 30
0.0
 11
25.160391
 21
98.887125
 31
0.0
  0
LINE
  5
3D4
100
AcDbEntity
  8
0
370
    -3
390
0
  6
Continuous
100
AcDbLine
 10
25.160405
 20
98.887122
 30
0.0
 11
24.460408
 21
100.099386
 31
0.0
  0
LINE
  5
3D5
100
AcDbEntity
  8
0
370
    -3
390
0
  6
Continuous
100
AcDbLine
 10
25.160386
 20
116.887126
 30
0.0
 11
24.460389
 21
115.674466
 31
0.0
  0
LINE
  5
3D6
100
AcDbEntity
  8
0
370
    -3
390
0
  6
Continuous
100
AcDbLine
 10
24.460409
 20
100.09939
 30
0.0
 11
24.460394
 21
115.674465
 31
0.0
  0
LINE
  5
3D7
100
AcDbEntity
  8
0
370
    -3
390
0
  6
Continuous
100
AcDbLine
 10
-281.539633
 20
364.147573
 30
0.0
 11
-281.539633
 21
365.788929
 31
0.0
  0
LINE
  5
3D8
100
AcDbEntity
  8
0
370
    -3
390
0
  6
Continuous
100
AcDbLine
 10
-295.539633
 20
364.147573
 30
0.0
 11
-295.539633
 21
365.788929
 31
0.0
  0
ELLIPSE
  5
3D9
100
AcDbEntity
  8
0
370
    -3
390
0
  6
Continuous
100
AcDbEllipse
 10
-288.539633
 20
364.147573
 30
0.0
 11
7.0
 21
0.0
 31
0.0
210
0.0
220
0.0
230
1.0
 40
0.707107
 41
3.1415926535897931
 42
0.0
  0
ELLIPSE
  5
3DA
100
AcDbEntity
  8
0
370
    -3
390
0
  6
Continuous
100
AcDbEllipse
 10
-288.539633
 20
365.788929
 30
0.0
 11
7.0
 21
0.0
 31
0.0
210
0.0
220
0.0
230
1.0
 40
0.692313
 41
3.1415926535897931
 42
0.0
  0
ELLIPSE
  5
3DB
100
AcDbEntity
  8
0
370
    -3
390
0
  6
Continuous
100
AcDbEllipse
 10
-288.539633
 20
365.788929
 30
0.0
 11
7.0
 21
0.0
 31
0.0
210
0.0
220
0.0
230
1.0
 40
0.692313
 41
0.0
 42
0.5464396163983196
  0
ELLIPSE
  5
3DC
100
AcDbEntity
  8
0
370
    -3
390
0
  6
Continuous
100
AcDbEllipse
 10
-288.539633
 20
365.788929
 30
0.0
 11
7.0
 21
0.0
 31
0.0
210
0.0
220
0.0
230
1.0
 40
0.692313
 41
2.5951530371914737
 42
3.1415926535897931
  0
ELLIPSE
  5
3DD
100
AcDbEntity
  8
0
370
    -3
390
0
  6
Continuous
100
AcDbEllipse
 10
-288.539633
 20
365.892482
 30
0.0
 11
6.25
 21
0.0
 31
0.0
210
0.0
220
0.0
230
1.0
 40
0.707107
 41
3.1415926535897931
 42
0.0
  0
LINE
  5
3DE
100
AcDbEntity
  8
0
370
    -3
390
0
  6
Continuous
100
AcDbLine
 10
-282.289633
 20
365.892482
 30
0.0
 11
-282.289633
 21
367.023853
 31
0.0
  0
LINE
  5
3DF
100
AcDbEntity
  8
0
370
    -3
390
0
  6
Continuous
100
AcDbLine
 10
-294.789633
 20
365.892482
 30
0.0
 11
-294.789633
 21
367.023853
 31
0.0
  0
ELLIPSE
  5
3E0
100
AcDbEntity
  8
0
370
    -3
390
0
  6
Continuous
100
AcDbEllipse
 10
-288.539633
 20
367.841983
 30
0.0
 11
5.25
 21
0.0
 31
0.0
210
0.0
220
0.0
230
1.0
 40
0.862941
 41
0.0
 42
6.2831853071795862
  0
ELLIPSE
  5
3E1
100
AcDbEntity
  8
0
370
    -3
390
0
  6
Continuous
100
AcDbEllipse
 10
-288.539633
 20
367.023853
 30
0.0
 11
6.25
 21
0.0
 31
0.0
210
0.0
220
0.0
230
1.0
 40
0.707107
 41
2.400808426782755
 42
0.7407842268070384
  0
LINE
  5
3E2
100
AcDbEntity
  8
0
370
    -3
390
0
  6
Continuous
100
AcDbLine
 10
-288.539633
 20
369.78157
 30
0.0
 11
-285.539633
 21
367.430294
 31
0.0
  0
LINE
  5
3E3
100
AcDbEntity
  8
0
370
    -3
390
0
  6
Continuous
100
AcDbLine
 10
-285.632459
 20
371.614412
 30
0.0
 11
-288.539633
 21
369.78157
 31
0.0
  0
LINE
  5
3E4
100
AcDbEntity
  8
0
370
    -3
390
0
  6
Continuous
100
AcDbLine
 10
-288.539633
 20
369.78157
 30
0.0
 11
-291.539633
 21
367.430294
 31
0.0
  0
LINE
  5
3E5
100
AcDbEntity
  8
0
370
    -3
390
0
  6
Continuous
100
AcDbLine
 10
-291.446806
 20
371.614412
 30
0.0
 11
-288.539633
 21
369.78157
 31
0.0
  0
LINE
  5
3E6
100
AcDbEntity
  8
0
370
    -3
390
0
  6
Continuous
100
AcDbLine
 10
-352.023174
 20
137.245354
 30
0.0
 11
-360.439633
 21
142.104599
 31
0.0
  0
ARC
  5
3E7
100
AcDbEntity
  8
0
370
    -3
390
0
  6
Continuous
100
AcDbCircle
 10
-301.423174
 20
224.887125
 30
0.0
 40
101.2
100
AcDbArc
 50
240.0
 51
270.0
  0
ARC
  5
3E8
100
AcDbEntity
  8
0
370
    -3
390
0
  6
Continuous
100
AcDbCircle
 10
-357.339633
 20
147.473956
 30
0.0
 40
6.2
100
AcDbArc
 50
180.0
 51
240.0
  0
LINE
  5
3E9
100
AcDbEntity
  8
0
370
    -3
390
0
  6
Continuous
100
AcDbLine
 10
-281.539633
 20
157.626678
 30
0.0
 11
-281.539633
 21
155.985322
 31
0.0
  0
LINE
  5
3EA
100
AcDbEntity
  8
0
370
    -3
390
0
  6
Continuous
100
AcDbLine
 10
-295.539633
 20
157.626678
 30
0.0
 11
-295.539633
 21
155.985322
 31
0.0
  0
ELLIPSE
  5
3EB
100
AcDbEntity
  8
0
370
    -3
390
0
  6
Continuous
100
AcDbEllipse
 10
-288.539633
 20
157.626678
 30
0.0
 11
7.0
 21
0.0
 31
0.0
210
0.0
220
0.0
230
1.0
 40
0.707107
 41
0.0
 42
3.1415926535897931
  0
ELLIPSE
  5
3EC
100
AcDbEntity
  8
0
370
    -3
390
0
  6
Continuous
100
AcDbEllipse
 10
-288.539633
 20
155.985322
 30
0.0
 11
7.0
 21
0.0
 31
0.0
210
0.0
220
0.0
230
1.0
 40
0.692313
 41
0.0
 42
3.1415926535897931
  0
ELLIPSE
  5
3ED
100
AcDbEntity
  8
0
370
    -3
390
0
  6
Continuous
100
AcDbEllipse
 10
-288.539633
 20
155.985322
 30
0.0
 11
7.0
 21
0.0
 31
0.0
210
0.0
220
0.0
230
1.0
 40
0.692313
 41
5.7367456907812695
 42
0.0
  0
ELLIPSE
  5
3EE
100
AcDbEntity
  8
0
370
    -3
390
0
  6
Continuous
100
AcDbEllipse
 10
-288.539633
 20
155.985322
 30
0.0
 11
7.0
 21
0.0
 31
0.0
210
0.0
220
0.0
230
1.0
 40
0.692313
 41
3.1415926535897931
 42
3.6880322699881103
  0
ELLIPSE
  5
3EF
100
AcDbEntity
  8
0
370
    -3
390
0
  6
Continuous
100
AcDbEllipse
 10
-288.539633
 20
155.881768
 30
0.0
 11
6.25
 21
0.0
 31
0.0
210
0.0
220
0.0
230
1.0
 40
0.707107
 41
0.0
 42
3.1415926535897931
  0
LINE
  5
3F0
100
AcDbEntity
  8
0
370
    -3
390
0
  6
Continuous
100
AcDbLine
 10
-282.289633
 20
155.881768
 30
0.0
 11
-282.289633
 21
154.750397
 31
0.0
  0
LINE
  5
3F1
100
AcDbEntity
  8
0
370
    -3
390
0
  6
Continuous
100
AcDbLine
 10
-294.789633
 20
155.881768
 30
0.0
 11
-294.789633
 21
154.750397
 31
0.0
  0
ELLIPSE
  5
3F2
100
AcDbEntity
  8
0
370
    -3
390
0
  6
Continuous
100
AcDbEllipse
 10
-288.539633
 20
153.932267
 30
0.0
 11
5.25
 21
0.0
 31
0.0
210
0.0
220
0.0
230
1.0
 40
0.862941
 41
0.0
 42
6.2831853071795862
  0
ELLIPSE
  5
3F3
100
AcDbEntity
  8
0
370
    -3
390
0
  6
Continuous
100
AcDbEllipse
 10
-288.539633
 20
154.750397
 30
0.0
 11
6.25
 21
0.0
 31
0.0
210
0.0
220
0.0
230
1.0
 40
0.707107
 41
5.5424010803725476
 42
3.8823768803968313
  0
LINE
  5
3F4
100
AcDbEntity
  8
0
370
    -3
390
0
  6
Continuous
100
AcDbLine
 10
-288.539633
 20
151.99268
 30
0.0
 11
-285.539633
 21
154.343956
 31
0.0
  0
LINE
  5
3F5
100
AcDbEntity
  8
0
370
    -3
390
0
  6
Continuous
100
AcDbLine
 10
-285.632459
 20
150.159838
 30
0.0
 11
-288.539633
 21
151.99268
 31
0.0
  0
LINE
  5
3F6
100
AcDbEntity
  8
0
370
    -3
390
0
  6
Continuous
100
AcDbLine
 10
-288.539633
 20
151.99268
 30
0.0
 11
-291.539633
 21
154.343956
 31
0.0
  0
LINE
  5
3F7
100
AcDbEntity
  8
0
370
    -3
390
0
  6
Continuous
100
AcDbLine
 10
-291.446806
 20
150.159838
 30
0.0
 11
-288.539633
 21
151.99268
 31
0.0
  0
LINE
  5
3F8
100
AcDbEntity
  8
0
370
    -3
390
0
  6
Continuous
100
AcDbLine
 10
-352.023174
 20
384.528896
 30
0.0
 11
-360.439633
 21
379.669652
 31
0.0
  0
ARC
  5
3F9
100
AcDbEntity
  8
0
370
    -3
390
0
  6
Continuous
100
AcDbCircle
 10
-301.423174
 20
296.887125
 30
0.0
 40
101.2
100
AcDbArc
 50
90.0
 51
120.0
  0
ARC
  5
3FA
100
AcDbEntity
  8
0
370
    -3
390
0
  6
Continuous
100
AcDbCircle
 10
-357.339633
 20
374.300294
 30
0.0
 40
6.2
100
AcDbArc
 50
120.0
 51
180.0
  0
LINE
  5
3FB
100
AcDbEntity
  8
0
370
    -3
390
0
  6
Continuous
100
AcDbLine
 10
-301.744714
 20
398.087125
 30
0.0
 11
-246.539633
 21
398.087125
 31
0.0
  0
LINE
  5
3FC
100
AcDbEntity
  8
0
370
    -3
390
0
  6
Continuous
100
AcDbLine
 10
-363.539633
 20
260.887125
 30
0.0
 11
-363.539633
 21
147.473956
 31
0.0
  0
LINE
  5
3FD
100
AcDbEntity
  8
0
370
    -3
390
0
  6
Continuous
100
AcDbLine
 10
-363.539633
 20
260.887125
 30
0.0
 11
-363.539633
 21
374.300294
 31
0.0
  0
LINE
  5
3FE
100
AcDbEntity
  8
0
370
    -3
390
0
  6
Continuous
100
AcDbLine
 10
-246.539633
 20
136.887125
 30
0.0
 11
-16.539633
 21
136.887125
 31
0.0
  0
LINE
  5
3FF
100
AcDbEntity
  8
0
370
    -3
390
0
  6
Continuous
100
AcDbLine
 10
-246.539633
 20
142.887125
 30
0.0
 11
-16.539633
 21
142.887125
 31
0.0
  0
LINE
  5
400
100
AcDbEntity
  8
0
370
    -3
390
0
  6
Continuous
100
AcDbLine
 10
-246.539633
 20
156.179626
 30
0.0
 11
-16.539633
 21
156.179626
 31
0.0
  0
LINE
  5
401
100
AcDbEntity
  8
0
370
    -3
390
0
  6
Continuous
100
AcDbLine
 10
-246.539633
 20
254.637125
 30
0.0
 11
-16.539633
 21
254.637125
 31
0.0
  0
LINE
  5
402
100
AcDbEntity
  8
0
370
    -3
390
0
  6
Continuous
100
AcDbLine
 10
-246.539633
 20
245.887125
 30
0.0
 11
-16.539633
 21
245.887125
 31
0.0
  0
LINE
  5
403
100
AcDbEntity
  8
0
370
    -3
390
0
  6
Continuous
100
AcDbLine
 10
-246.539633
 20
231.43273
 30
0.0
 11
-16.539633
 21
231.43273
 31
0.0
  0
LINE
  5
404
100
AcDbEntity
  8
0
370
    -3
390
0
  6
Continuous
100
AcDbLine
 10
-246.539633
 20
234.327104
 30
0.0
 11
-16.539633
 21
234.327104
 31
0.0
  0
LINE
  5
405
100
AcDbEntity
  8
0
370
    -3
390
0
  6
Continuous
100
AcDbLine
 10
-246.539633
 20
243.067815
 30
0.0
 11
-16.539633
 21
243.067815
 31
0.0
  0
LINE
  5
406
100
AcDbEntity
  8
0
370
    -3
390
0
  6
Continuous
100
AcDbLine
 10
-246.539633
 20
220.399855
 30
0.0
 11
-16.539633
 21
220.399855
 31
0.0
  0
LINE
  5
407
100
AcDbEntity
  8
0
370
    -3
390
0
  6
Continuous
100
AcDbLine
 10
-246.539633
 20
217.336536
 30
0.0
 11
-16.539633
 21
217.336536
 31
0.0
  0
LINE
  5
408
100
AcDbEntity
  8
0
370
    -3
390
0
  6
Continuous
100
AcDbLine
 10
-246.539633
 20
206.463767
 30
0.0
 11
-16.539633
 21
206.463767
 31
0.0
  0
LINE
  5
409
100
AcDbEntity
  8
0
370
    -3
390
0
  6
Continuous
100
AcDbLine
 10
-246.539633
 20
203.244354
 30
0.0
 11
-16.539633
 21
203.244354
 31
0.0
  0
LINE
  5
40A
100
AcDbEntity
  8
0
370
    -3
390
0
  6
Continuous
100
AcDbLine
 10
-246.539633
 20
192.543912
 30
0.0
 11
-16.539633
 21
192.543912
 31
0.0
  0
LINE
  5
40B
100
AcDbEntity
  8
0
370
    -3
390
0
  6
Continuous
100
AcDbLine
 10
-246.539633
 20
189.307184
 30
0.0
 11
-16.539633
 21
189.307184
 31
0.0
  0
LINE
  5
40C
100
AcDbEntity
  8
0
370
    -3
390
0
  6
Continuous
100
AcDbLine
 10
-246.539633
 20
168.907548
 30
0.0
 11
-16.539633
 21
168.907548
 31
0.0
  0
LINE
  5
40D
100
AcDbEntity
  8
0
370
    -3
390
0
  6
Continuous
100
AcDbLine
 10
-246.539633
 20
135.887125
 30
0.0
 11
-16.539633
 21
135.887125
 31
0.0
  0
LINE
  5
40E
100
AcDbEntity
  8
0
370
    -3
390
0
  6
Continuous
100
AcDbLine
 10
-16.539633
 20
260.887125
 30
0.0
 11
-16.539633
 21
135.887125
 31
0.0
  0
ARC
  5
40F
100
AcDbEntity
  8
0
370
    -3
390
0
  6
Continuous
100
AcDbCircle
 10
-253.139633
 20
123.487125
 30
0.0
 40
2.0
100
AcDbArc
 50
270.0
 51
0.0
  0
LINE
  5
410
100
AcDbEntity
  8
0
370
    -3
390
0
  6
Continuous
100
AcDbLine
 10
-226.539633
 20
119.887125
 30
0.0
 11
-257.539633
 21
119.887125
 31
0.0
  0
LINE
  5
411
100
AcDbEntity
  8
0
370
    -3
390
0
  6
Continuous
100
AcDbLine
 10
-257.539633
 20
121.487125
 30
0.0
 11
-226.539633
 21
121.487125
 31
0.0
  0
LINE
  5
412
100
AcDbEntity
  8
0
370
    -3
390
0
  6
Continuous
100
AcDbLine
 10
-201.939633
 20
123.487125
 30
0.0
 11
-201.939633
 21
131.687125
 31
0.0
  0
LINE
  5
413
100
AcDbEntity
  8
0
370
    -3
390
0
  6
Continuous
100
AcDbLine
 10
-202.539633
 20
134.887125
 30
0.0
 11
-202.539633
 21
135.887125
 31
0.0
  0
ARC
  5
414
100
AcDbEntity
  8
0
370
    -3
390
0
  6
Continuous
100
AcDbCircle
 10
-205.139633
 20
131.687125
 30
0.0
 40
3.2
100
AcDbArc
 50
0.0
 51
90.0
  0
LINE
  5
415
100
AcDbEntity
  8
0
370
    -3
390
0
  6
Continuous
100
AcDbLine
 10
-202.539633
 20
134.887125
 30
0.0
 11
-226.539633
 21
134.887125
 31
0.0
  0
ARC
  5
416
100
AcDbEntity
  8
0
370
    -3
390
0
  6
Continuous
100
AcDbCircle
 10
-199.939633
 20
123.487125
 30
0.0
 40
2.0
100
AcDbArc
 50
180.0
 51
270.0
  0
LINE
  5
417
100
AcDbEntity
  8
0
370
    -3
390
0
  6
Continuous
100
AcDbLine
 10
-226.539633
 20
119.887125
 30
0.0
 11
-195.539633
 21
119.887125
 31
0.0
  0
LINE
  5
418
100
AcDbEntity
  8
0
370
    -3
390
0
  6
Continuous
100
AcDbLine
 10
-195.539633
 20
121.487125
 30
0.0
 11
-226.539633
 21
121.487125
 31
0.0
  0
ARC
  5
419
100
AcDbEntity
  8
0
370
    -3
390
0
  6
Continuous
100
AcDbCircle
 10
-260.539633
 20
123.461902
 30
0.0
 40
1.0
100
AcDbArc
 50
90.0
 51
166.983983
  0
LINE
  5
41A
100
AcDbEntity
  8
0
370
    -3
390
0
  6
Continuous
100
AcDbLine
 10
-301.744714
 20
123.687125
 30
0.0
 11
-261.51394
 21
123.687125
 31
0.0
  0
LINE
  5
41B
100
AcDbEntity
  8
0
370
    -3
390
0
  6
Continuous
100
AcDbLine
 10
-249.539633
 20
124.461902
 30
0.0
 11
-260.539633
 21
124.461902
 31
0.0
  0
ARC
  5
41C
100
AcDbEntity
  8
0
370
    -3
390
0
  6
Continuous
100
AcDbCircle
 10
-249.539633
 20
127.461902
 30
0.0
 40
3.0
100
AcDbArc
 50
270.0
 51
0.0
  0
LINE
  5
41D
100
AcDbEntity
  8
0
370
    -3
390
0
  6
Continuous
100
AcDbLine
 10
-246.539633
 20
134.887125
 30
0.0
 11
-226.539633
 21
134.887125
 31
0.0
  0
LINE
  5
41E
100
AcDbEntity
  8
0
370
    -3
390
0
  6
Continuous
100
AcDbLine
 10
-251.139633
 20
123.487125
 30
0.0
 11
-251.139633
 21
124.461902
 31
0.0
  0
LINE
  5
41F
100
AcDbEntity
  8
0
370
    -3
390
0
  6
Continuous
100
AcDbLine
 10
-246.539633
 20
398.087125
 30
0.0
 11
-246.539633
 21
127.461902
 31
0.0
  0
ARC
  5
420
100
AcDbEntity
  8
0
370
    -3
390
0
  6
Continuous
100
AcDbCircle
 10
-186.139633
 20
76.973656
 30
0.0
 40
8.6
100
AcDbArc
 50
270.0
 51
0.0
  0
ARC
  5
421
100
AcDbEntity
  8
0
370
    -3
390
0
  6
Continuous
100
AcDbCircle
 10
-266.939633
 20
76.973656
 30
0.0
 40
8.6
100
AcDbArc
 50
180.0
 51
270.0
  0
ARC
  5
422
100
AcDbEntity
  8
0
370
    -3
390
0
  6
Continuous
100
AcDbCircle
 10
-188.339633
 20
76.735161
 30
0.0
 40
8.6
100
AcDbArc
 50
270.0
 51
0.0
  0
LINE
  5
423
100
AcDbEntity
  8
0
370
    -3
390
0
  6
Continuous
100
AcDbLine
 10
-264.739633
 20
68.135161
 30
0.0
 11
-188.339633
 21
68.135161
 31
0.0
  0
ARC
  5
424
100
AcDbEntity
  8
0
370
    -3
390
0
  6
Continuous
100
AcDbCircle
 10
-264.739633
 20
76.735161
 30
0.0
 40
8.6
100
AcDbArc
 50
180.0
 51
270.0
  0
LINE
  5
425
100
AcDbEntity
  8
0
370
    -3
390
0
  6
Continuous
100
AcDbLine
 10
-266.939633
 20
68.373656
 30
0.0
 11
-266.750911
 21
68.373656
 31
0.0
  0
LINE
  5
426
100
AcDbEntity
  8
0
370
    -3
390
0
  6
Continuous
100
AcDbLine
 10
-186.328354
 20
68.373656
 30
0.0
 11
-186.139633
 21
68.373656
 31
0.0
  0
ARC
  5
427
100
AcDbEntity
  8
0
370
    -3
390
0
  6
Continuous
100
AcDbCircle
 10
-186.339633
 20
111.022075
 30
0.0
 40
8.8
100
AcDbArc
 50
0.0
 51
90.0
  0
LINE
  5
428
100
AcDbEntity
  8
0
370
    -3
390
0
  6
Continuous
100
AcDbLine
 10
-275.539633
 20
111.022075
 30
0.0
 11
-275.539633
 21
76.973656
 31
0.0
  0
ARC
  5
429
100
AcDbEntity
  8
0
370
    -3
390
0
  6
Continuous
100
AcDbCircle
 10
-266.739633
 20
111.022075
 30
0.0
 40
8.8
100
AcDbArc
 50
90.0
 51
180.0
  0
LINE
  5
42A
100
AcDbEntity
  8
0
370
    -3
390
0
  6
Continuous
100
AcDbLine
 10
-177.539633
 20
111.022075
 30
0.0
 11
-177.539633
 21
76.973656
 31
0.0
  0
LINE
  5
42B
100
AcDbEntity
  8
0
370
    -3
390
0
  6
Continuous
100
AcDbLine
 10
-266.739633
 20
116.378105
 30
0.0
 11
-186.339633
 21
116.378105
 31
0.0
  0
ARC
  5
42C
100
AcDbEntity
  8
0
370
    -3
390
0
  6
Continuous
100
AcDbCircle
 10
-266.739633
 20
107.578105
 30
0.0
 40
8.8
100
AcDbArc
 50
90.0
 51
180.0
  0
ARC
  5
42D
100
AcDbEntity
  8
0
370
    -3
390
0
  6
Continuous
100
AcDbCircle
 10
-186.339633
 20
107.578105
 30
0.0
 40
8.8
100
AcDbArc
 50
0.0
 51
90.0
  0
ARC
  5
42E
100
AcDbEntity
  8
0
370
    -3
390
0
  6
Continuous
100
AcDbCircle
 10
-188.539633
 20
106.410048
 30
0.0
 40
8.8
100
AcDbArc
 50
0.0
 51
90.0
  0
LINE
  5
42F
100
AcDbEntity
  8
0
370
    -3
390
0
  6
Continuous
100
AcDbLine
 10
-179.739633
 20
106.410048
 30
0.0
 11
-179.739633
 21
76.735161
 31
0.0
  0
LINE
  5
430
100
AcDbEntity
  8
0
370
    -3
390
0
  6
Continuous
100
AcDbLine
 10
-264.539633
 20
115.210048
 30
0.0
 11
-188.539633
 21
115.210048
 31
0.0
  0
LINE
  5
431
100
AcDbEntity
  8
0
370
    -3
390
0
  6
Continuous
100
AcDbLine
 10
-273.339633
 20
106.410048
 30
0.0
 11
-273.339633
 21
76.735161
 31
0.0
  0
ARC
  5
432
100
AcDbEntity
  8
0
370
    -3
390
0
  6
Continuous
100
AcDbCircle
 10
-264.539633
 20
106.410048
 30
0.0
 40
8.8
100
AcDbArc
 50
90.0
 51
180.0
  0
LINE
  5
433
100
AcDbEntity
  8
0
370
    -3
390
0
  6
Continuous
100
AcDbLine
 10
-266.739633
 20
119.822075
 30
0.0
 11
-238.039633
 21
119.822075
 31
0.0
  0
LINE
  5
434
100
AcDbEntity
  8
0
370
    -3
390
0
  6
Continuous
100
AcDbLine
 10
-238.039633
 20
119.822075
 30
0.0
 11
-238.039633
 21
118.322075
 31
0.0
  0
LINE
  5
435
100
AcDbEntity
  8
0
370
    -3
390
0
  6
Continuous
100
AcDbLine
 10
-238.039633
 20
118.322075
 30
0.0
 11
-237.039633
 21
118.322075
 31
0.0
  0
LINE
  5
436
100
AcDbEntity
  8
0
370
    -3
390
0
  6
Continuous
100
AcDbLine
 10
-186.339633
 20
119.822075
 30
0.0
 11
-215.039633
 21
119.822075
 31
0.0
  0
LINE
  5
437
100
AcDbEntity
  8
0
370
    -3
390
0
  6
Continuous
100
AcDbLine
 10
-237.039633
 20
118.870794
 30
0.0
 11
-237.039633
 21
118.322075
 31
0.0
  0
LINE
  5
438
100
AcDbEntity
  8
0
370
    -3
390
0
  6
Continuous
100
AcDbLine
 10
-215.039633
 20
119.822075
 30
0.0
 11
-215.039633
 21
118.322075
 31
0.0
  0
LINE
  5
439
100
AcDbEntity
  8
0
370
    -3
390
0
  6
Continuous
100
AcDbLine
 10
-215.039633
 20
118.322075
 30
0.0
 11
-216.039633
 21
118.322075
 31
0.0
  0
LINE
  5
43A
100
AcDbEntity
  8
0
370
    -3
390
0
  6
Continuous
100
AcDbLine
 10
-216.039633
 20
118.870794
 30
0.0
 11
-216.039633
 21
118.322075
 31
0.0
  0
LINE
  5
43B
100
AcDbEntity
  8
0
370
    -3
390
0
  6
Continuous
100
AcDbLine
 10
-216.039633
 20
118.870794
 30
0.0
 11
-237.039633
 21
118.870794
 31
0.0
  0
LINE
  5
43C
100
AcDbEntity
  8
0
370
    -3
390
0
  6
Continuous
100
AcDbLine
 10
-216.039633
 20
118.609327
 30
0.0
 11
-237.039633
 21
118.609327
 31
0.0
  0
LINE
  5
43D
100
AcDbEntity
  8
0
370
    -3
390
0
  6
Continuous
100
AcDbLine
 10
-195.539633
 20
119.887125
 30
0.0
 11
-195.539633
 21
119.822075
 31
0.0
  0
LINE
  5
43E
100
AcDbEntity
  8
0
370
    -3
390
0
  6
Continuous
100
AcDbLine
 10
-257.539633
 20
119.887125
 30
0.0
 11
-257.539633
 21
119.822075
 31
0.0
  0
LINE
  5
43F
100
AcDbEntity
  8
0
370
    -3
390
0
  6
Continuous
100
AcDbLine
 10
-257.539633
 20
119.887125
 30
0.0
 11
-195.539633
 21
119.887125
 31
0.0
  0
LINE
  5
440
100
AcDbEntity
  8
0
370
    -3
390
0
  6
Continuous
100
AcDbLine
 10
-257.539633
 20
119.887125
 30
0.0
 11
-257.539633
 21
121.487125
 31
0.0
  0
LINE
  5
441
100
AcDbEntity
  8
0
370
    -3
390
0
  6
Continuous
100
AcDbLine
 10
-195.539633
 20
119.887125
 30
0.0
 11
-195.539633
 21
121.487125
 31
0.0
  0
LINE
  5
442
100
AcDbEntity
  8
0
370
    -3
390
0
  6
Continuous
100
AcDbLine
 10
-246.539633
 20
384.887125
 30
0.0
 11
-16.539633
 21
384.887125
 31
0.0
  0
LINE
  5
443
100
AcDbEntity
  8
0
370
    -3
390
0
  6
Continuous
100
AcDbLine
 10
-246.539633
 20
378.887125
 30
0.0
 11
-16.539633
 21
378.887125
 31
0.0
  0
LINE
  5
444
100
AcDbEntity
  8
0
370
    -3
390
0
  6
Continuous
100
AcDbLine
 10
-246.539633
 20
365.594625
 30
0.0
 11
-16.539633
 21
365.594625
 31
0.0
  0
LINE
  5
445
100
AcDbEntity
  8
0
370
    -3
390
0
  6
Continuous
100
AcDbLine
 10
-246.539633
 20
267.137125
 30
0.0
 11
-16.539633
 21
267.137125
 31
0.0
  0
LINE
  5
446
100
AcDbEntity
  8
0
370
    -3
390
0
  6
Continuous
100
AcDbLine
 10
-246.539633
 20
275.887125
 30
0.0
 11
-16.539633
 21
275.887125
 31
0.0
  0
LINE
  5
447
100
AcDbEntity
  8
0
370
    -3
390
0
  6
Continuous
100
AcDbLine
 10
-246.539633
 20
290.341521
 30
0.0
 11
-16.539633
 21
290.341521
 31
0.0
  0
LINE
  5
448
100
AcDbEntity
  8
0
370
    -3
390
0
  6
Continuous
100
AcDbLine
 10
-246.539633
 20
287.447146
 30
0.0
 11
-16.539633
 21
287.447146
 31
0.0
  0
LINE
  5
449
100
AcDbEntity
  8
0
370
    -3
390
0
  6
Continuous
100
AcDbLine
 10
-246.539633
 20
278.706435
 30
0.0
 11
-16.539633
 21
278.706435
 31
0.0
  0
LINE
  5
44A
100
AcDbEntity
  8
0
370
    -3
390
0
  6
Continuous
100
AcDbLine
 10
-246.539633
 20
301.374395
 30
0.0
 11
-16.539633
 21
301.374395
 31
0.0
  0
LINE
  5
44B
100
AcDbEntity
  8
0
370
    -3
390
0
  6
Continuous
100
AcDbLine
 10
-246.539633
 20
304.437714
 30
0.0
 11
-16.539633
 21
304.437714
 31
0.0
  0
LINE
  5
44C
100
AcDbEntity
  8
0
370
    -3
390
0
  6
Continuous
100
AcDbLine
 10
-246.539633
 20
315.310483
 30
0.0
 11
-16.539633
 21
315.310483
 31
0.0
  0
LINE
  5
44D
100
AcDbEntity
  8
0
370
    -3
390
0
  6
Continuous
100
AcDbLine
 10
-246.539633
 20
318.529896
 30
0.0
 11
-16.539633
 21
318.529896
 31
0.0
  0
LINE
  5
44E
100
AcDbEntity
  8
0
370
    -3
390
0
  6
Continuous
100
AcDbLine
 10
-246.539633
 20
329.230338
 30
0.0
 11
-16.539633
 21
329.230338
 31
0.0
  0
LINE
  5
44F
100
AcDbEntity
  8
0
370
    -3
390
0
  6
Continuous
100
AcDbLine
 10
-246.539633
 20
332.467066
 30
0.0
 11
-16.539633
 21
332.467066
 31
0.0
  0
LINE
  5
450
100
AcDbEntity
  8
0
370
    -3
390
0
  6
Continuous
100
AcDbLine
 10
-246.539633
 20
352.866703
 30
0.0
 11
-16.539633
 21
352.866703
 31
0.0
  0
LINE
  5
451
100
AcDbEntity
  8
0
370
    -3
390
0
  6
Continuous
100
AcDbLine
 10
-246.539633
 20
385.887125
 30
0.0
 11
-16.539633
 21
385.887125
 31
0.0
  0
LINE
  5
452
100
AcDbEntity
  8
0
370
    -3
390
0
  6
Continuous
100
AcDbLine
 10
-16.539633
 20
260.887125
 30
0.0
 11
-16.539633
 21
385.887125
 31
0.0
  0
CIRCLE
  5
453
100
AcDbEntity
  8
0
370
    -3
390
0
  6
DASHED
100
AcDbCircle
 10
-226.539633
 20
92.887125
 30
0.0
 40
13.5
  0
LINE
  5
454
100
AcDbEntity
  8
0
370
    -3
390
0
  6
CENTER
100
AcDbLine
 10
-209.100177
 20
92.887125
 30
0.0
 11
-244.103382
 21
92.887125
 31
0.0
  0
LINE
  5
455
100
AcDbEntity
  8
0
370
    -3
390
0
  6
CENTER
100
AcDbLine
 10
-226.539633
 20
136.887125
 30
0.0
 11
-226.539633
 21
61.183333
 31
0.0
  0
ARC
  5
456
100
AcDbEntity
  8
0
370
    -3
390
0
  6
Continuous
100
AcDbCircle
 10
-648.884445
 20
-289.112875
 30
0.0
 40
131.5
100
AcDbArc
 50
359.989714
 51
0.0
  0
ARC
  5
457
100
AcDbEntity
  8
0
370
    -3
390
0
  6
Continuous
100
AcDbCircle
 10
-554.889496
 20
-190.117925
 30
0.0
 40
14.0
100
AcDbArc
 50
28.92718
 51
61.072837
  0
LINE
  5
458
100
AcDbEntity
  8
0
370
    -3
390
0
  6
Continuous
100
AcDbLine
 10
-544.035408
 20
-186.688457
 30
0.0
 11
-542.955644
 21
-185.608693
 31
0.0
  0
LINE
  5
459
100
AcDbEntity
  8
0
370
    -3
390
0
  6
Continuous
100
AcDbLine
 10
-551.460027
 20
-179.263837
 30
0.0
 11
-550.380264
 21
-178.184073
 31
0.0
  0
ARC
  5
45A
100
AcDbEntity
  8
0
370
    -3
390
0
  6
Continuous
100
AcDbCircle
 10
-549.036761
 20
-179.527576
 30
0.0
 40
1.9
100
AcDbArc
 50
61.072892
 51
135.000018
  0
ARC
  5
45B
100
AcDbEntity
  8
0
370
    -3
390
0
  6
Continuous
100
AcDbCircle
 10
-544.299146
 20
-184.26519
 30
0.0
 40
1.9
100
AcDbArc
 50
314.999999
 51
28.92718
  0
ARC
  5
45C
100
AcDbEntity
  8
0
370
    -3
390
0
  6
Continuous
100
AcDbCircle
 10
-544.636448
 20
-189.057265
 30
0.0
 40
0.5
100
AcDbArc
 50
315.0
 51
45.0
  0
ARC
  5
45D
100
AcDbEntity
  8
0
370
    -3
390
0
  6
Continuous
100
AcDbCircle
 10
-553.828836
 20
-179.864877
 30
0.0
 40
0.5
100
AcDbArc
 50
45.0
 51
135.0
  0
LINE
  5
45E
100
AcDbEntity
  8
0
370
    -3
390
0
  6
Continuous
100
AcDbLine
 10
-554.182389
 20
-179.511324
 30
0.0
 11
-555.573745
 21
-180.90268
 31
0.0
  0
LINE
  5
45F
100
AcDbEntity
  8
0
370
    -3
390
0
  6
Continuous
100
AcDbLine
 10
-544.282894
 20
-189.410819
 30
0.0
 11
-545.674251
 21
-190.802175
 31
0.0
  0
LINE
  5
460
100
AcDbEntity
  8
0
370
    -3
390
0
  6
Continuous
100
AcDbLine
 10
-544.459671
 20
-188.526935
 30
0.0
 11
-543.3283
 21
-187.395564
 31
0.0
  0
LINE
  5
461
100
AcDbEntity
  8
0
370
    -3
390
0
  6
Continuous
100
AcDbLine
 10
-553.298506
 20
-179.6881
 30
0.0
 11
-552.167135
 21
-178.55673
 31
0.0
  0
ARC
  5
462
100
AcDbEntity
  8
0
370
    -3
390
0
  6
Continuous
100
AcDbCircle
 10
-516.484445
 20
-315.712875
 30
0.0
 40
2.0
100
AcDbArc
 50
0.0
 51
90.0
  0
LINE
  5
463
100
AcDbEntity
  8
0
370
    -3
390
0
  6
Continuous
100
AcDbLine
 10
-512.884445
 20
-320.112875
 30
0.0
 11
-514.484445
 21
-320.112875
 31
0.0
  0
ARC
  5
464
100
AcDbEntity
  8
0
370
    -3
390
0
  6
Continuous
100
AcDbCircle
 10
-516.484445
 20
-262.512875
 30
0.0
 40
2.0
100
AcDbArc
 50
270.0
 51
0.0
  0
LINE
  5
465
100
AcDbEntity
  8
0
370
    -3
390
0
  6
Continuous
100
AcDbLine
 10
-512.884445
 20
-320.112875
 30
0.0
 11
-512.884445
 21
-258.112875
 31
0.0
  0
LINE
  5
466
100
AcDbEntity
  8
0
370
    -3
390
0
  6
Continuous
100
AcDbLine
 10
-514.484445
 20
-258.112875
 30
0.0
 11
-514.484445
 21
-320.112875
 31
0.0
  0
LINE
  5
467
100
AcDbEntity
  8
0
370
    -3
390
0
  6
Continuous
100
AcDbLine
 10
-512.884445
 20
-258.112875
 30
0.0
 11
-514.484445
 21
-258.112875
 31
0.0
  0
LINE
  5
468
100
AcDbEntity
  8
0
370
    -3
390
0
  6
Continuous
100
AcDbLine
 10
-511.884445
 20
-255.989952
 30
0.0
 11
-511.884445
 21
-336.312875
 31
0.0
  0
ARC
  5
469
100
AcDbEntity
  8
0
370
    -3
390
0
  6
Continuous
100
AcDbCircle
 10
-507.500652
 20
-250.497608
 30
0.0
 40
1.0
100
AcDbArc
 50
205.0
 51
255.515443
  0
LINE
  5
46A
100
AcDbEntity
  8
0
370
    -3
390
0
  6
Continuous
100
AcDbLine
 10
-512.884445
 20
-258.112875
 30
0.0
 11
-512.884445
 21
-320.112875
 31
0.0
  0
LINE
  5
46B
100
AcDbEntity
  8
0
370
    -3
390
0
  6
Continuous
100
AcDbLine
 10
-511.884445
 20
-320.112875
 30
0.0
 11
-512.884445
 21
-320.112875
 31
0.0
  0
LINE
  5
46C
100
AcDbEntity
  8
0
370
    -3
390
0
  6
Continuous
100
AcDbLine
 10
-511.884445
 20
-258.112875
 30
0.0
 11
-512.884445
 21
-258.112875
 31
0.0
  0
ARC
  5
46D
100
AcDbEntity
  8
0
370
    -3
390
0
  6
Continuous
100
AcDbCircle
 10
-509.084445
 20
-255.989952
 30
0.0
 40
2.8
100
AcDbArc
 50
136.879375
 51
180.0
  0
LINE
  5
46E
100
AcDbEntity
  8
0
370
    -3
390
0
  6
Continuous
100
AcDbLine
 10
-511.839896
 20
-252.549835
 30
0.0
 11
-511.868114
 21
-252.872364
 31
0.0
  0
LINE
  5
46F
100
AcDbEntity
  8
0
370
    -3
390
0
  6
Continuous
100
AcDbLine
 10
-511.868114
 20
-252.872364
 30
0.0
 11
-511.681902
 21
-252.888655
 31
0.0
  0
ARC
  5
470
100
AcDbEntity
  8
0
370
    -3
390
0
  6
Continuous
100
AcDbCircle
 10
-510.004222
 20
-250.570948
 30
0.0
 40
1.3
100
AcDbArc
 50
25.0
 51
115.0
  0
LINE
  5
471
100
AcDbEntity
  8
0
370
    -3
390
0
  6
Continuous
100
AcDbLine
 10
-510.553626
 20
-249.392748
 30
0.0
 11
-512.819395
 21
-250.449293
 31
0.0
  0
ARC
  5
472
100
AcDbEntity
  8
0
370
    -3
390
0
  6
Continuous
100
AcDbCircle
 10
-505.084445
 20
-336.312875
 30
0.0
 40
6.8
100
AcDbArc
 50
180.0
 51
270.0
  0
ARC
  5
473
100
AcDbEntity
  8
0
370
    -3
390
0
  6
Continuous
100
AcDbCircle
 10
-462.670977
 20
-352.07742
 30
0.0
 40
1.3
100
AcDbArc
 50
295.0
 51
25.0
  0
LINE
  5
474
100
AcDbEntity
  8
0
370
    -3
390
0
  6
Continuous
100
AcDbLine
 10
-462.121573
 20
-353.25562
 30
0.0
 11
-464.387342
 21
-354.312166
 31
0.0
  0
ARC
  5
475
100
AcDbEntity
  8
0
370
    -3
390
0
  6
Continuous
100
AcDbCircle
 10
-466.093407
 20
-270.763778
 30
0.0
 40
4.8
100
AcDbArc
 50
1.331487
 51
66.739678
  0
ARC
  5
476
100
AcDbEntity
  8
0
370
    -3
390
0
  6
Continuous
100
AcDbCircle
 10
-582.98658
 20
-542.704922
 30
0.0
 40
300.8
100
AcDbArc
 50
66.739678
 51
75.515443
  0
ARC
  5
477
100
AcDbEntity
  8
0
370
    -3
390
0
  6
Continuous
100
AcDbCircle
 10
-469.406237
 20
-349.701234
 30
0.0
 40
9.0
100
AcDbArc
 50
8.398469
 51
41.601548
  0
POINT
  5
478
100
AcDbEntity
  8
0
370
    -3
390
0
  6
Continuous
100
AcDbPoint
 10
-463.605868
 20
-346.996477
 30
0.0
  0
LINE
  5
479
100
AcDbEntity
  8
0
370
    -3
390
0
  6
Continuous
100
AcDbLine
 10
-462.126704
 20
-350.168555
 30
0.0
 11
-461.239406
 21
-349.754801
 31
0.0
  0
ARC
  5
47A
100
AcDbEntity
  8
0
370
    -3
390
0
  6
Continuous
100
AcDbCircle
 10
-461.788809
 20
-348.576601
 30
0.0
 40
1.299999
100
AcDbArc
 50
294.999999
 51
8.398469
  0
LINE
  5
47B
100
AcDbEntity
  8
0
370
    -3
390
0
  6
CENTER
100
AcDbLine
 10
-505.944282
 20
-289.112875
 30
0.0
 11
-517.916182
 21
-289.112875
 31
0.0
  0
LINE
  5
47C
100
AcDbEntity
  8
0
370
    -3
390
0
  6
CENTER
100
AcDbLine
 10
-485.884445
 20
-334.394967
 30
0.0
 11
-485.884445
 21
-347.430352
 31
0.0
  0
LINE
  5
47D
100
AcDbEntity
  8
0
370
    -3
390
0
  6
Continuous
100
AcDbLine
 10
-508.826022
 20
-250.021544
 30
0.0
 11
-461.492777
 21
-351.528016
 31
0.0
  0
ARC
  5
47E
100
AcDbEntity
  8
0
370
    -3
390
0
  6
Continuous
100
AcDbCircle
 10
-1061.932481
 20
-284.612875
 30
0.0
 40
600.8
100
AcDbArc
 50
354.170309
 51
1.331487
  0
ARC
  5
47F
100
AcDbEntity
  8
0
370
    -3
390
0
  6
Continuous
100
AcDbCircle
 10
-463.64833
 20
-344.588846
 30
0.0
 40
1.299999
100
AcDbArc
 50
41.601548
 51
106.135447
  0
LINE
  5
480
100
AcDbEntity
  8
0
370
    -3
390
0
  6
Continuous
100
AcDbLine
 10
-469.609658
 20
-343.112875
 30
0.0
 11
-505.084445
 21
-343.112875
 31
0.0
  0
LINE
  5
481
100
AcDbEntity
  8
0
370
    -3
390
0
  6
Continuous
100
AcDbLine
 10
-512.819395
 20
-250.449293
 30
0.0
 11
-464.387342
 21
-354.312166
 31
0.0
  0
LINE
  5
482
100
AcDbEntity
  8
0
370
    -3
390
0
  6
Continuous
100
AcDbLine
 10
-516.484445
 20
-264.512875
 30
0.0
 11
-517.205291
 21
-264.512875
 31
0.0
  0
LINE
  5
483
100
AcDbEntity
  8
0
370
    -3
390
0
  6
Continuous
100
AcDbLine
 10
-516.484445
 20
-313.712875
 30
0.0
 11
-517.205291
 21
-313.712875
 31
0.0
  0
LINE
  5
484
100
AcDbEntity
  8
0
370
    -3
390
0
  6
Continuous
100
AcDbLine
 10
-544.282894
 20
-188.703712
 30
0.0
 11
-553.475282
 21
-179.511324
 31
0.0
  0
LINE
  5
485
100
AcDbEntity
  8
0
370
    -3
390
0
  6
Continuous
100
AcDbLine
 10
-552.167135
 20
-178.55673
 30
0.0
 11
-543.3283
 21
-187.395564
 31
0.0
  0
ARC
  5
486
100
AcDbEntity
  8
0
370
    -3
390
0
  6
Continuous
100
AcDbCircle
 10
-1097.884445
 20
-289.112875
 30
0.0
 40
581.2
100
AcDbArc
 50
356.648523
 51
360.0
  0
ARC
  5
487
100
AcDbEntity
  8
0
370
    -3
390
0
  6
Continuous
100
AcDbCircle
 10
-618.705391
 20
-317.174132
 30
0.0
 40
101.2
100
AcDbArc
 50
321.421705
 51
356.648523
  0
ARC
  5
488
100
AcDbEntity
  8
0
370
    -3
390
0
  6
Continuous
100
AcDbCircle
 10
-653.884445
 20
-289.112875
 30
0.0
 40
146.2
100
AcDbArc
 50
308.578295
 51
321.421705
  0
ARC
  5
489
100
AcDbEntity
  8
0
370
    -3
390
0
  6
Continuous
100
AcDbCircle
 10
-653.884445
 20
154.887125
 30
0.0
 40
581.2
100
AcDbArc
 50
270.0
 51
273.351477
  0
ARC
  5
48A
100
AcDbEntity
  8
0
370
    -3
390
0
  6
Continuous
100
AcDbCircle
 10
-625.823188
 20
-324.291929
 30
0.0
 40
101.2
100
AcDbArc
 50
273.351477
 51
308.578295
  0
ARC
  5
48B
100
AcDbEntity
  8
0
370
    -3
390
0
  6
Continuous
100
AcDbCircle
 10
-209.884445
 20
-289.112875
 30
0.0
 40
581.2
100
AcDbArc
 50
180.0
 51
183.351477
  0
ARC
  5
48C
100
AcDbEntity
  8
0
370
    -3
390
0
  6
Continuous
100
AcDbCircle
 10
-689.063499
 20
-317.174132
 30
0.0
 40
101.2
100
AcDbArc
 50
183.351477
 51
218.578295
  0
ARC
  5
48D
100
AcDbEntity
  8
0
370
    -3
390
0
  6
Continuous
100
AcDbCircle
 10
-653.884445
 20
-289.112875
 30
0.0
 40
146.2
100
AcDbArc
 50
218.578295
 51
231.421705
  0
ARC
  5
48E
100
AcDbEntity
  8
0
370
    -3
390
0
  6
Continuous
100
AcDbCircle
 10
-653.884445
 20
154.887125
 30
0.0
 40
581.2
100
AcDbArc
 50
266.648523
 51
270.0
  0
ARC
  5
48F
100
AcDbEntity
  8
0
370
    -3
390
0
  6
Continuous
100
AcDbCircle
 10
-681.945703
 20
-324.291929
 30
0.0
 40
101.2
100
AcDbArc
 50
231.421705
 51
266.648523
  0
ARC
  5
490
100
AcDbEntity
  8
0
370
    -3
390
0
  6
Continuous
100
AcDbCircle
 10
-209.884445
 20
-289.112875
 30
0.0
 40
581.2
100
AcDbArc
 50
176.648523
 51
180.0
  0
ARC
  5
491
100
AcDbEntity
  8
0
370
    -3
390
0
  6
Continuous
100
AcDbCircle
 10
-689.063499
 20
-261.051618
 30
0.0
 40
101.2
100
AcDbArc
 50
141.421705
 51
176.648523
  0
ARC
  5
492
100
AcDbEntity
  8
0
370
    -3
390
0
  6
Continuous
100
AcDbCircle
 10
-653.884445
 20
-733.112875
 30
0.0
 40
581.2
100
AcDbArc
 50
90.0
 51
93.351477
  0
ARC
  5
493
100
AcDbEntity
  8
0
370
    -3
390
0
  6
Continuous
100
AcDbCircle
 10
-681.945703
 20
-253.933821
 30
0.0
 40
101.2
100
AcDbArc
 50
93.351477
 51
128.578295
  0
LINE
  5
494
100
AcDbEntity
  8
0
370
    -3
390
0
  6
Continuous
100
AcDbLine
 10
-675.642256
 20
-280.592449
 30
0.0
 11
-672.014693
 21
-282.686824
 31
0.0
  0
LINE
  5
495
100
AcDbEntity
  8
0
370
    -3
390
0
  6
Continuous
100
AcDbLine
 10
-675.878115
 20
-296.614774
 30
0.0
 11
-672.190986
 21
-294.486009
 31
0.0
  0
LINE
  5
496
100
AcDbEntity
  8
0
370
    -3
390
0
  6
Continuous
100
AcDbLine
 10
-689.279015
 20
-304.351787
 30
0.0
 11
-685.741244
 21
-302.309253
 31
0.0
  0
LINE
  5
497
100
AcDbEntity
  8
0
370
    -3
390
0
  6
Continuous
100
AcDbLine
 10
-702.446566
 20
-311.954076
 30
0.0
 11
-698.945805
 21
-309.93291
 31
0.0
  0
LINE
  5
498
100
AcDbEntity
  8
0
370
    -3
390
0
  6
Continuous
100
AcDbLine
 10
-715.53615
 20
-319.511351
 30
0.0
 11
-712.050119
 21
-317.498689
 31
0.0
  0
LINE
  5
499
100
AcDbEntity
  8
0
370
    -3
390
0
  6
Continuous
100
AcDbLine
 10
-715.124466
 20
-257.797385
 30
0.0
 11
-711.643931
 21
-259.806872
 31
0.0
  0
LINE
  5
49A
100
AcDbEntity
  8
0
370
    -3
390
0
  6
Continuous
100
AcDbLine
 10
-702.059789
 20
-265.340279
 30
0.0
 11
-698.568261
 21
-267.356114
 31
0.0
  0
LINE
  5
49B
100
AcDbEntity
  8
0
370
    -3
390
0
  6
Continuous
100
AcDbLine
 10
-688.937035
 20
-272.916704
 30
0.0
 11
-685.41804
 21
-274.948397
 31
0.0
  0
ARC
  5
49C
100
AcDbEntity
  8
0
370
    -3
390
0
  6
Continuous
100
AcDbCircle
 10
-653.884445
 20
-289.112875
 30
0.0
 40
100.0
100
AcDbArc
 50
153.842287
 51
205.565488
  0
LINE
  5
49D
100
AcDbEntity
  8
0
370
    -3
390
0
  6
Continuous
100
AcDbLine
 10
-728.590035
 20
-327.048015
 30
0.0
 11
-725.111344
 21
-325.039591
 31
0.0
  0
LINE
  5
49E
100
AcDbEntity
  8
0
370
    -3
390
0
  6
Continuous
100
AcDbLine
 10
-739.88743
 20
-333.570569
 30
0.0
 11
-739.018777
 21
-333.069052
 31
0.0
  0
ARC
  5
49F
100
AcDbEntity
  8
0
370
    -3
390
0
  6
Continuous
100
AcDbCircle
 10
-741.38743
 20
-330.972493
 30
0.0
 40
3.0
100
AcDbArc
 50
205.565488
 51
300.0
  0
ARC
  5
4A0
100
AcDbEntity
  8
0
370
    -3
390
0
  6
Continuous
100
AcDbCircle
 10
-740.950091
 20
-246.351054
 30
0.0
 40
3.0
100
AcDbArc
 50
60.0
 51
153.842287
  0
LINE
  5
4A1
100
AcDbEntity
  8
0
370
    -3
390
0
  6
Continuous
100
AcDbLine
 10
-739.450091
 20
-243.752978
 30
0.0
 11
-738.582095
 21
-244.254116
 31
0.0
  0
LINE
  5
4A2
100
AcDbEntity
  8
0
370
    -3
390
0
  6
Continuous
100
AcDbLine
 10
-728.162457
 20
-250.269897
 30
0.0
 11
-724.687414
 21
-252.276214
 31
0.0
  0
ARC
  5
4A3
100
AcDbEntity
  8
0
370
    -3
390
0
  6
Continuous
100
AcDbCircle
 10
-653.884445
 20
-733.112875
 30
0.0
 40
581.2
100
AcDbArc
 50
86.648523
 51
90.0
  0
ARC
  5
4A4
100
AcDbEntity
  8
0
370
    -3
390
0
  6
Continuous
100
AcDbCircle
 10
-625.823188
 20
-253.933821
 30
0.0
 40
101.2
100
AcDbArc
 50
51.421705
 51
86.648523
  0
ARC
  5
4A5
100
AcDbEntity
  8
0
370
    -3
390
0
  6
Continuous
100
AcDbCircle
 10
-653.884445
 20
-289.112875
 30
0.0
 40
146.2
100
AcDbArc
 50
38.578295
 51
51.421705
  0
ARC
  5
4A6
100
AcDbEntity
  8
0
370
    -3
390
0
  6
Continuous
100
AcDbCircle
 10
-618.705391
 20
-261.051618
 30
0.0
 40
101.2
100
AcDbArc
 50
3.351477
 51
38.578295
  0
ARC
  5
4A7
100
AcDbEntity
  8
0
370
    -3
390
0
  6
Continuous
100
AcDbCircle
 10
-1097.884445
 20
-289.112875
 30
0.0
 40
581.2
100
AcDbArc
 50
0.0
 51
3.351477
  0
ARC
  5
4A8
100
AcDbEntity
  8
0
370
    -3
390
0
  6
Continuous
100
AcDbCircle
 10
-653.884445
 20
154.887125
 30
0.0
 40
560.993
100
AcDbArc
 50
266.648523
 51
270.0
  0
ARC
  5
4A9
100
AcDbEntity
  8
0
370
    -3
390
0
  6
Continuous
100
AcDbCircle
 10
-681.945703
 20
-324.291929
 30
0.0
 40
80.993
100
AcDbArc
 50
231.421705
 51
266.648523
  0
ARC
  5
4AA
100
AcDbEntity
  8
0
370
    -3
390
0
  6
Continuous
100
AcDbCircle
 10
-653.884445
 20
-289.112875
 30
0.0
 40
125.993
100
AcDbArc
 50
218.578295
 51
231.421705
  0
ARC
  5
4AB
100
AcDbEntity
  8
0
370
    -3
390
0
  6
Continuous
100
AcDbCircle
 10
-689.063499
 20
-317.174132
 30
0.0
 40
80.993
100
AcDbArc
 50
183.351477
 51
218.578295
  0
ARC
  5
4AC
100
AcDbEntity
  8
0
370
    -3
390
0
  6
Continuous
100
AcDbCircle
 10
-209.884445
 20
-289.112875
 30
0.0
 40
560.993
100
AcDbArc
 50
180.0
 51
183.351477
  0
ARC
  5
4AD
100
AcDbEntity
  8
0
370
    -3
390
0
  6
Continuous
100
AcDbCircle
 10
-1097.884445
 20
-289.112875
 30
0.0
 40
560.993
100
AcDbArc
 50
356.648523
 51
360.0
  0
ARC
  5
4AE
100
AcDbEntity
  8
0
370
    -3
390
0
  6
Continuous
100
AcDbCircle
 10
-618.705391
 20
-317.174132
 30
0.0
 40
80.993
100
AcDbArc
 50
321.421705
 51
356.648523
  0
ARC
  5
4AF
100
AcDbEntity
  8
0
370
    -3
390
0
  6
Continuous
100
AcDbCircle
 10
-625.823188
 20
-324.291929
 30
0.0
 40
80.993
100
AcDbArc
 50
273.351477
 51
308.578295
  0
ARC
  5
4B0
100
AcDbEntity
  8
0
370
    -3
390
0
  6
Continuous
100
AcDbCircle
 10
-653.884445
 20
-289.112875
 30
0.0
 40
125.993
100
AcDbArc
 50
308.578295
 51
321.421705
  0
ARC
  5
4B1
100
AcDbEntity
  8
0
370
    -3
390
0
  6
Continuous
100
AcDbCircle
 10
-653.884445
 20
154.887125
 30
0.0
 40
560.993
100
AcDbArc
 50
270.0
 51
273.351477
  0
ARC
  5
4B2
100
AcDbEntity
  8
0
370
    -3
390
0
  6
Continuous
100
AcDbCircle
 10
-1097.884445
 20
-289.112875
 30
0.0
 40
560.993
100
AcDbArc
 50
0.0
 51
3.351477
  0
ARC
  5
4B3
100
AcDbEntity
  8
0
370
    -3
390
0
  6
Continuous
100
AcDbCircle
 10
-618.705391
 20
-261.051618
 30
0.0
 40
80.993
100
AcDbArc
 50
3.351477
 51
38.578295
  0
ARC
  5
4B4
100
AcDbEntity
  8
0
370
    -3
390
0
  6
Continuous
100
AcDbCircle
 10
-625.823188
 20
-253.933821
 30
0.0
 40
80.993
100
AcDbArc
 50
51.421705
 51
86.648523
  0
ARC
  5
4B5
100
AcDbEntity
  8
0
370
    -3
390
0
  6
Continuous
100
AcDbCircle
 10
-653.884445
 20
-289.112875
 30
0.0
 40
125.993
100
AcDbArc
 50
38.578295
 51
51.421705
  0
ARC
  5
4B6
100
AcDbEntity
  8
0
370
    -3
390
0
  6
Continuous
100
AcDbCircle
 10
-653.884445
 20
-733.112875
 30
0.0
 40
560.993
100
AcDbArc
 50
86.648523
 51
90.0
  0
ARC
  5
4B7
100
AcDbEntity
  8
0
370
    -3
390
0
  6
Continuous
100
AcDbCircle
 10
-209.884445
 20
-289.112875
 30
0.0
 40
560.993
100
AcDbArc
 50
176.648523
 51
180.0
  0
ARC
  5
4B8
100
AcDbEntity
  8
0
370
    -3
390
0
  6
Continuous
100
AcDbCircle
 10
-689.063499
 20
-261.051618
 30
0.0
 40
80.993
100
AcDbArc
 50
141.421705
 51
176.648523
  0
ARC
  5
4B9
100
AcDbEntity
  8
0
370
    -3
390
0
  6
Continuous
100
AcDbCircle
 10
-681.945703
 20
-253.933821
 30
0.0
 40
80.993
100
AcDbArc
 50
93.351477
 51
128.578295
  0
ARC
  5
4BA
100
AcDbEntity
  8
0
370
    -3
390
0
  6
Continuous
100
AcDbCircle
 10
-653.884445
 20
-289.112875
 30
0.0
 40
125.993
100
AcDbArc
 50
128.578295
 51
141.421705
  0
ARC
  5
4BB
100
AcDbEntity
  8
0
370
    -3
390
0
  6
Continuous
100
AcDbCircle
 10
-653.884445
 20
-733.112875
 30
0.0
 40
560.993
100
AcDbArc
 50
90.0
 51
93.351477
  0
ARC
  5
4BC
100
AcDbEntity
  8
0
370
    -3
390
0
  6
Continuous
100
AcDbCircle
 10
-653.884445
 20
-289.112875
 30
0.0
 40
93.0
100
AcDbArc
 50
153.882372
 51
205.519201
  0
ARC
  5
4BD
100
AcDbEntity
  8
0
370
    -3
390
0
  6
Continuous
100
AcDbCircle
 10
-740.082095
 20
-246.852192
 30
0.0
 40
3.0
100
AcDbArc
 50
333.882372
 51
60.0
  0
ARC
  5
4BE
100
AcDbEntity
  8
0
370
    -3
390
0
  6
Continuous
100
AcDbCircle
 10
-740.518777
 20
-330.470976
 30
0.0
 40
3.0
100
AcDbArc
 50
300.0
 51
25.519201
  0
ARC
  5
4BF
100
AcDbEntity
  8
0
370
    -3
390
0
  6
Continuous
100
AcDbCircle
 10
-653.884445
 20
-289.112875
 30
0.0
 40
87.0
100
AcDbArc
 50
154.438039
 51
204.877484
  0
ARC
  5
4C0
100
AcDbEntity
  8
0
370
    -3
390
0
  6
Continuous
100
AcDbCircle
 10
-653.884445
 20
-289.112875
 30
0.0
 40
77.0
100
AcDbArc
 50
154.660419
 51
204.620621
  0
ARC
  5
4C1
100
AcDbEntity
  8
0
370
    -3
390
0
  6
Continuous
100
AcDbCircle
 10
-653.884445
 20
-289.112875
 30
0.0
 40
72.0
100
AcDbArc
 50
155.405444
 51
203.759869
  0
ARC
  5
4C2
100
AcDbEntity
  8
0
370
    -3
390
0
  6
Continuous
100
AcDbCircle
 10
-653.884445
 20
-289.112875
 30
0.0
 40
62.0
100
AcDbArc
 50
155.73917
 51
203.37419
  0
ARC
  5
4C3
100
AcDbEntity
  8
0
370
    -3
390
0
  6
Continuous
100
AcDbCircle
 10
-653.884445
 20
-289.112875
 30
0.0
 40
57.0
100
AcDbArc
 50
156.913478
 51
202.016444
  0
ARC
  5
4C4
100
AcDbEntity
  8
0
370
    -3
390
0
  6
Continuous
100
AcDbCircle
 10
-653.884445
 20
-289.112875
 30
0.0
 40
47.0
100
AcDbArc
 50
157.469592
 51
201.373073
  0
ARC
  5
4C5
100
AcDbEntity
  8
0
370
    -3
390
0
  6
Continuous
100
AcDbCircle
 10
-653.884445
 20
-289.112875
 30
0.0
 40
42.0
100
AcDbArc
 50
159.594068
 51
198.912511
  0
ARC
  5
4C6
100
AcDbEntity
  8
0
370
    -3
390
0
  6
Continuous
100
AcDbCircle
 10
-653.884445
 20
-289.112875
 30
0.0
 40
32.0
100
AcDbArc
 50
160.70278
 51
197.626375
  0
ARC
  5
4C7
100
AcDbEntity
  8
0
370
    -3
390
0
  6
Continuous
100
AcDbCircle
 10
-653.884445
 20
-289.112875
 30
0.0
 40
27.0
100
AcDbArc
 50
165.713861
 51
191.790043
  0
ARC
  5
4C8
100
AcDbEntity
  8
0
370
    -3
390
0
  6
Continuous
100
AcDbCircle
 10
-653.884445
 20
-289.112875
 30
0.0
 40
17.0
100
AcDbArc
 50
168.965575
 51
187.975687
  0
ARC
  5
4C9
100
AcDbEntity
  8
0
370
    -3
390
0
  6
Continuous
100
AcDbCircle
 10
-729.662457
 20
-252.867973
 30
0.0
 40
3.0
100
AcDbArc
 50
60.0
 51
154.438039
  0
ARC
  5
4CA
100
AcDbEntity
  8
0
370
    -3
390
0
  6
Continuous
100
AcDbCircle
 10
-726.187414
 20
-254.87429
 30
0.0
 40
3.0
100
AcDbArc
 50
334.660419
 51
60.0
  0
ARC
  5
4CB
100
AcDbEntity
  8
0
370
    -3
390
0
  6
Continuous
100
AcDbCircle
 10
-716.624466
 20
-260.395461
 30
0.0
 40
3.0
100
AcDbArc
 50
60.0
 51
155.405444
  0
ARC
  5
4CC
100
AcDbEntity
  8
0
370
    -3
390
0
  6
Continuous
100
AcDbCircle
 10
-713.143931
 20
-262.404948
 30
0.0
 40
3.0
100
AcDbArc
 50
335.73917
 51
60.0
  0
ARC
  5
4CD
100
AcDbEntity
  8
0
370
    -3
390
0
  6
Continuous
100
AcDbCircle
 10
-703.559789
 20
-267.938356
 30
0.0
 40
3.0
100
AcDbArc
 50
60.0
 51
156.913478
  0
ARC
  5
4CE
100
AcDbEntity
  8
0
370
    -3
390
0
  6
Continuous
100
AcDbCircle
 10
-700.068261
 20
-269.95419
 30
0.0
 40
3.0
100
AcDbArc
 50
337.469592
 51
60.0
  0
ARC
  5
4CF
100
AcDbEntity
  8
0
370
    -3
390
0
  6
Continuous
100
AcDbCircle
 10
-690.437035
 20
-275.514781
 30
0.0
 40
3.0
100
AcDbArc
 50
60.0
 51
159.594068
  0
ARC
  5
4D0
100
AcDbEntity
  8
0
370
    -3
390
0
  6
Continuous
100
AcDbCircle
 10
-686.91804
 20
-277.546474
 30
0.0
 40
3.0
100
AcDbArc
 50
340.70278
 51
60.0
  0
ARC
  5
4D1
100
AcDbEntity
  8
0
370
    -3
390
0
  6
Continuous
100
AcDbCircle
 10
-687.241244
 20
-299.711177
 30
0.0
 40
3.0
100
AcDbArc
 50
300.0
 51
17.626375
  0
ARC
  5
4D2
100
AcDbEntity
  8
0
370
    -3
390
0
  6
Continuous
100
AcDbCircle
 10
-690.779015
 20
-301.753711
 30
0.0
 40
3.0
100
AcDbArc
 50
198.912511
 51
300.0
  0
ARC
  5
4D3
100
AcDbEntity
  8
0
370
    -3
390
0
  6
Continuous
100
AcDbCircle
 10
-677.378115
 20
-294.016697
 30
0.0
 40
3.0
100
AcDbArc
 50
191.790043
 51
300.0
  0
ARC
  5
4D4
100
AcDbEntity
  8
0
370
    -3
390
0
  6
Continuous
100
AcDbCircle
 10
-673.690986
 20
-291.887932
 30
0.0
 40
3.0
100
AcDbArc
 50
300.0
 51
7.975687
  0
ARC
  5
4D5
100
AcDbEntity
  8
0
370
    -3
390
0
  6
Continuous
100
AcDbCircle
 10
-673.514693
 20
-285.2849
 30
0.0
 40
3.0
100
AcDbArc
 50
348.965575
 51
60.0
  0
ARC
  5
4D6
100
AcDbEntity
  8
0
370
    -3
390
0
  6
Continuous
100
AcDbCircle
 10
-677.142256
 20
-283.190525
 30
0.0
 40
3.0
100
AcDbArc
 50
60.0
 51
165.713861
  0
ARC
  5
4D7
100
AcDbEntity
  8
0
370
    -3
390
0
  6
Continuous
100
AcDbCircle
 10
-700.445805
 20
-307.334834
 30
0.0
 40
3.0
100
AcDbArc
 50
300.0
 51
21.373073
  0
ARC
  5
4D8
100
AcDbEntity
  8
0
370
    -3
390
0
  6
Continuous
100
AcDbCircle
 10
-703.946566
 20
-309.356
 30
0.0
 40
3.0
100
AcDbArc
 50
202.016444
 51
300.0
  0
ARC
  5
4D9
100
AcDbEntity
  8
0
370
    -3
390
0
  6
Continuous
100
AcDbCircle
 10
-713.550119
 20
-314.900613
 30
0.0
 40
3.0
100
AcDbArc
 50
300.0
 51
23.37419
  0
ARC
  5
4DA
100
AcDbEntity
  8
0
370
    -3
390
0
  6
Continuous
100
AcDbCircle
 10
-717.03615
 20
-316.913274
 30
0.0
 40
3.0
100
AcDbArc
 50
203.759869
 51
300.0
  0
ARC
  5
4DB
100
AcDbEntity
  8
0
370
    -3
390
0
  6
Continuous
100
AcDbCircle
 10
-726.611344
 20
-322.441515
 30
0.0
 40
3.0
100
AcDbArc
 50
300.0
 51
24.620621
  0
ARC
  5
4DC
100
AcDbEntity
  8
0
370
    -3
390
0
  6
Continuous
100
AcDbCircle
 10
-730.090035
 20
-324.449939
 30
0.0
 40
3.0
100
AcDbArc
 50
204.877484
 51
300.0
  0
ARC
  5
4DD
100
AcDbEntity
  8
0
370
    -3
390
0
  6
Continuous
100
AcDbCircle
 10
-722.590035
 20
-337.44032
 30
0.0
 40
3.0
100
AcDbArc
 50
120.0
 51
215.122516
  0
LINE
  5
4DE
100
AcDbEntity
  8
0
370
    -3
390
0
  6
Continuous
100
AcDbLine
 10
-724.090035
 20
-334.842243
 30
0.0
 11
-720.611344
 21
-332.83382
 31
0.0
  0
ARC
  5
4DF
100
AcDbEntity
  8
0
370
    -3
390
0
  6
Continuous
100
AcDbCircle
 10
-653.884445
 20
-289.112875
 30
0.0
 40
87.0
100
AcDbArc
 50
215.122516
 51
265.561961
  0
ARC
  5
4E0
100
AcDbEntity
  8
0
370
    -3
390
0
  6
Continuous
100
AcDbCircle
 10
-719.111344
 20
-335.431896
 30
0.0
 40
3.0
100
AcDbArc
 50
35.379379
 51
120.0
  0
ARC
  5
4E1
100
AcDbEntity
  8
0
370
    -3
390
0
  6
Continuous
100
AcDbCircle
 10
-653.884445
 20
-289.112875
 30
0.0
 40
77.0
100
AcDbArc
 50
215.379379
 51
265.339581
  0
ARC
  5
4E2
100
AcDbEntity
  8
0
370
    -3
390
0
  6
Continuous
100
AcDbCircle
 10
-709.53615
 20
-329.903655
 30
0.0
 40
3.0
100
AcDbArc
 50
120.0
 51
216.240131
  0
LINE
  5
4E3
100
AcDbEntity
  8
0
370
    -3
390
0
  6
Continuous
100
AcDbLine
 10
-711.03615
 20
-327.305579
 30
0.0
 11
-707.550119
 21
-325.292918
 31
0.0
  0
ARC
  5
4E4
100
AcDbEntity
  8
0
370
    -3
390
0
  6
Continuous
100
AcDbCircle
 10
-653.884445
 20
-289.112875
 30
0.0
 40
72.0
100
AcDbArc
 50
216.240131
 51
264.594556
  0
ARC
  5
4E5
100
AcDbEntity
  8
0
370
    -3
390
0
  6
Continuous
100
AcDbCircle
 10
-706.050119
 20
-327.890994
 30
0.0
 40
3.0
100
AcDbArc
 50
36.62581
 51
120.0
  0
ARC
  5
4E6
100
AcDbEntity
  8
0
370
    -3
390
0
  6
Continuous
100
AcDbCircle
 10
-653.884445
 20
-289.112875
 30
0.0
 40
62.0
100
AcDbArc
 50
216.62581
 51
264.26083
  0
ARC
  5
4E7
100
AcDbEntity
  8
0
370
    -3
390
0
  6
Continuous
100
AcDbCircle
 10
-696.446566
 20
-322.346381
 30
0.0
 40
3.0
100
AcDbArc
 50
120.0
 51
217.983556
  0
LINE
  5
4E8
100
AcDbEntity
  8
0
370
    -3
390
0
  6
Continuous
100
AcDbLine
 10
-697.946566
 20
-319.748304
 30
0.0
 11
-694.445805
 21
-317.727139
 31
0.0
  0
ARC
  5
4E9
100
AcDbEntity
  8
0
370
    -3
390
0
  6
Continuous
100
AcDbCircle
 10
-653.884445
 20
-289.112875
 30
0.0
 40
57.0
100
AcDbArc
 50
217.983556
 51
263.086522
  0
ARC
  5
4EA
100
AcDbEntity
  8
0
370
    -3
390
0
  6
Continuous
100
AcDbCircle
 10
-692.945805
 20
-320.325215
 30
0.0
 40
3.0
100
AcDbArc
 50
38.626927
 51
120.0
  0
ARC
  5
4EB
100
AcDbEntity
  8
0
370
    -3
390
0
  6
Continuous
100
AcDbCircle
 10
-653.884445
 20
-289.112875
 30
0.0
 40
47.0
100
AcDbArc
 50
218.626927
 51
262.530408
  0
ARC
  5
4EC
100
AcDbEntity
  8
0
370
    -3
390
0
  6
Continuous
100
AcDbCircle
 10
-660.384445
 20
-312.215905
 30
0.0
 40
3.0
100
AcDbArc
 50
254.286139
 51
0.0
  0
LINE
  5
4ED
100
AcDbEntity
  8
0
370
    -3
390
0
  6
Continuous
100
AcDbLine
 10
-657.384445
 20
-312.215905
 30
0.0
 11
-657.384445
 21
-308.027155
 31
0.0
  0
ARC
  5
4EE
100
AcDbEntity
  8
0
370
    -3
390
0
  6
Continuous
100
AcDbCircle
 10
-653.884445
 20
-289.112875
 30
0.0
 40
27.0
100
AcDbArc
 50
228.209957
 51
254.286139
  0
ARC
  5
4EF
100
AcDbEntity
  8
0
370
    -3
390
0
  6
Continuous
100
AcDbCircle
 10
-660.384445
 20
-308.027155
 30
0.0
 40
3.0
100
AcDbArc
 50
0.0
 51
71.034425
  0
ARC
  5
4F0
100
AcDbEntity
  8
0
370
    -3
390
0
  6
Continuous
100
AcDbCircle
 10
-653.884445
 20
-289.112875
 30
0.0
 40
17.0
100
AcDbArc
 50
232.024313
 51
251.034425
  0
ARC
  5
4F1
100
AcDbEntity
  8
0
370
    -3
390
0
  6
Continuous
100
AcDbCircle
 10
-666.190986
 20
-304.878313
 30
0.0
 40
3.0
100
AcDbArc
 50
52.024313
 51
120.0
  0
LINE
  5
4F2
100
AcDbEntity
  8
0
370
    -3
390
0
  6
Continuous
100
AcDbLine
 10
-671.378115
 20
-304.409002
 30
0.0
 11
-667.690986
 21
-302.280237
 31
0.0
  0
ARC
  5
4F3
100
AcDbEntity
  8
0
370
    -3
390
0
  6
Continuous
100
AcDbCircle
 10
-669.878115
 20
-307.007078
 30
0.0
 40
3.0
100
AcDbArc
 50
120.0
 51
228.209957
  0
ARC
  5
4F4
100
AcDbEntity
  8
0
370
    -3
390
0
  6
Continuous
100
AcDbCircle
 10
-683.279015
 20
-314.744092
 30
0.0
 40
3.0
100
AcDbArc
 50
120.0
 51
221.087489
  0
LINE
  5
4F5
100
AcDbEntity
  8
0
370
    -3
390
0
  6
Continuous
100
AcDbLine
 10
-684.779015
 20
-312.146015
 30
0.0
 11
-681.241244
 21
-310.103482
 31
0.0
  0
ARC
  5
4F6
100
AcDbEntity
  8
0
370
    -3
390
0
  6
Continuous
100
AcDbCircle
 10
-653.884445
 20
-289.112875
 30
0.0
 40
42.0
100
AcDbArc
 50
221.087489
 51
260.405932
  0
ARC
  5
4F7
100
AcDbEntity
  8
0
370
    -3
390
0
  6
Continuous
100
AcDbCircle
 10
-679.741244
 20
-312.701558
 30
0.0
 40
3.0
100
AcDbArc
 50
42.373625
 51
120.0
  0
ARC
  5
4F8
100
AcDbEntity
  8
0
370
    -3
390
0
  6
Continuous
100
AcDbCircle
 10
-653.884445
 20
-289.112875
 30
0.0
 40
32.0
100
AcDbArc
 50
222.373625
 51
259.29722
  0
ARC
  5
4F9
100
AcDbEntity
  8
0
370
    -3
390
0
  6
Continuous
100
AcDbCircle
 10
-660.384445
 20
-323.504007
 30
0.0
 40
3.0
100
AcDbArc
 50
0.0
 51
79.29722
  0
LINE
  5
4FA
100
AcDbEntity
  8
0
370
    -3
390
0
  6
Continuous
100
AcDbLine
 10
-657.384445
 20
-327.567393
 30
0.0
 11
-657.384445
 21
-323.504007
 31
0.0
  0
ARC
  5
4FB
100
AcDbEntity
  8
0
370
    -3
390
0
  6
Continuous
100
AcDbCircle
 10
-660.384445
 20
-327.567393
 30
0.0
 40
3.0
100
AcDbArc
 50
260.405932
 51
0.0
  0
ARC
  5
4FC
100
AcDbEntity
  8
0
370
    -3
390
0
  6
Continuous
100
AcDbCircle
 10
-660.384445
 20
-338.688575
 30
0.0
 40
3.0
100
AcDbArc
 50
360.0
 51
82.530408
  0
LINE
  5
4FD
100
AcDbEntity
  8
0
370
    -3
390
0
  6
Continuous
100
AcDbLine
 10
-657.384445
 20
-342.720244
 30
0.0
 11
-657.384445
 21
-338.688575
 31
0.0
  0
ARC
  5
4FE
100
AcDbEntity
  8
0
370
    -3
390
0
  6
Continuous
100
AcDbCircle
 10
-660.384445
 20
-342.720244
 30
0.0
 40
3.0
100
AcDbArc
 50
263.086522
 51
0.0
  0
ARC
  5
4FF
100
AcDbEntity
  8
0
370
    -3
390
0
  6
Continuous
100
AcDbCircle
 10
-660.384445
 20
-353.787058
 30
0.0
 40
3.0
100
AcDbArc
 50
0.0
 51
84.26083
  0
LINE
  5
500
100
AcDbEntity
  8
0
370
    -3
390
0
  6
Continuous
100
AcDbLine
 10
-657.384445
 20
-357.806033
 30
0.0
 11
-657.384445
 21
-353.787058
 31
0.0
  0
ARC
  5
501
100
AcDbEntity
  8
0
370
    -3
390
0
  6
Continuous
100
AcDbCircle
 10
-660.384445
 20
-357.806033
 30
0.0
 40
3.0
100
AcDbArc
 50
264.594556
 51
0.0
  0
ARC
  5
502
100
AcDbEntity
  8
0
370
    -3
390
0
  6
Continuous
100
AcDbCircle
 10
-660.384445
 20
-368.848375
 30
0.0
 40
3.0
100
AcDbArc
 50
0.0
 51
85.339581
  0
LINE
  5
503
100
AcDbEntity
  8
0
370
    -3
390
0
  6
Continuous
100
AcDbLine
 10
-657.384445
 20
-372.861009
 30
0.0
 11
-657.384445
 21
-368.848375
 31
0.0
  0
ARC
  5
504
100
AcDbEntity
  8
0
370
    -3
390
0
  6
Continuous
100
AcDbCircle
 10
-660.384445
 20
-372.861009
 30
0.0
 40
3.0
100
AcDbArc
 50
265.561961
 51
0.0
  0
ARC
  5
505
100
AcDbEntity
  8
0
370
    -3
390
0
  6
Continuous
100
AcDbCircle
 10
-733.018777
 20
-343.461357
 30
0.0
 40
3.0
100
AcDbArc
 50
34.480799
 51
120.0
  0
ARC
  5
506
100
AcDbEntity
  8
0
370
    -3
390
0
  6
Continuous
100
AcDbCircle
 10
-653.884445
 20
-289.112875
 30
0.0
 40
93.0
100
AcDbArc
 50
214.480799
 51
266.117628
  0
LINE
  5
507
100
AcDbEntity
  8
0
370
    -3
390
0
  6
Continuous
100
AcDbLine
 10
-735.38743
 20
-341.364798
 30
0.0
 11
-734.518777
 21
-340.863281
 31
0.0
  0
ARC
  5
508
100
AcDbEntity
  8
0
370
    -3
390
0
  6
Continuous
100
AcDbCircle
 10
-660.384445
 20
-384.89257
 30
0.0
 40
3.0
100
AcDbArc
 50
0.0
 51
86.117628
  0
LINE
  5
509
100
AcDbEntity
  8
0
370
    -3
390
0
  6
Continuous
100
AcDbLine
 10
-657.384445
 20
-385.894846
 30
0.0
 11
-657.384445
 21
-384.89257
 31
0.0
  0
ARC
  5
50A
100
AcDbEntity
  8
0
370
    -3
390
0
  6
Continuous
100
AcDbCircle
 10
-660.384445
 20
-385.894846
 30
0.0
 40
3.0
100
AcDbArc
 50
266.157713
 51
0.0
  0
ARC
  5
50B
100
AcDbEntity
  8
0
370
    -3
390
0
  6
Continuous
100
AcDbCircle
 10
-733.88743
 20
-343.962874
 30
0.0
 40
3.0
100
AcDbArc
 50
120.0
 51
214.434512
  0
ARC
  5
50C
100
AcDbEntity
  8
0
370
    -3
390
0
  6
Continuous
100
AcDbCircle
 10
-653.884445
 20
-289.112875
 30
0.0
 40
100.0
100
AcDbArc
 50
214.434512
 51
266.157713
  0
ARC
  5
50D
100
AcDbEntity
  8
0
370
    -3
390
0
  6
Continuous
100
AcDbCircle
 10
-585.178856
 20
-337.44032
 30
0.0
 40
3.0
100
AcDbArc
 50
324.877484
 51
60.0
  0
LINE
  5
50E
100
AcDbEntity
  8
0
370
    -3
390
0
  6
Continuous
100
AcDbLine
 10
-583.678856
 20
-334.842243
 30
0.0
 11
-587.157547
 21
-332.83382
 31
0.0
  0
ARC
  5
50F
100
AcDbEntity
  8
0
370
    -3
390
0
  6
Continuous
100
AcDbCircle
 10
-653.884445
 20
-289.112875
 30
0.0
 40
87.0
100
AcDbArc
 50
274.438039
 51
324.877484
  0
ARC
  5
510
100
AcDbEntity
  8
0
370
    -3
390
0
  6
Continuous
100
AcDbCircle
 10
-588.657547
 20
-335.431896
 30
0.0
 40
3.0
100
AcDbArc
 50
60.0
 51
144.620621
  0
ARC
  5
511
100
AcDbEntity
  8
0
370
    -3
390
0
  6
Continuous
100
AcDbCircle
 10
-653.884445
 20
-289.112875
 30
0.0
 40
77.0
100
AcDbArc
 50
274.660419
 51
324.620621
  0
ARC
  5
512
100
AcDbEntity
  8
0
370
    -3
390
0
  6
Continuous
100
AcDbCircle
 10
-598.232741
 20
-329.903655
 30
0.0
 40
3.0
100
AcDbArc
 50
323.759869
 51
60.0
  0
LINE
  5
513
100
AcDbEntity
  8
0
370
    -3
390
0
  6
Continuous
100
AcDbLine
 10
-596.732741
 20
-327.305579
 30
0.0
 11
-600.218772
 21
-325.292918
 31
0.0
  0
ARC
  5
514
100
AcDbEntity
  8
0
370
    -3
390
0
  6
Continuous
100
AcDbCircle
 10
-653.884445
 20
-289.112875
 30
0.0
 40
72.0
100
AcDbArc
 50
275.405444
 51
323.759869
  0
ARC
  5
515
100
AcDbEntity
  8
0
370
    -3
390
0
  6
Continuous
100
AcDbCircle
 10
-601.718772
 20
-327.890994
 30
0.0
 40
3.0
100
AcDbArc
 50
60.0
 51
143.37419
  0
ARC
  5
516
100
AcDbEntity
  8
0
370
    -3
390
0
  6
Continuous
100
AcDbCircle
 10
-653.884445
 20
-289.112875
 30
0.0
 40
62.0
100
AcDbArc
 50
275.73917
 51
323.37419
  0
ARC
  5
517
100
AcDbEntity
  8
0
370
    -3
390
0
  6
Continuous
100
AcDbCircle
 10
-611.322325
 20
-322.346381
 30
0.0
 40
3.0
100
AcDbArc
 50
322.016444
 51
60.0
  0
LINE
  5
518
100
AcDbEntity
  8
0
370
    -3
390
0
  6
Continuous
100
AcDbLine
 10
-609.822325
 20
-319.748304
 30
0.0
 11
-613.323086
 21
-317.727139
 31
0.0
  0
ARC
  5
519
100
AcDbEntity
  8
0
370
    -3
390
0
  6
Continuous
100
AcDbCircle
 10
-653.884445
 20
-289.112875
 30
0.0
 40
57.0
100
AcDbArc
 50
276.913478
 51
322.016444
  0
ARC
  5
51A
100
AcDbEntity
  8
0
370
    -3
390
0
  6
Continuous
100
AcDbCircle
 10
-614.823086
 20
-320.325215
 30
0.0
 40
3.0
100
AcDbArc
 50
60.0
 51
141.373073
  0
ARC
  5
51B
100
AcDbEntity
  8
0
370
    -3
390
0
  6
Continuous
100
AcDbCircle
 10
-653.884445
 20
-289.112875
 30
0.0
 40
47.0
100
AcDbArc
 50
277.469592
 51
321.373073
  0
ARC
  5
51C
100
AcDbEntity
  8
0
370
    -3
390
0
  6
Continuous
100
AcDbCircle
 10
-647.384445
 20
-312.215905
 30
0.0
 40
3.0
100
AcDbArc
 50
180.0
 51
285.713861
  0
LINE
  5
51D
100
AcDbEntity
  8
0
370
    -3
390
0
  6
Continuous
100
AcDbLine
 10
-650.384445
 20
-312.215905
 30
0.0
 11
-650.384445
 21
-308.027155
 31
0.0
  0
ARC
  5
51E
100
AcDbEntity
  8
0
370
    -3
390
0
  6
Continuous
100
AcDbCircle
 10
-653.884445
 20
-289.112875
 30
0.0
 40
27.0
100
AcDbArc
 50
285.713861
 51
311.790043
  0
ARC
  5
51F
100
AcDbEntity
  8
0
370
    -3
390
0
  6
Continuous
100
AcDbCircle
 10
-647.384445
 20
-308.027155
 30
0.0
 40
3.0
100
AcDbArc
 50
108.965575
 51
180.0
  0
ARC
  5
520
100
AcDbEntity
  8
0
370
    -3
390
0
  6
Continuous
100
AcDbCircle
 10
-653.884445
 20
-289.112875
 30
0.0
 40
17.0
100
AcDbArc
 50
288.965575
 51
307.975687
  0
ARC
  5
521
100
AcDbEntity
  8
0
370
    -3
390
0
  6
Continuous
100
AcDbCircle
 10
-641.577905
 20
-304.878313
 30
0.0
 40
3.0
100
AcDbArc
 50
60.0
 51
127.975687
  0
LINE
  5
522
100
AcDbEntity
  8
0
370
    -3
390
0
  6
Continuous
100
AcDbLine
 10
-636.390776
 20
-304.409002
 30
0.0
 11
-640.077905
 21
-302.280237
 31
0.0
  0
ARC
  5
523
100
AcDbEntity
  8
0
370
    -3
390
0
  6
Continuous
100
AcDbCircle
 10
-637.890776
 20
-307.007078
 30
0.0
 40
3.0
100
AcDbArc
 50
311.790043
 51
60.0
  0
ARC
  5
524
100
AcDbEntity
  8
0
370
    -3
390
0
  6
Continuous
100
AcDbCircle
 10
-624.489876
 20
-314.744092
 30
0.0
 40
3.0
100
AcDbArc
 50
318.912511
 51
60.0
  0
LINE
  5
525
100
AcDbEntity
  8
0
370
    -3
390
0
  6
Continuous
100
AcDbLine
 10
-622.989876
 20
-312.146015
 30
0.0
 11
-626.527647
 21
-310.103482
 31
0.0
  0
ARC
  5
526
100
AcDbEntity
  8
0
370
    -3
390
0
  6
Continuous
100
AcDbCircle
 10
-653.884445
 20
-289.112875
 30
0.0
 40
42.0
100
AcDbArc
 50
279.594068
 51
318.912511
  0
ARC
  5
527
100
AcDbEntity
  8
0
370
    -3
390
0
  6
Continuous
100
AcDbCircle
 10
-628.027647
 20
-312.701558
 30
0.0
 40
3.0
100
AcDbArc
 50
60.0
 51
137.626375
  0
ARC
  5
528
100
AcDbEntity
  8
0
370
    -3
390
0
  6
Continuous
100
AcDbCircle
 10
-653.884445
 20
-289.112875
 30
0.0
 40
32.0
100
AcDbArc
 50
280.70278
 51
317.626375
  0
ARC
  5
529
100
AcDbEntity
  8
0
370
    -3
390
0
  6
Continuous
100
AcDbCircle
 10
-647.384445
 20
-323.504007
 30
0.0
 40
3.0
100
AcDbArc
 50
100.70278
 51
180.0
  0
LINE
  5
52A
100
AcDbEntity
  8
0
370
    -3
390
0
  6
Continuous
100
AcDbLine
 10
-650.384445
 20
-327.567393
 30
0.0
 11
-650.384445
 21
-323.504007
 31
0.0
  0
ARC
  5
52B
100
AcDbEntity
  8
0
370
    -3
390
0
  6
Continuous
100
AcDbCircle
 10
-647.384445
 20
-327.567393
 30
0.0
 40
3.0
100
AcDbArc
 50
180.0
 51
279.594068
  0
ARC
  5
52C
100
AcDbEntity
  8
0
370
    -3
390
0
  6
Continuous
100
AcDbCircle
 10
-647.384445
 20
-338.688575
 30
0.0
 40
3.0
100
AcDbArc
 50
97.469592
 51
180.0
  0
LINE
  5
52D
100
AcDbEntity
  8
0
370
    -3
390
0
  6
Continuous
100
AcDbLine
 10
-650.384445
 20
-342.720244
 30
0.0
 11
-650.384445
 21
-338.688575
 31
0.0
  0
ARC
  5
52E
100
AcDbEntity
  8
0
370
    -3
390
0
  6
Continuous
100
AcDbCircle
 10
-647.384445
 20
-342.720244
 30
0.0
 40
3.0
100
AcDbArc
 50
180.0
 51
276.913478
  0
ARC
  5
52F
100
AcDbEntity
  8
0
370
    -3
390
0
  6
Continuous
100
AcDbCircle
 10
-647.384445
 20
-353.787058
 30
0.0
 40
3.0
100
AcDbArc
 50
95.73917
 51
180.0
  0
LINE
  5
530
100
AcDbEntity
  8
0
370
    -3
390
0
  6
Continuous
100
AcDbLine
 10
-650.384445
 20
-357.806033
 30
0.0
 11
-650.384445
 21
-353.787058
 31
0.0
  0
ARC
  5
531
100
AcDbEntity
  8
0
370
    -3
390
0
  6
Continuous
100
AcDbCircle
 10
-647.384445
 20
-357.806033
 30
0.0
 40
3.0
100
AcDbArc
 50
180.0
 51
275.405444
  0
ARC
  5
532
100
AcDbEntity
  8
0
370
    -3
390
0
  6
Continuous
100
AcDbCircle
 10
-647.384445
 20
-368.848375
 30
0.0
 40
3.0
100
AcDbArc
 50
94.660419
 51
180.0
  0
LINE
  5
533
100
AcDbEntity
  8
0
370
    -3
390
0
  6
Continuous
100
AcDbLine
 10
-650.384445
 20
-372.861009
 30
0.0
 11
-650.384445
 21
-368.848375
 31
0.0
  0
ARC
  5
534
100
AcDbEntity
  8
0
370
    -3
390
0
  6
Continuous
100
AcDbCircle
 10
-647.384445
 20
-372.861009
 30
0.0
 40
3.0
100
AcDbArc
 50
180.0
 51
274.438039
  0
ARC
  5
535
100
AcDbEntity
  8
0
370
    -3
390
0
  6
Continuous
100
AcDbCircle
 10
-574.750113
 20
-343.461357
 30
0.0
 40
3.0
100
AcDbArc
 50
60.0
 51
145.519201
  0
ARC
  5
536
100
AcDbEntity
  8
0
370
    -3
390
0
  6
Continuous
100
AcDbCircle
 10
-653.884445
 20
-289.112875
 30
0.0
 40
93.0
100
AcDbArc
 50
273.882372
 51
325.519201
  0
LINE
  5
537
100
AcDbEntity
  8
0
370
    -3
390
0
  6
Continuous
100
AcDbLine
 10
-572.38146
 20
-341.364798
 30
0.0
 11
-573.250113
 21
-340.863281
 31
0.0
  0
ARC
  5
538
100
AcDbEntity
  8
0
370
    -3
390
0
  6
Continuous
100
AcDbCircle
 10
-647.384445
 20
-384.89257
 30
0.0
 40
3.0
100
AcDbArc
 50
93.882372
 51
180.0
  0
LINE
  5
539
100
AcDbEntity
  8
0
370
    -3
390
0
  6
Continuous
100
AcDbLine
 10
-650.384445
 20
-385.894846
 30
0.0
 11
-650.384445
 21
-384.89257
 31
0.0
  0
ARC
  5
53A
100
AcDbEntity
  8
0
370
    -3
390
0
  6
Continuous
100
AcDbCircle
 10
-647.384445
 20
-385.894846
 30
0.0
 40
3.0
100
AcDbArc
 50
180.0
 51
273.842287
  0
ARC
  5
53B
100
AcDbEntity
  8
0
370
    -3
390
0
  6
Continuous
100
AcDbCircle
 10
-573.88146
 20
-343.962874
 30
0.0
 40
3.0
100
AcDbArc
 50
325.565488
 51
60.0
  0
ARC
  5
53C
100
AcDbEntity
  8
0
370
    -3
390
0
  6
Continuous
100
AcDbCircle
 10
-653.884445
 20
-289.112875
 30
0.0
 40
100.0
100
AcDbArc
 50
273.842287
 51
325.565488
  0
ARC
  5
53D
100
AcDbEntity
  8
0
370
    -3
390
0
  6
Continuous
100
AcDbCircle
 10
-577.678856
 20
-324.449939
 30
0.0
 40
3.0
100
AcDbArc
 50
240.0
 51
335.122516
  0
LINE
  5
53E
100
AcDbEntity
  8
0
370
    -3
390
0
  6
Continuous
100
AcDbLine
 10
-579.178856
 20
-327.048015
 30
0.0
 11
-582.657547
 21
-325.039591
 31
0.0
  0
ARC
  5
53F
100
AcDbEntity
  8
0
370
    -3
390
0
  6
Continuous
100
AcDbCircle
 10
-653.884445
 20
-289.112875
 30
0.0
 40
87.0
100
AcDbArc
 50
335.122516
 51
25.561961
  0
ARC
  5
540
100
AcDbEntity
  8
0
370
    -3
390
0
  6
Continuous
100
AcDbCircle
 10
-581.157547
 20
-322.441515
 30
0.0
 40
3.0
100
AcDbArc
 50
155.379379
 51
240.0
  0
ARC
  5
541
100
AcDbEntity
  8
0
370
    -3
390
0
  6
Continuous
100
AcDbCircle
 10
-653.884445
 20
-289.112875
 30
0.0
 40
77.0
100
AcDbArc
 50
335.379379
 51
25.339581
  0
ARC
  5
542
100
AcDbEntity
  8
0
370
    -3
390
0
  6
Continuous
100
AcDbCircle
 10
-590.732741
 20
-316.913274
 30
0.0
 40
3.0
100
AcDbArc
 50
240.0
 51
336.240131
  0
LINE
  5
543
100
AcDbEntity
  8
0
370
    -3
390
0
  6
Continuous
100
AcDbLine
 10
-592.232741
 20
-319.511351
 30
0.0
 11
-595.718772
 21
-317.498689
 31
0.0
  0
ARC
  5
544
100
AcDbEntity
  8
0
370
    -3
390
0
  6
Continuous
100
AcDbCircle
 10
-653.884445
 20
-289.112875
 30
0.0
 40
72.0
100
AcDbArc
 50
336.240131
 51
24.594556
  0
ARC
  5
545
100
AcDbEntity
  8
0
370
    -3
390
0
  6
Continuous
100
AcDbCircle
 10
-594.218772
 20
-314.900613
 30
0.0
 40
3.0
100
AcDbArc
 50
156.62581
 51
240.0
  0
ARC
  5
546
100
AcDbEntity
  8
0
370
    -3
390
0
  6
Continuous
100
AcDbCircle
 10
-653.884445
 20
-289.112875
 30
0.0
 40
62.0
100
AcDbArc
 50
336.62581
 51
24.26083
  0
ARC
  5
547
100
AcDbEntity
  8
0
370
    -3
390
0
  6
Continuous
100
AcDbCircle
 10
-603.822325
 20
-309.356
 30
0.0
 40
3.0
100
AcDbArc
 50
240.0
 51
337.983556
  0
LINE
  5
548
100
AcDbEntity
  8
0
370
    -3
390
0
  6
Continuous
100
AcDbLine
 10
-605.322325
 20
-311.954076
 30
0.0
 11
-608.823086
 21
-309.93291
 31
0.0
  0
ARC
  5
549
100
AcDbEntity
  8
0
370
    -3
390
0
  6
Continuous
100
AcDbCircle
 10
-653.884445
 20
-289.112875
 30
0.0
 40
57.0
100
AcDbArc
 50
337.983556
 51
23.086522
  0
ARC
  5
54A
100
AcDbEntity
  8
0
370
    -3
390
0
  6
Continuous
100
AcDbCircle
 10
-607.323086
 20
-307.334834
 30
0.0
 40
3.0
100
AcDbArc
 50
158.626927
 51
240.0
  0
ARC
  5
54B
100
AcDbEntity
  8
0
370
    -3
390
0
  6
Continuous
100
AcDbCircle
 10
-653.884445
 20
-289.112875
 30
0.0
 40
47.0
100
AcDbArc
 50
338.626927
 51
22.530408
  0
ARC
  5
54C
100
AcDbEntity
  8
0
370
    -3
390
0
  6
Continuous
100
AcDbCircle
 10
-630.626634
 20
-283.190525
 30
0.0
 40
3.0
100
AcDbArc
 50
14.286139
 51
120.0
  0
LINE
  5
54D
100
AcDbEntity
  8
0
370
    -3
390
0
  6
Continuous
100
AcDbLine
 10
-632.126634
 20
-280.592449
 30
0.0
 11
-635.754198
 21
-282.686824
 31
0.0
  0
ARC
  5
54E
100
AcDbEntity
  8
0
370
    -3
390
0
  6
Continuous
100
AcDbCircle
 10
-653.884445
 20
-289.112875
 30
0.0
 40
27.0
100
AcDbArc
 50
348.209957
 51
14.286139
  0
ARC
  5
54F
100
AcDbEntity
  8
0
370
    -3
390
0
  6
Continuous
100
AcDbCircle
 10
-634.254198
 20
-285.2849
 30
0.0
 40
3.0
100
AcDbArc
 50
120.0
 51
191.034425
  0
ARC
  5
550
100
AcDbEntity
  8
0
370
    -3
390
0
  6
Continuous
100
AcDbCircle
 10
-653.884445
 20
-289.112875
 30
0.0
 40
17.0
100
AcDbArc
 50
352.024313
 51
11.034425
  0
ARC
  5
551
100
AcDbEntity
  8
0
370
    -3
390
0
  6
Continuous
100
AcDbCircle
 10
-634.077905
 20
-291.887932
 30
0.0
 40
3.0
100
AcDbArc
 50
172.024313
 51
240.0
  0
LINE
  5
552
100
AcDbEntity
  8
0
370
    -3
390
0
  6
Continuous
100
AcDbLine
 10
-631.890776
 20
-296.614774
 30
0.0
 11
-635.577905
 21
-294.486009
 31
0.0
  0
ARC
  5
553
100
AcDbEntity
  8
0
370
    -3
390
0
  6
Continuous
100
AcDbCircle
 10
-630.390776
 20
-294.016697
 30
0.0
 40
3.0
100
AcDbArc
 50
240.0
 51
348.209957
  0
ARC
  5
554
100
AcDbEntity
  8
0
370
    -3
390
0
  6
Continuous
100
AcDbCircle
 10
-616.989876
 20
-301.753711
 30
0.0
 40
3.0
100
AcDbArc
 50
240.0
 51
341.087489
  0
LINE
  5
555
100
AcDbEntity
  8
0
370
    -3
390
0
  6
Continuous
100
AcDbLine
 10
-618.489876
 20
-304.351787
 30
0.0
 11
-622.027647
 21
-302.309253
 31
0.0
  0
ARC
  5
556
100
AcDbEntity
  8
0
370
    -3
390
0
  6
Continuous
100
AcDbCircle
 10
-653.884445
 20
-289.112875
 30
0.0
 40
42.0
100
AcDbArc
 50
341.087489
 51
20.405932
  0
ARC
  5
557
100
AcDbEntity
  8
0
370
    -3
390
0
  6
Continuous
100
AcDbCircle
 10
-620.527647
 20
-299.711177
 30
0.0
 40
3.0
100
AcDbArc
 50
162.373625
 51
240.0
  0
ARC
  5
558
100
AcDbEntity
  8
0
370
    -3
390
0
  6
Continuous
100
AcDbCircle
 10
-653.884445
 20
-289.112875
 30
0.0
 40
32.0
100
AcDbArc
 50
342.373625
 51
19.29722
  0
ARC
  5
559
100
AcDbEntity
  8
0
370
    -3
390
0
  6
Continuous
100
AcDbCircle
 10
-620.850851
 20
-277.546474
 30
0.0
 40
3.0
100
AcDbArc
 50
120.0
 51
199.29722
  0
LINE
  5
55A
100
AcDbEntity
  8
0
370
    -3
390
0
  6
Continuous
100
AcDbLine
 10
-618.831855
 20
-272.916704
 30
0.0
 11
-622.350851
 21
-274.948397
 31
0.0
  0
ARC
  5
55B
100
AcDbEntity
  8
0
370
    -3
390
0
  6
Continuous
100
AcDbCircle
 10
-617.331855
 20
-275.514781
 30
0.0
 40
3.0
100
AcDbArc
 50
20.405932
 51
120.0
  0
ARC
  5
55C
100
AcDbEntity
  8
0
370
    -3
390
0
  6
Continuous
100
AcDbCircle
 10
-607.70063
 20
-269.95419
 30
0.0
 40
3.0
100
AcDbArc
 50
120.0
 51
202.530408
  0
LINE
  5
55D
100
AcDbEntity
  8
0
370
    -3
390
0
  6
Continuous
100
AcDbLine
 10
-605.709102
 20
-265.340279
 30
0.0
 11
-609.20063
 21
-267.356114
 31
0.0
  0
ARC
  5
55E
100
AcDbEntity
  8
0
370
    -3
390
0
  6
Continuous
100
AcDbCircle
 10
-604.209102
 20
-267.938356
 30
0.0
 40
3.0
100
AcDbArc
 50
23.086522
 51
120.0
  0
ARC
  5
55F
100
AcDbEntity
  8
0
370
    -3
390
0
  6
Continuous
100
AcDbCircle
 10
-594.62496
 20
-262.404948
 30
0.0
 40
3.0
100
AcDbArc
 50
120.0
 51
204.26083
  0
LINE
  5
560
100
AcDbEntity
  8
0
370
    -3
390
0
  6
Continuous
100
AcDbLine
 10
-592.644425
 20
-257.797385
 30
0.0
 11
-596.12496
 21
-259.806872
 31
0.0
  0
ARC
  5
561
100
AcDbEntity
  8
0
370
    -3
390
0
  6
Continuous
100
AcDbCircle
 10
-591.144425
 20
-260.395461
 30
0.0
 40
3.0
100
AcDbArc
 50
24.594556
 51
120.0
  0
ARC
  5
562
100
AcDbEntity
  8
0
370
    -3
390
0
  6
Continuous
100
AcDbCircle
 10
-581.581477
 20
-254.87429
 30
0.0
 40
3.0
100
AcDbArc
 50
120.0
 51
205.339581
  0
LINE
  5
563
100
AcDbEntity
  8
0
370
    -3
390
0
  6
Continuous
100
AcDbLine
 10
-579.606434
 20
-250.269897
 30
0.0
 11
-583.081477
 21
-252.276214
 31
0.0
  0
ARC
  5
564
100
AcDbEntity
  8
0
370
    -3
390
0
  6
Continuous
100
AcDbCircle
 10
-578.106434
 20
-252.867973
 30
0.0
 40
3.0
100
AcDbArc
 50
25.561961
 51
120.0
  0
ARC
  5
565
100
AcDbEntity
  8
0
370
    -3
390
0
  6
Continuous
100
AcDbCircle
 10
-567.250113
 20
-330.470976
 30
0.0
 40
3.0
100
AcDbArc
 50
154.480799
 51
240.0
  0
ARC
  5
566
100
AcDbEntity
  8
0
370
    -3
390
0
  6
Continuous
100
AcDbCircle
 10
-653.884445
 20
-289.112875
 30
0.0
 40
93.0
100
AcDbArc
 50
334.480799
 51
26.117628
  0
LINE
  5
567
100
AcDbEntity
  8
0
370
    -3
390
0
  6
Continuous
100
AcDbLine
 10
-567.88146
 20
-333.570569
 30
0.0
 11
-568.750113
 21
-333.069052
 31
0.0
  0
ARC
  5
568
100
AcDbEntity
  8
0
370
    -3
390
0
  6
Continuous
100
AcDbCircle
 10
-567.686796
 20
-246.852192
 30
0.0
 40
3.0
100
AcDbArc
 50
120.0
 51
206.117628
  0
LINE
  5
569
100
AcDbEntity
  8
0
370
    -3
390
0
  6
Continuous
100
AcDbLine
 10
-568.318799
 20
-243.752978
 30
0.0
 11
-569.186796
 21
-244.254116
 31
0.0
  0
ARC
  5
56A
100
AcDbEntity
  8
0
370
    -3
390
0
  6
Continuous
100
AcDbCircle
 10
-566.818799
 20
-246.351054
 30
0.0
 40
3.0
100
AcDbArc
 50
26.157713
 51
120.0
  0
ARC
  5
56B
100
AcDbEntity
  8
0
370
    -3
390
0
  6
Continuous
100
AcDbCircle
 10
-566.38146
 20
-330.972493
 30
0.0
 40
3.0
100
AcDbArc
 50
240.0
 51
334.434512
  0
ARC
  5
56C
100
AcDbEntity
  8
0
370
    -3
390
0
  6
Continuous
100
AcDbCircle
 10
-653.884445
 20
-289.112875
 30
0.0
 40
100.0
100
AcDbArc
 50
334.434512
 51
26.157713
  0
ARC
  5
56D
100
AcDbEntity
  8
0
370
    -3
390
0
  6
Continuous
100
AcDbCircle
 10
-646.384445
 20
-205.448366
 30
0.0
 40
3.0
100
AcDbArc
 50
84.877484
 51
180.0
  0
LINE
  5
56E
100
AcDbEntity
  8
0
370
    -3
390
0
  6
Continuous
100
AcDbLine
 10
-649.384445
 20
-205.448366
 30
0.0
 11
-649.384445
 21
-209.465213
 31
0.0
  0
ARC
  5
56F
100
AcDbEntity
  8
0
370
    -3
390
0
  6
Continuous
100
AcDbCircle
 10
-653.884445
 20
-289.112875
 30
0.0
 40
87.0
100
AcDbArc
 50
34.438039
 51
84.877484
  0
ARC
  5
570
100
AcDbEntity
  8
0
370
    -3
390
0
  6
Continuous
100
AcDbCircle
 10
-646.384445
 20
-209.465213
 30
0.0
 40
3.0
100
AcDbArc
 50
180.0
 51
264.620621
  0
ARC
  5
571
100
AcDbEntity
  8
0
370
    -3
390
0
  6
Continuous
100
AcDbCircle
 10
-653.884445
 20
-289.112875
 30
0.0
 40
77.0
100
AcDbArc
 50
34.660419
 51
84.620621
  0
ARC
  5
572
100
AcDbEntity
  8
0
370
    -3
390
0
  6
Continuous
100
AcDbCircle
 10
-646.384445
 20
-220.521695
 30
0.0
 40
3.0
100
AcDbArc
 50
83.759869
 51
180.0
  0
LINE
  5
573
100
AcDbEntity
  8
0
370
    -3
390
0
  6
Continuous
100
AcDbLine
 10
-649.384445
 20
-220.521695
 30
0.0
 11
-649.384445
 21
-224.547017
 31
0.0
  0
ARC
  5
574
100
AcDbEntity
  8
0
370
    -3
390
0
  6
Continuous
100
AcDbCircle
 10
-653.884445
 20
-289.112875
 30
0.0
 40
72.0
100
AcDbArc
 50
35.405444
 51
83.759869
  0
ARC
  5
575
100
AcDbEntity
  8
0
370
    -3
390
0
  6
Continuous
100
AcDbCircle
 10
-646.384445
 20
-224.547017
 30
0.0
 40
3.0
100
AcDbArc
 50
180.0
 51
263.37419
  0
ARC
  5
576
100
AcDbEntity
  8
0
370
    -3
390
0
  6
Continuous
100
AcDbCircle
 10
-653.884445
 20
-289.112875
 30
0.0
 40
62.0
100
AcDbArc
 50
35.73917
 51
83.37419
  0
ARC
  5
577
100
AcDbEntity
  8
0
370
    -3
390
0
  6
Continuous
100
AcDbCircle
 10
-646.384445
 20
-235.636244
 30
0.0
 40
3.0
100
AcDbArc
 50
82.016444
 51
180.0
  0
LINE
  5
578
100
AcDbEntity
  8
0
370
    -3
390
0
  6
Continuous
100
AcDbLine
 10
-649.384445
 20
-235.636244
 30
0.0
 11
-649.384445
 21
-239.678575
 31
0.0
  0
ARC
  5
579
100
AcDbEntity
  8
0
370
    -3
390
0
  6
Continuous
100
AcDbCircle
 10
-653.884445
 20
-289.112875
 30
0.0
 40
57.0
100
AcDbArc
 50
36.913478
 51
82.016444
  0
ARC
  5
57A
100
AcDbEntity
  8
0
370
    -3
390
0
  6
Continuous
100
AcDbCircle
 10
-646.384445
 20
-239.678575
 30
0.0
 40
3.0
100
AcDbArc
 50
180.0
 51
261.373073
  0
ARC
  5
57B
100
AcDbEntity
  8
0
370
    -3
390
0
  6
Continuous
100
AcDbCircle
 10
-653.884445
 20
-289.112875
 30
0.0
 40
47.0
100
AcDbArc
 50
37.469592
 51
81.373073
  0
ARC
  5
57C
100
AcDbEntity
  8
0
370
    -3
390
0
  6
Continuous
100
AcDbCircle
 10
-637.126634
 20
-271.932195
 30
0.0
 40
3.0
100
AcDbArc
 50
300.0
 51
45.713861
  0
LINE
  5
57D
100
AcDbEntity
  8
0
370
    -3
390
0
  6
Continuous
100
AcDbLine
 10
-635.626634
 20
-274.530271
 30
0.0
 11
-639.254198
 21
-276.624646
 31
0.0
  0
ARC
  5
57E
100
AcDbEntity
  8
0
370
    -3
390
0
  6
Continuous
100
AcDbCircle
 10
-653.884445
 20
-289.112875
 30
0.0
 40
27.0
100
AcDbArc
 50
45.713861
 51
71.790043
  0
ARC
  5
57F
100
AcDbEntity
  8
0
370
    -3
390
0
  6
Continuous
100
AcDbCircle
 10
-640.754198
 20
-274.02657
 30
0.0
 40
3.0
100
AcDbArc
 50
228.965575
 51
300.0
  0
ARC
  5
580
100
AcDbEntity
  8
0
370
    -3
390
0
  6
Continuous
100
AcDbCircle
 10
-653.884445
 20
-289.112875
 30
0.0
 40
17.0
100
AcDbArc
 50
48.965575
 51
67.975687
  0
ARC
  5
581
100
AcDbEntity
  8
0
370
    -3
390
0
  6
Continuous
100
AcDbCircle
 10
-646.384445
 20
-270.572379
 30
0.0
 40
3.0
100
AcDbArc
 50
180.0
 51
247.975687
  0
LINE
  5
582
100
AcDbEntity
  8
0
370
    -3
390
0
  6
Continuous
100
AcDbLine
 10
-649.384445
 20
-266.314849
 30
0.0
 11
-649.384445
 21
-270.572379
 31
0.0
  0
ARC
  5
583
100
AcDbEntity
  8
0
370
    -3
390
0
  6
Continuous
100
AcDbCircle
 10
-646.384445
 20
-266.314849
 30
0.0
 40
3.0
100
AcDbArc
 50
71.790043
 51
180.0
  0
ARC
  5
584
100
AcDbEntity
  8
0
370
    -3
390
0
  6
Continuous
100
AcDbCircle
 10
-646.384445
 20
-250.840822
 30
0.0
 40
3.0
100
AcDbArc
 50
78.912511
 51
180.0
  0
LINE
  5
585
100
AcDbEntity
  8
0
370
    -3
390
0
  6
Continuous
100
AcDbLine
 10
-649.384445
 20
-250.840822
 30
0.0
 11
-649.384445
 21
-254.925889
 31
0.0
  0
ARC
  5
586
100
AcDbEntity
  8
0
370
    -3
390
0
  6
Continuous
100
AcDbCircle
 10
-653.884445
 20
-289.112875
 30
0.0
 40
42.0
100
AcDbArc
 50
39.594068
 51
78.912511
  0
ARC
  5
587
100
AcDbEntity
  8
0
370
    -3
390
0
  6
Continuous
100
AcDbCircle
 10
-646.384445
 20
-254.925889
 30
0.0
 40
3.0
100
AcDbArc
 50
180.0
 51
257.626375
  0
ARC
  5
588
100
AcDbEntity
  8
0
370
    -3
390
0
  6
Continuous
100
AcDbCircle
 10
-653.884445
 20
-289.112875
 30
0.0
 40
32.0
100
AcDbArc
 50
40.70278
 51
77.626375
  0
ARC
  5
589
100
AcDbEntity
  8
0
370
    -3
390
0
  6
Continuous
100
AcDbCircle
 10
-627.350851
 20
-266.288143
 30
0.0
 40
3.0
100
AcDbArc
 50
220.70278
 51
300.0
  0
LINE
  5
58A
100
AcDbEntity
  8
0
370
    -3
390
0
  6
Continuous
100
AcDbLine
 10
-622.331855
 20
-266.854527
 30
0.0
 11
-625.850851
 21
-268.88622
 31
0.0
  0
ARC
  5
58B
100
AcDbEntity
  8
0
370
    -3
390
0
  6
Continuous
100
AcDbCircle
 10
-623.831855
 20
-264.25645
 30
0.0
 40
3.0
100
AcDbArc
 50
300.0
 51
39.594068
  0
ARC
  5
58C
100
AcDbEntity
  8
0
370
    -3
390
0
  6
Continuous
100
AcDbCircle
 10
-614.20063
 20
-258.69586
 30
0.0
 40
3.0
100
AcDbArc
 50
217.469592
 51
300.0
  0
LINE
  5
58D
100
AcDbEntity
  8
0
370
    -3
390
0
  6
Continuous
100
AcDbLine
 10
-609.209102
 20
-259.278101
 30
0.0
 11
-612.70063
 21
-261.293936
 31
0.0
  0
ARC
  5
58E
100
AcDbEntity
  8
0
370
    -3
390
0
  6
Continuous
100
AcDbCircle
 10
-610.709102
 20
-256.680025
 30
0.0
 40
3.0
100
AcDbArc
 50
300.0
 51
36.913478
  0
ARC
  5
58F
100
AcDbEntity
  8
0
370
    -3
390
0
  6
Continuous
100
AcDbCircle
 10
-601.12496
 20
-251.146618
 30
0.0
 40
3.0
100
AcDbArc
 50
215.73917
 51
300.0
  0
LINE
  5
590
100
AcDbEntity
  8
0
370
    -3
390
0
  6
Continuous
100
AcDbLine
 10
-596.144425
 20
-251.735207
 30
0.0
 11
-599.62496
 21
-253.744694
 31
0.0
  0
ARC
  5
591
100
AcDbEntity
  8
0
370
    -3
390
0
  6
Continuous
100
AcDbCircle
 10
-597.644425
 20
-249.137131
 30
0.0
 40
3.0
100
AcDbArc
 50
300.0
 51
35.405444
  0
ARC
  5
592
100
AcDbEntity
  8
0
370
    -3
390
0
  6
Continuous
100
AcDbCircle
 10
-588.081477
 20
-243.61596
 30
0.0
 40
3.0
100
AcDbArc
 50
214.660419
 51
300.0
  0
LINE
  5
593
100
AcDbEntity
  8
0
370
    -3
390
0
  6
Continuous
100
AcDbLine
 10
-583.106434
 20
-244.207719
 30
0.0
 11
-586.581477
 21
-246.214036
 31
0.0
  0
ARC
  5
594
100
AcDbEntity
  8
0
370
    -3
390
0
  6
Continuous
100
AcDbCircle
 10
-584.606434
 20
-241.609643
 30
0.0
 40
3.0
100
AcDbArc
 50
300.0
 51
34.438039
  0
ARC
  5
595
100
AcDbEntity
  8
0
370
    -3
390
0
  6
Continuous
100
AcDbCircle
 10
-646.384445
 20
-193.406292
 30
0.0
 40
3.0
100
AcDbArc
 50
180.0
 51
265.519201
  0
ARC
  5
596
100
AcDbEntity
  8
0
370
    -3
390
0
  6
Continuous
100
AcDbCircle
 10
-653.884445
 20
-289.112875
 30
0.0
 40
93.0
100
AcDbArc
 50
33.882372
 51
85.519201
  0
LINE
  5
597
100
AcDbEntity
  8
0
370
    -3
390
0
  6
Continuous
100
AcDbLine
 10
-649.384445
 20
-192.403258
 30
0.0
 11
-649.384445
 21
-193.406292
 31
0.0
  0
ARC
  5
598
100
AcDbEntity
  8
0
370
    -3
390
0
  6
Continuous
100
AcDbCircle
 10
-574.186796
 20
-235.593862
 30
0.0
 40
3.0
100
AcDbArc
 50
213.882372
 51
300.0
  0
LINE
  5
599
100
AcDbEntity
  8
0
370
    -3
390
0
  6
Continuous
100
AcDbLine
 10
-571.818799
 20
-237.6908
 30
0.0
 11
-572.686796
 21
-238.191938
 31
0.0
  0
ARC
  5
59A
100
AcDbEntity
  8
0
370
    -3
390
0
  6
Continuous
100
AcDbCircle
 10
-573.318799
 20
-235.092724
 30
0.0
 40
3.0
100
AcDbArc
 50
300.0
 51
33.842287
  0
ARC
  5
59B
100
AcDbEntity
  8
0
370
    -3
390
0
  6
Continuous
100
AcDbCircle
 10
-646.384445
 20
-192.403258
 30
0.0
 40
3.0
100
AcDbArc
 50
85.565488
 51
180.0
  0
ARC
  5
59C
100
AcDbEntity
  8
0
370
    -3
390
0
  6
Continuous
100
AcDbCircle
 10
-653.884445
 20
-289.112875
 30
0.0
 40
100.0
100
AcDbArc
 50
33.842287
 51
85.565488
  0
ARC
  5
59D
100
AcDbEntity
  8
0
370
    -3
390
0
  6
Continuous
100
AcDbCircle
 10
-661.384445
 20
-205.448366
 30
0.0
 40
3.0
100
AcDbArc
 50
0.0
 51
95.122516
  0
LINE
  5
59E
100
AcDbEntity
  8
0
370
    -3
390
0
  6
Continuous
100
AcDbLine
 10
-658.384445
 20
-205.448366
 30
0.0
 11
-658.384445
 21
-209.465213
 31
0.0
  0
ARC
  5
59F
100
AcDbEntity
  8
0
370
    -3
390
0
  6
Continuous
100
AcDbCircle
 10
-653.884445
 20
-289.112875
 30
0.0
 40
87.0
100
AcDbArc
 50
95.122516
 51
145.561961
  0
ARC
  5
5A0
100
AcDbEntity
  8
0
370
    -3
390
0
  6
Continuous
100
AcDbCircle
 10
-661.384445
 20
-209.465213
 30
0.0
 40
3.0
100
AcDbArc
 50
275.379379
 51
0.0
  0
ARC
  5
5A1
100
AcDbEntity
  8
0
370
    -3
390
0
  6
Continuous
100
AcDbCircle
 10
-653.884445
 20
-289.112875
 30
0.0
 40
77.0
100
AcDbArc
 50
95.379379
 51
145.339581
  0
ARC
  5
5A2
100
AcDbEntity
  8
0
370
    -3
390
0
  6
Continuous
100
AcDbCircle
 10
-661.384445
 20
-220.521695
 30
0.0
 40
3.0
100
AcDbArc
 50
0.0
 51
96.240131
  0
LINE
  5
5A3
100
AcDbEntity
  8
0
370
    -3
390
0
  6
Continuous
100
AcDbLine
 10
-658.384445
 20
-220.521695
 30
0.0
 11
-658.384445
 21
-224.547017
 31
0.0
  0
ARC
  5
5A4
100
AcDbEntity
  8
0
370
    -3
390
0
  6
Continuous
100
AcDbCircle
 10
-653.884445
 20
-289.112875
 30
0.0
 40
72.0
100
AcDbArc
 50
96.240131
 51
144.594556
  0
ARC
  5
5A5
100
AcDbEntity
  8
0
370
    -3
390
0
  6
Continuous
100
AcDbCircle
 10
-661.384445
 20
-224.547017
 30
0.0
 40
3.0
100
AcDbArc
 50
276.62581
 51
0.0
  0
ARC
  5
5A6
100
AcDbEntity
  8
0
370
    -3
390
0
  6
Continuous
100
AcDbCircle
 10
-653.884445
 20
-289.112875
 30
0.0
 40
62.0
100
AcDbArc
 50
96.62581
 51
144.26083
  0
ARC
  5
5A7
100
AcDbEntity
  8
0
370
    -3
390
0
  6
Continuous
100
AcDbCircle
 10
-661.384445
 20
-235.636244
 30
0.0
 40
3.0
100
AcDbArc
 50
0.0
 51
97.983556
  0
LINE
  5
5A8
100
AcDbEntity
  8
0
370
    -3
390
0
  6
Continuous
100
AcDbLine
 10
-658.384445
 20
-235.636244
 30
0.0
 11
-658.384445
 21
-239.678575
 31
0.0
  0
ARC
  5
5A9
100
AcDbEntity
  8
0
370
    -3
390
0
  6
Continuous
100
AcDbCircle
 10
-653.884445
 20
-289.112875
 30
0.0
 40
57.0
100
AcDbArc
 50
97.983556
 51
143.086522
  0
ARC
  5
5AA
100
AcDbEntity
  8
0
370
    -3
390
0
  6
Continuous
100
AcDbCircle
 10
-661.384445
 20
-239.678575
 30
0.0
 40
3.0
100
AcDbArc
 50
278.626927
 51
360.0
  0
ARC
  5
5AB
100
AcDbEntity
  8
0
370
    -3
390
0
  6
Continuous
100
AcDbCircle
 10
-653.884445
 20
-289.112875
 30
0.0
 40
47.0
100
AcDbArc
 50
98.626927
 51
142.530408
  0
ARC
  5
5AC
100
AcDbEntity
  8
0
370
    -3
390
0
  6
Continuous
100
AcDbCircle
 10
-670.642256
 20
-271.932195
 30
0.0
 40
3.0
100
AcDbArc
 50
134.286139
 51
240.0
  0
LINE
  5
5AD
100
AcDbEntity
  8
0
370
    -3
390
0
  6
Continuous
100
AcDbLine
 10
-672.142256
 20
-274.530271
 30
0.0
 11
-668.514693
 21
-276.624646
 31
0.0
  0
ARC
  5
5AE
100
AcDbEntity
  8
0
370
    -3
390
0
  6
Continuous
100
AcDbCircle
 10
-653.884445
 20
-289.112875
 30
0.0
 40
27.0
100
AcDbArc
 50
108.209957
 51
134.286139
  0
ARC
  5
5AF
100
AcDbEntity
  8
0
370
    -3
390
0
  6
Continuous
100
AcDbCircle
 10
-667.014693
 20
-274.02657
 30
0.0
 40
3.0
100
AcDbArc
 50
240.0
 51
311.034425
  0
ARC
  5
5B0
100
AcDbEntity
  8
0
370
    -3
390
0
  6
Continuous
100
AcDbCircle
 10
-653.884445
 20
-289.112875
 30
0.0
 40
17.0
100
AcDbArc
 50
112.024313
 51
131.034425
  0
ARC
  5
5B1
100
AcDbEntity
  8
0
370
    -3
390
0
  6
Continuous
100
AcDbCircle
 10
-661.384445
 20
-270.572379
 30
0.0
 40
3.0
100
AcDbArc
 50
292.024313
 51
0.0
  0
LINE
  5
5B2
100
AcDbEntity
  8
0
370
    -3
390
0
  6
Continuous
100
AcDbLine
 10
-658.384445
 20
-266.314849
 30
0.0
 11
-658.384445
 21
-270.572379
 31
0.0
  0
ARC
  5
5B3
100
AcDbEntity
  8
0
370
    -3
390
0
  6
Continuous
100
AcDbCircle
 10
-661.384445
 20
-266.314849
 30
0.0
 40
3.0
100
AcDbArc
 50
0.0
 51
108.209957
  0
ARC
  5
5B4
100
AcDbEntity
  8
0
370
    -3
390
0
  6
Continuous
100
AcDbCircle
 10
-661.384445
 20
-250.840822
 30
0.0
 40
3.0
100
AcDbArc
 50
0.0
 51
101.087489
  0
LINE
  5
5B5
100
AcDbEntity
  8
0
370
    -3
390
0
  6
Continuous
100
AcDbLine
 10
-658.384445
 20
-250.840822
 30
0.0
 11
-658.384445
 21
-254.925889
 31
0.0
  0
ARC
  5
5B6
100
AcDbEntity
  8
0
370
    -3
390
0
  6
Continuous
100
AcDbCircle
 10
-653.884445
 20
-289.112875
 30
0.0
 40
42.0
100
AcDbArc
 50
101.087489
 51
140.405932
  0
ARC
  5
5B7
100
AcDbEntity
  8
0
370
    -3
390
0
  6
Continuous
100
AcDbCircle
 10
-661.384445
 20
-254.925889
 30
0.0
 40
3.0
100
AcDbArc
 50
282.373625
 51
0.0
  0
ARC
  5
5B8
100
AcDbEntity
  8
0
370
    -3
390
0
  6
Continuous
100
AcDbCircle
 10
-653.884445
 20
-289.112875
 30
0.0
 40
32.0
100
AcDbArc
 50
102.373625
 51
139.29722
  0
ARC
  5
5B9
100
AcDbEntity
  8
0
370
    -3
390
0
  6
Continuous
100
AcDbCircle
 10
-680.41804
 20
-266.288143
 30
0.0
 40
3.0
100
AcDbArc
 50
240.0
 51
319.29722
  0
LINE
  5
5BA
100
AcDbEntity
  8
0
370
    -3
390
0
  6
Continuous
100
AcDbLine
 10
-685.437035
 20
-266.854527
 30
0.0
 11
-681.91804
 21
-268.88622
 31
0.0
  0
ARC
  5
5BB
100
AcDbEntity
  8
0
370
    -3
390
0
  6
Continuous
100
AcDbCircle
 10
-683.937035
 20
-264.25645
 30
0.0
 40
3.0
100
AcDbArc
 50
140.405932
 51
240.0
  0
ARC
  5
5BC
100
AcDbEntity
  8
0
370
    -3
390
0
  6
Continuous
100
AcDbCircle
 10
-693.568261
 20
-258.69586
 30
0.0
 40
3.0
100
AcDbArc
 50
240.0
 51
322.530408
  0
LINE
  5
5BD
100
AcDbEntity
  8
0
370
    -3
390
0
  6
Continuous
100
AcDbLine
 10
-698.559789
 20
-259.278101
 30
0.0
 11
-695.068261
 21
-261.293936
 31
0.0
  0
ARC
  5
5BE
100
AcDbEntity
  8
0
370
    -3
390
0
  6
Continuous
100
AcDbCircle
 10
-697.059789
 20
-256.680025
 30
0.0
 40
3.0
100
AcDbArc
 50
143.086522
 51
240.0
  0
ARC
  5
5BF
100
AcDbEntity
  8
0
370
    -3
390
0
  6
Continuous
100
AcDbCircle
 10
-706.643931
 20
-251.146618
 30
0.0
 40
3.0
100
AcDbArc
 50
240.0
 51
324.26083
  0
LINE
  5
5C0
100
AcDbEntity
  8
0
370
    -3
390
0
  6
Continuous
100
AcDbLine
 10
-711.624466
 20
-251.735207
 30
0.0
 11
-708.143931
 21
-253.744694
 31
0.0
  0
ARC
  5
5C1
100
AcDbEntity
  8
0
370
    -3
390
0
  6
Continuous
100
AcDbCircle
 10
-710.124466
 20
-249.137131
 30
0.0
 40
3.0
100
AcDbArc
 50
144.594556
 51
240.0
  0
ARC
  5
5C2
100
AcDbEntity
  8
0
370
    -3
390
0
  6
Continuous
100
AcDbCircle
 10
-719.687414
 20
-243.61596
 30
0.0
 40
3.0
100
AcDbArc
 50
240.0
 51
325.339581
  0
LINE
  5
5C3
100
AcDbEntity
  8
0
370
    -3
390
0
  6
Continuous
100
AcDbLine
 10
-724.662457
 20
-244.207719
 30
0.0
 11
-721.187414
 21
-246.214036
 31
0.0
  0
ARC
  5
5C4
100
AcDbEntity
  8
0
370
    -3
390
0
  6
Continuous
100
AcDbCircle
 10
-723.162457
 20
-241.609643
 30
0.0
 40
3.0
100
AcDbArc
 50
145.561961
 51
240.0
  0
ARC
  5
5C5
100
AcDbEntity
  8
0
370
    -3
390
0
  6
Continuous
100
AcDbCircle
 10
-661.384445
 20
-193.406292
 30
0.0
 40
3.0
100
AcDbArc
 50
274.480799
 51
0.0
  0
LINE
  5
5C6
100
AcDbEntity
  8
0
370
    -3
390
0
  6
Continuous
100
AcDbLine
 10
-658.384445
 20
-192.403258
 30
0.0
 11
-658.384445
 21
-193.406292
 31
0.0
  0
ARC
  5
5C7
100
AcDbEntity
  8
0
370
    -3
390
0
  6
Continuous
100
AcDbCircle
 10
-733.582095
 20
-235.593862
 30
0.0
 40
3.0
100
AcDbArc
 50
240.0
 51
326.117628
  0
LINE
  5
5C8
100
AcDbEntity
  8
0
370
    -3
390
0
  6
Continuous
100
AcDbLine
 10
-735.950091
 20
-237.6908
 30
0.0
 11
-735.082095
 21
-238.191938
 31
0.0
  0
ARC
  5
5C9
100
AcDbEntity
  8
0
370
    -3
390
0
  6
Continuous
100
AcDbCircle
 10
-734.450091
 20
-235.092724
 30
0.0
 40
3.0
100
AcDbArc
 50
146.157713
 51
240.0
  0
ARC
  5
5CA
100
AcDbEntity
  8
0
370
    -3
390
0
  6
Continuous
100
AcDbCircle
 10
-661.384445
 20
-192.403258
 30
0.0
 40
3.0
100
AcDbArc
 50
0.0
 51
94.434512
  0
ARC
  5
5CB
100
AcDbEntity
  8
0
370
    -3
390
0
  6
Continuous
100
AcDbCircle
 10
-653.884445
 20
-289.112875
 30
0.0
 40
100.0
100
AcDbArc
 50
94.434512
 51
146.157713
  0
ARC
  5
5CC
100
AcDbEntity
  8
0
370
    -3
390
0
  6
Continuous
100
AcDbCircle
 10
-639.595026
 20
-297.362875
 30
0.0
 40
1.5
100
AcDbArc
 50
60.0
 51
240.0
  0
LINE
  5
5CD
100
AcDbEntity
  8
0
370
    -3
390
0
  6
Continuous
100
AcDbLine
 10
-559.170689
 20
-342.063837
 30
0.0
 11
-638.845026
 21
-296.063837
 31
0.0
  0
LINE
  5
5CE
100
AcDbEntity
  8
0
370
    -3
390
0
  6
Continuous
100
AcDbLine
 10
-560.670689
 20
-344.661913
 30
0.0
 11
-640.345026
 21
-298.661913
 31
0.0
  0
ARC
  5
5CF
100
AcDbEntity
  8
0
370
    -3
390
0
  6
Continuous
100
AcDbCircle
 10
-559.920689
 20
-343.362875
 30
0.0
 40
1.5
100
AcDbArc
 50
240.0
 51
60.0
  0
ARC
  5
5D0
100
AcDbEntity
  8
0
370
    -3
390
0
  6
Continuous
100
AcDbCircle
 10
-668.173865
 20
-297.362875
 30
0.0
 40
1.5
100
AcDbArc
 50
300.0
 51
120.0
  0
LINE
  5
5D1
100
AcDbEntity
  8
0
370
    -3
390
0
  6
Continuous
100
AcDbLine
 10
-747.098202
 20
-344.661913
 30
0.0
 11
-667.423865
 21
-298.661913
 31
0.0
  0
LINE
  5
5D2
100
AcDbEntity
  8
0
370
    -3
390
0
  6
Continuous
100
AcDbLine
 10
-748.598202
 20
-342.063837
 30
0.0
 11
-668.923865
 21
-296.063837
 31
0.0
  0
ARC
  5
5D3
100
AcDbEntity
  8
0
370
    -3
390
0
  6
Continuous
100
AcDbCircle
 10
-747.848202
 20
-343.362875
 30
0.0
 40
1.5
100
AcDbArc
 50
120.0
 51
300.0
  0
ARC
  5
5D4
100
AcDbEntity
  8
0
370
    -3
390
0
  6
Continuous
100
AcDbCircle
 10
-653.884445
 20
-272.612875
 30
0.0
 40
1.5
100
AcDbArc
 50
180.0
 51
0.0
  0
LINE
  5
5D5
100
AcDbEntity
  8
0
370
    -3
390
0
  6
Continuous
100
AcDbLine
 10
-652.384445
 20
-180.612875
 30
0.0
 11
-652.384445
 21
-272.612875
 31
0.0
  0
ARC
  5
5D6
100
AcDbEntity
  8
0
370
    -3
390
0
  6
Continuous
100
AcDbCircle
 10
-653.884445
 20
-180.612875
 30
0.0
 40
1.5
100
AcDbArc
 50
0.0
 51
180.0
  0
CIRCLE
  5
5D7
100
AcDbEntity
  8
0
370
    -3
390
0
  6
Continuous
100
AcDbCircle
 10
-653.884445
 20
-289.112875
 30
0.0
 40
7.5
  0
ARC
  5
5D8
100
AcDbEntity
  8
0
370
    -3
390
0
  6
Continuous
100
AcDbCircle
 10
-653.884445
 20
-289.112875
 30
0.0
 40
146.2
100
AcDbArc
 50
128.578295
 51
141.421705
  0
LINE
  5
5D9
100
AcDbEntity
  8
0
370
    -3
390
0
  6
Continuous
100
AcDbLine
 10
-753.586502
 20
-179.511324
 30
0.0
 11
-752.195145
 21
-180.90268
 31
0.0
  0
LINE
  5
5DA
100
AcDbEntity
  8
0
370
    -3
390
0
  6
Continuous
100
AcDbLine
 10
-763.733483
 20
-186.688457
 30
0.0
 11
-764.813247
 21
-185.608693
 31
0.0
  0
ARC
  5
5DB
100
AcDbEntity
  8
0
370
    -3
390
0
  6
Continuous
100
AcDbCircle
 10
-763.132443
 20
-189.057265
 30
0.0
 40
0.5
100
AcDbArc
 50
135.0
 51
225.0
  0
LINE
  5
5DC
100
AcDbEntity
  8
0
370
    -3
390
0
  6
Continuous
100
AcDbLine
 10
-763.485996
 20
-189.410819
 30
0.0
 11
-762.09464
 21
-190.802175
 31
0.0
  0
LINE
  5
5DD
100
AcDbEntity
  8
0
370
    -3
390
0
  6
Continuous
100
AcDbLine
 10
-763.30922
 20
-188.526935
 30
0.0
 11
-764.440591
 21
-187.395564
 31
0.0
  0
ARC
  5
5DE
100
AcDbEntity
  8
0
370
    -3
390
0
  6
Continuous
100
AcDbCircle
 10
-752.879395
 20
-190.117925
 30
0.0
 40
14.0
100
AcDbArc
 50
118.927163
 51
151.07282
  0
ARC
  5
5DF
100
AcDbEntity
  8
0
370
    -3
390
0
  6
Continuous
100
AcDbCircle
 10
-763.469744
 20
-184.26519
 30
0.0
 40
1.9
100
AcDbArc
 50
151.07282
 51
225.000001
  0
LINE
  5
5E0
100
AcDbEntity
  8
0
370
    -3
390
0
  6
Continuous
100
AcDbLine
 10
-756.308863
 20
-179.263837
 30
0.0
 11
-757.388627
 21
-178.184073
 31
0.0
  0
ARC
  5
5E1
100
AcDbEntity
  8
0
370
    -3
390
0
  6
Continuous
100
AcDbCircle
 10
-758.73213
 20
-179.527576
 30
0.0
 40
1.9
100
AcDbArc
 50
44.999982
 51
118.927108
  0
ARC
  5
5E2
100
AcDbEntity
  8
0
370
    -3
390
0
  6
Continuous
100
AcDbCircle
 10
-753.940055
 20
-179.864877
 30
0.0
 40
0.5
100
AcDbArc
 50
45.0
 51
135.0
  0
LINE
  5
5E3
100
AcDbEntity
  8
0
370
    -3
390
0
  6
Continuous
100
AcDbLine
 10
-754.470385
 20
-179.6881
 30
0.0
 11
-755.601756
 21
-178.55673
 31
0.0
  0
LINE
  5
5E4
100
AcDbEntity
  8
0
370
    -3
390
0
  6
Continuous
100
AcDbLine
 10
-763.485996
 20
-188.703712
 30
0.0
 11
-754.293608
 21
-179.511324
 31
0.0
  0
LINE
  5
5E5
100
AcDbEntity
  8
0
370
    -3
390
0
  6
Continuous
100
AcDbLine
 10
-755.601756
 20
-178.55673
 30
0.0
 11
-764.440591
 21
-187.395564
 31
0.0
  0
LINE
  5
5E6
100
AcDbEntity
  8
0
370
    -3
390
0
  6
Continuous
100
AcDbLine
 10
-753.586502
 20
-398.714426
 30
0.0
 11
-752.195145
 21
-397.32307
 31
0.0
  0
LINE
  5
5E7
100
AcDbEntity
  8
0
370
    -3
390
0
  6
Continuous
100
AcDbLine
 10
-763.733483
 20
-391.537293
 30
0.0
 11
-764.813247
 21
-392.617057
 31
0.0
  0
ARC
  5
5E8
100
AcDbEntity
  8
0
370
    -3
390
0
  6
Continuous
100
AcDbCircle
 10
-763.132443
 20
-389.168484
 30
0.0
 40
0.5
100
AcDbArc
 50
135.0
 51
225.0
  0
LINE
  5
5E9
100
AcDbEntity
  8
0
370
    -3
390
0
  6
Continuous
100
AcDbLine
 10
-763.485996
 20
-388.814931
 30
0.0
 11
-762.09464
 21
-387.423575
 31
0.0
  0
LINE
  5
5EA
100
AcDbEntity
  8
0
370
    -3
390
0
  6
Continuous
100
AcDbLine
 10
-763.30922
 20
-389.698814
 30
0.0
 11
-764.440591
 21
-390.830185
 31
0.0
  0
ARC
  5
5EB
100
AcDbEntity
  8
0
370
    -3
390
0
  6
Continuous
100
AcDbCircle
 10
-752.879395
 20
-388.107825
 30
0.0
 40
14.0
100
AcDbArc
 50
208.92718
 51
241.072837
  0
ARC
  5
5EC
100
AcDbEntity
  8
0
370
    -3
390
0
  6
Continuous
100
AcDbCircle
 10
-763.469744
 20
-393.960559
 30
0.0
 40
1.9
100
AcDbArc
 50
134.999999
 51
208.92718
  0
LINE
  5
5ED
100
AcDbEntity
  8
0
370
    -3
390
0
  6
Continuous
100
AcDbLine
 10
-756.308863
 20
-398.961913
 30
0.0
 11
-757.388627
 21
-400.041676
 31
0.0
  0
ARC
  5
5EE
100
AcDbEntity
  8
0
370
    -3
390
0
  6
Continuous
100
AcDbCircle
 10
-758.73213
 20
-398.698174
 30
0.0
 40
1.9
100
AcDbArc
 50
241.072892
 51
315.000018
  0
ARC
  5
5EF
100
AcDbEntity
  8
0
370
    -3
390
0
  6
Continuous
100
AcDbCircle
 10
-753.940055
 20
-398.360873
 30
0.0
 40
0.5
100
AcDbArc
 50
225.0
 51
315.0
  0
LINE
  5
5F0
100
AcDbEntity
  8
0
370
    -3
390
0
  6
Continuous
100
AcDbLine
 10
-754.470385
 20
-398.537649
 30
0.0
 11
-755.601756
 21
-399.66902
 31
0.0
  0
LINE
  5
5F1
100
AcDbEntity
  8
0
370
    -3
390
0
  6
Continuous
100
AcDbLine
 10
-763.485996
 20
-389.522038
 30
0.0
 11
-754.293608
 21
-398.714426
 31
0.0
  0
LINE
  5
5F2
100
AcDbEntity
  8
0
370
    -3
390
0
  6
Continuous
100
AcDbLine
 10
-755.601756
 20
-399.66902
 30
0.0
 11
-764.440591
 21
-390.830185
 31
0.0
  0
LINE
  5
5F3
100
AcDbEntity
  8
0
370
    -3
390
0
  6
Continuous
100
AcDbLine
 10
-554.182389
 20
-398.714426
 30
0.0
 11
-555.573745
 21
-397.32307
 31
0.0
  0
LINE
  5
5F4
100
AcDbEntity
  8
0
370
    -3
390
0
  6
Continuous
100
AcDbLine
 10
-544.035408
 20
-391.537293
 30
0.0
 11
-542.955644
 21
-392.617057
 31
0.0
  0
ARC
  5
5F5
100
AcDbEntity
  8
0
370
    -3
390
0
  6
Continuous
100
AcDbCircle
 10
-544.636448
 20
-389.168484
 30
0.0
 40
0.5
100
AcDbArc
 50
315.0
 51
45.0
  0
LINE
  5
5F6
100
AcDbEntity
  8
0
370
    -3
390
0
  6
Continuous
100
AcDbLine
 10
-544.282894
 20
-388.814931
 30
0.0
 11
-545.674251
 21
-387.423575
 31
0.0
  0
LINE
  5
5F7
100
AcDbEntity
  8
0
370
    -3
390
0
  6
Continuous
100
AcDbLine
 10
-544.459671
 20
-389.698814
 30
0.0
 11
-543.3283
 21
-390.830185
 31
0.0
  0
ARC
  5
5F8
100
AcDbEntity
  8
0
370
    -3
390
0
  6
Continuous
100
AcDbCircle
 10
-554.889496
 20
-388.107825
 30
0.0
 40
14.0
100
AcDbArc
 50
298.927163
 51
331.07282
  0
ARC
  5
5F9
100
AcDbEntity
  8
0
370
    -3
390
0
  6
Continuous
100
AcDbCircle
 10
-544.299146
 20
-393.960559
 30
0.0
 40
1.9
100
AcDbArc
 50
331.07282
 51
45.000001
  0
LINE
  5
5FA
100
AcDbEntity
  8
0
370
    -3
390
0
  6
Continuous
100
AcDbLine
 10
-551.460027
 20
-398.961913
 30
0.0
 11
-550.380264
 21
-400.041676
 31
0.0
  0
ARC
  5
5FB
100
AcDbEntity
  8
0
370
    -3
390
0
  6
Continuous
100
AcDbCircle
 10
-549.036761
 20
-398.698174
 30
0.0
 40
1.9
100
AcDbArc
 50
224.999982
 51
298.927108
  0
ARC
  5
5FC
100
AcDbEntity
  8
0
370
    -3
390
0
  6
Continuous
100
AcDbCircle
 10
-553.828836
 20
-398.360873
 30
0.0
 40
0.5
100
AcDbArc
 50
225.0
 51
315.0
  0
LINE
  5
5FD
100
AcDbEntity
  8
0
370
    -3
390
0
  6
Continuous
100
AcDbLine
 10
-553.298506
 20
-398.537649
 30
0.0
 11
-552.167135
 21
-399.66902
 31
0.0
  0
LINE
  5
5FE
100
AcDbEntity
  8
0
370
    -3
390
0
  6
Continuous
100
AcDbLine
 10
-544.282894
 20
-389.522038
 30
0.0
 11
-553.475282
 21
-398.714426
 31
0.0
  0
LINE
  5
5FF
100
AcDbEntity
  8
0
370
    -3
390
0
  6
Continuous
100
AcDbLine
 10
-552.167135
 20
-399.66902
 30
0.0
 11
-543.3283
 21
-390.830185
 31
0.0
  0
MTEXT
  5
601
100
AcDbEntity
  8
0
370
    -3
390
0
  6
Continuous
100
AcDbMText
 10
-707.477722
 20
243.693192
 30
0.0
 40
24.0
 41
0.0
 71
     7
 72
     1
  1
\W0.83;三菱ギヤードモータ  
  7
ZU_SHPTB00001
 11
1.0
 21
0.0
 31
0.0
 73
     1
 44
1.0
  0
MTEXT
  5
602
100
AcDbEntity
  8
0
370
    -3
390
0
  6
Continuous
100
AcDbMText
 10
-707.477722
 20
211.893188
 30
0.0
 40
24.0
 41
0.0
 71
     7
 72
     1
  1
\W0.60;GM-DPF
  7
ZU_SHPTB00001
 11
1.0
 21
0.0
 31
0.0
 73
     1
 44
1.0
  0
MTEXT
  5
603
100
AcDbEntity
  8
0
370
    -3
390
0
  6
Continuous
100
AcDbMText
 10
-707.477722
 20
180.093185
 30
0.0
 40
24.0
 41
0.0
 71
     7
 72
     1
  1
\W0.60;5.5(kW)
  7
ZU_SHPTB00001
 11
1.0
 21
0.0
 31
0.0
 73
     1
 44
1.0
  0
MTEXT
  5
604
100
AcDbEntity
  8
0
370
    -3
390
0
  6
Continuous
100
AcDbMText
 10
-707.477722
 20
148.293182
 30
0.0
 40
24.0
 41
0.0
 71
     7
 72
     1
  1
\W0.60;1/40,50
  7
ZU_SHPTB00001
 11
1.0
 21
0.0
 31
0.0
 73
     1
 44
1.0
  0
MTEXT
  5
605
100
AcDbEntity
  8
0
370
    -3
390
0
  6
Continuous
100
AcDbMText
 10
-707.477722
 20
116.493187
 30
0.0
 40
24.0
 41
0.0
 71
     7
 72
     1
  1
\W0.60;SCALE\W1.00; \W0.60;1/1
  7
ZU_SHPTB00001
 11
1.0
 21
0.0
 31
0.0
 73
     1
 44
1.0
  0
ENDSEC
  0
SECTION
  2
OBJECTS
  0
DICTIONARY
  5
19
100
AcDbDictionary
280
     0
281
     1
  3
ACAD_GROUP
350
1A
  3
ACAD_MLINESTYLE
350
1B
  3
ACAD_LAYOUT
350
1E
  3
ACAD_PLOTSETTINGS
350
22
  3
ACAD_PLOTSTYLENAME
350
1F
  3
ACAD_WIPEOUT_VARS
350
23
  3
DWGPROPS
350
606
  0
DICTIONARY
  5
1A
102
{ACAD_REACTORS
330
19
102
}
100
AcDbDictionary
280
     0
281
     1
  0
DICTIONARY
  5
1B
102
{ACAD_REACTORS
330
19
102
}
100
AcDbDictionary
280
     0
281
     1
  3
Standard
350
1C
  0
MLINESTYLE
  5
1C
102
{ACAD_REACTORS
330
1B
102
}
100
AcDbMlineStyle
  2
Standard
 70
     0
  3

 62
     0
 51
90.0
 52
90.0
 71
     2
 49
0.5
 62
   256
  6
ByLayer
 49
-0.5
 62
   256
  6
ByLayer
  0
ACDBDICTIONARYWDFLT
  5
1F
102
{ACAD_REACTORS
330
19
102
}
100
AcDbDictionary
281
     1
  3
Normal
350
1D
100
AcDbDictionaryWithDefault
340
1D
  0
ACDBPLACEHOLDER
  5
1D
102
{ACAD_REACTORS
330
1F
102
}
  0
LAYOUT
  5
20
102
{ACAD_REACTORS
330
1E
102
}
100
AcDbPlotSettings
  1

  2

  4

  6

 40
0.0
 41
0.0
 42
0.0
 43
0.0
 44
0.0
 45
0.0
 46
0.0
 47
0.0
 48
0.0
 49
0.0
140
0.0
141
0.0
142
1.0
143
1.0
 70
  1024
 72
     0
 73
     0
 74
     0
  7

 75
     0
147
1.0
148
0.0
149
0.0
100
AcDbLayout
  1
Model
 70
     0
 71
     0
 10
0.0
 20
0.0
 11
0.0
 21
0.0
 12
0.0
 22
0.0
 32
0.0
 14
0.0
 24
0.0
 34
0.0
 15
0.0
 25
0.0
 35
0.0
146
0.0
 13
0.0
 23
0.0
 33
0.0
 16
0.0
 26
0.0
 36
0.0
 17
0.0
 27
0.0
 37
0.0
 76
     0
330
A
331
0
345
0
346
0
  0
LAYOUT
  5
21
102
{ACAD_REACTORS
330
1E
102
}
100
AcDbPlotSettings
  1

  2

  4

  6

 40
0.0
 41
0.0
 42
0.0
 43
0.0
 44
0.0
 45
0.0
 46
0.0
 47
0.0
 48
0.0
 49
0.0
140
0.0
141
0.0
142
1.0
143
1.0
 70
     0
 72
     0
 73
     0
 74
     0
  7

 75
     0
147
1.0
148
0.0
149
0.0
100
AcDbLayout
  1
Layout1
 70
     0
 71
     0
 10
0.0
 20
0.0
 11
0.0
 21
0.0
 12
0.0
 22
0.0
 32
0.0
 14
0.0
 24
0.0
 34
0.0
 15
0.0
 25
0.0
 35
0.0
146
0.0
 13
0.0
 23
0.0
 33
0.0
 16
0.0
 26
0.0
 36
0.0
 17
0.0
 27
0.0
 37
0.0
 76
     0
330
B
331
0
345
0
346
0
  0
DICTIONARY
  5
1E
102
{ACAD_REACTORS
330
19
102
}
100
AcDbDictionary
280
     0
281
     1
  3
Layout1
350
21
  3
Model
350
20
  0
DICTIONARY
  5
22
102
{ACAD_REACTORS
330
19
102
}
100
AcDbDictionary
280
     0
281
     1
  0
WIPEOUTVARIABLES
  5
23
100
AcDbWipeoutVariables
 70
     1
  0
XRECORD
  5
606
100
AcDbXrecord
280
     1
  1
DWGPROPS COOKIE
  2

  3

  4

  6

  7

  8
YP81315
  9

300
=
301
=
302
=
303
=
304
=
305
=
306
=
307
=
308
=
309
=
 40
0.0
 41
2456812.582292
 42
2456812.582292
  1

 90
        0
  0
ENDSEC
  0
EOF
