  0
SECTION
  2
HEADER
  9
$ACADVER
  1
AC1015
  9
$ACADMAINTVER
 70
     6
  9
$DWGCODEPAGE
  3
ANSI_932
  9
$INSBASE
 10
0.0
 20
0.0
 30
0.0
  9
$EXTMIN
 10
1.000000E+20
 20
1.000000E+20
 30
1.000000E+20
  9
$EXTMAX
 10
-1.000000E+20
 20
-1.000000E+20
 30
-1.000000E+20
  9
$LIMMIN
 10
0.0
 20
0.0
  9
$LIMMAX
 10
0.0
 20
0.0
  9
$ORTHOMODE
 70
     0
  9
$REGENMODE
 70
     1
  9
$FILLMODE
 70
     1
  9
$QTEXTMODE
 70
     0
  9
$MIRRTEXT
 70
     1
  9
$LTSCALE
 40
1.0
  9
$ATTMODE
 70
     1
  9
$TEXTSIZE
 40
3.3
  9
$TRACEWID
 40
0.05
  9
$TEXTSTYLE
  7
Standard
  9
$CLAYER
  8
0
  9
$CELTYPE
  6
Continuous
  9
$CECOLOR
 62
   256
  9
$CELTSCALE
 40
1.0
  9
$DISPSILH
 70
     0
  9
$DIMSCALE
 40
1.0
  9
$DIMASZ
 40
1.931852
  9
$DIMEXO
 40
1.0
  9
$DIMDLI
 40
0.38
  9
$DIMRND
 40
0.0
  9
$DIMDLE
 40
0.0
  9
$DIMEXE
 40
2.0
  9
$DIMTP
 40
0.0
  9
$DIMTM
 40
0.0
  9
$DIMTXT
 40
20.0
  9
$DIMCEN
 40
0.09
  9
$DIMTSZ
 40
0.0
  9
$DIMTOL
 70
     0
  9
$DIMLIM
 70
     0
  9
$DIMTIH
 70
     1
  9
$DIMTOH
 70
     1
  9
$DIMSE1
 70
     0
  9
$DIMSE2
 70
     0
  9
$DIMTAD
 70
     1
  9
$DIMZIN
 70
     0
  9
$DIMBLK
  1

  9
$DIMASO
 70
     1
  9
$DIMSHO
 70
     1
  9
$DIMPOST
  1

  9
$DIMAPOST
  1

  9
$DIMALT
 70
     0
  9
$DIMALTD
 70
     2
  9
$DIMALTF
 40
25.4
  9
$DIMLFAC
 40
1.0
  9
$DIMTOFL
 70
     0
  9
$DIMTVP
 40
0.0
  9
$DIMTIX
 70
     0
  9
$DIMSOXD
 70
     0
  9
$DIMSAH
 70
     0
  9
$DIMBLK1
  1

  9
$DIMBLK2
  1

  9
$DIMSTYLE
  2
Standard
  9
$DIMCLRD
 70
     0
  9
$DIMCLRE
 70
     0
  9
$DIMCLRT
 70
     0
  9
$DIMTFAC
 40
0.714286
  9
$DIMGAP
 40
0.09
  9
$DIMJUST
 70
     0
  9
$DIMSD1
 70
     0
  9
$DIMSD2
 70
     0
  9
$DIMTOLJ
 70
     1
  9
$DIMTZIN
 70
     0
  9
$DIMALTZ
 70
     0
  9
$DIMALTTZ
 70
     0
  9
$DIMUPT
 70
     0
  9
$DIMDEC
 70
     4
  9
$DIMTDEC
 70
     4
  9
$DIMALTU
 70
     2
  9
$DIMALTTD
 70
     2
  9
$DIMTXSTY
  7
Standard
  9
$DIMAUNIT
 70
     0
  9
$DIMADEC
 70
     0
  9
$DIMALTRND
 40
0.0
  9
$DIMAZIN
 70
     0
  9
$DIMDSEP
 70
     0
  9
$DIMATFIT
 70
     3
  9
$DIMFRAC
 70
     0
  9
$DIMLDRBLK
  1

  9
$DIMLUNIT
 70
     2
  9
$DIMLWD
 70
     0
  9
$DIMLWE
 70
     0
  9
$DIMTMOVE
 70
     0
  9
$LUNITS
 70
     2
  9
$LUPREC
 70
     3
  9
$SKETCHINC
 40
0.1
  9
$FILLETRAD
 40
0.0
  9
$AUNITS
 70
     0
  9
$AUPREC
 70
     0
  9
$MENU
  1
acad
  9
$ELEVATION
 40
0.0
  9
$PELEVATION
 40
0.0
  9
$THICKNESS
 40
0.0
  9
$LIMCHECK
 70
     0
  9
$CHAMFERA
 40
0.0
  9
$CHAMFERB
 40
0.0
  9
$CHAMFERC
 40
0.0
  9
$CHAMFERD
 40
0.0
  9
$SKPOLY
 70
     0
  9
$TDCREATE
 40
0.000000000
  9
$TDUCREATE
 40
0.000000000
  9
$TDUPDATE
 40
0.000000000
  9
$TDUUPDATE
 40
0.000000000
  9
$TDINDWG
 40
0.0000000000
  9
$TDUSRTIMER
 40
0.0000000000
  9
$USRTIMER
 70
     1
  9
$ANGBASE
 50
0.0
  9
$ANGDIR
 70
     0
  9
$PDMODE
 70
     0
  9
$PDSIZE
 40
0.0
  9
$PLINEWID
 40
0.0
  9
$SPLFRAME
 70
     0
  9
$SPLINETYPE
 70
     6
  9
$SPLINESEGS
 70
     8
  9
$HANDSEED
  5
5B0
  9
$SURFTAB1
 70
     6
  9
$SURFTAB2
 70
     6
  9
$SURFTYPE
 70
     6
  9
$SURFU
 70
     6
  9
$SURFV
 70
     6
  9
$UCSBASE
  2

  9
$UCSNAME
  2

  9
$UCSORG
 10
0.0
 20
0.0
 30
0.0
  9
$UCSXDIR
 10
1.0
 20
0.0
 30
0.0
  9
$UCSYDIR
 10
0.0
 20
1.0
 30
0.0
  9
$UCSORTHOREF
  2

  9
$UCSORTHOVIEW
 70
     0
  9
$UCSORGTOP
 10
0.0
 20
0.0
 30
0.0
  9
$UCSORGBOTTOM
 10
0.0
 20
0.0
 30
0.0
  9
$UCSORGLEFT
 10
0.0
 20
0.0
 30
0.0
  9
$UCSORGRIGHT
 10
0.0
 20
0.0
 30
0.0
  9
$UCSORGFRONT
 10
0.0
 20
0.0
 30
0.0
  9
$UCSORGBACK
 10
0.0
 20
0.0
 30
0.0
  9
$PUCSBASE
  2

  9
$PUCSNAME
  2

  9
$PUCSORG
 10
0.0
 20
0.0
 30
0.0
  9
$PUCSXDIR
 10
1.0
 20
0.0
 30
0.0
  9
$PUCSYDIR
 10
0.0
 20
1.0
 30
0.0
  9
$PUCSORTHOREF
  2

  9
$PUCSORTHOVIEW
 70
     0
  9
$PUCSORGTOP
 10
0.0
 20
0.0
 30
0.0
  9
$PUCSORGBOTTOM
 10
0.0
 20
0.0
 30
0.0
  9
$PUCSORGLEFT
 10
0.0
 20
0.0
 30
0.0
  9
$PUCSORGRIGHT
 10
0.0
 20
0.0
 30
0.0
  9
$PUCSORGFRONT
 10
0.0
 20
0.0
 30
0.0
  9
$PUCSORGBACK
 10
0.0
 20
0.0
 30
0.0
  9
$USERI1
 70
     0
  9
$USERI2
 70
     0
  9
$USERI3
 70
     0
  9
$USERI4
 70
     0
  9
$USERI5
 70
     0
  9
$USERR1
 40
0.0
  9
$USERR2
 40
0.0
  9
$USERR3
 40
0.0
  9
$USERR4
 40
0.0
  9
$USERR5
 40
0.0
  9
$WORLDVIEW
 70
     1
  9
$SHADEDGE
 70
     3
  9
$SHADEDIF
 70
    70
  9
$TILEMODE
 70
     1
  9
$MAXACTVP
 70
    16
  9
$PINSBASE
 10
0.0
 20
0.0
 30
0.0
  9
$PLIMCHECK
 70
     0
  9
$PEXTMIN
 10
1.000000E+20
 20
1.000000E+20
 30
1.000000E+20
  9
$PEXTMAX
 10
-1.000000E+20
 20
-1.000000E+20
 30
-1.000000E+20
  9
$PLIMMIN
 10
0.0
 20
0.0
  9
$PLIMMAX
 10
12.0
 20
9.0
  9
$UNITMODE
 70
     0
  9
$VISRETAIN
 70
     0
  9
$PLINEGEN
 70
     1
  9
$PSLTSCALE
 70
     0
  9
$TREEDEPTH
 70
  3020
  9
$CMLSTYLE
  2
Standard
  9
$CMLJUST
 70
     0
  9
$CMLSCALE
 40
1.0
  9
$PROXYGRAPHICS
 70
     0
  9
$MEASUREMENT
 70
     0
  9
$CELWEIGHT
370
     0
  9
$ENDCAPS
280
     0
  9
$JOINSTYLE
280
     0
  9
$LWDISPLAY
290
     0
  9
$INSUNITS
 70
     0
  9
$HYPERLINKBASE
  1

  9
$STYLESHEET
  1

  9
$XEDIT
290
     1
  9
$CEPSNTYPE
380
     0
  9
$PSTYLEMODE
290
     1
  9
$FINGERPRINTGUID
  2

  9
$VERSIONGUID
  2

  9
$EXTNAMES
290
     1
  9
$PSVPSCALE
 40
0.0
  0
ENDSEC
  0
SECTION
  2
CLASSES
  0
CLASS
  1
LWPOLYLINE
  2
AcDbPolyline
  3
AutoCAD 2000
 90
        0
280
     0
281
     1
  0
CLASS
  1
IMAGE
  2
AcDbRasterImage
  3
ISM
 90
      127
280
     0
281
     1
  0
CLASS
  1
OLE2FRAME
  2
AcDbOle2Frame
  3
AutoCAD 2000
 90
        0
280
     0
281
     1
  0
CLASS
  1
HATCH
  2
AcDbHatch
  3
AutoCAD 2000
 90
        0
280
     0
281
     1
  0
CLASS
  1
DICTIONARYVAR
  2
AcDbDictionaryVar
  3
AutoCAD 2000
 90
        0
280
     0
281
     0
  0
CLASS
  1
RASTERVARIABLES
  2
AcDbRasterVariables
  3
ISM
 90
        0
280
     0
281
     0
  0
CLASS
  1
IMAGEDEF
  2
AcDbRasterImageDef
  3
ISM
 90
        0
280
     0
281
     0
  0
CLASS
  1
IMAGEDEF_REACTOR
  2
AcDbRasterImageDefReactor
  3
ISM
 90
        1
280
     0
281
     0
  0
CLASS
  1
IDBUFFER
  2
AcDbIdBuffer
  3
AutoCAD 2000
 90
        0
280
     0
281
     0
  0
CLASS
  1
SPATIAL_FILTER
  2
AcDbSpatialFilter
  3
AutoCAD 2000
 90
        0
280
     0
281
     0
  0
CLASS
  1
XRECORD
  2
AcDbXrecord
  3
AutoCAD 2000
 90
        0
280
     0
281
     0
  0
CLASS
  1
SORTENTSTABLE
  2
AcDbSortentsTable
  3
AutoCAD 2000
 90
        0
280
     0
281
     0
  0
CLASS
  1
LAYER_INDEX
  2
AcDbLayerIndex
  3
AutoCAD 2000
 90
        0
280
     0
281
     0
  0
CLASS
  1
SPATIAL_INDEX
  2
AcDbSpatialIndex
  3
AutoCAD 2000
 90
        0
280
     0
281
     0
  0
CLASS
  1
OBJECT_PTR
  2
CAseDLPNTableRecord
  3
"ASE-LPNTableRecord"
 90
        1
280
     0
281
     0
  0
CLASS
  1
LAYOUT
  2
AcDbLayout
  3
AutoCAD 2000
 90
        0
280
     0
281
     0
  0
CLASS
  1
PLOTSETTINGS
  2
AcDbPlotSettings
  3
AutoCAD 2000
 90
        0
280
     0
281
     0
  0
CLASS
  1
ACDBDICTIONARYWDFLT
  2
AcDbDictionaryWithDefault
  3
AutoCAD 2000
 90
        0
280
     0
281
     0
  0
CLASS
  1
ACDBPLACEHOLDER
  2
AcDbPlaceHolder
  3
AutoCAD 2000
 90
        0
280
     0
281
     0
  0
CLASS
  1
VBA_PROJECT
  2
AcDbVbaProject
  3
acadvba
 90
        0
280
     0
281
     0
  0
CLASS
  1
WIPEOUT
  2
AcDbWipeout
  3
WipeOut|AutoCAD Express Tool|expresstools@autodesk.com
 90
      127
280
     0
281
     1
  0
CLASS
  1
WIPEOUTVARIABLES
  2
AcDbWipeoutVariables
  3
WipeOut|AutoCAD Express Tool|expresstools@autodesk.com
 90
        0
280
     0
281
     0
  0
CLASS
  1
RTEXT
  2
RText
  3
RText|AutoCAD Express Tool|expresstools@autodesk.com
 90
        0
280
     0
281
     1
  0
CLASS
  1
ARCALIGNEDTEXT
  2
AcDbArcAlignedText
  3
ATEXT|AutoCAD Express Tool|expresstools@autodesk.com
 90
        0
280
     0
281
     1
  0
ENDSEC
  0
SECTION
  2
TABLES
  0
TABLE
  2
VPORT
  5
7
100
AcDbSymbolTable
 70
     1
  0
VPORT
  5
15
100
AcDbSymbolTableRecord
100
AcDbViewportTableRecord
  2
*ACTIVE
 70
     0
 10
0.0
 20
0.0
 11
1.0
 21
1.0
 12
0.0
 22
0.0
 13
0.0
 23
0.0
 14
1.0
 24
1.0
 15
0.0
 25
0.0
 16
0.0
 26
0.0
 36
1.0
 17
0.0
 27
0.0
 37
0.0
 40
100.0
 41
1.0
 42
50.0
 43
0.0
 44
0.0
 50
0.0
 51
0.0
 71
     0
 72
   100
 73
     1
 74
     1
 75
     0
 76
     0
 77
     0
 78
     0
281
     0
 65
     0
110
0.0
120
0.0
130
0.0
111
1.0
121
0.0
131
0.0
112
0.0
122
1.0
132
0.0
345
0
346
0
 79
     0
146
0.0
  0
ENDTAB
  0
TABLE
  2
LTYPE
  5
4
100
AcDbSymbolTable
 70
     7
  0
LTYPE
  5
11
100
AcDbSymbolTableRecord
100
AcDbLinetypeTableRecord
  2
ByBlock
 70
    64
  3

 72
    65
 73
     0
 40
0.0
  0
LTYPE
  5
12
100
AcDbSymbolTableRecord
100
AcDbLinetypeTableRecord
  2
ByLayer
 70
    64
  3

 72
    65
 73
     0
 40
0.0
  0
LTYPE
  5
13
100
AcDbSymbolTableRecord
100
AcDbLinetypeTableRecord
  2
Continuous
 70
    64
  3
Solid line
 72
    65
 73
     0
 40
0.0
  0
LTYPE
  5
24
100
AcDbSymbolTableRecord
100
AcDbLinetypeTableRecord
  2
DASHED
 70
    64
  3
Dashed __ __ __ __ __ __ __ __ __ __ __ __ __ _
 72
    65
 73
     2
 40
0.75
 49
0.5
 74
     0
 49
-0.25
 74
     0
  0
LTYPE
  5
25
100
AcDbSymbolTableRecord
100
AcDbLinetypeTableRecord
  2
CENTER
 70
    64
  3
Center ____ _ ____ _ ____ _ ____ _ ____ _ ____
 72
    65
 73
     4
 40
1.0
 49
0.5
 74
     0
 49
-0.25
 74
     0
 49
0.0
 74
     0
 49
-0.25
 74
     0
  0
LTYPE
  5
26
100
AcDbSymbolTableRecord
100
AcDbLinetypeTableRecord
  2
DIVIDE
 70
    64
  3
Divide ____ . . ____ . . ____ . . ____ . . ____
 72
    65
 73
     6
 40
1.25
 49
0.5
 74
     0
 49
-0.25
 74
     0
 49
0.0
 74
     0
 49
-0.25
 74
     0
 49
0.0
 74
     0
 49
-0.25
 74
     0
  0
LTYPE
  5
27
100
AcDbSymbolTableRecord
100
AcDbLinetypeTableRecord
  2
PHANTOM
 70
    64
  3
Phantom ______  __  __  ______  __  __  ______
 72
    65
 73
     6
 40
9.0
 49
4.3
 74
     0
 49
-0.7
 74
     0
 49
1.3
 74
     0
 49
-0.7
 74
     0
 49
1.3
 74
     0
 49
-0.7
 74
     0
  0
ENDTAB
  0
TABLE
  2
LAYER
  5
2
100
AcDbSymbolTable
 70
     1
  0
LAYER
  5
14
100
AcDbSymbolTableRecord
100
AcDbLayerTableRecord
  2
0
 70
    64
 62
   102
  6
Continuous
290
     1
370
    -3
390
1D
  0
ENDTAB
  0
TABLE
  2
STYLE
  5
3
100
AcDbSymbolTable
 70
     2
  0
STYLE
  5
17
100
AcDbSymbolTableRecord
100
AcDbTextStyleTableRecord
  2
Standard
 70
     0
 40
0.0
 41
1.0
 50
0.0
 71
     0
 42
0.0
  3
txt
  4

  0
STYLE
  5
5A9
100
AcDbSymbolTableRecord
100
AcDbTextStyleTableRecord
  2
ZU_SHPTB00001
 70
     0
 40
0.0
 41
1.0
 50
0.0
 71
     0
 42
0.0
  3
monotxt
  4
bigfont
  0
ENDTAB
  0
TABLE
  2
VIEW
  5
5
100
AcDbSymbolTable
 70
     0
  0
ENDTAB
  0
TABLE
  2
UCS
  5
6
100
AcDbSymbolTable
 70
     0
  0
ENDTAB
  0
TABLE
  2
APPID
  5
8
100
AcDbSymbolTable
 70
     1
  0
APPID
  5
16
100
AcDbSymbolTableRecord
100
AcDbRegAppTableRecord
  2
ACAD
 70
     0
  0
ENDTAB
  0
TABLE
  2
DIMSTYLE
  5
9
100
AcDbSymbolTable
 70
     1
100
AcDbDimStyleTable
 71
     0
  0
DIMSTYLE
105
18
100
AcDbSymbolTableRecord
100
AcDbDimStyleTableRecord
  2
Standard
 70
     0
  3

  4

 40
1.0
 41
0.18
 42
0.0625
 43
0.38
 44
0.18
 45
0.0
 46
0.0
 47
0.0
 48
0.0
 71
     0
 72
     0
 73
     1
 74
     1
 75
     0
 76
     0
 77
     0
 78
     0
 79
     0
140
0.18
141
0.09
142
0.0
143
25.4
144
1.0
145
0.0
146
1.0
147
0.09
148
0.0
170
     0
171
     2
172
     0
173
     0
174
     0
175
     0
176
     0
177
     0
178
     0
179
     0
271
     4
272
     4
273
     2
274
     2
275
     0
276
     0
277
     2
278
    46
279
     0
280
     0
281
     0
282
     0
283
     1
284
     0
285
     0
286
     0
288
     0
289
     3
340
17
341
0
342
0
343
0
344
0
371
    -2
372
    -2
  0
ENDTAB
  0
TABLE
  2
BLOCK_RECORD
  5
1
100
AcDbSymbolTable
 70
     5
  0
BLOCK_RECORD
  5
A
100
AcDbSymbolTableRecord
100
AcDbBlockTableRecord
  2
*MODEL_SPACE
340
20
  0
BLOCK_RECORD
  5
B
100
AcDbSymbolTableRecord
100
AcDbBlockTableRecord
  2
*PAPER_SPACE
340
21
  0
BLOCK_RECORD
  5
CC
100
AcDbSymbolTableRecord
100
AcDbBlockTableRecord
  2
ZU_SYM__USERS_HOME_SYMBOL_POO_SYM_B20_19
340
0
102
{BLKREFS
331
D8
102
}
  0
BLOCK_RECORD
  5
E2
100
AcDbSymbolTableRecord
100
AcDbBlockTableRecord
  2
ZU_SYM__USERS_HOME_SYMBOL_POO_SYM_B20_18
340
0
102
{BLKREFS
331
ED
102
}
  0
BLOCK_RECORD
  5
12C
100
AcDbSymbolTableRecord
100
AcDbBlockTableRecord
  2
ZU_SYM__USERS_HOME_SYMBOL_POO_SYM_B20_0000119
340
0
102
{BLKREFS
331
138
102
}
  0
BLOCK_RECORD
  5
13F
100
AcDbSymbolTableRecord
100
AcDbBlockTableRecord
  2
ZU_SYM__USERS_HOME_SYMBOL_POO_SYM_B20_0000219
340
0
102
{BLKREFS
331
14B
102
}
  0
BLOCK_RECORD
  5
14F
100
AcDbSymbolTableRecord
100
AcDbBlockTableRecord
  2
ZU_SYM__USERS_HOME_SYMBOL_POO_SYM_B20_0000319
340
0
102
{BLKREFS
331
15B
102
}
  0
ENDTAB
  0
ENDSEC
  0
SECTION
  2
BLOCKS
  0
BLOCK
  5
D
100
AcDbEntity
  8
0
390
0
100
AcDbBlockBegin
  2
*MODEL_SPACE
 70
     0
 10
0.0
 20
0.0
 30
0.0
  3
*MODEL_SPACE
  1

  0
ENDBLK
  5
E
100
AcDbEntity
  8
0
390
0
100
AcDbBlockEnd
  0
BLOCK
  5
F
100
AcDbEntity
 67
     1
  8
0
390
0
100
AcDbBlockBegin
  2
*PAPER_SPACE
 70
     0
 10
0.0
 20
0.0
 30
0.0
  3
*PAPER_SPACE
  1

  0
ENDBLK
  5
10
100
AcDbEntity
 67
     1
  8
0
390
0
100
AcDbBlockEnd
  0
BLOCK
  5
CD
100
AcDbEntity
  8
0
390
0
100
AcDbBlockBegin
  2
ZU_SYM__USERS_HOME_SYMBOL_POO_SYM_B20_19
 70
    64
 10
0.0
 20
0.0
 30
0.0
  3
ZU_SYM__USERS_HOME_SYMBOL_POO_SYM_B20_19
  1

  0
LINE
  5
CE
100
AcDbEntity
  8
0
370
    -3
390
0
  6
Continuous
100
AcDbLine
 10
-9.4
 20
8.0
 30
0.0
 11
-9.4
 21
-8.0
 31
0.0
  0
LINE
  5
CF
100
AcDbEntity
  8
0
370
    -3
390
0
  6
Continuous
100
AcDbLine
 10
-9.399999
 20
-7.999999
 30
0.0
 11
-9.999998
 21
-6.96091
 31
0.0
  0
LINE
  5
D0
100
AcDbEntity
  8
0
370
    -3
390
0
  6
Continuous
100
AcDbLine
 10
-9.399996
 20
7.999998
 30
0.0
 11
-9.999996
 21
6.960609
 31
0.0
  0
POINT
  5
D1
100
AcDbEntity
  8
0
370
    -3
390
0
  6
Continuous
100
AcDbPoint
 10
0.0
 20
0.0
 30
0.0
  0
LINE
  5
D2
100
AcDbEntity
  8
0
370
    -3
390
0
  6
Continuous
100
AcDbLine
 10
0.0
 20
-8.0
 30
0.0
 11
-9.4
 21
-8.0
 31
0.0
  0
LINE
  5
D3
100
AcDbEntity
  8
0
370
    -3
390
0
  6
Continuous
100
AcDbLine
 10
0.0
 20
8.0
 30
0.0
 11
-9.4
 21
8.0
 31
0.0
  0
LINE
  5
D4
100
AcDbEntity
  8
0
370
    -3
390
0
  6
Continuous
100
AcDbLine
 10
-10.0
 20
6.960613
 30
0.0
 11
-10.0
 21
-6.960911
 31
0.0
  0
LINE
  5
D5
100
AcDbEntity
  8
0
370
    -3
390
0
  6
Continuous
100
AcDbLine
 10
0.0
 20
8.0
 30
0.0
 11
0.0
 21
-8.0
 31
0.0
  0
POINT
  5
D6
100
AcDbEntity
  8
0
370
    -3
390
0
  6
Continuous
100
AcDbPoint
 10
0.0
 20
0.0
 30
0.0
  0
ENDBLK
  5
D7
100
AcDbEntity
  8
0
390
0
100
AcDbBlockEnd
  0
BLOCK
  5
E3
100
AcDbEntity
  8
0
390
0
100
AcDbBlockBegin
  2
ZU_SYM__USERS_HOME_SYMBOL_POO_SYM_B20_18
 70
    64
 10
0.0
 20
0.0
 30
0.0
  3
ZU_SYM__USERS_HOME_SYMBOL_POO_SYM_B20_18
  1

  0
LINE
  5
E4
100
AcDbEntity
  8
0
370
    -3
390
0
  6
Continuous
100
AcDbLine
 10
-7.499999
 20
6.5
 30
0.0
 11
-7.499999
 21
-6.5
 31
0.0
  0
LINE
  5
E5
100
AcDbEntity
  8
0
370
    -3
390
0
  6
Continuous
100
AcDbLine
 10
-7.499998
 20
-6.499999
 30
0.0
 11
-7.999999
 21
-5.63407
 31
0.0
  0
LINE
  5
E6
100
AcDbEntity
  8
0
370
    -3
390
0
  6
Continuous
100
AcDbLine
 10
-7.499999
 20
6.5
 30
0.0
 11
-7.999999
 21
5.633876
 31
0.0
  0
LINE
  5
E7
100
AcDbEntity
  8
0
370
    -3
390
0
  6
Continuous
100
AcDbLine
 10
0.0
 20
-6.5
 30
0.0
 11
-7.499998
 21
-6.5
 31
0.0
  0
LINE
  5
E8
100
AcDbEntity
  8
0
370
    -3
390
0
  6
Continuous
100
AcDbLine
 10
0.0
 20
6.5
 30
0.0
 11
-7.499999
 21
6.5
 31
0.0
  0
LINE
  5
E9
100
AcDbEntity
  8
0
370
    -3
390
0
  6
Continuous
100
AcDbLine
 10
-7.999999
 20
5.633876
 30
0.0
 11
-7.999999
 21
-5.63407
 31
0.0
  0
LINE
  5
EA
100
AcDbEntity
  8
0
370
    -3
390
0
  6
Continuous
100
AcDbLine
 10
0.0
 20
-6.5
 30
0.0
 11
0.0
 21
6.5
 31
0.0
  0
POINT
  5
EB
100
AcDbEntity
  8
0
370
    -3
390
0
  6
Continuous
100
AcDbPoint
 10
0.0
 20
0.0
 30
0.0
  0
ENDBLK
  5
EC
100
AcDbEntity
  8
0
390
0
100
AcDbBlockEnd
  0
BLOCK
  5
12D
100
AcDbEntity
  8
0
390
0
100
AcDbBlockBegin
  2
ZU_SYM__USERS_HOME_SYMBOL_POO_SYM_B20_0000119
 70
    64
 10
0.0
 20
0.0
 30
0.0
  3
ZU_SYM__USERS_HOME_SYMBOL_POO_SYM_B20_0000119
  1

  0
LINE
  5
12E
100
AcDbEntity
  8
0
370
    -3
390
0
  6
Continuous
100
AcDbLine
 10
-9.4
 20
8.0
 30
0.0
 11
-9.4
 21
-8.0
 31
0.0
  0
LINE
  5
12F
100
AcDbEntity
  8
0
370
    -3
390
0
  6
Continuous
100
AcDbLine
 10
-9.399999
 20
-7.999999
 30
0.0
 11
-9.999998
 21
-6.96091
 31
0.0
  0
LINE
  5
130
100
AcDbEntity
  8
0
370
    -3
390
0
  6
Continuous
100
AcDbLine
 10
-9.399996
 20
7.999998
 30
0.0
 11
-9.999996
 21
6.960609
 31
0.0
  0
POINT
  5
131
100
AcDbEntity
  8
0
370
    -3
390
0
  6
Continuous
100
AcDbPoint
 10
0.0
 20
0.0
 30
0.0
  0
LINE
  5
132
100
AcDbEntity
  8
0
370
    -3
390
0
  6
Continuous
100
AcDbLine
 10
0.0
 20
-8.0
 30
0.0
 11
-9.4
 21
-8.0
 31
0.0
  0
LINE
  5
133
100
AcDbEntity
  8
0
370
    -3
390
0
  6
Continuous
100
AcDbLine
 10
0.0
 20
8.0
 30
0.0
 11
-9.4
 21
8.0
 31
0.0
  0
LINE
  5
134
100
AcDbEntity
  8
0
370
    -3
390
0
  6
Continuous
100
AcDbLine
 10
-10.0
 20
6.960613
 30
0.0
 11
-10.0
 21
-6.960911
 31
0.0
  0
LINE
  5
135
100
AcDbEntity
  8
0
370
    -3
390
0
  6
Continuous
100
AcDbLine
 10
0.0
 20
8.0
 30
0.0
 11
0.0
 21
-8.0
 31
0.0
  0
POINT
  5
136
100
AcDbEntity
  8
0
370
    -3
390
0
  6
Continuous
100
AcDbPoint
 10
0.0
 20
0.0
 30
0.0
  0
ENDBLK
  5
137
100
AcDbEntity
  8
0
390
0
100
AcDbBlockEnd
  0
BLOCK
  5
140
100
AcDbEntity
  8
0
390
0
100
AcDbBlockBegin
  2
ZU_SYM__USERS_HOME_SYMBOL_POO_SYM_B20_0000219
 70
    64
 10
0.0
 20
0.0
 30
0.0
  3
ZU_SYM__USERS_HOME_SYMBOL_POO_SYM_B20_0000219
  1

  0
LINE
  5
141
100
AcDbEntity
  8
0
370
    -3
390
0
  6
Continuous
100
AcDbLine
 10
-9.4
 20
8.0
 30
0.0
 11
-9.4
 21
-8.0
 31
0.0
  0
LINE
  5
142
100
AcDbEntity
  8
0
370
    -3
390
0
  6
Continuous
100
AcDbLine
 10
-9.399999
 20
-7.999999
 30
0.0
 11
-9.999998
 21
-6.96091
 31
0.0
  0
LINE
  5
143
100
AcDbEntity
  8
0
370
    -3
390
0
  6
Continuous
100
AcDbLine
 10
-9.399996
 20
7.999998
 30
0.0
 11
-9.999996
 21
6.960609
 31
0.0
  0
POINT
  5
144
100
AcDbEntity
  8
0
370
    -3
390
0
  6
Continuous
100
AcDbPoint
 10
0.0
 20
0.0
 30
0.0
  0
LINE
  5
145
100
AcDbEntity
  8
0
370
    -3
390
0
  6
Continuous
100
AcDbLine
 10
0.0
 20
-8.0
 30
0.0
 11
-9.4
 21
-8.0
 31
0.0
  0
LINE
  5
146
100
AcDbEntity
  8
0
370
    -3
390
0
  6
Continuous
100
AcDbLine
 10
0.0
 20
8.0
 30
0.0
 11
-9.4
 21
8.0
 31
0.0
  0
LINE
  5
147
100
AcDbEntity
  8
0
370
    -3
390
0
  6
Continuous
100
AcDbLine
 10
-10.0
 20
6.960613
 30
0.0
 11
-10.0
 21
-6.960911
 31
0.0
  0
LINE
  5
148
100
AcDbEntity
  8
0
370
    -3
390
0
  6
Continuous
100
AcDbLine
 10
0.0
 20
8.0
 30
0.0
 11
0.0
 21
-8.0
 31
0.0
  0
POINT
  5
149
100
AcDbEntity
  8
0
370
    -3
390
0
  6
Continuous
100
AcDbPoint
 10
0.0
 20
0.0
 30
0.0
  0
ENDBLK
  5
14A
100
AcDbEntity
  8
0
390
0
100
AcDbBlockEnd
  0
BLOCK
  5
150
100
AcDbEntity
  8
0
390
0
100
AcDbBlockBegin
  2
ZU_SYM__USERS_HOME_SYMBOL_POO_SYM_B20_0000319
 70
    64
 10
0.0
 20
0.0
 30
0.0
  3
ZU_SYM__USERS_HOME_SYMBOL_POO_SYM_B20_0000319
  1

  0
LINE
  5
151
100
AcDbEntity
  8
0
370
    -3
390
0
  6
Continuous
100
AcDbLine
 10
-9.4
 20
8.0
 30
0.0
 11
-9.4
 21
-8.0
 31
0.0
  0
LINE
  5
152
100
AcDbEntity
  8
0
370
    -3
390
0
  6
Continuous
100
AcDbLine
 10
-9.399999
 20
-7.999999
 30
0.0
 11
-9.999998
 21
-6.96091
 31
0.0
  0
LINE
  5
153
100
AcDbEntity
  8
0
370
    -3
390
0
  6
Continuous
100
AcDbLine
 10
-9.399996
 20
7.999998
 30
0.0
 11
-9.999996
 21
6.960609
 31
0.0
  0
POINT
  5
154
100
AcDbEntity
  8
0
370
    -3
390
0
  6
Continuous
100
AcDbPoint
 10
0.0
 20
0.0
 30
0.0
  0
LINE
  5
155
100
AcDbEntity
  8
0
370
    -3
390
0
  6
Continuous
100
AcDbLine
 10
0.0
 20
-8.0
 30
0.0
 11
-9.4
 21
-8.0
 31
0.0
  0
LINE
  5
156
100
AcDbEntity
  8
0
370
    -3
390
0
  6
Continuous
100
AcDbLine
 10
0.0
 20
8.0
 30
0.0
 11
-9.4
 21
8.0
 31
0.0
  0
LINE
  5
157
100
AcDbEntity
  8
0
370
    -3
390
0
  6
Continuous
100
AcDbLine
 10
-10.0
 20
6.960613
 30
0.0
 11
-10.0
 21
-6.960911
 31
0.0
  0
LINE
  5
158
100
AcDbEntity
  8
0
370
    -3
390
0
  6
Continuous
100
AcDbLine
 10
0.0
 20
8.0
 30
0.0
 11
0.0
 21
-8.0
 31
0.0
  0
POINT
  5
159
100
AcDbEntity
  8
0
370
    -3
390
0
  6
Continuous
100
AcDbPoint
 10
0.0
 20
0.0
 30
0.0
  0
ENDBLK
  5
15A
100
AcDbEntity
  8
0
390
0
100
AcDbBlockEnd
  0
ENDSEC
  0
SECTION
  2
ENTITIES
  0
ARC
  5
28
100
AcDbEntity
  8
0
370
    -3
390
0
  6
Continuous
100
AcDbCircle
 10
-253.506902
 20
21.575309
 30
0.0
 40
1.299999
100
AcDbArc
 50
228.744149
 51
253.398469
  0
ARC
  5
29
100
AcDbEntity
  8
0
370
    -3
390
0
  6
Continuous
100
AcDbCircle
 10
-249.1069
 20
21.575309
 30
0.0
 40
1.299999
100
AcDbArc
 50
286.601531
 51
311.255851
  0
ARC
  5
2A
100
AcDbEntity
  8
0
370
    -3
390
0
  6
Continuous
100
AcDbCircle
 10
-251.306901
 20
28.954334
 30
0.0
 40
9.0
100
AcDbArc
 50
253.398469
 51
286.601548
  0
CIRCLE
  5
2B
100
AcDbEntity
  8
0
370
    -3
390
0
  6
Continuous
100
AcDbCircle
 10
-632.340744
 20
-56.65003
 30
0.0
 40
10.0
  0
LINE
  5
2C
100
AcDbEntity
  8
0
370
    -3
390
0
  6
Continuous
100
AcDbLine
 10
-636.243699
 20
-61.213634
 30
0.0
 11
-632.340744
 21
-61.213634
 31
0.0
  0
LINE
  5
2D
100
AcDbEntity
  8
0
370
    -3
390
0
  6
Continuous
100
AcDbLine
 10
-640.552879
 20
-51.213634
 30
0.0
 11
-640.552879
 21
-61.213634
 31
0.0
  0
LINE
  5
2E
100
AcDbEntity
  8
0
370
    -3
390
0
  6
Continuous
100
AcDbLine
 10
-636.243699
 20
-51.213634
 30
0.0
 11
-636.243699
 21
-61.213634
 31
0.0
  0
LINE
  5
2F
100
AcDbEntity
  8
0
370
    -3
390
0
  6
Continuous
100
AcDbLine
 10
-628.437789
 20
-61.213634
 30
0.0
 11
-632.340744
 21
-61.213634
 31
0.0
  0
LINE
  5
30
100
AcDbEntity
  8
0
370
    -3
390
0
  6
Continuous
100
AcDbLine
 10
-624.12861
 20
-51.213634
 30
0.0
 11
-624.12861
 21
-61.213634
 31
0.0
  0
LINE
  5
31
100
AcDbEntity
  8
0
370
    -3
390
0
  6
Continuous
100
AcDbLine
 10
-628.437789
 20
-51.213634
 30
0.0
 11
-628.437789
 21
-61.213634
 31
0.0
  0
LINE
  5
32
100
AcDbEntity
  8
0
370
    -3
390
0
  6
Continuous
100
AcDbLine
 10
-639.026573
 20
-49.213634
 30
0.0
 11
-632.340744
 21
-49.213634
 31
0.0
  0
LINE
  5
33
100
AcDbEntity
  8
0
370
    -3
390
0
  6
Continuous
100
AcDbLine
 10
-640.733944
 20
-51.213634
 30
0.0
 11
-632.340744
 21
-51.213634
 31
0.0
  0
LINE
  5
34
100
AcDbEntity
  8
0
370
    -3
390
0
  6
Continuous
100
AcDbLine
 10
-641.238684
 20
-61.213634
 30
0.0
 11
-640.552879
 21
-61.213634
 31
0.0
  0
LINE
  5
35
100
AcDbEntity
  8
0
370
    -3
390
0
  6
Continuous
100
AcDbLine
 10
-640.650142
 20
-62.213634
 30
0.0
 11
-632.340744
 21
-62.213634
 31
0.0
  0
LINE
  5
36
100
AcDbEntity
  8
0
370
    -3
390
0
  6
Continuous
100
AcDbLine
 10
-639.885202
 20
-63.213634
 30
0.0
 11
-632.340744
 21
-63.213634
 31
0.0
  0
LINE
  5
37
100
AcDbEntity
  8
0
370
    -3
390
0
  6
Continuous
100
AcDbLine
 10
-635.262577
 20
-66.213661
 30
0.0
 11
-632.340744
 21
-66.213661
 31
0.0
  0
LINE
  5
38
100
AcDbEntity
  8
0
370
    -3
390
0
  6
Continuous
100
AcDbLine
 10
-629.418911
 20
-66.213661
 30
0.0
 11
-632.340744
 21
-66.213661
 31
0.0
  0
LINE
  5
39
100
AcDbEntity
  8
0
370
    -3
390
0
  6
Continuous
100
AcDbLine
 10
-624.796286
 20
-63.213634
 30
0.0
 11
-632.340744
 21
-63.213634
 31
0.0
  0
LINE
  5
3A
100
AcDbEntity
  8
0
370
    -3
390
0
  6
Continuous
100
AcDbLine
 10
-624.031346
 20
-62.213634
 30
0.0
 11
-632.340744
 21
-62.213634
 31
0.0
  0
LINE
  5
3B
100
AcDbEntity
  8
0
370
    -3
390
0
  6
Continuous
100
AcDbLine
 10
-625.654916
 20
-49.213634
 30
0.0
 11
-632.340744
 21
-49.213634
 31
0.0
  0
LINE
  5
3C
100
AcDbEntity
  8
0
370
    -3
390
0
  6
Continuous
100
AcDbLine
 10
-623.947544
 20
-51.213634
 30
0.0
 11
-632.340744
 21
-51.213634
 31
0.0
  0
LINE
  5
3D
100
AcDbEntity
  8
0
370
    -3
390
0
  6
Continuous
100
AcDbLine
 10
-623.442804
 20
-61.213634
 30
0.0
 11
-624.12861
 21
-61.213634
 31
0.0
  0
LINE
  5
3E
100
AcDbEntity
  8
0
370
    -3
390
0
  6
Continuous
100
AcDbLine
 10
-628.340744
 20
-47.484886
 30
0.0
 11
-628.340744
 21
-49.213634
 31
0.0
  0
LINE
  5
3F
100
AcDbEntity
  8
0
370
    -3
390
0
  6
Continuous
100
AcDbLine
 10
-636.340744
 20
-47.484886
 30
0.0
 11
-636.340744
 21
-49.213634
 31
0.0
  0
LINE
  5
40
100
AcDbEntity
  8
0
370
    -3
390
0
  6
Continuous
100
AcDbLine
 10
-632.340744
 20
-383.65003
 30
0.0
 11
-552.071553
 21
-383.65003
 31
0.0
  0
ARC
  5
41
100
AcDbEntity
  8
0
370
    -3
390
0
  6
Continuous
100
AcDbCircle
 10
-536.878709
 20
-377.65003
 30
0.0
 40
6.0
100
AcDbArc
 50
90.0
 51
153.460895
  0
ARC
  5
42
100
AcDbEntity
  8
0
370
    -3
390
0
  6
Continuous
100
AcDbCircle
 10
-557.902505
 20
-367.15003
 30
0.0
 40
17.5
100
AcDbArc
 50
289.462951
 51
333.460895
  0
ARC
  5
43
100
AcDbEntity
  8
0
370
    -3
390
0
  6
Continuous
100
AcDbCircle
 10
-727.80278
 20
-377.65003
 30
0.0
 40
6.0
100
AcDbArc
 50
26.539105
 51
90.0
  0
LINE
  5
44
100
AcDbEntity
  8
0
370
    -3
390
0
  6
Continuous
100
AcDbLine
 10
-632.340744
 20
-383.65003
 30
0.0
 11
-712.609935
 21
-383.65003
 31
0.0
  0
ARC
  5
45
100
AcDbEntity
  8
0
370
    -3
390
0
  6
Continuous
100
AcDbCircle
 10
-706.778983
 20
-367.15003
 30
0.0
 40
17.5
100
AcDbArc
 50
206.539105
 51
250.537049
  0
ARC
  5
46
100
AcDbEntity
  8
0
370
    -3
390
0
  6
Continuous
100
AcDbCircle
 10
547.377166
 20
-186.65003
 30
0.0
 40
75.0
100
AcDbArc
 50
90.0
 51
0.0
  0
ARC
  5
47
100
AcDbEntity
  8
0
370
    -3
390
0
  6
Continuous
100
AcDbCircle
 10
547.377166
 20
-186.65003
 30
0.0
 40
50.0
100
AcDbArc
 50
90.0
 51
0.0
  0
LINE
  5
48
100
AcDbEntity
  8
0
370
    -3
390
0
  6
CENTER
100
AcDbLine
 10
90.1352
 20
-236.65003
 30
0.0
 11
-398.223677
 21
-236.65003
 31
0.0
  0
LINE
  5
49
100
AcDbEntity
  8
0
370
    -3
390
0
  6
Continuous
100
AcDbLine
 10
-6.306901
 20
-103.65003
 30
0.0
 11
-6.306901
 21
-369.65003
 31
0.0
  0
LINE
  5
4A
100
AcDbEntity
  8
0
370
    -3
390
0
  6
Continuous
100
AcDbLine
 10
-4.306901
 20
-367.752101
 30
0.0
 11
-4.306901
 21
-236.65003
 31
0.0
  0
LINE
  5
4B
100
AcDbEntity
  8
0
370
    -3
390
0
  6
Continuous
100
AcDbLine
 10
-4.306901
 20
-105.54796
 30
0.0
 11
-4.306901
 21
-236.65003
 31
0.0
  0
LINE
  5
4C
100
AcDbEntity
  8
0
370
    -3
390
0
  6
Continuous
100
AcDbLine
 10
-6.306901
 20
-346.65003
 30
0.0
 11
-6.306901
 21
-236.65003
 31
0.0
  0
LINE
  5
4D
100
AcDbEntity
  8
0
370
    -3
390
0
  6
Continuous
100
AcDbLine
 10
-6.306901
 20
-126.65003
 30
0.0
 11
-6.306901
 21
-236.65003
 31
0.0
  0
ARC
  5
4E
100
AcDbEntity
  8
0
370
    -3
390
0
  6
Continuous
100
AcDbCircle
 10
-6.306901
 20
-124.65003
 30
0.0
 40
2.0
100
AcDbArc
 50
270.0
 51
0.0
  0
ARC
  5
4F
100
AcDbEntity
  8
0
370
    -3
390
0
  6
Continuous
100
AcDbCircle
 10
-6.306901
 20
-348.65003
 30
0.0
 40
2.0
100
AcDbArc
 50
0.0
 51
90.0
  0
LINE
  5
50
100
AcDbEntity
  8
0
370
    -3
390
0
  6
CENTER
100
AcDbLine
 10
585.102855
 20
-236.65003
 30
0.0
 11
513.407491
 21
-236.65003
 31
0.0
  0
LINE
  5
51
100
AcDbEntity
  8
0
370
    -3
390
0
  6
CENTER
100
AcDbLine
 10
547.377166
 20
13.32413
 30
0.0
 11
547.377166
 21
-397.84748
 31
0.0
  0
LINE
  5
52
100
AcDbEntity
  8
0
370
    -3
390
0
  6
Continuous
100
AcDbLine
 10
-271.306901
 20
-328.629608
 30
0.0
 11
-6.306901
 21
-328.629608
 31
0.0
  0
LINE
  5
53
100
AcDbEntity
  8
0
370
    -3
390
0
  6
Continuous
100
AcDbLine
 10
-271.306901
 20
-366.15003
 30
0.0
 11
-6.306901
 21
-366.15003
 31
0.0
  0
LINE
  5
54
100
AcDbEntity
  8
0
370
    -3
390
0
  6
Continuous
100
AcDbLine
 10
-271.306901
 20
-369.65003
 30
0.0
 11
-6.306901
 21
-369.65003
 31
0.0
  0
LINE
  5
55
100
AcDbEntity
  8
0
370
    -3
390
0
  6
Continuous
100
AcDbLine
 10
-271.306901
 20
-364.65003
 30
0.0
 11
-6.306901
 21
-364.65003
 31
0.0
  0
LINE
  5
56
100
AcDbEntity
  8
0
370
    -3
390
0
  6
Continuous
100
AcDbLine
 10
-271.306901
 20
-360.65003
 30
0.0
 11
-6.306901
 21
-360.65003
 31
0.0
  0
LINE
  5
57
100
AcDbEntity
  8
0
370
    -3
390
0
  6
Continuous
100
AcDbLine
 10
-271.306901
 20
-354.65003
 30
0.0
 11
-6.306901
 21
-354.65003
 31
0.0
  0
LINE
  5
58
100
AcDbEntity
  8
0
370
    -3
390
0
  6
Continuous
100
AcDbLine
 10
-271.306901
 20
-341.35753
 30
0.0
 11
-6.306901
 21
-341.35753
 31
0.0
  0
LINE
  5
59
100
AcDbEntity
  8
0
370
    -3
390
0
  6
Continuous
100
AcDbLine
 10
-202.395199
 20
-294.292802
 30
0.0
 11
-6.306901
 21
-294.292802
 31
0.0
  0
LINE
  5
5A
100
AcDbEntity
  8
0
370
    -3
390
0
  6
Continuous
100
AcDbLine
 10
-202.306901
 20
-291.073388
 30
0.0
 11
-6.306901
 21
-291.073388
 31
0.0
  0
LINE
  5
5B
100
AcDbEntity
  8
0
370
    -3
390
0
  6
Continuous
100
AcDbLine
 10
-202.306901
 20
-280.094642
 30
0.0
 11
-6.306901
 21
-280.094642
 31
0.0
  0
LINE
  5
5C
100
AcDbEntity
  8
0
370
    -3
390
0
  6
Continuous
100
AcDbLine
 10
-202.306901
 20
-277.241009
 30
0.0
 11
-6.306901
 21
-277.241009
 31
0.0
  0
LINE
  5
5D
100
AcDbEntity
  8
0
370
    -3
390
0
  6
Continuous
100
AcDbLine
 10
-202.306901
 20
-260.65003
 30
0.0
 11
-6.306901
 21
-260.65003
 31
0.0
  0
LINE
  5
5E
100
AcDbEntity
  8
0
370
    -3
390
0
  6
Continuous
100
AcDbLine
 10
-271.306901
 20
-304.993244
 30
0.0
 11
-6.306901
 21
-304.993244
 31
0.0
  0
LINE
  5
5F
100
AcDbEntity
  8
0
370
    -3
390
0
  6
Continuous
100
AcDbLine
 10
-271.306901
 20
-308.229971
 30
0.0
 11
-6.306901
 21
-308.229971
 31
0.0
  0
LINE
  5
60
100
AcDbEntity
  8
0
370
    -3
390
0
  6
Continuous
100
AcDbLine
 10
-202.306901
 20
-212.65003
 30
0.0
 11
-6.306901
 21
-212.65003
 31
0.0
  0
LINE
  5
61
100
AcDbEntity
  8
0
370
    -3
390
0
  6
Continuous
100
AcDbLine
 10
-271.306901
 20
-193.205419
 30
0.0
 11
-6.306901
 21
-193.205419
 31
0.0
  0
LINE
  5
62
100
AcDbEntity
  8
0
370
    -3
390
0
  6
Continuous
100
AcDbLine
 10
-271.306901
 20
-196.059052
 30
0.0
 11
-6.306901
 21
-196.059052
 31
0.0
  0
LINE
  5
63
100
AcDbEntity
  8
0
370
    -3
390
0
  6
Continuous
100
AcDbLine
 10
-271.306901
 20
-182.226673
 30
0.0
 11
-6.306901
 21
-182.226673
 31
0.0
  0
LINE
  5
64
100
AcDbEntity
  8
0
370
    -3
390
0
  6
Continuous
100
AcDbLine
 10
-271.306901
 20
-179.007259
 30
0.0
 11
-6.306901
 21
-179.007259
 31
0.0
  0
LINE
  5
65
100
AcDbEntity
  8
0
370
    -3
390
0
  6
Continuous
100
AcDbLine
 10
-271.306901
 20
-168.306817
 30
0.0
 11
-6.306901
 21
-168.306817
 31
0.0
  0
LINE
  5
66
100
AcDbEntity
  8
0
370
    -3
390
0
  6
Continuous
100
AcDbLine
 10
-271.306901
 20
-165.07009
 30
0.0
 11
-6.306901
 21
-165.07009
 31
0.0
  0
LINE
  5
67
100
AcDbEntity
  8
0
370
    -3
390
0
  6
Continuous
100
AcDbLine
 10
-271.306901
 20
-144.670453
 30
0.0
 11
-6.306901
 21
-144.670453
 31
0.0
  0
LINE
  5
68
100
AcDbEntity
  8
0
370
    -3
390
0
  6
Continuous
100
AcDbLine
 10
-271.306901
 20
-131.942531
 30
0.0
 11
-6.306901
 21
-131.942531
 31
0.0
  0
LINE
  5
69
100
AcDbEntity
  8
0
370
    -3
390
0
  6
Continuous
100
AcDbLine
 10
-271.306901
 20
-118.65003
 30
0.0
 11
-6.306901
 21
-118.65003
 31
0.0
  0
LINE
  5
6A
100
AcDbEntity
  8
0
370
    -3
390
0
  6
Continuous
100
AcDbLine
 10
-271.306901
 20
-112.65003
 30
0.0
 11
-6.306901
 21
-112.65003
 31
0.0
  0
LINE
  5
6B
100
AcDbEntity
  8
0
370
    -3
390
0
  6
Continuous
100
AcDbLine
 10
-271.306901
 20
-108.65003
 30
0.0
 11
-6.306901
 21
-108.65003
 31
0.0
  0
LINE
  5
6C
100
AcDbEntity
  8
0
370
    -3
390
0
  6
Continuous
100
AcDbLine
 10
-271.306901
 20
-107.15003
 30
0.0
 11
-6.306901
 21
-107.15003
 31
0.0
  0
LINE
  5
6D
100
AcDbEntity
  8
0
370
    -3
390
0
  6
Continuous
100
AcDbLine
 10
-271.306901
 20
-103.65003
 30
0.0
 11
-6.306901
 21
-103.65003
 31
0.0
  0
LINE
  5
6E
100
AcDbEntity
  8
0
370
    -3
390
0
  6
Continuous
100
AcDbLine
 10
-306.306901
 20
-133.389583
 30
0.0
 11
-306.306901
 21
-131.748227
 31
0.0
  0
LINE
  5
6F
100
AcDbEntity
  8
0
370
    -3
390
0
  6
Continuous
100
AcDbLine
 10
-320.306901
 20
-133.389583
 30
0.0
 11
-320.306901
 21
-131.748227
 31
0.0
  0
ELLIPSE
  5
70
100
AcDbEntity
  8
0
370
    -3
390
0
  6
Continuous
100
AcDbEllipse
 10
-313.306901
 20
-133.389583
 30
0.0
 11
7.0
 21
0.0
 31
0.0
210
0.0
220
0.0
230
1.0
 40
0.707107
 41
3.1415926535897931
 42
0.0
  0
ELLIPSE
  5
71
100
AcDbEntity
  8
0
370
    -3
390
0
  6
Continuous
100
AcDbEllipse
 10
-313.306901
 20
-131.748227
 30
0.0
 11
7.0
 21
0.0
 31
0.0
210
0.0
220
0.0
230
1.0
 40
0.692313
 41
3.1415926535897931
 42
0.0
  0
ELLIPSE
  5
72
100
AcDbEntity
  8
0
370
    -3
390
0
  6
Continuous
100
AcDbEllipse
 10
-313.306901
 20
-131.748227
 30
0.0
 11
7.0
 21
0.0
 31
0.0
210
0.0
220
0.0
230
1.0
 40
0.692313
 41
0.0
 42
0.5464396163983571
  0
ELLIPSE
  5
73
100
AcDbEntity
  8
0
370
    -3
390
0
  6
Continuous
100
AcDbEllipse
 10
-313.306901
 20
-131.748227
 30
0.0
 11
7.0
 21
0.0
 31
0.0
210
0.0
220
0.0
230
1.0
 40
0.692313
 41
2.595153037191436
 42
3.1415926535897931
  0
ELLIPSE
  5
74
100
AcDbEntity
  8
0
370
    -3
390
0
  6
Continuous
100
AcDbEllipse
 10
-313.306901
 20
-131.644673
 30
0.0
 11
6.25
 21
0.0
 31
0.0
210
0.0
220
0.0
230
1.0
 40
0.707107
 41
3.1415926535897931
 42
0.0
  0
LINE
  5
75
100
AcDbEntity
  8
0
370
    -3
390
0
  6
Continuous
100
AcDbLine
 10
-307.056901
 20
-131.644673
 30
0.0
 11
-307.056901
 21
-130.513303
 31
0.0
  0
LINE
  5
76
100
AcDbEntity
  8
0
370
    -3
390
0
  6
Continuous
100
AcDbLine
 10
-319.556901
 20
-131.644673
 30
0.0
 11
-319.556901
 21
-130.513303
 31
0.0
  0
ELLIPSE
  5
77
100
AcDbEntity
  8
0
370
    -3
390
0
  6
Continuous
100
AcDbEllipse
 10
-313.306901
 20
-129.695172
 30
0.0
 11
5.25
 21
0.0
 31
0.0
210
0.0
220
0.0
230
1.0
 40
0.862941
 41
0.0
 42
6.2831853071795862
  0
ELLIPSE
  5
78
100
AcDbEntity
  8
0
370
    -3
390
0
  6
Continuous
100
AcDbEllipse
 10
-313.306901
 20
-130.513303
 30
0.0
 11
6.25
 21
0.0
 31
0.0
210
0.0
220
0.0
230
1.0
 40
0.707107
 41
2.4008084267827927
 42
0.7407842268070005
  0
LINE
  5
79
100
AcDbEntity
  8
0
370
    -3
390
0
  6
Continuous
100
AcDbLine
 10
-313.306901
 20
-127.755586
 30
0.0
 11
-310.306901
 21
-130.106861
 31
0.0
  0
LINE
  5
7A
100
AcDbEntity
  8
0
370
    -3
390
0
  6
Continuous
100
AcDbLine
 10
-310.399728
 20
-125.922744
 30
0.0
 11
-313.306901
 21
-127.755586
 31
0.0
  0
LINE
  5
7B
100
AcDbEntity
  8
0
370
    -3
390
0
  6
Continuous
100
AcDbLine
 10
-313.306901
 20
-127.755586
 30
0.0
 11
-316.306901
 21
-130.106861
 31
0.0
  0
LINE
  5
7C
100
AcDbEntity
  8
0
370
    -3
390
0
  6
Continuous
100
AcDbLine
 10
-316.214074
 20
-125.922744
 30
0.0
 11
-313.306901
 21
-127.755586
 31
0.0
  0
LINE
  5
7D
100
AcDbEntity
  8
0
370
    -3
390
0
  6
Continuous
100
AcDbLine
 10
-376.790443
 20
-360.291801
 30
0.0
 11
-385.206901
 21
-355.432557
 31
0.0
  0
ARC
  5
7E
100
AcDbEntity
  8
0
370
    -3
390
0
  6
Continuous
100
AcDbCircle
 10
-326.190443
 20
-272.65003
 30
0.0
 40
101.2
100
AcDbArc
 50
240.0
 51
270.0
  0
ARC
  5
7F
100
AcDbEntity
  8
0
370
    -3
390
0
  6
Continuous
100
AcDbCircle
 10
-382.106901
 20
-350.063199
 30
0.0
 40
6.2
100
AcDbArc
 50
180.0
 51
240.0
  0
LINE
  5
80
100
AcDbEntity
  8
0
370
    -3
390
0
  6
Continuous
100
AcDbLine
 10
-306.306901
 20
-339.910478
 30
0.0
 11
-306.306901
 21
-341.551834
 31
0.0
  0
LINE
  5
81
100
AcDbEntity
  8
0
370
    -3
390
0
  6
Continuous
100
AcDbLine
 10
-320.306901
 20
-339.910478
 30
0.0
 11
-320.306901
 21
-341.551834
 31
0.0
  0
ELLIPSE
  5
82
100
AcDbEntity
  8
0
370
    -3
390
0
  6
Continuous
100
AcDbEllipse
 10
-313.306901
 20
-339.910478
 30
0.0
 11
7.0
 21
0.0
 31
0.0
210
0.0
220
0.0
230
1.0
 40
0.707107
 41
0.0
 42
3.1415926535897931
  0
ELLIPSE
  5
83
100
AcDbEntity
  8
0
370
    -3
390
0
  6
Continuous
100
AcDbEllipse
 10
-313.306901
 20
-341.551834
 30
0.0
 11
7.0
 21
0.0
 31
0.0
210
0.0
220
0.0
230
1.0
 40
0.692313
 41
0.0
 42
3.1415926535897931
  0
ELLIPSE
  5
84
100
AcDbEntity
  8
0
370
    -3
390
0
  6
Continuous
100
AcDbEllipse
 10
-313.306901
 20
-341.551834
 30
0.0
 11
7.0
 21
0.0
 31
0.0
210
0.0
220
0.0
230
1.0
 40
0.692313
 41
5.7367456907812269
 42
0.0
  0
ELLIPSE
  5
85
100
AcDbEntity
  8
0
370
    -3
390
0
  6
Continuous
100
AcDbEllipse
 10
-313.306901
 20
-341.551834
 30
0.0
 11
7.0
 21
0.0
 31
0.0
210
0.0
220
0.0
230
1.0
 40
0.692313
 41
3.1415926535897931
 42
3.6880322699881529
  0
ELLIPSE
  5
86
100
AcDbEntity
  8
0
370
    -3
390
0
  6
Continuous
100
AcDbEllipse
 10
-313.306901
 20
-341.655387
 30
0.0
 11
6.25
 21
0.0
 31
0.0
210
0.0
220
0.0
230
1.0
 40
0.707107
 41
0.0
 42
3.1415926535897931
  0
LINE
  5
87
100
AcDbEntity
  8
0
370
    -3
390
0
  6
Continuous
100
AcDbLine
 10
-307.056901
 20
-341.655387
 30
0.0
 11
-307.056901
 21
-342.786758
 31
0.0
  0
LINE
  5
88
100
AcDbEntity
  8
0
370
    -3
390
0
  6
Continuous
100
AcDbLine
 10
-319.556901
 20
-341.655387
 30
0.0
 11
-319.556901
 21
-342.786758
 31
0.0
  0
ELLIPSE
  5
89
100
AcDbEntity
  8
0
370
    -3
390
0
  6
Continuous
100
AcDbEllipse
 10
-313.306901
 20
-343.604889
 30
0.0
 11
5.25
 21
0.0
 31
0.0
210
0.0
220
0.0
230
1.0
 40
0.862941
 41
0.0
 42
6.2831853071795862
  0
ELLIPSE
  5
8A
100
AcDbEntity
  8
0
370
    -3
390
0
  6
Continuous
100
AcDbEllipse
 10
-313.306901
 20
-342.786758
 30
0.0
 11
6.25
 21
0.0
 31
0.0
210
0.0
220
0.0
230
1.0
 40
0.707107
 41
5.5424010803725476
 42
3.8823768803968313
  0
LINE
  5
8B
100
AcDbEntity
  8
0
370
    -3
390
0
  6
Continuous
100
AcDbLine
 10
-313.306901
 20
-345.544475
 30
0.0
 11
-310.306901
 21
-343.1932
 31
0.0
  0
LINE
  5
8C
100
AcDbEntity
  8
0
370
    -3
390
0
  6
Continuous
100
AcDbLine
 10
-310.399728
 20
-347.377317
 30
0.0
 11
-313.306901
 21
-345.544475
 31
0.0
  0
LINE
  5
8D
100
AcDbEntity
  8
0
370
    -3
390
0
  6
Continuous
100
AcDbLine
 10
-313.306901
 20
-345.544475
 30
0.0
 11
-316.306901
 21
-343.1932
 31
0.0
  0
LINE
  5
8E
100
AcDbEntity
  8
0
370
    -3
390
0
  6
Continuous
100
AcDbLine
 10
-316.214074
 20
-347.377317
 30
0.0
 11
-313.306901
 21
-345.544475
 31
0.0
  0
LINE
  5
8F
100
AcDbEntity
  8
0
370
    -3
390
0
  6
Continuous
100
AcDbLine
 10
-326.511982
 20
-373.85003
 30
0.0
 11
-271.306901
 21
-373.85003
 31
0.0
  0
LINE
  5
90
100
AcDbEntity
  8
0
370
    -3
390
0
  6
Continuous
100
AcDbLine
 10
-376.790443
 20
-113.00826
 30
0.0
 11
-385.206901
 21
-117.867504
 31
0.0
  0
ARC
  5
91
100
AcDbEntity
  8
0
370
    -3
390
0
  6
Continuous
100
AcDbCircle
 10
-326.190443
 20
-200.65003
 30
0.0
 40
101.2
100
AcDbArc
 50
90.0
 51
120.0
  0
ARC
  5
92
100
AcDbEntity
  8
0
370
    -3
390
0
  6
Continuous
100
AcDbCircle
 10
-382.106901
 20
-123.236862
 30
0.0
 40
6.2
100
AcDbArc
 50
120.0
 51
180.0
  0
LINE
  5
93
100
AcDbEntity
  8
0
370
    -3
390
0
  6
Continuous
100
AcDbLine
 10
-326.511982
 20
-99.45003
 30
0.0
 11
-271.306901
 21
-99.45003
 31
0.0
  0
LINE
  5
94
100
AcDbEntity
  8
0
370
    -3
390
0
  6
Continuous
100
AcDbLine
 10
-388.306901
 20
-236.65003
 30
0.0
 11
-388.306901
 21
-350.063199
 31
0.0
  0
LINE
  5
95
100
AcDbEntity
  8
0
370
    -3
390
0
  6
Continuous
100
AcDbLine
 10
-388.306901
 20
-236.65003
 30
0.0
 11
-388.306901
 21
-123.236862
 31
0.0
  0
LINE
  5
96
100
AcDbEntity
  8
0
370
    -3
390
0
  6
Continuous
100
AcDbLine
 10
-271.306901
 20
-196.808103
 30
0.0
 11
-271.306901
 21
-99.45003
 31
0.0
  0
LINE
  5
97
100
AcDbEntity
  8
0
370
    -3
390
0
  6
Continuous
100
AcDbLine
 10
-271.306901
 20
-301.849321
 30
0.0
 11
-271.306901
 21
-373.85003
 31
0.0
  0
LINE
  5
98
100
AcDbEntity
  8
0
370
    -3
390
0
  6
Continuous
100
AcDbLine
 10
-2.411573
 20
-103.550701
 30
0.0
 11
42.954779
 21
-101.173151
 31
0.0
  0
ARC
  5
99
100
AcDbEntity
  8
0
370
    -3
390
0
  6
Continuous
100
AcDbCircle
 10
-2.306901
 20
-105.54796
 30
0.0
 40
2.0
100
AcDbArc
 50
93.0
 51
180.0
  0
LINE
  5
9A
100
AcDbEntity
  8
0
370
    -3
390
0
  6
Continuous
100
AcDbLine
 10
94.693099
 20
-69.213634
 30
0.0
 11
85.193099
 21
-69.213634
 31
0.0
  0
ARC
  5
9B
100
AcDbEntity
  8
0
370
    -3
390
0
  6
Continuous
100
AcDbCircle
 10
94.693099
 20
-67.713634
 30
0.0
 40
1.5
100
AcDbArc
 50
270.0
 51
0.0
  0
LINE
  5
9C
100
AcDbEntity
  8
0
370
    -3
390
0
  6
Continuous
100
AcDbLine
 10
100.443099
 20
-66.213634
 30
0.0
 11
85.193099
 21
-66.213634
 31
0.0
  0
LINE
  5
9D
100
AcDbEntity
  8
0
370
    -3
390
0
  6
Continuous
100
AcDbLine
 10
98.193099
 20
-49.213634
 30
0.0
 11
99.693099
 21
-51.213634
 31
0.0
  0
LINE
  5
9E
100
AcDbEntity
  8
0
370
    -3
390
0
  6
Continuous
100
AcDbLine
 10
101.193099
 20
-62.213634
 30
0.0
 11
101.193099
 21
-51.213634
 31
0.0
  0
LINE
  5
9F
100
AcDbEntity
  8
0
370
    -3
390
0
  6
Continuous
100
AcDbLine
 10
101.193099
 20
-62.213634
 30
0.0
 11
85.193099
 21
-62.213634
 31
0.0
  0
LINE
  5
A0
100
AcDbEntity
  8
0
370
    -3
390
0
  6
Continuous
100
AcDbLine
 10
98.193099
 20
-49.213634
 30
0.0
 11
99.693099
 21
-51.213634
 31
0.0
  0
LINE
  5
A1
100
AcDbEntity
  8
0
370
    -3
390
0
  6
Continuous
100
AcDbLine
 10
101.193099
 20
-62.213634
 30
0.0
 11
101.193099
 21
-51.213634
 31
0.0
  0
LINE
  5
A2
100
AcDbEntity
  8
0
370
    -3
390
0
  6
Continuous
100
AcDbLine
 10
101.193099
 20
-61.213634
 30
0.0
 11
100.709766
 21
-61.213634
 31
0.0
  0
LINE
  5
A3
100
AcDbEntity
  8
0
370
    -3
390
0
  6
Continuous
100
AcDbLine
 10
100.443099
 20
-63.213634
 30
0.0
 11
100.443099
 21
-66.213634
 31
0.0
  0
ARC
  5
A4
100
AcDbEntity
  8
0
370
    -3
390
0
  6
Continuous
100
AcDbCircle
 10
94.693099
 20
-67.713634
 30
0.0
 40
1.5
100
AcDbArc
 50
0.0
 51
90.0
  0
LINE
  5
A5
100
AcDbEntity
  8
0
370
    -3
390
0
  6
Continuous
100
AcDbLine
 10
89.096054
 20
-51.213634
 30
0.0
 11
89.096054
 21
-61.213634
 31
0.0
  0
LINE
  5
A6
100
AcDbEntity
  8
0
370
    -3
390
0
  6
Continuous
100
AcDbLine
 10
93.405233
 20
-51.213634
 30
0.0
 11
93.405233
 21
-61.213634
 31
0.0
  0
LINE
  5
A7
100
AcDbEntity
  8
0
370
    -3
390
0
  6
Continuous
100
AcDbLine
 10
98.924845
 20
-51.213634
 30
0.0
 11
98.924845
 21
-61.213634
 31
0.0
  0
LINE
  5
A8
100
AcDbEntity
  8
0
370
    -3
390
0
  6
Continuous
100
AcDbLine
 10
100.709766
 20
-51.213634
 30
0.0
 11
100.709766
 21
-61.213634
 31
0.0
  0
LINE
  5
A9
100
AcDbEntity
  8
0
370
    -3
390
0
  6
Continuous
100
AcDbLine
 10
98.924845
 20
-61.213634
 30
0.0
 11
93.405233
 21
-61.213634
 31
0.0
  0
LINE
  5
AA
100
AcDbEntity
  8
0
370
    -3
390
0
  6
Continuous
100
AcDbLine
 10
98.193099
 20
-49.213634
 30
0.0
 11
85.193099
 21
-49.213634
 31
0.0
  0
LINE
  5
AB
100
AcDbEntity
  8
0
370
    -3
390
0
  6
Continuous
100
AcDbLine
 10
101.193099
 20
-51.213634
 30
0.0
 11
85.193099
 21
-51.213634
 31
0.0
  0
LINE
  5
AC
100
AcDbEntity
  8
0
370
    -3
390
0
  6
Continuous
100
AcDbLine
 10
89.096054
 20
-61.213634
 30
0.0
 11
85.193099
 21
-61.213634
 31
0.0
  0
LINE
  5
AD
100
AcDbEntity
  8
0
370
    -3
390
0
  6
Continuous
100
AcDbLine
 10
100.443099
 20
-63.213634
 30
0.0
 11
85.193099
 21
-63.213634
 31
0.0
  0
LINE
  5
AE
100
AcDbEntity
  8
0
370
    -3
390
0
  6
Continuous
100
AcDbLine
 10
75.693099
 20
-69.213634
 30
0.0
 11
85.193099
 21
-69.213634
 31
0.0
  0
ARC
  5
AF
100
AcDbEntity
  8
0
370
    -3
390
0
  6
Continuous
100
AcDbCircle
 10
75.693099
 20
-67.713634
 30
0.0
 40
1.5
100
AcDbArc
 50
180.0
 51
270.0
  0
LINE
  5
B0
100
AcDbEntity
  8
0
370
    -3
390
0
  6
Continuous
100
AcDbLine
 10
72.193099
 20
-49.213634
 30
0.0
 11
85.193099
 21
-49.213634
 31
0.0
  0
LINE
  5
B1
100
AcDbEntity
  8
0
370
    -3
390
0
  6
Continuous
100
AcDbLine
 10
69.943099
 20
-66.213634
 30
0.0
 11
85.193099
 21
-66.213634
 31
0.0
  0
LINE
  5
B2
100
AcDbEntity
  8
0
370
    -3
390
0
  6
Continuous
100
AcDbLine
 10
69.193099
 20
-51.213634
 30
0.0
 11
85.193099
 21
-51.213634
 31
0.0
  0
LINE
  5
B3
100
AcDbEntity
  8
0
370
    -3
390
0
  6
Continuous
100
AcDbLine
 10
72.193099
 20
-49.213634
 30
0.0
 11
70.693099
 21
-51.213634
 31
0.0
  0
LINE
  5
B4
100
AcDbEntity
  8
0
370
    -3
390
0
  6
Continuous
100
AcDbLine
 10
69.193099
 20
-62.213634
 30
0.0
 11
69.193099
 21
-51.213634
 31
0.0
  0
LINE
  5
B5
100
AcDbEntity
  8
0
370
    -3
390
0
  6
Continuous
100
AcDbLine
 10
69.193099
 20
-62.213634
 30
0.0
 11
85.193099
 21
-62.213634
 31
0.0
  0
LINE
  5
B6
100
AcDbEntity
  8
0
370
    -3
390
0
  6
Continuous
100
AcDbLine
 10
72.193099
 20
-49.213634
 30
0.0
 11
70.693099
 21
-51.213634
 31
0.0
  0
LINE
  5
B7
100
AcDbEntity
  8
0
370
    -3
390
0
  6
Continuous
100
AcDbLine
 10
69.193099
 20
-62.213634
 30
0.0
 11
69.193099
 21
-51.213634
 31
0.0
  0
LINE
  5
B8
100
AcDbEntity
  8
0
370
    -3
390
0
  6
Continuous
100
AcDbLine
 10
69.193099
 20
-61.213634
 30
0.0
 11
69.676432
 21
-61.213634
 31
0.0
  0
LINE
  5
B9
100
AcDbEntity
  8
0
370
    -3
390
0
  6
Continuous
100
AcDbLine
 10
69.943099
 20
-63.213634
 30
0.0
 11
85.193099
 21
-63.213634
 31
0.0
  0
LINE
  5
BA
100
AcDbEntity
  8
0
370
    -3
390
0
  6
Continuous
100
AcDbLine
 10
69.943099
 20
-63.213634
 30
0.0
 11
69.943099
 21
-66.213634
 31
0.0
  0
ARC
  5
BB
100
AcDbEntity
  8
0
370
    -3
390
0
  6
Continuous
100
AcDbCircle
 10
75.693099
 20
-67.713634
 30
0.0
 40
1.5
100
AcDbArc
 50
90.0
 51
180.0
  0
LINE
  5
BC
100
AcDbEntity
  8
0
370
    -3
390
0
  6
Continuous
100
AcDbLine
 10
81.290144
 20
-51.213634
 30
0.0
 11
81.290144
 21
-61.213634
 31
0.0
  0
LINE
  5
BD
100
AcDbEntity
  8
0
370
    -3
390
0
  6
Continuous
100
AcDbLine
 10
76.980964
 20
-51.213634
 30
0.0
 11
76.980964
 21
-61.213634
 31
0.0
  0
LINE
  5
BE
100
AcDbEntity
  8
0
370
    -3
390
0
  6
Continuous
100
AcDbLine
 10
71.461353
 20
-51.213634
 30
0.0
 11
71.461353
 21
-61.213634
 31
0.0
  0
LINE
  5
BF
100
AcDbEntity
  8
0
370
    -3
390
0
  6
Continuous
100
AcDbLine
 10
69.676432
 20
-51.213634
 30
0.0
 11
69.676432
 21
-61.213634
 31
0.0
  0
LINE
  5
C0
100
AcDbEntity
  8
0
370
    -3
390
0
  6
Continuous
100
AcDbLine
 10
81.290144
 20
-61.213634
 30
0.0
 11
85.193099
 21
-61.213634
 31
0.0
  0
LINE
  5
C1
100
AcDbEntity
  8
0
370
    -3
390
0
  6
Continuous
100
AcDbLine
 10
71.461353
 20
-61.213634
 30
0.0
 11
76.980964
 21
-61.213634
 31
0.0
  0
LINE
  5
C2
100
AcDbEntity
  8
0
370
    -3
390
0
  6
Continuous
100
AcDbLine
 10
60.193099
 20
-71.650011
 30
0.0
 11
195.357893
 21
-66.929952
 31
0.0
  0
LINE
  5
C3
100
AcDbEntity
  8
0
370
    -3
390
0
  6
Continuous
100
AcDbLine
 10
60.193099
 20
-71.650011
 30
0.0
 11
60.193099
 21
-378.65003
 31
0.0
  0
LINE
  5
C4
100
AcDbEntity
  8
0
370
    -3
390
0
  6
Continuous
100
AcDbLine
 10
68.675647
 20
-69.501947
 30
0.0
 11
174.703223
 21
-67.651229
 31
0.0
  0
ARC
  5
C5
100
AcDbEntity
  8
0
370
    -3
390
0
  6
Continuous
100
AcDbCircle
 10
68.693099
 20
-70.501795
 30
0.0
 40
1.0
100
AcDbArc
 50
91.0
 51
178.726076
  0
ARC
  5
C6
100
AcDbEntity
  8
0
370
    -3
390
0
  6
Continuous
100
AcDbCircle
 10
66.693593
 20
-70.45733
 30
0.0
 40
1.0
100
AcDbArc
 50
287.183957
 51
358.726076
  0
LINE
  5
C7
100
AcDbEntity
  8
0
370
    -3
390
0
  6
CENTER
100
AcDbLine
 10
85.193099
 20
-77.183158
 30
0.0
 11
85.193099
 21
-47.210168
 31
0.0
  0
LINE
  5
C8
100
AcDbEntity
  8
0
370
    -3
390
0
  6
Continuous
100
AcDbLine
 10
60.193099
 20
-71.65003
 30
0.0
 11
39.693099
 21
-71.65003
 31
0.0
  0
LINE
  5
C9
100
AcDbEntity
  8
0
370
    -3
390
0
  6
Continuous
100
AcDbLine
 10
47.693099
 20
-375.65003
 30
0.0
 11
47.693099
 21
-74.65003
 31
0.0
  0
LINE
  5
CA
100
AcDbEntity
  8
0
370
    -3
390
0
  6
Continuous
100
AcDbLine
 10
59.693099
 20
-236.65003
 30
0.0
 11
59.693099
 21
-71.65003
 31
0.0
  0
ARC
  5
CB
100
AcDbEntity
  8
0
370
    -3
390
0
  6
Continuous
100
AcDbCircle
 10
50.693099
 20
-74.65003
 30
0.0
 40
3.0
100
AcDbArc
 50
90.0
 51
180.0
  0
INSERT
  5
D8
100
AcDbEntity
  8
0
390
0
100
AcDbBlockReference
  2
ZU_SYM__USERS_HOME_SYMBOL_POO_SYM_B20_19
 10
47.693099
 20
-91.529041
 30
0.0
  0
ARC
  5
D9
100
AcDbEntity
  8
0
370
    -3
390
0
  6
Continuous
100
AcDbCircle
 10
39.693099
 20
-74.65003
 30
0.0
 40
3.0
100
AcDbArc
 50
90.0
 51
180.0
  0
LINE
  5
DA
100
AcDbEntity
  8
0
370
    -3
390
0
  6
Continuous
100
AcDbLine
 10
36.693099
 20
-83.529041
 30
0.0
 11
36.693099
 21
-74.65003
 31
0.0
  0
ARC
  5
DB
100
AcDbEntity
  8
0
370
    -3
390
0
  6
Continuous
100
AcDbCircle
 10
31.693099
 20
-96.756489
 30
0.0
 40
5.0
100
AcDbArc
 50
273.0
 51
0.0
  0
ARC
  5
DC
100
AcDbEntity
  8
0
370
    -3
390
0
  6
Continuous
100
AcDbCircle
 10
42.693099
 20
-96.180003
 30
0.0
 40
5.0
100
AcDbArc
 50
273.0
 51
317.94778
  0
LINE
  5
DD
100
AcDbEntity
  8
0
370
    -3
390
0
  6
Continuous
100
AcDbLine
 10
36.693099
 20
-36.65003
 30
0.0
 11
36.693099
 21
-96.756489
 31
0.0
  0
LINE
  5
DE
100
AcDbEntity
  8
0
370
    -3
390
0
  6
Continuous
100
AcDbLine
 10
32.193099
 20
-36.65003
 30
0.0
 11
36.693099
 21
-36.65003
 31
0.0
  0
LINE
  5
DF
100
AcDbEntity
  8
0
370
    -3
390
0
  6
Continuous
100
AcDbLine
 10
32.193099
 20
-94.65003
 30
0.0
 11
32.193099
 21
-36.65003
 31
0.0
  0
LINE
  5
E0
100
AcDbEntity
  8
0
370
    -3
390
0
  6
CENTER
100
AcDbLine
 10
26.462852
 20
-56.65003
 30
0.0
 11
44.562118
 21
-56.65003
 31
0.0
  0
LINE
  5
E1
100
AcDbEntity
  8
0
370
    -3
390
0
  6
Continuous
100
AcDbLine
 10
32.193099
 20
-94.65003
 30
0.0
 11
36.693099
 21
-94.65003
 31
0.0
  0
INSERT
  5
ED
100
AcDbEntity
  8
0
390
0
100
AcDbBlockReference
  2
ZU_SYM__USERS_HOME_SYMBOL_POO_SYM_B20_18
 10
32.193099
 20
-84.65003
 30
0.0
  0
ARC
  5
EE
100
AcDbEntity
  8
0
370
    -3
390
0
  6
Continuous
100
AcDbCircle
 10
176.976897
 20
-81.437649
 30
0.0
 40
5.0
100
AcDbArc
 50
270.0
 51
320.612186
  0
ARC
  5
EF
100
AcDbEntity
  8
0
370
    -3
390
0
  6
Continuous
100
AcDbCircle
 10
203.693099
 20
-48.898706
 30
0.0
 40
5.0
100
AcDbArc
 50
320.612186
 51
0.0
  0
LINE
  5
F0
100
AcDbEntity
  8
0
370
    -3
390
0
  6
Continuous
100
AcDbLine
 10
180.84124
 20
-84.61048
 30
0.0
 11
207.557442
 21
-52.071537
 31
0.0
  0
ARC
  5
F1
100
AcDbEntity
  8
0
370
    -3
390
0
  6
Continuous
100
AcDbCircle
 10
176.976897
 20
-89.165571
 30
0.0
 40
5.0
100
AcDbArc
 50
270.0
 51
320.612186
  0
ARC
  5
F2
100
AcDbEntity
  8
0
370
    -3
390
0
  6
Continuous
100
AcDbCircle
 10
203.693099
 20
-56.626628
 30
0.0
 40
5.0
100
AcDbArc
 50
320.612186
 51
0.0
  0
LINE
  5
F3
100
AcDbEntity
  8
0
370
    -3
390
0
  6
Continuous
100
AcDbLine
 10
180.84124
 20
-92.338402
 30
0.0
 11
207.557442
 21
-59.799459
 31
0.0
  0
LINE
  5
F4
100
AcDbEntity
  8
0
370
    -3
390
0
  6
Continuous
100
AcDbLine
 10
203.259864
 20
-94.165571
 30
0.0
 11
183.788966
 21
-94.165571
 31
0.0
  0
LINE
  5
F5
100
AcDbEntity
  8
0
370
    -3
390
0
  6
CENTER
100
AcDbLine
 10
236.009158
 20
-27.551005
 30
0.0
 11
205.419569
 21
-27.551005
 31
0.0
  0
LINE
  5
F6
100
AcDbEntity
  8
0
370
    -3
390
0
  6
Continuous
100
AcDbLine
 10
231.693099
 20
-16.650011
 30
0.0
 11
232.693099
 21
-17.650011
 31
0.0
  0
LINE
  5
F7
100
AcDbEntity
  8
0
370
    -3
390
0
  6
Continuous
100
AcDbLine
 10
231.693099
 20
-16.650011
 30
0.0
 11
228.693099
 21
-16.650011
 31
0.0
  0
LINE
  5
F8
100
AcDbEntity
  8
0
370
    -3
390
0
  6
Continuous
100
AcDbLine
 10
232.693099
 20
-186.65003
 30
0.0
 11
232.693099
 21
-17.650011
 31
0.0
  0
LINE
  5
F9
100
AcDbEntity
  8
0
370
    -3
390
0
  6
Continuous
100
AcDbLine
 10
180.72681
 20
-65.089044
 30
0.0
 11
208.023226
 21
-17.810265
 31
0.0
  0
LINE
  5
FA
100
AcDbEntity
  8
0
370
    -3
390
0
  6
Continuous
100
AcDbLine
 10
228.693099
 20
-186.65003
 30
0.0
 11
228.693099
 21
-1.650011
 31
0.0
  0
LINE
  5
FB
100
AcDbEntity
  8
0
370
    -3
390
0
  6
Continuous
100
AcDbLine
 10
228.693099
 20
-1.650011
 30
0.0
 11
210.693099
 21
-1.650011
 31
0.0
  0
ARC
  5
FC
100
AcDbEntity
  8
0
370
    -3
390
0
  6
Continuous
100
AcDbCircle
 10
176.396683
 20
-62.589044
 30
0.0
 40
5.0
100
AcDbArc
 50
272.0
 51
330.0
  0
ARC
  5
FD
100
AcDbEntity
  8
0
370
    -3
390
0
  6
Continuous
100
AcDbCircle
 10
203.693099
 20
-15.310265
 30
0.0
 40
5.0
100
AcDbArc
 50
330.0
 51
0.0
  0
ARC
  5
FE
100
AcDbEntity
  8
0
370
    -3
390
0
  6
Continuous
100
AcDbCircle
 10
210.693099
 20
-3.650011
 30
0.0
 40
2.0
100
AcDbArc
 50
90.0
 51
180.0
  0
LINE
  5
FF
100
AcDbEntity
  8
0
370
    -3
390
0
  6
Continuous
100
AcDbLine
 10
208.693099
 20
-369.65005
 30
0.0
 11
208.693099
 21
-3.650011
 31
0.0
  0
ARC
  5
100
100
AcDbEntity
  8
0
370
    -3
390
0
  6
Continuous
100
AcDbCircle
 10
223.693099
 20
-82.142836
 30
0.0
 40
2.0
100
AcDbArc
 50
90.0
 51
180.0
  0
LINE
  5
101
100
AcDbEntity
  8
0
370
    -3
390
0
  6
Continuous
100
AcDbLine
 10
221.693099
 20
-179.65003
 30
0.0
 11
221.693099
 21
-46.076437
 31
0.0
  0
ARC
  5
102
100
AcDbEntity
  8
0
370
    -3
390
0
  6
Continuous
100
AcDbCircle
 10
223.693099
 20
-46.076437
 30
0.0
 40
2.0
100
AcDbArc
 50
90.0
 51
180.0
  0
LINE
  5
103
100
AcDbEntity
  8
0
370
    -3
390
0
  6
Continuous
100
AcDbLine
 10
228.693099
 20
-44.076437
 30
0.0
 11
223.693099
 21
-44.076437
 31
0.0
  0
LINE
  5
104
100
AcDbEntity
  8
0
370
    -3
390
0
  6
Continuous
100
AcDbLine
 10
228.693099
 20
-80.142836
 30
0.0
 11
223.693099
 21
-80.142836
 31
0.0
  0
LINE
  5
105
100
AcDbEntity
  8
0
370
    -3
390
0
  6
Continuous
100
AcDbLine
 10
232.693099
 20
-186.65003
 30
0.0
 11
232.693099
 21
-355.65003
 31
0.0
  0
LINE
  5
106
100
AcDbEntity
  8
0
370
    -3
390
0
  6
Continuous
100
AcDbLine
 10
228.693099
 20
-186.65003
 30
0.0
 11
228.693099
 21
-371.65003
 31
0.0
  0
ARC
  5
107
100
AcDbEntity
  8
0
370
    -3
390
0
  6
Continuous
100
AcDbCircle
 10
223.693099
 20
-193.65003
 30
0.0
 40
2.0
100
AcDbArc
 50
90.0
 51
180.0
  0
LINE
  5
108
100
AcDbEntity
  8
0
370
    -3
390
0
  6
Continuous
100
AcDbLine
 10
221.693099
 20
-193.65003
 30
0.0
 11
221.693099
 21
-327.223624
 31
0.0
  0
LINE
  5
109
100
AcDbEntity
  8
0
370
    -3
390
0
  6
Continuous
100
AcDbLine
 10
228.693099
 20
-191.65003
 30
0.0
 11
223.693099
 21
-191.65003
 31
0.0
  0
ARC
  5
10A
100
AcDbEntity
  8
0
370
    -3
390
0
  6
Continuous
100
AcDbCircle
 10
223.693099
 20
-179.65003
 30
0.0
 40
2.0
100
AcDbArc
 50
180.0
 51
270.0
  0
LINE
  5
10B
100
AcDbEntity
  8
0
370
    -3
390
0
  6
Continuous
100
AcDbLine
 10
228.693099
 20
-181.65003
 30
0.0
 11
223.693099
 21
-181.65003
 31
0.0
  0
LINE
  5
10C
100
AcDbEntity
  8
0
370
    -3
390
0
  6
Continuous
100
AcDbLine
 10
317.893099
 20
-214.15003
 30
0.0
 11
254.693099
 21
-214.15003
 31
0.0
  0
LINE
  5
10D
100
AcDbEntity
  8
0
370
    -3
390
0
  6
Continuous
100
AcDbLine
 10
318.693099
 20
-186.65003
 30
0.0
 11
318.693099
 21
-213.35003
 31
0.0
  0
ARC
  5
10E
100
AcDbEntity
  8
0
370
    -3
390
0
  6
Continuous
100
AcDbCircle
 10
317.893099
 20
-213.35003
 30
0.0
 40
0.8
100
AcDbArc
 50
270.0
 51
0.0
  0
LINE
  5
10F
100
AcDbEntity
  8
0
370
    -3
390
0
  6
Continuous
100
AcDbLine
 10
246.693099
 20
-214.15003
 30
0.0
 11
239.252907
 21
-214.15003
 31
0.0
  0
LINE
  5
110
100
AcDbEntity
  8
0
370
    -3
390
0
  6
Continuous
100
AcDbLine
 10
254.693099
 20
-214.15003
 30
0.0
 11
246.693099
 21
-214.15003
 31
0.0
  0
LINE
  5
111
100
AcDbEntity
  8
0
370
    -3
390
0
  6
Continuous
100
AcDbLine
 10
236.693099
 20
-186.65003
 30
0.0
 11
236.693099
 21
-214.85003
 31
0.0
  0
LINE
  5
112
100
AcDbEntity
  8
0
370
    -3
390
0
  6
Continuous
100
AcDbLine
 10
235.893099
 20
-215.65003
 30
0.0
 11
232.693099
 21
-215.65003
 31
0.0
  0
LINE
  5
113
100
AcDbEntity
  8
0
370
    -3
390
0
  6
Continuous
100
AcDbLine
 10
236.693099
 20
-214.85003
 30
0.0
 11
236.693099
 21
-186.65003
 31
0.0
  0
LINE
  5
114
100
AcDbEntity
  8
0
370
    -3
390
0
  6
Continuous
100
AcDbLine
 10
238.693099
 20
-214.00003
 30
0.0
 11
237.493099
 21
-214.00003
 31
0.0
  0
LINE
  5
115
100
AcDbEntity
  8
0
370
    -3
390
0
  6
Continuous
100
AcDbLine
 10
238.693099
 20
-214.00003
 30
0.0
 11
239.252907
 21
-214.15003
 31
0.0
  0
ARC
  5
116
100
AcDbEntity
  8
0
370
    -3
390
0
  6
Continuous
100
AcDbCircle
 10
237.493099
 20
-214.80003
 30
0.0
 40
0.8
100
AcDbArc
 50
90.0
 51
180.0
  0
LINE
  5
117
100
AcDbEntity
  8
0
370
    -3
390
0
  6
Continuous
100
AcDbLine
 10
235.893099
 20
-215.65003
 30
0.0
 11
236.693099
 21
-214.85003
 31
0.0
  0
LINE
  5
118
100
AcDbEntity
  8
0
370
    -3
390
0
  6
Continuous
100
AcDbLine
 10
236.693099
 20
-186.65003
 30
0.0
 11
236.693099
 21
-158.45003
 31
0.0
  0
LINE
  5
119
100
AcDbEntity
  8
0
370
    -3
390
0
  6
Continuous
100
AcDbLine
 10
236.693099
 20
-158.45003
 30
0.0
 11
236.693099
 21
-186.65003
 31
0.0
  0
LINE
  5
11A
100
AcDbEntity
  8
0
370
    -3
390
0
  6
Continuous
100
AcDbLine
 10
317.893099
 20
-159.15003
 30
0.0
 11
239.252907
 21
-159.15003
 31
0.0
  0
LINE
  5
11B
100
AcDbEntity
  8
0
370
    -3
390
0
  6
Continuous
100
AcDbLine
 10
238.693099
 20
-159.30003
 30
0.0
 11
237.493099
 21
-159.30003
 31
0.0
  0
LINE
  5
11C
100
AcDbEntity
  8
0
370
    -3
390
0
  6
Continuous
100
AcDbLine
 10
238.693099
 20
-159.30003
 30
0.0
 11
239.252907
 21
-159.15003
 31
0.0
  0
ARC
  5
11D
100
AcDbEntity
  8
0
370
    -3
390
0
  6
Continuous
100
AcDbCircle
 10
237.493099
 20
-158.50003
 30
0.0
 40
0.8
100
AcDbArc
 50
180.0
 51
270.0
  0
LINE
  5
11E
100
AcDbEntity
  8
0
370
    -3
390
0
  6
Continuous
100
AcDbLine
 10
235.893099
 20
-157.65003
 30
0.0
 11
236.693099
 21
-158.45003
 31
0.0
  0
LINE
  5
11F
100
AcDbEntity
  8
0
370
    -3
390
0
  6
Continuous
100
AcDbLine
 10
235.893099
 20
-157.65003
 30
0.0
 11
232.693099
 21
-157.65003
 31
0.0
  0
LINE
  5
120
100
AcDbEntity
  8
0
370
    -3
390
0
  6
Continuous
100
AcDbLine
 10
318.693099
 20
-186.65003
 30
0.0
 11
318.693099
 21
-159.95003
 31
0.0
  0
ARC
  5
121
100
AcDbEntity
  8
0
370
    -3
390
0
  6
Continuous
100
AcDbCircle
 10
317.893099
 20
-159.95003
 30
0.0
 40
0.8
100
AcDbArc
 50
0.0
 51
90.0
  0
LINE
  5
122
100
AcDbEntity
  8
0
370
    -3
390
0
  6
Continuous
100
AcDbLine
 10
255.693099
 20
-178.65003
 30
0.0
 11
318.693099
 21
-178.65003
 31
0.0
  0
LINE
  5
123
100
AcDbEntity
  8
0
370
    -3
390
0
  6
Continuous
100
AcDbLine
 10
255.693099
 20
-194.65003
 30
0.0
 11
318.693099
 21
-194.65003
 31
0.0
  0
ARC
  5
124
100
AcDbEntity
  8
0
370
    -3
390
0
  6
Continuous
100
AcDbCircle
 10
255.693099
 20
-186.65003
 30
0.0
 40
8.0
100
AcDbArc
 50
90.0
 51
270.0
  0
LINE
  5
125
100
AcDbEntity
  8
0
370
    -3
390
0
  6
CENTER
100
AcDbLine
 10
324.880532
 20
-186.65003
 30
0.0
 11
156.531225
 21
-186.65003
 31
0.0
  0
LINE
  5
126
100
AcDbEntity
  8
0
370
    -3
390
0
  6
Continuous
100
AcDbLine
 10
60.193099
 20
-319.65003
 30
0.0
 11
203.867596
 21
-324.667254
 31
0.0
  0
ARC
  5
127
100
AcDbEntity
  8
0
370
    -3
390
0
  6
Continuous
100
AcDbCircle
 10
223.693099
 20
-291.157225
 30
0.0
 40
2.0
100
AcDbArc
 50
180.0
 51
270.0
  0
LINE
  5
128
100
AcDbEntity
  8
0
370
    -3
390
0
  6
Continuous
100
AcDbLine
 10
228.693099
 20
-293.157225
 30
0.0
 11
223.693099
 21
-293.157225
 31
0.0
  0
ARC
  5
129
100
AcDbEntity
  8
0
370
    -3
390
0
  6
Continuous
100
AcDbCircle
 10
44.693099
 20
-220.65003
 30
0.0
 40
3.0
100
AcDbArc
 50
270.0
 51
0.0
  0
LINE
  5
12A
100
AcDbEntity
  8
0
370
    -3
390
0
  6
Continuous
100
AcDbLine
 10
41.693099
 20
-246.65003
 30
0.0
 11
41.693099
 21
-226.65003
 31
0.0
  0
ARC
  5
12B
100
AcDbEntity
  8
0
370
    -3
390
0
  6
Continuous
100
AcDbCircle
 10
44.693099
 20
-226.65003
 30
0.0
 40
3.0
100
AcDbArc
 50
90.0
 51
180.0
  0
INSERT
  5
138
100
AcDbEntity
  8
0
390
0
100
AcDbBlockReference
  2
ZU_SYM__USERS_HOME_SYMBOL_POO_SYM_B20_0000119
 10
47.693099
 20
-167.029041
 30
0.0
  0
LINE
  5
139
100
AcDbEntity
  8
0
370
    -3
390
0
  6
CENTER
100
AcDbLine
 10
98.788946
 20
-294.65003
 30
0.0
 11
62.857103
 21
-294.65003
 31
0.0
  0
LINE
  5
13A
100
AcDbEntity
  8
0
370
    -3
390
0
  6
CENTER
100
AcDbLine
 10
80.193099
 20
-276.825739
 30
0.0
 11
80.193099
 21
-314.546719
 31
0.0
  0
CIRCLE
  5
13B
100
AcDbEntity
  8
0
370
    -3
390
0
  6
Continuous
100
AcDbCircle
 10
80.193099
 20
-294.65003
 30
0.0
 40
15.0
  0
ARC
  5
13C
100
AcDbEntity
  8
0
370
    -3
390
0
  6
Continuous
100
AcDbCircle
 10
44.693099
 20
-252.65003
 30
0.0
 40
3.0
100
AcDbArc
 50
0.0
 51
90.0
  0
ARC
  5
13D
100
AcDbEntity
  8
0
370
    -3
390
0
  6
Continuous
100
AcDbCircle
 10
44.693099
 20
-246.65003
 30
0.0
 40
3.0
100
AcDbArc
 50
180.0
 51
270.0
  0
LINE
  5
13E
100
AcDbEntity
  8
0
370
    -3
390
0
  6
Continuous
100
AcDbLine
 10
59.693099
 20
-236.65003
 30
0.0
 11
59.693099
 21
-378.65003
 31
0.0
  0
INSERT
  5
14B
100
AcDbEntity
  8
0
390
0
100
AcDbBlockReference
  2
ZU_SYM__USERS_HOME_SYMBOL_POO_SYM_B20_0000219
 10
47.693099
 20
-266.65003
 30
0.0
  0
LINE
  5
14C
100
AcDbEntity
  8
0
370
    -3
390
0
  6
Continuous
100
AcDbLine
 10
210.693099
 20
-383.65003
 30
0.0
 11
60.193099
 21
-378.65003
 31
0.0
  0
LINE
  5
14D
100
AcDbEntity
  8
0
370
    -3
390
0
  6
Continuous
100
AcDbLine
 10
50.693099
 20
-378.65003
 30
0.0
 11
60.193099
 21
-378.65003
 31
0.0
  0
ARC
  5
14E
100
AcDbEntity
  8
0
370
    -3
390
0
  6
Continuous
100
AcDbCircle
 10
50.693099
 20
-375.65003
 30
0.0
 40
3.0
100
AcDbArc
 50
180.0
 51
270.0
  0
INSERT
  5
15B
100
AcDbEntity
  8
0
390
0
100
AcDbBlockReference
  2
ZU_SYM__USERS_HOME_SYMBOL_POO_SYM_B20_0000319
 10
47.693099
 20
-367.65003
 30
0.0
  0
LINE
  5
15C
100
AcDbEntity
  8
0
370
    -3
390
0
  6
Continuous
100
AcDbLine
 10
-0.597966
 20
-369.844408
 30
0.0
 11
37.693099
 21
-371.851157
 31
0.0
  0
LINE
  5
15D
100
AcDbEntity
  8
0
370
    -3
390
0
  6
CENTER
100
AcDbLine
 10
235.461804
 20
-345.749056
 30
0.0
 11
203.913953
 21
-345.749056
 31
0.0
  0
LINE
  5
15E
100
AcDbEntity
  8
0
370
    -3
390
0
  6
CENTER
100
AcDbLine
 10
191.193099
 20
-374.606624
 30
0.0
 11
191.193099
 21
-393.923349
 31
0.0
  0
LINE
  5
15F
100
AcDbEntity
  8
0
370
    -3
390
0
  6
Continuous
100
AcDbLine
 10
231.693099
 20
-356.65003
 30
0.0
 11
232.693099
 21
-355.65003
 31
0.0
  0
LINE
  5
160
100
AcDbEntity
  8
0
370
    -3
390
0
  6
Continuous
100
AcDbLine
 10
228.693099
 20
-356.65003
 30
0.0
 11
231.693099
 21
-356.65003
 31
0.0
  0
LINE
  5
161
100
AcDbEntity
  8
0
370
    -3
390
0
  6
Continuous
100
AcDbLine
 10
214.693099
 20
-375.65003
 30
0.0
 11
214.693099
 21
-379.65003
 31
0.0
  0
LINE
  5
162
100
AcDbEntity
  8
0
370
    -3
390
0
  6
Continuous
100
AcDbLine
 10
210.68422
 20
-371.65003
 30
0.0
 11
228.693099
 21
-371.65003
 31
0.0
  0
ARC
  5
163
100
AcDbEntity
  8
0
370
    -3
390
0
  6
Continuous
100
AcDbCircle
 10
218.693099
 20
-375.65003
 30
0.0
 40
4.0
100
AcDbArc
 50
90.0
 51
180.0
  0
ARC
  5
164
100
AcDbEntity
  8
0
370
    -3
390
0
  6
Continuous
100
AcDbCircle
 10
210.693099
 20
-379.65003
 30
0.0
 40
4.0
100
AcDbArc
 50
270.0
 51
0.0
  0
ARC
  5
165
100
AcDbEntity
  8
0
370
    -3
390
0
  6
Continuous
100
AcDbCircle
 10
207.945239
 20
-372.556792
 30
0.0
 40
2.0
100
AcDbArc
 50
46.609654
 51
87.0
  0
LINE
  5
166
100
AcDbEntity
  8
0
370
    -3
390
0
  6
Continuous
100
AcDbLine
 10
167.193099
 20
-338.231831
 30
0.0
 11
203.693099
 21
-338.231831
 31
0.0
  0
LINE
  5
167
100
AcDbEntity
  8
0
370
    -3
390
0
  6
Continuous
100
AcDbLine
 10
172.193099
 20
-350.65003
 30
0.0
 11
172.193099
 21
-343.231831
 31
0.0
  0
LINE
  5
168
100
AcDbEntity
  8
0
370
    -3
390
0
  6
Continuous
100
AcDbLine
 10
190.198716
 20
-369.623992
 30
0.0
 11
208.049911
 21
-370.559533
 31
0.0
  0
ARC
  5
169
100
AcDbEntity
  8
0
370
    -3
390
0
  6
Continuous
100
AcDbCircle
 10
167.193099
 20
-343.231831
 30
0.0
 40
5.0
100
AcDbArc
 50
0.0
 51
90.0
  0
ARC
  5
16A
100
AcDbEntity
  8
0
370
    -3
390
0
  6
Continuous
100
AcDbCircle
 10
191.193099
 20
-350.65003
 30
0.0
 40
19.0
100
AcDbArc
 50
180.0
 51
267.0
  0
ARC
  5
16B
100
AcDbEntity
  8
0
370
    -3
390
0
  6
Continuous
100
AcDbCircle
 10
203.693099
 20
-333.231831
 30
0.0
 40
5.0
100
AcDbArc
 50
270.0
 51
0.0
  0
ARC
  5
16C
100
AcDbEntity
  8
0
370
    -3
390
0
  6
Continuous
100
AcDbCircle
 10
210.693099
 20
-369.65005
 30
0.0
 40
2.0
100
AcDbArc
 50
180.0
 51
270.0
  0
ARC
  5
16D
100
AcDbEntity
  8
0
370
    -3
390
0
  6
Continuous
100
AcDbCircle
 10
203.693099
 20
-329.664209
 30
0.0
 40
5.0
100
AcDbArc
 50
0.0
 51
88.0
  0
ARC
  5
16E
100
AcDbEntity
  8
0
370
    -3
390
0
  6
Continuous
100
AcDbCircle
 10
223.693099
 20
-327.223624
 30
0.0
 40
2.0
100
AcDbArc
 50
180.0
 51
270.0
  0
LINE
  5
16F
100
AcDbEntity
  8
0
370
    -3
390
0
  6
Continuous
100
AcDbLine
 10
228.693099
 20
-329.223624
 30
0.0
 11
223.693099
 21
-329.223624
 31
0.0
  0
ARC
  5
170
100
AcDbEntity
  8
0
370
    -3
390
0
  6
Continuous
100
AcDbCircle
 10
-2.306901
 20
-367.752101
 30
0.0
 40
2.0
100
AcDbArc
 50
180.0
 51
267.0
  0
LINE
  5
171
100
AcDbEntity
  8
0
370
    -3
390
0
  6
Continuous
100
AcDbLine
 10
-2.411573
 20
-369.74936
 30
0.0
 11
-0.597966
 21
-369.844408
 31
0.0
  0
LINE
  5
172
100
AcDbEntity
  8
0
370
    -3
390
0
  6
Continuous
100
AcDbLine
 10
72.193099
 20
-63.213634
 30
0.0
 11
72.193099
 21
-62.213634
 31
0.0
  0
LINE
  5
173
100
AcDbEntity
  8
0
370
    -3
390
0
  6
Continuous
100
AcDbLine
 10
98.193099
 20
-63.213634
 30
0.0
 11
98.193099
 21
-62.213634
 31
0.0
  0
ARC
  5
174
100
AcDbEntity
  8
0
370
    -3
390
0
  6
Continuous
100
AcDbCircle
 10
359.586128
 20
-218.300933
 30
0.0
 40
4.8
100
AcDbArc
 50
113.260322
 51
178.668513
  0
ARC
  5
175
100
AcDbEntity
  8
0
370
    -3
390
0
  6
Continuous
100
AcDbCircle
 10
476.4793
 20
-490.242078
 30
0.0
 40
300.8
100
AcDbArc
 50
112.29212
 51
113.260322
  0
ARC
  5
176
100
AcDbEntity
  8
0
370
    -3
390
0
  6
Continuous
100
AcDbCircle
 10
955.425202
 20
-232.15003
 30
0.0
 40
600.8
100
AcDbArc
 50
178.668513
 51
185.829691
  0
LINE
  5
177
100
AcDbEntity
  8
0
370
    -3
390
0
  6
CENTER
100
AcDbLine
 10
364.816803
 20
-298.132696
 30
0.0
 11
354.260053
 21
-293.210002
 31
0.0
  0
ARC
  5
178
100
AcDbEntity
  8
0
370
    -3
390
0
  6
Continuous
100
AcDbCircle
 10
357.141051
 20
-292.126001
 30
0.0
 40
1.299999
100
AcDbArc
 50
73.864553
 51
138.398452
  0
LINE
  5
179
100
AcDbEntity
  8
0
370
    -3
390
0
  6
Continuous
100
AcDbLine
 10
355.614294
 20
-300.792776
 30
0.0
 11
357.880063
 21
-301.849321
 31
0.0
  0
ARC
  5
17A
100
AcDbEntity
  8
0
370
    -3
390
0
  6
Continuous
100
AcDbCircle
 10
356.163697
 20
-299.614576
 30
0.0
 40
1.3
100
AcDbArc
 50
155.0
 51
245.0
  0
LINE
  5
17B
100
AcDbEntity
  8
0
370
    -3
390
0
  6
Continuous
100
AcDbLine
 10
362.377166
 20
-292.205253
 30
0.0
 11
357.880063
 21
-301.849321
 31
0.0
  0
ARC
  5
17C
100
AcDbEntity
  8
0
370
    -3
390
0
  6
Continuous
100
AcDbCircle
 10
355.28153
 20
-296.113757
 30
0.0
 40
1.299999
100
AcDbArc
 50
171.601531
 51
245.000001
  0
LINE
  5
17D
100
AcDbEntity
  8
0
370
    -3
390
0
  6
Continuous
100
AcDbLine
 10
355.619425
 20
-297.70571
 30
0.0
 11
354.732126
 21
-297.291956
 31
0.0
  0
ARC
  5
17E
100
AcDbEntity
  8
0
370
    -3
390
0
  6
Continuous
100
AcDbCircle
 10
362.898958
 20
-297.23839
 30
0.0
 40
9.0
100
AcDbArc
 50
138.398452
 51
171.601531
  0
LINE
  5
17F
100
AcDbEntity
  8
0
370
    -3
390
0
  6
Continuous
100
AcDbLine
 10
362.377166
 20
-283.213687
 30
0.0
 11
354.985497
 21
-299.065172
 31
0.0
  0
LINE
  5
180
100
AcDbEntity
  8
0
370
    -3
390
0
  6
CENTER
100
AcDbLine
 10
379.377166
 20
-281.932123
 30
0.0
 11
379.377166
 21
-294.967508
 31
0.0
  0
LINE
  5
181
100
AcDbEntity
  8
0
370
    -3
390
0
  6
DASHED
100
AcDbLine
 10
363.102378
 20
-290.65003
 30
0.0
 11
398.577166
 21
-290.65003
 31
0.0
  0
ARC
  5
182
100
AcDbEntity
  8
0
370
    -3
390
0
  6
DASHED
100
AcDbCircle
 10
398.577166
 20
-283.85003
 30
0.0
 40
6.8
100
AcDbArc
 50
270.0
 51
0.0
  0
LINE
  5
183
100
AcDbEntity
  8
0
370
    -3
390
0
  6
DASHED
100
AcDbLine
 10
406.312116
 20
-197.986449
 30
0.0
 11
362.377166
 21
-292.205253
 31
0.0
  0
LINE
  5
184
100
AcDbEntity
  8
0
370
    -3
390
0
  6
DASHED
100
AcDbLine
 10
402.318743
 20
-197.5587
 30
0.0
 11
362.377166
 21
-283.213687
 31
0.0
  0
ARC
  5
185
100
AcDbEntity
  8
0
370
    -3
390
0
  6
DASHED
100
AcDbCircle
 10
476.4793
 20
-490.242078
 30
0.0
 40
300.8
100
AcDbArc
 50
104.484557
 51
112.29212
  0
LINE
  5
186
100
AcDbEntity
  8
0
370
    -3
390
0
  6
DASHED
100
AcDbLine
 10
404.046346
 20
-196.929903
 30
0.0
 11
406.312116
 21
-197.986449
 31
0.0
  0
ARC
  5
187
100
AcDbEntity
  8
0
370
    -3
390
0
  6
DASHED
100
AcDbCircle
 10
403.496943
 20
-198.108103
 30
0.0
 40
1.3
100
AcDbArc
 50
65.0
 51
155.0
  0
LINE
  5
188
100
AcDbEntity
  8
0
370
    -3
390
0
  6
DASHED
100
AcDbLine
 10
405.360835
 20
-200.409519
 30
0.0
 11
405.174623
 21
-200.425811
 31
0.0
  0
LINE
  5
189
100
AcDbEntity
  8
0
370
    -3
390
0
  6
DASHED
100
AcDbLine
 10
405.332617
 20
-200.086991
 30
0.0
 11
405.360835
 21
-200.409519
 31
0.0
  0
ARC
  5
18A
100
AcDbEntity
  8
0
370
    -3
390
0
  6
DASHED
100
AcDbCircle
 10
402.577166
 20
-203.527108
 30
0.0
 40
2.8
100
AcDbArc
 50
0.0
 51
43.120625
  0
ARC
  5
18B
100
AcDbEntity
  8
0
370
    -3
390
0
  6
DASHED
100
AcDbCircle
 10
400.993373
 20
-198.034763
 30
0.0
 40
1.0
100
AcDbArc
 50
284.484557
 51
335.0
  0
LINE
  5
18C
100
AcDbEntity
  8
0
370
    -3
390
0
  6
DASHED
100
AcDbLine
 10
405.377166
 20
-203.527108
 30
0.0
 11
405.377166
 21
-283.85003
 31
0.0
  0
ARC
  5
18D
100
AcDbEntity
  8
0
370
    -3
390
0
  6
Continuous
100
AcDbCircle
 10
513.008286
 20
-294.296582
 30
0.0
 40
61.0
100
AcDbArc
 50
121.018602
 51
181.557316
  0
LINE
  5
18E
100
AcDbEntity
  8
0
370
    -3
390
0
  6
CENTER
100
AcDbLine
 10
738.693099
 20
-186.65003
 30
0.0
 11
351.75667
 21
-186.65003
 31
0.0
  0
LINE
  5
18F
100
AcDbEntity
  8
0
370
    -3
390
0
  6
Continuous
100
AcDbLine
 10
402.061067
 20
-196.65003
 30
0.0
 11
402.061067
 21
-256.842797
 31
0.0
  0
LINE
  5
190
100
AcDbEntity
  8
0
370
    -3
390
0
  6
Continuous
100
AcDbLine
 10
364.377166
 20
-191.65003
 30
0.0
 11
369.557032
 21
-191.65003
 31
0.0
  0
LINE
  5
191
100
AcDbEntity
  8
0
370
    -3
390
0
  6
Continuous
100
AcDbLine
 10
362.377166
 20
-21.65003
 30
0.0
 11
362.377166
 21
-351.65003
 31
0.0
  0
LINE
  5
192
100
AcDbEntity
  8
0
370
    -3
390
0
  6
Continuous
100
AcDbLine
 10
390.63534
 20
-182.65003
 30
0.0
 11
467.885028
 21
-182.65003
 31
0.0
  0
LINE
  5
193
100
AcDbEntity
  8
0
370
    -3
390
0
  6
Continuous
100
AcDbLine
 10
390.63534
 20
-190.65003
 30
0.0
 11
467.885028
 21
-190.65003
 31
0.0
  0
LINE
  5
194
100
AcDbEntity
  8
0
370
    -3
390
0
  6
Continuous
100
AcDbLine
 10
363.841632
 20
-327.759157
 30
0.0
 11
398.443565
 21
-293.157225
 31
0.0
  0
ARC
  5
195
100
AcDbEntity
  8
0
370
    -3
390
0
  6
Continuous
100
AcDbCircle
 10
408.061067
 20
-256.842797
 30
0.0
 40
6.0
100
AcDbArc
 50
180.0
 51
206.740709
  0
ARC
  5
196
100
AcDbEntity
  8
0
370
    -3
390
0
  6
Continuous
100
AcDbCircle
 10
364.377166
 20
-189.65003
 30
0.0
 40
2.0
100
AcDbArc
 50
180.0
 51
270.0
  0
ARC
  5
197
100
AcDbEntity
  8
0
370
    -3
390
0
  6
Continuous
100
AcDbCircle
 10
369.557032
 20
-194.65003
 30
0.0
 40
3.0
100
AcDbArc
 50
2.575959
 51
90.0
  0
ARC
  5
198
100
AcDbEntity
  8
0
370
    -3
390
0
  6
Continuous
100
AcDbCircle
 10
364.377166
 20
-183.65003
 30
0.0
 40
2.0
100
AcDbArc
 50
90.0
 51
180.0
  0
ARC
  5
199
100
AcDbEntity
  8
0
370
    -3
390
0
  6
Continuous
100
AcDbCircle
 10
409.044954
 20
-176.65003
 30
0.0
 40
6.0
100
AcDbArc
 50
171.841595
 51
270.0
  0
ARC
  5
19A
100
AcDbEntity
  8
0
370
    -3
390
0
  6
Continuous
100
AcDbCircle
 10
408.061067
 20
-196.65003
 30
0.0
 40
6.0
100
AcDbArc
 50
90.0
 51
180.0
  0
ARC
  5
19B
100
AcDbEntity
  8
0
370
    -3
390
0
  6
CENTER
100
AcDbCircle
 10
547.377166
 20
-186.65003
 30
0.0
 40
225.0
100
AcDbArc
 50
218.488349
 51
231.215716
  0
CIRCLE
  5
19C
100
AcDbEntity
  8
0
370
    -3
390
0
  6
Continuous
100
AcDbCircle
 10
547.377166
 20
-186.65003
 30
0.0
 40
170.0
  0
CIRCLE
  5
19D
100
AcDbEntity
  8
0
370
    -3
390
0
  6
Continuous
100
AcDbCircle
 10
547.377166
 20
-186.65003
 30
0.0
 40
162.0
  0
ARC
  5
19E
100
AcDbEntity
  8
0
370
    -3
390
0
  6
Continuous
100
AcDbCircle
 10
547.377166
 20
-186.65003
 30
0.0
 40
175.0
100
AcDbArc
 50
182.575959
 51
212.51311
  0
ARC
  5
19F
100
AcDbEntity
  8
0
370
    -3
390
0
  6
Continuous
100
AcDbCircle
 10
391.372497
 20
-286.086157
 30
0.0
 40
10.0
100
AcDbArc
 50
315.0
 51
32.51311
  0
ARC
  5
1A0
100
AcDbEntity
  8
0
370
    -3
390
0
  6
Continuous
100
AcDbCircle
 10
442.034511
 20
-296.226145
 30
0.0
 40
10.0
100
AcDbArc
 50
226.128463
 51
1.557316
  0
ARC
  5
1A1
100
AcDbEntity
  8
0
370
    -3
390
0
  6
Continuous
100
AcDbCircle
 10
390.63534
 20
-195.65003
 30
0.0
 40
5.0
100
AcDbArc
 50
90.0
 51
183.286273
  0
ARC
  5
1A2
100
AcDbEntity
  8
0
370
    -3
390
0
  6
Continuous
100
AcDbCircle
 10
390.63534
 20
-177.65003
 30
0.0
 40
5.0
100
AcDbArc
 50
176.713727
 51
270.0
  0
POINT
  5
1A3
100
AcDbEntity
  8
0
370
    -3
390
0
  6
Continuous
100
AcDbPoint
 10
357.098589
 20
-294.533633
 30
0.0
  0
ARC
  5
1A4
100
AcDbEntity
  8
0
370
    -3
390
0
  6
CENTER
100
AcDbCircle
 10
547.377166
 20
-186.65003
 30
0.0
 40
225.0
100
AcDbArc
 50
128.728213
 51
140.944594
  0
LINE
  5
1A5
100
AcDbEntity
  8
0
370
    -3
390
0
  6
CENTER
100
AcDbLine
 10
372.98576
 20
-12.258625
 30
0.0
 11
405.610322
 21
-44.883186
 31
0.0
  0
ARC
  5
1A6
100
AcDbEntity
  8
0
370
    -3
390
0
  6
Continuous
100
AcDbCircle
 10
447.94104
 20
-30.645361
 30
0.0
 40
10.0
100
AcDbArc
 50
225.0
 51
302.51311
  0
ARC
  5
1A7
100
AcDbEntity
  8
0
370
    -3
390
0
  6
Continuous
100
AcDbCircle
 10
547.377166
 20
-186.65003
 30
0.0
 40
175.0
100
AcDbArc
 50
90.0
 51
122.51311
  0
ARC
  5
1A8
100
AcDbEntity
  8
0
370
    -3
390
0
  6
Continuous
100
AcDbCircle
 10
391.372497
 20
-87.213904
 30
0.0
 40
10.0
100
AcDbArc
 50
327.48689
 51
45.0
  0
ARC
  5
1A9
100
AcDbEntity
  8
0
370
    -3
390
0
  6
Continuous
100
AcDbCircle
 10
547.377166
 20
-186.65003
 30
0.0
 40
175.0
100
AcDbArc
 50
147.48689
 51
177.424041
  0
ARC
  5
1AA
100
AcDbEntity
  8
0
370
    -3
390
0
  6
Continuous
100
AcDbCircle
 10
513.008286
 20
-294.296582
 30
0.0
 40
53.0
100
AcDbArc
 50
120.36921
 51
188.851634
  0
ARC
  5
1AB
100
AcDbEntity
  8
0
370
    -3
390
0
  6
Continuous
100
AcDbCircle
 10
450.758609
 20
-303.990792
 30
0.0
 40
10.0
100
AcDbArc
 50
230.531908
 51
8.851634
  0
ARC
  5
1AC
100
AcDbEntity
  8
0
370
    -3
390
0
  6
Continuous
100
AcDbCircle
 10
402.732505
 20
-6.65003
 30
0.0
 40
5.0
100
AcDbArc
 50
45.0
 51
90.0
  0
ARC
  5
1AD
100
AcDbEntity
  8
0
370
    -3
390
0
  6
Continuous
100
AcDbCircle
 10
367.377166
 20
-42.005369
 30
0.0
 40
5.0
100
AcDbArc
 50
180.0
 51
225.0
  0
CIRCLE
  5
1AE
100
AcDbEntity
  8
0
370
    -3
390
0
  6
Continuous
100
AcDbCircle
 10
388.27814
 20
-27.551005
 30
0.0
 40
12.0
  0
ARC
  5
1AF
100
AcDbEntity
  8
0
370
    -3
390
0
  6
Continuous
100
AcDbCircle
 10
382.377166
 20
-21.65003
 30
0.0
 40
20.0
100
AcDbArc
 50
90.0
 51
180.0
  0
ARC
  5
1B0
100
AcDbEntity
  8
0
370
    -3
390
0
  6
Continuous
100
AcDbCircle
 10
369.557032
 20
-178.65003
 30
0.0
 40
3.0
100
AcDbArc
 50
270.0
 51
357.424041
  0
ARC
  5
1B1
100
AcDbEntity
  8
0
370
    -3
390
0
  6
Continuous
100
AcDbCircle
 10
519.377166
 20
-192.467393
 30
0.0
 40
117.460244
100
AcDbArc
 50
93.344152
 51
171.841595
  0
LINE
  5
1B2
100
AcDbEntity
  8
0
370
    -3
390
0
  6
Continuous
100
AcDbLine
 10
406.268039
 20
-3.114497
 30
0.0
 11
440.869972
 21
-37.716429
 31
0.0
  0
LINE
  5
1B3
100
AcDbEntity
  8
0
370
    -3
390
0
  6
Continuous
100
AcDbLine
 10
363.841632
 20
-45.540903
 30
0.0
 11
398.443565
 21
-80.142836
 31
0.0
  0
LINE
  5
1B4
100
AcDbEntity
  8
0
370
    -3
390
0
  6
Continuous
100
AcDbLine
 10
382.377166
 20
-1.65003
 30
0.0
 11
712.377166
 21
-1.65003
 31
0.0
  0
LINE
  5
1B5
100
AcDbEntity
  8
0
370
    -3
390
0
  6
Continuous
100
AcDbLine
 10
364.377166
 20
-181.65003
 30
0.0
 11
369.557032
 21
-181.65003
 31
0.0
  0
LINE
  5
1B6
100
AcDbEntity
  8
0
370
    -3
390
0
  6
Continuous
100
AcDbLine
 10
406.268039
 20
-370.185564
 30
0.0
 11
440.869972
 21
-335.583632
 31
0.0
  0
LINE
  5
1B7
100
AcDbEntity
  8
0
370
    -3
390
0
  6
Continuous
100
AcDbLine
 10
547.377166
 20
-371.65003
 30
0.0
 11
382.377166
 21
-371.65003
 31
0.0
  0
ARC
  5
1B8
100
AcDbEntity
  8
0
370
    -3
390
0
  6
Continuous
100
AcDbCircle
 10
382.377166
 20
-351.65003
 30
0.0
 40
20.0
100
AcDbArc
 50
180.0
 51
270.0
  0
CIRCLE
  5
1B9
100
AcDbEntity
  8
0
370
    -3
390
0
  6
Continuous
100
AcDbCircle
 10
388.27814
 20
-345.749056
 30
0.0
 40
12.0
  0
ARC
  5
1BA
100
AcDbEntity
  8
0
370
    -3
390
0
  6
Continuous
100
AcDbCircle
 10
402.732505
 20
-366.65003
 30
0.0
 40
5.0
100
AcDbArc
 50
270.0
 51
315.0
  0
ARC
  5
1BB
100
AcDbEntity
  8
0
370
    -3
390
0
  6
Continuous
100
AcDbCircle
 10
447.94104
 20
-342.654699
 30
0.0
 40
10.0
100
AcDbArc
 50
57.48689
 51
135.0
  0
ARC
  5
1BC
100
AcDbEntity
  8
0
370
    -3
390
0
  6
Continuous
100
AcDbCircle
 10
367.377166
 20
-331.294691
 30
0.0
 40
5.0
100
AcDbArc
 50
135.0
 51
180.0
  0
LINE
  5
1BD
100
AcDbEntity
  8
0
370
    -3
390
0
  6
CENTER
100
AcDbLine
 10
372.98576
 20
-361.041436
 30
0.0
 11
405.610322
 21
-328.416875
 31
0.0
  0
ARC
  5
1BE
100
AcDbEntity
  8
0
370
    -3
390
0
  6
Continuous
100
AcDbCircle
 10
547.377166
 20
-186.65003
 30
0.0
 40
175.0
100
AcDbArc
 50
237.48689
 51
270.0
  0
ARC
  5
1BF
100
AcDbEntity
  8
0
370
    -3
390
0
  6
Continuous
100
AcDbCircle
 10
451.915131
 20
-377.65003
 30
0.0
 40
6.0
100
AcDbArc
 50
26.539105
 51
90.0
  0
ARC
  5
1C0
100
AcDbEntity
  8
0
370
    -3
390
0
  6
CENTER
100
AcDbCircle
 10
547.377166
 20
-186.65003
 30
0.0
 40
225.0
100
AcDbArc
 50
308.728213
 51
320.944594
  0
LINE
  5
1C1
100
AcDbEntity
  8
0
370
    -3
390
0
  6
CENTER
100
AcDbLine
 10
721.768572
 20
-361.041436
 30
0.0
 11
689.14401
 21
-328.416875
 31
0.0
  0
LINE
  5
1C2
100
AcDbEntity
  8
0
370
    -3
390
0
  6
CENTER
100
AcDbLine
 10
721.768572
 20
-12.258625
 30
0.0
 11
689.14401
 21
-44.883186
 31
0.0
  0
LINE
  5
1C3
100
AcDbEntity
  8
0
370
    -3
390
0
  6
Continuous
100
AcDbLine
 10
547.377166
 20
-383.65003
 30
0.0
 11
627.646357
 21
-383.65003
 31
0.0
  0
LINE
  5
1C4
100
AcDbEntity
  8
0
370
    -3
390
0
  6
Continuous
100
AcDbLine
 10
547.377166
 20
-383.65003
 30
0.0
 11
467.107975
 21
-383.65003
 31
0.0
  0
ARC
  5
1C5
100
AcDbEntity
  8
0
370
    -3
390
0
  6
Continuous
100
AcDbCircle
 10
626.869304
 20
-177.65003
 30
0.0
 40
5.0
100
AcDbArc
 50
186.45945
 51
270.0
  0
ARC
  5
1C6
100
AcDbEntity
  8
0
370
    -3
390
0
  6
Continuous
100
AcDbCircle
 10
626.869304
 20
-195.65003
 30
0.0
 40
5.0
100
AcDbArc
 50
90.0
 51
173.54055
  0
ARC
  5
1C7
100
AcDbEntity
  8
0
370
    -3
390
0
  6
Continuous
100
AcDbCircle
 10
704.118992
 20
-195.65003
 30
0.0
 40
5.0
100
AcDbArc
 50
356.713727
 51
90.0
  0
ARC
  5
1C8
100
AcDbEntity
  8
0
370
    -3
390
0
  6
Continuous
100
AcDbCircle
 10
704.118992
 20
-177.65003
 30
0.0
 40
5.0
100
AcDbArc
 50
270.0
 51
3.286273
  0
ARC
  5
1C9
100
AcDbEntity
  8
0
370
    -3
390
0
  6
Continuous
100
AcDbCircle
 10
538.377166
 20
-107.157892
 30
0.0
 40
5.0
100
AcDbArc
 50
276.45945
 51
0.0
  0
ARC
  5
1CA
100
AcDbEntity
  8
0
370
    -3
390
0
  6
Continuous
100
AcDbCircle
 10
556.377166
 20
-107.157892
 30
0.0
 40
5.0
100
AcDbArc
 50
180.0
 51
263.54055
  0
ARC
  5
1CB
100
AcDbEntity
  8
0
370
    -3
390
0
  6
Continuous
100
AcDbCircle
 10
556.377166
 20
-29.908204
 30
0.0
 40
5.0
100
AcDbArc
 50
86.713727
 51
180.0
  0
ARC
  5
1CC
100
AcDbEntity
  8
0
370
    -3
390
0
  6
Continuous
100
AcDbCircle
 10
538.377166
 20
-29.908204
 30
0.0
 40
5.0
100
AcDbArc
 50
0.0
 51
93.286273
  0
ARC
  5
1CD
100
AcDbEntity
  8
0
370
    -3
390
0
  6
Continuous
100
AcDbCircle
 10
467.885028
 20
-195.65003
 30
0.0
 40
5.0
100
AcDbArc
 50
6.45945
 51
90.0
  0
ARC
  5
1CE
100
AcDbEntity
  8
0
370
    -3
390
0
  6
Continuous
100
AcDbCircle
 10
467.885028
 20
-177.65003
 30
0.0
 40
5.0
100
AcDbArc
 50
270.0
 51
353.54055
  0
ARC
  5
1CF
100
AcDbEntity
  8
0
370
    -3
390
0
  6
Continuous
100
AcDbCircle
 10
476.420826
 20
-233.449579
 30
0.0
 40
10.0
100
AcDbArc
 50
301.018602
 51
33.407013
  0
ARC
  5
1D0
100
AcDbEntity
  8
0
370
    -3
390
0
  6
Continuous
100
AcDbCircle
 10
623.713596
 20
-224.036519
 30
0.0
 40
10.0
100
AcDbArc
 50
153.906261
 51
249.984266
  0
ARC
  5
1D1
100
AcDbEntity
  8
0
370
    -3
390
0
  6
Continuous
100
AcDbCircle
 10
666.894713
 20
-280.562521
 30
0.0
 40
10.0
100
AcDbArc
 50
184.769311
 51
321.84104
  0
ARC
  5
1D2
100
AcDbEntity
  8
0
370
    -3
390
0
  6
Continuous
100
AcDbCircle
 10
601.123236
 20
-286.05003
 30
0.0
 40
56.0
100
AcDbArc
 50
4.769311
 51
69.984266
  0
ARC
  5
1D3
100
AcDbEntity
  8
0
370
    -3
390
0
  6
Continuous
100
AcDbCircle
 10
547.377166
 20
-186.65003
 30
0.0
 40
175.0
100
AcDbArc
 50
57.48689
 51
90.0
  0
ARC
  5
1D4
100
AcDbEntity
  8
0
370
    -3
390
0
  6
Continuous
100
AcDbCircle
 10
646.813293
 20
-30.645361
 30
0.0
 40
10.0
100
AcDbArc
 50
237.48689
 51
315.0
  0
ARC
  5
1D5
100
AcDbEntity
  8
0
370
    -3
390
0
  6
Continuous
100
AcDbCircle
 10
727.377166
 20
-331.294691
 30
0.0
 40
5.0
100
AcDbArc
 50
0.0
 51
45.0
  0
ARC
  5
1D6
100
AcDbEntity
  8
0
370
    -3
390
0
  6
Continuous
100
AcDbCircle
 10
646.813293
 20
-342.654699
 30
0.0
 40
10.0
100
AcDbArc
 50
45.0
 51
122.51311
  0
ARC
  5
1D7
100
AcDbEntity
  8
0
370
    -3
390
0
  6
Continuous
100
AcDbCircle
 10
547.377166
 20
-186.65003
 30
0.0
 40
175.0
100
AcDbArc
 50
270.0
 51
302.51311
  0
ARC
  5
1D8
100
AcDbEntity
  8
0
370
    -3
390
0
  6
Continuous
100
AcDbCircle
 10
703.381835
 20
-286.086157
 30
0.0
 40
10.0
100
AcDbArc
 50
147.48689
 51
225.0
  0
ARC
  5
1D9
100
AcDbEntity
  8
0
370
    -3
390
0
  6
Continuous
100
AcDbCircle
 10
547.377166
 20
-186.65003
 30
0.0
 40
175.0
100
AcDbArc
 50
327.48689
 51
357.424041
  0
ARC
  5
1DA
100
AcDbEntity
  8
0
370
    -3
390
0
  6
Continuous
100
AcDbCircle
 10
601.123236
 20
-286.05003
 30
0.0
 40
48.0
100
AcDbArc
 50
356.272299
 51
71.211529
  0
ARC
  5
1DB
100
AcDbEntity
  8
0
370
    -3
390
0
  6
Continuous
100
AcDbCircle
 10
619.803598
 20
-231.140613
 30
0.0
 40
10.0
100
AcDbArc
 50
148.438153
 51
251.211529
  0
ARC
  5
1DC
100
AcDbEntity
  8
0
370
    -3
390
0
  6
Continuous
100
AcDbCircle
 10
481.157364
 20
-239.941097
 30
0.0
 40
10.0
100
AcDbArc
 50
300.36921
 51
38.82573
  0
ARC
  5
1DD
100
AcDbEntity
  8
0
370
    -3
390
0
  6
Continuous
100
AcDbCircle
 10
547.377166
 20
-186.65003
 30
0.0
 40
175.0
100
AcDbArc
 50
2.575959
 51
32.51311
  0
ARC
  5
1DE
100
AcDbEntity
  8
0
370
    -3
390
0
  6
Continuous
100
AcDbCircle
 10
703.381835
 20
-87.213904
 30
0.0
 40
10.0
100
AcDbArc
 50
135.0
 51
212.51311
  0
ARC
  5
1DF
100
AcDbEntity
  8
0
370
    -3
390
0
  6
Continuous
100
AcDbCircle
 10
727.377166
 20
-42.005369
 30
0.0
 40
5.0
100
AcDbArc
 50
315.0
 51
0.0
  0
ARC
  5
1E0
100
AcDbEntity
  8
0
370
    -3
390
0
  6
Continuous
100
AcDbCircle
 10
692.021827
 20
-6.65003
 30
0.0
 40
5.0
100
AcDbArc
 50
90.0
 51
135.0
  0
CIRCLE
  5
1E1
100
AcDbEntity
  8
0
370
    -3
390
0
  6
Continuous
100
AcDbCircle
 10
706.476192
 20
-27.551005
 30
0.0
 40
12.0
  0
ARC
  5
1E2
100
AcDbEntity
  8
0
370
    -3
390
0
  6
CENTER
100
AcDbCircle
 10
547.377166
 20
-186.65003
 30
0.0
 40
225.0
100
AcDbArc
 50
38.529511
 51
50.751529
  0
ARC
  5
1E3
100
AcDbEntity
  8
0
370
    -3
390
0
  6
Continuous
100
AcDbCircle
 10
712.377166
 20
-21.65003
 30
0.0
 40
20.0
100
AcDbArc
 50
0.0
 51
90.0
  0
ARC
  5
1E4
100
AcDbEntity
  8
0
370
    -3
390
0
  6
Continuous
100
AcDbCircle
 10
692.021827
 20
-366.65003
 30
0.0
 40
5.0
100
AcDbArc
 50
225.0
 51
270.0
  0
CIRCLE
  5
1E5
100
AcDbEntity
  8
0
370
    -3
390
0
  6
Continuous
100
AcDbCircle
 10
706.476192
 20
-345.749056
 30
0.0
 40
12.0
  0
ARC
  5
1E6
100
AcDbEntity
  8
0
370
    -3
390
0
  6
Continuous
100
AcDbCircle
 10
712.377166
 20
-351.65003
 30
0.0
 40
20.0
100
AcDbArc
 50
270.0
 51
0.0
  0
ARC
  5
1E7
100
AcDbEntity
  8
0
370
    -3
390
0
  6
Continuous
100
AcDbCircle
 10
547.377166
 20
-186.65003
 30
0.0
 40
75.0
100
AcDbArc
 50
0.0
 51
90.0
  0
CIRCLE
  5
1E8
100
AcDbEntity
  8
0
370
    -3
390
0
  6
Continuous
100
AcDbCircle
 10
547.377166
 20
-186.65003
 30
0.0
 40
40.0
  0
ARC
  5
1E9
100
AcDbEntity
  8
0
370
    -3
390
0
  6
Continuous
100
AcDbCircle
 10
557.377166
 20
-80.274329
 30
0.0
 40
6.0
100
AcDbArc
 50
89.031236
 51
180.0
  0
ARC
  5
1EA
100
AcDbEntity
  8
0
370
    -3
390
0
  6
Continuous
100
AcDbCircle
 10
537.377166
 20
-80.274329
 30
0.0
 40
6.0
100
AcDbArc
 50
0.0
 51
90.968764
  0
ARC
  5
1EB
100
AcDbEntity
  8
0
370
    -3
390
0
  6
Continuous
100
AcDbCircle
 10
685.709378
 20
-176.65003
 30
0.0
 40
6.0
100
AcDbArc
 50
270.0
 51
8.158405
  0
ARC
  5
1EC
100
AcDbEntity
  8
0
370
    -3
390
0
  6
Continuous
100
AcDbCircle
 10
686.693265
 20
-196.65003
 30
0.0
 40
6.0
100
AcDbArc
 50
0.0
 51
90.0
  0
ARC
  5
1ED
100
AcDbEntity
  8
0
370
    -3
390
0
  6
Continuous
100
AcDbCircle
 10
642.839201
 20
-377.65003
 30
0.0
 40
6.0
100
AcDbArc
 50
90.0
 51
153.460895
  0
ARC
  5
1EE
100
AcDbEntity
  8
0
370
    -3
390
0
  6
Continuous
100
AcDbCircle
 10
659.000525
 20
-289.820887
 30
0.0
 40
10.0
100
AcDbArc
 50
176.272299
 51
317.25352
  0
ARC
  5
1EF
100
AcDbEntity
  8
0
370
    -3
390
0
  6
Continuous
100
AcDbCircle
 10
621.815405
 20
-367.15003
 30
0.0
 40
17.5
100
AcDbArc
 50
289.462951
 51
333.460895
  0
ARC
  5
1F0
100
AcDbEntity
  8
0
370
    -3
390
0
  6
Continuous
100
AcDbCircle
 10
725.1973
 20
-178.65003
 30
0.0
 40
3.0
100
AcDbArc
 50
182.575959
 51
270.0
  0
ARC
  5
1F1
100
AcDbEntity
  8
0
370
    -3
390
0
  6
Continuous
100
AcDbCircle
 10
725.1973
 20
-194.65003
 30
0.0
 40
3.0
100
AcDbArc
 50
90.0
 51
177.424041
  0
ARC
  5
1F2
100
AcDbEntity
  8
0
370
    -3
390
0
  6
Continuous
100
AcDbCircle
 10
730.377166
 20
-189.65003
 30
0.0
 40
2.0
100
AcDbArc
 50
270.0
 51
0.0
  0
ARC
  5
1F3
100
AcDbEntity
  8
0
370
    -3
390
0
  6
Continuous
100
AcDbCircle
 10
730.377166
 20
-183.65003
 30
0.0
 40
2.0
100
AcDbArc
 50
0.0
 51
90.0
  0
ARC
  5
1F4
100
AcDbEntity
  8
0
370
    -3
390
0
  6
Continuous
100
AcDbCircle
 10
472.938927
 20
-367.15003
 30
0.0
 40
17.5
100
AcDbArc
 50
206.539105
 51
250.537049
  0
ARC
  5
1F5
100
AcDbEntity
  8
0
370
    -3
390
0
  6
Continuous
100
AcDbCircle
 10
547.377166
 20
-671.65003
 30
0.0
 40
597.460244
100
AcDbArc
 50
86.655848
 51
89.031236
  0
ARC
  5
1F6
100
AcDbEntity
  8
0
370
    -3
390
0
  6
Continuous
100
AcDbCircle
 10
575.377166
 20
-192.467393
 30
0.0
 40
117.460244
100
AcDbArc
 50
8.158405
 51
86.655848
  0
ARC
  5
1F7
100
AcDbEntity
  8
0
370
    -3
390
0
  6
Continuous
100
AcDbCircle
 10
686.693265
 20
-256.842797
 30
0.0
 40
6.0
100
AcDbArc
 50
333.259291
 51
0.0
  0
ARC
  5
1F8
100
AcDbEntity
  8
0
370
    -3
390
0
  6
Continuous
100
AcDbCircle
 10
547.377166
 20
-671.65003
 30
0.0
 40
597.460244
100
AcDbArc
 50
90.968764
 51
93.344152
  0
ARC
  5
1F9
100
AcDbEntity
  8
0
370
    -3
390
0
  6
Continuous
100
AcDbCircle
 10
547.377166
 20
-186.65003
 30
0.0
 40
50.0
100
AcDbArc
 50
0.0
 51
90.0
  0
LINE
  5
1FA
100
AcDbEntity
  8
0
370
    -3
390
0
  6
Continuous
100
AcDbLine
 10
547.377166
 20
-371.65003
 30
0.0
 11
712.377166
 21
-371.65003
 31
0.0
  0
LINE
  5
1FB
100
AcDbEntity
  8
0
370
    -3
390
0
  6
Continuous
100
AcDbLine
 10
730.9127
 20
-327.759157
 30
0.0
 11
696.310767
 21
-293.157225
 31
0.0
  0
LINE
  5
1FC
100
AcDbEntity
  8
0
370
    -3
390
0
  6
Continuous
100
AcDbLine
 10
688.486293
 20
-3.114497
 30
0.0
 11
653.88436
 21
-37.716429
 31
0.0
  0
LINE
  5
1FD
100
AcDbEntity
  8
0
370
    -3
390
0
  6
Continuous
100
AcDbLine
 10
730.9127
 20
-45.540903
 30
0.0
 11
696.310767
 21
-80.142836
 31
0.0
  0
LINE
  5
1FE
100
AcDbEntity
  8
0
370
    -3
390
0
  6
Continuous
100
AcDbLine
 10
732.377166
 20
-21.65003
 30
0.0
 11
732.377166
 21
-351.65003
 31
0.0
  0
LINE
  5
1FF
100
AcDbEntity
  8
0
370
    -3
390
0
  6
Continuous
100
AcDbLine
 10
688.486293
 20
-370.185564
 30
0.0
 11
653.88436
 21
-335.583632
 31
0.0
  0
LINE
  5
200
100
AcDbEntity
  8
0
370
    -3
390
0
  6
Continuous
100
AcDbLine
 10
543.377166
 20
-29.908204
 30
0.0
 11
543.377166
 21
-107.157892
 31
0.0
  0
LINE
  5
201
100
AcDbEntity
  8
0
370
    -3
390
0
  6
Continuous
100
AcDbLine
 10
551.377166
 20
-29.908204
 30
0.0
 11
551.377166
 21
-107.157892
 31
0.0
  0
LINE
  5
202
100
AcDbEntity
  8
0
370
    -3
390
0
  6
Continuous
100
AcDbLine
 10
704.118992
 20
-182.65003
 30
0.0
 11
626.869304
 21
-182.65003
 31
0.0
  0
LINE
  5
203
100
AcDbEntity
  8
0
370
    -3
390
0
  6
Continuous
100
AcDbLine
 10
704.118992
 20
-190.65003
 30
0.0
 11
626.869304
 21
-190.65003
 31
0.0
  0
LINE
  5
204
100
AcDbEntity
  8
0
370
    -3
390
0
  6
Continuous
100
AcDbLine
 10
730.377166
 20
-181.65003
 30
0.0
 11
725.1973
 21
-181.65003
 31
0.0
  0
LINE
  5
205
100
AcDbEntity
  8
0
370
    -3
390
0
  6
Continuous
100
AcDbLine
 10
730.377166
 20
-191.65003
 30
0.0
 11
725.1973
 21
-191.65003
 31
0.0
  0
LINE
  5
206
100
AcDbEntity
  8
0
370
    -3
390
0
  6
Continuous
100
AcDbLine
 10
692.693265
 20
-196.65003
 30
0.0
 11
692.693265
 21
-256.842797
 31
0.0
  0
LINE
  5
207
100
AcDbEntity
  8
0
370
    -3
390
0
  6
Continuous
100
AcDbLine
 10
515.877166
 20
-178.65003
 30
0.0
 11
515.877166
 21
-194.65003
 31
0.0
  0
LINE
  5
208
100
AcDbEntity
  8
0
370
    -3
390
0
  6
Continuous
100
AcDbLine
 10
515.877166
 20
-194.65003
 30
0.0
 11
525.877166
 21
-194.65003
 31
0.0
  0
LINE
  5
209
100
AcDbEntity
  8
0
370
    -3
390
0
  6
Continuous
100
AcDbLine
 10
525.877166
 20
-178.65003
 30
0.0
 11
525.877166
 21
-194.65003
 31
0.0
  0
LINE
  5
20A
100
AcDbEntity
  8
0
370
    -3
390
0
  6
Continuous
100
AcDbLine
 10
515.877166
 20
-178.65003
 30
0.0
 11
525.877166
 21
-178.65003
 31
0.0
  0
CIRCLE
  5
20B
100
AcDbEntity
  8
0
370
    -3
390
0
  6
Continuous
100
AcDbCircle
 10
547.377166
 20
-186.65003
 30
0.0
 40
4.188
  0
CIRCLE
  5
20C
100
AcDbEntity
  8
0
370
    -3
390
0
  6
Continuous
100
AcDbCircle
 10
547.377166
 20
-186.65003
 30
0.0
 40
5.0
  0
ARC
  5
20D
100
AcDbEntity
  8
0
370
    -3
390
0
  6
Continuous
100
AcDbCircle
 10
547.377166
 20
-186.65003
 30
0.0
 40
27.5
100
AcDbArc
 50
196.91239
 51
163.08761
  0
LINE
  5
20E
100
AcDbEntity
  8
0
370
    -3
390
0
  6
DASHED
100
AcDbLine
 10
362.377166
 20
-295.150253
 30
0.0
 11
365.050564
 21
-296.340526
 31
0.0
  0
LINE
  5
20F
100
AcDbEntity
  8
0
370
    -3
390
0
  6
DASHED
100
AcDbLine
 10
362.377166
 20
-294.76713
 30
0.0
 11
364.873181
 21
-295.878428
 31
0.0
  0
LINE
  5
210
100
AcDbEntity
  8
0
370
    -3
390
0
  6
DASHED
100
AcDbLine
 10
364.873181
 20
-295.878428
 30
0.0
 11
365.050564
 21
-296.340526
 31
0.0
  0
LINE
  5
211
100
AcDbEntity
  8
0
370
    -3
390
0
  6
DASHED
100
AcDbLine
 10
365.050564
 20
-296.340526
 30
0.0
 11
363.708334
 21
-299.355226
 31
0.0
  0
LINE
  5
212
100
AcDbEntity
  8
0
370
    -3
390
0
  6
Continuous
100
AcDbLine
 10
361.239984
 20
-294.643947
 30
0.0
 11
362.377166
 21
-295.150253
 31
0.0
  0
LINE
  5
213
100
AcDbEntity
  8
0
370
    -3
390
0
  6
Continuous
100
AcDbLine
 10
361.387923
 20
-294.326691
 30
0.0
 11
362.377166
 21
-294.76713
 31
0.0
  0
LINE
  5
214
100
AcDbEntity
  8
0
370
    -3
390
0
  6
Continuous
100
AcDbLine
 10
359.845132
 20
-297.635218
 30
0.0
 11
362.377166
 21
-298.762552
 31
0.0
  0
LINE
  5
215
100
AcDbEntity
  8
0
370
    -3
390
0
  6
Continuous
100
AcDbLine
 10
359.697193
 20
-297.952474
 30
0.0
 11
362.377166
 21
-299.145675
 31
0.0
  0
LINE
  5
216
100
AcDbEntity
  8
0
370
    -3
390
0
  6
DASHED
100
AcDbLine
 10
362.377166
 20
-299.145675
 30
0.0
 11
363.246235
 21
-299.532609
 31
0.0
  0
LINE
  5
217
100
AcDbEntity
  8
0
370
    -3
390
0
  6
DASHED
100
AcDbLine
 10
362.377166
 20
-298.762552
 30
0.0
 11
363.708334
 21
-299.355226
 31
0.0
  0
LINE
  5
218
100
AcDbEntity
  8
0
370
    -3
390
0
  6
DASHED
100
AcDbLine
 10
363.246235
 20
-299.532609
 30
0.0
 11
363.708334
 21
-299.355226
 31
0.0
  0
LINE
  5
219
100
AcDbEntity
  8
0
370
    -3
390
0
  6
CENTER
100
AcDbLine
 10
411.696047
 20
-236.65003
 30
0.0
 11
350.393203
 21
-236.65003
 31
0.0
  0
ARC
  5
21A
100
AcDbEntity
  8
0
370
    -3
390
0
  6
Continuous
100
AcDbCircle
 10
-293.306901
 20
-219.922141
 30
0.0
 40
4.8
100
AcDbArc
 50
90.0
 51
180.0
  0
LINE
  5
21B
100
AcDbEntity
  8
0
370
    -3
390
0
  6
Continuous
100
AcDbLine
 10
-293.306901
 20
-215.122141
 30
0.0
 11
-209.306901
 21
-215.122141
 31
0.0
  0
LINE
  5
21C
100
AcDbEntity
  8
0
370
    -3
390
0
  6
Continuous
100
AcDbLine
 10
-293.306901
 20
-198.885407
 30
0.0
 11
-209.306901
 21
-198.885407
 31
0.0
  0
ARC
  5
21D
100
AcDbEntity
  8
0
370
    -3
390
0
  6
Continuous
100
AcDbCircle
 10
-293.306901
 20
-203.685407
 30
0.0
 40
4.8
100
AcDbArc
 50
90.0
 51
180.0
  0
LINE
  5
21E
100
AcDbEntity
  8
0
370
    -3
390
0
  6
Continuous
100
AcDbLine
 10
-298.106901
 20
-203.685407
 30
0.0
 11
-298.106901
 21
-288.374388
 31
0.0
  0
ARC
  5
21F
100
AcDbEntity
  8
0
370
    -3
390
0
  6
Continuous
100
AcDbCircle
 10
-291.506901
 20
-205.608103
 30
0.0
 40
8.8
100
AcDbArc
 50
90.0
 51
180.0
  0
LINE
  5
220
100
AcDbEntity
  8
0
370
    -3
390
0
  6
Continuous
100
AcDbLine
 10
-291.506901
 20
-196.808103
 30
0.0
 11
-211.106901
 21
-196.808103
 31
0.0
  0
LINE
  5
221
100
AcDbEntity
  8
0
370
    -3
390
0
  6
Continuous
100
AcDbLine
 10
-300.306901
 20
-205.608103
 30
0.0
 11
-300.306901
 21
-293.049321
 31
0.0
  0
POINT
  5
222
100
AcDbEntity
  8
0
370
    -3
390
0
  6
CENTER
100
AcDbPoint
 10
-237.688094
 20
-299.895725
 30
0.0
  0
POINT
  5
223
100
AcDbEntity
  8
0
370
    -3
390
0
  6
CENTER
100
AcDbPoint
 10
-264.688094
 20
-299.895725
 30
0.0
  0
LINE
  5
224
100
AcDbEntity
  8
0
370
    -3
390
0
  6
CENTER
100
AcDbLine
 10
-251.306901
 20
-189.998299
 30
0.0
 11
-251.306901
 21
-310.638379
 31
0.0
  0
LINE
  5
225
100
AcDbEntity
  8
0
370
    -3
390
0
  6
Continuous
100
AcDbLine
 10
-251.306901
 20
-293.434825
 30
0.0
 11
-253.306901
 21
-295.342545
 31
0.0
  0
LINE
  5
226
100
AcDbEntity
  8
0
370
    -3
390
0
  6
Continuous
100
AcDbLine
 10
-249.306901
 20
-291.717314
 30
0.0
 11
-251.306901
 21
-293.434825
 31
0.0
  0
LINE
  5
227
100
AcDbEntity
  8
0
370
    -3
390
0
  6
Continuous
100
AcDbLine
 10
-251.306901
 20
-293.434825
 30
0.0
 11
-253.306901
 21
-291.717314
 31
0.0
  0
LINE
  5
228
100
AcDbEntity
  8
0
370
    -3
390
0
  6
Continuous
100
AcDbLine
 10
-249.306901
 20
-295.342545
 30
0.0
 11
-251.306901
 21
-293.434825
 31
0.0
  0
ELLIPSE
  5
229
100
AcDbEntity
  8
0
370
    -3
390
0
  6
Continuous
100
AcDbEllipse
 10
-251.306901
 20
-294.265856
 30
0.0
 11
3.5
 21
0.0
 31
0.0
210
0.0
220
0.0
230
1.0
 40
0.982815
 41
0.0
 42
6.2831853071795862
  0
ARC
  5
22A
100
AcDbEntity
  8
0
370
    -3
390
0
  6
Continuous
100
AcDbCircle
 10
-262.624687
 20
-289.174388
 30
0.0
 40
4.0
100
AcDbArc
 50
270.0
 51
339.413394
  0
ELLIPSE
  5
22B
100
AcDbEntity
  8
0
370
    -3
390
0
  6
Continuous
100
AcDbEllipse
 10
-251.306901
 20
-292.917388
 30
0.0
 11
8.0
 21
0.0
 31
0.0
210
0.0
220
0.0
230
1.0
 40
0.906308
 41
0.3281121824263525
 42
2.8134804711640689
  0
LINE
  5
22C
100
AcDbEntity
  8
0
370
    -3
390
0
  6
Continuous
100
AcDbLine
 10
-262.624687
 20
-293.174388
 30
0.0
 11
-293.306901
 21
-293.174388
 31
0.0
  0
ARC
  5
22D
100
AcDbEntity
  8
0
370
    -3
390
0
  6
Continuous
100
AcDbCircle
 10
-261.860554
 20
-289.174388
 30
0.0
 40
4.0
100
AcDbArc
 50
270.0
 51
330.013396
  0
ELLIPSE
  5
22E
100
AcDbEntity
  8
0
370
    -3
390
0
  6
Continuous
100
AcDbEllipse
 10
-251.306901
 20
-294.533633
 30
0.0
 11
8.0
 21
0.0
 31
0.0
210
0.0
220
0.0
230
1.0
 40
0.906308
 41
0.4818578688787102
 42
2.6597347847155328
  0
ARC
  5
22F
100
AcDbEntity
  8
0
370
    -3
390
0
  6
Continuous
100
AcDbCircle
 10
-240.753248
 20
-289.174388
 30
0.0
 40
4.0
100
AcDbArc
 50
209.986604
 51
270.0
  0
LINE
  5
230
100
AcDbEntity
  8
0
370
    -3
390
0
  6
Continuous
100
AcDbLine
 10
-209.306901
 20
-293.174388
 30
0.0
 11
-240.753248
 21
-293.174388
 31
0.0
  0
ARC
  5
231
100
AcDbEntity
  8
0
370
    -3
390
0
  6
Continuous
100
AcDbCircle
 10
-239.989115
 20
-289.174388
 30
0.0
 40
4.0
100
AcDbArc
 50
200.586606
 51
270.0
  0
ARC
  5
232
100
AcDbEntity
  8
0
370
    -3
390
0
  6
Continuous
100
AcDbCircle
 10
-293.306901
 20
-288.374388
 30
0.0
 40
4.8
100
AcDbArc
 50
180.0
 51
270.0
  0
LINE
  5
233
100
AcDbEntity
  8
0
370
    -3
390
0
  6
Continuous
100
AcDbLine
 10
-211.106901
 20
-300.243372
 30
0.0
 11
-291.506901
 21
-300.243372
 31
0.0
  0
ARC
  5
234
100
AcDbEntity
  8
0
370
    -3
390
0
  6
Continuous
100
AcDbCircle
 10
-291.506901
 20
-291.443372
 30
0.0
 40
8.8
100
AcDbArc
 50
180.0
 51
270.0
  0
ARC
  5
235
100
AcDbEntity
  8
0
370
    -3
390
0
  6
Continuous
100
AcDbCircle
 10
-291.506901
 20
-293.049321
 30
0.0
 40
8.8
100
AcDbArc
 50
180.0
 51
270.0
  0
LINE
  5
236
100
AcDbEntity
  8
0
370
    -3
390
0
  6
Continuous
100
AcDbLine
 10
-291.506901
 20
-301.849321
 30
0.0
 11
-211.106901
 21
-301.849321
 31
0.0
  0
ARC
  5
237
100
AcDbEntity
  8
0
370
    -3
390
0
  6
Continuous
100
AcDbCircle
 10
-209.306901
 20
-288.374388
 30
0.0
 40
4.8
100
AcDbArc
 50
270.0
 51
0.0
  0
ARC
  5
238
100
AcDbEntity
  8
0
370
    -3
390
0
  6
Continuous
100
AcDbCircle
 10
-211.106901
 20
-291.443372
 30
0.0
 40
8.8
100
AcDbArc
 50
270.0
 51
0.0
  0
ARC
  5
239
100
AcDbEntity
  8
0
370
    -3
390
0
  6
Continuous
100
AcDbCircle
 10
-211.106901
 20
-293.049321
 30
0.0
 40
8.8
100
AcDbArc
 50
270.0
 51
0.0
  0
LINE
  5
23A
100
AcDbEntity
  8
0
370
    -3
390
0
  6
Continuous
100
AcDbLine
 10
-204.506901
 20
-203.685407
 30
0.0
 11
-204.506901
 21
-288.374388
 31
0.0
  0
LINE
  5
23B
100
AcDbEntity
  8
0
370
    -3
390
0
  6
Continuous
100
AcDbLine
 10
-202.306901
 20
-205.608103
 30
0.0
 11
-202.306901
 21
-293.049321
 31
0.0
  0
ARC
  5
23C
100
AcDbEntity
  8
0
370
    -3
390
0
  6
Continuous
100
AcDbCircle
 10
-209.306901
 20
-219.922141
 30
0.0
 40
4.8
100
AcDbArc
 50
0.0
 51
90.0
  0
ARC
  5
23D
100
AcDbEntity
  8
0
370
    -3
390
0
  6
Continuous
100
AcDbCircle
 10
-209.306901
 20
-203.685407
 30
0.0
 40
4.8
100
AcDbArc
 50
0.0
 51
90.0
  0
ARC
  5
23E
100
AcDbEntity
  8
0
370
    -3
390
0
  6
Continuous
100
AcDbCircle
 10
-211.106901
 20
-205.608103
 30
0.0
 40
8.8
100
AcDbArc
 50
0.0
 51
90.0
  0
ARC
  5
23F
100
AcDbEntity
  8
0
370
    -3
390
0
  6
Continuous
100
AcDbCircle
 10
-647.840744
 20
-89.65003
 30
0.0
 40
5.0
100
AcDbArc
 50
180.0
 51
270.0
  0
LINE
  5
240
100
AcDbEntity
  8
0
370
    -3
390
0
  6
Continuous
100
AcDbLine
 10
-632.340744
 20
-94.65003
 30
0.0
 11
-647.840744
 21
-94.65003
 31
0.0
  0
ARC
  5
241
100
AcDbEntity
  8
0
370
    -3
390
0
  6
Continuous
100
AcDbCircle
 10
-642.840744
 20
-84.65003
 30
0.0
 40
10.0
100
AcDbArc
 50
180.0
 51
270.0
  0
ARC
  5
242
100
AcDbEntity
  8
0
370
    -3
390
0
  6
Continuous
100
AcDbCircle
 10
-616.840744
 20
-89.65003
 30
0.0
 40
5.0
100
AcDbArc
 50
270.0
 51
0.0
  0
LINE
  5
243
100
AcDbEntity
  8
0
370
    -3
390
0
  6
Continuous
100
AcDbLine
 10
-611.840744
 20
-72.000341
 30
0.0
 11
-611.840744
 21
-89.65003
 31
0.0
  0
ARC
  5
244
100
AcDbEntity
  8
0
370
    -3
390
0
  6
Continuous
100
AcDbCircle
 10
-621.840744
 20
-84.65003
 30
0.0
 40
10.0
100
AcDbArc
 50
270.0
 51
0.0
  0
LINE
  5
245
100
AcDbEntity
  8
0
370
    -3
390
0
  6
Continuous
100
AcDbLine
 10
-447.340744
 20
-292.205253
 30
0.0
 11
-447.340744
 21
-351.65003
 31
0.0
  0
LINE
  5
246
100
AcDbEntity
  8
0
370
    -3
390
0
  6
CENTER
100
AcDbLine
 10
-428.266297
 20
-236.65003
 30
0.0
 11
-831.012609
 21
-236.65003
 31
0.0
  0
LINE
  5
247
100
AcDbEntity
  8
0
370
    -3
390
0
  6
CENTER
100
AcDbLine
 10
-670.662081
 20
-186.65003
 30
0.0
 11
-632.340744
 21
-186.65003
 31
0.0
  0
LINE
  5
248
100
AcDbEntity
  8
0
370
    -3
390
0
  6
CENTER
100
AcDbLine
 10
-594.302066
 20
-186.65003
 30
0.0
 11
-632.340744
 21
-186.65003
 31
0.0
  0
LINE
  5
249
100
AcDbEntity
  8
0
370
    -3
390
0
  6
Continuous
100
AcDbLine
 10
-779.000998
 20
-289.117942
 30
0.0
 11
-757.100897
 21
-327.05003
 31
0.0
  0
LINE
  5
24A
100
AcDbEntity
  8
0
370
    -3
390
0
  6
Continuous
100
AcDbLine
 10
-780.340744
 20
-192.467393
 30
0.0
 11
-780.340744
 21
-284.117942
 31
0.0
  0
LINE
  5
24B
100
AcDbEntity
  8
0
370
    -3
390
0
  6
Continuous
100
AcDbLine
 10
-769.395337
 20
-223.65003
 30
0.0
 11
-778.340744
 21
-223.65003
 31
0.0
  0
LINE
  5
24C
100
AcDbEntity
  8
0
370
    -3
390
0
  6
Continuous
100
AcDbLine
 10
-769.395337
 20
-249.65003
 30
0.0
 11
-778.340744
 21
-249.65003
 31
0.0
  0
ARC
  5
24D
100
AcDbEntity
  8
0
370
    -3
390
0
  6
Continuous
100
AcDbCircle
 10
-770.340744
 20
-284.117942
 30
0.0
 40
10.0
100
AcDbArc
 50
180.0
 51
210.0
  0
ARC
  5
24E
100
AcDbEntity
  8
0
370
    -3
390
0
  6
Continuous
100
AcDbCircle
 10
-778.340744
 20
-221.65003
 30
0.0
 40
2.0
100
AcDbArc
 50
180.0
 51
270.0
  0
ARC
  5
24F
100
AcDbEntity
  8
0
370
    -3
390
0
  6
Continuous
100
AcDbCircle
 10
-778.340744
 20
-251.65003
 30
0.0
 40
2.0
100
AcDbArc
 50
90.0
 51
180.0
  0
LINE
  5
250
100
AcDbEntity
  8
0
370
    -3
390
0
  6
CENTER
100
AcDbLine
 10
-632.340744
 20
12.711919
 30
0.0
 11
-632.340744
 21
-388.969597
 31
0.0
  0
LINE
  5
251
100
AcDbEntity
  8
0
370
    -3
390
0
  6
Continuous
100
AcDbLine
 10
-632.340744
 20
-94.65003
 30
0.0
 11
-616.840744
 21
-94.65003
 31
0.0
  0
LINE
  5
252
100
AcDbEntity
  8
0
370
    -3
390
0
  6
Continuous
100
AcDbLine
 10
-486.241988
 20
-290.090486
 30
0.0
 11
-507.580591
 21
-327.05003
 31
0.0
  0
LINE
  5
253
100
AcDbEntity
  8
0
370
    -3
390
0
  6
Continuous
100
AcDbLine
 10
-484.340744
 20
-192.467393
 30
0.0
 11
-484.340744
 21
-199.491496
 31
0.0
  0
LINE
  5
254
100
AcDbEntity
  8
0
370
    -3
390
0
  6
Continuous
100
AcDbLine
 10
-652.840744
 20
-72.000341
 30
0.0
 11
-652.840744
 21
-89.65003
 31
0.0
  0
ARC
  5
255
100
AcDbEntity
  8
0
370
    -3
390
0
  6
Continuous
100
AcDbCircle
 10
-632.340744
 20
-671.65003
 30
0.0
 40
600.0
100
AcDbArc
 50
86.655848
 51
88.042013
  0
ARC
  5
256
100
AcDbEntity
  8
0
370
    -3
390
0
  6
Continuous
100
AcDbCircle
 10
-604.340744
 20
-192.467393
 30
0.0
 40
120.0
100
AcDbArc
 50
0.0
 51
86.655848
  0
ARC
  5
257
100
AcDbEntity
  8
0
370
    -3
390
0
  6
Continuous
100
AcDbCircle
 10
-660.340744
 20
-192.467393
 30
0.0
 40
120.0
100
AcDbArc
 50
93.344152
 51
180.0
  0
ARC
  5
258
100
AcDbEntity
  8
0
370
    -3
390
0
  6
Continuous
100
AcDbCircle
 10
-632.340744
 20
-671.65003
 30
0.0
 40
600.0
100
AcDbArc
 50
91.957987
 51
93.344152
  0
LINE
  5
259
100
AcDbEntity
  8
0
370
    -3
390
0
  6
Continuous
100
AcDbLine
 10
-632.340744
 20
-378.65003
 30
0.0
 11
-713.136576
 21
-378.65003
 31
0.0
  0
LINE
  5
25A
100
AcDbEntity
  8
0
370
    -3
390
0
  6
Continuous
100
AcDbLine
 10
-632.340744
 20
-378.65003
 30
0.0
 11
-551.544913
 21
-378.65003
 31
0.0
  0
ARC
  5
25B
100
AcDbEntity
  8
0
370
    -3
390
0
  6
Continuous
100
AcDbCircle
 10
-578.594675
 20
-286.05003
 30
0.0
 40
82.0
100
AcDbArc
 50
298.738078
 51
330.0
  0
ARC
  5
25C
100
AcDbEntity
  8
0
370
    -3
390
0
  6
Continuous
100
AcDbCircle
 10
-556.340744
 20
-367.65003
 30
0.0
 40
12.0
100
AcDbArc
 50
293.556464
 51
2.427809
  0
ARC
  5
25D
100
AcDbEntity
  8
0
370
    -3
390
0
  6
Continuous
100
AcDbCircle
 10
-534.360492
 20
-366.718098
 30
0.0
 40
10.0
100
AcDbArc
 50
118.738078
 51
182.427809
  0
ARC
  5
25E
100
AcDbEntity
  8
0
370
    -3
390
0
  6
Continuous
100
AcDbCircle
 10
-708.340744
 20
-367.65003
 30
0.0
 40
12.0
100
AcDbArc
 50
177.572191
 51
246.443536
  0
ARC
  5
25F
100
AcDbEntity
  8
0
370
    -3
390
0
  6
Continuous
100
AcDbCircle
 10
-686.086814
 20
-286.05003
 30
0.0
 40
82.0
100
AcDbArc
 50
210.0
 51
241.261922
  0
ARC
  5
260
100
AcDbEntity
  8
0
370
    -3
390
0
  6
Continuous
100
AcDbCircle
 10
-730.320997
 20
-366.718098
 30
0.0
 40
10.0
100
AcDbArc
 50
357.572191
 51
61.261922
  0
LINE
  5
261
100
AcDbEntity
  8
0
370
    -3
390
0
  6
Continuous
100
AcDbLine
 10
-515.340744
 20
-338.231831
 30
0.0
 11
-515.340744
 21
-367.65003
 31
0.0
  0
LINE
  5
262
100
AcDbEntity
  8
0
370
    -3
390
0
  6
Continuous
100
AcDbLine
 10
-636.340744
 20
-21.712341
 30
0.0
 11
-636.340744
 21
-36.650037
 31
0.0
  0
LINE
  5
263
100
AcDbEntity
  8
0
370
    -3
390
0
  6
Continuous
100
AcDbLine
 10
-628.340744
 20
-21.712341
 30
0.0
 11
-628.340744
 21
-36.650037
 31
0.0
  0
CIRCLE
  5
264
100
AcDbEntity
  8
0
370
    -3
390
0
  6
Continuous
100
AcDbCircle
 10
-473.241718
 20
-345.749056
 30
0.0
 40
12.0
  0
CIRCLE
  5
265
100
AcDbEntity
  8
0
370
    -3
390
0
  6
Continuous
100
AcDbCircle
 10
-791.43977
 20
-27.551005
 30
0.0
 40
12.0
  0
ARC
  5
266
100
AcDbEntity
  8
0
370
    -3
390
0
  6
Continuous
100
AcDbCircle
 10
-797.340744
 20
-21.65003
 30
0.0
 40
20.0
100
AcDbArc
 50
90.0
 51
180.0
  0
CIRCLE
  5
267
100
AcDbEntity
  8
0
370
    -3
390
0
  6
Continuous
100
AcDbCircle
 10
-473.241718
 20
-27.551005
 30
0.0
 40
12.0
  0
ARC
  5
268
100
AcDbEntity
  8
0
370
    -3
390
0
  6
Continuous
100
AcDbCircle
 10
-467.340744
 20
-21.65003
 30
0.0
 40
20.0
100
AcDbArc
 50
0.0
 51
90.0
  0
ARC
  5
269
100
AcDbEntity
  8
0
370
    -3
390
0
  6
Continuous
100
AcDbCircle
 10
-467.340744
 20
-351.65003
 30
0.0
 40
20.0
100
AcDbArc
 50
270.0
 51
0.0
  0
CIRCLE
  5
26A
100
AcDbEntity
  8
0
370
    -3
390
0
  6
Continuous
100
AcDbCircle
 10
-791.43977
 20
-345.749056
 30
0.0
 40
12.0
  0
ARC
  5
26B
100
AcDbEntity
  8
0
370
    -3
390
0
  6
Continuous
100
AcDbCircle
 10
-797.340744
 20
-351.65003
 30
0.0
 40
20.0
100
AcDbArc
 50
180.0
 51
270.0
  0
ARC
  5
26C
100
AcDbEntity
  8
0
370
    -3
390
0
  6
Continuous
100
AcDbCircle
 10
-623.340744
 20
-21.712341
 30
0.0
 40
5.0
100
AcDbArc
 50
89.206648
 51
180.0
  0
ARC
  5
26D
100
AcDbEntity
  8
0
370
    -3
390
0
  6
Continuous
100
AcDbCircle
 10
-641.340744
 20
-21.712341
 30
0.0
 40
5.0
100
AcDbArc
 50
0.0
 51
90.793352
  0
ARC
  5
26E
100
AcDbEntity
  8
0
370
    -3
390
0
  6
Continuous
100
AcDbCircle
 10
-755.574487
 20
-50.688365
 30
0.0
 40
5.0
100
AcDbArc
 50
135.0
 51
225.0
  0
ARC
  5
26F
100
AcDbEntity
  8
0
370
    -3
390
0
  6
Continuous
100
AcDbCircle
 10
-722.337581
 20
-83.925271
 30
0.0
 40
5.0
100
AcDbArc
 50
225.0
 51
299.734043
  0
ARC
  5
270
100
AcDbEntity
  8
0
370
    -3
390
0
  6
Continuous
100
AcDbCircle
 10
-737.553125
 20
-94.165571
 30
0.0
 40
5.0
100
AcDbArc
 50
308.148301
 51
45.0
  0
ARC
  5
271
100
AcDbEntity
  8
0
370
    -3
390
0
  6
Continuous
100
AcDbCircle
 10
-768.302409
 20
-63.416287
 30
0.0
 40
5.0
100
AcDbArc
 50
45.0
 51
135.0
  0
ARC
  5
272
100
AcDbEntity
  8
0
370
    -3
390
0
  6
Continuous
100
AcDbCircle
 10
-496.379079
 20
-63.416287
 30
0.0
 40
5.0
100
AcDbArc
 50
45.0
 51
135.0
  0
ARC
  5
273
100
AcDbEntity
  8
0
370
    -3
390
0
  6
Continuous
100
AcDbCircle
 10
-509.107001
 20
-50.688365
 30
0.0
 40
5.0
100
AcDbArc
 50
315.0
 51
45.0
  0
ARC
  5
274
100
AcDbEntity
  8
0
370
    -3
390
0
  6
Continuous
100
AcDbCircle
 10
-542.343907
 20
-83.925271
 30
0.0
 40
5.0
100
AcDbArc
 50
240.265957
 51
315.0
  0
ARC
  5
275
100
AcDbEntity
  8
0
370
    -3
390
0
  6
Continuous
100
AcDbCircle
 10
-527.128363
 20
-94.165571
 30
0.0
 40
5.0
100
AcDbArc
 50
135.0
 51
231.851699
  0
ARC
  5
276
100
AcDbEntity
  8
0
370
    -3
390
0
  6
Continuous
100
AcDbCircle
 10
-517.340744
 20
-367.65003
 30
0.0
 40
2.0
100
AcDbArc
 50
270.0
 51
0.0
  0
ARC
  5
277
100
AcDbEntity
  8
0
370
    -3
390
0
  6
Continuous
100
AcDbCircle
 10
-542.924336
 20
-371.65003
 30
0.0
 40
2.0
100
AcDbArc
 50
90.0
 51
163.39845
  0
ARC
  5
278
100
AcDbEntity
  8
0
370
    -3
390
0
  6
Continuous
100
AcDbCircle
 10
-721.757152
 20
-371.65003
 30
0.0
 40
2.0
100
AcDbArc
 50
16.60155
 51
90.0
  0
ARC
  5
279
100
AcDbEntity
  8
0
370
    -3
390
0
  6
Continuous
100
AcDbCircle
 10
-747.340744
 20
-367.65003
 30
0.0
 40
2.0
100
AcDbArc
 50
180.0
 51
270.0
  0
ARC
  5
27A
100
AcDbEntity
  8
0
370
    -3
390
0
  6
Continuous
100
AcDbCircle
 10
-534.360492
 20
-366.718098
 30
0.0
 40
10.0
100
AcDbArc
 50
118.738078
 51
182.427809
  0
ARC
  5
27B
100
AcDbEntity
  8
0
370
    -3
390
0
  6
Continuous
100
AcDbCircle
 10
-730.320997
 20
-366.718098
 30
0.0
 40
10.0
100
AcDbArc
 50
357.572191
 51
61.261922
  0
LINE
  5
27C
100
AcDbEntity
  8
0
370
    -3
390
0
  6
Continuous
100
AcDbLine
 10
-727.80278
 20
-371.65003
 30
0.0
 11
-797.340744
 21
-371.65003
 31
0.0
  0
LINE
  5
27D
100
AcDbEntity
  8
0
370
    -3
390
0
  6
Continuous
100
AcDbLine
 10
-536.878709
 20
-371.65003
 30
0.0
 11
-467.340744
 21
-371.65003
 31
0.0
  0
LINE
  5
27E
100
AcDbEntity
  8
0
370
    -3
390
0
  6
Continuous
100
AcDbLine
 10
-797.340744
 20
-1.65003
 30
0.0
 11
-467.340744
 21
-1.65003
 31
0.0
  0
LINE
  5
27F
100
AcDbEntity
  8
0
370
    -3
390
0
  6
Continuous
100
AcDbLine
 10
-447.340744
 20
-21.65003
 30
0.0
 11
-447.340744
 21
-211.923298
 31
0.0
  0
LINE
  5
280
100
AcDbEntity
  8
0
370
    -3
390
0
  6
Continuous
100
AcDbLine
 10
-817.340744
 20
-21.65003
 30
0.0
 11
-817.340744
 21
-351.65003
 31
0.0
  0
LINE
  5
281
100
AcDbEntity
  8
0
370
    -3
390
0
  6
Continuous
100
AcDbLine
 10
-759.110021
 20
-54.223899
 30
0.0
 11
-725.873115
 21
-87.460805
 31
0.0
  0
LINE
  5
282
100
AcDbEntity
  8
0
370
    -3
390
0
  6
Continuous
100
AcDbLine
 10
-764.766875
 20
-59.880754
 30
0.0
 11
-734.017592
 21
-90.630037
 31
0.0
  0
LINE
  5
283
100
AcDbEntity
  8
0
370
    -3
390
0
  6
Continuous
100
AcDbLine
 10
-505.571467
 20
-54.223899
 30
0.0
 11
-538.808373
 21
-87.460805
 31
0.0
  0
LINE
  5
284
100
AcDbEntity
  8
0
370
    -3
390
0
  6
Continuous
100
AcDbLine
 10
-499.914613
 20
-59.880754
 30
0.0
 11
-530.663897
 21
-90.630037
 31
0.0
  0
LINE
  5
285
100
AcDbEntity
  8
0
370
    -3
390
0
  6
Continuous
100
AcDbLine
 10
-542.924336
 20
-369.65003
 30
0.0
 11
-517.340744
 21
-369.65003
 31
0.0
  0
LINE
  5
286
100
AcDbEntity
  8
0
370
    -3
390
0
  6
Continuous
100
AcDbLine
 10
-721.757152
 20
-369.65003
 30
0.0
 11
-747.340744
 21
-369.65003
 31
0.0
  0
LINE
  5
287
100
AcDbEntity
  8
0
370
    -3
390
0
  6
Continuous
100
AcDbLine
 10
-749.340744
 20
-338.231831
 30
0.0
 11
-749.340744
 21
-367.65003
 31
0.0
  0
ARC
  5
288
100
AcDbEntity
  8
0
370
    -3
390
0
  6
Continuous
100
AcDbCircle
 10
-642.840744
 20
-46.65003
 30
0.0
 40
10.0
100
AcDbArc
 50
90.0
 51
180.0
  0
LINE
  5
289
100
AcDbEntity
  8
0
370
    -3
390
0
  6
CENTER
100
AcDbLine
 10
-609.172831
 20
-56.65003
 30
0.0
 11
-656.195345
 21
-56.65003
 31
0.0
  0
LINE
  5
28A
100
AcDbEntity
  8
0
370
    -3
390
0
  6
Continuous
100
AcDbLine
 10
-621.840744
 20
-36.65003
 30
0.0
 11
-642.840744
 21
-36.65003
 31
0.0
  0
LINE
  5
28B
100
AcDbEntity
  8
0
370
    -3
390
0
  6
Continuous
100
AcDbLine
 10
-652.840744
 20
-46.650037
 30
0.0
 11
-652.840744
 21
-72.000341
 31
0.0
  0
ARC
  5
28C
100
AcDbEntity
  8
0
370
    -3
390
0
  6
Continuous
100
AcDbCircle
 10
-621.840744
 20
-46.65003
 30
0.0
 40
10.0
100
AcDbArc
 50
0.0
 51
90.0
  0
LINE
  5
28D
100
AcDbEntity
  8
0
370
    -3
390
0
  6
Continuous
100
AcDbLine
 10
-611.840744
 20
-46.650037
 30
0.0
 11
-611.840744
 21
-72.000341
 31
0.0
  0
LINE
  5
28E
100
AcDbEntity
  8
0
370
    -3
390
0
  6
Continuous
100
AcDbLine
 10
-642.840739
 20
-88.114129
 30
0.0
 11
-639.840747
 21
-86.382077
 31
0.0
  0
LINE
  5
28F
100
AcDbEntity
  8
0
370
    -3
390
0
  6
Continuous
100
AcDbLine
 10
-642.840751
 20
-81.185934
 30
0.0
 11
-645.840742
 21
-82.917984
 31
0.0
  0
LINE
  5
290
100
AcDbEntity
  8
0
370
    -3
390
0
  6
Continuous
100
AcDbLine
 10
-645.840742
 20
-86.382082
 30
0.0
 11
-642.84074
 21
-88.114129
 31
0.0
  0
LINE
  5
291
100
AcDbEntity
  8
0
370
    -3
390
0
  6
Continuous
100
AcDbLine
 10
-642.840751
 20
-81.185933
 30
0.0
 11
-639.840746
 21
-82.917979
 31
0.0
  0
LINE
  5
292
100
AcDbEntity
  8
0
370
    -3
390
0
  6
Continuous
100
AcDbLine
 10
-645.840741
 20
-82.917983
 30
0.0
 11
-645.840742
 21
-86.382081
 31
0.0
  0
LINE
  5
293
100
AcDbEntity
  8
0
370
    -3
390
0
  6
Continuous
100
AcDbLine
 10
-639.840748
 20
-86.382076
 30
0.0
 11
-639.840747
 21
-82.917978
 31
0.0
  0
CIRCLE
  5
294
100
AcDbEntity
  8
0
370
    -3
390
0
  6
Continuous
100
AcDbCircle
 10
-642.840744
 20
-84.65003
 30
0.0
 40
6.5
  0
CIRCLE
  5
295
100
AcDbEntity
  8
0
370
    -3
390
0
  6
Continuous
100
AcDbCircle
 10
-642.840744
 20
-84.65003
 30
0.0
 40
5.633955
  0
LINE
  5
296
100
AcDbEntity
  8
0
370
    -3
390
0
  6
Continuous
100
AcDbLine
 10
-621.840749
 20
-88.114129
 30
0.0
 11
-624.840742
 21
-86.382077
 31
0.0
  0
LINE
  5
297
100
AcDbEntity
  8
0
370
    -3
390
0
  6
Continuous
100
AcDbLine
 10
-621.840738
 20
-81.185934
 30
0.0
 11
-618.840747
 21
-82.917984
 31
0.0
  0
LINE
  5
298
100
AcDbEntity
  8
0
370
    -3
390
0
  6
Continuous
100
AcDbLine
 10
-618.840746
 20
-86.382082
 30
0.0
 11
-621.840749
 21
-88.114129
 31
0.0
  0
LINE
  5
299
100
AcDbEntity
  8
0
370
    -3
390
0
  6
Continuous
100
AcDbLine
 10
-621.840737
 20
-81.185933
 30
0.0
 11
-624.840742
 21
-82.917979
 31
0.0
  0
LINE
  5
29A
100
AcDbEntity
  8
0
370
    -3
390
0
  6
Continuous
100
AcDbLine
 10
-618.840748
 20
-82.917983
 30
0.0
 11
-618.840747
 21
-86.382081
 31
0.0
  0
LINE
  5
29B
100
AcDbEntity
  8
0
370
    -3
390
0
  6
Continuous
100
AcDbLine
 10
-624.840741
 20
-86.382076
 30
0.0
 11
-624.840742
 21
-82.917978
 31
0.0
  0
CIRCLE
  5
29C
100
AcDbEntity
  8
0
370
    -3
390
0
  6
Continuous
100
AcDbCircle
 10
-621.840744
 20
-84.65003
 30
0.0
 40
6.5
  0
CIRCLE
  5
29D
100
AcDbEntity
  8
0
370
    -3
390
0
  6
Continuous
100
AcDbCircle
 10
-621.840744
 20
-84.65003
 30
0.0
 40
5.633955
  0
LINE
  5
29E
100
AcDbEntity
  8
0
370
    -3
390
0
  6
Continuous
100
AcDbLine
 10
-568.340745
 20
-93.459432
 30
0.0
 11
-572.340751
 21
-95.768829
 31
0.0
  0
LINE
  5
29F
100
AcDbEntity
  8
0
370
    -3
390
0
  6
Continuous
100
AcDbLine
 10
-576.340743
 20
-88.835978
 30
0.0
 11
-572.340737
 21
-86.526581
 31
0.0
  0
LINE
  5
2A0
100
AcDbEntity
  8
0
370
    -3
390
0
  6
Continuous
100
AcDbLine
 10
-572.340751
 20
-95.768829
 30
0.0
 11
-576.340741
 21
-93.459426
 31
0.0
  0
LINE
  5
2A1
100
AcDbEntity
  8
0
370
    -3
390
0
  6
Continuous
100
AcDbLine
 10
-568.340746
 20
-88.835986
 30
0.0
 11
-572.340737
 21
-86.526581
 31
0.0
  0
LINE
  5
2A2
100
AcDbEntity
  8
0
370
    -3
390
0
  6
Continuous
100
AcDbLine
 10
-568.340746
 20
-88.835987
 30
0.0
 11
-568.340745
 21
-93.459433
 31
0.0
  0
LINE
  5
2A3
100
AcDbEntity
  8
0
370
    -3
390
0
  6
Continuous
100
AcDbLine
 10
-576.340741
 20
-93.459426
 30
0.0
 11
-576.340743
 21
-88.835978
 31
0.0
  0
CIRCLE
  5
2A4
100
AcDbEntity
  8
0
370
    -3
390
0
  6
Continuous
100
AcDbCircle
 10
-572.340744
 20
-91.15003
 30
0.0
 40
8.0
  0
CIRCLE
  5
2A5
100
AcDbEntity
  8
0
370
    -3
390
0
  6
Continuous
100
AcDbCircle
 10
-572.340744
 20
-91.15003
 30
0.0
 40
6.960738
  0
LINE
  5
2A6
100
AcDbEntity
  8
0
370
    -3
390
0
  6
Continuous
100
AcDbLine
 10
-496.340745
 20
-168.959432
 30
0.0
 11
-500.340751
 21
-171.268829
 31
0.0
  0
LINE
  5
2A7
100
AcDbEntity
  8
0
370
    -3
390
0
  6
Continuous
100
AcDbLine
 10
-504.340743
 20
-164.335978
 30
0.0
 11
-500.340737
 21
-162.026581
 31
0.0
  0
LINE
  5
2A8
100
AcDbEntity
  8
0
370
    -3
390
0
  6
Continuous
100
AcDbLine
 10
-500.340751
 20
-171.268829
 30
0.0
 11
-503.947409
 21
-169.186517
 31
0.0
  0
LINE
  5
2A9
100
AcDbEntity
  8
0
370
    -3
390
0
  6
Continuous
100
AcDbLine
 10
-496.340746
 20
-164.335986
 30
0.0
 11
-500.340737
 21
-162.026581
 31
0.0
  0
LINE
  5
2AA
100
AcDbEntity
  8
0
370
    -3
390
0
  6
Continuous
100
AcDbLine
 10
-496.340746
 20
-164.335987
 30
0.0
 11
-496.340745
 21
-168.959433
 31
0.0
  0
LINE
  5
2AB
100
AcDbEntity
  8
0
370
    -3
390
0
  6
Continuous
100
AcDbLine
 10
-504.340742
 20
-168.26866
 30
0.0
 11
-504.340743
 21
-164.335978
 31
0.0
  0
ARC
  5
2AC
100
AcDbEntity
  8
0
370
    -3
390
0
  6
Continuous
100
AcDbCircle
 10
-500.340744
 20
-166.65003
 30
0.0
 40
8.0
100
AcDbArc
 50
258.941005
 51
147.89944
  0
ARC
  5
2AD
100
AcDbEntity
  8
0
370
    -3
390
0
  6
Continuous
100
AcDbCircle
 10
-500.340744
 20
-166.65003
 30
0.0
 40
6.960738
100
AcDbArc
 50
253.625108
 51
153.215337
  0
LINE
  5
2AE
100
AcDbEntity
  8
0
370
    -3
390
0
  6
Continuous
100
AcDbLine
 10
-493.340745
 20
-268.959432
 30
0.0
 11
-496.131457
 21
-270.570646
 31
0.0
  0
LINE
  5
2AF
100
AcDbEntity
  8
0
370
    -3
390
0
  6
Continuous
100
AcDbLine
 10
-493.340746
 20
-264.335986
 30
0.0
 11
-495.736234
 21
-262.952944
 31
0.0
  0
LINE
  5
2B0
100
AcDbEntity
  8
0
370
    -3
390
0
  6
Continuous
100
AcDbLine
 10
-493.340746
 20
-264.335987
 30
0.0
 11
-493.340745
 21
-268.959433
 31
0.0
  0
ARC
  5
2B1
100
AcDbEntity
  8
0
370
    -3
390
0
  6
Continuous
100
AcDbCircle
 10
-497.340744
 20
-266.65003
 30
0.0
 40
8.0
100
AcDbArc
 50
276.421798
 51
331.044976
  0
ARC
  5
2B2
100
AcDbEntity
  8
0
370
    -3
390
0
  6
Continuous
100
AcDbCircle
 10
-497.340744
 20
-266.65003
 30
0.0
 40
6.960738
100
AcDbArc
 50
278.203715
 51
351.74014
  0
LINE
  5
2B3
100
AcDbEntity
  8
0
370
    -3
390
0
  6
Continuous
100
AcDbLine
 10
-552.340745
 20
-369.959432
 30
0.0
 11
-556.340751
 21
-372.268829
 31
0.0
  0
LINE
  5
2B4
100
AcDbEntity
  8
0
370
    -3
390
0
  6
Continuous
100
AcDbLine
 10
-560.340743
 20
-365.335978
 30
0.0
 11
-556.340737
 21
-363.026581
 31
0.0
  0
LINE
  5
2B5
100
AcDbEntity
  8
0
370
    -3
390
0
  6
Continuous
100
AcDbLine
 10
-556.340751
 20
-372.268829
 30
0.0
 11
-560.340741
 21
-369.959426
 31
0.0
  0
LINE
  5
2B6
100
AcDbEntity
  8
0
370
    -3
390
0
  6
Continuous
100
AcDbLine
 10
-552.340746
 20
-365.335986
 30
0.0
 11
-556.340737
 21
-363.026581
 31
0.0
  0
LINE
  5
2B7
100
AcDbEntity
  8
0
370
    -3
390
0
  6
Continuous
100
AcDbLine
 10
-552.340746
 20
-365.335987
 30
0.0
 11
-552.340745
 21
-369.959433
 31
0.0
  0
LINE
  5
2B8
100
AcDbEntity
  8
0
370
    -3
390
0
  6
Continuous
100
AcDbLine
 10
-560.340741
 20
-369.959426
 30
0.0
 11
-560.340743
 21
-365.335978
 31
0.0
  0
ARC
  5
2B9
100
AcDbEntity
  8
0
370
    -3
390
0
  6
Continuous
100
AcDbCircle
 10
-556.340744
 20
-367.65003
 30
0.0
 40
8.0
100
AcDbArc
 50
157.141668
 51
76.015477
  0
ARC
  5
2BA
100
AcDbEntity
  8
0
370
    -3
390
0
  6
Continuous
100
AcDbCircle
 10
-556.340744
 20
-367.65003
 30
0.0
 40
6.960738
100
AcDbArc
 50
146.958504
 51
86.198641
  0
LINE
  5
2BB
100
AcDbEntity
  8
0
370
    -3
390
0
  6
Continuous
100
AcDbLine
 10
-712.340743
 20
-369.959432
 30
0.0
 11
-708.340738
 21
-372.268829
 31
0.0
  0
LINE
  5
2BC
100
AcDbEntity
  8
0
370
    -3
390
0
  6
Continuous
100
AcDbLine
 10
-704.340745
 20
-365.335978
 30
0.0
 11
-708.340751
 21
-363.026581
 31
0.0
  0
LINE
  5
2BD
100
AcDbEntity
  8
0
370
    -3
390
0
  6
Continuous
100
AcDbLine
 10
-708.340738
 20
-372.268829
 30
0.0
 11
-704.340747
 21
-369.959426
 31
0.0
  0
LINE
  5
2BE
100
AcDbEntity
  8
0
370
    -3
390
0
  6
Continuous
100
AcDbLine
 10
-712.340742
 20
-365.335986
 30
0.0
 11
-708.340752
 21
-363.026581
 31
0.0
  0
LINE
  5
2BF
100
AcDbEntity
  8
0
370
    -3
390
0
  6
Continuous
100
AcDbLine
 10
-712.340743
 20
-365.335987
 30
0.0
 11
-712.340744
 21
-369.959433
 31
0.0
  0
LINE
  5
2C0
100
AcDbEntity
  8
0
370
    -3
390
0
  6
Continuous
100
AcDbLine
 10
-704.340747
 20
-369.959426
 30
0.0
 11
-704.340745
 21
-365.335978
 31
0.0
  0
ARC
  5
2C1
100
AcDbEntity
  8
0
370
    -3
390
0
  6
Continuous
100
AcDbCircle
 10
-708.340744
 20
-367.65003
 30
0.0
 40
8.0
100
AcDbArc
 50
103.984523
 51
22.858332
  0
ARC
  5
2C2
100
AcDbEntity
  8
0
370
    -3
390
0
  6
Continuous
100
AcDbCircle
 10
-708.340744
 20
-367.65003
 30
0.0
 40
6.960738
100
AcDbArc
 50
93.801359
 51
33.041496
  0
LINE
  5
2C3
100
AcDbEntity
  8
0
370
    -3
390
0
  6
Continuous
100
AcDbLine
 10
-771.340743
 20
-268.959432
 30
0.0
 11
-768.550045
 21
-270.570638
 31
0.0
  0
LINE
  5
2C4
100
AcDbEntity
  8
0
370
    -3
390
0
  6
Continuous
100
AcDbLine
 10
-771.340742
 20
-264.335986
 30
0.0
 11
-768.945254
 21
-262.952944
 31
0.0
  0
LINE
  5
2C5
100
AcDbEntity
  8
0
370
    -3
390
0
  6
Continuous
100
AcDbLine
 10
-771.340743
 20
-264.335987
 30
0.0
 11
-771.340744
 21
-268.959433
 31
0.0
  0
ARC
  5
2C6
100
AcDbEntity
  8
0
370
    -3
390
0
  6
Continuous
100
AcDbCircle
 10
-767.340744
 20
-266.65003
 30
0.0
 40
8.0
100
AcDbArc
 50
102.825617
 51
263.578202
  0
ARC
  5
2C7
100
AcDbEntity
  8
0
370
    -3
390
0
  6
Continuous
100
AcDbCircle
 10
-767.340744
 20
-266.65003
 30
0.0
 40
6.960738
100
AcDbArc
 50
104.428521
 51
261.796285
  0
LINE
  5
2C8
100
AcDbEntity
  8
0
370
    -3
390
0
  6
Continuous
100
AcDbLine
 10
-768.340743
 20
-168.959432
 30
0.0
 11
-764.340738
 21
-171.268829
 31
0.0
  0
LINE
  5
2C9
100
AcDbEntity
  8
0
370
    -3
390
0
  6
Continuous
100
AcDbLine
 10
-760.340745
 20
-164.335978
 30
0.0
 11
-764.340751
 21
-162.026581
 31
0.0
  0
LINE
  5
2CA
100
AcDbEntity
  8
0
370
    -3
390
0
  6
Continuous
100
AcDbLine
 10
-764.340738
 20
-171.268829
 30
0.0
 11
-760.734079
 21
-169.186517
 31
0.0
  0
LINE
  5
2CB
100
AcDbEntity
  8
0
370
    -3
390
0
  6
Continuous
100
AcDbLine
 10
-768.340742
 20
-164.335986
 30
0.0
 11
-764.340752
 21
-162.026581
 31
0.0
  0
LINE
  5
2CC
100
AcDbEntity
  8
0
370
    -3
390
0
  6
Continuous
100
AcDbLine
 10
-768.340743
 20
-164.335987
 30
0.0
 11
-768.340744
 21
-168.959433
 31
0.0
  0
LINE
  5
2CD
100
AcDbEntity
  8
0
370
    -3
390
0
  6
Continuous
100
AcDbLine
 10
-760.340747
 20
-168.26866
 30
0.0
 11
-760.340745
 21
-164.335978
 31
0.0
  0
ARC
  5
2CE
100
AcDbEntity
  8
0
370
    -3
390
0
  6
Continuous
100
AcDbCircle
 10
-764.340744
 20
-166.65003
 30
0.0
 40
8.0
100
AcDbArc
 50
32.10056
 51
281.058995
  0
ARC
  5
2CF
100
AcDbEntity
  8
0
370
    -3
390
0
  6
Continuous
100
AcDbCircle
 10
-764.340744
 20
-166.65003
 30
0.0
 40
6.960738
100
AcDbArc
 50
26.784663
 51
286.374892
  0
LINE
  5
2D0
100
AcDbEntity
  8
0
370
    -3
390
0
  6
Continuous
100
AcDbLine
 10
-696.340743
 20
-93.459432
 30
0.0
 11
-692.340738
 21
-95.768829
 31
0.0
  0
LINE
  5
2D1
100
AcDbEntity
  8
0
370
    -3
390
0
  6
Continuous
100
AcDbLine
 10
-688.340745
 20
-88.835978
 30
0.0
 11
-692.340751
 21
-86.526581
 31
0.0
  0
LINE
  5
2D2
100
AcDbEntity
  8
0
370
    -3
390
0
  6
Continuous
100
AcDbLine
 10
-692.340738
 20
-95.768829
 30
0.0
 11
-688.340747
 21
-93.459426
 31
0.0
  0
LINE
  5
2D3
100
AcDbEntity
  8
0
370
    -3
390
0
  6
Continuous
100
AcDbLine
 10
-696.340742
 20
-88.835986
 30
0.0
 11
-692.340752
 21
-86.526581
 31
0.0
  0
LINE
  5
2D4
100
AcDbEntity
  8
0
370
    -3
390
0
  6
Continuous
100
AcDbLine
 10
-696.340743
 20
-88.835987
 30
0.0
 11
-696.340744
 21
-93.459433
 31
0.0
  0
LINE
  5
2D5
100
AcDbEntity
  8
0
370
    -3
390
0
  6
Continuous
100
AcDbLine
 10
-688.340747
 20
-93.459426
 30
0.0
 11
-688.340745
 21
-88.835978
 31
0.0
  0
CIRCLE
  5
2D6
100
AcDbEntity
  8
0
370
    -3
390
0
  6
Continuous
100
AcDbCircle
 10
-692.340744
 20
-91.15003
 30
0.0
 40
8.0
  0
CIRCLE
  5
2D7
100
AcDbEntity
  8
0
370
    -3
390
0
  6
Continuous
100
AcDbCircle
 10
-692.340744
 20
-91.15003
 30
0.0
 40
6.960738
  0
LINE
  5
2D8
100
AcDbEntity
  8
0
370
    -3
390
0
  6
CENTER
100
AcDbLine
 10
-494.454922
 20
-48.764208
 30
0.0
 11
-452.028515
 21
-6.337801
 31
0.0
  0
ARC
  5
2D9
100
AcDbEntity
  8
0
370
    -3
390
0
  6
CENTER
100
AcDbCircle
 10
-632.340744
 20
-186.65003
 30
0.0
 40
225.0
100
AcDbArc
 50
37.3602
 51
52.6398
  0
LINE
  5
2DA
100
AcDbEntity
  8
0
370
    -3
390
0
  6
CENTER
100
AcDbLine
 10
-770.226567
 20
-48.764208
 30
0.0
 11
-812.652973
 21
-6.337801
 31
0.0
  0
ARC
  5
2DB
100
AcDbEntity
  8
0
370
    -3
390
0
  6
CENTER
100
AcDbCircle
 10
-632.340744
 20
-186.65003
 30
0.0
 40
225.0
100
AcDbArc
 50
127.3602
 51
142.6398
  0
LINE
  5
2DC
100
AcDbEntity
  8
0
370
    -3
390
0
  6
CENTER
100
AcDbLine
 10
-770.226567
 20
-324.535853
 30
0.0
 11
-812.652973
 21
-366.96226
 31
0.0
  0
ARC
  5
2DD
100
AcDbEntity
  8
0
370
    -3
390
0
  6
CENTER
100
AcDbCircle
 10
-632.340744
 20
-186.65003
 30
0.0
 40
225.0
100
AcDbArc
 50
217.3602
 51
232.6398
  0
LINE
  5
2DE
100
AcDbEntity
  8
0
370
    -3
390
0
  6
CENTER
100
AcDbLine
 10
-494.454922
 20
-324.535853
 30
0.0
 11
-452.028515
 21
-366.96226
 31
0.0
  0
ARC
  5
2DF
100
AcDbEntity
  8
0
370
    -3
390
0
  6
CENTER
100
AcDbCircle
 10
-632.340744
 20
-186.65003
 30
0.0
 40
225.0
100
AcDbArc
 50
307.3602
 51
322.6398
  0
LINE
  5
2E0
100
AcDbEntity
  8
0
370
    -3
390
0
  6
CENTER
100
AcDbLine
 10
-551.457765
 20
-115.15003
 30
0.0
 11
-512.56915
 21
-115.15003
 31
0.0
  0
ARC
  5
2E1
100
AcDbEntity
  8
0
370
    -3
390
0
  6
Continuous
100
AcDbCircle
 10
-552.340744
 20
-115.15003
 30
0.0
 40
10.5
100
AcDbArc
 50
328.484266
 51
149.445645
  0
ARC
  5
2E2
100
AcDbEntity
  8
0
370
    -3
390
0
  6
Continuous
100
AcDbCircle
 10
-552.340744
 20
-115.15003
 30
0.0
 40
9.35
100
AcDbArc
 50
329.119421
 51
148.81049
  0
ARC
  5
2E3
100
AcDbEntity
  8
0
370
    -3
390
0
  6
Continuous
100
AcDbCircle
 10
-552.340744
 20
-115.15003
 30
0.0
 40
17.5
100
AcDbArc
 50
325.579115
 51
152.44043
  0
LINE
  5
2E4
100
AcDbEntity
  8
0
370
    -3
390
0
  6
CENTER
100
AcDbLine
 10
-552.340744
 20
-114.615884
 30
0.0
 11
-552.340744
 21
-89.648508
 31
0.0
  0
LINE
  5
2E5
100
AcDbEntity
  8
0
370
    -3
390
0
  6
Continuous
100
AcDbLine
 10
59.693099
 20
213.34997
 30
0.0
 11
59.693099
 21
65.34997
 31
0.0
  0
ARC
  5
2E6
100
AcDbEntity
  8
0
370
    -3
390
0
  6
Continuous
100
AcDbCircle
 10
50.693099
 20
68.34997
 30
0.0
 40
3.0
100
AcDbArc
 50
180.0
 51
270.0
  0
LINE
  5
2E7
100
AcDbEntity
  8
0
370
    -3
390
0
  6
Continuous
100
AcDbLine
 10
44.693099
 20
65.34997
 30
0.0
 11
60.193099
 21
65.34997
 31
0.0
  0
ARC
  5
2E8
100
AcDbEntity
  8
0
370
    -3
390
0
  6
Continuous
100
AcDbCircle
 10
44.693099
 20
68.34997
 30
0.0
 40
3.0
100
AcDbArc
 50
180.0
 51
270.0
  0
LINE
  5
2E9
100
AcDbEntity
  8
0
370
    -3
390
0
  6
Continuous
100
AcDbLine
 10
41.693099
 20
73.34997
 30
0.0
 11
41.693099
 21
68.34997
 31
0.0
  0
LINE
  5
2EA
100
AcDbEntity
  8
0
370
    -3
390
0
  6
Continuous
100
AcDbLine
 10
47.693099
 20
68.34997
 30
0.0
 11
47.693099
 21
189.84997
 31
0.0
  0
ARC
  5
2EB
100
AcDbEntity
  8
0
370
    -3
390
0
  6
Continuous
100
AcDbCircle
 10
44.693099
 20
189.84997
 30
0.0
 40
3.0
100
AcDbArc
 50
0.0
 51
90.0
  0
ARC
  5
2EC
100
AcDbEntity
  8
0
370
    -3
390
0
  6
Continuous
100
AcDbCircle
 10
39.693099
 20
195.84997
 30
0.0
 40
3.0
100
AcDbArc
 50
180.0
 51
270.0
  0
LINE
  5
2ED
100
AcDbEntity
  8
0
370
    -3
390
0
  6
Continuous
100
AcDbLine
 10
36.693099
 20
213.34997
 30
0.0
 11
36.693099
 21
192.84997
 31
0.0
  0
LINE
  5
2EE
100
AcDbEntity
  8
0
370
    -3
390
0
  6
Continuous
100
AcDbLine
 10
32.193099
 20
192.84997
 30
0.0
 11
36.693099
 21
192.84997
 31
0.0
  0
LINE
  5
2EF
100
AcDbEntity
  8
0
370
    -3
390
0
  6
Continuous
100
AcDbLine
 10
39.693099
 20
192.84997
 30
0.0
 11
44.693099
 21
192.84997
 31
0.0
  0
LINE
  5
2F0
100
AcDbEntity
  8
0
370
    -3
390
0
  6
Continuous
100
AcDbLine
 10
32.193099
 20
213.34997
 30
0.0
 11
32.193099
 21
192.84997
 31
0.0
  0
LINE
  5
2F1
100
AcDbEntity
  8
0
370
    -3
390
0
  6
Continuous
100
AcDbLine
 10
-6.306901
 20
103.34997
 30
0.0
 11
-6.306901
 21
213.34997
 31
0.0
  0
ARC
  5
2F2
100
AcDbEntity
  8
0
370
    -3
390
0
  6
Continuous
100
AcDbCircle
 10
-6.306901
 20
101.34997
 30
0.0
 40
2.0
100
AcDbArc
 50
0.0
 51
90.0
  0
ARC
  5
2F3
100
AcDbEntity
  8
0
370
    -3
390
0
  6
Continuous
100
AcDbCircle
 10
-2.306901
 20
85.247899
 30
0.0
 40
2.0
100
AcDbArc
 50
180.0
 51
267.0
  0
LINE
  5
2F4
100
AcDbEntity
  8
0
370
    -3
390
0
  6
Continuous
100
AcDbLine
 10
-2.411573
 20
83.25064
 30
0.0
 11
37.693099
 21
81.148843
 31
0.0
  0
LINE
  5
2F5
100
AcDbEntity
  8
0
370
    -3
390
0
  6
Continuous
100
AcDbLine
 10
-4.306901
 20
85.247899
 30
0.0
 11
-4.306901
 21
213.34997
 31
0.0
  0
LINE
  5
2F6
100
AcDbEntity
  8
0
370
    -3
390
0
  6
Continuous
100
AcDbLine
 10
59.693099
 20
213.34997
 30
0.0
 11
59.693099
 21
361.34997
 31
0.0
  0
ARC
  5
2F7
100
AcDbEntity
  8
0
370
    -3
390
0
  6
Continuous
100
AcDbCircle
 10
50.693099
 20
358.34997
 30
0.0
 40
3.0
100
AcDbArc
 50
90.0
 51
180.0
  0
LINE
  5
2F8
100
AcDbEntity
  8
0
370
    -3
390
0
  6
Continuous
100
AcDbLine
 10
44.693099
 20
361.34997
 30
0.0
 11
60.193099
 21
361.34997
 31
0.0
  0
ARC
  5
2F9
100
AcDbEntity
  8
0
370
    -3
390
0
  6
Continuous
100
AcDbCircle
 10
44.693099
 20
358.34997
 30
0.0
 40
3.0
100
AcDbArc
 50
90.0
 51
180.0
  0
LINE
  5
2FA
100
AcDbEntity
  8
0
370
    -3
390
0
  6
Continuous
100
AcDbLine
 10
41.693099
 20
353.34997
 30
0.0
 11
41.693099
 21
358.34997
 31
0.0
  0
LINE
  5
2FB
100
AcDbEntity
  8
0
370
    -3
390
0
  6
Continuous
100
AcDbLine
 10
47.693099
 20
358.34997
 30
0.0
 11
47.693099
 21
236.84997
 31
0.0
  0
ARC
  5
2FC
100
AcDbEntity
  8
0
370
    -3
390
0
  6
Continuous
100
AcDbCircle
 10
44.693099
 20
236.84997
 30
0.0
 40
3.0
100
AcDbArc
 50
270.0
 51
0.0
  0
ARC
  5
2FD
100
AcDbEntity
  8
0
370
    -3
390
0
  6
Continuous
100
AcDbCircle
 10
39.693099
 20
230.84997
 30
0.0
 40
3.0
100
AcDbArc
 50
90.0
 51
180.0
  0
LINE
  5
2FE
100
AcDbEntity
  8
0
370
    -3
390
0
  6
Continuous
100
AcDbLine
 10
36.693099
 20
213.34997
 30
0.0
 11
36.693099
 21
233.84997
 31
0.0
  0
LINE
  5
2FF
100
AcDbEntity
  8
0
370
    -3
390
0
  6
Continuous
100
AcDbLine
 10
32.193099
 20
233.84997
 30
0.0
 11
36.693099
 21
233.84997
 31
0.0
  0
LINE
  5
300
100
AcDbEntity
  8
0
370
    -3
390
0
  6
Continuous
100
AcDbLine
 10
39.693099
 20
233.84997
 30
0.0
 11
44.693099
 21
233.84997
 31
0.0
  0
LINE
  5
301
100
AcDbEntity
  8
0
370
    -3
390
0
  6
Continuous
100
AcDbLine
 10
32.193099
 20
213.34997
 30
0.0
 11
32.193099
 21
233.84997
 31
0.0
  0
LINE
  5
302
100
AcDbEntity
  8
0
370
    -3
390
0
  6
Continuous
100
AcDbLine
 10
-6.306901
 20
323.34997
 30
0.0
 11
-6.306901
 21
213.34997
 31
0.0
  0
ARC
  5
303
100
AcDbEntity
  8
0
370
    -3
390
0
  6
Continuous
100
AcDbCircle
 10
-6.306901
 20
325.34997
 30
0.0
 40
2.0
100
AcDbArc
 50
270.0
 51
0.0
  0
ARC
  5
304
100
AcDbEntity
  8
0
370
    -3
390
0
  6
Continuous
100
AcDbCircle
 10
-2.306901
 20
341.45204
 30
0.0
 40
2.0
100
AcDbArc
 50
93.0
 51
180.0
  0
LINE
  5
305
100
AcDbEntity
  8
0
370
    -3
390
0
  6
Continuous
100
AcDbLine
 10
-2.411573
 20
343.449299
 30
0.0
 11
37.693099
 21
345.551096
 31
0.0
  0
LINE
  5
306
100
AcDbEntity
  8
0
370
    -3
390
0
  6
Continuous
100
AcDbLine
 10
-4.306901
 20
341.45204
 30
0.0
 11
-4.306901
 21
213.34997
 31
0.0
  0
ARC
  5
307
100
AcDbEntity
  8
0
370
    -3
390
0
  6
Continuous
100
AcDbCircle
 10
176.907318
 20
309.138291
 30
0.0
 40
5.0
100
AcDbArc
 50
270.0
 51
321.908433
  0
LINE
  5
308
100
AcDbEntity
  8
0
370
    -3
390
0
  6
Continuous
100
AcDbLine
 10
180.842447
 20
306.053691
 30
0.0
 11
207.628228
 21
340.225221
 31
0.0
  0
ARC
  5
309
100
AcDbEntity
  8
0
370
    -3
390
0
  6
Continuous
100
AcDbCircle
 10
203.693099
 20
343.309821
 30
0.0
 40
5.0
100
AcDbArc
 50
321.908433
 51
0.0
  0
ARC
  5
30A
100
AcDbEntity
  8
0
370
    -3
390
0
  6
Continuous
100
AcDbCircle
 10
176.907318
 20
316.866213
 30
0.0
 40
5.0
100
AcDbArc
 50
270.0
 51
321.908433
  0
LINE
  5
30B
100
AcDbEntity
  8
0
370
    -3
390
0
  6
Continuous
100
AcDbLine
 10
180.842447
 20
313.781613
 30
0.0
 11
207.628228
 21
347.953143
 31
0.0
  0
ARC
  5
30C
100
AcDbEntity
  8
0
370
    -3
390
0
  6
Continuous
100
AcDbCircle
 10
203.693099
 20
351.037743
 30
0.0
 40
5.0
100
AcDbArc
 50
321.908433
 51
0.0
  0
LINE
  5
30D
100
AcDbEntity
  8
0
370
    -3
390
0
  6
Continuous
100
AcDbLine
 10
203.817642
 20
304.138291
 30
0.0
 11
183.036788
 21
304.138291
 31
0.0
  0
ARC
  5
30E
100
AcDbEntity
  8
0
370
    -3
390
0
  6
Continuous
100
AcDbCircle
 10
176.907318
 20
109.833726
 30
0.0
 40
5.0
100
AcDbArc
 50
38.091567
 51
90.0
  0
LINE
  5
30F
100
AcDbEntity
  8
0
370
    -3
390
0
  6
Continuous
100
AcDbLine
 10
180.842447
 20
112.918326
 30
0.0
 11
207.628228
 21
78.746796
 31
0.0
  0
ARC
  5
310
100
AcDbEntity
  8
0
370
    -3
390
0
  6
Continuous
100
AcDbCircle
 10
203.693099
 20
75.662196
 30
0.0
 40
5.0
100
AcDbArc
 50
0.0
 51
38.091567
  0
ARC
  5
311
100
AcDbEntity
  8
0
370
    -3
390
0
  6
Continuous
100
AcDbCircle
 10
203.693099
 20
83.390118
 30
0.0
 40
5.0
100
AcDbArc
 50
0.0
 51
38.091567
  0
ARC
  5
312
100
AcDbEntity
  8
0
370
    -3
390
0
  6
Continuous
100
AcDbCircle
 10
176.907318
 20
117.561648
 30
0.0
 40
5.0
100
AcDbArc
 50
38.091567
 51
90.0
  0
LINE
  5
313
100
AcDbEntity
  8
0
370
    -3
390
0
  6
Continuous
100
AcDbLine
 10
180.842447
 20
120.646248
 30
0.0
 11
207.628228
 21
86.474718
 31
0.0
  0
ARC
  5
314
100
AcDbEntity
  8
0
370
    -3
390
0
  6
Continuous
100
AcDbCircle
 10
203.693099
 20
222.34997
 30
0.0
 40
5.0
100
AcDbArc
 50
270.0
 51
0.0
  0
ARC
  5
315
100
AcDbEntity
  8
0
370
    -3
390
0
  6
Continuous
100
AcDbCircle
 10
203.693099
 20
204.34997
 30
0.0
 40
5.0
100
AcDbArc
 50
0.0
 51
90.0
  0
ARC
  5
316
100
AcDbEntity
  8
0
370
    -3
390
0
  6
Continuous
100
AcDbCircle
 10
184.341037
 20
204.34997
 30
0.0
 40
5.0
100
AcDbArc
 50
90.0
 51
180.0
  0
ARC
  5
317
100
AcDbEntity
  8
0
370
    -3
390
0
  6
Continuous
100
AcDbCircle
 10
184.341037
 20
222.34997
 30
0.0
 40
5.0
100
AcDbArc
 50
180.0
 51
270.0
  0
LINE
  5
318
100
AcDbEntity
  8
0
370
    -3
390
0
  6
Continuous
100
AcDbLine
 10
203.817642
 20
122.561648
 30
0.0
 11
183.036788
 21
122.561648
 31
0.0
  0
LINE
  5
319
100
AcDbEntity
  8
0
370
    -3
390
0
  6
Continuous
100
AcDbLine
 10
203.693099
 20
209.34997
 30
0.0
 11
184.341037
 21
209.34997
 31
0.0
  0
LINE
  5
31A
100
AcDbEntity
  8
0
370
    -3
390
0
  6
Continuous
100
AcDbLine
 10
203.693099
 20
217.34997
 30
0.0
 11
184.341037
 21
217.34997
 31
0.0
  0
LINE
  5
31B
100
AcDbEntity
  8
0
370
    -3
390
0
  6
CENTER
100
AcDbLine
 10
241.554727
 20
54.250944
 30
0.0
 11
194.424583
 21
54.250944
 31
0.0
  0
LINE
  5
31C
100
AcDbEntity
  8
0
370
    -3
390
0
  6
CENTER
100
AcDbLine
 10
241.554727
 20
372.448995
 30
0.0
 11
194.424583
 21
372.448995
 31
0.0
  0
LINE
  5
31D
100
AcDbEntity
  8
0
370
    -3
390
0
  6
Continuous
100
AcDbLine
 10
231.693099
 20
43.34997
 30
0.0
 11
232.693099
 21
44.34997
 31
0.0
  0
LINE
  5
31E
100
AcDbEntity
  8
0
370
    -3
390
0
  6
Continuous
100
AcDbLine
 10
228.693099
 20
43.34997
 30
0.0
 11
231.693099
 21
43.34997
 31
0.0
  0
ARC
  5
31F
100
AcDbEntity
  8
0
370
    -3
390
0
  6
Continuous
100
AcDbCircle
 10
210.693099
 20
30.34995
 30
0.0
 40
2.0
100
AcDbArc
 50
180.0
 51
270.0
  0
LINE
  5
320
100
AcDbEntity
  8
0
370
    -3
390
0
  6
Continuous
100
AcDbLine
 10
210.68422
 20
28.34997
 30
0.0
 11
228.693099
 21
28.34997
 31
0.0
  0
ARC
  5
321
100
AcDbEntity
  8
0
370
    -3
390
0
  6
Continuous
100
AcDbCircle
 10
203.693099
 20
55.335791
 30
0.0
 40
5.0
100
AcDbArc
 50
0.0
 51
88.0
  0
LINE
  5
322
100
AcDbEntity
  8
0
370
    -3
390
0
  6
Continuous
100
AcDbLine
 10
60.193099
 20
65.34997
 30
0.0
 11
203.867596
 21
60.332746
 31
0.0
  0
ARC
  5
323
100
AcDbEntity
  8
0
370
    -3
390
0
  6
Continuous
100
AcDbCircle
 10
223.693099
 20
108.842775
 30
0.0
 40
2.0
100
AcDbArc
 50
180.0
 51
270.0
  0
ARC
  5
324
100
AcDbEntity
  8
0
370
    -3
390
0
  6
Continuous
100
AcDbCircle
 10
223.693099
 20
72.776376
 30
0.0
 40
2.0
100
AcDbArc
 50
180.0
 51
270.0
  0
LINE
  5
325
100
AcDbEntity
  8
0
370
    -3
390
0
  6
Continuous
100
AcDbLine
 10
228.693099
 20
70.776376
 30
0.0
 11
223.693099
 21
70.776376
 31
0.0
  0
LINE
  5
326
100
AcDbEntity
  8
0
370
    -3
390
0
  6
Continuous
100
AcDbLine
 10
228.693099
 20
106.842775
 30
0.0
 11
223.693099
 21
106.842775
 31
0.0
  0
LINE
  5
327
100
AcDbEntity
  8
0
370
    -3
390
0
  6
Continuous
100
AcDbLine
 10
318.693099
 20
213.34997
 30
0.0
 11
318.693099
 21
186.64997
 31
0.0
  0
ARC
  5
328
100
AcDbEntity
  8
0
370
    -3
390
0
  6
Continuous
100
AcDbCircle
 10
317.893099
 20
186.64997
 30
0.0
 40
0.8
100
AcDbArc
 50
270.0
 51
0.0
  0
LINE
  5
329
100
AcDbEntity
  8
0
370
    -3
390
0
  6
Continuous
100
AcDbLine
 10
318.693099
 20
181.84997
 30
0.0
 11
318.693099
 21
186.64997
 31
0.0
  0
ARC
  5
32A
100
AcDbEntity
  8
0
370
    -3
390
0
  6
Continuous
100
AcDbCircle
 10
317.893099
 20
240.04997
 30
0.0
 40
0.8
100
AcDbArc
 50
0.0
 51
90.0
  0
LINE
  5
32B
100
AcDbEntity
  8
0
370
    -3
390
0
  6
Continuous
100
AcDbLine
 10
318.693099
 20
213.34997
 30
0.0
 11
318.693099
 21
240.04997
 31
0.0
  0
LINE
  5
32C
100
AcDbEntity
  8
0
370
    -3
390
0
  6
Continuous
100
AcDbLine
 10
228.693099
 20
213.34997
 30
0.0
 11
228.693099
 21
28.34997
 31
0.0
  0
LINE
  5
32D
100
AcDbEntity
  8
0
370
    -3
390
0
  6
Continuous
100
AcDbLine
 10
232.693099
 20
213.34997
 30
0.0
 11
232.693099
 21
44.34997
 31
0.0
  0
LINE
  5
32E
100
AcDbEntity
  8
0
370
    -3
390
0
  6
CENTER
100
AcDbLine
 10
85.193099
 20
239.645977
 30
0.0
 11
85.193099
 21
187.575891
 31
0.0
  0
ARC
  5
32F
100
AcDbEntity
  8
0
370
    -3
390
0
  6
Continuous
100
AcDbCircle
 10
85.193099
 20
213.610934
 30
0.0
 40
17.5
100
AcDbArc
 50
90.0
 51
270.0
  0
ARC
  5
330
100
AcDbEntity
  8
0
370
    -3
390
0
  6
Continuous
100
AcDbCircle
 10
85.193099
 20
213.34997
 30
0.0
 40
20.0
100
AcDbArc
 50
300.46356
 51
62.629003
  0
LINE
  5
331
100
AcDbEntity
  8
0
370
    -3
390
0
  6
Continuous
100
AcDbLine
 10
85.193099
 20
196.110934
 30
0.0
 11
171.703223
 21
196.110934
 31
0.0
  0
ARC
  5
332
100
AcDbEntity
  8
0
370
    -3
390
0
  6
Continuous
100
AcDbCircle
 10
171.703223
 20
193.110934
 30
0.0
 40
3.0
100
AcDbArc
 50
0.0
 51
90.0
  0
LINE
  5
333
100
AcDbEntity
  8
0
370
    -3
390
0
  6
Continuous
100
AcDbLine
 10
85.193099
 20
231.110934
 30
0.0
 11
171.703223
 21
231.110934
 31
0.0
  0
ARC
  5
334
100
AcDbEntity
  8
0
370
    -3
390
0
  6
Continuous
100
AcDbCircle
 10
171.703223
 20
234.110934
 30
0.0
 40
3.0
100
AcDbArc
 50
270.0
 51
0.0
  0
LINE
  5
335
100
AcDbEntity
  8
0
370
    -3
390
0
  6
Continuous
100
AcDbLine
 10
221.693099
 20
213.34997
 30
0.0
 11
221.693099
 21
72.776376
 31
0.0
  0
CIRCLE
  5
336
100
AcDbEntity
  8
0
370
    -3
390
0
  6
Continuous
100
AcDbCircle
 10
85.193099
 20
213.34997
 30
0.0
 40
16.0
  0
LINE
  5
337
100
AcDbEntity
  8
0
370
    -3
390
0
  6
Continuous
100
AcDbLine
 10
317.893099
 20
185.84997
 30
0.0
 11
254.693099
 21
185.84997
 31
0.0
  0
LINE
  5
338
100
AcDbEntity
  8
0
370
    -3
390
0
  6
Continuous
100
AcDbLine
 10
246.693099
 20
185.84997
 30
0.0
 11
239.252907
 21
185.84997
 31
0.0
  0
LINE
  5
339
100
AcDbEntity
  8
0
370
    -3
390
0
  6
Continuous
100
AcDbLine
 10
254.693099
 20
185.84997
 30
0.0
 11
246.693099
 21
185.84997
 31
0.0
  0
LINE
  5
33A
100
AcDbEntity
  8
0
370
    -3
390
0
  6
Continuous
100
AcDbLine
 10
236.693099
 20
213.34997
 30
0.0
 11
236.693099
 21
185.14997
 31
0.0
  0
LINE
  5
33B
100
AcDbEntity
  8
0
370
    -3
390
0
  6
Continuous
100
AcDbLine
 10
235.893099
 20
184.34997
 30
0.0
 11
232.693099
 21
184.34997
 31
0.0
  0
LINE
  5
33C
100
AcDbEntity
  8
0
370
    -3
390
0
  6
Continuous
100
AcDbLine
 10
236.693099
 20
185.14997
 30
0.0
 11
236.693099
 21
213.34997
 31
0.0
  0
LINE
  5
33D
100
AcDbEntity
  8
0
370
    -3
390
0
  6
Continuous
100
AcDbLine
 10
238.693099
 20
185.99997
 30
0.0
 11
237.493099
 21
185.99997
 31
0.0
  0
LINE
  5
33E
100
AcDbEntity
  8
0
370
    -3
390
0
  6
Continuous
100
AcDbLine
 10
238.693099
 20
185.99997
 30
0.0
 11
239.252907
 21
185.84997
 31
0.0
  0
ARC
  5
33F
100
AcDbEntity
  8
0
370
    -3
390
0
  6
Continuous
100
AcDbCircle
 10
237.493099
 20
185.19997
 30
0.0
 40
0.8
100
AcDbArc
 50
90.0
 51
180.0
  0
LINE
  5
340
100
AcDbEntity
  8
0
370
    -3
390
0
  6
Continuous
100
AcDbLine
 10
235.893099
 20
184.34997
 30
0.0
 11
236.693099
 21
185.14997
 31
0.0
  0
LINE
  5
341
100
AcDbEntity
  8
0
370
    -3
390
0
  6
Continuous
100
AcDbLine
 10
247.693099
 20
185.84997
 30
0.0
 11
247.693099
 21
181.84997
 31
0.0
  0
LINE
  5
342
100
AcDbEntity
  8
0
370
    -3
390
0
  6
Continuous
100
AcDbLine
 10
318.693099
 20
181.84997
 30
0.0
 11
247.693099
 21
181.84997
 31
0.0
  0
LINE
  5
343
100
AcDbEntity
  8
0
370
    -3
390
0
  6
Continuous
100
AcDbLine
 10
235.893099
 20
242.34997
 30
0.0
 11
232.693099
 21
242.34997
 31
0.0
  0
LINE
  5
344
100
AcDbEntity
  8
0
370
    -3
390
0
  6
Continuous
100
AcDbLine
 10
235.893099
 20
242.34997
 30
0.0
 11
236.693099
 21
241.54997
 31
0.0
  0
ARC
  5
345
100
AcDbEntity
  8
0
370
    -3
390
0
  6
Continuous
100
AcDbCircle
 10
237.493099
 20
241.49997
 30
0.0
 40
0.8
100
AcDbArc
 50
180.0
 51
270.0
  0
LINE
  5
346
100
AcDbEntity
  8
0
370
    -3
390
0
  6
Continuous
100
AcDbLine
 10
238.693099
 20
240.69997
 30
0.0
 11
239.252907
 21
240.84997
 31
0.0
  0
LINE
  5
347
100
AcDbEntity
  8
0
370
    -3
390
0
  6
Continuous
100
AcDbLine
 10
238.693099
 20
240.69997
 30
0.0
 11
237.493099
 21
240.69997
 31
0.0
  0
LINE
  5
348
100
AcDbEntity
  8
0
370
    -3
390
0
  6
Continuous
100
AcDbLine
 10
317.893099
 20
240.84997
 30
0.0
 11
239.252907
 21
240.84997
 31
0.0
  0
LINE
  5
349
100
AcDbEntity
  8
0
370
    -3
390
0
  6
Continuous
100
AcDbLine
 10
236.693099
 20
241.54997
 30
0.0
 11
236.693099
 21
213.34997
 31
0.0
  0
LINE
  5
34A
100
AcDbEntity
  8
0
370
    -3
390
0
  6
Continuous
100
AcDbLine
 10
236.693099
 20
213.34997
 30
0.0
 11
236.693099
 21
241.54997
 31
0.0
  0
LINE
  5
34B
100
AcDbEntity
  8
0
370
    -3
390
0
  6
CENTER
100
AcDbLine
 10
339.856671
 20
213.34997
 30
0.0
 11
-404.670094
 21
213.34997
 31
0.0
  0
LINE
  5
34C
100
AcDbEntity
  8
0
370
    -3
390
0
  6
Continuous
100
AcDbLine
 10
231.693099
 20
383.349989
 30
0.0
 11
232.693099
 21
382.349989
 31
0.0
  0
LINE
  5
34D
100
AcDbEntity
  8
0
370
    -3
390
0
  6
Continuous
100
AcDbLine
 10
231.693099
 20
383.349989
 30
0.0
 11
228.693099
 21
383.349989
 31
0.0
  0
LINE
  5
34E
100
AcDbEntity
  8
0
370
    -3
390
0
  6
Continuous
100
AcDbLine
 10
228.693099
 20
398.349989
 30
0.0
 11
210.693099
 21
398.349989
 31
0.0
  0
ARC
  5
34F
100
AcDbEntity
  8
0
370
    -3
390
0
  6
Continuous
100
AcDbCircle
 10
210.693099
 20
396.349989
 30
0.0
 40
2.0
100
AcDbArc
 50
90.0
 51
180.0
  0
ARC
  5
350
100
AcDbEntity
  8
0
370
    -3
390
0
  6
Continuous
100
AcDbCircle
 10
203.693099
 20
371.364148
 30
0.0
 40
5.0
100
AcDbArc
 50
272.0
 51
0.0
  0
LINE
  5
351
100
AcDbEntity
  8
0
370
    -3
390
0
  6
Continuous
100
AcDbLine
 10
60.193099
 20
361.34997
 30
0.0
 11
203.867596
 21
366.367194
 31
0.0
  0
ARC
  5
352
100
AcDbEntity
  8
0
370
    -3
390
0
  6
Continuous
100
AcDbCircle
 10
223.693099
 20
317.857164
 30
0.0
 40
2.0
100
AcDbArc
 50
90.0
 51
180.0
  0
ARC
  5
353
100
AcDbEntity
  8
0
370
    -3
390
0
  6
Continuous
100
AcDbCircle
 10
223.693099
 20
353.923563
 30
0.0
 40
2.0
100
AcDbArc
 50
90.0
 51
180.0
  0
LINE
  5
354
100
AcDbEntity
  8
0
370
    -3
390
0
  6
Continuous
100
AcDbLine
 10
228.693099
 20
355.923563
 30
0.0
 11
223.693099
 21
355.923563
 31
0.0
  0
LINE
  5
355
100
AcDbEntity
  8
0
370
    -3
390
0
  6
Continuous
100
AcDbLine
 10
228.693099
 20
319.857164
 30
0.0
 11
223.693099
 21
319.857164
 31
0.0
  0
LINE
  5
356
100
AcDbEntity
  8
0
370
    -3
390
0
  6
Continuous
100
AcDbLine
 10
228.693099
 20
213.34997
 30
0.0
 11
228.693099
 21
398.349989
 31
0.0
  0
LINE
  5
357
100
AcDbEntity
  8
0
370
    -3
390
0
  6
Continuous
100
AcDbLine
 10
232.693099
 20
213.34997
 30
0.0
 11
232.693099
 21
382.349989
 31
0.0
  0
LINE
  5
358
100
AcDbEntity
  8
0
370
    -3
390
0
  6
Continuous
100
AcDbLine
 10
208.693099
 20
30.34995
 30
0.0
 11
208.693099
 21
396.349989
 31
0.0
  0
LINE
  5
359
100
AcDbEntity
  8
0
370
    -3
390
0
  6
Continuous
100
AcDbLine
 10
60.193099
 20
361.34997
 30
0.0
 11
60.193099
 21
65.34997
 31
0.0
  0
LINE
  5
35A
100
AcDbEntity
  8
0
370
    -3
390
0
  6
Continuous
100
AcDbLine
 10
221.693099
 20
213.34997
 30
0.0
 11
221.693099
 21
353.923563
 31
0.0
  0
LINE
  5
35B
100
AcDbEntity
  8
0
370
    -3
390
0
  6
Continuous
100
AcDbLine
 10
38.293099
 20
337.34997
 30
0.0
 11
38.293099
 21
353.34997
 31
0.0
  0
LINE
  5
35C
100
AcDbEntity
  8
0
370
    -3
390
0
  6
Continuous
100
AcDbLine
 10
38.2931
 20
353.349969
 30
0.0
 11
37.6931
 21
352.31088
 31
0.0
  0
LINE
  5
35D
100
AcDbEntity
  8
0
370
    -3
390
0
  6
Continuous
100
AcDbLine
 10
38.293103
 20
337.349971
 30
0.0
 11
37.693102
 21
338.38936
 31
0.0
  0
LINE
  5
35E
100
AcDbEntity
  8
0
370
    -3
390
0
  6
Continuous
100
AcDbLine
 10
47.693099
 20
353.34997
 30
0.0
 11
38.293099
 21
353.34997
 31
0.0
  0
LINE
  5
35F
100
AcDbEntity
  8
0
370
    -3
390
0
  6
Continuous
100
AcDbLine
 10
47.693099
 20
337.34997
 30
0.0
 11
38.293099
 21
337.34997
 31
0.0
  0
LINE
  5
360
100
AcDbEntity
  8
0
370
    -3
390
0
  6
Continuous
100
AcDbLine
 10
37.693098
 20
338.389357
 30
0.0
 11
37.693099
 21
352.310881
 31
0.0
  0
LINE
  5
361
100
AcDbEntity
  8
0
370
    -3
390
0
  6
Continuous
100
AcDbLine
 10
37.693098
 20
266.477526
 30
0.0
 11
37.693099
 21
280.39905
 31
0.0
  0
LINE
  5
362
100
AcDbEntity
  8
0
370
    -3
390
0
  6
Continuous
100
AcDbLine
 10
47.693099
 20
265.438139
 30
0.0
 11
38.293099
 21
265.438139
 31
0.0
  0
LINE
  5
363
100
AcDbEntity
  8
0
370
    -3
390
0
  6
Continuous
100
AcDbLine
 10
47.693099
 20
281.438139
 30
0.0
 11
38.293099
 21
281.438139
 31
0.0
  0
LINE
  5
364
100
AcDbEntity
  8
0
370
    -3
390
0
  6
Continuous
100
AcDbLine
 10
38.293103
 20
265.43814
 30
0.0
 11
37.693102
 21
266.477529
 31
0.0
  0
LINE
  5
365
100
AcDbEntity
  8
0
370
    -3
390
0
  6
Continuous
100
AcDbLine
 10
38.2931
 20
281.438138
 30
0.0
 11
37.6931
 21
280.39905
 31
0.0
  0
LINE
  5
366
100
AcDbEntity
  8
0
370
    -3
390
0
  6
Continuous
100
AcDbLine
 10
38.293099
 20
265.438139
 30
0.0
 11
38.293099
 21
281.438139
 31
0.0
  0
LINE
  5
367
100
AcDbEntity
  8
0
370
    -3
390
0
  6
Continuous
100
AcDbLine
 10
24.1931
 20
208.483845
 30
0.0
 11
24.1931
 21
197.215899
 31
0.0
  0
LINE
  5
368
100
AcDbEntity
  8
0
370
    -3
390
0
  6
Continuous
100
AcDbLine
 10
32.193099
 20
209.34997
 30
0.0
 11
24.6931
 21
209.34997
 31
0.0
  0
LINE
  5
369
100
AcDbEntity
  8
0
370
    -3
390
0
  6
Continuous
100
AcDbLine
 10
32.193099
 20
196.34997
 30
0.0
 11
24.693101
 21
196.34997
 31
0.0
  0
LINE
  5
36A
100
AcDbEntity
  8
0
370
    -3
390
0
  6
Continuous
100
AcDbLine
 10
24.693101
 20
209.34997
 30
0.0
 11
24.193101
 21
208.483845
 31
0.0
  0
LINE
  5
36B
100
AcDbEntity
  8
0
370
    -3
390
0
  6
Continuous
100
AcDbLine
 10
24.693101
 20
196.34997
 30
0.0
 11
24.1931
 21
197.215899
 31
0.0
  0
LINE
  5
36C
100
AcDbEntity
  8
0
370
    -3
390
0
  6
Continuous
100
AcDbLine
 10
24.6931
 20
209.34997
 30
0.0
 11
24.6931
 21
196.34997
 31
0.0
  0
LINE
  5
36D
100
AcDbEntity
  8
0
370
    -3
390
0
  6
Continuous
100
AcDbLine
 10
24.1931
 20
218.216094
 30
0.0
 11
24.1931
 21
229.48404
 31
0.0
  0
LINE
  5
36E
100
AcDbEntity
  8
0
370
    -3
390
0
  6
Continuous
100
AcDbLine
 10
32.193099
 20
217.34997
 30
0.0
 11
24.6931
 21
217.34997
 31
0.0
  0
LINE
  5
36F
100
AcDbEntity
  8
0
370
    -3
390
0
  6
Continuous
100
AcDbLine
 10
32.193099
 20
230.34997
 30
0.0
 11
24.693101
 21
230.34997
 31
0.0
  0
LINE
  5
370
100
AcDbEntity
  8
0
370
    -3
390
0
  6
Continuous
100
AcDbLine
 10
24.693101
 20
217.34997
 30
0.0
 11
24.193101
 21
218.216094
 31
0.0
  0
LINE
  5
371
100
AcDbEntity
  8
0
370
    -3
390
0
  6
Continuous
100
AcDbLine
 10
24.693101
 20
230.34997
 30
0.0
 11
24.1931
 21
229.48404
 31
0.0
  0
LINE
  5
372
100
AcDbEntity
  8
0
370
    -3
390
0
  6
Continuous
100
AcDbLine
 10
24.6931
 20
217.34997
 30
0.0
 11
24.6931
 21
230.34997
 31
0.0
  0
LINE
  5
373
100
AcDbEntity
  8
0
370
    -3
390
0
  6
Continuous
100
AcDbLine
 10
38.293099
 20
89.34997
 30
0.0
 11
38.293099
 21
73.34997
 31
0.0
  0
LINE
  5
374
100
AcDbEntity
  8
0
370
    -3
390
0
  6
Continuous
100
AcDbLine
 10
38.2931
 20
73.34997
 30
0.0
 11
37.6931
 21
74.389059
 31
0.0
  0
LINE
  5
375
100
AcDbEntity
  8
0
370
    -3
390
0
  6
Continuous
100
AcDbLine
 10
38.293103
 20
89.349968
 30
0.0
 11
37.693102
 21
88.310579
 31
0.0
  0
LINE
  5
376
100
AcDbEntity
  8
0
370
    -3
390
0
  6
Continuous
100
AcDbLine
 10
47.693099
 20
73.34997
 30
0.0
 11
38.293099
 21
73.34997
 31
0.0
  0
LINE
  5
377
100
AcDbEntity
  8
0
370
    -3
390
0
  6
Continuous
100
AcDbLine
 10
47.693099
 20
89.34997
 30
0.0
 11
38.293099
 21
89.34997
 31
0.0
  0
LINE
  5
378
100
AcDbEntity
  8
0
370
    -3
390
0
  6
Continuous
100
AcDbLine
 10
37.693098
 20
88.310582
 30
0.0
 11
37.693099
 21
74.389058
 31
0.0
  0
LINE
  5
379
100
AcDbEntity
  8
0
370
    -3
390
0
  6
Continuous
100
AcDbLine
 10
37.693098
 20
160.222413
 30
0.0
 11
37.693099
 21
146.300889
 31
0.0
  0
LINE
  5
37A
100
AcDbEntity
  8
0
370
    -3
390
0
  6
Continuous
100
AcDbLine
 10
47.693099
 20
161.2618
 30
0.0
 11
38.293099
 21
161.2618
 31
0.0
  0
LINE
  5
37B
100
AcDbEntity
  8
0
370
    -3
390
0
  6
Continuous
100
AcDbLine
 10
47.693099
 20
145.2618
 30
0.0
 11
38.293099
 21
145.2618
 31
0.0
  0
LINE
  5
37C
100
AcDbEntity
  8
0
370
    -3
390
0
  6
Continuous
100
AcDbLine
 10
38.293103
 20
161.261799
 30
0.0
 11
37.693102
 21
160.22241
 31
0.0
  0
LINE
  5
37D
100
AcDbEntity
  8
0
370
    -3
390
0
  6
Continuous
100
AcDbLine
 10
38.2931
 20
145.261801
 30
0.0
 11
37.6931
 21
146.300889
 31
0.0
  0
LINE
  5
37E
100
AcDbEntity
  8
0
370
    -3
390
0
  6
Continuous
100
AcDbLine
 10
38.293099
 20
161.2618
 30
0.0
 11
38.293099
 21
145.2618
 31
0.0
  0
LINE
  5
37F
100
AcDbEntity
  8
0
370
    -3
390
0
  6
CENTER
100
AcDbLine
 10
-251.306901
 20
89.34997
 30
0.0
 11
-251.306901
 21
13.646177
 31
0.0
  0
LINE
  5
380
100
AcDbEntity
  8
0
370
    -3
390
0
  6
CENTER
100
AcDbLine
 10
-233.867446
 20
45.34997
 30
0.0
 11
-268.87065
 21
45.34997
 31
0.0
  0
CIRCLE
  5
381
100
AcDbEntity
  8
0
370
    -3
390
0
  6
DASHED
100
AcDbCircle
 10
-251.306901
 20
45.34997
 30
0.0
 40
13.5
  0
LINE
  5
382
100
AcDbEntity
  8
0
370
    -3
390
0
  6
Continuous
100
AcDbLine
 10
-6.306901
 20
213.34997
 30
0.0
 11
-6.306901
 21
338.34997
 31
0.0
  0
LINE
  5
383
100
AcDbEntity
  8
0
370
    -3
390
0
  6
Continuous
100
AcDbLine
 10
-271.306901
 20
338.34997
 30
0.0
 11
-6.306901
 21
338.34997
 31
0.0
  0
LINE
  5
384
100
AcDbEntity
  8
0
370
    -3
390
0
  6
Continuous
100
AcDbLine
 10
-271.306901
 20
305.329547
 30
0.0
 11
-6.306901
 21
305.329547
 31
0.0
  0
LINE
  5
385
100
AcDbEntity
  8
0
370
    -3
390
0
  6
Continuous
100
AcDbLine
 10
-271.306901
 20
284.92991
 30
0.0
 11
-6.306901
 21
284.92991
 31
0.0
  0
LINE
  5
386
100
AcDbEntity
  8
0
370
    -3
390
0
  6
Continuous
100
AcDbLine
 10
-271.306901
 20
281.693183
 30
0.0
 11
-6.306901
 21
281.693183
 31
0.0
  0
LINE
  5
387
100
AcDbEntity
  8
0
370
    -3
390
0
  6
Continuous
100
AcDbLine
 10
-271.306901
 20
270.992741
 30
0.0
 11
-6.306901
 21
270.992741
 31
0.0
  0
LINE
  5
388
100
AcDbEntity
  8
0
370
    -3
390
0
  6
Continuous
100
AcDbLine
 10
-271.306901
 20
267.773327
 30
0.0
 11
-6.306901
 21
267.773327
 31
0.0
  0
LINE
  5
389
100
AcDbEntity
  8
0
370
    -3
390
0
  6
Continuous
100
AcDbLine
 10
-271.306901
 20
256.900559
 30
0.0
 11
-6.306901
 21
256.900559
 31
0.0
  0
LINE
  5
38A
100
AcDbEntity
  8
0
370
    -3
390
0
  6
Continuous
100
AcDbLine
 10
-271.306901
 20
253.83724
 30
0.0
 11
-6.306901
 21
253.83724
 31
0.0
  0
LINE
  5
38B
100
AcDbEntity
  8
0
370
    -3
390
0
  6
Continuous
100
AcDbLine
 10
-271.306901
 20
231.169279
 30
0.0
 11
-6.306901
 21
231.169279
 31
0.0
  0
LINE
  5
38C
100
AcDbEntity
  8
0
370
    -3
390
0
  6
Continuous
100
AcDbLine
 10
-271.306901
 20
239.90999
 30
0.0
 11
-6.306901
 21
239.90999
 31
0.0
  0
LINE
  5
38D
100
AcDbEntity
  8
0
370
    -3
390
0
  6
Continuous
100
AcDbLine
 10
-271.306901
 20
242.804365
 30
0.0
 11
-6.306901
 21
242.804365
 31
0.0
  0
LINE
  5
38E
100
AcDbEntity
  8
0
370
    -3
390
0
  6
Continuous
100
AcDbLine
 10
-271.306901
 20
228.34997
 30
0.0
 11
-6.306901
 21
228.34997
 31
0.0
  0
LINE
  5
38F
100
AcDbEntity
  8
0
370
    -3
390
0
  6
Continuous
100
AcDbLine
 10
-271.306901
 20
219.59997
 30
0.0
 11
-6.306901
 21
219.59997
 31
0.0
  0
LINE
  5
390
100
AcDbEntity
  8
0
370
    -3
390
0
  6
Continuous
100
AcDbLine
 10
-271.306901
 20
318.057469
 30
0.0
 11
-6.306901
 21
318.057469
 31
0.0
  0
LINE
  5
391
100
AcDbEntity
  8
0
370
    -3
390
0
  6
Continuous
100
AcDbLine
 10
-271.306901
 20
331.34997
 30
0.0
 11
-6.306901
 21
331.34997
 31
0.0
  0
LINE
  5
392
100
AcDbEntity
  8
0
370
    -3
390
0
  6
Continuous
100
AcDbLine
 10
-271.306901
 20
337.34997
 30
0.0
 11
-6.306901
 21
337.34997
 31
0.0
  0
LINE
  5
393
100
AcDbEntity
  8
0
370
    -3
390
0
  6
Continuous
100
AcDbLine
 10
-220.306901
 20
72.34997
 30
0.0
 11
-220.306901
 21
73.94997
 31
0.0
  0
LINE
  5
394
100
AcDbEntity
  8
0
370
    -3
390
0
  6
Continuous
100
AcDbLine
 10
-282.306901
 20
72.34997
 30
0.0
 11
-282.306901
 21
73.94997
 31
0.0
  0
LINE
  5
395
100
AcDbEntity
  8
0
370
    -3
390
0
  6
Continuous
100
AcDbLine
 10
-282.306901
 20
72.34997
 30
0.0
 11
-220.306901
 21
72.34997
 31
0.0
  0
LINE
  5
396
100
AcDbEntity
  8
0
370
    -3
390
0
  6
Continuous
100
AcDbLine
 10
-282.306901
 20
72.34997
 30
0.0
 11
-282.306901
 21
72.284919
 31
0.0
  0
LINE
  5
397
100
AcDbEntity
  8
0
370
    -3
390
0
  6
Continuous
100
AcDbLine
 10
-220.306901
 20
72.34997
 30
0.0
 11
-220.306901
 21
72.284919
 31
0.0
  0
LINE
  5
398
100
AcDbEntity
  8
0
370
    -3
390
0
  6
Continuous
100
AcDbLine
 10
-240.806901
 20
71.072171
 30
0.0
 11
-261.806901
 21
71.072171
 31
0.0
  0
LINE
  5
399
100
AcDbEntity
  8
0
370
    -3
390
0
  6
Continuous
100
AcDbLine
 10
-240.806901
 20
71.333638
 30
0.0
 11
-261.806901
 21
71.333638
 31
0.0
  0
LINE
  5
39A
100
AcDbEntity
  8
0
370
    -3
390
0
  6
Continuous
100
AcDbLine
 10
-240.806901
 20
71.333638
 30
0.0
 11
-240.806901
 21
70.784919
 31
0.0
  0
LINE
  5
39B
100
AcDbEntity
  8
0
370
    -3
390
0
  6
Continuous
100
AcDbLine
 10
-239.806901
 20
70.784919
 30
0.0
 11
-240.806901
 21
70.784919
 31
0.0
  0
LINE
  5
39C
100
AcDbEntity
  8
0
370
    -3
390
0
  6
Continuous
100
AcDbLine
 10
-239.806901
 20
72.284919
 30
0.0
 11
-239.806901
 21
70.784919
 31
0.0
  0
LINE
  5
39D
100
AcDbEntity
  8
0
370
    -3
390
0
  6
Continuous
100
AcDbLine
 10
-261.806901
 20
71.333638
 30
0.0
 11
-261.806901
 21
70.784919
 31
0.0
  0
LINE
  5
39E
100
AcDbEntity
  8
0
370
    -3
390
0
  6
Continuous
100
AcDbLine
 10
-211.106901
 20
72.284919
 30
0.0
 11
-239.806901
 21
72.284919
 31
0.0
  0
LINE
  5
39F
100
AcDbEntity
  8
0
370
    -3
390
0
  6
Continuous
100
AcDbLine
 10
-262.806901
 20
70.784919
 30
0.0
 11
-261.806901
 21
70.784919
 31
0.0
  0
LINE
  5
3A0
100
AcDbEntity
  8
0
370
    -3
390
0
  6
Continuous
100
AcDbLine
 10
-262.806901
 20
72.284919
 30
0.0
 11
-262.806901
 21
70.784919
 31
0.0
  0
LINE
  5
3A1
100
AcDbEntity
  8
0
370
    -3
390
0
  6
Continuous
100
AcDbLine
 10
-291.506901
 20
72.284919
 30
0.0
 11
-262.806901
 21
72.284919
 31
0.0
  0
ARC
  5
3A2
100
AcDbEntity
  8
0
370
    -3
390
0
  6
Continuous
100
AcDbCircle
 10
-289.306901
 20
58.872892
 30
0.0
 40
8.8
100
AcDbArc
 50
90.0
 51
180.0
  0
LINE
  5
3A3
100
AcDbEntity
  8
0
370
    -3
390
0
  6
Continuous
100
AcDbLine
 10
-298.106901
 20
58.872892
 30
0.0
 11
-298.106901
 21
29.198005
 31
0.0
  0
LINE
  5
3A4
100
AcDbEntity
  8
0
370
    -3
390
0
  6
Continuous
100
AcDbLine
 10
-289.306901
 20
67.672892
 30
0.0
 11
-213.306901
 21
67.672892
 31
0.0
  0
LINE
  5
3A5
100
AcDbEntity
  8
0
370
    -3
390
0
  6
Continuous
100
AcDbLine
 10
-204.506901
 20
58.872892
 30
0.0
 11
-204.506901
 21
29.198005
 31
0.0
  0
ARC
  5
3A6
100
AcDbEntity
  8
0
370
    -3
390
0
  6
Continuous
100
AcDbCircle
 10
-213.306901
 20
58.872892
 30
0.0
 40
8.8
100
AcDbArc
 50
0.0
 51
90.0
  0
ARC
  5
3A7
100
AcDbEntity
  8
0
370
    -3
390
0
  6
Continuous
100
AcDbCircle
 10
-211.106901
 20
60.04095
 30
0.0
 40
8.8
100
AcDbArc
 50
0.0
 51
90.0
  0
ARC
  5
3A8
100
AcDbEntity
  8
0
370
    -3
390
0
  6
Continuous
100
AcDbCircle
 10
-291.506901
 20
60.04095
 30
0.0
 40
8.8
100
AcDbArc
 50
90.0
 51
180.0
  0
LINE
  5
3A9
100
AcDbEntity
  8
0
370
    -3
390
0
  6
Continuous
100
AcDbLine
 10
-291.506901
 20
68.84095
 30
0.0
 11
-211.106901
 21
68.84095
 31
0.0
  0
LINE
  5
3AA
100
AcDbEntity
  8
0
370
    -3
390
0
  6
Continuous
100
AcDbLine
 10
-202.306901
 20
63.484919
 30
0.0
 11
-202.306901
 21
29.436501
 31
0.0
  0
ARC
  5
3AB
100
AcDbEntity
  8
0
370
    -3
390
0
  6
Continuous
100
AcDbCircle
 10
-291.506901
 20
63.484919
 30
0.0
 40
8.8
100
AcDbArc
 50
90.0
 51
180.0
  0
LINE
  5
3AC
100
AcDbEntity
  8
0
370
    -3
390
0
  6
Continuous
100
AcDbLine
 10
-300.306901
 20
63.484919
 30
0.0
 11
-300.306901
 21
29.436501
 31
0.0
  0
ARC
  5
3AD
100
AcDbEntity
  8
0
370
    -3
390
0
  6
Continuous
100
AcDbCircle
 10
-211.106901
 20
63.484919
 30
0.0
 40
8.8
100
AcDbArc
 50
0.0
 51
90.0
  0
LINE
  5
3AE
100
AcDbEntity
  8
0
370
    -3
390
0
  6
Continuous
100
AcDbLine
 10
-211.095623
 20
20.836501
 30
0.0
 11
-210.906901
 21
20.836501
 31
0.0
  0
LINE
  5
3AF
100
AcDbEntity
  8
0
370
    -3
390
0
  6
Continuous
100
AcDbLine
 10
-291.706901
 20
20.836501
 30
0.0
 11
-291.518179
 21
20.836501
 31
0.0
  0
ARC
  5
3B0
100
AcDbEntity
  8
0
370
    -3
390
0
  6
Continuous
100
AcDbCircle
 10
-289.506901
 20
29.198005
 30
0.0
 40
8.6
100
AcDbArc
 50
180.0
 51
270.0
  0
LINE
  5
3B1
100
AcDbEntity
  8
0
370
    -3
390
0
  6
Continuous
100
AcDbLine
 10
-289.506901
 20
20.598005
 30
0.0
 11
-213.106901
 21
20.598005
 31
0.0
  0
ARC
  5
3B2
100
AcDbEntity
  8
0
370
    -3
390
0
  6
Continuous
100
AcDbCircle
 10
-213.106901
 20
29.198005
 30
0.0
 40
8.6
100
AcDbArc
 50
270.0
 51
0.0
  0
ARC
  5
3B3
100
AcDbEntity
  8
0
370
    -3
390
0
  6
Continuous
100
AcDbCircle
 10
-291.706901
 20
29.436501
 30
0.0
 40
8.6
100
AcDbArc
 50
180.0
 51
270.0
  0
ARC
  5
3B4
100
AcDbEntity
  8
0
370
    -3
390
0
  6
Continuous
100
AcDbCircle
 10
-210.906901
 20
29.436501
 30
0.0
 40
8.6
100
AcDbArc
 50
270.0
 51
0.0
  0
LINE
  5
3B5
100
AcDbEntity
  8
0
370
    -3
390
0
  6
Continuous
100
AcDbLine
 10
-271.306901
 20
350.54997
 30
0.0
 11
-271.306901
 21
79.924746
 31
0.0
  0
LINE
  5
3B6
100
AcDbEntity
  8
0
370
    -3
390
0
  6
Continuous
100
AcDbLine
 10
-275.906901
 20
75.94997
 30
0.0
 11
-275.906901
 21
76.924746
 31
0.0
  0
LINE
  5
3B7
100
AcDbEntity
  8
0
370
    -3
390
0
  6
Continuous
100
AcDbLine
 10
-271.306901
 20
87.34997
 30
0.0
 11
-251.306901
 21
87.34997
 31
0.0
  0
ARC
  5
3B8
100
AcDbEntity
  8
0
370
    -3
390
0
  6
Continuous
100
AcDbCircle
 10
-274.306901
 20
79.924746
 30
0.0
 40
3.0
100
AcDbArc
 50
270.0
 51
0.0
  0
LINE
  5
3B9
100
AcDbEntity
  8
0
370
    -3
390
0
  6
Continuous
100
AcDbLine
 10
-274.306901
 20
76.924746
 30
0.0
 11
-285.306901
 21
76.924746
 31
0.0
  0
LINE
  5
3BA
100
AcDbEntity
  8
0
370
    -3
390
0
  6
Continuous
100
AcDbLine
 10
-326.511982
 20
76.14997
 30
0.0
 11
-286.281208
 21
76.14997
 31
0.0
  0
ARC
  5
3BB
100
AcDbEntity
  8
0
370
    -3
390
0
  6
Continuous
100
AcDbCircle
 10
-285.306901
 20
75.924746
 30
0.0
 40
1.0
100
AcDbArc
 50
90.0
 51
166.983983
  0
LINE
  5
3BC
100
AcDbEntity
  8
0
370
    -3
390
0
  6
Continuous
100
AcDbLine
 10
-220.306901
 20
73.94997
 30
0.0
 11
-251.306901
 21
73.94997
 31
0.0
  0
LINE
  5
3BD
100
AcDbEntity
  8
0
370
    -3
390
0
  6
Continuous
100
AcDbLine
 10
-251.306901
 20
72.34997
 30
0.0
 11
-220.306901
 21
72.34997
 31
0.0
  0
ARC
  5
3BE
100
AcDbEntity
  8
0
370
    -3
390
0
  6
Continuous
100
AcDbCircle
 10
-224.706901
 20
75.94997
 30
0.0
 40
2.0
100
AcDbArc
 50
180.0
 51
270.0
  0
LINE
  5
3BF
100
AcDbEntity
  8
0
370
    -3
390
0
  6
Continuous
100
AcDbLine
 10
-227.306901
 20
87.34997
 30
0.0
 11
-251.306901
 21
87.34997
 31
0.0
  0
ARC
  5
3C0
100
AcDbEntity
  8
0
370
    -3
390
0
  6
Continuous
100
AcDbCircle
 10
-229.906901
 20
84.14997
 30
0.0
 40
3.2
100
AcDbArc
 50
0.0
 51
90.0
  0
LINE
  5
3C1
100
AcDbEntity
  8
0
370
    -3
390
0
  6
Continuous
100
AcDbLine
 10
-227.306901
 20
87.34997
 30
0.0
 11
-227.306901
 21
88.34997
 31
0.0
  0
LINE
  5
3C2
100
AcDbEntity
  8
0
370
    -3
390
0
  6
Continuous
100
AcDbLine
 10
-226.706901
 20
75.94997
 30
0.0
 11
-226.706901
 21
84.14997
 31
0.0
  0
LINE
  5
3C3
100
AcDbEntity
  8
0
370
    -3
390
0
  6
Continuous
100
AcDbLine
 10
-282.306901
 20
73.94997
 30
0.0
 11
-251.306901
 21
73.94997
 31
0.0
  0
LINE
  5
3C4
100
AcDbEntity
  8
0
370
    -3
390
0
  6
Continuous
100
AcDbLine
 10
-251.306901
 20
72.34997
 30
0.0
 11
-282.306901
 21
72.34997
 31
0.0
  0
ARC
  5
3C5
100
AcDbEntity
  8
0
370
    -3
390
0
  6
Continuous
100
AcDbCircle
 10
-277.906901
 20
75.94997
 30
0.0
 40
2.0
100
AcDbArc
 50
270.0
 51
0.0
  0
LINE
  5
3C6
100
AcDbEntity
  8
0
370
    -3
390
0
  6
Continuous
100
AcDbLine
 10
-6.306901
 20
213.34997
 30
0.0
 11
-6.306901
 21
88.34997
 31
0.0
  0
LINE
  5
3C7
100
AcDbEntity
  8
0
370
    -3
390
0
  6
Continuous
100
AcDbLine
 10
-271.306901
 20
88.34997
 30
0.0
 11
-6.306901
 21
88.34997
 31
0.0
  0
LINE
  5
3C8
100
AcDbEntity
  8
0
370
    -3
390
0
  6
Continuous
100
AcDbLine
 10
-271.306901
 20
121.370392
 30
0.0
 11
-6.306901
 21
121.370392
 31
0.0
  0
LINE
  5
3C9
100
AcDbEntity
  8
0
370
    -3
390
0
  6
Continuous
100
AcDbLine
 10
-271.306901
 20
141.770029
 30
0.0
 11
-6.306901
 21
141.770029
 31
0.0
  0
LINE
  5
3CA
100
AcDbEntity
  8
0
370
    -3
390
0
  6
Continuous
100
AcDbLine
 10
-271.306901
 20
145.006756
 30
0.0
 11
-6.306901
 21
145.006756
 31
0.0
  0
LINE
  5
3CB
100
AcDbEntity
  8
0
370
    -3
390
0
  6
Continuous
100
AcDbLine
 10
-271.306901
 20
155.707198
 30
0.0
 11
-6.306901
 21
155.707198
 31
0.0
  0
LINE
  5
3CC
100
AcDbEntity
  8
0
370
    -3
390
0
  6
Continuous
100
AcDbLine
 10
-271.306901
 20
158.926612
 30
0.0
 11
-6.306901
 21
158.926612
 31
0.0
  0
LINE
  5
3CD
100
AcDbEntity
  8
0
370
    -3
390
0
  6
Continuous
100
AcDbLine
 10
-271.306901
 20
169.79938
 30
0.0
 11
-6.306901
 21
169.79938
 31
0.0
  0
LINE
  5
3CE
100
AcDbEntity
  8
0
370
    -3
390
0
  6
Continuous
100
AcDbLine
 10
-271.306901
 20
172.862699
 30
0.0
 11
-6.306901
 21
172.862699
 31
0.0
  0
LINE
  5
3CF
100
AcDbEntity
  8
0
370
    -3
390
0
  6
Continuous
100
AcDbLine
 10
-271.306901
 20
195.53066
 30
0.0
 11
-6.306901
 21
195.53066
 31
0.0
  0
LINE
  5
3D0
100
AcDbEntity
  8
0
370
    -3
390
0
  6
Continuous
100
AcDbLine
 10
-271.306901
 20
186.789949
 30
0.0
 11
-6.306901
 21
186.789949
 31
0.0
  0
LINE
  5
3D1
100
AcDbEntity
  8
0
370
    -3
390
0
  6
Continuous
100
AcDbLine
 10
-271.306901
 20
183.895574
 30
0.0
 11
-6.306901
 21
183.895574
 31
0.0
  0
LINE
  5
3D2
100
AcDbEntity
  8
0
370
    -3
390
0
  6
Continuous
100
AcDbLine
 10
-271.306901
 20
198.34997
 30
0.0
 11
-6.306901
 21
198.34997
 31
0.0
  0
LINE
  5
3D3
100
AcDbEntity
  8
0
370
    -3
390
0
  6
Continuous
100
AcDbLine
 10
-271.306901
 20
207.09997
 30
0.0
 11
-6.306901
 21
207.09997
 31
0.0
  0
LINE
  5
3D4
100
AcDbEntity
  8
0
370
    -3
390
0
  6
Continuous
100
AcDbLine
 10
-271.306901
 20
108.64247
 30
0.0
 11
-6.306901
 21
108.64247
 31
0.0
  0
LINE
  5
3D5
100
AcDbEntity
  8
0
370
    -3
390
0
  6
Continuous
100
AcDbLine
 10
-271.306901
 20
95.34997
 30
0.0
 11
-6.306901
 21
95.34997
 31
0.0
  0
LINE
  5
3D6
100
AcDbEntity
  8
0
370
    -3
390
0
  6
Continuous
100
AcDbLine
 10
-271.306901
 20
89.34997
 30
0.0
 11
-6.306901
 21
89.34997
 31
0.0
  0
LINE
  5
3D7
100
AcDbEntity
  8
0
370
    -3
390
0
  6
Continuous
100
AcDbLine
 10
-388.306901
 20
213.34997
 30
0.0
 11
-388.306901
 21
326.763138
 31
0.0
  0
LINE
  5
3D8
100
AcDbEntity
  8
0
370
    -3
390
0
  6
Continuous
100
AcDbLine
 10
-388.306901
 20
213.34997
 30
0.0
 11
-388.306901
 21
99.936801
 31
0.0
  0
LINE
  5
3D9
100
AcDbEntity
  8
0
370
    -3
390
0
  6
Continuous
100
AcDbLine
 10
-326.511982
 20
350.54997
 30
0.0
 11
-271.306901
 21
350.54997
 31
0.0
  0
ARC
  5
3DA
100
AcDbEntity
  8
0
370
    -3
390
0
  6
Continuous
100
AcDbCircle
 10
-382.106901
 20
326.763138
 30
0.0
 40
6.2
100
AcDbArc
 50
120.0
 51
180.0
  0
ARC
  5
3DB
100
AcDbEntity
  8
0
370
    -3
390
0
  6
Continuous
100
AcDbCircle
 10
-326.190443
 20
249.34997
 30
0.0
 40
101.2
100
AcDbArc
 50
90.0
 51
120.0
  0
LINE
  5
3DC
100
AcDbEntity
  8
0
370
    -3
390
0
  6
Continuous
100
AcDbLine
 10
-376.790443
 20
336.99174
 30
0.0
 11
-385.206901
 21
332.132496
 31
0.0
  0
LINE
  5
3DD
100
AcDbEntity
  8
0
370
    -3
390
0
  6
Continuous
100
AcDbLine
 10
-316.214074
 20
102.622683
 30
0.0
 11
-313.306901
 21
104.455525
 31
0.0
  0
LINE
  5
3DE
100
AcDbEntity
  8
0
370
    -3
390
0
  6
Continuous
100
AcDbLine
 10
-313.306901
 20
104.455525
 30
0.0
 11
-316.306901
 21
106.8068
 31
0.0
  0
LINE
  5
3DF
100
AcDbEntity
  8
0
370
    -3
390
0
  6
Continuous
100
AcDbLine
 10
-310.399728
 20
102.622683
 30
0.0
 11
-313.306901
 21
104.455525
 31
0.0
  0
LINE
  5
3E0
100
AcDbEntity
  8
0
370
    -3
390
0
  6
Continuous
100
AcDbLine
 10
-313.306901
 20
104.455525
 30
0.0
 11
-310.306901
 21
106.8068
 31
0.0
  0
ELLIPSE
  5
3E1
100
AcDbEntity
  8
0
370
    -3
390
0
  6
Continuous
100
AcDbEllipse
 10
-313.306901
 20
107.213242
 30
0.0
 11
6.25
 21
0.0
 31
0.0
210
0.0
220
0.0
230
1.0
 40
0.707107
 41
5.5424010803725476
 42
3.8823768803968313
  0
ELLIPSE
  5
3E2
100
AcDbEntity
  8
0
370
    -3
390
0
  6
Continuous
100
AcDbEllipse
 10
-313.306901
 20
106.395111
 30
0.0
 11
5.25
 21
0.0
 31
0.0
210
0.0
220
0.0
230
1.0
 40
0.862941
 41
0.0
 42
6.2831853071795862
  0
LINE
  5
3E3
100
AcDbEntity
  8
0
370
    -3
390
0
  6
Continuous
100
AcDbLine
 10
-319.556901
 20
108.344613
 30
0.0
 11
-319.556901
 21
107.213242
 31
0.0
  0
LINE
  5
3E4
100
AcDbEntity
  8
0
370
    -3
390
0
  6
Continuous
100
AcDbLine
 10
-307.056901
 20
108.344613
 30
0.0
 11
-307.056901
 21
107.213242
 31
0.0
  0
ELLIPSE
  5
3E5
100
AcDbEntity
  8
0
370
    -3
390
0
  6
Continuous
100
AcDbEllipse
 10
-313.306901
 20
108.344613
 30
0.0
 11
6.25
 21
0.0
 31
0.0
210
0.0
220
0.0
230
1.0
 40
0.707107
 41
0.0
 42
3.1415926535897931
  0
ELLIPSE
  5
3E6
100
AcDbEntity
  8
0
370
    -3
390
0
  6
Continuous
100
AcDbEllipse
 10
-313.306901
 20
108.448166
 30
0.0
 11
7.0
 21
0.0
 31
0.0
210
0.0
220
0.0
230
1.0
 40
0.692313
 41
3.1415926535897931
 42
3.6880322699881103
  0
ELLIPSE
  5
3E7
100
AcDbEntity
  8
0
370
    -3
390
0
  6
Continuous
100
AcDbEllipse
 10
-313.306901
 20
108.448166
 30
0.0
 11
7.0
 21
0.0
 31
0.0
210
0.0
220
0.0
230
1.0
 40
0.692313
 41
5.7367456907812695
 42
0.0
  0
ELLIPSE
  5
3E8
100
AcDbEntity
  8
0
370
    -3
390
0
  6
Continuous
100
AcDbEllipse
 10
-313.306901
 20
108.448166
 30
0.0
 11
7.0
 21
0.0
 31
0.0
210
0.0
220
0.0
230
1.0
 40
0.692313
 41
0.0
 42
3.1415926535897931
  0
ELLIPSE
  5
3E9
100
AcDbEntity
  8
0
370
    -3
390
0
  6
Continuous
100
AcDbEllipse
 10
-313.306901
 20
110.089522
 30
0.0
 11
7.0
 21
0.0
 31
0.0
210
0.0
220
0.0
230
1.0
 40
0.707107
 41
0.0
 42
3.1415926535897931
  0
LINE
  5
3EA
100
AcDbEntity
  8
0
370
    -3
390
0
  6
Continuous
100
AcDbLine
 10
-320.306901
 20
110.089522
 30
0.0
 11
-320.306901
 21
108.448166
 31
0.0
  0
LINE
  5
3EB
100
AcDbEntity
  8
0
370
    -3
390
0
  6
Continuous
100
AcDbLine
 10
-306.306901
 20
110.089522
 30
0.0
 11
-306.306901
 21
108.448166
 31
0.0
  0
ARC
  5
3EC
100
AcDbEntity
  8
0
370
    -3
390
0
  6
Continuous
100
AcDbCircle
 10
-382.106901
 20
99.936801
 30
0.0
 40
6.2
100
AcDbArc
 50
180.0
 51
240.0
  0
ARC
  5
3ED
100
AcDbEntity
  8
0
370
    -3
390
0
  6
Continuous
100
AcDbCircle
 10
-326.190443
 20
177.34997
 30
0.0
 40
101.2
100
AcDbArc
 50
240.0
 51
270.0
  0
LINE
  5
3EE
100
AcDbEntity
  8
0
370
    -3
390
0
  6
Continuous
100
AcDbLine
 10
-376.790443
 20
89.708199
 30
0.0
 11
-385.206901
 21
94.567443
 31
0.0
  0
LINE
  5
3EF
100
AcDbEntity
  8
0
370
    -3
390
0
  6
Continuous
100
AcDbLine
 10
-316.214074
 20
324.077256
 30
0.0
 11
-313.306901
 21
322.244414
 31
0.0
  0
LINE
  5
3F0
100
AcDbEntity
  8
0
370
    -3
390
0
  6
Continuous
100
AcDbLine
 10
-313.306901
 20
322.244414
 30
0.0
 11
-316.306901
 21
319.893139
 31
0.0
  0
LINE
  5
3F1
100
AcDbEntity
  8
0
370
    -3
390
0
  6
Continuous
100
AcDbLine
 10
-310.399728
 20
324.077256
 30
0.0
 11
-313.306901
 21
322.244414
 31
0.0
  0
LINE
  5
3F2
100
AcDbEntity
  8
0
370
    -3
390
0
  6
Continuous
100
AcDbLine
 10
-313.306901
 20
322.244414
 30
0.0
 11
-310.306901
 21
319.893139
 31
0.0
  0
ELLIPSE
  5
3F3
100
AcDbEntity
  8
0
370
    -3
390
0
  6
Continuous
100
AcDbEllipse
 10
-313.306901
 20
319.486697
 30
0.0
 11
6.25
 21
0.0
 31
0.0
210
0.0
220
0.0
230
1.0
 40
0.707107
 41
2.400808426782755
 42
0.7407842268070384
  0
ELLIPSE
  5
3F4
100
AcDbEntity
  8
0
370
    -3
390
0
  6
Continuous
100
AcDbEllipse
 10
-313.306901
 20
320.304828
 30
0.0
 11
5.25
 21
0.0
 31
0.0
210
0.0
220
0.0
230
1.0
 40
0.862941
 41
0.0
 42
6.2831853071795862
  0
LINE
  5
3F5
100
AcDbEntity
  8
0
370
    -3
390
0
  6
Continuous
100
AcDbLine
 10
-319.556901
 20
318.355327
 30
0.0
 11
-319.556901
 21
319.486697
 31
0.0
  0
LINE
  5
3F6
100
AcDbEntity
  8
0
370
    -3
390
0
  6
Continuous
100
AcDbLine
 10
-307.056901
 20
318.355327
 30
0.0
 11
-307.056901
 21
319.486697
 31
0.0
  0
ELLIPSE
  5
3F7
100
AcDbEntity
  8
0
370
    -3
390
0
  6
Continuous
100
AcDbEllipse
 10
-313.306901
 20
318.355327
 30
0.0
 11
6.25
 21
0.0
 31
0.0
210
0.0
220
0.0
230
1.0
 40
0.707107
 41
3.1415926535897931
 42
0.0
  0
ELLIPSE
  5
3F8
100
AcDbEntity
  8
0
370
    -3
390
0
  6
Continuous
100
AcDbEllipse
 10
-313.306901
 20
318.251773
 30
0.0
 11
7.0
 21
0.0
 31
0.0
210
0.0
220
0.0
230
1.0
 40
0.692313
 41
2.5951530371914737
 42
3.1415926535897931
  0
ELLIPSE
  5
3F9
100
AcDbEntity
  8
0
370
    -3
390
0
  6
Continuous
100
AcDbEllipse
 10
-313.306901
 20
318.251773
 30
0.0
 11
7.0
 21
0.0
 31
0.0
210
0.0
220
0.0
230
1.0
 40
0.692313
 41
0.0
 42
0.5464396163983196
  0
ELLIPSE
  5
3FA
100
AcDbEntity
  8
0
370
    -3
390
0
  6
Continuous
100
AcDbEllipse
 10
-313.306901
 20
318.251773
 30
0.0
 11
7.0
 21
0.0
 31
0.0
210
0.0
220
0.0
230
1.0
 40
0.692313
 41
3.1415926535897931
 42
0.0
  0
ELLIPSE
  5
3FB
100
AcDbEntity
  8
0
370
    -3
390
0
  6
Continuous
100
AcDbEllipse
 10
-313.306901
 20
316.610417
 30
0.0
 11
7.0
 21
0.0
 31
0.0
210
0.0
220
0.0
230
1.0
 40
0.707107
 41
3.1415926535897931
 42
0.0
  0
LINE
  5
3FC
100
AcDbEntity
  8
0
370
    -3
390
0
  6
Continuous
100
AcDbLine
 10
-320.306901
 20
316.610417
 30
0.0
 11
-320.306901
 21
318.251773
 31
0.0
  0
LINE
  5
3FD
100
AcDbEntity
  8
0
370
    -3
390
0
  6
Continuous
100
AcDbLine
 10
-306.306901
 20
316.610417
 30
0.0
 11
-306.306901
 21
318.251773
 31
0.0
  0
LINE
  5
3FE
100
AcDbEntity
  8
0
370
    -3
390
0
  6
Continuous
100
AcDbLine
 10
-530.623434
 20
-347.206176
 30
0.0
 11
-521.784599
 21
-338.367341
 31
0.0
  0
LINE
  5
3FF
100
AcDbEntity
  8
0
370
    -3
390
0
  6
Continuous
100
AcDbLine
 10
-522.739193
 20
-337.059193
 30
0.0
 11
-531.931581
 21
-346.251582
 31
0.0
  0
LINE
  5
400
100
AcDbEntity
  8
0
370
    -3
390
0
  6
Continuous
100
AcDbLine
 10
-531.754805
 20
-346.074805
 30
0.0
 11
-530.623434
 21
-347.206176
 31
0.0
  0
ARC
  5
401
100
AcDbEntity
  8
0
370
    -3
390
0
  6
Continuous
100
AcDbCircle
 10
-532.285135
 20
-345.898028
 30
0.0
 40
0.5
100
AcDbArc
 50
225.0
 51
315.0
  0
ARC
  5
402
100
AcDbEntity
  8
0
370
    -3
390
0
  6
Continuous
100
AcDbCircle
 10
-527.49306
 20
-346.235329
 30
0.0
 40
1.9
100
AcDbArc
 50
224.999982
 51
298.927108
  0
LINE
  5
403
100
AcDbEntity
  8
0
370
    -3
390
0
  6
Continuous
100
AcDbLine
 10
-529.916326
 20
-346.499068
 30
0.0
 11
-528.836562
 21
-347.578832
 31
0.0
  0
ARC
  5
404
100
AcDbEntity
  8
0
370
    -3
390
0
  6
Continuous
100
AcDbCircle
 10
-522.755445
 20
-341.497715
 30
0.0
 40
1.9
100
AcDbArc
 50
331.07282
 51
45.000001
  0
ARC
  5
405
100
AcDbEntity
  8
0
370
    -3
390
0
  6
Continuous
100
AcDbCircle
 10
-533.345794
 20
-335.64498
 30
0.0
 40
14.0
100
AcDbArc
 50
298.927163
 51
331.07282
  0
LINE
  5
406
100
AcDbEntity
  8
0
370
    -3
390
0
  6
Continuous
100
AcDbLine
 10
-522.91597
 20
-337.23597
 30
0.0
 11
-521.784599
 21
-338.367341
 31
0.0
  0
LINE
  5
407
100
AcDbEntity
  8
0
370
    -3
390
0
  6
Continuous
100
AcDbLine
 10
-522.739193
 20
-336.352087
 30
0.0
 11
-524.130549
 21
-334.96073
 31
0.0
  0
ARC
  5
408
100
AcDbEntity
  8
0
370
    -3
390
0
  6
Continuous
100
AcDbCircle
 10
-523.092746
 20
-336.70564
 30
0.0
 40
0.5
100
AcDbArc
 50
315.0
 51
45.0
  0
LINE
  5
409
100
AcDbEntity
  8
0
370
    -3
390
0
  6
Continuous
100
AcDbLine
 10
-522.491706
 20
-339.074448
 30
0.0
 11
-521.411943
 21
-340.154212
 31
0.0
  0
LINE
  5
40A
100
AcDbEntity
  8
0
370
    -3
390
0
  6
Continuous
100
AcDbLine
 10
-532.638688
 20
-346.251582
 30
0.0
 11
-534.030044
 21
-344.860225
 31
0.0
  0
LINE
  5
40B
100
AcDbEntity
  8
0
370
    -3
390
0
  6
Continuous
100
AcDbLine
 10
-734.058055
 20
-347.206176
 30
0.0
 11
-742.896889
 21
-338.367341
 31
0.0
  0
LINE
  5
40C
100
AcDbEntity
  8
0
370
    -3
390
0
  6
Continuous
100
AcDbLine
 10
-741.942295
 20
-337.059193
 30
0.0
 11
-732.749907
 21
-346.251582
 31
0.0
  0
LINE
  5
40D
100
AcDbEntity
  8
0
370
    -3
390
0
  6
Continuous
100
AcDbLine
 10
-732.926684
 20
-346.074805
 30
0.0
 11
-734.058055
 21
-347.206176
 31
0.0
  0
ARC
  5
40E
100
AcDbEntity
  8
0
370
    -3
390
0
  6
Continuous
100
AcDbCircle
 10
-732.396354
 20
-345.898028
 30
0.0
 40
0.5
100
AcDbArc
 50
225.0
 51
315.0
  0
ARC
  5
40F
100
AcDbEntity
  8
0
370
    -3
390
0
  6
Continuous
100
AcDbCircle
 10
-737.188429
 20
-346.235329
 30
0.0
 40
1.9
100
AcDbArc
 50
241.072892
 51
315.000018
  0
LINE
  5
410
100
AcDbEntity
  8
0
370
    -3
390
0
  6
Continuous
100
AcDbLine
 10
-734.765162
 20
-346.499068
 30
0.0
 11
-735.844926
 21
-347.578832
 31
0.0
  0
ARC
  5
411
100
AcDbEntity
  8
0
370
    -3
390
0
  6
Continuous
100
AcDbCircle
 10
-741.926043
 20
-341.497715
 30
0.0
 40
1.9
100
AcDbArc
 50
134.999999
 51
208.92718
  0
ARC
  5
412
100
AcDbEntity
  8
0
370
    -3
390
0
  6
Continuous
100
AcDbCircle
 10
-731.335694
 20
-335.64498
 30
0.0
 40
14.0
100
AcDbArc
 50
208.92718
 51
241.072837
  0
LINE
  5
413
100
AcDbEntity
  8
0
370
    -3
390
0
  6
Continuous
100
AcDbLine
 10
-741.765519
 20
-337.23597
 30
0.0
 11
-742.896889
 21
-338.367341
 31
0.0
  0
LINE
  5
414
100
AcDbEntity
  8
0
370
    -3
390
0
  6
Continuous
100
AcDbLine
 10
-741.942295
 20
-336.352087
 30
0.0
 11
-740.550939
 21
-334.96073
 31
0.0
  0
ARC
  5
415
100
AcDbEntity
  8
0
370
    -3
390
0
  6
Continuous
100
AcDbCircle
 10
-741.588742
 20
-336.70564
 30
0.0
 40
0.5
100
AcDbArc
 50
135.0
 51
225.0
  0
LINE
  5
416
100
AcDbEntity
  8
0
370
    -3
390
0
  6
Continuous
100
AcDbLine
 10
-742.189782
 20
-339.074448
 30
0.0
 11
-743.269546
 21
-340.154212
 31
0.0
  0
LINE
  5
417
100
AcDbEntity
  8
0
370
    -3
390
0
  6
Continuous
100
AcDbLine
 10
-732.0428
 20
-346.251582
 30
0.0
 11
-730.651444
 21
-344.860225
 31
0.0
  0
LINE
  5
418
100
AcDbEntity
  8
0
370
    -3
390
0
  6
Continuous
100
AcDbLine
 10
-734.058055
 20
-126.093885
 30
0.0
 11
-742.896889
 21
-134.93272
 31
0.0
  0
LINE
  5
419
100
AcDbEntity
  8
0
370
    -3
390
0
  6
Continuous
100
AcDbLine
 10
-741.942295
 20
-136.240868
 30
0.0
 11
-732.749907
 21
-127.048479
 31
0.0
  0
LINE
  5
41A
100
AcDbEntity
  8
0
370
    -3
390
0
  6
Continuous
100
AcDbLine
 10
-732.926684
 20
-127.225256
 30
0.0
 11
-734.058055
 21
-126.093885
 31
0.0
  0
ARC
  5
41B
100
AcDbEntity
  8
0
370
    -3
390
0
  6
Continuous
100
AcDbCircle
 10
-732.396354
 20
-127.402033
 30
0.0
 40
0.5
100
AcDbArc
 50
45.0
 51
135.0
  0
ARC
  5
41C
100
AcDbEntity
  8
0
370
    -3
390
0
  6
Continuous
100
AcDbCircle
 10
-737.188429
 20
-127.064731
 30
0.0
 40
1.9
100
AcDbArc
 50
44.999982
 51
118.927108
  0
LINE
  5
41D
100
AcDbEntity
  8
0
370
    -3
390
0
  6
Continuous
100
AcDbLine
 10
-734.765162
 20
-126.800993
 30
0.0
 11
-735.844926
 21
-125.721229
 31
0.0
  0
ARC
  5
41E
100
AcDbEntity
  8
0
370
    -3
390
0
  6
Continuous
100
AcDbCircle
 10
-741.926043
 20
-131.802346
 30
0.0
 40
1.9
100
AcDbArc
 50
151.07282
 51
225.000001
  0
ARC
  5
41F
100
AcDbEntity
  8
0
370
    -3
390
0
  6
Continuous
100
AcDbCircle
 10
-731.335694
 20
-137.655081
 30
0.0
 40
14.0
100
AcDbArc
 50
118.927163
 51
151.07282
  0
LINE
  5
420
100
AcDbEntity
  8
0
370
    -3
390
0
  6
Continuous
100
AcDbLine
 10
-741.765519
 20
-136.064091
 30
0.0
 11
-742.896889
 21
-134.93272
 31
0.0
  0
LINE
  5
421
100
AcDbEntity
  8
0
370
    -3
390
0
  6
Continuous
100
AcDbLine
 10
-741.942295
 20
-136.947974
 30
0.0
 11
-740.550939
 21
-138.33933
 31
0.0
  0
ARC
  5
422
100
AcDbEntity
  8
0
370
    -3
390
0
  6
Continuous
100
AcDbCircle
 10
-741.588742
 20
-136.594421
 30
0.0
 40
0.5
100
AcDbArc
 50
135.0
 51
225.0
  0
LINE
  5
423
100
AcDbEntity
  8
0
370
    -3
390
0
  6
Continuous
100
AcDbLine
 10
-742.189782
 20
-134.225613
 30
0.0
 11
-743.269546
 21
-133.145849
 31
0.0
  0
LINE
  5
424
100
AcDbEntity
  8
0
370
    -3
390
0
  6
Continuous
100
AcDbLine
 10
-732.0428
 20
-127.048479
 30
0.0
 11
-730.651444
 21
-128.439836
 31
0.0
  0
ARC
  5
425
100
AcDbEntity
  8
0
370
    -3
390
0
  6
Continuous
100
AcDbCircle
 10
-632.340744
 20
-236.65003
 30
0.0
 40
146.2
100
AcDbArc
 50
128.578295
 51
141.421705
  0
CIRCLE
  5
426
100
AcDbEntity
  8
0
370
    -3
390
0
  6
Continuous
100
AcDbCircle
 10
-632.340744
 20
-236.65003
 30
0.0
 40
7.5
  0
ARC
  5
427
100
AcDbEntity
  8
0
370
    -3
390
0
  6
Continuous
100
AcDbCircle
 10
-632.340744
 20
-128.15003
 30
0.0
 40
1.5
100
AcDbArc
 50
0.0
 51
180.0
  0
LINE
  5
428
100
AcDbEntity
  8
0
370
    -3
390
0
  6
Continuous
100
AcDbLine
 10
-630.840744
 20
-128.15003
 30
0.0
 11
-630.840744
 21
-220.15003
 31
0.0
  0
ARC
  5
429
100
AcDbEntity
  8
0
370
    -3
390
0
  6
Continuous
100
AcDbCircle
 10
-632.340744
 20
-220.15003
 30
0.0
 40
1.5
100
AcDbArc
 50
180.0
 51
0.0
  0
LINE
  5
42A
100
AcDbEntity
  8
0
370
    -3
390
0
  6
Continuous
100
AcDbLine
 10
-633.840744
 20
-128.15003
 30
0.0
 11
-633.840744
 21
-220.15003
 31
0.0
  0
ARC
  5
42B
100
AcDbEntity
  8
0
370
    -3
390
0
  6
Continuous
100
AcDbCircle
 10
-726.3045
 20
-290.90003
 30
0.0
 40
1.5
100
AcDbArc
 50
120.0
 51
300.0
  0
LINE
  5
42C
100
AcDbEntity
  8
0
370
    -3
390
0
  6
Continuous
100
AcDbLine
 10
-727.0545
 20
-289.600992
 30
0.0
 11
-647.380163
 21
-243.600992
 31
0.0
  0
LINE
  5
42D
100
AcDbEntity
  8
0
370
    -3
390
0
  6
Continuous
100
AcDbLine
 10
-725.5545
 20
-292.199069
 30
0.0
 11
-645.880163
 21
-246.199069
 31
0.0
  0
ARC
  5
42E
100
AcDbEntity
  8
0
370
    -3
390
0
  6
Continuous
100
AcDbCircle
 10
-646.630163
 20
-244.90003
 30
0.0
 40
1.5
100
AcDbArc
 50
300.0
 51
120.0
  0
ARC
  5
42F
100
AcDbEntity
  8
0
370
    -3
390
0
  6
Continuous
100
AcDbCircle
 10
-538.376988
 20
-290.90003
 30
0.0
 40
1.5
100
AcDbArc
 50
240.0
 51
60.0
  0
LINE
  5
430
100
AcDbEntity
  8
0
370
    -3
390
0
  6
Continuous
100
AcDbLine
 10
-539.126988
 20
-292.199069
 30
0.0
 11
-618.801325
 21
-246.199069
 31
0.0
  0
LINE
  5
431
100
AcDbEntity
  8
0
370
    -3
390
0
  6
Continuous
100
AcDbLine
 10
-537.626988
 20
-289.600992
 30
0.0
 11
-617.301325
 21
-243.600992
 31
0.0
  0
ARC
  5
432
100
AcDbEntity
  8
0
370
    -3
390
0
  6
Continuous
100
AcDbCircle
 10
-618.051325
 20
-244.90003
 30
0.0
 40
1.5
100
AcDbArc
 50
60.0
 51
240.0
  0
ARC
  5
433
100
AcDbEntity
  8
0
370
    -3
390
0
  6
Continuous
100
AcDbCircle
 10
-632.340744
 20
-236.65003
 30
0.0
 40
100.0
100
AcDbArc
 50
94.434512
 51
146.157713
  0
ARC
  5
434
100
AcDbEntity
  8
0
370
    -3
390
0
  6
Continuous
100
AcDbCircle
 10
-639.840744
 20
-139.940414
 30
0.0
 40
3.0
100
AcDbArc
 50
0.0
 51
94.434512
  0
ARC
  5
435
100
AcDbEntity
  8
0
370
    -3
390
0
  6
Continuous
100
AcDbCircle
 10
-712.90639
 20
-182.62988
 30
0.0
 40
3.0
100
AcDbArc
 50
146.157713
 51
240.0
  0
LINE
  5
436
100
AcDbEntity
  8
0
370
    -3
390
0
  6
Continuous
100
AcDbLine
 10
-714.40639
 20
-185.227956
 30
0.0
 11
-713.538393
 21
-185.729094
 31
0.0
  0
ARC
  5
437
100
AcDbEntity
  8
0
370
    -3
390
0
  6
Continuous
100
AcDbCircle
 10
-712.038393
 20
-183.131018
 30
0.0
 40
3.0
100
AcDbArc
 50
240.0
 51
326.117628
  0
LINE
  5
438
100
AcDbEntity
  8
0
370
    -3
390
0
  6
Continuous
100
AcDbLine
 10
-636.840744
 20
-139.940414
 30
0.0
 11
-636.840744
 21
-140.943448
 31
0.0
  0
ARC
  5
439
100
AcDbEntity
  8
0
370
    -3
390
0
  6
Continuous
100
AcDbCircle
 10
-632.340744
 20
-236.65003
 30
0.0
 40
93.0
100
AcDbArc
 50
94.480799
 51
146.117628
  0
ARC
  5
43A
100
AcDbEntity
  8
0
370
    -3
390
0
  6
Continuous
100
AcDbCircle
 10
-639.840744
 20
-140.943448
 30
0.0
 40
3.0
100
AcDbArc
 50
274.480799
 51
0.0
  0
ARC
  5
43B
100
AcDbEntity
  8
0
370
    -3
390
0
  6
Continuous
100
AcDbCircle
 10
-701.618756
 20
-189.146798
 30
0.0
 40
3.0
100
AcDbArc
 50
145.561961
 51
240.0
  0
LINE
  5
43C
100
AcDbEntity
  8
0
370
    -3
390
0
  6
Continuous
100
AcDbLine
 10
-703.118756
 20
-191.744874
 30
0.0
 11
-699.643713
 21
-193.751191
 31
0.0
  0
ARC
  5
43D
100
AcDbEntity
  8
0
370
    -3
390
0
  6
Continuous
100
AcDbCircle
 10
-698.143713
 20
-191.153115
 30
0.0
 40
3.0
100
AcDbArc
 50
240.0
 51
325.339581
  0
ARC
  5
43E
100
AcDbEntity
  8
0
370
    -3
390
0
  6
Continuous
100
AcDbCircle
 10
-688.580764
 20
-196.674286
 30
0.0
 40
3.0
100
AcDbArc
 50
144.594556
 51
240.0
  0
LINE
  5
43F
100
AcDbEntity
  8
0
370
    -3
390
0
  6
Continuous
100
AcDbLine
 10
-690.080764
 20
-199.272362
 30
0.0
 11
-686.60023
 21
-201.28185
 31
0.0
  0
ARC
  5
440
100
AcDbEntity
  8
0
370
    -3
390
0
  6
Continuous
100
AcDbCircle
 10
-685.10023
 20
-198.683774
 30
0.0
 40
3.0
100
AcDbArc
 50
240.0
 51
324.26083
  0
ARC
  5
441
100
AcDbEntity
  8
0
370
    -3
390
0
  6
Continuous
100
AcDbCircle
 10
-675.516087
 20
-204.217181
 30
0.0
 40
3.0
100
AcDbArc
 50
143.086522
 51
240.0
  0
LINE
  5
442
100
AcDbEntity
  8
0
370
    -3
390
0
  6
Continuous
100
AcDbLine
 10
-677.016087
 20
-206.815257
 30
0.0
 11
-673.52456
 21
-208.831092
 31
0.0
  0
ARC
  5
443
100
AcDbEntity
  8
0
370
    -3
390
0
  6
Continuous
100
AcDbCircle
 10
-672.02456
 20
-206.233015
 30
0.0
 40
3.0
100
AcDbArc
 50
240.0
 51
322.530408
  0
ARC
  5
444
100
AcDbEntity
  8
0
370
    -3
390
0
  6
Continuous
100
AcDbCircle
 10
-662.393334
 20
-211.793606
 30
0.0
 40
3.0
100
AcDbArc
 50
140.405932
 51
240.0
  0
LINE
  5
445
100
AcDbEntity
  8
0
370
    -3
390
0
  6
Continuous
100
AcDbLine
 10
-663.893334
 20
-214.391682
 30
0.0
 11
-660.374339
 21
-216.423375
 31
0.0
  0
ARC
  5
446
100
AcDbEntity
  8
0
370
    -3
390
0
  6
Continuous
100
AcDbCircle
 10
-658.874339
 20
-213.825299
 30
0.0
 40
3.0
100
AcDbArc
 50
240.0
 51
319.29722
  0
ARC
  5
447
100
AcDbEntity
  8
0
370
    -3
390
0
  6
Continuous
100
AcDbCircle
 10
-632.340744
 20
-236.65003
 30
0.0
 40
32.0
100
AcDbArc
 50
102.373625
 51
139.29722
  0
ARC
  5
448
100
AcDbEntity
  8
0
370
    -3
390
0
  6
Continuous
100
AcDbCircle
 10
-639.840744
 20
-202.463045
 30
0.0
 40
3.0
100
AcDbArc
 50
282.373625
 51
0.0
  0
ARC
  5
449
100
AcDbEntity
  8
0
370
    -3
390
0
  6
Continuous
100
AcDbCircle
 10
-632.340744
 20
-236.65003
 30
0.0
 40
42.0
100
AcDbArc
 50
101.087489
 51
140.405932
  0
LINE
  5
44A
100
AcDbEntity
  8
0
370
    -3
390
0
  6
Continuous
100
AcDbLine
 10
-636.840744
 20
-198.377978
 30
0.0
 11
-636.840744
 21
-202.463045
 31
0.0
  0
ARC
  5
44B
100
AcDbEntity
  8
0
370
    -3
390
0
  6
Continuous
100
AcDbCircle
 10
-639.840744
 20
-198.377978
 30
0.0
 40
3.0
100
AcDbArc
 50
0.0
 51
101.087489
  0
ARC
  5
44C
100
AcDbEntity
  8
0
370
    -3
390
0
  6
Continuous
100
AcDbCircle
 10
-639.840744
 20
-213.852004
 30
0.0
 40
3.0
100
AcDbArc
 50
0.0
 51
108.209957
  0
LINE
  5
44D
100
AcDbEntity
  8
0
370
    -3
390
0
  6
Continuous
100
AcDbLine
 10
-636.840744
 20
-213.852004
 30
0.0
 11
-636.840744
 21
-218.109534
 31
0.0
  0
ARC
  5
44E
100
AcDbEntity
  8
0
370
    -3
390
0
  6
Continuous
100
AcDbCircle
 10
-639.840744
 20
-218.109534
 30
0.0
 40
3.0
100
AcDbArc
 50
292.024313
 51
0.0
  0
ARC
  5
44F
100
AcDbEntity
  8
0
370
    -3
390
0
  6
Continuous
100
AcDbCircle
 10
-632.340744
 20
-236.65003
 30
0.0
 40
17.0
100
AcDbArc
 50
112.024313
 51
131.034425
  0
ARC
  5
450
100
AcDbEntity
  8
0
370
    -3
390
0
  6
Continuous
100
AcDbCircle
 10
-645.470991
 20
-221.563725
 30
0.0
 40
3.0
100
AcDbArc
 50
240.0
 51
311.034425
  0
ARC
  5
451
100
AcDbEntity
  8
0
370
    -3
390
0
  6
Continuous
100
AcDbCircle
 10
-632.340744
 20
-236.65003
 30
0.0
 40
27.0
100
AcDbArc
 50
108.209957
 51
134.286139
  0
LINE
  5
452
100
AcDbEntity
  8
0
370
    -3
390
0
  6
Continuous
100
AcDbLine
 10
-650.598555
 20
-222.067426
 30
0.0
 11
-646.970991
 21
-224.161801
 31
0.0
  0
ARC
  5
453
100
AcDbEntity
  8
0
370
    -3
390
0
  6
Continuous
100
AcDbCircle
 10
-649.098555
 20
-219.46935
 30
0.0
 40
3.0
100
AcDbArc
 50
134.286139
 51
240.0
  0
ARC
  5
454
100
AcDbEntity
  8
0
370
    -3
390
0
  6
Continuous
100
AcDbCircle
 10
-632.340744
 20
-236.65003
 30
0.0
 40
47.0
100
AcDbArc
 50
98.626927
 51
142.530408
  0
ARC
  5
455
100
AcDbEntity
  8
0
370
    -3
390
0
  6
Continuous
100
AcDbCircle
 10
-639.840744
 20
-187.215731
 30
0.0
 40
3.0
100
AcDbArc
 50
278.626927
 51
360.0
  0
ARC
  5
456
100
AcDbEntity
  8
0
370
    -3
390
0
  6
Continuous
100
AcDbCircle
 10
-632.340744
 20
-236.65003
 30
0.0
 40
57.0
100
AcDbArc
 50
97.983556
 51
143.086522
  0
LINE
  5
457
100
AcDbEntity
  8
0
370
    -3
390
0
  6
Continuous
100
AcDbLine
 10
-636.840744
 20
-183.1734
 30
0.0
 11
-636.840744
 21
-187.215731
 31
0.0
  0
ARC
  5
458
100
AcDbEntity
  8
0
370
    -3
390
0
  6
Continuous
100
AcDbCircle
 10
-639.840744
 20
-183.1734
 30
0.0
 40
3.0
100
AcDbArc
 50
0.0
 51
97.983556
  0
ARC
  5
459
100
AcDbEntity
  8
0
370
    -3
390
0
  6
Continuous
100
AcDbCircle
 10
-632.340744
 20
-236.65003
 30
0.0
 40
62.0
100
AcDbArc
 50
96.62581
 51
144.26083
  0
ARC
  5
45A
100
AcDbEntity
  8
0
370
    -3
390
0
  6
Continuous
100
AcDbCircle
 10
-639.840744
 20
-172.084173
 30
0.0
 40
3.0
100
AcDbArc
 50
276.62581
 51
0.0
  0
ARC
  5
45B
100
AcDbEntity
  8
0
370
    -3
390
0
  6
Continuous
100
AcDbCircle
 10
-632.340744
 20
-236.65003
 30
0.0
 40
72.0
100
AcDbArc
 50
96.240131
 51
144.594556
  0
LINE
  5
45C
100
AcDbEntity
  8
0
370
    -3
390
0
  6
Continuous
100
AcDbLine
 10
-636.840744
 20
-168.05885
 30
0.0
 11
-636.840744
 21
-172.084173
 31
0.0
  0
ARC
  5
45D
100
AcDbEntity
  8
0
370
    -3
390
0
  6
Continuous
100
AcDbCircle
 10
-639.840744
 20
-168.05885
 30
0.0
 40
3.0
100
AcDbArc
 50
0.0
 51
96.240131
  0
ARC
  5
45E
100
AcDbEntity
  8
0
370
    -3
390
0
  6
Continuous
100
AcDbCircle
 10
-632.340744
 20
-236.65003
 30
0.0
 40
77.0
100
AcDbArc
 50
95.379379
 51
145.339581
  0
ARC
  5
45F
100
AcDbEntity
  8
0
370
    -3
390
0
  6
Continuous
100
AcDbCircle
 10
-639.840744
 20
-157.002369
 30
0.0
 40
3.0
100
AcDbArc
 50
275.379379
 51
0.0
  0
ARC
  5
460
100
AcDbEntity
  8
0
370
    -3
390
0
  6
Continuous
100
AcDbCircle
 10
-632.340744
 20
-236.65003
 30
0.0
 40
87.0
100
AcDbArc
 50
95.122516
 51
145.561961
  0
LINE
  5
461
100
AcDbEntity
  8
0
370
    -3
390
0
  6
Continuous
100
AcDbLine
 10
-636.840744
 20
-152.985522
 30
0.0
 11
-636.840744
 21
-157.002369
 31
0.0
  0
ARC
  5
462
100
AcDbEntity
  8
0
370
    -3
390
0
  6
Continuous
100
AcDbCircle
 10
-639.840744
 20
-152.985522
 30
0.0
 40
3.0
100
AcDbArc
 50
0.0
 51
95.122516
  0
ARC
  5
463
100
AcDbEntity
  8
0
370
    -3
390
0
  6
Continuous
100
AcDbCircle
 10
-632.340744
 20
-236.65003
 30
0.0
 40
100.0
100
AcDbArc
 50
33.842287
 51
85.565488
  0
ARC
  5
464
100
AcDbEntity
  8
0
370
    -3
390
0
  6
Continuous
100
AcDbCircle
 10
-624.840744
 20
-139.940414
 30
0.0
 40
3.0
100
AcDbArc
 50
85.565488
 51
180.0
  0
ARC
  5
465
100
AcDbEntity
  8
0
370
    -3
390
0
  6
Continuous
100
AcDbCircle
 10
-551.775098
 20
-182.62988
 30
0.0
 40
3.0
100
AcDbArc
 50
300.0
 51
33.842287
  0
LINE
  5
466
100
AcDbEntity
  8
0
370
    -3
390
0
  6
Continuous
100
AcDbLine
 10
-550.275098
 20
-185.227956
 30
0.0
 11
-551.143095
 21
-185.729094
 31
0.0
  0
ARC
  5
467
100
AcDbEntity
  8
0
370
    -3
390
0
  6
Continuous
100
AcDbCircle
 10
-552.643095
 20
-183.131018
 30
0.0
 40
3.0
100
AcDbArc
 50
213.882372
 51
300.0
  0
LINE
  5
468
100
AcDbEntity
  8
0
370
    -3
390
0
  6
Continuous
100
AcDbLine
 10
-627.840744
 20
-139.940414
 30
0.0
 11
-627.840744
 21
-140.943448
 31
0.0
  0
ARC
  5
469
100
AcDbEntity
  8
0
370
    -3
390
0
  6
Continuous
100
AcDbCircle
 10
-632.340744
 20
-236.65003
 30
0.0
 40
93.0
100
AcDbArc
 50
33.882372
 51
85.519201
  0
ARC
  5
46A
100
AcDbEntity
  8
0
370
    -3
390
0
  6
Continuous
100
AcDbCircle
 10
-624.840744
 20
-140.943448
 30
0.0
 40
3.0
100
AcDbArc
 50
180.0
 51
265.519201
  0
ARC
  5
46B
100
AcDbEntity
  8
0
370
    -3
390
0
  6
Continuous
100
AcDbCircle
 10
-563.062732
 20
-189.146798
 30
0.0
 40
3.0
100
AcDbArc
 50
300.0
 51
34.438039
  0
LINE
  5
46C
100
AcDbEntity
  8
0
370
    -3
390
0
  6
Continuous
100
AcDbLine
 10
-561.562732
 20
-191.744874
 30
0.0
 11
-565.037775
 21
-193.751191
 31
0.0
  0
ARC
  5
46D
100
AcDbEntity
  8
0
370
    -3
390
0
  6
Continuous
100
AcDbCircle
 10
-566.537775
 20
-191.153115
 30
0.0
 40
3.0
100
AcDbArc
 50
214.660419
 51
300.0
  0
ARC
  5
46E
100
AcDbEntity
  8
0
370
    -3
390
0
  6
Continuous
100
AcDbCircle
 10
-576.100724
 20
-196.674286
 30
0.0
 40
3.0
100
AcDbArc
 50
300.0
 51
35.405444
  0
LINE
  5
46F
100
AcDbEntity
  8
0
370
    -3
390
0
  6
Continuous
100
AcDbLine
 10
-574.600724
 20
-199.272362
 30
0.0
 11
-578.081258
 21
-201.28185
 31
0.0
  0
ARC
  5
470
100
AcDbEntity
  8
0
370
    -3
390
0
  6
Continuous
100
AcDbCircle
 10
-579.581258
 20
-198.683774
 30
0.0
 40
3.0
100
AcDbArc
 50
215.73917
 51
300.0
  0
ARC
  5
471
100
AcDbEntity
  8
0
370
    -3
390
0
  6
Continuous
100
AcDbCircle
 10
-589.165401
 20
-204.217181
 30
0.0
 40
3.0
100
AcDbArc
 50
300.0
 51
36.913478
  0
LINE
  5
472
100
AcDbEntity
  8
0
370
    -3
390
0
  6
Continuous
100
AcDbLine
 10
-587.665401
 20
-206.815257
 30
0.0
 11
-591.156929
 21
-208.831092
 31
0.0
  0
ARC
  5
473
100
AcDbEntity
  8
0
370
    -3
390
0
  6
Continuous
100
AcDbCircle
 10
-592.656929
 20
-206.233015
 30
0.0
 40
3.0
100
AcDbArc
 50
217.469592
 51
300.0
  0
ARC
  5
474
100
AcDbEntity
  8
0
370
    -3
390
0
  6
Continuous
100
AcDbCircle
 10
-602.288154
 20
-211.793606
 30
0.0
 40
3.0
100
AcDbArc
 50
300.0
 51
39.594068
  0
LINE
  5
475
100
AcDbEntity
  8
0
370
    -3
390
0
  6
Continuous
100
AcDbLine
 10
-600.788154
 20
-214.391682
 30
0.0
 11
-604.30715
 21
-216.423375
 31
0.0
  0
ARC
  5
476
100
AcDbEntity
  8
0
370
    -3
390
0
  6
Continuous
100
AcDbCircle
 10
-605.80715
 20
-213.825299
 30
0.0
 40
3.0
100
AcDbArc
 50
220.70278
 51
300.0
  0
ARC
  5
477
100
AcDbEntity
  8
0
370
    -3
390
0
  6
Continuous
100
AcDbCircle
 10
-632.340744
 20
-236.65003
 30
0.0
 40
32.0
100
AcDbArc
 50
40.70278
 51
77.626375
  0
ARC
  5
478
100
AcDbEntity
  8
0
370
    -3
390
0
  6
Continuous
100
AcDbCircle
 10
-624.840744
 20
-202.463045
 30
0.0
 40
3.0
100
AcDbArc
 50
180.0
 51
257.626375
  0
ARC
  5
479
100
AcDbEntity
  8
0
370
    -3
390
0
  6
Continuous
100
AcDbCircle
 10
-632.340744
 20
-236.65003
 30
0.0
 40
42.0
100
AcDbArc
 50
39.594068
 51
78.912511
  0
LINE
  5
47A
100
AcDbEntity
  8
0
370
    -3
390
0
  6
Continuous
100
AcDbLine
 10
-627.840744
 20
-198.377978
 30
0.0
 11
-627.840744
 21
-202.463045
 31
0.0
  0
ARC
  5
47B
100
AcDbEntity
  8
0
370
    -3
390
0
  6
Continuous
100
AcDbCircle
 10
-624.840744
 20
-198.377978
 30
0.0
 40
3.0
100
AcDbArc
 50
78.912511
 51
180.0
  0
ARC
  5
47C
100
AcDbEntity
  8
0
370
    -3
390
0
  6
Continuous
100
AcDbCircle
 10
-624.840744
 20
-213.852004
 30
0.0
 40
3.0
100
AcDbArc
 50
71.790043
 51
180.0
  0
LINE
  5
47D
100
AcDbEntity
  8
0
370
    -3
390
0
  6
Continuous
100
AcDbLine
 10
-627.840744
 20
-213.852004
 30
0.0
 11
-627.840744
 21
-218.109534
 31
0.0
  0
ARC
  5
47E
100
AcDbEntity
  8
0
370
    -3
390
0
  6
Continuous
100
AcDbCircle
 10
-624.840744
 20
-218.109534
 30
0.0
 40
3.0
100
AcDbArc
 50
180.0
 51
247.975687
  0
ARC
  5
47F
100
AcDbEntity
  8
0
370
    -3
390
0
  6
Continuous
100
AcDbCircle
 10
-632.340744
 20
-236.65003
 30
0.0
 40
17.0
100
AcDbArc
 50
48.965575
 51
67.975687
  0
ARC
  5
480
100
AcDbEntity
  8
0
370
    -3
390
0
  6
Continuous
100
AcDbCircle
 10
-619.210497
 20
-221.563725
 30
0.0
 40
3.0
100
AcDbArc
 50
228.965575
 51
300.0
  0
ARC
  5
481
100
AcDbEntity
  8
0
370
    -3
390
0
  6
Continuous
100
AcDbCircle
 10
-632.340744
 20
-236.65003
 30
0.0
 40
27.0
100
AcDbArc
 50
45.713861
 51
71.790043
  0
LINE
  5
482
100
AcDbEntity
  8
0
370
    -3
390
0
  6
Continuous
100
AcDbLine
 10
-614.082933
 20
-222.067426
 30
0.0
 11
-617.710497
 21
-224.161801
 31
0.0
  0
ARC
  5
483
100
AcDbEntity
  8
0
370
    -3
390
0
  6
Continuous
100
AcDbCircle
 10
-615.582933
 20
-219.46935
 30
0.0
 40
3.0
100
AcDbArc
 50
300.0
 51
45.713861
  0
ARC
  5
484
100
AcDbEntity
  8
0
370
    -3
390
0
  6
Continuous
100
AcDbCircle
 10
-632.340744
 20
-236.65003
 30
0.0
 40
47.0
100
AcDbArc
 50
37.469592
 51
81.373073
  0
ARC
  5
485
100
AcDbEntity
  8
0
370
    -3
390
0
  6
Continuous
100
AcDbCircle
 10
-624.840744
 20
-187.215731
 30
0.0
 40
3.0
100
AcDbArc
 50
180.0
 51
261.373073
  0
ARC
  5
486
100
AcDbEntity
  8
0
370
    -3
390
0
  6
Continuous
100
AcDbCircle
 10
-632.340744
 20
-236.65003
 30
0.0
 40
57.0
100
AcDbArc
 50
36.913478
 51
82.016444
  0
LINE
  5
487
100
AcDbEntity
  8
0
370
    -3
390
0
  6
Continuous
100
AcDbLine
 10
-627.840744
 20
-183.1734
 30
0.0
 11
-627.840744
 21
-187.215731
 31
0.0
  0
ARC
  5
488
100
AcDbEntity
  8
0
370
    -3
390
0
  6
Continuous
100
AcDbCircle
 10
-624.840744
 20
-183.1734
 30
0.0
 40
3.0
100
AcDbArc
 50
82.016444
 51
180.0
  0
ARC
  5
489
100
AcDbEntity
  8
0
370
    -3
390
0
  6
Continuous
100
AcDbCircle
 10
-632.340744
 20
-236.65003
 30
0.0
 40
62.0
100
AcDbArc
 50
35.73917
 51
83.37419
  0
ARC
  5
48A
100
AcDbEntity
  8
0
370
    -3
390
0
  6
Continuous
100
AcDbCircle
 10
-624.840744
 20
-172.084173
 30
0.0
 40
3.0
100
AcDbArc
 50
180.0
 51
263.37419
  0
ARC
  5
48B
100
AcDbEntity
  8
0
370
    -3
390
0
  6
Continuous
100
AcDbCircle
 10
-632.340744
 20
-236.65003
 30
0.0
 40
72.0
100
AcDbArc
 50
35.405444
 51
83.759869
  0
LINE
  5
48C
100
AcDbEntity
  8
0
370
    -3
390
0
  6
Continuous
100
AcDbLine
 10
-627.840744
 20
-168.05885
 30
0.0
 11
-627.840744
 21
-172.084173
 31
0.0
  0
ARC
  5
48D
100
AcDbEntity
  8
0
370
    -3
390
0
  6
Continuous
100
AcDbCircle
 10
-624.840744
 20
-168.05885
 30
0.0
 40
3.0
100
AcDbArc
 50
83.759869
 51
180.0
  0
ARC
  5
48E
100
AcDbEntity
  8
0
370
    -3
390
0
  6
Continuous
100
AcDbCircle
 10
-632.340744
 20
-236.65003
 30
0.0
 40
77.0
100
AcDbArc
 50
34.660419
 51
84.620621
  0
ARC
  5
48F
100
AcDbEntity
  8
0
370
    -3
390
0
  6
Continuous
100
AcDbCircle
 10
-624.840744
 20
-157.002369
 30
0.0
 40
3.0
100
AcDbArc
 50
180.0
 51
264.620621
  0
ARC
  5
490
100
AcDbEntity
  8
0
370
    -3
390
0
  6
Continuous
100
AcDbCircle
 10
-632.340744
 20
-236.65003
 30
0.0
 40
87.0
100
AcDbArc
 50
34.438039
 51
84.877484
  0
LINE
  5
491
100
AcDbEntity
  8
0
370
    -3
390
0
  6
Continuous
100
AcDbLine
 10
-627.840744
 20
-152.985522
 30
0.0
 11
-627.840744
 21
-157.002369
 31
0.0
  0
ARC
  5
492
100
AcDbEntity
  8
0
370
    -3
390
0
  6
Continuous
100
AcDbCircle
 10
-624.840744
 20
-152.985522
 30
0.0
 40
3.0
100
AcDbArc
 50
84.877484
 51
180.0
  0
ARC
  5
493
100
AcDbEntity
  8
0
370
    -3
390
0
  6
Continuous
100
AcDbCircle
 10
-632.340744
 20
-236.65003
 30
0.0
 40
100.0
100
AcDbArc
 50
334.434512
 51
26.157713
  0
ARC
  5
494
100
AcDbEntity
  8
0
370
    -3
390
0
  6
Continuous
100
AcDbCircle
 10
-544.837759
 20
-278.509648
 30
0.0
 40
3.0
100
AcDbArc
 50
240.0
 51
334.434512
  0
ARC
  5
495
100
AcDbEntity
  8
0
370
    -3
390
0
  6
Continuous
100
AcDbCircle
 10
-545.275098
 20
-193.88821
 30
0.0
 40
3.0
100
AcDbArc
 50
26.157713
 51
120.0
  0
LINE
  5
496
100
AcDbEntity
  8
0
370
    -3
390
0
  6
Continuous
100
AcDbLine
 10
-546.775098
 20
-191.290134
 30
0.0
 11
-547.643095
 21
-191.791272
 31
0.0
  0
ARC
  5
497
100
AcDbEntity
  8
0
370
    -3
390
0
  6
Continuous
100
AcDbCircle
 10
-546.143095
 20
-194.389348
 30
0.0
 40
3.0
100
AcDbArc
 50
120.0
 51
206.117628
  0
LINE
  5
498
100
AcDbEntity
  8
0
370
    -3
390
0
  6
Continuous
100
AcDbLine
 10
-546.337759
 20
-281.107725
 30
0.0
 11
-547.206412
 21
-280.606208
 31
0.0
  0
ARC
  5
499
100
AcDbEntity
  8
0
370
    -3
390
0
  6
Continuous
100
AcDbCircle
 10
-632.340744
 20
-236.65003
 30
0.0
 40
93.0
100
AcDbArc
 50
334.480799
 51
26.117628
  0
ARC
  5
49A
100
AcDbEntity
  8
0
370
    -3
390
0
  6
Continuous
100
AcDbCircle
 10
-545.706412
 20
-278.008131
 30
0.0
 40
3.0
100
AcDbArc
 50
154.480799
 51
240.0
  0
ARC
  5
49B
100
AcDbEntity
  8
0
370
    -3
390
0
  6
Continuous
100
AcDbCircle
 10
-556.562732
 20
-200.405128
 30
0.0
 40
3.0
100
AcDbArc
 50
25.561961
 51
120.0
  0
LINE
  5
49C
100
AcDbEntity
  8
0
370
    -3
390
0
  6
Continuous
100
AcDbLine
 10
-558.062732
 20
-197.807052
 30
0.0
 11
-561.537775
 21
-199.813369
 31
0.0
  0
ARC
  5
49D
100
AcDbEntity
  8
0
370
    -3
390
0
  6
Continuous
100
AcDbCircle
 10
-560.037775
 20
-202.411445
 30
0.0
 40
3.0
100
AcDbArc
 50
120.0
 51
205.339581
  0
ARC
  5
49E
100
AcDbEntity
  8
0
370
    -3
390
0
  6
Continuous
100
AcDbCircle
 10
-569.600724
 20
-207.932616
 30
0.0
 40
3.0
100
AcDbArc
 50
24.594556
 51
120.0
  0
LINE
  5
49F
100
AcDbEntity
  8
0
370
    -3
390
0
  6
Continuous
100
AcDbLine
 10
-571.100724
 20
-205.33454
 30
0.0
 11
-574.581258
 21
-207.344028
 31
0.0
  0
ARC
  5
4A0
100
AcDbEntity
  8
0
370
    -3
390
0
  6
Continuous
100
AcDbCircle
 10
-573.081258
 20
-209.942104
 30
0.0
 40
3.0
100
AcDbArc
 50
120.0
 51
204.26083
  0
ARC
  5
4A1
100
AcDbEntity
  8
0
370
    -3
390
0
  6
Continuous
100
AcDbCircle
 10
-582.665401
 20
-215.475511
 30
0.0
 40
3.0
100
AcDbArc
 50
23.086522
 51
120.0
  0
LINE
  5
4A2
100
AcDbEntity
  8
0
370
    -3
390
0
  6
Continuous
100
AcDbLine
 10
-584.165401
 20
-212.877435
 30
0.0
 11
-587.656929
 21
-214.89327
 31
0.0
  0
ARC
  5
4A3
100
AcDbEntity
  8
0
370
    -3
390
0
  6
Continuous
100
AcDbCircle
 10
-586.156929
 20
-217.491346
 30
0.0
 40
3.0
100
AcDbArc
 50
120.0
 51
202.530408
  0
ARC
  5
4A4
100
AcDbEntity
  8
0
370
    -3
390
0
  6
Continuous
100
AcDbCircle
 10
-595.788154
 20
-223.051936
 30
0.0
 40
3.0
100
AcDbArc
 50
20.405932
 51
120.0
  0
LINE
  5
4A5
100
AcDbEntity
  8
0
370
    -3
390
0
  6
Continuous
100
AcDbLine
 10
-597.288154
 20
-220.45386
 30
0.0
 11
-600.80715
 21
-222.485553
 31
0.0
  0
ARC
  5
4A6
100
AcDbEntity
  8
0
370
    -3
390
0
  6
Continuous
100
AcDbCircle
 10
-599.30715
 20
-225.083629
 30
0.0
 40
3.0
100
AcDbArc
 50
120.0
 51
199.29722
  0
ARC
  5
4A7
100
AcDbEntity
  8
0
370
    -3
390
0
  6
Continuous
100
AcDbCircle
 10
-632.340744
 20
-236.65003
 30
0.0
 40
32.0
100
AcDbArc
 50
342.373625
 51
19.29722
  0
ARC
  5
4A8
100
AcDbEntity
  8
0
370
    -3
390
0
  6
Continuous
100
AcDbCircle
 10
-598.983946
 20
-247.248333
 30
0.0
 40
3.0
100
AcDbArc
 50
162.373625
 51
240.0
  0
ARC
  5
4A9
100
AcDbEntity
  8
0
370
    -3
390
0
  6
Continuous
100
AcDbCircle
 10
-632.340744
 20
-236.65003
 30
0.0
 40
42.0
100
AcDbArc
 50
341.087489
 51
20.405932
  0
LINE
  5
4AA
100
AcDbEntity
  8
0
370
    -3
390
0
  6
Continuous
100
AcDbLine
 10
-596.946174
 20
-251.888942
 30
0.0
 11
-600.483946
 21
-249.846409
 31
0.0
  0
ARC
  5
4AB
100
AcDbEntity
  8
0
370
    -3
390
0
  6
Continuous
100
AcDbCircle
 10
-595.446174
 20
-249.290866
 30
0.0
 40
3.0
100
AcDbArc
 50
240.0
 51
341.087489
  0
ARC
  5
4AC
100
AcDbEntity
  8
0
370
    -3
390
0
  6
Continuous
100
AcDbCircle
 10
-608.847074
 20
-241.553853
 30
0.0
 40
3.0
100
AcDbArc
 50
240.0
 51
348.209957
  0
LINE
  5
4AD
100
AcDbEntity
  8
0
370
    -3
390
0
  6
Continuous
100
AcDbLine
 10
-610.347074
 20
-244.151929
 30
0.0
 11
-614.034203
 21
-242.023164
 31
0.0
  0
ARC
  5
4AE
100
AcDbEntity
  8
0
370
    -3
390
0
  6
Continuous
100
AcDbCircle
 10
-612.534203
 20
-239.425088
 30
0.0
 40
3.0
100
AcDbArc
 50
172.024313
 51
240.0
  0
ARC
  5
4AF
100
AcDbEntity
  8
0
370
    -3
390
0
  6
Continuous
100
AcDbCircle
 10
-632.340744
 20
-236.65003
 30
0.0
 40
17.0
100
AcDbArc
 50
352.024313
 51
11.034425
  0
ARC
  5
4B0
100
AcDbEntity
  8
0
370
    -3
390
0
  6
Continuous
100
AcDbCircle
 10
-612.710497
 20
-232.822055
 30
0.0
 40
3.0
100
AcDbArc
 50
120.0
 51
191.034425
  0
ARC
  5
4B1
100
AcDbEntity
  8
0
370
    -3
390
0
  6
Continuous
100
AcDbCircle
 10
-632.340744
 20
-236.65003
 30
0.0
 40
27.0
100
AcDbArc
 50
348.209957
 51
14.286139
  0
LINE
  5
4B2
100
AcDbEntity
  8
0
370
    -3
390
0
  6
Continuous
100
AcDbLine
 10
-610.582933
 20
-228.129604
 30
0.0
 11
-614.210497
 21
-230.223979
 31
0.0
  0
ARC
  5
4B3
100
AcDbEntity
  8
0
370
    -3
390
0
  6
Continuous
100
AcDbCircle
 10
-609.082933
 20
-230.727681
 30
0.0
 40
3.0
100
AcDbArc
 50
14.286139
 51
120.0
  0
ARC
  5
4B4
100
AcDbEntity
  8
0
370
    -3
390
0
  6
Continuous
100
AcDbCircle
 10
-632.340744
 20
-236.65003
 30
0.0
 40
47.0
100
AcDbArc
 50
338.626927
 51
22.530408
  0
ARC
  5
4B5
100
AcDbEntity
  8
0
370
    -3
390
0
  6
Continuous
100
AcDbCircle
 10
-585.779385
 20
-254.87199
 30
0.0
 40
3.0
100
AcDbArc
 50
158.626927
 51
240.0
  0
ARC
  5
4B6
100
AcDbEntity
  8
0
370
    -3
390
0
  6
Continuous
100
AcDbCircle
 10
-632.340744
 20
-236.65003
 30
0.0
 40
57.0
100
AcDbArc
 50
337.983556
 51
23.086522
  0
LINE
  5
4B7
100
AcDbEntity
  8
0
370
    -3
390
0
  6
Continuous
100
AcDbLine
 10
-583.778624
 20
-259.491231
 30
0.0
 11
-587.279385
 21
-257.470066
 31
0.0
  0
ARC
  5
4B8
100
AcDbEntity
  8
0
370
    -3
390
0
  6
Continuous
100
AcDbCircle
 10
-582.278624
 20
-256.893155
 30
0.0
 40
3.0
100
AcDbArc
 50
240.0
 51
337.983556
  0
ARC
  5
4B9
100
AcDbEntity
  8
0
370
    -3
390
0
  6
Continuous
100
AcDbCircle
 10
-632.340744
 20
-236.65003
 30
0.0
 40
62.0
100
AcDbArc
 50
336.62581
 51
24.26083
  0
ARC
  5
4BA
100
AcDbEntity
  8
0
370
    -3
390
0
  6
Continuous
100
AcDbCircle
 10
-572.675071
 20
-262.437769
 30
0.0
 40
3.0
100
AcDbArc
 50
156.62581
 51
240.0
  0
ARC
  5
4BB
100
AcDbEntity
  8
0
370
    -3
390
0
  6
Continuous
100
AcDbCircle
 10
-632.340744
 20
-236.65003
 30
0.0
 40
72.0
100
AcDbArc
 50
336.240131
 51
24.594556
  0
LINE
  5
4BC
100
AcDbEntity
  8
0
370
    -3
390
0
  6
Continuous
100
AcDbLine
 10
-570.68904
 20
-267.048506
 30
0.0
 11
-574.175071
 21
-265.035845
 31
0.0
  0
ARC
  5
4BD
100
AcDbEntity
  8
0
370
    -3
390
0
  6
Continuous
100
AcDbCircle
 10
-569.18904
 20
-264.45043
 30
0.0
 40
3.0
100
AcDbArc
 50
240.0
 51
336.240131
  0
ARC
  5
4BE
100
AcDbEntity
  8
0
370
    -3
390
0
  6
Continuous
100
AcDbCircle
 10
-632.340744
 20
-236.65003
 30
0.0
 40
77.0
100
AcDbArc
 50
335.379379
 51
25.339581
  0
ARC
  5
4BF
100
AcDbEntity
  8
0
370
    -3
390
0
  6
Continuous
100
AcDbCircle
 10
-559.613846
 20
-269.978671
 30
0.0
 40
3.0
100
AcDbArc
 50
155.379379
 51
240.0
  0
ARC
  5
4C0
100
AcDbEntity
  8
0
370
    -3
390
0
  6
Continuous
100
AcDbCircle
 10
-632.340744
 20
-236.65003
 30
0.0
 40
87.0
100
AcDbArc
 50
335.122516
 51
25.561961
  0
LINE
  5
4C1
100
AcDbEntity
  8
0
370
    -3
390
0
  6
Continuous
100
AcDbLine
 10
-557.635154
 20
-274.58517
 30
0.0
 11
-561.113846
 21
-272.576747
 31
0.0
  0
ARC
  5
4C2
100
AcDbEntity
  8
0
370
    -3
390
0
  6
Continuous
100
AcDbCircle
 10
-556.135154
 20
-271.987094
 30
0.0
 40
3.0
100
AcDbArc
 50
240.0
 51
335.122516
  0
ARC
  5
4C3
100
AcDbEntity
  8
0
370
    -3
390
0
  6
Continuous
100
AcDbCircle
 10
-632.340744
 20
-236.65003
 30
0.0
 40
100.0
100
AcDbArc
 50
273.842287
 51
325.565488
  0
ARC
  5
4C4
100
AcDbEntity
  8
0
370
    -3
390
0
  6
Continuous
100
AcDbCircle
 10
-552.337759
 20
-291.500029
 30
0.0
 40
3.0
100
AcDbArc
 50
325.565488
 51
60.0
  0
ARC
  5
4C5
100
AcDbEntity
  8
0
370
    -3
390
0
  6
Continuous
100
AcDbCircle
 10
-625.840744
 20
-333.432002
 30
0.0
 40
3.0
100
AcDbArc
 50
180.0
 51
273.842287
  0
LINE
  5
4C6
100
AcDbEntity
  8
0
370
    -3
390
0
  6
Continuous
100
AcDbLine
 10
-628.840744
 20
-333.432002
 30
0.0
 11
-628.840744
 21
-332.429726
 31
0.0
  0
ARC
  5
4C7
100
AcDbEntity
  8
0
370
    -3
390
0
  6
Continuous
100
AcDbCircle
 10
-625.840744
 20
-332.429726
 30
0.0
 40
3.0
100
AcDbArc
 50
93.882372
 51
180.0
  0
LINE
  5
4C8
100
AcDbEntity
  8
0
370
    -3
390
0
  6
Continuous
100
AcDbLine
 10
-550.837759
 20
-288.901953
 30
0.0
 11
-551.706412
 21
-288.400436
 31
0.0
  0
ARC
  5
4C9
100
AcDbEntity
  8
0
370
    -3
390
0
  6
Continuous
100
AcDbCircle
 10
-632.340744
 20
-236.65003
 30
0.0
 40
93.0
100
AcDbArc
 50
273.882372
 51
325.519201
  0
ARC
  5
4CA
100
AcDbEntity
  8
0
370
    -3
390
0
  6
Continuous
100
AcDbCircle
 10
-553.206412
 20
-290.998512
 30
0.0
 40
3.0
100
AcDbArc
 50
60.0
 51
145.519201
  0
ARC
  5
4CB
100
AcDbEntity
  8
0
370
    -3
390
0
  6
Continuous
100
AcDbCircle
 10
-625.840744
 20
-320.398165
 30
0.0
 40
3.0
100
AcDbArc
 50
180.0
 51
274.438039
  0
LINE
  5
4CC
100
AcDbEntity
  8
0
370
    -3
390
0
  6
Continuous
100
AcDbLine
 10
-628.840744
 20
-320.398165
 30
0.0
 11
-628.840744
 21
-316.385531
 31
0.0
  0
ARC
  5
4CD
100
AcDbEntity
  8
0
370
    -3
390
0
  6
Continuous
100
AcDbCircle
 10
-625.840744
 20
-316.385531
 30
0.0
 40
3.0
100
AcDbArc
 50
94.660419
 51
180.0
  0
ARC
  5
4CE
100
AcDbEntity
  8
0
370
    -3
390
0
  6
Continuous
100
AcDbCircle
 10
-625.840744
 20
-305.343189
 30
0.0
 40
3.0
100
AcDbArc
 50
180.0
 51
275.405444
  0
LINE
  5
4CF
100
AcDbEntity
  8
0
370
    -3
390
0
  6
Continuous
100
AcDbLine
 10
-628.840744
 20
-305.343189
 30
0.0
 11
-628.840744
 21
-301.324214
 31
0.0
  0
ARC
  5
4D0
100
AcDbEntity
  8
0
370
    -3
390
0
  6
Continuous
100
AcDbCircle
 10
-625.840744
 20
-301.324214
 30
0.0
 40
3.0
100
AcDbArc
 50
95.73917
 51
180.0
  0
ARC
  5
4D1
100
AcDbEntity
  8
0
370
    -3
390
0
  6
Continuous
100
AcDbCircle
 10
-625.840744
 20
-290.257399
 30
0.0
 40
3.0
100
AcDbArc
 50
180.0
 51
276.913478
  0
LINE
  5
4D2
100
AcDbEntity
  8
0
370
    -3
390
0
  6
Continuous
100
AcDbLine
 10
-628.840744
 20
-290.257399
 30
0.0
 11
-628.840744
 21
-286.22573
 31
0.0
  0
ARC
  5
4D3
100
AcDbEntity
  8
0
370
    -3
390
0
  6
Continuous
100
AcDbCircle
 10
-625.840744
 20
-286.22573
 30
0.0
 40
3.0
100
AcDbArc
 50
97.469592
 51
180.0
  0
ARC
  5
4D4
100
AcDbEntity
  8
0
370
    -3
390
0
  6
Continuous
100
AcDbCircle
 10
-625.840744
 20
-275.104549
 30
0.0
 40
3.0
100
AcDbArc
 50
180.0
 51
279.594068
  0
LINE
  5
4D5
100
AcDbEntity
  8
0
370
    -3
390
0
  6
Continuous
100
AcDbLine
 10
-628.840744
 20
-275.104549
 30
0.0
 11
-628.840744
 21
-271.041163
 31
0.0
  0
ARC
  5
4D6
100
AcDbEntity
  8
0
370
    -3
390
0
  6
Continuous
100
AcDbCircle
 10
-625.840744
 20
-271.041163
 30
0.0
 40
3.0
100
AcDbArc
 50
100.70278
 51
180.0
  0
ARC
  5
4D7
100
AcDbEntity
  8
0
370
    -3
390
0
  6
Continuous
100
AcDbCircle
 10
-632.340744
 20
-236.65003
 30
0.0
 40
32.0
100
AcDbArc
 50
280.70278
 51
317.626375
  0
ARC
  5
4D8
100
AcDbEntity
  8
0
370
    -3
390
0
  6
Continuous
100
AcDbCircle
 10
-606.483946
 20
-260.238714
 30
0.0
 40
3.0
100
AcDbArc
 50
60.0
 51
137.626375
  0
ARC
  5
4D9
100
AcDbEntity
  8
0
370
    -3
390
0
  6
Continuous
100
AcDbCircle
 10
-632.340744
 20
-236.65003
 30
0.0
 40
42.0
100
AcDbArc
 50
279.594068
 51
318.912511
  0
LINE
  5
4DA
100
AcDbEntity
  8
0
370
    -3
390
0
  6
Continuous
100
AcDbLine
 10
-601.446174
 20
-259.683171
 30
0.0
 11
-604.983946
 21
-257.640638
 31
0.0
  0
ARC
  5
4DB
100
AcDbEntity
  8
0
370
    -3
390
0
  6
Continuous
100
AcDbCircle
 10
-602.946174
 20
-262.281247
 30
0.0
 40
3.0
100
AcDbArc
 50
318.912511
 51
60.0
  0
ARC
  5
4DC
100
AcDbEntity
  8
0
370
    -3
390
0
  6
Continuous
100
AcDbCircle
 10
-616.347074
 20
-254.544234
 30
0.0
 40
3.0
100
AcDbArc
 50
311.790043
 51
60.0
  0
LINE
  5
4DD
100
AcDbEntity
  8
0
370
    -3
390
0
  6
Continuous
100
AcDbLine
 10
-614.847074
 20
-251.946158
 30
0.0
 11
-618.534203
 21
-249.817393
 31
0.0
  0
ARC
  5
4DE
100
AcDbEntity
  8
0
370
    -3
390
0
  6
Continuous
100
AcDbCircle
 10
-620.034203
 20
-252.415469
 30
0.0
 40
3.0
100
AcDbArc
 50
60.0
 51
127.975687
  0
ARC
  5
4DF
100
AcDbEntity
  8
0
370
    -3
390
0
  6
Continuous
100
AcDbCircle
 10
-632.340744
 20
-236.65003
 30
0.0
 40
17.0
100
AcDbArc
 50
288.965575
 51
307.975687
  0
ARC
  5
4E0
100
AcDbEntity
  8
0
370
    -3
390
0
  6
Continuous
100
AcDbCircle
 10
-625.840744
 20
-255.564311
 30
0.0
 40
3.0
100
AcDbArc
 50
108.965575
 51
180.0
  0
ARC
  5
4E1
100
AcDbEntity
  8
0
370
    -3
390
0
  6
Continuous
100
AcDbCircle
 10
-632.340744
 20
-236.65003
 30
0.0
 40
27.0
100
AcDbArc
 50
285.713861
 51
311.790043
  0
LINE
  5
4E2
100
AcDbEntity
  8
0
370
    -3
390
0
  6
Continuous
100
AcDbLine
 10
-628.840744
 20
-259.753061
 30
0.0
 11
-628.840744
 21
-255.564311
 31
0.0
  0
ARC
  5
4E3
100
AcDbEntity
  8
0
370
    -3
390
0
  6
Continuous
100
AcDbCircle
 10
-625.840744
 20
-259.753061
 30
0.0
 40
3.0
100
AcDbArc
 50
180.0
 51
285.713861
  0
ARC
  5
4E4
100
AcDbEntity
  8
0
370
    -3
390
0
  6
Continuous
100
AcDbCircle
 10
-632.340744
 20
-236.65003
 30
0.0
 40
47.0
100
AcDbArc
 50
277.469592
 51
321.373073
  0
ARC
  5
4E5
100
AcDbEntity
  8
0
370
    -3
390
0
  6
Continuous
100
AcDbCircle
 10
-593.279385
 20
-267.862371
 30
0.0
 40
3.0
100
AcDbArc
 50
60.0
 51
141.373073
  0
ARC
  5
4E6
100
AcDbEntity
  8
0
370
    -3
390
0
  6
Continuous
100
AcDbCircle
 10
-632.340744
 20
-236.65003
 30
0.0
 40
57.0
100
AcDbArc
 50
276.913478
 51
322.016444
  0
LINE
  5
4E7
100
AcDbEntity
  8
0
370
    -3
390
0
  6
Continuous
100
AcDbLine
 10
-588.278624
 20
-267.28546
 30
0.0
 11
-591.779385
 21
-265.264295
 31
0.0
  0
ARC
  5
4E8
100
AcDbEntity
  8
0
370
    -3
390
0
  6
Continuous
100
AcDbCircle
 10
-589.778624
 20
-269.883536
 30
0.0
 40
3.0
100
AcDbArc
 50
322.016444
 51
60.0
  0
ARC
  5
4E9
100
AcDbEntity
  8
0
370
    -3
390
0
  6
Continuous
100
AcDbCircle
 10
-632.340744
 20
-236.65003
 30
0.0
 40
62.0
100
AcDbArc
 50
275.73917
 51
323.37419
  0
ARC
  5
4EA
100
AcDbEntity
  8
0
370
    -3
390
0
  6
Continuous
100
AcDbCircle
 10
-580.175071
 20
-275.42815
 30
0.0
 40
3.0
100
AcDbArc
 50
60.0
 51
143.37419
  0
ARC
  5
4EB
100
AcDbEntity
  8
0
370
    -3
390
0
  6
Continuous
100
AcDbCircle
 10
-632.340744
 20
-236.65003
 30
0.0
 40
72.0
100
AcDbArc
 50
275.405444
 51
323.759869
  0
LINE
  5
4EC
100
AcDbEntity
  8
0
370
    -3
390
0
  6
Continuous
100
AcDbLine
 10
-575.18904
 20
-274.842735
 30
0.0
 11
-578.675071
 21
-272.830074
 31
0.0
  0
ARC
  5
4ED
100
AcDbEntity
  8
0
370
    -3
390
0
  6
Continuous
100
AcDbCircle
 10
-576.68904
 20
-277.440811
 30
0.0
 40
3.0
100
AcDbArc
 50
323.759869
 51
60.0
  0
ARC
  5
4EE
100
AcDbEntity
  8
0
370
    -3
390
0
  6
Continuous
100
AcDbCircle
 10
-632.340744
 20
-236.65003
 30
0.0
 40
77.0
100
AcDbArc
 50
274.660419
 51
324.620621
  0
ARC
  5
4EF
100
AcDbEntity
  8
0
370
    -3
390
0
  6
Continuous
100
AcDbCircle
 10
-567.113846
 20
-282.969052
 30
0.0
 40
3.0
100
AcDbArc
 50
60.0
 51
144.620621
  0
ARC
  5
4F0
100
AcDbEntity
  8
0
370
    -3
390
0
  6
Continuous
100
AcDbCircle
 10
-632.340744
 20
-236.65003
 30
0.0
 40
87.0
100
AcDbArc
 50
274.438039
 51
324.877484
  0
LINE
  5
4F1
100
AcDbEntity
  8
0
370
    -3
390
0
  6
Continuous
100
AcDbLine
 10
-562.135154
 20
-282.379399
 30
0.0
 11
-565.613846
 21
-280.370976
 31
0.0
  0
ARC
  5
4F2
100
AcDbEntity
  8
0
370
    -3
390
0
  6
Continuous
100
AcDbCircle
 10
-563.635154
 20
-284.977475
 30
0.0
 40
3.0
100
AcDbArc
 50
324.877484
 51
60.0
  0
ARC
  5
4F3
100
AcDbEntity
  8
0
370
    -3
390
0
  6
Continuous
100
AcDbCircle
 10
-632.340744
 20
-236.65003
 30
0.0
 40
100.0
100
AcDbArc
 50
214.434512
 51
266.157713
  0
ARC
  5
4F4
100
AcDbEntity
  8
0
370
    -3
390
0
  6
Continuous
100
AcDbCircle
 10
-712.343729
 20
-291.500029
 30
0.0
 40
3.0
100
AcDbArc
 50
120.0
 51
214.434512
  0
ARC
  5
4F5
100
AcDbEntity
  8
0
370
    -3
390
0
  6
Continuous
100
AcDbCircle
 10
-638.840744
 20
-333.432002
 30
0.0
 40
3.0
100
AcDbArc
 50
266.157713
 51
0.0
  0
LINE
  5
4F6
100
AcDbEntity
  8
0
370
    -3
390
0
  6
Continuous
100
AcDbLine
 10
-635.840744
 20
-333.432002
 30
0.0
 11
-635.840744
 21
-332.429726
 31
0.0
  0
ARC
  5
4F7
100
AcDbEntity
  8
0
370
    -3
390
0
  6
Continuous
100
AcDbCircle
 10
-638.840744
 20
-332.429726
 30
0.0
 40
3.0
100
AcDbArc
 50
0.0
 51
86.117628
  0
LINE
  5
4F8
100
AcDbEntity
  8
0
370
    -3
390
0
  6
Continuous
100
AcDbLine
 10
-713.843729
 20
-288.901953
 30
0.0
 11
-712.975076
 21
-288.400436
 31
0.0
  0
ARC
  5
4F9
100
AcDbEntity
  8
0
370
    -3
390
0
  6
Continuous
100
AcDbCircle
 10
-632.340744
 20
-236.65003
 30
0.0
 40
93.0
100
AcDbArc
 50
214.480799
 51
266.117628
  0
ARC
  5
4FA
100
AcDbEntity
  8
0
370
    -3
390
0
  6
Continuous
100
AcDbCircle
 10
-711.475076
 20
-290.998512
 30
0.0
 40
3.0
100
AcDbArc
 50
34.480799
 51
120.0
  0
ARC
  5
4FB
100
AcDbEntity
  8
0
370
    -3
390
0
  6
Continuous
100
AcDbCircle
 10
-638.840744
 20
-320.398165
 30
0.0
 40
3.0
100
AcDbArc
 50
265.561961
 51
0.0
  0
LINE
  5
4FC
100
AcDbEntity
  8
0
370
    -3
390
0
  6
Continuous
100
AcDbLine
 10
-635.840744
 20
-320.398165
 30
0.0
 11
-635.840744
 21
-316.385531
 31
0.0
  0
ARC
  5
4FD
100
AcDbEntity
  8
0
370
    -3
390
0
  6
Continuous
100
AcDbCircle
 10
-638.840744
 20
-316.385531
 30
0.0
 40
3.0
100
AcDbArc
 50
0.0
 51
85.339581
  0
ARC
  5
4FE
100
AcDbEntity
  8
0
370
    -3
390
0
  6
Continuous
100
AcDbCircle
 10
-638.840744
 20
-305.343189
 30
0.0
 40
3.0
100
AcDbArc
 50
264.594556
 51
0.0
  0
LINE
  5
4FF
100
AcDbEntity
  8
0
370
    -3
390
0
  6
Continuous
100
AcDbLine
 10
-635.840744
 20
-305.343189
 30
0.0
 11
-635.840744
 21
-301.324214
 31
0.0
  0
ARC
  5
500
100
AcDbEntity
  8
0
370
    -3
390
0
  6
Continuous
100
AcDbCircle
 10
-638.840744
 20
-301.324214
 30
0.0
 40
3.0
100
AcDbArc
 50
0.0
 51
84.26083
  0
ARC
  5
501
100
AcDbEntity
  8
0
370
    -3
390
0
  6
Continuous
100
AcDbCircle
 10
-638.840744
 20
-290.257399
 30
0.0
 40
3.0
100
AcDbArc
 50
263.086522
 51
0.0
  0
LINE
  5
502
100
AcDbEntity
  8
0
370
    -3
390
0
  6
Continuous
100
AcDbLine
 10
-635.840744
 20
-290.257399
 30
0.0
 11
-635.840744
 21
-286.22573
 31
0.0
  0
ARC
  5
503
100
AcDbEntity
  8
0
370
    -3
390
0
  6
Continuous
100
AcDbCircle
 10
-638.840744
 20
-286.22573
 30
0.0
 40
3.0
100
AcDbArc
 50
360.0
 51
82.530408
  0
ARC
  5
504
100
AcDbEntity
  8
0
370
    -3
390
0
  6
Continuous
100
AcDbCircle
 10
-638.840744
 20
-275.104549
 30
0.0
 40
3.0
100
AcDbArc
 50
260.405932
 51
0.0
  0
LINE
  5
505
100
AcDbEntity
  8
0
370
    -3
390
0
  6
Continuous
100
AcDbLine
 10
-635.840744
 20
-275.104549
 30
0.0
 11
-635.840744
 21
-271.041163
 31
0.0
  0
ARC
  5
506
100
AcDbEntity
  8
0
370
    -3
390
0
  6
Continuous
100
AcDbCircle
 10
-638.840744
 20
-271.041163
 30
0.0
 40
3.0
100
AcDbArc
 50
0.0
 51
79.29722
  0
ARC
  5
507
100
AcDbEntity
  8
0
370
    -3
390
0
  6
Continuous
100
AcDbCircle
 10
-632.340744
 20
-236.65003
 30
0.0
 40
32.0
100
AcDbArc
 50
222.373625
 51
259.29722
  0
ARC
  5
508
100
AcDbEntity
  8
0
370
    -3
390
0
  6
Continuous
100
AcDbCircle
 10
-658.197542
 20
-260.238714
 30
0.0
 40
3.0
100
AcDbArc
 50
42.373625
 51
120.0
  0
ARC
  5
509
100
AcDbEntity
  8
0
370
    -3
390
0
  6
Continuous
100
AcDbCircle
 10
-632.340744
 20
-236.65003
 30
0.0
 40
42.0
100
AcDbArc
 50
221.087489
 51
260.405932
  0
LINE
  5
50A
100
AcDbEntity
  8
0
370
    -3
390
0
  6
Continuous
100
AcDbLine
 10
-663.235314
 20
-259.683171
 30
0.0
 11
-659.697542
 21
-257.640638
 31
0.0
  0
ARC
  5
50B
100
AcDbEntity
  8
0
370
    -3
390
0
  6
Continuous
100
AcDbCircle
 10
-661.735314
 20
-262.281247
 30
0.0
 40
3.0
100
AcDbArc
 50
120.0
 51
221.087489
  0
ARC
  5
50C
100
AcDbEntity
  8
0
370
    -3
390
0
  6
Continuous
100
AcDbCircle
 10
-648.334414
 20
-254.544234
 30
0.0
 40
3.0
100
AcDbArc
 50
120.0
 51
228.209957
  0
LINE
  5
50D
100
AcDbEntity
  8
0
370
    -3
390
0
  6
Continuous
100
AcDbLine
 10
-649.834414
 20
-251.946158
 30
0.0
 11
-646.147285
 21
-249.817393
 31
0.0
  0
ARC
  5
50E
100
AcDbEntity
  8
0
370
    -3
390
0
  6
Continuous
100
AcDbCircle
 10
-644.647285
 20
-252.415469
 30
0.0
 40
3.0
100
AcDbArc
 50
52.024313
 51
120.0
  0
ARC
  5
50F
100
AcDbEntity
  8
0
370
    -3
390
0
  6
Continuous
100
AcDbCircle
 10
-632.340744
 20
-236.65003
 30
0.0
 40
17.0
100
AcDbArc
 50
232.024313
 51
251.034425
  0
ARC
  5
510
100
AcDbEntity
  8
0
370
    -3
390
0
  6
Continuous
100
AcDbCircle
 10
-638.840744
 20
-255.564311
 30
0.0
 40
3.0
100
AcDbArc
 50
0.0
 51
71.034425
  0
ARC
  5
511
100
AcDbEntity
  8
0
370
    -3
390
0
  6
Continuous
100
AcDbCircle
 10
-632.340744
 20
-236.65003
 30
0.0
 40
27.0
100
AcDbArc
 50
228.209957
 51
254.286139
  0
LINE
  5
512
100
AcDbEntity
  8
0
370
    -3
390
0
  6
Continuous
100
AcDbLine
 10
-635.840744
 20
-259.753061
 30
0.0
 11
-635.840744
 21
-255.564311
 31
0.0
  0
ARC
  5
513
100
AcDbEntity
  8
0
370
    -3
390
0
  6
Continuous
100
AcDbCircle
 10
-638.840744
 20
-259.753061
 30
0.0
 40
3.0
100
AcDbArc
 50
254.286139
 51
0.0
  0
ARC
  5
514
100
AcDbEntity
  8
0
370
    -3
390
0
  6
Continuous
100
AcDbCircle
 10
-632.340744
 20
-236.65003
 30
0.0
 40
47.0
100
AcDbArc
 50
218.626927
 51
262.530408
  0
ARC
  5
515
100
AcDbEntity
  8
0
370
    -3
390
0
  6
Continuous
100
AcDbCircle
 10
-671.402104
 20
-267.862371
 30
0.0
 40
3.0
100
AcDbArc
 50
38.626927
 51
120.0
  0
ARC
  5
516
100
AcDbEntity
  8
0
370
    -3
390
0
  6
Continuous
100
AcDbCircle
 10
-632.340744
 20
-236.65003
 30
0.0
 40
57.0
100
AcDbArc
 50
217.983556
 51
263.086522
  0
LINE
  5
517
100
AcDbEntity
  8
0
370
    -3
390
0
  6
Continuous
100
AcDbLine
 10
-676.402865
 20
-267.28546
 30
0.0
 11
-672.902104
 21
-265.264295
 31
0.0
  0
ARC
  5
518
100
AcDbEntity
  8
0
370
    -3
390
0
  6
Continuous
100
AcDbCircle
 10
-674.902865
 20
-269.883536
 30
0.0
 40
3.0
100
AcDbArc
 50
120.0
 51
217.983556
  0
ARC
  5
519
100
AcDbEntity
  8
0
370
    -3
390
0
  6
Continuous
100
AcDbCircle
 10
-632.340744
 20
-236.65003
 30
0.0
 40
62.0
100
AcDbArc
 50
216.62581
 51
264.26083
  0
ARC
  5
51A
100
AcDbEntity
  8
0
370
    -3
390
0
  6
Continuous
100
AcDbCircle
 10
-684.506417
 20
-275.42815
 30
0.0
 40
3.0
100
AcDbArc
 50
36.62581
 51
120.0
  0
ARC
  5
51B
100
AcDbEntity
  8
0
370
    -3
390
0
  6
Continuous
100
AcDbCircle
 10
-632.340744
 20
-236.65003
 30
0.0
 40
72.0
100
AcDbArc
 50
216.240131
 51
264.594556
  0
LINE
  5
51C
100
AcDbEntity
  8
0
370
    -3
390
0
  6
Continuous
100
AcDbLine
 10
-689.492449
 20
-274.842735
 30
0.0
 11
-686.006417
 21
-272.830074
 31
0.0
  0
ARC
  5
51D
100
AcDbEntity
  8
0
370
    -3
390
0
  6
Continuous
100
AcDbCircle
 10
-687.992449
 20
-277.440811
 30
0.0
 40
3.0
100
AcDbArc
 50
120.0
 51
216.240131
  0
ARC
  5
51E
100
AcDbEntity
  8
0
370
    -3
390
0
  6
Continuous
100
AcDbCircle
 10
-632.340744
 20
-236.65003
 30
0.0
 40
77.0
100
AcDbArc
 50
215.379379
 51
265.339581
  0
ARC
  5
51F
100
AcDbEntity
  8
0
370
    -3
390
0
  6
Continuous
100
AcDbCircle
 10
-697.567642
 20
-282.969052
 30
0.0
 40
3.0
100
AcDbArc
 50
35.379379
 51
120.0
  0
ARC
  5
520
100
AcDbEntity
  8
0
370
    -3
390
0
  6
Continuous
100
AcDbCircle
 10
-632.340744
 20
-236.65003
 30
0.0
 40
87.0
100
AcDbArc
 50
215.122516
 51
265.561961
  0
LINE
  5
521
100
AcDbEntity
  8
0
370
    -3
390
0
  6
Continuous
100
AcDbLine
 10
-702.546334
 20
-282.379399
 30
0.0
 11
-699.067642
 21
-280.370976
 31
0.0
  0
ARC
  5
522
100
AcDbEntity
  8
0
370
    -3
390
0
  6
Continuous
100
AcDbCircle
 10
-701.046334
 20
-284.977475
 30
0.0
 40
3.0
100
AcDbArc
 50
120.0
 51
215.122516
  0
ARC
  5
523
100
AcDbEntity
  8
0
370
    -3
390
0
  6
Continuous
100
AcDbCircle
 10
-708.546334
 20
-271.987094
 30
0.0
 40
3.0
100
AcDbArc
 50
204.877484
 51
300.0
  0
ARC
  5
524
100
AcDbEntity
  8
0
370
    -3
390
0
  6
Continuous
100
AcDbCircle
 10
-705.067642
 20
-269.978671
 30
0.0
 40
3.0
100
AcDbArc
 50
300.0
 51
24.620621
  0
ARC
  5
525
100
AcDbEntity
  8
0
370
    -3
390
0
  6
Continuous
100
AcDbCircle
 10
-695.492449
 20
-264.45043
 30
0.0
 40
3.0
100
AcDbArc
 50
203.759869
 51
300.0
  0
ARC
  5
526
100
AcDbEntity
  8
0
370
    -3
390
0
  6
Continuous
100
AcDbCircle
 10
-692.006417
 20
-262.437769
 30
0.0
 40
3.0
100
AcDbArc
 50
300.0
 51
23.37419
  0
ARC
  5
527
100
AcDbEntity
  8
0
370
    -3
390
0
  6
Continuous
100
AcDbCircle
 10
-682.402865
 20
-256.893155
 30
0.0
 40
3.0
100
AcDbArc
 50
202.016444
 51
300.0
  0
ARC
  5
528
100
AcDbEntity
  8
0
370
    -3
390
0
  6
Continuous
100
AcDbCircle
 10
-678.902104
 20
-254.87199
 30
0.0
 40
3.0
100
AcDbArc
 50
300.0
 51
21.373073
  0
ARC
  5
529
100
AcDbEntity
  8
0
370
    -3
390
0
  6
Continuous
100
AcDbCircle
 10
-655.598555
 20
-230.727681
 30
0.0
 40
3.0
100
AcDbArc
 50
60.0
 51
165.713861
  0
ARC
  5
52A
100
AcDbEntity
  8
0
370
    -3
390
0
  6
Continuous
100
AcDbCircle
 10
-651.970991
 20
-232.822055
 30
0.0
 40
3.0
100
AcDbArc
 50
348.965575
 51
60.0
  0
ARC
  5
52B
100
AcDbEntity
  8
0
370
    -3
390
0
  6
Continuous
100
AcDbCircle
 10
-652.147285
 20
-239.425088
 30
0.0
 40
3.0
100
AcDbArc
 50
300.0
 51
7.975687
  0
ARC
  5
52C
100
AcDbEntity
  8
0
370
    -3
390
0
  6
Continuous
100
AcDbCircle
 10
-655.834414
 20
-241.553853
 30
0.0
 40
3.0
100
AcDbArc
 50
191.790043
 51
300.0
  0
ARC
  5
52D
100
AcDbEntity
  8
0
370
    -3
390
0
  6
Continuous
100
AcDbCircle
 10
-669.235314
 20
-249.290866
 30
0.0
 40
3.0
100
AcDbArc
 50
198.912511
 51
300.0
  0
ARC
  5
52E
100
AcDbEntity
  8
0
370
    -3
390
0
  6
Continuous
100
AcDbCircle
 10
-665.697542
 20
-247.248333
 30
0.0
 40
3.0
100
AcDbArc
 50
300.0
 51
17.626375
  0
ARC
  5
52F
100
AcDbEntity
  8
0
370
    -3
390
0
  6
Continuous
100
AcDbCircle
 10
-665.374339
 20
-225.083629
 30
0.0
 40
3.0
100
AcDbArc
 50
340.70278
 51
60.0
  0
ARC
  5
530
100
AcDbEntity
  8
0
370
    -3
390
0
  6
Continuous
100
AcDbCircle
 10
-668.893334
 20
-223.051936
 30
0.0
 40
3.0
100
AcDbArc
 50
60.0
 51
159.594068
  0
ARC
  5
531
100
AcDbEntity
  8
0
370
    -3
390
0
  6
Continuous
100
AcDbCircle
 10
-678.52456
 20
-217.491346
 30
0.0
 40
3.0
100
AcDbArc
 50
337.469592
 51
60.0
  0
ARC
  5
532
100
AcDbEntity
  8
0
370
    -3
390
0
  6
Continuous
100
AcDbCircle
 10
-682.016087
 20
-215.475511
 30
0.0
 40
3.0
100
AcDbArc
 50
60.0
 51
156.913478
  0
ARC
  5
533
100
AcDbEntity
  8
0
370
    -3
390
0
  6
Continuous
100
AcDbCircle
 10
-691.60023
 20
-209.942104
 30
0.0
 40
3.0
100
AcDbArc
 50
335.73917
 51
60.0
  0
ARC
  5
534
100
AcDbEntity
  8
0
370
    -3
390
0
  6
Continuous
100
AcDbCircle
 10
-695.080764
 20
-207.932616
 30
0.0
 40
3.0
100
AcDbArc
 50
60.0
 51
155.405444
  0
ARC
  5
535
100
AcDbEntity
  8
0
370
    -3
390
0
  6
Continuous
100
AcDbCircle
 10
-704.643713
 20
-202.411445
 30
0.0
 40
3.0
100
AcDbArc
 50
334.660419
 51
60.0
  0
ARC
  5
536
100
AcDbEntity
  8
0
370
    -3
390
0
  6
Continuous
100
AcDbCircle
 10
-708.118756
 20
-200.405128
 30
0.0
 40
3.0
100
AcDbArc
 50
60.0
 51
154.438039
  0
ARC
  5
537
100
AcDbEntity
  8
0
370
    -3
390
0
  6
Continuous
100
AcDbCircle
 10
-632.340744
 20
-236.65003
 30
0.0
 40
17.0
100
AcDbArc
 50
168.965575
 51
187.975687
  0
ARC
  5
538
100
AcDbEntity
  8
0
370
    -3
390
0
  6
Continuous
100
AcDbCircle
 10
-632.340744
 20
-236.65003
 30
0.0
 40
27.0
100
AcDbArc
 50
165.713861
 51
191.790043
  0
ARC
  5
539
100
AcDbEntity
  8
0
370
    -3
390
0
  6
Continuous
100
AcDbCircle
 10
-632.340744
 20
-236.65003
 30
0.0
 40
32.0
100
AcDbArc
 50
160.70278
 51
197.626375
  0
ARC
  5
53A
100
AcDbEntity
  8
0
370
    -3
390
0
  6
Continuous
100
AcDbCircle
 10
-632.340744
 20
-236.65003
 30
0.0
 40
42.0
100
AcDbArc
 50
159.594068
 51
198.912511
  0
ARC
  5
53B
100
AcDbEntity
  8
0
370
    -3
390
0
  6
Continuous
100
AcDbCircle
 10
-632.340744
 20
-236.65003
 30
0.0
 40
47.0
100
AcDbArc
 50
157.469592
 51
201.373073
  0
ARC
  5
53C
100
AcDbEntity
  8
0
370
    -3
390
0
  6
Continuous
100
AcDbCircle
 10
-632.340744
 20
-236.65003
 30
0.0
 40
57.0
100
AcDbArc
 50
156.913478
 51
202.016444
  0
ARC
  5
53D
100
AcDbEntity
  8
0
370
    -3
390
0
  6
Continuous
100
AcDbCircle
 10
-632.340744
 20
-236.65003
 30
0.0
 40
62.0
100
AcDbArc
 50
155.73917
 51
203.37419
  0
ARC
  5
53E
100
AcDbEntity
  8
0
370
    -3
390
0
  6
Continuous
100
AcDbCircle
 10
-632.340744
 20
-236.65003
 30
0.0
 40
72.0
100
AcDbArc
 50
155.405444
 51
203.759869
  0
ARC
  5
53F
100
AcDbEntity
  8
0
370
    -3
390
0
  6
Continuous
100
AcDbCircle
 10
-632.340744
 20
-236.65003
 30
0.0
 40
77.0
100
AcDbArc
 50
154.660419
 51
204.620621
  0
ARC
  5
540
100
AcDbEntity
  8
0
370
    -3
390
0
  6
Continuous
100
AcDbCircle
 10
-632.340744
 20
-236.65003
 30
0.0
 40
87.0
100
AcDbArc
 50
154.438039
 51
204.877484
  0
ARC
  5
541
100
AcDbEntity
  8
0
370
    -3
390
0
  6
Continuous
100
AcDbCircle
 10
-718.975076
 20
-278.008131
 30
0.0
 40
3.0
100
AcDbArc
 50
300.0
 51
25.519201
  0
ARC
  5
542
100
AcDbEntity
  8
0
370
    -3
390
0
  6
Continuous
100
AcDbCircle
 10
-718.538393
 20
-194.389348
 30
0.0
 40
3.0
100
AcDbArc
 50
333.882372
 51
60.0
  0
ARC
  5
543
100
AcDbEntity
  8
0
370
    -3
390
0
  6
Continuous
100
AcDbCircle
 10
-632.340744
 20
-236.65003
 30
0.0
 40
93.0
100
AcDbArc
 50
153.882372
 51
205.519201
  0
ARC
  5
544
100
AcDbEntity
  8
0
370
    -3
390
0
  6
Continuous
100
AcDbCircle
 10
-632.340744
 20
-680.65003
 30
0.0
 40
560.993
100
AcDbArc
 50
90.0
 51
93.351477
  0
ARC
  5
545
100
AcDbEntity
  8
0
370
    -3
390
0
  6
Continuous
100
AcDbCircle
 10
-632.340744
 20
-236.65003
 30
0.0
 40
125.993
100
AcDbArc
 50
128.578295
 51
141.421705
  0
ARC
  5
546
100
AcDbEntity
  8
0
370
    -3
390
0
  6
Continuous
100
AcDbCircle
 10
-660.402001
 20
-201.470976
 30
0.0
 40
80.993
100
AcDbArc
 50
93.351477
 51
128.578295
  0
ARC
  5
547
100
AcDbEntity
  8
0
370
    -3
390
0
  6
Continuous
100
AcDbCircle
 10
-667.519798
 20
-208.588773
 30
0.0
 40
80.993
100
AcDbArc
 50
141.421705
 51
176.648523
  0
ARC
  5
548
100
AcDbEntity
  8
0
370
    -3
390
0
  6
Continuous
100
AcDbCircle
 10
-188.340744
 20
-236.65003
 30
0.0
 40
560.993
100
AcDbArc
 50
176.648523
 51
180.0
  0
ARC
  5
549
100
AcDbEntity
  8
0
370
    -3
390
0
  6
Continuous
100
AcDbCircle
 10
-632.340744
 20
-680.65003
 30
0.0
 40
560.993
100
AcDbArc
 50
86.648523
 51
90.0
  0
ARC
  5
54A
100
AcDbEntity
  8
0
370
    -3
390
0
  6
Continuous
100
AcDbCircle
 10
-632.340744
 20
-236.65003
 30
0.0
 40
125.993
100
AcDbArc
 50
38.578295
 51
51.421705
  0
ARC
  5
54B
100
AcDbEntity
  8
0
370
    -3
390
0
  6
Continuous
100
AcDbCircle
 10
-604.279487
 20
-201.470976
 30
0.0
 40
80.993
100
AcDbArc
 50
51.421705
 51
86.648523
  0
ARC
  5
54C
100
AcDbEntity
  8
0
370
    -3
390
0
  6
Continuous
100
AcDbCircle
 10
-597.16169
 20
-208.588773
 30
0.0
 40
80.993
100
AcDbArc
 50
3.351477
 51
38.578295
  0
ARC
  5
54D
100
AcDbEntity
  8
0
370
    -3
390
0
  6
Continuous
100
AcDbCircle
 10
-1076.340744
 20
-236.65003
 30
0.0
 40
560.993
100
AcDbArc
 50
0.0
 51
3.351477
  0
ARC
  5
54E
100
AcDbEntity
  8
0
370
    -3
390
0
  6
Continuous
100
AcDbCircle
 10
-632.340744
 20
207.34997
 30
0.0
 40
560.993
100
AcDbArc
 50
270.0
 51
273.351477
  0
ARC
  5
54F
100
AcDbEntity
  8
0
370
    -3
390
0
  6
Continuous
100
AcDbCircle
 10
-632.340744
 20
-236.65003
 30
0.0
 40
125.993
100
AcDbArc
 50
308.578295
 51
321.421705
  0
ARC
  5
550
100
AcDbEntity
  8
0
370
    -3
390
0
  6
Continuous
100
AcDbCircle
 10
-604.279487
 20
-271.829084
 30
0.0
 40
80.993
100
AcDbArc
 50
273.351477
 51
308.578295
  0
ARC
  5
551
100
AcDbEntity
  8
0
370
    -3
390
0
  6
Continuous
100
AcDbCircle
 10
-597.16169
 20
-264.711288
 30
0.0
 40
80.993
100
AcDbArc
 50
321.421705
 51
356.648523
  0
ARC
  5
552
100
AcDbEntity
  8
0
370
    -3
390
0
  6
Continuous
100
AcDbCircle
 10
-1076.340744
 20
-236.65003
 30
0.0
 40
560.993
100
AcDbArc
 50
356.648523
 51
360.0
  0
ARC
  5
553
100
AcDbEntity
  8
0
370
    -3
390
0
  6
Continuous
100
AcDbCircle
 10
-188.340744
 20
-236.65003
 30
0.0
 40
560.993
100
AcDbArc
 50
180.0
 51
183.351477
  0
ARC
  5
554
100
AcDbEntity
  8
0
370
    -3
390
0
  6
Continuous
100
AcDbCircle
 10
-667.519798
 20
-264.711288
 30
0.0
 40
80.993
100
AcDbArc
 50
183.351477
 51
218.578295
  0
ARC
  5
555
100
AcDbEntity
  8
0
370
    -3
390
0
  6
Continuous
100
AcDbCircle
 10
-632.340744
 20
-236.65003
 30
0.0
 40
125.993
100
AcDbArc
 50
218.578295
 51
231.421705
  0
ARC
  5
556
100
AcDbEntity
  8
0
370
    -3
390
0
  6
Continuous
100
AcDbCircle
 10
-660.402001
 20
-271.829084
 30
0.0
 40
80.993
100
AcDbArc
 50
231.421705
 51
266.648523
  0
ARC
  5
557
100
AcDbEntity
  8
0
370
    -3
390
0
  6
Continuous
100
AcDbCircle
 10
-632.340744
 20
207.34997
 30
0.0
 40
560.993
100
AcDbArc
 50
266.648523
 51
270.0
  0
ARC
  5
558
100
AcDbEntity
  8
0
370
    -3
390
0
  6
Continuous
100
AcDbCircle
 10
-1076.340744
 20
-236.65003
 30
0.0
 40
581.2
100
AcDbArc
 50
0.0
 51
3.351477
  0
ARC
  5
559
100
AcDbEntity
  8
0
370
    -3
390
0
  6
Continuous
100
AcDbCircle
 10
-597.16169
 20
-208.588773
 30
0.0
 40
101.2
100
AcDbArc
 50
3.351477
 51
38.578295
  0
ARC
  5
55A
100
AcDbEntity
  8
0
370
    -3
390
0
  6
Continuous
100
AcDbCircle
 10
-632.340744
 20
-236.65003
 30
0.0
 40
146.2
100
AcDbArc
 50
38.578295
 51
51.421705
  0
ARC
  5
55B
100
AcDbEntity
  8
0
370
    -3
390
0
  6
Continuous
100
AcDbCircle
 10
-604.279487
 20
-201.470976
 30
0.0
 40
101.2
100
AcDbArc
 50
51.421705
 51
86.648523
  0
ARC
  5
55C
100
AcDbEntity
  8
0
370
    -3
390
0
  6
Continuous
100
AcDbCircle
 10
-632.340744
 20
-680.65003
 30
0.0
 40
581.2
100
AcDbArc
 50
86.648523
 51
90.0
  0
LINE
  5
55D
100
AcDbEntity
  8
0
370
    -3
390
0
  6
Continuous
100
AcDbLine
 10
-706.618756
 20
-197.807052
 30
0.0
 11
-703.143713
 21
-199.813369
 31
0.0
  0
LINE
  5
55E
100
AcDbEntity
  8
0
370
    -3
390
0
  6
Continuous
100
AcDbLine
 10
-717.90639
 20
-191.290134
 30
0.0
 11
-717.038393
 21
-191.791272
 31
0.0
  0
ARC
  5
55F
100
AcDbEntity
  8
0
370
    -3
390
0
  6
Continuous
100
AcDbCircle
 10
-719.40639
 20
-193.88821
 30
0.0
 40
3.0
100
AcDbArc
 50
60.0
 51
153.842287
  0
ARC
  5
560
100
AcDbEntity
  8
0
370
    -3
390
0
  6
Continuous
100
AcDbCircle
 10
-719.843729
 20
-278.509648
 30
0.0
 40
3.0
100
AcDbArc
 50
205.565488
 51
300.0
  0
LINE
  5
561
100
AcDbEntity
  8
0
370
    -3
390
0
  6
Continuous
100
AcDbLine
 10
-718.343729
 20
-281.107725
 30
0.0
 11
-717.475076
 21
-280.606208
 31
0.0
  0
LINE
  5
562
100
AcDbEntity
  8
0
370
    -3
390
0
  6
Continuous
100
AcDbLine
 10
-707.046334
 20
-274.58517
 30
0.0
 11
-703.567642
 21
-272.576747
 31
0.0
  0
ARC
  5
563
100
AcDbEntity
  8
0
370
    -3
390
0
  6
Continuous
100
AcDbCircle
 10
-632.340744
 20
-236.65003
 30
0.0
 40
100.0
100
AcDbArc
 50
153.842287
 51
205.565488
  0
LINE
  5
564
100
AcDbEntity
  8
0
370
    -3
390
0
  6
Continuous
100
AcDbLine
 10
-667.393334
 20
-220.45386
 30
0.0
 11
-663.874339
 21
-222.485553
 31
0.0
  0
LINE
  5
565
100
AcDbEntity
  8
0
370
    -3
390
0
  6
Continuous
100
AcDbLine
 10
-680.516087
 20
-212.877435
 30
0.0
 11
-677.02456
 21
-214.89327
 31
0.0
  0
LINE
  5
566
100
AcDbEntity
  8
0
370
    -3
390
0
  6
Continuous
100
AcDbLine
 10
-693.580764
 20
-205.33454
 30
0.0
 11
-690.10023
 21
-207.344028
 31
0.0
  0
LINE
  5
567
100
AcDbEntity
  8
0
370
    -3
390
0
  6
Continuous
100
AcDbLine
 10
-693.992449
 20
-267.048506
 30
0.0
 11
-690.506417
 21
-265.035845
 31
0.0
  0
LINE
  5
568
100
AcDbEntity
  8
0
370
    -3
390
0
  6
Continuous
100
AcDbLine
 10
-680.902865
 20
-259.491231
 30
0.0
 11
-677.402104
 21
-257.470066
 31
0.0
  0
LINE
  5
569
100
AcDbEntity
  8
0
370
    -3
390
0
  6
Continuous
100
AcDbLine
 10
-667.735314
 20
-251.888942
 30
0.0
 11
-664.197542
 21
-249.846409
 31
0.0
  0
LINE
  5
56A
100
AcDbEntity
  8
0
370
    -3
390
0
  6
Continuous
100
AcDbLine
 10
-654.334414
 20
-244.151929
 30
0.0
 11
-650.647285
 21
-242.023164
 31
0.0
  0
LINE
  5
56B
100
AcDbEntity
  8
0
370
    -3
390
0
  6
Continuous
100
AcDbLine
 10
-654.098555
 20
-228.129604
 30
0.0
 11
-650.470991
 21
-230.223979
 31
0.0
  0
ARC
  5
56C
100
AcDbEntity
  8
0
370
    -3
390
0
  6
Continuous
100
AcDbCircle
 10
-660.402001
 20
-201.470976
 30
0.0
 40
101.2
100
AcDbArc
 50
93.351477
 51
128.578295
  0
ARC
  5
56D
100
AcDbEntity
  8
0
370
    -3
390
0
  6
Continuous
100
AcDbCircle
 10
-632.340744
 20
-680.65003
 30
0.0
 40
581.2
100
AcDbArc
 50
90.0
 51
93.351477
  0
ARC
  5
56E
100
AcDbEntity
  8
0
370
    -3
390
0
  6
Continuous
100
AcDbCircle
 10
-667.519798
 20
-208.588773
 30
0.0
 40
101.2
100
AcDbArc
 50
141.421705
 51
176.648523
  0
ARC
  5
56F
100
AcDbEntity
  8
0
370
    -3
390
0
  6
Continuous
100
AcDbCircle
 10
-188.340744
 20
-236.65003
 30
0.0
 40
581.2
100
AcDbArc
 50
176.648523
 51
180.0
  0
ARC
  5
570
100
AcDbEntity
  8
0
370
    -3
390
0
  6
Continuous
100
AcDbCircle
 10
-660.402001
 20
-271.829084
 30
0.0
 40
101.2
100
AcDbArc
 50
231.421705
 51
266.648523
  0
ARC
  5
571
100
AcDbEntity
  8
0
370
    -3
390
0
  6
Continuous
100
AcDbCircle
 10
-632.340744
 20
207.34997
 30
0.0
 40
581.2
100
AcDbArc
 50
266.648523
 51
270.0
  0
ARC
  5
572
100
AcDbEntity
  8
0
370
    -3
390
0
  6
Continuous
100
AcDbCircle
 10
-632.340744
 20
-236.65003
 30
0.0
 40
146.2
100
AcDbArc
 50
218.578295
 51
231.421705
  0
ARC
  5
573
100
AcDbEntity
  8
0
370
    -3
390
0
  6
Continuous
100
AcDbCircle
 10
-667.519798
 20
-264.711288
 30
0.0
 40
101.2
100
AcDbArc
 50
183.351477
 51
218.578295
  0
ARC
  5
574
100
AcDbEntity
  8
0
370
    -3
390
0
  6
Continuous
100
AcDbCircle
 10
-188.340744
 20
-236.65003
 30
0.0
 40
581.2
100
AcDbArc
 50
180.0
 51
183.351477
  0
ARC
  5
575
100
AcDbEntity
  8
0
370
    -3
390
0
  6
Continuous
100
AcDbCircle
 10
-604.279487
 20
-271.829084
 30
0.0
 40
101.2
100
AcDbArc
 50
273.351477
 51
308.578295
  0
ARC
  5
576
100
AcDbEntity
  8
0
370
    -3
390
0
  6
Continuous
100
AcDbCircle
 10
-632.340744
 20
207.34997
 30
0.0
 40
581.2
100
AcDbArc
 50
270.0
 51
273.351477
  0
ARC
  5
577
100
AcDbEntity
  8
0
370
    -3
390
0
  6
Continuous
100
AcDbCircle
 10
-632.340744
 20
-236.65003
 30
0.0
 40
146.2
100
AcDbArc
 50
308.578295
 51
321.421705
  0
ARC
  5
578
100
AcDbEntity
  8
0
370
    -3
390
0
  6
Continuous
100
AcDbCircle
 10
-597.16169
 20
-264.711288
 30
0.0
 40
101.2
100
AcDbArc
 50
321.421705
 51
356.648523
  0
ARC
  5
579
100
AcDbEntity
  8
0
370
    -3
390
0
  6
Continuous
100
AcDbCircle
 10
-1076.340744
 20
-236.65003
 30
0.0
 40
581.2
100
AcDbArc
 50
356.648523
 51
360.0
  0
LINE
  5
57A
100
AcDbEntity
  8
0
370
    -3
390
0
  6
Continuous
100
AcDbLine
 10
-530.623434
 20
-126.093885
 30
0.0
 11
-521.784599
 21
-134.93272
 31
0.0
  0
LINE
  5
57B
100
AcDbEntity
  8
0
370
    -3
390
0
  6
Continuous
100
AcDbLine
 10
-522.739193
 20
-136.240868
 30
0.0
 11
-531.931581
 21
-127.048479
 31
0.0
  0
LINE
  5
57C
100
AcDbEntity
  8
0
370
    -3
390
0
  6
Continuous
100
AcDbLine
 10
-494.940744
 20
-261.25003
 30
0.0
 11
-495.66159
 21
-261.25003
 31
0.0
  0
LINE
  5
57D
100
AcDbEntity
  8
0
370
    -3
390
0
  6
Continuous
100
AcDbLine
 10
-494.940744
 20
-212.05003
 30
0.0
 11
-495.66159
 21
-212.05003
 31
0.0
  0
LINE
  5
57E
100
AcDbEntity
  8
0
370
    -3
390
0
  6
Continuous
100
AcDbLine
 10
-491.275694
 20
-197.986449
 30
0.0
 11
-442.843641
 21
-301.849321
 31
0.0
  0
LINE
  5
57F
100
AcDbEntity
  8
0
370
    -3
390
0
  6
Continuous
100
AcDbLine
 10
-448.065956
 20
-290.65003
 30
0.0
 11
-483.540744
 21
-290.65003
 31
0.0
  0
ARC
  5
580
100
AcDbEntity
  8
0
370
    -3
390
0
  6
Continuous
100
AcDbCircle
 10
-442.104629
 20
-292.126001
 30
0.0
 40
1.299999
100
AcDbArc
 50
41.601548
 51
106.135447
  0
ARC
  5
581
100
AcDbEntity
  8
0
370
    -3
390
0
  6
Continuous
100
AcDbCircle
 10
-1040.38878
 20
-232.15003
 30
0.0
 40
600.8
100
AcDbArc
 50
354.170309
 51
1.331487
  0
LINE
  5
582
100
AcDbEntity
  8
0
370
    -3
390
0
  6
Continuous
100
AcDbLine
 10
-487.282321
 20
-197.5587
 30
0.0
 11
-439.949075
 21
-299.065172
 31
0.0
  0
LINE
  5
583
100
AcDbEntity
  8
0
370
    -3
390
0
  6
CENTER
100
AcDbLine
 10
-464.340744
 20
-281.932123
 30
0.0
 11
-464.340744
 21
-294.967508
 31
0.0
  0
ARC
  5
584
100
AcDbEntity
  8
0
370
    -3
390
0
  6
Continuous
100
AcDbCircle
 10
-440.245108
 20
-296.113757
 30
0.0
 40
1.299999
100
AcDbArc
 50
294.999999
 51
8.398469
  0
LINE
  5
585
100
AcDbEntity
  8
0
370
    -3
390
0
  6
Continuous
100
AcDbLine
 10
-440.583003
 20
-297.70571
 30
0.0
 11
-439.695704
 21
-297.291956
 31
0.0
  0
POINT
  5
586
100
AcDbEntity
  8
0
370
    -3
390
0
  6
Continuous
100
AcDbPoint
 10
-442.062167
 20
-294.533633
 30
0.0
  0
ARC
  5
587
100
AcDbEntity
  8
0
370
    -3
390
0
  6
Continuous
100
AcDbCircle
 10
-447.862536
 20
-297.23839
 30
0.0
 40
9.0
100
AcDbArc
 50
8.398469
 51
41.601548
  0
ARC
  5
588
100
AcDbEntity
  8
0
370
    -3
390
0
  6
Continuous
100
AcDbCircle
 10
-561.442879
 20
-490.242078
 30
0.0
 40
300.8
100
AcDbArc
 50
66.739678
 51
75.515443
  0
ARC
  5
589
100
AcDbEntity
  8
0
370
    -3
390
0
  6
Continuous
100
AcDbCircle
 10
-444.549706
 20
-218.300933
 30
0.0
 40
4.8
100
AcDbArc
 50
1.331487
 51
66.739678
  0
LINE
  5
58A
100
AcDbEntity
  8
0
370
    -3
390
0
  6
Continuous
100
AcDbLine
 10
-440.577872
 20
-300.792776
 30
0.0
 11
-442.843641
 21
-301.849321
 31
0.0
  0
ARC
  5
58B
100
AcDbEntity
  8
0
370
    -3
390
0
  6
Continuous
100
AcDbCircle
 10
-441.127275
 20
-299.614576
 30
0.0
 40
1.3
100
AcDbArc
 50
295.0
 51
25.0
  0
ARC
  5
58C
100
AcDbEntity
  8
0
370
    -3
390
0
  6
Continuous
100
AcDbCircle
 10
-483.540744
 20
-283.85003
 30
0.0
 40
6.8
100
AcDbArc
 50
180.0
 51
270.0
  0
LINE
  5
58D
100
AcDbEntity
  8
0
370
    -3
390
0
  6
Continuous
100
AcDbLine
 10
-489.009924
 20
-196.929903
 30
0.0
 11
-491.275694
 21
-197.986449
 31
0.0
  0
ARC
  5
58E
100
AcDbEntity
  8
0
370
    -3
390
0
  6
Continuous
100
AcDbCircle
 10
-488.460521
 20
-198.108103
 30
0.0
 40
1.3
100
AcDbArc
 50
25.0
 51
115.0
  0
LINE
  5
58F
100
AcDbEntity
  8
0
370
    -3
390
0
  6
Continuous
100
AcDbLine
 10
-490.324413
 20
-200.409519
 30
0.0
 11
-490.138201
 21
-200.425811
 31
0.0
  0
LINE
  5
590
100
AcDbEntity
  8
0
370
    -3
390
0
  6
Continuous
100
AcDbLine
 10
-490.296195
 20
-200.086991
 30
0.0
 11
-490.324413
 21
-200.409519
 31
0.0
  0
ARC
  5
591
100
AcDbEntity
  8
0
370
    -3
390
0
  6
Continuous
100
AcDbCircle
 10
-487.540744
 20
-203.527108
 30
0.0
 40
2.8
100
AcDbArc
 50
136.879375
 51
180.0
  0
LINE
  5
592
100
AcDbEntity
  8
0
370
    -3
390
0
  6
Continuous
100
AcDbLine
 10
-490.340744
 20
-205.65003
 30
0.0
 11
-491.340744
 21
-205.65003
 31
0.0
  0
LINE
  5
593
100
AcDbEntity
  8
0
370
    -3
390
0
  6
Continuous
100
AcDbLine
 10
-490.340744
 20
-267.65003
 30
0.0
 11
-491.340744
 21
-267.65003
 31
0.0
  0
LINE
  5
594
100
AcDbEntity
  8
0
370
    -3
390
0
  6
Continuous
100
AcDbLine
 10
-491.340744
 20
-205.65003
 30
0.0
 11
-491.340744
 21
-267.65003
 31
0.0
  0
ARC
  5
595
100
AcDbEntity
  8
0
370
    -3
390
0
  6
Continuous
100
AcDbCircle
 10
-485.956951
 20
-198.034763
 30
0.0
 40
1.0
100
AcDbArc
 50
205.0
 51
255.515443
  0
LINE
  5
596
100
AcDbEntity
  8
0
370
    -3
390
0
  6
Continuous
100
AcDbLine
 10
-490.340744
 20
-203.527108
 30
0.0
 11
-490.340744
 21
-283.85003
 31
0.0
  0
LINE
  5
597
100
AcDbEntity
  8
0
370
    -3
390
0
  6
Continuous
100
AcDbLine
 10
-491.340744
 20
-205.65003
 30
0.0
 11
-492.940744
 21
-205.65003
 31
0.0
  0
LINE
  5
598
100
AcDbEntity
  8
0
370
    -3
390
0
  6
Continuous
100
AcDbLine
 10
-492.940744
 20
-205.65003
 30
0.0
 11
-492.940744
 21
-267.65003
 31
0.0
  0
LINE
  5
599
100
AcDbEntity
  8
0
370
    -3
390
0
  6
Continuous
100
AcDbLine
 10
-491.340744
 20
-267.65003
 30
0.0
 11
-491.340744
 21
-205.65003
 31
0.0
  0
ARC
  5
59A
100
AcDbEntity
  8
0
370
    -3
390
0
  6
Continuous
100
AcDbCircle
 10
-494.940744
 20
-210.05003
 30
0.0
 40
2.0
100
AcDbArc
 50
270.0
 51
0.0
  0
LINE
  5
59B
100
AcDbEntity
  8
0
370
    -3
390
0
  6
Continuous
100
AcDbLine
 10
-491.340744
 20
-267.65003
 30
0.0
 11
-492.940744
 21
-267.65003
 31
0.0
  0
ARC
  5
59C
100
AcDbEntity
  8
0
370
    -3
390
0
  6
Continuous
100
AcDbCircle
 10
-494.940744
 20
-263.25003
 30
0.0
 40
2.0
100
AcDbArc
 50
0.0
 51
90.0
  0
LINE
  5
59D
100
AcDbEntity
  8
0
370
    -3
390
0
  6
Continuous
100
AcDbLine
 10
-531.754805
 20
-127.225256
 30
0.0
 11
-530.623434
 21
-126.093885
 31
0.0
  0
LINE
  5
59E
100
AcDbEntity
  8
0
370
    -3
390
0
  6
Continuous
100
AcDbLine
 10
-522.91597
 20
-136.064091
 30
0.0
 11
-521.784599
 21
-134.93272
 31
0.0
  0
LINE
  5
59F
100
AcDbEntity
  8
0
370
    -3
390
0
  6
Continuous
100
AcDbLine
 10
-522.739193
 20
-136.947974
 30
0.0
 11
-524.130549
 21
-138.33933
 31
0.0
  0
LINE
  5
5A0
100
AcDbEntity
  8
0
370
    -3
390
0
  6
Continuous
100
AcDbLine
 10
-532.638688
 20
-127.048479
 30
0.0
 11
-534.030044
 21
-128.439836
 31
0.0
  0
ARC
  5
5A1
100
AcDbEntity
  8
0
370
    -3
390
0
  6
Continuous
100
AcDbCircle
 10
-532.285135
 20
-127.402033
 30
0.0
 40
0.5
100
AcDbArc
 50
45.0
 51
135.0
  0
ARC
  5
5A2
100
AcDbEntity
  8
0
370
    -3
390
0
  6
Continuous
100
AcDbCircle
 10
-523.092746
 20
-136.594421
 30
0.0
 40
0.5
100
AcDbArc
 50
315.0
 51
45.0
  0
ARC
  5
5A3
100
AcDbEntity
  8
0
370
    -3
390
0
  6
Continuous
100
AcDbCircle
 10
-522.755445
 20
-131.802346
 30
0.0
 40
1.9
100
AcDbArc
 50
314.999999
 51
28.92718
  0
ARC
  5
5A4
100
AcDbEntity
  8
0
370
    -3
390
0
  6
Continuous
100
AcDbCircle
 10
-527.49306
 20
-127.064731
 30
0.0
 40
1.9
100
AcDbArc
 50
61.072892
 51
135.000018
  0
LINE
  5
5A5
100
AcDbEntity
  8
0
370
    -3
390
0
  6
Continuous
100
AcDbLine
 10
-529.916326
 20
-126.800993
 30
0.0
 11
-528.836562
 21
-125.721229
 31
0.0
  0
LINE
  5
5A6
100
AcDbEntity
  8
0
370
    -3
390
0
  6
Continuous
100
AcDbLine
 10
-522.491706
 20
-134.225613
 30
0.0
 11
-521.411943
 21
-133.145849
 31
0.0
  0
ARC
  5
5A7
100
AcDbEntity
  8
0
370
    -3
390
0
  6
Continuous
100
AcDbCircle
 10
-533.345794
 20
-137.655081
 30
0.0
 40
14.0
100
AcDbArc
 50
28.92718
 51
61.072837
  0
ARC
  5
5A8
100
AcDbEntity
  8
0
370
    -3
390
0
  6
Continuous
100
AcDbCircle
 10
-627.340744
 20
-236.65003
 30
0.0
 40
131.5
100
AcDbArc
 50
359.989714
 51
0.0
  0
MTEXT
  5
5AA
100
AcDbEntity
  8
0
370
    -3
390
0
  6
Continuous
100
AcDbMText
 10
-690.257324
 20
224.831863
 30
0.0
 40
24.0
 41
0.0
 71
     7
 72
     1
  1
\W0.83;三菱ギヤードモータ  
  7
ZU_SHPTB00001
 11
1.0
 21
0.0
 31
0.0
 73
     1
 44
1.0
  0
MTEXT
  5
5AB
100
AcDbEntity
  8
0
370
    -3
390
0
  6
Continuous
100
AcDbMText
 10
-690.257324
 20
193.03186
 30
0.0
 40
24.0
 41
0.0
 71
     7
 72
     1
  1
\W0.60;GM-DPF
  7
ZU_SHPTB00001
 11
1.0
 21
0.0
 31
0.0
 73
     1
 44
1.0
  0
MTEXT
  5
5AC
100
AcDbEntity
  8
0
370
    -3
390
0
  6
Continuous
100
AcDbMText
 10
-690.257324
 20
161.231873
 30
0.0
 40
24.0
 41
0.0
 71
     7
 72
     1
  1
\W0.60;7.5(kW)
  7
ZU_SHPTB00001
 11
1.0
 21
0.0
 31
0.0
 73
     1
 44
1.0
  0
MTEXT
  5
5AD
100
AcDbEntity
  8
0
370
    -3
390
0
  6
Continuous
100
AcDbMText
 10
-690.257324
 20
129.43187
 30
0.0
 40
24.0
 41
0.0
 71
     7
 72
     1
  1
\W0.60;1/3\W0.83;～\W0.60;1/20
  7
ZU_SHPTB00001
 11
1.0
 21
0.0
 31
0.0
 73
     1
 44
1.0
  0
MTEXT
  5
5AE
100
AcDbEntity
  8
0
370
    -3
390
0
  6
Continuous
100
AcDbMText
 10
-690.257324
 20
97.631866
 30
0.0
 40
24.0
 41
0.0
 71
     7
 72
     1
  1
\W0.60;SCALE\W1.00; \W0.60;1/1
  7
ZU_SHPTB00001
 11
1.0
 21
0.0
 31
0.0
 73
     1
 44
1.0
  0
ENDSEC
  0
SECTION
  2
OBJECTS
  0
DICTIONARY
  5
19
100
AcDbDictionary
280
     0
281
     1
  3
ACAD_GROUP
350
1A
  3
ACAD_MLINESTYLE
350
1B
  3
ACAD_LAYOUT
350
1E
  3
ACAD_PLOTSETTINGS
350
22
  3
ACAD_PLOTSTYLENAME
350
1F
  3
ACAD_WIPEOUT_VARS
350
23
  3
DWGPROPS
350
5AF
  0
DICTIONARY
  5
1A
102
{ACAD_REACTORS
330
19
102
}
100
AcDbDictionary
280
     0
281
     1
  0
DICTIONARY
  5
1B
102
{ACAD_REACTORS
330
19
102
}
100
AcDbDictionary
280
     0
281
     1
  3
Standard
350
1C
  0
MLINESTYLE
  5
1C
102
{ACAD_REACTORS
330
1B
102
}
100
AcDbMlineStyle
  2
Standard
 70
     0
  3

 62
     0
 51
90.0
 52
90.0
 71
     2
 49
0.5
 62
   256
  6
ByLayer
 49
-0.5
 62
   256
  6
ByLayer
  0
ACDBDICTIONARYWDFLT
  5
1F
102
{ACAD_REACTORS
330
19
102
}
100
AcDbDictionary
281
     1
  3
Normal
350
1D
100
AcDbDictionaryWithDefault
340
1D
  0
ACDBPLACEHOLDER
  5
1D
102
{ACAD_REACTORS
330
1F
102
}
  0
LAYOUT
  5
20
102
{ACAD_REACTORS
330
1E
102
}
100
AcDbPlotSettings
  1

  2

  4

  6

 40
0.0
 41
0.0
 42
0.0
 43
0.0
 44
0.0
 45
0.0
 46
0.0
 47
0.0
 48
0.0
 49
0.0
140
0.0
141
0.0
142
1.0
143
1.0
 70
  1024
 72
     0
 73
     0
 74
     0
  7

 75
     0
147
1.0
148
0.0
149
0.0
100
AcDbLayout
  1
Model
 70
     0
 71
     0
 10
0.0
 20
0.0
 11
0.0
 21
0.0
 12
0.0
 22
0.0
 32
0.0
 14
0.0
 24
0.0
 34
0.0
 15
0.0
 25
0.0
 35
0.0
146
0.0
 13
0.0
 23
0.0
 33
0.0
 16
0.0
 26
0.0
 36
0.0
 17
0.0
 27
0.0
 37
0.0
 76
     0
330
A
331
0
345
0
346
0
  0
LAYOUT
  5
21
102
{ACAD_REACTORS
330
1E
102
}
100
AcDbPlotSettings
  1

  2

  4

  6

 40
0.0
 41
0.0
 42
0.0
 43
0.0
 44
0.0
 45
0.0
 46
0.0
 47
0.0
 48
0.0
 49
0.0
140
0.0
141
0.0
142
1.0
143
1.0
 70
     0
 72
     0
 73
     0
 74
     0
  7

 75
     0
147
1.0
148
0.0
149
0.0
100
AcDbLayout
  1
Layout1
 70
     0
 71
     0
 10
0.0
 20
0.0
 11
0.0
 21
0.0
 12
0.0
 22
0.0
 32
0.0
 14
0.0
 24
0.0
 34
0.0
 15
0.0
 25
0.0
 35
0.0
146
0.0
 13
0.0
 23
0.0
 33
0.0
 16
0.0
 26
0.0
 36
0.0
 17
0.0
 27
0.0
 37
0.0
 76
     0
330
B
331
0
345
0
346
0
  0
DICTIONARY
  5
1E
102
{ACAD_REACTORS
330
19
102
}
100
AcDbDictionary
280
     0
281
     1
  3
Layout1
350
21
  3
Model
350
20
  0
DICTIONARY
  5
22
102
{ACAD_REACTORS
330
19
102
}
100
AcDbDictionary
280
     0
281
     1
  0
WIPEOUTVARIABLES
  5
23
100
AcDbWipeoutVariables
 70
     1
  0
XRECORD
  5
5AF
100
AcDbXrecord
280
     1
  1
DWGPROPS COOKIE
  2

  3

  4

  6

  7

  8
YP81315
  9

300
=
301
=
302
=
303
=
304
=
305
=
306
=
307
=
308
=
309
=
 40
0.0
 41
2456812.582303
 42
2456812.582303
  1

 90
        0
  0
ENDSEC
  0
EOF
