  0
SECTION
  2
HEADER
  9
$ACADVER
  1
AC1015
  9
$ACADMAINTVER
 70
     6
  9
$DWGCODEPAGE
  3
ANSI_932
  9
$INSBASE
 10
0.0
 20
0.0
 30
0.0
  9
$EXTMIN
 10
1.000000E+20
 20
1.000000E+20
 30
1.000000E+20
  9
$EXTMAX
 10
-1.000000E+20
 20
-1.000000E+20
 30
-1.000000E+20
  9
$LIMMIN
 10
0.0
 20
0.0
  9
$LIMMAX
 10
0.0
 20
0.0
  9
$ORTHOMODE
 70
     0
  9
$REGENMODE
 70
     1
  9
$FILLMODE
 70
     1
  9
$QTEXTMODE
 70
     0
  9
$MIRRTEXT
 70
     1
  9
$LTSCALE
 40
1.0
  9
$ATTMODE
 70
     1
  9
$TEXTSIZE
 40
3.3
  9
$TRACEWID
 40
0.05
  9
$TEXTSTYLE
  7
Standard
  9
$CLAYER
  8
0
  9
$CELTYPE
  6
Continuous
  9
$CECOLOR
 62
   256
  9
$CELTSCALE
 40
1.0
  9
$DISPSILH
 70
     0
  9
$DIMSCALE
 40
1.0
  9
$DIMASZ
 40
1.931852
  9
$DIMEXO
 40
1.0
  9
$DIMDLI
 40
0.38
  9
$DIMRND
 40
0.0
  9
$DIMDLE
 40
0.0
  9
$DIMEXE
 40
2.0
  9
$DIMTP
 40
0.0
  9
$DIMTM
 40
0.0
  9
$DIMTXT
 40
3.2
  9
$DIMCEN
 40
0.09
  9
$DIMTSZ
 40
0.0
  9
$DIMTOL
 70
     0
  9
$DIMLIM
 70
     0
  9
$DIMTIH
 70
     1
  9
$DIMTOH
 70
     1
  9
$DIMSE1
 70
     0
  9
$DIMSE2
 70
     0
  9
$DIMTAD
 70
     1
  9
$DIMZIN
 70
     0
  9
$DIMBLK
  1

  9
$DIMASO
 70
     1
  9
$DIMSHO
 70
     1
  9
$DIMPOST
  1

  9
$DIMAPOST
  1

  9
$DIMALT
 70
     0
  9
$DIMALTD
 70
     2
  9
$DIMALTF
 40
25.4
  9
$DIMLFAC
 40
1.0
  9
$DIMTOFL
 70
     0
  9
$DIMTVP
 40
0.0
  9
$DIMTIX
 70
     0
  9
$DIMSOXD
 70
     0
  9
$DIMSAH
 70
     0
  9
$DIMBLK1
  1

  9
$DIMBLK2
  1

  9
$DIMSTYLE
  2
Standard
  9
$DIMCLRD
 70
     0
  9
$DIMCLRE
 70
     0
  9
$DIMCLRT
 70
     0
  9
$DIMTFAC
 40
0.714286
  9
$DIMGAP
 40
0.09
  9
$DIMJUST
 70
     0
  9
$DIMSD1
 70
     0
  9
$DIMSD2
 70
     0
  9
$DIMTOLJ
 70
     1
  9
$DIMTZIN
 70
     0
  9
$DIMALTZ
 70
     0
  9
$DIMALTTZ
 70
     0
  9
$DIMUPT
 70
     0
  9
$DIMDEC
 70
     4
  9
$DIMTDEC
 70
     4
  9
$DIMALTU
 70
     2
  9
$DIMALTTD
 70
     2
  9
$DIMTXSTY
  7
Standard
  9
$DIMAUNIT
 70
     0
  9
$DIMADEC
 70
     0
  9
$DIMALTRND
 40
0.0
  9
$DIMAZIN
 70
     0
  9
$DIMDSEP
 70
     0
  9
$DIMATFIT
 70
     3
  9
$DIMFRAC
 70
     0
  9
$DIMLDRBLK
  1

  9
$DIMLUNIT
 70
     2
  9
$DIMLWD
 70
     0
  9
$DIMLWE
 70
     0
  9
$DIMTMOVE
 70
     0
  9
$LUNITS
 70
     2
  9
$LUPREC
 70
     3
  9
$SKETCHINC
 40
0.1
  9
$FILLETRAD
 40
0.0
  9
$AUNITS
 70
     0
  9
$AUPREC
 70
     0
  9
$MENU
  1
acad
  9
$ELEVATION
 40
0.0
  9
$PELEVATION
 40
0.0
  9
$THICKNESS
 40
0.0
  9
$LIMCHECK
 70
     0
  9
$CHAMFERA
 40
0.0
  9
$CHAMFERB
 40
0.0
  9
$CHAMFERC
 40
0.0
  9
$CHAMFERD
 40
0.0
  9
$SKPOLY
 70
     0
  9
$TDCREATE
 40
0.000000000
  9
$TDUCREATE
 40
0.000000000
  9
$TDUPDATE
 40
0.000000000
  9
$TDUUPDATE
 40
0.000000000
  9
$TDINDWG
 40
0.0000000000
  9
$TDUSRTIMER
 40
0.0000000000
  9
$USRTIMER
 70
     1
  9
$ANGBASE
 50
0.0
  9
$ANGDIR
 70
     0
  9
$PDMODE
 70
     0
  9
$PDSIZE
 40
0.0
  9
$PLINEWID
 40
0.0
  9
$SPLFRAME
 70
     0
  9
$SPLINETYPE
 70
     6
  9
$SPLINESEGS
 70
     8
  9
$HANDSEED
  5
550
  9
$SURFTAB1
 70
     6
  9
$SURFTAB2
 70
     6
  9
$SURFTYPE
 70
     6
  9
$SURFU
 70
     6
  9
$SURFV
 70
     6
  9
$UCSBASE
  2

  9
$UCSNAME
  2

  9
$UCSORG
 10
0.0
 20
0.0
 30
0.0
  9
$UCSXDIR
 10
1.0
 20
0.0
 30
0.0
  9
$UCSYDIR
 10
0.0
 20
1.0
 30
0.0
  9
$UCSORTHOREF
  2

  9
$UCSORTHOVIEW
 70
     0
  9
$UCSORGTOP
 10
0.0
 20
0.0
 30
0.0
  9
$UCSORGBOTTOM
 10
0.0
 20
0.0
 30
0.0
  9
$UCSORGLEFT
 10
0.0
 20
0.0
 30
0.0
  9
$UCSORGRIGHT
 10
0.0
 20
0.0
 30
0.0
  9
$UCSORGFRONT
 10
0.0
 20
0.0
 30
0.0
  9
$UCSORGBACK
 10
0.0
 20
0.0
 30
0.0
  9
$PUCSBASE
  2

  9
$PUCSNAME
  2

  9
$PUCSORG
 10
0.0
 20
0.0
 30
0.0
  9
$PUCSXDIR
 10
1.0
 20
0.0
 30
0.0
  9
$PUCSYDIR
 10
0.0
 20
1.0
 30
0.0
  9
$PUCSORTHOREF
  2

  9
$PUCSORTHOVIEW
 70
     0
  9
$PUCSORGTOP
 10
0.0
 20
0.0
 30
0.0
  9
$PUCSORGBOTTOM
 10
0.0
 20
0.0
 30
0.0
  9
$PUCSORGLEFT
 10
0.0
 20
0.0
 30
0.0
  9
$PUCSORGRIGHT
 10
0.0
 20
0.0
 30
0.0
  9
$PUCSORGFRONT
 10
0.0
 20
0.0
 30
0.0
  9
$PUCSORGBACK
 10
0.0
 20
0.0
 30
0.0
  9
$USERI1
 70
     0
  9
$USERI2
 70
     0
  9
$USERI3
 70
     0
  9
$USERI4
 70
     0
  9
$USERI5
 70
     0
  9
$USERR1
 40
0.0
  9
$USERR2
 40
0.0
  9
$USERR3
 40
0.0
  9
$USERR4
 40
0.0
  9
$USERR5
 40
0.0
  9
$WORLDVIEW
 70
     1
  9
$SHADEDGE
 70
     3
  9
$SHADEDIF
 70
    70
  9
$TILEMODE
 70
     1
  9
$MAXACTVP
 70
    16
  9
$PINSBASE
 10
0.0
 20
0.0
 30
0.0
  9
$PLIMCHECK
 70
     0
  9
$PEXTMIN
 10
1.000000E+20
 20
1.000000E+20
 30
1.000000E+20
  9
$PEXTMAX
 10
-1.000000E+20
 20
-1.000000E+20
 30
-1.000000E+20
  9
$PLIMMIN
 10
0.0
 20
0.0
  9
$PLIMMAX
 10
12.0
 20
9.0
  9
$UNITMODE
 70
     0
  9
$VISRETAIN
 70
     0
  9
$PLINEGEN
 70
     1
  9
$PSLTSCALE
 70
     0
  9
$TREEDEPTH
 70
  3020
  9
$CMLSTYLE
  2
Standard
  9
$CMLJUST
 70
     0
  9
$CMLSCALE
 40
1.0
  9
$PROXYGRAPHICS
 70
     0
  9
$MEASUREMENT
 70
     0
  9
$CELWEIGHT
370
     0
  9
$ENDCAPS
280
     0
  9
$JOINSTYLE
280
     0
  9
$LWDISPLAY
290
     0
  9
$INSUNITS
 70
     0
  9
$HYPERLINKBASE
  1

  9
$STYLESHEET
  1

  9
$XEDIT
290
     1
  9
$CEPSNTYPE
380
     0
  9
$PSTYLEMODE
290
     1
  9
$FINGERPRINTGUID
  2

  9
$VERSIONGUID
  2

  9
$EXTNAMES
290
     1
  9
$PSVPSCALE
 40
0.0
  0
ENDSEC
  0
SECTION
  2
CLASSES
  0
CLASS
  1
LWPOLYLINE
  2
AcDbPolyline
  3
AutoCAD 2000
 90
        0
280
     0
281
     1
  0
CLASS
  1
IMAGE
  2
AcDbRasterImage
  3
ISM
 90
      127
280
     0
281
     1
  0
CLASS
  1
OLE2FRAME
  2
AcDbOle2Frame
  3
AutoCAD 2000
 90
        0
280
     0
281
     1
  0
CLASS
  1
HATCH
  2
AcDbHatch
  3
AutoCAD 2000
 90
        0
280
     0
281
     1
  0
CLASS
  1
DICTIONARYVAR
  2
AcDbDictionaryVar
  3
AutoCAD 2000
 90
        0
280
     0
281
     0
  0
CLASS
  1
RASTERVARIABLES
  2
AcDbRasterVariables
  3
ISM
 90
        0
280
     0
281
     0
  0
CLASS
  1
IMAGEDEF
  2
AcDbRasterImageDef
  3
ISM
 90
        0
280
     0
281
     0
  0
CLASS
  1
IMAGEDEF_REACTOR
  2
AcDbRasterImageDefReactor
  3
ISM
 90
        1
280
     0
281
     0
  0
CLASS
  1
IDBUFFER
  2
AcDbIdBuffer
  3
AutoCAD 2000
 90
        0
280
     0
281
     0
  0
CLASS
  1
SPATIAL_FILTER
  2
AcDbSpatialFilter
  3
AutoCAD 2000
 90
        0
280
     0
281
     0
  0
CLASS
  1
XRECORD
  2
AcDbXrecord
  3
AutoCAD 2000
 90
        0
280
     0
281
     0
  0
CLASS
  1
SORTENTSTABLE
  2
AcDbSortentsTable
  3
AutoCAD 2000
 90
        0
280
     0
281
     0
  0
CLASS
  1
LAYER_INDEX
  2
AcDbLayerIndex
  3
AutoCAD 2000
 90
        0
280
     0
281
     0
  0
CLASS
  1
SPATIAL_INDEX
  2
AcDbSpatialIndex
  3
AutoCAD 2000
 90
        0
280
     0
281
     0
  0
CLASS
  1
OBJECT_PTR
  2
CAseDLPNTableRecord
  3
"ASE-LPNTableRecord"
 90
        1
280
     0
281
     0
  0
CLASS
  1
LAYOUT
  2
AcDbLayout
  3
AutoCAD 2000
 90
        0
280
     0
281
     0
  0
CLASS
  1
PLOTSETTINGS
  2
AcDbPlotSettings
  3
AutoCAD 2000
 90
        0
280
     0
281
     0
  0
CLASS
  1
ACDBDICTIONARYWDFLT
  2
AcDbDictionaryWithDefault
  3
AutoCAD 2000
 90
        0
280
     0
281
     0
  0
CLASS
  1
ACDBPLACEHOLDER
  2
AcDbPlaceHolder
  3
AutoCAD 2000
 90
        0
280
     0
281
     0
  0
CLASS
  1
VBA_PROJECT
  2
AcDbVbaProject
  3
acadvba
 90
        0
280
     0
281
     0
  0
CLASS
  1
WIPEOUT
  2
AcDbWipeout
  3
WipeOut|AutoCAD Express Tool|expresstools@autodesk.com
 90
      127
280
     0
281
     1
  0
CLASS
  1
WIPEOUTVARIABLES
  2
AcDbWipeoutVariables
  3
WipeOut|AutoCAD Express Tool|expresstools@autodesk.com
 90
        0
280
     0
281
     0
  0
CLASS
  1
RTEXT
  2
RText
  3
RText|AutoCAD Express Tool|expresstools@autodesk.com
 90
        0
280
     0
281
     1
  0
CLASS
  1
ARCALIGNEDTEXT
  2
AcDbArcAlignedText
  3
ATEXT|AutoCAD Express Tool|expresstools@autodesk.com
 90
        0
280
     0
281
     1
  0
ENDSEC
  0
SECTION
  2
TABLES
  0
TABLE
  2
VPORT
  5
7
100
AcDbSymbolTable
 70
     1
  0
VPORT
  5
15
100
AcDbSymbolTableRecord
100
AcDbViewportTableRecord
  2
*ACTIVE
 70
     0
 10
0.0
 20
0.0
 11
1.0
 21
1.0
 12
0.0
 22
0.0
 13
0.0
 23
0.0
 14
1.0
 24
1.0
 15
0.0
 25
0.0
 16
0.0
 26
0.0
 36
1.0
 17
0.0
 27
0.0
 37
0.0
 40
100.0
 41
1.0
 42
50.0
 43
0.0
 44
0.0
 50
0.0
 51
0.0
 71
     0
 72
   100
 73
     1
 74
     1
 75
     0
 76
     0
 77
     0
 78
     0
281
     0
 65
     0
110
0.0
120
0.0
130
0.0
111
1.0
121
0.0
131
0.0
112
0.0
122
1.0
132
0.0
345
0
346
0
 79
     0
146
0.0
  0
ENDTAB
  0
TABLE
  2
LTYPE
  5
4
100
AcDbSymbolTable
 70
     7
  0
LTYPE
  5
11
100
AcDbSymbolTableRecord
100
AcDbLinetypeTableRecord
  2
ByBlock
 70
    64
  3

 72
    65
 73
     0
 40
0.0
  0
LTYPE
  5
12
100
AcDbSymbolTableRecord
100
AcDbLinetypeTableRecord
  2
ByLayer
 70
    64
  3

 72
    65
 73
     0
 40
0.0
  0
LTYPE
  5
13
100
AcDbSymbolTableRecord
100
AcDbLinetypeTableRecord
  2
Continuous
 70
    64
  3
Solid line
 72
    65
 73
     0
 40
0.0
  0
LTYPE
  5
24
100
AcDbSymbolTableRecord
100
AcDbLinetypeTableRecord
  2
DASHED
 70
    64
  3
Dashed __ __ __ __ __ __ __ __ __ __ __ __ __ _
 72
    65
 73
     2
 40
0.75
 49
0.5
 74
     0
 49
-0.25
 74
     0
  0
LTYPE
  5
25
100
AcDbSymbolTableRecord
100
AcDbLinetypeTableRecord
  2
CENTER
 70
    64
  3
Center ____ _ ____ _ ____ _ ____ _ ____ _ ____
 72
    65
 73
     4
 40
1.0
 49
0.5
 74
     0
 49
-0.25
 74
     0
 49
0.0
 74
     0
 49
-0.25
 74
     0
  0
LTYPE
  5
26
100
AcDbSymbolTableRecord
100
AcDbLinetypeTableRecord
  2
DIVIDE
 70
    64
  3
Divide ____ . . ____ . . ____ . . ____ . . ____
 72
    65
 73
     6
 40
1.25
 49
0.5
 74
     0
 49
-0.25
 74
     0
 49
0.0
 74
     0
 49
-0.25
 74
     0
 49
0.0
 74
     0
 49
-0.25
 74
     0
  0
LTYPE
  5
27
100
AcDbSymbolTableRecord
100
AcDbLinetypeTableRecord
  2
PHANTOM
 70
    64
  3
Phantom ______  __  __  ______  __  __  ______
 72
    65
 73
     6
 40
9.0
 49
4.3
 74
     0
 49
-0.7
 74
     0
 49
1.3
 74
     0
 49
-0.7
 74
     0
 49
1.3
 74
     0
 49
-0.7
 74
     0
  0
ENDTAB
  0
TABLE
  2
LAYER
  5
2
100
AcDbSymbolTable
 70
     1
  0
LAYER
  5
14
100
AcDbSymbolTableRecord
100
AcDbLayerTableRecord
  2
0
 70
    64
 62
   102
  6
Continuous
290
     1
370
    -3
390
1D
  0
ENDTAB
  0
TABLE
  2
STYLE
  5
3
100
AcDbSymbolTable
 70
     2
  0
STYLE
  5
17
100
AcDbSymbolTableRecord
100
AcDbTextStyleTableRecord
  2
Standard
 70
     0
 40
0.0
 41
1.0
 50
0.0
 71
     0
 42
0.0
  3
txt
  4

  0
STYLE
  5
43B
100
AcDbSymbolTableRecord
100
AcDbTextStyleTableRecord
  2
ZU_SHPTB00001
 70
     0
 40
0.0
 41
1.0
 50
0.0
 71
     0
 42
0.0
  3
monotxt
  4
bigfont
  0
ENDTAB
  0
TABLE
  2
VIEW
  5
5
100
AcDbSymbolTable
 70
     0
  0
ENDTAB
  0
TABLE
  2
UCS
  5
6
100
AcDbSymbolTable
 70
     0
  0
ENDTAB
  0
TABLE
  2
APPID
  5
8
100
AcDbSymbolTable
 70
     1
  0
APPID
  5
16
100
AcDbSymbolTableRecord
100
AcDbRegAppTableRecord
  2
ACAD
 70
     0
  0
ENDTAB
  0
TABLE
  2
DIMSTYLE
  5
9
100
AcDbSymbolTable
 70
     1
100
AcDbDimStyleTable
 71
     0
  0
DIMSTYLE
105
18
100
AcDbSymbolTableRecord
100
AcDbDimStyleTableRecord
  2
Standard
 70
     0
  3

  4

 40
1.0
 41
0.18
 42
0.0625
 43
0.38
 44
0.18
 45
0.0
 46
0.0
 47
0.0
 48
0.0
 71
     0
 72
     0
 73
     1
 74
     1
 75
     0
 76
     0
 77
     0
 78
     0
 79
     0
140
0.18
141
0.09
142
0.0
143
25.4
144
1.0
145
0.0
146
1.0
147
0.09
148
0.0
170
     0
171
     2
172
     0
173
     0
174
     0
175
     0
176
     0
177
     0
178
     0
179
     0
271
     4
272
     4
273
     2
274
     2
275
     0
276
     0
277
     2
278
    46
279
     0
280
     0
281
     0
282
     0
283
     1
284
     0
285
     0
286
     0
288
     0
289
     3
340
17
341
0
342
0
343
0
344
0
371
    -2
372
    -2
  0
ENDTAB
  0
TABLE
  2
BLOCK_RECORD
  5
1
100
AcDbSymbolTable
 70
     5
  0
BLOCK_RECORD
  5
A
100
AcDbSymbolTableRecord
100
AcDbBlockTableRecord
  2
*MODEL_SPACE
340
20
  0
BLOCK_RECORD
  5
B
100
AcDbSymbolTableRecord
100
AcDbBlockTableRecord
  2
*PAPER_SPACE
340
21
  0
BLOCK_RECORD
  5
41
100
AcDbSymbolTableRecord
100
AcDbBlockTableRecord
  2
ZU_SYM__USERS_HOME_SYMBOL_POO_SYM_B20_18
340
0
102
{BLKREFS
331
4C
102
}
  0
BLOCK_RECORD
  5
5C
100
AcDbSymbolTableRecord
100
AcDbBlockTableRecord
  2
ZU_SYM__USERS_HOME_SYMBOL_POO_SYM_B20_0000118
340
0
102
{BLKREFS
331
67
102
}
  0
BLOCK_RECORD
  5
BF
100
AcDbSymbolTableRecord
100
AcDbBlockTableRecord
  2
ZU_SYM__USERS_HOME_SYMBOL_POO_SYM_B20_0000218
340
0
102
{BLKREFS
331
CA
102
}
  0
BLOCK_RECORD
  5
CB
100
AcDbSymbolTableRecord
100
AcDbBlockTableRecord
  2
ZU_SYM__USERS_HOME_SYMBOL_POO_SYM_B20_0000318
340
0
102
{BLKREFS
331
D6
102
}
  0
BLOCK_RECORD
  5
DA
100
AcDbSymbolTableRecord
100
AcDbBlockTableRecord
  2
ZU_SYM__USERS_HOME_SYMBOL_POO_SYM_B20_0000418
340
0
102
{BLKREFS
331
E5
102
}
  0
ENDTAB
  0
ENDSEC
  0
SECTION
  2
BLOCKS
  0
BLOCK
  5
D
100
AcDbEntity
  8
0
390
0
100
AcDbBlockBegin
  2
*MODEL_SPACE
 70
     0
 10
0.0
 20
0.0
 30
0.0
  3
*MODEL_SPACE
  1

  0
ENDBLK
  5
E
100
AcDbEntity
  8
0
390
0
100
AcDbBlockEnd
  0
BLOCK
  5
F
100
AcDbEntity
 67
     1
  8
0
390
0
100
AcDbBlockBegin
  2
*PAPER_SPACE
 70
     0
 10
0.0
 20
0.0
 30
0.0
  3
*PAPER_SPACE
  1

  0
ENDBLK
  5
10
100
AcDbEntity
 67
     1
  8
0
390
0
100
AcDbBlockEnd
  0
BLOCK
  5
42
100
AcDbEntity
  8
0
390
0
100
AcDbBlockBegin
  2
ZU_SYM__USERS_HOME_SYMBOL_POO_SYM_B20_18
 70
    64
 10
0.0
 20
0.0
 30
0.0
  3
ZU_SYM__USERS_HOME_SYMBOL_POO_SYM_B20_18
  1

  0
LINE
  5
43
100
AcDbEntity
  8
0
370
    -3
390
0
  6
Continuous
100
AcDbLine
 10
-7.499999
 20
6.5
 30
0.0
 11
-7.499999
 21
-6.5
 31
0.0
  0
LINE
  5
44
100
AcDbEntity
  8
0
370
    -3
390
0
  6
Continuous
100
AcDbLine
 10
-7.499998
 20
-6.499999
 30
0.0
 11
-7.999999
 21
-5.63407
 31
0.0
  0
LINE
  5
45
100
AcDbEntity
  8
0
370
    -3
390
0
  6
Continuous
100
AcDbLine
 10
-7.499999
 20
6.5
 30
0.0
 11
-7.999999
 21
5.633876
 31
0.0
  0
LINE
  5
46
100
AcDbEntity
  8
0
370
    -3
390
0
  6
Continuous
100
AcDbLine
 10
0.0
 20
-6.5
 30
0.0
 11
-7.499998
 21
-6.5
 31
0.0
  0
LINE
  5
47
100
AcDbEntity
  8
0
370
    -3
390
0
  6
Continuous
100
AcDbLine
 10
0.0
 20
6.5
 30
0.0
 11
-7.499999
 21
6.5
 31
0.0
  0
LINE
  5
48
100
AcDbEntity
  8
0
370
    -3
390
0
  6
Continuous
100
AcDbLine
 10
-7.999999
 20
5.633876
 30
0.0
 11
-7.999999
 21
-5.63407
 31
0.0
  0
LINE
  5
49
100
AcDbEntity
  8
0
370
    -3
390
0
  6
Continuous
100
AcDbLine
 10
0.0
 20
-6.5
 30
0.0
 11
0.0
 21
6.5
 31
0.0
  0
POINT
  5
4A
100
AcDbEntity
  8
0
370
    -3
390
0
  6
Continuous
100
AcDbPoint
 10
0.0
 20
0.0
 30
0.0
  0
ENDBLK
  5
4B
100
AcDbEntity
  8
0
390
0
100
AcDbBlockEnd
  0
BLOCK
  5
5D
100
AcDbEntity
  8
0
390
0
100
AcDbBlockBegin
  2
ZU_SYM__USERS_HOME_SYMBOL_POO_SYM_B20_0000118
 70
    64
 10
0.0
 20
0.0
 30
0.0
  3
ZU_SYM__USERS_HOME_SYMBOL_POO_SYM_B20_0000118
  1

  0
LINE
  5
5E
100
AcDbEntity
  8
0
370
    -3
390
0
  6
Continuous
100
AcDbLine
 10
-7.499999
 20
6.5
 30
0.0
 11
-7.499999
 21
-6.5
 31
0.0
  0
LINE
  5
5F
100
AcDbEntity
  8
0
370
    -3
390
0
  6
Continuous
100
AcDbLine
 10
-7.499998
 20
-6.499999
 30
0.0
 11
-7.999999
 21
-5.63407
 31
0.0
  0
LINE
  5
60
100
AcDbEntity
  8
0
370
    -3
390
0
  6
Continuous
100
AcDbLine
 10
-7.499999
 20
6.5
 30
0.0
 11
-7.999999
 21
5.633876
 31
0.0
  0
LINE
  5
61
100
AcDbEntity
  8
0
370
    -3
390
0
  6
Continuous
100
AcDbLine
 10
0.0
 20
-6.5
 30
0.0
 11
-7.499998
 21
-6.5
 31
0.0
  0
LINE
  5
62
100
AcDbEntity
  8
0
370
    -3
390
0
  6
Continuous
100
AcDbLine
 10
0.0
 20
6.5
 30
0.0
 11
-7.499999
 21
6.5
 31
0.0
  0
LINE
  5
63
100
AcDbEntity
  8
0
370
    -3
390
0
  6
Continuous
100
AcDbLine
 10
-7.999999
 20
5.633876
 30
0.0
 11
-7.999999
 21
-5.63407
 31
0.0
  0
LINE
  5
64
100
AcDbEntity
  8
0
370
    -3
390
0
  6
Continuous
100
AcDbLine
 10
0.0
 20
-6.5
 30
0.0
 11
0.0
 21
6.5
 31
0.0
  0
POINT
  5
65
100
AcDbEntity
  8
0
370
    -3
390
0
  6
Continuous
100
AcDbPoint
 10
0.0
 20
0.0
 30
0.0
  0
ENDBLK
  5
66
100
AcDbEntity
  8
0
390
0
100
AcDbBlockEnd
  0
BLOCK
  5
C0
100
AcDbEntity
  8
0
390
0
100
AcDbBlockBegin
  2
ZU_SYM__USERS_HOME_SYMBOL_POO_SYM_B20_0000218
 70
    64
 10
0.0
 20
0.0
 30
0.0
  3
ZU_SYM__USERS_HOME_SYMBOL_POO_SYM_B20_0000218
  1

  0
LINE
  5
C1
100
AcDbEntity
  8
0
370
    -3
390
0
  6
Continuous
100
AcDbLine
 10
-7.499999
 20
6.5
 30
0.0
 11
-7.499999
 21
-6.5
 31
0.0
  0
LINE
  5
C2
100
AcDbEntity
  8
0
370
    -3
390
0
  6
Continuous
100
AcDbLine
 10
-7.499998
 20
-6.499999
 30
0.0
 11
-7.999999
 21
-5.63407
 31
0.0
  0
LINE
  5
C3
100
AcDbEntity
  8
0
370
    -3
390
0
  6
Continuous
100
AcDbLine
 10
-7.499999
 20
6.5
 30
0.0
 11
-7.999999
 21
5.633876
 31
0.0
  0
LINE
  5
C4
100
AcDbEntity
  8
0
370
    -3
390
0
  6
Continuous
100
AcDbLine
 10
0.0
 20
-6.5
 30
0.0
 11
-7.499998
 21
-6.5
 31
0.0
  0
LINE
  5
C5
100
AcDbEntity
  8
0
370
    -3
390
0
  6
Continuous
100
AcDbLine
 10
0.0
 20
6.5
 30
0.0
 11
-7.499999
 21
6.5
 31
0.0
  0
LINE
  5
C6
100
AcDbEntity
  8
0
370
    -3
390
0
  6
Continuous
100
AcDbLine
 10
-7.999999
 20
5.633876
 30
0.0
 11
-7.999999
 21
-5.63407
 31
0.0
  0
LINE
  5
C7
100
AcDbEntity
  8
0
370
    -3
390
0
  6
Continuous
100
AcDbLine
 10
0.0
 20
-6.5
 30
0.0
 11
0.0
 21
6.5
 31
0.0
  0
POINT
  5
C8
100
AcDbEntity
  8
0
370
    -3
390
0
  6
Continuous
100
AcDbPoint
 10
0.0
 20
0.0
 30
0.0
  0
ENDBLK
  5
C9
100
AcDbEntity
  8
0
390
0
100
AcDbBlockEnd
  0
BLOCK
  5
CC
100
AcDbEntity
  8
0
390
0
100
AcDbBlockBegin
  2
ZU_SYM__USERS_HOME_SYMBOL_POO_SYM_B20_0000318
 70
    64
 10
0.0
 20
0.0
 30
0.0
  3
ZU_SYM__USERS_HOME_SYMBOL_POO_SYM_B20_0000318
  1

  0
LINE
  5
CD
100
AcDbEntity
  8
0
370
    -3
390
0
  6
Continuous
100
AcDbLine
 10
-7.499999
 20
6.5
 30
0.0
 11
-7.499999
 21
-6.5
 31
0.0
  0
LINE
  5
CE
100
AcDbEntity
  8
0
370
    -3
390
0
  6
Continuous
100
AcDbLine
 10
-7.499998
 20
-6.499999
 30
0.0
 11
-7.999999
 21
-5.63407
 31
0.0
  0
LINE
  5
CF
100
AcDbEntity
  8
0
370
    -3
390
0
  6
Continuous
100
AcDbLine
 10
-7.499999
 20
6.5
 30
0.0
 11
-7.999999
 21
5.633876
 31
0.0
  0
LINE
  5
D0
100
AcDbEntity
  8
0
370
    -3
390
0
  6
Continuous
100
AcDbLine
 10
0.0
 20
-6.5
 30
0.0
 11
-7.499998
 21
-6.5
 31
0.0
  0
LINE
  5
D1
100
AcDbEntity
  8
0
370
    -3
390
0
  6
Continuous
100
AcDbLine
 10
0.0
 20
6.5
 30
0.0
 11
-7.499999
 21
6.5
 31
0.0
  0
LINE
  5
D2
100
AcDbEntity
  8
0
370
    -3
390
0
  6
Continuous
100
AcDbLine
 10
-7.999999
 20
5.633876
 30
0.0
 11
-7.999999
 21
-5.63407
 31
0.0
  0
LINE
  5
D3
100
AcDbEntity
  8
0
370
    -3
390
0
  6
Continuous
100
AcDbLine
 10
0.0
 20
-6.5
 30
0.0
 11
0.0
 21
6.5
 31
0.0
  0
POINT
  5
D4
100
AcDbEntity
  8
0
370
    -3
390
0
  6
Continuous
100
AcDbPoint
 10
0.0
 20
0.0
 30
0.0
  0
ENDBLK
  5
D5
100
AcDbEntity
  8
0
390
0
100
AcDbBlockEnd
  0
BLOCK
  5
DB
100
AcDbEntity
  8
0
390
0
100
AcDbBlockBegin
  2
ZU_SYM__USERS_HOME_SYMBOL_POO_SYM_B20_0000418
 70
    64
 10
0.0
 20
0.0
 30
0.0
  3
ZU_SYM__USERS_HOME_SYMBOL_POO_SYM_B20_0000418
  1

  0
LINE
  5
DC
100
AcDbEntity
  8
0
370
    -3
390
0
  6
Continuous
100
AcDbLine
 10
-7.499999
 20
6.5
 30
0.0
 11
-7.499999
 21
-6.5
 31
0.0
  0
LINE
  5
DD
100
AcDbEntity
  8
0
370
    -3
390
0
  6
Continuous
100
AcDbLine
 10
-7.499998
 20
-6.499999
 30
0.0
 11
-7.999999
 21
-5.63407
 31
0.0
  0
LINE
  5
DE
100
AcDbEntity
  8
0
370
    -3
390
0
  6
Continuous
100
AcDbLine
 10
-7.499999
 20
6.5
 30
0.0
 11
-7.999999
 21
5.633876
 31
0.0
  0
LINE
  5
DF
100
AcDbEntity
  8
0
370
    -3
390
0
  6
Continuous
100
AcDbLine
 10
0.0
 20
-6.5
 30
0.0
 11
-7.499998
 21
-6.5
 31
0.0
  0
LINE
  5
E0
100
AcDbEntity
  8
0
370
    -3
390
0
  6
Continuous
100
AcDbLine
 10
0.0
 20
6.5
 30
0.0
 11
-7.499999
 21
6.5
 31
0.0
  0
LINE
  5
E1
100
AcDbEntity
  8
0
370
    -3
390
0
  6
Continuous
100
AcDbLine
 10
-7.999999
 20
5.633876
 30
0.0
 11
-7.999999
 21
-5.63407
 31
0.0
  0
LINE
  5
E2
100
AcDbEntity
  8
0
370
    -3
390
0
  6
Continuous
100
AcDbLine
 10
0.0
 20
-6.5
 30
0.0
 11
0.0
 21
6.5
 31
0.0
  0
POINT
  5
E3
100
AcDbEntity
  8
0
370
    -3
390
0
  6
Continuous
100
AcDbPoint
 10
0.0
 20
0.0
 30
0.0
  0
ENDBLK
  5
E4
100
AcDbEntity
  8
0
390
0
100
AcDbBlockEnd
  0
ENDSEC
  0
SECTION
  2
ENTITIES
  0
ARC
  5
28
100
AcDbEntity
  8
0
370
    -3
390
0
  6
Continuous
100
AcDbCircle
 10
-134.158585
 20
60.659066
 30
0.0
 40
9.0
100
AcDbArc
 50
253.398469
 51
286.601548
  0
ARC
  5
29
100
AcDbEntity
  8
0
370
    -3
390
0
  6
Continuous
100
AcDbCircle
 10
-131.958584
 20
53.280041
 30
0.0
 40
1.299999
100
AcDbArc
 50
286.601531
 51
0.0
  0
LINE
  5
2A
100
AcDbEntity
  8
0
370
    -3
390
0
  6
Continuous
100
AcDbLine
 10
-130.658585
 20
53.280041
 30
0.0
 11
-130.658585
 21
53.676568
 31
0.0
  0
ARC
  5
2B
100
AcDbEntity
  8
0
370
    -3
390
0
  6
Continuous
100
AcDbCircle
 10
-132.158585
 20
53.676568
 30
0.0
 40
1.5
100
AcDbArc
 50
0.0
 51
32.230953
  0
LINE
  5
2C
100
AcDbEntity
  8
0
370
    -3
390
0
  6
Continuous
100
AcDbLine
 10
-137.658585
 20
53.280041
 30
0.0
 11
-137.658585
 21
53.676568
 31
0.0
  0
ARC
  5
2D
100
AcDbEntity
  8
0
370
    -3
390
0
  6
Continuous
100
AcDbCircle
 10
-136.358585
 20
53.280041
 30
0.0
 40
1.299999
100
AcDbArc
 50
180.0
 51
253.398469
  0
ARC
  5
2E
100
AcDbEntity
  8
0
370
    -3
390
0
  6
Continuous
100
AcDbCircle
 10
-136.158585
 20
53.676568
 30
0.0
 40
1.5
100
AcDbArc
 50
147.769047
 51
180.0
  0
LINE
  5
2F
100
AcDbEntity
  8
0
370
    -3
390
0
  6
Continuous
100
AcDbLine
 10
-615.557104
 20
-306.523432
 30
0.0
 11
-536.057104
 21
-306.523432
 31
0.0
  0
ARC
  5
30
100
AcDbEntity
  8
0
370
    -3
390
0
  6
Continuous
100
AcDbCircle
 10
-615.557104
 20
-294.523432
 30
0.0
 40
12.0
100
AcDbArc
 50
177.134016
 51
270.0
  0
ARC
  5
31
100
AcDbEntity
  8
0
370
    -3
390
0
  6
Continuous
100
AcDbCircle
 10
-633.532698
 20
-294.460459
 30
0.0
 40
6.0
100
AcDbArc
 50
2.984
 51
23.964546
  0
LINE
  5
32
100
AcDbEntity
  8
0
370
    -3
390
0
  6
Continuous
100
AcDbLine
 10
-456.557104
 20
-306.523432
 30
0.0
 11
-536.057104
 21
-306.523432
 31
0.0
  0
ARC
  5
33
100
AcDbEntity
  8
0
370
    -3
390
0
  6
Continuous
100
AcDbCircle
 10
-438.58151
 20
-294.460459
 30
0.0
 40
6.0
100
AcDbArc
 50
156.035454
 51
177.016
  0
ARC
  5
34
100
AcDbEntity
  8
0
370
    -3
390
0
  6
Continuous
100
AcDbCircle
 10
-456.557104
 20
-294.523432
 30
0.0
 40
12.0
100
AcDbArc
 50
270.0
 51
2.865984
  0
ARC
  5
35
100
AcDbEntity
  8
0
370
    -3
390
0
  6
Continuous
100
AcDbCircle
 10
544.241141
 20
-134.523432
 30
0.0
 40
70.0
100
AcDbArc
 50
90.0
 51
0.0
  0
LINE
  5
36
100
AcDbEntity
  8
0
370
    -3
390
0
  6
CENTER
100
AcDbLine
 10
575.39316
 20
-174.523432
 30
0.0
 11
515.097767
 21
-174.523432
 31
0.0
  0
LINE
  5
37
100
AcDbEntity
  8
0
370
    -3
390
0
  6
CENTER
100
AcDbLine
 10
544.241141
 20
37.288876
 30
0.0
 11
544.241141
 21
-311.86359
 31
0.0
  0
LINE
  5
38
100
AcDbEntity
  8
0
370
    -3
390
0
  6
Continuous
100
AcDbLine
 10
57.841415
 20
-288.523432
 30
0.0
 11
57.841415
 21
-174.523432
 31
0.0
  0
LINE
  5
39
100
AcDbEntity
  8
0
370
    -3
390
0
  6
Continuous
100
AcDbLine
 10
57.841415
 20
-60.523432
 30
0.0
 11
57.841415
 21
-174.523432
 31
0.0
  0
LINE
  5
3A
100
AcDbEntity
  8
0
370
    -3
390
0
  6
Continuous
100
AcDbLine
 10
55.841415
 20
-269.523432
 30
0.0
 11
55.841415
 21
-174.523432
 31
0.0
  0
LINE
  5
3B
100
AcDbEntity
  8
0
370
    -3
390
0
  6
Continuous
100
AcDbLine
 10
55.841415
 20
-79.523432
 30
0.0
 11
55.841415
 21
-174.523432
 31
0.0
  0
ARC
  5
3C
100
AcDbEntity
  8
0
370
    -3
390
0
  6
Continuous
100
AcDbCircle
 10
55.841415
 20
-271.523432
 30
0.0
 40
2.0
100
AcDbArc
 50
0.0
 51
90.0
  0
ARC
  5
3D
100
AcDbEntity
  8
0
370
    -3
390
0
  6
Continuous
100
AcDbCircle
 10
55.841415
 20
-77.523432
 30
0.0
 40
2.0
100
AcDbArc
 50
270.0
 51
0.0
  0
LINE
  5
3E
100
AcDbEntity
  8
0
370
    -3
390
0
  6
Continuous
100
AcDbLine
 10
55.841415
 20
-288.523432
 30
0.0
 11
55.841415
 21
-60.523432
 31
0.0
  0
LINE
  5
3F
100
AcDbEntity
  8
0
370
    -3
390
0
  6
CENTER
100
AcDbLine
 10
79.731045
 20
-174.523432
 30
0.0
 11
-326.869108
 21
-174.523432
 31
0.0
  0
LINE
  5
40
100
AcDbEntity
  8
0
370
    -3
390
0
  6
CENTER
100
AcDbLine
 10
421.998247
 20
-174.523432
 30
0.0
 11
370.932254
 21
-174.523432
 31
0.0
  0
INSERT
  5
4C
100
AcDbEntity
  8
0
390
0
100
AcDbBlockReference
  2
ZU_SYM__USERS_HOME_SYMBOL_POO_SYM_B20_18
 10
78.341415
 20
-39.523432
 30
0.0
  0
LINE
  5
4D
100
AcDbEntity
  8
0
370
    -3
390
0
  6
Continuous
100
AcDbLine
 10
78.341415
 20
-49.523432
 30
0.0
 11
82.841415
 21
-49.523432
 31
0.0
  0
LINE
  5
4E
100
AcDbEntity
  8
0
370
    -3
390
0
  6
CENTER
100
AcDbLine
 10
72.611168
 20
-11.523432
 30
0.0
 11
90.710434
 21
-11.523432
 31
0.0
  0
LINE
  5
4F
100
AcDbEntity
  8
0
370
    -3
390
0
  6
Continuous
100
AcDbLine
 10
82.841415
 20
8.476568
 30
0.0
 11
82.841415
 21
-49.523432
 31
0.0
  0
LINE
  5
50
100
AcDbEntity
  8
0
370
    -3
390
0
  6
Continuous
100
AcDbLine
 10
78.341415
 20
8.476568
 30
0.0
 11
82.841415
 21
8.476568
 31
0.0
  0
LINE
  5
51
100
AcDbEntity
  8
0
370
    -3
390
0
  6
Continuous
100
AcDbLine
 10
78.341415
 20
-49.523432
 30
0.0
 11
78.341415
 21
8.476568
 31
0.0
  0
ARC
  5
52
100
AcDbEntity
  8
0
370
    -3
390
0
  6
Continuous
100
AcDbCircle
 10
89.841415
 20
-53.839521
 30
0.0
 40
5.0
100
AcDbArc
 50
273.0
 51
0.0
  0
ARC
  5
53
100
AcDbEntity
  8
0
370
    -3
390
0
  6
Continuous
100
AcDbCircle
 10
84.841415
 20
-31.523432
 30
0.0
 40
2.0
100
AcDbArc
 50
90.0
 51
180.0
  0
ARC
  5
54
100
AcDbEntity
  8
0
370
    -3
390
0
  6
Continuous
100
AcDbCircle
 10
79.841415
 20
-56.366343
 30
0.0
 40
3.0
100
AcDbArc
 50
273.0
 51
0.0
  0
ARC
  5
55
100
AcDbEntity
  8
0
370
    -3
390
0
  6
Continuous
100
AcDbCircle
 10
96.841415
 20
-31.523432
 30
0.0
 40
2.0
100
AcDbArc
 50
90.0
 51
180.0
  0
LINE
  5
56
100
AcDbEntity
  8
0
370
    -3
390
0
  6
Continuous
100
AcDbLine
 10
82.841415
 20
-56.366343
 30
0.0
 11
82.841415
 21
-31.523432
 31
0.0
  0
LINE
  5
57
100
AcDbEntity
  8
0
370
    -3
390
0
  6
Continuous
100
AcDbLine
 10
105.841415
 20
-174.523432
 30
0.0
 11
105.841415
 21
-29.523432
 31
0.0
  0
LINE
  5
58
100
AcDbEntity
  8
0
370
    -3
390
0
  6
Continuous
100
AcDbLine
 10
84.841415
 20
-29.523432
 30
0.0
 11
105.841415
 21
-29.523432
 31
0.0
  0
LINE
  5
59
100
AcDbEntity
  8
0
370
    -3
390
0
  6
Continuous
100
AcDbLine
 10
94.841415
 20
-174.523432
 30
0.0
 11
94.841415
 21
-31.523432
 31
0.0
  0
LINE
  5
5A
100
AcDbEntity
  8
0
370
    -3
390
0
  6
Continuous
100
AcDbLine
 10
90.103095
 20
-58.832669
 30
0.0
 11
57.841415
 21
-60.523432
 31
0.0
  0
LINE
  5
5B
100
AcDbEntity
  8
0
370
    -3
390
0
  6
CENTER
100
AcDbLine
 10
62.849771
 20
-39.523432
 30
0.0
 11
89.164431
 21
-39.523432
 31
0.0
  0
INSERT
  5
67
100
AcDbEntity
  8
0
390
0
100
AcDbBlockReference
  2
ZU_SYM__USERS_HOME_SYMBOL_POO_SYM_B20_0000118
 10
94.841415
 20
-43.523432
 30
0.0
  0
LINE
  5
68
100
AcDbEntity
  8
0
370
    -3
390
0
  6
Continuous
100
AcDbLine
 10
212.054599
 20
-25.814385
 30
0.0
 11
106.341111
 21
-29.505982
 31
0.0
  0
LINE
  5
69
100
AcDbEntity
  8
0
370
    -3
390
0
  6
Continuous
100
AcDbLine
 10
106.341415
 20
-302.523432
 30
0.0
 11
106.341415
 21
-29.505971
 31
0.0
  0
LINE
  5
6A
100
AcDbEntity
  8
0
370
    -3
390
0
  6
Continuous
100
AcDbLine
 10
242.341415
 20
-47.618598
 30
0.0
 11
237.341415
 21
-47.618598
 31
0.0
  0
LINE
  5
6B
100
AcDbEntity
  8
0
370
    -3
390
0
  6
Continuous
100
AcDbLine
 10
242.341415
 20
-12.378771
 30
0.0
 11
237.341415
 21
-12.378771
 31
0.0
  0
ARC
  5
6C
100
AcDbEntity
  8
0
370
    -3
390
0
  6
Continuous
100
AcDbCircle
 10
237.341415
 20
-14.378771
 30
0.0
 40
2.0
100
AcDbArc
 50
90.0
 51
180.0
  0
LINE
  5
6D
100
AcDbEntity
  8
0
370
    -3
390
0
  6
Continuous
100
AcDbLine
 10
235.341415
 20
-127.523432
 30
0.0
 11
235.341415
 21
-14.378771
 31
0.0
  0
ARC
  5
6E
100
AcDbEntity
  8
0
370
    -3
390
0
  6
Continuous
100
AcDbCircle
 10
237.341415
 20
-49.618598
 30
0.0
 40
2.0
100
AcDbArc
 50
90.0
 51
180.0
  0
LINE
  5
6F
100
AcDbEntity
  8
0
370
    -3
390
0
  6
CENTER
100
AcDbLine
 10
250.017572
 20
-0.173143
 30
0.0
 11
216.705538
 21
-0.173143
 31
0.0
  0
LINE
  5
70
100
AcDbEntity
  8
0
370
    -3
390
0
  6
Continuous
100
AcDbLine
 10
222.341415
 20
-289.023432
 30
0.0
 11
222.341415
 21
19.976568
 31
0.0
  0
ARC
  5
71
100
AcDbEntity
  8
0
370
    -3
390
0
  6
Continuous
100
AcDbCircle
 10
244.841415
 20
-69.268254
 30
0.0
 40
5.0
100
AcDbArc
 50
0.0
 51
72.542397
  0
LINE
  5
72
100
AcDbEntity
  8
0
370
    -3
390
0
  6
Continuous
100
AcDbLine
 10
246.341415
 20
-134.523432
 30
0.0
 11
246.341415
 21
9.476568
 31
0.0
  0
LINE
  5
73
100
AcDbEntity
  8
0
370
    -3
390
0
  6
Continuous
100
AcDbLine
 10
249.841415
 20
-134.523432
 30
0.0
 11
249.841415
 21
-69.268254
 31
0.0
  0
LINE
  5
74
100
AcDbEntity
  8
0
370
    -3
390
0
  6
Continuous
100
AcDbLine
 10
242.341415
 20
-134.523432
 30
0.0
 11
242.341415
 21
22.976568
 31
0.0
  0
ARC
  5
75
100
AcDbEntity
  8
0
370
    -3
390
0
  6
Continuous
100
AcDbCircle
 10
250.841415
 20
-89.523432
 30
0.0
 40
1.0
100
AcDbArc
 50
180.0
 51
270.0
  0
ARC
  5
76
100
AcDbEntity
  8
0
370
    -3
390
0
  6
Continuous
100
AcDbCircle
 10
225.341415
 20
19.976568
 30
0.0
 40
3.0
100
AcDbArc
 50
90.0
 51
180.0
  0
ARC
  5
77
100
AcDbEntity
  8
0
370
    -3
390
0
  6
Continuous
100
AcDbCircle
 10
217.341415
 20
12.565086
 30
0.0
 40
5.0
100
AcDbArc
 50
315.0
 51
0.0
  0
ARC
  5
78
100
AcDbEntity
  8
0
370
    -3
390
0
  6
Continuous
100
AcDbCircle
 10
182.948587
 20
-21.827742
 30
0.0
 40
5.0
100
AcDbArc
 50
272.0
 51
315.0
  0
LINE
  5
79
100
AcDbEntity
  8
0
370
    -3
390
0
  6
Continuous
100
AcDbLine
 10
242.341415
 20
22.976568
 30
0.0
 11
225.341415
 21
22.976568
 31
0.0
  0
LINE
  5
7A
100
AcDbEntity
  8
0
370
    -3
390
0
  6
Continuous
100
AcDbLine
 10
245.341415
 20
10.476568
 30
0.0
 11
242.341415
 21
10.476568
 31
0.0
  0
LINE
  5
7B
100
AcDbEntity
  8
0
370
    -3
390
0
  6
Continuous
100
AcDbLine
 10
246.341415
 20
9.476568
 30
0.0
 11
245.341415
 21
10.476568
 31
0.0
  0
LINE
  5
7C
100
AcDbEntity
  8
0
370
    -3
390
0
  6
Continuous
100
AcDbLine
 10
220.876949
 20
9.029552
 30
0.0
 11
186.484121
 21
-25.363276
 31
0.0
  0
LINE
  5
7D
100
AcDbEntity
  8
0
370
    -3
390
0
  6
Continuous
100
AcDbLine
 10
217.646735
 20
-50.0702
 30
0.0
 11
189.803225
 21
-50.0702
 31
0.0
  0
ARC
  5
7E
100
AcDbEntity
  8
0
370
    -3
390
0
  6
Continuous
100
AcDbCircle
 10
183.503009
 20
-39.869079
 30
0.0
 40
5.0
100
AcDbArc
 50
270.0
 51
305.248603
  0
LINE
  5
7F
100
AcDbEntity
  8
0
370
    -3
390
0
  6
Continuous
100
AcDbLine
 10
220.227042
 20
-20.038973
 30
0.0
 11
186.388636
 21
-43.952357
 31
0.0
  0
ARC
  5
80
100
AcDbEntity
  8
0
370
    -3
390
0
  6
Continuous
100
AcDbCircle
 10
183.503009
 20
-45.0702
 30
0.0
 40
5.0
100
AcDbArc
 50
270.0
 51
305.248603
  0
LINE
  5
81
100
AcDbEntity
  8
0
370
    -3
390
0
  6
Continuous
100
AcDbLine
 10
220.227042
 20
-25.240094
 30
0.0
 11
186.388636
 21
-49.153478
 31
0.0
  0
ARC
  5
82
100
AcDbEntity
  8
0
370
    -3
390
0
  6
Continuous
100
AcDbCircle
 10
217.341415
 20
-15.955695
 30
0.0
 40
5.0
100
AcDbArc
 50
305.248603
 51
0.0
  0
ARC
  5
83
100
AcDbEntity
  8
0
370
    -3
390
0
  6
Continuous
100
AcDbCircle
 10
217.341415
 20
-21.156816
 30
0.0
 40
5.0
100
AcDbArc
 50
305.248603
 51
0.0
  0
ARC
  5
84
100
AcDbEntity
  8
0
370
    -3
390
0
  6
Continuous
100
AcDbCircle
 10
265.841008
 20
-134.554664
 30
0.0
 40
7.0
100
AcDbArc
 50
90.0
 51
270.0
  0
LINE
  5
85
100
AcDbEntity
  8
0
370
    -3
390
0
  6
Continuous
100
AcDbLine
 10
328.841415
 20
-127.554664
 30
0.0
 11
265.841008
 21
-127.554664
 31
0.0
  0
LINE
  5
86
100
AcDbEntity
  8
0
370
    -3
390
0
  6
Continuous
100
AcDbLine
 10
328.841415
 20
-141.554664
 30
0.0
 11
265.841008
 21
-141.554664
 31
0.0
  0
LINE
  5
87
100
AcDbEntity
  8
0
370
    -3
390
0
  6
Continuous
100
AcDbLine
 10
328.841415
 20
-134.523432
 30
0.0
 11
328.841415
 21
-110.923432
 31
0.0
  0
ARC
  5
88
100
AcDbEntity
  8
0
370
    -3
390
0
  6
Continuous
100
AcDbCircle
 10
328.441415
 20
-110.923432
 30
0.0
 40
0.4
100
AcDbArc
 50
0.0
 51
90.0
  0
LINE
  5
89
100
AcDbEntity
  8
0
370
    -3
390
0
  6
Continuous
100
AcDbLine
 10
328.441415
 20
-110.523432
 30
0.0
 11
256.401223
 21
-110.523432
 31
0.0
  0
ARC
  5
8A
100
AcDbEntity
  8
0
370
    -3
390
0
  6
Continuous
100
AcDbCircle
 10
328.441415
 20
-158.123432
 30
0.0
 40
0.4
100
AcDbArc
 50
270.0
 51
0.0
  0
LINE
  5
8B
100
AcDbEntity
  8
0
370
    -3
390
0
  6
Continuous
100
AcDbLine
 10
328.841415
 20
-134.523432
 30
0.0
 11
328.841415
 21
-158.123432
 31
0.0
  0
LINE
  5
8C
100
AcDbEntity
  8
0
370
    -3
390
0
  6
Continuous
100
AcDbLine
 10
328.441415
 20
-158.523432
 30
0.0
 11
256.401223
 21
-158.523432
 31
0.0
  0
LINE
  5
8D
100
AcDbEntity
  8
0
370
    -3
390
0
  6
Continuous
100
AcDbLine
 10
253.641415
 20
-109.523432
 30
0.0
 11
251.841415
 21
-109.523432
 31
0.0
  0
LINE
  5
8E
100
AcDbEntity
  8
0
370
    -3
390
0
  6
Continuous
100
AcDbLine
 10
253.641415
 20
-159.523432
 30
0.0
 11
251.841415
 21
-159.523432
 31
0.0
  0
LINE
  5
8F
100
AcDbEntity
  8
0
370
    -3
390
0
  6
Continuous
100
AcDbLine
 10
253.841415
 20
-159.323432
 30
0.0
 11
253.641415
 21
-159.523432
 31
0.0
  0
ARC
  5
90
100
AcDbEntity
  8
0
370
    -3
390
0
  6
Continuous
100
AcDbCircle
 10
254.641415
 20
-159.173432
 30
0.0
 40
0.8
100
AcDbArc
 50
90.0
 51
180.0
  0
LINE
  5
91
100
AcDbEntity
  8
0
370
    -3
390
0
  6
Continuous
100
AcDbLine
 10
253.841415
 20
-159.173432
 30
0.0
 11
253.841415
 21
-159.323432
 31
0.0
  0
LINE
  5
92
100
AcDbEntity
  8
0
370
    -3
390
0
  6
Continuous
100
AcDbLine
 10
255.841415
 20
-158.373432
 30
0.0
 11
254.641415
 21
-158.373432
 31
0.0
  0
LINE
  5
93
100
AcDbEntity
  8
0
370
    -3
390
0
  6
Continuous
100
AcDbLine
 10
255.841415
 20
-158.373432
 30
0.0
 11
256.401223
 21
-158.523432
 31
0.0
  0
LINE
  5
94
100
AcDbEntity
  8
0
370
    -3
390
0
  6
Continuous
100
AcDbLine
 10
253.841415
 20
-134.523432
 30
0.0
 11
253.841415
 21
-159.173432
 31
0.0
  0
LINE
  5
95
100
AcDbEntity
  8
0
370
    -3
390
0
  6
Continuous
100
AcDbLine
 10
253.841415
 20
-109.723432
 30
0.0
 11
253.641415
 21
-109.523432
 31
0.0
  0
ARC
  5
96
100
AcDbEntity
  8
0
370
    -3
390
0
  6
Continuous
100
AcDbCircle
 10
254.641415
 20
-109.873432
 30
0.0
 40
0.8
100
AcDbArc
 50
180.0
 51
270.0
  0
LINE
  5
97
100
AcDbEntity
  8
0
370
    -3
390
0
  6
Continuous
100
AcDbLine
 10
253.841415
 20
-109.873432
 30
0.0
 11
253.841415
 21
-109.723432
 31
0.0
  0
LINE
  5
98
100
AcDbEntity
  8
0
370
    -3
390
0
  6
Continuous
100
AcDbLine
 10
255.841415
 20
-110.673432
 30
0.0
 11
254.641415
 21
-110.673432
 31
0.0
  0
LINE
  5
99
100
AcDbEntity
  8
0
370
    -3
390
0
  6
Continuous
100
AcDbLine
 10
255.841415
 20
-110.673432
 30
0.0
 11
256.401223
 21
-110.523432
 31
0.0
  0
LINE
  5
9A
100
AcDbEntity
  8
0
370
    -3
390
0
  6
Continuous
100
AcDbLine
 10
253.841415
 20
-134.523432
 30
0.0
 11
253.841415
 21
-109.873432
 31
0.0
  0
LINE
  5
9B
100
AcDbEntity
  8
0
370
    -3
390
0
  6
Continuous
100
AcDbLine
 10
242.341415
 20
-139.523432
 30
0.0
 11
237.341415
 21
-139.523432
 31
0.0
  0
LINE
  5
9C
100
AcDbEntity
  8
0
370
    -3
390
0
  6
Continuous
100
AcDbLine
 10
235.341415
 20
-141.523432
 30
0.0
 11
235.341415
 21
-254.668092
 31
0.0
  0
ARC
  5
9D
100
AcDbEntity
  8
0
370
    -3
390
0
  6
Continuous
100
AcDbCircle
 10
237.341415
 20
-141.523432
 30
0.0
 40
2.0
100
AcDbArc
 50
90.0
 51
180.0
  0
LINE
  5
9E
100
AcDbEntity
  8
0
370
    -3
390
0
  6
Continuous
100
AcDbLine
 10
242.341415
 20
-129.523432
 30
0.0
 11
237.341415
 21
-129.523432
 31
0.0
  0
ARC
  5
9F
100
AcDbEntity
  8
0
370
    -3
390
0
  6
Continuous
100
AcDbCircle
 10
237.341415
 20
-127.523432
 30
0.0
 40
2.0
100
AcDbArc
 50
180.0
 51
270.0
  0
LINE
  5
A0
100
AcDbEntity
  8
0
370
    -3
390
0
  6
CENTER
100
AcDbLine
 10
334.863152
 20
-134.523432
 30
0.0
 11
191.476571
 21
-134.523432
 31
0.0
  0
LINE
  5
A1
100
AcDbEntity
  8
0
370
    -3
390
0
  6
Continuous
100
AcDbLine
 10
242.341415
 20
-134.523432
 30
0.0
 11
242.341415
 21
-292.023432
 31
0.0
  0
LINE
  5
A2
100
AcDbEntity
  8
0
370
    -3
390
0
  6
Continuous
100
AcDbLine
 10
246.341415
 20
-134.523432
 30
0.0
 11
246.341415
 21
-278.523432
 31
0.0
  0
LINE
  5
A3
100
AcDbEntity
  8
0
370
    -3
390
0
  6
Continuous
100
AcDbLine
 10
249.841415
 20
-134.523432
 30
0.0
 11
249.841415
 21
-199.523432
 31
0.0
  0
ARC
  5
A4
100
AcDbEntity
  8
0
370
    -3
390
0
  6
Continuous
100
AcDbCircle
 10
250.841415
 20
-179.523432
 30
0.0
 40
1.0
100
AcDbArc
 50
90.0
 51
180.0
  0
LINE
  5
A5
100
AcDbEntity
  8
0
370
    -3
390
0
  6
Continuous
100
AcDbLine
 10
251.841415
 20
-178.523432
 30
0.0
 11
251.841415
 21
-90.523432
 31
0.0
  0
LINE
  5
A6
100
AcDbEntity
  8
0
370
    -3
390
0
  6
Continuous
100
AcDbLine
 10
250.841415
 20
-90.523432
 30
0.0
 11
251.841415
 21
-90.523432
 31
0.0
  0
LINE
  5
A7
100
AcDbEntity
  8
0
370
    -3
390
0
  6
Continuous
100
AcDbLine
 10
250.841415
 20
-178.523432
 30
0.0
 11
251.841415
 21
-178.523432
 31
0.0
  0
LINE
  5
A8
100
AcDbEntity
  8
0
370
    -3
390
0
  6
Continuous
100
AcDbLine
 10
242.341415
 20
-221.428265
 30
0.0
 11
237.341415
 21
-221.428265
 31
0.0
  0
LINE
  5
A9
100
AcDbEntity
  8
0
370
    -3
390
0
  6
Continuous
100
AcDbLine
 10
242.341415
 20
-256.668092
 30
0.0
 11
237.341415
 21
-256.668092
 31
0.0
  0
ARC
  5
AA
100
AcDbEntity
  8
0
370
    -3
390
0
  6
Continuous
100
AcDbCircle
 10
237.341415
 20
-254.668092
 30
0.0
 40
2.0
100
AcDbArc
 50
180.0
 51
270.0
  0
ARC
  5
AB
100
AcDbEntity
  8
0
370
    -3
390
0
  6
Continuous
100
AcDbCircle
 10
237.341415
 20
-219.428265
 30
0.0
 40
2.0
100
AcDbArc
 50
180.0
 51
270.0
  0
LINE
  5
AC
100
AcDbEntity
  8
0
370
    -3
390
0
  6
CENTER
100
AcDbLine
 10
250.741747
 20
-268.87372
 30
0.0
 11
214.895101
 21
-268.87372
 31
0.0
  0
ARC
  5
AD
100
AcDbEntity
  8
0
370
    -3
390
0
  6
Continuous
100
AcDbCircle
 10
250.341415
 20
-207.875078
 30
0.0
 40
5.0
100
AcDbArc
 50
123.367013
 51
143.130102
  0
LINE
  5
AE
100
AcDbEntity
  8
0
370
    -3
390
0
  6
Continuous
100
AcDbLine
 10
242.341415
 20
-292.023432
 30
0.0
 11
225.341415
 21
-292.023432
 31
0.0
  0
ARC
  5
AF
100
AcDbEntity
  8
0
370
    -3
390
0
  6
Continuous
100
AcDbCircle
 10
225.341415
 20
-289.023432
 30
0.0
 40
3.0
100
AcDbArc
 50
180.0
 51
270.0
  0
ARC
  5
B0
100
AcDbEntity
  8
0
370
    -3
390
0
  6
Continuous
100
AcDbCircle
 10
231.341415
 20
-295.023432
 30
0.0
 40
3.0
100
AcDbArc
 50
90.0
 51
180.0
  0
ARC
  5
B1
100
AcDbEntity
  8
0
370
    -3
390
0
  6
Continuous
100
AcDbCircle
 10
225.341415
 20
-303.423459
 30
0.0
 40
3.0
100
AcDbArc
 50
268.122123
 51
0.0
  0
ARC
  5
B2
100
AcDbEntity
  8
0
370
    -3
390
0
  6
Continuous
100
AcDbCircle
 10
244.841415
 20
-199.523432
 30
0.0
 40
5.0
100
AcDbArc
 50
303.367013
 51
0.0
  0
LINE
  5
B3
100
AcDbEntity
  8
0
370
    -3
390
0
  6
Continuous
100
AcDbLine
 10
245.341415
 20
-279.523432
 30
0.0
 11
242.341415
 21
-279.523432
 31
0.0
  0
LINE
  5
B4
100
AcDbEntity
  8
0
370
    -3
390
0
  6
Continuous
100
AcDbLine
 10
228.341415
 20
-303.423459
 30
0.0
 11
228.341415
 21
-295.023432
 31
0.0
  0
LINE
  5
B5
100
AcDbEntity
  8
0
370
    -3
390
0
  6
Continuous
100
AcDbLine
 10
106.341415
 20
-302.523432
 30
0.0
 11
225.243107
 21
-306.421848
 31
0.0
  0
LINE
  5
B6
100
AcDbEntity
  8
0
370
    -3
390
0
  6
Continuous
100
AcDbLine
 10
246.341415
 20
-278.523432
 30
0.0
 11
245.341415
 21
-279.523432
 31
0.0
  0
ARC
  5
B7
100
AcDbEntity
  8
0
370
    -3
390
0
  6
Continuous
100
AcDbCircle
 10
96.841415
 20
-300.523432
 30
0.0
 40
2.0
100
AcDbArc
 50
180.0
 51
270.0
  0
LINE
  5
B8
100
AcDbEntity
  8
0
370
    -3
390
0
  6
Continuous
100
AcDbLine
 10
94.841415
 20
-174.523432
 30
0.0
 11
94.841415
 21
-300.523432
 31
0.0
  0
LINE
  5
B9
100
AcDbEntity
  8
0
370
    -3
390
0
  6
Continuous
100
AcDbLine
 10
96.841415
 20
-302.523432
 30
0.0
 11
105.841415
 21
-302.523432
 31
0.0
  0
LINE
  5
BA
100
AcDbEntity
  8
0
370
    -3
390
0
  6
Continuous
100
AcDbLine
 10
105.841415
 20
-174.523432
 30
0.0
 11
105.841415
 21
-302.523432
 31
0.0
  0
LINE
  5
BB
100
AcDbEntity
  8
0
370
    -3
390
0
  6
Continuous
100
AcDbLine
 10
86.841416
 20
-290.043257
 30
0.0
 11
57.841415
 21
-288.523432
 31
0.0
  0
LINE
  5
BC
100
AcDbEntity
  8
0
370
    -3
390
0
  6
Continuous
100
AcDbLine
 10
89.841415
 20
-185.523432
 30
0.0
 11
89.841415
 21
-178.523432
 31
0.0
  0
ARC
  5
BD
100
AcDbEntity
  8
0
370
    -3
390
0
  6
Continuous
100
AcDbCircle
 10
91.841415
 20
-191.439511
 30
0.0
 40
3.0
100
AcDbArc
 50
0.0
 51
80.405932
  0
ARC
  5
BE
100
AcDbEntity
  8
0
370
    -3
390
0
  6
Continuous
100
AcDbCircle
 10
92.841415
 20
-185.523432
 30
0.0
 40
3.0
100
AcDbArc
 50
180.0
 51
260.405932
  0
INSERT
  5
CA
100
AcDbEntity
  8
0
390
0
100
AcDbBlockReference
  2
ZU_SYM__USERS_HOME_SYMBOL_POO_SYM_B20_0000218
 10
94.841415
 20
-202.523432
 30
0.0
  0
INSERT
  5
D6
100
AcDbEntity
  8
0
390
0
100
AcDbBlockReference
  2
ZU_SYM__USERS_HOME_SYMBOL_POO_SYM_B20_0000318
 10
94.841415
 20
-293.523432
 30
0.0
  0
LINE
  5
D7
100
AcDbEntity
  8
0
370
    -3
390
0
  6
Continuous
100
AcDbLine
 10
89.841415
 20
-171.523432
 30
0.0
 11
89.841415
 21
-178.523432
 31
0.0
  0
ARC
  5
D8
100
AcDbEntity
  8
0
370
    -3
390
0
  6
Continuous
100
AcDbCircle
 10
91.841415
 20
-165.607352
 30
0.0
 40
3.0
100
AcDbArc
 50
279.594068
 51
0.0
  0
ARC
  5
D9
100
AcDbEntity
  8
0
370
    -3
390
0
  6
Continuous
100
AcDbCircle
 10
92.841415
 20
-171.523432
 30
0.0
 40
3.0
100
AcDbArc
 50
99.594068
 51
180.0
  0
INSERT
  5
E5
100
AcDbEntity
  8
0
390
0
100
AcDbBlockReference
  2
ZU_SYM__USERS_HOME_SYMBOL_POO_SYM_B20_0000418
 10
94.841415
 20
-112.523432
 30
0.0
  0
LINE
  5
E6
100
AcDbEntity
  8
0
370
    -3
390
0
  6
Continuous
100
AcDbLine
 10
386.741141
 20
7.976568
 30
0.0
 11
386.741141
 21
-277.023432
 31
0.0
  0
LINE
  5
E7
100
AcDbEntity
  8
0
370
    -3
390
0
  6
Continuous
100
AcDbLine
 10
686.741141
 20
22.976568
 30
0.0
 11
401.741141
 21
22.976568
 31
0.0
  0
LINE
  5
E8
100
AcDbEntity
  8
0
370
    -3
390
0
  6
Continuous
100
AcDbLine
 10
416.166461
 20
-41.80409
 30
0.0
 11
388.205607
 21
-13.843237
 31
0.0
  0
LINE
  5
E9
100
AcDbEntity
  8
0
370
    -3
390
0
  6
Continuous
100
AcDbLine
 10
451.5218
 20
-6.448751
 30
0.0
 11
423.560947
 21
21.512102
 31
0.0
  0
LINE
  5
EA
100
AcDbEntity
  8
0
370
    -3
390
0
  6
CENTER
100
AcDbLine
 10
423.679435
 20
-13.961725
 30
0.0
 11
396.102271
 21
13.615439
 31
0.0
  0
ARC
  5
EB
100
AcDbEntity
  8
0
370
    -3
390
0
  6
Continuous
100
AcDbCircle
 10
519.209909
 20
-140.161602
 30
0.0
 40
107.308449
100
AcDbArc
 50
92.924524
 51
172.056783
  0
ARC
  5
EC
100
AcDbEntity
  8
0
370
    -3
390
0
  6
Continuous
100
AcDbCircle
 10
544.209909
 20
-629.523432
 30
0.0
 40
597.308449
100
AcDbArc
 50
90.819237
 51
92.924524
  0
ARC
  5
ED
100
AcDbEntity
  8
0
370
    -3
390
0
  6
Continuous
100
AcDbCircle
 10
401.741141
 20
7.976568
 30
0.0
 40
15.0
100
AcDbArc
 50
90.0
 51
180.0
  0
ARC
  5
EE
100
AcDbEntity
  8
0
370
    -3
390
0
  6
Continuous
100
AcDbCircle
 10
544.241141
 20
-134.523432
 30
0.0
 40
150.0
100
AcDbArc
 50
57.635625
 51
122.364375
  0
ARC
  5
EF
100
AcDbEntity
  8
0
370
    -3
390
0
  6
Continuous
100
AcDbCircle
 10
458.592868
 20
0.622317
 30
0.0
 40
10.0
100
AcDbArc
 50
225.0
 51
302.364375
  0
ARC
  5
F0
100
AcDbEntity
  8
0
370
    -3
390
0
  6
Continuous
100
AcDbCircle
 10
544.241141
 20
-134.523432
 30
0.0
 40
150.0
100
AcDbArc
 50
147.635625
 51
177.002775
  0
ARC
  5
F1
100
AcDbEntity
  8
0
370
    -3
390
0
  6
Continuous
100
AcDbCircle
 10
409.095393
 20
-48.875158
 30
0.0
 40
10.0
100
AcDbArc
 50
327.635625
 51
45.0
  0
ARC
  5
F2
100
AcDbEntity
  8
0
370
    -3
390
0
  6
Continuous
100
AcDbCircle
 10
420.025413
 20
17.976568
 30
0.0
 40
5.0
100
AcDbArc
 50
45.0
 51
90.0
  0
ARC
  5
F3
100
AcDbEntity
  8
0
370
    -3
390
0
  6
CENTER
100
AcDbCircle
 10
544.241141
 20
-134.523432
 30
0.0
 40
190.0
100
AcDbArc
 50
129.119042
 51
140.880958
  0
CIRCLE
  5
F4
100
AcDbEntity
  8
0
370
    -3
390
0
  6
Continuous
100
AcDbCircle
 10
409.890853
 20
-0.173143
 30
0.0
 40
12.0
  0
ARC
  5
F5
100
AcDbEntity
  8
0
370
    -3
390
0
  6
Continuous
100
AcDbCircle
 10
391.741141
 20
-10.307703
 30
0.0
 40
5.0
100
AcDbArc
 50
180.0
 51
225.0
  0
CIRCLE
  5
F6
100
AcDbEntity
  8
0
370
    -3
390
0
  6
Continuous
100
AcDbCircle
 10
544.241141
 20
-134.523432
 30
0.0
 40
145.0
  0
CIRCLE
  5
F7
100
AcDbEntity
  8
0
370
    -3
390
0
  6
Continuous
100
AcDbCircle
 10
544.241141
 20
-134.523432
 30
0.0
 40
138.0
  0
ARC
  5
F8
100
AcDbEntity
  8
0
370
    -3
390
0
  6
Continuous
100
AcDbCircle
 10
544.241141
 20
-134.523432
 30
0.0
 40
70.0
100
AcDbArc
 50
0.0
 51
90.0
  0
LINE
  5
F9
100
AcDbEntity
  8
0
370
    -3
390
0
  6
CENTER
100
AcDbLine
 10
706.660571
 20
-134.523432
 30
0.0
 11
384.035835
 21
-134.523432
 31
0.0
  0
CIRCLE
  5
FA
100
AcDbEntity
  8
0
370
    -3
390
0
  6
Continuous
100
AcDbCircle
 10
544.241141
 20
-134.523432
 30
0.0
 40
3.325
  0
CIRCLE
  5
FB
100
AcDbEntity
  8
0
370
    -3
390
0
  6
Continuous
100
AcDbCircle
 10
544.241141
 20
-134.523432
 30
0.0
 40
4.0
  0
LINE
  5
FC
100
AcDbEntity
  8
0
370
    -3
390
0
  6
Continuous
100
AcDbLine
 10
516.741141
 20
-141.554664
 30
0.0
 11
525.741141
 21
-141.554664
 31
0.0
  0
LINE
  5
FD
100
AcDbEntity
  8
0
370
    -3
390
0
  6
Continuous
100
AcDbLine
 10
516.741141
 20
-127.554664
 30
0.0
 11
525.741141
 21
-127.554664
 31
0.0
  0
ARC
  5
FE
100
AcDbEntity
  8
0
370
    -3
390
0
  6
Continuous
100
AcDbCircle
 10
544.241141
 20
-134.554664
 30
0.0
 40
24.0
100
AcDbArc
 50
196.957763
 51
163.042237
  0
LINE
  5
FF
100
AcDbEntity
  8
0
370
    -3
390
0
  6
Continuous
100
AcDbLine
 10
525.741141
 20
-127.554664
 30
0.0
 11
525.741141
 21
-141.554664
 31
0.0
  0
LINE
  5
100
100
AcDbEntity
  8
0
370
    -3
390
0
  6
Continuous
100
AcDbLine
 10
516.741141
 20
-127.554664
 30
0.0
 11
516.741141
 21
-141.554664
 31
0.0
  0
LINE
  5
101
100
AcDbEntity
  8
0
370
    -3
390
0
  6
Continuous
100
AcDbLine
 10
547.741141
 20
0.319996
 30
0.0
 11
547.741141
 21
-61.813391
 31
0.0
  0
LINE
  5
102
100
AcDbEntity
  8
0
370
    -3
390
0
  6
Continuous
100
AcDbLine
 10
540.741141
 20
0.319996
 30
0.0
 11
540.741141
 21
-61.813391
 31
0.0
  0
LINE
  5
103
100
AcDbEntity
  8
0
370
    -3
390
0
  6
Continuous
100
AcDbLine
 10
676.580823
 20
-143.023432
 30
0.0
 11
676.580823
 21
-172.911001
 31
0.0
  0
LINE
  5
104
100
AcDbEntity
  8
0
370
    -3
390
0
  6
Continuous
100
AcDbLine
 10
679.084569
 20
-138.023432
 30
0.0
 11
616.951182
 21
-138.023432
 31
0.0
  0
LINE
  5
105
100
AcDbEntity
  8
0
370
    -3
390
0
  6
Continuous
100
AcDbLine
 10
679.084569
 20
-131.023432
 30
0.0
 11
616.951182
 21
-131.023432
 31
0.0
  0
LINE
  5
106
100
AcDbEntity
  8
0
370
    -3
390
0
  6
Continuous
100
AcDbLine
 10
697.031848
 20
-139.523432
 30
0.0
 11
699.741141
 21
-139.523432
 31
0.0
  0
LINE
  5
107
100
AcDbEntity
  8
0
370
    -3
390
0
  6
Continuous
100
AcDbLine
 10
697.031848
 20
-129.523432
 30
0.0
 11
699.741141
 21
-129.523432
 31
0.0
  0
LINE
  5
108
100
AcDbEntity
  8
0
370
    -3
390
0
  6
Continuous
100
AcDbLine
 10
701.741141
 20
7.976568
 30
0.0
 11
701.741141
 21
-277.023432
 31
0.0
  0
LINE
  5
109
100
AcDbEntity
  8
0
370
    -3
390
0
  6
Continuous
100
AcDbLine
 10
636.960483
 20
-6.448751
 30
0.0
 11
664.921336
 21
21.512102
 31
0.0
  0
LINE
  5
10A
100
AcDbEntity
  8
0
370
    -3
390
0
  6
Continuous
100
AcDbLine
 10
672.315822
 20
-41.80409
 30
0.0
 11
700.276675
 21
-13.843237
 31
0.0
  0
LINE
  5
10B
100
AcDbEntity
  8
0
370
    -3
390
0
  6
CENTER
100
AcDbLine
 10
664.802848
 20
-13.961725
 30
0.0
 11
692.380012
 21
13.615439
 31
0.0
  0
ARC
  5
10C
100
AcDbEntity
  8
0
370
    -3
390
0
  6
Continuous
100
AcDbCircle
 10
471.163678
 20
-167.076225
 30
0.0
 40
10.0
100
AcDbArc
 50
294.11503
 51
24.010868
  0
ARC
  5
10D
100
AcDbEntity
  8
0
370
    -3
390
0
  6
Continuous
100
AcDbCircle
 10
575.467303
 20
-232.685932
 30
0.0
 40
48.0
100
AcDbArc
 50
6.015134
 51
56.987252
  0
ARC
  5
10E
100
AcDbEntity
  8
0
370
    -3
390
0
  6
Continuous
100
AcDbCircle
 10
607.067189
 20
-184.050068
 30
0.0
 40
10.0
100
AcDbArc
 50
141.750802
 51
236.987252
  0
ARC
  5
10F
100
AcDbEntity
  8
0
370
    -3
390
0
  6
Continuous
100
AcDbCircle
 10
535.741141
 20
-37.275528
 30
0.0
 40
5.0
100
AcDbArc
 50
0.0
 51
90.819237
  0
ARC
  5
110
100
AcDbEntity
  8
0
370
    -3
390
0
  6
Continuous
100
AcDbCircle
 10
552.741141
 20
-37.275528
 30
0.0
 40
5.0
100
AcDbArc
 50
89.180763
 51
180.0
  0
ARC
  5
111
100
AcDbEntity
  8
0
370
    -3
390
0
  6
Continuous
100
AcDbCircle
 10
544.272374
 20
-629.523432
 30
0.0
 40
597.308449
100
AcDbArc
 50
87.075476
 51
89.180763
  0
ARC
  5
112
100
AcDbEntity
  8
0
370
    -3
390
0
  6
Continuous
100
AcDbCircle
 10
550.741141
 20
-61.813391
 30
0.0
 40
3.0
100
AcDbArc
 50
180.0
 51
264.891556
  0
ARC
  5
113
100
AcDbEntity
  8
0
370
    -3
390
0
  6
Continuous
100
AcDbCircle
 10
537.741141
 20
-61.813391
 30
0.0
 40
3.0
100
AcDbArc
 50
275.108444
 51
0.0
  0
ARC
  5
114
100
AcDbEntity
  8
0
370
    -3
390
0
  6
Continuous
100
AcDbCircle
 10
537.741141
 20
0.319996
 30
0.0
 40
3.0
100
AcDbArc
 50
0.0
 51
92.759753
  0
ARC
  5
115
100
AcDbEntity
  8
0
370
    -3
390
0
  6
Continuous
100
AcDbCircle
 10
550.741141
 20
0.319996
 30
0.0
 40
3.0
100
AcDbArc
 50
87.240247
 51
180.0
  0
ARC
  5
116
100
AcDbEntity
  8
0
370
    -3
390
0
  6
Continuous
100
AcDbCircle
 10
671.580823
 20
-143.023432
 30
0.0
 40
5.0
100
AcDbArc
 50
0.0
 51
90.0
  0
ARC
  5
117
100
AcDbEntity
  8
0
370
    -3
390
0
  6
Continuous
100
AcDbCircle
 10
670.599226
 20
-126.023432
 30
0.0
 40
5.0
100
AcDbArc
 50
270.0
 51
7.943217
  0
ARC
  5
118
100
AcDbEntity
  8
0
370
    -3
390
0
  6
Continuous
100
AcDbCircle
 10
569.272374
 20
-140.161602
 30
0.0
 40
107.308449
100
AcDbArc
 50
7.943217
 51
87.075476
  0
ARC
  5
119
100
AcDbEntity
  8
0
370
    -3
390
0
  6
Continuous
100
AcDbCircle
 10
616.951182
 20
-141.023432
 30
0.0
 40
3.0
100
AcDbArc
 50
90.0
 51
174.891556
  0
ARC
  5
11A
100
AcDbEntity
  8
0
370
    -3
390
0
  6
Continuous
100
AcDbCircle
 10
616.951182
 20
-128.023432
 30
0.0
 40
3.0
100
AcDbArc
 50
185.108444
 51
270.0
  0
ARC
  5
11B
100
AcDbEntity
  8
0
370
    -3
390
0
  6
Continuous
100
AcDbCircle
 10
679.084569
 20
-141.023432
 30
0.0
 40
3.0
100
AcDbArc
 50
357.240247
 51
90.0
  0
ARC
  5
11C
100
AcDbEntity
  8
0
370
    -3
390
0
  6
Continuous
100
AcDbCircle
 10
679.084569
 20
-128.023432
 30
0.0
 40
3.0
100
AcDbArc
 50
270.0
 51
2.759753
  0
ARC
  5
11D
100
AcDbEntity
  8
0
370
    -3
390
0
  6
Continuous
100
AcDbCircle
 10
699.741141
 20
-137.523432
 30
0.0
 40
2.0
100
AcDbArc
 50
270.0
 51
0.0
  0
ARC
  5
11E
100
AcDbEntity
  8
0
370
    -3
390
0
  6
Continuous
100
AcDbCircle
 10
699.741141
 20
-131.523432
 30
0.0
 40
2.0
100
AcDbArc
 50
0.0
 51
90.0
  0
ARC
  5
11F
100
AcDbEntity
  8
0
370
    -3
390
0
  6
Continuous
100
AcDbCircle
 10
671.580823
 20
-172.911001
 30
0.0
 40
5.0
100
AcDbArc
 50
343.224145
 51
0.0
  0
ARC
  5
120
100
AcDbEntity
  8
0
370
    -3
390
0
  6
Continuous
100
AcDbCircle
 10
697.031848
 20
-142.523432
 30
0.0
 40
3.0
100
AcDbArc
 50
90.0
 51
177.002775
  0
ARC
  5
121
100
AcDbEntity
  8
0
370
    -3
390
0
  6
Continuous
100
AcDbCircle
 10
697.031848
 20
-126.523432
 30
0.0
 40
3.0
100
AcDbArc
 50
182.997225
 51
270.0
  0
CIRCLE
  5
122
100
AcDbEntity
  8
0
370
    -3
390
0
  6
Continuous
100
AcDbCircle
 10
544.241141
 20
-134.523432
 30
0.0
 40
44.0
  0
ARC
  5
123
100
AcDbEntity
  8
0
370
    -3
390
0
  6
Continuous
100
AcDbCircle
 10
544.241141
 20
-134.523432
 30
0.0
 40
150.0
100
AcDbArc
 50
2.997225
 51
32.364375
  0
CIRCLE
  5
124
100
AcDbEntity
  8
0
370
    -3
390
0
  6
Continuous
100
AcDbCircle
 10
544.241141
 20
-134.523432
 30
0.0
 40
34.0
  0
ARC
  5
125
100
AcDbEntity
  8
0
370
    -3
390
0
  6
Continuous
100
AcDbCircle
 10
686.741141
 20
7.976568
 30
0.0
 40
15.0
100
AcDbArc
 50
0.0
 51
90.0
  0
ARC
  5
126
100
AcDbEntity
  8
0
370
    -3
390
0
  6
Continuous
100
AcDbCircle
 10
544.241141
 20
-134.523432
 30
0.0
 40
150.0
100
AcDbArc
 50
327.635625
 51
357.002775
  0
ARC
  5
127
100
AcDbEntity
  8
0
370
    -3
390
0
  6
Continuous
100
AcDbCircle
 10
679.38689
 20
-48.875158
 30
0.0
 40
10.0
100
AcDbArc
 50
135.0
 51
212.364375
  0
ARC
  5
128
100
AcDbEntity
  8
0
370
    -3
390
0
  6
Continuous
100
AcDbCircle
 10
629.889415
 20
0.622317
 30
0.0
 40
10.0
100
AcDbArc
 50
237.635625
 51
315.0
  0
ARC
  5
129
100
AcDbEntity
  8
0
370
    -3
390
0
  6
Continuous
100
AcDbCircle
 10
696.741141
 20
-10.307703
 30
0.0
 40
5.0
100
AcDbArc
 50
315.0
 51
0.0
  0
CIRCLE
  5
12A
100
AcDbEntity
  8
0
370
    -3
390
0
  6
Continuous
100
AcDbCircle
 10
678.59143
 20
-0.173143
 30
0.0
 40
12.0
  0
ARC
  5
12B
100
AcDbEntity
  8
0
370
    -3
390
0
  6
Continuous
100
AcDbCircle
 10
668.45687
 20
17.976568
 30
0.0
 40
5.0
100
AcDbArc
 50
90.0
 51
135.0
  0
ARC
  5
12C
100
AcDbEntity
  8
0
370
    -3
390
0
  6
Continuous
100
AcDbCircle
 10
575.467303
 20
-232.685932
 30
0.0
 40
41.0
100
AcDbArc
 50
0.074479
 51
58.061808
  0
ARC
  5
12D
100
AcDbEntity
  8
0
370
    -3
390
0
  6
Continuous
100
AcDbCircle
 10
602.446513
 20
-189.40635
 30
0.0
 40
10.0
100
AcDbArc
 50
136.682825
 51
238.061808
  0
ARC
  5
12E
100
AcDbEntity
  8
0
370
    -3
390
0
  6
Continuous
100
AcDbCircle
 10
474.292432
 20
-173.345823
 30
0.0
 40
10.0
100
AcDbArc
 50
293.824471
 51
29.030812
  0
ARC
  5
12F
100
AcDbEntity
  8
0
370
    -3
390
0
  6
CENTER
100
AcDbCircle
 10
544.241141
 20
-134.523432
 30
0.0
 40
190.0
100
AcDbArc
 50
38.605228
 51
51.697379
  0
LINE
  5
130
100
AcDbEntity
  8
0
370
    -3
390
0
  6
Continuous
100
AcDbLine
 10
409.397714
 20
-131.023432
 30
0.0
 11
471.531101
 21
-131.023432
 31
0.0
  0
LINE
  5
131
100
AcDbEntity
  8
0
370
    -3
390
0
  6
Continuous
100
AcDbLine
 10
409.397714
 20
-138.023432
 30
0.0
 11
471.531101
 21
-138.023432
 31
0.0
  0
LINE
  5
132
100
AcDbEntity
  8
0
370
    -3
390
0
  6
Continuous
100
AcDbLine
 10
623.741141
 20
-306.523432
 30
0.0
 11
544.241141
 21
-306.523432
 31
0.0
  0
LINE
  5
133
100
AcDbEntity
  8
0
370
    -3
390
0
  6
Continuous
100
AcDbLine
 10
464.741141
 20
-306.523432
 30
0.0
 11
544.241141
 21
-306.523432
 31
0.0
  0
LINE
  5
134
100
AcDbEntity
  8
0
370
    -3
390
0
  6
Continuous
100
AcDbLine
 10
686.741141
 20
-292.023432
 30
0.0
 11
401.741141
 21
-292.023432
 31
0.0
  0
LINE
  5
135
100
AcDbEntity
  8
0
370
    -3
390
0
  6
Continuous
100
AcDbLine
 10
672.315822
 20
-227.242773
 30
0.0
 11
700.276675
 21
-255.203626
 31
0.0
  0
LINE
  5
136
100
AcDbEntity
  8
0
370
    -3
390
0
  6
Continuous
100
AcDbLine
 10
636.960483
 20
-262.598112
 30
0.0
 11
664.921336
 21
-290.558965
 31
0.0
  0
LINE
  5
137
100
AcDbEntity
  8
0
370
    -3
390
0
  6
CENTER
100
AcDbLine
 10
664.802848
 20
-255.085138
 30
0.0
 11
692.380012
 21
-282.662302
 31
0.0
  0
ARC
  5
138
100
AcDbEntity
  8
0
370
    -3
390
0
  6
Continuous
100
AcDbCircle
 10
497.720722
 20
-226.403482
 30
0.0
 40
55.0
100
AcDbArc
 50
114.11503
 51
159.806926
  0
ARC
  5
139
100
AcDbEntity
  8
0
370
    -3
390
0
  6
Continuous
100
AcDbCircle
 10
633.147969
 20
-226.608044
 30
0.0
 40
10.0
100
AcDbArc
 50
186.015134
 51
313.994124
  0
ARC
  5
13A
100
AcDbEntity
  8
0
370
    -3
390
0
  6
Continuous
100
AcDbCircle
 10
471.531101
 20
-128.023432
 30
0.0
 40
3.0
100
AcDbArc
 50
270.0
 51
354.891556
  0
ARC
  5
13B
100
AcDbEntity
  8
0
370
    -3
390
0
  6
Continuous
100
AcDbCircle
 10
471.531101
 20
-141.023432
 30
0.0
 40
3.0
100
AcDbArc
 50
5.108444
 51
90.0
  0
ARC
  5
13C
100
AcDbEntity
  8
0
370
    -3
390
0
  6
Continuous
100
AcDbCircle
 10
641.716735
 20
-294.460459
 30
0.0
 40
6.0
100
AcDbArc
 50
156.035454
 51
177.016
  0
ARC
  5
13D
100
AcDbEntity
  8
0
370
    -3
390
0
  6
Continuous
100
AcDbCircle
 10
623.741141
 20
-294.523432
 30
0.0
 40
12.0
100
AcDbArc
 50
270.0
 51
2.865984
  0
ARC
  5
13E
100
AcDbEntity
  8
0
370
    -3
390
0
  6
Continuous
100
AcDbCircle
 10
464.741141
 20
-294.523432
 30
0.0
 40
12.0
100
AcDbArc
 50
177.134016
 51
270.0
  0
ARC
  5
13F
100
AcDbEntity
  8
0
370
    -3
390
0
  6
Continuous
100
AcDbCircle
 10
686.741141
 20
-277.023432
 30
0.0
 40
15.0
100
AcDbArc
 50
270.0
 51
0.0
  0
ARC
  5
140
100
AcDbEntity
  8
0
370
    -3
390
0
  6
Continuous
100
AcDbCircle
 10
544.241141
 20
-134.523432
 30
0.0
 40
150.0
100
AcDbArc
 50
237.635625
 51
302.364375
  0
ARC
  5
141
100
AcDbEntity
  8
0
370
    -3
390
0
  6
Continuous
100
AcDbCircle
 10
458.592868
 20
-269.66918
 30
0.0
 40
10.0
100
AcDbArc
 50
57.635625
 51
135.0
  0
ARC
  5
142
100
AcDbEntity
  8
0
370
    -3
390
0
  6
Continuous
100
AcDbCircle
 10
629.889415
 20
-269.66918
 30
0.0
 40
10.0
100
AcDbArc
 50
45.0
 51
122.364375
  0
ARC
  5
143
100
AcDbEntity
  8
0
370
    -3
390
0
  6
Continuous
100
AcDbCircle
 10
679.38689
 20
-220.171705
 30
0.0
 40
10.0
100
AcDbArc
 50
147.635625
 51
225.0
  0
ARC
  5
144
100
AcDbEntity
  8
0
370
    -3
390
0
  6
Continuous
100
AcDbCircle
 10
668.45687
 20
-287.023432
 30
0.0
 40
5.0
100
AcDbArc
 50
225.0
 51
270.0
  0
ARC
  5
145
100
AcDbEntity
  8
0
370
    -3
390
0
  6
CENTER
100
AcDbCircle
 10
544.241141
 20
-134.523432
 30
0.0
 40
190.0
100
AcDbArc
 50
309.119042
 51
320.880958
  0
CIRCLE
  5
146
100
AcDbEntity
  8
0
370
    -3
390
0
  6
Continuous
100
AcDbCircle
 10
678.59143
 20
-268.87372
 30
0.0
 40
12.0
  0
ARC
  5
147
100
AcDbEntity
  8
0
370
    -3
390
0
  6
Continuous
100
AcDbCircle
 10
696.741141
 20
-258.73916
 30
0.0
 40
5.0
100
AcDbArc
 50
0.0
 51
45.0
  0
ARC
  5
148
100
AcDbEntity
  8
0
370
    -3
390
0
  6
Continuous
100
AcDbCircle
 10
497.720722
 20
-226.403482
 30
0.0
 40
48.0
100
AcDbArc
 50
113.824471
 51
164.803707
  0
ARC
  5
149
100
AcDbEntity
  8
0
370
    -3
390
0
  6
Continuous
100
AcDbCircle
 10
626.46726
 20
-232.619637
 30
0.0
 40
10.0
100
AcDbArc
 50
180.074479
 51
309.970383
  0
LINE
  5
14A
100
AcDbEntity
  8
0
370
    -3
390
0
  6
CENTER
100
AcDbLine
 10
423.679435
 20
-255.085138
 30
0.0
 11
396.102271
 21
-282.662302
 31
0.0
  0
LINE
  5
14B
100
AcDbEntity
  8
0
370
    -3
390
0
  6
Continuous
100
AcDbLine
 10
416.166461
 20
-227.242773
 30
0.0
 11
388.205607
 21
-255.203626
 31
0.0
  0
LINE
  5
14C
100
AcDbEntity
  8
0
370
    -3
390
0
  6
Continuous
100
AcDbLine
 10
451.5218
 20
-262.598112
 30
0.0
 11
423.560947
 21
-290.558965
 31
0.0
  0
ARC
  5
14D
100
AcDbEntity
  8
0
370
    -3
390
0
  6
Continuous
100
AcDbCircle
 10
446.765547
 20
-294.460459
 30
0.0
 40
6.0
100
AcDbArc
 50
2.984
 51
23.964546
  0
CIRCLE
  5
14E
100
AcDbEntity
  8
0
370
    -3
390
0
  6
Continuous
100
AcDbCircle
 10
409.890853
 20
-268.87372
 30
0.0
 40
12.0
  0
ARC
  5
14F
100
AcDbEntity
  8
0
370
    -3
390
0
  6
Continuous
100
AcDbCircle
 10
401.741141
 20
-277.023432
 30
0.0
 40
15.0
100
AcDbArc
 50
180.0
 51
270.0
  0
ARC
  5
150
100
AcDbEntity
  8
0
370
    -3
390
0
  6
Continuous
100
AcDbCircle
 10
391.741141
 20
-258.73916
 30
0.0
 40
5.0
100
AcDbArc
 50
135.0
 51
180.0
  0
ARC
  5
151
100
AcDbEntity
  8
0
370
    -3
390
0
  6
Continuous
100
AcDbCircle
 10
420.025413
 20
-287.023432
 30
0.0
 40
5.0
100
AcDbArc
 50
270.0
 51
315.0
  0
ARC
  5
152
100
AcDbEntity
  8
0
370
    -3
390
0
  6
CENTER
100
AcDbCircle
 10
544.241141
 20
-134.523432
 30
0.0
 40
190.0
100
AcDbArc
 50
218.31925
 51
231.759041
  0
LINE
  5
153
100
AcDbEntity
  8
0
370
    -3
390
0
  6
Continuous
100
AcDbLine
 10
411.90146
 20
-143.023432
 30
0.0
 11
411.90146
 21
-172.911001
 31
0.0
  0
ARC
  5
154
100
AcDbEntity
  8
0
370
    -3
390
0
  6
Continuous
100
AcDbCircle
 10
436.715963
 20
-203.966473
 30
0.0
 40
10.0
100
AcDbArc
 50
212.855608
 51
339.806926
  0
ARC
  5
155
100
AcDbEntity
  8
0
370
    -3
390
0
  6
Continuous
100
AcDbCircle
 10
416.90146
 20
-172.911001
 30
0.0
 40
5.0
100
AcDbArc
 50
180.0
 51
196.775855
  0
ARC
  5
156
100
AcDbEntity
  8
0
370
    -3
390
0
  6
Continuous
100
AcDbCircle
 10
544.241141
 20
-134.523432
 30
0.0
 40
150.0
100
AcDbArc
 50
182.997225
 51
212.364375
  0
ARC
  5
157
100
AcDbEntity
  8
0
370
    -3
390
0
  6
Continuous
100
AcDbCircle
 10
409.095393
 20
-220.171705
 30
0.0
 40
10.0
100
AcDbArc
 50
315.0
 51
32.364375
  0
ARC
  5
158
100
AcDbEntity
  8
0
370
    -3
390
0
  6
Continuous
100
AcDbCircle
 10
441.748782
 20
-211.200131
 30
0.0
 40
10.0
100
AcDbArc
 50
216.800938
 51
344.803707
  0
LINE
  5
159
100
AcDbEntity
  8
0
370
    -3
390
0
  6
Continuous
100
AcDbLine
 10
391.450435
 20
-139.523432
 30
0.0
 11
388.741141
 21
-139.523432
 31
0.0
  0
LINE
  5
15A
100
AcDbEntity
  8
0
370
    -3
390
0
  6
Continuous
100
AcDbLine
 10
391.450435
 20
-129.523432
 30
0.0
 11
388.741141
 21
-129.523432
 31
0.0
  0
ARC
  5
15B
100
AcDbEntity
  8
0
370
    -3
390
0
  6
Continuous
100
AcDbCircle
 10
416.90146
 20
-143.023432
 30
0.0
 40
5.0
100
AcDbArc
 50
90.0
 51
180.0
  0
ARC
  5
15C
100
AcDbEntity
  8
0
370
    -3
390
0
  6
Continuous
100
AcDbCircle
 10
417.883057
 20
-126.023432
 30
0.0
 40
5.0
100
AcDbArc
 50
172.056783
 51
270.0
  0
ARC
  5
15D
100
AcDbEntity
  8
0
370
    -3
390
0
  6
Continuous
100
AcDbCircle
 10
409.397714
 20
-141.023432
 30
0.0
 40
3.0
100
AcDbArc
 50
90.0
 51
182.759753
  0
ARC
  5
15E
100
AcDbEntity
  8
0
370
    -3
390
0
  6
Continuous
100
AcDbCircle
 10
409.397714
 20
-128.023432
 30
0.0
 40
3.0
100
AcDbArc
 50
177.240247
 51
270.0
  0
ARC
  5
15F
100
AcDbEntity
  8
0
370
    -3
390
0
  6
Continuous
100
AcDbCircle
 10
388.741141
 20
-137.523432
 30
0.0
 40
2.0
100
AcDbArc
 50
180.0
 51
270.0
  0
ARC
  5
160
100
AcDbEntity
  8
0
370
    -3
390
0
  6
Continuous
100
AcDbCircle
 10
388.741141
 20
-131.523432
 30
0.0
 40
2.0
100
AcDbArc
 50
90.0
 51
180.0
  0
ARC
  5
161
100
AcDbEntity
  8
0
370
    -3
390
0
  6
Continuous
100
AcDbCircle
 10
391.450435
 20
-126.523432
 30
0.0
 40
3.0
100
AcDbArc
 50
270.0
 51
357.002775
  0
ARC
  5
162
100
AcDbEntity
  8
0
370
    -3
390
0
  6
Continuous
100
AcDbCircle
 10
391.450435
 20
-142.523432
 30
0.0
 40
3.0
100
AcDbArc
 50
2.997225
 51
90.0
  0
LINE
  5
163
100
AcDbEntity
  8
0
370
    -3
390
0
  6
Continuous
100
AcDbLine
 10
-195.158585
 20
-262.087814
 30
0.0
 11
-195.158585
 21
-263.373911
 31
0.0
  0
LINE
  5
164
100
AcDbEntity
  8
0
370
    -3
390
0
  6
Continuous
100
AcDbLine
 10
-183.158585
 20
-262.087814
 30
0.0
 11
-183.158585
 21
-263.373911
 31
0.0
  0
ELLIPSE
  5
165
100
AcDbEntity
  8
0
370
    -3
390
0
  6
Continuous
100
AcDbEllipse
 10
-189.158585
 20
-263.373911
 30
0.0
 11
6.0
 21
0.0
 31
0.0
210
0.0
220
0.0
230
1.0
 40
0.689848
 41
3.1415926535897931
 42
3.9729303421147302
  0
ELLIPSE
  5
166
100
AcDbEntity
  8
0
370
    -3
390
0
  6
Continuous
100
AcDbEllipse
 10
-189.158585
 20
-262.087814
 30
0.0
 11
6.0
 21
0.0
 31
0.0
210
0.0
220
0.0
230
1.0
 40
0.707107
 41
0.0
 42
3.1415926535897931
  0
LINE
  5
167
100
AcDbEntity
  8
0
370
    -3
390
0
  6
Continuous
100
AcDbLine
 10
-194.158585
 20
-263.760307
 30
0.0
 11
-194.158585
 21
-264.04315
 31
0.0
  0
LINE
  5
168
100
AcDbEntity
  8
0
370
    -3
390
0
  6
Continuous
100
AcDbLine
 10
-184.158585
 20
-263.760307
 30
0.0
 11
-184.158585
 21
-264.04315
 31
0.0
  0
ELLIPSE
  5
169
100
AcDbEntity
  8
0
370
    -3
390
0
  6
Continuous
100
AcDbEllipse
 10
-189.158585
 20
-264.04315
 30
0.0
 11
5.0
 21
0.0
 31
0.0
210
0.0
220
0.0
230
1.0
 40
0.707107
 41
5.7540333991808303
 42
3.670744561588549
  0
ELLIPSE
  5
16A
100
AcDbEntity
  8
0
370
    -3
390
0
  6
Continuous
100
AcDbEllipse
 10
-189.158585
 20
-263.760307
 30
0.0
 11
5.0
 21
0.0
 31
0.0
210
0.0
220
0.0
230
1.0
 40
0.763675
 41
0.0
 42
3.1415926535897931
  0
ELLIPSE
  5
16B
100
AcDbEntity
  8
0
370
    -3
390
0
  6
Continuous
100
AcDbEllipse
 10
-189.158585
 20
-264.732662
 30
0.0
 11
4.5
 21
0.0
 31
0.0
210
0.0
220
0.0
230
1.0
 40
0.860332
 41
0.0
 42
6.2831853071795862
  0
ELLIPSE
  5
16C
100
AcDbEntity
  8
0
370
    -3
390
0
  6
Continuous
100
AcDbEllipse
 10
-189.158585
 20
-263.373911
 30
0.0
 11
6.0
 21
0.0
 31
0.0
210
0.0
220
0.0
230
1.0
 40
0.689848
 41
5.4518476186546492
 42
0.0
  0
ELLIPSE
  5
16D
100
AcDbEntity
  8
0
370
    -3
390
0
  6
Continuous
100
AcDbEllipse
 10
-189.158585
 20
-263.373911
 30
0.0
 11
6.0
 21
0.0
 31
0.0
210
0.0
220
0.0
230
1.0
 40
0.689848
 41
0.0
 42
3.1415926535897931
  0
LINE
  5
16E
100
AcDbEntity
  8
0
370
    -3
390
0
  6
Continuous
100
AcDbLine
 10
-189.158585
 20
-266.376603
 30
0.0
 11
-191.158585
 21
-267.672136
 31
0.0
  0
LINE
  5
16F
100
AcDbEntity
  8
0
370
    -3
390
0
  6
Continuous
100
AcDbLine
 10
-189.158585
 20
-266.376603
 30
0.0
 11
-191.158585
 21
-264.843709
 31
0.0
  0
LINE
  5
170
100
AcDbEntity
  8
0
370
    -3
390
0
  6
Continuous
100
AcDbLine
 10
-189.158585
 20
-266.376603
 30
0.0
 11
-187.158585
 21
-264.843709
 31
0.0
  0
LINE
  5
171
100
AcDbEntity
  8
0
370
    -3
390
0
  6
Continuous
100
AcDbLine
 10
-189.158585
 20
-266.376603
 30
0.0
 11
-187.158585
 21
-267.672136
 31
0.0
  0
LINE
  5
172
100
AcDbEntity
  8
0
370
    -3
390
0
  6
Continuous
100
AcDbLine
 10
-149.158585
 20
-261.631849
 30
0.0
 11
55.841415
 21
-261.631849
 31
0.0
  0
LINE
  5
173
100
AcDbEntity
  8
0
370
    -3
390
0
  6
Continuous
100
AcDbLine
 10
-149.158585
 20
-274.523432
 30
0.0
 11
55.841415
 21
-274.523432
 31
0.0
  0
LINE
  5
174
100
AcDbEntity
  8
0
370
    -3
390
0
  6
Continuous
100
AcDbLine
 10
-149.158585
 20
-280.023432
 30
0.0
 11
55.841415
 21
-280.023432
 31
0.0
  0
LINE
  5
175
100
AcDbEntity
  8
0
370
    -3
390
0
  6
Continuous
100
AcDbLine
 10
-149.158585
 20
-284.523432
 30
0.0
 11
55.841415
 21
-284.523432
 31
0.0
  0
LINE
  5
176
100
AcDbEntity
  8
0
370
    -3
390
0
  6
Continuous
100
AcDbLine
 10
-149.158585
 20
-283.523432
 30
0.0
 11
55.841415
 21
-283.523432
 31
0.0
  0
LINE
  5
177
100
AcDbEntity
  8
0
370
    -3
390
0
  6
Continuous
100
AcDbLine
 10
-149.158585
 20
-288.523432
 30
0.0
 11
55.841415
 21
-288.523432
 31
0.0
  0
LINE
  5
178
100
AcDbEntity
  8
0
370
    -3
390
0
  6
Continuous
100
AcDbLine
 10
-195.158585
 20
-86.959049
 30
0.0
 11
-195.158585
 21
-85.672952
 31
0.0
  0
LINE
  5
179
100
AcDbEntity
  8
0
370
    -3
390
0
  6
Continuous
100
AcDbLine
 10
-183.158585
 20
-86.959049
 30
0.0
 11
-183.158585
 21
-85.672952
 31
0.0
  0
ELLIPSE
  5
17A
100
AcDbEntity
  8
0
370
    -3
390
0
  6
Continuous
100
AcDbEllipse
 10
-189.158585
 20
-85.672952
 30
0.0
 11
6.0
 21
0.0
 31
0.0
210
0.0
220
0.0
230
1.0
 40
0.689848
 41
2.3102549650648596
 42
3.1415926535897931
  0
ELLIPSE
  5
17B
100
AcDbEntity
  8
0
370
    -3
390
0
  6
Continuous
100
AcDbEllipse
 10
-189.158585
 20
-86.959049
 30
0.0
 11
6.0
 21
0.0
 31
0.0
210
0.0
220
0.0
230
1.0
 40
0.707107
 41
3.1415926535897931
 42
0.0
  0
LINE
  5
17C
100
AcDbEntity
  8
0
370
    -3
390
0
  6
Continuous
100
AcDbLine
 10
-194.158585
 20
-85.286556
 30
0.0
 11
-194.158585
 21
-85.003713
 31
0.0
  0
LINE
  5
17D
100
AcDbEntity
  8
0
370
    -3
390
0
  6
Continuous
100
AcDbLine
 10
-184.158585
 20
-85.286556
 30
0.0
 11
-184.158585
 21
-85.003713
 31
0.0
  0
ELLIPSE
  5
17E
100
AcDbEntity
  8
0
370
    -3
390
0
  6
Continuous
100
AcDbEllipse
 10
-189.158585
 20
-85.003713
 30
0.0
 11
5.0
 21
0.0
 31
0.0
210
0.0
220
0.0
230
1.0
 40
0.707107
 41
2.6124407455910408
 42
0.5291519079987521
  0
ELLIPSE
  5
17F
100
AcDbEntity
  8
0
370
    -3
390
0
  6
Continuous
100
AcDbEllipse
 10
-189.158585
 20
-85.286556
 30
0.0
 11
5.0
 21
0.0
 31
0.0
210
0.0
220
0.0
230
1.0
 40
0.763675
 41
3.1415926535897931
 42
0.0
  0
ELLIPSE
  5
180
100
AcDbEntity
  8
0
370
    -3
390
0
  6
Continuous
100
AcDbEllipse
 10
-189.158585
 20
-84.314201
 30
0.0
 11
4.5
 21
0.0
 31
0.0
210
0.0
220
0.0
230
1.0
 40
0.860332
 41
0.0
 42
6.2831853071795862
  0
ELLIPSE
  5
181
100
AcDbEntity
  8
0
370
    -3
390
0
  6
Continuous
100
AcDbEllipse
 10
-189.158585
 20
-85.672952
 30
0.0
 11
6.0
 21
0.0
 31
0.0
210
0.0
220
0.0
230
1.0
 40
0.689848
 41
0.0
 42
0.8313376885249334
  0
ELLIPSE
  5
182
100
AcDbEntity
  8
0
370
    -3
390
0
  6
Continuous
100
AcDbEllipse
 10
-189.158585
 20
-85.672952
 30
0.0
 11
6.0
 21
0.0
 31
0.0
210
0.0
220
0.0
230
1.0
 40
0.689848
 41
3.1415926535897931
 42
0.0
  0
LINE
  5
183
100
AcDbEntity
  8
0
370
    -3
390
0
  6
Continuous
100
AcDbLine
 10
-189.158585
 20
-82.67026
 30
0.0
 11
-191.158585
 21
-81.374727
 31
0.0
  0
LINE
  5
184
100
AcDbEntity
  8
0
370
    -3
390
0
  6
Continuous
100
AcDbLine
 10
-189.158585
 20
-82.67026
 30
0.0
 11
-191.158585
 21
-84.203154
 31
0.0
  0
LINE
  5
185
100
AcDbEntity
  8
0
370
    -3
390
0
  6
Continuous
100
AcDbLine
 10
-189.158585
 20
-82.67026
 30
0.0
 11
-187.158585
 21
-84.203154
 31
0.0
  0
LINE
  5
186
100
AcDbEntity
  8
0
370
    -3
390
0
  6
Continuous
100
AcDbLine
 10
-189.158585
 20
-82.67026
 30
0.0
 11
-187.158585
 21
-81.374727
 31
0.0
  0
LINE
  5
187
100
AcDbEntity
  8
0
370
    -3
390
0
  6
Continuous
100
AcDbLine
 10
-149.158585
 20
-96.607402
 30
0.0
 11
55.841415
 21
-96.607402
 31
0.0
  0
LINE
  5
188
100
AcDbEntity
  8
0
370
    -3
390
0
  6
Continuous
100
AcDbLine
 10
-149.158585
 20
-87.415014
 30
0.0
 11
55.841415
 21
-87.415014
 31
0.0
  0
LINE
  5
189
100
AcDbEntity
  8
0
370
    -3
390
0
  6
Continuous
100
AcDbLine
 10
-149.158585
 20
-74.523432
 30
0.0
 11
55.841415
 21
-74.523432
 31
0.0
  0
LINE
  5
18A
100
AcDbEntity
  8
0
370
    -3
390
0
  6
Continuous
100
AcDbLine
 10
-149.158585
 20
-69.023432
 30
0.0
 11
55.841415
 21
-69.023432
 31
0.0
  0
LINE
  5
18B
100
AcDbEntity
  8
0
370
    -3
390
0
  6
Continuous
100
AcDbLine
 10
-149.158585
 20
-64.523432
 30
0.0
 11
55.841415
 21
-64.523432
 31
0.0
  0
LINE
  5
18C
100
AcDbEntity
  8
0
370
    -3
390
0
  6
Continuous
100
AcDbLine
 10
-149.158585
 20
-65.523432
 30
0.0
 11
55.841415
 21
-65.523432
 31
0.0
  0
LINE
  5
18D
100
AcDbEntity
  8
0
370
    -3
390
0
  6
Continuous
100
AcDbLine
 10
-149.158585
 20
-60.523432
 30
0.0
 11
55.841415
 21
-60.523432
 31
0.0
  0
LINE
  5
18E
100
AcDbEntity
  8
0
370
    -3
390
0
  6
Continuous
100
AcDbLine
 10
-87.708585
 20
-224.011483
 30
0.0
 11
55.841415
 21
-224.011483
 31
0.0
  0
LINE
  5
18F
100
AcDbEntity
  8
0
370
    -3
390
0
  6
Continuous
100
AcDbLine
 10
-91.73936
 20
-233.040119
 30
0.0
 11
55.841415
 21
-233.040119
 31
0.0
  0
LINE
  5
190
100
AcDbEntity
  8
0
370
    -3
390
0
  6
Continuous
100
AcDbLine
 10
-87.708585
 20
-221.095925
 30
0.0
 11
55.841415
 21
-221.095925
 31
0.0
  0
LINE
  5
191
100
AcDbEntity
  8
0
370
    -3
390
0
  6
Continuous
100
AcDbLine
 10
-87.708585
 20
-209.237119
 30
0.0
 11
55.841415
 21
-209.237119
 31
0.0
  0
LINE
  5
192
100
AcDbEntity
  8
0
370
    -3
390
0
  6
Continuous
100
AcDbLine
 10
-87.708585
 20
-211.842146
 30
0.0
 11
55.841415
 21
-211.842146
 31
0.0
  0
LINE
  5
193
100
AcDbEntity
  8
0
370
    -3
390
0
  6
Continuous
100
AcDbLine
 10
-87.708585
 20
-198.523432
 30
0.0
 11
55.841415
 21
-198.523432
 31
0.0
  0
LINE
  5
194
100
AcDbEntity
  8
0
370
    -3
390
0
  6
Continuous
100
AcDbLine
 10
-149.158585
 20
-235.9946
 30
0.0
 11
55.841415
 21
-235.9946
 31
0.0
  0
LINE
  5
195
100
AcDbEntity
  8
0
370
    -3
390
0
  6
Continuous
100
AcDbLine
 10
-149.158585
 20
-252.439461
 30
0.0
 11
55.841415
 21
-252.439461
 31
0.0
  0
LINE
  5
196
100
AcDbEntity
  8
0
370
    -3
390
0
  6
Continuous
100
AcDbLine
 10
-87.708585
 20
-150.523432
 30
0.0
 11
55.841415
 21
-150.523432
 31
0.0
  0
LINE
  5
197
100
AcDbEntity
  8
0
370
    -3
390
0
  6
Continuous
100
AcDbLine
 10
-88.15947
 20
-139.809744
 30
0.0
 11
55.841415
 21
-139.809744
 31
0.0
  0
LINE
  5
198
100
AcDbEntity
  8
0
370
    -3
390
0
  6
Continuous
100
AcDbLine
 10
-89.314039
 20
-137.204717
 30
0.0
 11
55.841415
 21
-137.204717
 31
0.0
  0
LINE
  5
199
100
AcDbEntity
  8
0
370
    -3
390
0
  6
Continuous
100
AcDbLine
 10
-149.158585
 20
-127.950938
 30
0.0
 11
55.841415
 21
-127.950938
 31
0.0
  0
LINE
  5
19A
100
AcDbEntity
  8
0
370
    -3
390
0
  6
Continuous
100
AcDbLine
 10
-149.158585
 20
-125.03538
 30
0.0
 11
55.841415
 21
-125.03538
 31
0.0
  0
LINE
  5
19B
100
AcDbEntity
  8
0
370
    -3
390
0
  6
Continuous
100
AcDbLine
 10
-149.158585
 20
-116.006744
 30
0.0
 11
55.841415
 21
-116.006744
 31
0.0
  0
LINE
  5
19C
100
AcDbEntity
  8
0
370
    -3
390
0
  6
Continuous
100
AcDbLine
 10
-149.158585
 20
-113.052264
 30
0.0
 11
55.841415
 21
-113.052264
 31
0.0
  0
LINE
  5
19D
100
AcDbEntity
  8
0
370
    -3
390
0
  6
Continuous
100
AcDbLine
 10
-149.158585
 20
-131.926824
 30
0.0
 11
-149.158585
 21
-57.323432
 31
0.0
  0
LINE
  5
19E
100
AcDbEntity
  8
0
370
    -3
390
0
  6
Continuous
100
AcDbLine
 10
-319.158585
 20
-79.955562
 30
0.0
 11
-319.158585
 21
-174.523432
 31
0.0
  0
LINE
  5
19F
100
AcDbEntity
  8
0
370
    -3
390
0
  6
Continuous
100
AcDbLine
 10
-316.058585
 20
-74.586205
 30
0.0
 11
-300.360094
 21
-65.522677
 31
0.0
  0
LINE
  5
1A0
100
AcDbEntity
  8
0
370
    -3
390
0
  6
Continuous
100
AcDbLine
 10
-149.158585
 20
-57.323432
 30
0.0
 11
-269.760094
 21
-57.323432
 31
0.0
  0
ARC
  5
1A1
100
AcDbEntity
  8
0
370
    -3
390
0
  6
Continuous
100
AcDbCircle
 10
-269.760094
 20
-118.523432
 30
0.0
 40
61.2
100
AcDbArc
 50
90.0
 51
120.0
  0
ARC
  5
1A2
100
AcDbEntity
  8
0
370
    -3
390
0
  6
Continuous
100
AcDbCircle
 10
-312.958585
 20
-79.955562
 30
0.0
 40
6.2
100
AcDbArc
 50
120.0
 51
180.0
  0
LINE
  5
1A3
100
AcDbEntity
  8
0
370
    -3
390
0
  6
Continuous
100
AcDbLine
 10
-149.158585
 20
-235.529543
 30
0.0
 11
-149.158585
 21
-291.723432
 31
0.0
  0
LINE
  5
1A4
100
AcDbEntity
  8
0
370
    -3
390
0
  6
Continuous
100
AcDbLine
 10
-319.158585
 20
-269.091301
 30
0.0
 11
-319.158585
 21
-174.523432
 31
0.0
  0
LINE
  5
1A5
100
AcDbEntity
  8
0
370
    -3
390
0
  6
Continuous
100
AcDbLine
 10
-316.058585
 20
-274.460658
 30
0.0
 11
-300.360094
 21
-283.524186
 31
0.0
  0
LINE
  5
1A6
100
AcDbEntity
  8
0
370
    -3
390
0
  6
Continuous
100
AcDbLine
 10
-200.139106
 20
-174.523432
 30
0.0
 11
-200.139107
 21
-174.523432
 31
0.0
  0
LINE
  5
1A7
100
AcDbEntity
  8
0
370
    -3
390
0
  6
Continuous
100
AcDbLine
 10
-200.139106
 20
-174.523432
 30
0.0
 11
-200.139107
 21
-174.523432
 31
0.0
  0
LINE
  5
1A8
100
AcDbEntity
  8
0
370
    -3
390
0
  6
Continuous
100
AcDbLine
 10
-149.158585
 20
-291.723432
 30
0.0
 11
-269.760094
 21
-291.723432
 31
0.0
  0
ARC
  5
1A9
100
AcDbEntity
  8
0
370
    -3
390
0
  6
Continuous
100
AcDbCircle
 10
-269.760094
 20
-230.523432
 30
0.0
 40
61.2
100
AcDbArc
 50
240.0
 51
270.0
  0
ARC
  5
1AA
100
AcDbEntity
  8
0
370
    -3
390
0
  6
Continuous
100
AcDbCircle
 10
-312.958585
 20
-269.091301
 30
0.0
 40
6.2
100
AcDbArc
 50
180.0
 51
240.0
  0
LINE
  5
1AB
100
AcDbEntity
  8
0
370
    -3
390
0
  6
Continuous
100
AcDbLine
 10
386.741141
 20
-207.728634
 30
0.0
 11
374.218507
 21
-235.854933
 31
0.0
  0
LINE
  5
1AC
100
AcDbEntity
  8
0
370
    -3
390
0
  6
Continuous
100
AcDbLine
 10
376.3132
 20
-231.150173
 30
0.0
 11
380.150091
 21
-232.858467
 31
0.0
  0
LINE
  5
1AD
100
AcDbEntity
  8
0
370
    -3
390
0
  6
Continuous
100
AcDbLine
 10
377.655431
 20
-228.135473
 30
0.0
 11
381.492322
 21
-229.843767
 31
0.0
  0
LINE
  5
1AE
100
AcDbEntity
  8
0
370
    -3
390
0
  6
Continuous
100
AcDbLine
 10
381.314939
 20
-229.381669
 30
0.0
 11
381.492322
 21
-229.843767
 31
0.0
  0
LINE
  5
1AF
100
AcDbEntity
  8
0
370
    -3
390
0
  6
Continuous
100
AcDbLine
 10
379.687993
 20
-233.03585
 30
0.0
 11
380.150091
 21
-232.858467
 31
0.0
  0
LINE
  5
1B0
100
AcDbEntity
  8
0
370
    -3
390
0
  6
Continuous
100
AcDbLine
 10
381.492322
 20
-229.843767
 30
0.0
 11
380.150091
 21
-232.858467
 31
0.0
  0
POINT
  5
1B1
100
AcDbEntity
  8
0
370
    -3
390
0
  6
Continuous
100
AcDbPoint
 10
373.512843
 20
-228.097224
 30
0.0
  0
LINE
  5
1B2
100
AcDbEntity
  8
0
370
    -3
390
0
  6
Continuous
100
AcDbLine
 10
374.936421
 20
-224.899815
 30
0.0
 11
372.089265
 21
-231.294633
 31
0.0
  0
LINE
  5
1B3
100
AcDbEntity
  8
0
370
    -3
390
0
  6
Continuous
100
AcDbLine
 10
374.936421
 20
-224.899815
 30
0.0
 11
372.089265
 21
-231.294633
 31
0.0
  0
LINE
  5
1B4
100
AcDbEntity
  8
0
370
    -3
390
0
  6
Continuous
100
AcDbLine
 10
372.089265
 20
-231.294633
 30
0.0
 11
371.194881
 21
-230.896428
 31
0.0
  0
LINE
  5
1B5
100
AcDbEntity
  8
0
370
    -3
390
0
  6
Continuous
100
AcDbLine
 10
374.936421
 20
-224.899815
 30
0.0
 11
374.042037
 21
-224.50161
 31
0.0
  0
ARC
  5
1B6
100
AcDbEntity
  8
0
370
    -3
390
0
  6
Continuous
100
AcDbCircle
 10
373.51328
 20
-225.689218
 30
0.0
 40
1.299999
100
AcDbArc
 50
65.999999
 51
139.398469
  0
ARC
  5
1B7
100
AcDbEntity
  8
0
370
    -3
390
0
  6
Continuous
100
AcDbCircle
 10
973.241141
 20
-174.523432
 30
0.0
 40
600.0
100
AcDbArc
 50
178.317231
 51
184.715125
  0
ARC
  5
1B8
100
AcDbEntity
  8
0
370
    -3
390
0
  6
Continuous
100
AcDbCircle
 10
374.275092
 20
-223.926591
 30
0.0
 40
1.0
100
AcDbArc
 50
336.0
 51
4.715125
  0
LINE
  5
1B9
100
AcDbEntity
  8
0
370
    -3
390
0
  6
Continuous
100
AcDbLine
 10
386.741141
 20
-221.023432
 30
0.0
 11
380.821916
 21
-221.023432
 31
0.0
  0
LINE
  5
1BA
100
AcDbEntity
  8
0
370
    -3
390
0
  6
Continuous
100
AcDbLine
 10
371.660579
 20
-234.71607
 30
0.0
 11
374.218507
 21
-235.854933
 31
0.0
  0
ARC
  5
1BB
100
AcDbEntity
  8
0
370
    -3
390
0
  6
Continuous
100
AcDbCircle
 10
372.067316
 20
-233.802525
 30
0.0
 40
1.0
100
AcDbArc
 50
156.0
 51
246.0
  0
LINE
  5
1BC
100
AcDbEntity
  8
0
370
    -3
390
0
  6
Continuous
100
AcDbLine
 10
386.741141
 20
-198.38598
 30
0.0
 11
371.153771
 21
-233.395788
 31
0.0
  0
ARC
  5
1BD
100
AcDbEntity
  8
0
370
    -3
390
0
  6
Continuous
100
AcDbCircle
 10
375.446454
 20
-221.295669
 30
0.0
 40
1.0
100
AcDbArc
 50
336.0
 51
66.0
  0
ARC
  5
1BE
100
AcDbEntity
  8
0
370
    -3
390
0
  6
Continuous
100
AcDbCircle
 10
376.871128
 20
-218.646066
 30
0.0
 40
2.0
100
AcDbArc
 50
184.231338
 51
246.0
  0
LINE
  5
1BF
100
AcDbEntity
  8
0
370
    -3
390
0
  6
Continuous
100
AcDbLine
 10
377.797789
 20
-227.815733
 30
0.0
 11
381.314939
 21
-229.381669
 31
0.0
  0
LINE
  5
1C0
100
AcDbEntity
  8
0
370
    -3
390
0
  6
Continuous
100
AcDbLine
 10
376.170842
 20
-231.469914
 30
0.0
 11
379.687993
 21
-233.03585
 31
0.0
  0
ARC
  5
1C1
100
AcDbEntity
  8
0
370
    -3
390
0
  6
Continuous
100
AcDbCircle
 10
371.723638
 20
-229.708819
 30
0.0
 40
1.299999
100
AcDbArc
 50
172.601548
 51
246.000018
  0
ARC
  5
1C2
100
AcDbEntity
  8
0
370
    -3
390
0
  6
Continuous
100
AcDbCircle
 10
379.359534
 20
-230.700339
 30
0.0
 40
9.0
100
AcDbArc
 50
139.398469
 51
172.601548
  0
ARC
  5
1C3
100
AcDbEntity
  8
0
370
    -3
390
0
  6
Continuous
100
AcDbCircle
 10
388.49343
 20
-157.344536
 30
0.0
 40
15.0
100
AcDbArc
 50
96.708569
 51
178.317231
  0
LINE
  5
1C4
100
AcDbEntity
  8
0
370
    -3
390
0
  6
CENTER
100
AcDbLine
 10
370.587763
 20
-226.794895
 30
0.0
 11
381.139404
 21
-231.492788
 31
0.0
  0
ARC
  5
1C5
100
AcDbEntity
  8
0
370
    -3
390
0
  6
Continuous
100
AcDbCircle
 10
-169.208585
 20
-149.523432
 30
0.0
 40
5.0
100
AcDbArc
 50
90.0
 51
180.0
  0
LINE
  5
1C6
100
AcDbEntity
  8
0
370
    -3
390
0
  6
Continuous
100
AcDbLine
 10
-169.608585
 20
-131.926824
 30
0.0
 11
-134.158585
 21
-131.926824
 31
0.0
  0
ARC
  5
1C7
100
AcDbEntity
  8
0
370
    -3
390
0
  6
Continuous
100
AcDbCircle
 10
-169.608585
 20
-142.926824
 30
0.0
 40
11.0
100
AcDbArc
 50
90.0
 51
180.0
  0
LINE
  5
1C8
100
AcDbEntity
  8
0
370
    -3
390
0
  6
Continuous
100
AcDbLine
 10
-134.158585
 20
-138.021642
 30
0.0
 11
-169.208585
 21
-138.021642
 31
0.0
  0
ARC
  5
1C9
100
AcDbEntity
  8
0
370
    -3
390
0
  6
Continuous
100
AcDbCircle
 10
-169.208585
 20
-143.021642
 30
0.0
 40
5.0
100
AcDbArc
 50
90.0
 51
180.0
  0
LINE
  5
1CA
100
AcDbEntity
  8
0
370
    -3
390
0
  6
Continuous
100
AcDbLine
 10
-174.208585
 20
-143.021642
 30
0.0
 11
-174.208585
 21
-219.099386
 31
0.0
  0
LINE
  5
1CB
100
AcDbEntity
  8
0
370
    -3
390
0
  6
Continuous
100
AcDbLine
 10
-180.608585
 20
-142.926824
 30
0.0
 11
-180.608585
 21
-224.529543
 31
0.0
  0
LINE
  5
1CC
100
AcDbEntity
  8
0
370
    -3
390
0
  6
Continuous
100
AcDbLine
 10
-169.208585
 20
-144.523432
 30
0.0
 11
-99.108585
 21
-144.523432
 31
0.0
  0
LINE
  5
1CD
100
AcDbEntity
  8
0
370
    -3
390
0
  6
Continuous
100
AcDbLine
 10
-169.608585
 20
-235.529543
 30
0.0
 11
-134.158585
 21
-235.529543
 31
0.0
  0
LINE
  5
1CE
100
AcDbEntity
  8
0
370
    -3
390
0
  6
Continuous
100
AcDbLine
 10
-169.608585
 20
-234.309333
 30
0.0
 11
-134.158585
 21
-234.309333
 31
0.0
  0
ARC
  5
1CF
100
AcDbEntity
  8
0
370
    -3
390
0
  6
Continuous
100
AcDbCircle
 10
-169.608585
 20
-223.309333
 30
0.0
 40
11.0
100
AcDbArc
 50
180.0
 51
270.0
  0
ARC
  5
1D0
100
AcDbEntity
  8
0
370
    -3
390
0
  6
Continuous
100
AcDbCircle
 10
-169.608585
 20
-224.529543
 30
0.0
 40
11.0
100
AcDbArc
 50
180.0
 51
270.0
  0
LINE
  5
1D1
100
AcDbEntity
  8
0
370
    -3
390
0
  6
Continuous
100
AcDbLine
 10
-142.646059
 20
-224.099386
 30
0.0
 11
-169.208585
 21
-224.099386
 31
0.0
  0
ARC
  5
1D2
100
AcDbEntity
  8
0
370
    -3
390
0
  6
Continuous
100
AcDbCircle
 10
-169.208585
 20
-219.099386
 30
0.0
 40
5.0
100
AcDbArc
 50
180.0
 51
270.0
  0
ARC
  5
1D3
100
AcDbEntity
  8
0
370
    -3
390
0
  6
Continuous
100
AcDbCircle
 10
-124.898367
 20
-220.099386
 30
0.0
 40
4.0
100
AcDbArc
 50
221.178434
 51
270.0
  0
ELLIPSE
  5
1D4
100
AcDbEntity
  8
0
370
    -3
390
0
  6
Continuous
100
AcDbEllipse
 10
-134.158585
 20
-227.29552
 30
0.0
 11
8.0
 21
0.0
 31
0.0
210
0.0
220
0.0
230
1.0
 40
0.913545
 41
0.6742171987028656
 42
1.5707963267948966
  0
ARC
  5
1D5
100
AcDbEntity
  8
0
370
    -3
390
0
  6
Continuous
100
AcDbCircle
 10
-125.67111
 20
-220.099386
 30
0.0
 40
4.0
100
AcDbArc
 50
226.698421
 51
270.0
  0
ELLIPSE
  5
1D6
100
AcDbEntity
  8
0
370
    -3
390
0
  6
Continuous
100
AcDbEllipse
 10
-134.158585
 20
-228.097224
 30
0.0
 11
8.0
 21
0.0
 31
0.0
210
0.0
220
0.0
230
1.0
 40
0.913545
 41
0.7698500149202718
 42
1.5707963267948966
  0
ELLIPSE
  5
1D7
100
AcDbEntity
  8
0
370
    -3
390
0
  6
Continuous
100
AcDbEllipse
 10
-134.158585
 20
-227.841926
 30
0.0
 11
3.5
 21
0.0
 31
0.0
210
0.0
220
0.0
230
1.0
 40
0.986488
 41
0.0
 42
6.2831853071795862
  0
LINE
  5
1D8
100
AcDbEntity
  8
0
370
    -3
390
0
  6
Continuous
100
AcDbLine
 10
-136.158585
 20
-228.95833
 30
0.0
 11
-132.158585
 21
-225.304148
 31
0.0
  0
LINE
  5
1D9
100
AcDbEntity
  8
0
370
    -3
390
0
  6
Continuous
100
AcDbLine
 10
-132.158585
 20
-228.95833
 30
0.0
 11
-136.158585
 21
-225.304148
 31
0.0
  0
ELLIPSE
  5
1DA
100
AcDbEntity
  8
0
370
    -3
390
0
  6
Continuous
100
AcDbEllipse
 10
-134.158585
 20
-228.097224
 30
0.0
 11
8.0
 21
0.0
 31
0.0
210
0.0
220
0.0
230
1.0
 40
0.913545
 41
1.5707963267948966
 42
2.3717426386695215
  0
ARC
  5
1DB
100
AcDbEntity
  8
0
370
    -3
390
0
  6
Continuous
100
AcDbCircle
 10
-142.646059
 20
-220.099386
 30
0.0
 40
4.0
100
AcDbArc
 50
270.0
 51
313.301579
  0
ELLIPSE
  5
1DC
100
AcDbEntity
  8
0
370
    -3
390
0
  6
Continuous
100
AcDbEllipse
 10
-134.158585
 20
-227.29552
 30
0.0
 11
8.0
 21
0.0
 31
0.0
210
0.0
220
0.0
230
1.0
 40
0.913545
 41
1.5707963267948966
 42
2.4673754548869451
  0
ARC
  5
1DD
100
AcDbEntity
  8
0
370
    -3
390
0
  6
Continuous
100
AcDbCircle
 10
-143.418803
 20
-220.099386
 30
0.0
 40
4.0
100
AcDbArc
 50
270.0
 51
318.821566
  0
LINE
  5
1DE
100
AcDbEntity
  8
0
370
    -3
390
0
  6
Continuous
100
AcDbLine
 10
-125.67111
 20
-224.099386
 30
0.0
 11
-99.108585
 21
-224.099386
 31
0.0
  0
LINE
  5
1DF
100
AcDbEntity
  8
0
370
    -3
390
0
  6
CENTER
100
AcDbLine
 10
-134.158585
 20
-129.023832
 30
0.0
 11
-134.158585
 21
-241.677551
 31
0.0
  0
POINT
  5
1E0
100
AcDbEntity
  8
0
370
    -3
390
0
  6
CENTER
100
AcDbPoint
 10
-120.658585
 20
-234.309333
 30
0.0
  0
POINT
  5
1E1
100
AcDbEntity
  8
0
370
    -3
390
0
  6
CENTER
100
AcDbPoint
 10
-147.658585
 20
-234.309333
 30
0.0
  0
LINE
  5
1E2
100
AcDbEntity
  8
0
370
    -3
390
0
  6
Continuous
100
AcDbLine
 10
-98.708585
 20
-131.926824
 30
0.0
 11
-134.158585
 21
-131.926824
 31
0.0
  0
ARC
  5
1E3
100
AcDbEntity
  8
0
370
    -3
390
0
  6
Continuous
100
AcDbCircle
 10
-98.708585
 20
-142.926824
 30
0.0
 40
11.0
100
AcDbArc
 50
0.0
 51
90.0
  0
ARC
  5
1E4
100
AcDbEntity
  8
0
370
    -3
390
0
  6
Continuous
100
AcDbCircle
 10
-99.108585
 20
-149.523432
 30
0.0
 40
5.0
100
AcDbArc
 50
0.0
 51
90.0
  0
ARC
  5
1E5
100
AcDbEntity
  8
0
370
    -3
390
0
  6
Continuous
100
AcDbCircle
 10
-99.108585
 20
-143.021642
 30
0.0
 40
5.0
100
AcDbArc
 50
0.0
 51
90.0
  0
LINE
  5
1E6
100
AcDbEntity
  8
0
370
    -3
390
0
  6
Continuous
100
AcDbLine
 10
-134.158585
 20
-138.021642
 30
0.0
 11
-99.108585
 21
-138.021642
 31
0.0
  0
LINE
  5
1E7
100
AcDbEntity
  8
0
370
    -3
390
0
  6
Continuous
100
AcDbLine
 10
-94.108585
 20
-143.021642
 30
0.0
 11
-94.108585
 21
-219.099386
 31
0.0
  0
LINE
  5
1E8
100
AcDbEntity
  8
0
370
    -3
390
0
  6
Continuous
100
AcDbLine
 10
-87.708585
 20
-142.926824
 30
0.0
 11
-87.708585
 21
-224.529543
 31
0.0
  0
LINE
  5
1E9
100
AcDbEntity
  8
0
370
    -3
390
0
  6
Continuous
100
AcDbLine
 10
-98.708585
 20
-235.529543
 30
0.0
 11
-134.158585
 21
-235.529543
 31
0.0
  0
LINE
  5
1EA
100
AcDbEntity
  8
0
370
    -3
390
0
  6
Continuous
100
AcDbLine
 10
-98.708585
 20
-234.309333
 30
0.0
 11
-134.158585
 21
-234.309333
 31
0.0
  0
ARC
  5
1EB
100
AcDbEntity
  8
0
370
    -3
390
0
  6
Continuous
100
AcDbCircle
 10
-98.708585
 20
-224.529543
 30
0.0
 40
11.0
100
AcDbArc
 50
270.0
 51
0.0
  0
ARC
  5
1EC
100
AcDbEntity
  8
0
370
    -3
390
0
  6
Continuous
100
AcDbCircle
 10
-98.708585
 20
-223.309333
 30
0.0
 40
11.0
100
AcDbArc
 50
270.0
 51
0.0
  0
ARC
  5
1ED
100
AcDbEntity
  8
0
370
    -3
390
0
  6
Continuous
100
AcDbCircle
 10
-99.108585
 20
-219.099386
 30
0.0
 40
5.0
100
AcDbArc
 50
270.0
 51
0.0
  0
LINE
  5
1EE
100
AcDbEntity
  8
0
370
    -3
390
0
  6
CENTER
100
AcDbLine
 10
-134.158585
 20
111.922829
 30
0.0
 11
-134.158585
 21
48.280167
 31
0.0
  0
ARC
  5
1EF
100
AcDbEntity
  8
0
370
    -3
390
0
  6
Continuous
100
AcDbCircle
 10
-536.057104
 20
-174.523432
 30
0.0
 40
105.147
100
AcDbArc
 50
126.942477
 51
135.0
  0
ARC
  5
1F0
100
AcDbEntity
  8
0
370
    -3
390
0
  6
Continuous
100
AcDbCircle
 10
-536.057104
 20
-558.523432
 30
0.0
 40
482.147
100
AcDbArc
 50
90.0
 51
93.154724
  0
ARC
  5
1F1
100
AcDbEntity
  8
0
370
    -3
390
0
  6
Continuous
100
AcDbCircle
 10
-558.895595
 20
-144.152338
 30
0.0
 40
67.147
100
AcDbArc
 50
93.154724
 51
126.942477
  0
ARC
  5
1F2
100
AcDbEntity
  8
0
370
    -3
390
0
  6
Continuous
100
AcDbCircle
 10
-536.057104
 20
-174.523432
 30
0.0
 40
105.147
100
AcDbArc
 50
135.0
 51
143.057523
  0
ARC
  5
1F3
100
AcDbEntity
  8
0
370
    -3
390
0
  6
Continuous
100
AcDbCircle
 10
-566.428198
 20
-151.684941
 30
0.0
 40
67.147
100
AcDbArc
 50
143.057523
 51
176.845276
  0
ARC
  5
1F4
100
AcDbEntity
  8
0
370
    -3
390
0
  6
Continuous
100
AcDbCircle
 10
-152.057104
 20
-174.523432
 30
0.0
 40
482.147
100
AcDbArc
 50
176.845276
 51
180.0
  0
ARC
  5
1F5
100
AcDbEntity
  8
0
370
    -3
390
0
  6
Continuous
100
AcDbCircle
 10
-152.057104
 20
-174.523432
 30
0.0
 40
482.147
100
AcDbArc
 50
180.0
 51
183.154724
  0
ARC
  5
1F6
100
AcDbEntity
  8
0
370
    -3
390
0
  6
Continuous
100
AcDbCircle
 10
-566.428198
 20
-197.361922
 30
0.0
 40
67.147
100
AcDbArc
 50
183.154724
 51
216.942477
  0
ARC
  5
1F7
100
AcDbEntity
  8
0
370
    -3
390
0
  6
Continuous
100
AcDbCircle
 10
-536.057104
 20
-174.523432
 30
0.0
 40
105.147
100
AcDbArc
 50
216.942477
 51
225.0
  0
ARC
  5
1F8
100
AcDbEntity
  8
0
370
    -3
390
0
  6
Continuous
100
AcDbCircle
 10
-536.057104
 20
-174.523432
 30
0.0
 40
105.147
100
AcDbArc
 50
225.0
 51
233.057523
  0
ARC
  5
1F9
100
AcDbEntity
  8
0
370
    -3
390
0
  6
Continuous
100
AcDbCircle
 10
-558.895595
 20
-204.894525
 30
0.0
 40
67.147
100
AcDbArc
 50
233.057523
 51
266.845276
  0
ARC
  5
1FA
100
AcDbEntity
  8
0
370
    -3
390
0
  6
Continuous
100
AcDbCircle
 10
-536.057104
 20
209.476568
 30
0.0
 40
482.147
100
AcDbArc
 50
266.845276
 51
270.0
  0
ARC
  5
1FB
100
AcDbEntity
  8
0
370
    -3
390
0
  6
Continuous
100
AcDbCircle
 10
-536.057104
 20
-174.523432
 30
0.0
 40
70.5
100
AcDbArc
 50
215.952487
 51
264.900311
  0
ARC
  5
1FC
100
AcDbEntity
  8
0
370
    -3
390
0
  6
Continuous
100
AcDbCircle
 10
-590.698634
 20
-214.153637
 30
0.0
 40
3.0
100
AcDbArc
 50
120.0
 51
215.952487
  0
ARC
  5
1FD
100
AcDbEntity
  8
0
370
    -3
390
0
  6
Continuous
100
AcDbCircle
 10
-564.462237
 20
-199.006046
 30
0.0
 40
3.0
100
AcDbArc
 50
120.0
 51
220.758318
  0
ARC
  5
1FE
100
AcDbEntity
  8
0
370
    -3
390
0
  6
Continuous
100
AcDbCircle
 10
-536.057104
 20
-174.523432
 30
0.0
 40
40.5
100
AcDbArc
 50
220.758318
 51
260.793104
  0
ARC
  5
1FF
100
AcDbEntity
  8
0
370
    -3
390
0
  6
Continuous
100
AcDbCircle
 10
-542.057104
 20
-211.54032
 30
0.0
 40
3.0
100
AcDbArc
 50
260.793104
 51
0.0
  0
ARC
  5
200
100
AcDbEntity
  8
0
370
    -3
390
0
  6
Continuous
100
AcDbCircle
 10
-542.057104
 20
-222.650867
 30
0.0
 40
3.0
100
AcDbArc
 50
0.0
 51
82.893657
  0
ARC
  5
201
100
AcDbEntity
  8
0
370
    -3
390
0
  6
Continuous
100
AcDbCircle
 10
-536.057104
 20
-174.523432
 30
0.0
 40
45.5
100
AcDbArc
 50
218.298477
 51
262.893657
  0
ARC
  5
202
100
AcDbEntity
  8
0
370
    -3
390
0
  6
Continuous
100
AcDbCircle
 10
-574.119557
 20
-204.581703
 30
0.0
 40
3.0
100
AcDbArc
 50
38.298477
 51
120.0
  0
LINE
  5
203
100
AcDbEntity
  8
0
370
    -3
390
0
  6
Continuous
100
AcDbLine
 10
-575.619557
 20
-201.983627
 30
0.0
 11
-579.11748
 21
-204.003153
 31
0.0
  0
ARC
  5
204
100
AcDbEntity
  8
0
370
    -3
390
0
  6
Continuous
100
AcDbCircle
 10
-577.61748
 20
-206.60123
 30
0.0
 40
3.0
100
AcDbArc
 50
120.0
 51
217.662256
  0
LINE
  5
205
100
AcDbEntity
  8
0
370
    -3
390
0
  6
Continuous
100
AcDbLine
 10
-539.057104
 20
-222.650867
 30
0.0
 11
-539.057104
 21
-226.679447
 31
0.0
  0
ARC
  5
206
100
AcDbEntity
  8
0
370
    -3
390
0
  6
Continuous
100
AcDbCircle
 10
-536.057104
 20
-174.523432
 30
0.0
 40
55.5
100
AcDbArc
 50
217.662256
 51
263.437572
  0
ARC
  5
207
100
AcDbEntity
  8
0
370
    -3
390
0
  6
Continuous
100
AcDbCircle
 10
-542.057104
 20
-226.679447
 30
0.0
 40
3.0
100
AcDbArc
 50
263.437572
 51
0.0
  0
ARC
  5
208
100
AcDbEntity
  8
0
370
    -3
390
0
  6
Continuous
100
AcDbCircle
 10
-542.057104
 20
-237.739331
 30
0.0
 40
3.0
100
AcDbArc
 50
0.0
 51
84.578137
  0
ARC
  5
209
100
AcDbEntity
  8
0
370
    -3
390
0
  6
Continuous
100
AcDbCircle
 10
-536.057104
 20
-174.523432
 30
0.0
 40
60.5
100
AcDbArc
 50
216.328933
 51
264.578137
  0
ARC
  5
20A
100
AcDbEntity
  8
0
370
    -3
390
0
  6
Continuous
100
AcDbCircle
 10
-587.21456
 20
-212.142106
 30
0.0
 40
3.0
100
AcDbArc
 50
36.328933
 51
120.0
  0
LINE
  5
20B
100
AcDbEntity
  8
0
370
    -3
390
0
  6
Continuous
100
AcDbLine
 10
-539.057104
 20
-237.739331
 30
0.0
 11
-539.057104
 21
-241.756236
 31
0.0
  0
ARC
  5
20C
100
AcDbEntity
  8
0
370
    -3
390
0
  6
Continuous
100
AcDbCircle
 10
-542.057104
 20
-241.756236
 30
0.0
 40
3.0
100
AcDbArc
 50
264.900311
 51
0.0
  0
LINE
  5
20D
100
AcDbEntity
  8
0
370
    -3
390
0
  6
Continuous
100
AcDbLine
 10
-588.71456
 20
-209.54403
 30
0.0
 11
-592.198634
 21
-211.555561
 31
0.0
  0
ARC
  5
20E
100
AcDbEntity
  8
0
370
    -3
390
0
  6
Continuous
100
AcDbCircle
 10
-542.057104
 20
-192.023432
 30
0.0
 40
3.0
100
AcDbArc
 50
0.0
 51
71.075356
  0
ARC
  5
20F
100
AcDbEntity
  8
0
370
    -3
390
0
  6
Continuous
100
AcDbCircle
 10
-547.387394
 20
-189.147881
 30
0.0
 40
3.0
100
AcDbArc
 50
52.233272
 51
120.0
  0
ARC
  5
210
100
AcDbEntity
  8
0
370
    -3
390
0
  6
Continuous
100
AcDbCircle
 10
-536.057104
 20
-174.523432
 30
0.0
 40
15.5
100
AcDbArc
 50
232.233272
 51
251.075356
  0
LINE
  5
211
100
AcDbEntity
  8
0
370
    -3
390
0
  6
Continuous
100
AcDbLine
 10
-539.057104
 20
-192.023432
 30
0.0
 11
-539.057104
 21
-196.20868
 31
0.0
  0
ARC
  5
212
100
AcDbEntity
  8
0
370
    -3
390
0
  6
Continuous
100
AcDbCircle
 10
-542.057104
 20
-196.20868
 30
0.0
 40
3.0
100
AcDbArc
 50
254.53399
 51
0.0
  0
LINE
  5
213
100
AcDbEntity
  8
0
370
    -3
390
0
  6
Continuous
100
AcDbLine
 10
-548.887394
 20
-186.549805
 30
0.0
 11
-552.575676
 21
-188.679236
 31
0.0
  0
ARC
  5
214
100
AcDbEntity
  8
0
370
    -3
390
0
  6
Continuous
100
AcDbCircle
 10
-536.057104
 20
-174.523432
 30
0.0
 40
25.5
100
AcDbArc
 50
228.126204
 51
254.53399
  0
ARC
  5
215
100
AcDbEntity
  8
0
370
    -3
390
0
  6
Continuous
100
AcDbCircle
 10
-551.075676
 20
-191.277312
 30
0.0
 40
3.0
100
AcDbArc
 50
120.0
 51
228.126204
  0
ARC
  5
216
100
AcDbEntity
  8
0
370
    -3
390
0
  6
Continuous
100
AcDbCircle
 10
-542.057104
 20
-207.481739
 30
0.0
 40
3.0
100
AcDbArc
 50
0.0
 51
79.682397
  0
ARC
  5
217
100
AcDbEntity
  8
0
370
    -3
390
0
  6
Continuous
100
AcDbCircle
 10
-536.057104
 20
-174.523432
 30
0.0
 40
30.5
100
AcDbArc
 50
222.061133
 51
259.682397
  0
ARC
  5
218
100
AcDbEntity
  8
0
370
    -3
390
0
  6
Continuous
100
AcDbCircle
 10
-560.928524
 20
-196.965857
 30
0.0
 40
3.0
100
AcDbArc
 50
42.061133
 51
120.0
  0
LINE
  5
219
100
AcDbEntity
  8
0
370
    -3
390
0
  6
Continuous
100
AcDbLine
 10
-562.428524
 20
-194.36778
 30
0.0
 11
-565.962237
 21
-196.40797
 31
0.0
  0
LINE
  5
21A
100
AcDbEntity
  8
0
370
    -3
390
0
  6
Continuous
100
AcDbLine
 10
-539.057104
 20
-207.481739
 30
0.0
 11
-539.057104
 21
-211.54032
 31
0.0
  0
ARC
  5
21B
100
AcDbEntity
  8
0
370
    -3
390
0
  6
Continuous
100
AcDbCircle
 10
-536.057104
 20
-174.523432
 30
0.0
 40
70.5
100
AcDbArc
 50
155.099689
 51
204.047513
  0
ARC
  5
21C
100
AcDbEntity
  8
0
370
    -3
390
0
  6
Continuous
100
AcDbCircle
 10
-597.698634
 20
-202.029282
 30
0.0
 40
3.0
100
AcDbArc
 50
204.047513
 51
300.0
  0
ARC
  5
21D
100
AcDbEntity
  8
0
370
    -3
390
0
  6
Continuous
100
AcDbCircle
 10
-571.462237
 20
-186.881691
 30
0.0
 40
3.0
100
AcDbArc
 50
199.241682
 51
300.0
  0
ARC
  5
21E
100
AcDbEntity
  8
0
370
    -3
390
0
  6
Continuous
100
AcDbCircle
 10
-536.057104
 20
-174.523432
 30
0.0
 40
40.5
100
AcDbArc
 50
159.206896
 51
199.241682
  0
ARC
  5
21F
100
AcDbEntity
  8
0
370
    -3
390
0
  6
Continuous
100
AcDbCircle
 10
-571.114669
 20
-161.21114
 30
0.0
 40
3.0
100
AcDbArc
 50
60.0
 51
159.206896
  0
ARC
  5
220
100
AcDbEntity
  8
0
370
    -3
390
0
  6
Continuous
100
AcDbCircle
 10
-580.736685
 20
-155.655866
 30
0.0
 40
3.0
100
AcDbArc
 50
337.106343
 51
60.0
  0
ARC
  5
221
100
AcDbEntity
  8
0
370
    -3
390
0
  6
Continuous
100
AcDbCircle
 10
-536.057104
 20
-174.523432
 30
0.0
 40
45.5
100
AcDbArc
 50
157.106343
 51
201.701523
  0
ARC
  5
222
100
AcDbEntity
  8
0
370
    -3
390
0
  6
Continuous
100
AcDbCircle
 10
-581.119557
 20
-192.457347
 30
0.0
 40
3.0
100
AcDbArc
 50
300.0
 51
21.701523
  0
LINE
  5
223
100
AcDbEntity
  8
0
370
    -3
390
0
  6
Continuous
100
AcDbLine
 10
-579.619557
 20
-195.055423
 30
0.0
 11
-583.11748
 21
-197.07495
 31
0.0
  0
ARC
  5
224
100
AcDbEntity
  8
0
370
    -3
390
0
  6
Continuous
100
AcDbCircle
 10
-584.61748
 20
-194.476874
 30
0.0
 40
3.0
100
AcDbArc
 50
202.337744
 51
300.0
  0
LINE
  5
225
100
AcDbEntity
  8
0
370
    -3
390
0
  6
Continuous
100
AcDbLine
 10
-579.236685
 20
-153.05779
 30
0.0
 11
-582.725539
 21
-151.0435
 31
0.0
  0
ARC
  5
226
100
AcDbEntity
  8
0
370
    -3
390
0
  6
Continuous
100
AcDbCircle
 10
-536.057104
 20
-174.523432
 30
0.0
 40
55.5
100
AcDbArc
 50
156.562428
 51
202.337744
  0
ARC
  5
227
100
AcDbEntity
  8
0
370
    -3
390
0
  6
Continuous
100
AcDbCircle
 10
-584.225539
 20
-153.641576
 30
0.0
 40
3.0
100
AcDbArc
 50
60.0
 51
156.562428
  0
ARC
  5
228
100
AcDbEntity
  8
0
370
    -3
390
0
  6
Continuous
100
AcDbCircle
 10
-593.803679
 20
-148.111634
 30
0.0
 40
3.0
100
AcDbArc
 50
335.421863
 51
60.0
  0
ARC
  5
229
100
AcDbEntity
  8
0
370
    -3
390
0
  6
Continuous
100
AcDbCircle
 10
-536.057104
 20
-174.523432
 30
0.0
 40
60.5
100
AcDbArc
 50
155.421863
 51
203.671067
  0
ARC
  5
22A
100
AcDbEntity
  8
0
370
    -3
390
0
  6
Continuous
100
AcDbCircle
 10
-594.21456
 20
-200.017751
 30
0.0
 40
3.0
100
AcDbArc
 50
300.0
 51
23.671067
  0
LINE
  5
22B
100
AcDbEntity
  8
0
370
    -3
390
0
  6
Continuous
100
AcDbLine
 10
-592.303679
 20
-145.513558
 30
0.0
 11
-595.782421
 21
-143.505105
 31
0.0
  0
ARC
  5
22C
100
AcDbEntity
  8
0
370
    -3
390
0
  6
Continuous
100
AcDbCircle
 10
-597.282421
 20
-146.103182
 30
0.0
 40
3.0
100
AcDbArc
 50
60.0
 51
155.099689
  0
LINE
  5
22D
100
AcDbEntity
  8
0
370
    -3
390
0
  6
Continuous
100
AcDbLine
 10
-592.71456
 20
-202.615827
 30
0.0
 11
-596.198634
 21
-204.627358
 31
0.0
  0
ARC
  5
22E
100
AcDbEntity
  8
0
370
    -3
390
0
  6
Continuous
100
AcDbCircle
 10
-554.212549
 20
-170.969584
 30
0.0
 40
3.0
100
AcDbArc
 50
348.924644
 51
60.0
  0
ARC
  5
22F
100
AcDbEntity
  8
0
370
    -3
390
0
  6
Continuous
100
AcDbCircle
 10
-554.387394
 20
-177.023526
 30
0.0
 40
3.0
100
AcDbArc
 50
300.0
 51
7.766728
  0
ARC
  5
230
100
AcDbEntity
  8
0
370
    -3
390
0
  6
Continuous
100
AcDbCircle
 10
-536.057104
 20
-174.523432
 30
0.0
 40
15.5
100
AcDbArc
 50
168.924644
 51
187.766728
  0
LINE
  5
231
100
AcDbEntity
  8
0
370
    -3
390
0
  6
Continuous
100
AcDbLine
 10
-552.712549
 20
-168.371508
 30
0.0
 11
-556.33708
 21
-166.278884
 31
0.0
  0
ARC
  5
232
100
AcDbEntity
  8
0
370
    -3
390
0
  6
Continuous
100
AcDbCircle
 10
-557.83708
 20
-168.87696
 30
0.0
 40
3.0
100
AcDbArc
 50
60.0
 51
165.46601
  0
LINE
  5
233
100
AcDbEntity
  8
0
370
    -3
390
0
  6
Continuous
100
AcDbLine
 10
-552.887394
 20
-179.621602
 30
0.0
 11
-556.575676
 21
-181.751032
 31
0.0
  0
ARC
  5
234
100
AcDbEntity
  8
0
370
    -3
390
0
  6
Continuous
100
AcDbCircle
 10
-536.057104
 20
-174.523432
 30
0.0
 40
25.5
100
AcDbArc
 50
165.46601
 51
191.873796
  0
ARC
  5
235
100
AcDbEntity
  8
0
370
    -3
390
0
  6
Continuous
100
AcDbCircle
 10
-558.075676
 20
-179.152956
 30
0.0
 40
3.0
100
AcDbArc
 50
191.873796
 51
300.0
  0
ARC
  5
236
100
AcDbEntity
  8
0
370
    -3
390
0
  6
Continuous
100
AcDbCircle
 10
-567.599835
 20
-163.24043
 30
0.0
 40
3.0
100
AcDbArc
 50
340.317603
 51
60.0
  0
ARC
  5
237
100
AcDbEntity
  8
0
370
    -3
390
0
  6
Continuous
100
AcDbCircle
 10
-536.057104
 20
-174.523432
 30
0.0
 40
30.5
100
AcDbArc
 50
160.317603
 51
197.938867
  0
ARC
  5
238
100
AcDbEntity
  8
0
370
    -3
390
0
  6
Continuous
100
AcDbCircle
 10
-567.928524
 20
-184.841501
 30
0.0
 40
3.0
100
AcDbArc
 50
300.0
 51
17.938867
  0
LINE
  5
239
100
AcDbEntity
  8
0
370
    -3
390
0
  6
Continuous
100
AcDbLine
 10
-566.428524
 20
-187.439577
 30
0.0
 11
-569.962237
 21
-189.479767
 31
0.0
  0
LINE
  5
23A
100
AcDbEntity
  8
0
370
    -3
390
0
  6
Continuous
100
AcDbLine
 10
-566.099835
 20
-160.642354
 30
0.0
 11
-569.614669
 21
-158.613064
 31
0.0
  0
ARC
  5
23B
100
AcDbEntity
  8
0
370
    -3
390
0
  6
Continuous
100
AcDbCircle
 10
-536.057104
 20
-174.523432
 30
0.0
 40
70.5
100
AcDbArc
 50
95.952487
 51
144.900311
  0
ARC
  5
23C
100
AcDbEntity
  8
0
370
    -3
390
0
  6
Continuous
100
AcDbCircle
 10
-543.057104
 20
-107.387376
 30
0.0
 40
3.0
100
AcDbArc
 50
0.0
 51
95.952487
  0
ARC
  5
23D
100
AcDbEntity
  8
0
370
    -3
390
0
  6
Continuous
100
AcDbCircle
 10
-543.057104
 20
-137.682557
 30
0.0
 40
3.0
100
AcDbArc
 50
360.0
 51
100.758318
  0
ARC
  5
23E
100
AcDbEntity
  8
0
370
    -3
390
0
  6
Continuous
100
AcDbCircle
 10
-536.057104
 20
-174.523432
 30
0.0
 40
40.5
100
AcDbArc
 50
100.758318
 51
140.793104
  0
ARC
  5
23F
100
AcDbEntity
  8
0
370
    -3
390
0
  6
Continuous
100
AcDbCircle
 10
-565.114669
 20
-150.818835
 30
0.0
 40
3.0
100
AcDbArc
 50
140.793104
 51
240.0
  0
ARC
  5
240
100
AcDbEntity
  8
0
370
    -3
390
0
  6
Continuous
100
AcDbCircle
 10
-574.736685
 20
-145.263562
 30
0.0
 40
3.0
100
AcDbArc
 50
240.0
 51
322.893657
  0
ARC
  5
241
100
AcDbEntity
  8
0
370
    -3
390
0
  6
Continuous
100
AcDbCircle
 10
-536.057104
 20
-174.523432
 30
0.0
 40
45.5
100
AcDbArc
 50
98.298477
 51
142.893657
  0
ARC
  5
242
100
AcDbEntity
  8
0
370
    -3
390
0
  6
Continuous
100
AcDbCircle
 10
-543.057104
 20
-126.531245
 30
0.0
 40
3.0
100
AcDbArc
 50
278.298477
 51
0.0
  0
LINE
  5
243
100
AcDbEntity
  8
0
370
    -3
390
0
  6
Continuous
100
AcDbLine
 10
-540.057104
 20
-126.531245
 30
0.0
 11
-540.057104
 21
-122.492191
 31
0.0
  0
ARC
  5
244
100
AcDbEntity
  8
0
370
    -3
390
0
  6
Continuous
100
AcDbCircle
 10
-543.057104
 20
-122.492191
 30
0.0
 40
3.0
100
AcDbArc
 50
0.0
 51
97.662256
  0
LINE
  5
245
100
AcDbEntity
  8
0
370
    -3
390
0
  6
Continuous
100
AcDbLine
 10
-576.236685
 20
-147.861638
 30
0.0
 11
-579.725539
 21
-145.847347
 31
0.0
  0
ARC
  5
246
100
AcDbEntity
  8
0
370
    -3
390
0
  6
Continuous
100
AcDbCircle
 10
-536.057104
 20
-174.523432
 30
0.0
 40
55.5
100
AcDbArc
 50
97.662256
 51
143.437572
  0
ARC
  5
247
100
AcDbEntity
  8
0
370
    -3
390
0
  6
Continuous
100
AcDbCircle
 10
-578.225539
 20
-143.249271
 30
0.0
 40
3.0
100
AcDbArc
 50
143.437572
 51
240.0
  0
ARC
  5
248
100
AcDbEntity
  8
0
370
    -3
390
0
  6
Continuous
100
AcDbCircle
 10
-587.803679
 20
-137.719329
 30
0.0
 40
3.0
100
AcDbArc
 50
240.0
 51
324.578137
  0
ARC
  5
249
100
AcDbEntity
  8
0
370
    -3
390
0
  6
Continuous
100
AcDbCircle
 10
-536.057104
 20
-174.523432
 30
0.0
 40
60.5
100
AcDbArc
 50
96.328933
 51
144.578137
  0
ARC
  5
24A
100
AcDbEntity
  8
0
370
    -3
390
0
  6
Continuous
100
AcDbCircle
 10
-543.057104
 20
-111.410438
 30
0.0
 40
3.0
100
AcDbArc
 50
276.328933
 51
0.0
  0
LINE
  5
24B
100
AcDbEntity
  8
0
370
    -3
390
0
  6
Continuous
100
AcDbLine
 10
-589.303679
 20
-140.317405
 30
0.0
 11
-592.782421
 21
-138.308953
 31
0.0
  0
ARC
  5
24C
100
AcDbEntity
  8
0
370
    -3
390
0
  6
Continuous
100
AcDbCircle
 10
-591.282421
 20
-135.710877
 30
0.0
 40
3.0
100
AcDbArc
 50
144.900311
 51
240.0
  0
LINE
  5
24D
100
AcDbEntity
  8
0
370
    -3
390
0
  6
Continuous
100
AcDbLine
 10
-540.057104
 20
-111.410438
 30
0.0
 11
-540.057104
 21
-107.387376
 31
0.0
  0
ARC
  5
24E
100
AcDbEntity
  8
0
370
    -3
390
0
  6
Continuous
100
AcDbCircle
 10
-548.212549
 20
-160.577279
 30
0.0
 40
3.0
100
AcDbArc
 50
240.0
 51
311.075356
  0
ARC
  5
24F
100
AcDbEntity
  8
0
370
    -3
390
0
  6
Continuous
100
AcDbCircle
 10
-543.057104
 20
-157.398888
 30
0.0
 40
3.0
100
AcDbArc
 50
292.233272
 51
0.0
  0
ARC
  5
250
100
AcDbEntity
  8
0
370
    -3
390
0
  6
Continuous
100
AcDbCircle
 10
-536.057104
 20
-174.523432
 30
0.0
 40
15.5
100
AcDbArc
 50
112.233272
 51
131.075356
  0
LINE
  5
251
100
AcDbEntity
  8
0
370
    -3
390
0
  6
Continuous
100
AcDbLine
 10
-549.712549
 20
-163.175355
 30
0.0
 11
-553.33708
 21
-161.082731
 31
0.0
  0
ARC
  5
252
100
AcDbEntity
  8
0
370
    -3
390
0
  6
Continuous
100
AcDbCircle
 10
-551.83708
 20
-158.484655
 30
0.0
 40
3.0
100
AcDbArc
 50
134.53399
 51
240.0
  0
LINE
  5
253
100
AcDbEntity
  8
0
370
    -3
390
0
  6
Continuous
100
AcDbLine
 10
-540.057104
 20
-157.398888
 30
0.0
 11
-540.057104
 21
-153.140027
 31
0.0
  0
ARC
  5
254
100
AcDbEntity
  8
0
370
    -3
390
0
  6
Continuous
100
AcDbCircle
 10
-536.057104
 20
-174.523432
 30
0.0
 40
25.5
100
AcDbArc
 50
108.126204
 51
134.53399
  0
ARC
  5
255
100
AcDbEntity
  8
0
370
    -3
390
0
  6
Continuous
100
AcDbCircle
 10
-543.057104
 20
-153.140027
 30
0.0
 40
3.0
100
AcDbArc
 50
0.0
 51
108.126204
  0
ARC
  5
256
100
AcDbEntity
  8
0
370
    -3
390
0
  6
Continuous
100
AcDbCircle
 10
-561.599835
 20
-152.848126
 30
0.0
 40
3.0
100
AcDbArc
 50
240.0
 51
319.682397
  0
ARC
  5
257
100
AcDbEntity
  8
0
370
    -3
390
0
  6
Continuous
100
AcDbCircle
 10
-536.057104
 20
-174.523432
 30
0.0
 40
30.5
100
AcDbArc
 50
102.061133
 51
139.682397
  0
ARC
  5
258
100
AcDbEntity
  8
0
370
    -3
390
0
  6
Continuous
100
AcDbCircle
 10
-543.057104
 20
-141.762937
 30
0.0
 40
3.0
100
AcDbArc
 50
282.061133
 51
0.0
  0
LINE
  5
259
100
AcDbEntity
  8
0
370
    -3
390
0
  6
Continuous
100
AcDbLine
 10
-540.057104
 20
-141.762937
 30
0.0
 11
-540.057104
 21
-137.682557
 31
0.0
  0
LINE
  5
25A
100
AcDbEntity
  8
0
370
    -3
390
0
  6
Continuous
100
AcDbLine
 10
-563.099835
 20
-155.446202
 30
0.0
 11
-566.614669
 21
-153.416911
 31
0.0
  0
ARC
  5
25B
100
AcDbEntity
  8
0
370
    -3
390
0
  6
Continuous
100
AcDbCircle
 10
-536.057104
 20
209.476568
 30
0.0
 40
501.2
100
AcDbArc
 50
266.845276
 51
270.0
  0
ARC
  5
25C
100
AcDbEntity
  8
0
370
    -3
390
0
  6
Continuous
100
AcDbCircle
 10
-558.895595
 20
-204.894525
 30
0.0
 40
86.2
100
AcDbArc
 50
233.057523
 51
266.845276
  0
ARC
  5
25D
100
AcDbEntity
  8
0
370
    -3
390
0
  6
Continuous
100
AcDbCircle
 10
-536.057104
 20
-174.523432
 30
0.0
 40
124.2
100
AcDbArc
 50
225.0
 51
233.057523
  0
ARC
  5
25E
100
AcDbEntity
  8
0
370
    -3
390
0
  6
Continuous
100
AcDbCircle
 10
-152.057104
 20
-174.523432
 30
0.0
 40
501.2
100
AcDbArc
 50
180.0
 51
183.154724
  0
ARC
  5
25F
100
AcDbEntity
  8
0
370
    -3
390
0
  6
Continuous
100
AcDbCircle
 10
-566.428198
 20
-197.361922
 30
0.0
 40
86.2
100
AcDbArc
 50
183.154724
 51
216.942477
  0
ARC
  5
260
100
AcDbEntity
  8
0
370
    -3
390
0
  6
Continuous
100
AcDbCircle
 10
-536.057104
 20
-174.523432
 30
0.0
 40
124.2
100
AcDbArc
 50
216.942477
 51
225.0
  0
ARC
  5
261
100
AcDbEntity
  8
0
370
    -3
390
0
  6
Continuous
100
AcDbCircle
 10
-152.057104
 20
-174.523432
 30
0.0
 40
501.2
100
AcDbArc
 50
176.845276
 51
180.0
  0
ARC
  5
262
100
AcDbEntity
  8
0
370
    -3
390
0
  6
Continuous
100
AcDbCircle
 10
-566.428198
 20
-151.684941
 30
0.0
 40
86.2
100
AcDbArc
 50
143.057523
 51
176.845276
  0
ARC
  5
263
100
AcDbEntity
  8
0
370
    -3
390
0
  6
Continuous
100
AcDbCircle
 10
-536.057104
 20
-558.523432
 30
0.0
 40
501.2
100
AcDbArc
 50
90.0
 51
93.154724
  0
ARC
  5
264
100
AcDbEntity
  8
0
370
    -3
390
0
  6
Continuous
100
AcDbCircle
 10
-558.895595
 20
-144.152338
 30
0.0
 40
86.2
100
AcDbArc
 50
93.154724
 51
126.942477
  0
ARC
  5
265
100
AcDbEntity
  8
0
370
    -3
390
0
  6
Continuous
100
AcDbCircle
 10
-536.057104
 20
-174.523432
 30
0.0
 40
7.5
100
AcDbArc
 50
90.0
 51
270.0
  0
ARC
  5
266
100
AcDbEntity
  8
0
370
    -3
390
0
  6
Continuous
100
AcDbCircle
 10
-536.057104
 20
-174.523432
 30
0.0
 40
105.147
100
AcDbArc
 50
45.0
 51
53.057523
  0
ARC
  5
267
100
AcDbEntity
  8
0
370
    -3
390
0
  6
Continuous
100
AcDbCircle
 10
-536.057104
 20
-558.523432
 30
0.0
 40
482.147
100
AcDbArc
 50
86.845276
 51
90.0
  0
ARC
  5
268
100
AcDbEntity
  8
0
370
    -3
390
0
  6
Continuous
100
AcDbCircle
 10
-513.218613
 20
-144.152338
 30
0.0
 40
67.147
100
AcDbArc
 50
53.057523
 51
86.845276
  0
ARC
  5
269
100
AcDbEntity
  8
0
370
    -3
390
0
  6
Continuous
100
AcDbCircle
 10
-536.057104
 20
-174.523432
 30
0.0
 40
105.147
100
AcDbArc
 50
36.942477
 51
45.0
  0
ARC
  5
26A
100
AcDbEntity
  8
0
370
    -3
390
0
  6
Continuous
100
AcDbCircle
 10
-505.68601
 20
-151.684941
 30
0.0
 40
67.147
100
AcDbArc
 50
3.154724
 51
36.942477
  0
ARC
  5
26B
100
AcDbEntity
  8
0
370
    -3
390
0
  6
Continuous
100
AcDbCircle
 10
-920.057104
 20
-174.523432
 30
0.0
 40
482.147
100
AcDbArc
 50
360.0
 51
3.154724
  0
ARC
  5
26C
100
AcDbEntity
  8
0
370
    -3
390
0
  6
Continuous
100
AcDbCircle
 10
-920.057104
 20
-174.523432
 30
0.0
 40
482.147
100
AcDbArc
 50
356.845276
 51
0.0
  0
ARC
  5
26D
100
AcDbEntity
  8
0
370
    -3
390
0
  6
Continuous
100
AcDbCircle
 10
-505.68601
 20
-197.361922
 30
0.0
 40
67.147
100
AcDbArc
 50
323.057523
 51
356.845276
  0
ARC
  5
26E
100
AcDbEntity
  8
0
370
    -3
390
0
  6
Continuous
100
AcDbCircle
 10
-536.057104
 20
-174.523432
 30
0.0
 40
105.147
100
AcDbArc
 50
315.0
 51
323.057523
  0
ARC
  5
26F
100
AcDbEntity
  8
0
370
    -3
390
0
  6
Continuous
100
AcDbCircle
 10
-536.057104
 20
-174.523432
 30
0.0
 40
105.147
100
AcDbArc
 50
306.942477
 51
315.0
  0
ARC
  5
270
100
AcDbEntity
  8
0
370
    -3
390
0
  6
Continuous
100
AcDbCircle
 10
-513.218613
 20
-204.894525
 30
0.0
 40
67.147
100
AcDbArc
 50
273.154724
 51
306.942477
  0
ARC
  5
271
100
AcDbEntity
  8
0
370
    -3
390
0
  6
Continuous
100
AcDbCircle
 10
-536.057104
 20
209.476568
 30
0.0
 40
482.147
100
AcDbArc
 50
270.0
 51
273.154724
  0
ARC
  5
272
100
AcDbEntity
  8
0
370
    -3
390
0
  6
Continuous
100
AcDbCircle
 10
-536.057104
 20
-174.523432
 30
0.0
 40
70.5
100
AcDbArc
 50
275.099689
 51
324.047513
  0
ARC
  5
273
100
AcDbEntity
  8
0
370
    -3
390
0
  6
Continuous
100
AcDbCircle
 10
-481.415574
 20
-214.153637
 30
0.0
 40
3.0
100
AcDbArc
 50
324.047513
 51
60.0
  0
ARC
  5
274
100
AcDbEntity
  8
0
370
    -3
390
0
  6
Continuous
100
AcDbCircle
 10
-507.651971
 20
-199.006046
 30
0.0
 40
3.0
100
AcDbArc
 50
319.241682
 51
60.0
  0
ARC
  5
275
100
AcDbEntity
  8
0
370
    -3
390
0
  6
Continuous
100
AcDbCircle
 10
-536.057104
 20
-174.523432
 30
0.0
 40
40.5
100
AcDbArc
 50
279.206896
 51
319.241682
  0
ARC
  5
276
100
AcDbEntity
  8
0
370
    -3
390
0
  6
Continuous
100
AcDbCircle
 10
-530.057104
 20
-211.54032
 30
0.0
 40
3.0
100
AcDbArc
 50
180.0
 51
279.206896
  0
ARC
  5
277
100
AcDbEntity
  8
0
370
    -3
390
0
  6
Continuous
100
AcDbCircle
 10
-530.057104
 20
-222.650867
 30
0.0
 40
3.0
100
AcDbArc
 50
97.106343
 51
180.0
  0
ARC
  5
278
100
AcDbEntity
  8
0
370
    -3
390
0
  6
Continuous
100
AcDbCircle
 10
-536.057104
 20
-174.523432
 30
0.0
 40
45.5
100
AcDbArc
 50
277.106343
 51
321.701523
  0
ARC
  5
279
100
AcDbEntity
  8
0
370
    -3
390
0
  6
Continuous
100
AcDbCircle
 10
-497.994651
 20
-204.581703
 30
0.0
 40
3.0
100
AcDbArc
 50
60.0
 51
141.701523
  0
LINE
  5
27A
100
AcDbEntity
  8
0
370
    -3
390
0
  6
Continuous
100
AcDbLine
 10
-496.494651
 20
-201.983627
 30
0.0
 11
-492.996728
 21
-204.003153
 31
0.0
  0
ARC
  5
27B
100
AcDbEntity
  8
0
370
    -3
390
0
  6
Continuous
100
AcDbCircle
 10
-494.496728
 20
-206.60123
 30
0.0
 40
3.0
100
AcDbArc
 50
322.337744
 51
60.0
  0
LINE
  5
27C
100
AcDbEntity
  8
0
370
    -3
390
0
  6
Continuous
100
AcDbLine
 10
-533.057104
 20
-222.650867
 30
0.0
 11
-533.057104
 21
-226.679447
 31
0.0
  0
ARC
  5
27D
100
AcDbEntity
  8
0
370
    -3
390
0
  6
Continuous
100
AcDbCircle
 10
-536.057104
 20
-174.523432
 30
0.0
 40
55.5
100
AcDbArc
 50
276.562428
 51
322.337744
  0
ARC
  5
27E
100
AcDbEntity
  8
0
370
    -3
390
0
  6
Continuous
100
AcDbCircle
 10
-530.057104
 20
-226.679447
 30
0.0
 40
3.0
100
AcDbArc
 50
180.0
 51
276.562428
  0
ARC
  5
27F
100
AcDbEntity
  8
0
370
    -3
390
0
  6
Continuous
100
AcDbCircle
 10
-530.057104
 20
-237.739331
 30
0.0
 40
3.0
100
AcDbArc
 50
95.421863
 51
180.0
  0
ARC
  5
280
100
AcDbEntity
  8
0
370
    -3
390
0
  6
Continuous
100
AcDbCircle
 10
-536.057104
 20
-174.523432
 30
0.0
 40
60.5
100
AcDbArc
 50
275.421863
 51
323.671067
  0
ARC
  5
281
100
AcDbEntity
  8
0
370
    -3
390
0
  6
Continuous
100
AcDbCircle
 10
-484.899648
 20
-212.142106
 30
0.0
 40
3.0
100
AcDbArc
 50
60.0
 51
143.671067
  0
LINE
  5
282
100
AcDbEntity
  8
0
370
    -3
390
0
  6
Continuous
100
AcDbLine
 10
-533.057104
 20
-237.739331
 30
0.0
 11
-533.057104
 21
-241.756236
 31
0.0
  0
ARC
  5
283
100
AcDbEntity
  8
0
370
    -3
390
0
  6
Continuous
100
AcDbCircle
 10
-530.057104
 20
-241.756236
 30
0.0
 40
3.0
100
AcDbArc
 50
180.0
 51
275.099689
  0
LINE
  5
284
100
AcDbEntity
  8
0
370
    -3
390
0
  6
Continuous
100
AcDbLine
 10
-483.399648
 20
-209.54403
 30
0.0
 11
-479.915574
 21
-211.555561
 31
0.0
  0
ARC
  5
285
100
AcDbEntity
  8
0
370
    -3
390
0
  6
Continuous
100
AcDbCircle
 10
-530.057104
 20
-192.023432
 30
0.0
 40
3.0
100
AcDbArc
 50
108.924644
 51
180.0
  0
ARC
  5
286
100
AcDbEntity
  8
0
370
    -3
390
0
  6
Continuous
100
AcDbCircle
 10
-524.726814
 20
-189.147881
 30
0.0
 40
3.0
100
AcDbArc
 50
60.0
 51
127.766728
  0
ARC
  5
287
100
AcDbEntity
  8
0
370
    -3
390
0
  6
Continuous
100
AcDbCircle
 10
-536.057104
 20
-174.523432
 30
0.0
 40
15.5
100
AcDbArc
 50
288.924644
 51
307.766728
  0
LINE
  5
288
100
AcDbEntity
  8
0
370
    -3
390
0
  6
Continuous
100
AcDbLine
 10
-533.057104
 20
-192.023432
 30
0.0
 11
-533.057104
 21
-196.20868
 31
0.0
  0
ARC
  5
289
100
AcDbEntity
  8
0
370
    -3
390
0
  6
Continuous
100
AcDbCircle
 10
-530.057104
 20
-196.20868
 30
0.0
 40
3.0
100
AcDbArc
 50
180.0
 51
285.46601
  0
LINE
  5
28A
100
AcDbEntity
  8
0
370
    -3
390
0
  6
Continuous
100
AcDbLine
 10
-523.226814
 20
-186.549805
 30
0.0
 11
-519.538532
 21
-188.679236
 31
0.0
  0
ARC
  5
28B
100
AcDbEntity
  8
0
370
    -3
390
0
  6
Continuous
100
AcDbCircle
 10
-536.057104
 20
-174.523432
 30
0.0
 40
25.5
100
AcDbArc
 50
285.46601
 51
311.873796
  0
ARC
  5
28C
100
AcDbEntity
  8
0
370
    -3
390
0
  6
Continuous
100
AcDbCircle
 10
-521.038532
 20
-191.277312
 30
0.0
 40
3.0
100
AcDbArc
 50
311.873796
 51
60.0
  0
ARC
  5
28D
100
AcDbEntity
  8
0
370
    -3
390
0
  6
Continuous
100
AcDbCircle
 10
-530.057104
 20
-207.481739
 30
0.0
 40
3.0
100
AcDbArc
 50
100.317603
 51
180.0
  0
ARC
  5
28E
100
AcDbEntity
  8
0
370
    -3
390
0
  6
Continuous
100
AcDbCircle
 10
-536.057104
 20
-174.523432
 30
0.0
 40
30.5
100
AcDbArc
 50
280.317603
 51
317.938867
  0
ARC
  5
28F
100
AcDbEntity
  8
0
370
    -3
390
0
  6
Continuous
100
AcDbCircle
 10
-511.185683
 20
-196.965857
 30
0.0
 40
3.0
100
AcDbArc
 50
60.0
 51
137.938867
  0
LINE
  5
290
100
AcDbEntity
  8
0
370
    -3
390
0
  6
Continuous
100
AcDbLine
 10
-509.685683
 20
-194.36778
 30
0.0
 11
-506.151971
 21
-196.40797
 31
0.0
  0
LINE
  5
291
100
AcDbEntity
  8
0
370
    -3
390
0
  6
Continuous
100
AcDbLine
 10
-533.057104
 20
-207.481739
 30
0.0
 11
-533.057104
 21
-211.54032
 31
0.0
  0
ARC
  5
292
100
AcDbEntity
  8
0
370
    -3
390
0
  6
Continuous
100
AcDbCircle
 10
-536.057104
 20
-174.523432
 30
0.0
 40
70.5
100
AcDbArc
 50
335.952487
 51
24.900311
  0
ARC
  5
293
100
AcDbEntity
  8
0
370
    -3
390
0
  6
Continuous
100
AcDbCircle
 10
-474.415574
 20
-202.029282
 30
0.0
 40
3.0
100
AcDbArc
 50
240.0
 51
335.952487
  0
ARC
  5
294
100
AcDbEntity
  8
0
370
    -3
390
0
  6
Continuous
100
AcDbCircle
 10
-500.651971
 20
-186.881691
 30
0.0
 40
3.0
100
AcDbArc
 50
240.0
 51
340.758318
  0
ARC
  5
295
100
AcDbEntity
  8
0
370
    -3
390
0
  6
Continuous
100
AcDbCircle
 10
-536.057104
 20
-174.523432
 30
0.0
 40
40.5
100
AcDbArc
 50
340.758318
 51
20.793104
  0
ARC
  5
296
100
AcDbEntity
  8
0
370
    -3
390
0
  6
Continuous
100
AcDbCircle
 10
-500.999539
 20
-161.21114
 30
0.0
 40
3.0
100
AcDbArc
 50
20.793104
 51
120.0
  0
ARC
  5
297
100
AcDbEntity
  8
0
370
    -3
390
0
  6
Continuous
100
AcDbCircle
 10
-491.377523
 20
-155.655866
 30
0.0
 40
3.0
100
AcDbArc
 50
120.0
 51
202.893657
  0
ARC
  5
298
100
AcDbEntity
  8
0
370
    -3
390
0
  6
Continuous
100
AcDbCircle
 10
-536.057104
 20
-174.523432
 30
0.0
 40
45.5
100
AcDbArc
 50
338.298477
 51
22.893657
  0
ARC
  5
299
100
AcDbEntity
  8
0
370
    -3
390
0
  6
Continuous
100
AcDbCircle
 10
-490.994651
 20
-192.457347
 30
0.0
 40
3.0
100
AcDbArc
 50
158.298477
 51
240.0
  0
LINE
  5
29A
100
AcDbEntity
  8
0
370
    -3
390
0
  6
Continuous
100
AcDbLine
 10
-492.494651
 20
-195.055423
 30
0.0
 11
-488.996728
 21
-197.07495
 31
0.0
  0
ARC
  5
29B
100
AcDbEntity
  8
0
370
    -3
390
0
  6
Continuous
100
AcDbCircle
 10
-487.496728
 20
-194.476874
 30
0.0
 40
3.0
100
AcDbArc
 50
240.0
 51
337.662256
  0
LINE
  5
29C
100
AcDbEntity
  8
0
370
    -3
390
0
  6
Continuous
100
AcDbLine
 10
-492.877523
 20
-153.05779
 30
0.0
 11
-489.388669
 21
-151.0435
 31
0.0
  0
ARC
  5
29D
100
AcDbEntity
  8
0
370
    -3
390
0
  6
Continuous
100
AcDbCircle
 10
-536.057104
 20
-174.523432
 30
0.0
 40
55.5
100
AcDbArc
 50
337.662256
 51
23.437572
  0
ARC
  5
29E
100
AcDbEntity
  8
0
370
    -3
390
0
  6
Continuous
100
AcDbCircle
 10
-487.888669
 20
-153.641576
 30
0.0
 40
3.0
100
AcDbArc
 50
23.437572
 51
120.0
  0
ARC
  5
29F
100
AcDbEntity
  8
0
370
    -3
390
0
  6
Continuous
100
AcDbCircle
 10
-478.310529
 20
-148.111634
 30
0.0
 40
3.0
100
AcDbArc
 50
120.0
 51
204.578137
  0
ARC
  5
2A0
100
AcDbEntity
  8
0
370
    -3
390
0
  6
Continuous
100
AcDbCircle
 10
-536.057104
 20
-174.523432
 30
0.0
 40
60.5
100
AcDbArc
 50
336.328933
 51
24.578137
  0
ARC
  5
2A1
100
AcDbEntity
  8
0
370
    -3
390
0
  6
Continuous
100
AcDbCircle
 10
-477.899648
 20
-200.017751
 30
0.0
 40
3.0
100
AcDbArc
 50
156.328933
 51
240.0
  0
LINE
  5
2A2
100
AcDbEntity
  8
0
370
    -3
390
0
  6
Continuous
100
AcDbLine
 10
-479.810529
 20
-145.513558
 30
0.0
 11
-476.331787
 21
-143.505105
 31
0.0
  0
ARC
  5
2A3
100
AcDbEntity
  8
0
370
    -3
390
0
  6
Continuous
100
AcDbCircle
 10
-474.831787
 20
-146.103182
 30
0.0
 40
3.0
100
AcDbArc
 50
24.900311
 51
120.0
  0
LINE
  5
2A4
100
AcDbEntity
  8
0
370
    -3
390
0
  6
Continuous
100
AcDbLine
 10
-479.399648
 20
-202.615827
 30
0.0
 11
-475.915574
 21
-204.627358
 31
0.0
  0
ARC
  5
2A5
100
AcDbEntity
  8
0
370
    -3
390
0
  6
Continuous
100
AcDbCircle
 10
-517.901659
 20
-170.969584
 30
0.0
 40
3.0
100
AcDbArc
 50
120.0
 51
191.075356
  0
ARC
  5
2A6
100
AcDbEntity
  8
0
370
    -3
390
0
  6
Continuous
100
AcDbCircle
 10
-517.726814
 20
-177.023526
 30
0.0
 40
3.0
100
AcDbArc
 50
172.233272
 51
240.0
  0
ARC
  5
2A7
100
AcDbEntity
  8
0
370
    -3
390
0
  6
Continuous
100
AcDbCircle
 10
-536.057104
 20
-174.523432
 30
0.0
 40
15.5
100
AcDbArc
 50
352.233272
 51
11.075356
  0
LINE
  5
2A8
100
AcDbEntity
  8
0
370
    -3
390
0
  6
Continuous
100
AcDbLine
 10
-519.401659
 20
-168.371508
 30
0.0
 11
-515.777128
 21
-166.278884
 31
0.0
  0
ARC
  5
2A9
100
AcDbEntity
  8
0
370
    -3
390
0
  6
Continuous
100
AcDbCircle
 10
-514.277128
 20
-168.87696
 30
0.0
 40
3.0
100
AcDbArc
 50
14.53399
 51
120.0
  0
LINE
  5
2AA
100
AcDbEntity
  8
0
370
    -3
390
0
  6
Continuous
100
AcDbLine
 10
-519.226814
 20
-179.621602
 30
0.0
 11
-515.538532
 21
-181.751032
 31
0.0
  0
ARC
  5
2AB
100
AcDbEntity
  8
0
370
    -3
390
0
  6
Continuous
100
AcDbCircle
 10
-536.057104
 20
-174.523432
 30
0.0
 40
25.5
100
AcDbArc
 50
348.126204
 51
14.53399
  0
ARC
  5
2AC
100
AcDbEntity
  8
0
370
    -3
390
0
  6
Continuous
100
AcDbCircle
 10
-514.038532
 20
-179.152956
 30
0.0
 40
3.0
100
AcDbArc
 50
240.0
 51
348.126204
  0
ARC
  5
2AD
100
AcDbEntity
  8
0
370
    -3
390
0
  6
Continuous
100
AcDbCircle
 10
-504.514373
 20
-163.24043
 30
0.0
 40
3.0
100
AcDbArc
 50
120.0
 51
199.682397
  0
ARC
  5
2AE
100
AcDbEntity
  8
0
370
    -3
390
0
  6
Continuous
100
AcDbCircle
 10
-536.057104
 20
-174.523432
 30
0.0
 40
30.5
100
AcDbArc
 50
342.061133
 51
19.682397
  0
ARC
  5
2AF
100
AcDbEntity
  8
0
370
    -3
390
0
  6
Continuous
100
AcDbCircle
 10
-504.185683
 20
-184.841501
 30
0.0
 40
3.0
100
AcDbArc
 50
162.061133
 51
240.0
  0
LINE
  5
2B0
100
AcDbEntity
  8
0
370
    -3
390
0
  6
Continuous
100
AcDbLine
 10
-505.685683
 20
-187.439577
 30
0.0
 11
-502.151971
 21
-189.479767
 31
0.0
  0
LINE
  5
2B1
100
AcDbEntity
  8
0
370
    -3
390
0
  6
Continuous
100
AcDbLine
 10
-506.014373
 20
-160.642354
 30
0.0
 11
-502.499539
 21
-158.613064
 31
0.0
  0
ARC
  5
2B2
100
AcDbEntity
  8
0
370
    -3
390
0
  6
Continuous
100
AcDbCircle
 10
-536.057104
 20
-174.523432
 30
0.0
 40
85.5
100
AcDbArc
 50
34.170648
 51
85.132688
  0
ARC
  5
2B3
100
AcDbEntity
  8
0
370
    -3
390
0
  6
Continuous
100
AcDbCircle
 10
-536.057104
 20
-174.523432
 30
0.0
 40
70.5
100
AcDbArc
 50
35.099689
 51
84.047513
  0
ARC
  5
2B4
100
AcDbEntity
  8
0
370
    -3
390
0
  6
Continuous
100
AcDbCircle
 10
-529.057104
 20
-107.387376
 30
0.0
 40
3.0
100
AcDbArc
 50
84.047513
 51
180.0
  0
ARC
  5
2B5
100
AcDbEntity
  8
0
370
    -3
390
0
  6
Continuous
100
AcDbCircle
 10
-529.057104
 20
-137.682557
 30
0.0
 40
3.0
100
AcDbArc
 50
79.241682
 51
180.0
  0
ARC
  5
2B6
100
AcDbEntity
  8
0
370
    -3
390
0
  6
Continuous
100
AcDbCircle
 10
-536.057104
 20
-174.523432
 30
0.0
 40
40.5
100
AcDbArc
 50
39.206896
 51
79.241682
  0
ARC
  5
2B7
100
AcDbEntity
  8
0
370
    -3
390
0
  6
Continuous
100
AcDbCircle
 10
-506.999539
 20
-150.818835
 30
0.0
 40
3.0
100
AcDbArc
 50
300.0
 51
39.206896
  0
ARC
  5
2B8
100
AcDbEntity
  8
0
370
    -3
390
0
  6
Continuous
100
AcDbCircle
 10
-497.377523
 20
-145.263562
 30
0.0
 40
3.0
100
AcDbArc
 50
217.106343
 51
300.0
  0
ARC
  5
2B9
100
AcDbEntity
  8
0
370
    -3
390
0
  6
Continuous
100
AcDbCircle
 10
-536.057104
 20
-174.523432
 30
0.0
 40
45.5
100
AcDbArc
 50
37.106343
 51
81.701523
  0
ARC
  5
2BA
100
AcDbEntity
  8
0
370
    -3
390
0
  6
Continuous
100
AcDbCircle
 10
-529.057104
 20
-126.531245
 30
0.0
 40
3.0
100
AcDbArc
 50
180.0
 51
261.701523
  0
LINE
  5
2BB
100
AcDbEntity
  8
0
370
    -3
390
0
  6
Continuous
100
AcDbLine
 10
-532.057104
 20
-126.531245
 30
0.0
 11
-532.057104
 21
-122.492191
 31
0.0
  0
ARC
  5
2BC
100
AcDbEntity
  8
0
370
    -3
390
0
  6
Continuous
100
AcDbCircle
 10
-529.057104
 20
-122.492191
 30
0.0
 40
3.0
100
AcDbArc
 50
82.337744
 51
180.0
  0
LINE
  5
2BD
100
AcDbEntity
  8
0
370
    -3
390
0
  6
Continuous
100
AcDbLine
 10
-495.877523
 20
-147.861638
 30
0.0
 11
-492.388669
 21
-145.847347
 31
0.0
  0
ARC
  5
2BE
100
AcDbEntity
  8
0
370
    -3
390
0
  6
Continuous
100
AcDbCircle
 10
-536.057104
 20
-174.523432
 30
0.0
 40
55.5
100
AcDbArc
 50
36.562428
 51
82.337744
  0
ARC
  5
2BF
100
AcDbEntity
  8
0
370
    -3
390
0
  6
Continuous
100
AcDbCircle
 10
-493.888669
 20
-143.249271
 30
0.0
 40
3.0
100
AcDbArc
 50
300.0
 51
36.562428
  0
ARC
  5
2C0
100
AcDbEntity
  8
0
370
    -3
390
0
  6
Continuous
100
AcDbCircle
 10
-484.310529
 20
-137.719329
 30
0.0
 40
3.0
100
AcDbArc
 50
215.421863
 51
300.0
  0
ARC
  5
2C1
100
AcDbEntity
  8
0
370
    -3
390
0
  6
Continuous
100
AcDbCircle
 10
-536.057104
 20
-174.523432
 30
0.0
 40
60.5
100
AcDbArc
 50
35.421863
 51
83.671067
  0
ARC
  5
2C2
100
AcDbEntity
  8
0
370
    -3
390
0
  6
Continuous
100
AcDbCircle
 10
-529.057104
 20
-111.410438
 30
0.0
 40
3.0
100
AcDbArc
 50
180.0
 51
263.671067
  0
LINE
  5
2C3
100
AcDbEntity
  8
0
370
    -3
390
0
  6
Continuous
100
AcDbLine
 10
-482.810529
 20
-140.317405
 30
0.0
 11
-479.331787
 21
-138.308953
 31
0.0
  0
ARC
  5
2C4
100
AcDbEntity
  8
0
370
    -3
390
0
  6
Continuous
100
AcDbCircle
 10
-480.831787
 20
-135.710877
 30
0.0
 40
3.0
100
AcDbArc
 50
300.0
 51
35.099689
  0
LINE
  5
2C5
100
AcDbEntity
  8
0
370
    -3
390
0
  6
Continuous
100
AcDbLine
 10
-532.057104
 20
-111.410438
 30
0.0
 11
-532.057104
 21
-107.387376
 31
0.0
  0
ARC
  5
2C6
100
AcDbEntity
  8
0
370
    -3
390
0
  6
Continuous
100
AcDbCircle
 10
-523.901659
 20
-160.577279
 30
0.0
 40
3.0
100
AcDbArc
 50
228.924644
 51
300.0
  0
ARC
  5
2C7
100
AcDbEntity
  8
0
370
    -3
390
0
  6
Continuous
100
AcDbCircle
 10
-529.057104
 20
-157.398888
 30
0.0
 40
3.0
100
AcDbArc
 50
180.0
 51
247.766728
  0
ARC
  5
2C8
100
AcDbEntity
  8
0
370
    -3
390
0
  6
Continuous
100
AcDbCircle
 10
-536.057104
 20
-174.523432
 30
0.0
 40
15.5
100
AcDbArc
 50
48.924644
 51
67.766728
  0
LINE
  5
2C9
100
AcDbEntity
  8
0
370
    -3
390
0
  6
Continuous
100
AcDbLine
 10
-522.401659
 20
-163.175355
 30
0.0
 11
-518.777128
 21
-161.082731
 31
0.0
  0
ARC
  5
2CA
100
AcDbEntity
  8
0
370
    -3
390
0
  6
Continuous
100
AcDbCircle
 10
-520.277128
 20
-158.484655
 30
0.0
 40
3.0
100
AcDbArc
 50
300.0
 51
45.46601
  0
LINE
  5
2CB
100
AcDbEntity
  8
0
370
    -3
390
0
  6
Continuous
100
AcDbLine
 10
-532.057104
 20
-157.398888
 30
0.0
 11
-532.057104
 21
-153.140027
 31
0.0
  0
ARC
  5
2CC
100
AcDbEntity
  8
0
370
    -3
390
0
  6
Continuous
100
AcDbCircle
 10
-536.057104
 20
-174.523432
 30
0.0
 40
25.5
100
AcDbArc
 50
45.46601
 51
71.873796
  0
ARC
  5
2CD
100
AcDbEntity
  8
0
370
    -3
390
0
  6
Continuous
100
AcDbCircle
 10
-529.057104
 20
-153.140027
 30
0.0
 40
3.0
100
AcDbArc
 50
71.873796
 51
180.0
  0
ARC
  5
2CE
100
AcDbEntity
  8
0
370
    -3
390
0
  6
Continuous
100
AcDbCircle
 10
-510.514373
 20
-152.848126
 30
0.0
 40
3.0
100
AcDbArc
 50
220.317603
 51
300.0
  0
ARC
  5
2CF
100
AcDbEntity
  8
0
370
    -3
390
0
  6
Continuous
100
AcDbCircle
 10
-536.057104
 20
-174.523432
 30
0.0
 40
30.5
100
AcDbArc
 50
40.317603
 51
77.938867
  0
ARC
  5
2D0
100
AcDbEntity
  8
0
370
    -3
390
0
  6
Continuous
100
AcDbCircle
 10
-529.057104
 20
-141.762937
 30
0.0
 40
3.0
100
AcDbArc
 50
180.0
 51
257.938867
  0
LINE
  5
2D1
100
AcDbEntity
  8
0
370
    -3
390
0
  6
Continuous
100
AcDbLine
 10
-532.057104
 20
-141.762937
 30
0.0
 11
-532.057104
 21
-137.682557
 31
0.0
  0
LINE
  5
2D2
100
AcDbEntity
  8
0
370
    -3
390
0
  6
Continuous
100
AcDbLine
 10
-509.014373
 20
-155.446202
 30
0.0
 11
-505.499539
 21
-153.416911
 31
0.0
  0
ARC
  5
2D3
100
AcDbEntity
  8
0
370
    -3
390
0
  6
Continuous
100
AcDbCircle
 10
-536.057104
 20
209.476568
 30
0.0
 40
501.2
100
AcDbArc
 50
270.0
 51
273.154724
  0
ARC
  5
2D4
100
AcDbEntity
  8
0
370
    -3
390
0
  6
Continuous
100
AcDbCircle
 10
-513.218613
 20
-204.894525
 30
0.0
 40
86.2
100
AcDbArc
 50
273.154724
 51
306.942477
  0
ARC
  5
2D5
100
AcDbEntity
  8
0
370
    -3
390
0
  6
Continuous
100
AcDbCircle
 10
-920.057104
 20
-174.523432
 30
0.0
 40
501.2
100
AcDbArc
 50
356.845276
 51
0.0
  0
ARC
  5
2D6
100
AcDbEntity
  8
0
370
    -3
390
0
  6
Continuous
100
AcDbCircle
 10
-505.68601
 20
-197.361922
 30
0.0
 40
86.2
100
AcDbArc
 50
323.057523
 51
356.845276
  0
ARC
  5
2D7
100
AcDbEntity
  8
0
370
    -3
390
0
  6
Continuous
100
AcDbCircle
 10
-536.057104
 20
-174.523432
 30
0.0
 40
124.2
100
AcDbArc
 50
315.0
 51
323.057523
  0
ARC
  5
2D8
100
AcDbEntity
  8
0
370
    -3
390
0
  6
Continuous
100
AcDbCircle
 10
-920.057104
 20
-174.523432
 30
0.0
 40
501.2
100
AcDbArc
 50
360.0
 51
3.154724
  0
ARC
  5
2D9
100
AcDbEntity
  8
0
370
    -3
390
0
  6
Continuous
100
AcDbCircle
 10
-505.68601
 20
-151.684941
 30
0.0
 40
86.2
100
AcDbArc
 50
3.154724
 51
36.942477
  0
ARC
  5
2DA
100
AcDbEntity
  8
0
370
    -3
390
0
  6
Continuous
100
AcDbCircle
 10
-536.057104
 20
-174.523432
 30
0.0
 40
124.2
100
AcDbArc
 50
36.942477
 51
45.0
  0
ARC
  5
2DB
100
AcDbEntity
  8
0
370
    -3
390
0
  6
Continuous
100
AcDbCircle
 10
-536.057104
 20
-558.523432
 30
0.0
 40
501.2
100
AcDbArc
 50
86.845276
 51
90.0
  0
ARC
  5
2DC
100
AcDbEntity
  8
0
370
    -3
390
0
  6
Continuous
100
AcDbCircle
 10
-513.218613
 20
-144.152338
 30
0.0
 40
86.2
100
AcDbArc
 50
53.057523
 51
86.845276
  0
ARC
  5
2DD
100
AcDbEntity
  8
0
370
    -3
390
0
  6
Continuous
100
AcDbCircle
 10
-536.057104
 20
-174.523432
 30
0.0
 40
124.2
100
AcDbArc
 50
45.0
 51
53.057523
  0
ARC
  5
2DE
100
AcDbEntity
  8
0
370
    -3
390
0
  6
Continuous
100
AcDbCircle
 10
-536.057104
 20
-174.523432
 30
0.0
 40
7.5
100
AcDbArc
 50
270.0
 51
90.0
  0
ARC
  5
2DF
100
AcDbEntity
  8
0
370
    -3
390
0
  6
Continuous
100
AcDbCircle
 10
-529.057104
 20
-92.320938
 30
0.0
 40
3.0
100
AcDbArc
 50
85.132688
 51
180.0
  0
LINE
  5
2E0
100
AcDbEntity
  8
0
370
    -3
390
0
  6
Continuous
100
AcDbLine
 10
-532.057104
 20
-95.25017
 30
0.0
 11
-532.057104
 21
-92.320938
 31
0.0
  0
LINE
  5
2E1
100
AcDbEntity
  8
0
370
    -3
390
0
  6
Continuous
100
AcDbLine
 10
-468.844387
 20
-132.25405
 30
0.0
 11
-466.29921
 21
-130.784591
 31
0.0
  0
ARC
  5
2E2
100
AcDbEntity
  8
0
370
    -3
390
0
  6
Continuous
100
AcDbCircle
 10
-467.79921
 20
-128.186515
 30
0.0
 40
3.0
100
AcDbArc
 50
300.0
 51
34.170648
  0
ARC
  5
2E3
100
AcDbEntity
  8
0
370
    -3
390
0
  6
Continuous
100
AcDbCircle
 10
-536.057104
 20
-174.523432
 30
0.0
 40
85.5
100
AcDbArc
 50
94.867312
 51
145.829352
  0
ARC
  5
2E4
100
AcDbEntity
  8
0
370
    -3
390
0
  6
Continuous
100
AcDbCircle
 10
-604.314998
 20
-128.186515
 30
0.0
 40
3.0
100
AcDbArc
 50
145.829352
 51
240.0
  0
LINE
  5
2E5
100
AcDbEntity
  8
0
370
    -3
390
0
  6
Continuous
100
AcDbLine
 10
-603.269821
 20
-132.25405
 30
0.0
 11
-605.814998
 21
-130.784591
 31
0.0
  0
ARC
  5
2E6
100
AcDbEntity
  8
0
370
    -3
390
0
  6
Continuous
100
AcDbCircle
 10
-543.057104
 20
-92.320938
 30
0.0
 40
3.0
100
AcDbArc
 50
0.0
 51
94.867312
  0
LINE
  5
2E7
100
AcDbEntity
  8
0
370
    -3
390
0
  6
Continuous
100
AcDbLine
 10
-540.057104
 20
-95.25017
 30
0.0
 11
-540.057104
 21
-92.320938
 31
0.0
  0
ARC
  5
2E8
100
AcDbEntity
  8
0
370
    -3
390
0
  6
Continuous
100
AcDbCircle
 10
-536.057104
 20
-174.523432
 30
0.0
 40
85.5
100
AcDbArc
 50
154.170648
 51
205.132688
  0
ARC
  5
2E9
100
AcDbEntity
  8
0
370
    -3
390
0
  6
Continuous
100
AcDbCircle
 10
-610.314998
 20
-138.578819
 30
0.0
 40
3.0
100
AcDbArc
 50
60.0
 51
154.170648
  0
LINE
  5
2EA
100
AcDbEntity
  8
0
370
    -3
390
0
  6
Continuous
100
AcDbLine
 10
-606.269821
 20
-137.450202
 30
0.0
 11
-608.814998
 21
-135.980743
 31
0.0
  0
ARC
  5
2EB
100
AcDbEntity
  8
0
370
    -3
390
0
  6
Continuous
100
AcDbCircle
 10
-610.746552
 20
-209.562501
 30
0.0
 40
3.0
100
AcDbArc
 50
205.132688
 51
300.0
  0
LINE
  5
2EC
100
AcDbEntity
  8
0
370
    -3
390
0
  6
Continuous
100
AcDbLine
 10
-606.709762
 20
-210.695961
 30
0.0
 11
-609.246552
 21
-212.160577
 31
0.0
  0
ARC
  5
2ED
100
AcDbEntity
  8
0
370
    -3
390
0
  6
Continuous
100
AcDbCircle
 10
-536.057104
 20
-174.523432
 30
0.0
 40
85.5
100
AcDbArc
 50
214.867312
 51
265.829352
  0
ARC
  5
2EE
100
AcDbEntity
  8
0
370
    -3
390
0
  6
Continuous
100
AcDbCircle
 10
-542.057104
 20
-256.80496
 30
0.0
 40
3.0
100
AcDbArc
 50
265.829352
 51
0.0
  0
LINE
  5
2EF
100
AcDbEntity
  8
0
370
    -3
390
0
  6
Continuous
100
AcDbLine
 10
-539.057104
 20
-253.866043
 30
0.0
 11
-539.057104
 21
-256.80496
 31
0.0
  0
ARC
  5
2F0
100
AcDbEntity
  8
0
370
    -3
390
0
  6
Continuous
100
AcDbCircle
 10
-603.746552
 20
-221.686856
 30
0.0
 40
3.0
100
AcDbArc
 50
120.0
 51
214.867312
  0
LINE
  5
2F1
100
AcDbEntity
  8
0
370
    -3
390
0
  6
Continuous
100
AcDbLine
 10
-602.709762
 20
-217.624164
 30
0.0
 11
-605.246552
 21
-219.08878
 31
0.0
  0
ARC
  5
2F2
100
AcDbEntity
  8
0
370
    -3
390
0
  6
Continuous
100
AcDbCircle
 10
-536.057104
 20
-174.523432
 30
0.0
 40
85.5
100
AcDbArc
 50
274.170648
 51
325.132688
  0
ARC
  5
2F3
100
AcDbEntity
  8
0
370
    -3
390
0
  6
Continuous
100
AcDbCircle
 10
-530.057104
 20
-256.80496
 30
0.0
 40
3.0
100
AcDbArc
 50
180.0
 51
274.170648
  0
LINE
  5
2F4
100
AcDbEntity
  8
0
370
    -3
390
0
  6
Continuous
100
AcDbLine
 10
-533.057104
 20
-253.866043
 30
0.0
 11
-533.057104
 21
-256.80496
 31
0.0
  0
ARC
  5
2F5
100
AcDbEntity
  8
0
370
    -3
390
0
  6
Continuous
100
AcDbCircle
 10
-468.367656
 20
-221.686856
 30
0.0
 40
3.0
100
AcDbArc
 50
325.132688
 51
60.0
  0
LINE
  5
2F6
100
AcDbEntity
  8
0
370
    -3
390
0
  6
Continuous
100
AcDbLine
 10
-469.404446
 20
-217.624164
 30
0.0
 11
-466.867656
 21
-219.08878
 31
0.0
  0
ARC
  5
2F7
100
AcDbEntity
  8
0
370
    -3
390
0
  6
Continuous
100
AcDbCircle
 10
-536.057104
 20
-174.523432
 30
0.0
 40
85.5
100
AcDbArc
 50
334.867312
 51
25.829352
  0
ARC
  5
2F8
100
AcDbEntity
  8
0
370
    -3
390
0
  6
Continuous
100
AcDbCircle
 10
-461.79921
 20
-138.578819
 30
0.0
 40
3.0
100
AcDbArc
 50
25.829352
 51
120.0
  0
LINE
  5
2F9
100
AcDbEntity
  8
0
370
    -3
390
0
  6
Continuous
100
AcDbLine
 10
-465.844387
 20
-137.450202
 30
0.0
 11
-463.29921
 21
-135.980743
 31
0.0
  0
ARC
  5
2FA
100
AcDbEntity
  8
0
370
    -3
390
0
  6
Continuous
100
AcDbCircle
 10
-461.367656
 20
-209.562501
 30
0.0
 40
3.0
100
AcDbArc
 50
240.0
 51
334.867312
  0
LINE
  5
2FB
100
AcDbEntity
  8
0
370
    -3
390
0
  6
Continuous
100
AcDbLine
 10
-465.404446
 20
-210.695961
 30
0.0
 11
-462.867656
 21
-212.160577
 31
0.0
  0
ARC
  5
2FC
100
AcDbEntity
  8
0
370
    -3
390
0
  6
Continuous
100
AcDbCircle
 10
-536.057104
 20
-174.523432
 30
0.0
 40
77.5
100
AcDbArc
 50
94.328325
 51
146.394112
  0
ARC
  5
2FD
100
AcDbEntity
  8
0
370
    -3
390
0
  6
Continuous
100
AcDbCircle
 10
-536.057104
 20
-174.523432
 30
0.0
 40
77.5
100
AcDbArc
 50
153.605888
 51
205.671675
  0
ARC
  5
2FE
100
AcDbEntity
  8
0
370
    -3
390
0
  6
Continuous
100
AcDbCircle
 10
-536.057104
 20
-174.523432
 30
0.0
 40
77.5
100
AcDbArc
 50
214.328325
 51
266.394112
  0
ARC
  5
2FF
100
AcDbEntity
  8
0
370
    -3
390
0
  6
Continuous
100
AcDbCircle
 10
-536.057104
 20
-174.523432
 30
0.0
 40
77.5
100
AcDbArc
 50
273.605888
 51
325.671675
  0
ARC
  5
300
100
AcDbEntity
  8
0
370
    -3
390
0
  6
Continuous
100
AcDbCircle
 10
-536.057104
 20
-174.523432
 30
0.0
 40
77.5
100
AcDbArc
 50
334.328325
 51
26.394112
  0
ARC
  5
301
100
AcDbEntity
  8
0
370
    -3
390
0
  6
Continuous
100
AcDbCircle
 10
-536.057104
 20
-174.523432
 30
0.0
 40
77.5
100
AcDbArc
 50
33.605888
 51
85.671675
  0
ARC
  5
302
100
AcDbEntity
  8
0
370
    -3
390
0
  6
Continuous
100
AcDbCircle
 10
-530.057104
 20
-95.25017
 30
0.0
 40
2.0
100
AcDbArc
 50
180.0
 51
265.671675
  0
ARC
  5
303
100
AcDbEntity
  8
0
370
    -3
390
0
  6
Continuous
100
AcDbCircle
 10
-469.844387
 20
-130.521999
 30
0.0
 40
2.0
100
AcDbArc
 50
213.605888
 51
300.0
  0
ARC
  5
304
100
AcDbEntity
  8
0
370
    -3
390
0
  6
Continuous
100
AcDbCircle
 10
-542.057104
 20
-95.25017
 30
0.0
 40
2.0
100
AcDbArc
 50
274.328325
 51
0.0
  0
ARC
  5
305
100
AcDbEntity
  8
0
370
    -3
390
0
  6
Continuous
100
AcDbCircle
 10
-602.269821
 20
-130.521999
 30
0.0
 40
2.0
100
AcDbArc
 50
240.0
 51
326.394112
  0
ARC
  5
306
100
AcDbEntity
  8
0
370
    -3
390
0
  6
Continuous
100
AcDbCircle
 10
-607.269821
 20
-139.182253
 30
0.0
 40
2.0
100
AcDbArc
 50
333.605888
 51
60.0
  0
ARC
  5
307
100
AcDbEntity
  8
0
370
    -3
390
0
  6
Continuous
100
AcDbCircle
 10
-607.709762
 20
-208.96391
 30
0.0
 40
2.0
100
AcDbArc
 50
300.0
 51
25.671675
  0
ARC
  5
308
100
AcDbEntity
  8
0
370
    -3
390
0
  6
Continuous
100
AcDbCircle
 10
-601.709762
 20
-219.356215
 30
0.0
 40
2.0
100
AcDbArc
 50
34.328325
 51
120.0
  0
ARC
  5
309
100
AcDbEntity
  8
0
370
    -3
390
0
  6
Continuous
100
AcDbCircle
 10
-541.057104
 20
-253.866043
 30
0.0
 40
2.0
100
AcDbArc
 50
0.0
 51
86.394112
  0
ARC
  5
30A
100
AcDbEntity
  8
0
370
    -3
390
0
  6
Continuous
100
AcDbCircle
 10
-531.057104
 20
-253.866043
 30
0.0
 40
2.0
100
AcDbArc
 50
93.605888
 51
180.0
  0
ARC
  5
30B
100
AcDbEntity
  8
0
370
    -3
390
0
  6
Continuous
100
AcDbCircle
 10
-470.404446
 20
-219.356215
 30
0.0
 40
2.0
100
AcDbArc
 50
60.0
 51
145.671675
  0
ARC
  5
30C
100
AcDbEntity
  8
0
370
    -3
390
0
  6
Continuous
100
AcDbCircle
 10
-464.404446
 20
-208.96391
 30
0.0
 40
2.0
100
AcDbArc
 50
154.328325
 51
240.0
  0
ARC
  5
30D
100
AcDbEntity
  8
0
370
    -3
390
0
  6
Continuous
100
AcDbCircle
 10
-464.844387
 20
-139.182253
 30
0.0
 40
2.0
100
AcDbArc
 50
120.0
 51
206.394112
  0
LINE
  5
30E
100
AcDbEntity
  8
0
370
    -3
390
0
  6
Continuous
100
AcDbLine
 10
-458.663856
 20
-217.474393
 30
0.0
 11
-521.017685
 21
-181.474393
 31
0.0
  0
LINE
  5
30F
100
AcDbEntity
  8
0
370
    -3
390
0
  6
Continuous
100
AcDbLine
 10
-460.163856
 20
-220.07247
 30
0.0
 11
-522.517685
 21
-184.07247
 31
0.0
  0
ARC
  5
310
100
AcDbEntity
  8
0
370
    -3
390
0
  6
Continuous
100
AcDbCircle
 10
-536.057104
 20
-158.023432
 30
0.0
 40
1.5
100
AcDbArc
 50
180.0
 51
0.0
  0
LINE
  5
311
100
AcDbEntity
  8
0
370
    -3
390
0
  6
Continuous
100
AcDbLine
 10
-534.557104
 20
-86.023432
 30
0.0
 11
-534.557104
 21
-158.023432
 31
0.0
  0
LINE
  5
312
100
AcDbEntity
  8
0
370
    -3
390
0
  6
Continuous
100
AcDbLine
 10
-537.557104
 20
-86.023432
 30
0.0
 11
-537.557104
 21
-158.023432
 31
0.0
  0
ARC
  5
313
100
AcDbEntity
  8
0
370
    -3
390
0
  6
Continuous
100
AcDbCircle
 10
-536.057104
 20
-86.023432
 30
0.0
 40
1.5
100
AcDbArc
 50
0.0
 51
180.0
  0
ARC
  5
314
100
AcDbEntity
  8
0
370
    -3
390
0
  6
Continuous
100
AcDbCircle
 10
-550.346523
 20
-182.773432
 30
0.0
 40
1.5
100
AcDbArc
 50
300.0
 51
120.0
  0
LINE
  5
315
100
AcDbEntity
  8
0
370
    -3
390
0
  6
Continuous
100
AcDbLine
 10
-613.450352
 20
-217.474393
 30
0.0
 11
-551.096523
 21
-181.474393
 31
0.0
  0
LINE
  5
316
100
AcDbEntity
  8
0
370
    -3
390
0
  6
Continuous
100
AcDbLine
 10
-611.950352
 20
-220.07247
 30
0.0
 11
-549.596523
 21
-184.07247
 31
0.0
  0
ARC
  5
317
100
AcDbEntity
  8
0
370
    -3
390
0
  6
Continuous
100
AcDbCircle
 10
-612.700352
 20
-218.773432
 30
0.0
 40
1.5
100
AcDbArc
 50
120.0
 51
300.0
  0
ARC
  5
318
100
AcDbEntity
  8
0
370
    -3
390
0
  6
Continuous
100
AcDbCircle
 10
-521.767685
 20
-182.773432
 30
0.0
 40
1.5
100
AcDbArc
 50
60.0
 51
240.0
  0
ARC
  5
319
100
AcDbEntity
  8
0
370
    -3
390
0
  6
Continuous
100
AcDbCircle
 10
-459.413856
 20
-218.773432
 30
0.0
 40
1.5
100
AcDbArc
 50
240.0
 51
60.0
  0
ARC
  5
31A
100
AcDbEntity
  8
0
370
    -3
390
0
  6
Continuous
100
AcDbCircle
 10
-443.567537
 20
-89.812039
 30
0.0
 40
0.5
100
AcDbArc
 50
315.0
 51
45.0
  0
LINE
  5
31B
100
AcDbEntity
  8
0
370
    -3
390
0
  6
Continuous
100
AcDbLine
 10
-443.355405
 20
-88.185693
 30
0.0
 11
-442.445009
 21
-87.275298
 31
0.0
  0
ARC
  5
31C
100
AcDbEntity
  8
0
370
    -3
390
0
  6
Continuous
100
AcDbCircle
 10
-443.57638
 20
-86.143927
 30
0.0
 40
1.599999
100
AcDbArc
 50
314.999999
 51
28.808717
  0
LINE
  5
31D
100
AcDbEntity
  8
0
370
    -3
390
0
  6
Continuous
100
AcDbLine
 10
-443.567537
 20
-89.104932
 30
0.0
 11
-443.001851
 21
-88.539247
 31
0.0
  0
LINE
  5
31E
100
AcDbEntity
  8
0
370
    -3
390
0
  6
Continuous
100
AcDbLine
 10
-444.09434
 20
-91.045949
 30
0.0
 11
-443.213984
 21
-90.165593
 31
0.0
  0
ARC
  5
31F
100
AcDbEntity
  8
0
370
    -3
390
0
  6
Continuous
100
AcDbCircle
 10
-452.689214
 20
-91.155541
 30
0.0
 40
12.0
100
AcDbArc
 50
28.808663
 51
61.191355
  0
ARC
  5
320
100
AcDbEntity
  8
0
370
    -3
390
0
  6
Continuous
100
AcDbCircle
 10
-451.345712
 20
-82.033865
 30
0.0
 40
0.5
100
AcDbArc
 50
45.0
 51
135.0
  0
LINE
  5
321
100
AcDbEntity
  8
0
370
    -3
390
0
  6
Continuous
100
AcDbLine
 10
-449.719366
 20
-81.821732
 30
0.0
 11
-448.80897
 21
-80.911337
 31
0.0
  0
ARC
  5
322
100
AcDbEntity
  8
0
370
    -3
390
0
  6
Continuous
100
AcDbCircle
 10
-447.6776
 20
-82.042707
 30
0.0
 40
1.599999
100
AcDbArc
 50
61.191409
 51
135.000018
  0
LINE
  5
323
100
AcDbEntity
  8
0
370
    -3
390
0
  6
Continuous
100
AcDbLine
 10
-450.072919
 20
-81.468179
 30
0.0
 11
-450.638605
 21
-82.033865
 31
0.0
  0
LINE
  5
324
100
AcDbEntity
  8
0
370
    -3
390
0
  6
Continuous
100
AcDbLine
 10
-452.579622
 20
-82.560668
 30
0.0
 11
-451.699265
 21
-81.680311
 31
0.0
  0
LINE
  5
325
100
AcDbEntity
  8
0
370
    -3
390
0
  6
Continuous
100
AcDbLine
 10
-443.213984
 20
-89.458486
 30
0.0
 11
-450.992158
 21
-81.680311
 31
0.0
  0
LINE
  5
326
100
AcDbEntity
  8
0
370
    -3
390
0
  6
Continuous
100
AcDbLine
 10
-450.072919
 20
-81.468179
 30
0.0
 11
-443.001851
 21
-88.539247
 31
0.0
  0
ARC
  5
327
100
AcDbEntity
  8
0
370
    -3
390
0
  6
Continuous
100
AcDbCircle
 10
-536.057104
 20
-174.523432
 30
0.0
 40
124.2
100
AcDbArc
 50
126.942477
 51
135.0
  0
ARC
  5
328
100
AcDbEntity
  8
0
370
    -3
390
0
  6
Continuous
100
AcDbCircle
 10
-536.057104
 20
-174.523432
 30
0.0
 40
124.2
100
AcDbArc
 50
135.0
 51
143.057523
  0
ARC
  5
329
100
AcDbEntity
  8
0
370
    -3
390
0
  6
Continuous
100
AcDbCircle
 10
-536.057104
 20
-174.523432
 30
0.0
 40
124.2
100
AcDbArc
 50
306.942477
 51
315.0
  0
ARC
  5
32A
100
AcDbEntity
  8
0
370
    -3
390
0
  6
Continuous
100
AcDbCircle
 10
-443.567537
 20
-259.234824
 30
0.0
 40
0.5
100
AcDbArc
 50
315.0
 51
45.0
  0
LINE
  5
32B
100
AcDbEntity
  8
0
370
    -3
390
0
  6
Continuous
100
AcDbLine
 10
-443.355405
 20
-260.86117
 30
0.0
 11
-442.445009
 21
-261.771565
 31
0.0
  0
ARC
  5
32C
100
AcDbEntity
  8
0
370
    -3
390
0
  6
Continuous
100
AcDbCircle
 10
-443.57638
 20
-262.902936
 30
0.0
 40
1.599999
100
AcDbArc
 50
331.191283
 51
45.000001
  0
LINE
  5
32D
100
AcDbEntity
  8
0
370
    -3
390
0
  6
Continuous
100
AcDbLine
 10
-443.567537
 20
-259.941931
 30
0.0
 11
-443.001851
 21
-260.507616
 31
0.0
  0
LINE
  5
32E
100
AcDbEntity
  8
0
370
    -3
390
0
  6
Continuous
100
AcDbLine
 10
-444.09434
 20
-258.000914
 30
0.0
 11
-443.213984
 21
-258.881271
 31
0.0
  0
ARC
  5
32F
100
AcDbEntity
  8
0
370
    -3
390
0
  6
Continuous
100
AcDbCircle
 10
-452.689214
 20
-257.891322
 30
0.0
 40
12.0
100
AcDbArc
 50
298.808645
 51
331.191337
  0
ARC
  5
330
100
AcDbEntity
  8
0
370
    -3
390
0
  6
Continuous
100
AcDbCircle
 10
-451.345712
 20
-267.012999
 30
0.0
 40
0.5
100
AcDbArc
 50
225.0
 51
315.0
  0
LINE
  5
331
100
AcDbEntity
  8
0
370
    -3
390
0
  6
Continuous
100
AcDbLine
 10
-449.719366
 20
-267.225131
 30
0.0
 11
-448.80897
 21
-268.135526
 31
0.0
  0
ARC
  5
332
100
AcDbEntity
  8
0
370
    -3
390
0
  6
Continuous
100
AcDbCircle
 10
-447.6776
 20
-267.004156
 30
0.0
 40
1.599999
100
AcDbArc
 50
224.999982
 51
298.808591
  0
LINE
  5
333
100
AcDbEntity
  8
0
370
    -3
390
0
  6
Continuous
100
AcDbLine
 10
-450.072919
 20
-267.578684
 30
0.0
 11
-450.638605
 21
-267.012999
 31
0.0
  0
LINE
  5
334
100
AcDbEntity
  8
0
370
    -3
390
0
  6
Continuous
100
AcDbLine
 10
-452.579622
 20
-266.486195
 30
0.0
 11
-451.699265
 21
-267.366552
 31
0.0
  0
LINE
  5
335
100
AcDbEntity
  8
0
370
    -3
390
0
  6
Continuous
100
AcDbLine
 10
-443.213984
 20
-259.588377
 30
0.0
 11
-450.992158
 21
-267.366552
 31
0.0
  0
LINE
  5
336
100
AcDbEntity
  8
0
370
    -3
390
0
  6
Continuous
100
AcDbLine
 10
-450.072919
 20
-267.578684
 30
0.0
 11
-443.001851
 21
-260.507616
 31
0.0
  0
ARC
  5
337
100
AcDbEntity
  8
0
370
    -3
390
0
  6
Continuous
100
AcDbCircle
 10
-628.546671
 20
-259.234824
 30
0.0
 40
0.5
100
AcDbArc
 50
135.0
 51
225.0
  0
LINE
  5
338
100
AcDbEntity
  8
0
370
    -3
390
0
  6
Continuous
100
AcDbLine
 10
-628.758803
 20
-260.86117
 30
0.0
 11
-629.669199
 21
-261.771565
 31
0.0
  0
ARC
  5
339
100
AcDbEntity
  8
0
370
    -3
390
0
  6
Continuous
100
AcDbCircle
 10
-628.537828
 20
-262.902936
 30
0.0
 40
1.599999
100
AcDbArc
 50
134.999999
 51
208.808717
  0
LINE
  5
33A
100
AcDbEntity
  8
0
370
    -3
390
0
  6
Continuous
100
AcDbLine
 10
-628.546671
 20
-259.941931
 30
0.0
 11
-629.112356
 21
-260.507616
 31
0.0
  0
LINE
  5
33B
100
AcDbEntity
  8
0
370
    -3
390
0
  6
Continuous
100
AcDbLine
 10
-628.019868
 20
-258.000914
 30
0.0
 11
-628.900224
 21
-258.881271
 31
0.0
  0
ARC
  5
33C
100
AcDbEntity
  8
0
370
    -3
390
0
  6
Continuous
100
AcDbCircle
 10
-619.424994
 20
-257.891322
 30
0.0
 40
12.0
100
AcDbArc
 50
208.808663
 51
241.191355
  0
ARC
  5
33D
100
AcDbEntity
  8
0
370
    -3
390
0
  6
Continuous
100
AcDbCircle
 10
-620.768496
 20
-267.012999
 30
0.0
 40
0.5
100
AcDbArc
 50
225.0
 51
315.0
  0
LINE
  5
33E
100
AcDbEntity
  8
0
370
    -3
390
0
  6
Continuous
100
AcDbLine
 10
-622.394842
 20
-267.225131
 30
0.0
 11
-623.305238
 21
-268.135526
 31
0.0
  0
ARC
  5
33F
100
AcDbEntity
  8
0
370
    -3
390
0
  6
Continuous
100
AcDbCircle
 10
-624.436608
 20
-267.004156
 30
0.0
 40
1.599999
100
AcDbArc
 50
241.191409
 51
315.000018
  0
LINE
  5
340
100
AcDbEntity
  8
0
370
    -3
390
0
  6
Continuous
100
AcDbLine
 10
-622.041289
 20
-267.578684
 30
0.0
 11
-621.475603
 21
-267.012999
 31
0.0
  0
LINE
  5
341
100
AcDbEntity
  8
0
370
    -3
390
0
  6
Continuous
100
AcDbLine
 10
-619.534586
 20
-266.486195
 30
0.0
 11
-620.414943
 21
-267.366552
 31
0.0
  0
LINE
  5
342
100
AcDbEntity
  8
0
370
    -3
390
0
  6
Continuous
100
AcDbLine
 10
-628.900224
 20
-259.588377
 30
0.0
 11
-621.12205
 21
-267.366552
 31
0.0
  0
LINE
  5
343
100
AcDbEntity
  8
0
370
    -3
390
0
  6
Continuous
100
AcDbLine
 10
-622.041289
 20
-267.578684
 30
0.0
 11
-629.112356
 21
-260.507616
 31
0.0
  0
ARC
  5
344
100
AcDbEntity
  8
0
370
    -3
390
0
  6
Continuous
100
AcDbCircle
 10
-628.546671
 20
-89.812039
 30
0.0
 40
0.5
100
AcDbArc
 50
135.0
 51
225.0
  0
LINE
  5
345
100
AcDbEntity
  8
0
370
    -3
390
0
  6
Continuous
100
AcDbLine
 10
-628.758803
 20
-88.185693
 30
0.0
 11
-629.669199
 21
-87.275298
 31
0.0
  0
ARC
  5
346
100
AcDbEntity
  8
0
370
    -3
390
0
  6
Continuous
100
AcDbCircle
 10
-628.537828
 20
-86.143927
 30
0.0
 40
1.599999
100
AcDbArc
 50
151.191283
 51
225.000001
  0
LINE
  5
347
100
AcDbEntity
  8
0
370
    -3
390
0
  6
Continuous
100
AcDbLine
 10
-628.546671
 20
-89.104932
 30
0.0
 11
-629.112356
 21
-88.539247
 31
0.0
  0
LINE
  5
348
100
AcDbEntity
  8
0
370
    -3
390
0
  6
Continuous
100
AcDbLine
 10
-628.019868
 20
-91.045949
 30
0.0
 11
-628.900224
 21
-90.165593
 31
0.0
  0
ARC
  5
349
100
AcDbEntity
  8
0
370
    -3
390
0
  6
Continuous
100
AcDbCircle
 10
-619.424994
 20
-91.155541
 30
0.0
 40
12.0
100
AcDbArc
 50
118.808645
 51
151.191337
  0
ARC
  5
34A
100
AcDbEntity
  8
0
370
    -3
390
0
  6
Continuous
100
AcDbCircle
 10
-620.768496
 20
-82.033865
 30
0.0
 40
0.5
100
AcDbArc
 50
45.0
 51
135.0
  0
LINE
  5
34B
100
AcDbEntity
  8
0
370
    -3
390
0
  6
Continuous
100
AcDbLine
 10
-622.394842
 20
-81.821732
 30
0.0
 11
-623.305238
 21
-80.911337
 31
0.0
  0
ARC
  5
34C
100
AcDbEntity
  8
0
370
    -3
390
0
  6
Continuous
100
AcDbCircle
 10
-624.436608
 20
-82.042707
 30
0.0
 40
1.599999
100
AcDbArc
 50
44.999982
 51
118.808591
  0
LINE
  5
34D
100
AcDbEntity
  8
0
370
    -3
390
0
  6
Continuous
100
AcDbLine
 10
-622.041289
 20
-81.468179
 30
0.0
 11
-621.475603
 21
-82.033865
 31
0.0
  0
LINE
  5
34E
100
AcDbEntity
  8
0
370
    -3
390
0
  6
Continuous
100
AcDbLine
 10
-619.534586
 20
-82.560668
 30
0.0
 11
-620.414943
 21
-81.680311
 31
0.0
  0
LINE
  5
34F
100
AcDbEntity
  8
0
370
    -3
390
0
  6
Continuous
100
AcDbLine
 10
-628.900224
 20
-89.458486
 30
0.0
 11
-621.12205
 21
-81.680311
 31
0.0
  0
LINE
  5
350
100
AcDbEntity
  8
0
370
    -3
390
0
  6
Continuous
100
AcDbLine
 10
-622.041289
 20
-81.468179
 30
0.0
 11
-629.112356
 21
-88.539247
 31
0.0
  0
LINE
  5
351
100
AcDbEntity
  8
0
370
    -3
390
0
  6
Continuous
100
AcDbLine
 10
-417.657104
 20
-199.123432
 30
0.0
 11
-419.461179
 21
-199.123432
 31
0.0
  0
LINE
  5
352
100
AcDbEntity
  8
0
370
    -3
390
0
  6
Continuous
100
AcDbLine
 10
-417.657104
 20
-149.923432
 30
0.0
 11
-419.461179
 21
-149.923432
 31
0.0
  0
ARC
  5
353
100
AcDbEntity
  8
0
370
    -3
390
0
  6
Continuous
100
AcDbCircle
 10
-403.350543
 20
-135.323225
 30
0.0
 40
3.0
100
AcDbArc
 50
204.0
 51
260.681877
  0
ARC
  5
354
100
AcDbEntity
  8
0
370
    -3
390
0
  6
Continuous
100
AcDbCircle
 10
-380.309393
 20
-157.344536
 30
0.0
 40
15.0
100
AcDbArc
 50
1.682769
 51
80.681877
  0
LINE
  5
355
100
AcDbEntity
  8
0
370
    -3
390
0
  6
Continuous
100
AcDbLine
 10
-403.836291
 20
-138.283638
 30
0.0
 11
-377.880653
 21
-142.542467
 31
0.0
  0
ARC
  5
356
100
AcDbEntity
  8
0
370
    -3
390
0
  6
Continuous
100
AcDbCircle
 10
-410.057104
 20
-141.831827
 30
0.0
 40
3.0
100
AcDbArc
 50
114.0
 51
180.0
  0
LINE
  5
357
100
AcDbEntity
  8
0
370
    -3
390
0
  6
Continuous
100
AcDbLine
 10
-409.473943
 20
-138.288278
 30
0.0
 11
-411.277314
 21
-139.09119
 31
0.0
  0
LINE
  5
358
100
AcDbEntity
  8
0
370
    -3
390
0
  6
Continuous
100
AcDbLine
 10
-409.193741
 20
-132.033561
 30
0.0
 11
-411.751668
 21
-133.172423
 31
0.0
  0
LINE
  5
359
100
AcDbEntity
  8
0
370
    -3
390
0
  6
Continuous
100
AcDbLine
 10
-407.873459
 20
-132.540369
 30
0.0
 11
-389.181395
 21
-174.523432
 31
0.0
  0
LINE
  5
35A
100
AcDbEntity
  8
0
370
    -3
390
0
  6
Continuous
100
AcDbLine
 10
-411.422507
 20
-135.866761
 30
0.0
 11
-410.686103
 21
-136.179346
 31
0.0
  0
LINE
  5
35B
100
AcDbEntity
  8
0
370
    -3
390
0
  6
Continuous
100
AcDbLine
 10
-410.552761
 20
-135.865212
 30
0.0
 11
-410.686103
 21
-136.179346
 31
0.0
  0
LINE
  5
35C
100
AcDbEntity
  8
0
370
    -3
390
0
  6
Continuous
100
AcDbLine
 10
-410.997675
 20
-134.865919
 30
0.0
 11
-411.422507
 21
-135.866761
 31
0.0
  0
ARC
  5
35D
100
AcDbEntity
  8
0
370
    -3
390
0
  6
Continuous
100
AcDbCircle
 10
-408.787004
 20
-132.947106
 30
0.0
 40
1.0
100
AcDbArc
 50
24.0
 51
114.0
  0
ARC
  5
35E
100
AcDbEntity
  8
0
370
    -3
390
0
  6
Continuous
100
AcDbCircle
 10
-371.175496
 20
-230.700339
 30
0.0
 40
9.0
100
AcDbArc
 50
7.398452
 51
40.601531
  0
ARC
  5
35F
100
AcDbEntity
  8
0
370
    -3
390
0
  6
Continuous
100
AcDbCircle
 10
-363.539601
 20
-229.708819
 30
0.0
 40
1.299999
100
AcDbArc
 50
293.999982
 51
7.398452
  0
LINE
  5
360
100
AcDbEntity
  8
0
370
    -3
390
0
  6
CENTER
100
AcDbLine
 10
-389.057104
 20
-206.640908
 30
0.0
 11
-389.057104
 21
-229.509417
 31
0.0
  0
LINE
  5
361
100
AcDbEntity
  8
0
370
    -3
390
0
  6
Continuous
100
AcDbLine
 10
-413.057104
 20
-141.831827
 30
0.0
 11
-413.057104
 21
-216.023432
 31
0.0
  0
LINE
  5
362
100
AcDbEntity
  8
0
370
    -3
390
0
  6
Continuous
100
AcDbLine
 10
-367.986805
 20
-231.469914
 30
0.0
 11
-371.503955
 21
-233.03585
 31
0.0
  0
LINE
  5
363
100
AcDbEntity
  8
0
370
    -3
390
0
  6
Continuous
100
AcDbLine
 10
-369.613752
 20
-227.815733
 30
0.0
 11
-373.130902
 21
-229.381669
 31
0.0
  0
ARC
  5
364
100
AcDbEntity
  8
0
370
    -3
390
0
  6
Continuous
100
AcDbCircle
 10
-368.68709
 20
-218.646066
 30
0.0
 40
2.0
100
AcDbArc
 50
294.0
 51
355.768662
  0
ARC
  5
365
100
AcDbEntity
  8
0
370
    -3
390
0
  6
Continuous
100
AcDbCircle
 10
-367.262417
 20
-221.295669
 30
0.0
 40
1.0
100
AcDbArc
 50
114.0
 51
204.0
  0
LINE
  5
366
100
AcDbEntity
  8
0
370
    -3
390
0
  6
Continuous
100
AcDbLine
 10
-389.181395
 20
-174.523432
 30
0.0
 11
-362.969733
 21
-233.395788
 31
0.0
  0
ARC
  5
367
100
AcDbEntity
  8
0
370
    -3
390
0
  6
Continuous
100
AcDbCircle
 10
-363.883279
 20
-233.802525
 30
0.0
 40
1.0
100
AcDbArc
 50
294.0
 51
24.0
  0
LINE
  5
368
100
AcDbEntity
  8
0
370
    -3
390
0
  6
Continuous
100
AcDbLine
 10
-363.476542
 20
-234.71607
 30
0.0
 11
-366.034469
 21
-235.854933
 31
0.0
  0
LINE
  5
369
100
AcDbEntity
  8
0
370
    -3
390
0
  6
Continuous
100
AcDbLine
 10
-408.057104
 20
-221.023432
 30
0.0
 11
-372.637879
 21
-221.023432
 31
0.0
  0
ARC
  5
36A
100
AcDbEntity
  8
0
370
    -3
390
0
  6
Continuous
100
AcDbCircle
 10
-408.057104
 20
-216.023432
 30
0.0
 40
5.0
100
AcDbArc
 50
180.0
 51
270.0
  0
ARC
  5
36B
100
AcDbEntity
  8
0
370
    -3
390
0
  6
Continuous
100
AcDbCircle
 10
-366.091055
 20
-223.926591
 30
0.0
 40
1.0
100
AcDbArc
 50
175.284875
 51
204.0
  0
ARC
  5
36C
100
AcDbEntity
  8
0
370
    -3
390
0
  6
Continuous
100
AcDbCircle
 10
-965.057104
 20
-174.523432
 30
0.0
 40
600.0
100
AcDbArc
 50
355.284875
 51
1.682769
  0
ARC
  5
36D
100
AcDbEntity
  8
0
370
    -3
390
0
  6
Continuous
100
AcDbCircle
 10
-365.329242
 20
-225.689218
 30
0.0
 40
1.299999
100
AcDbArc
 50
40.601531
 51
114.000001
  0
LINE
  5
36E
100
AcDbEntity
  8
0
370
    -3
390
0
  6
Continuous
100
AcDbLine
 10
-366.752384
 20
-224.899815
 30
0.0
 11
-365.858
 21
-224.50161
 31
0.0
  0
LINE
  5
36F
100
AcDbEntity
  8
0
370
    -3
390
0
  6
Continuous
100
AcDbLine
 10
-363.905227
 20
-231.294633
 30
0.0
 11
-363.010843
 21
-230.896428
 31
0.0
  0
LINE
  5
370
100
AcDbEntity
  8
0
370
    -3
390
0
  6
Continuous
100
AcDbLine
 10
-366.752384
 20
-224.899815
 30
0.0
 11
-363.905227
 21
-231.294633
 31
0.0
  0
LINE
  5
371
100
AcDbEntity
  8
0
370
    -3
390
0
  6
Continuous
100
AcDbLine
 10
-366.752384
 20
-224.899815
 30
0.0
 11
-363.905227
 21
-231.294633
 31
0.0
  0
POINT
  5
372
100
AcDbEntity
  8
0
370
    -3
390
0
  6
Continuous
100
AcDbPoint
 10
-365.328806
 20
-228.097224
 30
0.0
  0
LINE
  5
373
100
AcDbEntity
  8
0
370
    -3
390
0
  6
Continuous
100
AcDbLine
 10
-373.308285
 20
-229.843767
 30
0.0
 11
-371.966054
 21
-232.858467
 31
0.0
  0
LINE
  5
374
100
AcDbEntity
  8
0
370
    -3
390
0
  6
Continuous
100
AcDbLine
 10
-371.503955
 20
-233.03585
 30
0.0
 11
-371.966054
 21
-232.858467
 31
0.0
  0
LINE
  5
375
100
AcDbEntity
  8
0
370
    -3
390
0
  6
Continuous
100
AcDbLine
 10
-373.130902
 20
-229.381669
 30
0.0
 11
-373.308285
 21
-229.843767
 31
0.0
  0
LINE
  5
376
100
AcDbEntity
  8
0
370
    -3
390
0
  6
Continuous
100
AcDbLine
 10
-369.471394
 20
-228.135473
 30
0.0
 11
-373.308285
 21
-229.843767
 31
0.0
  0
LINE
  5
377
100
AcDbEntity
  8
0
370
    -3
390
0
  6
Continuous
100
AcDbLine
 10
-368.129163
 20
-231.150173
 30
0.0
 11
-371.966054
 21
-232.858467
 31
0.0
  0
LINE
  5
378
100
AcDbEntity
  8
0
370
    -3
390
0
  6
Continuous
100
AcDbLine
 10
-411.751668
 20
-133.172423
 30
0.0
 11
-366.034469
 21
-235.854933
 31
0.0
  0
ARC
  5
379
100
AcDbEntity
  8
0
370
    -3
390
0
  6
Continuous
100
AcDbCircle
 10
-417.657104
 20
-147.923432
 30
0.0
 40
2.0
100
AcDbArc
 50
270.0
 51
0.0
  0
LINE
  5
37A
100
AcDbEntity
  8
0
370
    -3
390
0
  6
Continuous
100
AcDbLine
 10
-414.057104
 20
-143.523432
 30
0.0
 11
-415.657104
 21
-143.523432
 31
0.0
  0
LINE
  5
37B
100
AcDbEntity
  8
0
370
    -3
390
0
  6
Continuous
100
AcDbLine
 10
-414.057104
 20
-143.523432
 30
0.0
 11
-413.057104
 21
-143.523432
 31
0.0
  0
ARC
  5
37C
100
AcDbEntity
  8
0
370
    -3
390
0
  6
Continuous
100
AcDbCircle
 10
-417.657104
 20
-201.123432
 30
0.0
 40
2.0
100
AcDbArc
 50
0.0
 51
90.0
  0
LINE
  5
37D
100
AcDbEntity
  8
0
370
    -3
390
0
  6
Continuous
100
AcDbLine
 10
-414.057104
 20
-205.523432
 30
0.0
 11
-415.657104
 21
-205.523432
 31
0.0
  0
LINE
  5
37E
100
AcDbEntity
  8
0
370
    -3
390
0
  6
Continuous
100
AcDbLine
 10
-414.057104
 20
-205.523432
 30
0.0
 11
-413.057104
 21
-205.523432
 31
0.0
  0
LINE
  5
37F
100
AcDbEntity
  8
0
370
    -3
390
0
  6
Continuous
100
AcDbLine
 10
-414.057104
 20
-205.523432
 30
0.0
 11
-414.057104
 21
-143.523432
 31
0.0
  0
LINE
  5
380
100
AcDbEntity
  8
0
370
    -3
390
0
  6
Continuous
100
AcDbLine
 10
-415.657104
 20
-205.523432
 30
0.0
 11
-415.657104
 21
-174.523432
 31
0.0
  0
LINE
  5
381
100
AcDbEntity
  8
0
370
    -3
390
0
  6
Continuous
100
AcDbLine
 10
-415.657104
 20
-143.523432
 30
0.0
 11
-415.657104
 21
-174.523432
 31
0.0
  0
ARC
  5
382
100
AcDbEntity
  8
0
370
    -3
390
0
  6
CENTER
100
AcDbCircle
 10
-536.057104
 20
-134.523432
 30
0.0
 40
190.0
100
AcDbArc
 50
307.701176
 51
321.846202
  0
LINE
  5
383
100
AcDbEntity
  8
0
370
    -3
390
0
  6
CENTER
100
AcDbLine
 10
-418.098117
 20
-252.482418
 30
0.0
 11
-385.268133
 21
-285.312402
 31
0.0
  0
ARC
  5
384
100
AcDbEntity
  8
0
370
    -3
390
0
  6
CENTER
100
AcDbCircle
 10
-536.057104
 20
-134.523432
 30
0.0
 40
190.0
100
AcDbArc
 50
218.044751
 51
232.351239
  0
LINE
  5
385
100
AcDbEntity
  8
0
370
    -3
390
0
  6
CENTER
100
AcDbLine
 10
-656.018281
 20
-254.484608
 30
0.0
 11
-685.842037
 21
-284.308364
 31
0.0
  0
ARC
  5
386
100
AcDbEntity
  8
0
370
    -3
390
0
  6
CENTER
100
AcDbCircle
 10
-536.057104
 20
-134.523432
 30
0.0
 40
190.0
100
AcDbArc
 50
127.725508
 51
142.462775
  0
LINE
  5
387
100
AcDbEntity
  8
0
370
    -3
390
0
  6
CENTER
100
AcDbLine
 10
-653.172927
 20
-17.407608
 30
0.0
 11
-685.841787
 21
15.261251
 31
0.0
  0
ARC
  5
388
100
AcDbEntity
  8
0
370
    -3
390
0
  6
CENTER
100
AcDbCircle
 10
-536.057104
 20
-134.523432
 30
0.0
 40
190.0
100
AcDbArc
 50
37.220832
 51
52.482037
  0
LINE
  5
389
100
AcDbEntity
  8
0
370
    -3
390
0
  6
CENTER
100
AcDbLine
 10
-418.06048
 20
-16.526807
 30
0.0
 11
-385.927832
 21
15.60584
 31
0.0
  0
CIRCLE
  5
38A
100
AcDbEntity
  8
0
370
    -3
390
0
  6
Continuous
100
AcDbCircle
 10
-486.057104
 20
-43.523432
 30
0.0
 40
5.633955
  0
CIRCLE
  5
38B
100
AcDbEntity
  8
0
370
    -3
390
0
  6
Continuous
100
AcDbCircle
 10
-486.057104
 20
-43.523432
 30
0.0
 40
6.5
  0
LINE
  5
38C
100
AcDbEntity
  8
0
370
    -3
390
0
  6
Continuous
100
AcDbLine
 10
-489.057101
 20
-45.255478
 30
0.0
 11
-489.057102
 21
-41.79138
 31
0.0
  0
LINE
  5
38D
100
AcDbEntity
  8
0
370
    -3
390
0
  6
Continuous
100
AcDbLine
 10
-483.057107
 20
-41.791385
 30
0.0
 11
-483.057106
 21
-45.255483
 31
0.0
  0
LINE
  5
38E
100
AcDbEntity
  8
0
370
    -3
390
0
  6
Continuous
100
AcDbLine
 10
-486.057097
 20
-40.059335
 30
0.0
 11
-489.057102
 21
-41.791381
 31
0.0
  0
LINE
  5
38F
100
AcDbEntity
  8
0
370
    -3
390
0
  6
Continuous
100
AcDbLine
 10
-483.057106
 20
-45.255484
 30
0.0
 11
-486.057108
 21
-46.987531
 31
0.0
  0
LINE
  5
390
100
AcDbEntity
  8
0
370
    -3
390
0
  6
Continuous
100
AcDbLine
 10
-486.057097
 20
-40.059335
 30
0.0
 11
-483.057107
 21
-41.791386
 31
0.0
  0
LINE
  5
391
100
AcDbEntity
  8
0
370
    -3
390
0
  6
Continuous
100
AcDbLine
 10
-486.057109
 20
-46.987531
 30
0.0
 11
-489.057102
 21
-45.255479
 31
0.0
  0
CIRCLE
  5
392
100
AcDbEntity
  8
0
370
    -3
390
0
  6
Continuous
100
AcDbCircle
 10
-525.557104
 20
-39.523432
 30
0.0
 40
5.633955
  0
CIRCLE
  5
393
100
AcDbEntity
  8
0
370
    -3
390
0
  6
Continuous
100
AcDbCircle
 10
-525.557104
 20
-39.523432
 30
0.0
 40
6.5
  0
LINE
  5
394
100
AcDbEntity
  8
0
370
    -3
390
0
  6
Continuous
100
AcDbLine
 10
-528.557101
 20
-41.255478
 30
0.0
 11
-528.557102
 21
-37.79138
 31
0.0
  0
LINE
  5
395
100
AcDbEntity
  8
0
370
    -3
390
0
  6
Continuous
100
AcDbLine
 10
-522.557107
 20
-37.791385
 30
0.0
 11
-522.557106
 21
-41.255483
 31
0.0
  0
LINE
  5
396
100
AcDbEntity
  8
0
370
    -3
390
0
  6
Continuous
100
AcDbLine
 10
-525.557097
 20
-36.059335
 30
0.0
 11
-528.557102
 21
-37.79138
 31
0.0
  0
LINE
  5
397
100
AcDbEntity
  8
0
370
    -3
390
0
  6
Continuous
100
AcDbLine
 10
-522.557106
 20
-41.255483
 30
0.0
 11
-525.557108
 21
-42.98753
 31
0.0
  0
LINE
  5
398
100
AcDbEntity
  8
0
370
    -3
390
0
  6
Continuous
100
AcDbLine
 10
-525.557097
 20
-36.059335
 30
0.0
 11
-522.557107
 21
-37.791385
 31
0.0
  0
LINE
  5
399
100
AcDbEntity
  8
0
370
    -3
390
0
  6
Continuous
100
AcDbLine
 10
-525.557109
 20
-42.98753
 30
0.0
 11
-528.557102
 21
-41.255478
 31
0.0
  0
CIRCLE
  5
39A
100
AcDbEntity
  8
0
370
    -3
390
0
  6
Continuous
100
AcDbCircle
 10
-546.557104
 20
-39.523432
 30
0.0
 40
5.633955
  0
CIRCLE
  5
39B
100
AcDbEntity
  8
0
370
    -3
390
0
  6
Continuous
100
AcDbCircle
 10
-546.557104
 20
-39.523432
 30
0.0
 40
6.5
  0
LINE
  5
39C
100
AcDbEntity
  8
0
370
    -3
390
0
  6
Continuous
100
AcDbLine
 10
-543.557107
 20
-41.255478
 30
0.0
 11
-543.557106
 21
-37.79138
 31
0.0
  0
LINE
  5
39D
100
AcDbEntity
  8
0
370
    -3
390
0
  6
Continuous
100
AcDbLine
 10
-549.557101
 20
-37.791385
 30
0.0
 11
-549.557102
 21
-41.255483
 31
0.0
  0
LINE
  5
39E
100
AcDbEntity
  8
0
370
    -3
390
0
  6
Continuous
100
AcDbLine
 10
-546.557111
 20
-36.059335
 30
0.0
 11
-543.557106
 21
-37.79138
 31
0.0
  0
LINE
  5
39F
100
AcDbEntity
  8
0
370
    -3
390
0
  6
Continuous
100
AcDbLine
 10
-549.557102
 20
-41.255483
 30
0.0
 11
-546.557099
 21
-42.98753
 31
0.0
  0
LINE
  5
3A0
100
AcDbEntity
  8
0
370
    -3
390
0
  6
Continuous
100
AcDbLine
 10
-546.557111
 20
-36.059335
 30
0.0
 11
-549.557101
 21
-37.791385
 31
0.0
  0
LINE
  5
3A1
100
AcDbEntity
  8
0
370
    -3
390
0
  6
Continuous
100
AcDbLine
 10
-546.557099
 20
-42.98753
 30
0.0
 11
-543.557106
 21
-41.255478
 31
0.0
  0
CIRCLE
  5
3A2
100
AcDbEntity
  8
0
370
    -3
390
0
  6
Continuous
100
AcDbCircle
 10
-415.057104
 20
-112.523432
 30
0.0
 40
5.633955
  0
CIRCLE
  5
3A3
100
AcDbEntity
  8
0
370
    -3
390
0
  6
Continuous
100
AcDbCircle
 10
-415.057104
 20
-112.523432
 30
0.0
 40
6.5
  0
LINE
  5
3A4
100
AcDbEntity
  8
0
370
    -3
390
0
  6
Continuous
100
AcDbLine
 10
-418.057101
 20
-114.255478
 30
0.0
 11
-418.057102
 21
-110.79138
 31
0.0
  0
LINE
  5
3A5
100
AcDbEntity
  8
0
370
    -3
390
0
  6
Continuous
100
AcDbLine
 10
-412.057107
 20
-110.791385
 30
0.0
 11
-412.057106
 21
-114.255483
 31
0.0
  0
LINE
  5
3A6
100
AcDbEntity
  8
0
370
    -3
390
0
  6
Continuous
100
AcDbLine
 10
-415.057097
 20
-109.059335
 30
0.0
 11
-418.057102
 21
-110.791381
 31
0.0
  0
LINE
  5
3A7
100
AcDbEntity
  8
0
370
    -3
390
0
  6
Continuous
100
AcDbLine
 10
-412.057106
 20
-114.255484
 30
0.0
 11
-415.057108
 21
-115.987531
 31
0.0
  0
LINE
  5
3A8
100
AcDbEntity
  8
0
370
    -3
390
0
  6
Continuous
100
AcDbLine
 10
-415.057097
 20
-109.059335
 30
0.0
 11
-412.057107
 21
-110.791386
 31
0.0
  0
LINE
  5
3A9
100
AcDbEntity
  8
0
370
    -3
390
0
  6
Continuous
100
AcDbLine
 10
-415.057109
 20
-115.987531
 30
0.0
 11
-418.057102
 21
-114.255479
 31
0.0
  0
ARC
  5
3AA
100
AcDbEntity
  8
0
370
    -3
390
0
  6
Continuous
100
AcDbCircle
 10
-414.057104
 20
-202.523432
 30
0.0
 40
5.633955
100
AcDbArc
 50
184.870945
 51
280.223896
  0
ARC
  5
3AB
100
AcDbEntity
  8
0
370
    -3
390
0
  6
Continuous
100
AcDbCircle
 10
-414.057104
 20
-202.523432
 30
0.0
 40
6.5
100
AcDbArc
 50
206.671645
 51
278.849883
  0
LINE
  5
3AC
100
AcDbEntity
  8
0
370
    -3
390
0
  6
Continuous
100
AcDbLine
 10
-417.057101
 20
-204.255478
 30
0.0
 11
-417.057102
 21
-200.79138
 31
0.0
  0
LINE
  5
3AD
100
AcDbEntity
  8
0
370
    -3
390
0
  6
Continuous
100
AcDbLine
 10
-415.918867
 20
-200.134223
 30
0.0
 11
-417.057102
 21
-200.79138
 31
0.0
  0
LINE
  5
3AE
100
AcDbEntity
  8
0
370
    -3
390
0
  6
Continuous
100
AcDbLine
 10
-413.253264
 20
-205.523432
 30
0.0
 11
-414.057108
 21
-205.98753
 31
0.0
  0
LINE
  5
3AF
100
AcDbEntity
  8
0
370
    -3
390
0
  6
Continuous
100
AcDbLine
 10
-414.057109
 20
-205.98753
 30
0.0
 11
-414.860948
 21
-205.523432
 31
0.0
  0
CIRCLE
  5
3B0
100
AcDbEntity
  8
0
370
    -3
390
0
  6
Continuous
100
AcDbCircle
 10
-586.057104
 20
-43.523432
 30
0.0
 40
5.633955
  0
CIRCLE
  5
3B1
100
AcDbEntity
  8
0
370
    -3
390
0
  6
Continuous
100
AcDbCircle
 10
-586.057104
 20
-43.523432
 30
0.0
 40
6.5
  0
LINE
  5
3B2
100
AcDbEntity
  8
0
370
    -3
390
0
  6
Continuous
100
AcDbLine
 10
-583.057107
 20
-45.255478
 30
0.0
 11
-583.057106
 21
-41.79138
 31
0.0
  0
LINE
  5
3B3
100
AcDbEntity
  8
0
370
    -3
390
0
  6
Continuous
100
AcDbLine
 10
-589.057101
 20
-41.791385
 30
0.0
 11
-589.057102
 21
-45.255483
 31
0.0
  0
LINE
  5
3B4
100
AcDbEntity
  8
0
370
    -3
390
0
  6
Continuous
100
AcDbLine
 10
-586.057111
 20
-40.059335
 30
0.0
 11
-583.057106
 21
-41.791381
 31
0.0
  0
LINE
  5
3B5
100
AcDbEntity
  8
0
370
    -3
390
0
  6
Continuous
100
AcDbLine
 10
-589.057102
 20
-45.255484
 30
0.0
 11
-586.057099
 21
-46.987531
 31
0.0
  0
LINE
  5
3B6
100
AcDbEntity
  8
0
370
    -3
390
0
  6
Continuous
100
AcDbLine
 10
-586.057111
 20
-40.059335
 30
0.0
 11
-589.057101
 21
-41.791386
 31
0.0
  0
LINE
  5
3B7
100
AcDbEntity
  8
0
370
    -3
390
0
  6
Continuous
100
AcDbLine
 10
-586.057099
 20
-46.987531
 30
0.0
 11
-583.057106
 21
-45.255479
 31
0.0
  0
CIRCLE
  5
3B8
100
AcDbEntity
  8
0
370
    -3
390
0
  6
Continuous
100
AcDbCircle
 10
-657.057104
 20
-112.523432
 30
0.0
 40
5.633955
  0
CIRCLE
  5
3B9
100
AcDbEntity
  8
0
370
    -3
390
0
  6
Continuous
100
AcDbCircle
 10
-657.057104
 20
-112.523432
 30
0.0
 40
6.5
  0
LINE
  5
3BA
100
AcDbEntity
  8
0
370
    -3
390
0
  6
Continuous
100
AcDbLine
 10
-654.057107
 20
-114.255478
 30
0.0
 11
-654.057106
 21
-110.79138
 31
0.0
  0
LINE
  5
3BB
100
AcDbEntity
  8
0
370
    -3
390
0
  6
Continuous
100
AcDbLine
 10
-660.057101
 20
-110.791385
 30
0.0
 11
-660.057102
 21
-114.255483
 31
0.0
  0
LINE
  5
3BC
100
AcDbEntity
  8
0
370
    -3
390
0
  6
Continuous
100
AcDbLine
 10
-657.057111
 20
-109.059335
 30
0.0
 11
-654.057106
 21
-110.791381
 31
0.0
  0
LINE
  5
3BD
100
AcDbEntity
  8
0
370
    -3
390
0
  6
Continuous
100
AcDbLine
 10
-660.057102
 20
-114.255484
 30
0.0
 11
-657.057099
 21
-115.987531
 31
0.0
  0
LINE
  5
3BE
100
AcDbEntity
  8
0
370
    -3
390
0
  6
Continuous
100
AcDbLine
 10
-657.057111
 20
-109.059335
 30
0.0
 11
-660.057101
 21
-110.791386
 31
0.0
  0
LINE
  5
3BF
100
AcDbEntity
  8
0
370
    -3
390
0
  6
Continuous
100
AcDbLine
 10
-657.057099
 20
-115.987531
 30
0.0
 11
-654.057106
 21
-114.255479
 31
0.0
  0
ARC
  5
3C0
100
AcDbEntity
  8
0
370
    -3
390
0
  6
Continuous
100
AcDbCircle
 10
-658.057104
 20
-202.523432
 30
0.0
 40
5.633955
100
AcDbArc
 50
11.479296
 51
355.129055
  0
ARC
  5
3C1
100
AcDbEntity
  8
0
370
    -3
390
0
  6
Continuous
100
AcDbCircle
 10
-658.057104
 20
-202.523432
 30
0.0
 40
6.5
100
AcDbArc
 50
33.93453
 51
333.328355
  0
LINE
  5
3C2
100
AcDbEntity
  8
0
370
    -3
390
0
  6
Continuous
100
AcDbLine
 10
-655.057107
 20
-204.255478
 30
0.0
 11
-655.057106
 21
-200.79138
 31
0.0
  0
LINE
  5
3C3
100
AcDbEntity
  8
0
370
    -3
390
0
  6
Continuous
100
AcDbLine
 10
-661.057101
 20
-200.791385
 30
0.0
 11
-661.057102
 21
-204.255483
 31
0.0
  0
LINE
  5
3C4
100
AcDbEntity
  8
0
370
    -3
390
0
  6
Continuous
100
AcDbLine
 10
-658.057111
 20
-199.059335
 30
0.0
 11
-655.057106
 21
-200.79138
 31
0.0
  0
LINE
  5
3C5
100
AcDbEntity
  8
0
370
    -3
390
0
  6
Continuous
100
AcDbLine
 10
-661.057102
 20
-204.255483
 30
0.0
 11
-658.057099
 21
-205.98753
 31
0.0
  0
LINE
  5
3C6
100
AcDbEntity
  8
0
370
    -3
390
0
  6
Continuous
100
AcDbLine
 10
-658.057111
 20
-199.059335
 30
0.0
 11
-661.057101
 21
-200.791385
 31
0.0
  0
LINE
  5
3C7
100
AcDbEntity
  8
0
370
    -3
390
0
  6
Continuous
100
AcDbLine
 10
-658.057099
 20
-205.98753
 30
0.0
 11
-655.057106
 21
-204.255478
 31
0.0
  0
CIRCLE
  5
3C8
100
AcDbEntity
  8
0
370
    -3
390
0
  6
Continuous
100
AcDbCircle
 10
-613.557104
 20
-294.523432
 30
0.0
 40
5.633955
  0
CIRCLE
  5
3C9
100
AcDbEntity
  8
0
370
    -3
390
0
  6
Continuous
100
AcDbCircle
 10
-613.557104
 20
-294.523432
 30
0.0
 40
6.5
  0
LINE
  5
3CA
100
AcDbEntity
  8
0
370
    -3
390
0
  6
Continuous
100
AcDbLine
 10
-610.557107
 20
-296.255478
 30
0.0
 11
-610.557106
 21
-292.79138
 31
0.0
  0
LINE
  5
3CB
100
AcDbEntity
  8
0
370
    -3
390
0
  6
Continuous
100
AcDbLine
 10
-616.557101
 20
-292.791385
 30
0.0
 11
-616.557102
 21
-296.255483
 31
0.0
  0
LINE
  5
3CC
100
AcDbEntity
  8
0
370
    -3
390
0
  6
Continuous
100
AcDbLine
 10
-613.557111
 20
-291.059335
 30
0.0
 11
-610.557106
 21
-292.79138
 31
0.0
  0
LINE
  5
3CD
100
AcDbEntity
  8
0
370
    -3
390
0
  6
Continuous
100
AcDbLine
 10
-616.557102
 20
-296.255483
 30
0.0
 11
-613.557099
 21
-297.98753
 31
0.0
  0
LINE
  5
3CE
100
AcDbEntity
  8
0
370
    -3
390
0
  6
Continuous
100
AcDbLine
 10
-613.557111
 20
-291.059335
 30
0.0
 11
-616.557101
 21
-292.791385
 31
0.0
  0
LINE
  5
3CF
100
AcDbEntity
  8
0
370
    -3
390
0
  6
Continuous
100
AcDbLine
 10
-613.557099
 20
-297.98753
 30
0.0
 11
-610.557106
 21
-296.255478
 31
0.0
  0
ARC
  5
3D0
100
AcDbEntity
  8
0
370
    -3
390
0
  6
Continuous
100
AcDbCircle
 10
-528.557104
 20
-294.523432
 30
0.0
 40
5.633955
100
AcDbArc
 50
150.119185
 51
31.58592
  0
ARC
  5
3D1
100
AcDbEntity
  8
0
370
    -3
390
0
  6
Continuous
100
AcDbCircle
 10
-528.557104
 20
-294.523432
 30
0.0
 40
6.5
100
AcDbArc
 50
154.457553
 51
27.247553
  0
LINE
  5
3D2
100
AcDbEntity
  8
0
370
    -3
390
0
  6
Continuous
100
AcDbLine
 10
-531.557101
 20
-296.255478
 30
0.0
 11
-531.557102
 21
-292.79138
 31
0.0
  0
LINE
  5
3D3
100
AcDbEntity
  8
0
370
    -3
390
0
  6
Continuous
100
AcDbLine
 10
-525.557107
 20
-292.791385
 30
0.0
 11
-525.557106
 21
-296.255483
 31
0.0
  0
LINE
  5
3D4
100
AcDbEntity
  8
0
370
    -3
390
0
  6
Continuous
100
AcDbLine
 10
-529.636109
 20
-291.682299
 30
0.0
 11
-531.557102
 21
-292.79138
 31
0.0
  0
LINE
  5
3D5
100
AcDbEntity
  8
0
370
    -3
390
0
  6
Continuous
100
AcDbLine
 10
-525.557106
 20
-296.255483
 30
0.0
 11
-528.557108
 21
-297.98753
 31
0.0
  0
LINE
  5
3D6
100
AcDbEntity
  8
0
370
    -3
390
0
  6
Continuous
100
AcDbLine
 10
-527.532427
 20
-291.65093
 30
0.0
 11
-525.557107
 21
-292.791385
 31
0.0
  0
LINE
  5
3D7
100
AcDbEntity
  8
0
370
    -3
390
0
  6
Continuous
100
AcDbLine
 10
-528.557109
 20
-297.98753
 30
0.0
 11
-531.557102
 21
-296.255478
 31
0.0
  0
CIRCLE
  5
3D8
100
AcDbEntity
  8
0
370
    -3
390
0
  6
Continuous
100
AcDbCircle
 10
-458.557104
 20
-294.523432
 30
0.0
 40
5.633955
  0
CIRCLE
  5
3D9
100
AcDbEntity
  8
0
370
    -3
390
0
  6
Continuous
100
AcDbCircle
 10
-458.557104
 20
-294.523432
 30
0.0
 40
6.5
  0
LINE
  5
3DA
100
AcDbEntity
  8
0
370
    -3
390
0
  6
Continuous
100
AcDbLine
 10
-461.557101
 20
-296.255478
 30
0.0
 11
-461.557102
 21
-292.79138
 31
0.0
  0
LINE
  5
3DB
100
AcDbEntity
  8
0
370
    -3
390
0
  6
Continuous
100
AcDbLine
 10
-455.557107
 20
-292.791385
 30
0.0
 11
-455.557106
 21
-296.255483
 31
0.0
  0
LINE
  5
3DC
100
AcDbEntity
  8
0
370
    -3
390
0
  6
Continuous
100
AcDbLine
 10
-458.557097
 20
-291.059335
 30
0.0
 11
-461.557102
 21
-292.79138
 31
0.0
  0
LINE
  5
3DD
100
AcDbEntity
  8
0
370
    -3
390
0
  6
Continuous
100
AcDbLine
 10
-455.557106
 20
-296.255483
 30
0.0
 11
-458.557108
 21
-297.98753
 31
0.0
  0
LINE
  5
3DE
100
AcDbEntity
  8
0
370
    -3
390
0
  6
Continuous
100
AcDbLine
 10
-458.557097
 20
-291.059335
 30
0.0
 11
-455.557107
 21
-292.791385
 31
0.0
  0
LINE
  5
3DF
100
AcDbEntity
  8
0
370
    -3
390
0
  6
Continuous
100
AcDbLine
 10
-458.557109
 20
-297.98753
 30
0.0
 11
-461.557102
 21
-296.255478
 31
0.0
  0
ARC
  5
3E0
100
AcDbEntity
  8
0
370
    -3
390
0
  6
Continuous
100
AcDbCircle
 10
-551.557104
 20
-55.523432
 30
0.0
 40
5.0
100
AcDbArc
 50
180.0
 51
206.088883
  0
ARC
  5
3E1
100
AcDbEntity
  8
0
370
    -3
390
0
  6
Continuous
100
AcDbCircle
 10
-520.557104
 20
-55.523432
 30
0.0
 40
5.0
100
AcDbArc
 50
333.911117
 51
0.0
  0
LINE
  5
3E2
100
AcDbEntity
  8
0
370
    -3
390
0
  6
Continuous
100
AcDbLine
 10
-539.557104
 20
-2.155935
 30
0.0
 11
-539.557104
 21
-20.890929
 31
0.0
  0
LINE
  5
3E3
100
AcDbEntity
  8
0
370
    -3
390
0
  6
Continuous
100
AcDbLine
 10
-532.557104
 20
-2.155935
 30
0.0
 11
-532.557104
 21
-20.890929
 31
0.0
  0
LINE
  5
3E4
100
AcDbEntity
  8
0
370
    -3
390
0
  6
Continuous
100
AcDbLine
 10
-515.557104
 20
-1.523432
 30
0.0
 11
-515.557104
 21
-29.873743
 31
0.0
  0
ARC
  5
3E5
100
AcDbEntity
  8
0
370
    -3
390
0
  6
Continuous
100
AcDbCircle
 10
-525.557104
 20
-1.523432
 30
0.0
 40
10.0
100
AcDbArc
 50
0.0
 51
90.0
  0
ARC
  5
3E6
100
AcDbEntity
  8
0
370
    -3
390
0
  6
Continuous
100
AcDbCircle
 10
-546.557104
 20
-1.523432
 30
0.0
 40
10.0
100
AcDbArc
 50
90.0
 51
180.0
  0
LINE
  5
3E7
100
AcDbEntity
  8
0
370
    -3
390
0
  6
Continuous
100
AcDbLine
 10
-556.557104
 20
-1.523432
 30
0.0
 11
-556.557104
 21
-29.873743
 31
0.0
  0
LINE
  5
3E8
100
AcDbEntity
  8
0
370
    -3
390
0
  6
Continuous
100
AcDbLine
 10
-525.557104
 20
8.476568
 30
0.0
 11
-546.557104
 21
8.476568
 31
0.0
  0
LINE
  5
3E9
100
AcDbEntity
  8
0
370
    -3
390
0
  6
CENTER
100
AcDbLine
 10
-512.889191
 20
-11.523432
 30
0.0
 11
-559.911705
 21
-11.523432
 31
0.0
  0
CIRCLE
  5
3EA
100
AcDbEntity
  8
0
370
    -3
390
0
  6
Continuous
100
AcDbCircle
 10
-536.057104
 20
-11.523432
 30
0.0
 40
10.0
  0
LINE
  5
3EB
100
AcDbEntity
  8
0
370
    -3
390
0
  6
CENTER
100
AcDbLine
 10
-577.342566
 20
-134.523432
 30
0.0
 11
-495.040846
 21
-134.523432
 31
0.0
  0
ARC
  5
3EC
100
AcDbEntity
  8
0
370
    -3
390
0
  6
Continuous
100
AcDbCircle
 10
-633.961918
 20
-64.597802
 30
0.0
 40
5.0
100
AcDbArc
 50
133.973976
 51
225.0
  0
ARC
  5
3ED
100
AcDbEntity
  8
0
370
    -3
390
0
  6
Continuous
100
AcDbCircle
 10
-645.22084
 20
-77.380511
 30
0.0
 40
5.0
100
AcDbArc
 50
45.0
 51
143.279272
  0
ARC
  5
3EE
100
AcDbEntity
  8
0
370
    -3
390
0
  6
Continuous
100
AcDbCircle
 10
-426.893368
 20
-77.380511
 30
0.0
 40
5.0
100
AcDbArc
 50
36.720728
 51
135.0
  0
ARC
  5
3EF
100
AcDbEntity
  8
0
370
    -3
390
0
  6
Continuous
100
AcDbCircle
 10
-438.15229
 20
-64.597802
 30
0.0
 40
5.0
100
AcDbArc
 50
315.0
 51
46.026024
  0
LINE
  5
3F0
100
AcDbEntity
  8
0
370
    -3
390
0
  6
Continuous
100
AcDbLine
 10
-515.557104
 20
-29.873743
 30
0.0
 11
-515.557104
 21
-55.523432
 31
0.0
  0
LINE
  5
3F1
100
AcDbEntity
  8
0
370
    -3
390
0
  6
Continuous
100
AcDbLine
 10
-556.557104
 20
-29.873743
 30
0.0
 11
-556.557104
 21
-55.523432
 31
0.0
  0
ARC
  5
3F2
100
AcDbEntity
  8
0
370
    -3
390
0
  6
Continuous
100
AcDbCircle
 10
-536.057104
 20
-629.523432
 30
0.0
 40
600.0
100
AcDbArc
 50
87.075476
 51
88.042013
  0
ARC
  5
3F3
100
AcDbEntity
  8
0
370
    -3
390
0
  6
Continuous
100
AcDbCircle
 10
-536.057104
 20
-629.523432
 30
0.0
 40
600.0
100
AcDbArc
 50
91.957987
 51
92.924524
  0
LINE
  5
3F4
100
AcDbEntity
  8
0
370
    -3
390
0
  6
Continuous
100
AcDbLine
 10
-633.599685
 20
-277.01576
 30
0.0
 11
-625.066462
 21
-268.482537
 31
0.0
  0
LINE
  5
3F5
100
AcDbEntity
  8
0
370
    -3
390
0
  6
Continuous
100
AcDbLine
 10
-637.915061
 20
-271.431641
 30
0.0
 11
-630.01621
 21
-263.53279
 31
0.0
  0
LINE
  5
3F6
100
AcDbEntity
  8
0
370
    -3
390
0
  6
Continuous
100
AcDbLine
 10
-434.199147
 20
-271.431641
 30
0.0
 11
-442.097998
 21
-263.53279
 31
0.0
  0
LINE
  5
3F7
100
AcDbEntity
  8
0
370
    -3
390
0
  6
Continuous
100
AcDbLine
 10
-438.514523
 20
-277.01576
 30
0.0
 11
-447.047746
 21
-268.482537
 31
0.0
  0
LINE
  5
3F8
100
AcDbEntity
  8
0
370
    -3
390
0
  6
Continuous
100
AcDbLine
 10
-430.428902
 20
-73.844977
 30
0.0
 11
-442.097998
 21
-85.514073
 31
0.0
  0
LINE
  5
3F9
100
AcDbEntity
  8
0
370
    -3
390
0
  6
Continuous
100
AcDbLine
 10
-434.616756
 20
-68.133336
 30
0.0
 11
-447.047746
 21
-80.564326
 31
0.0
  0
LINE
  5
3FA
100
AcDbEntity
  8
0
370
    -3
390
0
  6
Continuous
100
AcDbLine
 10
-637.497452
 20
-68.133336
 30
0.0
 11
-625.066462
 21
-80.564326
 31
0.0
  0
LINE
  5
3FB
100
AcDbEntity
  8
0
370
    -3
390
0
  6
Continuous
100
AcDbLine
 10
-641.685306
 20
-73.844977
 30
0.0
 11
-630.01621
 21
-85.514073
 31
0.0
  0
LINE
  5
3FC
100
AcDbEntity
  8
0
370
    -3
390
0
  6
CENTER
100
AcDbLine
 10
-703.128594
 20
-174.523432
 30
0.0
 11
-358.331551
 21
-174.523432
 31
0.0
  0
LINE
  5
3FD
100
AcDbEntity
  8
0
370
    -3
390
0
  6
Continuous
100
AcDbLine
 10
-670.378292
 20
-195.097078
 30
0.0
 11
-654.965088
 21
-252.739033
 31
0.0
  0
LINE
  5
3FE
100
AcDbEntity
  8
0
370
    -3
390
0
  6
Continuous
100
AcDbLine
 10
-408.658793
 20
-220.987097
 30
0.0
 11
-417.14912
 21
-252.739033
 31
0.0
  0
LINE
  5
3FF
100
AcDbEntity
  8
0
370
    -3
390
0
  6
Continuous
100
AcDbLine
 10
-671.057104
 20
-140.161603
 30
0.0
 11
-671.057104
 21
-189.930677
 31
0.0
  0
LINE
  5
400
100
AcDbEntity
  8
0
370
    -3
390
0
  6
Continuous
100
AcDbLine
 10
-653.176291
 20
-165.523432
 30
0.0
 11
-668.057104
 21
-165.523432
 31
0.0
  0
LINE
  5
401
100
AcDbEntity
  8
0
370
    -3
390
0
  6
Continuous
100
AcDbLine
 10
-652.968713
 20
-191.523432
 30
0.0
 11
-667.426283
 21
-191.523432
 31
0.0
  0
ARC
  5
402
100
AcDbEntity
  8
0
370
    -3
390
0
  6
Continuous
100
AcDbCircle
 10
-630.064151
 20
-280.551294
 30
0.0
 40
5.0
100
AcDbArc
 50
135.0
 51
228.768524
  0
ARC
  5
403
100
AcDbEntity
  8
0
370
    -3
390
0
  6
Continuous
100
AcDbCircle
 10
-641.450595
 20
-267.896107
 30
0.0
 40
5.0
100
AcDbArc
 50
215.189774
 51
315.0
  0
ARC
  5
404
100
AcDbEntity
  8
0
370
    -3
390
0
  6
Continuous
100
AcDbCircle
 10
-430.663613
 20
-267.896107
 30
0.0
 40
5.0
100
AcDbArc
 50
225.0
 51
324.810226
  0
ARC
  5
405
100
AcDbEntity
  8
0
370
    -3
390
0
  6
Continuous
100
AcDbCircle
 10
-442.050057
 20
-280.551294
 30
0.0
 40
5.0
100
AcDbArc
 50
311.231476
 51
45.0
  0
ARC
  5
406
100
AcDbEntity
  8
0
370
    -3
390
0
  6
Continuous
100
AcDbCircle
 10
-651.057104
 20
-189.930677
 30
0.0
 40
20.0
100
AcDbArc
 50
180.0
 51
194.970401
  0
ARC
  5
407
100
AcDbEntity
  8
0
370
    -3
390
0
  6
Continuous
100
AcDbCircle
 10
-582.608756
 20
-226.403482
 30
0.0
 40
77.0
100
AcDbArc
 50
200.0
 51
234.885533
  0
ARC
  5
408
100
AcDbEntity
  8
0
370
    -3
390
0
  6
Continuous
100
AcDbCircle
 10
-631.50176
 20
-295.933865
 30
0.0
 40
8.0
100
AcDbArc
 50
4.494157
 51
54.885533
  0
ARC
  5
409
100
AcDbEntity
  8
0
370
    -3
390
0
  6
Continuous
100
AcDbCircle
 10
-440.612448
 20
-295.933865
 30
0.0
 40
8.0
100
AcDbArc
 50
125.114467
 51
175.505843
  0
ARC
  5
40A
100
AcDbEntity
  8
0
370
    -3
390
0
  6
Continuous
100
AcDbCircle
 10
-489.505452
 20
-226.403482
 30
0.0
 40
77.0
100
AcDbArc
 50
305.114467
 51
340.0
  0
ARC
  5
40B
100
AcDbEntity
  8
0
370
    -3
390
0
  6
Continuous
100
AcDbCircle
 10
-668.057104
 20
-162.523432
 30
0.0
 40
3.0
100
AcDbArc
 50
180.0
 51
270.0
  0
ARC
  5
40C
100
AcDbEntity
  8
0
370
    -3
390
0
  6
Continuous
100
AcDbCircle
 10
-667.426283
 20
-194.523432
 30
0.0
 40
3.0
100
AcDbArc
 50
90.0
 51
194.970401
  0
LINE
  5
40D
100
AcDbEntity
  8
0
370
    -3
390
0
  6
CENTER
100
AcDbLine
 10
-536.057104
 20
29.934786
 30
0.0
 11
-536.057104
 21
-318.43646
 31
0.0
  0
ARC
  5
40E
100
AcDbEntity
  8
0
370
    -3
390
0
  6
Continuous
100
AcDbCircle
 10
-511.057104
 20
-140.161603
 30
0.0
 40
110.0
100
AcDbArc
 50
0.741461
 51
87.075476
  0
ARC
  5
40F
100
AcDbEntity
  8
0
370
    -3
390
0
  6
Continuous
100
AcDbCircle
 10
-561.057104
 20
-140.161603
 30
0.0
 40
110.0
100
AcDbArc
 50
92.924524
 51
180.0
  0
LINE
  5
410
100
AcDbEntity
  8
0
370
    -3
390
0
  6
Continuous
100
AcDbLine
 10
-421.794271
 20
-25.210346
 30
0.0
 11
-443.118591
 21
-46.534666
 31
0.0
  0
LINE
  5
411
100
AcDbEntity
  8
0
370
    -3
390
0
  6
Continuous
100
AcDbLine
 10
-428.563712
 20
-22.080292
 30
0.0
 11
-450.380988
 21
-43.897568
 31
0.0
  0
LINE
  5
412
100
AcDbEntity
  8
0
370
    -3
390
0
  6
Continuous
100
AcDbLine
 10
-650.319937
 20
-25.210346
 30
0.0
 11
-628.995616
 21
-46.534666
 31
0.0
  0
LINE
  5
413
100
AcDbEntity
  8
0
370
    -3
390
0
  6
Continuous
100
AcDbLine
 10
-643.550496
 20
-22.080292
 30
0.0
 11
-621.73322
 21
-43.897568
 31
0.0
  0
LINE
  5
414
100
AcDbEntity
  8
0
370
    -3
390
0
  6
Continuous
100
AcDbLine
 10
-393.557104
 20
-292.023432
 30
0.0
 11
-444.064292
 21
-292.023432
 31
0.0
  0
LINE
  5
415
100
AcDbEntity
  8
0
370
    -3
390
0
  6
Continuous
100
AcDbLine
 10
-628.049916
 20
-292.023432
 30
0.0
 11
-678.557104
 21
-292.023432
 31
0.0
  0
LINE
  5
416
100
AcDbEntity
  8
0
370
    -3
390
0
  6
Continuous
100
AcDbLine
 10
-378.557104
 20
7.976568
 30
0.0
 11
-378.557104
 21
-142.431475
 31
0.0
  0
LINE
  5
417
100
AcDbEntity
  8
0
370
    -3
390
0
  6
Continuous
100
AcDbLine
 10
-693.557104
 20
7.976568
 30
0.0
 11
-693.557104
 21
-277.023432
 31
0.0
  0
LINE
  5
418
100
AcDbEntity
  8
0
370
    -3
390
0
  6
Continuous
100
AcDbLine
 10
-393.557104
 20
22.976568
 30
0.0
 11
-678.557104
 21
22.976568
 31
0.0
  0
LINE
  5
419
100
AcDbEntity
  8
0
370
    -3
390
0
  6
Continuous
100
AcDbLine
 10
-536.057104
 20
-302.523432
 30
0.0
 11
-452.557104
 21
-302.523432
 31
0.0
  0
LINE
  5
41A
100
AcDbEntity
  8
0
370
    -3
390
0
  6
Continuous
100
AcDbLine
 10
-536.057104
 20
-302.523432
 30
0.0
 11
-619.557104
 21
-302.523432
 31
0.0
  0
ARC
  5
41B
100
AcDbEntity
  8
0
370
    -3
390
0
  6
Continuous
100
AcDbCircle
 10
-432.099246
 20
-18.544758
 30
0.0
 40
5.0
100
AcDbArc
 50
315.0
 51
57.006974
  0
ARC
  5
41C
100
AcDbEntity
  8
0
370
    -3
390
0
  6
Continuous
100
AcDbCircle
 10
-418.258737
 20
-28.74588
 30
0.0
 40
5.0
100
AcDbArc
 50
50.20902
 51
135.0
  0
ARC
  5
41D
100
AcDbEntity
  8
0
370
    -3
390
0
  6
Continuous
100
AcDbCircle
 10
-453.916522
 20
-40.362034
 30
0.0
 40
5.0
100
AcDbArc
 50
240.206558
 51
315.0
  0
ARC
  5
41E
100
AcDbEntity
  8
0
370
    -3
390
0
  6
Continuous
100
AcDbCircle
 10
-439.583058
 20
-50.0702
 30
0.0
 40
5.0
100
AcDbArc
 50
135.0
 51
231.573261
  0
ARC
  5
41F
100
AcDbEntity
  8
0
370
    -3
390
0
  6
Continuous
100
AcDbCircle
 10
-653.855471
 20
-28.74588
 30
0.0
 40
5.0
100
AcDbArc
 50
45.0
 51
129.79098
  0
ARC
  5
420
100
AcDbEntity
  8
0
370
    -3
390
0
  6
Continuous
100
AcDbCircle
 10
-632.53115
 20
-50.0702
 30
0.0
 40
5.0
100
AcDbArc
 50
308.426739
 51
45.0
  0
ARC
  5
421
100
AcDbEntity
  8
0
370
    -3
390
0
  6
Continuous
100
AcDbCircle
 10
-618.197686
 20
-40.362034
 30
0.0
 40
5.0
100
AcDbArc
 50
225.0
 51
299.793442
  0
ARC
  5
422
100
AcDbEntity
  8
0
370
    -3
390
0
  6
Continuous
100
AcDbCircle
 10
-640.014962
 20
-18.544758
 30
0.0
 40
5.0
100
AcDbArc
 50
122.993026
 51
225.0
  0
ARC
  5
423
100
AcDbEntity
  8
0
370
    -3
390
0
  6
Continuous
100
AcDbCircle
 10
-527.557104
 20
5.494029
 30
0.0
 40
5.0
100
AcDbArc
 50
90.0
 51
143.379797
  0
ARC
  5
424
100
AcDbEntity
  8
0
370
    -3
390
0
  6
Continuous
100
AcDbCircle
 10
-534.557104
 20
-6.146354
 30
0.0
 40
2.0
100
AcDbArc
 50
0.0
 51
33.678871
  0
ARC
  5
425
100
AcDbEntity
  8
0
370
    -3
390
0
  6
Continuous
100
AcDbCircle
 10
-544.557104
 20
5.494029
 30
0.0
 40
5.0
100
AcDbArc
 50
36.620203
 51
90.0
  0
ARC
  5
426
100
AcDbEntity
  8
0
370
    -3
390
0
  6
Continuous
100
AcDbCircle
 10
-537.557104
 20
-6.146354
 30
0.0
 40
2.0
100
AcDbArc
 50
146.321129
 51
180.0
  0
ARC
  5
427
100
AcDbEntity
  8
0
370
    -3
390
0
  6
Continuous
100
AcDbCircle
 10
-440.612448
 20
-295.933865
 30
0.0
 40
8.0
100
AcDbArc
 50
125.114467
 51
175.505843
  0
ARC
  5
428
100
AcDbEntity
  8
0
370
    -3
390
0
  6
Continuous
100
AcDbCircle
 10
-631.50176
 20
-295.933865
 30
0.0
 40
8.0
100
AcDbArc
 50
4.494157
 51
54.885533
  0
CIRCLE
  5
429
100
AcDbEntity
  8
0
370
    -3
390
0
  6
Continuous
100
AcDbCircle
 10
-670.407392
 20
-268.87372
 30
0.0
 40
12.0
  0
ARC
  5
42A
100
AcDbEntity
  8
0
370
    -3
390
0
  6
Continuous
100
AcDbCircle
 10
-678.557104
 20
7.976568
 30
0.0
 40
15.0
100
AcDbArc
 50
90.0
 51
180.0
  0
ARC
  5
42B
100
AcDbEntity
  8
0
370
    -3
390
0
  6
Continuous
100
AcDbCircle
 10
-678.557104
 20
-277.023432
 30
0.0
 40
15.0
100
AcDbArc
 50
180.0
 51
270.0
  0
ARC
  5
42C
100
AcDbEntity
  8
0
370
    -3
390
0
  6
Continuous
100
AcDbCircle
 10
-393.557104
 20
-277.023432
 30
0.0
 40
15.0
100
AcDbArc
 50
270.0
 51
0.0
  0
ARC
  5
42D
100
AcDbEntity
  8
0
370
    -3
390
0
  6
Continuous
100
AcDbCircle
 10
-393.557104
 20
7.976568
 30
0.0
 40
15.0
100
AcDbArc
 50
0.0
 51
90.0
  0
CIRCLE
  5
42E
100
AcDbEntity
  8
0
370
    -3
390
0
  6
Continuous
100
AcDbCircle
 10
-401.706816
 20
-268.87372
 30
0.0
 40
12.0
  0
CIRCLE
  5
42F
100
AcDbEntity
  8
0
370
    -3
390
0
  6
Continuous
100
AcDbCircle
 10
-401.706816
 20
-0.173143
 30
0.0
 40
12.0
  0
CIRCLE
  5
430
100
AcDbEntity
  8
0
370
    -3
390
0
  6
Continuous
100
AcDbCircle
 10
-670.407392
 20
-0.173143
 30
0.0
 40
12.0
  0
ARC
  5
431
100
AcDbEntity
  8
0
370
    -3
390
0
  6
Continuous
100
AcDbCircle
 10
-458.557104
 20
-294.523432
 30
0.0
 40
10.0
100
AcDbArc
 50
306.869898
 51
355.505843
  0
ARC
  5
432
100
AcDbEntity
  8
0
370
    -3
390
0
  6
Continuous
100
AcDbCircle
 10
-613.557104
 20
-294.523432
 30
0.0
 40
10.0
100
AcDbArc
 50
184.494157
 51
233.130102
  0
LINE
  5
433
100
AcDbEntity
  8
0
370
    -3
390
0
  6
Continuous
100
AcDbLine
 10
-415.657104
 20
-205.063769
 30
0.0
 11
-417.057102
 21
-204.255478
 31
0.0
  0
LINE
  5
434
100
AcDbEntity
  8
0
370
    -3
390
0
  6
Continuous
100
AcDbLine
 10
-378.557104
 20
-221.023432
 30
0.0
 11
-378.557104
 21
-277.023432
 31
0.0
  0
ARC
  5
435
100
AcDbEntity
  8
0
370
    -3
390
0
  6
Continuous
100
AcDbCircle
 10
-534.557104
 20
-6.146354
 30
0.0
 40
2.0
100
AcDbArc
 50
0.0
 51
90.0
  0
LINE
  5
436
100
AcDbEntity
  8
0
370
    -3
390
0
  6
Continuous
100
AcDbLine
 10
-537.557104
 20
-4.146354
 30
0.0
 11
-534.557104
 21
-4.146354
 31
0.0
  0
ARC
  5
437
100
AcDbEntity
  8
0
370
    -3
390
0
  6
Continuous
100
AcDbCircle
 10
-537.557104
 20
-6.146354
 30
0.0
 40
2.0
100
AcDbArc
 50
90.0
 51
180.0
  0
ARC
  5
438
100
AcDbEntity
  8
0
370
    -3
390
0
  6
Continuous
100
AcDbCircle
 10
-525.557104
 20
-39.523432
 30
0.0
 40
10.0
100
AcDbArc
 50
270.0
 51
0.0
  0
LINE
  5
439
100
AcDbEntity
  8
0
370
    -3
390
0
  6
Continuous
100
AcDbLine
 10
-546.557104
 20
-49.523432
 30
0.0
 11
-525.557104
 21
-49.523432
 31
0.0
  0
ARC
  5
43A
100
AcDbEntity
  8
0
370
    -3
390
0
  6
Continuous
100
AcDbCircle
 10
-546.557104
 20
-39.523432
 30
0.0
 40
10.0
100
AcDbArc
 50
180.0
 51
270.0
  0
MTEXT
  5
43C
100
AcDbEntity
  8
0
370
    -3
390
0
  6
Continuous
100
AcDbMText
 10
-572.200134
 20
234.530579
 30
0.0
 40
16.0
 41
0.0
 71
     7
 72
     1
  1
\W0.83;三菱ギヤードモータ  
  7
ZU_SHPTB00001
 11
1.0
 21
0.0
 31
0.0
 73
     1
 44
1.0
  0
MTEXT
  5
43D
100
AcDbEntity
  8
0
370
    -3
390
0
  6
Continuous
100
AcDbMText
 10
-572.200134
 20
213.330582
 30
0.0
 40
16.0
 41
0.0
 71
     7
 72
     1
  1
\W0.60;GM-DPFB
  7
ZU_SHPTB00001
 11
1.0
 21
0.0
 31
0.0
 73
     1
 44
1.0
  0
MTEXT
  5
43E
100
AcDbEntity
  8
0
370
    -3
390
0
  6
Continuous
100
AcDbMText
 10
-572.200134
 20
192.130569
 30
0.0
 40
16.0
 41
0.0
 71
     7
 72
     1
  1
\W0.60;3.7(kW)
  7
ZU_SHPTB00001
 11
1.0
 21
0.0
 31
0.0
 73
     1
 44
1.0
  0
MTEXT
  5
43F
100
AcDbEntity
  8
0
370
    -3
390
0
  6
Continuous
100
AcDbMText
 10
-572.200134
 20
170.930573
 30
0.0
 40
16.0
 41
0.0
 71
     7
 72
     1
  1
\W0.60;1/3\W0.83;～\W0.60;1/30
  7
ZU_SHPTB00001
 11
1.0
 21
0.0
 31
0.0
 73
     1
 44
1.0
  0
MTEXT
  5
440
100
AcDbEntity
  8
0
370
    -3
390
0
  6
Continuous
100
AcDbMText
 10
-572.200134
 20
149.730576
 30
0.0
 40
16.0
 41
0.0
 71
     7
 72
     1
  1
\W0.60;SCALE\W1.00; \W0.60;1/1
  7
ZU_SHPTB00001
 11
1.0
 21
0.0
 31
0.0
 73
     1
 44
1.0
  0
LINE
  5
441
100
AcDbEntity
  8
0
370
    -3
390
0
  6
Continuous
100
AcDbLine
 10
86.841416
 20
110.110444
 30
0.0
 11
86.841416
 21
98.842498
 31
0.0
  0
LINE
  5
442
100
AcDbEntity
  8
0
370
    -3
390
0
  6
Continuous
100
AcDbLine
 10
94.841415
 20
110.976568
 30
0.0
 11
87.341416
 21
110.976568
 31
0.0
  0
LINE
  5
443
100
AcDbEntity
  8
0
370
    -3
390
0
  6
Continuous
100
AcDbLine
 10
94.841415
 20
97.976568
 30
0.0
 11
87.341417
 21
97.976568
 31
0.0
  0
LINE
  5
444
100
AcDbEntity
  8
0
370
    -3
390
0
  6
Continuous
100
AcDbLine
 10
87.341417
 20
110.976568
 30
0.0
 11
86.841417
 21
110.110444
 31
0.0
  0
LINE
  5
445
100
AcDbEntity
  8
0
370
    -3
390
0
  6
Continuous
100
AcDbLine
 10
87.341418
 20
97.976568
 30
0.0
 11
86.841417
 21
98.842498
 31
0.0
  0
LINE
  5
446
100
AcDbEntity
  8
0
370
    -3
390
0
  6
Continuous
100
AcDbLine
 10
87.341416
 20
110.976568
 30
0.0
 11
87.341416
 21
97.976568
 31
0.0
  0
LINE
  5
447
100
AcDbEntity
  8
0
370
    -3
390
0
  6
Continuous
100
AcDbLine
 10
86.841416
 20
181.110444
 30
0.0
 11
86.841416
 21
169.842498
 31
0.0
  0
LINE
  5
448
100
AcDbEntity
  8
0
370
    -3
390
0
  6
Continuous
100
AcDbLine
 10
94.841415
 20
181.976568
 30
0.0
 11
87.341416
 21
181.976568
 31
0.0
  0
LINE
  5
449
100
AcDbEntity
  8
0
370
    -3
390
0
  6
Continuous
100
AcDbLine
 10
94.841415
 20
168.976568
 30
0.0
 11
87.341417
 21
168.976568
 31
0.0
  0
LINE
  5
44A
100
AcDbEntity
  8
0
370
    -3
390
0
  6
Continuous
100
AcDbLine
 10
87.341417
 20
181.976568
 30
0.0
 11
86.841417
 21
181.110444
 31
0.0
  0
LINE
  5
44B
100
AcDbEntity
  8
0
370
    -3
390
0
  6
Continuous
100
AcDbLine
 10
87.341418
 20
168.976568
 30
0.0
 11
86.841417
 21
169.842498
 31
0.0
  0
LINE
  5
44C
100
AcDbEntity
  8
0
370
    -3
390
0
  6
Continuous
100
AcDbLine
 10
87.341416
 20
181.976568
 30
0.0
 11
87.341416
 21
168.976568
 31
0.0
  0
LINE
  5
44D
100
AcDbEntity
  8
0
370
    -3
390
0
  6
Continuous
100
AcDbLine
 10
70.341416
 20
220.610444
 30
0.0
 11
70.341416
 21
209.342498
 31
0.0
  0
LINE
  5
44E
100
AcDbEntity
  8
0
370
    -3
390
0
  6
Continuous
100
AcDbLine
 10
78.341415
 20
221.476568
 30
0.0
 11
70.841416
 21
221.476568
 31
0.0
  0
LINE
  5
44F
100
AcDbEntity
  8
0
370
    -3
390
0
  6
Continuous
100
AcDbLine
 10
78.341415
 20
208.476568
 30
0.0
 11
70.841417
 21
208.476568
 31
0.0
  0
LINE
  5
450
100
AcDbEntity
  8
0
370
    -3
390
0
  6
Continuous
100
AcDbLine
 10
70.841417
 20
221.476568
 30
0.0
 11
70.341417
 21
220.610444
 31
0.0
  0
LINE
  5
451
100
AcDbEntity
  8
0
370
    -3
390
0
  6
Continuous
100
AcDbLine
 10
70.841418
 20
208.476568
 30
0.0
 11
70.341417
 21
209.342498
 31
0.0
  0
LINE
  5
452
100
AcDbEntity
  8
0
370
    -3
390
0
  6
Continuous
100
AcDbLine
 10
70.841416
 20
221.476568
 30
0.0
 11
70.841416
 21
208.476568
 31
0.0
  0
LINE
  5
453
100
AcDbEntity
  8
0
370
    -3
390
0
  6
Continuous
100
AcDbLine
 10
70.341416
 20
230.342693
 30
0.0
 11
70.341416
 21
241.610639
 31
0.0
  0
LINE
  5
454
100
AcDbEntity
  8
0
370
    -3
390
0
  6
Continuous
100
AcDbLine
 10
78.341415
 20
229.476568
 30
0.0
 11
70.841416
 21
229.476568
 31
0.0
  0
LINE
  5
455
100
AcDbEntity
  8
0
370
    -3
390
0
  6
Continuous
100
AcDbLine
 10
78.341415
 20
242.476568
 30
0.0
 11
70.841417
 21
242.476568
 31
0.0
  0
LINE
  5
456
100
AcDbEntity
  8
0
370
    -3
390
0
  6
Continuous
100
AcDbLine
 10
70.841417
 20
229.476568
 30
0.0
 11
70.341417
 21
230.342693
 31
0.0
  0
LINE
  5
457
100
AcDbEntity
  8
0
370
    -3
390
0
  6
Continuous
100
AcDbLine
 10
70.841418
 20
242.476568
 30
0.0
 11
70.341417
 21
241.610639
 31
0.0
  0
LINE
  5
458
100
AcDbEntity
  8
0
370
    -3
390
0
  6
Continuous
100
AcDbLine
 10
70.841416
 20
229.476568
 30
0.0
 11
70.841416
 21
242.476568
 31
0.0
  0
LINE
  5
459
100
AcDbEntity
  8
0
370
    -3
390
0
  6
Continuous
100
AcDbLine
 10
86.841416
 20
269.842693
 30
0.0
 11
86.841416
 21
281.110639
 31
0.0
  0
LINE
  5
45A
100
AcDbEntity
  8
0
370
    -3
390
0
  6
Continuous
100
AcDbLine
 10
94.841415
 20
268.976568
 30
0.0
 11
87.341416
 21
268.976568
 31
0.0
  0
LINE
  5
45B
100
AcDbEntity
  8
0
370
    -3
390
0
  6
Continuous
100
AcDbLine
 10
94.841415
 20
281.976568
 30
0.0
 11
87.341417
 21
281.976568
 31
0.0
  0
LINE
  5
45C
100
AcDbEntity
  8
0
370
    -3
390
0
  6
Continuous
100
AcDbLine
 10
87.341417
 20
268.976568
 30
0.0
 11
86.841417
 21
269.842693
 31
0.0
  0
LINE
  5
45D
100
AcDbEntity
  8
0
370
    -3
390
0
  6
Continuous
100
AcDbLine
 10
87.341418
 20
281.976568
 30
0.0
 11
86.841417
 21
281.110639
 31
0.0
  0
LINE
  5
45E
100
AcDbEntity
  8
0
370
    -3
390
0
  6
Continuous
100
AcDbLine
 10
87.341416
 20
268.976568
 30
0.0
 11
87.341416
 21
281.976568
 31
0.0
  0
LINE
  5
45F
100
AcDbEntity
  8
0
370
    -3
390
0
  6
Continuous
100
AcDbLine
 10
86.841416
 20
340.842693
 30
0.0
 11
86.841416
 21
352.110639
 31
0.0
  0
LINE
  5
460
100
AcDbEntity
  8
0
370
    -3
390
0
  6
Continuous
100
AcDbLine
 10
94.841415
 20
339.976568
 30
0.0
 11
87.341416
 21
339.976568
 31
0.0
  0
LINE
  5
461
100
AcDbEntity
  8
0
370
    -3
390
0
  6
Continuous
100
AcDbLine
 10
94.841415
 20
352.976568
 30
0.0
 11
87.341417
 21
352.976568
 31
0.0
  0
LINE
  5
462
100
AcDbEntity
  8
0
370
    -3
390
0
  6
Continuous
100
AcDbLine
 10
87.341417
 20
339.976568
 30
0.0
 11
86.841417
 21
340.842693
 31
0.0
  0
LINE
  5
463
100
AcDbEntity
  8
0
370
    -3
390
0
  6
Continuous
100
AcDbLine
 10
87.341418
 20
352.976568
 30
0.0
 11
86.841417
 21
352.110639
 31
0.0
  0
LINE
  5
464
100
AcDbEntity
  8
0
370
    -3
390
0
  6
Continuous
100
AcDbLine
 10
87.341416
 20
339.976568
 30
0.0
 11
87.341416
 21
352.976568
 31
0.0
  0
ARC
  5
465
100
AcDbEntity
  8
0
370
    -3
390
0
  6
Continuous
100
AcDbCircle
 10
328.441415
 20
201.876568
 30
0.0
 40
0.4
100
AcDbArc
 50
270.0
 51
0.0
  0
LINE
  5
466
100
AcDbEntity
  8
0
370
    -3
390
0
  6
Continuous
100
AcDbLine
 10
328.441415
 20
201.476568
 30
0.0
 11
256.401223
 21
201.476568
 31
0.0
  0
LINE
  5
467
100
AcDbEntity
  8
0
370
    -3
390
0
  6
Continuous
100
AcDbLine
 10
328.841415
 20
225.476568
 30
0.0
 11
328.841415
 21
197.976568
 31
0.0
  0
LINE
  5
468
100
AcDbEntity
  8
0
370
    -3
390
0
  6
Continuous
100
AcDbLine
 10
328.841415
 20
197.976568
 30
0.0
 11
258.841415
 21
197.976568
 31
0.0
  0
ARC
  5
469
100
AcDbEntity
  8
0
370
    -3
390
0
  6
Continuous
100
AcDbCircle
 10
328.441415
 20
249.076568
 30
0.0
 40
0.4
100
AcDbArc
 50
0.0
 51
90.0
  0
LINE
  5
46A
100
AcDbEntity
  8
0
370
    -3
390
0
  6
Continuous
100
AcDbLine
 10
328.841415
 20
225.476568
 30
0.0
 11
328.841415
 21
249.076568
 31
0.0
  0
LINE
  5
46B
100
AcDbEntity
  8
0
370
    -3
390
0
  6
Continuous
100
AcDbLine
 10
328.441415
 20
249.476568
 30
0.0
 11
256.401223
 21
249.476568
 31
0.0
  0
LINE
  5
46C
100
AcDbEntity
  8
0
370
    -3
390
0
  6
Continuous
100
AcDbLine
 10
253.841415
 20
200.676568
 30
0.0
 11
253.641415
 21
200.476568
 31
0.0
  0
ARC
  5
46D
100
AcDbEntity
  8
0
370
    -3
390
0
  6
Continuous
100
AcDbCircle
 10
254.641415
 20
200.826568
 30
0.0
 40
0.8
100
AcDbArc
 50
90.0
 51
180.0
  0
LINE
  5
46E
100
AcDbEntity
  8
0
370
    -3
390
0
  6
Continuous
100
AcDbLine
 10
253.841415
 20
200.826568
 30
0.0
 11
253.841415
 21
200.676568
 31
0.0
  0
LINE
  5
46F
100
AcDbEntity
  8
0
370
    -3
390
0
  6
Continuous
100
AcDbLine
 10
255.841415
 20
201.626568
 30
0.0
 11
254.641415
 21
201.626568
 31
0.0
  0
LINE
  5
470
100
AcDbEntity
  8
0
370
    -3
390
0
  6
Continuous
100
AcDbLine
 10
255.841415
 20
201.626568
 30
0.0
 11
256.401223
 21
201.476568
 31
0.0
  0
LINE
  5
471
100
AcDbEntity
  8
0
370
    -3
390
0
  6
Continuous
100
AcDbLine
 10
253.641415
 20
200.476568
 30
0.0
 11
251.841415
 21
200.476568
 31
0.0
  0
LINE
  5
472
100
AcDbEntity
  8
0
370
    -3
390
0
  6
Continuous
100
AcDbLine
 10
253.841415
 20
225.476568
 30
0.0
 11
253.841415
 21
200.826568
 31
0.0
  0
LINE
  5
473
100
AcDbEntity
  8
0
370
    -3
390
0
  6
Continuous
100
AcDbLine
 10
253.841415
 20
250.276568
 30
0.0
 11
253.641415
 21
250.476568
 31
0.0
  0
ARC
  5
474
100
AcDbEntity
  8
0
370
    -3
390
0
  6
Continuous
100
AcDbCircle
 10
254.641415
 20
250.126568
 30
0.0
 40
0.8
100
AcDbArc
 50
180.0
 51
270.0
  0
LINE
  5
475
100
AcDbEntity
  8
0
370
    -3
390
0
  6
Continuous
100
AcDbLine
 10
253.841415
 20
250.126568
 30
0.0
 11
253.841415
 21
250.276568
 31
0.0
  0
LINE
  5
476
100
AcDbEntity
  8
0
370
    -3
390
0
  6
Continuous
100
AcDbLine
 10
255.841415
 20
249.326568
 30
0.0
 11
254.641415
 21
249.326568
 31
0.0
  0
LINE
  5
477
100
AcDbEntity
  8
0
370
    -3
390
0
  6
Continuous
100
AcDbLine
 10
255.841415
 20
249.326568
 30
0.0
 11
256.401223
 21
249.476568
 31
0.0
  0
LINE
  5
478
100
AcDbEntity
  8
0
370
    -3
390
0
  6
Continuous
100
AcDbLine
 10
253.641415
 20
250.476568
 30
0.0
 11
251.841415
 21
250.476568
 31
0.0
  0
LINE
  5
479
100
AcDbEntity
  8
0
370
    -3
390
0
  6
Continuous
100
AcDbLine
 10
253.841415
 20
225.476568
 30
0.0
 11
253.841415
 21
250.126568
 31
0.0
  0
LINE
  5
47A
100
AcDbEntity
  8
0
370
    -3
390
0
  6
Continuous
100
AcDbLine
 10
258.841415
 20
197.976568
 30
0.0
 11
258.841415
 21
201.476568
 31
0.0
  0
LINE
  5
47B
100
AcDbEntity
  8
0
370
    -3
390
0
  6
Continuous
100
AcDbLine
 10
235.341415
 20
225.476568
 30
0.0
 11
235.341415
 21
105.331908
 31
0.0
  0
LINE
  5
47C
100
AcDbEntity
  8
0
370
    -3
390
0
  6
Continuous
100
AcDbLine
 10
235.341415
 20
225.476568
 30
0.0
 11
235.341415
 21
345.621229
 31
0.0
  0
LINE
  5
47D
100
AcDbEntity
  8
0
370
    -3
390
0
  6
Continuous
100
AcDbLine
 10
242.341415
 20
312.381402
 30
0.0
 11
237.341415
 21
312.381402
 31
0.0
  0
LINE
  5
47E
100
AcDbEntity
  8
0
370
    -3
390
0
  6
Continuous
100
AcDbLine
 10
242.341415
 20
347.621229
 30
0.0
 11
237.341415
 21
347.621229
 31
0.0
  0
ARC
  5
47F
100
AcDbEntity
  8
0
370
    -3
390
0
  6
Continuous
100
AcDbCircle
 10
237.341415
 20
345.621229
 30
0.0
 40
2.0
100
AcDbArc
 50
90.0
 51
180.0
  0
ARC
  5
480
100
AcDbEntity
  8
0
370
    -3
390
0
  6
Continuous
100
AcDbCircle
 10
237.341415
 20
310.381402
 30
0.0
 40
2.0
100
AcDbArc
 50
90.0
 51
180.0
  0
LINE
  5
481
100
AcDbEntity
  8
0
370
    -3
390
0
  6
Continuous
100
AcDbLine
 10
242.341415
 20
138.571735
 30
0.0
 11
237.341415
 21
138.571735
 31
0.0
  0
LINE
  5
482
100
AcDbEntity
  8
0
370
    -3
390
0
  6
Continuous
100
AcDbLine
 10
242.341415
 20
103.331908
 30
0.0
 11
237.341415
 21
103.331908
 31
0.0
  0
ARC
  5
483
100
AcDbEntity
  8
0
370
    -3
390
0
  6
Continuous
100
AcDbCircle
 10
237.341415
 20
105.331908
 30
0.0
 40
2.0
100
AcDbArc
 50
180.0
 51
270.0
  0
ARC
  5
484
100
AcDbEntity
  8
0
370
    -3
390
0
  6
Continuous
100
AcDbCircle
 10
237.341415
 20
140.571735
 30
0.0
 40
2.0
100
AcDbArc
 50
180.0
 51
270.0
  0
LINE
  5
485
100
AcDbEntity
  8
0
370
    -3
390
0
  6
Continuous
100
AcDbLine
 10
106.341415
 20
90.476568
 30
0.0
 11
106.341415
 21
360.476568
 31
0.0
  0
LINE
  5
486
100
AcDbEntity
  8
0
370
    -3
390
0
  6
Continuous
100
AcDbLine
 10
106.341415
 20
90.476568
 30
0.0
 11
106.341415
 21
330.494029
 31
0.0
  0
LINE
  5
487
100
AcDbEntity
  8
0
370
    -3
390
0
  6
Continuous
100
AcDbLine
 10
217.515913
 20
86.594269
 30
0.0
 11
106.341111
 21
90.476579
 31
0.0
  0
ARC
  5
488
100
AcDbEntity
  8
0
370
    -3
390
0
  6
Continuous
100
AcDbCircle
 10
217.341415
 20
81.597315
 30
0.0
 40
5.0
100
AcDbArc
 50
0.0
 51
88.0
  0
LINE
  5
489
100
AcDbEntity
  8
0
370
    -3
390
0
  6
Continuous
100
AcDbLine
 10
217.515913
 20
364.358867
 30
0.0
 11
106.341111
 21
360.476558
 31
0.0
  0
ARC
  5
48A
100
AcDbEntity
  8
0
370
    -3
390
0
  6
Continuous
100
AcDbCircle
 10
217.341415
 20
369.355822
 30
0.0
 40
5.0
100
AcDbArc
 50
272.0
 51
0.0
  0
LINE
  5
48B
100
AcDbEntity
  8
0
370
    -3
390
0
  6
CENTER
100
AcDbLine
 10
260.479285
 20
91.12628
 30
0.0
 11
208.32424
 21
91.12628
 31
0.0
  0
LINE
  5
48C
100
AcDbEntity
  8
0
370
    -3
390
0
  6
CENTER
100
AcDbLine
 10
260.479285
 20
359.826857
 30
0.0
 11
208.32424
 21
359.826857
 31
0.0
  0
LINE
  5
48D
100
AcDbEntity
  8
0
370
    -3
390
0
  6
Continuous
100
AcDbLine
 10
222.341415
 20
70.976568
 30
0.0
 11
222.341415
 21
379.976568
 31
0.0
  0
LINE
  5
48E
100
AcDbEntity
  8
0
370
    -3
390
0
  6
CENTER
100
AcDbLine
 10
336.246332
 20
225.476568
 30
0.0
 11
-334.480013
 21
225.476568
 31
0.0
  0
ARC
  5
48F
100
AcDbEntity
  8
0
370
    -3
390
0
  6
Continuous
100
AcDbCircle
 10
250.341415
 20
152.124922
 30
0.0
 40
5.0
100
AcDbArc
 50
123.367013
 51
143.130102
  0
LINE
  5
490
100
AcDbEntity
  8
0
370
    -3
390
0
  6
Continuous
100
AcDbLine
 10
242.341415
 20
225.476568
 30
0.0
 11
242.341415
 21
67.976568
 31
0.0
  0
LINE
  5
491
100
AcDbEntity
  8
0
370
    -3
390
0
  6
Continuous
100
AcDbLine
 10
246.341415
 20
225.476568
 30
0.0
 11
246.341415
 21
81.476568
 31
0.0
  0
LINE
  5
492
100
AcDbEntity
  8
0
370
    -3
390
0
  6
Continuous
100
AcDbLine
 10
249.841415
 20
225.476568
 30
0.0
 11
249.841415
 21
160.476568
 31
0.0
  0
LINE
  5
493
100
AcDbEntity
  8
0
370
    -3
390
0
  6
Continuous
100
AcDbLine
 10
242.341415
 20
67.976568
 30
0.0
 11
225.341415
 21
67.976568
 31
0.0
  0
ARC
  5
494
100
AcDbEntity
  8
0
370
    -3
390
0
  6
Continuous
100
AcDbCircle
 10
225.341415
 20
70.976568
 30
0.0
 40
3.0
100
AcDbArc
 50
180.0
 51
270.0
  0
ARC
  5
495
100
AcDbEntity
  8
0
370
    -3
390
0
  6
Continuous
100
AcDbCircle
 10
244.841415
 20
290.731746
 30
0.0
 40
5.0
100
AcDbArc
 50
0.0
 51
72.542397
  0
LINE
  5
496
100
AcDbEntity
  8
0
370
    -3
390
0
  6
Continuous
100
AcDbLine
 10
246.341415
 20
225.476568
 30
0.0
 11
246.341415
 21
369.476568
 31
0.0
  0
LINE
  5
497
100
AcDbEntity
  8
0
370
    -3
390
0
  6
Continuous
100
AcDbLine
 10
249.841415
 20
225.476568
 30
0.0
 11
249.841415
 21
290.731746
 31
0.0
  0
LINE
  5
498
100
AcDbEntity
  8
0
370
    -3
390
0
  6
Continuous
100
AcDbLine
 10
242.341415
 20
225.476568
 30
0.0
 11
242.341415
 21
382.976568
 31
0.0
  0
ARC
  5
499
100
AcDbEntity
  8
0
370
    -3
390
0
  6
Continuous
100
AcDbCircle
 10
250.841415
 20
180.476568
 30
0.0
 40
1.0
100
AcDbArc
 50
90.0
 51
180.0
  0
ARC
  5
49A
100
AcDbEntity
  8
0
370
    -3
390
0
  6
Continuous
100
AcDbCircle
 10
250.841415
 20
270.476568
 30
0.0
 40
1.0
100
AcDbArc
 50
180.0
 51
270.0
  0
ARC
  5
49B
100
AcDbEntity
  8
0
370
    -3
390
0
  6
Continuous
100
AcDbCircle
 10
225.341415
 20
379.976568
 30
0.0
 40
3.0
100
AcDbArc
 50
90.0
 51
180.0
  0
ARC
  5
49C
100
AcDbEntity
  8
0
370
    -3
390
0
  6
Continuous
100
AcDbCircle
 10
244.841415
 20
160.476568
 30
0.0
 40
5.0
100
AcDbArc
 50
303.367013
 51
0.0
  0
LINE
  5
49D
100
AcDbEntity
  8
0
370
    -3
390
0
  6
Continuous
100
AcDbLine
 10
245.341415
 20
80.476568
 30
0.0
 11
242.341415
 21
80.476568
 31
0.0
  0
LINE
  5
49E
100
AcDbEntity
  8
0
370
    -3
390
0
  6
Continuous
100
AcDbLine
 10
242.341415
 20
382.976568
 30
0.0
 11
225.341415
 21
382.976568
 31
0.0
  0
LINE
  5
49F
100
AcDbEntity
  8
0
370
    -3
390
0
  6
Continuous
100
AcDbLine
 10
245.341415
 20
370.476568
 30
0.0
 11
242.341415
 21
370.476568
 31
0.0
  0
LINE
  5
4A0
100
AcDbEntity
  8
0
370
    -3
390
0
  6
Continuous
100
AcDbLine
 10
251.841415
 20
181.476568
 30
0.0
 11
251.841415
 21
269.476568
 31
0.0
  0
LINE
  5
4A1
100
AcDbEntity
  8
0
370
    -3
390
0
  6
Continuous
100
AcDbLine
 10
246.341415
 20
81.476568
 30
0.0
 11
245.341415
 21
80.476568
 31
0.0
  0
LINE
  5
4A2
100
AcDbEntity
  8
0
370
    -3
390
0
  6
Continuous
100
AcDbLine
 10
246.341415
 20
369.476568
 30
0.0
 11
245.341415
 21
370.476568
 31
0.0
  0
LINE
  5
4A3
100
AcDbEntity
  8
0
370
    -3
390
0
  6
Continuous
100
AcDbLine
 10
250.841415
 20
269.476568
 30
0.0
 11
251.841415
 21
269.476568
 31
0.0
  0
LINE
  5
4A4
100
AcDbEntity
  8
0
370
    -3
390
0
  6
Continuous
100
AcDbLine
 10
250.841415
 20
181.476568
 30
0.0
 11
251.841415
 21
181.476568
 31
0.0
  0
LINE
  5
4A5
100
AcDbEntity
  8
0
370
    -3
390
0
  6
Continuous
100
AcDbLine
 10
217.591811
 20
307.617151
 30
0.0
 11
190.119433
 21
307.617151
 31
0.0
  0
LINE
  5
4A6
100
AcDbEntity
  8
0
370
    -3
390
0
  6
Continuous
100
AcDbLine
 10
186.400164
 20
317.399848
 30
0.0
 11
220.262745
 21
341.778443
 31
0.0
  0
ARC
  5
4A7
100
AcDbEntity
  8
0
370
    -3
390
0
  6
Continuous
100
AcDbCircle
 10
217.341415
 20
345.836255
 30
0.0
 40
5.0
100
AcDbArc
 50
305.751143
 51
0.0
  0
ARC
  5
4A8
100
AcDbEntity
  8
0
370
    -3
390
0
  6
Continuous
100
AcDbCircle
 10
183.478835
 20
321.45766
 30
0.0
 40
5.0
100
AcDbArc
 50
270.0
 51
305.751143
  0
ARC
  5
4A9
100
AcDbEntity
  8
0
370
    -3
390
0
  6
Continuous
100
AcDbCircle
 10
217.341415
 20
336.995746
 30
0.0
 40
5.0
100
AcDbArc
 50
305.751143
 51
0.0
  0
LINE
  5
4AA
100
AcDbEntity
  8
0
370
    -3
390
0
  6
Continuous
100
AcDbLine
 10
186.400164
 20
308.559339
 30
0.0
 11
220.262745
 21
332.937935
 31
0.0
  0
ARC
  5
4AB
100
AcDbEntity
  8
0
370
    -3
390
0
  6
Continuous
100
AcDbCircle
 10
183.478835
 20
312.617151
 30
0.0
 40
5.0
100
AcDbArc
 50
270.0
 51
305.751143
  0
ARC
  5
4AC
100
AcDbEntity
  8
0
370
    -3
390
0
  6
Continuous
100
AcDbCircle
 10
217.341415
 20
216.976568
 30
0.0
 40
5.0
100
AcDbArc
 50
0.0
 51
90.0
  0
LINE
  5
4AD
100
AcDbEntity
  8
0
370
    -3
390
0
  6
Continuous
100
AcDbLine
 10
217.341415
 20
221.976568
 30
0.0
 11
190.091437
 21
221.976568
 31
0.0
  0
ARC
  5
4AE
100
AcDbEntity
  8
0
370
    -3
390
0
  6
Continuous
100
AcDbCircle
 10
217.341415
 20
233.976568
 30
0.0
 40
5.0
100
AcDbArc
 50
270.0
 51
0.0
  0
LINE
  5
4AF
100
AcDbEntity
  8
0
370
    -3
390
0
  6
Continuous
100
AcDbLine
 10
217.341415
 20
228.976568
 30
0.0
 11
190.091437
 21
228.976568
 31
0.0
  0
ARC
  5
4B0
100
AcDbEntity
  8
0
370
    -3
390
0
  6
Continuous
100
AcDbCircle
 10
190.091437
 20
233.976568
 30
0.0
 40
5.0
100
AcDbArc
 50
180.0
 51
270.0
  0
ARC
  5
4B1
100
AcDbEntity
  8
0
370
    -3
390
0
  6
Continuous
100
AcDbCircle
 10
190.091437
 20
216.976568
 30
0.0
 40
5.0
100
AcDbArc
 50
90.0
 51
180.0
  0
LINE
  5
4B2
100
AcDbEntity
  8
0
370
    -3
390
0
  6
Continuous
100
AcDbLine
 10
217.591811
 20
143.335986
 30
0.0
 11
190.119433
 21
143.335986
 31
0.0
  0
LINE
  5
4B3
100
AcDbEntity
  8
0
370
    -3
390
0
  6
Continuous
100
AcDbLine
 10
186.400164
 20
133.553289
 30
0.0
 11
220.262745
 21
109.174694
 31
0.0
  0
ARC
  5
4B4
100
AcDbEntity
  8
0
370
    -3
390
0
  6
Continuous
100
AcDbCircle
 10
217.341415
 20
105.116882
 30
0.0
 40
5.0
100
AcDbArc
 50
0.0
 51
54.248857
  0
ARC
  5
4B5
100
AcDbEntity
  8
0
370
    -3
390
0
  6
Continuous
100
AcDbCircle
 10
183.478835
 20
129.495477
 30
0.0
 40
5.0
100
AcDbArc
 50
54.248857
 51
90.0
  0
ARC
  5
4B6
100
AcDbEntity
  8
0
370
    -3
390
0
  6
Continuous
100
AcDbCircle
 10
217.341415
 20
113.957391
 30
0.0
 40
5.0
100
AcDbArc
 50
0.0
 51
54.248857
  0
LINE
  5
4B7
100
AcDbEntity
  8
0
370
    -3
390
0
  6
Continuous
100
AcDbLine
 10
186.400164
 20
142.393798
 30
0.0
 11
220.262745
 21
118.015202
 31
0.0
  0
ARC
  5
4B8
100
AcDbEntity
  8
0
370
    -3
390
0
  6
Continuous
100
AcDbCircle
 10
183.478835
 20
138.335986
 30
0.0
 40
5.0
100
AcDbArc
 50
54.248857
 51
90.0
  0
LINE
  5
4B9
100
AcDbEntity
  8
0
370
    -3
390
0
  6
Continuous
100
AcDbLine
 10
89.841415
 20
358.476568
 30
0.0
 11
89.841415
 21
352.976568
 31
0.0
  0
ARC
  5
4BA
100
AcDbEntity
  8
0
370
    -3
390
0
  6
Continuous
100
AcDbCircle
 10
84.841415
 20
341.89844
 30
0.0
 40
5.0
100
AcDbArc
 50
273.0
 51
337.395095
  0
LINE
  5
4BB
100
AcDbEntity
  8
0
370
    -3
390
0
  6
Continuous
100
AcDbLine
 10
55.841415
 20
320.476568
 30
0.0
 11
55.841415
 21
225.476568
 31
0.0
  0
ARC
  5
4BC
100
AcDbEntity
  8
0
370
    -3
390
0
  6
Continuous
100
AcDbCircle
 10
55.841415
 20
322.476568
 30
0.0
 40
2.0
100
AcDbArc
 50
270.0
 51
0.0
  0
LINE
  5
4BD
100
AcDbEntity
  8
0
370
    -3
390
0
  6
Continuous
100
AcDbLine
 10
57.841415
 20
335.476568
 30
0.0
 11
57.841415
 21
225.476568
 31
0.0
  0
ARC
  5
4BE
100
AcDbEntity
  8
0
370
    -3
390
0
  6
Continuous
100
AcDbCircle
 10
89.841415
 20
342.160479
 30
0.0
 40
5.0
100
AcDbArc
 50
273.0
 51
334.101252
  0
LINE
  5
4BF
100
AcDbEntity
  8
0
370
    -3
390
0
  6
Continuous
100
AcDbLine
 10
90.103095
 20
337.167331
 30
0.0
 11
57.841415
 21
335.476568
 31
0.0
  0
LINE
  5
4C0
100
AcDbEntity
  8
0
370
    -3
390
0
  6
Continuous
100
AcDbLine
 10
82.841415
 20
245.976568
 30
0.0
 11
78.341415
 21
245.976568
 31
0.0
  0
LINE
  5
4C1
100
AcDbEntity
  8
0
370
    -3
390
0
  6
Continuous
100
AcDbLine
 10
78.341415
 20
225.476568
 30
0.0
 11
78.341415
 21
245.976568
 31
0.0
  0
ARC
  5
4C2
100
AcDbEntity
  8
0
370
    -3
390
0
  6
Continuous
100
AcDbCircle
 10
85.841415
 20
243.184264
 30
0.0
 40
3.0
100
AcDbArc
 50
92.0
 51
180.0
  0
ARC
  5
4C3
100
AcDbEntity
  8
0
370
    -3
390
0
  6
Continuous
100
AcDbCircle
 10
89.841415
 20
251.328824
 30
0.0
 40
5.0
100
AcDbArc
 50
272.0
 51
0.0
  0
LINE
  5
4C4
100
AcDbEntity
  8
0
370
    -3
390
0
  6
Continuous
100
AcDbLine
 10
82.841415
 20
225.476568
 30
0.0
 11
82.841415
 21
245.976568
 31
0.0
  0
LINE
  5
4C5
100
AcDbEntity
  8
0
370
    -3
390
0
  6
Continuous
100
AcDbLine
 10
90.015913
 20
246.33187
 30
0.0
 11
85.736717
 21
246.182437
 31
0.0
  0
ARC
  5
4C6
100
AcDbEntity
  8
0
370
    -3
390
0
  6
Continuous
100
AcDbCircle
 10
91.841415
 20
358.476568
 30
0.0
 40
2.0
100
AcDbArc
 50
90.0
 51
180.0
  0
LINE
  5
4C7
100
AcDbEntity
  8
0
370
    -3
390
0
  6
Continuous
100
AcDbLine
 10
94.841415
 20
225.476568
 30
0.0
 11
94.841415
 21
358.476568
 31
0.0
  0
LINE
  5
4C8
100
AcDbEntity
  8
0
370
    -3
390
0
  6
Continuous
100
AcDbLine
 10
105.841415
 20
225.476568
 30
0.0
 11
105.841415
 21
360.476568
 31
0.0
  0
LINE
  5
4C9
100
AcDbEntity
  8
0
370
    -3
390
0
  6
Continuous
100
AcDbLine
 10
91.841415
 20
360.476568
 30
0.0
 11
105.841415
 21
360.476568
 31
0.0
  0
ARC
  5
4CA
100
AcDbEntity
  8
0
370
    -3
390
0
  6
Continuous
100
AcDbCircle
 10
96.841415
 20
358.476568
 30
0.0
 40
2.0
100
AcDbArc
 50
90.0
 51
180.0
  0
LINE
  5
4CB
100
AcDbEntity
  8
0
370
    -3
390
0
  6
Continuous
100
AcDbLine
 10
89.841415
 20
92.476568
 30
0.0
 11
89.841415
 21
97.976568
 31
0.0
  0
ARC
  5
4CC
100
AcDbEntity
  8
0
370
    -3
390
0
  6
Continuous
100
AcDbCircle
 10
84.841415
 20
109.054697
 30
0.0
 40
5.0
100
AcDbArc
 50
22.604905
 51
87.0
  0
LINE
  5
4CD
100
AcDbEntity
  8
0
370
    -3
390
0
  6
Continuous
100
AcDbLine
 10
55.841415
 20
130.476568
 30
0.0
 11
55.841415
 21
225.476568
 31
0.0
  0
ARC
  5
4CE
100
AcDbEntity
  8
0
370
    -3
390
0
  6
Continuous
100
AcDbCircle
 10
55.841415
 20
128.476568
 30
0.0
 40
2.0
100
AcDbArc
 50
0.0
 51
90.0
  0
LINE
  5
4CF
100
AcDbEntity
  8
0
370
    -3
390
0
  6
Continuous
100
AcDbLine
 10
57.841415
 20
115.476568
 30
0.0
 11
57.841415
 21
225.476568
 31
0.0
  0
ARC
  5
4D0
100
AcDbEntity
  8
0
370
    -3
390
0
  6
Continuous
100
AcDbCircle
 10
89.841415
 20
108.792658
 30
0.0
 40
5.0
100
AcDbArc
 50
25.898748
 51
87.0
  0
LINE
  5
4D1
100
AcDbEntity
  8
0
370
    -3
390
0
  6
Continuous
100
AcDbLine
 10
90.103095
 20
113.785805
 30
0.0
 11
57.841415
 21
115.476568
 31
0.0
  0
LINE
  5
4D2
100
AcDbEntity
  8
0
370
    -3
390
0
  6
Continuous
100
AcDbLine
 10
82.841415
 20
204.976568
 30
0.0
 11
78.341415
 21
204.976568
 31
0.0
  0
LINE
  5
4D3
100
AcDbEntity
  8
0
370
    -3
390
0
  6
Continuous
100
AcDbLine
 10
78.341415
 20
225.476568
 30
0.0
 11
78.341415
 21
204.976568
 31
0.0
  0
ARC
  5
4D4
100
AcDbEntity
  8
0
370
    -3
390
0
  6
Continuous
100
AcDbCircle
 10
85.841415
 20
207.768872
 30
0.0
 40
3.0
100
AcDbArc
 50
180.0
 51
268.0
  0
ARC
  5
4D5
100
AcDbEntity
  8
0
370
    -3
390
0
  6
Continuous
100
AcDbCircle
 10
89.841415
 20
199.624313
 30
0.0
 40
5.0
100
AcDbArc
 50
0.0
 51
88.0
  0
LINE
  5
4D6
100
AcDbEntity
  8
0
370
    -3
390
0
  6
Continuous
100
AcDbLine
 10
82.841415
 20
225.476568
 30
0.0
 11
82.841415
 21
204.976568
 31
0.0
  0
LINE
  5
4D7
100
AcDbEntity
  8
0
370
    -3
390
0
  6
Continuous
100
AcDbLine
 10
90.015913
 20
204.621267
 30
0.0
 11
85.736717
 21
204.7707
 31
0.0
  0
ARC
  5
4D8
100
AcDbEntity
  8
0
370
    -3
390
0
  6
Continuous
100
AcDbCircle
 10
91.841415
 20
92.476568
 30
0.0
 40
2.0
100
AcDbArc
 50
180.0
 51
270.0
  0
LINE
  5
4D9
100
AcDbEntity
  8
0
370
    -3
390
0
  6
Continuous
100
AcDbLine
 10
94.841415
 20
225.476568
 30
0.0
 11
94.841415
 21
92.476568
 31
0.0
  0
LINE
  5
4DA
100
AcDbEntity
  8
0
370
    -3
390
0
  6
Continuous
100
AcDbLine
 10
105.841415
 20
225.476568
 30
0.0
 11
105.841415
 21
90.476568
 31
0.0
  0
LINE
  5
4DB
100
AcDbEntity
  8
0
370
    -3
390
0
  6
Continuous
100
AcDbLine
 10
91.841415
 20
90.476568
 30
0.0
 11
105.841415
 21
90.476568
 31
0.0
  0
ARC
  5
4DC
100
AcDbEntity
  8
0
370
    -3
390
0
  6
Continuous
100
AcDbCircle
 10
96.841415
 20
92.476568
 30
0.0
 40
2.0
100
AcDbArc
 50
180.0
 51
270.0
  0
LINE
  5
4DD
100
AcDbEntity
  8
0
370
    -3
390
0
  6
Continuous
100
AcDbLine
 10
55.841415
 20
119.476568
 30
0.0
 11
55.841415
 21
331.476568
 31
0.0
  0
LINE
  5
4DE
100
AcDbEntity
  8
0
370
    -3
390
0
  6
Continuous
100
AcDbLine
 10
-158.758585
 20
107.076568
 30
0.0
 11
-158.758585
 21
109.203479
 31
0.0
  0
ARC
  5
4DF
100
AcDbEntity
  8
0
370
    -3
390
0
  6
Continuous
100
AcDbCircle
 10
-163.158585
 20
108.203479
 30
0.0
 40
1.0
100
AcDbArc
 50
90.0
 51
175.808572
  0
LINE
  5
4E0
100
AcDbEntity
  8
0
370
    -3
390
0
  6
Continuous
100
AcDbLine
 10
-164.15591
 20
108.276568
 30
0.0
 11
-269.760094
 21
108.276568
 31
0.0
  0
LINE
  5
4E1
100
AcDbEntity
  8
0
370
    -3
390
0
  6
Continuous
100
AcDbLine
 10
-163.158585
 20
109.203479
 30
0.0
 11
-152.158585
 21
109.203479
 31
0.0
  0
ARC
  5
4E2
100
AcDbEntity
  8
0
370
    -3
390
0
  6
Continuous
100
AcDbCircle
 10
-152.158585
 20
112.203479
 30
0.0
 40
3.0
100
AcDbArc
 50
270.0
 51
0.0
  0
LINE
  5
4E3
100
AcDbEntity
  8
0
370
    -3
390
0
  6
Continuous
100
AcDbLine
 10
-149.158585
 20
342.676568
 30
0.0
 11
-149.158585
 21
112.203479
 31
0.0
  0
LINE
  5
4E4
100
AcDbEntity
  8
0
370
    -3
390
0
  6
Continuous
100
AcDbLine
 10
-149.158585
 20
342.676568
 30
0.0
 11
-269.760094
 21
342.676568
 31
0.0
  0
LINE
  5
4E5
100
AcDbEntity
  8
0
370
    -3
390
0
  6
Continuous
100
AcDbLine
 10
55.841415
 20
325.476568
 30
0.0
 11
-149.158585
 21
325.476568
 31
0.0
  0
LINE
  5
4E6
100
AcDbEntity
  8
0
370
    -3
390
0
  6
Continuous
100
AcDbLine
 10
55.841415
 20
312.584986
 30
0.0
 11
-149.158585
 21
312.584986
 31
0.0
  0
LINE
  5
4E7
100
AcDbEntity
  8
0
370
    -3
390
0
  6
Continuous
100
AcDbLine
 10
55.841415
 20
303.392598
 30
0.0
 11
-149.158585
 21
303.392598
 31
0.0
  0
LINE
  5
4E8
100
AcDbEntity
  8
0
370
    -3
390
0
  6
Continuous
100
AcDbLine
 10
55.841415
 20
286.947736
 30
0.0
 11
-149.158585
 21
286.947736
 31
0.0
  0
LINE
  5
4E9
100
AcDbEntity
  8
0
370
    -3
390
0
  6
Continuous
100
AcDbLine
 10
55.841415
 20
283.993256
 30
0.0
 11
-149.158585
 21
283.993256
 31
0.0
  0
LINE
  5
4EA
100
AcDbEntity
  8
0
370
    -3
390
0
  6
Continuous
100
AcDbLine
 10
55.841415
 20
274.96462
 30
0.0
 11
-149.158585
 21
274.96462
 31
0.0
  0
LINE
  5
4EB
100
AcDbEntity
  8
0
370
    -3
390
0
  6
Continuous
100
AcDbLine
 10
55.841415
 20
272.049062
 30
0.0
 11
-149.158585
 21
272.049062
 31
0.0
  0
LINE
  5
4EC
100
AcDbEntity
  8
0
370
    -3
390
0
  6
Continuous
100
AcDbLine
 10
55.841415
 20
262.888012
 30
0.0
 11
-149.158585
 21
262.888012
 31
0.0
  0
LINE
  5
4ED
100
AcDbEntity
  8
0
370
    -3
390
0
  6
Continuous
100
AcDbLine
 10
55.841415
 20
260.099495
 30
0.0
 11
-149.158585
 21
260.099495
 31
0.0
  0
LINE
  5
4EE
100
AcDbEntity
  8
0
370
    -3
390
0
  6
Continuous
100
AcDbLine
 10
55.841415
 20
250.79793
 30
0.0
 11
-149.158585
 21
250.79793
 31
0.0
  0
LINE
  5
4EF
100
AcDbEntity
  8
0
370
    -3
390
0
  6
Continuous
100
AcDbLine
 10
55.841415
 20
248.167527
 30
0.0
 11
-149.158585
 21
248.167527
 31
0.0
  0
LINE
  5
4F0
100
AcDbEntity
  8
0
370
    -3
390
0
  6
Continuous
100
AcDbLine
 10
55.841415
 20
241.266698
 30
0.0
 11
-149.158585
 21
241.266698
 31
0.0
  0
LINE
  5
4F1
100
AcDbEntity
  8
0
370
    -3
390
0
  6
Continuous
100
AcDbLine
 10
55.841415
 20
238.476568
 30
0.0
 11
-149.158585
 21
238.476568
 31
0.0
  0
LINE
  5
4F2
100
AcDbEntity
  8
0
370
    -3
390
0
  6
Continuous
100
AcDbLine
 10
55.841415
 20
230.726568
 30
0.0
 11
-149.158585
 21
230.726568
 31
0.0
  0
LINE
  5
4F3
100
AcDbEntity
  8
0
370
    -3
390
0
  6
Continuous
100
AcDbLine
 10
-149.158585
 20
330.976568
 30
0.0
 11
55.841415
 21
330.976568
 31
0.0
  0
LINE
  5
4F4
100
AcDbEntity
  8
0
370
    -3
390
0
  6
Continuous
100
AcDbLine
 10
-149.158585
 20
331.476568
 30
0.0
 11
55.841415
 21
331.476568
 31
0.0
  0
LINE
  5
4F5
100
AcDbEntity
  8
0
370
    -3
390
0
  6
Continuous
100
AcDbLine
 10
55.841415
 20
125.476568
 30
0.0
 11
-149.158585
 21
125.476568
 31
0.0
  0
LINE
  5
4F6
100
AcDbEntity
  8
0
370
    -3
390
0
  6
Continuous
100
AcDbLine
 10
55.841415
 20
138.368151
 30
0.0
 11
-149.158585
 21
138.368151
 31
0.0
  0
LINE
  5
4F7
100
AcDbEntity
  8
0
370
    -3
390
0
  6
Continuous
100
AcDbLine
 10
55.841415
 20
147.560539
 30
0.0
 11
-149.158585
 21
147.560539
 31
0.0
  0
LINE
  5
4F8
100
AcDbEntity
  8
0
370
    -3
390
0
  6
Continuous
100
AcDbLine
 10
55.841415
 20
164.0054
 30
0.0
 11
-149.158585
 21
164.0054
 31
0.0
  0
LINE
  5
4F9
100
AcDbEntity
  8
0
370
    -3
390
0
  6
Continuous
100
AcDbLine
 10
55.841415
 20
166.959881
 30
0.0
 11
-149.158585
 21
166.959881
 31
0.0
  0
LINE
  5
4FA
100
AcDbEntity
  8
0
370
    -3
390
0
  6
Continuous
100
AcDbLine
 10
55.841415
 20
175.988517
 30
0.0
 11
-149.158585
 21
175.988517
 31
0.0
  0
LINE
  5
4FB
100
AcDbEntity
  8
0
370
    -3
390
0
  6
Continuous
100
AcDbLine
 10
55.841415
 20
178.904075
 30
0.0
 11
-149.158585
 21
178.904075
 31
0.0
  0
LINE
  5
4FC
100
AcDbEntity
  8
0
370
    -3
390
0
  6
Continuous
100
AcDbLine
 10
55.841415
 20
188.065125
 30
0.0
 11
-149.158585
 21
188.065125
 31
0.0
  0
LINE
  5
4FD
100
AcDbEntity
  8
0
370
    -3
390
0
  6
Continuous
100
AcDbLine
 10
55.841415
 20
190.853642
 30
0.0
 11
-149.158585
 21
190.853642
 31
0.0
  0
LINE
  5
4FE
100
AcDbEntity
  8
0
370
    -3
390
0
  6
Continuous
100
AcDbLine
 10
55.841415
 20
200.155207
 30
0.0
 11
-149.158585
 21
200.155207
 31
0.0
  0
LINE
  5
4FF
100
AcDbEntity
  8
0
370
    -3
390
0
  6
Continuous
100
AcDbLine
 10
55.841415
 20
202.78561
 30
0.0
 11
-149.158585
 21
202.78561
 31
0.0
  0
LINE
  5
500
100
AcDbEntity
  8
0
370
    -3
390
0
  6
Continuous
100
AcDbLine
 10
55.841415
 20
209.686439
 30
0.0
 11
-149.158585
 21
209.686439
 31
0.0
  0
LINE
  5
501
100
AcDbEntity
  8
0
370
    -3
390
0
  6
Continuous
100
AcDbLine
 10
55.841415
 20
212.476568
 30
0.0
 11
-149.158585
 21
212.476568
 31
0.0
  0
LINE
  5
502
100
AcDbEntity
  8
0
370
    -3
390
0
  6
Continuous
100
AcDbLine
 10
55.841415
 20
220.226568
 30
0.0
 11
-149.158585
 21
220.226568
 31
0.0
  0
LINE
  5
503
100
AcDbEntity
  8
0
370
    -3
390
0
  6
Continuous
100
AcDbLine
 10
-165.158585
 20
103.476568
 30
0.0
 11
-165.158585
 21
105.076568
 31
0.0
  0
LINE
  5
504
100
AcDbEntity
  8
0
370
    -3
390
0
  6
Continuous
100
AcDbLine
 10
-103.158585
 20
103.476568
 30
0.0
 11
-103.158585
 21
105.076568
 31
0.0
  0
LINE
  5
505
100
AcDbEntity
  8
0
370
    -3
390
0
  6
Continuous
100
AcDbLine
 10
-165.158585
 20
103.476568
 30
0.0
 11
-165.158585
 21
102.476568
 31
0.0
  0
LINE
  5
506
100
AcDbEntity
  8
0
370
    -3
390
0
  6
Continuous
100
AcDbLine
 10
-103.158585
 20
103.476568
 30
0.0
 11
-103.158585
 21
102.476568
 31
0.0
  0
LINE
  5
507
100
AcDbEntity
  8
0
370
    -3
390
0
  6
Continuous
100
AcDbLine
 10
-167.958585
 20
102.476568
 30
0.0
 11
-100.358585
 21
102.476568
 31
0.0
  0
LINE
  5
508
100
AcDbEntity
  8
0
370
    -3
390
0
  6
Continuous
100
AcDbLine
 10
-180.608585
 20
90.171132
 30
0.0
 11
-180.608585
 21
63.302743
 31
0.0
  0
LINE
  5
509
100
AcDbEntity
  8
0
370
    -3
390
0
  6
Continuous
100
AcDbLine
 10
-131.101329
 20
52.302743
 30
0.0
 11
-98.708585
 21
52.302743
 31
0.0
  0
CIRCLE
  5
50A
100
AcDbEntity
  8
0
370
    -3
390
0
  6
DASHED
100
AcDbCircle
 10
-134.158585
 20
78.476568
 30
0.0
 40
13.5
  0
LINE
  5
50B
100
AcDbEntity
  8
0
370
    -3
390
0
  6
CENTER
100
AcDbLine
 10
-156.982216
 20
78.476568
 30
0.0
 11
-112.694498
 21
78.476568
 31
0.0
  0
ARC
  5
50C
100
AcDbEntity
  8
0
370
    -3
390
0
  6
Continuous
100
AcDbCircle
 10
-167.958585
 20
97.476568
 30
0.0
 40
5.0
100
AcDbArc
 50
90.0
 51
135.074044
  0
ARC
  5
50D
100
AcDbEntity
  8
0
370
    -3
390
0
  6
Continuous
100
AcDbCircle
 10
-100.358585
 20
97.476568
 30
0.0
 40
5.0
100
AcDbArc
 50
44.925956
 51
90.0
  0
ARC
  5
50E
100
AcDbEntity
  8
0
370
    -3
390
0
  6
Continuous
100
AcDbCircle
 10
-169.608585
 20
90.171132
 30
0.0
 40
11.0
100
AcDbArc
 50
90.0
 51
180.0
  0
ARC
  5
50F
100
AcDbEntity
  8
0
370
    -3
390
0
  6
Continuous
100
AcDbCircle
 10
-169.608585
 20
86.69966
 30
0.0
 40
11.0
100
AcDbArc
 50
90.0
 51
180.0
  0
ARC
  5
510
100
AcDbEntity
  8
0
370
    -3
390
0
  6
Continuous
100
AcDbCircle
 10
-98.708585
 20
90.171132
 30
0.0
 40
11.0
100
AcDbArc
 50
0.0
 51
90.0
  0
ARC
  5
511
100
AcDbEntity
  8
0
370
    -3
390
0
  6
Continuous
100
AcDbCircle
 10
-98.708585
 20
86.69966
 30
0.0
 40
11.0
100
AcDbArc
 50
0.0
 51
90.0
  0
ARC
  5
512
100
AcDbEntity
  8
0
370
    -3
390
0
  6
Continuous
100
AcDbCircle
 10
-168.408585
 20
60.276568
 30
0.0
 40
5.8
100
AcDbArc
 50
180.0
 51
270.0
  0
ARC
  5
513
100
AcDbEntity
  8
0
370
    -3
390
0
  6
Continuous
100
AcDbCircle
 10
-99.908585
 20
60.276568
 30
0.0
 40
5.8
100
AcDbArc
 50
270.0
 51
0.0
  0
LINE
  5
514
100
AcDbEntity
  8
0
370
    -3
390
0
  6
Continuous
100
AcDbLine
 10
-168.408585
 20
54.476568
 30
0.0
 11
-99.908585
 21
54.476568
 31
0.0
  0
ARC
  5
515
100
AcDbEntity
  8
0
370
    -3
390
0
  6
Continuous
100
AcDbCircle
 10
-169.608585
 20
63.302743
 30
0.0
 40
11.0
100
AcDbArc
 50
180.0
 51
270.0
  0
ARC
  5
516
100
AcDbEntity
  8
0
370
    -3
390
0
  6
Continuous
100
AcDbCircle
 10
-98.708585
 20
63.302743
 30
0.0
 40
11.0
100
AcDbArc
 50
270.0
 51
0.0
  0
ARC
  5
517
100
AcDbEntity
  8
0
370
    -3
390
0
  6
Continuous
100
AcDbCircle
 10
-169.208585
 20
89.852503
 30
0.0
 40
5.0
100
AcDbArc
 50
90.0
 51
180.0
  0
ARC
  5
518
100
AcDbEntity
  8
0
370
    -3
390
0
  6
Continuous
100
AcDbCircle
 10
-99.108585
 20
89.852503
 30
0.0
 40
5.0
100
AcDbArc
 50
0.0
 51
90.0
  0
LINE
  5
519
100
AcDbEntity
  8
0
370
    -3
390
0
  6
Continuous
100
AcDbLine
 10
-169.208585
 20
94.852503
 30
0.0
 11
-99.108585
 21
94.852503
 31
0.0
  0
LINE
  5
51A
100
AcDbEntity
  8
0
370
    -3
390
0
  6
Continuous
100
AcDbLine
 10
-174.208585
 20
60.276568
 30
0.0
 11
-174.208585
 21
89.852503
 31
0.0
  0
LINE
  5
51B
100
AcDbEntity
  8
0
370
    -3
390
0
  6
Continuous
100
AcDbLine
 10
-94.108585
 20
60.276568
 30
0.0
 11
-94.108585
 21
89.852503
 31
0.0
  0
LINE
  5
51C
100
AcDbEntity
  8
0
370
    -3
390
0
  6
Continuous
100
AcDbLine
 10
-87.708585
 20
90.171132
 30
0.0
 11
-87.708585
 21
63.302743
 31
0.0
  0
LINE
  5
51D
100
AcDbEntity
  8
0
370
    -3
390
0
  6
Continuous
100
AcDbLine
 10
-169.608585
 20
97.69966
 30
0.0
 11
-98.708585
 21
97.69966
 31
0.0
  0
LINE
  5
51E
100
AcDbEntity
  8
0
370
    -3
390
0
  6
Continuous
100
AcDbLine
 10
-169.608585
 20
101.171132
 30
0.0
 11
-98.708585
 21
101.171132
 31
0.0
  0
LINE
  5
51F
100
AcDbEntity
  8
0
370
    -3
390
0
  6
Continuous
100
AcDbLine
 10
-169.608585
 20
52.302743
 30
0.0
 11
-137.215841
 21
52.302743
 31
0.0
  0
ARC
  5
520
100
AcDbEntity
  8
0
370
    -3
390
0
  6
Continuous
100
AcDbCircle
 10
-107.558585
 20
107.076568
 30
0.0
 40
2.0
100
AcDbArc
 50
180.0
 51
270.0
  0
ARC
  5
521
100
AcDbEntity
  8
0
370
    -3
390
0
  6
Continuous
100
AcDbCircle
 10
-160.758585
 20
107.076568
 30
0.0
 40
2.0
100
AcDbArc
 50
270.0
 51
0.0
  0
LINE
  5
522
100
AcDbEntity
  8
0
370
    -3
390
0
  6
Continuous
100
AcDbLine
 10
-103.158585
 20
105.076568
 30
0.0
 11
-165.158585
 21
105.076568
 31
0.0
  0
LINE
  5
523
100
AcDbEntity
  8
0
370
    -3
390
0
  6
Continuous
100
AcDbLine
 10
-110.158585
 20
119.476568
 30
0.0
 11
-110.158585
 21
118.476568
 31
0.0
  0
LINE
  5
524
100
AcDbEntity
  8
0
370
    -3
390
0
  6
Continuous
100
AcDbLine
 10
-109.558585
 20
107.076568
 30
0.0
 11
-109.558585
 21
115.276568
 31
0.0
  0
ARC
  5
525
100
AcDbEntity
  8
0
370
    -3
390
0
  6
Continuous
100
AcDbCircle
 10
-112.758585
 20
115.276568
 30
0.0
 40
3.2
100
AcDbArc
 50
0.0
 51
90.0
  0
LINE
  5
526
100
AcDbEntity
  8
0
370
    -3
390
0
  6
Continuous
100
AcDbLine
 10
-134.158585
 20
118.476568
 30
0.0
 11
-110.158585
 21
118.476568
 31
0.0
  0
LINE
  5
527
100
AcDbEntity
  8
0
370
    -3
390
0
  6
Continuous
100
AcDbLine
 10
-134.158585
 20
118.476568
 30
0.0
 11
-149.158585
 21
118.476568
 31
0.0
  0
LINE
  5
528
100
AcDbEntity
  8
0
370
    -3
390
0
  6
Continuous
100
AcDbLine
 10
-149.158585
 20
119.976568
 30
0.0
 11
55.841415
 21
119.976568
 31
0.0
  0
LINE
  5
529
100
AcDbEntity
  8
0
370
    -3
390
0
  6
Continuous
100
AcDbLine
 10
-149.158585
 20
119.476568
 30
0.0
 11
55.841415
 21
119.476568
 31
0.0
  0
LINE
  5
52A
100
AcDbEntity
  8
0
370
    -3
390
0
  6
Continuous
100
AcDbLine
 10
-319.158585
 20
130.908699
 30
0.0
 11
-319.158585
 21
320.044438
 31
0.0
  0
LINE
  5
52B
100
AcDbEntity
  8
0
370
    -3
390
0
  6
Continuous
100
AcDbLine
 10
-316.058585
 20
325.413795
 30
0.0
 11
-300.360094
 21
334.477323
 31
0.0
  0
ARC
  5
52C
100
AcDbEntity
  8
0
370
    -3
390
0
  6
Continuous
100
AcDbCircle
 10
-312.958585
 20
320.044438
 30
0.0
 40
6.2
100
AcDbArc
 50
120.0
 51
180.0
  0
ARC
  5
52D
100
AcDbEntity
  8
0
370
    -3
390
0
  6
Continuous
100
AcDbCircle
 10
-269.760094
 20
281.476568
 30
0.0
 40
61.2
100
AcDbArc
 50
90.0
 51
120.0
  0
LINE
  5
52E
100
AcDbEntity
  8
0
370
    -3
390
0
  6
Continuous
100
AcDbLine
 10
-195.158585
 20
137.912186
 30
0.0
 11
-195.158585
 21
136.626089
 31
0.0
  0
LINE
  5
52F
100
AcDbEntity
  8
0
370
    -3
390
0
  6
Continuous
100
AcDbLine
 10
-183.158585
 20
137.912186
 30
0.0
 11
-183.158585
 21
136.626089
 31
0.0
  0
ELLIPSE
  5
530
100
AcDbEntity
  8
0
370
    -3
390
0
  6
Continuous
100
AcDbEllipse
 10
-189.158585
 20
136.626089
 30
0.0
 11
6.0
 21
0.0
 31
0.0
210
0.0
220
0.0
230
1.0
 40
0.689848
 41
3.1415926535897931
 42
3.9729303421147075
  0
ELLIPSE
  5
531
100
AcDbEntity
  8
0
370
    -3
390
0
  6
Continuous
100
AcDbEllipse
 10
-189.158585
 20
137.912186
 30
0.0
 11
6.0
 21
0.0
 31
0.0
210
0.0
220
0.0
230
1.0
 40
0.707107
 41
0.0
 42
3.1415926535897931
  0
LINE
  5
532
100
AcDbEntity
  8
0
370
    -3
390
0
  6
Continuous
100
AcDbLine
 10
-194.158585
 20
136.239693
 30
0.0
 11
-194.158585
 21
135.95685
 31
0.0
  0
LINE
  5
533
100
AcDbEntity
  8
0
370
    -3
390
0
  6
Continuous
100
AcDbLine
 10
-184.158585
 20
136.239693
 30
0.0
 11
-184.158585
 21
135.95685
 31
0.0
  0
ELLIPSE
  5
534
100
AcDbEntity
  8
0
370
    -3
390
0
  6
Continuous
100
AcDbEllipse
 10
-189.158585
 20
135.95685
 30
0.0
 11
5.0
 21
0.0
 31
0.0
210
0.0
220
0.0
230
1.0
 40
0.707107
 41
5.7540333991808064
 42
3.6707445615885725
  0
ELLIPSE
  5
535
100
AcDbEntity
  8
0
370
    -3
390
0
  6
Continuous
100
AcDbEllipse
 10
-189.158585
 20
136.239693
 30
0.0
 11
5.0
 21
0.0
 31
0.0
210
0.0
220
0.0
230
1.0
 40
0.763675
 41
0.0
 42
3.1415926535897931
  0
ELLIPSE
  5
536
100
AcDbEntity
  8
0
370
    -3
390
0
  6
Continuous
100
AcDbEllipse
 10
-189.158585
 20
135.267338
 30
0.0
 11
4.5
 21
0.0
 31
0.0
210
0.0
220
0.0
230
1.0
 40
0.860332
 41
0.0
 42
6.2831853071795862
  0
ELLIPSE
  5
537
100
AcDbEntity
  8
0
370
    -3
390
0
  6
Continuous
100
AcDbEllipse
 10
-189.158585
 20
136.626089
 30
0.0
 11
6.0
 21
0.0
 31
0.0
210
0.0
220
0.0
230
1.0
 40
0.689848
 41
5.4518476186546714
 42
0.0
  0
ELLIPSE
  5
538
100
AcDbEntity
  8
0
370
    -3
390
0
  6
Continuous
100
AcDbEllipse
 10
-189.158585
 20
136.626089
 30
0.0
 11
6.0
 21
0.0
 31
0.0
210
0.0
220
0.0
230
1.0
 40
0.689848
 41
0.0
 42
3.1415926535897931
  0
LINE
  5
539
100
AcDbEntity
  8
0
370
    -3
390
0
  6
Continuous
100
AcDbLine
 10
-189.158585
 20
133.623397
 30
0.0
 11
-191.158585
 21
132.327864
 31
0.0
  0
LINE
  5
53A
100
AcDbEntity
  8
0
370
    -3
390
0
  6
Continuous
100
AcDbLine
 10
-189.158585
 20
133.623397
 30
0.0
 11
-191.158585
 21
135.156291
 31
0.0
  0
LINE
  5
53B
100
AcDbEntity
  8
0
370
    -3
390
0
  6
Continuous
100
AcDbLine
 10
-189.158585
 20
133.623397
 30
0.0
 11
-187.158585
 21
135.156291
 31
0.0
  0
LINE
  5
53C
100
AcDbEntity
  8
0
370
    -3
390
0
  6
Continuous
100
AcDbLine
 10
-189.158585
 20
133.623397
 30
0.0
 11
-187.158585
 21
132.327864
 31
0.0
  0
LINE
  5
53D
100
AcDbEntity
  8
0
370
    -3
390
0
  6
Continuous
100
AcDbLine
 10
-316.058585
 20
125.539342
 30
0.0
 11
-300.360094
 21
116.475814
 31
0.0
  0
LINE
  5
53E
100
AcDbEntity
  8
0
370
    -3
390
0
  6
Continuous
100
AcDbLine
 10
-195.158585
 20
313.040951
 30
0.0
 11
-195.158585
 21
314.327048
 31
0.0
  0
LINE
  5
53F
100
AcDbEntity
  8
0
370
    -3
390
0
  6
Continuous
100
AcDbLine
 10
-183.158585
 20
313.040951
 30
0.0
 11
-183.158585
 21
314.327048
 31
0.0
  0
ELLIPSE
  5
540
100
AcDbEntity
  8
0
370
    -3
390
0
  6
Continuous
100
AcDbEllipse
 10
-189.158585
 20
314.327048
 30
0.0
 11
6.0
 21
0.0
 31
0.0
210
0.0
220
0.0
230
1.0
 40
0.689848
 41
2.3102549650648752
 42
3.1415926535897931
  0
ELLIPSE
  5
541
100
AcDbEntity
  8
0
370
    -3
390
0
  6
Continuous
100
AcDbEllipse
 10
-189.158585
 20
313.040951
 30
0.0
 11
6.0
 21
0.0
 31
0.0
210
0.0
220
0.0
230
1.0
 40
0.707107
 41
3.1415926535897931
 42
0.0
  0
LINE
  5
542
100
AcDbEntity
  8
0
370
    -3
390
0
  6
Continuous
100
AcDbLine
 10
-194.158585
 20
314.713444
 30
0.0
 11
-194.158585
 21
314.996287
 31
0.0
  0
LINE
  5
543
100
AcDbEntity
  8
0
370
    -3
390
0
  6
Continuous
100
AcDbLine
 10
-184.158585
 20
314.713444
 30
0.0
 11
-184.158585
 21
314.996287
 31
0.0
  0
ELLIPSE
  5
544
100
AcDbEntity
  8
0
370
    -3
390
0
  6
Continuous
100
AcDbEllipse
 10
-189.158585
 20
314.996287
 30
0.0
 11
5.0
 21
0.0
 31
0.0
210
0.0
220
0.0
230
1.0
 40
0.707107
 41
2.6124407455910101
 42
0.5291519079987834
  0
ELLIPSE
  5
545
100
AcDbEntity
  8
0
370
    -3
390
0
  6
Continuous
100
AcDbEllipse
 10
-189.158585
 20
314.713444
 30
0.0
 11
5.0
 21
0.0
 31
0.0
210
0.0
220
0.0
230
1.0
 40
0.763675
 41
3.1415926535897931
 42
0.0
  0
ELLIPSE
  5
546
100
AcDbEntity
  8
0
370
    -3
390
0
  6
Continuous
100
AcDbEllipse
 10
-189.158585
 20
315.685799
 30
0.0
 11
4.5
 21
0.0
 31
0.0
210
0.0
220
0.0
230
1.0
 40
0.860332
 41
0.0
 42
6.2831853071795862
  0
ELLIPSE
  5
547
100
AcDbEntity
  8
0
370
    -3
390
0
  6
Continuous
100
AcDbEllipse
 10
-189.158585
 20
314.327048
 30
0.0
 11
6.0
 21
0.0
 31
0.0
210
0.0
220
0.0
230
1.0
 40
0.689848
 41
0.0
 42
0.8313376885249183
  0
ELLIPSE
  5
548
100
AcDbEntity
  8
0
370
    -3
390
0
  6
Continuous
100
AcDbEllipse
 10
-189.158585
 20
314.327048
 30
0.0
 11
6.0
 21
0.0
 31
0.0
210
0.0
220
0.0
230
1.0
 40
0.689848
 41
3.1415926535897931
 42
0.0
  0
LINE
  5
549
100
AcDbEntity
  8
0
370
    -3
390
0
  6
Continuous
100
AcDbLine
 10
-189.158585
 20
317.32974
 30
0.0
 11
-191.158585
 21
318.625273
 31
0.0
  0
LINE
  5
54A
100
AcDbEntity
  8
0
370
    -3
390
0
  6
Continuous
100
AcDbLine
 10
-189.158585
 20
317.32974
 30
0.0
 11
-191.158585
 21
315.796846
 31
0.0
  0
LINE
  5
54B
100
AcDbEntity
  8
0
370
    -3
390
0
  6
Continuous
100
AcDbLine
 10
-189.158585
 20
317.32974
 30
0.0
 11
-187.158585
 21
315.796846
 31
0.0
  0
LINE
  5
54C
100
AcDbEntity
  8
0
370
    -3
390
0
  6
Continuous
100
AcDbLine
 10
-189.158585
 20
317.32974
 30
0.0
 11
-187.158585
 21
318.625273
 31
0.0
  0
ARC
  5
54D
100
AcDbEntity
  8
0
370
    -3
390
0
  6
Continuous
100
AcDbCircle
 10
-312.958585
 20
130.908699
 30
0.0
 40
6.2
100
AcDbArc
 50
180.0
 51
240.0
  0
ARC
  5
54E
100
AcDbEntity
  8
0
370
    -3
390
0
  6
Continuous
100
AcDbCircle
 10
-269.760094
 20
169.476568
 30
0.0
 40
61.2
100
AcDbArc
 50
240.0
 51
270.0
  0
ENDSEC
  0
SECTION
  2
OBJECTS
  0
DICTIONARY
  5
19
100
AcDbDictionary
280
     0
281
     1
  3
ACAD_GROUP
350
1A
  3
ACAD_MLINESTYLE
350
1B
  3
ACAD_LAYOUT
350
1E
  3
ACAD_PLOTSETTINGS
350
22
  3
ACAD_PLOTSTYLENAME
350
1F
  3
ACAD_WIPEOUT_VARS
350
23
  3
DWGPROPS
350
54F
  0
DICTIONARY
  5
1A
102
{ACAD_REACTORS
330
19
102
}
100
AcDbDictionary
280
     0
281
     1
  0
DICTIONARY
  5
1B
102
{ACAD_REACTORS
330
19
102
}
100
AcDbDictionary
280
     0
281
     1
  3
Standard
350
1C
  0
MLINESTYLE
  5
1C
102
{ACAD_REACTORS
330
1B
102
}
100
AcDbMlineStyle
  2
Standard
 70
     0
  3

 62
     0
 51
90.0
 52
90.0
 71
     2
 49
0.5
 62
   256
  6
ByLayer
 49
-0.5
 62
   256
  6
ByLayer
  0
ACDBDICTIONARYWDFLT
  5
1F
102
{ACAD_REACTORS
330
19
102
}
100
AcDbDictionary
281
     1
  3
Normal
350
1D
100
AcDbDictionaryWithDefault
340
1D
  0
ACDBPLACEHOLDER
  5
1D
102
{ACAD_REACTORS
330
1F
102
}
  0
LAYOUT
  5
20
102
{ACAD_REACTORS
330
1E
102
}
100
AcDbPlotSettings
  1

  2

  4

  6

 40
0.0
 41
0.0
 42
0.0
 43
0.0
 44
0.0
 45
0.0
 46
0.0
 47
0.0
 48
0.0
 49
0.0
140
0.0
141
0.0
142
1.0
143
1.0
 70
  1024
 72
     0
 73
     0
 74
     0
  7

 75
     0
147
1.0
148
0.0
149
0.0
100
AcDbLayout
  1
Model
 70
     0
 71
     0
 10
0.0
 20
0.0
 11
0.0
 21
0.0
 12
0.0
 22
0.0
 32
0.0
 14
0.0
 24
0.0
 34
0.0
 15
0.0
 25
0.0
 35
0.0
146
0.0
 13
0.0
 23
0.0
 33
0.0
 16
0.0
 26
0.0
 36
0.0
 17
0.0
 27
0.0
 37
0.0
 76
     0
330
A
331
0
345
0
346
0
  0
LAYOUT
  5
21
102
{ACAD_REACTORS
330
1E
102
}
100
AcDbPlotSettings
  1

  2

  4

  6

 40
0.0
 41
0.0
 42
0.0
 43
0.0
 44
0.0
 45
0.0
 46
0.0
 47
0.0
 48
0.0
 49
0.0
140
0.0
141
0.0
142
1.0
143
1.0
 70
     0
 72
     0
 73
     0
 74
     0
  7

 75
     0
147
1.0
148
0.0
149
0.0
100
AcDbLayout
  1
Layout1
 70
     0
 71
     0
 10
0.0
 20
0.0
 11
0.0
 21
0.0
 12
0.0
 22
0.0
 32
0.0
 14
0.0
 24
0.0
 34
0.0
 15
0.0
 25
0.0
 35
0.0
146
0.0
 13
0.0
 23
0.0
 33
0.0
 16
0.0
 26
0.0
 36
0.0
 17
0.0
 27
0.0
 37
0.0
 76
     0
330
B
331
0
345
0
346
0
  0
DICTIONARY
  5
1E
102
{ACAD_REACTORS
330
19
102
}
100
AcDbDictionary
280
     0
281
     1
  3
Layout1
350
21
  3
Model
350
20
  0
DICTIONARY
  5
22
102
{ACAD_REACTORS
330
19
102
}
100
AcDbDictionary
280
     0
281
     1
  0
WIPEOUTVARIABLES
  5
23
100
AcDbWipeoutVariables
 70
     1
  0
XRECORD
  5
54F
100
AcDbXrecord
280
     1
  1
DWGPROPS COOKIE
  2

  3

  4

  6

  7

  8
YP81315
  9

300
=
301
=
302
=
303
=
304
=
305
=
306
=
307
=
308
=
309
=
 40
0.0
 41
2456812.582419
 42
2456812.582419
  1

 90
        0
  0
ENDSEC
  0
EOF
