  0
SECTION
  2
HEADER
  9
$ACADVER
  1
AC1015
  9
$ACADMAINTVER
 70
     6
  9
$DWGCODEPAGE
  3
ANSI_932
  9
$INSBASE
 10
0.0
 20
0.0
 30
0.0
  9
$EXTMIN
 10
1.000000E+20
 20
1.000000E+20
 30
1.000000E+20
  9
$EXTMAX
 10
-1.000000E+20
 20
-1.000000E+20
 30
-1.000000E+20
  9
$LIMMIN
 10
0.0
 20
0.0
  9
$LIMMAX
 10
0.0
 20
0.0
  9
$ORTHOMODE
 70
     0
  9
$REGENMODE
 70
     1
  9
$FILLMODE
 70
     1
  9
$QTEXTMODE
 70
     0
  9
$MIRRTEXT
 70
     1
  9
$LTSCALE
 40
1.0
  9
$ATTMODE
 70
     1
  9
$TEXTSIZE
 40
2.8
  9
$TRACEWID
 40
0.05
  9
$TEXTSTYLE
  7
Standard
  9
$CLAYER
  8
0
  9
$CELTYPE
  6
Continuous
  9
$CECOLOR
 62
   256
  9
$CELTSCALE
 40
1.0
  9
$DISPSILH
 70
     0
  9
$DIMSCALE
 40
1.0
  9
$DIMASZ
 40
1.931852
  9
$DIMEXO
 40
1.0
  9
$DIMDLI
 40
0.38
  9
$DIMRND
 40
0.0
  9
$DIMDLE
 40
0.0
  9
$DIMEXE
 40
2.0
  9
$DIMTP
 40
0.0
  9
$DIMTM
 40
0.0
  9
$DIMTXT
 40
3.2
  9
$DIMCEN
 40
0.09
  9
$DIMTSZ
 40
0.0
  9
$DIMTOL
 70
     0
  9
$DIMLIM
 70
     0
  9
$DIMTIH
 70
     1
  9
$DIMTOH
 70
     1
  9
$DIMSE1
 70
     0
  9
$DIMSE2
 70
     0
  9
$DIMTAD
 70
     1
  9
$DIMZIN
 70
     0
  9
$DIMBLK
  1

  9
$DIMASO
 70
     1
  9
$DIMSHO
 70
     1
  9
$DIMPOST
  1

  9
$DIMAPOST
  1

  9
$DIMALT
 70
     0
  9
$DIMALTD
 70
     2
  9
$DIMALTF
 40
25.4
  9
$DIMLFAC
 40
1.0
  9
$DIMTOFL
 70
     0
  9
$DIMTVP
 40
0.0
  9
$DIMTIX
 70
     0
  9
$DIMSOXD
 70
     0
  9
$DIMSAH
 70
     0
  9
$DIMBLK1
  1

  9
$DIMBLK2
  1

  9
$DIMSTYLE
  2
Standard
  9
$DIMCLRD
 70
     0
  9
$DIMCLRE
 70
     0
  9
$DIMCLRT
 70
     0
  9
$DIMTFAC
 40
0.714286
  9
$DIMGAP
 40
0.09
  9
$DIMJUST
 70
     0
  9
$DIMSD1
 70
     0
  9
$DIMSD2
 70
     0
  9
$DIMTOLJ
 70
     1
  9
$DIMTZIN
 70
     0
  9
$DIMALTZ
 70
     0
  9
$DIMALTTZ
 70
     0
  9
$DIMUPT
 70
     0
  9
$DIMDEC
 70
     4
  9
$DIMTDEC
 70
     4
  9
$DIMALTU
 70
     2
  9
$DIMALTTD
 70
     2
  9
$DIMTXSTY
  7
Standard
  9
$DIMAUNIT
 70
     0
  9
$DIMADEC
 70
     0
  9
$DIMALTRND
 40
0.0
  9
$DIMAZIN
 70
     0
  9
$DIMDSEP
 70
     0
  9
$DIMATFIT
 70
     3
  9
$DIMFRAC
 70
     0
  9
$DIMLDRBLK
  1

  9
$DIMLUNIT
 70
     2
  9
$DIMLWD
 70
     0
  9
$DIMLWE
 70
     0
  9
$DIMTMOVE
 70
     0
  9
$LUNITS
 70
     2
  9
$LUPREC
 70
     3
  9
$SKETCHINC
 40
0.1
  9
$FILLETRAD
 40
0.0
  9
$AUNITS
 70
     0
  9
$AUPREC
 70
     0
  9
$MENU
  1
acad
  9
$ELEVATION
 40
0.0
  9
$PELEVATION
 40
0.0
  9
$THICKNESS
 40
0.0
  9
$LIMCHECK
 70
     0
  9
$CHAMFERA
 40
0.0
  9
$CHAMFERB
 40
0.0
  9
$CHAMFERC
 40
0.0
  9
$CHAMFERD
 40
0.0
  9
$SKPOLY
 70
     0
  9
$TDCREATE
 40
0.000000000
  9
$TDUCREATE
 40
0.000000000
  9
$TDUPDATE
 40
0.000000000
  9
$TDUUPDATE
 40
0.000000000
  9
$TDINDWG
 40
0.0000000000
  9
$TDUSRTIMER
 40
0.0000000000
  9
$USRTIMER
 70
     1
  9
$ANGBASE
 50
0.0
  9
$ANGDIR
 70
     0
  9
$PDMODE
 70
     0
  9
$PDSIZE
 40
0.0
  9
$PLINEWID
 40
0.0
  9
$SPLFRAME
 70
     0
  9
$SPLINETYPE
 70
     6
  9
$SPLINESEGS
 70
     8
  9
$HANDSEED
  5
635
  9
$SURFTAB1
 70
     6
  9
$SURFTAB2
 70
     6
  9
$SURFTYPE
 70
     6
  9
$SURFU
 70
     6
  9
$SURFV
 70
     6
  9
$UCSBASE
  2

  9
$UCSNAME
  2

  9
$UCSORG
 10
0.0
 20
0.0
 30
0.0
  9
$UCSXDIR
 10
1.0
 20
0.0
 30
0.0
  9
$UCSYDIR
 10
0.0
 20
1.0
 30
0.0
  9
$UCSORTHOREF
  2

  9
$UCSORTHOVIEW
 70
     0
  9
$UCSORGTOP
 10
0.0
 20
0.0
 30
0.0
  9
$UCSORGBOTTOM
 10
0.0
 20
0.0
 30
0.0
  9
$UCSORGLEFT
 10
0.0
 20
0.0
 30
0.0
  9
$UCSORGRIGHT
 10
0.0
 20
0.0
 30
0.0
  9
$UCSORGFRONT
 10
0.0
 20
0.0
 30
0.0
  9
$UCSORGBACK
 10
0.0
 20
0.0
 30
0.0
  9
$PUCSBASE
  2

  9
$PUCSNAME
  2

  9
$PUCSORG
 10
0.0
 20
0.0
 30
0.0
  9
$PUCSXDIR
 10
1.0
 20
0.0
 30
0.0
  9
$PUCSYDIR
 10
0.0
 20
1.0
 30
0.0
  9
$PUCSORTHOREF
  2

  9
$PUCSORTHOVIEW
 70
     0
  9
$PUCSORGTOP
 10
0.0
 20
0.0
 30
0.0
  9
$PUCSORGBOTTOM
 10
0.0
 20
0.0
 30
0.0
  9
$PUCSORGLEFT
 10
0.0
 20
0.0
 30
0.0
  9
$PUCSORGRIGHT
 10
0.0
 20
0.0
 30
0.0
  9
$PUCSORGFRONT
 10
0.0
 20
0.0
 30
0.0
  9
$PUCSORGBACK
 10
0.0
 20
0.0
 30
0.0
  9
$USERI1
 70
     0
  9
$USERI2
 70
     0
  9
$USERI3
 70
     0
  9
$USERI4
 70
     0
  9
$USERI5
 70
     0
  9
$USERR1
 40
0.0
  9
$USERR2
 40
0.0
  9
$USERR3
 40
0.0
  9
$USERR4
 40
0.0
  9
$USERR5
 40
0.0
  9
$WORLDVIEW
 70
     1
  9
$SHADEDGE
 70
     3
  9
$SHADEDIF
 70
    70
  9
$TILEMODE
 70
     1
  9
$MAXACTVP
 70
    16
  9
$PINSBASE
 10
0.0
 20
0.0
 30
0.0
  9
$PLIMCHECK
 70
     0
  9
$PEXTMIN
 10
1.000000E+20
 20
1.000000E+20
 30
1.000000E+20
  9
$PEXTMAX
 10
-1.000000E+20
 20
-1.000000E+20
 30
-1.000000E+20
  9
$PLIMMIN
 10
0.0
 20
0.0
  9
$PLIMMAX
 10
12.0
 20
9.0
  9
$UNITMODE
 70
     0
  9
$VISRETAIN
 70
     0
  9
$PLINEGEN
 70
     1
  9
$PSLTSCALE
 70
     0
  9
$TREEDEPTH
 70
  3020
  9
$CMLSTYLE
  2
Standard
  9
$CMLJUST
 70
     0
  9
$CMLSCALE
 40
1.0
  9
$PROXYGRAPHICS
 70
     0
  9
$MEASUREMENT
 70
     0
  9
$CELWEIGHT
370
     0
  9
$ENDCAPS
280
     0
  9
$JOINSTYLE
280
     0
  9
$LWDISPLAY
290
     0
  9
$INSUNITS
 70
     0
  9
$HYPERLINKBASE
  1

  9
$STYLESHEET
  1

  9
$XEDIT
290
     1
  9
$CEPSNTYPE
380
     0
  9
$PSTYLEMODE
290
     1
  9
$FINGERPRINTGUID
  2

  9
$VERSIONGUID
  2

  9
$EXTNAMES
290
     1
  9
$PSVPSCALE
 40
0.0
  0
ENDSEC
  0
SECTION
  2
CLASSES
  0
CLASS
  1
LWPOLYLINE
  2
AcDbPolyline
  3
AutoCAD 2000
 90
        0
280
     0
281
     1
  0
CLASS
  1
IMAGE
  2
AcDbRasterImage
  3
ISM
 90
      127
280
     0
281
     1
  0
CLASS
  1
OLE2FRAME
  2
AcDbOle2Frame
  3
AutoCAD 2000
 90
        0
280
     0
281
     1
  0
CLASS
  1
HATCH
  2
AcDbHatch
  3
AutoCAD 2000
 90
        0
280
     0
281
     1
  0
CLASS
  1
DICTIONARYVAR
  2
AcDbDictionaryVar
  3
AutoCAD 2000
 90
        0
280
     0
281
     0
  0
CLASS
  1
RASTERVARIABLES
  2
AcDbRasterVariables
  3
ISM
 90
        0
280
     0
281
     0
  0
CLASS
  1
IMAGEDEF
  2
AcDbRasterImageDef
  3
ISM
 90
        0
280
     0
281
     0
  0
CLASS
  1
IMAGEDEF_REACTOR
  2
AcDbRasterImageDefReactor
  3
ISM
 90
        1
280
     0
281
     0
  0
CLASS
  1
IDBUFFER
  2
AcDbIdBuffer
  3
AutoCAD 2000
 90
        0
280
     0
281
     0
  0
CLASS
  1
SPATIAL_FILTER
  2
AcDbSpatialFilter
  3
AutoCAD 2000
 90
        0
280
     0
281
     0
  0
CLASS
  1
XRECORD
  2
AcDbXrecord
  3
AutoCAD 2000
 90
        0
280
     0
281
     0
  0
CLASS
  1
SORTENTSTABLE
  2
AcDbSortentsTable
  3
AutoCAD 2000
 90
        0
280
     0
281
     0
  0
CLASS
  1
LAYER_INDEX
  2
AcDbLayerIndex
  3
AutoCAD 2000
 90
        0
280
     0
281
     0
  0
CLASS
  1
SPATIAL_INDEX
  2
AcDbSpatialIndex
  3
AutoCAD 2000
 90
        0
280
     0
281
     0
  0
CLASS
  1
OBJECT_PTR
  2
CAseDLPNTableRecord
  3
"ASE-LPNTableRecord"
 90
        1
280
     0
281
     0
  0
CLASS
  1
LAYOUT
  2
AcDbLayout
  3
AutoCAD 2000
 90
        0
280
     0
281
     0
  0
CLASS
  1
PLOTSETTINGS
  2
AcDbPlotSettings
  3
AutoCAD 2000
 90
        0
280
     0
281
     0
  0
CLASS
  1
ACDBDICTIONARYWDFLT
  2
AcDbDictionaryWithDefault
  3
AutoCAD 2000
 90
        0
280
     0
281
     0
  0
CLASS
  1
ACDBPLACEHOLDER
  2
AcDbPlaceHolder
  3
AutoCAD 2000
 90
        0
280
     0
281
     0
  0
CLASS
  1
VBA_PROJECT
  2
AcDbVbaProject
  3
acadvba
 90
        0
280
     0
281
     0
  0
CLASS
  1
WIPEOUT
  2
AcDbWipeout
  3
WipeOut|AutoCAD Express Tool|expresstools@autodesk.com
 90
      127
280
     0
281
     1
  0
CLASS
  1
WIPEOUTVARIABLES
  2
AcDbWipeoutVariables
  3
WipeOut|AutoCAD Express Tool|expresstools@autodesk.com
 90
        0
280
     0
281
     0
  0
CLASS
  1
RTEXT
  2
RText
  3
RText|AutoCAD Express Tool|expresstools@autodesk.com
 90
        0
280
     0
281
     1
  0
CLASS
  1
ARCALIGNEDTEXT
  2
AcDbArcAlignedText
  3
ATEXT|AutoCAD Express Tool|expresstools@autodesk.com
 90
        0
280
     0
281
     1
  0
ENDSEC
  0
SECTION
  2
TABLES
  0
TABLE
  2
VPORT
  5
7
100
AcDbSymbolTable
 70
     1
  0
VPORT
  5
15
100
AcDbSymbolTableRecord
100
AcDbViewportTableRecord
  2
*ACTIVE
 70
     0
 10
0.0
 20
0.0
 11
1.0
 21
1.0
 12
0.0
 22
0.0
 13
0.0
 23
0.0
 14
1.0
 24
1.0
 15
0.0
 25
0.0
 16
0.0
 26
0.0
 36
1.0
 17
0.0
 27
0.0
 37
0.0
 40
100.0
 41
1.0
 42
50.0
 43
0.0
 44
0.0
 50
0.0
 51
0.0
 71
     0
 72
   100
 73
     1
 74
     1
 75
     0
 76
     0
 77
     0
 78
     0
281
     0
 65
     0
110
0.0
120
0.0
130
0.0
111
1.0
121
0.0
131
0.0
112
0.0
122
1.0
132
0.0
345
0
346
0
 79
     0
146
0.0
  0
ENDTAB
  0
TABLE
  2
LTYPE
  5
4
100
AcDbSymbolTable
 70
     7
  0
LTYPE
  5
11
100
AcDbSymbolTableRecord
100
AcDbLinetypeTableRecord
  2
ByBlock
 70
    64
  3

 72
    65
 73
     0
 40
0.0
  0
LTYPE
  5
12
100
AcDbSymbolTableRecord
100
AcDbLinetypeTableRecord
  2
ByLayer
 70
    64
  3

 72
    65
 73
     0
 40
0.0
  0
LTYPE
  5
13
100
AcDbSymbolTableRecord
100
AcDbLinetypeTableRecord
  2
Continuous
 70
    64
  3
Solid line
 72
    65
 73
     0
 40
0.0
  0
LTYPE
  5
24
100
AcDbSymbolTableRecord
100
AcDbLinetypeTableRecord
  2
DASHED
 70
    64
  3
Dashed __ __ __ __ __ __ __ __ __ __ __ __ __ _
 72
    65
 73
     2
 40
0.75
 49
0.5
 74
     0
 49
-0.25
 74
     0
  0
LTYPE
  5
25
100
AcDbSymbolTableRecord
100
AcDbLinetypeTableRecord
  2
CENTER
 70
    64
  3
Center ____ _ ____ _ ____ _ ____ _ ____ _ ____
 72
    65
 73
     4
 40
1.0
 49
0.5
 74
     0
 49
-0.25
 74
     0
 49
0.0
 74
     0
 49
-0.25
 74
     0
  0
LTYPE
  5
26
100
AcDbSymbolTableRecord
100
AcDbLinetypeTableRecord
  2
DIVIDE
 70
    64
  3
Divide ____ . . ____ . . ____ . . ____ . . ____
 72
    65
 73
     6
 40
1.25
 49
0.5
 74
     0
 49
-0.25
 74
     0
 49
0.0
 74
     0
 49
-0.25
 74
     0
 49
0.0
 74
     0
 49
-0.25
 74
     0
  0
LTYPE
  5
27
100
AcDbSymbolTableRecord
100
AcDbLinetypeTableRecord
  2
PHANTOM
 70
    64
  3
Phantom ______  __  __  ______  __  __  ______
 72
    65
 73
     6
 40
9.0
 49
4.3
 74
     0
 49
-0.7
 74
     0
 49
1.3
 74
     0
 49
-0.7
 74
     0
 49
1.3
 74
     0
 49
-0.7
 74
     0
  0
ENDTAB
  0
TABLE
  2
LAYER
  5
2
100
AcDbSymbolTable
 70
     1
  0
LAYER
  5
14
100
AcDbSymbolTableRecord
100
AcDbLayerTableRecord
  2
0
 70
    64
 62
   102
  6
Continuous
290
     1
370
    -3
390
1D
  0
ENDTAB
  0
TABLE
  2
STYLE
  5
3
100
AcDbSymbolTable
 70
     2
  0
STYLE
  5
17
100
AcDbSymbolTableRecord
100
AcDbTextStyleTableRecord
  2
Standard
 70
     0
 40
0.0
 41
1.0
 50
0.0
 71
     0
 42
0.0
  3
txt
  4

  0
STYLE
  5
4F1
100
AcDbSymbolTableRecord
100
AcDbTextStyleTableRecord
  2
ZU_SHPTB00001
 70
     0
 40
0.0
 41
1.0
 50
0.0
 71
     0
 42
0.0
  3
monotxt
  4
bigfont
  0
ENDTAB
  0
TABLE
  2
VIEW
  5
5
100
AcDbSymbolTable
 70
     0
  0
ENDTAB
  0
TABLE
  2
UCS
  5
6
100
AcDbSymbolTable
 70
     0
  0
ENDTAB
  0
TABLE
  2
APPID
  5
8
100
AcDbSymbolTable
 70
     1
  0
APPID
  5
16
100
AcDbSymbolTableRecord
100
AcDbRegAppTableRecord
  2
ACAD
 70
     0
  0
ENDTAB
  0
TABLE
  2
DIMSTYLE
  5
9
100
AcDbSymbolTable
 70
     1
100
AcDbDimStyleTable
 71
     0
  0
DIMSTYLE
105
18
100
AcDbSymbolTableRecord
100
AcDbDimStyleTableRecord
  2
Standard
 70
     0
  3

  4

 40
1.0
 41
0.18
 42
0.0625
 43
0.38
 44
0.18
 45
0.0
 46
0.0
 47
0.0
 48
0.0
 71
     0
 72
     0
 73
     1
 74
     1
 75
     0
 76
     0
 77
     0
 78
     0
 79
     0
140
0.18
141
0.09
142
0.0
143
25.4
144
1.0
145
0.0
146
1.0
147
0.09
148
0.0
170
     0
171
     2
172
     0
173
     0
174
     0
175
     0
176
     0
177
     0
178
     0
179
     0
271
     4
272
     4
273
     2
274
     2
275
     0
276
     0
277
     2
278
    46
279
     0
280
     0
281
     0
282
     0
283
     1
284
     0
285
     0
286
     0
288
     0
289
     3
340
17
341
0
342
0
343
0
344
0
371
    -2
372
    -2
  0
ENDTAB
  0
TABLE
  2
BLOCK_RECORD
  5
1
100
AcDbSymbolTable
 70
     5
  0
BLOCK_RECORD
  5
A
100
AcDbSymbolTableRecord
100
AcDbBlockTableRecord
  2
*MODEL_SPACE
340
20
  0
BLOCK_RECORD
  5
B
100
AcDbSymbolTableRecord
100
AcDbBlockTableRecord
  2
*PAPER_SPACE
340
21
  0
BLOCK_RECORD
  5
59
100
AcDbSymbolTableRecord
100
AcDbBlockTableRecord
  2
ZU_SYM__USERS_HOME_SYMBOL_POO_SYM_B20_20
340
0
102
{BLKREFS
331
64
102
}
  0
BLOCK_RECORD
  5
6D
100
AcDbSymbolTableRecord
100
AcDbBlockTableRecord
  2
ZU_SYM__USERS_HOME_SYMBOL_POO_SYM_B20_0000120
340
0
102
{BLKREFS
331
78
102
}
  0
BLOCK_RECORD
  5
D3
100
AcDbSymbolTableRecord
100
AcDbBlockTableRecord
  2
ZU_SYM__USERS_HOME_SYMBOL_POO_SYM_B20_0000220
340
0
102
{BLKREFS
331
DE
102
}
  0
BLOCK_RECORD
  5
E8
100
AcDbSymbolTableRecord
100
AcDbBlockTableRecord
  2
ZU_SYM__USERS_HOME_SYMBOL_POO_SYM_B20_18
340
0
102
{BLKREFS
331
F3
102
}
  0
BLOCK_RECORD
  5
125
100
AcDbSymbolTableRecord
100
AcDbBlockTableRecord
  2
ZU_SYM__USERS_HOME_SYMBOL_POO_SYM_B20_0000320
340
0
102
{BLKREFS
331
130
102
}
  0
ENDTAB
  0
ENDSEC
  0
SECTION
  2
BLOCKS
  0
BLOCK
  5
D
100
AcDbEntity
  8
0
390
0
100
AcDbBlockBegin
  2
*MODEL_SPACE
 70
     0
 10
0.0
 20
0.0
 30
0.0
  3
*MODEL_SPACE
  1

  0
ENDBLK
  5
E
100
AcDbEntity
  8
0
390
0
100
AcDbBlockEnd
  0
BLOCK
  5
F
100
AcDbEntity
 67
     1
  8
0
390
0
100
AcDbBlockBegin
  2
*PAPER_SPACE
 70
     0
 10
0.0
 20
0.0
 30
0.0
  3
*PAPER_SPACE
  1

  0
ENDBLK
  5
10
100
AcDbEntity
 67
     1
  8
0
390
0
100
AcDbBlockEnd
  0
BLOCK
  5
5A
100
AcDbEntity
  8
0
390
0
100
AcDbBlockBegin
  2
ZU_SYM__USERS_HOME_SYMBOL_POO_SYM_B20_20
 70
    64
 10
0.0
 20
0.0
 30
0.0
  3
ZU_SYM__USERS_HOME_SYMBOL_POO_SYM_B20_20
  1

  0
LINE
  5
5B
100
AcDbEntity
  8
0
370
    -3
390
0
  6
Continuous
100
AcDbLine
 10
-11.299976
 20
9.0
 30
0.0
 11
-11.299976
 21
-9.0
 31
0.0
  0
LINE
  5
5C
100
AcDbEntity
  8
0
370
    -3
390
0
  6
Continuous
100
AcDbLine
 10
-11.299961
 20
-9.000002
 30
0.0
 11
-11.999958
 21
-7.787738
 31
0.0
  0
LINE
  5
5D
100
AcDbEntity
  8
0
370
    -3
390
0
  6
Continuous
100
AcDbLine
 10
-11.299976
 20
8.999998
 30
0.0
 11
-11.999973
 21
7.787338
 31
0.0
  0
LINE
  5
5E
100
AcDbEntity
  8
0
370
    -3
390
0
  6
Continuous
100
AcDbLine
 10
0.0
 20
9.0
 30
0.0
 11
-11.299976
 21
9.0
 31
0.0
  0
LINE
  5
5F
100
AcDbEntity
  8
0
370
    -3
390
0
  6
Continuous
100
AcDbLine
 10
0.0
 20
-9.0
 30
0.0
 11
-11.299961
 21
-9.0
 31
0.0
  0
LINE
  5
60
100
AcDbEntity
  8
0
370
    -3
390
0
  6
Continuous
100
AcDbLine
 10
-11.999958
 20
-7.787735
 30
0.0
 11
-11.999973
 21
7.78734
 31
0.0
  0
LINE
  5
61
100
AcDbEntity
  8
0
370
    -3
390
0
  6
Continuous
100
AcDbLine
 10
0.0
 20
9.0
 30
0.0
 11
0.0
 21
-9.0
 31
0.0
  0
POINT
  5
62
100
AcDbEntity
  8
0
370
    -3
390
0
  6
Continuous
100
AcDbPoint
 10
0.0
 20
0.0
 30
0.0
  0
ENDBLK
  5
63
100
AcDbEntity
  8
0
390
0
100
AcDbBlockEnd
  0
BLOCK
  5
6E
100
AcDbEntity
  8
0
390
0
100
AcDbBlockBegin
  2
ZU_SYM__USERS_HOME_SYMBOL_POO_SYM_B20_0000120
 70
    64
 10
0.0
 20
0.0
 30
0.0
  3
ZU_SYM__USERS_HOME_SYMBOL_POO_SYM_B20_0000120
  1

  0
LINE
  5
6F
100
AcDbEntity
  8
0
370
    -3
390
0
  6
Continuous
100
AcDbLine
 10
-11.299976
 20
9.0
 30
0.0
 11
-11.299976
 21
-9.0
 31
0.0
  0
LINE
  5
70
100
AcDbEntity
  8
0
370
    -3
390
0
  6
Continuous
100
AcDbLine
 10
-11.299961
 20
-9.000002
 30
0.0
 11
-11.999958
 21
-7.787738
 31
0.0
  0
LINE
  5
71
100
AcDbEntity
  8
0
370
    -3
390
0
  6
Continuous
100
AcDbLine
 10
-11.299976
 20
8.999998
 30
0.0
 11
-11.999973
 21
7.787338
 31
0.0
  0
LINE
  5
72
100
AcDbEntity
  8
0
370
    -3
390
0
  6
Continuous
100
AcDbLine
 10
0.0
 20
9.0
 30
0.0
 11
-11.299976
 21
9.0
 31
0.0
  0
LINE
  5
73
100
AcDbEntity
  8
0
370
    -3
390
0
  6
Continuous
100
AcDbLine
 10
0.0
 20
-9.0
 30
0.0
 11
-11.299961
 21
-9.0
 31
0.0
  0
LINE
  5
74
100
AcDbEntity
  8
0
370
    -3
390
0
  6
Continuous
100
AcDbLine
 10
-11.999958
 20
-7.787735
 30
0.0
 11
-11.999973
 21
7.78734
 31
0.0
  0
LINE
  5
75
100
AcDbEntity
  8
0
370
    -3
390
0
  6
Continuous
100
AcDbLine
 10
0.0
 20
9.0
 30
0.0
 11
0.0
 21
-9.0
 31
0.0
  0
POINT
  5
76
100
AcDbEntity
  8
0
370
    -3
390
0
  6
Continuous
100
AcDbPoint
 10
0.0
 20
0.0
 30
0.0
  0
ENDBLK
  5
77
100
AcDbEntity
  8
0
390
0
100
AcDbBlockEnd
  0
BLOCK
  5
D4
100
AcDbEntity
  8
0
390
0
100
AcDbBlockBegin
  2
ZU_SYM__USERS_HOME_SYMBOL_POO_SYM_B20_0000220
 70
    64
 10
0.0
 20
0.0
 30
0.0
  3
ZU_SYM__USERS_HOME_SYMBOL_POO_SYM_B20_0000220
  1

  0
LINE
  5
D5
100
AcDbEntity
  8
0
370
    -3
390
0
  6
Continuous
100
AcDbLine
 10
-11.299976
 20
9.0
 30
0.0
 11
-11.299976
 21
-9.0
 31
0.0
  0
LINE
  5
D6
100
AcDbEntity
  8
0
370
    -3
390
0
  6
Continuous
100
AcDbLine
 10
-11.299961
 20
-9.000002
 30
0.0
 11
-11.999958
 21
-7.787738
 31
0.0
  0
LINE
  5
D7
100
AcDbEntity
  8
0
370
    -3
390
0
  6
Continuous
100
AcDbLine
 10
-11.299976
 20
8.999998
 30
0.0
 11
-11.999973
 21
7.787338
 31
0.0
  0
LINE
  5
D8
100
AcDbEntity
  8
0
370
    -3
390
0
  6
Continuous
100
AcDbLine
 10
0.0
 20
9.0
 30
0.0
 11
-11.299976
 21
9.0
 31
0.0
  0
LINE
  5
D9
100
AcDbEntity
  8
0
370
    -3
390
0
  6
Continuous
100
AcDbLine
 10
0.0
 20
-9.0
 30
0.0
 11
-11.299961
 21
-9.0
 31
0.0
  0
LINE
  5
DA
100
AcDbEntity
  8
0
370
    -3
390
0
  6
Continuous
100
AcDbLine
 10
-11.999958
 20
-7.787735
 30
0.0
 11
-11.999973
 21
7.78734
 31
0.0
  0
LINE
  5
DB
100
AcDbEntity
  8
0
370
    -3
390
0
  6
Continuous
100
AcDbLine
 10
0.0
 20
9.0
 30
0.0
 11
0.0
 21
-9.0
 31
0.0
  0
POINT
  5
DC
100
AcDbEntity
  8
0
370
    -3
390
0
  6
Continuous
100
AcDbPoint
 10
0.0
 20
0.0
 30
0.0
  0
ENDBLK
  5
DD
100
AcDbEntity
  8
0
390
0
100
AcDbBlockEnd
  0
BLOCK
  5
E9
100
AcDbEntity
  8
0
390
0
100
AcDbBlockBegin
  2
ZU_SYM__USERS_HOME_SYMBOL_POO_SYM_B20_18
 70
    64
 10
0.0
 20
0.0
 30
0.0
  3
ZU_SYM__USERS_HOME_SYMBOL_POO_SYM_B20_18
  1

  0
POINT
  5
EA
100
AcDbEntity
  8
0
370
    -3
390
0
  6
Continuous
100
AcDbPoint
 10
0.0
 20
0.0
 30
0.0
  0
LINE
  5
EB
100
AcDbEntity
  8
0
370
    -3
390
0
  6
Continuous
100
AcDbLine
 10
0.0
 20
-6.5
 30
0.0
 11
0.0
 21
6.5
 31
0.0
  0
LINE
  5
EC
100
AcDbEntity
  8
0
370
    -3
390
0
  6
Continuous
100
AcDbLine
 10
-7.999999
 20
5.633876
 30
0.0
 11
-7.999999
 21
-5.63407
 31
0.0
  0
LINE
  5
ED
100
AcDbEntity
  8
0
370
    -3
390
0
  6
Continuous
100
AcDbLine
 10
0.0
 20
6.5
 30
0.0
 11
-7.499999
 21
6.5
 31
0.0
  0
LINE
  5
EE
100
AcDbEntity
  8
0
370
    -3
390
0
  6
Continuous
100
AcDbLine
 10
0.0
 20
-6.5
 30
0.0
 11
-7.499998
 21
-6.5
 31
0.0
  0
LINE
  5
EF
100
AcDbEntity
  8
0
370
    -3
390
0
  6
Continuous
100
AcDbLine
 10
-7.499999
 20
6.5
 30
0.0
 11
-7.999999
 21
5.633876
 31
0.0
  0
LINE
  5
F0
100
AcDbEntity
  8
0
370
    -3
390
0
  6
Continuous
100
AcDbLine
 10
-7.499998
 20
-6.499999
 30
0.0
 11
-7.999999
 21
-5.63407
 31
0.0
  0
LINE
  5
F1
100
AcDbEntity
  8
0
370
    -3
390
0
  6
Continuous
100
AcDbLine
 10
-7.499999
 20
6.5
 30
0.0
 11
-7.499999
 21
-6.5
 31
0.0
  0
ENDBLK
  5
F2
100
AcDbEntity
  8
0
390
0
100
AcDbBlockEnd
  0
BLOCK
  5
126
100
AcDbEntity
  8
0
390
0
100
AcDbBlockBegin
  2
ZU_SYM__USERS_HOME_SYMBOL_POO_SYM_B20_0000320
 70
    64
 10
0.0
 20
0.0
 30
0.0
  3
ZU_SYM__USERS_HOME_SYMBOL_POO_SYM_B20_0000320
  1

  0
LINE
  5
127
100
AcDbEntity
  8
0
370
    -3
390
0
  6
Continuous
100
AcDbLine
 10
-11.299976
 20
9.0
 30
0.0
 11
-11.299976
 21
-9.0
 31
0.0
  0
LINE
  5
128
100
AcDbEntity
  8
0
370
    -3
390
0
  6
Continuous
100
AcDbLine
 10
-11.299961
 20
-9.000002
 30
0.0
 11
-11.999958
 21
-7.787738
 31
0.0
  0
LINE
  5
129
100
AcDbEntity
  8
0
370
    -3
390
0
  6
Continuous
100
AcDbLine
 10
-11.299976
 20
8.999998
 30
0.0
 11
-11.999973
 21
7.787338
 31
0.0
  0
LINE
  5
12A
100
AcDbEntity
  8
0
370
    -3
390
0
  6
Continuous
100
AcDbLine
 10
0.0
 20
9.0
 30
0.0
 11
-11.299976
 21
9.0
 31
0.0
  0
LINE
  5
12B
100
AcDbEntity
  8
0
370
    -3
390
0
  6
Continuous
100
AcDbLine
 10
0.0
 20
-9.0
 30
0.0
 11
-11.299961
 21
-9.0
 31
0.0
  0
LINE
  5
12C
100
AcDbEntity
  8
0
370
    -3
390
0
  6
Continuous
100
AcDbLine
 10
-11.999958
 20
-7.787735
 30
0.0
 11
-11.999973
 21
7.78734
 31
0.0
  0
LINE
  5
12D
100
AcDbEntity
  8
0
370
    -3
390
0
  6
Continuous
100
AcDbLine
 10
0.0
 20
9.0
 30
0.0
 11
0.0
 21
-9.0
 31
0.0
  0
POINT
  5
12E
100
AcDbEntity
  8
0
370
    -3
390
0
  6
Continuous
100
AcDbPoint
 10
0.0
 20
0.0
 30
0.0
  0
ENDBLK
  5
12F
100
AcDbEntity
  8
0
390
0
100
AcDbBlockEnd
  0
ENDSEC
  0
SECTION
  2
ENTITIES
  0
ARC
  5
28
100
AcDbEntity
  8
0
370
    -3
390
0
  6
Continuous
100
AcDbCircle
 10
-180.422617
 20
104.710175
 30
0.0
 40
1.299999
100
AcDbArc
 50
286.601531
 51
311.255851
  0
ARC
  5
29
100
AcDbEntity
  8
0
370
    -3
390
0
  6
Continuous
100
AcDbCircle
 10
-184.822619
 20
104.710175
 30
0.0
 40
1.299999
100
AcDbArc
 50
228.744149
 51
253.398469
  0
ARC
  5
2A
100
AcDbEntity
  8
0
370
    -3
390
0
  6
Continuous
100
AcDbCircle
 10
-182.622618
 20
112.0892
 30
0.0
 40
9.0
100
AcDbArc
 50
253.398469
 51
286.601548
  0
LINE
  5
2B
100
AcDbEntity
  8
0
370
    -3
390
0
  6
Continuous
100
AcDbLine
 10
-685.818349
 20
-73.078788
 30
0.0
 11
-686.493721
 21
-73.078788
 31
0.0
  0
LINE
  5
2C
100
AcDbEntity
  8
0
370
    -3
390
0
  6
Continuous
100
AcDbLine
 10
-686.29955
 20
-63.078788
 30
0.0
 11
-694.705856
 21
-63.078788
 31
0.0
  0
LINE
  5
2D
100
AcDbEntity
  8
0
370
    -3
390
0
  6
Continuous
100
AcDbLine
 10
-687.997532
 20
-61.078788
 30
0.0
 11
-694.705856
 21
-61.078788
 31
0.0
  0
LINE
  5
2E
100
AcDbEntity
  8
0
370
    -3
390
0
  6
Continuous
100
AcDbLine
 10
-686.410076
 20
-74.078788
 30
0.0
 11
-694.705856
 21
-74.078788
 31
0.0
  0
LINE
  5
2F
100
AcDbEntity
  8
0
370
    -3
390
0
  6
Continuous
100
AcDbLine
 10
-687.179095
 20
-75.078788
 30
0.0
 11
-694.705856
 21
-75.078788
 31
0.0
  0
LINE
  5
30
100
AcDbEntity
  8
0
370
    -3
390
0
  6
Continuous
100
AcDbLine
 10
-691.784023
 20
-78.078788
 30
0.0
 11
-694.705856
 21
-78.078788
 31
0.0
  0
LINE
  5
31
100
AcDbEntity
  8
0
370
    -3
390
0
  6
Continuous
100
AcDbLine
 10
-697.627689
 20
-78.078788
 30
0.0
 11
-694.705856
 21
-78.078788
 31
0.0
  0
LINE
  5
32
100
AcDbEntity
  8
0
370
    -3
390
0
  6
Continuous
100
AcDbLine
 10
-702.232616
 20
-75.078788
 30
0.0
 11
-694.705856
 21
-75.078788
 31
0.0
  0
LINE
  5
33
100
AcDbEntity
  8
0
370
    -3
390
0
  6
Continuous
100
AcDbLine
 10
-703.001635
 20
-74.078788
 30
0.0
 11
-694.705856
 21
-74.078788
 31
0.0
  0
LINE
  5
34
100
AcDbEntity
  8
0
370
    -3
390
0
  6
Continuous
100
AcDbLine
 10
-703.593362
 20
-73.078788
 30
0.0
 11
-702.91799
 21
-73.078788
 31
0.0
  0
LINE
  5
35
100
AcDbEntity
  8
0
370
    -3
390
0
  6
Continuous
100
AcDbLine
 10
-703.112161
 20
-63.078788
 30
0.0
 11
-694.705856
 21
-63.078788
 31
0.0
  0
LINE
  5
36
100
AcDbEntity
  8
0
370
    -3
390
0
  6
Continuous
100
AcDbLine
 10
-701.414179
 20
-61.078788
 30
0.0
 11
-694.705856
 21
-61.078788
 31
0.0
  0
LINE
  5
37
100
AcDbEntity
  8
0
370
    -3
390
0
  6
Continuous
100
AcDbLine
 10
-699.205856
 20
-59.564592
 30
0.0
 11
-699.205856
 21
-61.078788
 31
0.0
  0
LINE
  5
38
100
AcDbEntity
  8
0
370
    -3
390
0
  6
Continuous
100
AcDbLine
 10
-690.205856
 20
-59.564592
 30
0.0
 11
-690.205856
 21
-61.078788
 31
0.0
  0
LINE
  5
39
100
AcDbEntity
  8
0
370
    -3
390
0
  6
Continuous
100
AcDbLine
 10
-690.802901
 20
-63.078788
 30
0.0
 11
-690.802901
 21
-73.078788
 31
0.0
  0
LINE
  5
3A
100
AcDbEntity
  8
0
370
    -3
390
0
  6
Continuous
100
AcDbLine
 10
-686.493721
 20
-63.078788
 30
0.0
 11
-686.493721
 21
-73.078788
 31
0.0
  0
LINE
  5
3B
100
AcDbEntity
  8
0
370
    -3
390
0
  6
Continuous
100
AcDbLine
 10
-690.802901
 20
-73.078788
 30
0.0
 11
-694.705856
 21
-73.078788
 31
0.0
  0
LINE
  5
3C
100
AcDbEntity
  8
0
370
    -3
390
0
  6
Continuous
100
AcDbLine
 10
-698.60881
 20
-63.078788
 30
0.0
 11
-698.60881
 21
-73.078788
 31
0.0
  0
LINE
  5
3D
100
AcDbEntity
  8
0
370
    -3
390
0
  6
Continuous
100
AcDbLine
 10
-702.91799
 20
-63.078788
 30
0.0
 11
-702.91799
 21
-73.078788
 31
0.0
  0
LINE
  5
3E
100
AcDbEntity
  8
0
370
    -3
390
0
  6
Continuous
100
AcDbLine
 10
-698.60881
 20
-73.078788
 30
0.0
 11
-694.705856
 21
-73.078788
 31
0.0
  0
CIRCLE
  5
3F
100
AcDbEntity
  8
0
370
    -3
390
0
  6
Continuous
100
AcDbCircle
 10
-694.705856
 20
-68.515164
 30
0.0
 40
10.0
  0
ARC
  5
40
100
AcDbEntity
  8
0
370
    -3
390
0
  6
Continuous
100
AcDbCircle
 10
-769.705856
 20
-428.515164
 30
0.0
 40
20.0
100
AcDbArc
 50
210.0
 51
244.158067
  0
LINE
  5
41
100
AcDbEntity
  8
0
370
    -3
390
0
  6
Continuous
100
AcDbLine
 10
-694.705856
 20
-446.515164
 30
0.0
 11
-778.423653
 21
-446.515164
 31
0.0
  0
LINE
  5
42
100
AcDbEntity
  8
0
370
    -3
390
0
  6
Continuous
100
AcDbLine
 10
-694.705856
 20
-446.515164
 30
0.0
 11
-610.988058
 21
-446.515164
 31
0.0
  0
ARC
  5
43
100
AcDbEntity
  8
0
370
    -3
390
0
  6
Continuous
100
AcDbCircle
 10
-619.705856
 20
-428.515164
 30
0.0
 40
20.0
100
AcDbArc
 50
295.841933
 51
330.0
  0
LINE
  5
44
100
AcDbEntity
  8
0
370
    -3
390
0
  6
CENTER
100
AcDbLine
 10
714.289809
 20
-273.515164
 30
0.0
 11
636.556296
 21
-273.515164
 31
0.0
  0
LINE
  5
45
100
AcDbEntity
  8
0
370
    -3
390
0
  6
CENTER
100
AcDbLine
 10
106.739148
 20
-273.515164
 30
0.0
 11
-421.43229
 21
-273.515164
 31
0.0
  0
LINE
  5
46
100
AcDbEntity
  8
0
370
    -3
390
0
  6
Continuous
100
AcDbLine
 10
62.377382
 20
-140.515164
 30
0.0
 11
62.377382
 21
-406.515164
 31
0.0
  0
LINE
  5
47
100
AcDbEntity
  8
0
370
    -3
390
0
  6
Continuous
100
AcDbLine
 10
64.377382
 20
-404.617235
 30
0.0
 11
64.377382
 21
-273.515164
 31
0.0
  0
LINE
  5
48
100
AcDbEntity
  8
0
370
    -3
390
0
  6
Continuous
100
AcDbLine
 10
62.377382
 20
-383.515164
 30
0.0
 11
62.377382
 21
-273.515164
 31
0.0
  0
LINE
  5
49
100
AcDbEntity
  8
0
370
    -3
390
0
  6
Continuous
100
AcDbLine
 10
62.377382
 20
-163.515164
 30
0.0
 11
62.377382
 21
-273.515164
 31
0.0
  0
ARC
  5
4A
100
AcDbEntity
  8
0
370
    -3
390
0
  6
Continuous
100
AcDbCircle
 10
62.377382
 20
-385.515164
 30
0.0
 40
2.0
100
AcDbArc
 50
0.0
 51
90.0
  0
ARC
  5
4B
100
AcDbEntity
  8
0
370
    -3
390
0
  6
Continuous
100
AcDbCircle
 10
62.377382
 20
-161.515164
 30
0.0
 40
2.0
100
AcDbArc
 50
270.0
 51
0.0
  0
LINE
  5
4C
100
AcDbEntity
  8
0
370
    -3
390
0
  6
Continuous
100
AcDbLine
 10
64.377382
 20
-142.413093
 30
0.0
 11
64.377382
 21
-273.515164
 31
0.0
  0
LINE
  5
4D
100
AcDbEntity
  8
0
370
    -3
390
0
  6
CENTER
100
AcDbLine
 10
673.379901
 20
22.282654
 30
0.0
 11
673.379901
 21
-458.497566
 31
0.0
  0
ARC
  5
4E
100
AcDbEntity
  8
0
370
    -3
390
0
  6
Continuous
100
AcDbCircle
 10
67.710038
 20
-137.33639
 30
0.0
 40
3.0
100
AcDbArc
 50
273.0
 51
326.50866
  0
LINE
  5
4F
100
AcDbEntity
  8
0
370
    -3
390
0
  6
Continuous
100
AcDbLine
 10
66.27271
 20
-140.415834
 30
0.0
 11
88.639062
 21
-139.243663
 31
0.0
  0
LINE
  5
50
100
AcDbEntity
  8
0
370
    -3
390
0
  6
Continuous
100
AcDbLine
 10
88.377423
 20
-111.537765
 30
0.0
 11
70.211946
 21
-138.991823
 31
0.0
  0
ARC
  5
51
100
AcDbEntity
  8
0
370
    -3
390
0
  6
Continuous
100
AcDbCircle
 10
66.377382
 20
-142.413093
 30
0.0
 40
2.0
100
AcDbArc
 50
93.0
 51
180.0
  0
ARC
  5
52
100
AcDbEntity
  8
0
370
    -3
390
0
  6
Continuous
100
AcDbCircle
 10
67.306657
 20
-411.675543
 30
0.0
 40
5.0
100
AcDbArc
 50
47.168527
 51
87.0
  0
ARC
  5
53
100
AcDbEntity
  8
0
370
    -3
390
0
  6
Continuous
100
AcDbCircle
 10
66.377382
 20
-404.617235
 30
0.0
 40
2.0
100
AcDbArc
 50
180.0
 51
267.0
  0
LINE
  5
54
100
AcDbEntity
  8
0
370
    -3
390
0
  6
Continuous
100
AcDbLine
 10
66.27271
 20
-406.614494
 30
0.0
 11
95.639062
 21
-408.153519
 31
0.0
  0
LINE
  5
55
100
AcDbEntity
  8
0
370
    -3
390
0
  6
Continuous
100
AcDbLine
 10
113.877382
 20
-440.515164
 30
0.0
 11
113.877382
 21
-83.515164
 31
0.0
  0
LINE
  5
56
100
AcDbEntity
  8
0
370
    -3
390
0
  6
Continuous
100
AcDbLine
 10
113.877382
 20
-440.515164
 30
0.0
 11
279.736294
 21
-446.369008
 31
0.0
  0
LINE
  5
57
100
AcDbEntity
  8
0
370
    -3
390
0
  6
Continuous
100
AcDbLine
 10
113.377382
 20
-273.515164
 30
0.0
 11
113.377382
 21
-440.515164
 31
0.0
  0
LINE
  5
58
100
AcDbEntity
  8
0
370
    -3
390
0
  6
Continuous
100
AcDbLine
 10
113.377382
 20
-440.515164
 30
0.0
 11
113.877382
 21
-440.515164
 31
0.0
  0
INSERT
  5
64
100
AcDbEntity
  8
0
390
0
100
AcDbBlockReference
  2
ZU_SYM__USERS_HOME_SYMBOL_POO_SYM_B20_20
 10
100.377382
 20
-428.515164
 30
0.0
  0
ARC
  5
65
100
AcDbEntity
  8
0
370
    -3
390
0
  6
Continuous
100
AcDbCircle
 10
103.377382
 20
-437.515164
 30
0.0
 40
3.0
100
AcDbArc
 50
180.0
 51
270.0
  0
ARC
  5
66
100
AcDbEntity
  8
0
370
    -3
390
0
  6
Continuous
100
AcDbCircle
 10
95.377382
 20
-413.146667
 30
0.0
 40
5.0
100
AcDbArc
 50
0.0
 51
87.0
  0
LINE
  5
67
100
AcDbEntity
  8
0
370
    -3
390
0
  6
Continuous
100
AcDbLine
 10
70.705878
 20
-408.00876
 30
0.0
 11
88.377413
 21
-424.39082
 31
0.0
  0
LINE
  5
68
100
AcDbEntity
  8
0
370
    -3
390
0
  6
Continuous
100
AcDbLine
 10
103.377382
 20
-440.515164
 30
0.0
 11
113.377382
 21
-440.515164
 31
0.0
  0
LINE
  5
69
100
AcDbEntity
  8
0
370
    -3
390
0
  6
Continuous
100
AcDbLine
 10
100.377382
 20
-273.515164
 30
0.0
 11
100.377382
 21
-437.515164
 31
0.0
  0
LINE
  5
6A
100
AcDbEntity
  8
0
370
    -3
390
0
  6
Continuous
100
AcDbLine
 10
113.877382
 20
-393.491635
 30
0.0
 11
272.053743
 21
-399.07433
 31
0.0
  0
LINE
  5
6B
100
AcDbEntity
  8
0
370
    -3
390
0
  6
CENTER
100
AcDbLine
 10
133.877382
 20
-319.015164
 30
0.0
 11
133.877382
 21
-374.015164
 31
0.0
  0
CIRCLE
  5
6C
100
AcDbEntity
  8
0
370
    -3
390
0
  6
Continuous
100
AcDbCircle
 10
133.877397
 20
-346.515164
 30
0.0
 40
15.0
  0
INSERT
  5
78
100
AcDbEntity
  8
0
390
0
100
AcDbBlockReference
  2
ZU_SYM__USERS_HOME_SYMBOL_POO_SYM_B20_0000120
 10
100.377382
 20
-384.515164
 30
0.0
  0
LINE
  5
79
100
AcDbEntity
  8
0
370
    -3
390
0
  6
CENTER
100
AcDbLine
 10
161.377382
 20
-346.515164
 30
0.0
 11
106.377382
 21
-346.515164
 31
0.0
  0
ARC
  5
7A
100
AcDbEntity
  8
0
370
    -3
390
0
  6
Continuous
100
AcDbCircle
 10
292.877382
 20
-336.766427
 30
0.0
 40
2.0
100
AcDbArc
 50
180.0
 51
270.0
  0
LINE
  5
7B
100
AcDbEntity
  8
0
370
    -3
390
0
  6
Continuous
100
AcDbLine
 10
290.877382
 20
-220.515164
 30
0.0
 11
290.877382
 21
-387.017689
 31
0.0
  0
ARC
  5
7C
100
AcDbEntity
  8
0
370
    -3
390
0
  6
Continuous
100
AcDbCircle
 10
292.877382
 20
-387.017689
 30
0.0
 40
2.0
100
AcDbArc
 50
180.0
 51
270.0
  0
LINE
  5
7D
100
AcDbEntity
  8
0
370
    -3
390
0
  6
Continuous
100
AcDbLine
 10
300.877382
 20
-389.017689
 30
0.0
 11
292.877382
 21
-389.017689
 31
0.0
  0
LINE
  5
7E
100
AcDbEntity
  8
0
370
    -3
390
0
  6
Continuous
100
AcDbLine
 10
300.877382
 20
-338.766427
 30
0.0
 11
292.877382
 21
-338.766427
 31
0.0
  0
ARC
  5
7F
100
AcDbEntity
  8
0
370
    -3
390
0
  6
Continuous
100
AcDbCircle
 10
274.877382
 20
-433.487323
 30
0.0
 40
2.0
100
AcDbArc
 50
0.0
 51
87.0
  0
LINE
  5
80
100
AcDbEntity
  8
0
370
    -3
390
0
  6
CENTER
100
AcDbLine
 10
256.877382
 20
-435.907616
 30
0.0
 11
256.877382
 21
-454.891648
 31
0.0
  0
ARC
  5
81
100
AcDbEntity
  8
0
370
    -3
390
0
  6
Continuous
100
AcDbCircle
 10
256.877382
 20
-411.515164
 30
0.0
 40
19.0
100
AcDbArc
 50
180.0
 51
267.0
  0
LINE
  5
82
100
AcDbEntity
  8
0
370
    -3
390
0
  6
Continuous
100
AcDbLine
 10
255.882999
 20
-430.489125
 30
0.0
 11
274.982054
 21
-431.490064
 31
0.0
  0
LINE
  5
83
100
AcDbEntity
  8
0
370
    -3
390
0
  6
Continuous
100
AcDbLine
 10
237.877382
 20
-411.515164
 30
0.0
 11
237.877382
 21
-402.694748
 31
0.0
  0
ARC
  5
84
100
AcDbEntity
  8
0
370
    -3
390
0
  6
Continuous
100
AcDbCircle
 10
271.877382
 20
-404.071219
 30
0.0
 40
5.0
100
AcDbArc
 50
0.0
 51
87.978635
  0
ARC
  5
85
100
AcDbEntity
  8
0
370
    -3
390
0
  6
Continuous
100
AcDbCircle
 10
232.877382
 20
-402.694748
 30
0.0
 40
5.0
100
AcDbArc
 50
0.0
 51
87.978635
  0
ARC
  5
86
100
AcDbEntity
  8
0
370
    -3
390
0
  6
Continuous
100
AcDbCircle
 10
279.877382
 20
-435.515164
 30
0.0
 40
3.0
100
AcDbArc
 50
180.0
 51
270.0
  0
LINE
  5
87
100
AcDbEntity
  8
0
370
    -3
390
0
  6
Continuous
100
AcDbLine
 10
276.877382
 20
-435.515164
 30
0.0
 11
276.877382
 21
8.484836
 31
0.0
  0
LINE
  5
88
100
AcDbEntity
  8
0
370
    -3
390
0
  6
Continuous
100
AcDbLine
 10
300.877382
 20
-213.515164
 30
0.0
 11
300.877382
 21
-438.515164
 31
0.0
  0
LINE
  5
89
100
AcDbEntity
  8
0
370
    -3
390
0
  6
Continuous
100
AcDbLine
 10
305.877382
 20
-213.515164
 30
0.0
 11
305.877382
 21
-422.515164
 31
0.0
  0
LINE
  5
8A
100
AcDbEntity
  8
0
370
    -3
390
0
  6
Continuous
100
AcDbLine
 10
304.877382
 20
-423.515164
 30
0.0
 11
300.877382
 21
-423.515164
 31
0.0
  0
LINE
  5
8B
100
AcDbEntity
  8
0
370
    -3
390
0
  6
Continuous
100
AcDbLine
 10
279.877382
 20
-438.515164
 30
0.0
 11
300.877382
 21
-438.515164
 31
0.0
  0
LINE
  5
8C
100
AcDbEntity
  8
0
370
    -3
390
0
  6
Continuous
100
AcDbLine
 10
283.877382
 20
-441.515164
 30
0.0
 11
283.877382
 21
-442.371497
 31
0.0
  0
ARC
  5
8D
100
AcDbEntity
  8
0
370
    -3
390
0
  6
Continuous
100
AcDbCircle
 10
279.877382
 20
-442.371497
 30
0.0
 40
4.0
100
AcDbArc
 50
267.978635
 51
0.0
  0
ARC
  5
8E
100
AcDbEntity
  8
0
370
    -3
390
0
  6
Continuous
100
AcDbCircle
 10
286.877382
 20
-441.515164
 30
0.0
 40
3.0
100
AcDbArc
 50
90.0
 51
180.0
  0
LINE
  5
8F
100
AcDbEntity
  8
0
370
    -3
390
0
  6
Continuous
100
AcDbLine
 10
305.877382
 20
-422.515164
 30
0.0
 11
304.877382
 21
-423.515164
 31
0.0
  0
LINE
  5
90
100
AcDbEntity
  8
0
370
    -3
390
0
  6
CENTER
100
AcDbLine
 10
318.268583
 20
-407.969529
 30
0.0
 11
265.408206
 21
-407.969529
 31
0.0
  0
ARC
  5
91
100
AcDbEntity
  8
0
370
    -3
390
0
  6
Continuous
100
AcDbCircle
 10
405.077367
 20
-184.315164
 30
0.0
 40
0.8
100
AcDbArc
 50
0.0
 51
90.0
  0
LINE
  5
92
100
AcDbEntity
  8
0
370
    -3
390
0
  6
Continuous
100
AcDbLine
 10
405.077367
 20
-183.515164
 30
0.0
 11
318.437175
 21
-183.515164
 31
0.0
  0
LINE
  5
93
100
AcDbEntity
  8
0
370
    -3
390
0
  6
Continuous
100
AcDbLine
 10
405.877367
 20
-213.515164
 30
0.0
 11
405.877367
 21
-184.315164
 31
0.0
  0
ARC
  5
94
100
AcDbEntity
  8
0
370
    -3
390
0
  6
Continuous
100
AcDbCircle
 10
405.077367
 20
-242.715164
 30
0.0
 40
0.8
100
AcDbArc
 50
270.0
 51
0.0
  0
LINE
  5
95
100
AcDbEntity
  8
0
370
    -3
390
0
  6
Continuous
100
AcDbLine
 10
405.877367
 20
-213.515164
 30
0.0
 11
405.877367
 21
-242.715164
 31
0.0
  0
LINE
  5
96
100
AcDbEntity
  8
0
370
    -3
390
0
  6
Continuous
100
AcDbLine
 10
317.877367
 20
-183.665164
 30
0.0
 11
316.677367
 21
-183.665164
 31
0.0
  0
LINE
  5
97
100
AcDbEntity
  8
0
370
    -3
390
0
  6
Continuous
100
AcDbLine
 10
318.437175
 20
-183.515164
 30
0.0
 11
317.877367
 21
-183.665164
 31
0.0
  0
ARC
  5
98
100
AcDbEntity
  8
0
370
    -3
390
0
  6
Continuous
100
AcDbCircle
 10
316.677367
 20
-182.865164
 30
0.0
 40
0.8
100
AcDbArc
 50
180.0
 51
270.0
  0
LINE
  5
99
100
AcDbEntity
  8
0
370
    -3
390
0
  6
Continuous
100
AcDbLine
 10
315.877367
 20
-182.815164
 30
0.0
 11
315.077367
 21
-182.015164
 31
0.0
  0
LINE
  5
9A
100
AcDbEntity
  8
0
370
    -3
390
0
  6
Continuous
100
AcDbLine
 10
315.877367
 20
-213.515164
 30
0.0
 11
315.877367
 21
-182.815164
 31
0.0
  0
LINE
  5
9B
100
AcDbEntity
  8
0
370
    -3
390
0
  6
Continuous
100
AcDbLine
 10
315.077367
 20
-182.015164
 30
0.0
 11
310.877367
 21
-182.015164
 31
0.0
  0
LINE
  5
9C
100
AcDbEntity
  8
0
370
    -3
390
0
  6
Continuous
100
AcDbLine
 10
317.877367
 20
-243.365164
 30
0.0
 11
316.677367
 21
-243.365164
 31
0.0
  0
LINE
  5
9D
100
AcDbEntity
  8
0
370
    -3
390
0
  6
Continuous
100
AcDbLine
 10
318.437175
 20
-243.515164
 30
0.0
 11
317.877367
 21
-243.365164
 31
0.0
  0
ARC
  5
9E
100
AcDbEntity
  8
0
370
    -3
390
0
  6
Continuous
100
AcDbCircle
 10
316.677367
 20
-244.165164
 30
0.0
 40
0.8
100
AcDbArc
 50
90.0
 51
180.0
  0
LINE
  5
9F
100
AcDbEntity
  8
0
370
    -3
390
0
  6
Continuous
100
AcDbLine
 10
315.877367
 20
-244.215164
 30
0.0
 11
315.077367
 21
-245.015164
 31
0.0
  0
LINE
  5
A0
100
AcDbEntity
  8
0
370
    -3
390
0
  6
Continuous
100
AcDbLine
 10
315.877367
 20
-213.515164
 30
0.0
 11
315.877367
 21
-244.215164
 31
0.0
  0
LINE
  5
A1
100
AcDbEntity
  8
0
370
    -3
390
0
  6
Continuous
100
AcDbLine
 10
405.077367
 20
-243.515164
 30
0.0
 11
318.437175
 21
-243.515164
 31
0.0
  0
LINE
  5
A2
100
AcDbEntity
  8
0
370
    -3
390
0
  6
Continuous
100
AcDbLine
 10
315.077367
 20
-245.015164
 30
0.0
 11
310.877367
 21
-245.015164
 31
0.0
  0
LINE
  5
A3
100
AcDbEntity
  8
0
370
    -3
390
0
  6
Continuous
100
AcDbLine
 10
342.877367
 20
-204.515164
 30
0.0
 11
405.877367
 21
-204.515164
 31
0.0
  0
LINE
  5
A4
100
AcDbEntity
  8
0
370
    -3
390
0
  6
Continuous
100
AcDbLine
 10
342.877367
 20
-222.515164
 30
0.0
 11
405.877367
 21
-222.515164
 31
0.0
  0
ARC
  5
A5
100
AcDbEntity
  8
0
370
    -3
390
0
  6
Continuous
100
AcDbCircle
 10
342.877367
 20
-213.515164
 30
0.0
 40
9.0
100
AcDbArc
 50
90.0
 51
270.0
  0
ARC
  5
A6
100
AcDbEntity
  8
0
370
    -3
390
0
  6
Continuous
100
AcDbCircle
 10
292.877382
 20
-220.515164
 30
0.0
 40
2.0
100
AcDbArc
 50
90.0
 51
180.0
  0
LINE
  5
A7
100
AcDbEntity
  8
0
370
    -3
390
0
  6
Continuous
100
AcDbLine
 10
300.877382
 20
-218.515164
 30
0.0
 11
292.877382
 21
-218.515164
 31
0.0
  0
ARC
  5
A8
100
AcDbEntity
  8
0
370
    -3
390
0
  6
Continuous
100
AcDbCircle
 10
292.877382
 20
-206.515164
 30
0.0
 40
2.0
100
AcDbArc
 50
180.0
 51
270.0
  0
LINE
  5
A9
100
AcDbEntity
  8
0
370
    -3
390
0
  6
Continuous
100
AcDbLine
 10
300.877382
 20
-208.515164
 30
0.0
 11
292.877382
 21
-208.515164
 31
0.0
  0
LINE
  5
AA
100
AcDbEntity
  8
0
370
    -3
390
0
  6
Continuous
100
AcDbLine
 10
306.03439
 20
-293.664159
 30
0.0
 11
305.877382
 21
-293.664159
 31
0.0
  0
LINE
  5
AB
100
AcDbEntity
  8
0
370
    -3
390
0
  6
Continuous
100
AcDbLine
 10
310.877382
 20
-266.015164
 30
0.0
 11
310.877382
 21
-161.015164
 31
0.0
  0
ARC
  5
AC
100
AcDbEntity
  8
0
370
    -3
390
0
  6
Continuous
100
AcDbCircle
 10
309.877382
 20
-160.015164
 30
0.0
 40
1.0
100
AcDbArc
 50
180.0
 51
270.0
  0
ARC
  5
AD
100
AcDbEntity
  8
0
370
    -3
390
0
  6
Continuous
100
AcDbCircle
 10
309.877382
 20
-267.015164
 30
0.0
 40
1.0
100
AcDbArc
 50
90.0
 51
180.0
  0
LINE
  5
AE
100
AcDbEntity
  8
0
370
    -3
390
0
  6
Continuous
100
AcDbLine
 10
308.877382
 20
-213.515164
 30
0.0
 11
308.877382
 21
-290.66827
 31
0.0
  0
LINE
  5
AF
100
AcDbEntity
  8
0
370
    -3
390
0
  6
Continuous
100
AcDbLine
 10
300.877382
 20
-213.515164
 30
0.0
 11
300.877382
 21
11.484836
 31
0.0
  0
LINE
  5
B0
100
AcDbEntity
  8
0
370
    -3
390
0
  6
Continuous
100
AcDbLine
 10
305.877382
 20
-213.515164
 30
0.0
 11
305.877382
 21
-4.515164
 31
0.0
  0
LINE
  5
B1
100
AcDbEntity
  8
0
370
    -3
390
0
  6
Continuous
100
AcDbLine
 10
308.877382
 20
-213.515164
 30
0.0
 11
308.877382
 21
-136.362058
 31
0.0
  0
LINE
  5
B2
100
AcDbEntity
  8
0
370
    -3
390
0
  6
CENTER
100
AcDbLine
 10
409.440099
 20
-213.515164
 30
0.0
 11
242.139005
 21
-213.515164
 31
0.0
  0
LINE
  5
B3
100
AcDbEntity
  8
0
370
    -3
390
0
  6
Continuous
100
AcDbLine
 10
310.877382
 20
-161.015164
 30
0.0
 11
309.877382
 21
-161.015164
 31
0.0
  0
LINE
  5
B4
100
AcDbEntity
  8
0
370
    -3
390
0
  6
Continuous
100
AcDbLine
 10
310.877382
 20
-266.015164
 30
0.0
 11
309.877382
 21
-266.015164
 31
0.0
  0
ARC
  5
B5
100
AcDbEntity
  8
0
370
    -3
390
0
  6
Continuous
100
AcDbCircle
 10
305.877382
 20
-290.66827
 30
0.0
 40
3.0
100
AcDbArc
 50
273.0
 51
0.0
  0
LINE
  5
B6
100
AcDbEntity
  8
0
370
    -3
390
0
  6
Continuous
100
AcDbLine
 10
290.877382
 20
-206.515164
 30
0.0
 11
290.877382
 21
-40.012639
 31
0.0
  0
ARC
  5
B7
100
AcDbEntity
  8
0
370
    -3
390
0
  6
Continuous
100
AcDbCircle
 10
271.877382
 20
-43.129651
 30
0.0
 40
5.0
100
AcDbArc
 50
321.55054
 51
0.0
  0
LINE
  5
B8
100
AcDbEntity
  8
0
370
    -3
390
0
  6
Continuous
100
AcDbLine
 10
231.648129
 20
-101.837287
 30
0.0
 11
275.793167
 21
-46.238771
 31
0.0
  0
ARC
  5
B9
100
AcDbEntity
  8
0
370
    -3
390
0
  6
Continuous
100
AcDbCircle
 10
271.877382
 20
-49.872072
 30
0.0
 40
5.0
100
AcDbArc
 50
321.55054
 51
0.0
  0
LINE
  5
BA
100
AcDbEntity
  8
0
370
    -3
390
0
  6
Continuous
100
AcDbLine
 10
231.648129
 20
-108.579708
 30
0.0
 11
275.793167
 21
-52.981192
 31
0.0
  0
LINE
  5
BB
100
AcDbEntity
  8
0
370
    -3
390
0
  6
Continuous
100
AcDbLine
 10
269.720799
 20
-110.470587
 30
0.0
 11
237.060167
 21
-110.470587
 31
0.0
  0
ARC
  5
BC
100
AcDbEntity
  8
0
370
    -3
390
0
  6
Continuous
100
AcDbCircle
 10
292.877382
 20
-40.012639
 30
0.0
 40
2.0
100
AcDbArc
 50
90.0
 51
180.0
  0
ARC
  5
BD
100
AcDbEntity
  8
0
370
    -3
390
0
  6
Continuous
100
AcDbCircle
 10
292.877382
 20
-90.263902
 30
0.0
 40
2.0
100
AcDbArc
 50
90.0
 51
180.0
  0
LINE
  5
BE
100
AcDbEntity
  8
0
370
    -3
390
0
  6
Continuous
100
AcDbLine
 10
300.877382
 20
-88.263902
 30
0.0
 11
292.877382
 21
-88.263902
 31
0.0
  0
LINE
  5
BF
100
AcDbEntity
  8
0
370
    -3
390
0
  6
Continuous
100
AcDbLine
 10
300.877382
 20
-38.012639
 30
0.0
 11
292.877382
 21
-38.012639
 31
0.0
  0
LINE
  5
C0
100
AcDbEntity
  8
0
370
    -3
390
0
  6
Continuous
100
AcDbLine
 10
304.877382
 20
-3.515164
 30
0.0
 11
300.877382
 21
-3.515164
 31
0.0
  0
LINE
  5
C1
100
AcDbEntity
  8
0
370
    -3
390
0
  6
Continuous
100
AcDbLine
 10
300.877382
 20
11.484836
 30
0.0
 11
279.877382
 21
11.484836
 31
0.0
  0
ARC
  5
C2
100
AcDbEntity
  8
0
370
    -3
390
0
  6
Continuous
100
AcDbCircle
 10
279.877382
 20
8.484836
 30
0.0
 40
3.0
100
AcDbArc
 50
90.0
 51
180.0
  0
LINE
  5
C3
100
AcDbEntity
  8
0
370
    -3
390
0
  6
Continuous
100
AcDbLine
 10
276.207509
 20
0.324582
 30
0.0
 11
231.543288
 21
-77.036119
 31
0.0
  0
ARC
  5
C4
100
AcDbEntity
  8
0
370
    -3
390
0
  6
Continuous
100
AcDbCircle
 10
271.877382
 20
2.824582
 30
0.0
 40
5.0
100
AcDbArc
 50
330.0
 51
0.0
  0
LINE
  5
C5
100
AcDbEntity
  8
0
370
    -3
390
0
  6
Continuous
100
AcDbLine
 10
304.877382
 20
-3.515164
 30
0.0
 11
305.877382
 21
-4.515164
 31
0.0
  0
LINE
  5
C6
100
AcDbEntity
  8
0
370
    -3
390
0
  6
CENTER
100
AcDbLine
 10
314.462636
 20
-19.060799
 30
0.0
 11
253.990365
 21
-19.060799
 31
0.0
  0
ARC
  5
C7
100
AcDbEntity
  8
0
370
    -3
390
0
  6
Continuous
100
AcDbCircle
 10
227.732344
 20
-98.728166
 30
0.0
 40
5.0
100
AcDbArc
 50
270.0
 51
321.55054
  0
ARC
  5
C8
100
AcDbEntity
  8
0
370
    -3
390
0
  6
Continuous
100
AcDbCircle
 10
227.732344
 20
-105.470587
 30
0.0
 40
5.0
100
AcDbArc
 50
270.0
 51
321.55054
  0
LINE
  5
C9
100
AcDbEntity
  8
0
370
    -3
390
0
  6
Continuous
100
AcDbLine
 10
113.877382
 20
-83.515164
 30
0.0
 11
249.96925
 21
-78.762731
 31
0.0
  0
LINE
  5
CA
100
AcDbEntity
  8
0
370
    -3
390
0
  6
Continuous
100
AcDbLine
 10
122.360177
 20
-81.367096
 30
0.0
 11
228.387507
 21
-79.516383
 31
0.0
  0
ARC
  5
CB
100
AcDbEntity
  8
0
370
    -3
390
0
  6
Continuous
100
AcDbCircle
 10
227.213161
 20
-74.536119
 30
0.0
 40
5.0
100
AcDbArc
 50
271.0
 51
330.0
  0
LINE
  5
CC
100
AcDbEntity
  8
0
370
    -3
390
0
  6
Continuous
100
AcDbLine
 10
306.03439
 20
-133.366169
 30
0.0
 11
305.877382
 21
-133.366169
 31
0.0
  0
ARC
  5
CD
100
AcDbEntity
  8
0
370
    -3
390
0
  6
Continuous
100
AcDbCircle
 10
305.877382
 20
-136.362058
 30
0.0
 40
3.0
100
AcDbArc
 50
0.0
 51
87.0
  0
LINE
  5
CE
100
AcDbEntity
  8
0
370
    -3
390
0
  6
CENTER
100
AcDbLine
 10
138.877382
 20
-101.267896
 30
0.0
 11
138.877382
 21
-58.547945
 31
0.0
  0
ARC
  5
CF
100
AcDbEntity
  8
0
370
    -3
390
0
  6
Continuous
100
AcDbCircle
 10
122.377629
 20
-82.366944
 30
0.0
 40
1.0
100
AcDbArc
 50
91.0
 51
177.723663
  0
ARC
  5
D0
100
AcDbEntity
  8
0
370
    -3
390
0
  6
Continuous
100
AcDbCircle
 10
120.379208
 20
-82.287506
 30
0.0
 40
1.0
100
AcDbArc
 50
272.0
 51
357.723663
  0
LINE
  5
D1
100
AcDbEntity
  8
0
370
    -3
390
0
  6
Continuous
100
AcDbLine
 10
113.377382
 20
-83.515164
 30
0.0
 11
113.877382
 21
-83.515164
 31
0.0
  0
LINE
  5
D2
100
AcDbEntity
  8
0
370
    -3
390
0
  6
Continuous
100
AcDbLine
 10
113.377382
 20
-273.515164
 30
0.0
 11
113.377382
 21
-83.515164
 31
0.0
  0
INSERT
  5
DE
100
AcDbEntity
  8
0
390
0
100
AcDbBlockReference
  2
ZU_SYM__USERS_HOME_SYMBOL_POO_SYM_B20_0000220
 10
100.377382
 20
-104.515164
 30
0.0
  0
ARC
  5
DF
100
AcDbEntity
  8
0
370
    -3
390
0
  6
Continuous
100
AcDbCircle
 10
93.377382
 20
-86.515164
 30
0.0
 40
3.0
100
AcDbArc
 50
90.0
 51
180.0
  0
ARC
  5
E0
100
AcDbEntity
  8
0
370
    -3
390
0
  6
Continuous
100
AcDbCircle
 10
103.377382
 20
-86.515164
 30
0.0
 40
3.0
100
AcDbArc
 50
90.0
 51
180.0
  0
LINE
  5
E1
100
AcDbEntity
  8
0
370
    -3
390
0
  6
Continuous
100
AcDbLine
 10
90.377382
 20
-95.515164
 30
0.0
 11
90.377382
 21
-86.515164
 31
0.0
  0
LINE
  5
E2
100
AcDbEntity
  8
0
370
    -3
390
0
  6
Continuous
100
AcDbLine
 10
93.377382
 20
-83.515164
 30
0.0
 11
113.377382
 21
-83.515164
 31
0.0
  0
LINE
  5
E3
100
AcDbEntity
  8
0
370
    -3
390
0
  6
Continuous
100
AcDbLine
 10
100.377382
 20
-273.515164
 30
0.0
 11
100.377382
 21
-86.515164
 31
0.0
  0
LINE
  5
E4
100
AcDbEntity
  8
0
370
    -3
390
0
  6
CENTER
100
AcDbLine
 10
80.147135
 20
-68.515164
 30
0.0
 11
98.246401
 21
-68.515164
 31
0.0
  0
LINE
  5
E5
100
AcDbEntity
  8
0
370
    -3
390
0
  6
Continuous
100
AcDbLine
 10
90.377382
 20
-48.515164
 30
0.0
 11
90.377382
 21
-86.515164
 31
0.0
  0
LINE
  5
E6
100
AcDbEntity
  8
0
370
    -3
390
0
  6
Continuous
100
AcDbLine
 10
85.877382
 20
-48.515164
 30
0.0
 11
90.377382
 21
-48.515164
 31
0.0
  0
LINE
  5
E7
100
AcDbEntity
  8
0
370
    -3
390
0
  6
Continuous
100
AcDbLine
 10
85.877382
 20
-106.515164
 30
0.0
 11
85.877382
 21
-48.515164
 31
0.0
  0
INSERT
  5
F3
100
AcDbEntity
  8
0
390
0
100
AcDbBlockReference
  2
ZU_SYM__USERS_HOME_SYMBOL_POO_SYM_B20_18
 10
85.877382
 20
-96.515164
 30
0.0
  0
LINE
  5
F4
100
AcDbEntity
  8
0
370
    -3
390
0
  6
Continuous
100
AcDbLine
 10
85.877382
 20
-106.515164
 30
0.0
 11
88.377419
 21
-106.515164
 31
0.0
  0
LINE
  5
F5
100
AcDbEntity
  8
0
370
    -3
390
0
  6
Continuous
100
AcDbLine
 10
125.145636
 20
-73.078788
 30
0.0
 11
130.665248
 21
-73.078788
 31
0.0
  0
LINE
  5
F6
100
AcDbEntity
  8
0
370
    -3
390
0
  6
Continuous
100
AcDbLine
 10
134.974428
 20
-73.078788
 30
0.0
 11
138.877382
 21
-73.078788
 31
0.0
  0
LINE
  5
F7
100
AcDbEntity
  8
0
370
    -3
390
0
  6
Continuous
100
AcDbLine
 10
123.360716
 20
-63.078788
 30
0.0
 11
123.360716
 21
-73.078788
 31
0.0
  0
LINE
  5
F8
100
AcDbEntity
  8
0
370
    -3
390
0
  6
Continuous
100
AcDbLine
 10
125.145636
 20
-63.078788
 30
0.0
 11
125.145636
 21
-73.078788
 31
0.0
  0
LINE
  5
F9
100
AcDbEntity
  8
0
370
    -3
390
0
  6
Continuous
100
AcDbLine
 10
130.665248
 20
-63.078788
 30
0.0
 11
130.665248
 21
-73.078788
 31
0.0
  0
LINE
  5
FA
100
AcDbEntity
  8
0
370
    -3
390
0
  6
Continuous
100
AcDbLine
 10
134.974428
 20
-63.078788
 30
0.0
 11
134.974428
 21
-73.078788
 31
0.0
  0
ARC
  5
FB
100
AcDbEntity
  8
0
370
    -3
390
0
  6
Continuous
100
AcDbCircle
 10
129.377382
 20
-79.578788
 30
0.0
 40
1.5
100
AcDbArc
 50
90.0
 51
180.0
  0
LINE
  5
FC
100
AcDbEntity
  8
0
370
    -3
390
0
  6
Continuous
100
AcDbLine
 10
123.627382
 20
-75.078788
 30
0.0
 11
123.627382
 21
-78.078788
 31
0.0
  0
LINE
  5
FD
100
AcDbEntity
  8
0
370
    -3
390
0
  6
Continuous
100
AcDbLine
 10
123.627382
 20
-75.078788
 30
0.0
 11
138.877382
 21
-75.078788
 31
0.0
  0
LINE
  5
FE
100
AcDbEntity
  8
0
370
    -3
390
0
  6
Continuous
100
AcDbLine
 10
122.877382
 20
-73.078788
 30
0.0
 11
123.360716
 21
-73.078788
 31
0.0
  0
LINE
  5
FF
100
AcDbEntity
  8
0
370
    -3
390
0
  6
Continuous
100
AcDbLine
 10
122.877382
 20
-74.078788
 30
0.0
 11
122.877382
 21
-63.078788
 31
0.0
  0
LINE
  5
100
100
AcDbEntity
  8
0
370
    -3
390
0
  6
Continuous
100
AcDbLine
 10
125.877382
 20
-61.078788
 30
0.0
 11
124.377382
 21
-63.078788
 31
0.0
  0
LINE
  5
101
100
AcDbEntity
  8
0
370
    -3
390
0
  6
Continuous
100
AcDbLine
 10
122.877382
 20
-74.078788
 30
0.0
 11
138.877382
 21
-74.078788
 31
0.0
  0
LINE
  5
102
100
AcDbEntity
  8
0
370
    -3
390
0
  6
Continuous
100
AcDbLine
 10
122.877382
 20
-74.078788
 30
0.0
 11
122.877382
 21
-63.078788
 31
0.0
  0
LINE
  5
103
100
AcDbEntity
  8
0
370
    -3
390
0
  6
Continuous
100
AcDbLine
 10
125.877382
 20
-61.078788
 30
0.0
 11
124.377382
 21
-63.078788
 31
0.0
  0
LINE
  5
104
100
AcDbEntity
  8
0
370
    -3
390
0
  6
Continuous
100
AcDbLine
 10
122.877382
 20
-63.078788
 30
0.0
 11
138.877382
 21
-63.078788
 31
0.0
  0
LINE
  5
105
100
AcDbEntity
  8
0
370
    -3
390
0
  6
Continuous
100
AcDbLine
 10
123.627382
 20
-78.078788
 30
0.0
 11
138.877382
 21
-78.078788
 31
0.0
  0
LINE
  5
106
100
AcDbEntity
  8
0
370
    -3
390
0
  6
Continuous
100
AcDbLine
 10
125.877382
 20
-61.078788
 30
0.0
 11
138.877382
 21
-61.078788
 31
0.0
  0
ARC
  5
107
100
AcDbEntity
  8
0
370
    -3
390
0
  6
Continuous
100
AcDbCircle
 10
129.377382
 20
-79.578788
 30
0.0
 40
1.5
100
AcDbArc
 50
180.0
 51
270.0
  0
LINE
  5
108
100
AcDbEntity
  8
0
370
    -3
390
0
  6
Continuous
100
AcDbLine
 10
154.127382
 20
-75.078788
 30
0.0
 11
138.877382
 21
-75.078788
 31
0.0
  0
LINE
  5
109
100
AcDbEntity
  8
0
370
    -3
390
0
  6
Continuous
100
AcDbLine
 10
142.780337
 20
-73.078788
 30
0.0
 11
138.877382
 21
-73.078788
 31
0.0
  0
LINE
  5
10A
100
AcDbEntity
  8
0
370
    -3
390
0
  6
Continuous
100
AcDbLine
 10
154.877382
 20
-63.078788
 30
0.0
 11
138.877382
 21
-63.078788
 31
0.0
  0
LINE
  5
10B
100
AcDbEntity
  8
0
370
    -3
390
0
  6
Continuous
100
AcDbLine
 10
151.877382
 20
-61.078788
 30
0.0
 11
138.877382
 21
-61.078788
 31
0.0
  0
LINE
  5
10C
100
AcDbEntity
  8
0
370
    -3
390
0
  6
Continuous
100
AcDbLine
 10
152.609128
 20
-73.078788
 30
0.0
 11
147.089517
 21
-73.078788
 31
0.0
  0
LINE
  5
10D
100
AcDbEntity
  8
0
370
    -3
390
0
  6
Continuous
100
AcDbLine
 10
154.394049
 20
-63.078788
 30
0.0
 11
154.394049
 21
-73.078788
 31
0.0
  0
LINE
  5
10E
100
AcDbEntity
  8
0
370
    -3
390
0
  6
Continuous
100
AcDbLine
 10
152.609128
 20
-63.078788
 30
0.0
 11
152.609128
 21
-73.078788
 31
0.0
  0
LINE
  5
10F
100
AcDbEntity
  8
0
370
    -3
390
0
  6
Continuous
100
AcDbLine
 10
147.089517
 20
-63.078788
 30
0.0
 11
147.089517
 21
-73.078788
 31
0.0
  0
LINE
  5
110
100
AcDbEntity
  8
0
370
    -3
390
0
  6
Continuous
100
AcDbLine
 10
142.780337
 20
-63.078788
 30
0.0
 11
142.780337
 21
-73.078788
 31
0.0
  0
ARC
  5
111
100
AcDbEntity
  8
0
370
    -3
390
0
  6
Continuous
100
AcDbCircle
 10
148.377382
 20
-79.578788
 30
0.0
 40
1.5
100
AcDbArc
 50
0.0
 51
90.0
  0
LINE
  5
112
100
AcDbEntity
  8
0
370
    -3
390
0
  6
Continuous
100
AcDbLine
 10
154.127382
 20
-75.078788
 30
0.0
 11
154.127382
 21
-78.078788
 31
0.0
  0
LINE
  5
113
100
AcDbEntity
  8
0
370
    -3
390
0
  6
Continuous
100
AcDbLine
 10
154.877382
 20
-73.078788
 30
0.0
 11
154.394049
 21
-73.078788
 31
0.0
  0
LINE
  5
114
100
AcDbEntity
  8
0
370
    -3
390
0
  6
Continuous
100
AcDbLine
 10
154.877382
 20
-74.078788
 30
0.0
 11
154.877382
 21
-63.078788
 31
0.0
  0
LINE
  5
115
100
AcDbEntity
  8
0
370
    -3
390
0
  6
Continuous
100
AcDbLine
 10
151.877382
 20
-61.078788
 30
0.0
 11
153.377382
 21
-63.078788
 31
0.0
  0
LINE
  5
116
100
AcDbEntity
  8
0
370
    -3
390
0
  6
Continuous
100
AcDbLine
 10
154.877382
 20
-74.078788
 30
0.0
 11
138.877382
 21
-74.078788
 31
0.0
  0
LINE
  5
117
100
AcDbEntity
  8
0
370
    -3
390
0
  6
Continuous
100
AcDbLine
 10
154.877382
 20
-74.078788
 30
0.0
 11
154.877382
 21
-63.078788
 31
0.0
  0
LINE
  5
118
100
AcDbEntity
  8
0
370
    -3
390
0
  6
Continuous
100
AcDbLine
 10
151.877382
 20
-61.078788
 30
0.0
 11
153.377382
 21
-63.078788
 31
0.0
  0
LINE
  5
119
100
AcDbEntity
  8
0
370
    -3
390
0
  6
Continuous
100
AcDbLine
 10
154.127382
 20
-78.078788
 30
0.0
 11
138.877382
 21
-78.078788
 31
0.0
  0
ARC
  5
11A
100
AcDbEntity
  8
0
370
    -3
390
0
  6
Continuous
100
AcDbCircle
 10
148.377382
 20
-79.578788
 30
0.0
 40
1.5
100
AcDbArc
 50
270.0
 51
0.0
  0
LINE
  5
11B
100
AcDbEntity
  8
0
370
    -3
390
0
  6
Continuous
100
AcDbLine
 10
129.377382
 20
-81.078788
 30
0.0
 11
138.877382
 21
-81.078788
 31
0.0
  0
LINE
  5
11C
100
AcDbEntity
  8
0
370
    -3
390
0
  6
Continuous
100
AcDbLine
 10
148.377382
 20
-81.078788
 30
0.0
 11
138.877382
 21
-81.078788
 31
0.0
  0
ARC
  5
11D
100
AcDbEntity
  8
0
370
    -3
390
0
  6
Continuous
100
AcDbCircle
 10
95.377382
 20
-133.883661
 30
0.0
 40
5.0
100
AcDbArc
 50
273.0
 51
0.0
  0
LINE
  5
11E
100
AcDbEntity
  8
0
370
    -3
390
0
  6
Continuous
100
AcDbLine
 10
88.639062
 20
-139.243663
 30
0.0
 11
95.639062
 21
-138.876809
 31
0.0
  0
ARC
  5
11F
100
AcDbEntity
  8
0
370
    -3
390
0
  6
Continuous
100
AcDbCircle
 10
97.377382
 20
-183.599084
 30
0.0
 40
3.0
100
AcDbArc
 50
279.594068
 51
0.0
  0
ARC
  5
120
100
AcDbEntity
  8
0
370
    -3
390
0
  6
Continuous
100
AcDbCircle
 10
98.377382
 20
-189.515164
 30
0.0
 40
3.0
100
AcDbArc
 50
99.594068
 51
180.0
  0
ARC
  5
121
100
AcDbEntity
  8
0
370
    -3
390
0
  6
Continuous
100
AcDbCircle
 10
97.377382
 20
-215.431244
 30
0.0
 40
3.0
100
AcDbArc
 50
0.0
 51
80.405932
  0
ARC
  5
122
100
AcDbEntity
  8
0
370
    -3
390
0
  6
Continuous
100
AcDbCircle
 10
98.377382
 20
-209.515164
 30
0.0
 40
3.0
100
AcDbArc
 50
180.0
 51
260.405932
  0
LINE
  5
123
100
AcDbEntity
  8
0
370
    -3
390
0
  6
Continuous
100
AcDbLine
 10
95.377382
 20
-209.515164
 30
0.0
 11
95.377382
 21
-199.515164
 31
0.0
  0
LINE
  5
124
100
AcDbEntity
  8
0
370
    -3
390
0
  6
Continuous
100
AcDbLine
 10
95.377382
 20
-189.515164
 30
0.0
 11
95.377382
 21
-199.515164
 31
0.0
  0
INSERT
  5
130
100
AcDbEntity
  8
0
390
0
100
AcDbBlockReference
  2
ZU_SYM__USERS_HOME_SYMBOL_POO_SYM_B20_0000320
 10
100.377382
 20
-244.515164
 30
0.0
  0
LINE
  5
131
100
AcDbEntity
  8
0
370
    -3
390
0
  6
DASHED
100
AcDbLine
 10
480.860488
 20
-287.690255
 30
0.0
 11
480.904551
 21
-287.690255
 31
0.0
  0
LINE
  5
132
100
AcDbEntity
  8
0
370
    -3
390
0
  6
CENTER
100
AcDbLine
 10
505.379901
 20
-318.797256
 30
0.0
 11
505.379901
 21
-331.832641
 31
0.0
  0
ARC
  5
133
100
AcDbEntity
  8
0
370
    -3
390
0
  6
DASHED
100
AcDbCircle
 10
524.579901
 20
-320.715164
 30
0.0
 40
6.8
100
AcDbArc
 50
270.0
 51
0.0
  0
LINE
  5
134
100
AcDbEntity
  8
0
370
    -3
390
0
  6
DASHED
100
AcDbLine
 10
488.379901
 20
-329.070387
 30
0.0
 11
483.882798
 21
-338.714455
 31
0.0
  0
LINE
  5
135
100
AcDbEntity
  8
0
370
    -3
390
0
  6
DASHED
100
AcDbLine
 10
488.379901
 20
-320.078821
 30
0.0
 11
480.988232
 21
-335.930306
 31
0.0
  0
ARC
  5
136
100
AcDbEntity
  8
0
370
    -3
390
0
  6
DASHED
100
AcDbCircle
 10
482.166432
 20
-336.479709
 30
0.0
 40
1.3
100
AcDbArc
 50
155.0
 51
245.0
  0
LINE
  5
137
100
AcDbEntity
  8
0
370
    -3
390
0
  6
DASHED
100
AcDbLine
 10
481.617029
 20
-337.657909
 30
0.0
 11
483.882798
 21
-338.714455
 31
0.0
  0
LINE
  5
138
100
AcDbEntity
  8
0
370
    -3
390
0
  6
DASHED
100
AcDbLine
 10
490.938065
 20
-335.053099
 30
0.0
 11
480.215134
 21
-330.052914
 31
0.0
  0
ARC
  5
139
100
AcDbEntity
  8
0
370
    -3
390
0
  6
DASHED
100
AcDbCircle
 10
488.901693
 20
-334.103523
 30
0.0
 40
9.0
100
AcDbArc
 50
138.398452
 51
171.601531
  0
POINT
  5
13A
100
AcDbEntity
  8
0
370
    -3
390
0
  6
Continuous
100
AcDbPoint
 10
483.101324
 20
-331.398767
 30
0.0
  0
LINE
  5
13B
100
AcDbEntity
  8
0
370
    -3
390
0
  6
DASHED
100
AcDbLine
 10
481.62216
 20
-334.570844
 30
0.0
 11
480.734861
 21
-334.15709
 31
0.0
  0
ARC
  5
13C
100
AcDbEntity
  8
0
370
    -3
390
0
  6
DASHED
100
AcDbCircle
 10
481.284265
 20
-332.978891
 30
0.0
 40
1.299999
100
AcDbArc
 50
171.601531
 51
245.000001
  0
ARC
  5
13D
100
AcDbEntity
  8
0
370
    -3
390
0
  6
DASHED
100
AcDbCircle
 10
483.143786
 20
-328.991135
 30
0.0
 40
1.299999
100
AcDbArc
 50
73.864553
 51
138.398452
  0
LINE
  5
13E
100
AcDbEntity
  8
0
370
    -3
390
0
  6
DASHED
100
AcDbLine
 10
489.105113
 20
-327.515164
 30
0.0
 11
524.579901
 21
-327.515164
 31
0.0
  0
ARC
  5
13F
100
AcDbEntity
  8
0
370
    -3
390
0
  6
DASHED
100
AcDbCircle
 10
1081.427937
 20
-269.015164
 30
0.0
 40
600.8
100
AcDbArc
 50
178.668513
 51
185.829691
  0
ARC
  5
140
100
AcDbEntity
  8
0
370
    -3
390
0
  6
DASHED
100
AcDbCircle
 10
485.588863
 20
-255.166067
 30
0.0
 40
4.8
100
AcDbArc
 50
113.260322
 51
178.668513
  0
ARC
  5
141
100
AcDbEntity
  8
0
370
    -3
390
0
  6
DASHED
100
AcDbCircle
 10
602.482036
 20
-527.107211
 30
0.0
 40
300.8
100
AcDbArc
 50
112.29212
 51
113.260322
  0
LINE
  5
142
100
AcDbEntity
  8
0
370
    -3
390
0
  6
DASHED
100
AcDbLine
 10
531.379901
 20
-240.392241
 30
0.0
 11
531.379901
 21
-320.715164
 31
0.0
  0
ARC
  5
143
100
AcDbEntity
  8
0
370
    -3
390
0
  6
DASHED
100
AcDbCircle
 10
528.579901
 20
-240.392241
 30
0.0
 40
2.8
100
AcDbArc
 50
0.0
 51
43.120625
  0
LINE
  5
144
100
AcDbEntity
  8
0
370
    -3
390
0
  6
DASHED
100
AcDbLine
 10
531.335352
 20
-236.952125
 30
0.0
 11
531.36357
 21
-237.274653
 31
0.0
  0
LINE
  5
145
100
AcDbEntity
  8
0
370
    -3
390
0
  6
DASHED
100
AcDbLine
 10
531.36357
 20
-237.274653
 30
0.0
 11
531.177358
 21
-237.290944
 31
0.0
  0
LINE
  5
146
100
AcDbEntity
  8
0
370
    -3
390
0
  6
DASHED
100
AcDbLine
 10
532.314851
 20
-234.851583
 30
0.0
 11
488.379901
 21
-329.070387
 31
0.0
  0
ARC
  5
147
100
AcDbEntity
  8
0
370
    -3
390
0
  6
DASHED
100
AcDbCircle
 10
602.482036
 20
-527.107211
 30
0.0
 40
300.8
100
AcDbArc
 50
104.484557
 51
112.29212
  0
LINE
  5
148
100
AcDbEntity
  8
0
370
    -3
390
0
  6
DASHED
100
AcDbLine
 10
528.321478
 20
-234.423833
 30
0.0
 11
488.379901
 21
-320.078821
 31
0.0
  0
ARC
  5
149
100
AcDbEntity
  8
0
370
    -3
390
0
  6
DASHED
100
AcDbCircle
 10
529.499678
 20
-234.973237
 30
0.0
 40
1.3
100
AcDbArc
 50
65.0
 51
155.0
  0
LINE
  5
14A
100
AcDbEntity
  8
0
370
    -3
390
0
  6
DASHED
100
AcDbLine
 10
530.049081
 20
-233.795037
 30
0.0
 11
532.314851
 21
-234.851583
 31
0.0
  0
ARC
  5
14B
100
AcDbEntity
  8
0
370
    -3
390
0
  6
DASHED
100
AcDbCircle
 10
526.996108
 20
-234.899897
 30
0.0
 40
1.0
100
AcDbArc
 50
284.484557
 51
335.0
  0
ARC
  5
14C
100
AcDbEntity
  8
0
370
    -3
390
0
  6
CENTER
100
AcDbCircle
 10
673.379901
 20
-213.515164
 30
0.0
 40
275.0
100
AcDbArc
 50
128.693647
 51
140.926883
  0
LINE
  5
14D
100
AcDbEntity
  8
0
370
    -3
390
0
  6
CENTER
100
AcDbLine
 10
458.27218
 20
-428.622885
 30
0.0
 11
499.739043
 21
-387.156022
 31
0.0
  0
LINE
  5
14E
100
AcDbEntity
  8
0
370
    -3
390
0
  6
CENTER
100
AcDbLine
 10
458.27218
 20
1.592557
 30
0.0
 11
499.739043
 21
-39.874306
 31
0.0
  0
ARC
  5
14F
100
AcDbEntity
  8
0
370
    -3
390
0
  6
Continuous
100
AcDbCircle
 10
673.379901
 20
-683.515164
 30
0.0
 40
593.892063
100
AcDbArc
 50
91.422993
 51
93.489726
  0
ARC
  5
150
100
AcDbEntity
  8
0
370
    -3
390
0
  6
Continuous
100
AcDbCircle
 10
645.379901
 20
-224.368129
 30
0.0
 40
133.892063
100
AcDbArc
 50
93.489726
 51
168.191719
  0
ARC
  5
151
100
AcDbEntity
  8
0
370
    -3
390
0
  6
Continuous
100
AcDbCircle
 10
701.379901
 20
-224.368129
 30
0.0
 40
133.892063
100
AcDbArc
 50
11.808281
 51
86.510274
  0
ARC
  5
152
100
AcDbEntity
  8
0
370
    -3
390
0
  6
Continuous
100
AcDbCircle
 10
673.379901
 20
-683.515164
 30
0.0
 40
593.892063
100
AcDbArc
 50
86.510274
 51
88.577007
  0
ARC
  5
153
100
AcDbEntity
  8
0
370
    -3
390
0
  6
Continuous
100
AcDbCircle
 10
531.487838
 20
-325.887947
 30
0.0
 40
20.0
100
AcDbArc
 50
180.0
 51
218.377802
  0
ARC
  5
154
100
AcDbEntity
  8
0
370
    -3
390
0
  6
Continuous
100
AcDbCircle
 10
545.254598
 20
-355.165815
 30
0.0
 40
10.0
100
AcDbArc
 50
227.870148
 51
24.149805
  0
ARC
  5
155
100
AcDbEntity
  8
0
370
    -3
390
0
  6
Continuous
100
AcDbCircle
 10
531.548509
 20
-341.440362
 30
0.0
 40
10.0
100
AcDbArc
 50
222.048964
 51
10.881295
  0
CIRCLE
  5
156
100
AcDbEntity
  8
0
370
    -3
390
0
  6
Continuous
100
AcDbCircle
 10
673.379901
 20
-213.515164
 30
0.0
 40
52.5
  0
ARC
  5
157
100
AcDbEntity
  8
0
370
    -3
390
0
  6
Continuous
100
AcDbCircle
 10
477.610266
 20
-223.015164
 30
0.0
 40
5.0
100
AcDbArc
 50
90.0
 51
182.77818
  0
ARC
  5
158
100
AcDbEntity
  8
0
370
    -3
390
0
  6
Continuous
100
AcDbCircle
 10
477.610266
 20
-204.015164
 30
0.0
 40
5.0
100
AcDbArc
 50
177.22182
 51
270.0
  0
ARC
  5
159
100
AcDbEntity
  8
0
370
    -3
390
0
  6
Continuous
100
AcDbCircle
 10
663.879901
 20
-17.745529
 30
0.0
 40
5.0
100
AcDbArc
 50
0.0
 51
92.77818
  0
ARC
  5
15A
100
AcDbEntity
  8
0
370
    -3
390
0
  6
Continuous
100
AcDbCircle
 10
682.879901
 20
-17.745529
 30
0.0
 40
5.0
100
AcDbArc
 50
87.22182
 51
180.0
  0
CIRCLE
  5
15B
100
AcDbEntity
  8
0
370
    -3
390
0
  6
Continuous
100
AcDbCircle
 10
673.379901
 20
-213.515164
 30
0.0
 40
201.0
  0
ARC
  5
15C
100
AcDbEntity
  8
0
370
    -3
390
0
  6
Continuous
100
AcDbCircle
 10
521.487838
 20
-228.015164
 30
0.0
 40
10.0
100
AcDbArc
 50
90.0
 51
180.0
  0
ARC
  5
15D
100
AcDbEntity
  8
0
370
    -3
390
0
  6
Continuous
100
AcDbCircle
 10
524.109663
 20
-199.015164
 30
0.0
 40
10.0
100
AcDbArc
 50
168.191719
 51
270.0
  0
ARC
  5
15E
100
AcDbEntity
  8
0
370
    -3
390
0
  6
Continuous
100
AcDbCircle
 10
658.879901
 20
-99.80317
 30
0.0
 40
10.0
100
AcDbArc
 50
0.0
 51
91.422993
  0
ARC
  5
15F
100
AcDbEntity
  8
0
370
    -3
390
0
  6
Continuous
100
AcDbCircle
 10
687.879901
 20
-99.80317
 30
0.0
 40
10.0
100
AcDbArc
 50
88.577007
 51
180.0
  0
ARC
  5
160
100
AcDbEntity
  8
0
370
    -3
390
0
  6
Continuous
100
AcDbCircle
 10
588.912452
 20
-223.015164
 30
0.0
 40
5.0
100
AcDbArc
 50
6.417053
 51
90.0
  0
ARC
  5
161
100
AcDbEntity
  8
0
370
    -3
390
0
  6
Continuous
100
AcDbCircle
 10
588.912452
 20
-204.015164
 30
0.0
 40
5.0
100
AcDbArc
 50
270.0
 51
353.582947
  0
LINE
  5
162
100
AcDbEntity
  8
0
370
    -3
390
0
  6
Continuous
100
AcDbLine
 10
477.610266
 20
-209.015164
 30
0.0
 11
588.912452
 21
-209.015164
 31
0.0
  0
LINE
  5
163
100
AcDbEntity
  8
0
370
    -3
390
0
  6
Continuous
100
AcDbLine
 10
477.610266
 20
-218.015164
 30
0.0
 11
588.912452
 21
-218.015164
 31
0.0
  0
ARC
  5
164
100
AcDbEntity
  8
0
370
    -3
390
0
  6
Continuous
100
AcDbCircle
 10
663.879901
 20
-129.047715
 30
0.0
 40
5.0
100
AcDbArc
 50
276.417053
 51
0.0
  0
ARC
  5
165
100
AcDbEntity
  8
0
370
    -3
390
0
  6
Continuous
100
AcDbCircle
 10
682.879901
 20
-129.047715
 30
0.0
 40
5.0
100
AcDbArc
 50
180.0
 51
263.582947
  0
LINE
  5
166
100
AcDbEntity
  8
0
370
    -3
390
0
  6
Continuous
100
AcDbLine
 10
677.879901
 20
-17.745529
 30
0.0
 11
677.879901
 21
-129.047715
 31
0.0
  0
LINE
  5
167
100
AcDbEntity
  8
0
370
    -3
390
0
  6
Continuous
100
AcDbLine
 10
668.879901
 20
-17.745529
 30
0.0
 11
668.879901
 21
-129.047715
 31
0.0
  0
ARC
  5
168
100
AcDbEntity
  8
0
370
    -3
390
0
  6
Continuous
100
AcDbCircle
 10
735.378257
 20
-278.754752
 30
0.0
 40
10.0
100
AcDbArc
 50
133.540775
 51
248.755645
  0
ARC
  5
169
100
AcDbEntity
  8
0
370
    -3
390
0
  6
Continuous
100
AcDbCircle
 10
741.98657
 20
-271.7657
 30
0.0
 40
10.0
100
AcDbArc
 50
139.667057
 51
245.868324
  0
ARC
  5
16A
100
AcDbEntity
  8
0
370
    -3
390
0
  6
Continuous
100
AcDbCircle
 10
590.951093
 20
-249.64675
 30
0.0
 40
10.0
100
AcDbArc
 50
283.302309
 51
23.669611
  0
ARC
  5
16B
100
AcDbEntity
  8
0
370
    -3
390
0
  6
Continuous
100
AcDbCircle
 10
595.111145
 20
-257.944903
 30
0.0
 40
10.0
100
AcDbArc
 50
281.551141
 51
29.581676
  0
ARC
  5
16C
100
AcDbEntity
  8
0
370
    -3
390
0
  6
Continuous
100
AcDbCircle
 10
609.12812
 20
-326.527149
 30
0.0
 40
69.0
100
AcDbArc
 50
103.302309
 51
190.881295
  0
ARC
  5
16D
100
AcDbEntity
  8
0
370
    -3
390
0
  6
Continuous
100
AcDbCircle
 10
450.379901
 20
-216.515164
 30
0.0
 40
2.0
100
AcDbArc
 50
180.0
 51
270.0
  0
ARC
  5
16E
100
AcDbEntity
  8
0
370
    -3
390
0
  6
Continuous
100
AcDbCircle
 10
450.379901
 20
-210.515164
 30
0.0
 40
2.0
100
AcDbArc
 50
90.0
 51
180.0
  0
ARC
  5
16F
100
AcDbEntity
  8
0
370
    -3
390
0
  6
Continuous
100
AcDbCircle
 10
455.52674
 20
-205.515164
 30
0.0
 40
3.0
100
AcDbArc
 50
270.0
 51
357.89693
  0
ARC
  5
170
100
AcDbEntity
  8
0
370
    -3
390
0
  6
Continuous
100
AcDbCircle
 10
455.52674
 20
-221.515164
 30
0.0
 40
3.0
100
AcDbArc
 50
2.10307
 51
90.0
  0
LINE
  5
171
100
AcDbEntity
  8
0
370
    -3
390
0
  6
Continuous
100
AcDbLine
 10
450.379901
 20
-218.515164
 30
0.0
 11
455.52674
 21
-218.515164
 31
0.0
  0
LINE
  5
172
100
AcDbEntity
  8
0
370
    -3
390
0
  6
Continuous
100
AcDbLine
 10
450.379901
 20
-208.515164
 30
0.0
 11
455.52674
 21
-208.515164
 31
0.0
  0
LINE
  5
173
100
AcDbEntity
  8
0
370
    -3
390
0
  6
Continuous
100
AcDbLine
 10
511.487838
 20
-228.015164
 30
0.0
 11
511.487838
 21
-325.887947
 31
0.0
  0
ARC
  5
174
100
AcDbEntity
  8
0
370
    -3
390
0
  6
Continuous
100
AcDbCircle
 10
598.379901
 20
-428.515164
 30
0.0
 40
20.0
100
AcDbArc
 50
210.0
 51
244.158067
  0
LINE
  5
175
100
AcDbEntity
  8
0
370
    -3
390
0
  6
Continuous
100
AcDbLine
 10
673.379901
 20
-446.515164
 30
0.0
 11
589.662103
 21
-446.515164
 31
0.0
  0
LINE
  5
176
100
AcDbEntity
  8
0
370
    -3
390
0
  6
Continuous
100
AcDbLine
 10
673.379901
 20
-446.515164
 30
0.0
 11
757.097699
 21
-446.515164
 31
0.0
  0
ARC
  5
177
100
AcDbEntity
  8
0
370
    -3
390
0
  6
Continuous
100
AcDbCircle
 10
549.315134
 20
-401.219542
 30
0.0
 40
10.0
100
AcDbArc
 50
56.536959
 51
135.0
  0
LINE
  5
178
100
AcDbEntity
  8
0
370
    -3
390
0
  6
Continuous
100
AcDbLine
 10
499.341842
 20
-437.050698
 30
0.0
 11
542.244066
 21
-394.148474
 31
0.0
  0
ARC
  5
179
100
AcDbEntity
  8
0
370
    -3
390
0
  6
Continuous
100
AcDbCircle
 10
673.379901
 20
-213.515164
 30
0.0
 40
215.0
100
AcDbArc
 50
236.536959
 51
270.0
  0
CIRCLE
  5
17A
100
AcDbEntity
  8
0
370
    -3
390
0
  6
Continuous
100
AcDbCircle
 10
673.379901
 20
-213.515164
 30
0.0
 40
210.0
  0
CIRCLE
  5
17B
100
AcDbEntity
  8
0
370
    -3
390
0
  6
Continuous
100
AcDbCircle
 10
673.379901
 20
-213.515164
 30
0.0
 40
80.0
  0
ARC
  5
17C
100
AcDbEntity
  8
0
370
    -3
390
0
  6
Continuous
100
AcDbCircle
 10
609.12812
 20
-326.527149
 30
0.0
 40
60.0
100
AcDbArc
 50
101.551141
 51
204.149805
  0
ARC
  5
17D
100
AcDbEntity
  8
0
370
    -3
390
0
  6
Continuous
100
AcDbCircle
 10
712.550446
 20
-337.473497
 30
0.0
 40
53.0
100
AcDbArc
 50
347.552965
 51
68.755645
  0
LINE
  5
17E
100
AcDbEntity
  8
0
370
    -3
390
0
  6
Continuous
100
AcDbLine
 10
878.379901
 20
-438.515164
 30
0.0
 11
673.379901
 21
-438.515164
 31
0.0
  0
ARC
  5
17F
100
AcDbEntity
  8
0
370
    -3
390
0
  6
Continuous
100
AcDbCircle
 10
673.379901
 20
-213.515164
 30
0.0
 40
215.0
100
AcDbArc
 50
270.0
 51
303.463041
  0
ARC
  5
180
100
AcDbEntity
  8
0
370
    -3
390
0
  6
CENTER
100
AcDbCircle
 10
673.379901
 20
-213.515164
 30
0.0
 40
275.0
100
AcDbArc
 50
219.652714
 51
231.518362
  0
CIRCLE
  5
181
100
AcDbEntity
  8
0
370
    -3
390
0
  6
Continuous
100
AcDbCircle
 10
478.925536
 20
-407.969529
 30
0.0
 40
14.0
  0
LINE
  5
182
100
AcDbEntity
  8
0
370
    -3
390
0
  6
Continuous
100
AcDbLine
 10
468.379901
 20
-438.515164
 30
0.0
 11
673.379901
 21
-438.515164
 31
0.0
  0
ARC
  5
183
100
AcDbEntity
  8
0
370
    -3
390
0
  6
Continuous
100
AcDbCircle
 10
468.379901
 20
-418.515164
 30
0.0
 40
20.0
100
AcDbArc
 50
180.0
 51
270.0
  0
ARC
  5
184
100
AcDbEntity
  8
0
370
    -3
390
0
  6
Continuous
100
AcDbCircle
 10
453.379901
 20
-391.088757
 30
0.0
 40
5.0
100
AcDbArc
 50
135.0
 51
180.0
  0
LINE
  5
185
100
AcDbEntity
  8
0
370
    -3
390
0
  6
Continuous
100
AcDbLine
 10
449.844367
 20
-387.553223
 30
0.0
 11
492.746591
 21
-344.651
 31
0.0
  0
ARC
  5
186
100
AcDbEntity
  8
0
370
    -3
390
0
  6
Continuous
100
AcDbCircle
 10
673.379901
 20
-213.515164
 30
0.0
 40
215.0
100
AcDbArc
 50
182.10307
 51
213.463041
  0
ARC
  5
187
100
AcDbEntity
  8
0
370
    -3
390
0
  6
Continuous
100
AcDbCircle
 10
485.675523
 20
-337.579932
 30
0.0
 40
10.0
100
AcDbArc
 50
315.0
 51
33.463041
  0
ARC
  5
188
100
AcDbEntity
  8
0
370
    -3
390
0
  6
Continuous
100
AcDbCircle
 10
495.806308
 20
-433.515164
 30
0.0
 40
5.0
100
AcDbArc
 50
270.0
 51
315.0
  0
LINE
  5
189
100
AcDbEntity
  8
0
370
    -3
390
0
  6
Continuous
100
AcDbLine
 10
448.379901
 20
-8.515164
 30
0.0
 11
448.379901
 21
-418.515164
 31
0.0
  0
ARC
  5
18A
100
AcDbEntity
  8
0
370
    -3
390
0
  6
Continuous
100
AcDbCircle
 10
468.379901
 20
-8.515164
 30
0.0
 40
20.0
100
AcDbArc
 50
90.0
 51
180.0
  0
ARC
  5
18B
100
AcDbEntity
  8
0
370
    -3
390
0
  6
Continuous
100
AcDbCircle
 10
673.379901
 20
-213.515164
 30
0.0
 40
215.0
100
AcDbArc
 50
56.536959
 51
90.0
  0
ARC
  5
18C
100
AcDbEntity
  8
0
370
    -3
390
0
  6
Continuous
100
AcDbCircle
 10
495.806308
 20
6.484836
 30
0.0
 40
5.0
100
AcDbArc
 50
45.0
 51
90.0
  0
LINE
  5
18D
100
AcDbEntity
  8
0
370
    -3
390
0
  6
Continuous
100
AcDbLine
 10
499.341842
 20
10.02037
 30
0.0
 11
542.244066
 21
-32.881854
 31
0.0
  0
CIRCLE
  5
18E
100
AcDbEntity
  8
0
370
    -3
390
0
  6
Continuous
100
AcDbCircle
 10
478.925536
 20
-19.060799
 30
0.0
 40
14.0
  0
ARC
  5
18F
100
AcDbEntity
  8
0
370
    -3
390
0
  6
Continuous
100
AcDbCircle
 10
453.379901
 20
-35.941571
 30
0.0
 40
5.0
100
AcDbArc
 50
180.0
 51
225.0
  0
LINE
  5
190
100
AcDbEntity
  8
0
370
    -3
390
0
  6
Continuous
100
AcDbLine
 10
449.844367
 20
-39.477105
 30
0.0
 11
492.746591
 21
-82.379329
 31
0.0
  0
ARC
  5
191
100
AcDbEntity
  8
0
370
    -3
390
0
  6
Continuous
100
AcDbCircle
 10
485.675523
 20
-89.450397
 30
0.0
 40
10.0
100
AcDbArc
 50
326.536959
 51
45.0
  0
ARC
  5
192
100
AcDbEntity
  8
0
370
    -3
390
0
  6
Continuous
100
AcDbCircle
 10
673.379901
 20
-213.515164
 30
0.0
 40
215.0
100
AcDbArc
 50
146.536959
 51
177.89693
  0
ARC
  5
193
100
AcDbEntity
  8
0
370
    -3
390
0
  6
Continuous
100
AcDbCircle
 10
549.315134
 20
-25.810786
 30
0.0
 40
10.0
100
AcDbArc
 50
225.0
 51
303.463041
  0
ARC
  5
194
100
AcDbEntity
  8
0
370
    -3
390
0
  6
Continuous
100
AcDbCircle
 10
673.379901
 20
-213.515164
 30
0.0
 40
215.0
100
AcDbArc
 50
90.0
 51
123.463041
  0
LINE
  5
195
100
AcDbEntity
  8
0
370
    -3
390
0
  6
Continuous
100
AcDbLine
 10
468.379901
 20
11.484836
 30
0.0
 11
878.379901
 21
11.484836
 31
0.0
  0
CIRCLE
  5
196
100
AcDbEntity
  8
0
370
    -3
390
0
  6
Continuous
100
AcDbCircle
 10
673.379901
 20
-213.515164
 30
0.0
 40
42.5
  0
CIRCLE
  5
197
100
AcDbEntity
  8
0
370
    -3
390
0
  6
Continuous
100
AcDbCircle
 10
673.379901
 20
-213.515164
 30
0.0
 40
4.188
  0
CIRCLE
  5
198
100
AcDbEntity
  8
0
370
    -3
390
0
  6
Continuous
100
AcDbCircle
 10
673.379901
 20
-213.515164
 30
0.0
 40
5.0
  0
ARC
  5
199
100
AcDbEntity
  8
0
370
    -3
390
0
  6
Continuous
100
AcDbCircle
 10
673.379901
 20
-213.515164
 30
0.0
 40
30.0
100
AcDbArc
 50
197.457603
 51
162.542397
  0
LINE
  5
19A
100
AcDbEntity
  8
0
370
    -3
390
0
  6
Continuous
100
AcDbLine
 10
639.379901
 20
-204.515164
 30
0.0
 11
639.379901
 21
-222.515164
 31
0.0
  0
LINE
  5
19B
100
AcDbEntity
  8
0
370
    -3
390
0
  6
Continuous
100
AcDbLine
 10
650.379901
 20
-204.515164
 30
0.0
 11
650.379901
 21
-222.515164
 31
0.0
  0
LINE
  5
19C
100
AcDbEntity
  8
0
370
    -3
390
0
  6
Continuous
100
AcDbLine
 10
639.379901
 20
-222.515164
 30
0.0
 11
650.379901
 21
-222.515164
 31
0.0
  0
LINE
  5
19D
100
AcDbEntity
  8
0
370
    -3
390
0
  6
Continuous
100
AcDbLine
 10
639.379901
 20
-204.515164
 30
0.0
 11
650.379901
 21
-204.515164
 31
0.0
  0
LINE
  5
19E
100
AcDbEntity
  8
0
370
    -3
390
0
  6
CENTER
100
AcDbLine
 10
436.197787
 20
-213.515164
 30
0.0
 11
901.760258
 21
-213.515164
 31
0.0
  0
LINE
  5
19F
100
AcDbEntity
  8
0
370
    -3
390
0
  6
CENTER
100
AcDbLine
 10
888.487622
 20
1.592557
 30
0.0
 11
847.020759
 21
-39.874306
 31
0.0
  0
ARC
  5
1A0
100
AcDbEntity
  8
0
370
    -3
390
0
  6
Continuous
100
AcDbCircle
 10
815.271965
 20
-325.887947
 30
0.0
 40
20.0
100
AcDbArc
 50
321.622198
 51
0.0
  0
ARC
  5
1A1
100
AcDbEntity
  8
0
370
    -3
390
0
  6
Continuous
100
AcDbCircle
 10
793.315504
 20
-362.163915
 30
0.0
 40
10.0
100
AcDbArc
 50
240.0
 51
308.897941
  0
ARC
  5
1A2
100
AcDbEntity
  8
0
370
    -3
390
0
  6
Continuous
100
AcDbCircle
 10
869.149536
 20
-223.015164
 30
0.0
 40
5.0
100
AcDbArc
 50
357.22182
 51
90.0
  0
ARC
  5
1A3
100
AcDbEntity
  8
0
370
    -3
390
0
  6
Continuous
100
AcDbCircle
 10
869.149536
 20
-204.015164
 30
0.0
 40
5.0
100
AcDbArc
 50
270.0
 51
2.77818
  0
ARC
  5
1A4
100
AcDbEntity
  8
0
370
    -3
390
0
  6
Continuous
100
AcDbCircle
 10
825.271965
 20
-228.015164
 30
0.0
 40
10.0
100
AcDbArc
 50
0.0
 51
90.0
  0
ARC
  5
1A5
100
AcDbEntity
  8
0
370
    -3
390
0
  6
Continuous
100
AcDbCircle
 10
822.650139
 20
-199.015164
 30
0.0
 40
10.0
100
AcDbArc
 50
270.0
 51
11.808281
  0
ARC
  5
1A6
100
AcDbEntity
  8
0
370
    -3
390
0
  6
Continuous
100
AcDbCircle
 10
757.847351
 20
-204.015164
 30
0.0
 40
5.0
100
AcDbArc
 50
186.417053
 51
270.0
  0
ARC
  5
1A7
100
AcDbEntity
  8
0
370
    -3
390
0
  6
Continuous
100
AcDbCircle
 10
757.847351
 20
-223.015164
 30
0.0
 40
5.0
100
AcDbArc
 50
90.0
 51
173.582947
  0
LINE
  5
1A8
100
AcDbEntity
  8
0
370
    -3
390
0
  6
Continuous
100
AcDbLine
 10
869.149536
 20
-218.015164
 30
0.0
 11
757.847351
 21
-218.015164
 31
0.0
  0
LINE
  5
1A9
100
AcDbEntity
  8
0
370
    -3
390
0
  6
Continuous
100
AcDbLine
 10
869.149536
 20
-209.015164
 30
0.0
 11
757.847351
 21
-209.015164
 31
0.0
  0
ARC
  5
1AA
100
AcDbEntity
  8
0
370
    -3
390
0
  6
Continuous
100
AcDbCircle
 10
774.069673
 20
-351.05233
 30
0.0
 40
10.0
100
AcDbArc
 50
167.552965
 51
240.0
  0
ARC
  5
1AB
100
AcDbEntity
  8
0
370
    -3
390
0
  6
Continuous
100
AcDbCircle
 10
782.194024
 20
-355.742926
 30
0.0
 40
10.0
100
AcDbArc
 50
165.300941
 51
240.0
  0
LINE
  5
1AC
100
AcDbEntity
  8
0
370
    -3
390
0
  6
Continuous
100
AcDbLine
 10
769.069673
 20
-359.712584
 30
0.0
 11
788.315504
 21
-370.824169
 31
0.0
  0
ARC
  5
1AD
100
AcDbEntity
  8
0
370
    -3
390
0
  6
Continuous
100
AcDbCircle
 10
712.550446
 20
-337.473497
 30
0.0
 40
62.0
100
AcDbArc
 50
345.300941
 51
65.868324
  0
ARC
  5
1AE
100
AcDbEntity
  8
0
370
    -3
390
0
  6
Continuous
100
AcDbCircle
 10
896.379901
 20
-216.515164
 30
0.0
 40
2.0
100
AcDbArc
 50
270.0
 51
0.0
  0
ARC
  5
1AF
100
AcDbEntity
  8
0
370
    -3
390
0
  6
Continuous
100
AcDbCircle
 10
896.379901
 20
-210.515164
 30
0.0
 40
2.0
100
AcDbArc
 50
0.0
 51
90.0
  0
LINE
  5
1B0
100
AcDbEntity
  8
0
370
    -3
390
0
  6
Continuous
100
AcDbLine
 10
896.379901
 20
-218.515164
 30
0.0
 11
891.233063
 21
-218.515164
 31
0.0
  0
ARC
  5
1B1
100
AcDbEntity
  8
0
370
    -3
390
0
  6
Continuous
100
AcDbCircle
 10
891.233063
 20
-221.515164
 30
0.0
 40
3.0
100
AcDbArc
 50
90.0
 51
177.89693
  0
LINE
  5
1B2
100
AcDbEntity
  8
0
370
    -3
390
0
  6
Continuous
100
AcDbLine
 10
896.379901
 20
-208.515164
 30
0.0
 11
891.233063
 21
-208.515164
 31
0.0
  0
ARC
  5
1B3
100
AcDbEntity
  8
0
370
    -3
390
0
  6
Continuous
100
AcDbCircle
 10
891.233063
 20
-205.515164
 30
0.0
 40
3.0
100
AcDbArc
 50
182.10307
 51
270.0
  0
LINE
  5
1B4
100
AcDbEntity
  8
0
370
    -3
390
0
  6
Continuous
100
AcDbLine
 10
835.271965
 20
-228.015164
 30
0.0
 11
835.271965
 21
-325.887947
 31
0.0
  0
ARC
  5
1B5
100
AcDbEntity
  8
0
370
    -3
390
0
  6
Continuous
100
AcDbCircle
 10
748.379901
 20
-428.515164
 30
0.0
 40
20.0
100
AcDbArc
 50
295.841933
 51
330.0
  0
ARC
  5
1B6
100
AcDbEntity
  8
0
370
    -3
390
0
  6
Continuous
100
AcDbCircle
 10
673.379901
 20
-213.515164
 30
0.0
 40
215.0
100
AcDbArc
 50
2.10307
 51
33.463041
  0
ARC
  5
1B7
100
AcDbEntity
  8
0
370
    -3
390
0
  6
Continuous
100
AcDbCircle
 10
878.379901
 20
-418.515164
 30
0.0
 40
20.0
100
AcDbArc
 50
270.0
 51
0.0
  0
ARC
  5
1B8
100
AcDbEntity
  8
0
370
    -3
390
0
  6
CENTER
100
AcDbCircle
 10
673.379901
 20
-213.515164
 30
0.0
 40
275.0
100
AcDbArc
 50
308.693647
 51
320.926883
  0
CIRCLE
  5
1B9
100
AcDbEntity
  8
0
370
    -3
390
0
  6
Continuous
100
AcDbCircle
 10
867.834266
 20
-407.969529
 30
0.0
 40
14.0
  0
ARC
  5
1BA
100
AcDbEntity
  8
0
370
    -3
390
0
  6
Continuous
100
AcDbCircle
 10
893.379901
 20
-391.088757
 30
0.0
 40
5.0
100
AcDbArc
 50
0.0
 51
45.0
  0
LINE
  5
1BB
100
AcDbEntity
  8
0
370
    -3
390
0
  6
Continuous
100
AcDbLine
 10
896.915435
 20
-387.553223
 30
0.0
 11
854.013211
 21
-344.651
 31
0.0
  0
LINE
  5
1BC
100
AcDbEntity
  8
0
370
    -3
390
0
  6
Continuous
100
AcDbLine
 10
847.41796
 20
-437.050698
 30
0.0
 11
804.515737
 21
-394.148474
 31
0.0
  0
ARC
  5
1BD
100
AcDbEntity
  8
0
370
    -3
390
0
  6
Continuous
100
AcDbCircle
 10
797.444669
 20
-401.219542
 30
0.0
 40
10.0
100
AcDbArc
 50
45.0
 51
123.463041
  0
ARC
  5
1BE
100
AcDbEntity
  8
0
370
    -3
390
0
  6
Continuous
100
AcDbCircle
 10
673.379901
 20
-213.515164
 30
0.0
 40
215.0
100
AcDbArc
 50
326.536959
 51
357.89693
  0
ARC
  5
1BF
100
AcDbEntity
  8
0
370
    -3
390
0
  6
Continuous
100
AcDbCircle
 10
861.084279
 20
-337.579932
 30
0.0
 40
10.0
100
AcDbArc
 50
146.536959
 51
225.0
  0
ARC
  5
1C0
100
AcDbEntity
  8
0
370
    -3
390
0
  6
Continuous
100
AcDbCircle
 10
850.953494
 20
-433.515164
 30
0.0
 40
5.0
100
AcDbArc
 50
225.0
 51
270.0
  0
LINE
  5
1C1
100
AcDbEntity
  8
0
370
    -3
390
0
  6
CENTER
100
AcDbLine
 10
888.487622
 20
-428.622885
 30
0.0
 11
847.020759
 21
-387.156022
 31
0.0
  0
LINE
  5
1C2
100
AcDbEntity
  8
0
370
    -3
390
0
  6
Continuous
100
AcDbLine
 10
898.379901
 20
-8.515164
 30
0.0
 11
898.379901
 21
-418.515164
 31
0.0
  0
ARC
  5
1C3
100
AcDbEntity
  8
0
370
    -3
390
0
  6
Continuous
100
AcDbCircle
 10
797.444669
 20
-25.810786
 30
0.0
 40
10.0
100
AcDbArc
 50
236.536959
 51
315.0
  0
ARC
  5
1C4
100
AcDbEntity
  8
0
370
    -3
390
0
  6
Continuous
100
AcDbCircle
 10
878.379901
 20
-8.515164
 30
0.0
 40
20.0
100
AcDbArc
 50
0.0
 51
90.0
  0
ARC
  5
1C5
100
AcDbEntity
  8
0
370
    -3
390
0
  6
CENTER
100
AcDbCircle
 10
673.379901
 20
-213.515164
 30
0.0
 40
275.0
100
AcDbArc
 50
39.383958
 51
51.835396
  0
CIRCLE
  5
1C6
100
AcDbEntity
  8
0
370
    -3
390
0
  6
Continuous
100
AcDbCircle
 10
867.834266
 20
-19.060799
 30
0.0
 40
14.0
  0
LINE
  5
1C7
100
AcDbEntity
  8
0
370
    -3
390
0
  6
Continuous
100
AcDbLine
 10
847.41796
 20
10.02037
 30
0.0
 11
804.515737
 21
-32.881854
 31
0.0
  0
LINE
  5
1C8
100
AcDbEntity
  8
0
370
    -3
390
0
  6
Continuous
100
AcDbLine
 10
896.915435
 20
-39.477105
 30
0.0
 11
854.013211
 21
-82.379329
 31
0.0
  0
ARC
  5
1C9
100
AcDbEntity
  8
0
370
    -3
390
0
  6
Continuous
100
AcDbCircle
 10
861.084279
 20
-89.450397
 30
0.0
 40
10.0
100
AcDbArc
 50
135.0
 51
213.463041
  0
ARC
  5
1CA
100
AcDbEntity
  8
0
370
    -3
390
0
  6
Continuous
100
AcDbCircle
 10
850.953494
 20
6.484836
 30
0.0
 40
5.0
100
AcDbArc
 50
90.0
 51
135.0
  0
ARC
  5
1CB
100
AcDbEntity
  8
0
370
    -3
390
0
  6
Continuous
100
AcDbCircle
 10
893.379901
 20
-35.941571
 30
0.0
 40
5.0
100
AcDbArc
 50
315.0
 51
0.0
  0
LINE
  5
1CC
100
AcDbEntity
  8
0
370
    -3
390
0
  6
DASHED
100
AcDbLine
 10
491.0533
 20
-333.20566
 30
0.0
 11
489.711069
 21
-336.22036
 31
0.0
  0
LINE
  5
1CD
100
AcDbEntity
  8
0
370
    -3
390
0
  6
DASHED
100
AcDbLine
 10
490.875916
 20
-332.743561
 30
0.0
 11
491.0533
 21
-333.20566
 31
0.0
  0
LINE
  5
1CE
100
AcDbEntity
  8
0
370
    -3
390
0
  6
DASHED
100
AcDbLine
 10
487.390658
 20
-331.191824
 30
0.0
 11
490.875916
 21
-332.743561
 31
0.0
  0
LINE
  5
1CF
100
AcDbEntity
  8
0
370
    -3
390
0
  6
DASHED
100
AcDbLine
 10
487.24272
 20
-331.50908
 30
0.0
 11
491.0533
 21
-333.20566
 31
0.0
  0
LINE
  5
1D0
100
AcDbEntity
  8
0
370
    -3
390
0
  6
DASHED
100
AcDbLine
 10
489.24897
 20
-336.397743
 30
0.0
 11
489.711069
 21
-336.22036
 31
0.0
  0
LINE
  5
1D1
100
AcDbEntity
  8
0
370
    -3
390
0
  6
DASHED
100
AcDbLine
 10
485.847867
 20
-334.500352
 30
0.0
 11
489.711069
 21
-336.22036
 31
0.0
  0
LINE
  5
1D2
100
AcDbEntity
  8
0
370
    -3
390
0
  6
DASHED
100
AcDbLine
 10
485.699928
 20
-334.817608
 30
0.0
 11
489.24897
 21
-336.397743
 31
0.0
  0
LINE
  5
1D3
100
AcDbEntity
  8
0
370
    -3
390
0
  6
CENTER
100
AcDbLine
 10
534.313263
 20
-273.515164
 30
0.0
 11
475.665581
 21
-273.515164
 31
0.0
  0
LINE
  5
1D4
100
AcDbEntity
  8
0
370
    -3
390
0
  6
Continuous
100
AcDbLine
 10
-203.622618
 20
-233.673237
 30
0.0
 11
-203.622618
 21
-136.315164
 31
0.0
  0
LINE
  5
1D5
100
AcDbEntity
  8
0
370
    -3
390
0
  6
Continuous
100
AcDbLine
 10
-251.872618
 20
-168.509807
 30
0.0
 11
-251.872618
 21
-167.378436
 31
0.0
  0
LINE
  5
1D6
100
AcDbEntity
  8
0
370
    -3
390
0
  6
Continuous
100
AcDbLine
 10
-203.622618
 20
-140.515164
 30
0.0
 11
62.377382
 21
-140.515164
 31
0.0
  0
LINE
  5
1D7
100
AcDbEntity
  8
0
370
    -3
390
0
  6
Continuous
100
AcDbLine
 10
-203.622618
 20
-144.015164
 30
0.0
 11
62.377382
 21
-144.015164
 31
0.0
  0
LINE
  5
1D8
100
AcDbEntity
  8
0
370
    -3
390
0
  6
Continuous
100
AcDbLine
 10
-203.622618
 20
-145.515164
 30
0.0
 11
62.377382
 21
-145.515164
 31
0.0
  0
LINE
  5
1D9
100
AcDbEntity
  8
0
370
    -3
390
0
  6
Continuous
100
AcDbLine
 10
-203.622618
 20
-149.515164
 30
0.0
 11
62.377382
 21
-149.515164
 31
0.0
  0
LINE
  5
1DA
100
AcDbEntity
  8
0
370
    -3
390
0
  6
Continuous
100
AcDbLine
 10
-203.622618
 20
-155.515164
 30
0.0
 11
62.377382
 21
-155.515164
 31
0.0
  0
LINE
  5
1DB
100
AcDbEntity
  8
0
370
    -3
390
0
  6
Continuous
100
AcDbLine
 10
-203.622618
 20
-168.807665
 30
0.0
 11
62.377382
 21
-168.807665
 31
0.0
  0
LINE
  5
1DC
100
AcDbEntity
  8
0
370
    -3
390
0
  6
Continuous
100
AcDbLine
 10
-203.622618
 20
-181.535587
 30
0.0
 11
62.377382
 21
-181.535587
 31
0.0
  0
LINE
  5
1DD
100
AcDbEntity
  8
0
370
    -3
390
0
  6
Continuous
100
AcDbLine
 10
-203.622618
 20
-201.935224
 30
0.0
 11
62.377382
 21
-201.935224
 31
0.0
  0
LINE
  5
1DE
100
AcDbEntity
  8
0
370
    -3
390
0
  6
Continuous
100
AcDbLine
 10
-203.622618
 20
-205.171951
 30
0.0
 11
62.377382
 21
-205.171951
 31
0.0
  0
LINE
  5
1DF
100
AcDbEntity
  8
0
370
    -3
390
0
  6
Continuous
100
AcDbLine
 10
-203.622618
 20
-215.872393
 30
0.0
 11
62.377382
 21
-215.872393
 31
0.0
  0
LINE
  5
1E0
100
AcDbEntity
  8
0
370
    -3
390
0
  6
Continuous
100
AcDbLine
 10
-203.622618
 20
-219.091806
 30
0.0
 11
62.377382
 21
-219.091806
 31
0.0
  0
LINE
  5
1E1
100
AcDbEntity
  8
0
370
    -3
390
0
  6
Continuous
100
AcDbLine
 10
-203.622618
 20
-232.924186
 30
0.0
 11
62.377382
 21
-232.924186
 31
0.0
  0
LINE
  5
1E2
100
AcDbEntity
  8
0
370
    -3
390
0
  6
Continuous
100
AcDbLine
 10
-203.622618
 20
-230.070552
 30
0.0
 11
62.377382
 21
-230.070552
 31
0.0
  0
LINE
  5
1E3
100
AcDbEntity
  8
0
370
    -3
390
0
  6
Continuous
100
AcDbLine
 10
-134.622618
 20
-249.515164
 30
0.0
 11
62.377382
 21
-249.515164
 31
0.0
  0
LINE
  5
1E4
100
AcDbEntity
  8
0
370
    -3
390
0
  6
Continuous
100
AcDbLine
 10
-203.622618
 20
-345.095105
 30
0.0
 11
62.377382
 21
-345.095105
 31
0.0
  0
LINE
  5
1E5
100
AcDbEntity
  8
0
370
    -3
390
0
  6
Continuous
100
AcDbLine
 10
-203.622618
 20
-341.858377
 30
0.0
 11
62.377382
 21
-341.858377
 31
0.0
  0
LINE
  5
1E6
100
AcDbEntity
  8
0
370
    -3
390
0
  6
Continuous
100
AcDbLine
 10
-134.622618
 20
-297.515164
 30
0.0
 11
62.377382
 21
-297.515164
 31
0.0
  0
LINE
  5
1E7
100
AcDbEntity
  8
0
370
    -3
390
0
  6
Continuous
100
AcDbLine
 10
-134.622618
 20
-314.106143
 30
0.0
 11
62.377382
 21
-314.106143
 31
0.0
  0
LINE
  5
1E8
100
AcDbEntity
  8
0
370
    -3
390
0
  6
Continuous
100
AcDbLine
 10
-134.622618
 20
-316.959776
 30
0.0
 11
62.377382
 21
-316.959776
 31
0.0
  0
LINE
  5
1E9
100
AcDbEntity
  8
0
370
    -3
390
0
  6
Continuous
100
AcDbLine
 10
-134.622618
 20
-327.938522
 30
0.0
 11
62.377382
 21
-327.938522
 31
0.0
  0
LINE
  5
1EA
100
AcDbEntity
  8
0
370
    -3
390
0
  6
Continuous
100
AcDbLine
 10
-134.710915
 20
-331.157935
 30
0.0
 11
62.377382
 21
-331.157935
 31
0.0
  0
LINE
  5
1EB
100
AcDbEntity
  8
0
370
    -3
390
0
  6
Continuous
100
AcDbLine
 10
-179.696013
 20
-378.222664
 30
0.0
 11
62.377382
 21
-378.222664
 31
0.0
  0
LINE
  5
1EC
100
AcDbEntity
  8
0
370
    -3
390
0
  6
Continuous
100
AcDbLine
 10
-203.622618
 20
-391.515164
 30
0.0
 11
-189.096013
 21
-391.515164
 31
0.0
  0
LINE
  5
1ED
100
AcDbEntity
  8
0
370
    -3
390
0
  6
Continuous
100
AcDbLine
 10
-203.622618
 20
-397.515164
 30
0.0
 11
-189.096013
 21
-397.515164
 31
0.0
  0
LINE
  5
1EE
100
AcDbEntity
  8
0
370
    -3
390
0
  6
Continuous
100
AcDbLine
 10
-203.622618
 20
-401.515164
 30
0.0
 11
-189.096013
 21
-401.515164
 31
0.0
  0
LINE
  5
1EF
100
AcDbEntity
  8
0
370
    -3
390
0
  6
Continuous
100
AcDbLine
 10
-203.622618
 20
-406.515164
 30
0.0
 11
-189.096013
 21
-406.515164
 31
0.0
  0
LINE
  5
1F0
100
AcDbEntity
  8
0
370
    -3
390
0
  6
Continuous
100
AcDbLine
 10
-203.622618
 20
-403.015164
 30
0.0
 11
-189.096013
 21
-403.015164
 31
0.0
  0
LINE
  5
1F1
100
AcDbEntity
  8
0
370
    -3
390
0
  6
Continuous
100
AcDbLine
 10
-183.81125
 20
-365.494742
 30
0.0
 11
62.377382
 21
-365.494742
 31
0.0
  0
LINE
  5
1F2
100
AcDbEntity
  8
0
370
    -3
390
0
  6
Continuous
100
AcDbLine
 10
-248.529791
 20
-384.242451
 30
0.0
 11
-245.622618
 21
-382.409609
 31
0.0
  0
LINE
  5
1F3
100
AcDbEntity
  8
0
370
    -3
390
0
  6
Continuous
100
AcDbLine
 10
-245.622618
 20
-382.409609
 30
0.0
 11
-248.622618
 21
-380.058333
 31
0.0
  0
LINE
  5
1F4
100
AcDbEntity
  8
0
370
    -3
390
0
  6
Continuous
100
AcDbLine
 10
-242.715444
 20
-384.242451
 30
0.0
 11
-245.622618
 21
-382.409609
 31
0.0
  0
LINE
  5
1F5
100
AcDbEntity
  8
0
370
    -3
390
0
  6
Continuous
100
AcDbLine
 10
-245.622618
 20
-382.409609
 30
0.0
 11
-242.622618
 21
-380.058333
 31
0.0
  0
ELLIPSE
  5
1F6
100
AcDbEntity
  8
0
370
    -3
390
0
  6
Continuous
100
AcDbEllipse
 10
-245.622618
 20
-379.651892
 30
0.0
 11
6.25
 21
0.0
 31
0.0
210
0.0
220
0.0
230
1.0
 40
0.707107
 41
5.5424010803726107
 42
3.8823768803967686
  0
ELLIPSE
  5
1F7
100
AcDbEntity
  8
0
370
    -3
390
0
  6
Continuous
100
AcDbEllipse
 10
-245.622618
 20
-380.470022
 30
0.0
 11
5.25
 21
0.0
 31
0.0
210
0.0
220
0.0
230
1.0
 40
0.862941
 41
0.0
 42
6.2831853071795862
  0
LINE
  5
1F8
100
AcDbEntity
  8
0
370
    -3
390
0
  6
Continuous
100
AcDbLine
 10
-251.872618
 20
-378.520521
 30
0.0
 11
-251.872618
 21
-379.651892
 31
0.0
  0
LINE
  5
1F9
100
AcDbEntity
  8
0
370
    -3
390
0
  6
Continuous
100
AcDbLine
 10
-239.372618
 20
-378.520521
 30
0.0
 11
-239.372618
 21
-379.651892
 31
0.0
  0
ELLIPSE
  5
1FA
100
AcDbEntity
  8
0
370
    -3
390
0
  6
Continuous
100
AcDbEllipse
 10
-245.622618
 20
-378.520521
 30
0.0
 11
6.25
 21
0.0
 31
0.0
210
0.0
220
0.0
230
1.0
 40
0.707107
 41
0.0
 42
3.1415926535897931
  0
ELLIPSE
  5
1FB
100
AcDbEntity
  8
0
370
    -3
390
0
  6
Continuous
100
AcDbEllipse
 10
-245.622618
 20
-378.416968
 30
0.0
 11
7.0
 21
0.0
 31
0.0
210
0.0
220
0.0
230
1.0
 40
0.692313
 41
3.1415926535897931
 42
3.6880322699880388
  0
ELLIPSE
  5
1FC
100
AcDbEntity
  8
0
370
    -3
390
0
  6
Continuous
100
AcDbEllipse
 10
-245.622618
 20
-378.416968
 30
0.0
 11
7.0
 21
0.0
 31
0.0
210
0.0
220
0.0
230
1.0
 40
0.692313
 41
5.7367456907812731
 42
0.0
  0
ELLIPSE
  5
1FD
100
AcDbEntity
  8
0
370
    -3
390
0
  6
Continuous
100
AcDbEllipse
 10
-245.622618
 20
-378.416968
 30
0.0
 11
7.0
 21
0.0
 31
0.0
210
0.0
220
0.0
230
1.0
 40
0.692313
 41
0.0
 42
3.1415926535897931
  0
ELLIPSE
  5
1FE
100
AcDbEntity
  8
0
370
    -3
390
0
  6
Continuous
100
AcDbEllipse
 10
-245.622618
 20
-376.775612
 30
0.0
 11
7.0
 21
0.0
 31
0.0
210
0.0
220
0.0
230
1.0
 40
0.707107
 41
0.0
 42
3.1415926535897931
  0
LINE
  5
1FF
100
AcDbEntity
  8
0
370
    -3
390
0
  6
Continuous
100
AcDbLine
 10
-252.622618
 20
-376.775612
 30
0.0
 11
-252.622618
 21
-378.416968
 31
0.0
  0
LINE
  5
200
100
AcDbEntity
  8
0
370
    -3
390
0
  6
Continuous
100
AcDbLine
 10
-238.622618
 20
-376.775612
 30
0.0
 11
-238.622618
 21
-378.416968
 31
0.0
  0
LINE
  5
201
100
AcDbEntity
  8
0
370
    -3
390
0
  6
Continuous
100
AcDbLine
 10
-248.529791
 20
-162.787877
 30
0.0
 11
-245.622618
 21
-164.620719
 31
0.0
  0
LINE
  5
202
100
AcDbEntity
  8
0
370
    -3
390
0
  6
Continuous
100
AcDbLine
 10
-245.622618
 20
-164.620719
 30
0.0
 11
-248.622618
 21
-166.971995
 31
0.0
  0
LINE
  5
203
100
AcDbEntity
  8
0
370
    -3
390
0
  6
Continuous
100
AcDbLine
 10
-242.715444
 20
-162.787877
 30
0.0
 11
-245.622618
 21
-164.620719
 31
0.0
  0
LINE
  5
204
100
AcDbEntity
  8
0
370
    -3
390
0
  6
Continuous
100
AcDbLine
 10
-245.622618
 20
-164.620719
 30
0.0
 11
-242.622618
 21
-166.971995
 31
0.0
  0
ELLIPSE
  5
205
100
AcDbEntity
  8
0
370
    -3
390
0
  6
Continuous
100
AcDbEllipse
 10
-245.622618
 20
-167.378436
 30
0.0
 11
6.25
 21
0.0
 31
0.0
210
0.0
220
0.0
230
1.0
 40
0.707107
 41
2.4008084267828176
 42
0.7407842268069759
  0
ELLIPSE
  5
206
100
AcDbEntity
  8
0
370
    -3
390
0
  6
Continuous
100
AcDbEllipse
 10
-245.622618
 20
-166.560306
 30
0.0
 11
5.25
 21
0.0
 31
0.0
210
0.0
220
0.0
230
1.0
 40
0.862941
 41
0.0
 42
6.2831853071795862
  0
LINE
  5
207
100
AcDbEntity
  8
0
370
    -3
390
0
  6
Continuous
100
AcDbLine
 10
-251.872618
 20
-168.509807
 30
0.0
 11
-251.872618
 21
-167.378436
 31
0.0
  0
LINE
  5
208
100
AcDbEntity
  8
0
370
    -3
390
0
  6
Continuous
100
AcDbLine
 10
-239.372618
 20
-168.509807
 30
0.0
 11
-239.372618
 21
-167.378436
 31
0.0
  0
ELLIPSE
  5
209
100
AcDbEntity
  8
0
370
    -3
390
0
  6
Continuous
100
AcDbEllipse
 10
-245.622618
 20
-168.509807
 30
0.0
 11
6.25
 21
0.0
 31
0.0
210
0.0
220
0.0
230
1.0
 40
0.707107
 41
3.1415926535897931
 42
0.0
  0
ELLIPSE
  5
20A
100
AcDbEntity
  8
0
370
    -3
390
0
  6
Continuous
100
AcDbEllipse
 10
-245.622618
 20
-168.613361
 30
0.0
 11
7.0
 21
0.0
 31
0.0
210
0.0
220
0.0
230
1.0
 40
0.692313
 41
2.5951530371913898
 42
3.1415926535897931
  0
ELLIPSE
  5
20B
100
AcDbEntity
  8
0
370
    -3
390
0
  6
Continuous
100
AcDbEllipse
 10
-245.622618
 20
-168.613361
 30
0.0
 11
7.0
 21
0.0
 31
0.0
210
0.0
220
0.0
230
1.0
 40
0.692313
 41
0.0
 42
0.5464396163984711
  0
ELLIPSE
  5
20C
100
AcDbEntity
  8
0
370
    -3
390
0
  6
Continuous
100
AcDbEllipse
 10
-245.622618
 20
-168.613361
 30
0.0
 11
7.0
 21
0.0
 31
0.0
210
0.0
220
0.0
230
1.0
 40
0.692313
 41
3.1415926535897931
 42
0.0
  0
ELLIPSE
  5
20D
100
AcDbEntity
  8
0
370
    -3
390
0
  6
Continuous
100
AcDbEllipse
 10
-245.622618
 20
-170.254717
 30
0.0
 11
7.0
 21
0.0
 31
0.0
210
0.0
220
0.0
230
1.0
 40
0.707107
 41
3.1415926535897931
 42
0.0
  0
LINE
  5
20E
100
AcDbEntity
  8
0
370
    -3
390
0
  6
Continuous
100
AcDbLine
 10
-252.622618
 20
-170.254717
 30
0.0
 11
-252.622618
 21
-168.613361
 31
0.0
  0
LINE
  5
20F
100
AcDbEntity
  8
0
370
    -3
390
0
  6
Continuous
100
AcDbLine
 10
-238.622618
 20
-170.254717
 30
0.0
 11
-238.622618
 21
-168.613361
 31
0.0
  0
ARC
  5
210
100
AcDbEntity
  8
0
370
    -3
390
0
  6
Continuous
100
AcDbCircle
 10
-394.422618
 20
-386.928333
 30
0.0
 40
6.2
100
AcDbArc
 50
180.0
 51
240.0
  0
LINE
  5
211
100
AcDbEntity
  8
0
370
    -3
390
0
  6
Continuous
100
AcDbLine
 10
-338.827699
 20
-410.715164
 30
0.0
 11
-203.622618
 21
-410.715164
 31
0.0
  0
LINE
  5
212
100
AcDbEntity
  8
0
370
    -3
390
0
  6
Continuous
100
AcDbLine
 10
-203.622618
 20
-409.515164
 30
0.0
 11
-203.622618
 21
-410.715164
 31
0.0
  0
LINE
  5
213
100
AcDbEntity
  8
0
370
    -3
390
0
  6
Continuous
100
AcDbLine
 10
-203.622618
 20
-338.714455
 30
0.0
 11
-203.622618
 21
-409.515164
 31
0.0
  0
LINE
  5
214
100
AcDbEntity
  8
0
370
    -3
390
0
  6
Continuous
100
AcDbLine
 10
-389.106159
 20
-397.156935
 30
0.0
 11
-397.522618
 21
-392.297691
 31
0.0
  0
ARC
  5
215
100
AcDbEntity
  8
0
370
    -3
390
0
  6
Continuous
100
AcDbCircle
 10
-338.506159
 20
-309.515164
 30
0.0
 40
101.2
100
AcDbArc
 50
240.0
 51
270.0
  0
LINE
  5
216
100
AcDbEntity
  8
0
370
    -3
390
0
  6
Continuous
100
AcDbLine
 10
-400.622618
 20
-273.515164
 30
0.0
 11
-400.622618
 21
-386.928333
 31
0.0
  0
ARC
  5
217
100
AcDbEntity
  8
0
370
    -3
390
0
  6
Continuous
100
AcDbCircle
 10
-394.422618
 20
-160.101995
 30
0.0
 40
6.2
100
AcDbArc
 50
120.0
 51
180.0
  0
LINE
  5
218
100
AcDbEntity
  8
0
370
    -3
390
0
  6
Continuous
100
AcDbLine
 10
-338.827699
 20
-136.315164
 30
0.0
 11
-203.622618
 21
-136.315164
 31
0.0
  0
LINE
  5
219
100
AcDbEntity
  8
0
370
    -3
390
0
  6
Continuous
100
AcDbLine
 10
-203.622618
 20
-137.515164
 30
0.0
 11
-203.622618
 21
-136.315164
 31
0.0
  0
LINE
  5
21A
100
AcDbEntity
  8
0
370
    -3
390
0
  6
Continuous
100
AcDbLine
 10
-389.106159
 20
-149.873393
 30
0.0
 11
-397.522618
 21
-154.732638
 31
0.0
  0
ARC
  5
21B
100
AcDbEntity
  8
0
370
    -3
390
0
  6
Continuous
100
AcDbCircle
 10
-338.506159
 20
-237.515164
 30
0.0
 40
101.2
100
AcDbArc
 50
90.0
 51
120.0
  0
LINE
  5
21C
100
AcDbEntity
  8
0
370
    -3
390
0
  6
Continuous
100
AcDbLine
 10
-400.622618
 20
-273.515164
 30
0.0
 11
-400.622618
 21
-160.101995
 31
0.0
  0
LINE
  5
21D
100
AcDbEntity
  8
0
370
    -3
390
0
  6
Continuous
100
AcDbLine
 10
-174.33601
 20
-437.863561
 30
0.0
 11
-177.620158
 21
-438.743546
 31
0.0
  0
LINE
  5
21E
100
AcDbEntity
  8
0
370
    -3
390
0
  6
Continuous
100
AcDbLine
 10
-182.696013
 20
-439.14849
 30
0.0
 11
-186.096013
 21
-439.14849
 31
0.0
  0
LINE
  5
21F
100
AcDbEntity
  8
0
370
    -3
390
0
  6
Continuous
100
AcDbLine
 10
-194.456016
 20
-437.863561
 30
0.0
 11
-191.171869
 21
-438.743546
 31
0.0
  0
ARC
  5
220
100
AcDbEntity
  8
0
370
    -3
390
0
  6
Continuous
100
AcDbCircle
 10
-182.193338
 20
-440.99472
 30
0.0
 40
5.0
100
AcDbArc
 50
333.111403
 51
15.0
  0
ARC
  5
221
100
AcDbEntity
  8
0
370
    -3
390
0
  6
Continuous
100
AcDbCircle
 10
-169.249932
 20
-437.526544
 30
0.0
 40
5.0
100
AcDbArc
 50
195.0
 51
236.888597
  0
ARC
  5
222
100
AcDbEntity
  8
0
370
    -3
390
0
  6
Continuous
100
AcDbCircle
 10
-174.16635
 20
-445.065034
 30
0.0
 40
4.0
100
AcDbArc
 50
153.111403
 51
56.888597
  0
CIRCLE
  5
223
100
AcDbEntity
  8
0
370
    -3
390
0
  6
Continuous
100
AcDbCircle
 10
-174.16635
 20
-445.065034
 30
0.0
 40
2.15
  0
ARC
  5
224
100
AcDbEntity
  8
0
370
    -3
390
0
  6
Continuous
100
AcDbCircle
 10
-186.598688
 20
-440.99472
 30
0.0
 40
5.0
100
AcDbArc
 50
165.0
 51
206.888597
  0
ARC
  5
225
100
AcDbEntity
  8
0
370
    -3
390
0
  6
Continuous
100
AcDbCircle
 10
-199.542094
 20
-437.526544
 30
0.0
 40
5.0
100
AcDbArc
 50
303.111403
 51
345.0
  0
ARC
  5
226
100
AcDbEntity
  8
0
370
    -3
390
0
  6
Continuous
100
AcDbCircle
 10
-194.625676
 20
-445.065034
 30
0.0
 40
4.0
100
AcDbArc
 50
123.111403
 51
26.888597
  0
CIRCLE
  5
227
100
AcDbEntity
  8
0
370
    -3
390
0
  6
Continuous
100
AcDbCircle
 10
-194.625676
 20
-445.065034
 30
0.0
 40
2.15
  0
ARC
  5
228
100
AcDbEntity
  8
0
370
    -3
390
0
  6
Continuous
100
AcDbCircle
 10
-191.096013
 20
-440.13933
 30
0.0
 40
5.0
100
AcDbArc
 50
318.111403
 51
0.0
  0
ARC
  5
229
100
AcDbEntity
  8
0
370
    -3
390
0
  6
Continuous
100
AcDbCircle
 10
-184.396013
 20
-446.14849
 30
0.0
 40
4.0
100
AcDbArc
 50
138.111403
 51
41.888597
  0
CIRCLE
  5
22A
100
AcDbEntity
  8
0
370
    -3
390
0
  6
Continuous
100
AcDbCircle
 10
-184.396013
 20
-446.14849
 30
0.0
 40
2.15
  0
ARC
  5
22B
100
AcDbEntity
  8
0
370
    -3
390
0
  6
Continuous
100
AcDbCircle
 10
-177.696013
 20
-440.13933
 30
0.0
 40
5.0
100
AcDbArc
 50
180.0
 51
221.888597
  0
LINE
  5
22C
100
AcDbEntity
  8
0
370
    -3
390
0
  6
Continuous
100
AcDbLine
 10
-183.846013
 20
-434.34849
 30
0.0
 11
-183.846013
 21
-414.351515
 31
0.0
  0
LINE
  5
22D
100
AcDbEntity
  8
0
370
    -3
390
0
  6
Continuous
100
AcDbLine
 10
-184.946013
 20
-434.34849
 30
0.0
 11
-184.946013
 21
-414.351515
 31
0.0
  0
LINE
  5
22E
100
AcDbEntity
  8
0
370
    -3
390
0
  6
Continuous
100
AcDbLine
 10
-176.689156
 20
-433.524759
 30
0.0
 11
-181.826611
 21
-414.351515
 31
0.0
  0
LINE
  5
22F
100
AcDbEntity
  8
0
370
    -3
390
0
  6
Continuous
100
AcDbLine
 10
-177.751674
 20
-433.80946
 30
0.0
 11
-182.965415
 21
-414.351515
 31
0.0
  0
LINE
  5
230
100
AcDbEntity
  8
0
370
    -3
390
0
  6
Continuous
100
AcDbLine
 10
-175.578341
 20
-433.227117
 30
0.0
 11
-178.862489
 21
-434.107102
 31
0.0
  0
LINE
  5
231
100
AcDbEntity
  8
0
370
    -3
390
0
  6
Continuous
100
AcDbLine
 10
-178.862489
 20
-434.107102
 30
0.0
 11
-177.363709
 21
-439.700624
 31
0.0
  0
LINE
  5
232
100
AcDbEntity
  8
0
370
    -3
390
0
  6
Continuous
100
AcDbLine
 10
-177.220415
 20
-433.66711
 30
0.0
 11
-175.978084
 21
-438.303554
 31
0.0
  0
LINE
  5
233
100
AcDbEntity
  8
0
370
    -3
390
0
  6
Continuous
100
AcDbLine
 10
-175.578341
 20
-433.227117
 30
0.0
 11
-174.079562
 21
-438.82064
 31
0.0
  0
LINE
  5
234
100
AcDbEntity
  8
0
370
    -3
390
0
  6
CENTER
100
AcDbLine
 10
-175.578341
 20
-433.227117
 30
0.0
 11
-178.862489
 21
-434.107102
 31
0.0
  0
LINE
  5
235
100
AcDbEntity
  8
0
370
    -3
390
0
  6
Continuous
100
AcDbLine
 10
-175.578341
 20
-433.227117
 30
0.0
 11
-178.862489
 21
-434.107102
 31
0.0
  0
LINE
  5
236
100
AcDbEntity
  8
0
370
    -3
390
0
  6
Continuous
100
AcDbLine
 10
-192.10287
 20
-433.524759
 30
0.0
 11
-186.965415
 21
-414.351515
 31
0.0
  0
LINE
  5
237
100
AcDbEntity
  8
0
370
    -3
390
0
  6
Continuous
100
AcDbLine
 10
-191.040352
 20
-433.80946
 30
0.0
 11
-185.826611
 21
-414.351515
 31
0.0
  0
LINE
  5
238
100
AcDbEntity
  8
0
370
    -3
390
0
  6
Continuous
100
AcDbLine
 10
-193.213685
 20
-433.227117
 30
0.0
 11
-189.929537
 21
-434.107102
 31
0.0
  0
LINE
  5
239
100
AcDbEntity
  8
0
370
    -3
390
0
  6
Continuous
100
AcDbLine
 10
-189.929537
 20
-434.107102
 30
0.0
 11
-191.428317
 21
-439.700624
 31
0.0
  0
LINE
  5
23A
100
AcDbEntity
  8
0
370
    -3
390
0
  6
Continuous
100
AcDbLine
 10
-191.571611
 20
-433.66711
 30
0.0
 11
-192.813943
 21
-438.303554
 31
0.0
  0
LINE
  5
23B
100
AcDbEntity
  8
0
370
    -3
390
0
  6
Continuous
100
AcDbLine
 10
-193.213685
 20
-433.227117
 30
0.0
 11
-194.712465
 21
-438.82064
 31
0.0
  0
LINE
  5
23C
100
AcDbEntity
  8
0
370
    -3
390
0
  6
CENTER
100
AcDbLine
 10
-193.213685
 20
-433.227117
 30
0.0
 11
-189.929537
 21
-434.107102
 31
0.0
  0
LINE
  5
23D
100
AcDbEntity
  8
0
370
    -3
390
0
  6
Continuous
100
AcDbLine
 10
-193.213685
 20
-433.227117
 30
0.0
 11
-189.929537
 21
-434.107102
 31
0.0
  0
LINE
  5
23E
100
AcDbEntity
  8
0
370
    -3
390
0
  6
Continuous
100
AcDbLine
 10
-186.096013
 20
-434.34849
 30
0.0
 11
-186.096013
 21
-440.13933
 31
0.0
  0
LINE
  5
23F
100
AcDbEntity
  8
0
370
    -3
390
0
  6
Continuous
100
AcDbLine
 10
-182.696013
 20
-434.34849
 30
0.0
 11
-186.096013
 21
-434.34849
 31
0.0
  0
LINE
  5
240
100
AcDbEntity
  8
0
370
    -3
390
0
  6
Continuous
100
AcDbLine
 10
-182.696013
 20
-434.34849
 30
0.0
 11
-182.696013
 21
-440.13933
 31
0.0
  0
LINE
  5
241
100
AcDbEntity
  8
0
370
    -3
390
0
  6
Continuous
100
AcDbLine
 10
-184.396013
 20
-434.34849
 30
0.0
 11
-184.396013
 21
-439.14849
 31
0.0
  0
LINE
  5
242
100
AcDbEntity
  8
0
370
    -3
390
0
  6
CENTER
100
AcDbLine
 10
-182.696013
 20
-434.34849
 30
0.0
 11
-186.096013
 21
-434.34849
 31
0.0
  0
LINE
  5
243
100
AcDbEntity
  8
0
370
    -3
390
0
  6
Continuous
100
AcDbLine
 10
-179.696013
 20
-377.441959
 30
0.0
 11
-179.696013
 21
-414.351515
 31
0.0
  0
LINE
  5
244
100
AcDbEntity
  8
0
370
    -3
390
0
  6
Continuous
100
AcDbLine
 10
-189.096013
 20
-377.441959
 30
0.0
 11
-189.096013
 21
-414.351515
 31
0.0
  0
LINE
  5
245
100
AcDbEntity
  8
0
370
    -3
390
0
  6
Continuous
100
AcDbLine
 10
-179.696013
 20
-414.351515
 30
0.0
 11
-189.096013
 21
-414.351515
 31
0.0
  0
ARC
  5
246
100
AcDbEntity
  8
0
370
    -3
390
0
  6
Continuous
100
AcDbCircle
 10
-199.096013
 20
-377.441959
 30
0.0
 40
19.4
100
AcDbArc
 50
0.0
 51
90.0
  0
ARC
  5
247
100
AcDbEntity
  8
0
370
    -3
390
0
  6
Continuous
100
AcDbCircle
 10
-199.096013
 20
-377.441959
 30
0.0
 40
10.0
100
AcDbArc
 50
0.0
 51
90.0
  0
LINE
  5
248
100
AcDbEntity
  8
0
370
    -3
390
0
  6
Continuous
100
AcDbLine
 10
-203.622618
 20
-358.041959
 30
0.0
 11
-199.096013
 21
-358.041959
 31
0.0
  0
LINE
  5
249
100
AcDbEntity
  8
0
370
    -3
390
0
  6
Continuous
100
AcDbLine
 10
-203.622618
 20
-367.441959
 30
0.0
 11
-199.096013
 21
-367.441959
 31
0.0
  0
LINE
  5
24A
100
AcDbEntity
  8
0
370
    -3
390
0
  6
Continuous
100
AcDbLine
 10
-179.696013
 20
-391.515164
 30
0.0
 11
62.377382
 21
-391.515164
 31
0.0
  0
LINE
  5
24B
100
AcDbEntity
  8
0
370
    -3
390
0
  6
Continuous
100
AcDbLine
 10
-179.696013
 20
-397.515164
 30
0.0
 11
62.377382
 21
-397.515164
 31
0.0
  0
LINE
  5
24C
100
AcDbEntity
  8
0
370
    -3
390
0
  6
Continuous
100
AcDbLine
 10
-179.696013
 20
-401.515164
 30
0.0
 11
62.377382
 21
-401.515164
 31
0.0
  0
LINE
  5
24D
100
AcDbEntity
  8
0
370
    -3
390
0
  6
Continuous
100
AcDbLine
 10
-179.696013
 20
-403.015164
 30
0.0
 11
62.377382
 21
-403.015164
 31
0.0
  0
LINE
  5
24E
100
AcDbEntity
  8
0
370
    -3
390
0
  6
Continuous
100
AcDbLine
 10
-179.696013
 20
-406.515164
 30
0.0
 11
62.377382
 21
-406.515164
 31
0.0
  0
ARC
  5
24F
100
AcDbEntity
  8
0
370
    -3
390
0
  6
Continuous
100
AcDbCircle
 10
-143.422618
 20
-242.473237
 30
0.0
 40
8.8
100
AcDbArc
 50
0.0
 51
90.0
  0
ARC
  5
250
100
AcDbEntity
  8
0
370
    -3
390
0
  6
Continuous
100
AcDbCircle
 10
-141.622618
 20
-240.550541
 30
0.0
 40
4.8
100
AcDbArc
 50
0.0
 51
90.0
  0
ARC
  5
251
100
AcDbEntity
  8
0
370
    -3
390
0
  6
Continuous
100
AcDbCircle
 10
-141.622618
 20
-256.787275
 30
0.0
 40
4.8
100
AcDbArc
 50
0.0
 51
90.0
  0
LINE
  5
252
100
AcDbEntity
  8
0
370
    -3
390
0
  6
Continuous
100
AcDbLine
 10
-134.622618
 20
-242.473237
 30
0.0
 11
-134.622618
 21
-329.914455
 31
0.0
  0
LINE
  5
253
100
AcDbEntity
  8
0
370
    -3
390
0
  6
Continuous
100
AcDbLine
 10
-136.822618
 20
-240.550541
 30
0.0
 11
-136.822618
 21
-325.239522
 31
0.0
  0
ARC
  5
254
100
AcDbEntity
  8
0
370
    -3
390
0
  6
Continuous
100
AcDbCircle
 10
-143.422618
 20
-329.914455
 30
0.0
 40
8.8
100
AcDbArc
 50
270.0
 51
0.0
  0
ARC
  5
255
100
AcDbEntity
  8
0
370
    -3
390
0
  6
Continuous
100
AcDbCircle
 10
-143.422618
 20
-328.308506
 30
0.0
 40
8.8
100
AcDbArc
 50
270.0
 51
0.0
  0
ARC
  5
256
100
AcDbEntity
  8
0
370
    -3
390
0
  6
Continuous
100
AcDbCircle
 10
-141.622618
 20
-325.239522
 30
0.0
 40
4.8
100
AcDbArc
 50
270.0
 51
0.0
  0
LINE
  5
257
100
AcDbEntity
  8
0
370
    -3
390
0
  6
Continuous
100
AcDbLine
 10
-223.822618
 20
-338.714455
 30
0.0
 11
-143.422618
 21
-338.714455
 31
0.0
  0
ARC
  5
258
100
AcDbEntity
  8
0
370
    -3
390
0
  6
Continuous
100
AcDbCircle
 10
-223.822618
 20
-329.914455
 30
0.0
 40
8.8
100
AcDbArc
 50
180.0
 51
270.0
  0
ARC
  5
259
100
AcDbEntity
  8
0
370
    -3
390
0
  6
Continuous
100
AcDbCircle
 10
-223.822618
 20
-328.308506
 30
0.0
 40
8.8
100
AcDbArc
 50
180.0
 51
270.0
  0
LINE
  5
25A
100
AcDbEntity
  8
0
370
    -3
390
0
  6
Continuous
100
AcDbLine
 10
-143.422618
 20
-337.108506
 30
0.0
 11
-223.822618
 21
-337.108506
 31
0.0
  0
ARC
  5
25B
100
AcDbEntity
  8
0
370
    -3
390
0
  6
Continuous
100
AcDbCircle
 10
-225.622618
 20
-325.239522
 30
0.0
 40
4.8
100
AcDbArc
 50
180.0
 51
270.0
  0
ARC
  5
25C
100
AcDbEntity
  8
0
370
    -3
390
0
  6
Continuous
100
AcDbCircle
 10
-172.304832
 20
-326.039522
 30
0.0
 40
4.0
100
AcDbArc
 50
200.586606
 51
270.0
  0
LINE
  5
25D
100
AcDbEntity
  8
0
370
    -3
390
0
  6
Continuous
100
AcDbLine
 10
-141.622618
 20
-330.039522
 30
0.0
 11
-173.068965
 21
-330.039522
 31
0.0
  0
ARC
  5
25E
100
AcDbEntity
  8
0
370
    -3
390
0
  6
Continuous
100
AcDbCircle
 10
-173.068965
 20
-326.039522
 30
0.0
 40
4.0
100
AcDbArc
 50
209.986604
 51
270.0
  0
ELLIPSE
  5
25F
100
AcDbEntity
  8
0
370
    -3
390
0
  6
Continuous
100
AcDbEllipse
 10
-183.622618
 20
-331.398767
 30
0.0
 11
8.0
 21
0.0
 31
0.0
210
0.0
220
0.0
230
1.0
 40
0.906308
 41
0.4818578688787365
 42
2.6597347847155315
  0
ARC
  5
260
100
AcDbEntity
  8
0
370
    -3
390
0
  6
Continuous
100
AcDbCircle
 10
-194.176271
 20
-326.039522
 30
0.0
 40
4.0
100
AcDbArc
 50
270.0
 51
330.013396
  0
LINE
  5
261
100
AcDbEntity
  8
0
370
    -3
390
0
  6
Continuous
100
AcDbLine
 10
-194.940404
 20
-330.039522
 30
0.0
 11
-225.622618
 21
-330.039522
 31
0.0
  0
ELLIPSE
  5
262
100
AcDbEntity
  8
0
370
    -3
390
0
  6
Continuous
100
AcDbEllipse
 10
-183.622618
 20
-329.782522
 30
0.0
 11
8.0
 21
0.0
 31
0.0
210
0.0
220
0.0
230
1.0
 40
0.906308
 41
0.3281121824263321
 42
2.8134804711640689
  0
ARC
  5
263
100
AcDbEntity
  8
0
370
    -3
390
0
  6
Continuous
100
AcDbCircle
 10
-194.940404
 20
-326.039522
 30
0.0
 40
4.0
100
AcDbArc
 50
270.0
 51
339.413394
  0
ELLIPSE
  5
264
100
AcDbEntity
  8
0
370
    -3
390
0
  6
Continuous
100
AcDbEllipse
 10
-183.622618
 20
-331.13099
 30
0.0
 11
3.5
 21
0.0
 31
0.0
210
0.0
220
0.0
230
1.0
 40
0.982815
 41
0.0
 42
6.2831853071795862
  0
LINE
  5
265
100
AcDbEntity
  8
0
370
    -3
390
0
  6
Continuous
100
AcDbLine
 10
-181.622618
 20
-332.207679
 30
0.0
 11
-183.622618
 21
-330.299959
 31
0.0
  0
LINE
  5
266
100
AcDbEntity
  8
0
370
    -3
390
0
  6
Continuous
100
AcDbLine
 10
-183.622618
 20
-330.299959
 30
0.0
 11
-185.622618
 21
-328.582448
 31
0.0
  0
LINE
  5
267
100
AcDbEntity
  8
0
370
    -3
390
0
  6
Continuous
100
AcDbLine
 10
-181.622618
 20
-328.582448
 30
0.0
 11
-183.622618
 21
-330.299959
 31
0.0
  0
LINE
  5
268
100
AcDbEntity
  8
0
370
    -3
390
0
  6
Continuous
100
AcDbLine
 10
-183.622618
 20
-330.299959
 30
0.0
 11
-185.622618
 21
-332.207679
 31
0.0
  0
LINE
  5
269
100
AcDbEntity
  8
0
370
    -3
390
0
  6
CENTER
100
AcDbLine
 10
-183.622618
 20
-226.863433
 30
0.0
 11
-183.622618
 21
-347.503513
 31
0.0
  0
POINT
  5
26A
100
AcDbEntity
  8
0
370
    -3
390
0
  6
CENTER
100
AcDbPoint
 10
-197.003811
 20
-336.760858
 30
0.0
  0
POINT
  5
26B
100
AcDbEntity
  8
0
370
    -3
390
0
  6
CENTER
100
AcDbPoint
 10
-170.003811
 20
-336.760858
 30
0.0
  0
LINE
  5
26C
100
AcDbEntity
  8
0
370
    -3
390
0
  6
Continuous
100
AcDbLine
 10
-232.622618
 20
-242.473237
 30
0.0
 11
-232.622618
 21
-329.914455
 31
0.0
  0
LINE
  5
26D
100
AcDbEntity
  8
0
370
    -3
390
0
  6
Continuous
100
AcDbLine
 10
-223.822618
 20
-233.673237
 30
0.0
 11
-143.422618
 21
-233.673237
 31
0.0
  0
ARC
  5
26E
100
AcDbEntity
  8
0
370
    -3
390
0
  6
Continuous
100
AcDbCircle
 10
-223.822618
 20
-242.473237
 30
0.0
 40
8.8
100
AcDbArc
 50
90.0
 51
180.0
  0
LINE
  5
26F
100
AcDbEntity
  8
0
370
    -3
390
0
  6
Continuous
100
AcDbLine
 10
-230.422618
 20
-240.550541
 30
0.0
 11
-230.422618
 21
-325.239522
 31
0.0
  0
ARC
  5
270
100
AcDbEntity
  8
0
370
    -3
390
0
  6
Continuous
100
AcDbCircle
 10
-225.622618
 20
-240.550541
 30
0.0
 40
4.8
100
AcDbArc
 50
90.0
 51
180.0
  0
LINE
  5
271
100
AcDbEntity
  8
0
370
    -3
390
0
  6
Continuous
100
AcDbLine
 10
-225.622618
 20
-235.750541
 30
0.0
 11
-141.622618
 21
-235.750541
 31
0.0
  0
LINE
  5
272
100
AcDbEntity
  8
0
370
    -3
390
0
  6
Continuous
100
AcDbLine
 10
-225.622618
 20
-251.987275
 30
0.0
 11
-141.622618
 21
-251.987275
 31
0.0
  0
ARC
  5
273
100
AcDbEntity
  8
0
370
    -3
390
0
  6
Continuous
100
AcDbCircle
 10
-225.622618
 20
-256.787275
 30
0.0
 40
4.8
100
AcDbArc
 50
90.0
 51
180.0
  0
LINE
  5
274
100
AcDbEntity
  8
0
370
    -3
390
0
  6
CENTER
100
AcDbLine
 10
237.186321
 20
102.030471
 30
0.0
 11
326.306375
 21
102.030471
 31
0.0
  0
LINE
  5
275
100
AcDbEntity
  8
0
370
    -3
390
0
  6
CENTER
100
AcDbLine
 10
237.186321
 20
490.939201
 30
0.0
 11
326.306375
 21
490.939201
 31
0.0
  0
LINE
  5
276
100
AcDbEntity
  8
0
370
    -3
390
0
  6
Continuous
100
AcDbLine
 10
-592.988545
 20
-384.071309
 30
0.0
 11
-584.14971
 21
-375.232475
 31
0.0
  0
LINE
  5
277
100
AcDbEntity
  8
0
370
    -3
390
0
  6
Continuous
100
AcDbLine
 10
-585.104304
 20
-373.924327
 30
0.0
 11
-594.296693
 21
-383.116715
 31
0.0
  0
LINE
  5
278
100
AcDbEntity
  8
0
370
    -3
390
0
  6
Continuous
100
AcDbLine
 10
-594.119916
 20
-382.939939
 30
0.0
 11
-592.988545
 21
-384.071309
 31
0.0
  0
ARC
  5
279
100
AcDbEntity
  8
0
370
    -3
390
0
  6
Continuous
100
AcDbCircle
 10
-594.650246
 20
-382.763162
 30
0.0
 40
0.5
100
AcDbArc
 50
225.0
 51
315.0
  0
ARC
  5
27A
100
AcDbEntity
  8
0
370
    -3
390
0
  6
Continuous
100
AcDbCircle
 10
-589.858171
 20
-383.100463
 30
0.0
 40
1.9
100
AcDbArc
 50
224.999982
 51
298.927108
  0
LINE
  5
27B
100
AcDbEntity
  8
0
370
    -3
390
0
  6
Continuous
100
AcDbLine
 10
-592.281438
 20
-383.364202
 30
0.0
 11
-591.201674
 21
-384.443966
 31
0.0
  0
ARC
  5
27C
100
AcDbEntity
  8
0
370
    -3
390
0
  6
Continuous
100
AcDbCircle
 10
-585.120557
 20
-378.362849
 30
0.0
 40
1.9
100
AcDbArc
 50
331.07282
 51
45.000001
  0
ARC
  5
27D
100
AcDbEntity
  8
0
370
    -3
390
0
  6
Continuous
100
AcDbCircle
 10
-595.710906
 20
-372.510114
 30
0.0
 40
14.0
100
AcDbArc
 50
298.927163
 51
331.07282
  0
LINE
  5
27E
100
AcDbEntity
  8
0
370
    -3
390
0
  6
Continuous
100
AcDbLine
 10
-585.281081
 20
-374.101104
 30
0.0
 11
-584.14971
 21
-375.232475
 31
0.0
  0
LINE
  5
27F
100
AcDbEntity
  8
0
370
    -3
390
0
  6
Continuous
100
AcDbLine
 10
-585.104304
 20
-373.21722
 30
0.0
 11
-586.495661
 21
-371.825864
 31
0.0
  0
ARC
  5
280
100
AcDbEntity
  8
0
370
    -3
390
0
  6
Continuous
100
AcDbCircle
 10
-585.457858
 20
-373.570774
 30
0.0
 40
0.5
100
AcDbArc
 50
315.0
 51
45.0
  0
LINE
  5
281
100
AcDbEntity
  8
0
370
    -3
390
0
  6
Continuous
100
AcDbLine
 10
-584.856818
 20
-375.939582
 30
0.0
 11
-583.777054
 21
-377.019346
 31
0.0
  0
LINE
  5
282
100
AcDbEntity
  8
0
370
    -3
390
0
  6
Continuous
100
AcDbLine
 10
-595.003799
 20
-383.116715
 30
0.0
 11
-596.395156
 21
-381.725359
 31
0.0
  0
LINE
  5
283
100
AcDbEntity
  8
0
370
    -3
390
0
  6
Continuous
100
AcDbLine
 10
-796.423166
 20
-384.071309
 30
0.0
 11
-805.262001
 21
-375.232475
 31
0.0
  0
LINE
  5
284
100
AcDbEntity
  8
0
370
    -3
390
0
  6
Continuous
100
AcDbLine
 10
-804.307407
 20
-373.924327
 30
0.0
 11
-795.115018
 21
-383.116715
 31
0.0
  0
LINE
  5
285
100
AcDbEntity
  8
0
370
    -3
390
0
  6
Continuous
100
AcDbLine
 10
-795.291795
 20
-382.939939
 30
0.0
 11
-796.423166
 21
-384.071309
 31
0.0
  0
ARC
  5
286
100
AcDbEntity
  8
0
370
    -3
390
0
  6
Continuous
100
AcDbCircle
 10
-794.761465
 20
-382.763162
 30
0.0
 40
0.5
100
AcDbArc
 50
225.0
 51
315.0
  0
ARC
  5
287
100
AcDbEntity
  8
0
370
    -3
390
0
  6
Continuous
100
AcDbCircle
 10
-799.55354
 20
-383.100463
 30
0.0
 40
1.9
100
AcDbArc
 50
241.072892
 51
315.000018
  0
LINE
  5
288
100
AcDbEntity
  8
0
370
    -3
390
0
  6
Continuous
100
AcDbLine
 10
-797.130273
 20
-383.364202
 30
0.0
 11
-798.210037
 21
-384.443966
 31
0.0
  0
ARC
  5
289
100
AcDbEntity
  8
0
370
    -3
390
0
  6
Continuous
100
AcDbCircle
 10
-804.291155
 20
-378.362849
 30
0.0
 40
1.9
100
AcDbArc
 50
134.999999
 51
208.92718
  0
ARC
  5
28A
100
AcDbEntity
  8
0
370
    -3
390
0
  6
Continuous
100
AcDbCircle
 10
-793.700805
 20
-372.510114
 30
0.0
 40
14.0
100
AcDbArc
 50
208.92718
 51
241.072837
  0
LINE
  5
28B
100
AcDbEntity
  8
0
370
    -3
390
0
  6
Continuous
100
AcDbLine
 10
-804.13063
 20
-374.101104
 30
0.0
 11
-805.262001
 21
-375.232475
 31
0.0
  0
LINE
  5
28C
100
AcDbEntity
  8
0
370
    -3
390
0
  6
Continuous
100
AcDbLine
 10
-804.307407
 20
-373.21722
 30
0.0
 11
-802.91605
 21
-371.825864
 31
0.0
  0
ARC
  5
28D
100
AcDbEntity
  8
0
370
    -3
390
0
  6
Continuous
100
AcDbCircle
 10
-803.953853
 20
-373.570774
 30
0.0
 40
0.5
100
AcDbArc
 50
135.0
 51
225.0
  0
LINE
  5
28E
100
AcDbEntity
  8
0
370
    -3
390
0
  6
Continuous
100
AcDbLine
 10
-804.554893
 20
-375.939582
 30
0.0
 11
-805.634657
 21
-377.019346
 31
0.0
  0
LINE
  5
28F
100
AcDbEntity
  8
0
370
    -3
390
0
  6
Continuous
100
AcDbLine
 10
-794.407912
 20
-383.116715
 30
0.0
 11
-793.016555
 21
-381.725359
 31
0.0
  0
LINE
  5
290
100
AcDbEntity
  8
0
370
    -3
390
0
  6
Continuous
100
AcDbLine
 10
-796.423166
 20
-162.959019
 30
0.0
 11
-805.262001
 21
-171.797854
 31
0.0
  0
LINE
  5
291
100
AcDbEntity
  8
0
370
    -3
390
0
  6
Continuous
100
AcDbLine
 10
-804.307407
 20
-173.106001
 30
0.0
 11
-795.115018
 21
-163.913613
 31
0.0
  0
LINE
  5
292
100
AcDbEntity
  8
0
370
    -3
390
0
  6
Continuous
100
AcDbLine
 10
-795.291795
 20
-164.09039
 30
0.0
 11
-796.423166
 21
-162.959019
 31
0.0
  0
ARC
  5
293
100
AcDbEntity
  8
0
370
    -3
390
0
  6
Continuous
100
AcDbCircle
 10
-794.761465
 20
-164.267166
 30
0.0
 40
0.5
100
AcDbArc
 50
45.0
 51
135.0
  0
ARC
  5
294
100
AcDbEntity
  8
0
370
    -3
390
0
  6
Continuous
100
AcDbCircle
 10
-799.55354
 20
-163.929865
 30
0.0
 40
1.9
100
AcDbArc
 50
44.999982
 51
118.927108
  0
LINE
  5
295
100
AcDbEntity
  8
0
370
    -3
390
0
  6
Continuous
100
AcDbLine
 10
-797.130273
 20
-163.666126
 30
0.0
 11
-798.210037
 21
-162.586363
 31
0.0
  0
ARC
  5
296
100
AcDbEntity
  8
0
370
    -3
390
0
  6
Continuous
100
AcDbCircle
 10
-804.291155
 20
-168.66748
 30
0.0
 40
1.9
100
AcDbArc
 50
151.07282
 51
225.000001
  0
ARC
  5
297
100
AcDbEntity
  8
0
370
    -3
390
0
  6
Continuous
100
AcDbCircle
 10
-793.700805
 20
-174.520214
 30
0.0
 40
14.0
100
AcDbArc
 50
118.927163
 51
151.07282
  0
LINE
  5
298
100
AcDbEntity
  8
0
370
    -3
390
0
  6
Continuous
100
AcDbLine
 10
-804.13063
 20
-172.929225
 30
0.0
 11
-805.262001
 21
-171.797854
 31
0.0
  0
LINE
  5
299
100
AcDbEntity
  8
0
370
    -3
390
0
  6
Continuous
100
AcDbLine
 10
-804.307407
 20
-173.813108
 30
0.0
 11
-802.91605
 21
-175.204464
 31
0.0
  0
ARC
  5
29A
100
AcDbEntity
  8
0
370
    -3
390
0
  6
Continuous
100
AcDbCircle
 10
-803.953853
 20
-173.459555
 30
0.0
 40
0.5
100
AcDbArc
 50
135.0
 51
225.0
  0
LINE
  5
29B
100
AcDbEntity
  8
0
370
    -3
390
0
  6
Continuous
100
AcDbLine
 10
-804.554893
 20
-171.090746
 30
0.0
 11
-805.634657
 21
-170.010982
 31
0.0
  0
LINE
  5
29C
100
AcDbEntity
  8
0
370
    -3
390
0
  6
Continuous
100
AcDbLine
 10
-794.407912
 20
-163.913613
 30
0.0
 11
-793.016555
 21
-165.304969
 31
0.0
  0
ARC
  5
29D
100
AcDbEntity
  8
0
370
    -3
390
0
  6
Continuous
100
AcDbCircle
 10
-694.705856
 20
-273.515164
 30
0.0
 40
146.2
100
AcDbArc
 50
128.578295
 51
141.421705
  0
CIRCLE
  5
29E
100
AcDbEntity
  8
0
370
    -3
390
0
  6
Continuous
100
AcDbCircle
 10
-694.705856
 20
-273.515164
 30
0.0
 40
7.5
  0
ARC
  5
29F
100
AcDbEntity
  8
0
370
    -3
390
0
  6
Continuous
100
AcDbCircle
 10
-694.705856
 20
-165.015164
 30
0.0
 40
1.5
100
AcDbArc
 50
0.0
 51
180.0
  0
LINE
  5
2A0
100
AcDbEntity
  8
0
370
    -3
390
0
  6
Continuous
100
AcDbLine
 10
-693.205856
 20
-165.015164
 30
0.0
 11
-693.205856
 21
-257.015164
 31
0.0
  0
ARC
  5
2A1
100
AcDbEntity
  8
0
370
    -3
390
0
  6
Continuous
100
AcDbCircle
 10
-694.705856
 20
-257.015164
 30
0.0
 40
1.5
100
AcDbArc
 50
180.0
 51
0.0
  0
LINE
  5
2A2
100
AcDbEntity
  8
0
370
    -3
390
0
  6
Continuous
100
AcDbLine
 10
-696.205856
 20
-165.015164
 30
0.0
 11
-696.205856
 21
-257.015164
 31
0.0
  0
ARC
  5
2A3
100
AcDbEntity
  8
0
370
    -3
390
0
  6
Continuous
100
AcDbCircle
 10
-788.669612
 20
-327.765164
 30
0.0
 40
1.5
100
AcDbArc
 50
120.0
 51
300.0
  0
LINE
  5
2A4
100
AcDbEntity
  8
0
370
    -3
390
0
  6
Continuous
100
AcDbLine
 10
-789.419612
 20
-326.466126
 30
0.0
 11
-709.745275
 21
-280.466126
 31
0.0
  0
LINE
  5
2A5
100
AcDbEntity
  8
0
370
    -3
390
0
  6
Continuous
100
AcDbLine
 10
-787.919612
 20
-329.064202
 30
0.0
 11
-708.245275
 21
-283.064202
 31
0.0
  0
ARC
  5
2A6
100
AcDbEntity
  8
0
370
    -3
390
0
  6
Continuous
100
AcDbCircle
 10
-708.995275
 20
-281.765164
 30
0.0
 40
1.5
100
AcDbArc
 50
300.0
 51
120.0
  0
ARC
  5
2A7
100
AcDbEntity
  8
0
370
    -3
390
0
  6
Continuous
100
AcDbCircle
 10
-600.742099
 20
-327.765164
 30
0.0
 40
1.5
100
AcDbArc
 50
240.0
 51
60.0
  0
LINE
  5
2A8
100
AcDbEntity
  8
0
370
    -3
390
0
  6
Continuous
100
AcDbLine
 10
-601.492099
 20
-329.064202
 30
0.0
 11
-681.166436
 21
-283.064202
 31
0.0
  0
LINE
  5
2A9
100
AcDbEntity
  8
0
370
    -3
390
0
  6
Continuous
100
AcDbLine
 10
-599.992099
 20
-326.466126
 30
0.0
 11
-679.666436
 21
-280.466126
 31
0.0
  0
ARC
  5
2AA
100
AcDbEntity
  8
0
370
    -3
390
0
  6
Continuous
100
AcDbCircle
 10
-680.416436
 20
-281.765164
 30
0.0
 40
1.5
100
AcDbArc
 50
60.0
 51
240.0
  0
ARC
  5
2AB
100
AcDbEntity
  8
0
370
    -3
390
0
  6
Continuous
100
AcDbCircle
 10
-694.705856
 20
-273.515164
 30
0.0
 40
100.0
100
AcDbArc
 50
94.434512
 51
146.157713
  0
ARC
  5
2AC
100
AcDbEntity
  8
0
370
    -3
390
0
  6
Continuous
100
AcDbCircle
 10
-702.205856
 20
-176.805547
 30
0.0
 40
3.0
100
AcDbArc
 50
0.0
 51
94.434512
  0
ARC
  5
2AD
100
AcDbEntity
  8
0
370
    -3
390
0
  6
Continuous
100
AcDbCircle
 10
-775.271501
 20
-219.495013
 30
0.0
 40
3.0
100
AcDbArc
 50
146.157713
 51
240.0
  0
LINE
  5
2AE
100
AcDbEntity
  8
0
370
    -3
390
0
  6
Continuous
100
AcDbLine
 10
-776.771501
 20
-222.09309
 30
0.0
 11
-775.903505
 21
-222.594228
 31
0.0
  0
ARC
  5
2AF
100
AcDbEntity
  8
0
370
    -3
390
0
  6
Continuous
100
AcDbCircle
 10
-774.403505
 20
-219.996151
 30
0.0
 40
3.0
100
AcDbArc
 50
240.0
 51
326.117628
  0
LINE
  5
2B0
100
AcDbEntity
  8
0
370
    -3
390
0
  6
Continuous
100
AcDbLine
 10
-699.205856
 20
-176.805547
 30
0.0
 11
-699.205856
 21
-177.808581
 31
0.0
  0
ARC
  5
2B1
100
AcDbEntity
  8
0
370
    -3
390
0
  6
Continuous
100
AcDbCircle
 10
-694.705856
 20
-273.515164
 30
0.0
 40
93.0
100
AcDbArc
 50
94.480799
 51
146.117628
  0
ARC
  5
2B2
100
AcDbEntity
  8
0
370
    -3
390
0
  6
Continuous
100
AcDbCircle
 10
-702.205856
 20
-177.808581
 30
0.0
 40
3.0
100
AcDbArc
 50
274.480799
 51
0.0
  0
ARC
  5
2B3
100
AcDbEntity
  8
0
370
    -3
390
0
  6
Continuous
100
AcDbCircle
 10
-763.983867
 20
-226.011932
 30
0.0
 40
3.0
100
AcDbArc
 50
145.561961
 51
240.0
  0
LINE
  5
2B4
100
AcDbEntity
  8
0
370
    -3
390
0
  6
Continuous
100
AcDbLine
 10
-765.483867
 20
-228.610008
 30
0.0
 11
-762.008824
 21
-230.616325
 31
0.0
  0
ARC
  5
2B5
100
AcDbEntity
  8
0
370
    -3
390
0
  6
Continuous
100
AcDbCircle
 10
-760.508824
 20
-228.018249
 30
0.0
 40
3.0
100
AcDbArc
 50
240.0
 51
325.339581
  0
ARC
  5
2B6
100
AcDbEntity
  8
0
370
    -3
390
0
  6
Continuous
100
AcDbCircle
 10
-750.945876
 20
-233.53942
 30
0.0
 40
3.0
100
AcDbArc
 50
144.594556
 51
240.0
  0
LINE
  5
2B7
100
AcDbEntity
  8
0
370
    -3
390
0
  6
Continuous
100
AcDbLine
 10
-752.445876
 20
-236.137496
 30
0.0
 11
-748.965341
 21
-238.146984
 31
0.0
  0
ARC
  5
2B8
100
AcDbEntity
  8
0
370
    -3
390
0
  6
Continuous
100
AcDbCircle
 10
-747.465341
 20
-235.548907
 30
0.0
 40
3.0
100
AcDbArc
 50
240.0
 51
324.26083
  0
ARC
  5
2B9
100
AcDbEntity
  8
0
370
    -3
390
0
  6
Continuous
100
AcDbCircle
 10
-737.881199
 20
-241.082315
 30
0.0
 40
3.0
100
AcDbArc
 50
143.086522
 51
240.0
  0
LINE
  5
2BA
100
AcDbEntity
  8
0
370
    -3
390
0
  6
Continuous
100
AcDbLine
 10
-739.381199
 20
-243.680391
 30
0.0
 11
-735.889671
 21
-245.696225
 31
0.0
  0
ARC
  5
2BB
100
AcDbEntity
  8
0
370
    -3
390
0
  6
Continuous
100
AcDbCircle
 10
-734.389671
 20
-243.098149
 30
0.0
 40
3.0
100
AcDbArc
 50
240.0
 51
322.530408
  0
ARC
  5
2BC
100
AcDbEntity
  8
0
370
    -3
390
0
  6
Continuous
100
AcDbCircle
 10
-724.758446
 20
-248.65874
 30
0.0
 40
3.0
100
AcDbArc
 50
140.405932
 51
240.0
  0
LINE
  5
2BD
100
AcDbEntity
  8
0
370
    -3
390
0
  6
Continuous
100
AcDbLine
 10
-726.258446
 20
-251.256816
 30
0.0
 11
-722.73945
 21
-253.288509
 31
0.0
  0
ARC
  5
2BE
100
AcDbEntity
  8
0
370
    -3
390
0
  6
Continuous
100
AcDbCircle
 10
-721.23945
 20
-250.690433
 30
0.0
 40
3.0
100
AcDbArc
 50
240.0
 51
319.29722
  0
ARC
  5
2BF
100
AcDbEntity
  8
0
370
    -3
390
0
  6
Continuous
100
AcDbCircle
 10
-694.705856
 20
-273.515164
 30
0.0
 40
32.0
100
AcDbArc
 50
102.373625
 51
139.29722
  0
ARC
  5
2C0
100
AcDbEntity
  8
0
370
    -3
390
0
  6
Continuous
100
AcDbCircle
 10
-702.205856
 20
-239.328178
 30
0.0
 40
3.0
100
AcDbArc
 50
282.373625
 51
0.0
  0
ARC
  5
2C1
100
AcDbEntity
  8
0
370
    -3
390
0
  6
Continuous
100
AcDbCircle
 10
-694.705856
 20
-273.515164
 30
0.0
 40
42.0
100
AcDbArc
 50
101.087489
 51
140.405932
  0
LINE
  5
2C2
100
AcDbEntity
  8
0
370
    -3
390
0
  6
Continuous
100
AcDbLine
 10
-699.205856
 20
-235.243112
 30
0.0
 11
-699.205856
 21
-239.328178
 31
0.0
  0
ARC
  5
2C3
100
AcDbEntity
  8
0
370
    -3
390
0
  6
Continuous
100
AcDbCircle
 10
-702.205856
 20
-235.243112
 30
0.0
 40
3.0
100
AcDbArc
 50
0.0
 51
101.087489
  0
ARC
  5
2C4
100
AcDbEntity
  8
0
370
    -3
390
0
  6
Continuous
100
AcDbCircle
 10
-702.205856
 20
-250.717138
 30
0.0
 40
3.0
100
AcDbArc
 50
0.0
 51
108.209957
  0
LINE
  5
2C5
100
AcDbEntity
  8
0
370
    -3
390
0
  6
Continuous
100
AcDbLine
 10
-699.205856
 20
-250.717138
 30
0.0
 11
-699.205856
 21
-254.974668
 31
0.0
  0
ARC
  5
2C6
100
AcDbEntity
  8
0
370
    -3
390
0
  6
Continuous
100
AcDbCircle
 10
-702.205856
 20
-254.974668
 30
0.0
 40
3.0
100
AcDbArc
 50
292.024313
 51
0.0
  0
ARC
  5
2C7
100
AcDbEntity
  8
0
370
    -3
390
0
  6
Continuous
100
AcDbCircle
 10
-694.705856
 20
-273.515164
 30
0.0
 40
17.0
100
AcDbArc
 50
112.024313
 51
131.034425
  0
ARC
  5
2C8
100
AcDbEntity
  8
0
370
    -3
390
0
  6
Continuous
100
AcDbCircle
 10
-707.836103
 20
-258.428859
 30
0.0
 40
3.0
100
AcDbArc
 50
240.0
 51
311.034425
  0
ARC
  5
2C9
100
AcDbEntity
  8
0
370
    -3
390
0
  6
Continuous
100
AcDbCircle
 10
-694.705856
 20
-273.515164
 30
0.0
 40
27.0
100
AcDbArc
 50
108.209957
 51
134.286139
  0
LINE
  5
2CA
100
AcDbEntity
  8
0
370
    -3
390
0
  6
Continuous
100
AcDbLine
 10
-712.963667
 20
-258.93256
 30
0.0
 11
-709.336103
 21
-261.026935
 31
0.0
  0
ARC
  5
2CB
100
AcDbEntity
  8
0
370
    -3
390
0
  6
Continuous
100
AcDbCircle
 10
-711.463667
 20
-256.334484
 30
0.0
 40
3.0
100
AcDbArc
 50
134.286139
 51
240.0
  0
ARC
  5
2CC
100
AcDbEntity
  8
0
370
    -3
390
0
  6
Continuous
100
AcDbCircle
 10
-694.705856
 20
-273.515164
 30
0.0
 40
47.0
100
AcDbArc
 50
98.626927
 51
142.530408
  0
ARC
  5
2CD
100
AcDbEntity
  8
0
370
    -3
390
0
  6
Continuous
100
AcDbCircle
 10
-702.205856
 20
-224.080864
 30
0.0
 40
3.0
100
AcDbArc
 50
278.626927
 51
360.0
  0
ARC
  5
2CE
100
AcDbEntity
  8
0
370
    -3
390
0
  6
Continuous
100
AcDbCircle
 10
-694.705856
 20
-273.515164
 30
0.0
 40
57.0
100
AcDbArc
 50
97.983556
 51
143.086522
  0
LINE
  5
2CF
100
AcDbEntity
  8
0
370
    -3
390
0
  6
Continuous
100
AcDbLine
 10
-699.205856
 20
-220.038534
 30
0.0
 11
-699.205856
 21
-224.080864
 31
0.0
  0
ARC
  5
2D0
100
AcDbEntity
  8
0
370
    -3
390
0
  6
Continuous
100
AcDbCircle
 10
-702.205856
 20
-220.038534
 30
0.0
 40
3.0
100
AcDbArc
 50
0.0
 51
97.983556
  0
ARC
  5
2D1
100
AcDbEntity
  8
0
370
    -3
390
0
  6
Continuous
100
AcDbCircle
 10
-694.705856
 20
-273.515164
 30
0.0
 40
62.0
100
AcDbArc
 50
96.62581
 51
144.26083
  0
ARC
  5
2D2
100
AcDbEntity
  8
0
370
    -3
390
0
  6
Continuous
100
AcDbCircle
 10
-702.205856
 20
-208.949306
 30
0.0
 40
3.0
100
AcDbArc
 50
276.62581
 51
0.0
  0
ARC
  5
2D3
100
AcDbEntity
  8
0
370
    -3
390
0
  6
Continuous
100
AcDbCircle
 10
-694.705856
 20
-273.515164
 30
0.0
 40
72.0
100
AcDbArc
 50
96.240131
 51
144.594556
  0
LINE
  5
2D4
100
AcDbEntity
  8
0
370
    -3
390
0
  6
Continuous
100
AcDbLine
 10
-699.205856
 20
-204.923984
 30
0.0
 11
-699.205856
 21
-208.949306
 31
0.0
  0
ARC
  5
2D5
100
AcDbEntity
  8
0
370
    -3
390
0
  6
Continuous
100
AcDbCircle
 10
-702.205856
 20
-204.923984
 30
0.0
 40
3.0
100
AcDbArc
 50
0.0
 51
96.240131
  0
ARC
  5
2D6
100
AcDbEntity
  8
0
370
    -3
390
0
  6
Continuous
100
AcDbCircle
 10
-694.705856
 20
-273.515164
 30
0.0
 40
77.0
100
AcDbArc
 50
95.379379
 51
145.339581
  0
ARC
  5
2D7
100
AcDbEntity
  8
0
370
    -3
390
0
  6
Continuous
100
AcDbCircle
 10
-702.205856
 20
-193.867503
 30
0.0
 40
3.0
100
AcDbArc
 50
275.379379
 51
0.0
  0
ARC
  5
2D8
100
AcDbEntity
  8
0
370
    -3
390
0
  6
Continuous
100
AcDbCircle
 10
-694.705856
 20
-273.515164
 30
0.0
 40
87.0
100
AcDbArc
 50
95.122516
 51
145.561961
  0
LINE
  5
2D9
100
AcDbEntity
  8
0
370
    -3
390
0
  6
Continuous
100
AcDbLine
 10
-699.205856
 20
-189.850656
 30
0.0
 11
-699.205856
 21
-193.867503
 31
0.0
  0
ARC
  5
2DA
100
AcDbEntity
  8
0
370
    -3
390
0
  6
Continuous
100
AcDbCircle
 10
-702.205856
 20
-189.850656
 30
0.0
 40
3.0
100
AcDbArc
 50
0.0
 51
95.122516
  0
ARC
  5
2DB
100
AcDbEntity
  8
0
370
    -3
390
0
  6
Continuous
100
AcDbCircle
 10
-694.705856
 20
-273.515164
 30
0.0
 40
100.0
100
AcDbArc
 50
33.842287
 51
85.565488
  0
ARC
  5
2DC
100
AcDbEntity
  8
0
370
    -3
390
0
  6
Continuous
100
AcDbCircle
 10
-687.205856
 20
-176.805547
 30
0.0
 40
3.0
100
AcDbArc
 50
85.565488
 51
180.0
  0
ARC
  5
2DD
100
AcDbEntity
  8
0
370
    -3
390
0
  6
Continuous
100
AcDbCircle
 10
-614.14021
 20
-219.495013
 30
0.0
 40
3.0
100
AcDbArc
 50
300.0
 51
33.842287
  0
LINE
  5
2DE
100
AcDbEntity
  8
0
370
    -3
390
0
  6
Continuous
100
AcDbLine
 10
-612.64021
 20
-222.09309
 30
0.0
 11
-613.508206
 21
-222.594228
 31
0.0
  0
ARC
  5
2DF
100
AcDbEntity
  8
0
370
    -3
390
0
  6
Continuous
100
AcDbCircle
 10
-615.008206
 20
-219.996151
 30
0.0
 40
3.0
100
AcDbArc
 50
213.882372
 51
300.0
  0
LINE
  5
2E0
100
AcDbEntity
  8
0
370
    -3
390
0
  6
Continuous
100
AcDbLine
 10
-690.205856
 20
-176.805547
 30
0.0
 11
-690.205856
 21
-177.808581
 31
0.0
  0
ARC
  5
2E1
100
AcDbEntity
  8
0
370
    -3
390
0
  6
Continuous
100
AcDbCircle
 10
-694.705856
 20
-273.515164
 30
0.0
 40
93.0
100
AcDbArc
 50
33.882372
 51
85.519201
  0
ARC
  5
2E2
100
AcDbEntity
  8
0
370
    -3
390
0
  6
Continuous
100
AcDbCircle
 10
-687.205856
 20
-177.808581
 30
0.0
 40
3.0
100
AcDbArc
 50
180.0
 51
265.519201
  0
ARC
  5
2E3
100
AcDbEntity
  8
0
370
    -3
390
0
  6
Continuous
100
AcDbCircle
 10
-625.427844
 20
-226.011932
 30
0.0
 40
3.0
100
AcDbArc
 50
300.0
 51
34.438039
  0
LINE
  5
2E4
100
AcDbEntity
  8
0
370
    -3
390
0
  6
Continuous
100
AcDbLine
 10
-623.927844
 20
-228.610008
 30
0.0
 11
-627.402887
 21
-230.616325
 31
0.0
  0
ARC
  5
2E5
100
AcDbEntity
  8
0
370
    -3
390
0
  6
Continuous
100
AcDbCircle
 10
-628.902887
 20
-228.018249
 30
0.0
 40
3.0
100
AcDbArc
 50
214.660419
 51
300.0
  0
ARC
  5
2E6
100
AcDbEntity
  8
0
370
    -3
390
0
  6
Continuous
100
AcDbCircle
 10
-638.465835
 20
-233.53942
 30
0.0
 40
3.0
100
AcDbArc
 50
300.0
 51
35.405444
  0
LINE
  5
2E7
100
AcDbEntity
  8
0
370
    -3
390
0
  6
Continuous
100
AcDbLine
 10
-636.965835
 20
-236.137496
 30
0.0
 11
-640.44637
 21
-238.146984
 31
0.0
  0
ARC
  5
2E8
100
AcDbEntity
  8
0
370
    -3
390
0
  6
Continuous
100
AcDbCircle
 10
-641.94637
 20
-235.548907
 30
0.0
 40
3.0
100
AcDbArc
 50
215.73917
 51
300.0
  0
ARC
  5
2E9
100
AcDbEntity
  8
0
370
    -3
390
0
  6
Continuous
100
AcDbCircle
 10
-651.530512
 20
-241.082315
 30
0.0
 40
3.0
100
AcDbArc
 50
300.0
 51
36.913478
  0
LINE
  5
2EA
100
AcDbEntity
  8
0
370
    -3
390
0
  6
Continuous
100
AcDbLine
 10
-650.030512
 20
-243.680391
 30
0.0
 11
-653.52204
 21
-245.696225
 31
0.0
  0
ARC
  5
2EB
100
AcDbEntity
  8
0
370
    -3
390
0
  6
Continuous
100
AcDbCircle
 10
-655.02204
 20
-243.098149
 30
0.0
 40
3.0
100
AcDbArc
 50
217.469592
 51
300.0
  0
ARC
  5
2EC
100
AcDbEntity
  8
0
370
    -3
390
0
  6
Continuous
100
AcDbCircle
 10
-664.653266
 20
-248.65874
 30
0.0
 40
3.0
100
AcDbArc
 50
300.0
 51
39.594068
  0
LINE
  5
2ED
100
AcDbEntity
  8
0
370
    -3
390
0
  6
Continuous
100
AcDbLine
 10
-663.153266
 20
-251.256816
 30
0.0
 11
-666.672261
 21
-253.288509
 31
0.0
  0
ARC
  5
2EE
100
AcDbEntity
  8
0
370
    -3
390
0
  6
Continuous
100
AcDbCircle
 10
-668.172261
 20
-250.690433
 30
0.0
 40
3.0
100
AcDbArc
 50
220.70278
 51
300.0
  0
ARC
  5
2EF
100
AcDbEntity
  8
0
370
    -3
390
0
  6
Continuous
100
AcDbCircle
 10
-694.705856
 20
-273.515164
 30
0.0
 40
32.0
100
AcDbArc
 50
40.70278
 51
77.626375
  0
ARC
  5
2F0
100
AcDbEntity
  8
0
370
    -3
390
0
  6
Continuous
100
AcDbCircle
 10
-687.205856
 20
-239.328178
 30
0.0
 40
3.0
100
AcDbArc
 50
180.0
 51
257.626375
  0
ARC
  5
2F1
100
AcDbEntity
  8
0
370
    -3
390
0
  6
Continuous
100
AcDbCircle
 10
-694.705856
 20
-273.515164
 30
0.0
 40
42.0
100
AcDbArc
 50
39.594068
 51
78.912511
  0
LINE
  5
2F2
100
AcDbEntity
  8
0
370
    -3
390
0
  6
Continuous
100
AcDbLine
 10
-690.205856
 20
-235.243112
 30
0.0
 11
-690.205856
 21
-239.328178
 31
0.0
  0
ARC
  5
2F3
100
AcDbEntity
  8
0
370
    -3
390
0
  6
Continuous
100
AcDbCircle
 10
-687.205856
 20
-235.243112
 30
0.0
 40
3.0
100
AcDbArc
 50
78.912511
 51
180.0
  0
ARC
  5
2F4
100
AcDbEntity
  8
0
370
    -3
390
0
  6
Continuous
100
AcDbCircle
 10
-687.205856
 20
-250.717138
 30
0.0
 40
3.0
100
AcDbArc
 50
71.790043
 51
180.0
  0
LINE
  5
2F5
100
AcDbEntity
  8
0
370
    -3
390
0
  6
Continuous
100
AcDbLine
 10
-690.205856
 20
-250.717138
 30
0.0
 11
-690.205856
 21
-254.974668
 31
0.0
  0
ARC
  5
2F6
100
AcDbEntity
  8
0
370
    -3
390
0
  6
Continuous
100
AcDbCircle
 10
-687.205856
 20
-254.974668
 30
0.0
 40
3.0
100
AcDbArc
 50
180.0
 51
247.975687
  0
ARC
  5
2F7
100
AcDbEntity
  8
0
370
    -3
390
0
  6
Continuous
100
AcDbCircle
 10
-694.705856
 20
-273.515164
 30
0.0
 40
17.0
100
AcDbArc
 50
48.965575
 51
67.975687
  0
ARC
  5
2F8
100
AcDbEntity
  8
0
370
    -3
390
0
  6
Continuous
100
AcDbCircle
 10
-681.575608
 20
-258.428859
 30
0.0
 40
3.0
100
AcDbArc
 50
228.965575
 51
300.0
  0
ARC
  5
2F9
100
AcDbEntity
  8
0
370
    -3
390
0
  6
Continuous
100
AcDbCircle
 10
-694.705856
 20
-273.515164
 30
0.0
 40
27.0
100
AcDbArc
 50
45.713861
 51
71.790043
  0
LINE
  5
2FA
100
AcDbEntity
  8
0
370
    -3
390
0
  6
Continuous
100
AcDbLine
 10
-676.448045
 20
-258.93256
 30
0.0
 11
-680.075608
 21
-261.026935
 31
0.0
  0
ARC
  5
2FB
100
AcDbEntity
  8
0
370
    -3
390
0
  6
Continuous
100
AcDbCircle
 10
-677.948045
 20
-256.334484
 30
0.0
 40
3.0
100
AcDbArc
 50
300.0
 51
45.713861
  0
ARC
  5
2FC
100
AcDbEntity
  8
0
370
    -3
390
0
  6
Continuous
100
AcDbCircle
 10
-694.705856
 20
-273.515164
 30
0.0
 40
47.0
100
AcDbArc
 50
37.469592
 51
81.373073
  0
ARC
  5
2FD
100
AcDbEntity
  8
0
370
    -3
390
0
  6
Continuous
100
AcDbCircle
 10
-687.205856
 20
-224.080864
 30
0.0
 40
3.0
100
AcDbArc
 50
180.0
 51
261.373073
  0
ARC
  5
2FE
100
AcDbEntity
  8
0
370
    -3
390
0
  6
Continuous
100
AcDbCircle
 10
-694.705856
 20
-273.515164
 30
0.0
 40
57.0
100
AcDbArc
 50
36.913478
 51
82.016444
  0
LINE
  5
2FF
100
AcDbEntity
  8
0
370
    -3
390
0
  6
Continuous
100
AcDbLine
 10
-690.205856
 20
-220.038534
 30
0.0
 11
-690.205856
 21
-224.080864
 31
0.0
  0
ARC
  5
300
100
AcDbEntity
  8
0
370
    -3
390
0
  6
Continuous
100
AcDbCircle
 10
-687.205856
 20
-220.038534
 30
0.0
 40
3.0
100
AcDbArc
 50
82.016444
 51
180.0
  0
ARC
  5
301
100
AcDbEntity
  8
0
370
    -3
390
0
  6
Continuous
100
AcDbCircle
 10
-694.705856
 20
-273.515164
 30
0.0
 40
62.0
100
AcDbArc
 50
35.73917
 51
83.37419
  0
ARC
  5
302
100
AcDbEntity
  8
0
370
    -3
390
0
  6
Continuous
100
AcDbCircle
 10
-687.205856
 20
-208.949306
 30
0.0
 40
3.0
100
AcDbArc
 50
180.0
 51
263.37419
  0
ARC
  5
303
100
AcDbEntity
  8
0
370
    -3
390
0
  6
Continuous
100
AcDbCircle
 10
-694.705856
 20
-273.515164
 30
0.0
 40
72.0
100
AcDbArc
 50
35.405444
 51
83.759869
  0
LINE
  5
304
100
AcDbEntity
  8
0
370
    -3
390
0
  6
Continuous
100
AcDbLine
 10
-690.205856
 20
-204.923984
 30
0.0
 11
-690.205856
 21
-208.949306
 31
0.0
  0
ARC
  5
305
100
AcDbEntity
  8
0
370
    -3
390
0
  6
Continuous
100
AcDbCircle
 10
-687.205856
 20
-204.923984
 30
0.0
 40
3.0
100
AcDbArc
 50
83.759869
 51
180.0
  0
ARC
  5
306
100
AcDbEntity
  8
0
370
    -3
390
0
  6
Continuous
100
AcDbCircle
 10
-694.705856
 20
-273.515164
 30
0.0
 40
77.0
100
AcDbArc
 50
34.660419
 51
84.620621
  0
ARC
  5
307
100
AcDbEntity
  8
0
370
    -3
390
0
  6
Continuous
100
AcDbCircle
 10
-687.205856
 20
-193.867503
 30
0.0
 40
3.0
100
AcDbArc
 50
180.0
 51
264.620621
  0
ARC
  5
308
100
AcDbEntity
  8
0
370
    -3
390
0
  6
Continuous
100
AcDbCircle
 10
-694.705856
 20
-273.515164
 30
0.0
 40
87.0
100
AcDbArc
 50
34.438039
 51
84.877484
  0
LINE
  5
309
100
AcDbEntity
  8
0
370
    -3
390
0
  6
Continuous
100
AcDbLine
 10
-690.205856
 20
-189.850656
 30
0.0
 11
-690.205856
 21
-193.867503
 31
0.0
  0
ARC
  5
30A
100
AcDbEntity
  8
0
370
    -3
390
0
  6
Continuous
100
AcDbCircle
 10
-687.205856
 20
-189.850656
 30
0.0
 40
3.0
100
AcDbArc
 50
84.877484
 51
180.0
  0
ARC
  5
30B
100
AcDbEntity
  8
0
370
    -3
390
0
  6
Continuous
100
AcDbCircle
 10
-694.705856
 20
-273.515164
 30
0.0
 40
100.0
100
AcDbArc
 50
334.434512
 51
26.157713
  0
ARC
  5
30C
100
AcDbEntity
  8
0
370
    -3
390
0
  6
Continuous
100
AcDbCircle
 10
-607.202871
 20
-315.374782
 30
0.0
 40
3.0
100
AcDbArc
 50
240.0
 51
334.434512
  0
ARC
  5
30D
100
AcDbEntity
  8
0
370
    -3
390
0
  6
Continuous
100
AcDbCircle
 10
-607.64021
 20
-230.753344
 30
0.0
 40
3.0
100
AcDbArc
 50
26.157713
 51
120.0
  0
LINE
  5
30E
100
AcDbEntity
  8
0
370
    -3
390
0
  6
Continuous
100
AcDbLine
 10
-609.14021
 20
-228.155267
 30
0.0
 11
-610.008206
 21
-228.656406
 31
0.0
  0
ARC
  5
30F
100
AcDbEntity
  8
0
370
    -3
390
0
  6
Continuous
100
AcDbCircle
 10
-608.508206
 20
-231.254482
 30
0.0
 40
3.0
100
AcDbArc
 50
120.0
 51
206.117628
  0
LINE
  5
310
100
AcDbEntity
  8
0
370
    -3
390
0
  6
Continuous
100
AcDbLine
 10
-608.702871
 20
-317.972858
 30
0.0
 11
-609.571523
 21
-317.471341
 31
0.0
  0
ARC
  5
311
100
AcDbEntity
  8
0
370
    -3
390
0
  6
Continuous
100
AcDbCircle
 10
-694.705856
 20
-273.515164
 30
0.0
 40
93.0
100
AcDbArc
 50
334.480799
 51
26.117628
  0
ARC
  5
312
100
AcDbEntity
  8
0
370
    -3
390
0
  6
Continuous
100
AcDbCircle
 10
-608.071523
 20
-314.873265
 30
0.0
 40
3.0
100
AcDbArc
 50
154.480799
 51
240.0
  0
ARC
  5
313
100
AcDbEntity
  8
0
370
    -3
390
0
  6
Continuous
100
AcDbCircle
 10
-618.927844
 20
-237.270262
 30
0.0
 40
3.0
100
AcDbArc
 50
25.561961
 51
120.0
  0
LINE
  5
314
100
AcDbEntity
  8
0
370
    -3
390
0
  6
Continuous
100
AcDbLine
 10
-620.427844
 20
-234.672186
 30
0.0
 11
-623.902887
 21
-236.678503
 31
0.0
  0
ARC
  5
315
100
AcDbEntity
  8
0
370
    -3
390
0
  6
Continuous
100
AcDbCircle
 10
-622.402887
 20
-239.276579
 30
0.0
 40
3.0
100
AcDbArc
 50
120.0
 51
205.339581
  0
ARC
  5
316
100
AcDbEntity
  8
0
370
    -3
390
0
  6
Continuous
100
AcDbCircle
 10
-631.965835
 20
-244.79775
 30
0.0
 40
3.0
100
AcDbArc
 50
24.594556
 51
120.0
  0
LINE
  5
317
100
AcDbEntity
  8
0
370
    -3
390
0
  6
Continuous
100
AcDbLine
 10
-633.465835
 20
-242.199674
 30
0.0
 11
-636.94637
 21
-244.209161
 31
0.0
  0
ARC
  5
318
100
AcDbEntity
  8
0
370
    -3
390
0
  6
Continuous
100
AcDbCircle
 10
-635.44637
 20
-246.807238
 30
0.0
 40
3.0
100
AcDbArc
 50
120.0
 51
204.26083
  0
ARC
  5
319
100
AcDbEntity
  8
0
370
    -3
390
0
  6
Continuous
100
AcDbCircle
 10
-645.030512
 20
-252.340645
 30
0.0
 40
3.0
100
AcDbArc
 50
23.086522
 51
120.0
  0
LINE
  5
31A
100
AcDbEntity
  8
0
370
    -3
390
0
  6
Continuous
100
AcDbLine
 10
-646.530512
 20
-249.742569
 30
0.0
 11
-650.02204
 21
-251.758403
 31
0.0
  0
ARC
  5
31B
100
AcDbEntity
  8
0
370
    -3
390
0
  6
Continuous
100
AcDbCircle
 10
-648.52204
 20
-254.356479
 30
0.0
 40
3.0
100
AcDbArc
 50
120.0
 51
202.530408
  0
ARC
  5
31C
100
AcDbEntity
  8
0
370
    -3
390
0
  6
Continuous
100
AcDbCircle
 10
-658.153266
 20
-259.91707
 30
0.0
 40
3.0
100
AcDbArc
 50
20.405932
 51
120.0
  0
LINE
  5
31D
100
AcDbEntity
  8
0
370
    -3
390
0
  6
Continuous
100
AcDbLine
 10
-659.653266
 20
-257.318994
 30
0.0
 11
-663.172261
 21
-259.350687
 31
0.0
  0
ARC
  5
31E
100
AcDbEntity
  8
0
370
    -3
390
0
  6
Continuous
100
AcDbCircle
 10
-661.672261
 20
-261.948763
 30
0.0
 40
3.0
100
AcDbArc
 50
120.0
 51
199.29722
  0
ARC
  5
31F
100
AcDbEntity
  8
0
370
    -3
390
0
  6
Continuous
100
AcDbCircle
 10
-694.705856
 20
-273.515164
 30
0.0
 40
32.0
100
AcDbArc
 50
342.373625
 51
19.29722
  0
ARC
  5
320
100
AcDbEntity
  8
0
370
    -3
390
0
  6
Continuous
100
AcDbCircle
 10
-661.349057
 20
-284.113467
 30
0.0
 40
3.0
100
AcDbArc
 50
162.373625
 51
240.0
  0
ARC
  5
321
100
AcDbEntity
  8
0
370
    -3
390
0
  6
Continuous
100
AcDbCircle
 10
-694.705856
 20
-273.515164
 30
0.0
 40
42.0
100
AcDbArc
 50
341.087489
 51
20.405932
  0
LINE
  5
322
100
AcDbEntity
  8
0
370
    -3
390
0
  6
Continuous
100
AcDbLine
 10
-659.311286
 20
-288.754076
 30
0.0
 11
-662.849057
 21
-286.711543
 31
0.0
  0
ARC
  5
323
100
AcDbEntity
  8
0
370
    -3
390
0
  6
Continuous
100
AcDbCircle
 10
-657.811286
 20
-286.156
 30
0.0
 40
3.0
100
AcDbArc
 50
240.0
 51
341.087489
  0
ARC
  5
324
100
AcDbEntity
  8
0
370
    -3
390
0
  6
Continuous
100
AcDbCircle
 10
-671.212186
 20
-278.418987
 30
0.0
 40
3.0
100
AcDbArc
 50
240.0
 51
348.209957
  0
LINE
  5
325
100
AcDbEntity
  8
0
370
    -3
390
0
  6
Continuous
100
AcDbLine
 10
-672.712186
 20
-281.017063
 30
0.0
 11
-676.399315
 21
-278.888298
 31
0.0
  0
ARC
  5
326
100
AcDbEntity
  8
0
370
    -3
390
0
  6
Continuous
100
AcDbCircle
 10
-674.899315
 20
-276.290222
 30
0.0
 40
3.0
100
AcDbArc
 50
172.024313
 51
240.0
  0
ARC
  5
327
100
AcDbEntity
  8
0
370
    -3
390
0
  6
Continuous
100
AcDbCircle
 10
-694.705856
 20
-273.515164
 30
0.0
 40
17.0
100
AcDbArc
 50
352.024313
 51
11.034425
  0
ARC
  5
328
100
AcDbEntity
  8
0
370
    -3
390
0
  6
Continuous
100
AcDbCircle
 10
-675.075608
 20
-269.687189
 30
0.0
 40
3.0
100
AcDbArc
 50
120.0
 51
191.034425
  0
ARC
  5
329
100
AcDbEntity
  8
0
370
    -3
390
0
  6
Continuous
100
AcDbCircle
 10
-694.705856
 20
-273.515164
 30
0.0
 40
27.0
100
AcDbArc
 50
348.209957
 51
14.286139
  0
LINE
  5
32A
100
AcDbEntity
  8
0
370
    -3
390
0
  6
Continuous
100
AcDbLine
 10
-672.948045
 20
-264.994738
 30
0.0
 11
-676.575608
 21
-267.089113
 31
0.0
  0
ARC
  5
32B
100
AcDbEntity
  8
0
370
    -3
390
0
  6
Continuous
100
AcDbCircle
 10
-671.448045
 20
-267.592814
 30
0.0
 40
3.0
100
AcDbArc
 50
14.286139
 51
120.0
  0
ARC
  5
32C
100
AcDbEntity
  8
0
370
    -3
390
0
  6
Continuous
100
AcDbCircle
 10
-694.705856
 20
-273.515164
 30
0.0
 40
47.0
100
AcDbArc
 50
338.626927
 51
22.530408
  0
ARC
  5
32D
100
AcDbEntity
  8
0
370
    -3
390
0
  6
Continuous
100
AcDbCircle
 10
-648.144496
 20
-291.737124
 30
0.0
 40
3.0
100
AcDbArc
 50
158.626927
 51
240.0
  0
ARC
  5
32E
100
AcDbEntity
  8
0
370
    -3
390
0
  6
Continuous
100
AcDbCircle
 10
-694.705856
 20
-273.515164
 30
0.0
 40
57.0
100
AcDbArc
 50
337.983556
 51
23.086522
  0
LINE
  5
32F
100
AcDbEntity
  8
0
370
    -3
390
0
  6
Continuous
100
AcDbLine
 10
-646.143735
 20
-296.356365
 30
0.0
 11
-649.644496
 21
-294.3352
 31
0.0
  0
ARC
  5
330
100
AcDbEntity
  8
0
370
    -3
390
0
  6
Continuous
100
AcDbCircle
 10
-644.643735
 20
-293.758289
 30
0.0
 40
3.0
100
AcDbArc
 50
240.0
 51
337.983556
  0
ARC
  5
331
100
AcDbEntity
  8
0
370
    -3
390
0
  6
Continuous
100
AcDbCircle
 10
-694.705856
 20
-273.515164
 30
0.0
 40
62.0
100
AcDbArc
 50
336.62581
 51
24.26083
  0
ARC
  5
332
100
AcDbEntity
  8
0
370
    -3
390
0
  6
Continuous
100
AcDbCircle
 10
-635.040182
 20
-299.302903
 30
0.0
 40
3.0
100
AcDbArc
 50
156.62581
 51
240.0
  0
ARC
  5
333
100
AcDbEntity
  8
0
370
    -3
390
0
  6
Continuous
100
AcDbCircle
 10
-694.705856
 20
-273.515164
 30
0.0
 40
72.0
100
AcDbArc
 50
336.240131
 51
24.594556
  0
LINE
  5
334
100
AcDbEntity
  8
0
370
    -3
390
0
  6
Continuous
100
AcDbLine
 10
-633.054151
 20
-303.91364
 30
0.0
 11
-636.540182
 21
-301.900979
 31
0.0
  0
ARC
  5
335
100
AcDbEntity
  8
0
370
    -3
390
0
  6
Continuous
100
AcDbCircle
 10
-631.554151
 20
-301.315564
 30
0.0
 40
3.0
100
AcDbArc
 50
240.0
 51
336.240131
  0
ARC
  5
336
100
AcDbEntity
  8
0
370
    -3
390
0
  6
Continuous
100
AcDbCircle
 10
-694.705856
 20
-273.515164
 30
0.0
 40
77.0
100
AcDbArc
 50
335.379379
 51
25.339581
  0
ARC
  5
337
100
AcDbEntity
  8
0
370
    -3
390
0
  6
Continuous
100
AcDbCircle
 10
-621.978957
 20
-306.843804
 30
0.0
 40
3.0
100
AcDbArc
 50
155.379379
 51
240.0
  0
ARC
  5
338
100
AcDbEntity
  8
0
370
    -3
390
0
  6
Continuous
100
AcDbCircle
 10
-694.705856
 20
-273.515164
 30
0.0
 40
87.0
100
AcDbArc
 50
335.122516
 51
25.561961
  0
LINE
  5
339
100
AcDbEntity
  8
0
370
    -3
390
0
  6
Continuous
100
AcDbLine
 10
-620.000266
 20
-311.450304
 30
0.0
 11
-623.478957
 21
-309.441881
 31
0.0
  0
ARC
  5
33A
100
AcDbEntity
  8
0
370
    -3
390
0
  6
Continuous
100
AcDbCircle
 10
-618.500266
 20
-308.852228
 30
0.0
 40
3.0
100
AcDbArc
 50
240.0
 51
335.122516
  0
ARC
  5
33B
100
AcDbEntity
  8
0
370
    -3
390
0
  6
Continuous
100
AcDbCircle
 10
-694.705856
 20
-273.515164
 30
0.0
 40
100.0
100
AcDbArc
 50
273.842287
 51
325.565488
  0
ARC
  5
33C
100
AcDbEntity
  8
0
370
    -3
390
0
  6
Continuous
100
AcDbCircle
 10
-614.702871
 20
-328.365163
 30
0.0
 40
3.0
100
AcDbArc
 50
325.565488
 51
60.0
  0
ARC
  5
33D
100
AcDbEntity
  8
0
370
    -3
390
0
  6
Continuous
100
AcDbCircle
 10
-688.205856
 20
-370.297136
 30
0.0
 40
3.0
100
AcDbArc
 50
180.0
 51
273.842287
  0
LINE
  5
33E
100
AcDbEntity
  8
0
370
    -3
390
0
  6
Continuous
100
AcDbLine
 10
-691.205856
 20
-370.297136
 30
0.0
 11
-691.205856
 21
-369.294859
 31
0.0
  0
ARC
  5
33F
100
AcDbEntity
  8
0
370
    -3
390
0
  6
Continuous
100
AcDbCircle
 10
-688.205856
 20
-369.294859
 30
0.0
 40
3.0
100
AcDbArc
 50
93.882372
 51
180.0
  0
LINE
  5
340
100
AcDbEntity
  8
0
370
    -3
390
0
  6
Continuous
100
AcDbLine
 10
-613.202871
 20
-325.767087
 30
0.0
 11
-614.071523
 21
-325.26557
 31
0.0
  0
ARC
  5
341
100
AcDbEntity
  8
0
370
    -3
390
0
  6
Continuous
100
AcDbCircle
 10
-694.705856
 20
-273.515164
 30
0.0
 40
93.0
100
AcDbArc
 50
273.882372
 51
325.519201
  0
ARC
  5
342
100
AcDbEntity
  8
0
370
    -3
390
0
  6
Continuous
100
AcDbCircle
 10
-615.571523
 20
-327.863646
 30
0.0
 40
3.0
100
AcDbArc
 50
60.0
 51
145.519201
  0
ARC
  5
343
100
AcDbEntity
  8
0
370
    -3
390
0
  6
Continuous
100
AcDbCircle
 10
-688.205856
 20
-357.263298
 30
0.0
 40
3.0
100
AcDbArc
 50
180.0
 51
274.438039
  0
LINE
  5
344
100
AcDbEntity
  8
0
370
    -3
390
0
  6
Continuous
100
AcDbLine
 10
-691.205856
 20
-357.263298
 30
0.0
 11
-691.205856
 21
-353.250664
 31
0.0
  0
ARC
  5
345
100
AcDbEntity
  8
0
370
    -3
390
0
  6
Continuous
100
AcDbCircle
 10
-688.205856
 20
-353.250664
 30
0.0
 40
3.0
100
AcDbArc
 50
94.660419
 51
180.0
  0
ARC
  5
346
100
AcDbEntity
  8
0
370
    -3
390
0
  6
Continuous
100
AcDbCircle
 10
-688.205856
 20
-342.208322
 30
0.0
 40
3.0
100
AcDbArc
 50
180.0
 51
275.405444
  0
LINE
  5
347
100
AcDbEntity
  8
0
370
    -3
390
0
  6
Continuous
100
AcDbLine
 10
-691.205856
 20
-342.208322
 30
0.0
 11
-691.205856
 21
-338.189348
 31
0.0
  0
ARC
  5
348
100
AcDbEntity
  8
0
370
    -3
390
0
  6
Continuous
100
AcDbCircle
 10
-688.205856
 20
-338.189348
 30
0.0
 40
3.0
100
AcDbArc
 50
95.73917
 51
180.0
  0
ARC
  5
349
100
AcDbEntity
  8
0
370
    -3
390
0
  6
Continuous
100
AcDbCircle
 10
-688.205856
 20
-327.122533
 30
0.0
 40
3.0
100
AcDbArc
 50
180.0
 51
276.913478
  0
LINE
  5
34A
100
AcDbEntity
  8
0
370
    -3
390
0
  6
Continuous
100
AcDbLine
 10
-691.205856
 20
-327.122533
 30
0.0
 11
-691.205856
 21
-323.090864
 31
0.0
  0
ARC
  5
34B
100
AcDbEntity
  8
0
370
    -3
390
0
  6
Continuous
100
AcDbCircle
 10
-688.205856
 20
-323.090864
 30
0.0
 40
3.0
100
AcDbArc
 50
97.469592
 51
180.0
  0
ARC
  5
34C
100
AcDbEntity
  8
0
370
    -3
390
0
  6
Continuous
100
AcDbCircle
 10
-688.205856
 20
-311.969683
 30
0.0
 40
3.0
100
AcDbArc
 50
180.0
 51
279.594068
  0
LINE
  5
34D
100
AcDbEntity
  8
0
370
    -3
390
0
  6
Continuous
100
AcDbLine
 10
-691.205856
 20
-311.969683
 30
0.0
 11
-691.205856
 21
-307.906297
 31
0.0
  0
ARC
  5
34E
100
AcDbEntity
  8
0
370
    -3
390
0
  6
Continuous
100
AcDbCircle
 10
-688.205856
 20
-307.906297
 30
0.0
 40
3.0
100
AcDbArc
 50
100.70278
 51
180.0
  0
ARC
  5
34F
100
AcDbEntity
  8
0
370
    -3
390
0
  6
Continuous
100
AcDbCircle
 10
-694.705856
 20
-273.515164
 30
0.0
 40
32.0
100
AcDbArc
 50
280.70278
 51
317.626375
  0
ARC
  5
350
100
AcDbEntity
  8
0
370
    -3
390
0
  6
Continuous
100
AcDbCircle
 10
-668.849057
 20
-297.103848
 30
0.0
 40
3.0
100
AcDbArc
 50
60.0
 51
137.626375
  0
ARC
  5
351
100
AcDbEntity
  8
0
370
    -3
390
0
  6
Continuous
100
AcDbCircle
 10
-694.705856
 20
-273.515164
 30
0.0
 40
42.0
100
AcDbArc
 50
279.594068
 51
318.912511
  0
LINE
  5
352
100
AcDbEntity
  8
0
370
    -3
390
0
  6
Continuous
100
AcDbLine
 10
-663.811286
 20
-296.548305
 30
0.0
 11
-667.349057
 21
-294.505771
 31
0.0
  0
ARC
  5
353
100
AcDbEntity
  8
0
370
    -3
390
0
  6
Continuous
100
AcDbCircle
 10
-665.311286
 20
-299.146381
 30
0.0
 40
3.0
100
AcDbArc
 50
318.912511
 51
60.0
  0
ARC
  5
354
100
AcDbEntity
  8
0
370
    -3
390
0
  6
Continuous
100
AcDbCircle
 10
-678.712186
 20
-291.409368
 30
0.0
 40
3.0
100
AcDbArc
 50
311.790043
 51
60.0
  0
LINE
  5
355
100
AcDbEntity
  8
0
370
    -3
390
0
  6
Continuous
100
AcDbLine
 10
-677.212186
 20
-288.811292
 30
0.0
 11
-680.899315
 21
-286.682527
 31
0.0
  0
ARC
  5
356
100
AcDbEntity
  8
0
370
    -3
390
0
  6
Continuous
100
AcDbCircle
 10
-682.399315
 20
-289.280603
 30
0.0
 40
3.0
100
AcDbArc
 50
60.0
 51
127.975687
  0
ARC
  5
357
100
AcDbEntity
  8
0
370
    -3
390
0
  6
Continuous
100
AcDbCircle
 10
-694.705856
 20
-273.515164
 30
0.0
 40
17.0
100
AcDbArc
 50
288.965575
 51
307.975687
  0
ARC
  5
358
100
AcDbEntity
  8
0
370
    -3
390
0
  6
Continuous
100
AcDbCircle
 10
-688.205856
 20
-292.429444
 30
0.0
 40
3.0
100
AcDbArc
 50
108.965575
 51
180.0
  0
ARC
  5
359
100
AcDbEntity
  8
0
370
    -3
390
0
  6
Continuous
100
AcDbCircle
 10
-694.705856
 20
-273.515164
 30
0.0
 40
27.0
100
AcDbArc
 50
285.713861
 51
311.790043
  0
LINE
  5
35A
100
AcDbEntity
  8
0
370
    -3
390
0
  6
Continuous
100
AcDbLine
 10
-691.205856
 20
-296.618194
 30
0.0
 11
-691.205856
 21
-292.429444
 31
0.0
  0
ARC
  5
35B
100
AcDbEntity
  8
0
370
    -3
390
0
  6
Continuous
100
AcDbCircle
 10
-688.205856
 20
-296.618194
 30
0.0
 40
3.0
100
AcDbArc
 50
180.0
 51
285.713861
  0
ARC
  5
35C
100
AcDbEntity
  8
0
370
    -3
390
0
  6
Continuous
100
AcDbCircle
 10
-694.705856
 20
-273.515164
 30
0.0
 40
47.0
100
AcDbArc
 50
277.469592
 51
321.373073
  0
ARC
  5
35D
100
AcDbEntity
  8
0
370
    -3
390
0
  6
Continuous
100
AcDbCircle
 10
-655.644496
 20
-304.727505
 30
0.0
 40
3.0
100
AcDbArc
 50
60.0
 51
141.373073
  0
ARC
  5
35E
100
AcDbEntity
  8
0
370
    -3
390
0
  6
Continuous
100
AcDbCircle
 10
-694.705856
 20
-273.515164
 30
0.0
 40
57.0
100
AcDbArc
 50
276.913478
 51
322.016444
  0
LINE
  5
35F
100
AcDbEntity
  8
0
370
    -3
390
0
  6
Continuous
100
AcDbLine
 10
-650.643735
 20
-304.150594
 30
0.0
 11
-654.144496
 21
-302.129428
 31
0.0
  0
ARC
  5
360
100
AcDbEntity
  8
0
370
    -3
390
0
  6
Continuous
100
AcDbCircle
 10
-652.143735
 20
-306.74867
 30
0.0
 40
3.0
100
AcDbArc
 50
322.016444
 51
60.0
  0
ARC
  5
361
100
AcDbEntity
  8
0
370
    -3
390
0
  6
Continuous
100
AcDbCircle
 10
-694.705856
 20
-273.515164
 30
0.0
 40
62.0
100
AcDbArc
 50
275.73917
 51
323.37419
  0
ARC
  5
362
100
AcDbEntity
  8
0
370
    -3
390
0
  6
Continuous
100
AcDbCircle
 10
-642.540182
 20
-312.293284
 30
0.0
 40
3.0
100
AcDbArc
 50
60.0
 51
143.37419
  0
ARC
  5
363
100
AcDbEntity
  8
0
370
    -3
390
0
  6
Continuous
100
AcDbCircle
 10
-694.705856
 20
-273.515164
 30
0.0
 40
72.0
100
AcDbArc
 50
275.405444
 51
323.759869
  0
LINE
  5
364
100
AcDbEntity
  8
0
370
    -3
390
0
  6
Continuous
100
AcDbLine
 10
-637.554151
 20
-311.707869
 30
0.0
 11
-641.040182
 21
-309.695207
 31
0.0
  0
ARC
  5
365
100
AcDbEntity
  8
0
370
    -3
390
0
  6
Continuous
100
AcDbCircle
 10
-639.054151
 20
-314.305945
 30
0.0
 40
3.0
100
AcDbArc
 50
323.759869
 51
60.0
  0
ARC
  5
366
100
AcDbEntity
  8
0
370
    -3
390
0
  6
Continuous
100
AcDbCircle
 10
-694.705856
 20
-273.515164
 30
0.0
 40
77.0
100
AcDbArc
 50
274.660419
 51
324.620621
  0
ARC
  5
367
100
AcDbEntity
  8
0
370
    -3
390
0
  6
Continuous
100
AcDbCircle
 10
-629.478957
 20
-319.834185
 30
0.0
 40
3.0
100
AcDbArc
 50
60.0
 51
144.620621
  0
ARC
  5
368
100
AcDbEntity
  8
0
370
    -3
390
0
  6
Continuous
100
AcDbCircle
 10
-694.705856
 20
-273.515164
 30
0.0
 40
87.0
100
AcDbArc
 50
274.438039
 51
324.877484
  0
LINE
  5
369
100
AcDbEntity
  8
0
370
    -3
390
0
  6
Continuous
100
AcDbLine
 10
-624.500266
 20
-319.244533
 30
0.0
 11
-627.978957
 21
-317.236109
 31
0.0
  0
ARC
  5
36A
100
AcDbEntity
  8
0
370
    -3
390
0
  6
Continuous
100
AcDbCircle
 10
-626.000266
 20
-321.842609
 30
0.0
 40
3.0
100
AcDbArc
 50
324.877484
 51
60.0
  0
ARC
  5
36B
100
AcDbEntity
  8
0
370
    -3
390
0
  6
Continuous
100
AcDbCircle
 10
-694.705856
 20
-273.515164
 30
0.0
 40
100.0
100
AcDbArc
 50
214.434512
 51
266.157713
  0
ARC
  5
36C
100
AcDbEntity
  8
0
370
    -3
390
0
  6
Continuous
100
AcDbCircle
 10
-774.708841
 20
-328.365163
 30
0.0
 40
3.0
100
AcDbArc
 50
120.0
 51
214.434512
  0
ARC
  5
36D
100
AcDbEntity
  8
0
370
    -3
390
0
  6
Continuous
100
AcDbCircle
 10
-701.205856
 20
-370.297136
 30
0.0
 40
3.0
100
AcDbArc
 50
266.157713
 51
0.0
  0
LINE
  5
36E
100
AcDbEntity
  8
0
370
    -3
390
0
  6
Continuous
100
AcDbLine
 10
-698.205856
 20
-370.297136
 30
0.0
 11
-698.205856
 21
-369.294859
 31
0.0
  0
ARC
  5
36F
100
AcDbEntity
  8
0
370
    -3
390
0
  6
Continuous
100
AcDbCircle
 10
-701.205856
 20
-369.294859
 30
0.0
 40
3.0
100
AcDbArc
 50
0.0
 51
86.117628
  0
LINE
  5
370
100
AcDbEntity
  8
0
370
    -3
390
0
  6
Continuous
100
AcDbLine
 10
-776.208841
 20
-325.767087
 30
0.0
 11
-775.340188
 21
-325.26557
 31
0.0
  0
ARC
  5
371
100
AcDbEntity
  8
0
370
    -3
390
0
  6
Continuous
100
AcDbCircle
 10
-694.705856
 20
-273.515164
 30
0.0
 40
93.0
100
AcDbArc
 50
214.480799
 51
266.117628
  0
ARC
  5
372
100
AcDbEntity
  8
0
370
    -3
390
0
  6
Continuous
100
AcDbCircle
 10
-773.840188
 20
-327.863646
 30
0.0
 40
3.0
100
AcDbArc
 50
34.480799
 51
120.0
  0
ARC
  5
373
100
AcDbEntity
  8
0
370
    -3
390
0
  6
Continuous
100
AcDbCircle
 10
-701.205856
 20
-357.263298
 30
0.0
 40
3.0
100
AcDbArc
 50
265.561961
 51
0.0
  0
LINE
  5
374
100
AcDbEntity
  8
0
370
    -3
390
0
  6
Continuous
100
AcDbLine
 10
-698.205856
 20
-357.263298
 30
0.0
 11
-698.205856
 21
-353.250664
 31
0.0
  0
ARC
  5
375
100
AcDbEntity
  8
0
370
    -3
390
0
  6
Continuous
100
AcDbCircle
 10
-701.205856
 20
-353.250664
 30
0.0
 40
3.0
100
AcDbArc
 50
0.0
 51
85.339581
  0
ARC
  5
376
100
AcDbEntity
  8
0
370
    -3
390
0
  6
Continuous
100
AcDbCircle
 10
-701.205856
 20
-342.208322
 30
0.0
 40
3.0
100
AcDbArc
 50
264.594556
 51
0.0
  0
LINE
  5
377
100
AcDbEntity
  8
0
370
    -3
390
0
  6
Continuous
100
AcDbLine
 10
-698.205856
 20
-342.208322
 30
0.0
 11
-698.205856
 21
-338.189348
 31
0.0
  0
ARC
  5
378
100
AcDbEntity
  8
0
370
    -3
390
0
  6
Continuous
100
AcDbCircle
 10
-701.205856
 20
-338.189348
 30
0.0
 40
3.0
100
AcDbArc
 50
0.0
 51
84.26083
  0
ARC
  5
379
100
AcDbEntity
  8
0
370
    -3
390
0
  6
Continuous
100
AcDbCircle
 10
-701.205856
 20
-327.122533
 30
0.0
 40
3.0
100
AcDbArc
 50
263.086522
 51
0.0
  0
LINE
  5
37A
100
AcDbEntity
  8
0
370
    -3
390
0
  6
Continuous
100
AcDbLine
 10
-698.205856
 20
-327.122533
 30
0.0
 11
-698.205856
 21
-323.090864
 31
0.0
  0
ARC
  5
37B
100
AcDbEntity
  8
0
370
    -3
390
0
  6
Continuous
100
AcDbCircle
 10
-701.205856
 20
-323.090864
 30
0.0
 40
3.0
100
AcDbArc
 50
360.0
 51
82.530408
  0
ARC
  5
37C
100
AcDbEntity
  8
0
370
    -3
390
0
  6
Continuous
100
AcDbCircle
 10
-701.205856
 20
-311.969683
 30
0.0
 40
3.0
100
AcDbArc
 50
260.405932
 51
0.0
  0
LINE
  5
37D
100
AcDbEntity
  8
0
370
    -3
390
0
  6
Continuous
100
AcDbLine
 10
-698.205856
 20
-311.969683
 30
0.0
 11
-698.205856
 21
-307.906297
 31
0.0
  0
ARC
  5
37E
100
AcDbEntity
  8
0
370
    -3
390
0
  6
Continuous
100
AcDbCircle
 10
-701.205856
 20
-307.906297
 30
0.0
 40
3.0
100
AcDbArc
 50
0.0
 51
79.29722
  0
ARC
  5
37F
100
AcDbEntity
  8
0
370
    -3
390
0
  6
Continuous
100
AcDbCircle
 10
-694.705856
 20
-273.515164
 30
0.0
 40
32.0
100
AcDbArc
 50
222.373625
 51
259.29722
  0
ARC
  5
380
100
AcDbEntity
  8
0
370
    -3
390
0
  6
Continuous
100
AcDbCircle
 10
-720.562654
 20
-297.103848
 30
0.0
 40
3.0
100
AcDbArc
 50
42.373625
 51
120.0
  0
ARC
  5
381
100
AcDbEntity
  8
0
370
    -3
390
0
  6
Continuous
100
AcDbCircle
 10
-694.705856
 20
-273.515164
 30
0.0
 40
42.0
100
AcDbArc
 50
221.087489
 51
260.405932
  0
LINE
  5
382
100
AcDbEntity
  8
0
370
    -3
390
0
  6
Continuous
100
AcDbLine
 10
-725.600425
 20
-296.548305
 30
0.0
 11
-722.062654
 21
-294.505771
 31
0.0
  0
ARC
  5
383
100
AcDbEntity
  8
0
370
    -3
390
0
  6
Continuous
100
AcDbCircle
 10
-724.100425
 20
-299.146381
 30
0.0
 40
3.0
100
AcDbArc
 50
120.0
 51
221.087489
  0
ARC
  5
384
100
AcDbEntity
  8
0
370
    -3
390
0
  6
Continuous
100
AcDbCircle
 10
-710.699525
 20
-291.409368
 30
0.0
 40
3.0
100
AcDbArc
 50
120.0
 51
228.209957
  0
LINE
  5
385
100
AcDbEntity
  8
0
370
    -3
390
0
  6
Continuous
100
AcDbLine
 10
-712.199525
 20
-288.811292
 30
0.0
 11
-708.512396
 21
-286.682527
 31
0.0
  0
ARC
  5
386
100
AcDbEntity
  8
0
370
    -3
390
0
  6
Continuous
100
AcDbCircle
 10
-707.012396
 20
-289.280603
 30
0.0
 40
3.0
100
AcDbArc
 50
52.024313
 51
120.0
  0
ARC
  5
387
100
AcDbEntity
  8
0
370
    -3
390
0
  6
Continuous
100
AcDbCircle
 10
-694.705856
 20
-273.515164
 30
0.0
 40
17.0
100
AcDbArc
 50
232.024313
 51
251.034425
  0
ARC
  5
388
100
AcDbEntity
  8
0
370
    -3
390
0
  6
Continuous
100
AcDbCircle
 10
-701.205856
 20
-292.429444
 30
0.0
 40
3.0
100
AcDbArc
 50
0.0
 51
71.034425
  0
ARC
  5
389
100
AcDbEntity
  8
0
370
    -3
390
0
  6
Continuous
100
AcDbCircle
 10
-694.705856
 20
-273.515164
 30
0.0
 40
27.0
100
AcDbArc
 50
228.209957
 51
254.286139
  0
LINE
  5
38A
100
AcDbEntity
  8
0
370
    -3
390
0
  6
Continuous
100
AcDbLine
 10
-698.205856
 20
-296.618194
 30
0.0
 11
-698.205856
 21
-292.429444
 31
0.0
  0
ARC
  5
38B
100
AcDbEntity
  8
0
370
    -3
390
0
  6
Continuous
100
AcDbCircle
 10
-701.205856
 20
-296.618194
 30
0.0
 40
3.0
100
AcDbArc
 50
254.286139
 51
0.0
  0
ARC
  5
38C
100
AcDbEntity
  8
0
370
    -3
390
0
  6
Continuous
100
AcDbCircle
 10
-694.705856
 20
-273.515164
 30
0.0
 40
47.0
100
AcDbArc
 50
218.626927
 51
262.530408
  0
ARC
  5
38D
100
AcDbEntity
  8
0
370
    -3
390
0
  6
Continuous
100
AcDbCircle
 10
-733.767215
 20
-304.727505
 30
0.0
 40
3.0
100
AcDbArc
 50
38.626927
 51
120.0
  0
ARC
  5
38E
100
AcDbEntity
  8
0
370
    -3
390
0
  6
Continuous
100
AcDbCircle
 10
-694.705856
 20
-273.515164
 30
0.0
 40
57.0
100
AcDbArc
 50
217.983556
 51
263.086522
  0
LINE
  5
38F
100
AcDbEntity
  8
0
370
    -3
390
0
  6
Continuous
100
AcDbLine
 10
-738.767976
 20
-304.150594
 30
0.0
 11
-735.267215
 21
-302.129428
 31
0.0
  0
ARC
  5
390
100
AcDbEntity
  8
0
370
    -3
390
0
  6
Continuous
100
AcDbCircle
 10
-737.267976
 20
-306.74867
 30
0.0
 40
3.0
100
AcDbArc
 50
120.0
 51
217.983556
  0
ARC
  5
391
100
AcDbEntity
  8
0
370
    -3
390
0
  6
Continuous
100
AcDbCircle
 10
-694.705856
 20
-273.515164
 30
0.0
 40
62.0
100
AcDbArc
 50
216.62581
 51
264.26083
  0
ARC
  5
392
100
AcDbEntity
  8
0
370
    -3
390
0
  6
Continuous
100
AcDbCircle
 10
-746.871529
 20
-312.293284
 30
0.0
 40
3.0
100
AcDbArc
 50
36.62581
 51
120.0
  0
ARC
  5
393
100
AcDbEntity
  8
0
370
    -3
390
0
  6
Continuous
100
AcDbCircle
 10
-694.705856
 20
-273.515164
 30
0.0
 40
72.0
100
AcDbArc
 50
216.240131
 51
264.594556
  0
LINE
  5
394
100
AcDbEntity
  8
0
370
    -3
390
0
  6
Continuous
100
AcDbLine
 10
-751.85756
 20
-311.707869
 30
0.0
 11
-748.371529
 21
-309.695207
 31
0.0
  0
ARC
  5
395
100
AcDbEntity
  8
0
370
    -3
390
0
  6
Continuous
100
AcDbCircle
 10
-750.35756
 20
-314.305945
 30
0.0
 40
3.0
100
AcDbArc
 50
120.0
 51
216.240131
  0
ARC
  5
396
100
AcDbEntity
  8
0
370
    -3
390
0
  6
Continuous
100
AcDbCircle
 10
-694.705856
 20
-273.515164
 30
0.0
 40
77.0
100
AcDbArc
 50
215.379379
 51
265.339581
  0
ARC
  5
397
100
AcDbEntity
  8
0
370
    -3
390
0
  6
Continuous
100
AcDbCircle
 10
-759.932754
 20
-319.834185
 30
0.0
 40
3.0
100
AcDbArc
 50
35.379379
 51
120.0
  0
ARC
  5
398
100
AcDbEntity
  8
0
370
    -3
390
0
  6
Continuous
100
AcDbCircle
 10
-694.705856
 20
-273.515164
 30
0.0
 40
87.0
100
AcDbArc
 50
215.122516
 51
265.561961
  0
LINE
  5
399
100
AcDbEntity
  8
0
370
    -3
390
0
  6
Continuous
100
AcDbLine
 10
-764.911445
 20
-319.244533
 30
0.0
 11
-761.432754
 21
-317.236109
 31
0.0
  0
ARC
  5
39A
100
AcDbEntity
  8
0
370
    -3
390
0
  6
Continuous
100
AcDbCircle
 10
-763.411445
 20
-321.842609
 30
0.0
 40
3.0
100
AcDbArc
 50
120.0
 51
215.122516
  0
ARC
  5
39B
100
AcDbEntity
  8
0
370
    -3
390
0
  6
Continuous
100
AcDbCircle
 10
-770.911445
 20
-308.852228
 30
0.0
 40
3.0
100
AcDbArc
 50
204.877484
 51
300.0
  0
ARC
  5
39C
100
AcDbEntity
  8
0
370
    -3
390
0
  6
Continuous
100
AcDbCircle
 10
-767.432754
 20
-306.843804
 30
0.0
 40
3.0
100
AcDbArc
 50
300.0
 51
24.620621
  0
ARC
  5
39D
100
AcDbEntity
  8
0
370
    -3
390
0
  6
Continuous
100
AcDbCircle
 10
-757.85756
 20
-301.315564
 30
0.0
 40
3.0
100
AcDbArc
 50
203.759869
 51
300.0
  0
ARC
  5
39E
100
AcDbEntity
  8
0
370
    -3
390
0
  6
Continuous
100
AcDbCircle
 10
-754.371529
 20
-299.302903
 30
0.0
 40
3.0
100
AcDbArc
 50
300.0
 51
23.37419
  0
ARC
  5
39F
100
AcDbEntity
  8
0
370
    -3
390
0
  6
Continuous
100
AcDbCircle
 10
-744.767976
 20
-293.758289
 30
0.0
 40
3.0
100
AcDbArc
 50
202.016444
 51
300.0
  0
ARC
  5
3A0
100
AcDbEntity
  8
0
370
    -3
390
0
  6
Continuous
100
AcDbCircle
 10
-741.267215
 20
-291.737124
 30
0.0
 40
3.0
100
AcDbArc
 50
300.0
 51
21.373073
  0
ARC
  5
3A1
100
AcDbEntity
  8
0
370
    -3
390
0
  6
Continuous
100
AcDbCircle
 10
-717.963667
 20
-267.592814
 30
0.0
 40
3.0
100
AcDbArc
 50
60.0
 51
165.713861
  0
ARC
  5
3A2
100
AcDbEntity
  8
0
370
    -3
390
0
  6
Continuous
100
AcDbCircle
 10
-714.336103
 20
-269.687189
 30
0.0
 40
3.0
100
AcDbArc
 50
348.965575
 51
60.0
  0
ARC
  5
3A3
100
AcDbEntity
  8
0
370
    -3
390
0
  6
Continuous
100
AcDbCircle
 10
-714.512396
 20
-276.290222
 30
0.0
 40
3.0
100
AcDbArc
 50
300.0
 51
7.975687
  0
ARC
  5
3A4
100
AcDbEntity
  8
0
370
    -3
390
0
  6
Continuous
100
AcDbCircle
 10
-718.199525
 20
-278.418987
 30
0.0
 40
3.0
100
AcDbArc
 50
191.790043
 51
300.0
  0
ARC
  5
3A5
100
AcDbEntity
  8
0
370
    -3
390
0
  6
Continuous
100
AcDbCircle
 10
-731.600425
 20
-286.156
 30
0.0
 40
3.0
100
AcDbArc
 50
198.912511
 51
300.0
  0
ARC
  5
3A6
100
AcDbEntity
  8
0
370
    -3
390
0
  6
Continuous
100
AcDbCircle
 10
-728.062654
 20
-284.113467
 30
0.0
 40
3.0
100
AcDbArc
 50
300.0
 51
17.626375
  0
ARC
  5
3A7
100
AcDbEntity
  8
0
370
    -3
390
0
  6
Continuous
100
AcDbCircle
 10
-727.73945
 20
-261.948763
 30
0.0
 40
3.0
100
AcDbArc
 50
340.70278
 51
60.0
  0
ARC
  5
3A8
100
AcDbEntity
  8
0
370
    -3
390
0
  6
Continuous
100
AcDbCircle
 10
-731.258446
 20
-259.91707
 30
0.0
 40
3.0
100
AcDbArc
 50
60.0
 51
159.594068
  0
ARC
  5
3A9
100
AcDbEntity
  8
0
370
    -3
390
0
  6
Continuous
100
AcDbCircle
 10
-740.889671
 20
-254.356479
 30
0.0
 40
3.0
100
AcDbArc
 50
337.469592
 51
60.0
  0
ARC
  5
3AA
100
AcDbEntity
  8
0
370
    -3
390
0
  6
Continuous
100
AcDbCircle
 10
-744.381199
 20
-252.340645
 30
0.0
 40
3.0
100
AcDbArc
 50
60.0
 51
156.913478
  0
ARC
  5
3AB
100
AcDbEntity
  8
0
370
    -3
390
0
  6
Continuous
100
AcDbCircle
 10
-753.965341
 20
-246.807238
 30
0.0
 40
3.0
100
AcDbArc
 50
335.73917
 51
60.0
  0
ARC
  5
3AC
100
AcDbEntity
  8
0
370
    -3
390
0
  6
Continuous
100
AcDbCircle
 10
-757.445876
 20
-244.79775
 30
0.0
 40
3.0
100
AcDbArc
 50
60.0
 51
155.405444
  0
ARC
  5
3AD
100
AcDbEntity
  8
0
370
    -3
390
0
  6
Continuous
100
AcDbCircle
 10
-767.008824
 20
-239.276579
 30
0.0
 40
3.0
100
AcDbArc
 50
334.660419
 51
60.0
  0
ARC
  5
3AE
100
AcDbEntity
  8
0
370
    -3
390
0
  6
Continuous
100
AcDbCircle
 10
-770.483867
 20
-237.270262
 30
0.0
 40
3.0
100
AcDbArc
 50
60.0
 51
154.438039
  0
ARC
  5
3AF
100
AcDbEntity
  8
0
370
    -3
390
0
  6
Continuous
100
AcDbCircle
 10
-694.705856
 20
-273.515164
 30
0.0
 40
17.0
100
AcDbArc
 50
168.965575
 51
187.975687
  0
ARC
  5
3B0
100
AcDbEntity
  8
0
370
    -3
390
0
  6
Continuous
100
AcDbCircle
 10
-694.705856
 20
-273.515164
 30
0.0
 40
27.0
100
AcDbArc
 50
165.713861
 51
191.790043
  0
ARC
  5
3B1
100
AcDbEntity
  8
0
370
    -3
390
0
  6
Continuous
100
AcDbCircle
 10
-694.705856
 20
-273.515164
 30
0.0
 40
32.0
100
AcDbArc
 50
160.70278
 51
197.626375
  0
ARC
  5
3B2
100
AcDbEntity
  8
0
370
    -3
390
0
  6
Continuous
100
AcDbCircle
 10
-694.705856
 20
-273.515164
 30
0.0
 40
42.0
100
AcDbArc
 50
159.594068
 51
198.912511
  0
ARC
  5
3B3
100
AcDbEntity
  8
0
370
    -3
390
0
  6
Continuous
100
AcDbCircle
 10
-694.705856
 20
-273.515164
 30
0.0
 40
47.0
100
AcDbArc
 50
157.469592
 51
201.373073
  0
ARC
  5
3B4
100
AcDbEntity
  8
0
370
    -3
390
0
  6
Continuous
100
AcDbCircle
 10
-694.705856
 20
-273.515164
 30
0.0
 40
57.0
100
AcDbArc
 50
156.913478
 51
202.016444
  0
ARC
  5
3B5
100
AcDbEntity
  8
0
370
    -3
390
0
  6
Continuous
100
AcDbCircle
 10
-694.705856
 20
-273.515164
 30
0.0
 40
62.0
100
AcDbArc
 50
155.73917
 51
203.37419
  0
ARC
  5
3B6
100
AcDbEntity
  8
0
370
    -3
390
0
  6
Continuous
100
AcDbCircle
 10
-694.705856
 20
-273.515164
 30
0.0
 40
72.0
100
AcDbArc
 50
155.405444
 51
203.759869
  0
ARC
  5
3B7
100
AcDbEntity
  8
0
370
    -3
390
0
  6
Continuous
100
AcDbCircle
 10
-694.705856
 20
-273.515164
 30
0.0
 40
77.0
100
AcDbArc
 50
154.660419
 51
204.620621
  0
ARC
  5
3B8
100
AcDbEntity
  8
0
370
    -3
390
0
  6
Continuous
100
AcDbCircle
 10
-694.705856
 20
-273.515164
 30
0.0
 40
87.0
100
AcDbArc
 50
154.438039
 51
204.877484
  0
ARC
  5
3B9
100
AcDbEntity
  8
0
370
    -3
390
0
  6
Continuous
100
AcDbCircle
 10
-781.340188
 20
-314.873265
 30
0.0
 40
3.0
100
AcDbArc
 50
300.0
 51
25.519201
  0
ARC
  5
3BA
100
AcDbEntity
  8
0
370
    -3
390
0
  6
Continuous
100
AcDbCircle
 10
-780.903505
 20
-231.254482
 30
0.0
 40
3.0
100
AcDbArc
 50
333.882372
 51
60.0
  0
ARC
  5
3BB
100
AcDbEntity
  8
0
370
    -3
390
0
  6
Continuous
100
AcDbCircle
 10
-694.705856
 20
-273.515164
 30
0.0
 40
93.0
100
AcDbArc
 50
153.882372
 51
205.519201
  0
ARC
  5
3BC
100
AcDbEntity
  8
0
370
    -3
390
0
  6
Continuous
100
AcDbCircle
 10
-694.705856
 20
-717.515164
 30
0.0
 40
560.993
100
AcDbArc
 50
90.0
 51
93.351477
  0
ARC
  5
3BD
100
AcDbEntity
  8
0
370
    -3
390
0
  6
Continuous
100
AcDbCircle
 10
-694.705856
 20
-273.515164
 30
0.0
 40
125.993
100
AcDbArc
 50
128.578295
 51
141.421705
  0
ARC
  5
3BE
100
AcDbEntity
  8
0
370
    -3
390
0
  6
Continuous
100
AcDbCircle
 10
-722.767113
 20
-238.33611
 30
0.0
 40
80.993
100
AcDbArc
 50
93.351477
 51
128.578295
  0
ARC
  5
3BF
100
AcDbEntity
  8
0
370
    -3
390
0
  6
Continuous
100
AcDbCircle
 10
-729.88491
 20
-245.453907
 30
0.0
 40
80.993
100
AcDbArc
 50
141.421705
 51
176.648523
  0
ARC
  5
3C0
100
AcDbEntity
  8
0
370
    -3
390
0
  6
Continuous
100
AcDbCircle
 10
-250.705856
 20
-273.515164
 30
0.0
 40
560.993
100
AcDbArc
 50
176.648523
 51
180.0
  0
ARC
  5
3C1
100
AcDbEntity
  8
0
370
    -3
390
0
  6
Continuous
100
AcDbCircle
 10
-694.705856
 20
-717.515164
 30
0.0
 40
560.993
100
AcDbArc
 50
86.648523
 51
90.0
  0
ARC
  5
3C2
100
AcDbEntity
  8
0
370
    -3
390
0
  6
Continuous
100
AcDbCircle
 10
-694.705856
 20
-273.515164
 30
0.0
 40
125.993
100
AcDbArc
 50
38.578295
 51
51.421705
  0
ARC
  5
3C3
100
AcDbEntity
  8
0
370
    -3
390
0
  6
Continuous
100
AcDbCircle
 10
-666.644598
 20
-238.33611
 30
0.0
 40
80.993
100
AcDbArc
 50
51.421705
 51
86.648523
  0
ARC
  5
3C4
100
AcDbEntity
  8
0
370
    -3
390
0
  6
Continuous
100
AcDbCircle
 10
-659.526801
 20
-245.453907
 30
0.0
 40
80.993
100
AcDbArc
 50
3.351477
 51
38.578295
  0
ARC
  5
3C5
100
AcDbEntity
  8
0
370
    -3
390
0
  6
Continuous
100
AcDbCircle
 10
-1138.705856
 20
-273.515164
 30
0.0
 40
560.993
100
AcDbArc
 50
0.0
 51
3.351477
  0
ARC
  5
3C6
100
AcDbEntity
  8
0
370
    -3
390
0
  6
Continuous
100
AcDbCircle
 10
-694.705856
 20
170.484836
 30
0.0
 40
560.993
100
AcDbArc
 50
270.0
 51
273.351477
  0
ARC
  5
3C7
100
AcDbEntity
  8
0
370
    -3
390
0
  6
Continuous
100
AcDbCircle
 10
-694.705856
 20
-273.515164
 30
0.0
 40
125.993
100
AcDbArc
 50
308.578295
 51
321.421705
  0
ARC
  5
3C8
100
AcDbEntity
  8
0
370
    -3
390
0
  6
Continuous
100
AcDbCircle
 10
-666.644598
 20
-308.694218
 30
0.0
 40
80.993
100
AcDbArc
 50
273.351477
 51
308.578295
  0
ARC
  5
3C9
100
AcDbEntity
  8
0
370
    -3
390
0
  6
Continuous
100
AcDbCircle
 10
-659.526801
 20
-301.576421
 30
0.0
 40
80.993
100
AcDbArc
 50
321.421705
 51
356.648523
  0
ARC
  5
3CA
100
AcDbEntity
  8
0
370
    -3
390
0
  6
Continuous
100
AcDbCircle
 10
-1138.705856
 20
-273.515164
 30
0.0
 40
560.993
100
AcDbArc
 50
356.648523
 51
360.0
  0
ARC
  5
3CB
100
AcDbEntity
  8
0
370
    -3
390
0
  6
Continuous
100
AcDbCircle
 10
-250.705856
 20
-273.515164
 30
0.0
 40
560.993
100
AcDbArc
 50
180.0
 51
183.351477
  0
ARC
  5
3CC
100
AcDbEntity
  8
0
370
    -3
390
0
  6
Continuous
100
AcDbCircle
 10
-729.88491
 20
-301.576421
 30
0.0
 40
80.993
100
AcDbArc
 50
183.351477
 51
218.578295
  0
ARC
  5
3CD
100
AcDbEntity
  8
0
370
    -3
390
0
  6
Continuous
100
AcDbCircle
 10
-694.705856
 20
-273.515164
 30
0.0
 40
125.993
100
AcDbArc
 50
218.578295
 51
231.421705
  0
ARC
  5
3CE
100
AcDbEntity
  8
0
370
    -3
390
0
  6
Continuous
100
AcDbCircle
 10
-722.767113
 20
-308.694218
 30
0.0
 40
80.993
100
AcDbArc
 50
231.421705
 51
266.648523
  0
ARC
  5
3CF
100
AcDbEntity
  8
0
370
    -3
390
0
  6
Continuous
100
AcDbCircle
 10
-694.705856
 20
170.484836
 30
0.0
 40
560.993
100
AcDbArc
 50
266.648523
 51
270.0
  0
ARC
  5
3D0
100
AcDbEntity
  8
0
370
    -3
390
0
  6
Continuous
100
AcDbCircle
 10
-1138.705856
 20
-273.515164
 30
0.0
 40
581.2
100
AcDbArc
 50
0.0
 51
3.351477
  0
ARC
  5
3D1
100
AcDbEntity
  8
0
370
    -3
390
0
  6
Continuous
100
AcDbCircle
 10
-659.526801
 20
-245.453907
 30
0.0
 40
101.2
100
AcDbArc
 50
3.351477
 51
38.578295
  0
ARC
  5
3D2
100
AcDbEntity
  8
0
370
    -3
390
0
  6
Continuous
100
AcDbCircle
 10
-694.705856
 20
-273.515164
 30
0.0
 40
146.2
100
AcDbArc
 50
38.578295
 51
51.421705
  0
ARC
  5
3D3
100
AcDbEntity
  8
0
370
    -3
390
0
  6
Continuous
100
AcDbCircle
 10
-666.644598
 20
-238.33611
 30
0.0
 40
101.2
100
AcDbArc
 50
51.421705
 51
86.648523
  0
ARC
  5
3D4
100
AcDbEntity
  8
0
370
    -3
390
0
  6
Continuous
100
AcDbCircle
 10
-694.705856
 20
-717.515164
 30
0.0
 40
581.2
100
AcDbArc
 50
86.648523
 51
90.0
  0
LINE
  5
3D5
100
AcDbEntity
  8
0
370
    -3
390
0
  6
Continuous
100
AcDbLine
 10
-768.983867
 20
-234.672186
 30
0.0
 11
-765.508824
 21
-236.678503
 31
0.0
  0
LINE
  5
3D6
100
AcDbEntity
  8
0
370
    -3
390
0
  6
Continuous
100
AcDbLine
 10
-780.271501
 20
-228.155267
 30
0.0
 11
-779.403505
 21
-228.656406
 31
0.0
  0
ARC
  5
3D7
100
AcDbEntity
  8
0
370
    -3
390
0
  6
Continuous
100
AcDbCircle
 10
-781.771501
 20
-230.753344
 30
0.0
 40
3.0
100
AcDbArc
 50
60.0
 51
153.842287
  0
ARC
  5
3D8
100
AcDbEntity
  8
0
370
    -3
390
0
  6
Continuous
100
AcDbCircle
 10
-782.208841
 20
-315.374782
 30
0.0
 40
3.0
100
AcDbArc
 50
205.565488
 51
300.0
  0
LINE
  5
3D9
100
AcDbEntity
  8
0
370
    -3
390
0
  6
Continuous
100
AcDbLine
 10
-780.708841
 20
-317.972858
 30
0.0
 11
-779.840188
 21
-317.471341
 31
0.0
  0
LINE
  5
3DA
100
AcDbEntity
  8
0
370
    -3
390
0
  6
Continuous
100
AcDbLine
 10
-769.411445
 20
-311.450304
 30
0.0
 11
-765.932754
 21
-309.441881
 31
0.0
  0
ARC
  5
3DB
100
AcDbEntity
  8
0
370
    -3
390
0
  6
Continuous
100
AcDbCircle
 10
-694.705856
 20
-273.515164
 30
0.0
 40
100.0
100
AcDbArc
 50
153.842287
 51
205.565488
  0
LINE
  5
3DC
100
AcDbEntity
  8
0
370
    -3
390
0
  6
Continuous
100
AcDbLine
 10
-729.758446
 20
-257.318994
 30
0.0
 11
-726.23945
 21
-259.350687
 31
0.0
  0
LINE
  5
3DD
100
AcDbEntity
  8
0
370
    -3
390
0
  6
Continuous
100
AcDbLine
 10
-742.881199
 20
-249.742569
 30
0.0
 11
-739.389671
 21
-251.758403
 31
0.0
  0
LINE
  5
3DE
100
AcDbEntity
  8
0
370
    -3
390
0
  6
Continuous
100
AcDbLine
 10
-755.945876
 20
-242.199674
 30
0.0
 11
-752.465341
 21
-244.209161
 31
0.0
  0
LINE
  5
3DF
100
AcDbEntity
  8
0
370
    -3
390
0
  6
Continuous
100
AcDbLine
 10
-756.35756
 20
-303.91364
 30
0.0
 11
-752.871529
 21
-301.900979
 31
0.0
  0
LINE
  5
3E0
100
AcDbEntity
  8
0
370
    -3
390
0
  6
Continuous
100
AcDbLine
 10
-743.267976
 20
-296.356365
 30
0.0
 11
-739.767215
 21
-294.3352
 31
0.0
  0
LINE
  5
3E1
100
AcDbEntity
  8
0
370
    -3
390
0
  6
Continuous
100
AcDbLine
 10
-730.100425
 20
-288.754076
 30
0.0
 11
-726.562654
 21
-286.711543
 31
0.0
  0
LINE
  5
3E2
100
AcDbEntity
  8
0
370
    -3
390
0
  6
Continuous
100
AcDbLine
 10
-716.699525
 20
-281.017063
 30
0.0
 11
-713.012396
 21
-278.888298
 31
0.0
  0
LINE
  5
3E3
100
AcDbEntity
  8
0
370
    -3
390
0
  6
Continuous
100
AcDbLine
 10
-716.463667
 20
-264.994738
 30
0.0
 11
-712.836103
 21
-267.089113
 31
0.0
  0
ARC
  5
3E4
100
AcDbEntity
  8
0
370
    -3
390
0
  6
Continuous
100
AcDbCircle
 10
-722.767113
 20
-238.33611
 30
0.0
 40
101.2
100
AcDbArc
 50
93.351477
 51
128.578295
  0
ARC
  5
3E5
100
AcDbEntity
  8
0
370
    -3
390
0
  6
Continuous
100
AcDbCircle
 10
-694.705856
 20
-717.515164
 30
0.0
 40
581.2
100
AcDbArc
 50
90.0
 51
93.351477
  0
ARC
  5
3E6
100
AcDbEntity
  8
0
370
    -3
390
0
  6
Continuous
100
AcDbCircle
 10
-729.88491
 20
-245.453907
 30
0.0
 40
101.2
100
AcDbArc
 50
141.421705
 51
176.648523
  0
ARC
  5
3E7
100
AcDbEntity
  8
0
370
    -3
390
0
  6
Continuous
100
AcDbCircle
 10
-250.705856
 20
-273.515164
 30
0.0
 40
581.2
100
AcDbArc
 50
176.648523
 51
180.0
  0
ARC
  5
3E8
100
AcDbEntity
  8
0
370
    -3
390
0
  6
Continuous
100
AcDbCircle
 10
-722.767113
 20
-308.694218
 30
0.0
 40
101.2
100
AcDbArc
 50
231.421705
 51
266.648523
  0
ARC
  5
3E9
100
AcDbEntity
  8
0
370
    -3
390
0
  6
Continuous
100
AcDbCircle
 10
-694.705856
 20
170.484836
 30
0.0
 40
581.2
100
AcDbArc
 50
266.648523
 51
270.0
  0
ARC
  5
3EA
100
AcDbEntity
  8
0
370
    -3
390
0
  6
Continuous
100
AcDbCircle
 10
-694.705856
 20
-273.515164
 30
0.0
 40
146.2
100
AcDbArc
 50
218.578295
 51
231.421705
  0
ARC
  5
3EB
100
AcDbEntity
  8
0
370
    -3
390
0
  6
Continuous
100
AcDbCircle
 10
-729.88491
 20
-301.576421
 30
0.0
 40
101.2
100
AcDbArc
 50
183.351477
 51
218.578295
  0
ARC
  5
3EC
100
AcDbEntity
  8
0
370
    -3
390
0
  6
Continuous
100
AcDbCircle
 10
-250.705856
 20
-273.515164
 30
0.0
 40
581.2
100
AcDbArc
 50
180.0
 51
183.351477
  0
ARC
  5
3ED
100
AcDbEntity
  8
0
370
    -3
390
0
  6
Continuous
100
AcDbCircle
 10
-666.644598
 20
-308.694218
 30
0.0
 40
101.2
100
AcDbArc
 50
273.351477
 51
308.578295
  0
ARC
  5
3EE
100
AcDbEntity
  8
0
370
    -3
390
0
  6
Continuous
100
AcDbCircle
 10
-694.705856
 20
170.484836
 30
0.0
 40
581.2
100
AcDbArc
 50
270.0
 51
273.351477
  0
ARC
  5
3EF
100
AcDbEntity
  8
0
370
    -3
390
0
  6
Continuous
100
AcDbCircle
 10
-694.705856
 20
-273.515164
 30
0.0
 40
146.2
100
AcDbArc
 50
308.578295
 51
321.421705
  0
ARC
  5
3F0
100
AcDbEntity
  8
0
370
    -3
390
0
  6
Continuous
100
AcDbCircle
 10
-659.526801
 20
-301.576421
 30
0.0
 40
101.2
100
AcDbArc
 50
321.421705
 51
356.648523
  0
ARC
  5
3F1
100
AcDbEntity
  8
0
370
    -3
390
0
  6
Continuous
100
AcDbCircle
 10
-1138.705856
 20
-273.515164
 30
0.0
 40
581.2
100
AcDbArc
 50
356.648523
 51
360.0
  0
LINE
  5
3F2
100
AcDbEntity
  8
0
370
    -3
390
0
  6
Continuous
100
AcDbLine
 10
-592.988545
 20
-162.959019
 30
0.0
 11
-584.14971
 21
-171.797854
 31
0.0
  0
LINE
  5
3F3
100
AcDbEntity
  8
0
370
    -3
390
0
  6
Continuous
100
AcDbLine
 10
-585.104304
 20
-173.106001
 30
0.0
 11
-594.296693
 21
-163.913613
 31
0.0
  0
LINE
  5
3F4
100
AcDbEntity
  8
0
370
    -3
390
0
  6
Continuous
100
AcDbLine
 10
-557.305856
 20
-298.115164
 30
0.0
 11
-558.026701
 21
-298.115164
 31
0.0
  0
LINE
  5
3F5
100
AcDbEntity
  8
0
370
    -3
390
0
  6
Continuous
100
AcDbLine
 10
-557.305856
 20
-248.915164
 30
0.0
 11
-558.026701
 21
-248.915164
 31
0.0
  0
LINE
  5
3F6
100
AcDbEntity
  8
0
370
    -3
390
0
  6
Continuous
100
AcDbLine
 10
-553.640805
 20
-234.851583
 30
0.0
 11
-505.208752
 21
-338.714455
 31
0.0
  0
LINE
  5
3F7
100
AcDbEntity
  8
0
370
    -3
390
0
  6
Continuous
100
AcDbLine
 10
-510.431068
 20
-327.515164
 30
0.0
 11
-545.905856
 21
-327.515164
 31
0.0
  0
ARC
  5
3F8
100
AcDbEntity
  8
0
370
    -3
390
0
  6
Continuous
100
AcDbCircle
 10
-504.46974
 20
-328.991135
 30
0.0
 40
1.299999
100
AcDbArc
 50
41.601548
 51
106.135447
  0
ARC
  5
3F9
100
AcDbEntity
  8
0
370
    -3
390
0
  6
Continuous
100
AcDbCircle
 10
-1102.753891
 20
-269.015164
 30
0.0
 40
600.8
100
AcDbArc
 50
354.170309
 51
1.331487
  0
LINE
  5
3FA
100
AcDbEntity
  8
0
370
    -3
390
0
  6
Continuous
100
AcDbLine
 10
-549.647432
 20
-234.423833
 30
0.0
 11
-502.314187
 21
-335.930306
 31
0.0
  0
LINE
  5
3FB
100
AcDbEntity
  8
0
370
    -3
390
0
  6
CENTER
100
AcDbLine
 10
-526.705856
 20
-318.797256
 30
0.0
 11
-526.705856
 21
-331.832641
 31
0.0
  0
ARC
  5
3FC
100
AcDbEntity
  8
0
370
    -3
390
0
  6
Continuous
100
AcDbCircle
 10
-502.610219
 20
-332.978891
 30
0.0
 40
1.299999
100
AcDbArc
 50
294.999999
 51
8.398469
  0
LINE
  5
3FD
100
AcDbEntity
  8
0
370
    -3
390
0
  6
Continuous
100
AcDbLine
 10
-502.948114
 20
-334.570844
 30
0.0
 11
-502.060816
 21
-334.15709
 31
0.0
  0
POINT
  5
3FE
100
AcDbEntity
  8
0
370
    -3
390
0
  6
Continuous
100
AcDbPoint
 10
-504.427278
 20
-331.398767
 30
0.0
  0
ARC
  5
3FF
100
AcDbEntity
  8
0
370
    -3
390
0
  6
Continuous
100
AcDbCircle
 10
-510.227647
 20
-334.103523
 30
0.0
 40
9.0
100
AcDbArc
 50
8.398469
 51
41.601548
  0
ARC
  5
400
100
AcDbEntity
  8
0
370
    -3
390
0
  6
Continuous
100
AcDbCircle
 10
-623.80799
 20
-527.107211
 30
0.0
 40
300.8
100
AcDbArc
 50
66.739678
 51
75.515443
  0
ARC
  5
401
100
AcDbEntity
  8
0
370
    -3
390
0
  6
Continuous
100
AcDbCircle
 10
-506.914817
 20
-255.166067
 30
0.0
 40
4.8
100
AcDbArc
 50
1.331487
 51
66.739678
  0
LINE
  5
402
100
AcDbEntity
  8
0
370
    -3
390
0
  6
Continuous
100
AcDbLine
 10
-502.942983
 20
-337.657909
 30
0.0
 11
-505.208752
 21
-338.714455
 31
0.0
  0
ARC
  5
403
100
AcDbEntity
  8
0
370
    -3
390
0
  6
Continuous
100
AcDbCircle
 10
-503.492387
 20
-336.479709
 30
0.0
 40
1.3
100
AcDbArc
 50
295.0
 51
25.0
  0
ARC
  5
404
100
AcDbEntity
  8
0
370
    -3
390
0
  6
Continuous
100
AcDbCircle
 10
-545.905856
 20
-320.715164
 30
0.0
 40
6.8
100
AcDbArc
 50
180.0
 51
270.0
  0
LINE
  5
405
100
AcDbEntity
  8
0
370
    -3
390
0
  6
Continuous
100
AcDbLine
 10
-551.375036
 20
-233.795037
 30
0.0
 11
-553.640805
 21
-234.851583
 31
0.0
  0
ARC
  5
406
100
AcDbEntity
  8
0
370
    -3
390
0
  6
Continuous
100
AcDbCircle
 10
-550.825632
 20
-234.973237
 30
0.0
 40
1.3
100
AcDbArc
 50
25.0
 51
115.0
  0
LINE
  5
407
100
AcDbEntity
  8
0
370
    -3
390
0
  6
Continuous
100
AcDbLine
 10
-552.689524
 20
-237.274653
 30
0.0
 11
-552.503312
 21
-237.290944
 31
0.0
  0
LINE
  5
408
100
AcDbEntity
  8
0
370
    -3
390
0
  6
Continuous
100
AcDbLine
 10
-552.661307
 20
-236.952125
 30
0.0
 11
-552.689524
 21
-237.274653
 31
0.0
  0
ARC
  5
409
100
AcDbEntity
  8
0
370
    -3
390
0
  6
Continuous
100
AcDbCircle
 10
-549.905856
 20
-240.392241
 30
0.0
 40
2.8
100
AcDbArc
 50
136.879375
 51
180.0
  0
LINE
  5
40A
100
AcDbEntity
  8
0
370
    -3
390
0
  6
Continuous
100
AcDbLine
 10
-552.705856
 20
-242.515164
 30
0.0
 11
-553.705856
 21
-242.515164
 31
0.0
  0
LINE
  5
40B
100
AcDbEntity
  8
0
370
    -3
390
0
  6
Continuous
100
AcDbLine
 10
-552.705856
 20
-304.515164
 30
0.0
 11
-553.705856
 21
-304.515164
 31
0.0
  0
LINE
  5
40C
100
AcDbEntity
  8
0
370
    -3
390
0
  6
Continuous
100
AcDbLine
 10
-553.705856
 20
-242.515164
 30
0.0
 11
-553.705856
 21
-304.515164
 31
0.0
  0
ARC
  5
40D
100
AcDbEntity
  8
0
370
    -3
390
0
  6
Continuous
100
AcDbCircle
 10
-548.322062
 20
-234.899897
 30
0.0
 40
1.0
100
AcDbArc
 50
205.0
 51
255.515443
  0
LINE
  5
40E
100
AcDbEntity
  8
0
370
    -3
390
0
  6
Continuous
100
AcDbLine
 10
-552.705856
 20
-240.392241
 30
0.0
 11
-552.705856
 21
-320.715164
 31
0.0
  0
LINE
  5
40F
100
AcDbEntity
  8
0
370
    -3
390
0
  6
Continuous
100
AcDbLine
 10
-553.705856
 20
-242.515164
 30
0.0
 11
-555.305856
 21
-242.515164
 31
0.0
  0
LINE
  5
410
100
AcDbEntity
  8
0
370
    -3
390
0
  6
Continuous
100
AcDbLine
 10
-555.305856
 20
-242.515164
 30
0.0
 11
-555.305856
 21
-304.515164
 31
0.0
  0
LINE
  5
411
100
AcDbEntity
  8
0
370
    -3
390
0
  6
Continuous
100
AcDbLine
 10
-553.705856
 20
-304.515164
 30
0.0
 11
-553.705856
 21
-242.515164
 31
0.0
  0
ARC
  5
412
100
AcDbEntity
  8
0
370
    -3
390
0
  6
Continuous
100
AcDbCircle
 10
-557.305856
 20
-246.915164
 30
0.0
 40
2.0
100
AcDbArc
 50
270.0
 51
0.0
  0
LINE
  5
413
100
AcDbEntity
  8
0
370
    -3
390
0
  6
Continuous
100
AcDbLine
 10
-553.705856
 20
-304.515164
 30
0.0
 11
-555.305856
 21
-304.515164
 31
0.0
  0
ARC
  5
414
100
AcDbEntity
  8
0
370
    -3
390
0
  6
Continuous
100
AcDbCircle
 10
-557.305856
 20
-300.115164
 30
0.0
 40
2.0
100
AcDbArc
 50
0.0
 51
90.0
  0
LINE
  5
415
100
AcDbEntity
  8
0
370
    -3
390
0
  6
Continuous
100
AcDbLine
 10
-594.119916
 20
-164.09039
 30
0.0
 11
-592.988545
 21
-162.959019
 31
0.0
  0
LINE
  5
416
100
AcDbEntity
  8
0
370
    -3
390
0
  6
Continuous
100
AcDbLine
 10
-585.281081
 20
-172.929225
 30
0.0
 11
-584.14971
 21
-171.797854
 31
0.0
  0
LINE
  5
417
100
AcDbEntity
  8
0
370
    -3
390
0
  6
Continuous
100
AcDbLine
 10
-585.104304
 20
-173.813108
 30
0.0
 11
-586.495661
 21
-175.204464
 31
0.0
  0
LINE
  5
418
100
AcDbEntity
  8
0
370
    -3
390
0
  6
Continuous
100
AcDbLine
 10
-595.003799
 20
-163.913613
 30
0.0
 11
-596.395156
 21
-165.304969
 31
0.0
  0
ARC
  5
419
100
AcDbEntity
  8
0
370
    -3
390
0
  6
Continuous
100
AcDbCircle
 10
-594.650246
 20
-164.267166
 30
0.0
 40
0.5
100
AcDbArc
 50
45.0
 51
135.0
  0
ARC
  5
41A
100
AcDbEntity
  8
0
370
    -3
390
0
  6
Continuous
100
AcDbCircle
 10
-585.457858
 20
-173.459555
 30
0.0
 40
0.5
100
AcDbArc
 50
315.0
 51
45.0
  0
ARC
  5
41B
100
AcDbEntity
  8
0
370
    -3
390
0
  6
Continuous
100
AcDbCircle
 10
-585.120557
 20
-168.66748
 30
0.0
 40
1.9
100
AcDbArc
 50
314.999999
 51
28.92718
  0
ARC
  5
41C
100
AcDbEntity
  8
0
370
    -3
390
0
  6
Continuous
100
AcDbCircle
 10
-589.858171
 20
-163.929865
 30
0.0
 40
1.9
100
AcDbArc
 50
61.072892
 51
135.000018
  0
LINE
  5
41D
100
AcDbEntity
  8
0
370
    -3
390
0
  6
Continuous
100
AcDbLine
 10
-592.281438
 20
-163.666126
 30
0.0
 11
-591.201674
 21
-162.586363
 31
0.0
  0
LINE
  5
41E
100
AcDbEntity
  8
0
370
    -3
390
0
  6
Continuous
100
AcDbLine
 10
-584.856818
 20
-171.090746
 30
0.0
 11
-583.777054
 21
-170.010982
 31
0.0
  0
ARC
  5
41F
100
AcDbEntity
  8
0
370
    -3
390
0
  6
Continuous
100
AcDbCircle
 10
-595.710906
 20
-174.520214
 30
0.0
 40
14.0
100
AcDbArc
 50
28.92718
 51
61.072837
  0
ARC
  5
420
100
AcDbEntity
  8
0
370
    -3
390
0
  6
Continuous
100
AcDbCircle
 10
-689.705856
 20
-273.515164
 30
0.0
 40
131.5
100
AcDbArc
 50
359.989714
 51
0.0
  0
LINE
  5
421
100
AcDbEntity
  8
0
370
    -3
390
0
  6
CENTER
100
AcDbLine
 10
-604.705856
 20
-157.60797
 30
0.0
 11
-604.705856
 21
-108.013642
 31
0.0
  0
LINE
  5
422
100
AcDbEntity
  8
0
370
    -3
390
0
  6
CENTER
100
AcDbLine
 10
-640.999316
 20
-133.515164
 30
0.0
 11
-569.516274
 21
-133.515164
 31
0.0
  0
CIRCLE
  5
423
100
AcDbEntity
  8
0
370
    -3
390
0
  6
Continuous
100
AcDbCircle
 10
-604.705856
 20
-133.515164
 30
0.0
 40
10.5
  0
CIRCLE
  5
424
100
AcDbEntity
  8
0
370
    -3
390
0
  6
Continuous
100
AcDbCircle
 10
-604.705856
 20
-133.515164
 30
0.0
 40
9.35
  0
CIRCLE
  5
425
100
AcDbEntity
  8
0
370
    -3
390
0
  6
Continuous
100
AcDbCircle
 10
-604.705856
 20
-133.515164
 30
0.0
 40
17.5
  0
ARC
  5
426
100
AcDbEntity
  8
0
370
    -3
390
0
  6
CENTER
100
AcDbCircle
 10
-694.705856
 20
-213.515164
 30
0.0
 40
275.0
100
AcDbArc
 50
218.33254
 51
231.66746
  0
LINE
  5
427
100
AcDbEntity
  8
0
370
    -3
390
0
  6
CENTER
100
AcDbLine
 10
-866.532803
 20
-385.342112
 30
0.0
 11
-911.787637
 21
-430.596946
 31
0.0
  0
ARC
  5
428
100
AcDbEntity
  8
0
370
    -3
390
0
  6
CENTER
100
AcDbCircle
 10
-694.705856
 20
-213.515164
 30
0.0
 40
275.0
100
AcDbArc
 50
128.33254
 51
141.66746
  0
LINE
  5
429
100
AcDbEntity
  8
0
370
    -3
390
0
  6
CENTER
100
AcDbLine
 10
-866.532803
 20
-41.688216
 30
0.0
 11
-911.787637
 21
3.566618
 31
0.0
  0
ARC
  5
42A
100
AcDbEntity
  8
0
370
    -3
390
0
  6
CENTER
100
AcDbCircle
 10
-694.705856
 20
-213.515164
 30
0.0
 40
275.0
100
AcDbArc
 50
38.33254
 51
51.66746
  0
LINE
  5
42B
100
AcDbEntity
  8
0
370
    -3
390
0
  6
CENTER
100
AcDbLine
 10
-522.878908
 20
-41.688216
 30
0.0
 11
-477.624074
 21
3.566618
 31
0.0
  0
ARC
  5
42C
100
AcDbEntity
  8
0
370
    -3
390
0
  6
CENTER
100
AcDbCircle
 10
-694.705856
 20
-213.515164
 30
0.0
 40
275.0
100
AcDbArc
 50
308.33254
 51
321.66746
  0
LINE
  5
42D
100
AcDbEntity
  8
0
370
    -3
390
0
  6
CENTER
100
AcDbLine
 10
-522.878908
 20
-385.342112
 30
0.0
 11
-477.624074
 21
-430.596946
 31
0.0
  0
CIRCLE
  5
42E
100
AcDbEntity
  8
0
370
    -3
390
0
  6
Continuous
100
AcDbCircle
 10
-764.705856
 20
-104.515164
 30
0.0
 40
7.787524
  0
CIRCLE
  5
42F
100
AcDbEntity
  8
0
370
    -3
390
0
  6
Continuous
100
AcDbCircle
 10
-764.705856
 20
-104.515164
 30
0.0
 40
9.0
  0
LINE
  5
430
100
AcDbEntity
  8
0
370
    -3
390
0
  6
Continuous
100
AcDbLine
 10
-759.705858
 20
-107.401909
 30
0.0
 11
-759.705857
 21
-101.628409
 31
0.0
  0
LINE
  5
431
100
AcDbEntity
  8
0
370
    -3
390
0
  6
Continuous
100
AcDbLine
 10
-769.705853
 20
-101.628421
 30
0.0
 11
-769.705854
 21
-107.401919
 31
0.0
  0
LINE
  5
432
100
AcDbEntity
  8
0
370
    -3
390
0
  6
Continuous
100
AcDbLine
 10
-769.705854
 20
-101.62842
 30
0.0
 11
-764.705864
 21
-98.741665
 31
0.0
  0
LINE
  5
433
100
AcDbEntity
  8
0
370
    -3
390
0
  6
Continuous
100
AcDbLine
 10
-764.705847
 20
-110.288663
 30
0.0
 11
-759.705858
 21
-107.401909
 31
0.0
  0
LINE
  5
434
100
AcDbEntity
  8
0
370
    -3
390
0
  6
Continuous
100
AcDbLine
 10
-759.705856
 20
-101.628409
 30
0.0
 11
-764.705863
 21
-98.741665
 31
0.0
  0
LINE
  5
435
100
AcDbEntity
  8
0
370
    -3
390
0
  6
Continuous
100
AcDbLine
 10
-769.705855
 20
-107.401919
 30
0.0
 11
-764.705847
 21
-110.288664
 31
0.0
  0
CIRCLE
  5
436
100
AcDbEntity
  8
0
370
    -3
390
0
  6
Continuous
100
AcDbCircle
 10
-847.705856
 20
-244.515164
 30
0.0
 40
7.787524
  0
CIRCLE
  5
437
100
AcDbEntity
  8
0
370
    -3
390
0
  6
Continuous
100
AcDbCircle
 10
-847.705856
 20
-244.515164
 30
0.0
 40
9.0
  0
LINE
  5
438
100
AcDbEntity
  8
0
370
    -3
390
0
  6
Continuous
100
AcDbLine
 10
-842.705858
 20
-247.401909
 30
0.0
 11
-842.705857
 21
-241.628409
 31
0.0
  0
LINE
  5
439
100
AcDbEntity
  8
0
370
    -3
390
0
  6
Continuous
100
AcDbLine
 10
-852.705853
 20
-241.628421
 30
0.0
 11
-852.705854
 21
-247.401919
 31
0.0
  0
LINE
  5
43A
100
AcDbEntity
  8
0
370
    -3
390
0
  6
Continuous
100
AcDbLine
 10
-852.705854
 20
-241.62842
 30
0.0
 11
-847.705864
 21
-238.741665
 31
0.0
  0
LINE
  5
43B
100
AcDbEntity
  8
0
370
    -3
390
0
  6
Continuous
100
AcDbLine
 10
-847.705847
 20
-250.288663
 30
0.0
 11
-842.705858
 21
-247.401909
 31
0.0
  0
LINE
  5
43C
100
AcDbEntity
  8
0
370
    -3
390
0
  6
Continuous
100
AcDbLine
 10
-842.705856
 20
-241.628409
 30
0.0
 11
-847.705863
 21
-238.741665
 31
0.0
  0
LINE
  5
43D
100
AcDbEntity
  8
0
370
    -3
390
0
  6
Continuous
100
AcDbLine
 10
-852.705855
 20
-247.401919
 30
0.0
 11
-847.705847
 21
-250.288664
 31
0.0
  0
CIRCLE
  5
43E
100
AcDbEntity
  8
0
370
    -3
390
0
  6
Continuous
100
AcDbCircle
 10
-848.705856
 20
-384.515164
 30
0.0
 40
7.787524
  0
CIRCLE
  5
43F
100
AcDbEntity
  8
0
370
    -3
390
0
  6
Continuous
100
AcDbCircle
 10
-848.705856
 20
-384.515164
 30
0.0
 40
9.0
  0
LINE
  5
440
100
AcDbEntity
  8
0
370
    -3
390
0
  6
Continuous
100
AcDbLine
 10
-843.705858
 20
-387.401909
 30
0.0
 11
-843.705857
 21
-381.628409
 31
0.0
  0
LINE
  5
441
100
AcDbEntity
  8
0
370
    -3
390
0
  6
Continuous
100
AcDbLine
 10
-853.705853
 20
-381.628421
 30
0.0
 11
-853.705854
 21
-387.401919
 31
0.0
  0
LINE
  5
442
100
AcDbEntity
  8
0
370
    -3
390
0
  6
Continuous
100
AcDbLine
 10
-853.705854
 20
-381.62842
 30
0.0
 11
-848.705864
 21
-378.741665
 31
0.0
  0
LINE
  5
443
100
AcDbEntity
  8
0
370
    -3
390
0
  6
Continuous
100
AcDbLine
 10
-848.705847
 20
-390.288663
 30
0.0
 11
-843.705858
 21
-387.401909
 31
0.0
  0
LINE
  5
444
100
AcDbEntity
  8
0
370
    -3
390
0
  6
Continuous
100
AcDbLine
 10
-843.705856
 20
-381.628409
 30
0.0
 11
-848.705863
 21
-378.741665
 31
0.0
  0
LINE
  5
445
100
AcDbEntity
  8
0
370
    -3
390
0
  6
Continuous
100
AcDbLine
 10
-853.705855
 20
-387.401919
 30
0.0
 11
-848.705847
 21
-390.288664
 31
0.0
  0
CIRCLE
  5
446
100
AcDbEntity
  8
0
370
    -3
390
0
  6
Continuous
100
AcDbCircle
 10
-769.705856
 20
-428.515164
 30
0.0
 40
7.787524
  0
CIRCLE
  5
447
100
AcDbEntity
  8
0
370
    -3
390
0
  6
Continuous
100
AcDbCircle
 10
-769.705856
 20
-428.515164
 30
0.0
 40
9.0
  0
LINE
  5
448
100
AcDbEntity
  8
0
370
    -3
390
0
  6
Continuous
100
AcDbLine
 10
-764.705858
 20
-431.401909
 30
0.0
 11
-764.705857
 21
-425.628409
 31
0.0
  0
LINE
  5
449
100
AcDbEntity
  8
0
370
    -3
390
0
  6
Continuous
100
AcDbLine
 10
-774.705853
 20
-425.628421
 30
0.0
 11
-774.705854
 21
-431.401919
 31
0.0
  0
LINE
  5
44A
100
AcDbEntity
  8
0
370
    -3
390
0
  6
Continuous
100
AcDbLine
 10
-774.705854
 20
-425.62842
 30
0.0
 11
-769.705864
 21
-422.741665
 31
0.0
  0
LINE
  5
44B
100
AcDbEntity
  8
0
370
    -3
390
0
  6
Continuous
100
AcDbLine
 10
-769.705847
 20
-434.288663
 30
0.0
 11
-764.705858
 21
-431.401909
 31
0.0
  0
LINE
  5
44C
100
AcDbEntity
  8
0
370
    -3
390
0
  6
Continuous
100
AcDbLine
 10
-764.705856
 20
-425.628409
 30
0.0
 11
-769.705863
 21
-422.741665
 31
0.0
  0
LINE
  5
44D
100
AcDbEntity
  8
0
370
    -3
390
0
  6
Continuous
100
AcDbLine
 10
-774.705855
 20
-431.401919
 30
0.0
 11
-769.705847
 21
-434.288664
 31
0.0
  0
CIRCLE
  5
44E
100
AcDbEntity
  8
0
370
    -3
390
0
  6
Continuous
100
AcDbCircle
 10
-619.705856
 20
-428.515164
 30
0.0
 40
7.787524
  0
CIRCLE
  5
44F
100
AcDbEntity
  8
0
370
    -3
390
0
  6
Continuous
100
AcDbCircle
 10
-619.705856
 20
-428.515164
 30
0.0
 40
9.0
  0
LINE
  5
450
100
AcDbEntity
  8
0
370
    -3
390
0
  6
Continuous
100
AcDbLine
 10
-624.705853
 20
-431.401909
 30
0.0
 11
-624.705854
 21
-425.628409
 31
0.0
  0
LINE
  5
451
100
AcDbEntity
  8
0
370
    -3
390
0
  6
Continuous
100
AcDbLine
 10
-614.705858
 20
-425.628421
 30
0.0
 11
-614.705857
 21
-431.401919
 31
0.0
  0
LINE
  5
452
100
AcDbEntity
  8
0
370
    -3
390
0
  6
Continuous
100
AcDbLine
 10
-614.705857
 20
-425.62842
 30
0.0
 11
-619.705847
 21
-422.741665
 31
0.0
  0
LINE
  5
453
100
AcDbEntity
  8
0
370
    -3
390
0
  6
Continuous
100
AcDbLine
 10
-619.705864
 20
-434.288663
 30
0.0
 11
-624.705853
 21
-431.401909
 31
0.0
  0
LINE
  5
454
100
AcDbEntity
  8
0
370
    -3
390
0
  6
Continuous
100
AcDbLine
 10
-624.705855
 20
-425.628409
 30
0.0
 11
-619.705848
 21
-422.741665
 31
0.0
  0
LINE
  5
455
100
AcDbEntity
  8
0
370
    -3
390
0
  6
Continuous
100
AcDbLine
 10
-614.705856
 20
-431.401919
 30
0.0
 11
-619.705865
 21
-434.288664
 31
0.0
  0
CIRCLE
  5
456
100
AcDbEntity
  8
0
370
    -3
390
0
  6
Continuous
100
AcDbCircle
 10
-540.705856
 20
-384.515164
 30
0.0
 40
7.787524
  0
CIRCLE
  5
457
100
AcDbEntity
  8
0
370
    -3
390
0
  6
Continuous
100
AcDbCircle
 10
-540.705856
 20
-384.515164
 30
0.0
 40
9.0
  0
LINE
  5
458
100
AcDbEntity
  8
0
370
    -3
390
0
  6
Continuous
100
AcDbLine
 10
-545.705853
 20
-387.401909
 30
0.0
 11
-545.705854
 21
-381.628409
 31
0.0
  0
LINE
  5
459
100
AcDbEntity
  8
0
370
    -3
390
0
  6
Continuous
100
AcDbLine
 10
-535.705858
 20
-381.628421
 30
0.0
 11
-535.705857
 21
-387.401919
 31
0.0
  0
LINE
  5
45A
100
AcDbEntity
  8
0
370
    -3
390
0
  6
Continuous
100
AcDbLine
 10
-535.705857
 20
-381.62842
 30
0.0
 11
-540.705847
 21
-378.741665
 31
0.0
  0
LINE
  5
45B
100
AcDbEntity
  8
0
370
    -3
390
0
  6
Continuous
100
AcDbLine
 10
-540.705864
 20
-390.288663
 30
0.0
 11
-545.705853
 21
-387.401909
 31
0.0
  0
LINE
  5
45C
100
AcDbEntity
  8
0
370
    -3
390
0
  6
Continuous
100
AcDbLine
 10
-545.705855
 20
-381.628409
 30
0.0
 11
-540.705848
 21
-378.741665
 31
0.0
  0
LINE
  5
45D
100
AcDbEntity
  8
0
370
    -3
390
0
  6
Continuous
100
AcDbLine
 10
-535.705856
 20
-387.401919
 30
0.0
 11
-540.705865
 21
-390.288664
 31
0.0
  0
ARC
  5
45E
100
AcDbEntity
  8
0
370
    -3
390
0
  6
Continuous
100
AcDbCircle
 10
-541.705856
 20
-244.515164
 30
0.0
 40
7.787524
100
AcDbArc
 50
40.275999
 51
107.323419
  0
ARC
  5
45F
100
AcDbEntity
  8
0
370
    -3
390
0
  6
Continuous
100
AcDbCircle
 10
-541.705856
 20
-244.515164
 30
0.0
 40
9.0
100
AcDbArc
 50
29.648562
 51
117.950857
  0
CIRCLE
  5
460
100
AcDbEntity
  8
0
370
    -3
390
0
  6
Continuous
100
AcDbCircle
 10
-624.705856
 20
-104.515164
 30
0.0
 40
7.787524
  0
CIRCLE
  5
461
100
AcDbEntity
  8
0
370
    -3
390
0
  6
Continuous
100
AcDbCircle
 10
-624.705856
 20
-104.515164
 30
0.0
 40
9.0
  0
LINE
  5
462
100
AcDbEntity
  8
0
370
    -3
390
0
  6
Continuous
100
AcDbLine
 10
-629.705853
 20
-107.401909
 30
0.0
 11
-629.705854
 21
-101.628409
 31
0.0
  0
LINE
  5
463
100
AcDbEntity
  8
0
370
    -3
390
0
  6
Continuous
100
AcDbLine
 10
-619.705858
 20
-101.628421
 30
0.0
 11
-619.705857
 21
-107.401919
 31
0.0
  0
LINE
  5
464
100
AcDbEntity
  8
0
370
    -3
390
0
  6
Continuous
100
AcDbLine
 10
-619.705857
 20
-101.62842
 30
0.0
 11
-624.705847
 21
-98.741665
 31
0.0
  0
LINE
  5
465
100
AcDbEntity
  8
0
370
    -3
390
0
  6
Continuous
100
AcDbLine
 10
-624.705864
 20
-110.288663
 30
0.0
 11
-629.705853
 21
-107.401909
 31
0.0
  0
LINE
  5
466
100
AcDbEntity
  8
0
370
    -3
390
0
  6
Continuous
100
AcDbLine
 10
-629.705855
 20
-101.628409
 30
0.0
 11
-624.705848
 21
-98.741665
 31
0.0
  0
LINE
  5
467
100
AcDbEntity
  8
0
370
    -3
390
0
  6
Continuous
100
AcDbLine
 10
-619.705856
 20
-107.401919
 30
0.0
 11
-624.705865
 21
-110.288664
 31
0.0
  0
CIRCLE
  5
468
100
AcDbEntity
  8
0
370
    -3
390
0
  6
Continuous
100
AcDbCircle
 10
-684.205856
 20
-96.515164
 30
0.0
 40
5.633955
  0
CIRCLE
  5
469
100
AcDbEntity
  8
0
370
    -3
390
0
  6
Continuous
100
AcDbCircle
 10
-684.205856
 20
-96.515164
 30
0.0
 40
6.5
  0
LINE
  5
46A
100
AcDbEntity
  8
0
370
    -3
390
0
  6
Continuous
100
AcDbLine
 10
-687.205852
 20
-98.24721
 30
0.0
 11
-687.205853
 21
-94.783112
 31
0.0
  0
LINE
  5
46B
100
AcDbEntity
  8
0
370
    -3
390
0
  6
Continuous
100
AcDbLine
 10
-681.205859
 20
-94.783117
 30
0.0
 11
-681.205858
 21
-98.247215
 31
0.0
  0
LINE
  5
46C
100
AcDbEntity
  8
0
370
    -3
390
0
  6
Continuous
100
AcDbLine
 10
-684.205849
 20
-93.051067
 30
0.0
 11
-687.205853
 21
-94.783112
 31
0.0
  0
LINE
  5
46D
100
AcDbEntity
  8
0
370
    -3
390
0
  6
Continuous
100
AcDbLine
 10
-681.205857
 20
-98.247216
 30
0.0
 11
-684.20586
 21
-99.979263
 31
0.0
  0
LINE
  5
46E
100
AcDbEntity
  8
0
370
    -3
390
0
  6
Continuous
100
AcDbLine
 10
-684.205849
 20
-93.051067
 30
0.0
 11
-681.205858
 21
-94.783117
 31
0.0
  0
LINE
  5
46F
100
AcDbEntity
  8
0
370
    -3
390
0
  6
Continuous
100
AcDbLine
 10
-684.20586
 20
-99.979262
 30
0.0
 11
-687.205853
 21
-98.24721
 31
0.0
  0
CIRCLE
  5
470
100
AcDbEntity
  8
0
370
    -3
390
0
  6
Continuous
100
AcDbCircle
 10
-705.205856
 20
-96.515164
 30
0.0
 40
5.633955
  0
CIRCLE
  5
471
100
AcDbEntity
  8
0
370
    -3
390
0
  6
Continuous
100
AcDbCircle
 10
-705.205856
 20
-96.515164
 30
0.0
 40
6.5
  0
LINE
  5
472
100
AcDbEntity
  8
0
370
    -3
390
0
  6
Continuous
100
AcDbLine
 10
-702.205859
 20
-98.24721
 30
0.0
 11
-702.205858
 21
-94.783112
 31
0.0
  0
LINE
  5
473
100
AcDbEntity
  8
0
370
    -3
390
0
  6
Continuous
100
AcDbLine
 10
-708.205852
 20
-94.783117
 30
0.0
 11
-708.205853
 21
-98.247215
 31
0.0
  0
LINE
  5
474
100
AcDbEntity
  8
0
370
    -3
390
0
  6
Continuous
100
AcDbLine
 10
-705.205862
 20
-93.051067
 30
0.0
 11
-702.205858
 21
-94.783112
 31
0.0
  0
LINE
  5
475
100
AcDbEntity
  8
0
370
    -3
390
0
  6
Continuous
100
AcDbLine
 10
-708.205854
 20
-98.247216
 30
0.0
 11
-705.205851
 21
-99.979263
 31
0.0
  0
LINE
  5
476
100
AcDbEntity
  8
0
370
    -3
390
0
  6
Continuous
100
AcDbLine
 10
-705.205862
 20
-93.051067
 30
0.0
 11
-708.205853
 21
-94.783117
 31
0.0
  0
LINE
  5
477
100
AcDbEntity
  8
0
370
    -3
390
0
  6
Continuous
100
AcDbLine
 10
-705.205851
 20
-99.979262
 30
0.0
 11
-702.205858
 21
-98.24721
 31
0.0
  0
ARC
  5
478
100
AcDbEntity
  8
0
370
    -3
390
0
  6
Continuous
100
AcDbCircle
 10
-694.705856
 20
-683.515164
 30
0.0
 40
600.0
100
AcDbArc
 50
91.957987
 51
93.489726
  0
LINE
  5
479
100
AcDbEntity
  8
0
370
    -3
390
0
  6
Continuous
100
AcDbLine
 10
-674.205856
 20
-58.515164
 30
0.0
 11
-674.205856
 21
-83.865475
 31
0.0
  0
ARC
  5
47A
100
AcDbEntity
  8
0
370
    -3
390
0
  6
Continuous
100
AcDbCircle
 10
-684.205856
 20
-58.515164
 30
0.0
 40
10.0
100
AcDbArc
 50
0.0
 51
90.0
  0
LINE
  5
47B
100
AcDbEntity
  8
0
370
    -3
390
0
  6
Continuous
100
AcDbLine
 10
-684.205856
 20
-48.515164
 30
0.0
 11
-705.205856
 21
-48.515164
 31
0.0
  0
LINE
  5
47C
100
AcDbEntity
  8
0
370
    -3
390
0
  6
CENTER
100
AcDbLine
 10
-671.537943
 20
-68.515164
 30
0.0
 11
-718.560456
 21
-68.515164
 31
0.0
  0
LINE
  5
47D
100
AcDbEntity
  8
0
370
    -3
390
0
  6
Continuous
100
AcDbLine
 10
-715.205856
 20
-58.515164
 30
0.0
 11
-715.205856
 21
-83.865475
 31
0.0
  0
ARC
  5
47E
100
AcDbEntity
  8
0
370
    -3
390
0
  6
Continuous
100
AcDbCircle
 10
-705.205856
 20
-58.515164
 30
0.0
 40
10.0
100
AcDbArc
 50
90.0
 51
180.0
  0
ARC
  5
47F
100
AcDbEntity
  8
0
370
    -3
390
0
  6
Continuous
100
AcDbCircle
 10
-489.705856
 20
-418.515164
 30
0.0
 40
20.0
100
AcDbArc
 50
270.0
 51
0.0
  0
CIRCLE
  5
480
100
AcDbEntity
  8
0
370
    -3
390
0
  6
Continuous
100
AcDbCircle
 10
-500.251491
 20
-407.969529
 30
0.0
 40
14.0
  0
LINE
  5
481
100
AcDbEntity
  8
0
370
    -3
390
0
  6
Continuous
100
AcDbLine
 10
-469.705856
 20
-8.515164
 30
0.0
 11
-469.705856
 21
-418.515164
 31
0.0
  0
CIRCLE
  5
482
100
AcDbEntity
  8
0
370
    -3
390
0
  6
Continuous
100
AcDbCircle
 10
-889.16022
 20
-407.969529
 30
0.0
 40
14.0
  0
ARC
  5
483
100
AcDbEntity
  8
0
370
    -3
390
0
  6
Continuous
100
AcDbCircle
 10
-899.705856
 20
-418.515164
 30
0.0
 40
20.0
100
AcDbArc
 50
180.0
 51
270.0
  0
LINE
  5
484
100
AcDbEntity
  8
0
370
    -3
390
0
  6
Continuous
100
AcDbLine
 10
-919.705856
 20
-8.515164
 30
0.0
 11
-919.705856
 21
-418.515164
 31
0.0
  0
ARC
  5
485
100
AcDbEntity
  8
0
370
    -3
390
0
  6
Continuous
100
AcDbCircle
 10
-899.705856
 20
-8.515164
 30
0.0
 40
20.0
100
AcDbArc
 50
90.0
 51
180.0
  0
CIRCLE
  5
486
100
AcDbEntity
  8
0
370
    -3
390
0
  6
Continuous
100
AcDbCircle
 10
-889.16022
 20
-19.060799
 30
0.0
 40
14.0
  0
LINE
  5
487
100
AcDbEntity
  8
0
370
    -3
390
0
  6
Continuous
100
AcDbLine
 10
-899.705856
 20
11.484836
 30
0.0
 11
-489.705856
 21
11.484836
 31
0.0
  0
ARC
  5
488
100
AcDbEntity
  8
0
370
    -3
390
0
  6
Continuous
100
AcDbCircle
 10
-489.705856
 20
-8.515164
 30
0.0
 40
20.0
100
AcDbArc
 50
0.0
 51
90.0
  0
CIRCLE
  5
489
100
AcDbEntity
  8
0
370
    -3
390
0
  6
Continuous
100
AcDbCircle
 10
-500.251491
 20
-19.060799
 30
0.0
 40
14.0
  0
LINE
  5
48A
100
AcDbEntity
  8
0
370
    -3
390
0
  6
Continuous
100
AcDbLine
 10
-899.705856
 20
-438.515164
 30
0.0
 11
-787.026364
 21
-438.515164
 31
0.0
  0
LINE
  5
48B
100
AcDbEntity
  8
0
370
    -3
390
0
  6
Continuous
100
AcDbLine
 10
-489.705856
 20
-438.515164
 30
0.0
 11
-602.385347
 21
-438.515164
 31
0.0
  0
LINE
  5
48C
100
AcDbEntity
  8
0
370
    -3
390
0
  6
Continuous
100
AcDbLine
 10
-602.042334
 20
-430.515164
 30
0.0
 11
-556.705856
 21
-430.515164
 31
0.0
  0
ARC
  5
48D
100
AcDbEntity
  8
0
370
    -3
390
0
  6
Continuous
100
AcDbCircle
 10
-556.705856
 20
-428.515164
 30
0.0
 40
2.0
100
AcDbArc
 50
270.0
 51
0.0
  0
LINE
  5
48E
100
AcDbEntity
  8
0
370
    -3
390
0
  6
Continuous
100
AcDbLine
 10
-699.205856
 20
-3.515164
 30
0.0
 11
-699.205856
 21
-48.515164
 31
0.0
  0
LINE
  5
48F
100
AcDbEntity
  8
0
370
    -3
390
0
  6
Continuous
100
AcDbLine
 10
-690.205856
 20
-3.515164
 30
0.0
 11
-690.205856
 21
-48.515164
 31
0.0
  0
ARC
  5
490
100
AcDbEntity
  8
0
370
    -3
390
0
  6
Continuous
100
AcDbCircle
 10
-685.205856
 20
-3.515164
 30
0.0
 40
5.0
100
AcDbArc
 50
90.0
 51
180.0
  0
ARC
  5
491
100
AcDbEntity
  8
0
370
    -3
390
0
  6
Continuous
100
AcDbCircle
 10
-704.205856
 20
-3.515164
 30
0.0
 40
5.0
100
AcDbArc
 50
0.0
 51
90.0
  0
LINE
  5
492
100
AcDbEntity
  8
0
370
    -3
390
0
  6
Continuous
100
AcDbLine
 10
-853.44827
 20
-48.408789
 30
0.0
 11
-799.238663
 21
-102.618396
 31
0.0
  0
LINE
  5
493
100
AcDbEntity
  8
0
370
    -3
390
0
  6
Continuous
100
AcDbLine
 10
-861.504838
 20
-53.080142
 30
0.0
 11
-808.20113
 21
-106.38385
 31
0.0
  0
ARC
  5
494
100
AcDbEntity
  8
0
370
    -3
390
0
  6
Continuous
100
AcDbCircle
 10
-795.703129
 20
-99.082862
 30
0.0
 40
5.0
100
AcDbArc
 50
225.0
 51
300.227153
  0
ARC
  5
495
100
AcDbEntity
  8
0
370
    -3
390
0
  6
Continuous
100
AcDbCircle
 10
-811.736664
 20
-109.919384
 30
0.0
 40
5.0
100
AcDbArc
 50
307.879699
 51
45.0
  0
ARC
  5
496
100
AcDbEntity
  8
0
370
    -3
390
0
  6
Continuous
100
AcDbCircle
 10
-849.912736
 20
-44.873255
 30
0.0
 40
5.0
100
AcDbArc
 50
125.324959
 51
225.0
  0
ARC
  5
497
100
AcDbEntity
  8
0
370
    -3
390
0
  6
Continuous
100
AcDbCircle
 10
-865.040372
 20
-56.615676
 30
0.0
 40
5.0
100
AcDbArc
 50
45.0
 51
130.313922
  0
LINE
  5
498
100
AcDbEntity
  8
0
370
    -3
390
0
  6
Continuous
100
AcDbLine
 10
-697.205856
 20
-47.747299
 30
0.0
 11
-692.205856
 21
-47.747299
 31
0.0
  0
ARC
  5
499
100
AcDbEntity
  8
0
370
    -3
390
0
  6
Continuous
100
AcDbCircle
 10
-692.205856
 20
-49.747299
 30
0.0
 40
2.0
100
AcDbArc
 50
38.02952
 51
90.0
  0
ARC
  5
49A
100
AcDbEntity
  8
0
370
    -3
390
0
  6
Continuous
100
AcDbCircle
 10
-697.205856
 20
-49.747299
 30
0.0
 40
2.0
100
AcDbArc
 50
90.0
 51
141.97048
  0
ARC
  5
49B
100
AcDbEntity
  8
0
370
    -3
390
0
  6
Continuous
100
AcDbCircle
 10
-602.042334
 20
-435.515164
 30
0.0
 40
5.0
100
AcDbArc
 50
90.0
 51
158.381728
  0
LINE
  5
49C
100
AcDbEntity
  8
0
370
    -3
390
0
  6
Continuous
100
AcDbLine
 10
-787.369377
 20
-430.515164
 30
0.0
 11
-832.705856
 21
-430.515164
 31
0.0
  0
ARC
  5
49D
100
AcDbEntity
  8
0
370
    -3
390
0
  6
Continuous
100
AcDbCircle
 10
-832.705856
 20
-428.515164
 30
0.0
 40
2.0
100
AcDbArc
 50
180.0
 51
270.0
  0
ARC
  5
49E
100
AcDbEntity
  8
0
370
    -3
390
0
  6
Continuous
100
AcDbCircle
 10
-787.369377
 20
-435.515164
 30
0.0
 40
5.0
100
AcDbArc
 50
21.618272
 51
90.0
  0
ARC
  5
49F
100
AcDbEntity
  8
0
370
    -3
390
0
  6
Continuous
100
AcDbCircle
 10
-539.498975
 20
-44.873255
 30
0.0
 40
5.0
100
AcDbArc
 50
315.0
 51
54.675041
  0
ARC
  5
4A0
100
AcDbEntity
  8
0
370
    -3
390
0
  6
Continuous
100
AcDbCircle
 10
-524.371339
 20
-56.615676
 30
0.0
 40
5.0
100
AcDbArc
 50
49.686078
 51
135.0
  0
LINE
  5
4A1
100
AcDbEntity
  8
0
370
    -3
390
0
  6
Continuous
100
AcDbLine
 10
-535.963442
 20
-48.408789
 30
0.0
 11
-590.173048
 21
-102.618396
 31
0.0
  0
LINE
  5
4A2
100
AcDbEntity
  8
0
370
    -3
390
0
  6
Continuous
100
AcDbLine
 10
-527.906873
 20
-53.080142
 30
0.0
 11
-581.210581
 21
-106.38385
 31
0.0
  0
ARC
  5
4A3
100
AcDbEntity
  8
0
370
    -3
390
0
  6
Continuous
100
AcDbCircle
 10
-593.708582
 20
-99.082862
 30
0.0
 40
5.0
100
AcDbArc
 50
239.772847
 51
315.0
  0
ARC
  5
4A4
100
AcDbEntity
  8
0
370
    -3
390
0
  6
Continuous
100
AcDbCircle
 10
-577.675047
 20
-109.919384
 30
0.0
 40
5.0
100
AcDbArc
 50
135.0
 51
232.120301
  0
LINE
  5
4A5
100
AcDbEntity
  8
0
370
    -3
390
0
  6
Continuous
100
AcDbLine
 10
-554.705856
 20
-398.848223
 30
0.0
 11
-554.705856
 21
-428.515164
 31
0.0
  0
LINE
  5
4A6
100
AcDbEntity
  8
0
370
    -3
390
0
  6
Continuous
100
AcDbLine
 10
-834.705856
 20
-398.848223
 30
0.0
 11
-834.705856
 21
-428.515164
 31
0.0
  0
LINE
  5
4A7
100
AcDbEntity
  8
0
370
    -3
390
0
  6
Continuous
100
AcDbLine
 10
-806.256952
 20
-378.7023
 30
0.0
 11
-822.271489
 21
-394.716836
 31
0.0
  0
LINE
  5
4A8
100
AcDbEntity
  8
0
370
    -3
390
0
  6
Continuous
100
AcDbLine
 10
-799.892991
 20
-385.066261
 30
0.0
 11
-814.74901
 21
-399.92228
 31
0.0
  0
LINE
  5
4A9
100
AcDbEntity
  8
0
370
    -3
390
0
  6
Continuous
100
AcDbLine
 10
-589.51872
 20
-385.066261
 30
0.0
 11
-574.662701
 21
-399.92228
 31
0.0
  0
LINE
  5
4AA
100
AcDbEntity
  8
0
370
    -3
390
0
  6
Continuous
100
AcDbLine
 10
-583.154759
 20
-378.7023
 30
0.0
 11
-567.140222
 21
-394.716836
 31
0.0
  0
LINE
  5
4AB
100
AcDbEntity
  8
0
370
    -3
390
0
  6
Continuous
100
AcDbLine
 10
-806.256952
 20
-168.328028
 30
0.0
 11
-826.744354
 21
-147.840626
 31
0.0
  0
LINE
  5
4AC
100
AcDbEntity
  8
0
370
    -3
390
0
  6
Continuous
100
AcDbLine
 10
-799.892991
 20
-161.964067
 30
0.0
 11
-821.940363
 21
-139.916695
 31
0.0
  0
LINE
  5
4AD
100
AcDbEntity
  8
0
370
    -3
390
0
  6
Continuous
100
AcDbLine
 10
-583.154759
 20
-168.328028
 30
0.0
 11
-562.667357
 21
-147.840626
 31
0.0
  0
LINE
  5
4AE
100
AcDbEntity
  8
0
370
    -3
390
0
  6
Continuous
100
AcDbLine
 10
-589.51872
 20
-161.964067
 30
0.0
 11
-567.471348
 21
-139.916695
 31
0.0
  0
LINE
  5
4AF
100
AcDbEntity
  8
0
370
    -3
390
0
  6
Continuous
100
AcDbLine
 10
-862.705856
 20
-224.368129
 30
0.0
 11
-862.705856
 21
-384.515164
 31
0.0
  0
LINE
  5
4B0
100
AcDbEntity
  8
0
370
    -3
390
0
  6
Continuous
100
AcDbLine
 10
-694.705856
 20
-440.515164
 30
0.0
 11
-776.916958
 21
-440.515164
 31
0.0
  0
LINE
  5
4B1
100
AcDbEntity
  8
0
370
    -3
390
0
  6
Continuous
100
AcDbLine
 10
-694.705856
 20
-440.515164
 30
0.0
 11
-612.494753
 21
-440.515164
 31
0.0
  0
LINE
  5
4B2
100
AcDbEntity
  8
0
370
    -3
390
0
  6
Continuous
100
AcDbLine
 10
-526.705856
 20
-224.368129
 30
0.0
 11
-526.705856
 21
-242.411206
 31
0.0
  0
LINE
  5
4B3
100
AcDbEntity
  8
0
370
    -3
390
0
  6
CENTER
100
AcDbLine
 10
-694.705856
 20
19.095725
 30
0.0
 11
-694.705856
 21
-463.402627
 31
0.0
  0
LINE
  5
4B4
100
AcDbEntity
  8
0
370
    -3
390
0
  6
Continuous
100
AcDbLine
 10
-690.205856
 20
-411.515164
 30
0.0
 11
-690.205856
 21
-430.515164
 31
0.0
  0
LINE
  5
4B5
100
AcDbEntity
  8
0
370
    -3
390
0
  6
Continuous
100
AcDbLine
 10
-699.205856
 20
-411.515164
 30
0.0
 11
-699.205856
 21
-430.515164
 31
0.0
  0
LINE
  5
4B6
100
AcDbEntity
  8
0
370
    -3
390
0
  6
Continuous
100
AcDbLine
 10
-831.888434
 20
-278.015164
 30
0.0
 11
-852.705856
 21
-278.015164
 31
0.0
  0
LINE
  5
4B7
100
AcDbEntity
  8
0
370
    -3
390
0
  6
Continuous
100
AcDbLine
 10
-831.888434
 20
-269.015164
 30
0.0
 11
-852.705856
 21
-269.015164
 31
0.0
  0
LINE
  5
4B8
100
AcDbEntity
  8
0
370
    -3
390
0
  6
Continuous
100
AcDbLine
 10
-712.205856
 20
-108.515164
 30
0.0
 11
-694.705856
 21
-108.515164
 31
0.0
  0
LINE
  5
4B9
100
AcDbEntity
  8
0
370
    -3
390
0
  6
Continuous
100
AcDbLine
 10
-694.705856
 20
-108.515164
 30
0.0
 11
-677.205856
 21
-108.515164
 31
0.0
  0
LINE
  5
4BA
100
AcDbEntity
  8
0
370
    -3
390
0
  6
Continuous
100
AcDbLine
 10
-674.205856
 20
-83.865475
 30
0.0
 11
-674.205856
 21
-105.515164
 31
0.0
  0
LINE
  5
4BB
100
AcDbEntity
  8
0
370
    -3
390
0
  6
Continuous
100
AcDbLine
 10
-715.205856
 20
-83.865475
 30
0.0
 11
-715.205856
 21
-105.515164
 31
0.0
  0
LINE
  5
4BC
100
AcDbEntity
  8
0
370
    -3
390
0
  6
Continuous
100
AcDbLine
 10
-699.205856
 20
-113.515164
 30
0.0
 11
-699.205856
 21
-135.515164
 31
0.0
  0
LINE
  5
4BD
100
AcDbEntity
  8
0
370
    -3
390
0
  6
Continuous
100
AcDbLine
 10
-690.205856
 20
-113.515164
 30
0.0
 11
-690.205856
 21
-135.515164
 31
0.0
  0
LINE
  5
4BE
100
AcDbEntity
  8
0
370
    -3
390
0
  6
Continuous
100
AcDbLine
 10
-859.419516
 20
-212.515164
 30
0.0
 11
-847.705856
 21
-212.515164
 31
0.0
  0
LINE
  5
4BF
100
AcDbEntity
  8
0
370
    -3
390
0
  6
Continuous
100
AcDbLine
 10
-853.472959
 20
-186.515164
 30
0.0
 11
-847.705856
 21
-186.515164
 31
0.0
  0
LINE
  5
4C0
100
AcDbEntity
  8
0
370
    -3
390
0
  6
Continuous
100
AcDbLine
 10
-529.992195
 20
-212.515164
 30
0.0
 11
-541.705856
 21
-212.515164
 31
0.0
  0
LINE
  5
4C1
100
AcDbEntity
  8
0
370
    -3
390
0
  6
Continuous
100
AcDbLine
 10
-535.938752
 20
-186.515164
 30
0.0
 11
-541.705856
 21
-186.515164
 31
0.0
  0
LINE
  5
4C2
100
AcDbEntity
  8
0
370
    -3
390
0
  6
Continuous
100
AcDbLine
 10
-540.705856
 20
-398.515164
 30
0.0
 11
-551.898278
 21
-398.515164
 31
0.0
  0
LINE
  5
4C3
100
AcDbEntity
  8
0
370
    -3
390
0
  6
Continuous
100
AcDbLine
 10
-848.705856
 20
-398.515164
 30
0.0
 11
-837.513433
 21
-398.515164
 31
0.0
  0
ARC
  5
4C4
100
AcDbEntity
  8
0
370
    -3
390
0
  6
Continuous
100
AcDbCircle
 10
-818.404829
 20
-136.381162
 30
0.0
 40
5.0
100
AcDbArc
 50
137.404136
 51
225.0
  0
ARC
  5
4C5
100
AcDbEntity
  8
0
370
    -3
390
0
  6
Continuous
100
AcDbCircle
 10
-830.279888
 20
-151.37616
 30
0.0
 40
5.0
100
AcDbArc
 50
45.0
 51
145.842018
  0
ARC
  5
4C6
100
AcDbEntity
  8
0
370
    -3
390
0
  6
Continuous
100
AcDbCircle
 10
-571.006882
 20
-136.381162
 30
0.0
 40
5.0
100
AcDbArc
 50
315.0
 51
42.595864
  0
ARC
  5
4C7
100
AcDbEntity
  8
0
370
    -3
390
0
  6
Continuous
100
AcDbCircle
 10
-559.131823
 20
-151.37616
 30
0.0
 40
5.0
100
AcDbArc
 50
34.157982
 51
135.0
  0
ARC
  5
4C8
100
AcDbEntity
  8
0
370
    -3
390
0
  6
Continuous
100
AcDbCircle
 10
-578.198235
 20
-403.457814
 30
0.0
 40
5.0
100
AcDbArc
 50
304.186657
 51
45.0
  0
ARC
  5
4C9
100
AcDbEntity
  8
0
370
    -3
390
0
  6
Continuous
100
AcDbCircle
 10
-563.604689
 20
-391.181302
 30
0.0
 40
5.0
100
AcDbArc
 50
225.0
 51
315.956369
  0
ARC
  5
4CA
100
AcDbEntity
  8
0
370
    -3
390
0
  6
Continuous
100
AcDbCircle
 10
-811.213476
 20
-403.457814
 30
0.0
 40
5.0
100
AcDbArc
 50
135.0
 51
235.813343
  0
ARC
  5
4CB
100
AcDbEntity
  8
0
370
    -3
390
0
  6
Continuous
100
AcDbCircle
 10
-825.807022
 20
-391.181302
 30
0.0
 40
5.0
100
AcDbArc
 50
224.043631
 51
315.0
  0
ARC
  5
4CC
100
AcDbEntity
  8
0
370
    -3
390
0
  6
Continuous
100
AcDbCircle
 10
-722.705856
 20
-224.368129
 30
0.0
 40
140.0
100
AcDbArc
 50
93.489726
 51
180.0
  0
ARC
  5
4CD
100
AcDbEntity
  8
0
370
    -3
390
0
  6
Continuous
100
AcDbCircle
 10
-694.705856
 20
-683.515164
 30
0.0
 40
600.0
100
AcDbArc
 50
86.510274
 51
88.042013
  0
ARC
  5
4CE
100
AcDbEntity
  8
0
370
    -3
390
0
  6
Continuous
100
AcDbCircle
 10
-666.705856
 20
-224.368129
 30
0.0
 40
140.0
100
AcDbArc
 50
0.0
 51
86.510274
  0
ARC
  5
4CF
100
AcDbEntity
  8
0
370
    -3
390
0
  6
Continuous
100
AcDbCircle
 10
-848.705856
 20
-384.515164
 30
0.0
 40
14.0
100
AcDbArc
 50
180.0
 51
270.0
  0
ARC
  5
4D0
100
AcDbEntity
  8
0
370
    -3
390
0
  6
Continuous
100
AcDbCircle
 10
-540.705856
 20
-384.515164
 30
0.0
 40
14.0
100
AcDbArc
 50
270.0
 51
0.0
  0
ARC
  5
4D1
100
AcDbEntity
  8
0
370
    -3
390
0
  6
Continuous
100
AcDbCircle
 10
-685.205856
 20
-135.515164
 30
0.0
 40
5.0
100
AcDbArc
 50
180.0
 51
189.415294
  0
ARC
  5
4D2
100
AcDbEntity
  8
0
370
    -3
390
0
  6
Continuous
100
AcDbCircle
 10
-704.205856
 20
-135.515164
 30
0.0
 40
5.0
100
AcDbArc
 50
350.584706
 51
0.0
  0
ARC
  5
4D3
100
AcDbEntity
  8
0
370
    -3
390
0
  6
Continuous
100
AcDbCircle
 10
-704.205856
 20
-411.515164
 30
0.0
 40
5.0
100
AcDbArc
 50
0.0
 51
9.415294
  0
ARC
  5
4D4
100
AcDbEntity
  8
0
370
    -3
390
0
  6
Continuous
100
AcDbCircle
 10
-685.205856
 20
-411.515164
 30
0.0
 40
5.0
100
AcDbArc
 50
170.584706
 51
180.0
  0
ARC
  5
4D5
100
AcDbEntity
  8
0
370
    -3
390
0
  6
Continuous
100
AcDbCircle
 10
-685.205856
 20
-430.515164
 30
0.0
 40
5.0
100
AcDbArc
 50
180.0
 51
270.0
  0
ARC
  5
4D6
100
AcDbEntity
  8
0
370
    -3
390
0
  6
Continuous
100
AcDbCircle
 10
-704.205856
 20
-430.515164
 30
0.0
 40
5.0
100
AcDbArc
 50
270.0
 51
0.0
  0
ARC
  5
4D7
100
AcDbEntity
  8
0
370
    -3
390
0
  6
Continuous
100
AcDbCircle
 10
-852.705856
 20
-283.015164
 30
0.0
 40
5.0
100
AcDbArc
 50
90.0
 51
180.0
  0
ARC
  5
4D8
100
AcDbEntity
  8
0
370
    -3
390
0
  6
Continuous
100
AcDbCircle
 10
-852.705856
 20
-264.015164
 30
0.0
 40
5.0
100
AcDbArc
 50
180.0
 51
270.0
  0
ARC
  5
4D9
100
AcDbEntity
  8
0
370
    -3
390
0
  6
Continuous
100
AcDbCircle
 10
-685.205856
 20
-113.515164
 30
0.0
 40
5.0
100
AcDbArc
 50
90.0
 51
180.0
  0
ARC
  5
4DA
100
AcDbEntity
  8
0
370
    -3
390
0
  6
Continuous
100
AcDbCircle
 10
-704.205856
 20
-113.515164
 30
0.0
 40
5.0
100
AcDbArc
 50
0.0
 51
90.0
  0
ARC
  5
4DB
100
AcDbEntity
  8
0
370
    -3
390
0
  6
Continuous
100
AcDbCircle
 10
-712.205856
 20
-105.515164
 30
0.0
 40
3.0
100
AcDbArc
 50
180.0
 51
270.0
  0
ARC
  5
4DC
100
AcDbEntity
  8
0
370
    -3
390
0
  6
Continuous
100
AcDbCircle
 10
-677.205856
 20
-105.515164
 30
0.0
 40
3.0
100
AcDbArc
 50
270.0
 51
0.0
  0
ARC
  5
4DD
100
AcDbEntity
  8
0
370
    -3
390
0
  6
Continuous
100
AcDbCircle
 10
-859.419516
 20
-215.515164
 30
0.0
 40
3.0
100
AcDbArc
 50
90.0
 51
176.294955
  0
ARC
  5
4DE
100
AcDbEntity
  8
0
370
    -3
390
0
  6
Continuous
100
AcDbCircle
 10
-847.705856
 20
-199.515164
 30
0.0
 40
13.0
100
AcDbArc
 50
270.0
 51
90.0
  0
ARC
  5
4DF
100
AcDbEntity
  8
0
370
    -3
390
0
  6
Continuous
100
AcDbCircle
 10
-853.472959
 20
-183.515164
 30
0.0
 40
3.0
100
AcDbArc
 50
162.650668
 51
270.0
  0
ARC
  5
4E0
100
AcDbEntity
  8
0
370
    -3
390
0
  6
Continuous
100
AcDbCircle
 10
-529.992195
 20
-215.515164
 30
0.0
 40
3.0
100
AcDbArc
 50
3.705045
 51
90.0
  0
ARC
  5
4E1
100
AcDbEntity
  8
0
370
    -3
390
0
  6
Continuous
100
AcDbCircle
 10
-541.705856
 20
-199.515164
 30
0.0
 40
13.0
100
AcDbArc
 50
90.0
 51
270.0
  0
ARC
  5
4E2
100
AcDbEntity
  8
0
370
    -3
390
0
  6
Continuous
100
AcDbCircle
 10
-535.938752
 20
-183.515164
 30
0.0
 40
3.0
100
AcDbArc
 50
270.0
 51
17.349332
  0
ARC
  5
4E3
100
AcDbEntity
  8
0
370
    -3
390
0
  6
Continuous
100
AcDbCircle
 10
-594.761296
 20
-435.847895
 30
0.0
 40
12.0
100
AcDbArc
 50
108.08165
 51
163.618714
  0
ARC
  5
4E4
100
AcDbEntity
  8
0
370
    -3
390
0
  6
Continuous
100
AcDbCircle
 10
-551.898278
 20
-410.515164
 30
0.0
 40
12.0
100
AcDbArc
 50
90.0
 51
133.085886
  0
ARC
  5
4E5
100
AcDbEntity
  8
0
370
    -3
390
0
  6
Continuous
100
AcDbCircle
 10
-630.454075
 20
-326.527149
 30
0.0
 40
103.0
100
AcDbArc
 50
288.08165
 51
313.085886
  0
ARC
  5
4E6
100
AcDbEntity
  8
0
370
    -3
390
0
  6
Continuous
100
AcDbCircle
 10
-619.705856
 20
-428.515164
 30
0.0
 40
14.0
100
AcDbArc
 50
301.002719
 51
343.618714
  0
ARC
  5
4E7
100
AcDbEntity
  8
0
370
    -3
390
0
  6
Continuous
100
AcDbCircle
 10
-837.513433
 20
-410.515164
 30
0.0
 40
12.0
100
AcDbArc
 50
46.914114
 51
90.0
  0
ARC
  5
4E8
100
AcDbEntity
  8
0
370
    -3
390
0
  6
Continuous
100
AcDbCircle
 10
-758.957636
 20
-326.527149
 30
0.0
 40
103.0
100
AcDbArc
 50
226.914114
 51
251.91835
  0
ARC
  5
4E9
100
AcDbEntity
  8
0
370
    -3
390
0
  6
Continuous
100
AcDbCircle
 10
-794.650415
 20
-435.847895
 30
0.0
 40
12.0
100
AcDbArc
 50
16.381286
 51
71.91835
  0
ARC
  5
4EA
100
AcDbEntity
  8
0
370
    -3
390
0
  6
Continuous
100
AcDbCircle
 10
-769.705856
 20
-428.515164
 30
0.0
 40
14.0
100
AcDbArc
 50
196.381286
 51
238.997281
  0
LINE
  5
4EB
100
AcDbEntity
  8
0
370
    -3
390
0
  6
CENTER
100
AcDbLine
 10
-745.704191
 20
-213.515164
 30
0.0
 11
-643.777454
 21
-213.515164
 31
0.0
  0
LINE
  5
4EC
100
AcDbEntity
  8
0
370
    -3
390
0
  6
CENTER
100
AcDbLine
 10
-448.349912
 20
-273.515164
 30
0.0
 11
-941.017761
 21
-273.515164
 31
0.0
  0
LINE
  5
4ED
100
AcDbEntity
  8
0
370
    -3
390
0
  6
Continuous
100
AcDbLine
 10
-526.705856
 20
-327.515164
 30
0.0
 11
-526.705856
 21
-384.515164
 31
0.0
  0
LINE
  5
4EE
100
AcDbEntity
  8
0
370
    -3
390
0
  6
Continuous
100
AcDbLine
 10
-684.205856
 20
-106.515164
 30
0.0
 11
-705.205856
 21
-106.515164
 31
0.0
  0
ARC
  5
4EF
100
AcDbEntity
  8
0
370
    -3
390
0
  6
Continuous
100
AcDbCircle
 10
-705.205856
 20
-96.515164
 30
0.0
 40
10.0
100
AcDbArc
 50
180.0
 51
270.0
  0
ARC
  5
4F0
100
AcDbEntity
  8
0
370
    -3
390
0
  6
Continuous
100
AcDbCircle
 10
-684.205856
 20
-96.515164
 30
0.0
 40
10.0
100
AcDbArc
 50
270.0
 51
0.0
  0
MTEXT
  5
4F2
100
AcDbEntity
  8
0
370
    -3
390
0
  6
Continuous
100
AcDbMText
 10
-776.740417
 20
304.033356
 30
0.0
 40
24.0
 41
0.0
 71
     7
 72
     1
  1
\W0.83;三菱ギヤードモータ  
  7
ZU_SHPTB00001
 11
1.0
 21
0.0
 31
0.0
 73
     1
 44
1.0
  0
MTEXT
  5
4F3
100
AcDbEntity
  8
0
370
    -3
390
0
  6
Continuous
100
AcDbMText
 10
-776.740417
 20
272.233368
 30
0.0
 40
24.0
 41
0.0
 71
     7
 72
     1
  1
\W0.60;GM-DPFB
  7
ZU_SHPTB00001
 11
1.0
 21
0.0
 31
0.0
 73
     1
 44
1.0
  0
MTEXT
  5
4F4
100
AcDbEntity
  8
0
370
    -3
390
0
  6
Continuous
100
AcDbMText
 10
-776.740417
 20
240.433365
 30
0.0
 40
24.0
 41
0.0
 71
     7
 72
     1
  1
\W0.60;7.5(kW)
  7
ZU_SHPTB00001
 11
1.0
 21
0.0
 31
0.0
 73
     1
 44
1.0
  0
MTEXT
  5
4F5
100
AcDbEntity
  8
0
370
    -3
390
0
  6
Continuous
100
AcDbMText
 10
-776.740417
 20
208.633362
 30
0.0
 40
24.0
 41
0.0
 71
     7
 72
     1
  1
\W0.60;1/25,1/30
  7
ZU_SHPTB00001
 11
1.0
 21
0.0
 31
0.0
 73
     1
 44
1.0
  0
MTEXT
  5
4F6
100
AcDbEntity
  8
0
370
    -3
390
0
  6
Continuous
100
AcDbMText
 10
-776.740417
 20
176.833359
 30
0.0
 40
24.0
 41
0.0
 71
     7
 72
     1
  1
\W0.60;SCALE\W1.00; \W0.60;1/1
  7
ZU_SHPTB00001
 11
1.0
 21
0.0
 31
0.0
 73
     1
 44
1.0
  0
LINE
  5
4F7
100
AcDbEntity
  8
0
370
    -3
390
0
  6
Continuous
100
AcDbLine
 10
62.377382
 20
296.484836
 30
0.0
 11
62.377382
 21
171.484836
 31
0.0
  0
LINE
  5
4F8
100
AcDbEntity
  8
0
370
    -3
390
0
  6
Continuous
100
AcDbLine
 10
300.877382
 20
521.484836
 30
0.0
 11
279.877382
 21
521.484836
 31
0.0
  0
ARC
  5
4F9
100
AcDbEntity
  8
0
370
    -3
390
0
  6
Continuous
100
AcDbCircle
 10
279.877382
 20
518.484836
 30
0.0
 40
3.0
100
AcDbArc
 50
90.0
 51
180.0
  0
LINE
  5
4FA
100
AcDbEntity
  8
0
370
    -3
390
0
  6
Continuous
100
AcDbLine
 10
300.877382
 20
296.484836
 30
0.0
 11
300.877382
 21
521.484836
 31
0.0
  0
LINE
  5
4FB
100
AcDbEntity
  8
0
370
    -3
390
0
  6
Continuous
100
AcDbLine
 10
276.877382
 20
74.484836
 30
0.0
 11
276.877382
 21
518.484836
 31
0.0
  0
LINE
  5
4FC
100
AcDbEntity
  8
0
370
    -3
390
0
  6
Continuous
100
AcDbLine
 10
88.377424
 20
135.6971
 30
0.0
 11
88.377409
 21
151.272176
 31
0.0
  0
LINE
  5
4FD
100
AcDbEntity
  8
0
370
    -3
390
0
  6
Continuous
100
AcDbLine
 10
89.077401
 20
152.484837
 30
0.0
 11
88.377404
 21
151.272177
 31
0.0
  0
LINE
  5
4FE
100
AcDbEntity
  8
0
370
    -3
390
0
  6
Continuous
100
AcDbLine
 10
89.07742
 20
134.484833
 30
0.0
 11
88.377423
 21
135.697097
 31
0.0
  0
LINE
  5
4FF
100
AcDbEntity
  8
0
370
    -3
390
0
  6
Continuous
100
AcDbLine
 10
89.077406
 20
152.484836
 30
0.0
 11
89.077406
 21
134.484836
 31
0.0
  0
LINE
  5
500
100
AcDbEntity
  8
0
370
    -3
390
0
  6
Continuous
100
AcDbLine
 10
95.377382
 20
152.484836
 30
0.0
 11
89.077406
 21
152.484836
 31
0.0
  0
LINE
  5
501
100
AcDbEntity
  8
0
370
    -3
390
0
  6
Continuous
100
AcDbLine
 10
95.377382
 20
134.484836
 30
0.0
 11
89.077421
 21
134.484836
 31
0.0
  0
LINE
  5
502
100
AcDbEntity
  8
0
370
    -3
390
0
  6
Continuous
100
AcDbLine
 10
88.377424
 20
218.6971
 30
0.0
 11
88.377409
 21
234.272176
 31
0.0
  0
LINE
  5
503
100
AcDbEntity
  8
0
370
    -3
390
0
  6
Continuous
100
AcDbLine
 10
100.377382
 20
217.484836
 30
0.0
 11
89.077421
 21
217.484836
 31
0.0
  0
LINE
  5
504
100
AcDbEntity
  8
0
370
    -3
390
0
  6
Continuous
100
AcDbLine
 10
100.377382
 20
235.484836
 30
0.0
 11
89.077406
 21
235.484836
 31
0.0
  0
LINE
  5
505
100
AcDbEntity
  8
0
370
    -3
390
0
  6
Continuous
100
AcDbLine
 10
89.077401
 20
235.484837
 30
0.0
 11
88.377404
 21
234.272177
 31
0.0
  0
LINE
  5
506
100
AcDbEntity
  8
0
370
    -3
390
0
  6
Continuous
100
AcDbLine
 10
89.07742
 20
217.484833
 30
0.0
 11
88.377423
 21
218.697097
 31
0.0
  0
LINE
  5
507
100
AcDbEntity
  8
0
370
    -3
390
0
  6
Continuous
100
AcDbLine
 10
89.077406
 20
235.484836
 30
0.0
 11
89.077406
 21
217.484836
 31
0.0
  0
LINE
  5
508
100
AcDbEntity
  8
0
370
    -3
390
0
  6
Continuous
100
AcDbLine
 10
78.377383
 20
292.484836
 30
0.0
 11
78.377383
 21
279.484836
 31
0.0
  0
LINE
  5
509
100
AcDbEntity
  8
0
370
    -3
390
0
  6
Continuous
100
AcDbLine
 10
78.377384
 20
279.484836
 30
0.0
 11
77.877384
 21
280.350765
 31
0.0
  0
LINE
  5
50A
100
AcDbEntity
  8
0
370
    -3
390
0
  6
Continuous
100
AcDbLine
 10
78.377384
 20
292.484836
 30
0.0
 11
77.877384
 21
291.618712
 31
0.0
  0
LINE
  5
50B
100
AcDbEntity
  8
0
370
    -3
390
0
  6
Continuous
100
AcDbLine
 10
85.877382
 20
292.484836
 30
0.0
 11
78.377383
 21
292.484836
 31
0.0
  0
LINE
  5
50C
100
AcDbEntity
  8
0
370
    -3
390
0
  6
Continuous
100
AcDbLine
 10
77.877383
 20
291.618712
 30
0.0
 11
77.877383
 21
280.350765
 31
0.0
  0
LINE
  5
50D
100
AcDbEntity
  8
0
370
    -3
390
0
  6
Continuous
100
AcDbLine
 10
85.877382
 20
279.484836
 30
0.0
 11
78.377384
 21
279.484836
 31
0.0
  0
LINE
  5
50E
100
AcDbEntity
  8
0
370
    -3
390
0
  6
Continuous
100
AcDbLine
 10
78.377383
 20
300.484836
 30
0.0
 11
78.377383
 21
313.484836
 31
0.0
  0
LINE
  5
50F
100
AcDbEntity
  8
0
370
    -3
390
0
  6
Continuous
100
AcDbLine
 10
78.377384
 20
313.484836
 30
0.0
 11
77.877384
 21
312.618906
 31
0.0
  0
LINE
  5
510
100
AcDbEntity
  8
0
370
    -3
390
0
  6
Continuous
100
AcDbLine
 10
78.377384
 20
300.484836
 30
0.0
 11
77.877384
 21
301.35096
 31
0.0
  0
LINE
  5
511
100
AcDbEntity
  8
0
370
    -3
390
0
  6
Continuous
100
AcDbLine
 10
85.877382
 20
300.484836
 30
0.0
 11
78.377383
 21
300.484836
 31
0.0
  0
LINE
  5
512
100
AcDbEntity
  8
0
370
    -3
390
0
  6
Continuous
100
AcDbLine
 10
77.877383
 20
301.35096
 30
0.0
 11
77.877383
 21
312.618906
 31
0.0
  0
LINE
  5
513
100
AcDbEntity
  8
0
370
    -3
390
0
  6
Continuous
100
AcDbLine
 10
85.877382
 20
313.484836
 30
0.0
 11
78.377384
 21
313.484836
 31
0.0
  0
LINE
  5
514
100
AcDbEntity
  8
0
370
    -3
390
0
  6
Continuous
100
AcDbLine
 10
88.377424
 20
374.272571
 30
0.0
 11
88.377409
 21
358.697496
 31
0.0
  0
LINE
  5
515
100
AcDbEntity
  8
0
370
    -3
390
0
  6
Continuous
100
AcDbLine
 10
100.377382
 20
375.484836
 30
0.0
 11
89.077421
 21
375.484836
 31
0.0
  0
LINE
  5
516
100
AcDbEntity
  8
0
370
    -3
390
0
  6
Continuous
100
AcDbLine
 10
100.377382
 20
357.484836
 30
0.0
 11
89.077406
 21
357.484836
 31
0.0
  0
LINE
  5
517
100
AcDbEntity
  8
0
370
    -3
390
0
  6
Continuous
100
AcDbLine
 10
89.077401
 20
357.484835
 30
0.0
 11
88.377404
 21
358.697495
 31
0.0
  0
LINE
  5
518
100
AcDbEntity
  8
0
370
    -3
390
0
  6
Continuous
100
AcDbLine
 10
89.07742
 20
375.484839
 30
0.0
 11
88.377423
 21
374.272575
 31
0.0
  0
LINE
  5
519
100
AcDbEntity
  8
0
370
    -3
390
0
  6
Continuous
100
AcDbLine
 10
89.077406
 20
357.484836
 30
0.0
 11
89.077406
 21
375.484836
 31
0.0
  0
LINE
  5
51A
100
AcDbEntity
  8
0
370
    -3
390
0
  6
Continuous
100
AcDbLine
 10
89.077401
 20
440.484835
 30
0.0
 11
88.377404
 21
441.697495
 31
0.0
  0
LINE
  5
51B
100
AcDbEntity
  8
0
370
    -3
390
0
  6
Continuous
100
AcDbLine
 10
95.377382
 20
440.484836
 30
0.0
 11
89.077406
 21
440.484836
 31
0.0
  0
LINE
  5
51C
100
AcDbEntity
  8
0
370
    -3
390
0
  6
Continuous
100
AcDbLine
 10
88.377424
 20
457.272571
 30
0.0
 11
88.377409
 21
441.697496
 31
0.0
  0
LINE
  5
51D
100
AcDbEntity
  8
0
370
    -3
390
0
  6
Continuous
100
AcDbLine
 10
89.07742
 20
458.484839
 30
0.0
 11
88.377423
 21
457.272575
 31
0.0
  0
LINE
  5
51E
100
AcDbEntity
  8
0
370
    -3
390
0
  6
Continuous
100
AcDbLine
 10
89.077406
 20
440.484836
 30
0.0
 11
89.077406
 21
458.484836
 31
0.0
  0
LINE
  5
51F
100
AcDbEntity
  8
0
370
    -3
390
0
  6
Continuous
100
AcDbLine
 10
95.377382
 20
458.484836
 30
0.0
 11
89.077421
 21
458.484836
 31
0.0
  0
LINE
  5
520
100
AcDbEntity
  8
0
370
    -3
390
0
  6
Continuous
100
AcDbLine
 10
405.877367
 20
262.484836
 30
0.0
 11
333.877367
 21
262.484836
 31
0.0
  0
LINE
  5
521
100
AcDbEntity
  8
0
370
    -3
390
0
  6
Continuous
100
AcDbLine
 10
405.877367
 20
262.484836
 30
0.0
 11
405.877367
 21
267.284836
 31
0.0
  0
LINE
  5
522
100
AcDbEntity
  8
0
370
    -3
390
0
  6
Continuous
100
AcDbLine
 10
333.877367
 20
266.484836
 30
0.0
 11
333.877367
 21
262.484836
 31
0.0
  0
ARC
  5
523
100
AcDbEntity
  8
0
370
    -3
390
0
  6
Continuous
100
AcDbCircle
 10
405.077367
 20
325.684836
 30
0.0
 40
0.8
100
AcDbArc
 50
0.0
 51
90.0
  0
LINE
  5
524
100
AcDbEntity
  8
0
370
    -3
390
0
  6
Continuous
100
AcDbLine
 10
405.077367
 20
326.484836
 30
0.0
 11
318.437175
 21
326.484836
 31
0.0
  0
LINE
  5
525
100
AcDbEntity
  8
0
370
    -3
390
0
  6
Continuous
100
AcDbLine
 10
405.877367
 20
296.484836
 30
0.0
 11
405.877367
 21
325.684836
 31
0.0
  0
LINE
  5
526
100
AcDbEntity
  8
0
370
    -3
390
0
  6
Continuous
100
AcDbLine
 10
317.877367
 20
326.334836
 30
0.0
 11
316.677367
 21
326.334836
 31
0.0
  0
LINE
  5
527
100
AcDbEntity
  8
0
370
    -3
390
0
  6
Continuous
100
AcDbLine
 10
318.437175
 20
326.484836
 30
0.0
 11
317.877367
 21
326.334836
 31
0.0
  0
ARC
  5
528
100
AcDbEntity
  8
0
370
    -3
390
0
  6
Continuous
100
AcDbCircle
 10
316.677367
 20
327.134836
 30
0.0
 40
0.8
100
AcDbArc
 50
180.0
 51
270.0
  0
LINE
  5
529
100
AcDbEntity
  8
0
370
    -3
390
0
  6
Continuous
100
AcDbLine
 10
315.877367
 20
327.184836
 30
0.0
 11
315.077367
 21
327.984836
 31
0.0
  0
LINE
  5
52A
100
AcDbEntity
  8
0
370
    -3
390
0
  6
Continuous
100
AcDbLine
 10
315.877367
 20
296.484836
 30
0.0
 11
315.877367
 21
327.184836
 31
0.0
  0
LINE
  5
52B
100
AcDbEntity
  8
0
370
    -3
390
0
  6
Continuous
100
AcDbLine
 10
315.077367
 20
327.984836
 30
0.0
 11
310.877367
 21
327.984836
 31
0.0
  0
LINE
  5
52C
100
AcDbEntity
  8
0
370
    -3
390
0
  6
Continuous
100
AcDbLine
 10
317.877367
 20
266.634836
 30
0.0
 11
316.677367
 21
266.634836
 31
0.0
  0
LINE
  5
52D
100
AcDbEntity
  8
0
370
    -3
390
0
  6
Continuous
100
AcDbLine
 10
318.437175
 20
266.484836
 30
0.0
 11
317.877367
 21
266.634836
 31
0.0
  0
ARC
  5
52E
100
AcDbEntity
  8
0
370
    -3
390
0
  6
Continuous
100
AcDbCircle
 10
316.677367
 20
265.834836
 30
0.0
 40
0.8
100
AcDbArc
 50
90.0
 51
180.0
  0
LINE
  5
52F
100
AcDbEntity
  8
0
370
    -3
390
0
  6
Continuous
100
AcDbLine
 10
315.877367
 20
265.784836
 30
0.0
 11
315.077367
 21
264.984836
 31
0.0
  0
LINE
  5
530
100
AcDbEntity
  8
0
370
    -3
390
0
  6
Continuous
100
AcDbLine
 10
315.877367
 20
296.484836
 30
0.0
 11
315.877367
 21
265.784836
 31
0.0
  0
LINE
  5
531
100
AcDbEntity
  8
0
370
    -3
390
0
  6
Continuous
100
AcDbLine
 10
405.077367
 20
266.484836
 30
0.0
 11
318.437175
 21
266.484836
 31
0.0
  0
LINE
  5
532
100
AcDbEntity
  8
0
370
    -3
390
0
  6
Continuous
100
AcDbLine
 10
315.077367
 20
264.984836
 30
0.0
 11
310.877367
 21
264.984836
 31
0.0
  0
ARC
  5
533
100
AcDbEntity
  8
0
370
    -3
390
0
  6
Continuous
100
AcDbCircle
 10
405.077367
 20
267.284836
 30
0.0
 40
0.8
100
AcDbArc
 50
270.0
 51
0.0
  0
LINE
  5
534
100
AcDbEntity
  8
0
370
    -3
390
0
  6
Continuous
100
AcDbLine
 10
405.877367
 20
296.484836
 30
0.0
 11
405.877367
 21
267.284836
 31
0.0
  0
CIRCLE
  5
535
100
AcDbEntity
  8
0
370
    -3
390
0
  6
Continuous
100
AcDbCircle
 10
138.877382
 20
296.484836
 30
0.0
 40
16.0
  0
ARC
  5
536
100
AcDbEntity
  8
0
370
    -3
390
0
  6
Continuous
100
AcDbCircle
 10
227.723323
 20
402.482109
 30
0.0
 40
5.0
100
AcDbArc
 50
270.0
 51
321.718077
  0
LINE
  5
537
100
AcDbEntity
  8
0
370
    -3
390
0
  6
Continuous
100
AcDbLine
 10
231.648182
 20
399.384452
 30
0.0
 11
275.802242
 21
455.329468
 31
0.0
  0
ARC
  5
538
100
AcDbEntity
  8
0
370
    -3
390
0
  6
Continuous
100
AcDbCircle
 10
271.877382
 20
458.427125
 30
0.0
 40
5.0
100
AcDbArc
 50
321.718077
 51
0.0
  0
ARC
  5
539
100
AcDbEntity
  8
0
370
    -3
390
0
  6
Continuous
100
AcDbCircle
 10
227.723323
 20
412.609746
 30
0.0
 40
5.0
100
AcDbArc
 50
270.0
 51
321.718077
  0
LINE
  5
53A
100
AcDbEntity
  8
0
370
    -3
390
0
  6
Continuous
100
AcDbLine
 10
231.648182
 20
409.512089
 30
0.0
 11
275.802242
 21
465.457105
 31
0.0
  0
ARC
  5
53B
100
AcDbEntity
  8
0
370
    -3
390
0
  6
Continuous
100
AcDbCircle
 10
271.877382
 20
468.554762
 30
0.0
 40
5.0
100
AcDbArc
 50
321.718077
 51
0.0
  0
LINE
  5
53C
100
AcDbEntity
  8
0
370
    -3
390
0
  6
Continuous
100
AcDbLine
 10
271.780648
 20
397.482109
 30
0.0
 11
236.843397
 21
397.482109
 31
0.0
  0
ARC
  5
53D
100
AcDbEntity
  8
0
370
    -3
390
0
  6
Continuous
100
AcDbCircle
 10
227.723323
 20
180.359926
 30
0.0
 40
5.0
100
AcDbArc
 50
38.281923
 51
90.0
  0
LINE
  5
53E
100
AcDbEntity
  8
0
370
    -3
390
0
  6
Continuous
100
AcDbLine
 10
231.648182
 20
183.457583
 30
0.0
 11
275.802242
 21
127.512567
 31
0.0
  0
ARC
  5
53F
100
AcDbEntity
  8
0
370
    -3
390
0
  6
Continuous
100
AcDbCircle
 10
271.877382
 20
124.41491
 30
0.0
 40
5.0
100
AcDbArc
 50
0.0
 51
38.281923
  0
ARC
  5
540
100
AcDbEntity
  8
0
370
    -3
390
0
  6
Continuous
100
AcDbCircle
 10
271.877382
 20
134.542546
 30
0.0
 40
5.0
100
AcDbArc
 50
0.0
 51
38.281923
  0
ARC
  5
541
100
AcDbEntity
  8
0
370
    -3
390
0
  6
Continuous
100
AcDbCircle
 10
227.723323
 20
190.487563
 30
0.0
 40
5.0
100
AcDbArc
 50
38.281923
 51
90.0
  0
ARC
  5
542
100
AcDbEntity
  8
0
370
    -3
390
0
  6
Continuous
100
AcDbCircle
 10
271.877382
 20
305.984836
 30
0.0
 40
5.0
100
AcDbArc
 50
270.0
 51
0.0
  0
ARC
  5
543
100
AcDbEntity
  8
0
370
    -3
390
0
  6
Continuous
100
AcDbCircle
 10
271.877382
 20
286.984836
 30
0.0
 40
5.0
100
AcDbArc
 50
0.0
 51
90.0
  0
ARC
  5
544
100
AcDbEntity
  8
0
370
    -3
390
0
  6
Continuous
100
AcDbCircle
 10
235.146777
 20
286.984836
 30
0.0
 40
5.0
100
AcDbArc
 50
90.0
 51
180.0
  0
ARC
  5
545
100
AcDbEntity
  8
0
370
    -3
390
0
  6
Continuous
100
AcDbCircle
 10
235.146777
 20
305.984836
 30
0.0
 40
5.0
100
AcDbArc
 50
180.0
 51
270.0
  0
LINE
  5
546
100
AcDbEntity
  8
0
370
    -3
390
0
  6
Continuous
100
AcDbLine
 10
271.877382
 20
291.984836
 30
0.0
 11
235.146777
 21
291.984836
 31
0.0
  0
LINE
  5
547
100
AcDbEntity
  8
0
370
    -3
390
0
  6
Continuous
100
AcDbLine
 10
271.877382
 20
300.984836
 30
0.0
 11
235.146777
 21
300.984836
 31
0.0
  0
LINE
  5
548
100
AcDbEntity
  8
0
370
    -3
390
0
  6
Continuous
100
AcDbLine
 10
231.648182
 20
193.58522
 30
0.0
 11
275.802242
 21
137.640203
 31
0.0
  0
LINE
  5
549
100
AcDbEntity
  8
0
370
    -3
390
0
  6
Continuous
100
AcDbLine
 10
271.780648
 20
195.487563
 30
0.0
 11
236.843397
 21
195.487563
 31
0.0
  0
ARC
  5
54A
100
AcDbEntity
  8
0
370
    -3
390
0
  6
Continuous
100
AcDbCircle
 10
225.387507
 20
316.984836
 30
0.0
 40
3.0
100
AcDbArc
 50
270.0
 51
0.0
  0
ARC
  5
54B
100
AcDbEntity
  8
0
370
    -3
390
0
  6
Continuous
100
AcDbCircle
 10
225.387507
 20
275.984836
 30
0.0
 40
3.0
100
AcDbArc
 50
0.0
 51
90.0
  0
ARC
  5
54C
100
AcDbEntity
  8
0
370
    -3
390
0
  6
Continuous
100
AcDbCircle
 10
266.877382
 20
113.135863
 30
0.0
 40
10.0
100
AcDbArc
 50
0.0
 51
88.0
  0
LINE
  5
54D
100
AcDbEntity
  8
0
370
    -3
390
0
  6
Continuous
100
AcDbLine
 10
113.877382
 20
128.484836
 30
0.0
 11
267.226377
 21
123.129771
 31
0.0
  0
LINE
  5
54E
100
AcDbEntity
  8
0
370
    -3
390
0
  6
Continuous
100
AcDbLine
 10
310.877382
 20
243.984836
 30
0.0
 11
310.877382
 21
348.984836
 31
0.0
  0
ARC
  5
54F
100
AcDbEntity
  8
0
370
    -3
390
0
  6
Continuous
100
AcDbCircle
 10
309.877382
 20
349.984836
 30
0.0
 40
1.0
100
AcDbArc
 50
180.0
 51
270.0
  0
ARC
  5
550
100
AcDbEntity
  8
0
370
    -3
390
0
  6
Continuous
100
AcDbCircle
 10
309.877382
 20
242.984836
 30
0.0
 40
1.0
100
AcDbArc
 50
90.0
 51
180.0
  0
LINE
  5
551
100
AcDbEntity
  8
0
370
    -3
390
0
  6
Continuous
100
AcDbLine
 10
113.877382
 20
128.484836
 30
0.0
 11
113.877382
 21
464.484836
 31
0.0
  0
LINE
  5
552
100
AcDbEntity
  8
0
370
    -3
390
0
  6
CENTER
100
AcDbLine
 10
450.235458
 20
296.484836
 30
0.0
 11
-433.94797
 21
296.484836
 31
0.0
  0
ARC
  5
553
100
AcDbEntity
  8
0
370
    -3
390
0
  6
Continuous
100
AcDbCircle
 10
266.877382
 20
479.833809
 30
0.0
 40
10.0
100
AcDbArc
 50
272.0
 51
0.0
  0
ARC
  5
554
100
AcDbEntity
  8
0
370
    -3
390
0
  6
Continuous
100
AcDbCircle
 10
305.877382
 20
373.637942
 30
0.0
 40
3.0
100
AcDbArc
 50
0.0
 51
87.0
  0
LINE
  5
555
100
AcDbEntity
  8
0
370
    -3
390
0
  6
Continuous
100
AcDbLine
 10
310.877382
 20
348.984836
 30
0.0
 11
309.877382
 21
348.984836
 31
0.0
  0
LINE
  5
556
100
AcDbEntity
  8
0
370
    -3
390
0
  6
Continuous
100
AcDbLine
 10
310.877382
 20
243.984836
 30
0.0
 11
309.877382
 21
243.984836
 31
0.0
  0
ARC
  5
557
100
AcDbEntity
  8
0
370
    -3
390
0
  6
Continuous
100
AcDbCircle
 10
305.877382
 20
219.33173
 30
0.0
 40
3.0
100
AcDbArc
 50
273.0
 51
0.0
  0
LINE
  5
558
100
AcDbEntity
  8
0
370
    -3
390
0
  6
Continuous
100
AcDbLine
 10
304.877382
 20
86.484836
 30
0.0
 11
300.877382
 21
86.484836
 31
0.0
  0
LINE
  5
559
100
AcDbEntity
  8
0
370
    -3
390
0
  6
Continuous
100
AcDbLine
 10
305.877382
 20
87.484836
 30
0.0
 11
304.877382
 21
86.484836
 31
0.0
  0
LINE
  5
55A
100
AcDbEntity
  8
0
370
    -3
390
0
  6
Continuous
100
AcDbLine
 10
113.877382
 20
464.484836
 30
0.0
 11
267.226377
 21
469.839901
 31
0.0
  0
LINE
  5
55B
100
AcDbEntity
  8
0
370
    -3
390
0
  6
Continuous
100
AcDbLine
 10
305.877382
 20
296.484836
 30
0.0
 11
305.877382
 21
505.484836
 31
0.0
  0
LINE
  5
55C
100
AcDbEntity
  8
0
370
    -3
390
0
  6
Continuous
100
AcDbLine
 10
308.877382
 20
296.484836
 30
0.0
 11
308.877382
 21
219.33173
 31
0.0
  0
LINE
  5
55D
100
AcDbEntity
  8
0
370
    -3
390
0
  6
Continuous
100
AcDbLine
 10
305.877382
 20
296.484836
 30
0.0
 11
305.877382
 21
87.484836
 31
0.0
  0
LINE
  5
55E
100
AcDbEntity
  8
0
370
    -3
390
0
  6
Continuous
100
AcDbLine
 10
300.877382
 20
296.484836
 30
0.0
 11
300.877382
 21
71.484836
 31
0.0
  0
ARC
  5
55F
100
AcDbEntity
  8
0
370
    -3
390
0
  6
Continuous
100
AcDbCircle
 10
279.877382
 20
74.484836
 30
0.0
 40
3.0
100
AcDbArc
 50
180.0
 51
270.0
  0
LINE
  5
560
100
AcDbEntity
  8
0
370
    -3
390
0
  6
Continuous
100
AcDbLine
 10
279.877382
 20
71.484836
 30
0.0
 11
300.877382
 21
71.484836
 31
0.0
  0
LINE
  5
561
100
AcDbEntity
  8
0
370
    -3
390
0
  6
Continuous
100
AcDbLine
 10
308.877382
 20
296.484836
 30
0.0
 11
308.877382
 21
373.637942
 31
0.0
  0
LINE
  5
562
100
AcDbEntity
  8
0
370
    -3
390
0
  6
Continuous
100
AcDbLine
 10
306.03439
 20
376.633831
 30
0.0
 11
305.877382
 21
376.633831
 31
0.0
  0
LINE
  5
563
100
AcDbEntity
  8
0
370
    -3
390
0
  6
Continuous
100
AcDbLine
 10
306.03439
 20
216.335841
 30
0.0
 11
305.877382
 21
216.335841
 31
0.0
  0
ARC
  5
564
100
AcDbEntity
  8
0
370
    -3
390
0
  6
Continuous
100
AcDbCircle
 10
292.877382
 20
419.736098
 30
0.0
 40
2.0
100
AcDbArc
 50
90.0
 51
180.0
  0
LINE
  5
565
100
AcDbEntity
  8
0
370
    -3
390
0
  6
Continuous
100
AcDbLine
 10
290.877382
 20
296.484836
 30
0.0
 11
290.877382
 21
469.987361
 31
0.0
  0
ARC
  5
566
100
AcDbEntity
  8
0
370
    -3
390
0
  6
Continuous
100
AcDbCircle
 10
292.877382
 20
469.987361
 30
0.0
 40
2.0
100
AcDbArc
 50
90.0
 51
180.0
  0
LINE
  5
567
100
AcDbEntity
  8
0
370
    -3
390
0
  6
Continuous
100
AcDbLine
 10
300.877382
 20
471.987361
 30
0.0
 11
292.877382
 21
471.987361
 31
0.0
  0
LINE
  5
568
100
AcDbEntity
  8
0
370
    -3
390
0
  6
Continuous
100
AcDbLine
 10
300.877382
 20
421.736098
 30
0.0
 11
292.877382
 21
421.736098
 31
0.0
  0
ARC
  5
569
100
AcDbEntity
  8
0
370
    -3
390
0
  6
Continuous
100
AcDbCircle
 10
292.877382
 20
173.233573
 30
0.0
 40
2.0
100
AcDbArc
 50
180.0
 51
270.0
  0
LINE
  5
56A
100
AcDbEntity
  8
0
370
    -3
390
0
  6
Continuous
100
AcDbLine
 10
290.877382
 20
296.484836
 30
0.0
 11
290.877382
 21
122.982311
 31
0.0
  0
ARC
  5
56B
100
AcDbEntity
  8
0
370
    -3
390
0
  6
Continuous
100
AcDbCircle
 10
292.877382
 20
122.982311
 30
0.0
 40
2.0
100
AcDbArc
 50
180.0
 51
270.0
  0
LINE
  5
56C
100
AcDbEntity
  8
0
370
    -3
390
0
  6
Continuous
100
AcDbLine
 10
300.877382
 20
120.982311
 30
0.0
 11
292.877382
 21
120.982311
 31
0.0
  0
LINE
  5
56D
100
AcDbEntity
  8
0
370
    -3
390
0
  6
Continuous
100
AcDbLine
 10
300.877382
 20
171.233573
 30
0.0
 11
292.877382
 21
171.233573
 31
0.0
  0
LINE
  5
56E
100
AcDbEntity
  8
0
370
    -3
390
0
  6
CENTER
100
AcDbLine
 10
138.877382
 20
320.162229
 30
0.0
 11
138.877382
 21
272.519266
 31
0.0
  0
ARC
  5
56F
100
AcDbEntity
  8
0
370
    -3
390
0
  6
Continuous
100
AcDbCircle
 10
138.877382
 20
296.484836
 30
0.0
 40
17.5
100
AcDbArc
 50
90.0
 51
270.0
  0
ARC
  5
570
100
AcDbEntity
  8
0
370
    -3
390
0
  6
Continuous
100
AcDbCircle
 10
138.877382
 20
296.484836
 30
0.0
 40
20.0
100
AcDbArc
 50
298.955024
 51
61.044976
  0
LINE
  5
571
100
AcDbEntity
  8
0
370
    -3
390
0
  6
Continuous
100
AcDbLine
 10
138.877382
 20
313.984836
 30
0.0
 11
225.387507
 21
313.984836
 31
0.0
  0
LINE
  5
572
100
AcDbEntity
  8
0
370
    -3
390
0
  6
Continuous
100
AcDbLine
 10
138.877382
 20
278.984836
 30
0.0
 11
225.387507
 21
278.984836
 31
0.0
  0
LINE
  5
573
100
AcDbEntity
  8
0
370
    -3
390
0
  6
Continuous
100
AcDbLine
 10
113.377382
 20
464.484836
 30
0.0
 11
113.877382
 21
464.484836
 31
0.0
  0
LINE
  5
574
100
AcDbEntity
  8
0
370
    -3
390
0
  6
Continuous
100
AcDbLine
 10
113.377382
 20
296.484836
 30
0.0
 11
113.377382
 21
464.484836
 31
0.0
  0
LINE
  5
575
100
AcDbEntity
  8
0
370
    -3
390
0
  6
Continuous
100
AcDbLine
 10
113.377382
 20
128.484836
 30
0.0
 11
113.877382
 21
128.484836
 31
0.0
  0
LINE
  5
576
100
AcDbEntity
  8
0
370
    -3
390
0
  6
Continuous
100
AcDbLine
 10
113.377382
 20
296.484836
 30
0.0
 11
113.377382
 21
128.484836
 31
0.0
  0
LINE
  5
577
100
AcDbEntity
  8
0
370
    -3
390
0
  6
Continuous
100
AcDbLine
 10
90.377382
 20
296.484836
 30
0.0
 11
90.377382
 21
275.984836
 31
0.0
  0
LINE
  5
578
100
AcDbEntity
  8
0
370
    -3
390
0
  6
Continuous
100
AcDbLine
 10
74.377382
 20
291.984836
 30
0.0
 11
78.088742
 21
291.984836
 31
0.0
  0
LINE
  5
579
100
AcDbEntity
  8
0
370
    -3
390
0
  6
Continuous
100
AcDbLine
 10
85.877382
 20
296.484836
 30
0.0
 11
85.877382
 21
275.984836
 31
0.0
  0
ARC
  5
57A
100
AcDbEntity
  8
0
370
    -3
390
0
  6
Continuous
100
AcDbCircle
 10
98.377382
 20
153.484836
 30
0.0
 40
3.0
100
AcDbArc
 50
99.594068
 51
180.0
  0
ARC
  5
57B
100
AcDbEntity
  8
0
370
    -3
390
0
  6
Continuous
100
AcDbCircle
 10
67.120511
 20
161.334213
 30
0.0
 40
5.0
100
AcDbArc
 50
43.438087
 51
87.0
  0
LINE
  5
57C
100
AcDbEntity
  8
0
370
    -3
390
0
  6
Continuous
100
AcDbLine
 10
95.377382
 20
153.484836
 30
0.0
 11
95.377382
 21
131.484836
 31
0.0
  0
LINE
  5
57D
100
AcDbEntity
  8
0
370
    -3
390
0
  6
Continuous
100
AcDbLine
 10
93.377382
 20
275.984836
 30
0.0
 11
97.377382
 21
275.984836
 31
0.0
  0
ARC
  5
57E
100
AcDbEntity
  8
0
370
    -3
390
0
  6
Continuous
100
AcDbCircle
 10
97.377382
 20
159.400916
 30
0.0
 40
3.0
100
AcDbArc
 50
279.594068
 51
0.0
  0
ARC
  5
57F
100
AcDbEntity
  8
0
370
    -3
390
0
  6
Continuous
100
AcDbCircle
 10
98.377382
 20
131.484836
 30
0.0
 40
3.0
100
AcDbArc
 50
180.0
 51
270.0
  0
ARC
  5
580
100
AcDbEntity
  8
0
370
    -3
390
0
  6
Continuous
100
AcDbCircle
 10
93.377382
 20
278.984836
 30
0.0
 40
3.0
100
AcDbArc
 50
180.0
 51
270.0
  0
ARC
  5
581
100
AcDbEntity
  8
0
370
    -3
390
0
  6
Continuous
100
AcDbCircle
 10
74.377382
 20
286.984836
 30
0.0
 40
5.0
100
AcDbArc
 50
90.0
 51
180.0
  0
ARC
  5
582
100
AcDbEntity
  8
0
370
    -3
390
0
  6
Continuous
100
AcDbCircle
 10
97.377382
 20
272.984836
 30
0.0
 40
3.0
100
AcDbArc
 50
0.0
 51
90.0
  0
LINE
  5
583
100
AcDbEntity
  8
0
370
    -3
390
0
  6
Continuous
100
AcDbLine
 10
70.863517
 20
199.96197
 30
0.0
 11
99.062063
 21
169.219827
 31
0.0
  0
LINE
  5
584
100
AcDbEntity
  8
0
370
    -3
390
0
  6
Continuous
100
AcDbLine
 10
85.877382
 20
275.984836
 30
0.0
 11
90.377382
 21
275.984836
 31
0.0
  0
ARC
  5
585
100
AcDbEntity
  8
0
370
    -3
390
0
  6
Continuous
100
AcDbCircle
 10
95.377382
 20
165.840015
 30
0.0
 40
5.0
100
AcDbArc
 50
0.0
 51
42.528923
  0
LINE
  5
586
100
AcDbEntity
  8
0
370
    -3
390
0
  6
Continuous
100
AcDbLine
 10
70.7511
 20
428.197607
 30
0.0
 11
88.377414
 21
446.81211
 31
0.0
  0
ARC
  5
587
100
AcDbEntity
  8
0
370
    -3
390
0
  6
Continuous
100
AcDbCircle
 10
67.178836
 20
196.582158
 30
0.0
 40
5.0
100
AcDbArc
 50
42.528923
 51
90.0
  0
ARC
  5
588
100
AcDbEntity
  8
0
370
    -3
390
0
  6
Continuous
100
AcDbCircle
 10
95.377382
 20
158.964956
 30
0.0
 40
5.0
100
AcDbArc
 50
0.0
 51
42.528923
  0
ARC
  5
589
100
AcDbEntity
  8
0
370
    -3
390
0
  6
Continuous
100
AcDbCircle
 10
67.178836
 20
189.707099
 30
0.0
 40
5.0
100
AcDbArc
 50
42.528923
 51
90.0
  0
LINE
  5
58A
100
AcDbEntity
  8
0
370
    -3
390
0
  6
Continuous
100
AcDbLine
 10
70.863517
 20
193.086911
 30
0.0
 11
99.062063
 21
162.344768
 31
0.0
  0
ARC
  5
58B
100
AcDbEntity
  8
0
370
    -3
390
0
  6
Continuous
100
AcDbCircle
 10
67.120511
 20
431.635459
 30
0.0
 40
5.0
100
AcDbArc
 50
273.0
 51
316.561913
  0
LINE
  5
58C
100
AcDbEntity
  8
0
370
    -3
390
0
  6
Continuous
100
AcDbLine
 10
72.470868
 20
391.387514
 30
0.0
 11
97.768543
 21
391.387514
 31
0.0
  0
LINE
  5
58D
100
AcDbEntity
  8
0
370
    -3
390
0
  6
Continuous
100
AcDbLine
 10
70.7511
 20
164.772065
 30
0.0
 11
88.377414
 21
146.157561
 31
0.0
  0
ARC
  5
58E
100
AcDbEntity
  8
0
370
    -3
390
0
  6
Continuous
100
AcDbCircle
 10
95.377382
 20
433.116339
 30
0.0
 40
5.0
100
AcDbArc
 50
273.0
 51
289.101161
  0
ARC
  5
58F
100
AcDbEntity
  8
0
370
    -3
390
0
  6
Continuous
100
AcDbCircle
 10
95.377382
 20
434.004715
 30
0.0
 40
5.0
100
AcDbArc
 50
317.471077
 51
0.0
  0
LINE
  5
590
100
AcDbEntity
  8
0
370
    -3
390
0
  6
Continuous
100
AcDbLine
 10
72.470868
 20
201.582158
 30
0.0
 11
97.768543
 21
201.582158
 31
0.0
  0
ARC
  5
591
100
AcDbEntity
  8
0
370
    -3
390
0
  6
Continuous
100
AcDbCircle
 10
67.178836
 20
403.262573
 30
0.0
 40
5.0
100
AcDbArc
 50
270.0
 51
317.471077
  0
LINE
  5
592
100
AcDbEntity
  8
0
370
    -3
390
0
  6
Continuous
100
AcDbLine
 10
70.863517
 20
399.882761
 30
0.0
 11
99.062063
 21
430.624904
 31
0.0
  0
ARC
  5
593
100
AcDbEntity
  8
0
370
    -3
390
0
  6
Continuous
100
AcDbCircle
 10
67.178836
 20
396.387514
 30
0.0
 40
5.0
100
AcDbArc
 50
270.0
 51
317.471077
  0
LINE
  5
594
100
AcDbEntity
  8
0
370
    -3
390
0
  6
Continuous
100
AcDbLine
 10
70.863517
 20
393.007702
 30
0.0
 11
99.062063
 21
423.749845
 31
0.0
  0
ARC
  5
595
100
AcDbEntity
  8
0
370
    -3
390
0
  6
Continuous
100
AcDbCircle
 10
95.377382
 20
427.129656
 30
0.0
 40
5.0
100
AcDbArc
 50
317.471077
 51
0.0
  0
LINE
  5
596
100
AcDbEntity
  8
0
370
    -3
390
0
  6
Continuous
100
AcDbLine
 10
64.377382
 20
424.586907
 30
0.0
 11
64.377382
 21
296.484836
 31
0.0
  0
ARC
  5
597
100
AcDbEntity
  8
0
370
    -3
390
0
  6
Continuous
100
AcDbCircle
 10
66.377382
 20
424.586907
 30
0.0
 40
2.0
100
AcDbArc
 50
93.0
 51
180.0
  0
LINE
  5
598
100
AcDbEntity
  8
0
370
    -3
390
0
  6
Continuous
100
AcDbLine
 10
66.27271
 20
426.584166
 30
0.0
 11
95.639062
 21
428.123191
 31
0.0
  0
ARC
  5
599
100
AcDbEntity
  8
0
370
    -3
390
0
  6
Continuous
100
AcDbCircle
 10
62.377382
 20
408.484836
 30
0.0
 40
2.0
100
AcDbArc
 50
270.0
 51
0.0
  0
LINE
  5
59A
100
AcDbEntity
  8
0
370
    -3
390
0
  6
Continuous
100
AcDbLine
 10
62.377382
 20
406.484836
 30
0.0
 11
62.377382
 21
296.484836
 31
0.0
  0
LINE
  5
59B
100
AcDbEntity
  8
0
370
    -3
390
0
  6
Continuous
100
AcDbLine
 10
74.377382
 20
300.984836
 30
0.0
 11
78.088742
 21
300.984836
 31
0.0
  0
ARC
  5
59C
100
AcDbEntity
  8
0
370
    -3
390
0
  6
Continuous
100
AcDbCircle
 10
74.377382
 20
305.984836
 30
0.0
 40
5.0
100
AcDbArc
 50
180.0
 51
270.0
  0
ARC
  5
59D
100
AcDbEntity
  8
0
370
    -3
390
0
  6
Continuous
100
AcDbCircle
 10
97.377382
 20
433.568756
 30
0.0
 40
3.0
100
AcDbArc
 50
0.0
 51
80.405932
  0
LINE
  5
59E
100
AcDbEntity
  8
0
370
    -3
390
0
  6
Continuous
100
AcDbLine
 10
90.377382
 20
296.484836
 30
0.0
 11
90.377382
 21
316.984836
 31
0.0
  0
LINE
  5
59F
100
AcDbEntity
  8
0
370
    -3
390
0
  6
Continuous
100
AcDbLine
 10
85.877382
 20
296.484836
 30
0.0
 11
85.877382
 21
316.984836
 31
0.0
  0
ARC
  5
5A0
100
AcDbEntity
  8
0
370
    -3
390
0
  6
Continuous
100
AcDbCircle
 10
98.377382
 20
439.484836
 30
0.0
 40
3.0
100
AcDbArc
 50
180.0
 51
260.405932
  0
LINE
  5
5A1
100
AcDbEntity
  8
0
370
    -3
390
0
  6
Continuous
100
AcDbLine
 10
95.377382
 20
439.484836
 30
0.0
 11
95.377382
 21
461.484836
 31
0.0
  0
LINE
  5
5A2
100
AcDbEntity
  8
0
370
    -3
390
0
  6
Continuous
100
AcDbLine
 10
93.377382
 20
316.984836
 30
0.0
 11
97.377382
 21
316.984836
 31
0.0
  0
ARC
  5
5A3
100
AcDbEntity
  8
0
370
    -3
390
0
  6
Continuous
100
AcDbCircle
 10
98.377382
 20
461.484836
 30
0.0
 40
3.0
100
AcDbArc
 50
90.0
 51
180.0
  0
ARC
  5
5A4
100
AcDbEntity
  8
0
370
    -3
390
0
  6
Continuous
100
AcDbCircle
 10
93.377382
 20
313.984836
 30
0.0
 40
3.0
100
AcDbArc
 50
90.0
 51
180.0
  0
ARC
  5
5A5
100
AcDbEntity
  8
0
370
    -3
390
0
  6
Continuous
100
AcDbCircle
 10
97.377382
 20
319.984836
 30
0.0
 40
3.0
100
AcDbArc
 50
270.0
 51
0.0
  0
LINE
  5
5A6
100
AcDbEntity
  8
0
370
    -3
390
0
  6
Continuous
100
AcDbLine
 10
85.877382
 20
316.984836
 30
0.0
 11
90.377382
 21
316.984836
 31
0.0
  0
LINE
  5
5A7
100
AcDbEntity
  8
0
370
    -3
390
0
  6
Continuous
100
AcDbLine
 10
100.377382
 20
296.484836
 30
0.0
 11
100.377382
 21
461.484836
 31
0.0
  0
LINE
  5
5A8
100
AcDbEntity
  8
0
370
    -3
390
0
  6
Continuous
100
AcDbLine
 10
98.377382
 20
464.484836
 30
0.0
 11
113.377382
 21
464.484836
 31
0.0
  0
ARC
  5
5A9
100
AcDbEntity
  8
0
370
    -3
390
0
  6
Continuous
100
AcDbCircle
 10
103.377382
 20
461.484836
 30
0.0
 40
3.0
100
AcDbArc
 50
90.0
 51
180.0
  0
LINE
  5
5AA
100
AcDbEntity
  8
0
370
    -3
390
0
  6
Continuous
100
AcDbLine
 10
62.377382
 20
186.484836
 30
0.0
 11
62.377382
 21
296.484836
 31
0.0
  0
LINE
  5
5AB
100
AcDbEntity
  8
0
370
    -3
390
0
  6
Continuous
100
AcDbLine
 10
66.27271
 20
166.385506
 30
0.0
 11
95.639062
 21
164.846481
 31
0.0
  0
LINE
  5
5AC
100
AcDbEntity
  8
0
370
    -3
390
0
  6
Continuous
100
AcDbLine
 10
64.377382
 20
168.382765
 30
0.0
 11
64.377382
 21
296.484836
 31
0.0
  0
ARC
  5
5AD
100
AcDbEntity
  8
0
370
    -3
390
0
  6
Continuous
100
AcDbCircle
 10
66.377382
 20
168.382765
 30
0.0
 40
2.0
100
AcDbArc
 50
180.0
 51
267.0
  0
ARC
  5
5AE
100
AcDbEntity
  8
0
370
    -3
390
0
  6
Continuous
100
AcDbCircle
 10
95.377382
 20
159.853333
 30
0.0
 40
5.0
100
AcDbArc
 50
70.898839
 51
87.0
  0
ARC
  5
5AF
100
AcDbEntity
  8
0
370
    -3
390
0
  6
Continuous
100
AcDbCircle
 10
62.377382
 20
184.484836
 30
0.0
 40
2.0
100
AcDbArc
 50
0.0
 51
90.0
  0
LINE
  5
5B0
100
AcDbEntity
  8
0
370
    -3
390
0
  6
Continuous
100
AcDbLine
 10
100.377382
 20
296.484836
 30
0.0
 11
100.377382
 21
131.484836
 31
0.0
  0
LINE
  5
5B1
100
AcDbEntity
  8
0
370
    -3
390
0
  6
Continuous
100
AcDbLine
 10
98.377382
 20
128.484836
 30
0.0
 11
113.377382
 21
128.484836
 31
0.0
  0
ARC
  5
5B2
100
AcDbEntity
  8
0
370
    -3
390
0
  6
Continuous
100
AcDbCircle
 10
103.377382
 20
131.484836
 30
0.0
 40
3.0
100
AcDbArc
 50
180.0
 51
270.0
  0
LINE
  5
5B3
100
AcDbEntity
  8
0
370
    -3
390
0
  6
Continuous
100
AcDbLine
 10
304.877382
 20
506.484836
 30
0.0
 11
300.877382
 21
506.484836
 31
0.0
  0
LINE
  5
5B4
100
AcDbEntity
  8
0
370
    -3
390
0
  6
Continuous
100
AcDbLine
 10
304.877382
 20
506.484836
 30
0.0
 11
305.877382
 21
505.484836
 31
0.0
  0
LINE
  5
5B5
100
AcDbEntity
  8
0
370
    -3
390
0
  6
Continuous
100
AcDbLine
 10
-237.622618
 20
399.745283
 30
0.0
 11
-237.622618
 21
401.386639
 31
0.0
  0
LINE
  5
5B6
100
AcDbEntity
  8
0
370
    -3
390
0
  6
Continuous
100
AcDbLine
 10
-251.622618
 20
399.745283
 30
0.0
 11
-251.622618
 21
401.386639
 31
0.0
  0
ELLIPSE
  5
5B7
100
AcDbEntity
  8
0
370
    -3
390
0
  6
Continuous
100
AcDbEllipse
 10
-244.622618
 20
399.745283
 30
0.0
 11
7.0
 21
0.0
 31
0.0
210
0.0
220
0.0
230
1.0
 40
0.707107
 41
3.1415926535897931
 42
0.0
  0
ELLIPSE
  5
5B8
100
AcDbEntity
  8
0
370
    -3
390
0
  6
Continuous
100
AcDbEllipse
 10
-244.622618
 20
401.386639
 30
0.0
 11
7.0
 21
0.0
 31
0.0
210
0.0
220
0.0
230
1.0
 40
0.692313
 41
3.1415926535897931
 42
0.0
  0
ELLIPSE
  5
5B9
100
AcDbEntity
  8
0
370
    -3
390
0
  6
Continuous
100
AcDbEllipse
 10
-244.622618
 20
401.386639
 30
0.0
 11
7.0
 21
0.0
 31
0.0
210
0.0
220
0.0
230
1.0
 40
0.692313
 41
0.0
 42
0.5464396163983196
  0
ELLIPSE
  5
5BA
100
AcDbEntity
  8
0
370
    -3
390
0
  6
Continuous
100
AcDbEllipse
 10
-244.622618
 20
401.386639
 30
0.0
 11
7.0
 21
0.0
 31
0.0
210
0.0
220
0.0
230
1.0
 40
0.692313
 41
2.5951530371914737
 42
3.1415926535897931
  0
ELLIPSE
  5
5BB
100
AcDbEntity
  8
0
370
    -3
390
0
  6
Continuous
100
AcDbEllipse
 10
-244.622618
 20
401.490193
 30
0.0
 11
6.25
 21
0.0
 31
0.0
210
0.0
220
0.0
230
1.0
 40
0.707107
 41
3.1415926535897931
 42
0.0
  0
LINE
  5
5BC
100
AcDbEntity
  8
0
370
    -3
390
0
  6
Continuous
100
AcDbLine
 10
-238.372618
 20
401.490193
 30
0.0
 11
-238.372618
 21
402.621564
 31
0.0
  0
LINE
  5
5BD
100
AcDbEntity
  8
0
370
    -3
390
0
  6
Continuous
100
AcDbLine
 10
-250.872618
 20
401.490193
 30
0.0
 11
-250.872618
 21
402.621564
 31
0.0
  0
ELLIPSE
  5
5BE
100
AcDbEntity
  8
0
370
    -3
390
0
  6
Continuous
100
AcDbEllipse
 10
-244.622618
 20
403.439694
 30
0.0
 11
5.25
 21
0.0
 31
0.0
210
0.0
220
0.0
230
1.0
 40
0.862941
 41
0.0
 42
6.2831853071795862
  0
ELLIPSE
  5
5BF
100
AcDbEntity
  8
0
370
    -3
390
0
  6
Continuous
100
AcDbEllipse
 10
-244.622618
 20
402.621564
 30
0.0
 11
6.25
 21
0.0
 31
0.0
210
0.0
220
0.0
230
1.0
 40
0.707107
 41
2.400808426782755
 42
0.7407842268070384
  0
LINE
  5
5C0
100
AcDbEntity
  8
0
370
    -3
390
0
  6
Continuous
100
AcDbLine
 10
-244.622618
 20
405.379281
 30
0.0
 11
-241.622618
 21
403.028005
 31
0.0
  0
LINE
  5
5C1
100
AcDbEntity
  8
0
370
    -3
390
0
  6
Continuous
100
AcDbLine
 10
-241.715444
 20
407.212123
 30
0.0
 11
-244.622618
 21
405.379281
 31
0.0
  0
LINE
  5
5C2
100
AcDbEntity
  8
0
370
    -3
390
0
  6
Continuous
100
AcDbLine
 10
-244.622618
 20
405.379281
 30
0.0
 11
-247.622618
 21
403.028005
 31
0.0
  0
LINE
  5
5C3
100
AcDbEntity
  8
0
370
    -3
390
0
  6
Continuous
100
AcDbLine
 10
-247.529791
 20
407.212123
 30
0.0
 11
-244.622618
 21
405.379281
 31
0.0
  0
LINE
  5
5C4
100
AcDbEntity
  8
0
370
    -3
390
0
  6
Continuous
100
AcDbLine
 10
-237.622618
 20
193.224388
 30
0.0
 11
-237.622618
 21
191.583032
 31
0.0
  0
LINE
  5
5C5
100
AcDbEntity
  8
0
370
    -3
390
0
  6
Continuous
100
AcDbLine
 10
-251.622618
 20
193.224388
 30
0.0
 11
-251.622618
 21
191.583032
 31
0.0
  0
ELLIPSE
  5
5C6
100
AcDbEntity
  8
0
370
    -3
390
0
  6
Continuous
100
AcDbEllipse
 10
-244.622618
 20
193.224388
 30
0.0
 11
7.0
 21
0.0
 31
0.0
210
0.0
220
0.0
230
1.0
 40
0.707107
 41
0.0
 42
3.1415926535897931
  0
ELLIPSE
  5
5C7
100
AcDbEntity
  8
0
370
    -3
390
0
  6
Continuous
100
AcDbEllipse
 10
-244.622618
 20
191.583032
 30
0.0
 11
7.0
 21
0.0
 31
0.0
210
0.0
220
0.0
230
1.0
 40
0.692313
 41
0.0
 42
3.1415926535897931
  0
ELLIPSE
  5
5C8
100
AcDbEntity
  8
0
370
    -3
390
0
  6
Continuous
100
AcDbEllipse
 10
-244.622618
 20
191.583032
 30
0.0
 11
7.0
 21
0.0
 31
0.0
210
0.0
220
0.0
230
1.0
 40
0.692313
 41
5.7367456907812695
 42
0.0
  0
ELLIPSE
  5
5C9
100
AcDbEntity
  8
0
370
    -3
390
0
  6
Continuous
100
AcDbEllipse
 10
-244.622618
 20
191.583032
 30
0.0
 11
7.0
 21
0.0
 31
0.0
210
0.0
220
0.0
230
1.0
 40
0.692313
 41
3.1415926535897931
 42
3.6880322699881103
  0
ELLIPSE
  5
5CA
100
AcDbEntity
  8
0
370
    -3
390
0
  6
Continuous
100
AcDbEllipse
 10
-244.622618
 20
191.479479
 30
0.0
 11
6.25
 21
0.0
 31
0.0
210
0.0
220
0.0
230
1.0
 40
0.707107
 41
0.0
 42
3.1415926535897931
  0
LINE
  5
5CB
100
AcDbEntity
  8
0
370
    -3
390
0
  6
Continuous
100
AcDbLine
 10
-238.372618
 20
191.479479
 30
0.0
 11
-238.372618
 21
190.348108
 31
0.0
  0
LINE
  5
5CC
100
AcDbEntity
  8
0
370
    -3
390
0
  6
Continuous
100
AcDbLine
 10
-250.872618
 20
191.479479
 30
0.0
 11
-250.872618
 21
190.348108
 31
0.0
  0
ELLIPSE
  5
5CD
100
AcDbEntity
  8
0
370
    -3
390
0
  6
Continuous
100
AcDbEllipse
 10
-244.622618
 20
189.529978
 30
0.0
 11
5.25
 21
0.0
 31
0.0
210
0.0
220
0.0
230
1.0
 40
0.862941
 41
0.0
 42
6.2831853071795862
  0
ELLIPSE
  5
5CE
100
AcDbEntity
  8
0
370
    -3
390
0
  6
Continuous
100
AcDbEllipse
 10
-244.622618
 20
190.348108
 30
0.0
 11
6.25
 21
0.0
 31
0.0
210
0.0
220
0.0
230
1.0
 40
0.707107
 41
5.5424010803725476
 42
3.8823768803968313
  0
LINE
  5
5CF
100
AcDbEntity
  8
0
370
    -3
390
0
  6
Continuous
100
AcDbLine
 10
-244.622618
 20
187.590391
 30
0.0
 11
-241.622618
 21
189.941667
 31
0.0
  0
LINE
  5
5D0
100
AcDbEntity
  8
0
370
    -3
390
0
  6
Continuous
100
AcDbLine
 10
-241.715444
 20
185.757549
 30
0.0
 11
-244.622618
 21
187.590391
 31
0.0
  0
LINE
  5
5D1
100
AcDbEntity
  8
0
370
    -3
390
0
  6
Continuous
100
AcDbLine
 10
-244.622618
 20
187.590391
 30
0.0
 11
-247.622618
 21
189.941667
 31
0.0
  0
LINE
  5
5D2
100
AcDbEntity
  8
0
370
    -3
390
0
  6
Continuous
100
AcDbLine
 10
-247.529791
 20
185.757549
 30
0.0
 11
-244.622618
 21
187.590391
 31
0.0
  0
LINE
  5
5D3
100
AcDbEntity
  8
0
370
    -3
390
0
  6
Continuous
100
AcDbLine
 10
-202.622618
 20
172.484836
 30
0.0
 11
62.377382
 21
172.484836
 31
0.0
  0
LINE
  5
5D4
100
AcDbEntity
  8
0
370
    -3
390
0
  6
Continuous
100
AcDbLine
 10
-202.622618
 20
178.484836
 30
0.0
 11
62.377382
 21
178.484836
 31
0.0
  0
LINE
  5
5D5
100
AcDbEntity
  8
0
370
    -3
390
0
  6
Continuous
100
AcDbLine
 10
-202.622618
 20
191.777336
 30
0.0
 11
62.377382
 21
191.777336
 31
0.0
  0
LINE
  5
5D6
100
AcDbEntity
  8
0
370
    -3
390
0
  6
Continuous
100
AcDbLine
 10
-202.622618
 20
290.234836
 30
0.0
 11
62.377382
 21
290.234836
 31
0.0
  0
LINE
  5
5D7
100
AcDbEntity
  8
0
370
    -3
390
0
  6
Continuous
100
AcDbLine
 10
-202.622618
 20
281.484836
 30
0.0
 11
62.377382
 21
281.484836
 31
0.0
  0
LINE
  5
5D8
100
AcDbEntity
  8
0
370
    -3
390
0
  6
Continuous
100
AcDbLine
 10
-202.622618
 20
267.03044
 30
0.0
 11
62.377382
 21
267.03044
 31
0.0
  0
LINE
  5
5D9
100
AcDbEntity
  8
0
370
    -3
390
0
  6
Continuous
100
AcDbLine
 10
-202.622618
 20
269.924815
 30
0.0
 11
62.377382
 21
269.924815
 31
0.0
  0
LINE
  5
5DA
100
AcDbEntity
  8
0
370
    -3
390
0
  6
Continuous
100
AcDbLine
 10
-202.622618
 20
278.665526
 30
0.0
 11
62.377382
 21
278.665526
 31
0.0
  0
LINE
  5
5DB
100
AcDbEntity
  8
0
370
    -3
390
0
  6
Continuous
100
AcDbLine
 10
-202.622618
 20
255.997566
 30
0.0
 11
62.377382
 21
255.997566
 31
0.0
  0
LINE
  5
5DC
100
AcDbEntity
  8
0
370
    -3
390
0
  6
Continuous
100
AcDbLine
 10
-202.622618
 20
252.934247
 30
0.0
 11
62.377382
 21
252.934247
 31
0.0
  0
LINE
  5
5DD
100
AcDbEntity
  8
0
370
    -3
390
0
  6
Continuous
100
AcDbLine
 10
-202.622618
 20
242.061478
 30
0.0
 11
62.377382
 21
242.061478
 31
0.0
  0
LINE
  5
5DE
100
AcDbEntity
  8
0
370
    -3
390
0
  6
Continuous
100
AcDbLine
 10
-202.622618
 20
238.842065
 30
0.0
 11
62.377382
 21
238.842065
 31
0.0
  0
LINE
  5
5DF
100
AcDbEntity
  8
0
370
    -3
390
0
  6
Continuous
100
AcDbLine
 10
-202.622618
 20
228.141623
 30
0.0
 11
62.377382
 21
228.141623
 31
0.0
  0
LINE
  5
5E0
100
AcDbEntity
  8
0
370
    -3
390
0
  6
Continuous
100
AcDbLine
 10
-202.622618
 20
224.904895
 30
0.0
 11
62.377382
 21
224.904895
 31
0.0
  0
LINE
  5
5E1
100
AcDbEntity
  8
0
370
    -3
390
0
  6
Continuous
100
AcDbLine
 10
-202.622618
 20
204.505258
 30
0.0
 11
62.377382
 21
204.505258
 31
0.0
  0
LINE
  5
5E2
100
AcDbEntity
  8
0
370
    -3
390
0
  6
Continuous
100
AcDbLine
 10
-202.622618
 20
171.484836
 30
0.0
 11
62.377382
 21
171.484836
 31
0.0
  0
LINE
  5
5E3
100
AcDbEntity
  8
0
370
    -3
390
0
  6
Continuous
100
AcDbLine
 10
62.377382
 20
296.484836
 30
0.0
 11
62.377382
 21
171.484836
 31
0.0
  0
ARC
  5
5E4
100
AcDbEntity
  8
0
370
    -3
390
0
  6
Continuous
100
AcDbCircle
 10
-209.222618
 20
159.084836
 30
0.0
 40
2.0
100
AcDbArc
 50
270.0
 51
0.0
  0
LINE
  5
5E5
100
AcDbEntity
  8
0
370
    -3
390
0
  6
Continuous
100
AcDbLine
 10
-182.622618
 20
155.484836
 30
0.0
 11
-213.622618
 21
155.484836
 31
0.0
  0
LINE
  5
5E6
100
AcDbEntity
  8
0
370
    -3
390
0
  6
Continuous
100
AcDbLine
 10
-213.622618
 20
157.084836
 30
0.0
 11
-182.622618
 21
157.084836
 31
0.0
  0
LINE
  5
5E7
100
AcDbEntity
  8
0
370
    -3
390
0
  6
Continuous
100
AcDbLine
 10
-158.022618
 20
159.084836
 30
0.0
 11
-158.022618
 21
167.284836
 31
0.0
  0
LINE
  5
5E8
100
AcDbEntity
  8
0
370
    -3
390
0
  6
Continuous
100
AcDbLine
 10
-158.622618
 20
170.484836
 30
0.0
 11
-158.622618
 21
171.484836
 31
0.0
  0
ARC
  5
5E9
100
AcDbEntity
  8
0
370
    -3
390
0
  6
Continuous
100
AcDbCircle
 10
-161.222618
 20
167.284836
 30
0.0
 40
3.2
100
AcDbArc
 50
0.0
 51
90.0
  0
LINE
  5
5EA
100
AcDbEntity
  8
0
370
    -3
390
0
  6
Continuous
100
AcDbLine
 10
-158.622618
 20
170.484836
 30
0.0
 11
-182.622618
 21
170.484836
 31
0.0
  0
ARC
  5
5EB
100
AcDbEntity
  8
0
370
    -3
390
0
  6
Continuous
100
AcDbCircle
 10
-156.022618
 20
159.084836
 30
0.0
 40
2.0
100
AcDbArc
 50
180.0
 51
270.0
  0
LINE
  5
5EC
100
AcDbEntity
  8
0
370
    -3
390
0
  6
Continuous
100
AcDbLine
 10
-182.622618
 20
155.484836
 30
0.0
 11
-151.622618
 21
155.484836
 31
0.0
  0
LINE
  5
5ED
100
AcDbEntity
  8
0
370
    -3
390
0
  6
Continuous
100
AcDbLine
 10
-151.622618
 20
157.084836
 30
0.0
 11
-182.622618
 21
157.084836
 31
0.0
  0
ARC
  5
5EE
100
AcDbEntity
  8
0
370
    -3
390
0
  6
Continuous
100
AcDbCircle
 10
-216.622618
 20
159.059612
 30
0.0
 40
1.0
100
AcDbArc
 50
90.0
 51
166.983983
  0
LINE
  5
5EF
100
AcDbEntity
  8
0
370
    -3
390
0
  6
Continuous
100
AcDbLine
 10
-205.622618
 20
160.059612
 30
0.0
 11
-216.622618
 21
160.059612
 31
0.0
  0
ARC
  5
5F0
100
AcDbEntity
  8
0
370
    -3
390
0
  6
Continuous
100
AcDbCircle
 10
-205.622618
 20
163.059612
 30
0.0
 40
3.0
100
AcDbArc
 50
270.0
 51
0.0
  0
LINE
  5
5F1
100
AcDbEntity
  8
0
370
    -3
390
0
  6
Continuous
100
AcDbLine
 10
-202.622618
 20
170.484836
 30
0.0
 11
-182.622618
 21
170.484836
 31
0.0
  0
LINE
  5
5F2
100
AcDbEntity
  8
0
370
    -3
390
0
  6
Continuous
100
AcDbLine
 10
-207.222618
 20
159.084836
 30
0.0
 11
-207.222618
 21
160.059612
 31
0.0
  0
LINE
  5
5F3
100
AcDbEntity
  8
0
370
    -3
390
0
  6
Continuous
100
AcDbLine
 10
-202.622618
 20
433.684836
 30
0.0
 11
-202.622618
 21
163.059612
 31
0.0
  0
ARC
  5
5F4
100
AcDbEntity
  8
0
370
    -3
390
0
  6
Continuous
100
AcDbCircle
 10
-142.222618
 20
112.571367
 30
0.0
 40
8.6
100
AcDbArc
 50
270.0
 51
0.0
  0
ARC
  5
5F5
100
AcDbEntity
  8
0
370
    -3
390
0
  6
Continuous
100
AcDbCircle
 10
-223.022618
 20
112.571367
 30
0.0
 40
8.6
100
AcDbArc
 50
180.0
 51
270.0
  0
ARC
  5
5F6
100
AcDbEntity
  8
0
370
    -3
390
0
  6
Continuous
100
AcDbCircle
 10
-144.422618
 20
112.332872
 30
0.0
 40
8.6
100
AcDbArc
 50
270.0
 51
0.0
  0
LINE
  5
5F7
100
AcDbEntity
  8
0
370
    -3
390
0
  6
Continuous
100
AcDbLine
 10
-220.822618
 20
103.732872
 30
0.0
 11
-144.422618
 21
103.732872
 31
0.0
  0
ARC
  5
5F8
100
AcDbEntity
  8
0
370
    -3
390
0
  6
Continuous
100
AcDbCircle
 10
-220.822618
 20
112.332872
 30
0.0
 40
8.6
100
AcDbArc
 50
180.0
 51
270.0
  0
LINE
  5
5F9
100
AcDbEntity
  8
0
370
    -3
390
0
  6
Continuous
100
AcDbLine
 10
-223.022618
 20
103.971367
 30
0.0
 11
-222.833896
 21
103.971367
 31
0.0
  0
LINE
  5
5FA
100
AcDbEntity
  8
0
370
    -3
390
0
  6
Continuous
100
AcDbLine
 10
-142.411339
 20
103.971367
 30
0.0
 11
-142.222618
 21
103.971367
 31
0.0
  0
ARC
  5
5FB
100
AcDbEntity
  8
0
370
    -3
390
0
  6
Continuous
100
AcDbCircle
 10
-142.422618
 20
146.619786
 30
0.0
 40
8.8
100
AcDbArc
 50
0.0
 51
90.0
  0
LINE
  5
5FC
100
AcDbEntity
  8
0
370
    -3
390
0
  6
Continuous
100
AcDbLine
 10
-231.622618
 20
146.619786
 30
0.0
 11
-231.622618
 21
112.571367
 31
0.0
  0
ARC
  5
5FD
100
AcDbEntity
  8
0
370
    -3
390
0
  6
Continuous
100
AcDbCircle
 10
-222.822618
 20
146.619786
 30
0.0
 40
8.8
100
AcDbArc
 50
90.0
 51
180.0
  0
LINE
  5
5FE
100
AcDbEntity
  8
0
370
    -3
390
0
  6
Continuous
100
AcDbLine
 10
-133.622618
 20
146.619786
 30
0.0
 11
-133.622618
 21
112.571367
 31
0.0
  0
LINE
  5
5FF
100
AcDbEntity
  8
0
370
    -3
390
0
  6
Continuous
100
AcDbLine
 10
-222.822618
 20
151.975816
 30
0.0
 11
-142.422618
 21
151.975816
 31
0.0
  0
ARC
  5
600
100
AcDbEntity
  8
0
370
    -3
390
0
  6
Continuous
100
AcDbCircle
 10
-222.822618
 20
143.175816
 30
0.0
 40
8.8
100
AcDbArc
 50
90.0
 51
180.0
  0
ARC
  5
601
100
AcDbEntity
  8
0
370
    -3
390
0
  6
Continuous
100
AcDbCircle
 10
-142.422618
 20
143.175816
 30
0.0
 40
8.8
100
AcDbArc
 50
0.0
 51
90.0
  0
ARC
  5
602
100
AcDbEntity
  8
0
370
    -3
390
0
  6
Continuous
100
AcDbCircle
 10
-144.622618
 20
142.007758
 30
0.0
 40
8.8
100
AcDbArc
 50
0.0
 51
90.0
  0
LINE
  5
603
100
AcDbEntity
  8
0
370
    -3
390
0
  6
Continuous
100
AcDbLine
 10
-135.822618
 20
142.007758
 30
0.0
 11
-135.822618
 21
112.332872
 31
0.0
  0
LINE
  5
604
100
AcDbEntity
  8
0
370
    -3
390
0
  6
Continuous
100
AcDbLine
 10
-220.622618
 20
150.807758
 30
0.0
 11
-144.622618
 21
150.807758
 31
0.0
  0
LINE
  5
605
100
AcDbEntity
  8
0
370
    -3
390
0
  6
Continuous
100
AcDbLine
 10
-229.422618
 20
142.007758
 30
0.0
 11
-229.422618
 21
112.332872
 31
0.0
  0
ARC
  5
606
100
AcDbEntity
  8
0
370
    -3
390
0
  6
Continuous
100
AcDbCircle
 10
-220.622618
 20
142.007758
 30
0.0
 40
8.8
100
AcDbArc
 50
90.0
 51
180.0
  0
LINE
  5
607
100
AcDbEntity
  8
0
370
    -3
390
0
  6
Continuous
100
AcDbLine
 10
-222.822618
 20
155.419786
 30
0.0
 11
-194.122618
 21
155.419786
 31
0.0
  0
LINE
  5
608
100
AcDbEntity
  8
0
370
    -3
390
0
  6
Continuous
100
AcDbLine
 10
-194.122618
 20
155.419786
 30
0.0
 11
-194.122618
 21
153.919786
 31
0.0
  0
LINE
  5
609
100
AcDbEntity
  8
0
370
    -3
390
0
  6
Continuous
100
AcDbLine
 10
-194.122618
 20
153.919786
 30
0.0
 11
-193.122618
 21
153.919786
 31
0.0
  0
LINE
  5
60A
100
AcDbEntity
  8
0
370
    -3
390
0
  6
Continuous
100
AcDbLine
 10
-142.422618
 20
155.419786
 30
0.0
 11
-171.122618
 21
155.419786
 31
0.0
  0
LINE
  5
60B
100
AcDbEntity
  8
0
370
    -3
390
0
  6
Continuous
100
AcDbLine
 10
-193.122618
 20
154.468504
 30
0.0
 11
-193.122618
 21
153.919786
 31
0.0
  0
LINE
  5
60C
100
AcDbEntity
  8
0
370
    -3
390
0
  6
Continuous
100
AcDbLine
 10
-171.122618
 20
155.419786
 30
0.0
 11
-171.122618
 21
153.919786
 31
0.0
  0
LINE
  5
60D
100
AcDbEntity
  8
0
370
    -3
390
0
  6
Continuous
100
AcDbLine
 10
-171.122618
 20
153.919786
 30
0.0
 11
-172.122618
 21
153.919786
 31
0.0
  0
LINE
  5
60E
100
AcDbEntity
  8
0
370
    -3
390
0
  6
Continuous
100
AcDbLine
 10
-172.122618
 20
154.468504
 30
0.0
 11
-172.122618
 21
153.919786
 31
0.0
  0
LINE
  5
60F
100
AcDbEntity
  8
0
370
    -3
390
0
  6
Continuous
100
AcDbLine
 10
-172.122618
 20
154.468504
 30
0.0
 11
-193.122618
 21
154.468504
 31
0.0
  0
LINE
  5
610
100
AcDbEntity
  8
0
370
    -3
390
0
  6
Continuous
100
AcDbLine
 10
-172.122618
 20
154.207037
 30
0.0
 11
-193.122618
 21
154.207037
 31
0.0
  0
LINE
  5
611
100
AcDbEntity
  8
0
370
    -3
390
0
  6
Continuous
100
AcDbLine
 10
-151.622618
 20
155.484836
 30
0.0
 11
-151.622618
 21
155.419786
 31
0.0
  0
LINE
  5
612
100
AcDbEntity
  8
0
370
    -3
390
0
  6
Continuous
100
AcDbLine
 10
-213.622618
 20
155.484836
 30
0.0
 11
-213.622618
 21
155.419786
 31
0.0
  0
LINE
  5
613
100
AcDbEntity
  8
0
370
    -3
390
0
  6
Continuous
100
AcDbLine
 10
-213.622618
 20
155.484836
 30
0.0
 11
-151.622618
 21
155.484836
 31
0.0
  0
LINE
  5
614
100
AcDbEntity
  8
0
370
    -3
390
0
  6
Continuous
100
AcDbLine
 10
-213.622618
 20
155.484836
 30
0.0
 11
-213.622618
 21
157.084836
 31
0.0
  0
LINE
  5
615
100
AcDbEntity
  8
0
370
    -3
390
0
  6
Continuous
100
AcDbLine
 10
-151.622618
 20
155.484836
 30
0.0
 11
-151.622618
 21
157.084836
 31
0.0
  0
LINE
  5
616
100
AcDbEntity
  8
0
370
    -3
390
0
  6
Continuous
100
AcDbLine
 10
-202.622618
 20
420.484836
 30
0.0
 11
62.377382
 21
420.484836
 31
0.0
  0
LINE
  5
617
100
AcDbEntity
  8
0
370
    -3
390
0
  6
Continuous
100
AcDbLine
 10
-202.622618
 20
414.484836
 30
0.0
 11
62.377382
 21
414.484836
 31
0.0
  0
LINE
  5
618
100
AcDbEntity
  8
0
370
    -3
390
0
  6
Continuous
100
AcDbLine
 10
-202.622618
 20
401.192335
 30
0.0
 11
62.377382
 21
401.192335
 31
0.0
  0
LINE
  5
619
100
AcDbEntity
  8
0
370
    -3
390
0
  6
Continuous
100
AcDbLine
 10
-202.622618
 20
302.734836
 30
0.0
 11
62.377382
 21
302.734836
 31
0.0
  0
LINE
  5
61A
100
AcDbEntity
  8
0
370
    -3
390
0
  6
Continuous
100
AcDbLine
 10
-202.622618
 20
311.484836
 30
0.0
 11
62.377382
 21
311.484836
 31
0.0
  0
LINE
  5
61B
100
AcDbEntity
  8
0
370
    -3
390
0
  6
Continuous
100
AcDbLine
 10
-202.622618
 20
325.939231
 30
0.0
 11
62.377382
 21
325.939231
 31
0.0
  0
LINE
  5
61C
100
AcDbEntity
  8
0
370
    -3
390
0
  6
Continuous
100
AcDbLine
 10
-202.622618
 20
323.044856
 30
0.0
 11
62.377382
 21
323.044856
 31
0.0
  0
LINE
  5
61D
100
AcDbEntity
  8
0
370
    -3
390
0
  6
Continuous
100
AcDbLine
 10
-202.622618
 20
314.304146
 30
0.0
 11
62.377382
 21
314.304146
 31
0.0
  0
LINE
  5
61E
100
AcDbEntity
  8
0
370
    -3
390
0
  6
Continuous
100
AcDbLine
 10
-202.622618
 20
336.972106
 30
0.0
 11
62.377382
 21
336.972106
 31
0.0
  0
LINE
  5
61F
100
AcDbEntity
  8
0
370
    -3
390
0
  6
Continuous
100
AcDbLine
 10
-202.622618
 20
340.035425
 30
0.0
 11
62.377382
 21
340.035425
 31
0.0
  0
LINE
  5
620
100
AcDbEntity
  8
0
370
    -3
390
0
  6
Continuous
100
AcDbLine
 10
-202.622618
 20
350.908194
 30
0.0
 11
62.377382
 21
350.908194
 31
0.0
  0
LINE
  5
621
100
AcDbEntity
  8
0
370
    -3
390
0
  6
Continuous
100
AcDbLine
 10
-202.622618
 20
354.127607
 30
0.0
 11
62.377382
 21
354.127607
 31
0.0
  0
LINE
  5
622
100
AcDbEntity
  8
0
370
    -3
390
0
  6
Continuous
100
AcDbLine
 10
-202.622618
 20
364.828049
 30
0.0
 11
62.377382
 21
364.828049
 31
0.0
  0
LINE
  5
623
100
AcDbEntity
  8
0
370
    -3
390
0
  6
Continuous
100
AcDbLine
 10
-202.622618
 20
368.064776
 30
0.0
 11
62.377382
 21
368.064776
 31
0.0
  0
LINE
  5
624
100
AcDbEntity
  8
0
370
    -3
390
0
  6
Continuous
100
AcDbLine
 10
-202.622618
 20
388.464413
 30
0.0
 11
62.377382
 21
388.464413
 31
0.0
  0
LINE
  5
625
100
AcDbEntity
  8
0
370
    -3
390
0
  6
Continuous
100
AcDbLine
 10
-202.622618
 20
421.484836
 30
0.0
 11
62.377382
 21
421.484836
 31
0.0
  0
LINE
  5
626
100
AcDbEntity
  8
0
370
    -3
390
0
  6
Continuous
100
AcDbLine
 10
62.377382
 20
296.484836
 30
0.0
 11
62.377382
 21
421.484836
 31
0.0
  0
CIRCLE
  5
627
100
AcDbEntity
  8
0
370
    -3
390
0
  6
DASHED
100
AcDbCircle
 10
-182.622618
 20
128.484836
 30
0.0
 40
13.5
  0
LINE
  5
628
100
AcDbEntity
  8
0
370
    -3
390
0
  6
CENTER
100
AcDbLine
 10
-165.183162
 20
128.484836
 30
0.0
 11
-200.186367
 21
128.484836
 31
0.0
  0
LINE
  5
629
100
AcDbEntity
  8
0
370
    -3
390
0
  6
CENTER
100
AcDbLine
 10
-182.622618
 20
172.484836
 30
0.0
 11
-182.622618
 21
96.781044
 31
0.0
  0
LINE
  5
62A
100
AcDbEntity
  8
0
370
    -3
390
0
  6
Continuous
100
AcDbLine
 10
-337.827699
 20
433.684836
 30
0.0
 11
-202.622618
 21
433.684836
 31
0.0
  0
LINE
  5
62B
100
AcDbEntity
  8
0
370
    -3
390
0
  6
Continuous
100
AcDbLine
 10
-337.827699
 20
159.284836
 30
0.0
 11
-217.596925
 21
159.284836
 31
0.0
  0
LINE
  5
62C
100
AcDbEntity
  8
0
370
    -3
390
0
  6
Continuous
100
AcDbLine
 10
-388.106159
 20
172.843065
 30
0.0
 11
-396.522618
 21
177.702309
 31
0.0
  0
ARC
  5
62D
100
AcDbEntity
  8
0
370
    -3
390
0
  6
Continuous
100
AcDbCircle
 10
-337.506159
 20
260.484836
 30
0.0
 40
101.2
100
AcDbArc
 50
240.0
 51
270.0
  0
ARC
  5
62E
100
AcDbEntity
  8
0
370
    -3
390
0
  6
Continuous
100
AcDbCircle
 10
-393.422618
 20
183.071667
 30
0.0
 40
6.2
100
AcDbArc
 50
180.0
 51
240.0
  0
LINE
  5
62F
100
AcDbEntity
  8
0
370
    -3
390
0
  6
Continuous
100
AcDbLine
 10
-388.106159
 20
420.126607
 30
0.0
 11
-396.522618
 21
415.267362
 31
0.0
  0
ARC
  5
630
100
AcDbEntity
  8
0
370
    -3
390
0
  6
Continuous
100
AcDbCircle
 10
-337.506159
 20
332.484836
 30
0.0
 40
101.2
100
AcDbArc
 50
90.0
 51
120.0
  0
ARC
  5
631
100
AcDbEntity
  8
0
370
    -3
390
0
  6
Continuous
100
AcDbCircle
 10
-393.422618
 20
409.898005
 30
0.0
 40
6.2
100
AcDbArc
 50
120.0
 51
180.0
  0
LINE
  5
632
100
AcDbEntity
  8
0
370
    -3
390
0
  6
Continuous
100
AcDbLine
 10
-399.622618
 20
296.484836
 30
0.0
 11
-399.622618
 21
183.071667
 31
0.0
  0
LINE
  5
633
100
AcDbEntity
  8
0
370
    -3
390
0
  6
Continuous
100
AcDbLine
 10
-399.622618
 20
296.484836
 30
0.0
 11
-399.622618
 21
409.898005
 31
0.0
  0
ENDSEC
  0
SECTION
  2
OBJECTS
  0
DICTIONARY
  5
19
100
AcDbDictionary
280
     0
281
     1
  3
ACAD_GROUP
350
1A
  3
ACAD_MLINESTYLE
350
1B
  3
ACAD_LAYOUT
350
1E
  3
ACAD_PLOTSETTINGS
350
22
  3
ACAD_PLOTSTYLENAME
350
1F
  3
ACAD_WIPEOUT_VARS
350
23
  3
DWGPROPS
350
634
  0
DICTIONARY
  5
1A
102
{ACAD_REACTORS
330
19
102
}
100
AcDbDictionary
280
     0
281
     1
  0
DICTIONARY
  5
1B
102
{ACAD_REACTORS
330
19
102
}
100
AcDbDictionary
280
     0
281
     1
  3
Standard
350
1C
  0
MLINESTYLE
  5
1C
102
{ACAD_REACTORS
330
1B
102
}
100
AcDbMlineStyle
  2
Standard
 70
     0
  3

 62
     0
 51
90.0
 52
90.0
 71
     2
 49
0.5
 62
   256
  6
ByLayer
 49
-0.5
 62
   256
  6
ByLayer
  0
ACDBDICTIONARYWDFLT
  5
1F
102
{ACAD_REACTORS
330
19
102
}
100
AcDbDictionary
281
     1
  3
Normal
350
1D
100
AcDbDictionaryWithDefault
340
1D
  0
ACDBPLACEHOLDER
  5
1D
102
{ACAD_REACTORS
330
1F
102
}
  0
LAYOUT
  5
20
102
{ACAD_REACTORS
330
1E
102
}
100
AcDbPlotSettings
  1

  2

  4

  6

 40
0.0
 41
0.0
 42
0.0
 43
0.0
 44
0.0
 45
0.0
 46
0.0
 47
0.0
 48
0.0
 49
0.0
140
0.0
141
0.0
142
1.0
143
1.0
 70
  1024
 72
     0
 73
     0
 74
     0
  7

 75
     0
147
1.0
148
0.0
149
0.0
100
AcDbLayout
  1
Model
 70
     0
 71
     0
 10
0.0
 20
0.0
 11
0.0
 21
0.0
 12
0.0
 22
0.0
 32
0.0
 14
0.0
 24
0.0
 34
0.0
 15
0.0
 25
0.0
 35
0.0
146
0.0
 13
0.0
 23
0.0
 33
0.0
 16
0.0
 26
0.0
 36
0.0
 17
0.0
 27
0.0
 37
0.0
 76
     0
330
A
331
0
345
0
346
0
  0
LAYOUT
  5
21
102
{ACAD_REACTORS
330
1E
102
}
100
AcDbPlotSettings
  1

  2

  4

  6

 40
0.0
 41
0.0
 42
0.0
 43
0.0
 44
0.0
 45
0.0
 46
0.0
 47
0.0
 48
0.0
 49
0.0
140
0.0
141
0.0
142
1.0
143
1.0
 70
     0
 72
     0
 73
     0
 74
     0
  7

 75
     0
147
1.0
148
0.0
149
0.0
100
AcDbLayout
  1
Layout1
 70
     0
 71
     0
 10
0.0
 20
0.0
 11
0.0
 21
0.0
 12
0.0
 22
0.0
 32
0.0
 14
0.0
 24
0.0
 34
0.0
 15
0.0
 25
0.0
 35
0.0
146
0.0
 13
0.0
 23
0.0
 33
0.0
 16
0.0
 26
0.0
 36
0.0
 17
0.0
 27
0.0
 37
0.0
 76
     0
330
B
331
0
345
0
346
0
  0
DICTIONARY
  5
1E
102
{ACAD_REACTORS
330
19
102
}
100
AcDbDictionary
280
     0
281
     1
  3
Layout1
350
21
  3
Model
350
20
  0
DICTIONARY
  5
22
102
{ACAD_REACTORS
330
19
102
}
100
AcDbDictionary
280
     0
281
     1
  0
WIPEOUTVARIABLES
  5
23
100
AcDbWipeoutVariables
 70
     1
  0
XRECORD
  5
634
100
AcDbXrecord
280
     1
  1
DWGPROPS COOKIE
  2

  3

  4

  6

  7

  8
YP81315
  9

300
=
301
=
302
=
303
=
304
=
305
=
306
=
307
=
308
=
309
=
 40
0.0
 41
2456812.582454
 42
2456812.582454
  1

 90
        0
  0
ENDSEC
  0
EOF
