  0
SECTION
  2
HEADER
  9
$ACADVER
  1
AC1015
  9
$ACADMAINTVER
 70
     6
  9
$DWGCODEPAGE
  3
ANSI_932
  9
$INSBASE
 10
0.0
 20
0.0
 30
0.0
  9
$EXTMIN
 10
1.000000E+20
 20
1.000000E+20
 30
1.000000E+20
  9
$EXTMAX
 10
-1.000000E+20
 20
-1.000000E+20
 30
-1.000000E+20
  9
$LIMMIN
 10
0.0
 20
0.0
  9
$LIMMAX
 10
0.0
 20
0.0
  9
$ORTHOMODE
 70
     0
  9
$REGENMODE
 70
     1
  9
$FILLMODE
 70
     1
  9
$QTEXTMODE
 70
     0
  9
$MIRRTEXT
 70
     1
  9
$LTSCALE
 40
1.0
  9
$ATTMODE
 70
     1
  9
$TEXTSIZE
 40
7.0
  9
$TRACEWID
 40
0.05
  9
$TEXTSTYLE
  7
Standard
  9
$CLAYER
  8
0
  9
$CELTYPE
  6
Continuous
  9
$CECOLOR
 62
   256
  9
$CELTSCALE
 40
1.0
  9
$DISPSILH
 70
     0
  9
$DIMSCALE
 40
1.0
  9
$DIMASZ
 40
1.931852
  9
$DIMEXO
 40
1.0
  9
$DIMDLI
 40
0.38
  9
$DIMRND
 40
0.0
  9
$DIMDLE
 40
0.0
  9
$DIMEXE
 40
2.0
  9
$DIMTP
 40
0.0
  9
$DIMTM
 40
0.0
  9
$DIMTXT
 40
2.8
  9
$DIMCEN
 40
0.09
  9
$DIMTSZ
 40
0.0
  9
$DIMTOL
 70
     0
  9
$DIMLIM
 70
     0
  9
$DIMTIH
 70
     1
  9
$DIMTOH
 70
     1
  9
$DIMSE1
 70
     0
  9
$DIMSE2
 70
     0
  9
$DIMTAD
 70
     1
  9
$DIMZIN
 70
     0
  9
$DIMBLK
  1

  9
$DIMASO
 70
     1
  9
$DIMSHO
 70
     1
  9
$DIMPOST
  1

  9
$DIMAPOST
  1

  9
$DIMALT
 70
     0
  9
$DIMALTD
 70
     2
  9
$DIMALTF
 40
25.4
  9
$DIMLFAC
 40
1.0
  9
$DIMTOFL
 70
     0
  9
$DIMTVP
 40
0.0
  9
$DIMTIX
 70
     0
  9
$DIMSOXD
 70
     0
  9
$DIMSAH
 70
     0
  9
$DIMBLK1
  1

  9
$DIMBLK2
  1

  9
$DIMSTYLE
  2
Standard
  9
$DIMCLRD
 70
     0
  9
$DIMCLRE
 70
     0
  9
$DIMCLRT
 70
     0
  9
$DIMTFAC
 40
0.714286
  9
$DIMGAP
 40
0.09
  9
$DIMJUST
 70
     0
  9
$DIMSD1
 70
     0
  9
$DIMSD2
 70
     0
  9
$DIMTOLJ
 70
     1
  9
$DIMTZIN
 70
     0
  9
$DIMALTZ
 70
     0
  9
$DIMALTTZ
 70
     0
  9
$DIMUPT
 70
     0
  9
$DIMDEC
 70
     4
  9
$DIMTDEC
 70
     4
  9
$DIMALTU
 70
     2
  9
$DIMALTTD
 70
     2
  9
$DIMTXSTY
  7
Standard
  9
$DIMAUNIT
 70
     0
  9
$DIMADEC
 70
     0
  9
$DIMALTRND
 40
0.0
  9
$DIMAZIN
 70
     0
  9
$DIMDSEP
 70
     0
  9
$DIMATFIT
 70
     3
  9
$DIMFRAC
 70
     0
  9
$DIMLDRBLK
  1

  9
$DIMLUNIT
 70
     2
  9
$DIMLWD
 70
     0
  9
$DIMLWE
 70
     0
  9
$DIMTMOVE
 70
     0
  9
$LUNITS
 70
     2
  9
$LUPREC
 70
     3
  9
$SKETCHINC
 40
0.1
  9
$FILLETRAD
 40
0.0
  9
$AUNITS
 70
     0
  9
$AUPREC
 70
     0
  9
$MENU
  1
acad
  9
$ELEVATION
 40
0.0
  9
$PELEVATION
 40
0.0
  9
$THICKNESS
 40
0.0
  9
$LIMCHECK
 70
     0
  9
$CHAMFERA
 40
0.0
  9
$CHAMFERB
 40
0.0
  9
$CHAMFERC
 40
0.0
  9
$CHAMFERD
 40
0.0
  9
$SKPOLY
 70
     0
  9
$TDCREATE
 40
0.000000000
  9
$TDUCREATE
 40
0.000000000
  9
$TDUPDATE
 40
0.000000000
  9
$TDUUPDATE
 40
0.000000000
  9
$TDINDWG
 40
0.0000000000
  9
$TDUSRTIMER
 40
0.0000000000
  9
$USRTIMER
 70
     1
  9
$ANGBASE
 50
0.0
  9
$ANGDIR
 70
     0
  9
$PDMODE
 70
     0
  9
$PDSIZE
 40
0.0
  9
$PLINEWID
 40
0.0
  9
$SPLFRAME
 70
     0
  9
$SPLINETYPE
 70
     6
  9
$SPLINESEGS
 70
     8
  9
$HANDSEED
  5
471
  9
$SURFTAB1
 70
     6
  9
$SURFTAB2
 70
     6
  9
$SURFTYPE
 70
     6
  9
$SURFU
 70
     6
  9
$SURFV
 70
     6
  9
$UCSBASE
  2

  9
$UCSNAME
  2

  9
$UCSORG
 10
0.0
 20
0.0
 30
0.0
  9
$UCSXDIR
 10
1.0
 20
0.0
 30
0.0
  9
$UCSYDIR
 10
0.0
 20
1.0
 30
0.0
  9
$UCSORTHOREF
  2

  9
$UCSORTHOVIEW
 70
     0
  9
$UCSORGTOP
 10
0.0
 20
0.0
 30
0.0
  9
$UCSORGBOTTOM
 10
0.0
 20
0.0
 30
0.0
  9
$UCSORGLEFT
 10
0.0
 20
0.0
 30
0.0
  9
$UCSORGRIGHT
 10
0.0
 20
0.0
 30
0.0
  9
$UCSORGFRONT
 10
0.0
 20
0.0
 30
0.0
  9
$UCSORGBACK
 10
0.0
 20
0.0
 30
0.0
  9
$PUCSBASE
  2

  9
$PUCSNAME
  2

  9
$PUCSORG
 10
0.0
 20
0.0
 30
0.0
  9
$PUCSXDIR
 10
1.0
 20
0.0
 30
0.0
  9
$PUCSYDIR
 10
0.0
 20
1.0
 30
0.0
  9
$PUCSORTHOREF
  2

  9
$PUCSORTHOVIEW
 70
     0
  9
$PUCSORGTOP
 10
0.0
 20
0.0
 30
0.0
  9
$PUCSORGBOTTOM
 10
0.0
 20
0.0
 30
0.0
  9
$PUCSORGLEFT
 10
0.0
 20
0.0
 30
0.0
  9
$PUCSORGRIGHT
 10
0.0
 20
0.0
 30
0.0
  9
$PUCSORGFRONT
 10
0.0
 20
0.0
 30
0.0
  9
$PUCSORGBACK
 10
0.0
 20
0.0
 30
0.0
  9
$USERI1
 70
     0
  9
$USERI2
 70
     0
  9
$USERI3
 70
     0
  9
$USERI4
 70
     0
  9
$USERI5
 70
     0
  9
$USERR1
 40
0.0
  9
$USERR2
 40
0.0
  9
$USERR3
 40
0.0
  9
$USERR4
 40
0.0
  9
$USERR5
 40
0.0
  9
$WORLDVIEW
 70
     1
  9
$SHADEDGE
 70
     3
  9
$SHADEDIF
 70
    70
  9
$TILEMODE
 70
     1
  9
$MAXACTVP
 70
    16
  9
$PINSBASE
 10
0.0
 20
0.0
 30
0.0
  9
$PLIMCHECK
 70
     0
  9
$PEXTMIN
 10
1.000000E+20
 20
1.000000E+20
 30
1.000000E+20
  9
$PEXTMAX
 10
-1.000000E+20
 20
-1.000000E+20
 30
-1.000000E+20
  9
$PLIMMIN
 10
0.0
 20
0.0
  9
$PLIMMAX
 10
12.0
 20
9.0
  9
$UNITMODE
 70
     0
  9
$VISRETAIN
 70
     0
  9
$PLINEGEN
 70
     1
  9
$PSLTSCALE
 70
     0
  9
$TREEDEPTH
 70
  3020
  9
$CMLSTYLE
  2
Standard
  9
$CMLJUST
 70
     0
  9
$CMLSCALE
 40
1.0
  9
$PROXYGRAPHICS
 70
     0
  9
$MEASUREMENT
 70
     0
  9
$CELWEIGHT
370
     0
  9
$ENDCAPS
280
     0
  9
$JOINSTYLE
280
     0
  9
$LWDISPLAY
290
     0
  9
$INSUNITS
 70
     0
  9
$HYPERLINKBASE
  1

  9
$STYLESHEET
  1

  9
$XEDIT
290
     1
  9
$CEPSNTYPE
380
     0
  9
$PSTYLEMODE
290
     1
  9
$FINGERPRINTGUID
  2

  9
$VERSIONGUID
  2

  9
$EXTNAMES
290
     1
  9
$PSVPSCALE
 40
0.0
  0
ENDSEC
  0
SECTION
  2
CLASSES
  0
CLASS
  1
LWPOLYLINE
  2
AcDbPolyline
  3
AutoCAD 2000
 90
    32768
280
     0
281
     1
  0
CLASS
  1
IMAGE
  2
AcDbRasterImage
  3
ISM
 90
    32895
280
     0
281
     1
  0
CLASS
  1
OLE2FRAME
  2
AcDbOle2Frame
  3
AutoCAD 2000
 90
    32768
280
     0
281
     1
  0
CLASS
  1
HATCH
  2
AcDbHatch
  3
AutoCAD 2000
 90
    32768
280
     0
281
     1
  0
CLASS
  1
DICTIONARYVAR
  2
AcDbDictionaryVar
  3
AutoCAD 2000
 90
    32768
280
     0
281
     0
  0
CLASS
  1
RASTERVARIABLES
  2
AcDbRasterVariables
  3
ISM
 90
    32768
280
     0
281
     0
  0
CLASS
  1
IMAGEDEF
  2
AcDbRasterImageDef
  3
ISM
 90
    32768
280
     0
281
     0
  0
CLASS
  1
IMAGEDEF_REACTOR
  2
AcDbRasterImageDefReactor
  3
ISM
 90
    32769
280
     0
281
     0
  0
CLASS
  1
IDBUFFER
  2
AcDbIdBuffer
  3
AutoCAD 2000
 90
    32768
280
     0
281
     0
  0
CLASS
  1
SPATIAL_FILTER
  2
AcDbSpatialFilter
  3
AutoCAD 2000
 90
    32768
280
     0
281
     0
  0
CLASS
  1
XRECORD
  2
AcDbXrecord
  3
AutoCAD 2000
 90
        0
280
     0
281
     0
  0
CLASS
  1
SORTENTSTABLE
  2
AcDbSortentsTable
  3
AutoCAD 2000
 90
    32768
280
     0
281
     0
  0
CLASS
  1
LAYER_INDEX
  2
AcDbLayerIndex
  3
AutoCAD 2000
 90
    32768
280
     0
281
     0
  0
CLASS
  1
SPATIAL_INDEX
  2
AcDbSpatialIndex
  3
AutoCAD 2000
 90
    32768
280
     0
281
     0
  0
CLASS
  1
OBJECT_PTR
  2
CAseDLPNTableRecord
  3
"ASE-LPNTableRecord"
 90
    32769
280
     0
281
     0
  0
CLASS
  1
LAYOUT
  2
AcDbLayout
  3
AutoCAD 2000
 90
        0
280
     0
281
     0
  0
CLASS
  1
PLOTSETTINGS
  2
AcDbPlotSettings
  3
AutoCAD 2000
 90
    32768
280
     0
281
     0
  0
CLASS
  1
ACDBDICTIONARYWDFLT
  2
AcDbDictionaryWithDefault
  3
AutoCAD 2000
 90
        0
280
     0
281
     0
  0
CLASS
  1
ACDBPLACEHOLDER
  2
AcDbPlaceHolder
  3
AutoCAD 2000
 90
        0
280
     0
281
     0
  0
CLASS
  1
VBA_PROJECT
  2
AcDbVbaProject
  3
acadvba
 90
    32768
280
     0
281
     0
  0
CLASS
  1
WIPEOUT
  2
AcDbWipeout
  3
WipeOut|AutoCAD Express Tool|expresstools@autodesk.com
 90
    32895
280
     0
281
     1
  0
CLASS
  1
WIPEOUTVARIABLES
  2
AcDbWipeoutVariables
  3
WipeOut|AutoCAD Express Tool|expresstools@autodesk.com
 90
        0
280
     0
281
     0
  0
CLASS
  1
RTEXT
  2
RText
  3
RText|AutoCAD Express Tool|expresstools@autodesk.com
 90
    32768
280
     0
281
     1
  0
CLASS
  1
ARCALIGNEDTEXT
  2
AcDbArcAlignedText
  3
ATEXT|AutoCAD Express Tool|expresstools@autodesk.com
 90
    32768
280
     0
281
     1
  0
ENDSEC
  0
SECTION
  2
TABLES
  0
TABLE
  2
VPORT
  5
7
100
AcDbSymbolTable
 70
     1
  0
VPORT
  5
15
100
AcDbSymbolTableRecord
100
AcDbViewportTableRecord
  2
*ACTIVE
 70
     0
 10
0.0
 20
0.0
 11
1.0
 21
1.0
 12
0.0
 22
0.0
 13
0.0
 23
0.0
 14
1.0
 24
1.0
 15
0.0
 25
0.0
 16
0.0
 26
0.0
 36
1.0
 17
0.0
 27
0.0
 37
0.0
 40
100.0
 41
1.0
 42
50.0
 43
0.0
 44
0.0
 50
0.0
 51
0.0
 71
     0
 72
   100
 73
     1
 74
     1
 75
     0
 76
     0
 77
     0
 78
     0
281
     0
 65
     0
110
0.0
120
0.0
130
0.0
111
1.0
121
0.0
131
0.0
112
0.0
122
1.0
132
0.0
345
0
346
0
 79
     0
146
0.0
  0
ENDTAB
  0
TABLE
  2
LTYPE
  5
4
100
AcDbSymbolTable
 70
     7
  0
LTYPE
  5
11
100
AcDbSymbolTableRecord
100
AcDbLinetypeTableRecord
  2
ByBlock
 70
    64
  3

 72
    65
 73
     0
 40
0.0
  0
LTYPE
  5
12
100
AcDbSymbolTableRecord
100
AcDbLinetypeTableRecord
  2
ByLayer
 70
    64
  3

 72
    65
 73
     0
 40
0.0
  0
LTYPE
  5
13
100
AcDbSymbolTableRecord
100
AcDbLinetypeTableRecord
  2
Continuous
 70
    64
  3
Solid line
 72
    65
 73
     0
 40
0.0
  0
LTYPE
  5
24
100
AcDbSymbolTableRecord
100
AcDbLinetypeTableRecord
  2
DASHED
 70
    64
  3
Dashed __ __ __ __ __ __ __ __ __ __ __ __ __ _
 72
    65
 73
     2
 40
0.75
 49
0.5
 74
     0
 49
-0.25
 74
     0
  0
LTYPE
  5
25
100
AcDbSymbolTableRecord
100
AcDbLinetypeTableRecord
  2
CENTER
 70
    64
  3
Center ____ _ ____ _ ____ _ ____ _ ____ _ ____
 72
    65
 73
     4
 40
1.0
 49
0.5
 74
     0
 49
-0.25
 74
     0
 49
0.0
 74
     0
 49
-0.25
 74
     0
  0
LTYPE
  5
26
100
AcDbSymbolTableRecord
100
AcDbLinetypeTableRecord
  2
DIVIDE
 70
    64
  3
Divide ____ . . ____ . . ____ . . ____ . . ____
 72
    65
 73
     6
 40
1.25
 49
0.5
 74
     0
 49
-0.25
 74
     0
 49
0.0
 74
     0
 49
-0.25
 74
     0
 49
0.0
 74
     0
 49
-0.25
 74
     0
  0
LTYPE
  5
27
100
AcDbSymbolTableRecord
100
AcDbLinetypeTableRecord
  2
PHANTOM
 70
    64
  3
Phantom ______  __  __  ______  __  __  ______
 72
    65
 73
     6
 40
9.0
 49
4.3
 74
     0
 49
-0.7
 74
     0
 49
1.3
 74
     0
 49
-0.7
 74
     0
 49
1.3
 74
     0
 49
-0.7
 74
     0
  0
ENDTAB
  0
TABLE
  2
LAYER
  5
2
100
AcDbSymbolTable
 70
     3
  0
LAYER
  5
14
100
AcDbSymbolTableRecord
100
AcDbLayerTableRecord
  2
0
 70
    64
 62
    53
  6
Continuous
290
     1
370
    -3
390
1D
  0
LAYER
  5
28
100
AcDbSymbolTableRecord
100
AcDbLayerTableRecord
  2
3
 70
    64
 62
     4
  6
Continuous
290
     1
370
    -3
390
1D
  0
LAYER
  5
29
100
AcDbSymbolTableRecord
100
AcDbLayerTableRecord
  2
5
 70
    64
 62
   191
  6
Continuous
290
     1
370
    -3
390
1D
  0
ENDTAB
  0
TABLE
  2
STYLE
  5
3
100
AcDbSymbolTable
 70
     2
  0
STYLE
  5
17
100
AcDbSymbolTableRecord
100
AcDbTextStyleTableRecord
  2
Standard
 70
     0
 40
0.0
 41
1.0
 50
0.0
 71
     0
 42
0.0
  3
txt
  4

  0
STYLE
  5
226
100
AcDbSymbolTableRecord
100
AcDbTextStyleTableRecord
  2
ZU_SHPTB00001
 70
     0
 40
0.0
 41
1.0
 50
0.0
 71
     0
 42
0.0
  3
monotxt
  4
bigfont
  0
ENDTAB
  0
TABLE
  2
VIEW
  5
5
100
AcDbSymbolTable
 70
     0
  0
ENDTAB
  0
TABLE
  2
UCS
  5
6
100
AcDbSymbolTable
 70
     0
  0
ENDTAB
  0
TABLE
  2
APPID
  5
8
100
AcDbSymbolTable
 70
     1
  0
APPID
  5
16
100
AcDbSymbolTableRecord
100
AcDbRegAppTableRecord
  2
ACAD
 70
     0
  0
ENDTAB
  0
TABLE
  2
DIMSTYLE
  5
9
100
AcDbSymbolTable
 70
     1
100
AcDbDimStyleTable
 71
     0
  0
DIMSTYLE
105
18
100
AcDbSymbolTableRecord
100
AcDbDimStyleTableRecord
  2
Standard
 70
     0
  3

  4

 40
1.0
 41
0.18
 42
0.0625
 43
0.38
 44
0.18
 45
0.0
 46
0.0
 47
0.0
 48
0.0
 71
     0
 72
     0
 73
     1
 74
     1
 75
     0
 76
     0
 77
     0
 78
     0
 79
     0
140
0.18
141
0.09
142
0.0
143
25.4
144
1.0
145
0.0
146
1.0
147
0.09
148
0.0
170
     0
171
     2
172
     0
173
     0
174
     0
175
     0
176
     0
177
     0
178
     0
179
     0
271
     4
272
     4
273
     2
274
     2
275
     0
276
     0
277
     2
278
    46
279
     0
280
     0
281
     0
282
     0
283
     1
284
     0
285
     0
286
     0
288
     0
340
17
341
0
342
0
343
0
344
0
371
    -2
372
    -2
  0
ENDTAB
  0
TABLE
  2
BLOCK_RECORD
  5
1
100
AcDbSymbolTable
 70
    11
  0
BLOCK_RECORD
  5
A
100
AcDbSymbolTableRecord
100
AcDbBlockTableRecord
  2
*MODEL_SPACE
340
20
  0
BLOCK_RECORD
  5
B
100
AcDbSymbolTableRecord
100
AcDbBlockTableRecord
  2
*PAPER_SPACE
340
21
  0
BLOCK_RECORD
  5
2C
100
AcDbSymbolTableRecord
100
AcDbBlockTableRecord
  2
ZU_SYM_K__CAD_SYM_POO_SYM_N20_-1
340
0
102
{BLKREFS
331
37
102
}
  0
BLOCK_RECORD
  5
38
100
AcDbSymbolTableRecord
100
AcDbBlockTableRecord
  2
ZU_SYM_K__CAD_SYM_POO_SYM_N20_00001-1
340
0
102
{BLKREFS
331
43
102
}
  0
BLOCK_RECORD
  5
44
100
AcDbSymbolTableRecord
100
AcDbBlockTableRecord
  2
ZU_SYM_K__CAD_SYM_POO_SYM_P28_-1
340
0
102
{BLKREFS
331
51
102
}
  0
BLOCK_RECORD
  5
2C2
100
AcDbSymbolTableRecord
100
AcDbBlockTableRecord
  2
ZU_SYM__USERS_HOME_SYMBOL_STD_SYM_B01_-1
340
0
102
{BLKREFS
331
2D1
102
}
  0
BLOCK_RECORD
  5
2E4
100
AcDbSymbolTableRecord
100
AcDbBlockTableRecord
  2
ZU_SYM__USERS_HOME_SYMBOL_STD_SYM_B01_00002-1
340
0
102
{BLKREFS
331
2F3
102
}
  0
BLOCK_RECORD
  5
360
100
AcDbSymbolTableRecord
100
AcDbBlockTableRecord
  2
ZU_SYM__USERS_HOME_SYMBOL_STD_SYM_B01_00003-1
340
0
102
{BLKREFS
331
36F
102
}
  0
BLOCK_RECORD
  5
370
100
AcDbSymbolTableRecord
100
AcDbBlockTableRecord
  2
ZU_SYM__USERS_HOME_SYMBOL_STD_SYM_B01_00004-1
340
0
102
{BLKREFS
331
37F
102
}
  0
BLOCK_RECORD
  5
439
100
AcDbSymbolTableRecord
100
AcDbBlockTableRecord
  2
ZU_SYM__USERS_HOME_SYMBOL_POO_SYM_B20_-1
340
0
102
{BLKREFS
331
444
102
}
  0
BLOCK_RECORD
  5
445
100
AcDbSymbolTableRecord
100
AcDbBlockTableRecord
  2
ZU_SYM__USERS_HOME_SYMBOL_POO_SYM_B20_00005-1
340
0
102
{BLKREFS
331
450
102
}
  0
BLOCK_RECORD
  5
451
100
AcDbSymbolTableRecord
100
AcDbBlockTableRecord
  2
ZU_SYM__USERS_HOME_SYMBOL_POO_SYM_B20_00006-1
340
0
102
{BLKREFS
331
45C
102
}
  0
BLOCK_RECORD
  5
45D
100
AcDbSymbolTableRecord
100
AcDbBlockTableRecord
  2
ZU_SYM__USERS_HOME_SYMBOL_POO_SYM_B20_00007-1
340
0
102
{BLKREFS
331
468
102
}
  0
ENDTAB
  0
ENDSEC
  0
SECTION
  2
BLOCKS
  0
BLOCK
  5
D
100
AcDbEntity
  8
0
100
AcDbBlockBegin
  2
*MODEL_SPACE
 70
     0
 10
0.0
 20
0.0
 30
0.0
  3
*MODEL_SPACE
  1

  0
ENDBLK
  5
E
100
AcDbEntity
  8
0
100
AcDbBlockEnd
  0
BLOCK
  5
F
100
AcDbEntity
 67
     1
  8
0
100
AcDbBlockBegin
  2
*PAPER_SPACE
 70
     0
 10
0.0
 20
0.0
 30
0.0
  3
*PAPER_SPACE
  1

  0
ENDBLK
  5
10
100
AcDbEntity
 67
     1
  8
0
100
AcDbBlockEnd
  0
BLOCK
  5
2D
100
AcDbEntity
  8
0
100
AcDbBlockBegin
  2
ZU_SYM_K__CAD_SYM_POO_SYM_N20_-1
 70
    64
 10
0.0
 20
0.0
 30
0.0
  3
ZU_SYM_K__CAD_SYM_POO_SYM_N20_-1
  1

  0
CIRCLE
  5
2E
100
AcDbEntity
  8
0
370
    -3
  6
Continuous
100
AcDbCircle
 10
0.0
 20
0.0
 30
0.0
 40
4.0
  0
LINE
  5
2F
100
AcDbEntity
  8
0
370
    -3
  6
Continuous
100
AcDbLine
 10
2.299999
 20
-4.0
 30
0.0
 11
-2.299999
 21
-4.0
 31
0.0
  0
LINE
  5
30
100
AcDbEntity
  8
0
370
    -3
  6
Continuous
100
AcDbLine
 10
4.6
 20
-0.000001
 30
0.0
 11
2.300001
 21
-4.0
 31
0.0
  0
LINE
  5
31
100
AcDbEntity
  8
0
370
    -3
  6
Continuous
100
AcDbLine
 10
2.300001
 20
4.0
 30
0.0
 11
4.6
 21
0.000001
 31
0.0
  0
LINE
  5
32
100
AcDbEntity
  8
0
370
    -3
  6
Continuous
100
AcDbLine
 10
-2.299999
 20
4.0
 30
0.0
 11
2.299999
 21
4.0
 31
0.0
  0
LINE
  5
33
100
AcDbEntity
  8
0
370
    -3
  6
Continuous
100
AcDbLine
 10
-4.6
 20
0.000001
 30
0.0
 11
-2.300001
 21
4.0
 31
0.0
  0
LINE
  5
34
100
AcDbEntity
  8
0
370
    -3
  6
Continuous
100
AcDbLine
 10
-2.300001
 20
-4.0
 30
0.0
 11
-4.6
 21
-0.000001
 31
0.0
  0
POINT
  5
35
100
AcDbEntity
  8
0
370
    -3
  6
Continuous
100
AcDbPoint
 10
0.0
 20
0.0
 30
0.0
  0
ENDBLK
  5
36
100
AcDbEntity
  8
0
100
AcDbBlockEnd
  0
BLOCK
  5
39
100
AcDbEntity
  8
0
100
AcDbBlockBegin
  2
ZU_SYM_K__CAD_SYM_POO_SYM_N20_00001-1
 70
    64
 10
0.0
 20
0.0
 30
0.0
  3
ZU_SYM_K__CAD_SYM_POO_SYM_N20_00001-1
  1

  0
CIRCLE
  5
3A
100
AcDbEntity
  8
0
370
    -3
  6
Continuous
100
AcDbCircle
 10
0.0
 20
0.0
 30
0.0
 40
4.0
  0
LINE
  5
3B
100
AcDbEntity
  8
0
370
    -3
  6
Continuous
100
AcDbLine
 10
2.299999
 20
-4.0
 30
0.0
 11
-2.299999
 21
-4.0
 31
0.0
  0
LINE
  5
3C
100
AcDbEntity
  8
0
370
    -3
  6
Continuous
100
AcDbLine
 10
4.6
 20
-0.000001
 30
0.0
 11
2.300001
 21
-4.0
 31
0.0
  0
LINE
  5
3D
100
AcDbEntity
  8
0
370
    -3
  6
Continuous
100
AcDbLine
 10
2.300001
 20
4.0
 30
0.0
 11
4.6
 21
0.000001
 31
0.0
  0
LINE
  5
3E
100
AcDbEntity
  8
0
370
    -3
  6
Continuous
100
AcDbLine
 10
-2.299999
 20
4.0
 30
0.0
 11
2.299999
 21
4.0
 31
0.0
  0
LINE
  5
3F
100
AcDbEntity
  8
0
370
    -3
  6
Continuous
100
AcDbLine
 10
-4.6
 20
0.000001
 30
0.0
 11
-2.300001
 21
4.0
 31
0.0
  0
LINE
  5
40
100
AcDbEntity
  8
0
370
    -3
  6
Continuous
100
AcDbLine
 10
-2.300001
 20
-4.0
 30
0.0
 11
-4.6
 21
-0.000001
 31
0.0
  0
POINT
  5
41
100
AcDbEntity
  8
0
370
    -3
  6
Continuous
100
AcDbPoint
 10
0.0
 20
0.0
 30
0.0
  0
ENDBLK
  5
42
100
AcDbEntity
  8
0
100
AcDbBlockEnd
  0
BLOCK
  5
45
100
AcDbEntity
  8
0
100
AcDbBlockBegin
  2
ZU_SYM_K__CAD_SYM_POO_SYM_P28_-1
 70
    64
 10
0.0
 20
0.0
 30
0.0
  3
ZU_SYM_K__CAD_SYM_POO_SYM_P28_-1
  1

  0
CIRCLE
  5
46
100
AcDbEntity
  8
0
370
    -3
  6
Continuous
100
AcDbCircle
 10
0.0
 20
0.0
 30
0.0
 40
8.5
  0
POINT
  5
47
100
AcDbEntity
  8
0
370
    -3
  6
Continuous
100
AcDbPoint
 10
0.0
 20
0.0
 30
0.0
  0
LINE
  5
48
100
AcDbEntity
  8
0
370
    -3
  6
Continuous
100
AcDbLine
 10
0.000001
 20
-4.6
 30
0.0
 11
3.983717
 21
-2.300002
 31
0.0
  0
LINE
  5
49
100
AcDbEntity
  8
0
370
    -3
  6
Continuous
100
AcDbLine
 10
0.000001
 20
4.6
 30
0.0
 11
3.983717
 21
2.300002
 31
0.0
  0
LINE
  5
4A
100
AcDbEntity
  8
0
370
    -3
  6
Continuous
100
AcDbLine
 10
0.000001
 20
-4.6
 30
0.0
 11
-3.983717
 21
-2.300001
 31
0.0
  0
LINE
  5
4B
100
AcDbEntity
  8
0
370
    -3
  6
Continuous
100
AcDbLine
 10
0.0
 20
4.6
 30
0.0
 11
-3.983716
 21
2.300001
 31
0.0
  0
LINE
  5
4C
100
AcDbEntity
  8
0
370
    -3
  6
Continuous
100
AcDbLine
 10
3.983717
 20
-2.300002
 30
0.0
 11
3.983717
 21
0.0
 31
0.0
  0
LINE
  5
4D
100
AcDbEntity
  8
0
370
    -3
  6
Continuous
100
AcDbLine
 10
3.983717
 20
2.300002
 30
0.0
 11
3.983717
 21
0.0
 31
0.0
  0
LINE
  5
4E
100
AcDbEntity
  8
0
370
    -3
  6
Continuous
100
AcDbLine
 10
-3.983716
 20
-2.300001
 30
0.0
 11
-3.983716
 21
0.0
 31
0.0
  0
LINE
  5
4F
100
AcDbEntity
  8
0
370
    -3
  6
Continuous
100
AcDbLine
 10
-3.983716
 20
2.300001
 30
0.0
 11
-3.983716
 21
0.0
 31
0.0
  0
ENDBLK
  5
50
100
AcDbEntity
  8
0
100
AcDbBlockEnd
  0
BLOCK
  5
2C3
100
AcDbEntity
  8
0
100
AcDbBlockBegin
  2
ZU_SYM__USERS_HOME_SYMBOL_STD_SYM_B01_-1
 70
    64
 10
0.0
 20
0.0
 30
0.0
  3
ZU_SYM__USERS_HOME_SYMBOL_STD_SYM_B01_-1
  1

  0
ARC
  5
2C4
100
AcDbEntity
  8
0
370
    -3
  6
Continuous
100
AcDbCircle
 10
2.040001
 20
-0.000008
 30
0.0
 40
5.539999
100
AcDbArc
 50
155.470187
 51
204.52925
  0
ARC
  5
2C5
100
AcDbEntity
  8
0
370
    -3
  6
Continuous
100
AcDbCircle
 10
-1.929986
 20
3.450007
 30
0.0
 40
1.57
100
AcDbArc
 50
179.999745
 51
227.099746
  0
ARC
  5
2C6
100
AcDbEntity
  8
0
370
    -3
  6
Continuous
100
AcDbCircle
 10
-1.930014
 20
-3.449991
 30
0.0
 40
1.57
100
AcDbArc
 50
132.899744
 51
179.999745
  0
LINE
  5
2C7
100
AcDbEntity
  8
0
370
    -3
  6
Continuous
100
AcDbLine
 10
-2.999989
 20
2.300011
 30
0.0
 11
0.000009
 21
2.3
 31
0.0
  0
LINE
  5
2C8
100
AcDbEntity
  8
0
370
    -3
  6
Continuous
100
AcDbLine
 10
-3.000008
 20
-2.299986
 30
0.0
 11
-0.000008
 21
-2.299998
 31
0.0
  0
LINE
  5
2C9
100
AcDbEntity
  8
0
370
    -3
  6
Continuous
100
AcDbLine
 10
0.000019
 20
4.6
 30
0.0
 11
-0.000019
 21
-4.6
 31
0.0
  0
LINE
  5
2CA
100
AcDbEntity
  8
0
370
    -3
  6
Continuous
100
AcDbLine
 10
-2.999979
 20
4.600012
 30
0.0
 11
0.000019
 21
4.600001
 31
0.0
  0
LINE
  5
2CB
100
AcDbEntity
  8
0
370
    -3
  6
Continuous
100
AcDbLine
 10
-3.499965
 20
3.9
 30
0.0
 11
-2.999964
 21
4.599998
 31
0.0
  0
LINE
  5
2CC
100
AcDbEntity
  8
0
370
    -3
  6
Continuous
100
AcDbLine
 10
-3.500012
 20
-3.89998
 30
0.0
 11
-3.49998
 21
3.90001
 31
0.0
  0
LINE
  5
2CD
100
AcDbEntity
  8
0
370
    -3
  6
Continuous
100
AcDbLine
 10
-2.999996
 20
-4.59997
 30
0.0
 11
-3.499991
 21
-3.899967
 31
0.0
  0
LINE
  5
2CE
100
AcDbEntity
  8
0
370
    -3
  6
Continuous
100
AcDbLine
 10
-0.000018
 20
-4.599998
 30
0.0
 11
-3.000017
 21
-4.599986
 31
0.0
  0
POINT
  5
2CF
100
AcDbEntity
  8
0
370
    -3
  6
Continuous
100
AcDbPoint
 10
0.0
 20
0.0
 30
0.0
  0
ENDBLK
  5
2D0
100
AcDbEntity
  8
0
100
AcDbBlockEnd
  0
BLOCK
  5
2E5
100
AcDbEntity
  8
0
100
AcDbBlockBegin
  2
ZU_SYM__USERS_HOME_SYMBOL_STD_SYM_B01_00002-1
 70
    64
 10
0.0
 20
0.0
 30
0.0
  3
ZU_SYM__USERS_HOME_SYMBOL_STD_SYM_B01_00002-1
  1

  0
ARC
  5
2E6
100
AcDbEntity
  8
0
370
    -3
  6
Continuous
100
AcDbCircle
 10
2.040001
 20
-0.000008
 30
0.0
 40
5.539999
100
AcDbArc
 50
155.470187
 51
204.52925
  0
ARC
  5
2E7
100
AcDbEntity
  8
0
370
    -3
  6
Continuous
100
AcDbCircle
 10
-1.929986
 20
3.450007
 30
0.0
 40
1.57
100
AcDbArc
 50
179.999745
 51
227.099746
  0
ARC
  5
2E8
100
AcDbEntity
  8
0
370
    -3
  6
Continuous
100
AcDbCircle
 10
-1.930014
 20
-3.449991
 30
0.0
 40
1.57
100
AcDbArc
 50
132.899744
 51
179.999745
  0
LINE
  5
2E9
100
AcDbEntity
  8
0
370
    -3
  6
Continuous
100
AcDbLine
 10
-2.999989
 20
2.300011
 30
0.0
 11
0.000009
 21
2.3
 31
0.0
  0
LINE
  5
2EA
100
AcDbEntity
  8
0
370
    -3
  6
Continuous
100
AcDbLine
 10
-3.000008
 20
-2.299986
 30
0.0
 11
-0.000008
 21
-2.299998
 31
0.0
  0
LINE
  5
2EB
100
AcDbEntity
  8
0
370
    -3
  6
Continuous
100
AcDbLine
 10
0.000019
 20
4.6
 30
0.0
 11
-0.000019
 21
-4.6
 31
0.0
  0
LINE
  5
2EC
100
AcDbEntity
  8
0
370
    -3
  6
Continuous
100
AcDbLine
 10
-2.999979
 20
4.600012
 30
0.0
 11
0.000019
 21
4.600001
 31
0.0
  0
LINE
  5
2ED
100
AcDbEntity
  8
0
370
    -3
  6
Continuous
100
AcDbLine
 10
-3.499965
 20
3.9
 30
0.0
 11
-2.999964
 21
4.599998
 31
0.0
  0
LINE
  5
2EE
100
AcDbEntity
  8
0
370
    -3
  6
Continuous
100
AcDbLine
 10
-3.500012
 20
-3.89998
 30
0.0
 11
-3.49998
 21
3.90001
 31
0.0
  0
LINE
  5
2EF
100
AcDbEntity
  8
0
370
    -3
  6
Continuous
100
AcDbLine
 10
-2.999996
 20
-4.59997
 30
0.0
 11
-3.499991
 21
-3.899967
 31
0.0
  0
LINE
  5
2F0
100
AcDbEntity
  8
0
370
    -3
  6
Continuous
100
AcDbLine
 10
-0.000018
 20
-4.599998
 30
0.0
 11
-3.000017
 21
-4.599986
 31
0.0
  0
POINT
  5
2F1
100
AcDbEntity
  8
0
370
    -3
  6
Continuous
100
AcDbPoint
 10
0.0
 20
0.0
 30
0.0
  0
ENDBLK
  5
2F2
100
AcDbEntity
  8
0
100
AcDbBlockEnd
  0
BLOCK
  5
361
100
AcDbEntity
  8
0
100
AcDbBlockBegin
  2
ZU_SYM__USERS_HOME_SYMBOL_STD_SYM_B01_00003-1
 70
    64
 10
0.0
 20
0.0
 30
0.0
  3
ZU_SYM__USERS_HOME_SYMBOL_STD_SYM_B01_00003-1
  1

  0
POINT
  5
362
100
AcDbEntity
  8
0
370
    -3
  6
Continuous
100
AcDbPoint
 10
0.0
 20
0.0
 30
0.0
  0
LINE
  5
363
100
AcDbEntity
  8
0
370
    -3
  6
Continuous
100
AcDbLine
 10
-0.000018
 20
-4.599998
 30
0.0
 11
-3.000017
 21
-4.599986
 31
0.0
  0
LINE
  5
364
100
AcDbEntity
  8
0
370
    -3
  6
Continuous
100
AcDbLine
 10
-2.999996
 20
-4.59997
 30
0.0
 11
-3.499991
 21
-3.899967
 31
0.0
  0
LINE
  5
365
100
AcDbEntity
  8
0
370
    -3
  6
Continuous
100
AcDbLine
 10
-3.500012
 20
-3.89998
 30
0.0
 11
-3.49998
 21
3.90001
 31
0.0
  0
LINE
  5
366
100
AcDbEntity
  8
0
370
    -3
  6
Continuous
100
AcDbLine
 10
-3.499965
 20
3.9
 30
0.0
 11
-2.999964
 21
4.599998
 31
0.0
  0
LINE
  5
367
100
AcDbEntity
  8
0
370
    -3
  6
Continuous
100
AcDbLine
 10
-2.999979
 20
4.600012
 30
0.0
 11
0.000019
 21
4.600001
 31
0.0
  0
LINE
  5
368
100
AcDbEntity
  8
0
370
    -3
  6
Continuous
100
AcDbLine
 10
0.000019
 20
4.6
 30
0.0
 11
-0.000019
 21
-4.6
 31
0.0
  0
LINE
  5
369
100
AcDbEntity
  8
0
370
    -3
  6
Continuous
100
AcDbLine
 10
-3.000008
 20
-2.299986
 30
0.0
 11
-0.000008
 21
-2.299998
 31
0.0
  0
LINE
  5
36A
100
AcDbEntity
  8
0
370
    -3
  6
Continuous
100
AcDbLine
 10
-2.999989
 20
2.300011
 30
0.0
 11
0.000009
 21
2.3
 31
0.0
  0
ARC
  5
36B
100
AcDbEntity
  8
0
370
    -3
  6
Continuous
100
AcDbCircle
 10
-1.930014
 20
-3.449991
 30
0.0
 40
1.57
100
AcDbArc
 50
132.899744
 51
179.999745
  0
ARC
  5
36C
100
AcDbEntity
  8
0
370
    -3
  6
Continuous
100
AcDbCircle
 10
-1.929986
 20
3.450007
 30
0.0
 40
1.57
100
AcDbArc
 50
179.999745
 51
227.099746
  0
ARC
  5
36D
100
AcDbEntity
  8
0
370
    -3
  6
Continuous
100
AcDbCircle
 10
2.040001
 20
-0.000008
 30
0.0
 40
5.539999
100
AcDbArc
 50
155.470187
 51
204.52925
  0
ENDBLK
  5
36E
100
AcDbEntity
  8
0
100
AcDbBlockEnd
  0
BLOCK
  5
371
100
AcDbEntity
  8
0
100
AcDbBlockBegin
  2
ZU_SYM__USERS_HOME_SYMBOL_STD_SYM_B01_00004-1
 70
    64
 10
0.0
 20
0.0
 30
0.0
  3
ZU_SYM__USERS_HOME_SYMBOL_STD_SYM_B01_00004-1
  1

  0
POINT
  5
372
100
AcDbEntity
  8
0
370
    -3
  6
Continuous
100
AcDbPoint
 10
0.0
 20
0.0
 30
0.0
  0
LINE
  5
373
100
AcDbEntity
  8
0
370
    -3
  6
Continuous
100
AcDbLine
 10
-0.000018
 20
-4.599998
 30
0.0
 11
-3.000017
 21
-4.599986
 31
0.0
  0
LINE
  5
374
100
AcDbEntity
  8
0
370
    -3
  6
Continuous
100
AcDbLine
 10
-2.999996
 20
-4.59997
 30
0.0
 11
-3.499991
 21
-3.899967
 31
0.0
  0
LINE
  5
375
100
AcDbEntity
  8
0
370
    -3
  6
Continuous
100
AcDbLine
 10
-3.500012
 20
-3.89998
 30
0.0
 11
-3.49998
 21
3.90001
 31
0.0
  0
LINE
  5
376
100
AcDbEntity
  8
0
370
    -3
  6
Continuous
100
AcDbLine
 10
-3.499965
 20
3.9
 30
0.0
 11
-2.999964
 21
4.599998
 31
0.0
  0
LINE
  5
377
100
AcDbEntity
  8
0
370
    -3
  6
Continuous
100
AcDbLine
 10
-2.999979
 20
4.600012
 30
0.0
 11
0.000019
 21
4.600001
 31
0.0
  0
LINE
  5
378
100
AcDbEntity
  8
0
370
    -3
  6
Continuous
100
AcDbLine
 10
0.000019
 20
4.6
 30
0.0
 11
-0.000019
 21
-4.6
 31
0.0
  0
LINE
  5
379
100
AcDbEntity
  8
0
370
    -3
  6
Continuous
100
AcDbLine
 10
-3.000008
 20
-2.299986
 30
0.0
 11
-0.000008
 21
-2.299998
 31
0.0
  0
LINE
  5
37A
100
AcDbEntity
  8
0
370
    -3
  6
Continuous
100
AcDbLine
 10
-2.999989
 20
2.300011
 30
0.0
 11
0.000009
 21
2.3
 31
0.0
  0
ARC
  5
37B
100
AcDbEntity
  8
0
370
    -3
  6
Continuous
100
AcDbCircle
 10
-1.930014
 20
-3.449991
 30
0.0
 40
1.57
100
AcDbArc
 50
132.899744
 51
179.999745
  0
ARC
  5
37C
100
AcDbEntity
  8
0
370
    -3
  6
Continuous
100
AcDbCircle
 10
-1.929986
 20
3.450007
 30
0.0
 40
1.57
100
AcDbArc
 50
179.999745
 51
227.099746
  0
ARC
  5
37D
100
AcDbEntity
  8
0
370
    -3
  6
Continuous
100
AcDbCircle
 10
2.040001
 20
-0.000008
 30
0.0
 40
5.539999
100
AcDbArc
 50
155.470187
 51
204.52925
  0
ENDBLK
  5
37E
100
AcDbEntity
  8
0
100
AcDbBlockEnd
  0
BLOCK
  5
43A
100
AcDbEntity
  8
0
100
AcDbBlockBegin
  2
ZU_SYM__USERS_HOME_SYMBOL_POO_SYM_B20_-1
 70
    64
 10
0.0
 20
0.0
 30
0.0
  3
ZU_SYM__USERS_HOME_SYMBOL_POO_SYM_B20_-1
  1

  0
LINE
  5
43B
100
AcDbEntity
  8
0
370
    -3
  6
Continuous
100
AcDbLine
 10
2.499999
 20
-1.443374
 30
0.0
 11
-0.000005
 21
-2.886748
 31
0.0
  0
LINE
  5
43C
100
AcDbEntity
  8
0
370
    -3
  6
Continuous
100
AcDbLine
 10
0.000005
 20
2.886748
 30
0.0
 11
-2.5
 21
1.443377
 31
0.0
  0
LINE
  5
43D
100
AcDbEntity
  8
0
370
    -3
  6
Continuous
100
AcDbLine
 10
-0.000006
 20
-2.886747
 30
0.0
 11
-2.499998
 21
-1.443372
 31
0.0
  0
LINE
  5
43E
100
AcDbEntity
  8
0
370
    -3
  6
Continuous
100
AcDbLine
 10
0.000005
 20
2.886749
 30
0.0
 11
2.499999
 21
1.443372
 31
0.0
  0
LINE
  5
43F
100
AcDbEntity
  8
0
370
    -3
  6
Continuous
100
AcDbLine
 10
2.499998
 20
1.443372
 30
0.0
 11
2.499999
 21
-1.443374
 31
0.0
  0
LINE
  5
440
100
AcDbEntity
  8
0
370
    -3
  6
Continuous
100
AcDbLine
 10
-2.499998
 20
-1.443372
 30
0.0
 11
-2.499999
 21
1.443378
 31
0.0
  0
POINT
  5
441
100
AcDbEntity
  8
0
370
    -3
  6
Continuous
100
AcDbPoint
 10
0.0
 20
0.0
 30
0.0
  0
CIRCLE
  5
442
100
AcDbEntity
  8
0
370
    -3
  6
Continuous
100
AcDbCircle
 10
0.0
 20
0.0
 30
0.0
 40
5.0
  0
ENDBLK
  5
443
100
AcDbEntity
  8
0
100
AcDbBlockEnd
  0
BLOCK
  5
446
100
AcDbEntity
  8
0
100
AcDbBlockBegin
  2
ZU_SYM__USERS_HOME_SYMBOL_POO_SYM_B20_00005-1
 70
    64
 10
0.0
 20
0.0
 30
0.0
  3
ZU_SYM__USERS_HOME_SYMBOL_POO_SYM_B20_00005-1
  1

  0
LINE
  5
447
100
AcDbEntity
  8
0
370
    -3
  6
Continuous
100
AcDbLine
 10
2.499999
 20
-1.443374
 30
0.0
 11
-0.000005
 21
-2.886748
 31
0.0
  0
LINE
  5
448
100
AcDbEntity
  8
0
370
    -3
  6
Continuous
100
AcDbLine
 10
0.000005
 20
2.886748
 30
0.0
 11
-2.5
 21
1.443377
 31
0.0
  0
LINE
  5
449
100
AcDbEntity
  8
0
370
    -3
  6
Continuous
100
AcDbLine
 10
-0.000006
 20
-2.886747
 30
0.0
 11
-2.499998
 21
-1.443372
 31
0.0
  0
LINE
  5
44A
100
AcDbEntity
  8
0
370
    -3
  6
Continuous
100
AcDbLine
 10
0.000005
 20
2.886749
 30
0.0
 11
2.499999
 21
1.443372
 31
0.0
  0
LINE
  5
44B
100
AcDbEntity
  8
0
370
    -3
  6
Continuous
100
AcDbLine
 10
2.499998
 20
1.443372
 30
0.0
 11
2.499999
 21
-1.443374
 31
0.0
  0
LINE
  5
44C
100
AcDbEntity
  8
0
370
    -3
  6
Continuous
100
AcDbLine
 10
-2.499998
 20
-1.443372
 30
0.0
 11
-2.499999
 21
1.443378
 31
0.0
  0
POINT
  5
44D
100
AcDbEntity
  8
0
370
    -3
  6
Continuous
100
AcDbPoint
 10
0.0
 20
0.0
 30
0.0
  0
CIRCLE
  5
44E
100
AcDbEntity
  8
0
370
    -3
  6
Continuous
100
AcDbCircle
 10
0.0
 20
0.0
 30
0.0
 40
5.0
  0
ENDBLK
  5
44F
100
AcDbEntity
  8
0
100
AcDbBlockEnd
  0
BLOCK
  5
452
100
AcDbEntity
  8
0
100
AcDbBlockBegin
  2
ZU_SYM__USERS_HOME_SYMBOL_POO_SYM_B20_00006-1
 70
    64
 10
0.0
 20
0.0
 30
0.0
  3
ZU_SYM__USERS_HOME_SYMBOL_POO_SYM_B20_00006-1
  1

  0
LINE
  5
453
100
AcDbEntity
  8
0
370
    -3
  6
Continuous
100
AcDbLine
 10
2.499999
 20
-1.443374
 30
0.0
 11
-0.000005
 21
-2.886748
 31
0.0
  0
LINE
  5
454
100
AcDbEntity
  8
0
370
    -3
  6
Continuous
100
AcDbLine
 10
0.000005
 20
2.886748
 30
0.0
 11
-2.5
 21
1.443377
 31
0.0
  0
LINE
  5
455
100
AcDbEntity
  8
0
370
    -3
  6
Continuous
100
AcDbLine
 10
-0.000006
 20
-2.886747
 30
0.0
 11
-2.499998
 21
-1.443372
 31
0.0
  0
LINE
  5
456
100
AcDbEntity
  8
0
370
    -3
  6
Continuous
100
AcDbLine
 10
0.000005
 20
2.886749
 30
0.0
 11
2.499999
 21
1.443372
 31
0.0
  0
LINE
  5
457
100
AcDbEntity
  8
0
370
    -3
  6
Continuous
100
AcDbLine
 10
2.499998
 20
1.443372
 30
0.0
 11
2.499999
 21
-1.443374
 31
0.0
  0
LINE
  5
458
100
AcDbEntity
  8
0
370
    -3
  6
Continuous
100
AcDbLine
 10
-2.499998
 20
-1.443372
 30
0.0
 11
-2.499999
 21
1.443378
 31
0.0
  0
POINT
  5
459
100
AcDbEntity
  8
0
370
    -3
  6
Continuous
100
AcDbPoint
 10
0.0
 20
0.0
 30
0.0
  0
CIRCLE
  5
45A
100
AcDbEntity
  8
0
370
    -3
  6
Continuous
100
AcDbCircle
 10
0.0
 20
0.0
 30
0.0
 40
5.0
  0
ENDBLK
  5
45B
100
AcDbEntity
  8
0
100
AcDbBlockEnd
  0
BLOCK
  5
45E
100
AcDbEntity
  8
0
100
AcDbBlockBegin
  2
ZU_SYM__USERS_HOME_SYMBOL_POO_SYM_B20_00007-1
 70
    64
 10
0.0
 20
0.0
 30
0.0
  3
ZU_SYM__USERS_HOME_SYMBOL_POO_SYM_B20_00007-1
  1

  0
LINE
  5
45F
100
AcDbEntity
  8
0
370
    -3
  6
Continuous
100
AcDbLine
 10
2.499999
 20
-1.443374
 30
0.0
 11
-0.000005
 21
-2.886748
 31
0.0
  0
LINE
  5
460
100
AcDbEntity
  8
0
370
    -3
  6
Continuous
100
AcDbLine
 10
0.000005
 20
2.886748
 30
0.0
 11
-2.5
 21
1.443377
 31
0.0
  0
LINE
  5
461
100
AcDbEntity
  8
0
370
    -3
  6
Continuous
100
AcDbLine
 10
-0.000006
 20
-2.886747
 30
0.0
 11
-2.499998
 21
-1.443372
 31
0.0
  0
LINE
  5
462
100
AcDbEntity
  8
0
370
    -3
  6
Continuous
100
AcDbLine
 10
0.000005
 20
2.886749
 30
0.0
 11
2.499999
 21
1.443372
 31
0.0
  0
LINE
  5
463
100
AcDbEntity
  8
0
370
    -3
  6
Continuous
100
AcDbLine
 10
2.499998
 20
1.443372
 30
0.0
 11
2.499999
 21
-1.443374
 31
0.0
  0
LINE
  5
464
100
AcDbEntity
  8
0
370
    -3
  6
Continuous
100
AcDbLine
 10
-2.499998
 20
-1.443372
 30
0.0
 11
-2.499999
 21
1.443378
 31
0.0
  0
POINT
  5
465
100
AcDbEntity
  8
0
370
    -3
  6
Continuous
100
AcDbPoint
 10
0.0
 20
0.0
 30
0.0
  0
CIRCLE
  5
466
100
AcDbEntity
  8
0
370
    -3
  6
Continuous
100
AcDbCircle
 10
0.0
 20
0.0
 30
0.0
 40
5.0
  0
ENDBLK
  5
467
100
AcDbEntity
  8
0
100
AcDbBlockEnd
  0
ENDSEC
  0
SECTION
  2
ENTITIES
  0
LINE
  5
2A
100
AcDbEntity
  8
0
370
    -3
  6
Continuous
100
AcDbLine
 10
-464.78793
 20
-147.29672
 30
0.0
 11
-464.78793
 21
-185.600452
 31
0.0
  0
LINE
  5
2B
100
AcDbEntity
  8
0
370
    -3
  6
CENTER
100
AcDbLine
 10
-441.309519
 20
-81.837703
 30
0.0
 11
-582.157743
 21
-81.837703
 31
0.0
  0
INSERT
  5
37
100
AcDbEntity
  8
0
100
AcDbBlockReference
  2
ZU_SYM_K__CAD_SYM_POO_SYM_N20_-1
 10
-554.982502
 20
-142.031876
 30
0.0
 41
-1.0
  0
INSERT
  5
43
100
AcDbEntity
  8
0
100
AcDbBlockReference
  2
ZU_SYM_K__CAD_SYM_POO_SYM_N20_00001-1
 10
-466.594154
 20
-142.031876
 30
0.0
  0
INSERT
  5
51
100
AcDbEntity
  8
0
100
AcDbBlockReference
  2
ZU_SYM_K__CAD_SYM_POO_SYM_P28_-1
 10
-227.788337
 20
202.109277
 30
0.0
  0
LINE
  5
52
100
AcDbEntity
  8
0
370
    -3
  6
Continuous
100
AcDbLine
 10
-451.288328
 20
-97.837703
 30
0.0
 11
-451.288328
 21
-78.837703
 31
0.0
  0
LINE
  5
53
100
AcDbEntity
  8
0
370
    -3
  6
Continuous
100
AcDbLine
 10
-452.928769
 20
-77.041221
 30
0.0
 11
-455.704669
 21
-61.29831
 31
0.0
  0
ARC
  5
54
100
AcDbEntity
  8
0
370
    -3
  6
Continuous
100
AcDbCircle
 10
-452.288328
 20
-78.837703
 30
0.0
 40
1.0
100
AcDbArc
 50
0.0
 51
80.085217
  0
ARC
  5
55
100
AcDbEntity
  8
0
370
    -3
  6
Continuous
100
AcDbCircle
 10
-451.943961
 20
-76.867573
 30
0.0
 40
1.0
100
AcDbArc
 50
190.0
 51
260.085217
  0
ARC
  5
56
100
AcDbEntity
  8
0
370
    -3
  6
Continuous
100
AcDbCircle
 10
-470.476785
 20
-131.772372
 30
0.0
 40
15.0
100
AcDbArc
 50
315.0
 51
350.0
  0
LINE
  5
57
100
AcDbEntity
  8
0
370
    -3
  6
Continuous
100
AcDbLine
 10
-451.288328
 20
-97.837703
 30
0.0
 11
-451.288328
 21
-116.837703
 31
0.0
  0
LINE
  5
58
100
AcDbEntity
  8
0
370
    -3
  6
Continuous
100
AcDbLine
 10
-452.928769
 20
-118.634184
 30
0.0
 11
-455.704669
 21
-134.377095
 31
0.0
  0
ARC
  5
59
100
AcDbEntity
  8
0
370
    -3
  6
Continuous
100
AcDbCircle
 10
-452.288328
 20
-116.837703
 30
0.0
 40
1.0
100
AcDbArc
 50
279.914783
 51
0.0
  0
ARC
  5
5A
100
AcDbEntity
  8
0
370
    -3
  6
Continuous
100
AcDbCircle
 10
-451.943961
 20
-118.807832
 30
0.0
 40
1.0
100
AcDbArc
 50
99.914783
 51
170.0
  0
ARC
  5
5B
100
AcDbEntity
  8
0
370
    -3
  6
Continuous
100
AcDbCircle
 10
-551.09987
 20
-131.772372
 30
0.0
 40
15.0
100
AcDbArc
 50
190.0
 51
225.0
  0
LINE
  5
5C
100
AcDbEntity
  8
0
370
    -3
  6
Continuous
100
AcDbLine
 10
-570.288328
 20
-97.837703
 30
0.0
 11
-570.288328
 21
-116.837703
 31
0.0
  0
LINE
  5
5D
100
AcDbEntity
  8
0
370
    -3
  6
Continuous
100
AcDbLine
 10
-568.647887
 20
-118.634184
 30
0.0
 11
-565.871987
 21
-134.377095
 31
0.0
  0
ARC
  5
5E
100
AcDbEntity
  8
0
370
    -3
  6
Continuous
100
AcDbCircle
 10
-569.288328
 20
-116.837703
 30
0.0
 40
1.0
100
AcDbArc
 50
180.0
 51
260.085217
  0
ARC
  5
5F
100
AcDbEntity
  8
0
370
    -3
  6
Continuous
100
AcDbCircle
 10
-569.632694
 20
-118.807832
 30
0.0
 40
1.0
100
AcDbArc
 50
10.0
 51
80.085217
  0
LINE
  5
60
100
AcDbEntity
  8
0
370
    -3
  6
Continuous
100
AcDbLine
 10
-570.288328
 20
-97.837703
 30
0.0
 11
-570.288328
 21
-78.837703
 31
0.0
  0
ARC
  5
61
100
AcDbEntity
  8
0
370
    -3
  6
Continuous
100
AcDbCircle
 10
-569.288328
 20
-78.837703
 30
0.0
 40
1.0
100
AcDbArc
 50
99.914783
 51
180.0
  0
ARC
  5
62
100
AcDbEntity
  8
0
370
    -3
  6
Continuous
100
AcDbCircle
 10
-569.632694
 20
-76.867573
 30
0.0
 40
1.0
100
AcDbArc
 50
279.914783
 51
350.0
  0
ARC
  5
63
100
AcDbEntity
  8
0
370
    -3
  6
Continuous
100
AcDbCircle
 10
-459.628731
 20
-127.837703
 30
0.0
 40
5.0
100
AcDbArc
 50
270.0
 51
350.0
  0
LINE
  5
64
100
AcDbEntity
  8
0
370
    -3
  6
Continuous
100
AcDbLine
 10
-459.628731
 20
-132.837703
 30
0.0
 11
-464.403389
 21
-132.837703
 31
0.0
  0
ARC
  5
65
100
AcDbEntity
  8
0
370
    -3
  6
Continuous
100
AcDbCircle
 10
-464.403389
 20
-137.837703
 30
0.0
 40
5.0
100
AcDbArc
 50
90.0
 51
139.227195
  0
ARC
  5
66
100
AcDbEntity
  8
0
370
    -3
  6
Continuous
100
AcDbCircle
 10
-561.947925
 20
-127.837703
 30
0.0
 40
5.0
100
AcDbArc
 50
190.0
 51
270.0
  0
LINE
  5
67
100
AcDbEntity
  8
0
370
    -3
  6
Continuous
100
AcDbLine
 10
-561.947925
 20
-132.837703
 30
0.0
 11
-557.173266
 21
-132.837703
 31
0.0
  0
ARC
  5
68
100
AcDbEntity
  8
0
370
    -3
  6
Continuous
100
AcDbCircle
 10
-557.173266
 20
-137.837703
 30
0.0
 40
5.0
100
AcDbArc
 50
40.772805
 51
90.0
  0
LINE
  5
69
100
AcDbEntity
  8
0
370
    -3
  6
Continuous
100
AcDbLine
 10
-568.647887
 20
-77.041221
 30
0.0
 11
-565.871987
 21
-61.29831
 31
0.0
  0
ARC
  5
6A
100
AcDbEntity
  8
0
370
    -3
  6
Continuous
100
AcDbCircle
 10
-551.09987
 20
-63.903033
 30
0.0
 40
15.0
100
AcDbArc
 50
152.943947
 51
170.0
  0
ARC
  5
6B
100
AcDbEntity
  8
0
370
    -3
  6
Continuous
100
AcDbCircle
 10
-563.591886
 20
-65.643529
 30
0.0
 40
3.0
100
AcDbArc
 50
110.666478
 51
170.0
  0
ARC
  5
6C
100
AcDbEntity
  8
0
370
    -3
  6
Continuous
100
AcDbCircle
 10
-470.476785
 20
-63.903033
 30
0.0
 40
15.0
100
AcDbArc
 50
10.0
 51
27.056053
  0
ARC
  5
6D
100
AcDbEntity
  8
0
370
    -3
  6
Continuous
100
AcDbCircle
 10
-457.950531
 20
-65.837703
 30
0.0
 40
3.0
100
AcDbArc
 50
10.0
 51
69.933998
  0
LINE
  5
6E
100
AcDbEntity
  8
0
370
    -3
  6
Continuous
100
AcDbLine
 10
-452.78793
 20
-184.891067
 30
0.0
 11
-453.287778
 21
-185.399716
 31
0.0
  0
LINE
  5
6F
100
AcDbEntity
  8
0
370
    -3
  6
Continuous
100
AcDbLine
 10
-452.78793
 20
-118.27144
 30
0.0
 11
-452.78793
 21
-184.891067
 31
0.0
  0
LINE
  5
70
100
AcDbEntity
  8
0
370
    -3
  6
Continuous
100
AcDbLine
 10
-568.788328
 20
-118.272066
 30
0.0
 11
-568.788328
 21
-183.950955
 31
0.0
  0
LINE
  5
71
100
AcDbEntity
  8
0
370
    -3
  6
Continuous
100
AcDbLine
 10
-464.788328
 20
-9.617914
 30
0.0
 11
-464.788328
 21
-24.395518
 31
0.0
  0
LINE
  5
72
100
AcDbEntity
  8
0
370
    -3
  6
Continuous
100
AcDbLine
 10
-452.78793
 20
-9.827381
 30
0.0
 11
-464.788328
 21
-9.617914
 31
0.0
  0
LINE
  5
73
100
AcDbEntity
  8
0
370
    -3
  6
Continuous
100
AcDbLine
 10
-452.78793
 20
-77.403965
 30
0.0
 11
-452.78793
 21
-9.827381
 31
0.0
  0
LINE
  5
74
100
AcDbEntity
  8
0
370
    -3
  6
Continuous
100
AcDbLine
 10
-559.288328
 20
-11.267417
 30
0.0
 11
-568.788328
 21
-11.267417
 31
0.0
  0
LINE
  5
75
100
AcDbEntity
  8
0
370
    -3
  6
Continuous
100
AcDbLine
 10
-568.788328
 20
-11.267417
 30
0.0
 11
-568.788328
 21
-77.403339
 31
0.0
  0
LINE
  5
76
100
AcDbEntity
  8
0
370
    -3
  6
Continuous
100
AcDbLine
 10
-464.788328
 20
-9.617914
 30
0.0
 11
-559.288328
 21
-11.267417
 31
0.0
  0
LINE
  5
77
100
AcDbEntity
  8
0
370
    -3
  6
Continuous
100
AcDbLine
 10
-573.788328
 20
-129.337703
 30
0.0
 11
-568.788328
 21
-129.337703
 31
0.0
  0
LINE
  5
78
100
AcDbEntity
  8
0
370
    -3
  6
Continuous
100
AcDbLine
 10
-573.788328
 20
-34.337703
 30
0.0
 11
-568.788328
 21
-34.337703
 31
0.0
  0
LINE
  5
79
100
AcDbEntity
  8
0
370
    -3
  6
Continuous
100
AcDbLine
 10
-447.788328
 20
-34.337703
 30
0.0
 11
-452.788328
 21
-34.337703
 31
0.0
  0
LINE
  5
7A
100
AcDbEntity
  8
0
370
    -3
  6
Continuous
100
AcDbLine
 10
-447.788328
 20
-129.337703
 30
0.0
 11
-452.788328
 21
-129.337703
 31
0.0
  0
ARC
  5
7B
100
AcDbEntity
  8
0
370
    -3
  6
Continuous
100
AcDbCircle
 10
-576.788328
 20
-58.837703
 30
0.0
 40
1.0
100
AcDbArc
 50
90.0
 51
180.0
  0
LINE
  5
7C
100
AcDbEntity
  8
0
370
    -3
  6
Continuous
100
AcDbLine
 10
-577.788328
 20
-58.837703
 30
0.0
 11
-577.788328
 21
-81.837703
 31
0.0
  0
LINE
  5
7D
100
AcDbEntity
  8
0
370
    -3
  6
Continuous
100
AcDbLine
 10
-576.788328
 20
-57.837703
 30
0.0
 11
-573.788328
 21
-57.837703
 31
0.0
  0
ARC
  5
7E
100
AcDbEntity
  8
0
370
    -3
  6
Continuous
100
AcDbCircle
 10
-576.788328
 20
-104.837703
 30
0.0
 40
1.0
100
AcDbArc
 50
180.0
 51
270.0
  0
LINE
  5
7F
100
AcDbEntity
  8
0
370
    -3
  6
Continuous
100
AcDbLine
 10
-577.788328
 20
-104.837703
 30
0.0
 11
-577.788328
 21
-81.837703
 31
0.0
  0
LINE
  5
80
100
AcDbEntity
  8
0
370
    -3
  6
Continuous
100
AcDbLine
 10
-576.788328
 20
-105.837703
 30
0.0
 11
-573.788328
 21
-105.837703
 31
0.0
  0
ARC
  5
81
100
AcDbEntity
  8
0
370
    -3
  6
Continuous
100
AcDbCircle
 10
-444.788328
 20
-104.837703
 30
0.0
 40
1.0
100
AcDbArc
 50
270.0
 51
0.0
  0
LINE
  5
82
100
AcDbEntity
  8
0
370
    -3
  6
Continuous
100
AcDbLine
 10
-443.788328
 20
-104.837703
 30
0.0
 11
-443.788328
 21
-81.837703
 31
0.0
  0
LINE
  5
83
100
AcDbEntity
  8
0
370
    -3
  6
Continuous
100
AcDbLine
 10
-444.788328
 20
-105.837703
 30
0.0
 11
-447.788328
 21
-105.837703
 31
0.0
  0
ARC
  5
84
100
AcDbEntity
  8
0
370
    -3
  6
Continuous
100
AcDbCircle
 10
-444.788328
 20
-58.837703
 30
0.0
 40
1.0
100
AcDbArc
 50
0.0
 51
90.0
  0
LINE
  5
85
100
AcDbEntity
  8
0
370
    -3
  6
Continuous
100
AcDbLine
 10
-443.788328
 20
-58.837703
 30
0.0
 11
-443.788328
 21
-81.837703
 31
0.0
  0
LINE
  5
86
100
AcDbEntity
  8
0
370
    -3
  6
Continuous
100
AcDbLine
 10
-444.788328
 20
-57.837703
 30
0.0
 11
-447.788328
 21
-57.837703
 31
0.0
  0
LINE
  5
87
100
AcDbEntity
  8
0
370
    -3
  6
Continuous
100
AcDbLine
 10
-447.788328
 20
-34.337703
 30
0.0
 11
-447.788328
 21
-129.337703
 31
0.0
  0
LINE
  5
88
100
AcDbEntity
  8
0
370
    -3
  6
Continuous
100
AcDbLine
 10
-573.788725
 20
-81.60903
 30
0.0
 11
-573.788725
 21
-129.337703
 31
0.0
  0
LINE
  5
89
100
AcDbEntity
  8
0
370
    -3
  6
Continuous
100
AcDbLine
 10
-573.788725
 20
-81.60903
 30
0.0
 11
-573.788725
 21
-34.337703
 31
0.0
  0
LINE
  5
8A
100
AcDbEntity
  8
0
370
    -3
  6
CENTER
100
AcDbLine
 10
-557.277036
 20
-73.337703
 30
0.0
 11
-463.195677
 21
-73.337703
 31
0.0
  0
LINE
  5
8B
100
AcDbEntity
  8
0
370
    -3
  6
CENTER
100
AcDbLine
 10
-510.788328
 20
-194.741437
 30
0.0
 11
-510.788328
 21
3.638125
 31
0.0
  0
ARC
  5
8C
100
AcDbEntity
  8
0
370
    -3
  6
Continuous
100
AcDbCircle
 10
-510.788328
 20
268.262297
 30
0.0
 40
400.6
100
AcDbArc
 50
270.0
 51
272.529361
  0
LINE
  5
8D
100
AcDbEntity
  8
0
370
    -3
  6
Continuous
100
AcDbLine
 10
-498.307573
 20
-46.720401
 30
0.0
 11
-499.819466
 21
-49.339076
 31
0.0
  0
ARC
  5
8E
100
AcDbEntity
  8
0
370
    -3
  6
Continuous
100
AcDbCircle
 10
-499.173598
 20
-46.220401
 30
0.0
 40
1.0
100
AcDbArc
 50
330.0
 51
66.813854
  0
ARC
  5
8F
100
AcDbEntity
  8
0
370
    -3
  6
Continuous
100
AcDbCircle
 10
-510.788328
 20
-73.337703
 30
0.0
 40
39.0
100
AcDbArc
 50
5.284733
 51
54.715267
  0
ARC
  5
90
100
AcDbEntity
  8
0
370
    -3
  6
Continuous
100
AcDbCircle
 10
-510.788328
 20
-73.337703
 30
0.0
 40
34.0
100
AcDbArc
 50
5.73917
 51
54.26083
  0
ARC
  5
91
100
AcDbEntity
  8
0
370
    -3
  6
Continuous
100
AcDbCircle
 10
-510.788328
 20
-73.337703
 30
0.0
 40
25.5
100
AcDbArc
 50
7.589542
 51
52.410458
  0
ARC
  5
92
100
AcDbEntity
  8
0
370
    -3
  6
Continuous
100
AcDbCircle
 10
-510.788328
 20
-73.337703
 30
0.0
 40
30.5
100
AcDbArc
 50
6.813854
 51
53.186146
  0
ARC
  5
93
100
AcDbEntity
  8
0
370
    -3
  6
Continuous
100
AcDbCircle
 10
-510.788328
 20
-73.337703
 30
0.0
 40
22.0
100
AcDbArc
 50
9.594068
 51
50.405932
  0
ARC
  5
94
100
AcDbEntity
  8
0
370
    -3
  6
Continuous
100
AcDbCircle
 10
-510.788328
 20
-73.337703
 30
0.0
 40
17.0
100
AcDbArc
 50
11.212271
 51
48.787729
  0
ARC
  5
95
100
AcDbEntity
  8
0
370
    -3
  6
Continuous
100
AcDbCircle
 10
-510.788328
 20
-73.337703
 30
0.0
 40
13.5
100
AcDbArc
 50
16.260205
 51
43.739795
  0
ARC
  5
96
100
AcDbEntity
  8
0
370
    -3
  6
Continuous
100
AcDbCircle
 10
-498.788328
 20
-69.837703
 30
0.0
 40
1.0
100
AcDbArc
 50
270.0
 51
16.260205
  0
LINE
  5
97
100
AcDbEntity
  8
0
370
    -3
  6
Continuous
100
AcDbLine
 10
-498.788328
 20
-70.837703
 30
0.0
 11
-501.956567
 21
-70.837703
 31
0.0
  0
ARC
  5
98
100
AcDbEntity
  8
0
370
    -3
  6
Continuous
100
AcDbCircle
 10
-501.757239
 20
-64.695398
 30
0.0
 40
1.0
100
AcDbArc
 50
43.739795
 51
150.0
  0
ARC
  5
99
100
AcDbEntity
  8
0
370
    -3
  6
Continuous
100
AcDbCircle
 10
-510.788328
 20
-73.337703
 30
0.0
 40
8.5
100
AcDbArc
 50
21.618272
 51
38.381728
  0
ARC
  5
9A
100
AcDbEntity
  8
0
370
    -3
  6
Continuous
100
AcDbCircle
 10
-501.956567
 20
-69.837703
 30
0.0
 40
1.0
100
AcDbArc
 50
201.618272
 51
270.0
  0
ARC
  5
9B
100
AcDbEntity
  8
0
370
    -3
  6
Continuous
100
AcDbCircle
 10
-497.404099
 20
-57.155539
 30
0.0
 40
1.0
100
AcDbArc
 50
50.405932
 51
150.0
  0
LINE
  5
9C
100
AcDbEntity
  8
0
370
    -3
  6
Continuous
100
AcDbLine
 10
-498.270125
 20
-56.655539
 30
0.0
 11
-499.795042
 21
-59.296774
 31
0.0
  0
ARC
  5
9D
100
AcDbEntity
  8
0
370
    -3
  6
Continuous
100
AcDbCircle
 10
-498.929017
 20
-59.796774
 30
0.0
 40
1.0
100
AcDbArc
 50
150.0
 51
228.787729
  0
LINE
  5
9E
100
AcDbEntity
  8
0
370
    -3
  6
Continuous
100
AcDbLine
 10
-502.623264
 20
-64.195398
 30
0.0
 11
-504.207384
 21
-66.939173
 31
0.0
  0
ARC
  5
9F
100
AcDbEntity
  8
0
370
    -3
  6
Continuous
100
AcDbCircle
 10
-503.341358
 20
-67.439173
 30
0.0
 40
1.0
100
AcDbArc
 50
150.0
 51
218.381728
  0
ARC
  5
A0
100
AcDbEntity
  8
0
370
    -3
  6
Continuous
100
AcDbCircle
 10
-490.344959
 20
-44.928749
 30
0.0
 40
1.0
100
AcDbArc
 50
150.0
 51
234.26083
  0
LINE
  5
A1
100
AcDbEntity
  8
0
370
    -3
  6
Continuous
100
AcDbLine
 10
-489.704028
 20
-41.818624
 30
0.0
 11
-491.210984
 21
-44.428749
 31
0.0
  0
ARC
  5
A2
100
AcDbEntity
  8
0
370
    -3
  6
Continuous
100
AcDbCircle
 10
-488.838003
 20
-42.318624
 30
0.0
 40
1.0
100
AcDbArc
 50
54.715267
 51
150.0
  0
ARC
  5
A3
100
AcDbEntity
  8
0
370
    -3
  6
Continuous
100
AcDbCircle
 10
-494.623313
 20
-52.339076
 30
0.0
 40
1.0
100
AcDbArc
 50
150.0
 51
232.410458
  0
LINE
  5
A4
100
AcDbEntity
  8
0
370
    -3
  6
Continuous
100
AcDbLine
 10
-493.977446
 20
-49.220401
 30
0.0
 11
-495.489339
 21
-51.839076
 31
0.0
  0
ARC
  5
A5
100
AcDbEntity
  8
0
370
    -3
  6
Continuous
100
AcDbCircle
 10
-493.11142
 20
-49.720401
 30
0.0
 40
1.0
100
AcDbArc
 50
53.186146
 51
150.0
  0
ARC
  5
A6
100
AcDbEntity
  8
0
370
    -3
  6
Continuous
100
AcDbCircle
 10
-472.949855
 20
-69.837703
 30
0.0
 40
1.0
100
AcDbArc
 50
270.0
 51
5.284733
  0
LINE
  5
A7
100
AcDbEntity
  8
0
370
    -3
  6
Continuous
100
AcDbLine
 10
-472.949855
 20
-70.837703
 30
0.0
 11
-475.963767
 21
-70.837703
 31
0.0
  0
ARC
  5
A8
100
AcDbEntity
  8
0
370
    -3
  6
Continuous
100
AcDbCircle
 10
-475.963767
 20
-69.837703
 30
0.0
 40
1.0
100
AcDbArc
 50
185.73917
 51
270.0
  0
ARC
  5
A9
100
AcDbEntity
  8
0
370
    -3
  6
Continuous
100
AcDbCircle
 10
-481.496691
 20
-69.837703
 30
0.0
 40
1.0
100
AcDbArc
 50
270.0
 51
6.813854
  0
LINE
  5
AA
100
AcDbEntity
  8
0
370
    -3
  6
Continuous
100
AcDbLine
 10
-481.496691
 20
-70.837703
 30
0.0
 11
-484.520477
 21
-70.837703
 31
0.0
  0
ARC
  5
AB
100
AcDbEntity
  8
0
370
    -3
  6
Continuous
100
AcDbCircle
 10
-484.520477
 20
-69.837703
 30
0.0
 40
1.0
100
AcDbArc
 50
187.589542
 51
270.0
  0
ARC
  5
AC
100
AcDbEntity
  8
0
370
    -3
  6
Continuous
100
AcDbCircle
 10
-490.082049
 20
-69.837703
 30
0.0
 40
1.0
100
AcDbArc
 50
270.0
 51
9.594068
  0
LINE
  5
AD
100
AcDbEntity
  8
0
370
    -3
  6
Continuous
100
AcDbLine
 10
-490.082049
 20
-70.837703
 30
0.0
 11
-493.131884
 21
-70.837703
 31
0.0
  0
ARC
  5
AE
100
AcDbEntity
  8
0
370
    -3
  6
Continuous
100
AcDbCircle
 10
-493.131884
 20
-69.837703
 30
0.0
 40
1.0
100
AcDbArc
 50
191.212271
 51
270.0
  0
LINE
  5
AF
100
AcDbEntity
  8
0
370
    -3
  6
Continuous
100
AcDbLine
 10
-473.119489
 20
-33.511881
 30
0.0
 11
-470.940743
 21
-35.690627
 31
0.0
  0
ARC
  5
B0
100
AcDbEntity
  8
0
370
    -3
  6
Continuous
100
AcDbCircle
 10
-478.575375
 20
-43.325259
 30
0.0
 40
10.797
100
AcDbArc
 50
4.529945
 51
45.0
  0
ARC
  5
B1
100
AcDbEntity
  8
0
370
    -3
  6
Continuous
100
AcDbCircle
 10
-857.388328
 20
-73.337703
 30
0.0
 40
390.797
100
AcDbArc
 50
0.0
 51
4.529193
  0
ARC
  5
B2
100
AcDbEntity
  8
0
370
    -3
  6
Continuous
100
AcDbCircle
 10
-513.757239
 20
-61.195398
 30
0.0
 40
1.0
100
AcDbArc
 50
103.739795
 51
210.0
  0
LINE
  5
B3
100
AcDbEntity
  8
0
370
    -3
  6
Continuous
100
AcDbLine
 10
-514.623264
 20
-61.695398
 30
0.0
 11
-513.039145
 21
-64.439173
 31
0.0
  0
ARC
  5
B4
100
AcDbEntity
  8
0
370
    -3
  6
Continuous
100
AcDbCircle
 10
-510.788328
 20
-73.337703
 30
0.0
 40
8.5
100
AcDbArc
 50
81.618272
 51
98.381728
  0
ARC
  5
B5
100
AcDbEntity
  8
0
370
    -3
  6
Continuous
100
AcDbCircle
 10
-512.173119
 20
-63.939173
 30
0.0
 40
1.0
100
AcDbArc
 50
210.0
 51
278.381728
  0
ARC
  5
B6
100
AcDbEntity
  8
0
370
    -3
  6
Continuous
100
AcDbCircle
 10
-510.788328
 20
-414.937703
 30
0.0
 40
390.797
100
AcDbArc
 50
90.0
 51
92.529361
  0
ARC
  5
B7
100
AcDbEntity
  8
0
370
    -3
  6
Continuous
100
AcDbCircle
 10
-510.788328
 20
-414.937703
 30
0.0
 40
390.797
100
AcDbArc
 50
87.470639
 51
90.0
  0
ARC
  5
B8
100
AcDbEntity
  8
0
370
    -3
  6
Continuous
100
AcDbCircle
 10
-494.896256
 20
-55.288649
 30
0.0
 40
30.797
100
AcDbArc
 50
45.0
 51
87.469876
  0
LINE
  5
B9
100
AcDbEntity
  8
0
370
    -3
  6
Continuous
100
AcDbLine
 10
-540.079965
 20
-70.837703
 30
0.0
 11
-537.056179
 21
-70.837703
 31
0.0
  0
LINE
  5
BA
100
AcDbEntity
  8
0
370
    -3
  6
Continuous
100
AcDbLine
 10
-531.494607
 20
-70.837703
 30
0.0
 11
-528.444771
 21
-70.837703
 31
0.0
  0
LINE
  5
BB
100
AcDbEntity
  8
0
370
    -3
  6
Continuous
100
AcDbLine
 10
-522.788328
 20
-70.837703
 30
0.0
 11
-519.620089
 21
-70.837703
 31
0.0
  0
LINE
  5
BC
100
AcDbEntity
  8
0
370
    -3
  6
Continuous
100
AcDbLine
 10
-518.953391
 20
-64.195398
 30
0.0
 11
-517.369272
 21
-66.939173
 31
0.0
  0
LINE
  5
BD
100
AcDbEntity
  8
0
370
    -3
  6
Continuous
100
AcDbLine
 10
-523.306531
 20
-56.655539
 30
0.0
 11
-521.781613
 21
-59.296774
 31
0.0
  0
LINE
  5
BE
100
AcDbEntity
  8
0
370
    -3
  6
Continuous
100
AcDbLine
 10
-531.872627
 20
-41.818624
 30
0.0
 11
-530.365671
 21
-44.428749
 31
0.0
  0
LINE
  5
BF
100
AcDbEntity
  8
0
370
    -3
  6
Continuous
100
AcDbLine
 10
-527.59921
 20
-49.220401
 30
0.0
 11
-526.087317
 21
-51.839076
 31
0.0
  0
ARC
  5
C0
100
AcDbEntity
  8
0
370
    -3
  6
Continuous
100
AcDbCircle
 10
-510.788328
 20
-73.337703
 30
0.0
 40
8.5
100
AcDbArc
 50
141.618272
 51
158.381728
  0
ARC
  5
C1
100
AcDbEntity
  8
0
370
    -3
  6
Continuous
100
AcDbCircle
 10
-510.788328
 20
-73.337703
 30
0.0
 40
13.5
100
AcDbArc
 50
136.260205
 51
163.739795
  0
ARC
  5
C2
100
AcDbEntity
  8
0
370
    -3
  6
Continuous
100
AcDbCircle
 10
-510.788328
 20
-73.337703
 30
0.0
 40
17.0
100
AcDbArc
 50
131.212271
 51
168.787729
  0
ARC
  5
C3
100
AcDbEntity
  8
0
370
    -3
  6
Continuous
100
AcDbCircle
 10
-510.788328
 20
-73.337703
 30
0.0
 40
22.0
100
AcDbArc
 50
129.594068
 51
170.405932
  0
ARC
  5
C4
100
AcDbEntity
  8
0
370
    -3
  6
Continuous
100
AcDbCircle
 10
-510.788328
 20
-73.337703
 30
0.0
 40
25.5
100
AcDbArc
 50
127.589542
 51
172.410458
  0
ARC
  5
C5
100
AcDbEntity
  8
0
370
    -3
  6
Continuous
100
AcDbCircle
 10
-510.788328
 20
-73.337703
 30
0.0
 40
34.0
100
AcDbArc
 50
125.73917
 51
174.26083
  0
ARC
  5
C6
100
AcDbEntity
  8
0
370
    -3
  6
Continuous
100
AcDbCircle
 10
-510.788328
 20
-73.337703
 30
0.0
 40
30.5
100
AcDbArc
 50
126.813854
 51
173.186146
  0
ARC
  5
C7
100
AcDbEntity
  8
0
370
    -3
  6
Continuous
100
AcDbCircle
 10
-510.788328
 20
-73.337703
 30
0.0
 40
39.0
100
AcDbArc
 50
125.284733
 51
174.715267
  0
ARC
  5
C8
100
AcDbEntity
  8
0
370
    -3
  6
Continuous
100
AcDbCircle
 10
-518.235297
 20
-67.439173
 30
0.0
 40
1.0
100
AcDbArc
 50
321.618272
 51
30.0
  0
ARC
  5
C9
100
AcDbEntity
  8
0
370
    -3
  6
Continuous
100
AcDbCircle
 10
-519.620089
 20
-69.837703
 30
0.0
 40
1.0
100
AcDbArc
 50
270.0
 51
338.381728
  0
ARC
  5
CA
100
AcDbEntity
  8
0
370
    -3
  6
Continuous
100
AcDbCircle
 10
-522.788328
 20
-69.837703
 30
0.0
 40
1.0
100
AcDbArc
 50
163.739795
 51
270.0
  0
ARC
  5
CB
100
AcDbEntity
  8
0
370
    -3
  6
Continuous
100
AcDbCircle
 10
-519.819417
 20
-64.695398
 30
0.0
 40
1.0
100
AcDbArc
 50
30.0
 51
136.260205
  0
ARC
  5
CC
100
AcDbEntity
  8
0
370
    -3
  6
Continuous
100
AcDbCircle
 10
-522.647638
 20
-59.796774
 30
0.0
 40
1.0
100
AcDbArc
 50
311.212271
 51
30.0
  0
ARC
  5
CD
100
AcDbEntity
  8
0
370
    -3
  6
Continuous
100
AcDbCircle
 10
-524.172556
 20
-57.155539
 30
0.0
 40
1.0
100
AcDbArc
 50
30.0
 51
129.594068
  0
ARC
  5
CE
100
AcDbEntity
  8
0
370
    -3
  6
Continuous
100
AcDbCircle
 10
-528.444771
 20
-69.837703
 30
0.0
 40
1.0
100
AcDbArc
 50
270.0
 51
348.787729
  0
ARC
  5
CF
100
AcDbEntity
  8
0
370
    -3
  6
Continuous
100
AcDbCircle
 10
-531.494607
 20
-69.837703
 30
0.0
 40
1.0
100
AcDbArc
 50
170.405932
 51
270.0
  0
ARC
  5
D0
100
AcDbEntity
  8
0
370
    -3
  6
Continuous
100
AcDbCircle
 10
-526.953342
 20
-52.339076
 30
0.0
 40
1.0
100
AcDbArc
 50
307.589542
 51
30.0
  0
ARC
  5
D1
100
AcDbEntity
  8
0
370
    -3
  6
Continuous
100
AcDbCircle
 10
-528.465235
 20
-49.720401
 30
0.0
 40
1.0
100
AcDbArc
 50
30.0
 51
126.813854
  0
ARC
  5
D2
100
AcDbEntity
  8
0
370
    -3
  6
Continuous
100
AcDbCircle
 10
-537.056179
 20
-69.837703
 30
0.0
 40
1.0
100
AcDbArc
 50
270.0
 51
352.410458
  0
ARC
  5
D3
100
AcDbEntity
  8
0
370
    -3
  6
Continuous
100
AcDbCircle
 10
-531.231697
 20
-44.928749
 30
0.0
 40
1.0
100
AcDbArc
 50
305.73917
 51
30.0
  0
ARC
  5
D4
100
AcDbEntity
  8
0
370
    -3
  6
Continuous
100
AcDbCircle
 10
-532.738653
 20
-42.318624
 30
0.0
 40
1.0
100
AcDbArc
 50
30.0
 51
125.284733
  0
ARC
  5
D5
100
AcDbEntity
  8
0
370
    -3
  6
Continuous
100
AcDbCircle
 10
-526.676475
 20
-38.818624
 30
0.0
 40
1.0
100
AcDbArc
 50
114.715267
 51
210.0
  0
LINE
  5
D6
100
AcDbEntity
  8
0
370
    -3
  6
Continuous
100
AcDbLine
 10
-527.5425
 20
-39.318624
 30
0.0
 11
-526.035544
 21
-41.928749
 31
0.0
  0
ARC
  5
D7
100
AcDbEntity
  8
0
370
    -3
  6
Continuous
100
AcDbCircle
 10
-522.403057
 20
-46.220401
 30
0.0
 40
1.0
100
AcDbArc
 50
113.186146
 51
210.0
  0
LINE
  5
D8
100
AcDbEntity
  8
0
370
    -3
  6
Continuous
100
AcDbLine
 10
-523.269083
 20
-46.720401
 30
0.0
 11
-521.75719
 21
-49.339076
 31
0.0
  0
ARC
  5
D9
100
AcDbEntity
  8
0
370
    -3
  6
Continuous
100
AcDbCircle
 10
-525.169519
 20
-41.428749
 30
0.0
 40
1.0
100
AcDbArc
 50
210.0
 51
294.26083
  0
ARC
  5
DA
100
AcDbEntity
  8
0
370
    -3
  6
Continuous
100
AcDbCircle
 10
-520.891164
 20
-48.839076
 30
0.0
 40
1.0
100
AcDbArc
 50
210.0
 51
292.410458
  0
ARC
  5
DB
100
AcDbEntity
  8
0
370
    -3
  6
Continuous
100
AcDbCircle
 10
-518.110378
 20
-53.655539
 30
0.0
 40
1.0
100
AcDbArc
 50
110.405932
 51
210.0
  0
LINE
  5
DC
100
AcDbEntity
  8
0
370
    -3
  6
Continuous
100
AcDbLine
 10
-518.976404
 20
-54.155539
 30
0.0
 11
-517.451486
 21
-56.796774
 31
0.0
  0
ARC
  5
DD
100
AcDbEntity
  8
0
370
    -3
  6
Continuous
100
AcDbCircle
 10
-516.585461
 20
-56.296774
 30
0.0
 40
1.0
100
AcDbArc
 50
210.0
 51
288.787729
  0
ARC
  5
DE
100
AcDbEntity
  8
0
370
    -3
  6
Continuous
100
AcDbCircle
 10
-526.680399
 20
-55.288649
 30
0.0
 40
30.797
100
AcDbArc
 50
92.530124
 51
135.0
  0
LINE
  5
DF
100
AcDbEntity
  8
0
370
    -3
  6
Continuous
100
AcDbLine
 10
-548.6268
 20
-70.837703
 30
0.0
 11
-545.612888
 21
-70.837703
 31
0.0
  0
ARC
  5
E0
100
AcDbEntity
  8
0
370
    -3
  6
Continuous
100
AcDbCircle
 10
-540.079965
 20
-69.837703
 30
0.0
 40
1.0
100
AcDbArc
 50
173.186146
 51
270.0
  0
ARC
  5
E1
100
AcDbEntity
  8
0
370
    -3
  6
Continuous
100
AcDbCircle
 10
-548.6268
 20
-69.837703
 30
0.0
 40
1.0
100
AcDbArc
 50
174.715267
 51
270.0
  0
ARC
  5
E2
100
AcDbEntity
  8
0
370
    -3
  6
Continuous
100
AcDbCircle
 10
-545.612888
 20
-69.837703
 30
0.0
 40
1.0
100
AcDbArc
 50
270.0
 51
354.26083
  0
ARC
  5
E3
100
AcDbEntity
  8
0
370
    -3
  6
Continuous
100
AcDbCircle
 10
-164.188328
 20
-73.337703
 30
0.0
 40
390.797
100
AcDbArc
 50
175.470807
 51
180.0
  0
ARC
  5
E4
100
AcDbEntity
  8
0
370
    -3
  6
Continuous
100
AcDbCircle
 10
-543.001281
 20
-43.325259
 30
0.0
 40
10.797
100
AcDbArc
 50
135.0
 51
175.470055
  0
LINE
  5
E5
100
AcDbEntity
  8
0
370
    -3
  6
Continuous
100
AcDbLine
 10
-548.457167
 20
-33.511881
 30
0.0
 11
-550.635912
 21
-35.690627
 31
0.0
  0
ARC
  5
E6
100
AcDbEntity
  8
0
370
    -3
  6
Continuous
100
AcDbCircle
 10
-857.388328
 20
-73.337703
 30
0.0
 40
390.797
100
AcDbArc
 50
355.470807
 51
0.0
  0
ARC
  5
E7
100
AcDbEntity
  8
0
370
    -3
  6
Continuous
100
AcDbCircle
 10
-478.575375
 20
-103.350146
 30
0.0
 40
10.797
100
AcDbArc
 50
315.0
 51
355.470055
  0
LINE
  5
E8
100
AcDbEntity
  8
0
370
    -3
  6
Continuous
100
AcDbLine
 10
-473.119489
 20
-113.163524
 30
0.0
 11
-470.940743
 21
-110.984778
 31
0.0
  0
ARC
  5
E9
100
AcDbEntity
  8
0
370
    -3
  6
Continuous
100
AcDbCircle
 10
-494.896256
 20
-91.386757
 30
0.0
 40
30.797
100
AcDbArc
 50
272.530124
 51
315.0
  0
ARC
  5
EA
100
AcDbEntity
  8
0
370
    -3
  6
Continuous
100
AcDbCircle
 10
-510.788328
 20
268.262297
 30
0.0
 40
390.797
100
AcDbArc
 50
270.0
 51
272.529361
  0
ARC
  5
EB
100
AcDbEntity
  8
0
370
    -3
  6
Continuous
100
AcDbCircle
 10
-510.788328
 20
268.262297
 30
0.0
 40
390.797
100
AcDbArc
 50
267.470639
 51
270.0
  0
ARC
  5
EC
100
AcDbEntity
  8
0
370
    -3
  6
Continuous
100
AcDbCircle
 10
-526.680399
 20
-91.386757
 30
0.0
 40
30.797
100
AcDbArc
 50
225.0
 51
267.469876
  0
LINE
  5
ED
100
AcDbEntity
  8
0
370
    -3
  6
Continuous
100
AcDbLine
 10
-548.457167
 20
-113.163524
 30
0.0
 11
-550.635912
 21
-110.984778
 31
0.0
  0
ARC
  5
EE
100
AcDbEntity
  8
0
370
    -3
  6
Continuous
100
AcDbCircle
 10
-543.001281
 20
-103.350146
 30
0.0
 40
10.797
100
AcDbArc
 50
184.529945
 51
225.0
  0
ARC
  5
EF
100
AcDbEntity
  8
0
370
    -3
  6
Continuous
100
AcDbCircle
 10
-164.188328
 20
-73.337703
 30
0.0
 40
390.797
100
AcDbArc
 50
180.0
 51
184.529193
  0
ARC
  5
F0
100
AcDbEntity
  8
0
370
    -3
  6
Continuous
100
AcDbCircle
 10
-493.131884
 20
-76.837703
 30
0.0
 40
1.0
100
AcDbArc
 50
90.0
 51
168.787729
  0
LINE
  5
F1
100
AcDbEntity
  8
0
370
    -3
  6
Continuous
100
AcDbLine
 10
-490.082049
 20
-75.837703
 30
0.0
 11
-493.131884
 21
-75.837703
 31
0.0
  0
ARC
  5
F2
100
AcDbEntity
  8
0
370
    -3
  6
Continuous
100
AcDbCircle
 10
-490.082049
 20
-76.837703
 30
0.0
 40
1.0
100
AcDbArc
 50
350.405932
 51
90.0
  0
ARC
  5
F3
100
AcDbEntity
  8
0
370
    -3
  6
Continuous
100
AcDbCircle
 10
-484.520477
 20
-76.837703
 30
0.0
 40
1.0
100
AcDbArc
 50
90.0
 51
172.410458
  0
LINE
  5
F4
100
AcDbEntity
  8
0
370
    -3
  6
Continuous
100
AcDbLine
 10
-481.496691
 20
-75.837703
 30
0.0
 11
-484.520477
 21
-75.837703
 31
0.0
  0
ARC
  5
F5
100
AcDbEntity
  8
0
370
    -3
  6
Continuous
100
AcDbCircle
 10
-481.496691
 20
-76.837703
 30
0.0
 40
1.0
100
AcDbArc
 50
353.186146
 51
90.0
  0
ARC
  5
F6
100
AcDbEntity
  8
0
370
    -3
  6
Continuous
100
AcDbCircle
 10
-475.963767
 20
-76.837703
 30
0.0
 40
1.0
100
AcDbArc
 50
90.0
 51
174.26083
  0
LINE
  5
F7
100
AcDbEntity
  8
0
370
    -3
  6
Continuous
100
AcDbLine
 10
-472.949855
 20
-75.837703
 30
0.0
 11
-475.963767
 21
-75.837703
 31
0.0
  0
ARC
  5
F8
100
AcDbEntity
  8
0
370
    -3
  6
Continuous
100
AcDbCircle
 10
-472.949855
 20
-76.837703
 30
0.0
 40
1.0
100
AcDbArc
 50
354.715267
 51
90.0
  0
ARC
  5
F9
100
AcDbEntity
  8
0
370
    -3
  6
Continuous
100
AcDbCircle
 10
-493.11142
 20
-96.955004
 30
0.0
 40
1.0
100
AcDbArc
 50
210.0
 51
306.813854
  0
LINE
  5
FA
100
AcDbEntity
  8
0
370
    -3
  6
Continuous
100
AcDbLine
 10
-493.977446
 20
-97.455004
 30
0.0
 11
-495.489339
 21
-94.836329
 31
0.0
  0
ARC
  5
FB
100
AcDbEntity
  8
0
370
    -3
  6
Continuous
100
AcDbCircle
 10
-494.623313
 20
-94.336329
 30
0.0
 40
1.0
100
AcDbArc
 50
127.589542
 51
210.0
  0
ARC
  5
FC
100
AcDbEntity
  8
0
370
    -3
  6
Continuous
100
AcDbCircle
 10
-488.838003
 20
-104.356781
 30
0.0
 40
1.0
100
AcDbArc
 50
210.0
 51
305.284733
  0
LINE
  5
FD
100
AcDbEntity
  8
0
370
    -3
  6
Continuous
100
AcDbLine
 10
-489.704028
 20
-104.856781
 30
0.0
 11
-491.210984
 21
-102.246656
 31
0.0
  0
ARC
  5
FE
100
AcDbEntity
  8
0
370
    -3
  6
Continuous
100
AcDbCircle
 10
-490.344959
 20
-101.746656
 30
0.0
 40
1.0
100
AcDbArc
 50
125.73917
 51
210.0
  0
ARC
  5
FF
100
AcDbEntity
  8
0
370
    -3
  6
Continuous
100
AcDbCircle
 10
-503.341358
 20
-79.236232
 30
0.0
 40
1.0
100
AcDbArc
 50
141.618272
 51
210.0
  0
LINE
  5
100
100
AcDbEntity
  8
0
370
    -3
  6
Continuous
100
AcDbLine
 10
-502.623264
 20
-82.480007
 30
0.0
 11
-504.207384
 21
-79.736232
 31
0.0
  0
ARC
  5
101
100
AcDbEntity
  8
0
370
    -3
  6
Continuous
100
AcDbCircle
 10
-498.929017
 20
-86.878631
 30
0.0
 40
1.0
100
AcDbArc
 50
131.212271
 51
210.0
  0
LINE
  5
102
100
AcDbEntity
  8
0
370
    -3
  6
Continuous
100
AcDbLine
 10
-498.270125
 20
-90.019866
 30
0.0
 11
-499.795042
 21
-87.378631
 31
0.0
  0
ARC
  5
103
100
AcDbEntity
  8
0
370
    -3
  6
Continuous
100
AcDbCircle
 10
-497.404099
 20
-89.519866
 30
0.0
 40
1.0
100
AcDbArc
 50
210.0
 51
309.594068
  0
ARC
  5
104
100
AcDbEntity
  8
0
370
    -3
  6
Continuous
100
AcDbCircle
 10
-501.956567
 20
-76.837703
 30
0.0
 40
1.0
100
AcDbArc
 50
90.0
 51
158.381728
  0
ARC
  5
105
100
AcDbEntity
  8
0
370
    -3
  6
Continuous
100
AcDbCircle
 10
-510.788328
 20
-73.337703
 30
0.0
 40
8.5
100
AcDbArc
 50
321.618272
 51
338.381728
  0
ARC
  5
106
100
AcDbEntity
  8
0
370
    -3
  6
Continuous
100
AcDbCircle
 10
-501.757239
 20
-81.980007
 30
0.0
 40
1.0
100
AcDbArc
 50
210.0
 51
316.260205
  0
LINE
  5
107
100
AcDbEntity
  8
0
370
    -3
  6
Continuous
100
AcDbLine
 10
-498.788328
 20
-75.837703
 30
0.0
 11
-501.956567
 21
-75.837703
 31
0.0
  0
ARC
  5
108
100
AcDbEntity
  8
0
370
    -3
  6
Continuous
100
AcDbCircle
 10
-498.788328
 20
-76.837703
 30
0.0
 40
1.0
100
AcDbArc
 50
343.739795
 51
90.0
  0
ARC
  5
109
100
AcDbEntity
  8
0
370
    -3
  6
Continuous
100
AcDbCircle
 10
-510.788328
 20
-73.337703
 30
0.0
 40
13.5
100
AcDbArc
 50
316.260205
 51
343.739795
  0
ARC
  5
10A
100
AcDbEntity
  8
0
370
    -3
  6
Continuous
100
AcDbCircle
 10
-510.788328
 20
-73.337703
 30
0.0
 40
17.0
100
AcDbArc
 50
311.212271
 51
348.787729
  0
ARC
  5
10B
100
AcDbEntity
  8
0
370
    -3
  6
Continuous
100
AcDbCircle
 10
-510.788328
 20
-73.337703
 30
0.0
 40
22.0
100
AcDbArc
 50
309.594068
 51
350.405932
  0
ARC
  5
10C
100
AcDbEntity
  8
0
370
    -3
  6
Continuous
100
AcDbCircle
 10
-510.788328
 20
-73.337703
 30
0.0
 40
30.5
100
AcDbArc
 50
306.813854
 51
353.186146
  0
ARC
  5
10D
100
AcDbEntity
  8
0
370
    -3
  6
Continuous
100
AcDbCircle
 10
-510.788328
 20
-73.337703
 30
0.0
 40
25.5
100
AcDbArc
 50
307.589542
 51
352.410458
  0
ARC
  5
10E
100
AcDbEntity
  8
0
370
    -3
  6
Continuous
100
AcDbCircle
 10
-510.788328
 20
-73.337703
 30
0.0
 40
34.0
100
AcDbArc
 50
305.73917
 51
354.26083
  0
ARC
  5
10F
100
AcDbEntity
  8
0
370
    -3
  6
Continuous
100
AcDbCircle
 10
-510.788328
 20
-73.337703
 30
0.0
 40
39.0
100
AcDbArc
 50
305.284733
 51
354.715267
  0
ARC
  5
110
100
AcDbEntity
  8
0
370
    -3
  6
Continuous
100
AcDbCircle
 10
-499.173598
 20
-100.455004
 30
0.0
 40
1.0
100
AcDbArc
 50
293.186146
 51
30.0
  0
LINE
  5
111
100
AcDbEntity
  8
0
370
    -3
  6
Continuous
100
AcDbLine
 10
-498.307573
 20
-99.955004
 30
0.0
 11
-499.819466
 21
-97.336329
 31
0.0
  0
ARC
  5
112
100
AcDbEntity
  8
0
370
    -3
  6
Continuous
100
AcDbCircle
 10
-500.685491
 20
-97.836329
 30
0.0
 40
1.0
100
AcDbArc
 50
30.0
 51
112.410458
  0
ARC
  5
113
100
AcDbEntity
  8
0
370
    -3
  6
Continuous
100
AcDbCircle
 10
-494.90018
 20
-107.856781
 30
0.0
 40
1.0
100
AcDbArc
 50
294.715267
 51
30.0
  0
LINE
  5
114
100
AcDbEntity
  8
0
370
    -3
  6
Continuous
100
AcDbLine
 10
-494.034155
 20
-107.356781
 30
0.0
 11
-495.541111
 21
-104.746656
 31
0.0
  0
ARC
  5
115
100
AcDbEntity
  8
0
370
    -3
  6
Continuous
100
AcDbCircle
 10
-496.407137
 20
-105.246656
 30
0.0
 40
1.0
100
AcDbArc
 50
30.0
 51
114.26083
  0
ARC
  5
116
100
AcDbEntity
  8
0
370
    -3
  6
Continuous
100
AcDbCircle
 10
-509.403536
 20
-82.736232
 30
0.0
 40
1.0
100
AcDbArc
 50
30.0
 51
98.381728
  0
LINE
  5
117
100
AcDbEntity
  8
0
370
    -3
  6
Continuous
100
AcDbLine
 10
-506.953391
 20
-84.980007
 30
0.0
 11
-508.537511
 21
-82.236232
 31
0.0
  0
ARC
  5
118
100
AcDbEntity
  8
0
370
    -3
  6
Continuous
100
AcDbCircle
 10
-504.991195
 20
-90.378631
 30
0.0
 40
1.0
100
AcDbArc
 50
30.0
 51
108.787729
  0
LINE
  5
119
100
AcDbEntity
  8
0
370
    -3
  6
Continuous
100
AcDbLine
 10
-502.600252
 20
-92.519866
 30
0.0
 11
-504.125169
 21
-89.878631
 31
0.0
  0
ARC
  5
11A
100
AcDbEntity
  8
0
370
    -3
  6
Continuous
100
AcDbCircle
 10
-503.466277
 20
-93.019866
 30
0.0
 40
1.0
100
AcDbArc
 50
290.405932
 51
30.0
  0
ARC
  5
11B
100
AcDbEntity
  8
0
370
    -3
  6
Continuous
100
AcDbCircle
 10
-512.173119
 20
-82.736232
 30
0.0
 40
1.0
100
AcDbArc
 50
81.618272
 51
150.0
  0
ARC
  5
11C
100
AcDbEntity
  8
0
370
    -3
  6
Continuous
100
AcDbCircle
 10
-510.788328
 20
-73.337703
 30
0.0
 40
8.5
100
AcDbArc
 50
261.618272
 51
278.381728
  0
ARC
  5
11D
100
AcDbEntity
  8
0
370
    -3
  6
Continuous
100
AcDbCircle
 10
-507.819417
 20
-85.480007
 30
0.0
 40
1.0
100
AcDbArc
 50
283.739795
 51
30.0
  0
LINE
  5
11E
100
AcDbEntity
  8
0
370
    -3
  6
Continuous
100
AcDbLine
 10
-514.623264
 20
-84.980007
 30
0.0
 11
-513.039145
 21
-82.236232
 31
0.0
  0
ARC
  5
11F
100
AcDbEntity
  8
0
370
    -3
  6
Continuous
100
AcDbCircle
 10
-513.757239
 20
-85.480007
 30
0.0
 40
1.0
100
AcDbArc
 50
150.0
 51
256.260205
  0
ARC
  5
120
100
AcDbEntity
  8
0
370
    -3
  6
Continuous
100
AcDbCircle
 10
-510.788328
 20
-73.337703
 30
0.0
 40
13.5
100
AcDbArc
 50
256.260205
 51
283.739795
  0
ARC
  5
121
100
AcDbEntity
  8
0
370
    -3
  6
Continuous
100
AcDbCircle
 10
-516.585461
 20
-90.378631
 30
0.0
 40
1.0
100
AcDbArc
 50
71.212271
 51
150.0
  0
LINE
  5
122
100
AcDbEntity
  8
0
370
    -3
  6
Continuous
100
AcDbLine
 10
-518.976404
 20
-92.519866
 30
0.0
 11
-517.451486
 21
-89.878631
 31
0.0
  0
ARC
  5
123
100
AcDbEntity
  8
0
370
    -3
  6
Continuous
100
AcDbCircle
 10
-510.788328
 20
-73.337703
 30
0.0
 40
17.0
100
AcDbArc
 50
251.212271
 51
288.787729
  0
ARC
  5
124
100
AcDbEntity
  8
0
370
    -3
  6
Continuous
100
AcDbCircle
 10
-518.110378
 20
-93.019866
 30
0.0
 40
1.0
100
AcDbArc
 50
150.0
 51
249.594068
  0
ARC
  5
125
100
AcDbEntity
  8
0
370
    -3
  6
Continuous
100
AcDbCircle
 10
-520.891164
 20
-97.836329
 30
0.0
 40
1.0
100
AcDbArc
 50
67.589542
 51
150.0
  0
ARC
  5
126
100
AcDbEntity
  8
0
370
    -3
  6
Continuous
100
AcDbCircle
 10
-525.169519
 20
-105.246656
 30
0.0
 40
1.0
100
AcDbArc
 50
65.73917
 51
150.0
  0
ARC
  5
127
100
AcDbEntity
  8
0
370
    -3
  6
Continuous
100
AcDbCircle
 10
-510.788328
 20
-73.337703
 30
0.0
 40
22.0
100
AcDbArc
 50
249.594068
 51
290.405932
  0
LINE
  5
128
100
AcDbEntity
  8
0
370
    -3
  6
Continuous
100
AcDbLine
 10
-523.269083
 20
-99.955004
 30
0.0
 11
-521.75719
 21
-97.336329
 31
0.0
  0
ARC
  5
129
100
AcDbEntity
  8
0
370
    -3
  6
Continuous
100
AcDbCircle
 10
-522.403057
 20
-100.455004
 30
0.0
 40
1.0
100
AcDbArc
 50
150.0
 51
246.813854
  0
ARC
  5
12A
100
AcDbEntity
  8
0
370
    -3
  6
Continuous
100
AcDbCircle
 10
-510.788328
 20
-73.337703
 30
0.0
 40
30.5
100
AcDbArc
 50
246.813854
 51
293.186146
  0
ARC
  5
12B
100
AcDbEntity
  8
0
370
    -3
  6
Continuous
100
AcDbCircle
 10
-510.788328
 20
-73.337703
 30
0.0
 40
25.5
100
AcDbArc
 50
247.589542
 51
292.410458
  0
ARC
  5
12C
100
AcDbEntity
  8
0
370
    -3
  6
Continuous
100
AcDbCircle
 10
-510.788328
 20
-73.337703
 30
0.0
 40
34.0
100
AcDbArc
 50
245.73917
 51
294.26083
  0
ARC
  5
12D
100
AcDbEntity
  8
0
370
    -3
  6
Continuous
100
AcDbCircle
 10
-510.788328
 20
-73.337703
 30
0.0
 40
39.0
100
AcDbArc
 50
245.284733
 51
294.715267
  0
LINE
  5
12E
100
AcDbEntity
  8
0
370
    -3
  6
Continuous
100
AcDbLine
 10
-527.5425
 20
-107.356781
 30
0.0
 11
-526.035544
 21
-104.746656
 31
0.0
  0
ARC
  5
12F
100
AcDbEntity
  8
0
370
    -3
  6
Continuous
100
AcDbCircle
 10
-526.676475
 20
-107.856781
 30
0.0
 40
1.0
100
AcDbArc
 50
150.0
 51
245.284733
  0
CIRCLE
  5
130
100
AcDbEntity
  8
0
370
    -3
  6
Continuous
100
AcDbCircle
 10
-510.788328
 20
-73.337703
 30
0.0
 40
5.0
  0
ARC
  5
131
100
AcDbEntity
  8
0
370
    -3
  6
Continuous
100
AcDbCircle
 10
-532.738653
 20
-104.356781
 30
0.0
 40
1.0
100
AcDbArc
 50
234.715267
 51
330.0
  0
ARC
  5
132
100
AcDbEntity
  8
0
370
    -3
  6
Continuous
100
AcDbCircle
 10
-531.231697
 20
-101.746656
 30
0.0
 40
1.0
100
AcDbArc
 50
330.0
 51
54.26083
  0
ARC
  5
133
100
AcDbEntity
  8
0
370
    -3
  6
Continuous
100
AcDbCircle
 10
-545.612888
 20
-76.837703
 30
0.0
 40
1.0
100
AcDbArc
 50
5.73917
 51
90.0
  0
ARC
  5
134
100
AcDbEntity
  8
0
370
    -3
  6
Continuous
100
AcDbCircle
 10
-548.6268
 20
-76.837703
 30
0.0
 40
1.0
100
AcDbArc
 50
90.0
 51
185.284733
  0
ARC
  5
135
100
AcDbEntity
  8
0
370
    -3
  6
Continuous
100
AcDbCircle
 10
-537.056179
 20
-76.837703
 30
0.0
 40
1.0
100
AcDbArc
 50
7.589542
 51
90.0
  0
ARC
  5
136
100
AcDbEntity
  8
0
370
    -3
  6
Continuous
100
AcDbCircle
 10
-528.465235
 20
-96.955004
 30
0.0
 40
1.0
100
AcDbArc
 50
233.186146
 51
330.0
  0
ARC
  5
137
100
AcDbEntity
  8
0
370
    -3
  6
Continuous
100
AcDbCircle
 10
-526.953342
 20
-94.336329
 30
0.0
 40
1.0
100
AcDbArc
 50
330.0
 51
52.410458
  0
ARC
  5
138
100
AcDbEntity
  8
0
370
    -3
  6
Continuous
100
AcDbCircle
 10
-540.079965
 20
-76.837703
 30
0.0
 40
1.0
100
AcDbArc
 50
90.0
 51
186.813854
  0
ARC
  5
139
100
AcDbEntity
  8
0
370
    -3
  6
Continuous
100
AcDbCircle
 10
-531.494607
 20
-76.837703
 30
0.0
 40
1.0
100
AcDbArc
 50
90.0
 51
189.594068
  0
ARC
  5
13A
100
AcDbEntity
  8
0
370
    -3
  6
Continuous
100
AcDbCircle
 10
-528.444771
 20
-76.837703
 30
0.0
 40
1.0
100
AcDbArc
 50
11.212271
 51
90.0
  0
ARC
  5
13B
100
AcDbEntity
  8
0
370
    -3
  6
Continuous
100
AcDbCircle
 10
-524.172556
 20
-89.519866
 30
0.0
 40
1.0
100
AcDbArc
 50
230.405932
 51
330.0
  0
ARC
  5
13C
100
AcDbEntity
  8
0
370
    -3
  6
Continuous
100
AcDbCircle
 10
-522.647638
 20
-86.878631
 30
0.0
 40
1.0
100
AcDbArc
 50
330.0
 51
48.787729
  0
ARC
  5
13D
100
AcDbEntity
  8
0
370
    -3
  6
Continuous
100
AcDbCircle
 10
-519.819417
 20
-81.980007
 30
0.0
 40
1.0
100
AcDbArc
 50
223.739795
 51
330.0
  0
ARC
  5
13E
100
AcDbEntity
  8
0
370
    -3
  6
Continuous
100
AcDbCircle
 10
-522.788328
 20
-76.837703
 30
0.0
 40
1.0
100
AcDbArc
 50
90.0
 51
196.260205
  0
ARC
  5
13F
100
AcDbEntity
  8
0
370
    -3
  6
Continuous
100
AcDbCircle
 10
-519.620089
 20
-76.837703
 30
0.0
 40
1.0
100
AcDbArc
 50
21.618272
 51
90.0
  0
ARC
  5
140
100
AcDbEntity
  8
0
370
    -3
  6
Continuous
100
AcDbCircle
 10
-518.235297
 20
-79.236232
 30
0.0
 40
1.0
100
AcDbArc
 50
330.0
 51
38.381728
  0
ARC
  5
141
100
AcDbEntity
  8
0
370
    -3
  6
Continuous
100
AcDbCircle
 10
-510.788328
 20
-73.337703
 30
0.0
 40
39.0
100
AcDbArc
 50
185.284733
 51
234.715267
  0
ARC
  5
142
100
AcDbEntity
  8
0
370
    -3
  6
Continuous
100
AcDbCircle
 10
-510.788328
 20
-73.337703
 30
0.0
 40
30.5
100
AcDbArc
 50
186.813854
 51
233.186146
  0
ARC
  5
143
100
AcDbEntity
  8
0
370
    -3
  6
Continuous
100
AcDbCircle
 10
-510.788328
 20
-73.337703
 30
0.0
 40
34.0
100
AcDbArc
 50
185.73917
 51
234.26083
  0
ARC
  5
144
100
AcDbEntity
  8
0
370
    -3
  6
Continuous
100
AcDbCircle
 10
-510.788328
 20
-73.337703
 30
0.0
 40
25.5
100
AcDbArc
 50
187.589542
 51
232.410458
  0
ARC
  5
145
100
AcDbEntity
  8
0
370
    -3
  6
Continuous
100
AcDbCircle
 10
-510.788328
 20
-73.337703
 30
0.0
 40
22.0
100
AcDbArc
 50
189.594068
 51
230.405932
  0
ARC
  5
146
100
AcDbEntity
  8
0
370
    -3
  6
Continuous
100
AcDbCircle
 10
-510.788328
 20
-73.337703
 30
0.0
 40
17.0
100
AcDbArc
 50
191.212271
 51
228.787729
  0
ARC
  5
147
100
AcDbEntity
  8
0
370
    -3
  6
Continuous
100
AcDbCircle
 10
-510.788328
 20
-73.337703
 30
0.0
 40
13.5
100
AcDbArc
 50
196.260205
 51
223.739795
  0
ARC
  5
148
100
AcDbEntity
  8
0
370
    -3
  6
Continuous
100
AcDbCircle
 10
-510.788328
 20
-73.337703
 30
0.0
 40
8.5
100
AcDbArc
 50
201.618272
 51
218.381728
  0
LINE
  5
149
100
AcDbEntity
  8
0
370
    -3
  6
Continuous
100
AcDbLine
 10
-527.59921
 20
-97.455004
 30
0.0
 11
-526.087317
 21
-94.836329
 31
0.0
  0
LINE
  5
14A
100
AcDbEntity
  8
0
370
    -3
  6
Continuous
100
AcDbLine
 10
-548.6268
 20
-75.837703
 30
0.0
 11
-545.612888
 21
-75.837703
 31
0.0
  0
ARC
  5
14B
100
AcDbEntity
  8
0
370
    -3
  6
Continuous
100
AcDbCircle
 10
-857.388328
 20
-73.337703
 30
0.0
 40
400.6
100
AcDbArc
 50
355.470807
 51
0.0
  0
ARC
  5
14C
100
AcDbEntity
  8
0
370
    -3
  6
Continuous
100
AcDbCircle
 10
-478.575375
 20
-103.350146
 30
0.0
 40
20.6
100
AcDbArc
 50
315.0
 51
355.470055
  0
LINE
  5
14D
100
AcDbEntity
  8
0
370
    -3
  6
Continuous
100
AcDbLine
 10
-466.187721
 20
-120.095292
 30
0.0
 11
-464.008975
 21
-117.916546
 31
0.0
  0
LINE
  5
14E
100
AcDbEntity
  8
0
370
    -3
  6
Continuous
100
AcDbLine
 10
-553.144024
 20
-24.335203
 30
0.0
 11
-553.630827
 21
-23.848399
 31
0.0
  0
ARC
  5
14F
100
AcDbEntity
  8
0
370
    -3
  6
Continuous
100
AcDbCircle
 10
-494.896256
 20
-91.386757
 30
0.0
 40
40.6
100
AcDbArc
 50
272.530124
 51
315.0
  0
LINE
  5
150
100
AcDbEntity
  8
0
370
    -3
  6
Continuous
100
AcDbLine
 10
-559.790828
 20
-30.982006
 30
0.0
 11
-560.277631
 21
-30.495203
 31
0.0
  0
ARC
  5
151
100
AcDbEntity
  8
0
370
    -3
  6
Continuous
100
AcDbCircle
 10
-164.188328
 20
-73.337703
 30
0.0
 40
400.6
100
AcDbArc
 50
180.0
 51
184.529193
  0
LINE
  5
152
100
AcDbEntity
  8
0
370
    -3
  6
Continuous
100
AcDbLine
 10
-553.396571
 20
-24.022064
 30
0.0
 11
-560.07367
 21
-30.699163
 31
0.0
  0
ARC
  5
153
100
AcDbEntity
  8
0
370
    -3
  6
Continuous
100
AcDbCircle
 10
-543.001281
 20
-103.350146
 30
0.0
 40
20.6
100
AcDbArc
 50
184.529945
 51
225.0
  0
LINE
  5
154
100
AcDbEntity
  8
0
370
    -3
  6
Continuous
100
AcDbLine
 10
-553.144024
 20
-24.335203
 30
0.0
 11
-559.790828
 21
-30.982006
 31
0.0
  0
LINE
  5
155
100
AcDbEntity
  8
0
370
    -3
  6
Continuous
100
AcDbLine
 10
-555.388935
 20
-120.095292
 30
0.0
 11
-557.56768
 21
-117.916546
 31
0.0
  0
POINT
  5
156
100
AcDbEntity
  8
0
370
    -3
  6
Continuous
100
AcDbPoint
 10
-556.467426
 20
-27.658604
 30
0.0
  0
ARC
  5
157
100
AcDbEntity
  8
0
370
    -3
  6
Continuous
100
AcDbCircle
 10
-554.204684
 20
-29.921346
 30
0.0
 40
6.099999
100
AcDbArc
 50
84.601911
 51
185.398072
  0
ARC
  5
158
100
AcDbEntity
  8
0
370
    -3
  6
Continuous
100
AcDbCircle
 10
-510.788328
 20
-414.937703
 30
0.0
 40
400.6
100
AcDbArc
 50
90.0
 51
92.529361
  0
LINE
  5
159
100
AcDbEntity
  8
0
370
    -3
  6
Continuous
100
AcDbLine
 10
-559.790828
 20
-115.693399
 30
0.0
 11
-560.277631
 21
-116.180202
 31
0.0
  0
ARC
  5
15A
100
AcDbEntity
  8
0
370
    -3
  6
Continuous
100
AcDbCircle
 10
-164.188328
 20
-73.337703
 30
0.0
 40
400.6
100
AcDbArc
 50
175.470807
 51
180.0
  0
LINE
  5
15B
100
AcDbEntity
  8
0
370
    -3
  6
Continuous
100
AcDbLine
 10
-553.144024
 20
-122.340202
 30
0.0
 11
-553.630827
 21
-122.827006
 31
0.0
  0
ARC
  5
15C
100
AcDbEntity
  8
0
370
    -3
  6
Continuous
100
AcDbCircle
 10
-543.001281
 20
-43.325259
 30
0.0
 40
20.6
100
AcDbArc
 50
135.0
 51
175.470055
  0
LINE
  5
15D
100
AcDbEntity
  8
0
370
    -3
  6
Continuous
100
AcDbLine
 10
-553.396571
 20
-122.653341
 30
0.0
 11
-560.07367
 21
-115.976242
 31
0.0
  0
LINE
  5
15E
100
AcDbEntity
  8
0
370
    -3
  6
Continuous
100
AcDbLine
 10
-555.388935
 20
-26.580113
 30
0.0
 11
-557.56768
 21
-28.758859
 31
0.0
  0
LINE
  5
15F
100
AcDbEntity
  8
0
370
    -3
  6
Continuous
100
AcDbLine
 10
-553.144024
 20
-122.340202
 30
0.0
 11
-559.790828
 21
-115.693399
 31
0.0
  0
ARC
  5
160
100
AcDbEntity
  8
0
370
    -3
  6
Continuous
100
AcDbCircle
 10
-526.680399
 20
-55.288649
 30
0.0
 40
40.6
100
AcDbArc
 50
92.530124
 51
135.0
  0
POINT
  5
161
100
AcDbEntity
  8
0
370
    -3
  6
Continuous
100
AcDbPoint
 10
-556.467426
 20
-119.016801
 30
0.0
  0
ARC
  5
162
100
AcDbEntity
  8
0
370
    -3
  6
Continuous
100
AcDbCircle
 10
-510.788328
 20
-414.937703
 30
0.0
 40
400.6
100
AcDbArc
 50
87.470639
 51
90.0
  0
ARC
  5
163
100
AcDbEntity
  8
0
370
    -3
  6
Continuous
100
AcDbCircle
 10
-554.204684
 20
-116.754059
 30
0.0
 40
6.099999
100
AcDbArc
 50
174.601928
 51
275.398089
  0
ARC
  5
164
100
AcDbEntity
  8
0
370
    -3
  6
Continuous
100
AcDbCircle
 10
-857.388328
 20
-73.337703
 30
0.0
 40
400.6
100
AcDbArc
 50
0.0
 51
4.529193
  0
LINE
  5
165
100
AcDbEntity
  8
0
370
    -3
  6
Continuous
100
AcDbLine
 10
-468.432631
 20
-122.340202
 30
0.0
 11
-467.945828
 21
-122.827006
 31
0.0
  0
ARC
  5
166
100
AcDbEntity
  8
0
370
    -3
  6
Continuous
100
AcDbCircle
 10
-478.575375
 20
-43.325259
 30
0.0
 40
20.6
100
AcDbArc
 50
4.529945
 51
45.0
  0
LINE
  5
167
100
AcDbEntity
  8
0
370
    -3
  6
Continuous
100
AcDbLine
 10
-461.785828
 20
-115.693399
 30
0.0
 11
-461.299025
 21
-116.180202
 31
0.0
  0
LINE
  5
168
100
AcDbEntity
  8
0
370
    -3
  6
Continuous
100
AcDbLine
 10
-466.187721
 20
-26.580113
 30
0.0
 11
-464.008975
 21
-28.758859
 31
0.0
  0
LINE
  5
169
100
AcDbEntity
  8
0
370
    -3
  6
Continuous
100
AcDbLine
 10
-468.180084
 20
-122.653341
 30
0.0
 11
-461.502985
 21
-115.976242
 31
0.0
  0
ARC
  5
16A
100
AcDbEntity
  8
0
370
    -3
  6
Continuous
100
AcDbCircle
 10
-494.896256
 20
-55.288649
 30
0.0
 40
40.6
100
AcDbArc
 50
45.0
 51
87.469876
  0
LINE
  5
16B
100
AcDbEntity
  8
0
370
    -3
  6
Continuous
100
AcDbLine
 10
-468.432631
 20
-122.340202
 30
0.0
 11
-461.785828
 21
-115.693399
 31
0.0
  0
LINE
  5
16C
100
AcDbEntity
  8
0
370
    -3
  6
Continuous
100
AcDbLine
 10
-531.872627
 20
-104.856781
 30
0.0
 11
-530.365671
 21
-102.246656
 31
0.0
  0
POINT
  5
16D
100
AcDbEntity
  8
0
370
    -3
  6
Continuous
100
AcDbPoint
 10
-465.10923
 20
-119.016801
 30
0.0
  0
LINE
  5
16E
100
AcDbEntity
  8
0
370
    -3
  6
Continuous
100
AcDbLine
 10
-523.306531
 20
-90.019866
 30
0.0
 11
-521.781613
 21
-87.378631
 31
0.0
  0
ARC
  5
16F
100
AcDbEntity
  8
0
370
    -3
  6
Continuous
100
AcDbCircle
 10
-467.371971
 20
-116.754059
 30
0.0
 40
6.099999
100
AcDbArc
 50
264.601911
 51
5.398072
  0
LINE
  5
170
100
AcDbEntity
  8
0
370
    -3
  6
Continuous
100
AcDbLine
 10
-518.953391
 20
-82.480007
 30
0.0
 11
-517.369272
 21
-79.736232
 31
0.0
  0
LINE
  5
171
100
AcDbEntity
  8
0
370
    -3
  6
Continuous
100
AcDbLine
 10
-461.785828
 20
-30.982006
 30
0.0
 11
-461.299025
 21
-30.495203
 31
0.0
  0
LINE
  5
172
100
AcDbEntity
  8
0
370
    -3
  6
Continuous
100
AcDbLine
 10
-522.788328
 20
-75.837703
 30
0.0
 11
-519.620089
 21
-75.837703
 31
0.0
  0
LINE
  5
173
100
AcDbEntity
  8
0
370
    -3
  6
Continuous
100
AcDbLine
 10
-468.432631
 20
-24.335203
 30
0.0
 11
-467.945828
 21
-23.848399
 31
0.0
  0
LINE
  5
174
100
AcDbEntity
  8
0
370
    -3
  6
Continuous
100
AcDbLine
 10
-531.494607
 20
-75.837703
 30
0.0
 11
-528.444771
 21
-75.837703
 31
0.0
  0
LINE
  5
175
100
AcDbEntity
  8
0
370
    -3
  6
Continuous
100
AcDbLine
 10
-468.180084
 20
-24.022064
 30
0.0
 11
-461.502985
 21
-30.699163
 31
0.0
  0
LINE
  5
176
100
AcDbEntity
  8
0
370
    -3
  6
Continuous
100
AcDbLine
 10
-540.079965
 20
-75.837703
 30
0.0
 11
-537.056179
 21
-75.837703
 31
0.0
  0
LINE
  5
177
100
AcDbEntity
  8
0
370
    -3
  6
Continuous
100
AcDbLine
 10
-468.432631
 20
-24.335203
 30
0.0
 11
-461.785828
 21
-30.982006
 31
0.0
  0
ARC
  5
178
100
AcDbEntity
  8
0
370
    -3
  6
Continuous
100
AcDbCircle
 10
-510.788328
 20
-73.337703
 30
0.0
 40
39.0
100
AcDbArc
 50
65.284733
 51
114.715267
  0
POINT
  5
179
100
AcDbEntity
  8
0
370
    -3
  6
Continuous
100
AcDbPoint
 10
-465.10923
 20
-27.658604
 30
0.0
  0
ARC
  5
17A
100
AcDbEntity
  8
0
370
    -3
  6
Continuous
100
AcDbCircle
 10
-510.788328
 20
-73.337703
 30
0.0
 40
34.0
100
AcDbArc
 50
65.73917
 51
114.26083
  0
ARC
  5
17B
100
AcDbEntity
  8
0
370
    -3
  6
Continuous
100
AcDbCircle
 10
-467.371971
 20
-29.921346
 30
0.0
 40
6.099999
100
AcDbArc
 50
354.601928
 51
95.398089
  0
ARC
  5
17C
100
AcDbEntity
  8
0
370
    -3
  6
Continuous
100
AcDbCircle
 10
-510.788328
 20
-73.337703
 30
0.0
 40
25.5
100
AcDbArc
 50
67.589542
 51
112.410458
  0
ARC
  5
17D
100
AcDbEntity
  8
0
370
    -3
  6
Continuous
100
AcDbCircle
 10
-510.788328
 20
-73.337703
 30
0.0
 40
30.5
100
AcDbArc
 50
66.813854
 51
113.186146
  0
ARC
  5
17E
100
AcDbEntity
  8
0
370
    -3
  6
Continuous
100
AcDbCircle
 10
-510.788328
 20
-73.337703
 30
0.0
 40
22.0
100
AcDbArc
 50
69.594068
 51
110.405932
  0
ARC
  5
17F
100
AcDbEntity
  8
0
370
    -3
  6
Continuous
100
AcDbCircle
 10
-510.788328
 20
-73.337703
 30
0.0
 40
17.0
100
AcDbArc
 50
71.212271
 51
108.787729
  0
ARC
  5
180
100
AcDbEntity
  8
0
370
    -3
  6
Continuous
100
AcDbCircle
 10
-510.788328
 20
-73.337703
 30
0.0
 40
13.5
100
AcDbArc
 50
76.260205
 51
103.739795
  0
ARC
  5
181
100
AcDbEntity
  8
0
370
    -3
  6
Continuous
100
AcDbCircle
 10
-507.819417
 20
-61.195398
 30
0.0
 40
1.0
100
AcDbArc
 50
330.0
 51
76.260205
  0
ARC
  5
182
100
AcDbEntity
  8
0
370
    -3
  6
Continuous
100
AcDbCircle
 10
-503.466277
 20
-53.655539
 30
0.0
 40
1.0
100
AcDbArc
 50
330.0
 51
69.594068
  0
LINE
  5
183
100
AcDbEntity
  8
0
370
    -3
  6
Continuous
100
AcDbLine
 10
-502.600252
 20
-54.155539
 30
0.0
 11
-504.125169
 21
-56.796774
 31
0.0
  0
ARC
  5
184
100
AcDbEntity
  8
0
370
    -3
  6
Continuous
100
AcDbCircle
 10
-504.991195
 20
-56.296774
 30
0.0
 40
1.0
100
AcDbArc
 50
251.212271
 51
330.0
  0
LINE
  5
185
100
AcDbEntity
  8
0
370
    -3
  6
Continuous
100
AcDbLine
 10
-506.953391
 20
-61.695398
 30
0.0
 11
-508.537511
 21
-64.439173
 31
0.0
  0
ARC
  5
186
100
AcDbEntity
  8
0
370
    -3
  6
Continuous
100
AcDbCircle
 10
-509.403536
 20
-63.939173
 30
0.0
 40
1.0
100
AcDbArc
 50
261.618272
 51
330.0
  0
ARC
  5
187
100
AcDbEntity
  8
0
370
    -3
  6
Continuous
100
AcDbCircle
 10
-496.407137
 20
-41.428749
 30
0.0
 40
1.0
100
AcDbArc
 50
245.73917
 51
330.0
  0
LINE
  5
188
100
AcDbEntity
  8
0
370
    -3
  6
Continuous
100
AcDbLine
 10
-494.034155
 20
-39.318624
 30
0.0
 11
-495.541111
 21
-41.928749
 31
0.0
  0
ARC
  5
189
100
AcDbEntity
  8
0
370
    -3
  6
Continuous
100
AcDbCircle
 10
-494.90018
 20
-38.818624
 30
0.0
 40
1.0
100
AcDbArc
 50
330.0
 51
65.284733
  0
ARC
  5
18A
100
AcDbEntity
  8
0
370
    -3
  6
Continuous
100
AcDbCircle
 10
-500.685491
 20
-48.839076
 30
0.0
 40
1.0
100
AcDbArc
 50
247.589542
 51
330.0
  0
LINE
  5
18B
100
AcDbEntity
  8
0
370
    -3
  6
Continuous
100
AcDbLine
 10
-405.108856
 20
-18.063171
 30
0.0
 11
-412.679635
 21
-23.364288
 31
0.0
  0
LINE
  5
18C
100
AcDbEntity
  8
0
370
    -3
  6
Continuous
100
AcDbLine
 10
-413.788337
 20
-25.494083
 30
0.0
 11
-413.788337
 21
-73.337703
 31
0.0
  0
ARC
  5
18D
100
AcDbEntity
  8
0
370
    -3
  6
Continuous
100
AcDbCircle
 10
-411.188337
 20
-25.494083
 30
0.0
 40
2.6
100
AcDbArc
 50
125.0
 51
180.0
  0
ARC
  5
18E
100
AcDbEntity
  8
0
370
    -3
  6
Continuous
100
AcDbCircle
 10
-393.293182
 20
-34.937703
 30
0.0
 40
20.6
100
AcDbArc
 50
90.0
 51
125.0
  0
LINE
  5
18F
100
AcDbEntity
  8
0
370
    -3
  6
Continuous
100
AcDbLine
 10
-413.788337
 20
-121.181323
 30
0.0
 11
-413.788337
 21
-73.337703
 31
0.0
  0
LINE
  5
190
100
AcDbEntity
  8
0
370
    -3
  6
Continuous
100
AcDbLine
 10
-405.108856
 20
-128.612235
 30
0.0
 11
-412.679635
 21
-123.311119
 31
0.0
  0
ARC
  5
191
100
AcDbEntity
  8
0
370
    -3
  6
Continuous
100
AcDbCircle
 10
-411.188337
 20
-121.181323
 30
0.0
 40
2.6
100
AcDbArc
 50
180.0
 51
235.0
  0
ARC
  5
192
100
AcDbEntity
  8
0
370
    -3
  6
Continuous
100
AcDbCircle
 10
-393.293182
 20
-111.737703
 30
0.0
 40
20.6
100
AcDbArc
 50
235.0
 51
270.0
  0
LINE
  5
193
100
AcDbEntity
  8
0
370
    -3
  6
CENTER
100
AcDbLine
 10
-229.968313
 20
-73.337703
 30
0.0
 11
-423.034636
 21
-73.337703
 31
0.0
  0
LINE
  5
194
100
AcDbEntity
  8
0
370
    -3
  6
Continuous
100
AcDbLine
 10
-508.288328
 20
-165.337703
 30
0.0
 11
-508.288328
 21
-164.827286
 31
0.0
  0
LINE
  5
195
100
AcDbEntity
  8
0
370
    -3
  6
Continuous
100
AcDbLine
 10
-513.288328
 20
-165.337703
 30
0.0
 11
-508.288328
 21
-165.337703
 31
0.0
  0
LINE
  5
196
100
AcDbEntity
  8
0
370
    -3
  6
Continuous
100
AcDbLine
 10
-513.288328
 20
-165.337703
 30
0.0
 11
-513.288328
 21
-164.827286
 31
0.0
  0
ARC
  5
197
100
AcDbEntity
  8
0
370
    -3
  6
Continuous
100
AcDbCircle
 10
-541.788328
 20
-158.204368
 30
0.0
 40
5.0
100
AcDbArc
 50
180.0
 51
263.967951
  0
ARC
  5
198
100
AcDbEntity
  8
0
370
    -3
  6
Continuous
100
AcDbCircle
 10
-479.788328
 20
-158.204368
 30
0.0
 40
5.0
100
AcDbArc
 50
276.032049
 51
0.0
  0
ARC
  5
199
100
AcDbEntity
  8
0
370
    -3
  6
Continuous
100
AcDbCircle
 10
-510.788328
 20
135.162297
 30
0.0
 40
300.0
100
AcDbArc
 50
263.967951
 51
276.032049
  0
ARC
  5
19A
100
AcDbEntity
  8
0
370
    -3
  6
Continuous
100
AcDbCircle
 10
-526.680399
 20
-91.386757
 30
0.0
 40
40.6
100
AcDbArc
 50
225.0
 51
267.469876
  0
ARC
  5
19B
100
AcDbEntity
  8
0
370
    -3
  6
Continuous
100
AcDbCircle
 10
-510.788328
 20
268.262297
 30
0.0
 40
400.6
100
AcDbArc
 50
267.470639
 51
270.0
  0
LINE
  5
19C
100
AcDbEntity
  8
0
370
    -3
  6
Continuous
100
AcDbLine
 10
-453.287778
 20
-185.399716
 30
0.0
 11
-464.788328
 21
-185.600459
 31
0.0
  0
LINE
  5
19D
100
AcDbEntity
  8
0
370
    -3
  6
Continuous
100
AcDbLine
 10
-559.288328
 20
-183.950955
 30
0.0
 11
-568.788328
 21
-183.950955
 31
0.0
  0
LINE
  5
19E
100
AcDbEntity
  8
0
370
    -3
  6
Continuous
100
AcDbLine
 10
-464.788328
 20
-185.600146
 30
0.0
 11
-559.288328
 21
-183.950642
 31
0.0
  0
LINE
  5
19F
100
AcDbEntity
  8
0
370
    -3
  6
Continuous
100
AcDbLine
 10
-474.788328
 20
-126.657583
 30
0.0
 11
-474.788328
 21
-158.204368
 31
0.0
  0
LINE
  5
1A0
100
AcDbEntity
  8
0
370
    -3
  6
Continuous
100
AcDbLine
 10
-546.788328
 20
-126.657583
 30
0.0
 11
-546.788328
 21
-158.204368
 31
0.0
  0
LINE
  5
1A1
100
AcDbEntity
  8
0
370
    -3
  6
Continuous
100
AcDbLine
 10
-546.788328
 20
-130.837703
 30
0.0
 11
-536.271169
 21
-130.837703
 31
0.0
  0
LINE
  5
1A2
100
AcDbEntity
  8
0
370
    -3
  6
Continuous
100
AcDbLine
 10
-485.305487
 20
-130.837703
 30
0.0
 11
-474.788328
 21
-130.837703
 31
0.0
  0
ARC
  5
1A3
100
AcDbEntity
  8
0
370
    -3
  6
Continuous
100
AcDbCircle
 10
-544.88982
 20
-137.982422
 30
0.0
 40
15.0
100
AcDbArc
 50
225.0
 51
259.695154
  0
ARC
  5
1A4
100
AcDbEntity
  8
0
370
    -3
  6
Continuous
100
AcDbCircle
 10
-476.686835
 20
-137.982422
 30
0.0
 40
15.0
100
AcDbArc
 50
280.304846
 51
315.0
  0
LINE
  5
1A5
100
AcDbEntity
  8
0
370
    -3
  6
Continuous
100
AcDbLine
 10
-459.870183
 20
-142.378974
 30
0.0
 11
-466.080234
 21
-148.589024
 31
0.0
  0
LINE
  5
1A6
100
AcDbEntity
  8
0
370
    -3
  6
Continuous
100
AcDbLine
 10
-561.706472
 20
-142.378974
 30
0.0
 11
-555.496422
 21
-148.589024
 31
0.0
  0
ARC
  5
1A7
100
AcDbEntity
  8
0
370
    -3
  6
Continuous
100
AcDbCircle
 10
-510.788328
 20
-97.837703
 30
0.0
 40
56.25
100
AcDbArc
 50
220.772805
 51
230.208181
  0
ARC
  5
1A8
100
AcDbEntity
  8
0
370
    -3
  6
Continuous
100
AcDbCircle
 10
-510.788328
 20
-97.837703
 30
0.0
 40
56.25
100
AcDbArc
 50
309.791819
 51
319.227195
  0
LINE
  5
1A9
100
AcDbEntity
  8
0
370
    -3
  6
Continuous
100
AcDbLine
 10
-474.003554
 20
-152.740471
 30
0.0
 11
-474.788328
 21
-152.883157
 31
0.0
  0
LINE
  5
1AA
100
AcDbEntity
  8
0
370
    -3
  6
Continuous
100
AcDbLine
 10
-547.573102
 20
-152.740471
 30
0.0
 11
-546.788328
 21
-152.883157
 31
0.0
  0
LINE
  5
1AB
100
AcDbEntity
  8
0
370
    -3
  6
DASHED
100
AcDbLine
 10
345.712036
 20
-130.837859
 30
0.0
 11
356.229195
 21
-130.837859
 31
0.0
  0
LINE
  5
1AC
100
AcDbEntity
  8
0
370
    -3
  6
DASHED
100
AcDbLine
 10
407.194877
 20
-130.837859
 30
0.0
 11
417.712036
 21
-130.837859
 31
0.0
  0
LINE
  5
1AD
100
AcDbEntity
  8
0
370
    -3
  6
DASHED
100
AcDbLine
 10
345.712036
 20
-126.65774
 30
0.0
 11
345.712036
 21
-158.204524
 31
0.0
  0
ARC
  5
1AE
100
AcDbEntity
  8
0
370
    -3
  6
DASHED
100
AcDbCircle
 10
350.712036
 20
-158.204524
 30
0.0
 40
5.0
100
AcDbArc
 50
180.0
 51
263.967951
  0
LINE
  5
1AF
100
AcDbEntity
  8
0
370
    -3
  6
DASHED
100
AcDbLine
 10
384.212036
 20
-165.337859
 30
0.0
 11
384.212036
 21
-164.827442
 31
0.0
  0
LINE
  5
1B0
100
AcDbEntity
  8
0
370
    -3
  6
DASHED
100
AcDbLine
 10
379.212036
 20
-165.337859
 30
0.0
 11
384.212036
 21
-165.337859
 31
0.0
  0
LINE
  5
1B1
100
AcDbEntity
  8
0
370
    -3
  6
DASHED
100
AcDbLine
 10
379.212036
 20
-165.337859
 30
0.0
 11
379.212036
 21
-164.827442
 31
0.0
  0
LINE
  5
1B2
100
AcDbEntity
  8
0
370
    -3
  6
DASHED
100
AcDbLine
 10
417.712036
 20
-126.65774
 30
0.0
 11
417.712036
 21
-158.204524
 31
0.0
  0
ARC
  5
1B3
100
AcDbEntity
  8
0
370
    -3
  6
DASHED
100
AcDbCircle
 10
412.712036
 20
-158.204524
 30
0.0
 40
5.0
100
AcDbArc
 50
276.032049
 51
0.0
  0
ARC
  5
1B4
100
AcDbEntity
  8
0
370
    -3
  6
DASHED
100
AcDbCircle
 10
381.712036
 20
135.162141
 30
0.0
 40
300.0
100
AcDbArc
 50
263.967951
 51
276.032049
  0
LINE
  5
1B5
100
AcDbEntity
  8
0
370
    -3
  6
Continuous
100
AcDbLine
 10
-337.788337
 20
148.109277
 30
0.0
 11
-393.293182
 21
148.109277
 31
0.0
  0
LINE
  5
1B6
100
AcDbEntity
  8
0
370
    -3
  6
Continuous
100
AcDbLine
 10
-337.788337
 20
148.109277
 30
0.0
 11
-337.788337
 21
202.109277
 31
0.0
  0
LINE
  5
1B7
100
AcDbEntity
  8
0
370
    -3
  6
Continuous
100
AcDbLine
 10
-337.788337
 20
256.109277
 30
0.0
 11
-337.788337
 21
202.109277
 31
0.0
  0
LINE
  5
1B8
100
AcDbEntity
  8
0
370
    -3
  6
Continuous
100
AcDbLine
 10
-337.788337
 20
256.109277
 30
0.0
 11
-393.293182
 21
256.109277
 31
0.0
  0
LINE
  5
1B9
100
AcDbEntity
  8
0
370
    -3
  6
Continuous
100
AcDbLine
 10
-348.788337
 20
152.965356
 30
0.0
 11
-350.788337
 21
154.617997
 31
0.0
  0
LINE
  5
1BA
100
AcDbEntity
  8
0
370
    -3
  6
Continuous
100
AcDbLine
 10
-346.788337
 20
151.78957
 30
0.0
 11
-348.788337
 21
152.965356
 31
0.0
  0
LINE
  5
1BB
100
AcDbEntity
  8
0
370
    -3
  6
Continuous
100
AcDbLine
 10
-348.788337
 20
152.965356
 30
0.0
 11
-346.788337
 21
154.617997
 31
0.0
  0
LINE
  5
1BC
100
AcDbEntity
  8
0
370
    -3
  6
Continuous
100
AcDbLine
 10
-350.788337
 20
151.78957
 30
0.0
 11
-348.788337
 21
152.965356
 31
0.0
  0
ELLIPSE
  5
1BD
100
AcDbEntity
  8
0
370
    -3
  6
Continuous
100
AcDbEllipse
 10
-348.788337
 20
154.781946
 30
0.0
 11
4.6999999999999886
 21
0.0
 31
0.0
210
0.0
220
0.0
230
1.0
 40
0.766646
 41
0.0
 42
6.2831853071795862
  0
LINE
  5
1BE
100
AcDbEntity
  8
0
370
    -3
  6
Continuous
100
AcDbLine
 10
-348.788337
 20
251.253198
 30
0.0
 11
-350.788337
 21
249.600556
 31
0.0
  0
LINE
  5
1BF
100
AcDbEntity
  8
0
370
    -3
  6
Continuous
100
AcDbLine
 10
-346.788337
 20
252.428983
 30
0.0
 11
-348.788337
 21
251.253198
 31
0.0
  0
LINE
  5
1C0
100
AcDbEntity
  8
0
370
    -3
  6
Continuous
100
AcDbLine
 10
-348.788337
 20
251.253198
 30
0.0
 11
-346.788337
 21
249.600556
 31
0.0
  0
LINE
  5
1C1
100
AcDbEntity
  8
0
370
    -3
  6
Continuous
100
AcDbLine
 10
-350.788337
 20
252.428983
 30
0.0
 11
-348.788337
 21
251.253198
 31
0.0
  0
ELLIPSE
  5
1C2
100
AcDbEntity
  8
0
370
    -3
  6
Continuous
100
AcDbEllipse
 10
-348.788337
 20
249.436607
 30
0.0
 11
4.6999999999999886
 21
0.0
 31
0.0
210
0.0
220
0.0
230
1.0
 40
0.766646
 41
0.0
 42
6.2831853071795862
  0
LINE
  5
1C3
100
AcDbEntity
  8
0
370
    -3
  6
Continuous
100
AcDbLine
 10
-253.788337
 20
254.609277
 30
0.0
 11
-337.788337
 21
254.609277
 31
0.0
  0
LINE
  5
1C4
100
AcDbEntity
  8
0
370
    -3
  6
Continuous
100
AcDbLine
 10
-337.788337
 20
252.609277
 30
0.0
 11
-253.788337
 21
252.609277
 31
0.0
  0
LINE
  5
1C5
100
AcDbEntity
  8
0
370
    -3
  6
Continuous
100
AcDbLine
 10
-337.788337
 20
253.109277
 30
0.0
 11
-253.788337
 21
253.109277
 31
0.0
  0
LINE
  5
1C6
100
AcDbEntity
  8
0
370
    -3
  6
Continuous
100
AcDbLine
 10
-337.788337
 20
248.242359
 30
0.0
 11
-253.788337
 21
248.242359
 31
0.0
  0
LINE
  5
1C7
100
AcDbEntity
  8
0
370
    -3
  6
Continuous
100
AcDbLine
 10
-337.788337
 20
246.613932
 30
0.0
 11
-253.788337
 21
246.613932
 31
0.0
  0
LINE
  5
1C8
100
AcDbEntity
  8
0
370
    -3
  6
Continuous
100
AcDbLine
 10
-337.788337
 20
243.15119
 30
0.0
 11
-253.788337
 21
243.15119
 31
0.0
  0
LINE
  5
1C9
100
AcDbEntity
  8
0
370
    -3
  6
Continuous
100
AcDbLine
 10
-337.945937
 20
242.149712
 30
0.0
 11
-253.788337
 21
242.149712
 31
0.0
  0
LINE
  5
1CA
100
AcDbEntity
  8
0
370
    -3
  6
Continuous
100
AcDbLine
 10
-337.788337
 20
230.865672
 30
0.0
 11
-253.788337
 21
230.865672
 31
0.0
  0
LINE
  5
1CB
100
AcDbEntity
  8
0
370
    -3
  6
Continuous
100
AcDbLine
 10
-337.788337
 20
229.386649
 30
0.0
 11
-253.788337
 21
229.386649
 31
0.0
  0
LINE
  5
1CC
100
AcDbEntity
  8
0
370
    -3
  6
Continuous
100
AcDbLine
 10
-337.788337
 20
226.293918
 30
0.0
 11
-253.788337
 21
226.293918
 31
0.0
  0
LINE
  5
1CD
100
AcDbEntity
  8
0
370
    -3
  6
Continuous
100
AcDbLine
 10
-337.788337
 20
224.947516
 30
0.0
 11
-253.788337
 21
224.947516
 31
0.0
  0
LINE
  5
1CE
100
AcDbEntity
  8
0
370
    -3
  6
Continuous
100
AcDbLine
 10
-337.788337
 20
222.109277
 30
0.0
 11
-253.788337
 21
222.109277
 31
0.0
  0
LINE
  5
1CF
100
AcDbEntity
  8
0
370
    -3
  6
Continuous
100
AcDbLine
 10
-337.788337
 20
233.823668
 30
0.0
 11
-253.788337
 21
233.823668
 31
0.0
  0
LINE
  5
1D0
100
AcDbEntity
  8
0
370
    -3
  6
Continuous
100
AcDbLine
 10
-337.788337
 20
235.412877
 30
0.0
 11
-253.788337
 21
235.412877
 31
0.0
  0
LINE
  5
1D1
100
AcDbEntity
  8
0
370
    -3
  6
Continuous
100
AcDbLine
 10
-405.108856
 20
252.383809
 30
0.0
 11
-412.679635
 21
247.082692
 31
0.0
  0
LINE
  5
1D2
100
AcDbEntity
  8
0
370
    -3
  6
Continuous
100
AcDbLine
 10
-413.788337
 20
244.952897
 30
0.0
 11
-413.788337
 21
202.109277
 31
0.0
  0
ARC
  5
1D3
100
AcDbEntity
  8
0
370
    -3
  6
Continuous
100
AcDbCircle
 10
-411.188337
 20
244.952897
 30
0.0
 40
2.6
100
AcDbArc
 50
125.0
 51
180.0
  0
ARC
  5
1D4
100
AcDbEntity
  8
0
370
    -3
  6
Continuous
100
AcDbCircle
 10
-393.293182
 20
235.509277
 30
0.0
 40
20.6
100
AcDbArc
 50
90.0
 51
125.0
  0
LINE
  5
1D5
100
AcDbEntity
  8
0
370
    -3
  6
Continuous
100
AcDbLine
 10
-253.788337
 20
149.609277
 30
0.0
 11
-337.788337
 21
149.609277
 31
0.0
  0
LINE
  5
1D6
100
AcDbEntity
  8
0
370
    -3
  6
Continuous
100
AcDbLine
 10
-337.788337
 20
151.609277
 30
0.0
 11
-253.788337
 21
151.609277
 31
0.0
  0
LINE
  5
1D7
100
AcDbEntity
  8
0
370
    -3
  6
Continuous
100
AcDbLine
 10
-337.788337
 20
151.109277
 30
0.0
 11
-253.788337
 21
151.109277
 31
0.0
  0
LINE
  5
1D8
100
AcDbEntity
  8
0
370
    -3
  6
Continuous
100
AcDbLine
 10
-337.788337
 20
155.976194
 30
0.0
 11
-253.788337
 21
155.976194
 31
0.0
  0
LINE
  5
1D9
100
AcDbEntity
  8
0
370
    -3
  6
Continuous
100
AcDbLine
 10
-337.788337
 20
157.604621
 30
0.0
 11
-253.788337
 21
157.604621
 31
0.0
  0
LINE
  5
1DA
100
AcDbEntity
  8
0
370
    -3
  6
Continuous
100
AcDbLine
 10
-337.788337
 20
161.067363
 30
0.0
 11
-253.788337
 21
161.067363
 31
0.0
  0
LINE
  5
1DB
100
AcDbEntity
  8
0
370
    -3
  6
Continuous
100
AcDbLine
 10
-337.945937
 20
162.068841
 30
0.0
 11
-253.788337
 21
162.068841
 31
0.0
  0
LINE
  5
1DC
100
AcDbEntity
  8
0
370
    -3
  6
Continuous
100
AcDbLine
 10
-337.788337
 20
173.352881
 30
0.0
 11
-253.788337
 21
173.352881
 31
0.0
  0
LINE
  5
1DD
100
AcDbEntity
  8
0
370
    -3
  6
Continuous
100
AcDbLine
 10
-337.788337
 20
174.831904
 30
0.0
 11
-253.788337
 21
174.831904
 31
0.0
  0
LINE
  5
1DE
100
AcDbEntity
  8
0
370
    -3
  6
Continuous
100
AcDbLine
 10
-337.788337
 20
177.924635
 30
0.0
 11
-253.788337
 21
177.924635
 31
0.0
  0
LINE
  5
1DF
100
AcDbEntity
  8
0
370
    -3
  6
Continuous
100
AcDbLine
 10
-337.788337
 20
179.271037
 30
0.0
 11
-253.788337
 21
179.271037
 31
0.0
  0
LINE
  5
1E0
100
AcDbEntity
  8
0
370
    -3
  6
Continuous
100
AcDbLine
 10
-337.788337
 20
182.109277
 30
0.0
 11
-253.788337
 21
182.109277
 31
0.0
  0
LINE
  5
1E1
100
AcDbEntity
  8
0
370
    -3
  6
Continuous
100
AcDbLine
 10
-337.788337
 20
170.394885
 30
0.0
 11
-253.788337
 21
170.394885
 31
0.0
  0
LINE
  5
1E2
100
AcDbEntity
  8
0
370
    -3
  6
Continuous
100
AcDbLine
 10
-337.788337
 20
168.805676
 30
0.0
 11
-253.788337
 21
168.805676
 31
0.0
  0
LINE
  5
1E3
100
AcDbEntity
  8
0
370
    -3
  6
Continuous
100
AcDbLine
 10
-405.108856
 20
151.834744
 30
0.0
 11
-412.679635
 21
157.135861
 31
0.0
  0
LINE
  5
1E4
100
AcDbEntity
  8
0
370
    -3
  6
Continuous
100
AcDbLine
 10
-413.788337
 20
159.265656
 30
0.0
 11
-413.788337
 21
202.109277
 31
0.0
  0
ARC
  5
1E5
100
AcDbEntity
  8
0
370
    -3
  6
Continuous
100
AcDbCircle
 10
-411.188337
 20
159.265656
 30
0.0
 40
2.6
100
AcDbArc
 50
180.0
 51
235.0
  0
ARC
  5
1E6
100
AcDbEntity
  8
0
370
    -3
  6
Continuous
100
AcDbCircle
 10
-393.293182
 20
168.709277
 30
0.0
 40
20.6
100
AcDbArc
 50
235.0
 51
270.0
  0
LINE
  5
1E7
100
AcDbEntity
  8
0
370
    -3
  6
Continuous
100
AcDbLine
 10
-253.788337
 20
-73.337703
 30
0.0
 11
-253.788337
 21
-126.837703
 31
0.0
  0
LINE
  5
1E8
100
AcDbEntity
  8
0
370
    -3
  6
Continuous
100
AcDbLine
 10
-253.788337
 20
-73.337703
 30
0.0
 11
-253.788337
 21
-19.837703
 31
0.0
  0
LINE
  5
1E9
100
AcDbEntity
  8
0
370
    -3
  6
Continuous
100
AcDbLine
 10
-253.788337
 20
-19.837703
 30
0.0
 11
-337.788337
 21
-19.837703
 31
0.0
  0
LINE
  5
1EA
100
AcDbEntity
  8
0
370
    -3
  6
Continuous
100
AcDbLine
 10
-337.788337
 20
-59.337703
 30
0.0
 11
-253.788337
 21
-59.337703
 31
0.0
  0
LINE
  5
1EB
100
AcDbEntity
  8
0
370
    -3
  6
Continuous
100
AcDbLine
 10
-337.788337
 20
-53.709668
 30
0.0
 11
-253.788337
 21
-53.709668
 31
0.0
  0
LINE
  5
1EC
100
AcDbEntity
  8
0
370
    -3
  6
Continuous
100
AcDbLine
 10
-337.788337
 20
-54.951588
 30
0.0
 11
-253.788337
 21
-54.951588
 31
0.0
  0
LINE
  5
1ED
100
AcDbEntity
  8
0
370
    -3
  6
Continuous
100
AcDbLine
 10
-337.788337
 20
-50.499463
 30
0.0
 11
-253.788337
 21
-50.499463
 31
0.0
  0
LINE
  5
1EE
100
AcDbEntity
  8
0
370
    -3
  6
Continuous
100
AcDbLine
 10
-337.788337
 20
-49.153062
 30
0.0
 11
-253.788337
 21
-49.153062
 31
0.0
  0
LINE
  5
1EF
100
AcDbEntity
  8
0
370
    -3
  6
Continuous
100
AcDbLine
 10
-337.788337
 20
-46.060331
 30
0.0
 11
-253.788337
 21
-46.060331
 31
0.0
  0
LINE
  5
1F0
100
AcDbEntity
  8
0
370
    -3
  6
Continuous
100
AcDbLine
 10
-337.788337
 20
-44.581308
 30
0.0
 11
-253.788337
 21
-44.581308
 31
0.0
  0
LINE
  5
1F1
100
AcDbEntity
  8
0
370
    -3
  6
Continuous
100
AcDbLine
 10
-337.788337
 20
-41.623312
 30
0.0
 11
-253.788337
 21
-41.623312
 31
0.0
  0
LINE
  5
1F2
100
AcDbEntity
  8
0
370
    -3
  6
Continuous
100
AcDbLine
 10
-337.788337
 20
-40.034102
 30
0.0
 11
-253.788337
 21
-40.034102
 31
0.0
  0
LINE
  5
1F3
100
AcDbEntity
  8
0
370
    -3
  6
Continuous
100
AcDbLine
 10
-337.788337
 20
-32.295789
 30
0.0
 11
-253.788337
 21
-32.295789
 31
0.0
  0
LINE
  5
1F4
100
AcDbEntity
  8
0
370
    -3
  6
Continuous
100
AcDbLine
 10
-337.788337
 20
-27.204621
 30
0.0
 11
-253.788337
 21
-27.204621
 31
0.0
  0
LINE
  5
1F5
100
AcDbEntity
  8
0
370
    -3
  6
Continuous
100
AcDbLine
 10
-337.788337
 20
-22.837703
 30
0.0
 11
-253.788337
 21
-22.837703
 31
0.0
  0
LINE
  5
1F6
100
AcDbEntity
  8
0
370
    -3
  6
Continuous
100
AcDbLine
 10
-337.788337
 20
-22.337703
 30
0.0
 11
-253.788337
 21
-22.337703
 31
0.0
  0
LINE
  5
1F7
100
AcDbEntity
  8
0
370
    -3
  6
Continuous
100
AcDbLine
 10
-253.788337
 20
-19.837703
 30
0.0
 11
-253.788337
 21
-73.337703
 31
0.0
  0
LINE
  5
1F8
100
AcDbEntity
  8
0
370
    -3
  6
Continuous
100
AcDbLine
 10
-337.788337
 20
-106.641304
 30
0.0
 11
-253.788337
 21
-106.641304
 31
0.0
  0
LINE
  5
1F9
100
AcDbEntity
  8
0
370
    -3
  6
Continuous
100
AcDbLine
 10
-337.788337
 20
-105.052094
 30
0.0
 11
-253.788337
 21
-105.052094
 31
0.0
  0
LINE
  5
1FA
100
AcDbEntity
  8
0
370
    -3
  6
Continuous
100
AcDbLine
 10
-337.788337
 20
-102.094099
 30
0.0
 11
-253.788337
 21
-102.094099
 31
0.0
  0
LINE
  5
1FB
100
AcDbEntity
  8
0
370
    -3
  6
Continuous
100
AcDbLine
 10
-337.788337
 20
-100.615076
 30
0.0
 11
-253.788337
 21
-100.615076
 31
0.0
  0
LINE
  5
1FC
100
AcDbEntity
  8
0
370
    -3
  6
Continuous
100
AcDbLine
 10
-337.788337
 20
-97.522345
 30
0.0
 11
-253.788337
 21
-97.522345
 31
0.0
  0
LINE
  5
1FD
100
AcDbEntity
  8
0
370
    -3
  6
Continuous
100
AcDbLine
 10
-337.788337
 20
-96.175943
 30
0.0
 11
-253.788337
 21
-96.175943
 31
0.0
  0
LINE
  5
1FE
100
AcDbEntity
  8
0
370
    -3
  6
Continuous
100
AcDbLine
 10
-337.788337
 20
-92.965738
 30
0.0
 11
-253.788337
 21
-92.965738
 31
0.0
  0
LINE
  5
1FF
100
AcDbEntity
  8
0
370
    -3
  6
Continuous
100
AcDbLine
 10
-337.788337
 20
-91.723818
 30
0.0
 11
-253.788337
 21
-91.723818
 31
0.0
  0
LINE
  5
200
100
AcDbEntity
  8
0
370
    -3
  6
Continuous
100
AcDbLine
 10
-337.788337
 20
-87.337703
 30
0.0
 11
-253.788337
 21
-87.337703
 31
0.0
  0
LINE
  5
201
100
AcDbEntity
  8
0
370
    -3
  6
Continuous
100
AcDbLine
 10
-253.788337
 20
-126.837703
 30
0.0
 11
-253.788337
 21
-73.337703
 31
0.0
  0
LINE
  5
202
100
AcDbEntity
  8
0
370
    -3
  6
Continuous
100
AcDbLine
 10
-337.788337
 20
-14.337703
 30
0.0
 11
-393.293182
 21
-14.337703
 31
0.0
  0
LINE
  5
203
100
AcDbEntity
  8
0
370
    -3
  6
Continuous
100
AcDbLine
 10
-337.788337
 20
-14.337703
 30
0.0
 11
-337.788337
 21
-73.337703
 31
0.0
  0
LINE
  5
204
100
AcDbEntity
  8
0
370
    -3
  6
Continuous
100
AcDbLine
 10
-348.788337
 20
-24.193782
 30
0.0
 11
-350.788337
 21
-25.846424
 31
0.0
  0
LINE
  5
205
100
AcDbEntity
  8
0
370
    -3
  6
Continuous
100
AcDbLine
 10
-346.788337
 20
-23.017997
 30
0.0
 11
-348.788337
 21
-24.193782
 31
0.0
  0
LINE
  5
206
100
AcDbEntity
  8
0
370
    -3
  6
Continuous
100
AcDbLine
 10
-348.788337
 20
-24.193782
 30
0.0
 11
-346.788337
 21
-25.846424
 31
0.0
  0
LINE
  5
207
100
AcDbEntity
  8
0
370
    -3
  6
Continuous
100
AcDbLine
 10
-350.788337
 20
-23.017997
 30
0.0
 11
-348.788337
 21
-24.193782
 31
0.0
  0
ELLIPSE
  5
208
100
AcDbEntity
  8
0
370
    -3
  6
Continuous
100
AcDbEllipse
 10
-348.788337
 20
-26.010372
 30
0.0
 11
4.6999999999999886
 21
0.0
 31
0.0
210
0.0
220
0.0
230
1.0
 40
0.766646
 41
0.0
 42
6.2831853071795862
  0
LINE
  5
209
100
AcDbEntity
  8
0
370
    -3
  6
Continuous
100
AcDbLine
 10
-345.588337
 20
-130.837703
 30
0.0
 11
-255.588337
 21
-130.837703
 31
0.0
  0
LINE
  5
20A
100
AcDbEntity
  8
0
370
    -3
  6
Continuous
100
AcDbLine
 10
-345.588337
 20
-127.786033
 30
0.0
 11
-345.588337
 21
-163.837703
 31
0.0
  0
LINE
  5
20B
100
AcDbEntity
  8
0
370
    -3
  6
Continuous
100
AcDbLine
 10
-347.788337
 20
-132.337703
 30
0.0
 11
-347.788337
 21
-130.677399
 31
0.0
  0
LINE
  5
20C
100
AcDbEntity
  8
0
370
    -3
  6
Continuous
100
AcDbLine
 10
-347.788337
 20
-132.337703
 30
0.0
 11
-393.293182
 21
-132.337703
 31
0.0
  0
ARC
  5
20D
100
AcDbEntity
  8
0
370
    -3
  6
Continuous
100
AcDbCircle
 10
-344.788337
 20
-130.677399
 30
0.0
 40
3.0
100
AcDbArc
 50
90.0
 51
180.0
  0
LINE
  5
20E
100
AcDbEntity
  8
0
370
    -3
  6
Continuous
100
AcDbLine
 10
-344.788337
 20
-127.677399
 30
0.0
 11
-340.788337
 21
-127.677399
 31
0.0
  0
ARC
  5
20F
100
AcDbEntity
  8
0
370
    -3
  6
Continuous
100
AcDbCircle
 10
-340.788337
 20
-124.677399
 30
0.0
 40
3.0
100
AcDbArc
 50
270.0
 51
0.0
  0
LINE
  5
210
100
AcDbEntity
  8
0
370
    -3
  6
Continuous
100
AcDbLine
 10
-337.788337
 20
-124.677399
 30
0.0
 11
-337.788337
 21
-73.337703
 31
0.0
  0
LINE
  5
211
100
AcDbEntity
  8
0
370
    -3
  6
Continuous
100
AcDbLine
 10
-348.788337
 20
-122.481624
 30
0.0
 11
-350.788337
 21
-120.828982
 31
0.0
  0
LINE
  5
212
100
AcDbEntity
  8
0
370
    -3
  6
Continuous
100
AcDbLine
 10
-346.788337
 20
-123.65741
 30
0.0
 11
-348.788337
 21
-122.481624
 31
0.0
  0
LINE
  5
213
100
AcDbEntity
  8
0
370
    -3
  6
Continuous
100
AcDbLine
 10
-348.788337
 20
-122.481624
 30
0.0
 11
-346.788337
 21
-120.828982
 31
0.0
  0
LINE
  5
214
100
AcDbEntity
  8
0
370
    -3
  6
Continuous
100
AcDbLine
 10
-350.788337
 20
-123.65741
 30
0.0
 11
-348.788337
 21
-122.481624
 31
0.0
  0
ELLIPSE
  5
215
100
AcDbEntity
  8
0
370
    -3
  6
Continuous
100
AcDbEllipse
 10
-348.788337
 20
-120.665034
 30
0.0
 11
4.6999999999999886
 21
0.0
 31
0.0
210
0.0
220
0.0
230
1.0
 40
0.766646
 41
0.0
 42
6.2831853071795862
  0
LINE
  5
216
100
AcDbEntity
  8
0
370
    -3
  6
Continuous
100
AcDbLine
 10
-255.588337
 20
-125.837703
 30
0.0
 11
-337.788337
 21
-125.837703
 31
0.0
  0
LINE
  5
217
100
AcDbEntity
  8
0
370
    -3
  6
Continuous
100
AcDbLine
 10
-338.588337
 20
-164.837703
 30
0.0
 11
-338.588337
 21
-165.337703
 31
0.0
  0
LINE
  5
218
100
AcDbEntity
  8
0
370
    -3
  6
Continuous
100
AcDbLine
 10
-330.588337
 20
-164.837703
 30
0.0
 11
-330.588337
 21
-165.337703
 31
0.0
  0
LINE
  5
219
100
AcDbEntity
  8
0
370
    -3
  6
Continuous
100
AcDbLine
 10
-262.588337
 20
-164.837703
 30
0.0
 11
-262.588337
 21
-165.337703
 31
0.0
  0
LINE
  5
21A
100
AcDbEntity
  8
0
370
    -3
  6
Continuous
100
AcDbLine
 10
-270.588337
 20
-164.837703
 30
0.0
 11
-270.588337
 21
-165.337703
 31
0.0
  0
LINE
  5
21B
100
AcDbEntity
  8
0
370
    -3
  6
Continuous
100
AcDbLine
 10
-270.588337
 20
-165.337703
 30
0.0
 11
-262.588337
 21
-165.337703
 31
0.0
  0
LINE
  5
21C
100
AcDbEntity
  8
0
370
    -3
  6
Continuous
100
AcDbLine
 10
-338.588337
 20
-165.337703
 30
0.0
 11
-330.588337
 21
-165.337703
 31
0.0
  0
ARC
  5
21D
100
AcDbEntity
  8
0
370
    -3
  6
Continuous
100
AcDbCircle
 10
-344.588337
 20
-163.837703
 30
0.0
 40
1.0
100
AcDbArc
 50
180.0
 51
270.0
  0
LINE
  5
21E
100
AcDbEntity
  8
0
370
    -3
  6
Continuous
100
AcDbLine
 10
-344.588337
 20
-164.837703
 30
0.0
 11
-256.588337
 21
-164.837703
 31
0.0
  0
ARC
  5
21F
100
AcDbEntity
  8
0
370
    -3
  6
Continuous
100
AcDbCircle
 10
-256.588337
 20
-163.837703
 30
0.0
 40
1.0
100
AcDbArc
 50
270.0
 51
0.0
  0
LINE
  5
220
100
AcDbEntity
  8
0
370
    -3
  6
Continuous
100
AcDbLine
 10
-255.588337
 20
-125.837703
 30
0.0
 11
-255.588337
 21
-163.837703
 31
0.0
  0
LINE
  5
221
100
AcDbEntity
  8
0
370
    -3
  6
Continuous
100
AcDbLine
 10
-253.788337
 20
-126.837703
 30
0.0
 11
-255.588337
 21
-126.837703
 31
0.0
  0
LINE
  5
222
100
AcDbEntity
  8
0
370
    -3
  6
Continuous
100
AcDbLine
 10
-337.788337
 20
-124.337703
 30
0.0
 11
-253.788337
 21
-124.337703
 31
0.0
  0
LINE
  5
223
100
AcDbEntity
  8
0
370
    -3
  6
Continuous
100
AcDbLine
 10
-337.788337
 20
-123.837703
 30
0.0
 11
-253.788337
 21
-123.837703
 31
0.0
  0
LINE
  5
224
100
AcDbEntity
  8
0
370
    -3
  6
Continuous
100
AcDbLine
 10
-337.788337
 20
-119.470786
 30
0.0
 11
-253.788337
 21
-119.470786
 31
0.0
  0
LINE
  5
225
100
AcDbEntity
  8
0
370
    -3
  6
Continuous
100
AcDbLine
 10
-337.788337
 20
-114.379617
 30
0.0
 11
-253.788337
 21
-114.379617
 31
0.0
  0
MTEXT
  5
227
100
AcDbEntity
  8
0
370
    -3
  6
Continuous
100
AcDbMText
 10
496.256439
 20
-146.80481
 30
0.0
 40
6.6
 41
0.0
 71
     7
 72
     1
  1
\W0.82;GM-SHYFB-RH
  7
ZU_SHPTB00001
 11
1.0
 21
0.0
 31
0.0
 73
     1
 44
1.0
  0
MTEXT
  5
228
100
AcDbEntity
  8
0
370
    -3
  6
Continuous
100
AcDbMText
 10
496.256439
 20
-157.80481
 30
0.0
 40
6.6
 41
0.0
 71
     7
 72
     1
  1
\W0.82;0.1kW
  7
ZU_SHPTB00001
 11
1.0
 21
0.0
 31
0.0
 73
     1
 44
1.0
  0
MTEXT
  5
229
100
AcDbEntity
  8
0
370
    -3
  6
Continuous
100
AcDbMText
 10
496.256439
 20
-168.80481
 30
0.0
 40
6.6
 41
0.0
 71
     7
 72
     1
  1
\W0.82;1/300-1/900
  7
ZU_SHPTB00001
 11
1.0
 21
0.0
 31
0.0
 73
     1
 44
1.0
  0
MTEXT
  5
22A
100
AcDbEntity
  8
0
370
    -3
  6
Continuous
100
AcDbMText
 10
496.256439
 20
-179.80481
 30
0.0
 40
6.6
 41
0.0
 71
     7
 72
     1
  1
\W0.82;SCALE\W1.36; \W0.82;1/1
  7
ZU_SHPTB00001
 11
1.0
 21
0.0
 31
0.0
 73
     1
 44
1.0
  0
LINE
  5
22B
100
AcDbEntity
  8
0
370
    -3
  6
Continuous
100
AcDbLine
 10
-253.788337
 20
202.109277
 30
0.0
 11
-253.788337
 21
255.609277
 31
0.0
  0
LINE
  5
22C
100
AcDbEntity
  8
0
370
    -3
  6
CENTER
100
AcDbLine
 10
-421.118637
 20
202.109277
 30
0.0
 11
45.0
 21
202.109277
 31
0.0
  0
LINE
  5
22D
100
AcDbEntity
  8
0
370
    -3
  6
Continuous
100
AcDbLine
 10
-253.788337
 20
202.109277
 30
0.0
 11
-253.788337
 21
148.609277
 31
0.0
  0
LINE
  5
22E
100
AcDbEntity
  8
0
370
    -3
  6
Continuous
100
AcDbLine
 10
-253.788337
 20
149.609277
 30
0.0
 11
-253.788337
 21
202.109277
 31
0.0
  0
LINE
  5
22F
100
AcDbEntity
  8
0
370
    -3
  6
Continuous
100
AcDbLine
 10
-253.788337
 20
254.609277
 30
0.0
 11
-253.788337
 21
202.109277
 31
0.0
  0
LINE
  5
230
100
AcDbEntity
  8
0
370
    -3
  6
Continuous
100
AcDbLine
 10
245.712033
 20
-61.037859
 30
0.0
 11
235.712033
 21
-61.037859
 31
0.0
  0
LINE
  5
231
100
AcDbEntity
  8
0
370
    -3
  6
Continuous
100
AcDbLine
 10
235.712033
 20
-65.067349
 30
0.0
 11
235.712033
 21
-61.037859
 31
0.0
  0
LINE
  5
232
100
AcDbEntity
  8
0
370
    -3
  6
Continuous
100
AcDbLine
 10
245.712033
 20
-65.067349
 30
0.0
 11
245.712033
 21
-61.037859
 31
0.0
  0
LINE
  5
233
100
AcDbEntity
  8
0
370
    -3
  6
CENTER
100
AcDbLine
 10
240.712033
 20
-113.576539
 30
0.0
 11
240.712033
 21
-51.480308
 31
0.0
  0
LINE
  5
234
100
AcDbEntity
  8
0
370
    -3
  6
Continuous
100
AcDbLine
 10
166.462033
 20
-99.337859
 30
0.0
 11
188.212033
 21
-99.337859
 31
0.0
  0
LINE
  5
235
100
AcDbEntity
  8
0
370
    -3
  6
Continuous
100
AcDbLine
 10
75.211927
 20
-106.837859
 30
0.0
 11
89.211926
 21
-106.837859
 31
0.0
  0
LINE
  5
236
100
AcDbEntity
  8
0
370
    -3
  6
Continuous
100
AcDbLine
 10
89.211926
 20
-106.837859
 30
0.0
 11
89.211928
 21
-108.837859
 31
0.0
  0
LINE
  5
237
100
AcDbEntity
  8
0
370
    -3
  6
Continuous
100
AcDbLine
 10
89.211926
 20
-106.837859
 30
0.0
 11
89.211928
 21
-108.837859
 31
0.0
  0
LINE
  5
238
100
AcDbEntity
  8
0
370
    -3
  6
Continuous
100
AcDbLine
 10
135.212033
 20
-108.837859
 30
0.0
 11
135.212033
 21
-106.837859
 31
0.0
  0
LINE
  5
239
100
AcDbEntity
  8
0
370
    -3
  6
Continuous
100
AcDbLine
 10
89.211928
 20
-108.837859
 30
0.0
 11
135.212033
 21
-108.837859
 31
0.0
  0
LINE
  5
23A
100
AcDbEntity
  8
0
370
    -3
  6
Continuous
100
AcDbLine
 10
172.212003
 20
-106.837859
 30
0.0
 11
135.212033
 21
-106.837859
 31
0.0
  0
LINE
  5
23B
100
AcDbEntity
  8
0
370
    -3
  6
Continuous
100
AcDbLine
 10
75.711927
 20
-56.837859
 30
0.0
 11
89.211926
 21
-56.837859
 31
0.0
  0
LINE
  5
23C
100
AcDbEntity
  8
0
370
    -3
  6
Continuous
100
AcDbLine
 10
75.211927
 20
-56.837873
 30
0.0
 11
75.211926
 21
-57.837859
 31
0.0
  0
LINE
  5
23D
100
AcDbEntity
  8
0
370
    -3
  6
Continuous
100
AcDbLine
 10
89.211926
 20
-56.837859
 30
0.0
 11
89.211928
 21
-54.837859
 31
0.0
  0
LINE
  5
23E
100
AcDbEntity
  8
0
370
    -3
  6
Continuous
100
AcDbLine
 10
75.211927
 20
-56.837859
 30
0.0
 11
89.211926
 21
-56.837859
 31
0.0
  0
LINE
  5
23F
100
AcDbEntity
  8
0
370
    -3
  6
Continuous
100
AcDbLine
 10
135.212033
 20
-54.837859
 30
0.0
 11
135.212033
 21
-56.837859
 31
0.0
  0
LINE
  5
240
100
AcDbEntity
  8
0
370
    -3
  6
Continuous
100
AcDbLine
 10
89.211862
 20
-54.837859
 30
0.0
 11
135.212033
 21
-54.837859
 31
0.0
  0
LINE
  5
241
100
AcDbEntity
  8
0
370
    -3
  6
Continuous
100
AcDbLine
 10
171.712003
 20
-56.837859
 30
0.0
 11
157.712033
 21
-56.837859
 31
0.0
  0
LINE
  5
242
100
AcDbEntity
  8
0
370
    -3
  6
Continuous
100
AcDbLine
 10
172.212003
 20
-56.837859
 30
0.0
 11
135.212033
 21
-56.837859
 31
0.0
  0
LINE
  5
243
100
AcDbEntity
  8
0
370
    -3
  6
Continuous
100
AcDbLine
 10
172.212003
 20
-56.837873
 30
0.0
 11
172.212004
 21
-57.837859
 31
0.0
  0
LINE
  5
244
100
AcDbEntity
  8
0
370
    -3
  6
Continuous
100
AcDbLine
 10
190.712033
 20
-81.837859
 30
0.0
 11
190.712033
 21
-105.437859
 31
0.0
  0
LINE
  5
245
100
AcDbEntity
  8
0
370
    -3
  6
Continuous
100
AcDbLine
 10
56.711897
 20
-81.837859
 30
0.0
 11
56.711897
 21
-105.437859
 31
0.0
  0
LINE
  5
246
100
AcDbEntity
  8
0
370
    -3
  6
CENTER
100
AcDbLine
 10
53.708406
 20
-81.837859
 30
0.0
 11
193.86497
 21
-81.837859
 31
0.0
  0
LINE
  5
247
100
AcDbEntity
  8
0
370
    -3
  6
Continuous
100
AcDbLine
 10
172.212003
 20
-56.837857
 30
0.0
 11
172.212004
 21
-57.837859
 31
0.0
  0
LINE
  5
248
100
AcDbEntity
  8
0
370
    -3
  6
Continuous
100
AcDbLine
 10
190.312033
 20
-105.837859
 30
0.0
 11
172.612004
 21
-105.837859
 31
0.0
  0
LINE
  5
249
100
AcDbEntity
  8
0
370
    -3
  6
Continuous
100
AcDbLine
 10
190.312033
 20
-57.837859
 30
0.0
 11
172.212004
 21
-57.837859
 31
0.0
  0
LINE
  5
24A
100
AcDbEntity
  8
0
370
    -3
  6
Continuous
100
AcDbLine
 10
172.212003
 20
-106.837859
 30
0.0
 11
158.212002
 21
-106.837859
 31
0.0
  0
LINE
  5
24B
100
AcDbEntity
  8
0
370
    -3
  6
Continuous
100
AcDbLine
 10
190.712033
 20
-58.237859
 30
0.0
 11
190.712033
 21
-81.837859
 31
0.0
  0
LINE
  5
24C
100
AcDbEntity
  8
0
370
    -3
  6
Continuous
100
AcDbLine
 10
75.211927
 20
-56.837857
 30
0.0
 11
75.211926
 21
-57.837859
 31
0.0
  0
LINE
  5
24D
100
AcDbEntity
  8
0
370
    -3
  6
Continuous
100
AcDbLine
 10
57.111897
 20
-57.837859
 30
0.0
 11
75.211926
 21
-57.837859
 31
0.0
  0
LINE
  5
24E
100
AcDbEntity
  8
0
370
    -3
  6
Continuous
100
AcDbLine
 10
57.111897
 20
-105.837859
 30
0.0
 11
75.211926
 21
-105.837859
 31
0.0
  0
LINE
  5
24F
100
AcDbEntity
  8
0
370
    -3
  6
Continuous
100
AcDbLine
 10
75.211927
 20
-56.837859
 30
0.0
 11
89.211926
 21
-56.837859
 31
0.0
  0
LINE
  5
250
100
AcDbEntity
  8
0
370
    -3
  6
Continuous
100
AcDbLine
 10
89.211926
 20
-56.837859
 30
0.0
 11
89.211928
 21
-54.837859
 31
0.0
  0
LINE
  5
251
100
AcDbEntity
  8
0
370
    -3
  6
Continuous
100
AcDbLine
 10
56.711897
 20
-58.237859
 30
0.0
 11
56.711897
 21
-81.837859
 31
0.0
  0
LINE
  5
252
100
AcDbEntity
  8
0
370
    -3
  6
Continuous
100
AcDbLine
 10
75.211927
 20
-106.837859
 30
0.0
 11
75.211926
 21
-105.837859
 31
0.0
  0
LINE
  5
253
100
AcDbEntity
  8
0
370
    -3
  6
Continuous
100
AcDbLine
 10
75.711927
 20
-106.837859
 30
0.0
 11
89.211926
 21
-106.837859
 31
0.0
  0
LINE
  5
254
100
AcDbEntity
  8
0
370
    -3
  6
Continuous
100
AcDbLine
 10
172.212003
 20
-106.837841
 30
0.0
 11
172.212004
 21
-106.237859
 31
0.0
  0
LINE
  5
255
100
AcDbEntity
  8
0
370
    -3
  6
Continuous
100
AcDbLine
 10
172.212003
 20
-56.837857
 30
0.0
 11
159.712061
 21
-56.837842
 31
0.0
  0
LINE
  5
256
100
AcDbEntity
  8
0
370
    -3
  6
Continuous
100
AcDbLine
 10
75.211927
 20
-106.837859
 30
0.0
 11
89.211926
 21
-106.837859
 31
0.0
  0
LINE
  5
257
100
AcDbEntity
  8
0
370
    -3
  6
Continuous
100
AcDbLine
 10
89.211862
 20
-54.837859
 30
0.0
 11
89.211863
 21
-55.339795
 31
0.0
  0
LINE
  5
258
100
AcDbEntity
  8
0
370
    -3
  6
Continuous
100
AcDbLine
 10
75.211927
 20
-56.837857
 30
0.0
 11
87.714164
 21
-56.837842
 31
0.0
  0
ARC
  5
259
100
AcDbEntity
  8
0
370
    -3
  6
Continuous
100
AcDbCircle
 10
87.711864
 20
-55.337844
 30
0.0
 40
1.5
100
AcDbArc
 50
269.999945
 51
359.999982
  0
ARC
  5
25A
100
AcDbEntity
  8
0
370
    -3
  6
Continuous
100
AcDbCircle
 10
188.212033
 20
-101.837859
 30
0.0
 40
2.5
100
AcDbArc
 50
0.0
 51
90.0
  0
ARC
  5
25B
100
AcDbEntity
  8
0
370
    -3
  6
Continuous
100
AcDbCircle
 10
59.211897
 20
-101.837859
 30
0.0
 40
2.5
100
AcDbArc
 50
90.0
 51
180.0
  0
ARC
  5
25C
100
AcDbEntity
  8
0
370
    -3
  6
Continuous
100
AcDbCircle
 10
190.312033
 20
-105.437859
 30
0.0
 40
0.4
100
AcDbArc
 50
270.0
 51
0.0
  0
ARC
  5
25D
100
AcDbEntity
  8
0
370
    -3
  6
Continuous
100
AcDbCircle
 10
190.312033
 20
-58.237859
 30
0.0
 40
0.4
100
AcDbArc
 50
0.0
 51
90.0
  0
ARC
  5
25E
100
AcDbEntity
  8
0
370
    -3
  6
Continuous
100
AcDbCircle
 10
172.612004
 20
-106.237859
 30
0.0
 40
0.4
100
AcDbArc
 50
90.0
 51
179.99993
  0
ARC
  5
25F
100
AcDbEntity
  8
0
370
    -3
  6
Continuous
100
AcDbCircle
 10
57.111897
 20
-105.437859
 30
0.0
 40
0.4
100
AcDbArc
 50
180.0
 51
270.0
  0
ARC
  5
260
100
AcDbEntity
  8
0
370
    -3
  6
Continuous
100
AcDbCircle
 10
57.111897
 20
-58.237859
 30
0.0
 40
0.4
100
AcDbArc
 50
90.0
 51
180.0
  0
ARC
  5
261
100
AcDbEntity
  8
0
370
    -3
  6
Continuous
100
AcDbCircle
 10
188.212033
 20
-61.837859
 30
0.0
 40
2.5
100
AcDbArc
 50
270.0
 51
0.0
  0
ARC
  5
262
100
AcDbEntity
  8
0
370
    -3
  6
Continuous
100
AcDbCircle
 10
59.211897
 20
-61.837859
 30
0.0
 40
2.5
100
AcDbArc
 50
180.0
 51
270.0
  0
LINE
  5
263
100
AcDbEntity
  8
0
370
    -3
  6
Continuous
100
AcDbLine
 10
56.711897
 20
-61.037859
 30
0.0
 11
190.712033
 21
-61.037859
 31
0.0
  0
LINE
  5
264
100
AcDbEntity
  8
0
370
    -3
  6
Continuous
100
AcDbLine
 10
59.211897
 20
-64.337859
 30
0.0
 11
80.961897
 21
-64.337859
 31
0.0
  0
LINE
  5
265
100
AcDbEntity
  8
0
370
    -3
  6
Continuous
100
AcDbLine
 10
80.961897
 20
-81.837859
 30
0.0
 11
80.961897
 21
-63.337859
 31
0.0
  0
LINE
  5
266
100
AcDbEntity
  8
0
370
    -3
  6
Continuous
100
AcDbLine
 10
82.711897
 20
-81.837859
 30
0.0
 11
82.711897
 21
-63.337859
 31
0.0
  0
LINE
  5
267
100
AcDbEntity
  8
0
370
    -3
  6
Continuous
100
AcDbLine
 10
82.711897
 20
-64.337859
 30
0.0
 11
108.711897
 21
-64.337859
 31
0.0
  0
LINE
  5
268
100
AcDbEntity
  8
0
370
    -3
  6
Continuous
100
AcDbLine
 10
108.711897
 20
-81.837859
 30
0.0
 11
108.711897
 21
-64.137859
 31
0.0
  0
LINE
  5
269
100
AcDbEntity
  8
0
370
    -3
  6
Continuous
100
AcDbLine
 10
138.712033
 20
-81.837859
 30
0.0
 11
138.712033
 21
-64.137859
 31
0.0
  0
LINE
  5
26A
100
AcDbEntity
  8
0
370
    -3
  6
Continuous
100
AcDbLine
 10
138.712033
 20
-64.337859
 30
0.0
 11
164.712033
 21
-64.337859
 31
0.0
  0
LINE
  5
26B
100
AcDbEntity
  8
0
370
    -3
  6
Continuous
100
AcDbLine
 10
164.712033
 20
-81.837859
 30
0.0
 11
164.712033
 21
-63.337859
 31
0.0
  0
LINE
  5
26C
100
AcDbEntity
  8
0
370
    -3
  6
Continuous
100
AcDbLine
 10
166.462033
 20
-81.837859
 30
0.0
 11
166.462033
 21
-63.337859
 31
0.0
  0
LINE
  5
26D
100
AcDbEntity
  8
0
370
    -3
  6
Continuous
100
AcDbLine
 10
166.462033
 20
-64.337859
 30
0.0
 11
188.212033
 21
-64.337859
 31
0.0
  0
LINE
  5
26E
100
AcDbEntity
  8
0
370
    -3
  6
Continuous
100
AcDbLine
 10
59.211897
 20
-99.337859
 30
0.0
 11
80.961897
 21
-99.337859
 31
0.0
  0
LINE
  5
26F
100
AcDbEntity
  8
0
370
    -3
  6
Continuous
100
AcDbLine
 10
80.961897
 20
-81.837859
 30
0.0
 11
80.961897
 21
-100.337859
 31
0.0
  0
LINE
  5
270
100
AcDbEntity
  8
0
370
    -3
  6
Continuous
100
AcDbLine
 10
82.711897
 20
-81.837859
 30
0.0
 11
82.711897
 21
-100.337859
 31
0.0
  0
LINE
  5
271
100
AcDbEntity
  8
0
370
    -3
  6
Continuous
100
AcDbLine
 10
82.711897
 20
-99.337859
 30
0.0
 11
108.711897
 21
-99.337859
 31
0.0
  0
LINE
  5
272
100
AcDbEntity
  8
0
370
    -3
  6
Continuous
100
AcDbLine
 10
108.711897
 20
-81.837859
 30
0.0
 11
108.711897
 21
-99.537859
 31
0.0
  0
LINE
  5
273
100
AcDbEntity
  8
0
370
    -3
  6
Continuous
100
AcDbLine
 10
138.712033
 20
-81.837859
 30
0.0
 11
138.712033
 21
-99.537859
 31
0.0
  0
LINE
  5
274
100
AcDbEntity
  8
0
370
    -3
  6
Continuous
100
AcDbLine
 10
138.712033
 20
-99.337859
 30
0.0
 11
164.712033
 21
-99.337859
 31
0.0
  0
LINE
  5
275
100
AcDbEntity
  8
0
370
    -3
  6
Continuous
100
AcDbLine
 10
164.712033
 20
-81.837859
 30
0.0
 11
164.712033
 21
-100.337859
 31
0.0
  0
LINE
  5
276
100
AcDbEntity
  8
0
370
    -3
  6
Continuous
100
AcDbLine
 10
166.462033
 20
-81.837859
 30
0.0
 11
166.462033
 21
-100.337859
 31
0.0
  0
LINE
  5
277
100
AcDbEntity
  8
0
370
    -3
  6
CENTER
100
AcDbLine
 10
-65.288103
 20
125.393534
 30
0.0
 11
-65.288103
 21
282.774685
 31
0.0
  0
ARC
  5
278
100
AcDbEntity
  8
0
370
    -3
  6
Continuous
100
AcDbCircle
 10
-42.288103
 20
268.109277
 30
0.0
 40
1.0
100
AcDbArc
 50
0.0
 51
90.0
  0
LINE
  5
279
100
AcDbEntity
  8
0
370
    -3
  6
Continuous
100
AcDbLine
 10
-42.288103
 20
269.109277
 30
0.0
 11
-65.288103
 21
269.109277
 31
0.0
  0
LINE
  5
27A
100
AcDbEntity
  8
0
370
    -3
  6
Continuous
100
AcDbLine
 10
-41.288103
 20
268.109277
 30
0.0
 11
-41.288103
 21
265.109277
 31
0.0
  0
ARC
  5
27B
100
AcDbEntity
  8
0
370
    -3
  6
Continuous
100
AcDbCircle
 10
-88.288103
 20
268.109277
 30
0.0
 40
1.0
100
AcDbArc
 50
90.0
 51
180.0
  0
LINE
  5
27C
100
AcDbEntity
  8
0
370
    -3
  6
Continuous
100
AcDbLine
 10
-88.288103
 20
269.109277
 30
0.0
 11
-65.288103
 21
269.109277
 31
0.0
  0
LINE
  5
27D
100
AcDbEntity
  8
0
370
    -3
  6
Continuous
100
AcDbLine
 10
-89.288103
 20
268.109277
 30
0.0
 11
-89.288103
 21
265.109277
 31
0.0
  0
ARC
  5
27E
100
AcDbEntity
  8
0
370
    -3
  6
Continuous
100
AcDbCircle
 10
-88.288103
 20
136.109277
 30
0.0
 40
1.0
100
AcDbArc
 50
180.0
 51
270.0
  0
LINE
  5
27F
100
AcDbEntity
  8
0
370
    -3
  6
Continuous
100
AcDbLine
 10
-88.288103
 20
135.109277
 30
0.0
 11
-65.288103
 21
135.109277
 31
0.0
  0
LINE
  5
280
100
AcDbEntity
  8
0
370
    -3
  6
Continuous
100
AcDbLine
 10
-89.288103
 20
136.109277
 30
0.0
 11
-89.288103
 21
139.109277
 31
0.0
  0
ARC
  5
281
100
AcDbEntity
  8
0
370
    -3
  6
Continuous
100
AcDbCircle
 10
-42.288103
 20
136.109277
 30
0.0
 40
1.0
100
AcDbArc
 50
270.0
 51
0.0
  0
LINE
  5
282
100
AcDbEntity
  8
0
370
    -3
  6
Continuous
100
AcDbLine
 10
-42.288103
 20
135.109277
 30
0.0
 11
-65.288103
 21
135.109277
 31
0.0
  0
LINE
  5
283
100
AcDbEntity
  8
0
370
    -3
  6
Continuous
100
AcDbLine
 10
-41.288103
 20
136.109277
 30
0.0
 11
-41.288103
 21
139.109277
 31
0.0
  0
LINE
  5
284
100
AcDbEntity
  8
0
370
    -3
  6
Continuous
100
AcDbLine
 10
5.793038
 20
144.10888
 30
0.0
 11
6.301687
 21
144.608727
 31
0.0
  0
LINE
  5
285
100
AcDbEntity
  8
0
370
    -3
  6
Continuous
100
AcDbLine
 10
-65.05943
 20
139.10888
 30
0.0
 11
-112.55943
 21
139.10888
 31
0.0
  0
LINE
  5
286
100
AcDbEntity
  8
0
370
    -3
  6
Continuous
100
AcDbLine
 10
6.301687
 20
144.608727
 30
0.0
 11
6.502429
 21
156.109277
 31
0.0
  0
LINE
  5
287
100
AcDbEntity
  8
0
370
    -3
  6
Continuous
100
AcDbLine
 10
4.852926
 20
250.609277
 30
0.0
 11
4.852926
 21
260.109277
 31
0.0
  0
LINE
  5
288
100
AcDbEntity
  8
0
370
    -3
  6
Continuous
100
AcDbLine
 10
6.502429
 20
156.109277
 30
0.0
 11
4.852926
 21
250.609277
 31
0.0
  0
LINE
  5
289
100
AcDbEntity
  8
0
370
    -3
  6
Continuous
100
AcDbLine
 10
-180.848067
 20
260.109277
 30
0.0
 11
-81.489
 21
260.109277
 31
0.0
  0
LINE
  5
28A
100
AcDbEntity
  8
0
370
    -3
  6
Continuous
100
AcDbLine
 10
-182.497571
 20
156.109277
 30
0.0
 11
-81.489
 21
156.109277
 31
0.0
  0
LINE
  5
28B
100
AcDbEntity
  8
0
370
    -3
  6
Continuous
100
AcDbLine
 10
-81.489
 20
144.10888
 30
0.0
 11
-182.288103
 21
144.10888
 31
0.0
  0
LINE
  5
28C
100
AcDbEntity
  8
0
370
    -3
  6
Continuous
100
AcDbLine
 10
-81.489
 20
144.10888
 30
0.0
 11
5.793038
 21
144.10888
 31
0.0
  0
LINE
  5
28D
100
AcDbEntity
  8
0
370
    -3
  6
Continuous
100
AcDbLine
 10
-81.489
 20
156.109277
 30
0.0
 11
6.502429
 21
156.109277
 31
0.0
  0
LINE
  5
28E
100
AcDbEntity
  8
0
370
    -3
  6
Continuous
100
AcDbLine
 10
-81.489
 20
260.109277
 30
0.0
 11
4.852926
 21
260.109277
 31
0.0
  0
LINE
  5
28F
100
AcDbEntity
  8
0
370
    -3
  6
Continuous
100
AcDbLine
 10
-17.55943
 20
265.109675
 30
0.0
 11
-17.55943
 21
260.109277
 31
0.0
  0
LINE
  5
290
100
AcDbEntity
  8
0
370
    -3
  6
Continuous
100
AcDbLine
 10
-64.830757
 20
265.109675
 30
0.0
 11
-17.55943
 21
265.109675
 31
0.0
  0
LINE
  5
291
100
AcDbEntity
  8
0
370
    -3
  6
Continuous
100
AcDbLine
 10
-112.55943
 20
265.109675
 30
0.0
 11
-112.55943
 21
260.109277
 31
0.0
  0
LINE
  5
292
100
AcDbEntity
  8
0
370
    -3
  6
Continuous
100
AcDbLine
 10
-64.830757
 20
265.109675
 30
0.0
 11
-112.55943
 21
265.109675
 31
0.0
  0
LINE
  5
293
100
AcDbEntity
  8
0
370
    -3
  6
Continuous
100
AcDbLine
 10
-17.55943
 20
139.109277
 30
0.0
 11
-112.55943
 21
139.109277
 31
0.0
  0
LINE
  5
294
100
AcDbEntity
  8
0
370
    -3
  6
Continuous
100
AcDbLine
 10
-17.55943
 20
139.109277
 30
0.0
 11
-17.55943
 21
144.109277
 31
0.0
  0
LINE
  5
295
100
AcDbEntity
  8
0
370
    -3
  6
Continuous
100
AcDbLine
 10
-112.55943
 20
139.109277
 30
0.0
 11
-112.55943
 21
144.109277
 31
0.0
  0
LINE
  5
296
100
AcDbEntity
  8
0
370
    -3
  6
Continuous
100
AcDbLine
 10
-182.497571
 20
156.109277
 30
0.0
 11
-180.848067
 21
250.609277
 31
0.0
  0
LINE
  5
297
100
AcDbEntity
  8
0
370
    -3
  6
Continuous
100
AcDbLine
 10
-180.848067
 20
250.609277
 30
0.0
 11
-180.848067
 21
260.109277
 31
0.0
  0
LINE
  5
298
100
AcDbEntity
  8
0
370
    -3
  6
Continuous
100
AcDbLine
 10
-182.288103
 20
144.10888
 30
0.0
 11
-182.497571
 21
156.109277
 31
0.0
  0
LINE
  5
299
100
AcDbEntity
  8
0
370
    -3
  6
Continuous
100
AcDbLine
 10
-182.288103
 20
144.10888
 30
0.0
 11
-182.497571
 21
156.109277
 31
0.0
  0
LINE
  5
29A
100
AcDbEntity
  8
0
370
    -3
  6
Continuous
100
AcDbLine
 10
-182.497571
 20
156.109277
 30
0.0
 11
-180.848067
 21
250.609277
 31
0.0
  0
LINE
  5
29B
100
AcDbEntity
  8
0
370
    -3
  6
Continuous
100
AcDbLine
 10
-193.788103
 20
145.370277
 30
0.0
 11
-193.788103
 21
258.848278
 31
0.0
  0
ARC
  5
29C
100
AcDbEntity
  8
0
370
    -3
  6
Continuous
100
AcDbCircle
 10
-190.788103
 20
249.109277
 30
0.0
 40
3.0
100
AcDbArc
 50
180.0
 51
270.0
  0
LINE
  5
29D
100
AcDbEntity
  8
0
370
    -3
  6
Continuous
100
AcDbLine
 10
-182.892009
 20
246.109277
 30
0.0
 11
-190.788103
 21
246.109277
 31
0.0
  0
ARC
  5
29E
100
AcDbEntity
  8
0
370
    -3
  6
Continuous
100
AcDbCircle
 10
-190.788103
 20
155.109675
 30
0.0
 40
3.0
100
AcDbArc
 50
90.0
 51
180.0
  0
ARC
  5
29F
100
AcDbEntity
  8
0
370
    -3
  6
Continuous
100
AcDbCircle
 10
-196.788103
 20
244.294009
 30
0.0
 40
3.0
100
AcDbArc
 50
0.0
 51
90.0
  0
ARC
  5
2A0
100
AcDbEntity
  8
0
370
    -3
  6
Continuous
100
AcDbCircle
 10
-196.788103
 20
251.205585
 30
0.0
 40
3.0
100
AcDbArc
 50
0.0
 51
90.0
  0
ARC
  5
2A1
100
AcDbEntity
  8
0
370
    -3
  6
Continuous
100
AcDbCircle
 10
-196.788103
 20
159.924546
 30
0.0
 40
3.0
100
AcDbArc
 50
270.0
 51
0.0
  0
ARC
  5
2A2
100
AcDbEntity
  8
0
370
    -3
  6
Continuous
100
AcDbCircle
 10
-196.788103
 20
153.01297
 30
0.0
 40
3.0
100
AcDbArc
 50
270.0
 51
0.0
  0
ARC
  5
2A3
100
AcDbEntity
  8
0
370
    -3
  6
Continuous
100
AcDbCircle
 10
-196.788103
 20
145.370277
 30
0.0
 40
3.0
100
AcDbArc
 50
269.018827
 51
0.0
  0
ARC
  5
2A4
100
AcDbEntity
  8
0
370
    -3
  6
Continuous
100
AcDbCircle
 10
-196.788103
 20
258.848278
 30
0.0
 40
3.0
100
AcDbArc
 50
0.0
 51
90.981173
  0
ARC
  5
2A5
100
AcDbEntity
  8
0
370
    -3
  6
Continuous
100
AcDbCircle
 10
-201.788103
 20
166.10801
 30
0.0
 40
3.0
100
AcDbArc
 50
180.0
 51
270.0
  0
ARC
  5
2A6
100
AcDbEntity
  8
0
370
    -3
  6
Continuous
100
AcDbCircle
 10
-201.788103
 20
147.01297
 30
0.0
 40
3.0
100
AcDbArc
 50
90.0
 51
180.0
  0
ARC
  5
2A7
100
AcDbEntity
  8
0
370
    -3
  6
Continuous
100
AcDbCircle
 10
-201.788103
 20
159.924546
 30
0.0
 40
3.0
100
AcDbArc
 50
180.0
 51
270.0
  0
ARC
  5
2A8
100
AcDbEntity
  8
0
370
    -3
  6
Continuous
100
AcDbCircle
 10
-207.788103
 20
145.609277
 30
0.0
 40
3.0
100
AcDbArc
 50
270.0
 51
0.0
  0
ARC
  5
2A9
100
AcDbEntity
  8
0
370
    -3
  6
Continuous
100
AcDbCircle
 10
-207.788103
 20
258.609277
 30
0.0
 40
3.0
100
AcDbArc
 50
0.0
 51
90.0
  0
ARC
  5
2AA
100
AcDbEntity
  8
0
370
    -3
  6
Continuous
100
AcDbCircle
 10
-201.788103
 20
238.110544
 30
0.0
 40
3.0
100
AcDbArc
 50
90.0
 51
180.0
  0
ARC
  5
2AB
100
AcDbEntity
  8
0
370
    -3
  6
Continuous
100
AcDbCircle
 10
-201.788103
 20
244.294009
 30
0.0
 40
3.0
100
AcDbArc
 50
90.0
 51
180.0
  0
ARC
  5
2AC
100
AcDbEntity
  8
0
370
    -3
  6
Continuous
100
AcDbCircle
 10
-201.788103
 20
257.205585
 30
0.0
 40
3.0
100
AcDbArc
 50
180.0
 51
270.0
  0
LINE
  5
2AD
100
AcDbEntity
  8
0
370
    -3
  6
Continuous
100
AcDbLine
 10
-204.788103
 20
159.924546
 30
0.0
 11
-204.788103
 21
202.109277
 31
0.0
  0
LINE
  5
2AE
100
AcDbEntity
  8
0
370
    -3
  6
Continuous
100
AcDbLine
 10
-201.788103
 20
163.10801
 30
0.0
 11
-196.788103
 21
163.10801
 31
0.0
  0
LINE
  5
2AF
100
AcDbEntity
  8
0
370
    -3
  6
Continuous
100
AcDbLine
 10
-204.788103
 20
146.609277
 30
0.0
 11
-204.788103
 21
147.01297
 31
0.0
  0
LINE
  5
2B0
100
AcDbEntity
  8
0
370
    -3
  6
Continuous
100
AcDbLine
 10
-204.788103
 20
146.609277
 30
0.0
 11
-204.788103
 21
147.01297
 31
0.0
  0
LINE
  5
2B1
100
AcDbEntity
  8
0
370
    -3
  6
Continuous
100
AcDbLine
 10
-204.788103
 20
146.609277
 30
0.0
 11
-204.788103
 21
145.609277
 31
0.0
  0
LINE
  5
2B2
100
AcDbEntity
  8
0
370
    -3
  6
Continuous
100
AcDbLine
 10
-204.788103
 20
257.609277
 30
0.0
 11
-204.788103
 21
257.205585
 31
0.0
  0
LINE
  5
2B3
100
AcDbEntity
  8
0
370
    -3
  6
Continuous
100
AcDbLine
 10
-204.788103
 20
244.294009
 30
0.0
 11
-204.788103
 21
202.109277
 31
0.0
  0
LINE
  5
2B4
100
AcDbEntity
  8
0
370
    -3
  6
Continuous
100
AcDbLine
 10
-201.788103
 20
241.110544
 30
0.0
 11
-196.788103
 21
241.110544
 31
0.0
  0
LINE
  5
2B5
100
AcDbEntity
  8
0
370
    -3
  6
Continuous
100
AcDbLine
 10
-204.788103
 20
257.609277
 30
0.0
 11
-204.788103
 21
258.609277
 31
0.0
  0
LINE
  5
2B6
100
AcDbEntity
  8
0
370
    -3
  6
Continuous
100
AcDbLine
 10
-201.788103
 20
254.205585
 30
0.0
 11
-196.788103
 21
254.205585
 31
0.0
  0
LINE
  5
2B7
100
AcDbEntity
  8
0
370
    -3
  6
Continuous
100
AcDbLine
 10
-201.788103
 20
247.294009
 30
0.0
 11
-196.788103
 21
247.294009
 31
0.0
  0
LINE
  5
2B8
100
AcDbEntity
  8
0
370
    -3
  6
Continuous
100
AcDbLine
 10
-201.788103
 20
156.924546
 30
0.0
 11
-196.788103
 21
156.924546
 31
0.0
  0
LINE
  5
2B9
100
AcDbEntity
  8
0
370
    -3
  6
Continuous
100
AcDbLine
 10
-201.788103
 20
150.01297
 30
0.0
 11
-196.788103
 21
150.01297
 31
0.0
  0
LINE
  5
2BA
100
AcDbEntity
  8
0
370
    -3
  6
Continuous
100
AcDbLine
 10
-211.788337
 20
222.109277
 30
0.0
 11
-204.788103
 21
222.109277
 31
0.0
  0
LINE
  5
2BB
100
AcDbEntity
  8
0
370
    -3
  6
Continuous
100
AcDbLine
 10
-211.788337
 20
182.109277
 30
0.0
 11
-204.788103
 21
182.109277
 31
0.0
  0
ARC
  5
2BC
100
AcDbEntity
  8
0
370
    -3
  6
Continuous
100
AcDbCircle
 10
-184.497868
 20
156.109675
 30
0.0
 40
2.0
100
AcDbArc
 50
359.0
 51
90.0
  0
ARC
  5
2BD
100
AcDbEntity
  8
0
370
    -3
  6
Continuous
100
AcDbCircle
 10
-182.892009
 20
248.109277
 30
0.0
 40
2.0
100
AcDbArc
 50
270.0
 51
359.0
  0
LINE
  5
2BE
100
AcDbEntity
  8
0
370
    -3
  6
Continuous
100
AcDbLine
 10
-211.788337
 20
261.573463
 30
0.0
 11
-196.839474
 21
261.847838
 31
0.0
  0
LINE
  5
2BF
100
AcDbEntity
  8
0
370
    -3
  6
Continuous
100
AcDbLine
 10
-211.788337
 20
142.64509
 30
0.0
 11
-196.839474
 21
142.370717
 31
0.0
  0
LINE
  5
2C0
100
AcDbEntity
  8
0
370
    -3
  6
Continuous
100
AcDbLine
 10
-190.788103
 20
158.109675
 30
0.0
 11
-184.497868
 21
158.109675
 31
0.0
  0
LINE
  5
2C1
100
AcDbEntity
  8
0
370
    -3
  6
Continuous
100
AcDbLine
 10
-180.848067
 20
250.609277
 30
0.0
 11
-180.848067
 21
260.109277
 31
0.0
  0
INSERT
  5
2D1
100
AcDbEntity
  8
0
100
AcDbBlockReference
  2
ZU_SYM__USERS_HOME_SYMBOL_STD_SYM_B01_-1
 10
-217.788344
 20
157.915103
 30
0.0
  0
LINE
  5
2D2
100
AcDbEntity
  8
0
370
    -3
  6
Continuous
100
AcDbLine
 10
-238.788337
 20
153.609277
 30
0.0
 11
-238.788337
 21
186.109277
 31
0.0
  0
ARC
  5
2D3
100
AcDbEntity
  8
0
370
    -3
  6
Continuous
100
AcDbCircle
 10
-215.788337
 20
144.821652
 30
0.0
 40
2.0
100
AcDbArc
 50
180.0
 51
267.0
  0
LINE
  5
2D4
100
AcDbEntity
  8
0
370
    -3
  6
Continuous
100
AcDbLine
 10
-217.788337
 20
144.821652
 30
0.0
 11
-217.788337
 21
169.6787
 31
0.0
  0
LINE
  5
2D5
100
AcDbEntity
  8
0
370
    -3
  6
CENTER
100
AcDbLine
 10
-227.788337
 20
192.408497
 30
0.0
 11
-227.788337
 21
213.268767
 31
0.0
  0
LINE
  5
2D6
100
AcDbEntity
  8
0
370
    -3
  6
Continuous
100
AcDbLine
 10
-211.788337
 20
142.609277
 30
0.0
 11
-218.945344
 21
142.98436
 31
0.0
  0
ARC
  5
2D7
100
AcDbEntity
  8
0
370
    -3
  6
Continuous
100
AcDbCircle
 10
-218.788337
 20
145.980248
 30
0.0
 40
3.0
100
AcDbArc
 50
180.0
 51
267.0
  0
ARC
  5
2D8
100
AcDbEntity
  8
0
370
    -3
  6
Continuous
100
AcDbCircle
 10
-219.788337
 20
169.6787
 30
0.0
 40
2.0
100
AcDbArc
 50
0.0
 51
90.0
  0
ARC
  5
2D9
100
AcDbEntity
  8
0
370
    -3
  6
Continuous
100
AcDbCircle
 10
-219.788337
 20
173.6787
 30
0.0
 40
2.0
100
AcDbArc
 50
180.0
 51
270.0
  0
LINE
  5
2DA
100
AcDbEntity
  8
0
370
    -3
  6
Continuous
100
AcDbLine
 10
-253.788337
 20
148.609277
 30
0.0
 11
-224.788337
 21
148.609277
 31
0.0
  0
ARC
  5
2DB
100
AcDbEntity
  8
0
370
    -3
  6
Continuous
100
AcDbCircle
 10
-243.788337
 20
153.609277
 30
0.0
 40
5.0
100
AcDbArc
 50
270.0
 51
0.0
  0
LINE
  5
2DC
100
AcDbEntity
  8
0
370
    -3
  6
Continuous
100
AcDbLine
 10
-253.788337
 20
151.109277
 30
0.0
 11
-243.788337
 21
151.109277
 31
0.0
  0
ARC
  5
2DD
100
AcDbEntity
  8
0
370
    -3
  6
Continuous
100
AcDbCircle
 10
-243.788337
 20
156.109277
 30
0.0
 40
5.0
100
AcDbArc
 50
270.0
 51
0.0
  0
ARC
  5
2DE
100
AcDbEntity
  8
0
370
    -3
  6
Continuous
100
AcDbCircle
 10
-224.788337
 20
145.609277
 30
0.0
 40
3.0
100
AcDbArc
 50
0.0
 51
90.0
  0
LINE
  5
2DF
100
AcDbEntity
  8
0
370
    -3
  6
Continuous
100
AcDbLine
 10
-253.788337
 20
189.109277
 30
0.0
 11
-216.788337
 21
189.109277
 31
0.0
  0
ARC
  5
2E0
100
AcDbEntity
  8
0
370
    -3
  6
Continuous
100
AcDbCircle
 10
-235.788337
 20
186.109277
 30
0.0
 40
3.0
100
AcDbArc
 50
90.0
 51
180.0
  0
ARC
  5
2E1
100
AcDbEntity
  8
0
370
    -3
  6
Continuous
100
AcDbCircle
 10
-235.788337
 20
168.6787
 30
0.0
 40
3.0
100
AcDbArc
 50
90.0
 51
180.0
  0
LINE
  5
2E2
100
AcDbEntity
  8
0
370
    -3
  6
Continuous
100
AcDbLine
 10
-221.788337
 20
171.6787
 30
0.0
 11
-235.788337
 21
171.6787
 31
0.0
  0
LINE
  5
2E3
100
AcDbEntity
  8
0
370
    -3
  6
Continuous
100
AcDbLine
 10
-221.788337
 20
145.609277
 30
0.0
 11
-221.788337
 21
189.109277
 31
0.0
  0
INSERT
  5
2F3
100
AcDbEntity
  8
0
100
AcDbBlockReference
  2
ZU_SYM__USERS_HOME_SYMBOL_STD_SYM_B01_00002-1
 10
-217.788344
 20
246.30345
 30
0.0
 41
-1.0
 50
180.0
  0
LINE
  5
2F4
100
AcDbEntity
  8
0
370
    -3
  6
Continuous
100
AcDbLine
 10
-238.788337
 20
250.609277
 30
0.0
 11
-238.788337
 21
218.109277
 31
0.0
  0
ARC
  5
2F5
100
AcDbEntity
  8
0
370
    -3
  6
Continuous
100
AcDbCircle
 10
-215.788337
 20
259.396901
 30
0.0
 40
2.0
100
AcDbArc
 50
93.0
 51
180.0
  0
LINE
  5
2F6
100
AcDbEntity
  8
0
370
    -3
  6
Continuous
100
AcDbLine
 10
-217.788337
 20
259.396901
 30
0.0
 11
-217.788337
 21
234.539854
 31
0.0
  0
LINE
  5
2F7
100
AcDbEntity
  8
0
370
    -3
  6
Continuous
100
AcDbLine
 10
-211.788337
 20
261.609277
 30
0.0
 11
-218.945344
 21
261.234194
 31
0.0
  0
ARC
  5
2F8
100
AcDbEntity
  8
0
370
    -3
  6
Continuous
100
AcDbCircle
 10
-218.788337
 20
258.238305
 30
0.0
 40
3.0
100
AcDbArc
 50
93.0
 51
180.0
  0
ARC
  5
2F9
100
AcDbEntity
  8
0
370
    -3
  6
Continuous
100
AcDbCircle
 10
-219.788337
 20
234.539854
 30
0.0
 40
2.0
100
AcDbArc
 50
270.0
 51
0.0
  0
ARC
  5
2FA
100
AcDbEntity
  8
0
370
    -3
  6
Continuous
100
AcDbCircle
 10
-219.788337
 20
230.539854
 30
0.0
 40
2.0
100
AcDbArc
 50
90.0
 51
180.0
  0
LINE
  5
2FB
100
AcDbEntity
  8
0
370
    -3
  6
Continuous
100
AcDbLine
 10
-253.788337
 20
255.609277
 30
0.0
 11
-224.788337
 21
255.609277
 31
0.0
  0
ARC
  5
2FC
100
AcDbEntity
  8
0
370
    -3
  6
Continuous
100
AcDbCircle
 10
-243.788337
 20
250.609277
 30
0.0
 40
5.0
100
AcDbArc
 50
0.0
 51
90.0
  0
LINE
  5
2FD
100
AcDbEntity
  8
0
370
    -3
  6
Continuous
100
AcDbLine
 10
-253.788337
 20
253.109277
 30
0.0
 11
-243.788337
 21
253.109277
 31
0.0
  0
ARC
  5
2FE
100
AcDbEntity
  8
0
370
    -3
  6
Continuous
100
AcDbCircle
 10
-243.788337
 20
248.109277
 30
0.0
 40
5.0
100
AcDbArc
 50
0.0
 51
90.0
  0
ARC
  5
2FF
100
AcDbEntity
  8
0
370
    -3
  6
Continuous
100
AcDbCircle
 10
-224.788337
 20
258.609277
 30
0.0
 40
3.0
100
AcDbArc
 50
270.0
 51
0.0
  0
LINE
  5
300
100
AcDbEntity
  8
0
370
    -3
  6
Continuous
100
AcDbLine
 10
-253.788337
 20
215.109277
 30
0.0
 11
-216.788337
 21
215.109277
 31
0.0
  0
ARC
  5
301
100
AcDbEntity
  8
0
370
    -3
  6
Continuous
100
AcDbCircle
 10
-235.788337
 20
218.109277
 30
0.0
 40
3.0
100
AcDbArc
 50
180.0
 51
270.0
  0
ARC
  5
302
100
AcDbEntity
  8
0
370
    -3
  6
Continuous
100
AcDbCircle
 10
-235.788337
 20
235.539854
 30
0.0
 40
3.0
100
AcDbArc
 50
180.0
 51
270.0
  0
LINE
  5
303
100
AcDbEntity
  8
0
370
    -3
  6
Continuous
100
AcDbLine
 10
-221.788337
 20
232.539854
 30
0.0
 11
-235.788337
 21
232.539854
 31
0.0
  0
LINE
  5
304
100
AcDbEntity
  8
0
370
    -3
  6
Continuous
100
AcDbLine
 10
-221.788337
 20
258.609277
 30
0.0
 11
-221.788337
 21
215.109277
 31
0.0
  0
ARC
  5
305
100
AcDbEntity
  8
0
370
    -3
  6
Continuous
100
AcDbCircle
 10
-216.788337
 20
212.109277
 30
0.0
 40
3.0
100
AcDbArc
 50
0.0
 51
90.0
  0
ARC
  5
306
100
AcDbEntity
  8
0
370
    -3
  6
Continuous
100
AcDbCircle
 10
-216.788337
 20
192.109277
 30
0.0
 40
3.0
100
AcDbArc
 50
270.0
 51
0.0
  0
LINE
  5
307
100
AcDbEntity
  8
0
370
    -3
  6
Continuous
100
AcDbLine
 10
-213.788337
 20
212.109277
 30
0.0
 11
-213.788337
 21
192.109277
 31
0.0
  0
LINE
  5
308
100
AcDbEntity
  8
0
370
    -3
  6
Continuous
100
AcDbLine
 10
-211.788337
 20
142.609277
 30
0.0
 11
-211.788337
 21
261.609277
 31
0.0
  0
LINE
  5
309
100
AcDbEntity
  8
0
370
    -3
  6
CENTER
100
AcDbLine
 10
272.149895
 20
-81.837859
 30
0.0
 11
210.503637
 21
-81.837859
 31
0.0
  0
ARC
  5
30A
100
AcDbEntity
  8
0
370
    -3
  6
Continuous
100
AcDbCircle
 10
240.712033
 20
-81.837859
 30
0.0
 40
17.5
100
AcDbArc
 50
106.60155
 51
73.39845
  0
CIRCLE
  5
30B
100
AcDbEntity
  8
0
370
    -3
  6
Continuous
100
AcDbCircle
 10
240.712033
 20
-81.837859
 30
0.0
 40
24.0
  0
LINE
  5
30C
100
AcDbEntity
  8
0
370
    -3
  6
Continuous
100
AcDbLine
 10
-253.788337
 20
149.609277
 30
0.0
 11
-253.788337
 21
202.109277
 31
0.0
  0
LINE
  5
30D
100
AcDbEntity
  8
0
370
    -3
  6
Continuous
100
AcDbLine
 10
-253.788337
 20
254.609277
 30
0.0
 11
-253.788337
 21
202.109277
 31
0.0
  0
LINE
  5
30E
100
AcDbEntity
  8
0
370
    -3
  6
Continuous
100
AcDbLine
 10
-211.788337
 20
-157.320247
 30
0.0
 11
-185.235746
 21
-157.774997
 31
0.0
  0
LINE
  5
30F
100
AcDbEntity
  8
0
370
    -3
  6
Continuous
100
AcDbLine
 10
-211.788337
 20
-38.355158
 30
0.0
 11
-185.235746
 21
-37.900408
 31
0.0
  0
LINE
  5
310
100
AcDbEntity
  8
0
370
    -3
  6
Continuous
100
AcDbLine
 10
-211.788337
 20
-97.837703
 30
0.0
 11
-211.788337
 21
-38.337703
 31
0.0
  0
LINE
  5
311
100
AcDbEntity
  8
0
370
    -3
  6
Continuous
100
AcDbLine
 10
-211.788337
 20
-97.837703
 30
0.0
 11
-211.788337
 21
-157.337703
 31
0.0
  0
LINE
  5
312
100
AcDbEntity
  8
0
370
    -3
  6
Continuous
100
AcDbLine
 10
-211.788337
 20
-117.837703
 30
0.0
 11
-204.788337
 21
-117.837703
 31
0.0
  0
LINE
  5
313
100
AcDbEntity
  8
0
370
    -3
  6
Continuous
100
AcDbLine
 10
-211.788337
 20
-77.837703
 30
0.0
 11
-204.788337
 21
-77.837703
 31
0.0
  0
LINE
  5
314
100
AcDbEntity
  8
0
370
    -3
  6
Continuous
100
AcDbLine
 10
-201.788337
 20
-149.93401
 30
0.0
 11
-196.788337
 21
-149.93401
 31
0.0
  0
LINE
  5
315
100
AcDbEntity
  8
0
370
    -3
  6
Continuous
100
AcDbLine
 10
-201.788337
 20
-143.022434
 30
0.0
 11
-196.788337
 21
-143.022434
 31
0.0
  0
LINE
  5
316
100
AcDbEntity
  8
0
370
    -3
  6
Continuous
100
AcDbLine
 10
-201.788337
 20
-52.652971
 30
0.0
 11
-196.788337
 21
-52.652971
 31
0.0
  0
LINE
  5
317
100
AcDbEntity
  8
0
370
    -3
  6
Continuous
100
AcDbLine
 10
-201.788337
 20
-45.741395
 30
0.0
 11
-196.788337
 21
-45.741395
 31
0.0
  0
LINE
  5
318
100
AcDbEntity
  8
0
370
    -3
  6
Continuous
100
AcDbLine
 10
-204.788337
 20
-42.337703
 30
0.0
 11
-204.788337
 21
-41.337703
 31
0.0
  0
LINE
  5
319
100
AcDbEntity
  8
0
370
    -3
  6
Continuous
100
AcDbLine
 10
-201.788337
 20
-58.836436
 30
0.0
 11
-196.788337
 21
-58.836436
 31
0.0
  0
LINE
  5
31A
100
AcDbEntity
  8
0
370
    -3
  6
Continuous
100
AcDbLine
 10
-204.788337
 20
-55.652971
 30
0.0
 11
-204.788337
 21
-97.837703
 31
0.0
  0
LINE
  5
31B
100
AcDbEntity
  8
0
370
    -3
  6
Continuous
100
AcDbLine
 10
-204.788337
 20
-42.337703
 30
0.0
 11
-204.788337
 21
-42.741395
 31
0.0
  0
LINE
  5
31C
100
AcDbEntity
  8
0
370
    -3
  6
Continuous
100
AcDbLine
 10
-204.788337
 20
-153.337703
 30
0.0
 11
-204.788337
 21
-154.337703
 31
0.0
  0
LINE
  5
31D
100
AcDbEntity
  8
0
370
    -3
  6
Continuous
100
AcDbLine
 10
-204.788337
 20
-153.337703
 30
0.0
 11
-204.788337
 21
-152.93401
 31
0.0
  0
LINE
  5
31E
100
AcDbEntity
  8
0
370
    -3
  6
Continuous
100
AcDbLine
 10
-204.788337
 20
-153.337703
 30
0.0
 11
-204.788337
 21
-152.93401
 31
0.0
  0
LINE
  5
31F
100
AcDbEntity
  8
0
370
    -3
  6
Continuous
100
AcDbLine
 10
-201.788337
 20
-136.838969
 30
0.0
 11
-196.788337
 21
-136.838969
 31
0.0
  0
LINE
  5
320
100
AcDbEntity
  8
0
370
    -3
  6
Continuous
100
AcDbLine
 10
-204.788337
 20
-140.022434
 30
0.0
 11
-204.788337
 21
-97.837703
 31
0.0
  0
ARC
  5
321
100
AcDbEntity
  8
0
370
    -3
  6
Continuous
100
AcDbCircle
 10
-201.788337
 20
-42.741395
 30
0.0
 40
3.0
100
AcDbArc
 50
180.0
 51
270.0
  0
ARC
  5
322
100
AcDbEntity
  8
0
370
    -3
  6
Continuous
100
AcDbCircle
 10
-201.788337
 20
-55.652971
 30
0.0
 40
3.0
100
AcDbArc
 50
90.0
 51
180.0
  0
ARC
  5
323
100
AcDbEntity
  8
0
370
    -3
  6
Continuous
100
AcDbCircle
 10
-201.788337
 20
-61.836436
 30
0.0
 40
3.0
100
AcDbArc
 50
90.0
 51
180.0
  0
ARC
  5
324
100
AcDbEntity
  8
0
370
    -3
  6
Continuous
100
AcDbCircle
 10
-207.788337
 20
-41.337703
 30
0.0
 40
3.0
100
AcDbArc
 50
0.0
 51
90.0
  0
ARC
  5
325
100
AcDbEntity
  8
0
370
    -3
  6
Continuous
100
AcDbCircle
 10
-207.788337
 20
-154.337703
 30
0.0
 40
3.0
100
AcDbArc
 50
270.0
 51
0.0
  0
ARC
  5
326
100
AcDbEntity
  8
0
370
    -3
  6
Continuous
100
AcDbCircle
 10
-201.788337
 20
-140.022434
 30
0.0
 40
3.0
100
AcDbArc
 50
180.0
 51
270.0
  0
ARC
  5
327
100
AcDbEntity
  8
0
370
    -3
  6
Continuous
100
AcDbCircle
 10
-201.788337
 20
-152.93401
 30
0.0
 40
3.0
100
AcDbArc
 50
90.0
 51
180.0
  0
ARC
  5
328
100
AcDbEntity
  8
0
370
    -3
  6
Continuous
100
AcDbCircle
 10
-201.788337
 20
-133.838969
 30
0.0
 40
3.0
100
AcDbArc
 50
180.0
 51
270.0
  0
LINE
  5
329
100
AcDbEntity
  8
0
370
    -3
  6
Continuous
100
AcDbLine
 10
-193.788337
 20
-154.576703
 30
0.0
 11
-193.788337
 21
-41.098702
 31
0.0
  0
ARC
  5
32A
100
AcDbEntity
  8
0
370
    -3
  6
Continuous
100
AcDbCircle
 10
-196.788337
 20
-41.098702
 30
0.0
 40
3.0
100
AcDbArc
 50
0.0
 51
90.981173
  0
ARC
  5
32B
100
AcDbEntity
  8
0
370
    -3
  6
Continuous
100
AcDbCircle
 10
-196.788337
 20
-154.576703
 30
0.0
 40
3.0
100
AcDbArc
 50
269.018827
 51
0.0
  0
ARC
  5
32C
100
AcDbEntity
  8
0
370
    -3
  6
Continuous
100
AcDbCircle
 10
-196.788337
 20
-146.93401
 30
0.0
 40
3.0
100
AcDbArc
 50
270.0
 51
0.0
  0
ARC
  5
32D
100
AcDbEntity
  8
0
370
    -3
  6
Continuous
100
AcDbCircle
 10
-196.788337
 20
-140.022434
 30
0.0
 40
3.0
100
AcDbArc
 50
270.0
 51
0.0
  0
ARC
  5
32E
100
AcDbEntity
  8
0
370
    -3
  6
Continuous
100
AcDbCircle
 10
-196.788337
 20
-48.741395
 30
0.0
 40
3.0
100
AcDbArc
 50
0.0
 51
90.0
  0
ARC
  5
32F
100
AcDbEntity
  8
0
370
    -3
  6
Continuous
100
AcDbCircle
 10
-196.788337
 20
-55.652971
 30
0.0
 40
3.0
100
AcDbArc
 50
0.0
 51
90.0
  0
LINE
  5
330
100
AcDbEntity
  8
0
370
    -3
  6
Continuous
100
AcDbLine
 10
-211.788337
 20
-157.337703
 30
0.0
 11
-211.788337
 21
-97.837703
 31
0.0
  0
LINE
  5
331
100
AcDbEntity
  8
0
370
    -3
  6
Continuous
100
AcDbLine
 10
-211.788337
 20
-38.337703
 30
0.0
 11
-211.788337
 21
-97.837703
 31
0.0
  0
LINE
  5
332
100
AcDbEntity
  8
0
370
    -3
  6
Continuous
100
AcDbLine
 10
-253.788337
 20
-73.337703
 30
0.0
 11
-253.788337
 21
-20.837703
 31
0.0
  0
LINE
  5
333
100
AcDbEntity
  8
0
370
    -3
  6
Continuous
100
AcDbLine
 10
-253.788337
 20
-73.337703
 30
0.0
 11
-253.788337
 21
-125.84643
 31
0.0
  0
LINE
  5
334
100
AcDbEntity
  8
0
370
    -3
  6
Continuous
100
AcDbLine
 10
-221.788337
 20
-63.779741
 30
0.0
 11
-221.788337
 21
-41.974965
 31
0.0
  0
ARC
  5
335
100
AcDbEntity
  8
0
370
    -3
  6
Continuous
100
AcDbCircle
 10
-219.788337
 20
-68.67872
 30
0.0
 40
2.0
100
AcDbArc
 50
101.536959
 51
180.0
  0
LINE
  5
336
100
AcDbEntity
  8
0
370
    -3
  6
Continuous
100
AcDbLine
 10
-221.788337
 20
-152.966731
 30
0.0
 11
-221.788337
 21
-68.67872
 31
0.0
  0
LINE
  5
337
100
AcDbEntity
  8
0
370
    -3
  6
Continuous
100
AcDbLine
 10
-217.788337
 20
-63.779741
 30
0.0
 11
-217.788337
 21
-41.130816
 31
0.0
  0
ARC
  5
338
100
AcDbEntity
  8
0
370
    -3
  6
Continuous
100
AcDbCircle
 10
-220.788337
 20
-63.779741
 30
0.0
 40
3.0
100
AcDbArc
 50
270.0
 51
0.0
  0
LINE
  5
339
100
AcDbEntity
  8
0
370
    -3
  6
Continuous
100
AcDbLine
 10
-220.788337
 20
-66.779741
 30
0.0
 11
-235.788337
 21
-66.779741
 31
0.0
  0
ARC
  5
33A
100
AcDbEntity
  8
0
370
    -3
  6
Continuous
100
AcDbCircle
 10
-224.788337
 20
-63.779741
 30
0.0
 40
3.0
100
AcDbArc
 50
270.0
 51
0.0
  0
ARC
  5
33B
100
AcDbEntity
  8
0
370
    -3
  6
Continuous
100
AcDbCircle
 10
-235.788337
 20
-63.779741
 30
0.0
 40
3.0
100
AcDbArc
 50
180.0
 51
270.0
  0
LINE
  5
33C
100
AcDbEntity
  8
0
370
    -3
  6
Continuous
100
AcDbLine
 10
-238.788337
 20
-63.779741
 30
0.0
 11
-238.788337
 21
-61.37558
 31
0.0
  0
LINE
  5
33D
100
AcDbEntity
  8
0
370
    -3
  6
Continuous
100
AcDbLine
 10
-224.788337
 20
-93.337703
 30
0.0
 11
-253.788337
 21
-93.337703
 31
0.0
  0
LINE
  5
33E
100
AcDbEntity
  8
0
370
    -3
  6
Continuous
100
AcDbLine
 10
-239.788337
 20
-53.337703
 30
0.0
 11
-253.788337
 21
-53.337703
 31
0.0
  0
LINE
  5
33F
100
AcDbEntity
  8
0
370
    -3
  6
Continuous
100
AcDbLine
 10
-221.788337
 20
-77.837703
 30
0.0
 11
-211.788337
 21
-77.837703
 31
0.0
  0
LINE
  5
340
100
AcDbEntity
  8
0
370
    -3
  6
Continuous
100
AcDbLine
 10
-211.788337
 20
-156.337703
 30
0.0
 11
-211.788337
 21
-39.337703
 31
0.0
  0
LINE
  5
341
100
AcDbEntity
  8
0
370
    -3
  6
Continuous
100
AcDbLine
 10
-221.788337
 20
-117.837703
 30
0.0
 11
-211.788337
 21
-117.837703
 31
0.0
  0
ARC
  5
342
100
AcDbEntity
  8
0
370
    -3
  6
Continuous
100
AcDbCircle
 10
-238.788337
 20
-59.643529
 30
0.0
 40
1.0
100
AcDbArc
 50
180.0
 51
240.0
  0
LINE
  5
343
100
AcDbEntity
  8
0
370
    -3
  6
Continuous
100
AcDbLine
 10
-239.788337
 20
-59.643529
 30
0.0
 11
-239.788337
 21
-38.137955
 31
0.0
  0
ARC
  5
344
100
AcDbEntity
  8
0
370
    -3
  6
Continuous
100
AcDbCircle
 10
-239.788337
 20
-36.405904
 30
0.0
 40
1.0
100
AcDbArc
 50
300.0
 51
0.0
  0
LINE
  5
345
100
AcDbEntity
  8
0
370
    -3
  6
Continuous
100
AcDbLine
 10
-238.788337
 20
-36.405904
 30
0.0
 11
-238.788337
 21
-26.242339
 31
0.0
  0
ARC
  5
346
100
AcDbEntity
  8
0
370
    -3
  6
Continuous
100
AcDbCircle
 10
-238.788337
 20
-38.137955
 30
0.0
 40
1.0
100
AcDbArc
 50
120.0
 51
180.0
  0
ARC
  5
347
100
AcDbEntity
  8
0
370
    -3
  6
Continuous
100
AcDbCircle
 10
-233.788337
 20
-33.17787
 30
0.0
 40
5.0
100
AcDbArc
 50
180.0
 51
267.0
  0
ARC
  5
348
100
AcDbEntity
  8
0
370
    -3
  6
Continuous
100
AcDbCircle
 10
-239.788337
 20
-61.37558
 30
0.0
 40
1.0
100
AcDbArc
 50
0.0
 51
60.0
  0
ARC
  5
349
100
AcDbEntity
  8
0
370
    -3
  6
Continuous
100
AcDbCircle
 10
-215.788337
 20
-41.130816
 30
0.0
 40
2.0
100
AcDbArc
 50
87.0
 51
180.0
  0
ARC
  5
34A
100
AcDbEntity
  8
0
370
    -3
  6
Continuous
100
AcDbCircle
 10
-215.788337
 20
-154.125327
 30
0.0
 40
2.0
100
AcDbArc
 50
180.0
 51
267.0
  0
LINE
  5
34B
100
AcDbEntity
  8
0
370
    -3
  6
Continuous
100
AcDbLine
 10
-217.788337
 20
-154.125327
 30
0.0
 11
-217.788337
 21
-137.031876
 31
0.0
  0
ARC
  5
34C
100
AcDbEntity
  8
0
370
    -3
  6
Continuous
100
AcDbCircle
 10
-219.788337
 20
-133.031876
 30
0.0
 40
2.0
100
AcDbArc
 50
180.0
 51
270.0
  0
ARC
  5
34D
100
AcDbEntity
  8
0
370
    -3
  6
Continuous
100
AcDbCircle
 10
-219.788337
 20
-137.031876
 30
0.0
 40
2.0
100
AcDbArc
 50
0.0
 51
90.0
  0
ARC
  5
34E
100
AcDbEntity
  8
0
370
    -3
  6
Continuous
100
AcDbCircle
 10
-218.788337
 20
-41.974965
 30
0.0
 40
3.0
100
AcDbArc
 50
87.0
 51
180.0
  0
LINE
  5
34F
100
AcDbEntity
  8
0
370
    -3
  6
Continuous
100
AcDbLine
 10
-211.788337
 20
-39.337703
 30
0.0
 11
-234.050016
 21
-38.171017
 31
0.0
  0
ARC
  5
350
100
AcDbEntity
  8
0
370
    -3
  6
Continuous
100
AcDbCircle
 10
-243.788321
 20
-26.242339
 30
0.0
 40
5.0
100
AcDbArc
 50
0.0
 51
88.0
  0
LINE
  5
351
100
AcDbEntity
  8
0
370
    -3
  6
Continuous
100
AcDbLine
 10
-211.788337
 20
-154.137703
 30
0.0
 11
-211.788337
 21
-156.337703
 31
0.0
  0
LINE
  5
352
100
AcDbEntity
  8
0
370
    -3
  6
Continuous
100
AcDbLine
 10
-216.683638
 20
-22.133428
 30
0.0
 11
-253.788352
 21
-20.837703
 31
0.0
  0
LINE
  5
353
100
AcDbEntity
  8
0
370
    -3
  6
Continuous
100
AcDbLine
 10
-224.735964
 20
-126.353541
 30
0.0
 11
-253.788337
 21
-125.84643
 31
0.0
  0
LINE
  5
354
100
AcDbEntity
  8
0
370
    -3
  6
CENTER
100
AcDbLine
 10
-227.788337
 20
-42.905053
 30
0.0
 11
-227.788337
 21
-18.441912
 31
0.0
  0
LINE
  5
355
100
AcDbEntity
  8
0
370
    -3
  6
Continuous
100
AcDbLine
 10
-213.788337
 20
-37.337703
 30
0.0
 11
-213.788337
 21
-25.1316
 31
0.0
  0
LINE
  5
356
100
AcDbEntity
  8
0
370
    -3
  6
Continuous
100
AcDbLine
 10
-245.909531
 20
-127.015935
 30
0.0
 11
-222.581901
 21
-154.816722
 31
0.0
  0
LINE
  5
357
100
AcDbEntity
  8
0
370
    -3
  6
Continuous
100
AcDbLine
 10
-211.788337
 20
-156.337703
 30
0.0
 11
-220.440776
 21
-155.884247
 31
0.0
  0
ARC
  5
358
100
AcDbEntity
  8
0
370
    -3
  6
Continuous
100
AcDbCircle
 10
-211.788337
 20
-37.337703
 30
0.0
 40
2.0
100
AcDbArc
 50
180.0
 51
270.0
  0
ARC
  5
359
100
AcDbEntity
  8
0
370
    -3
  6
Continuous
100
AcDbCircle
 10
-248.207664
 20
-128.944298
 30
0.0
 40
3.0
100
AcDbArc
 50
40.0
 51
89.0
  0
ARC
  5
35A
100
AcDbEntity
  8
0
370
    -3
  6
Continuous
100
AcDbCircle
 10
-220.283768
 20
-152.888359
 30
0.0
 40
3.0
100
AcDbArc
 50
220.0
 51
267.0
  0
ARC
  5
35B
100
AcDbEntity
  8
0
370
    -3
  6
Continuous
100
AcDbCircle
 10
-216.788337
 20
-25.1316
 30
0.0
 40
3.0
100
AcDbArc
 50
0.0
 51
88.0
  0
ARC
  5
35C
100
AcDbEntity
  8
0
370
    -3
  6
Continuous
100
AcDbCircle
 10
-224.788337
 20
-129.353084
 30
0.0
 40
3.0
100
AcDbArc
 50
0.0
 51
89.0
  0
ARC
  5
35D
100
AcDbEntity
  8
0
370
    -3
  6
Continuous
100
AcDbCircle
 10
-218.788337
 20
-152.966731
 30
0.0
 40
3.0
100
AcDbArc
 50
180.0
 51
267.0
  0
LINE
  5
35E
100
AcDbEntity
  8
0
370
    -3
  6
Continuous
100
AcDbLine
 10
-211.788337
 20
-97.837703
 30
0.0
 11
-211.788337
 21
-39.337703
 31
0.0
  0
ARC
  5
35F
100
AcDbEntity
  8
0
370
    -3
  6
Continuous
100
AcDbCircle
 10
-224.788337
 20
-96.337703
 30
0.0
 40
3.0
100
AcDbArc
 50
0.0
 51
90.0
  0
INSERT
  5
36F
100
AcDbEntity
  8
0
100
AcDbBlockReference
  2
ZU_SYM__USERS_HOME_SYMBOL_STD_SYM_B01_00003-1
 10
-217.788337
 20
-142.031876
 30
0.0
  0
INSERT
  5
37F
100
AcDbEntity
  8
0
100
AcDbBlockReference
  2
ZU_SYM__USERS_HOME_SYMBOL_STD_SYM_B01_00004-1
 10
-217.788337
 20
-53.643529
 30
0.0
  0
LINE
  5
380
100
AcDbEntity
  8
0
370
    -3
  6
Continuous
100
AcDbLine
 10
335.712036
 20
-185.600146
 30
0.0
 11
430.212036
 21
-183.950642
 31
0.0
  0
LINE
  5
381
100
AcDbEntity
  8
0
370
    -3
  6
Continuous
100
AcDbLine
 10
323.711638
 20
-184.891067
 30
0.0
 11
324.211486
 21
-185.399716
 31
0.0
  0
LINE
  5
382
100
AcDbEntity
  8
0
370
    -3
  6
Continuous
100
AcDbLine
 10
430.212036
 20
-183.950955
 30
0.0
 11
439.712036
 21
-183.950955
 31
0.0
  0
LINE
  5
383
100
AcDbEntity
  8
0
370
    -3
  6
Continuous
100
AcDbLine
 10
324.211486
 20
-185.399716
 30
0.0
 11
335.712036
 21
-185.600459
 31
0.0
  0
ARC
  5
384
100
AcDbEntity
  8
0
370
    -3
  6
DASHED
100
AcDbCircle
 10
728.312036
 20
-73.337859
 30
0.0
 40
400.6
100
AcDbArc
 50
175.470807
 51
180.0
  0
ARC
  5
385
100
AcDbEntity
  8
0
370
    -3
  6
DASHED
100
AcDbCircle
 10
728.312036
 20
-73.337859
 30
0.0
 40
400.6
100
AcDbArc
 50
180.0
 51
184.529193
  0
LINE
  5
386
100
AcDbEntity
  8
0
370
    -3
  6
DASHED
100
AcDbLine
 10
337.111429
 20
-120.095448
 30
0.0
 11
334.932684
 21
-117.916703
 31
0.0
  0
ARC
  5
387
100
AcDbEntity
  8
0
370
    -3
  6
DASHED
100
AcDbCircle
 10
365.819965
 20
-91.386913
 30
0.0
 40
40.6
100
AcDbArc
 50
225.0
 51
267.469876
  0
ARC
  5
388
100
AcDbEntity
  8
0
370
    -3
  6
DASHED
100
AcDbCircle
 10
349.499083
 20
-103.350303
 30
0.0
 40
20.6
100
AcDbArc
 50
184.529945
 51
225.0
  0
ARC
  5
389
100
AcDbEntity
  8
0
370
    -3
  6
DASHED
100
AcDbCircle
 10
381.712036
 20
268.262141
 30
0.0
 40
400.6
100
AcDbArc
 50
270.0
 51
272.529361
  0
ARC
  5
38A
100
AcDbEntity
  8
0
370
    -3
  6
DASHED
100
AcDbCircle
 10
381.712036
 20
268.262141
 30
0.0
 40
400.6
100
AcDbArc
 50
267.470639
 51
270.0
  0
ARC
  5
38B
100
AcDbEntity
  8
0
370
    -3
  6
DASHED
100
AcDbCircle
 10
35.112036
 20
-73.337859
 30
0.0
 40
400.6
100
AcDbArc
 50
355.470807
 51
0.0
  0
ARC
  5
38C
100
AcDbEntity
  8
0
370
    -3
  6
DASHED
100
AcDbCircle
 10
35.112036
 20
-73.337859
 30
0.0
 40
400.6
100
AcDbArc
 50
0.0
 51
4.529193
  0
ARC
  5
38D
100
AcDbEntity
  8
0
370
    -3
  6
DASHED
100
AcDbCircle
 10
381.712036
 20
-414.937859
 30
0.0
 40
400.6
100
AcDbArc
 50
90.0
 51
92.529361
  0
ARC
  5
38E
100
AcDbEntity
  8
0
370
    -3
  6
DASHED
100
AcDbCircle
 10
381.712036
 20
-414.937859
 30
0.0
 40
400.6
100
AcDbArc
 50
87.470639
 51
90.0
  0
ARC
  5
38F
100
AcDbEntity
  8
0
370
    -3
  6
DASHED
100
AcDbCircle
 10
397.604108
 20
-55.288805
 30
0.0
 40
40.6
100
AcDbArc
 50
45.0
 51
87.469876
  0
ARC
  5
390
100
AcDbEntity
  8
0
370
    -3
  6
DASHED
100
AcDbCircle
 10
413.924989
 20
-43.325415
 30
0.0
 40
20.6
100
AcDbArc
 50
4.529945
 51
45.0
  0
LINE
  5
391
100
AcDbEntity
  8
0
370
    -3
  6
DASHED
100
AcDbLine
 10
426.312643
 20
-26.58027
 30
0.0
 11
428.491389
 21
-28.759015
 31
0.0
  0
ARC
  5
392
100
AcDbEntity
  8
0
370
    -3
  6
DASHED
100
AcDbCircle
 10
413.924989
 20
-103.350303
 30
0.0
 40
20.6
100
AcDbArc
 50
315.0
 51
355.470055
  0
ARC
  5
393
100
AcDbEntity
  8
0
370
    -3
  6
DASHED
100
AcDbCircle
 10
397.604108
 20
-91.386913
 30
0.0
 40
40.6
100
AcDbArc
 50
272.530124
 51
315.0
  0
LINE
  5
394
100
AcDbEntity
  8
0
370
    -3
  6
DASHED
100
AcDbLine
 10
426.312643
 20
-120.095448
 30
0.0
 11
428.491389
 21
-117.916703
 31
0.0
  0
ARC
  5
395
100
AcDbEntity
  8
0
370
    -3
  6
DASHED
100
AcDbCircle
 10
365.819965
 20
-55.288805
 30
0.0
 40
40.6
100
AcDbArc
 50
92.530124
 51
135.0
  0
ARC
  5
396
100
AcDbEntity
  8
0
370
    -3
  6
DASHED
100
AcDbCircle
 10
349.499083
 20
-43.325415
 30
0.0
 40
20.6
100
AcDbArc
 50
135.0
 51
175.470055
  0
LINE
  5
397
100
AcDbEntity
  8
0
370
    -3
  6
DASHED
100
AcDbLine
 10
337.111429
 20
-26.58027
 30
0.0
 11
334.932684
 21
-28.759015
 31
0.0
  0
LINE
  5
398
100
AcDbEntity
  8
0
370
    -3
  6
DASHED
100
AcDbLine
 10
423.712036
 20
-177.837859
 30
0.0
 11
339.712036
 21
-177.837859
 31
0.0
  0
LINE
  5
399
100
AcDbEntity
  8
0
370
    -3
  6
DASHED
100
AcDbLine
 10
339.712036
 20
-180.837859
 30
0.0
 11
323.712036
 21
-180.837859
 31
0.0
  0
LINE
  5
39A
100
AcDbEntity
  8
0
370
    -3
  6
DASHED
100
AcDbLine
 10
339.712036
 20
-170.837859
 30
0.0
 11
339.712036
 21
-180.837859
 31
0.0
  0
LINE
  5
39B
100
AcDbEntity
  8
0
370
    -3
  6
DASHED
100
AcDbLine
 10
423.712036
 20
-163.837859
 30
0.0
 11
339.712036
 21
-163.837859
 31
0.0
  0
LINE
  5
39C
100
AcDbEntity
  8
0
370
    -3
  6
DASHED
100
AcDbLine
 10
339.712036
 20
-160.837859
 30
0.0
 11
323.712036
 21
-160.837859
 31
0.0
  0
LINE
  5
39D
100
AcDbEntity
  8
0
370
    -3
  6
DASHED
100
AcDbLine
 10
339.712036
 20
-170.837859
 30
0.0
 11
339.712036
 21
-160.837859
 31
0.0
  0
LINE
  5
39E
100
AcDbEntity
  8
0
370
    -3
  6
DASHED
100
AcDbLine
 10
423.712036
 20
-170.837859
 30
0.0
 11
423.712036
 21
-180.837859
 31
0.0
  0
LINE
  5
39F
100
AcDbEntity
  8
0
370
    -3
  6
DASHED
100
AcDbLine
 10
439.712036
 20
-180.837859
 30
0.0
 11
423.712036
 21
-180.837859
 31
0.0
  0
LINE
  5
3A0
100
AcDbEntity
  8
0
370
    -3
  6
DASHED
100
AcDbLine
 10
439.712036
 20
-160.837859
 30
0.0
 11
423.712036
 21
-160.837859
 31
0.0
  0
LINE
  5
3A1
100
AcDbEntity
  8
0
370
    -3
  6
DASHED
100
AcDbLine
 10
423.712036
 20
-170.837859
 30
0.0
 11
423.712036
 21
-160.837859
 31
0.0
  0
LINE
  5
3A2
100
AcDbEntity
  8
0
370
    -3
  6
DASHED
100
AcDbLine
 10
423.712036
 20
-31.837859
 30
0.0
 11
339.712036
 21
-31.837859
 31
0.0
  0
LINE
  5
3A3
100
AcDbEntity
  8
0
370
    -3
  6
DASHED
100
AcDbLine
 10
339.712036
 20
-34.837859
 30
0.0
 11
323.712036
 21
-34.837859
 31
0.0
  0
LINE
  5
3A4
100
AcDbEntity
  8
0
370
    -3
  6
DASHED
100
AcDbLine
 10
339.712036
 20
-24.837859
 30
0.0
 11
339.712036
 21
-34.837859
 31
0.0
  0
LINE
  5
3A5
100
AcDbEntity
  8
0
370
    -3
  6
DASHED
100
AcDbLine
 10
423.712036
 20
-17.837859
 30
0.0
 11
339.712036
 21
-17.837859
 31
0.0
  0
LINE
  5
3A6
100
AcDbEntity
  8
0
370
    -3
  6
DASHED
100
AcDbLine
 10
339.712036
 20
-14.837859
 30
0.0
 11
323.712036
 21
-14.837859
 31
0.0
  0
LINE
  5
3A7
100
AcDbEntity
  8
0
370
    -3
  6
DASHED
100
AcDbLine
 10
339.712036
 20
-24.837859
 30
0.0
 11
339.712036
 21
-14.837859
 31
0.0
  0
LINE
  5
3A8
100
AcDbEntity
  8
0
370
    -3
  6
DASHED
100
AcDbLine
 10
423.712036
 20
-24.837859
 30
0.0
 11
423.712036
 21
-34.837859
 31
0.0
  0
LINE
  5
3A9
100
AcDbEntity
  8
0
370
    -3
  6
DASHED
100
AcDbLine
 10
439.712036
 20
-34.837859
 30
0.0
 11
423.712036
 21
-34.837859
 31
0.0
  0
LINE
  5
3AA
100
AcDbEntity
  8
0
370
    -3
  6
DASHED
100
AcDbLine
 10
439.712036
 20
-14.837859
 30
0.0
 11
423.712036
 21
-14.837859
 31
0.0
  0
LINE
  5
3AB
100
AcDbEntity
  8
0
370
    -3
  6
DASHED
100
AcDbLine
 10
423.712036
 20
-24.837859
 30
0.0
 11
423.712036
 21
-14.837859
 31
0.0
  0
LINE
  5
3AC
100
AcDbEntity
  8
0
370
    -3
  6
CENTER
100
AcDbLine
 10
451.190845
 20
-81.837859
 30
0.0
 11
310.342621
 21
-81.837859
 31
0.0
  0
LINE
  5
3AD
100
AcDbEntity
  8
0
370
    -3
  6
CENTER
100
AcDbLine
 10
381.712036
 20
-6.827145
 30
0.0
 11
381.712036
 21
-195.282221
 31
0.0
  0
LINE
  5
3AE
100
AcDbEntity
  8
0
370
    -3
  6
Continuous
100
AcDbLine
 10
323.711638
 20
-97.60903
 30
0.0
 11
323.711638
 21
-9.827381
 31
0.0
  0
LINE
  5
3AF
100
AcDbEntity
  8
0
370
    -3
  6
Continuous
100
AcDbLine
 10
318.711638
 20
-81.609186
 30
0.0
 11
318.711638
 21
-34.337859
 31
0.0
  0
LINE
  5
3B0
100
AcDbEntity
  8
0
370
    -3
  6
Continuous
100
AcDbLine
 10
318.711638
 20
-81.609186
 30
0.0
 11
318.711638
 21
-129.337859
 31
0.0
  0
LINE
  5
3B1
100
AcDbEntity
  8
0
370
    -3
  6
Continuous
100
AcDbLine
 10
323.711638
 20
-97.60903
 30
0.0
 11
323.711638
 21
-184.891067
 31
0.0
  0
LINE
  5
3B2
100
AcDbEntity
  8
0
370
    -3
  6
Continuous
100
AcDbLine
 10
323.711638
 20
-9.827381
 30
0.0
 11
335.712036
 21
-9.617914
 31
0.0
  0
LINE
  5
3B3
100
AcDbEntity
  8
0
370
    -3
  6
Continuous
100
AcDbLine
 10
335.712036
 20
-9.617914
 30
0.0
 11
335.712036
 21
-97.60903
 31
0.0
  0
LINE
  5
3B4
100
AcDbEntity
  8
0
370
    -3
  6
Continuous
100
AcDbLine
 10
335.712036
 20
-9.617914
 30
0.0
 11
430.212036
 21
-11.267417
 31
0.0
  0
LINE
  5
3B5
100
AcDbEntity
  8
0
370
    -3
  6
Continuous
100
AcDbLine
 10
439.712036
 20
-11.267417
 30
0.0
 11
439.712036
 21
-97.60903
 31
0.0
  0
LINE
  5
3B6
100
AcDbEntity
  8
0
370
    -3
  6
Continuous
100
AcDbLine
 10
444.712036
 20
-34.337859
 30
0.0
 11
444.712036
 21
-129.337859
 31
0.0
  0
LINE
  5
3B7
100
AcDbEntity
  8
0
370
    -3
  6
Continuous
100
AcDbLine
 10
430.212036
 20
-11.267417
 30
0.0
 11
439.712036
 21
-11.267417
 31
0.0
  0
LINE
  5
3B8
100
AcDbEntity
  8
0
370
    -3
  6
Continuous
100
AcDbLine
 10
439.712036
 20
-97.60903
 30
0.0
 11
439.712036
 21
-183.950955
 31
0.0
  0
LINE
  5
3B9
100
AcDbEntity
  8
0
370
    -3
  6
Continuous
100
AcDbLine
 10
335.712036
 20
-97.60903
 30
0.0
 11
335.712036
 21
-185.600459
 31
0.0
  0
LINE
  5
3BA
100
AcDbEntity
  8
0
370
    -3
  6
Continuous
100
AcDbLine
 10
447.712036
 20
-57.837859
 30
0.0
 11
444.712036
 21
-57.837859
 31
0.0
  0
LINE
  5
3BB
100
AcDbEntity
  8
0
370
    -3
  6
Continuous
100
AcDbLine
 10
448.712036
 20
-58.837859
 30
0.0
 11
448.712036
 21
-81.837859
 31
0.0
  0
ARC
  5
3BC
100
AcDbEntity
  8
0
370
    -3
  6
Continuous
100
AcDbCircle
 10
447.712036
 20
-58.837859
 30
0.0
 40
1.0
100
AcDbArc
 50
0.0
 51
90.0
  0
LINE
  5
3BD
100
AcDbEntity
  8
0
370
    -3
  6
Continuous
100
AcDbLine
 10
447.712036
 20
-105.837859
 30
0.0
 11
444.712036
 21
-105.837859
 31
0.0
  0
LINE
  5
3BE
100
AcDbEntity
  8
0
370
    -3
  6
Continuous
100
AcDbLine
 10
448.712036
 20
-104.837859
 30
0.0
 11
448.712036
 21
-81.837859
 31
0.0
  0
ARC
  5
3BF
100
AcDbEntity
  8
0
370
    -3
  6
Continuous
100
AcDbCircle
 10
447.712036
 20
-104.837859
 30
0.0
 40
1.0
100
AcDbArc
 50
270.0
 51
0.0
  0
LINE
  5
3C0
100
AcDbEntity
  8
0
370
    -3
  6
Continuous
100
AcDbLine
 10
315.712036
 20
-105.837859
 30
0.0
 11
318.712036
 21
-105.837859
 31
0.0
  0
LINE
  5
3C1
100
AcDbEntity
  8
0
370
    -3
  6
Continuous
100
AcDbLine
 10
314.712036
 20
-104.837859
 30
0.0
 11
314.712036
 21
-81.837859
 31
0.0
  0
ARC
  5
3C2
100
AcDbEntity
  8
0
370
    -3
  6
Continuous
100
AcDbCircle
 10
315.712036
 20
-104.837859
 30
0.0
 40
1.0
100
AcDbArc
 50
180.0
 51
270.0
  0
LINE
  5
3C3
100
AcDbEntity
  8
0
370
    -3
  6
Continuous
100
AcDbLine
 10
315.712036
 20
-57.837859
 30
0.0
 11
318.712036
 21
-57.837859
 31
0.0
  0
LINE
  5
3C4
100
AcDbEntity
  8
0
370
    -3
  6
Continuous
100
AcDbLine
 10
314.712036
 20
-58.837859
 30
0.0
 11
314.712036
 21
-81.837859
 31
0.0
  0
ARC
  5
3C5
100
AcDbEntity
  8
0
370
    -3
  6
Continuous
100
AcDbCircle
 10
315.712036
 20
-58.837859
 30
0.0
 40
1.0
100
AcDbArc
 50
90.0
 51
180.0
  0
LINE
  5
3C6
100
AcDbEntity
  8
0
370
    -3
  6
CENTER
100
AcDbLine
 10
321.168436
 20
-170.837859
 30
0.0
 11
442.4688
 21
-170.837859
 31
0.0
  0
LINE
  5
3C7
100
AcDbEntity
  8
0
370
    -3
  6
CENTER
100
AcDbLine
 10
321.168436
 20
-24.837859
 30
0.0
 11
442.4688
 21
-24.837859
 31
0.0
  0
LINE
  5
3C8
100
AcDbEntity
  8
0
370
    -3
  6
Continuous
100
AcDbLine
 10
444.712036
 20
-129.337859
 30
0.0
 11
439.712036
 21
-129.337859
 31
0.0
  0
LINE
  5
3C9
100
AcDbEntity
  8
0
370
    -3
  6
Continuous
100
AcDbLine
 10
444.712036
 20
-34.337859
 30
0.0
 11
439.712036
 21
-34.337859
 31
0.0
  0
LINE
  5
3CA
100
AcDbEntity
  8
0
370
    -3
  6
Continuous
100
AcDbLine
 10
318.712036
 20
-34.337859
 30
0.0
 11
323.712036
 21
-34.337859
 31
0.0
  0
LINE
  5
3CB
100
AcDbEntity
  8
0
370
    -3
  6
Continuous
100
AcDbLine
 10
318.712036
 20
-129.337859
 30
0.0
 11
323.712036
 21
-129.337859
 31
0.0
  0
LINE
  5
3CC
100
AcDbEntity
  8
0
370
    -3
  6
CENTER
100
AcDbLine
 10
394.520548
 20
-73.337859
 30
0.0
 11
369.34641
 21
-73.337859
 31
0.0
  0
CIRCLE
  5
3CD
100
AcDbEntity
  8
0
370
    -3
  6
Continuous
100
AcDbCircle
 10
-8.288103
 20
-170.837859
 30
0.0
 40
10.0
  0
CIRCLE
  5
3CE
100
AcDbEntity
  8
0
370
    -3
  6
Continuous
100
AcDbCircle
 10
-8.288103
 20
-170.837859
 30
0.0
 40
7.0
  0
CIRCLE
  5
3CF
100
AcDbEntity
  8
0
370
    -3
  6
Continuous
100
AcDbCircle
 10
-167.288103
 20
-170.837859
 30
0.0
 40
10.0
  0
CIRCLE
  5
3D0
100
AcDbEntity
  8
0
370
    -3
  6
Continuous
100
AcDbCircle
 10
-167.288103
 20
-170.837859
 30
0.0
 40
7.0
  0
CIRCLE
  5
3D1
100
AcDbEntity
  8
0
370
    -3
  6
Continuous
100
AcDbCircle
 10
-167.288103
 20
-24.837859
 30
0.0
 40
10.0
  0
CIRCLE
  5
3D2
100
AcDbEntity
  8
0
370
    -3
  6
Continuous
100
AcDbCircle
 10
-167.288103
 20
-24.837859
 30
0.0
 40
7.0
  0
CIRCLE
  5
3D3
100
AcDbEntity
  8
0
370
    -3
  6
Continuous
100
AcDbCircle
 10
-8.288103
 20
-24.837859
 30
0.0
 40
10.0
  0
CIRCLE
  5
3D4
100
AcDbEntity
  8
0
370
    -3
  6
Continuous
100
AcDbCircle
 10
-8.288103
 20
-24.837859
 30
0.0
 40
7.0
  0
LINE
  5
3D5
100
AcDbEntity
  8
0
370
    -3
  6
CENTER
100
AcDbLine
 10
4.211897
 20
-170.837859
 30
0.0
 11
-20.788103
 21
-170.837859
 31
0.0
  0
LINE
  5
3D6
100
AcDbEntity
  8
0
370
    -3
  6
CENTER
100
AcDbLine
 10
-8.288103
 20
-158.337859
 30
0.0
 11
-8.288103
 21
-183.337859
 31
0.0
  0
LINE
  5
3D7
100
AcDbEntity
  8
0
370
    -3
  6
CENTER
100
AcDbLine
 10
-154.788103
 20
-170.837859
 30
0.0
 11
-179.788103
 21
-170.837859
 31
0.0
  0
LINE
  5
3D8
100
AcDbEntity
  8
0
370
    -3
  6
CENTER
100
AcDbLine
 10
-167.288103
 20
-158.337859
 30
0.0
 11
-167.288103
 21
-183.337859
 31
0.0
  0
LINE
  5
3D9
100
AcDbEntity
  8
0
370
    -3
  6
CENTER
100
AcDbLine
 10
-154.788103
 20
-24.837859
 30
0.0
 11
-179.788103
 21
-24.837859
 31
0.0
  0
LINE
  5
3DA
100
AcDbEntity
  8
0
370
    -3
  6
CENTER
100
AcDbLine
 10
-167.288103
 20
-12.337859
 30
0.0
 11
-167.288103
 21
-37.337859
 31
0.0
  0
LINE
  5
3DB
100
AcDbEntity
  8
0
370
    -3
  6
CENTER
100
AcDbLine
 10
4.211897
 20
-24.837859
 30
0.0
 11
-20.788103
 21
-24.837859
 31
0.0
  0
LINE
  5
3DC
100
AcDbEntity
  8
0
370
    -3
  6
CENTER
100
AcDbLine
 10
-8.288103
 20
-12.337859
 30
0.0
 11
-8.288103
 21
-37.337859
 31
0.0
  0
ARC
  5
3DD
100
AcDbEntity
  8
0
370
    -3
  6
Continuous
100
AcDbCircle
 10
-167.288103
 20
-170.837859
 30
0.0
 40
15.5
100
AcDbArc
 50
31.58598
 51
80.793104
  0
LINE
  5
3DE
100
AcDbEntity
  8
0
370
    -3
  6
CENTER
100
AcDbLine
 10
11.222591
 20
-81.837859
 30
0.0
 11
-137.647414
 21
-81.837859
 31
0.0
  0
ARC
  5
3DF
100
AcDbEntity
  8
0
370
    -3
  6
Continuous
100
AcDbCircle
 10
-65.288103
 20
-81.837859
 30
0.0
 40
17.5
100
AcDbArc
 50
106.60155
 51
73.39845
  0
LINE
  5
3E0
100
AcDbEntity
  8
0
370
    -3
  6
Continuous
100
AcDbLine
 10
-70.288103
 20
-65.067349
 30
0.0
 11
-70.288103
 21
-61.037859
 31
0.0
  0
LINE
  5
3E1
100
AcDbEntity
  8
0
370
    -3
  6
Continuous
100
AcDbLine
 10
-70.288103
 20
-61.037859
 30
0.0
 11
-60.288103
 21
-61.037859
 31
0.0
  0
LINE
  5
3E2
100
AcDbEntity
  8
0
370
    -3
  6
Continuous
100
AcDbLine
 10
-60.288103
 20
-65.067349
 30
0.0
 11
-60.288103
 21
-61.037859
 31
0.0
  0
LINE
  5
3E3
100
AcDbEntity
  8
0
370
    -3
  6
CENTER
100
AcDbLine
 10
-65.288103
 20
-6.877295
 30
0.0
 11
-65.288103
 21
-158.458699
 31
0.0
  0
POINT
  5
3E4
100
AcDbEntity
  8
0
370
    -3
  6
Continuous
100
AcDbPoint
 10
-65.288103
 20
-81.837859
 30
0.0
  0
CIRCLE
  5
3E5
100
AcDbEntity
  8
0
370
    -3
  6
Continuous
100
AcDbCircle
 10
-65.288103
 20
-81.837859
 30
0.0
 40
47.5
  0
CIRCLE
  5
3E6
100
AcDbEntity
  8
0
370
    -3
  6
Continuous
100
AcDbCircle
 10
-65.288103
 20
-81.837859
 30
0.0
 40
24.0
  0
ARC
  5
3E7
100
AcDbEntity
  8
0
370
    -3
  6
Continuous
100
AcDbCircle
 10
-185.288103
 20
-34.900865
 30
0.0
 40
3.0
100
AcDbArc
 50
271.0
 51
0.0
  0
ARC
  5
3E8
100
AcDbEntity
  8
0
370
    -3
  6
Continuous
100
AcDbCircle
 10
-185.288103
 20
-160.77454
 30
0.0
 40
3.0
100
AcDbArc
 50
0.0
 51
89.0
  0
LINE
  5
3E9
100
AcDbEntity
  8
0
370
    -3
  6
Continuous
100
AcDbLine
 10
-182.598337
 20
-25.924045
 30
0.0
 11
-182.598408
 21
-25.924045
 31
0.0
  0
LINE
  5
3EA
100
AcDbEntity
  8
0
370
    -3
  6
Continuous
100
AcDbLine
 10
-182.598337
 20
-25.925638
 30
0.0
 11
-182.598408
 21
-25.925638
 31
0.0
  0
LINE
  5
3EB
100
AcDbEntity
  8
0
370
    -3
  6
Continuous
100
AcDbLine
 10
-182.288103
 20
-21.837859
 30
0.0
 11
-182.288103
 21
-173.837859
 31
0.0
  0
LINE
  5
3EC
100
AcDbEntity
  8
0
370
    -3
  6
Continuous
100
AcDbLine
 10
-5.288103
 20
-9.837859
 30
0.0
 11
-170.288103
 21
-9.837859
 31
0.0
  0
LINE
  5
3ED
100
AcDbEntity
  8
0
370
    -3
  6
Continuous
100
AcDbLine
 10
6.711897
 20
-173.837859
 30
0.0
 11
6.711897
 21
-21.837859
 31
0.0
  0
LINE
  5
3EE
100
AcDbEntity
  8
0
370
    -3
  6
Continuous
100
AcDbLine
 10
-170.288103
 20
-185.837859
 30
0.0
 11
-5.288103
 21
-185.837859
 31
0.0
  0
LINE
  5
3EF
100
AcDbEntity
  8
0
370
    -3
  6
CENTER
100
AcDbLine
 10
-17.740998
 20
-176.83817
 30
0.0
 11
-33.491681
 21
-176.83817
 31
0.0
  0
LINE
  5
3F0
100
AcDbEntity
  8
0
370
    -3
  6
CENTER
100
AcDbLine
 10
-16.700413
 20
-18.83817
 30
0.0
 11
-33.491681
 21
-18.83817
 31
0.0
  0
LINE
  5
3F1
100
AcDbEntity
  8
0
370
    -3
  6
CENTER
100
AcDbLine
 10
-25.28823
 20
-10.882514
 30
0.0
 11
-25.28823
 21
-27.090534
 31
0.0
  0
LINE
  5
3F2
100
AcDbEntity
  8
0
370
    -3
  6
CENTER
100
AcDbLine
 10
-149.28823
 20
-11.99613
 30
0.0
 11
-149.28823
 21
-26.871774
 31
0.0
  0
LINE
  5
3F3
100
AcDbEntity
  8
0
370
    -3
  6
CENTER
100
AcDbLine
 10
-149.28823
 20
-169.284198
 30
0.0
 11
-149.28823
 21
-183.722324
 31
0.0
  0
LINE
  5
3F4
100
AcDbEntity
  8
0
370
    -3
  6
CENTER
100
AcDbLine
 10
-25.28823
 20
-168.62792
 30
0.0
 11
-25.28823
 21
-183.503565
 31
0.0
  0
LINE
  5
3F5
100
AcDbEntity
  8
0
370
    -3
  6
CENTER
100
AcDbLine
 10
-142.433904
 20
-18.83817
 30
0.0
 11
-156.65327
 21
-18.83817
 31
0.0
  0
LINE
  5
3F6
100
AcDbEntity
  8
0
370
    -3
  6
CENTER
100
AcDbLine
 10
-141.996385
 20
-176.83817
 30
0.0
 11
-157.121739
 21
-176.83817
 31
0.0
  0
CIRCLE
  5
3F7
100
AcDbEntity
  8
0
370
    -3
  6
Continuous
100
AcDbCircle
 10
-25.28823
 20
-176.83817
 30
0.0
 40
5.5
  0
CIRCLE
  5
3F8
100
AcDbEntity
  8
0
370
    -3
  6
Continuous
100
AcDbCircle
 10
-25.28823
 20
-18.83817
 30
0.0
 40
5.5
  0
CIRCLE
  5
3F9
100
AcDbEntity
  8
0
370
    -3
  6
Continuous
100
AcDbCircle
 10
-149.28823
 20
-18.83817
 30
0.0
 40
5.5
  0
CIRCLE
  5
3FA
100
AcDbEntity
  8
0
370
    -3
  6
Continuous
100
AcDbCircle
 10
-149.28823
 20
-176.83817
 30
0.0
 40
5.5
  0
LINE
  5
3FB
100
AcDbEntity
  8
0
370
    -3
  6
DASHED
100
AcDbLine
 10
-182.288103
 20
-62.391507
 30
0.0
 11
-182.288103
 21
-48.611216
 31
0.0
  0
LINE
  5
3FC
100
AcDbEntity
  8
0
370
    -3
  6
DASHED
100
AcDbLine
 10
-182.288103
 20
-133.283898
 30
0.0
 11
-182.288103
 21
-147.064189
 31
0.0
  0
ARC
  5
3FD
100
AcDbEntity
  8
0
370
    -3
  6
Continuous
100
AcDbCircle
 10
-163.288103
 20
-146.159934
 30
0.0
 40
9.5
100
AcDbArc
 50
180.0
 51
260.793104
  0
ARC
  5
3FE
100
AcDbEntity
  8
0
370
    -3
  6
Continuous
100
AcDbCircle
 10
-149.399146
 20
-159.838532
 30
0.0
 40
5.5
100
AcDbArc
 50
211.58598
 51
270.373825
  0
ARC
  5
3FF
100
AcDbEntity
  8
0
370
    -3
  6
Continuous
100
AcDbCircle
 10
-149.28823
 20
-176.83817
 30
0.0
 40
11.5
100
AcDbArc
 50
20.668437
 51
90.373825
  0
ARC
  5
400
100
AcDbEntity
  8
0
370
    -3
  6
Continuous
100
AcDbCircle
 10
-133.382374
 20
-170.837859
 30
0.0
 40
5.5
100
AcDbArc
 50
200.668437
 51
270.0
  0
LINE
  5
401
100
AcDbEntity
  8
0
370
    -3
  6
Continuous
100
AcDbLine
 10
-41.194087
 20
-176.337859
 30
0.0
 11
-133.382374
 21
-176.337859
 31
0.0
  0
ARC
  5
402
100
AcDbEntity
  8
0
370
    -3
  6
Continuous
100
AcDbCircle
 10
-41.194087
 20
-170.837859
 30
0.0
 40
5.5
100
AcDbArc
 50
270.0
 51
339.331563
  0
ARC
  5
403
100
AcDbEntity
  8
0
370
    -3
  6
Continuous
100
AcDbCircle
 10
-25.28823
 20
-176.83817
 30
0.0
 40
11.5
100
AcDbArc
 50
93.046047
 51
159.331563
  0
ARC
  5
404
100
AcDbEntity
  8
0
370
    -3
  6
Continuous
100
AcDbCircle
 10
-26.191585
 20
-159.862189
 30
0.0
 40
5.5
100
AcDbArc
 50
273.046047
 51
328.489758
  0
ARC
  5
405
100
AcDbEntity
  8
0
370
    -3
  6
Continuous
100
AcDbCircle
 10
-8.288103
 20
-170.837859
 30
0.0
 40
15.5
100
AcDbArc
 50
99.206896
 51
148.489758
  0
ARC
  5
406
100
AcDbEntity
  8
0
370
    -3
  6
Continuous
100
AcDbCircle
 10
-12.288103
 20
-146.159934
 30
0.0
 40
9.5
100
AcDbArc
 50
279.206896
 51
0.0
  0
LINE
  5
407
100
AcDbEntity
  8
0
370
    -3
  6
Continuous
100
AcDbLine
 10
-2.788103
 20
-49.515784
 30
0.0
 11
-2.788103
 21
-146.159934
 31
0.0
  0
ARC
  5
408
100
AcDbEntity
  8
0
370
    -3
  6
Continuous
100
AcDbCircle
 10
-12.288103
 20
-49.515784
 30
0.0
 40
9.5
100
AcDbArc
 50
0.0
 51
80.793104
  0
ARC
  5
409
100
AcDbEntity
  8
0
370
    -3
  6
Continuous
100
AcDbCircle
 10
-8.288103
 20
-24.837859
 30
0.0
 40
15.5
100
AcDbArc
 50
211.5123
 51
260.793104
  0
ARC
  5
40A
100
AcDbEntity
  8
0
370
    -3
  6
Continuous
100
AcDbCircle
 10
-26.191191
 20
-35.814173
 30
0.0
 40
5.5
100
AcDbArc
 50
31.5123
 51
86.955283
  0
ARC
  5
40B
100
AcDbEntity
  8
0
370
    -3
  6
Continuous
100
AcDbCircle
 10
-25.28823
 20
-18.83817
 30
0.0
 40
11.5
100
AcDbArc
 50
200.666196
 51
266.955283
  0
ARC
  5
40C
100
AcDbEntity
  8
0
370
    -3
  6
Continuous
100
AcDbCircle
 10
-41.194321
 20
-24.837859
 30
0.0
 40
5.5
100
AcDbArc
 50
20.666196
 51
90.0
  0
LINE
  5
40D
100
AcDbEntity
  8
0
370
    -3
  6
Continuous
100
AcDbLine
 10
-133.382139
 20
-19.337859
 30
0.0
 11
-41.194321
 21
-19.337859
 31
0.0
  0
ARC
  5
40E
100
AcDbEntity
  8
0
370
    -3
  6
Continuous
100
AcDbCircle
 10
-133.382139
 20
-24.837859
 30
0.0
 40
5.5
100
AcDbArc
 50
90.0
 51
159.333804
  0
ARC
  5
40F
100
AcDbEntity
  8
0
370
    -3
  6
Continuous
100
AcDbCircle
 10
-149.28823
 20
-18.83817
 30
0.0
 40
11.5
100
AcDbArc
 50
269.624891
 51
339.333804
  0
ARC
  5
410
100
AcDbEntity
  8
0
370
    -3
  6
Continuous
100
AcDbCircle
 10
-149.399527
 20
-35.837806
 30
0.0
 40
5.5
100
AcDbArc
 50
89.624891
 51
148.412035
  0
ARC
  5
411
100
AcDbEntity
  8
0
370
    -3
  6
Continuous
100
AcDbCircle
 10
-167.288103
 20
-24.837859
 30
0.0
 40
15.5
100
AcDbArc
 50
279.206896
 51
328.412035
  0
ARC
  5
412
100
AcDbEntity
  8
0
370
    -3
  6
Continuous
100
AcDbCircle
 10
-163.288103
 20
-49.515784
 30
0.0
 40
9.5
100
AcDbArc
 50
99.206896
 51
180.0
  0
LINE
  5
413
100
AcDbEntity
  8
0
370
    -3
  6
Continuous
100
AcDbLine
 10
-172.788103
 20
-146.159934
 30
0.0
 11
-172.788103
 21
-49.515784
 31
0.0
  0
ARC
  5
414
100
AcDbEntity
  8
0
370
    -3
  6
Continuous
100
AcDbCircle
 10
-170.288103
 20
-173.837859
 30
0.0
 40
11.0
100
AcDbArc
 50
180.0
 51
270.0
  0
ARC
  5
415
100
AcDbEntity
  8
0
370
    -3
  6
Continuous
100
AcDbCircle
 10
-5.288103
 20
-173.837859
 30
0.0
 40
11.0
100
AcDbArc
 50
270.0
 51
0.0
  0
ARC
  5
416
100
AcDbEntity
  8
0
370
    -3
  6
Continuous
100
AcDbCircle
 10
-5.288103
 20
-173.837859
 30
0.0
 40
12.0
100
AcDbArc
 50
270.0
 51
0.0
  0
ARC
  5
417
100
AcDbEntity
  8
0
370
    -3
  6
Continuous
100
AcDbCircle
 10
-170.288103
 20
-173.837859
 30
0.0
 40
12.0
100
AcDbArc
 50
180.0
 51
270.0
  0
ARC
  5
418
100
AcDbEntity
  8
0
370
    -3
  6
Continuous
100
AcDbCircle
 10
-5.288103
 20
-21.837859
 30
0.0
 40
12.0
100
AcDbArc
 50
0.0
 51
90.0
  0
ARC
  5
419
100
AcDbEntity
  8
0
370
    -3
  6
Continuous
100
AcDbCircle
 10
-5.288103
 20
-21.837859
 30
0.0
 40
11.0
100
AcDbArc
 50
0.0
 51
90.0
  0
ARC
  5
41A
100
AcDbEntity
  8
0
370
    -3
  6
Continuous
100
AcDbCircle
 10
-170.288103
 20
-21.837859
 30
0.0
 40
11.0
100
AcDbArc
 50
90.0
 51
180.0
  0
ARC
  5
41B
100
AcDbEntity
  8
0
370
    -3
  6
Continuous
100
AcDbCircle
 10
-170.288103
 20
-21.837859
 30
0.0
 40
12.0
100
AcDbArc
 50
90.0
 51
180.0
  0
ARC
  5
41C
100
AcDbEntity
  8
0
370
    -3
  6
Continuous
100
AcDbCircle
 10
-8.288103
 20
-170.837859
 30
0.0
 40
17.5
100
AcDbArc
 50
99.206896
 51
148.489758
  0
ARC
  5
41D
100
AcDbEntity
  8
0
370
    -3
  6
Continuous
100
AcDbCircle
 10
-26.191585
 20
-159.862189
 30
0.0
 40
3.5
100
AcDbArc
 50
273.046047
 51
328.489758
  0
ARC
  5
41E
100
AcDbEntity
  8
0
370
    -3
  6
Continuous
100
AcDbCircle
 10
-25.28823
 20
-176.83817
 30
0.0
 40
13.5
100
AcDbArc
 50
93.046047
 51
159.331563
  0
ARC
  5
41F
100
AcDbEntity
  8
0
370
    -3
  6
Continuous
100
AcDbCircle
 10
-41.194087
 20
-170.837859
 30
0.0
 40
3.5
100
AcDbArc
 50
270.0
 51
339.331563
  0
LINE
  5
420
100
AcDbEntity
  8
0
370
    -3
  6
Continuous
100
AcDbLine
 10
-133.382374
 20
-174.337859
 30
0.0
 11
-41.194087
 21
-174.337859
 31
0.0
  0
ARC
  5
421
100
AcDbEntity
  8
0
370
    -3
  6
Continuous
100
AcDbCircle
 10
-133.382374
 20
-170.837859
 30
0.0
 40
3.5
100
AcDbArc
 50
200.668437
 51
270.0
  0
ARC
  5
422
100
AcDbEntity
  8
0
370
    -3
  6
Continuous
100
AcDbCircle
 10
-149.28823
 20
-176.83817
 30
0.0
 40
13.5
100
AcDbArc
 50
20.668437
 51
90.373825
  0
ARC
  5
423
100
AcDbEntity
  8
0
370
    -3
  6
Continuous
100
AcDbCircle
 10
-149.399146
 20
-159.838532
 30
0.0
 40
3.5
100
AcDbArc
 50
211.58598
 51
270.373825
  0
ARC
  5
424
100
AcDbEntity
  8
0
370
    -3
  6
Continuous
100
AcDbCircle
 10
-167.288103
 20
-170.837859
 30
0.0
 40
17.5
100
AcDbArc
 50
31.58598
 51
80.793104
  0
ARC
  5
425
100
AcDbEntity
  8
0
370
    -3
  6
Continuous
100
AcDbCircle
 10
-163.288103
 20
-146.159934
 30
0.0
 40
7.5
100
AcDbArc
 50
180.0
 51
260.793104
  0
LINE
  5
426
100
AcDbEntity
  8
0
370
    -3
  6
Continuous
100
AcDbLine
 10
-170.788103
 20
-49.515784
 30
0.0
 11
-170.788103
 21
-146.159934
 31
0.0
  0
ARC
  5
427
100
AcDbEntity
  8
0
370
    -3
  6
Continuous
100
AcDbCircle
 10
-163.288103
 20
-49.515784
 30
0.0
 40
7.5
100
AcDbArc
 50
99.206896
 51
180.0
  0
ARC
  5
428
100
AcDbEntity
  8
0
370
    -3
  6
Continuous
100
AcDbCircle
 10
-167.288103
 20
-24.837859
 30
0.0
 40
17.5
100
AcDbArc
 50
279.206896
 51
328.412035
  0
ARC
  5
429
100
AcDbEntity
  8
0
370
    -3
  6
Continuous
100
AcDbCircle
 10
-149.399527
 20
-35.837806
 30
0.0
 40
3.5
100
AcDbArc
 50
89.624891
 51
148.412035
  0
ARC
  5
42A
100
AcDbEntity
  8
0
370
    -3
  6
Continuous
100
AcDbCircle
 10
-149.28823
 20
-18.83817
 30
0.0
 40
13.5
100
AcDbArc
 50
269.624891
 51
339.333804
  0
ARC
  5
42B
100
AcDbEntity
  8
0
370
    -3
  6
Continuous
100
AcDbCircle
 10
-133.382139
 20
-24.837859
 30
0.0
 40
3.5
100
AcDbArc
 50
90.0
 51
159.333804
  0
LINE
  5
42C
100
AcDbEntity
  8
0
370
    -3
  6
Continuous
100
AcDbLine
 10
-41.194321
 20
-21.337859
 30
0.0
 11
-133.382139
 21
-21.337859
 31
0.0
  0
ARC
  5
42D
100
AcDbEntity
  8
0
370
    -3
  6
Continuous
100
AcDbCircle
 10
-41.194321
 20
-24.837859
 30
0.0
 40
3.5
100
AcDbArc
 50
20.666196
 51
90.0
  0
ARC
  5
42E
100
AcDbEntity
  8
0
370
    -3
  6
Continuous
100
AcDbCircle
 10
-25.28823
 20
-18.83817
 30
0.0
 40
13.5
100
AcDbArc
 50
200.666196
 51
266.955283
  0
ARC
  5
42F
100
AcDbEntity
  8
0
370
    -3
  6
Continuous
100
AcDbCircle
 10
-26.191191
 20
-35.814173
 30
0.0
 40
3.5
100
AcDbArc
 50
31.5123
 51
86.955283
  0
ARC
  5
430
100
AcDbEntity
  8
0
370
    -3
  6
Continuous
100
AcDbCircle
 10
-8.288103
 20
-24.837859
 30
0.0
 40
17.5
100
AcDbArc
 50
211.5123
 51
260.793104
  0
ARC
  5
431
100
AcDbEntity
  8
0
370
    -3
  6
Continuous
100
AcDbCircle
 10
-12.288103
 20
-49.515784
 30
0.0
 40
7.5
100
AcDbArc
 50
0.0
 51
80.793104
  0
LINE
  5
432
100
AcDbEntity
  8
0
370
    -3
  6
Continuous
100
AcDbLine
 10
-4.788103
 20
-146.159934
 30
0.0
 11
-4.788103
 21
-49.515784
 31
0.0
  0
ARC
  5
433
100
AcDbEntity
  8
0
370
    -3
  6
Continuous
100
AcDbCircle
 10
-12.288103
 20
-146.159934
 30
0.0
 40
7.5
100
AcDbArc
 50
279.206896
 51
0.0
  0
LINE
  5
434
100
AcDbEntity
  8
0
370
    -3
  6
Continuous
100
AcDbLine
 10
5.711897
 20
-173.837859
 30
0.0
 11
5.711897
 21
-21.837859
 31
0.0
  0
LINE
  5
435
100
AcDbEntity
  8
0
370
    -3
  6
Continuous
100
AcDbLine
 10
-170.288103
 20
-184.837859
 30
0.0
 11
-5.288103
 21
-184.837859
 31
0.0
  0
LINE
  5
436
100
AcDbEntity
  8
0
370
    -3
  6
Continuous
100
AcDbLine
 10
-181.288103
 20
-21.837859
 30
0.0
 11
-181.288103
 21
-173.837859
 31
0.0
  0
LINE
  5
437
100
AcDbEntity
  8
0
370
    -3
  6
Continuous
100
AcDbLine
 10
-5.288103
 20
-10.837859
 30
0.0
 11
-170.288103
 21
-10.837859
 31
0.0
  0
LINE
  5
438
100
AcDbEntity
  8
0
370
    -3
  6
CENTER
100
AcDbLine
 10
-241.952812
 20
-97.837703
 30
0.0
 11
-157.484257
 21
-97.837703
 31
0.0
  0
INSERT
  5
444
100
AcDbEntity
  8
0
100
AcDbBlockReference
  2
ZU_SYM__USERS_HOME_SYMBOL_POO_SYM_B20_-1
 10
-149.28823
 20
-18.83817
 30
0.0
  0
INSERT
  5
450
100
AcDbEntity
  8
0
100
AcDbBlockReference
  2
ZU_SYM__USERS_HOME_SYMBOL_POO_SYM_B20_00005-1
 10
-25.28823
 20
-18.83817
 30
0.0
  0
INSERT
  5
45C
100
AcDbEntity
  8
0
100
AcDbBlockReference
  2
ZU_SYM__USERS_HOME_SYMBOL_POO_SYM_B20_00006-1
 10
-25.28823
 20
-176.83817
 30
0.0
  0
INSERT
  5
468
100
AcDbEntity
  8
0
100
AcDbBlockReference
  2
ZU_SYM__USERS_HOME_SYMBOL_POO_SYM_B20_00007-1
 10
-149.28823
 20
-176.83817
 30
0.0
  0
LINE
  5
469
100
AcDbEntity
  8
0
370
    -3
  6
Continuous
100
AcDbLine
 10
82.711897
 20
-63.337859
 30
0.0
 11
80.961897
 21
-63.337859
 31
0.0
  0
LINE
  5
46A
100
AcDbEntity
  8
0
370
    -3
  6
Continuous
100
AcDbLine
 10
82.711897
 20
-100.337859
 30
0.0
 11
80.961897
 21
-100.337859
 31
0.0
  0
LINE
  5
46B
100
AcDbEntity
  8
0
370
    -3
  6
Continuous
100
AcDbLine
 10
166.462033
 20
-100.337859
 30
0.0
 11
164.712033
 21
-100.337859
 31
0.0
  0
LINE
  5
46C
100
AcDbEntity
  8
0
370
    -3
  6
Continuous
100
AcDbLine
 10
166.462033
 20
-63.337859
 30
0.0
 11
164.712033
 21
-63.337859
 31
0.0
  0
LINE
  5
46D
100
AcDbEntity
  8
0
370
    -3
  6
Continuous
100
AcDbLine
 10
138.712033
 20
-99.537859
 30
0.0
 11
108.711897
 21
-99.537859
 31
0.0
  0
LINE
  5
46E
100
AcDbEntity
  8
0
370
    -3
  6
Continuous
100
AcDbLine
 10
138.712033
 20
-64.137859
 30
0.0
 11
108.711897
 21
-64.137859
 31
0.0
  0
CIRCLE
  5
46F
100
AcDbEntity
  8
0
370
    -3
  6
Continuous
100
AcDbCircle
 10
-65.288103
 20
-81.837859
 30
0.0
 40
52.5
  0
ENDSEC
  0
SECTION
  2
OBJECTS
  0
DICTIONARY
  5
19
100
AcDbDictionary
280
     0
281
     1
  3
ACAD_GROUP
350
1A
  3
ACAD_MLINESTYLE
350
1B
  3
ACAD_LAYOUT
350
1E
  3
ACAD_PLOTSETTINGS
350
22
  3
ACAD_PLOTSTYLENAME
350
1F
  3
ACAD_WIPEOUT_VARS
350
23
  3
DWGPROPS
350
470
  0
DICTIONARY
  5
1A
102
{ACAD_REACTORS
330
19
102
}
100
AcDbDictionary
280
     0
281
     1
  0
DICTIONARY
  5
1B
102
{ACAD_REACTORS
330
19
102
}
100
AcDbDictionary
280
     0
281
     1
  3
Standard
350
1C
  0
MLINESTYLE
  5
1C
102
{ACAD_REACTORS
330
1B
102
}
100
AcDbMlineStyle
  2
Standard
 70
     0
  3

 62
     0
 51
90.0
 52
90.0
 71
     2
 49
0.5
 62
   256
  6
ByLayer
 49
-0.5
 62
   256
  6
ByLayer
  0
ACDBDICTIONARYWDFLT
  5
1F
102
{ACAD_REACTORS
330
19
102
}
100
AcDbDictionary
281
     1
  3
Normal
350
1D
100
AcDbDictionaryWithDefault
340
1D
  0
ACDBPLACEHOLDER
  5
1D
102
{ACAD_REACTORS
330
1F
102
}
  0
LAYOUT
  5
20
102
{ACAD_REACTORS
330
1E
102
}
100
AcDbPlotSettings
  1

  2

  4

  6

 40
0.0
 41
0.0
 42
0.0
 43
0.0
 44
0.0
 45
0.0
 46
0.0
 47
0.0
 48
0.0
 49
0.0
140
0.0
141
0.0
142
1.0
143
1.0
 70
  1024
 72
     0
 73
     0
 74
     0
  7

 75
     0
147
1.0
148
0.0
149
0.0
100
AcDbLayout
  1
Model
 70
     0
 71
     0
 10
0.0
 20
0.0
 11
0.0
 21
0.0
 12
0.0
 22
0.0
 32
0.0
 14
0.0
 24
0.0
 34
0.0
 15
0.0
 25
0.0
 35
0.0
146
0.0
 13
0.0
 23
0.0
 33
0.0
 16
0.0
 26
0.0
 36
0.0
 17
0.0
 27
0.0
 37
0.0
 76
     0
330
A
331
0
345
0
346
0
  0
LAYOUT
  5
21
102
{ACAD_REACTORS
330
1E
102
}
100
AcDbPlotSettings
  1

  2

  4

  6

 40
0.0
 41
0.0
 42
0.0
 43
0.0
 44
0.0
 45
0.0
 46
0.0
 47
0.0
 48
0.0
 49
0.0
140
0.0
141
0.0
142
1.0
143
1.0
 70
     0
 72
     0
 73
     0
 74
     0
  7

 75
     0
147
1.0
148
0.0
149
0.0
100
AcDbLayout
  1
Layout1
 70
     0
 71
     0
 10
0.0
 20
0.0
 11
0.0
 21
0.0
 12
0.0
 22
0.0
 32
0.0
 14
0.0
 24
0.0
 34
0.0
 15
0.0
 25
0.0
 35
0.0
146
0.0
 13
0.0
 23
0.0
 33
0.0
 16
0.0
 26
0.0
 36
0.0
 17
0.0
 27
0.0
 37
0.0
 76
     0
330
B
331
0
345
0
346
0
  0
DICTIONARY
  5
1E
102
{ACAD_REACTORS
330
19
102
}
100
AcDbDictionary
280
     0
281
     1
  3
Layout1
350
21
  3
Model
350
20
  0
DICTIONARY
  5
22
102
{ACAD_REACTORS
330
19
102
}
100
AcDbDictionary
280
     0
281
     1
  0
WIPEOUTVARIABLES
  5
23
100
AcDbWipeoutVariables
 70
     1
  0
XRECORD
  5
470
100
AcDbXrecord
280
     1
  1
DWGPROPS COOKIE
  2

  3

  4

  6

  7

  8
TB24944
  9

300
=
301
=
302
=
303
=
304
=
305
=
306
=
307
=
308
=
309
=
 40
0.0
 41
2455965.593576
 42
2455965.593576
  1

 90
        0
  0
ENDSEC
  0
EOF
