  0
SECTION
  2
HEADER
  9
$ACADVER
  1
AC1015
  9
$ACADMAINTVER
 70
     6
  9
$DWGCODEPAGE
  3
ANSI_932
  9
$INSBASE
 10
0.0
 20
0.0
 30
0.0
  9
$EXTMIN
 10
1.000000E+20
 20
1.000000E+20
 30
1.000000E+20
  9
$EXTMAX
 10
-1.000000E+20
 20
-1.000000E+20
 30
-1.000000E+20
  9
$LIMMIN
 10
0.0
 20
0.0
  9
$LIMMAX
 10
0.0
 20
0.0
  9
$ORTHOMODE
 70
     0
  9
$REGENMODE
 70
     1
  9
$FILLMODE
 70
     1
  9
$QTEXTMODE
 70
     0
  9
$MIRRTEXT
 70
     1
  9
$LTSCALE
 40
1.0
  9
$ATTMODE
 70
     1
  9
$TEXTSIZE
 40
7.0
  9
$TRACEWID
 40
0.05
  9
$TEXTSTYLE
  7
Standard
  9
$CLAYER
  8
0
  9
$CELTYPE
  6
Continuous
  9
$CECOLOR
 62
   256
  9
$CELTSCALE
 40
1.0
  9
$DISPSILH
 70
     0
  9
$DIMSCALE
 40
1.0
  9
$DIMASZ
 40
1.931852
  9
$DIMEXO
 40
1.0
  9
$DIMDLI
 40
0.38
  9
$DIMRND
 40
0.0
  9
$DIMDLE
 40
0.0
  9
$DIMEXE
 40
2.0
  9
$DIMTP
 40
0.0
  9
$DIMTM
 40
0.0
  9
$DIMTXT
 40
2.8
  9
$DIMCEN
 40
0.09
  9
$DIMTSZ
 40
0.0
  9
$DIMTOL
 70
     0
  9
$DIMLIM
 70
     0
  9
$DIMTIH
 70
     1
  9
$DIMTOH
 70
     1
  9
$DIMSE1
 70
     0
  9
$DIMSE2
 70
     0
  9
$DIMTAD
 70
     1
  9
$DIMZIN
 70
     0
  9
$DIMBLK
  1

  9
$DIMASO
 70
     1
  9
$DIMSHO
 70
     1
  9
$DIMPOST
  1

  9
$DIMAPOST
  1

  9
$DIMALT
 70
     0
  9
$DIMALTD
 70
     2
  9
$DIMALTF
 40
25.4
  9
$DIMLFAC
 40
1.0
  9
$DIMTOFL
 70
     0
  9
$DIMTVP
 40
0.0
  9
$DIMTIX
 70
     0
  9
$DIMSOXD
 70
     0
  9
$DIMSAH
 70
     0
  9
$DIMBLK1
  1

  9
$DIMBLK2
  1

  9
$DIMSTYLE
  2
Standard
  9
$DIMCLRD
 70
     0
  9
$DIMCLRE
 70
     0
  9
$DIMCLRT
 70
     0
  9
$DIMTFAC
 40
0.714286
  9
$DIMGAP
 40
0.09
  9
$DIMJUST
 70
     0
  9
$DIMSD1
 70
     0
  9
$DIMSD2
 70
     0
  9
$DIMTOLJ
 70
     1
  9
$DIMTZIN
 70
     0
  9
$DIMALTZ
 70
     0
  9
$DIMALTTZ
 70
     0
  9
$DIMUPT
 70
     0
  9
$DIMDEC
 70
     4
  9
$DIMTDEC
 70
     4
  9
$DIMALTU
 70
     2
  9
$DIMALTTD
 70
     2
  9
$DIMTXSTY
  7
Standard
  9
$DIMAUNIT
 70
     0
  9
$DIMADEC
 70
     0
  9
$DIMALTRND
 40
0.0
  9
$DIMAZIN
 70
     0
  9
$DIMDSEP
 70
     0
  9
$DIMATFIT
 70
     3
  9
$DIMFRAC
 70
     0
  9
$DIMLDRBLK
  1

  9
$DIMLUNIT
 70
     2
  9
$DIMLWD
 70
     0
  9
$DIMLWE
 70
     0
  9
$DIMTMOVE
 70
     0
  9
$LUNITS
 70
     2
  9
$LUPREC
 70
     3
  9
$SKETCHINC
 40
0.1
  9
$FILLETRAD
 40
0.0
  9
$AUNITS
 70
     0
  9
$AUPREC
 70
     0
  9
$MENU
  1
acad
  9
$ELEVATION
 40
0.0
  9
$PELEVATION
 40
0.0
  9
$THICKNESS
 40
0.0
  9
$LIMCHECK
 70
     0
  9
$CHAMFERA
 40
0.0
  9
$CHAMFERB
 40
0.0
  9
$CHAMFERC
 40
0.0
  9
$CHAMFERD
 40
0.0
  9
$SKPOLY
 70
     0
  9
$TDCREATE
 40
0.000000000
  9
$TDUCREATE
 40
0.000000000
  9
$TDUPDATE
 40
0.000000000
  9
$TDUUPDATE
 40
0.000000000
  9
$TDINDWG
 40
0.0000000000
  9
$TDUSRTIMER
 40
0.0000000000
  9
$USRTIMER
 70
     1
  9
$ANGBASE
 50
0.0
  9
$ANGDIR
 70
     0
  9
$PDMODE
 70
     0
  9
$PDSIZE
 40
0.0
  9
$PLINEWID
 40
0.0
  9
$SPLFRAME
 70
     0
  9
$SPLINETYPE
 70
     6
  9
$SPLINESEGS
 70
     8
  9
$HANDSEED
  5
7C5
  9
$SURFTAB1
 70
     6
  9
$SURFTAB2
 70
     6
  9
$SURFTYPE
 70
     6
  9
$SURFU
 70
     6
  9
$SURFV
 70
     6
  9
$UCSBASE
  2

  9
$UCSNAME
  2

  9
$UCSORG
 10
0.0
 20
0.0
 30
0.0
  9
$UCSXDIR
 10
1.0
 20
0.0
 30
0.0
  9
$UCSYDIR
 10
0.0
 20
1.0
 30
0.0
  9
$UCSORTHOREF
  2

  9
$UCSORTHOVIEW
 70
     0
  9
$UCSORGTOP
 10
0.0
 20
0.0
 30
0.0
  9
$UCSORGBOTTOM
 10
0.0
 20
0.0
 30
0.0
  9
$UCSORGLEFT
 10
0.0
 20
0.0
 30
0.0
  9
$UCSORGRIGHT
 10
0.0
 20
0.0
 30
0.0
  9
$UCSORGFRONT
 10
0.0
 20
0.0
 30
0.0
  9
$UCSORGBACK
 10
0.0
 20
0.0
 30
0.0
  9
$PUCSBASE
  2

  9
$PUCSNAME
  2

  9
$PUCSORG
 10
0.0
 20
0.0
 30
0.0
  9
$PUCSXDIR
 10
1.0
 20
0.0
 30
0.0
  9
$PUCSYDIR
 10
0.0
 20
1.0
 30
0.0
  9
$PUCSORTHOREF
  2

  9
$PUCSORTHOVIEW
 70
     0
  9
$PUCSORGTOP
 10
0.0
 20
0.0
 30
0.0
  9
$PUCSORGBOTTOM
 10
0.0
 20
0.0
 30
0.0
  9
$PUCSORGLEFT
 10
0.0
 20
0.0
 30
0.0
  9
$PUCSORGRIGHT
 10
0.0
 20
0.0
 30
0.0
  9
$PUCSORGFRONT
 10
0.0
 20
0.0
 30
0.0
  9
$PUCSORGBACK
 10
0.0
 20
0.0
 30
0.0
  9
$USERI1
 70
     0
  9
$USERI2
 70
     0
  9
$USERI3
 70
     0
  9
$USERI4
 70
     0
  9
$USERI5
 70
     0
  9
$USERR1
 40
0.0
  9
$USERR2
 40
0.0
  9
$USERR3
 40
0.0
  9
$USERR4
 40
0.0
  9
$USERR5
 40
0.0
  9
$WORLDVIEW
 70
     1
  9
$SHADEDGE
 70
     3
  9
$SHADEDIF
 70
    70
  9
$TILEMODE
 70
     1
  9
$MAXACTVP
 70
    16
  9
$PINSBASE
 10
0.0
 20
0.0
 30
0.0
  9
$PLIMCHECK
 70
     0
  9
$PEXTMIN
 10
1.000000E+20
 20
1.000000E+20
 30
1.000000E+20
  9
$PEXTMAX
 10
-1.000000E+20
 20
-1.000000E+20
 30
-1.000000E+20
  9
$PLIMMIN
 10
0.0
 20
0.0
  9
$PLIMMAX
 10
12.0
 20
9.0
  9
$UNITMODE
 70
     0
  9
$VISRETAIN
 70
     0
  9
$PLINEGEN
 70
     1
  9
$PSLTSCALE
 70
     0
  9
$TREEDEPTH
 70
  3020
  9
$CMLSTYLE
  2
Standard
  9
$CMLJUST
 70
     0
  9
$CMLSCALE
 40
1.0
  9
$PROXYGRAPHICS
 70
     0
  9
$MEASUREMENT
 70
     0
  9
$CELWEIGHT
370
     0
  9
$ENDCAPS
280
     0
  9
$JOINSTYLE
280
     0
  9
$LWDISPLAY
290
     0
  9
$INSUNITS
 70
     0
  9
$HYPERLINKBASE
  1

  9
$STYLESHEET
  1

  9
$XEDIT
290
     1
  9
$CEPSNTYPE
380
     0
  9
$PSTYLEMODE
290
     1
  9
$FINGERPRINTGUID
  2

  9
$VERSIONGUID
  2

  9
$EXTNAMES
290
     1
  9
$PSVPSCALE
 40
0.0
  0
ENDSEC
  0
SECTION
  2
CLASSES
  0
CLASS
  1
LWPOLYLINE
  2
AcDbPolyline
  3
AutoCAD 2000
 90
    32768
280
     0
281
     1
  0
CLASS
  1
IMAGE
  2
AcDbRasterImage
  3
ISM
 90
    32895
280
     0
281
     1
  0
CLASS
  1
OLE2FRAME
  2
AcDbOle2Frame
  3
AutoCAD 2000
 90
    32768
280
     0
281
     1
  0
CLASS
  1
HATCH
  2
AcDbHatch
  3
AutoCAD 2000
 90
    32768
280
     0
281
     1
  0
CLASS
  1
DICTIONARYVAR
  2
AcDbDictionaryVar
  3
AutoCAD 2000
 90
    32768
280
     0
281
     0
  0
CLASS
  1
RASTERVARIABLES
  2
AcDbRasterVariables
  3
ISM
 90
    32768
280
     0
281
     0
  0
CLASS
  1
IMAGEDEF
  2
AcDbRasterImageDef
  3
ISM
 90
    32768
280
     0
281
     0
  0
CLASS
  1
IMAGEDEF_REACTOR
  2
AcDbRasterImageDefReactor
  3
ISM
 90
    32769
280
     0
281
     0
  0
CLASS
  1
IDBUFFER
  2
AcDbIdBuffer
  3
AutoCAD 2000
 90
    32768
280
     0
281
     0
  0
CLASS
  1
SPATIAL_FILTER
  2
AcDbSpatialFilter
  3
AutoCAD 2000
 90
    32768
280
     0
281
     0
  0
CLASS
  1
XRECORD
  2
AcDbXrecord
  3
AutoCAD 2000
 90
        0
280
     0
281
     0
  0
CLASS
  1
SORTENTSTABLE
  2
AcDbSortentsTable
  3
AutoCAD 2000
 90
    32768
280
     0
281
     0
  0
CLASS
  1
LAYER_INDEX
  2
AcDbLayerIndex
  3
AutoCAD 2000
 90
    32768
280
     0
281
     0
  0
CLASS
  1
SPATIAL_INDEX
  2
AcDbSpatialIndex
  3
AutoCAD 2000
 90
    32768
280
     0
281
     0
  0
CLASS
  1
OBJECT_PTR
  2
CAseDLPNTableRecord
  3
"ASE-LPNTableRecord"
 90
    32769
280
     0
281
     0
  0
CLASS
  1
LAYOUT
  2
AcDbLayout
  3
AutoCAD 2000
 90
        0
280
     0
281
     0
  0
CLASS
  1
PLOTSETTINGS
  2
AcDbPlotSettings
  3
AutoCAD 2000
 90
    32768
280
     0
281
     0
  0
CLASS
  1
ACDBDICTIONARYWDFLT
  2
AcDbDictionaryWithDefault
  3
AutoCAD 2000
 90
        0
280
     0
281
     0
  0
CLASS
  1
ACDBPLACEHOLDER
  2
AcDbPlaceHolder
  3
AutoCAD 2000
 90
        0
280
     0
281
     0
  0
CLASS
  1
VBA_PROJECT
  2
AcDbVbaProject
  3
acadvba
 90
    32768
280
     0
281
     0
  0
CLASS
  1
WIPEOUT
  2
AcDbWipeout
  3
WipeOut|AutoCAD Express Tool|expresstools@autodesk.com
 90
    32895
280
     0
281
     1
  0
CLASS
  1
WIPEOUTVARIABLES
  2
AcDbWipeoutVariables
  3
WipeOut|AutoCAD Express Tool|expresstools@autodesk.com
 90
        0
280
     0
281
     0
  0
CLASS
  1
RTEXT
  2
RText
  3
RText|AutoCAD Express Tool|expresstools@autodesk.com
 90
    32768
280
     0
281
     1
  0
CLASS
  1
ARCALIGNEDTEXT
  2
AcDbArcAlignedText
  3
ATEXT|AutoCAD Express Tool|expresstools@autodesk.com
 90
    32768
280
     0
281
     1
  0
ENDSEC
  0
SECTION
  2
TABLES
  0
TABLE
  2
VPORT
  5
7
100
AcDbSymbolTable
 70
     1
  0
VPORT
  5
15
100
AcDbSymbolTableRecord
100
AcDbViewportTableRecord
  2
*ACTIVE
 70
     0
 10
0.0
 20
0.0
 11
1.0
 21
1.0
 12
0.0
 22
0.0
 13
0.0
 23
0.0
 14
1.0
 24
1.0
 15
0.0
 25
0.0
 16
0.0
 26
0.0
 36
1.0
 17
0.0
 27
0.0
 37
0.0
 40
100.0
 41
1.0
 42
50.0
 43
0.0
 44
0.0
 50
0.0
 51
0.0
 71
     0
 72
   100
 73
     1
 74
     1
 75
     0
 76
     0
 77
     0
 78
     0
281
     0
 65
     0
110
0.0
120
0.0
130
0.0
111
1.0
121
0.0
131
0.0
112
0.0
122
1.0
132
0.0
345
0
346
0
 79
     0
146
0.0
  0
ENDTAB
  0
TABLE
  2
LTYPE
  5
4
100
AcDbSymbolTable
 70
     7
  0
LTYPE
  5
11
100
AcDbSymbolTableRecord
100
AcDbLinetypeTableRecord
  2
ByBlock
 70
    64
  3

 72
    65
 73
     0
 40
0.0
  0
LTYPE
  5
12
100
AcDbSymbolTableRecord
100
AcDbLinetypeTableRecord
  2
ByLayer
 70
    64
  3

 72
    65
 73
     0
 40
0.0
  0
LTYPE
  5
13
100
AcDbSymbolTableRecord
100
AcDbLinetypeTableRecord
  2
Continuous
 70
    64
  3
Solid line
 72
    65
 73
     0
 40
0.0
  0
LTYPE
  5
24
100
AcDbSymbolTableRecord
100
AcDbLinetypeTableRecord
  2
DASHED
 70
    64
  3
Dashed __ __ __ __ __ __ __ __ __ __ __ __ __ _
 72
    65
 73
     2
 40
0.75
 49
0.5
 74
     0
 49
-0.25
 74
     0
  0
LTYPE
  5
25
100
AcDbSymbolTableRecord
100
AcDbLinetypeTableRecord
  2
CENTER
 70
    64
  3
Center ____ _ ____ _ ____ _ ____ _ ____ _ ____
 72
    65
 73
     4
 40
1.0
 49
0.5
 74
     0
 49
-0.25
 74
     0
 49
0.0
 74
     0
 49
-0.25
 74
     0
  0
LTYPE
  5
26
100
AcDbSymbolTableRecord
100
AcDbLinetypeTableRecord
  2
DIVIDE
 70
    64
  3
Divide ____ . . ____ . . ____ . . ____ . . ____
 72
    65
 73
     6
 40
1.25
 49
0.5
 74
     0
 49
-0.25
 74
     0
 49
0.0
 74
     0
 49
-0.25
 74
     0
 49
0.0
 74
     0
 49
-0.25
 74
     0
  0
LTYPE
  5
27
100
AcDbSymbolTableRecord
100
AcDbLinetypeTableRecord
  2
PHANTOM
 70
    64
  3
Phantom ______  __  __  ______  __  __  ______
 72
    65
 73
     6
 40
9.0
 49
4.3
 74
     0
 49
-0.7
 74
     0
 49
1.3
 74
     0
 49
-0.7
 74
     0
 49
1.3
 74
     0
 49
-0.7
 74
     0
  0
ENDTAB
  0
TABLE
  2
LAYER
  5
2
100
AcDbSymbolTable
 70
     3
  0
LAYER
  5
14
100
AcDbSymbolTableRecord
100
AcDbLayerTableRecord
  2
0
 70
    64
 62
    53
  6
Continuous
290
     1
370
    -3
390
1D
  0
LAYER
  5
28
100
AcDbSymbolTableRecord
100
AcDbLayerTableRecord
  2
3
 70
    64
 62
     4
  6
Continuous
290
     1
370
    -3
390
1D
  0
LAYER
  5
29
100
AcDbSymbolTableRecord
100
AcDbLayerTableRecord
  2
5
 70
    64
 62
   191
  6
Continuous
290
     1
370
    -3
390
1D
  0
ENDTAB
  0
TABLE
  2
STYLE
  5
3
100
AcDbSymbolTable
 70
     2
  0
STYLE
  5
17
100
AcDbSymbolTableRecord
100
AcDbTextStyleTableRecord
  2
Standard
 70
     0
 40
0.0
 41
1.0
 50
0.0
 71
     0
 42
0.0
  3
txt
  4

  0
STYLE
  5
11F
100
AcDbSymbolTableRecord
100
AcDbTextStyleTableRecord
  2
ZU_SHPTB00001
 70
     0
 40
0.0
 41
1.0
 50
0.0
 71
     0
 42
0.0
  3
monotxt
  4
bigfont
  0
ENDTAB
  0
TABLE
  2
VIEW
  5
5
100
AcDbSymbolTable
 70
     0
  0
ENDTAB
  0
TABLE
  2
UCS
  5
6
100
AcDbSymbolTable
 70
     0
  0
ENDTAB
  0
TABLE
  2
APPID
  5
8
100
AcDbSymbolTable
 70
     1
  0
APPID
  5
16
100
AcDbSymbolTableRecord
100
AcDbRegAppTableRecord
  2
ACAD
 70
     0
  0
ENDTAB
  0
TABLE
  2
DIMSTYLE
  5
9
100
AcDbSymbolTable
 70
     1
100
AcDbDimStyleTable
 71
     0
  0
DIMSTYLE
105
18
100
AcDbSymbolTableRecord
100
AcDbDimStyleTableRecord
  2
Standard
 70
     0
  3

  4

 40
1.0
 41
0.18
 42
0.0625
 43
0.38
 44
0.18
 45
0.0
 46
0.0
 47
0.0
 48
0.0
 71
     0
 72
     0
 73
     1
 74
     1
 75
     0
 76
     0
 77
     0
 78
     0
 79
     0
140
0.18
141
0.09
142
0.0
143
25.4
144
1.0
145
0.0
146
1.0
147
0.09
148
0.0
170
     0
171
     2
172
     0
173
     0
174
     0
175
     0
176
     0
177
     0
178
     0
179
     0
271
     4
272
     4
273
     2
274
     2
275
     0
276
     0
277
     2
278
    46
279
     0
280
     0
281
     0
282
     0
283
     1
284
     0
285
     0
286
     0
288
     0
340
17
341
0
342
0
343
0
344
0
371
    -2
372
    -2
  0
ENDTAB
  0
TABLE
  2
BLOCK_RECORD
  5
1
100
AcDbSymbolTable
 70
     8
  0
BLOCK_RECORD
  5
A
100
AcDbSymbolTableRecord
100
AcDbBlockTableRecord
  2
*MODEL_SPACE
340
20
  0
BLOCK_RECORD
  5
B
100
AcDbSymbolTableRecord
100
AcDbBlockTableRecord
  2
*PAPER_SPACE
340
21
  0
BLOCK_RECORD
  5
48
100
AcDbSymbolTableRecord
100
AcDbBlockTableRecord
  2
ZU_SYM_K__CAD_SYM_POO_SYM_N20_-1
340
0
102
{BLKREFS
331
53
102
}
  0
BLOCK_RECORD
  5
54
100
AcDbSymbolTableRecord
100
AcDbBlockTableRecord
  2
ZU_SYM_K__CAD_SYM_POO_SYM_N20_00001-1
340
0
102
{BLKREFS
331
5F
102
}
  0
BLOCK_RECORD
  5
AD
100
AcDbSymbolTableRecord
100
AcDbBlockTableRecord
  2
ZU_SYM__USERS_HOME_SYMBOL_STD_SYM_B01_-1
340
0
102
{BLKREFS
331
BC
102
}
  0
BLOCK_RECORD
  5
BD
100
AcDbSymbolTableRecord
100
AcDbBlockTableRecord
  2
ZU_SYM__USERS_HOME_SYMBOL_STD_SYM_B01_00002-1
340
0
102
{BLKREFS
331
CC
102
}
  0
BLOCK_RECORD
  5
CD
100
AcDbSymbolTableRecord
100
AcDbBlockTableRecord
  2
ZU_SYM__USERS_HOME_SYMBOL_STD_SYM_B01_00003-1
340
0
102
{BLKREFS
331
DC
102
}
  0
BLOCK_RECORD
  5
DD
100
AcDbSymbolTableRecord
100
AcDbBlockTableRecord
  2
ZU_SYM__USERS_HOME_SYMBOL_STD_SYM_B01_00004-1
340
0
102
{BLKREFS
331
EC
102
}
  0
BLOCK_RECORD
  5
127
100
AcDbSymbolTableRecord
100
AcDbBlockTableRecord
  2
ZU_SYM_K__CAD_SYM_POO_SYM_B20_-1
340
0
102
{BLKREFS
331
132
102
}
  0
BLOCK_RECORD
  5
7B5
100
AcDbSymbolTableRecord
100
AcDbBlockTableRecord
  2
ZU_SYM_K__CAD_SYM_POO_SYM_B20_00005-1
340
0
102
{BLKREFS
331
7C0
102
}
  0
ENDTAB
  0
ENDSEC
  0
SECTION
  2
BLOCKS
  0
BLOCK
  5
D
100
AcDbEntity
  8
0
100
AcDbBlockBegin
  2
*MODEL_SPACE
 70
     0
 10
0.0
 20
0.0
 30
0.0
  3
*MODEL_SPACE
  1

  0
ENDBLK
  5
E
100
AcDbEntity
  8
0
100
AcDbBlockEnd
  0
BLOCK
  5
F
100
AcDbEntity
 67
     1
  8
0
100
AcDbBlockBegin
  2
*PAPER_SPACE
 70
     0
 10
0.0
 20
0.0
 30
0.0
  3
*PAPER_SPACE
  1

  0
ENDBLK
  5
10
100
AcDbEntity
 67
     1
  8
0
100
AcDbBlockEnd
  0
BLOCK
  5
49
100
AcDbEntity
  8
0
100
AcDbBlockBegin
  2
ZU_SYM_K__CAD_SYM_POO_SYM_N20_-1
 70
    64
 10
0.0
 20
0.0
 30
0.0
  3
ZU_SYM_K__CAD_SYM_POO_SYM_N20_-1
  1

  0
CIRCLE
  5
4A
100
AcDbEntity
  8
0
370
    -3
  6
Continuous
100
AcDbCircle
 10
0.0
 20
0.0
 30
0.0
 40
4.0
  0
LINE
  5
4B
100
AcDbEntity
  8
0
370
    -3
  6
Continuous
100
AcDbLine
 10
2.299999
 20
-4.0
 30
0.0
 11
-2.299999
 21
-4.0
 31
0.0
  0
LINE
  5
4C
100
AcDbEntity
  8
0
370
    -3
  6
Continuous
100
AcDbLine
 10
4.6
 20
-0.000001
 30
0.0
 11
2.300001
 21
-4.0
 31
0.0
  0
LINE
  5
4D
100
AcDbEntity
  8
0
370
    -3
  6
Continuous
100
AcDbLine
 10
2.300001
 20
4.0
 30
0.0
 11
4.6
 21
0.000001
 31
0.0
  0
LINE
  5
4E
100
AcDbEntity
  8
0
370
    -3
  6
Continuous
100
AcDbLine
 10
-2.299999
 20
4.0
 30
0.0
 11
2.299999
 21
4.0
 31
0.0
  0
LINE
  5
4F
100
AcDbEntity
  8
0
370
    -3
  6
Continuous
100
AcDbLine
 10
-4.6
 20
0.000001
 30
0.0
 11
-2.300001
 21
4.0
 31
0.0
  0
LINE
  5
50
100
AcDbEntity
  8
0
370
    -3
  6
Continuous
100
AcDbLine
 10
-2.300001
 20
-4.0
 30
0.0
 11
-4.6
 21
-0.000001
 31
0.0
  0
POINT
  5
51
100
AcDbEntity
  8
0
370
    -3
  6
Continuous
100
AcDbPoint
 10
0.0
 20
0.0
 30
0.0
  0
ENDBLK
  5
52
100
AcDbEntity
  8
0
100
AcDbBlockEnd
  0
BLOCK
  5
55
100
AcDbEntity
  8
0
100
AcDbBlockBegin
  2
ZU_SYM_K__CAD_SYM_POO_SYM_N20_00001-1
 70
    64
 10
0.0
 20
0.0
 30
0.0
  3
ZU_SYM_K__CAD_SYM_POO_SYM_N20_00001-1
  1

  0
CIRCLE
  5
56
100
AcDbEntity
  8
0
370
    -3
  6
Continuous
100
AcDbCircle
 10
0.0
 20
0.0
 30
0.0
 40
4.0
  0
LINE
  5
57
100
AcDbEntity
  8
0
370
    -3
  6
Continuous
100
AcDbLine
 10
2.299999
 20
-4.0
 30
0.0
 11
-2.299999
 21
-4.0
 31
0.0
  0
LINE
  5
58
100
AcDbEntity
  8
0
370
    -3
  6
Continuous
100
AcDbLine
 10
4.6
 20
-0.000001
 30
0.0
 11
2.300001
 21
-4.0
 31
0.0
  0
LINE
  5
59
100
AcDbEntity
  8
0
370
    -3
  6
Continuous
100
AcDbLine
 10
2.300001
 20
4.0
 30
0.0
 11
4.6
 21
0.000001
 31
0.0
  0
LINE
  5
5A
100
AcDbEntity
  8
0
370
    -3
  6
Continuous
100
AcDbLine
 10
-2.299999
 20
4.0
 30
0.0
 11
2.299999
 21
4.0
 31
0.0
  0
LINE
  5
5B
100
AcDbEntity
  8
0
370
    -3
  6
Continuous
100
AcDbLine
 10
-4.6
 20
0.000001
 30
0.0
 11
-2.300001
 21
4.0
 31
0.0
  0
LINE
  5
5C
100
AcDbEntity
  8
0
370
    -3
  6
Continuous
100
AcDbLine
 10
-2.300001
 20
-4.0
 30
0.0
 11
-4.6
 21
-0.000001
 31
0.0
  0
POINT
  5
5D
100
AcDbEntity
  8
0
370
    -3
  6
Continuous
100
AcDbPoint
 10
0.0
 20
0.0
 30
0.0
  0
ENDBLK
  5
5E
100
AcDbEntity
  8
0
100
AcDbBlockEnd
  0
BLOCK
  5
AE
100
AcDbEntity
  8
0
100
AcDbBlockBegin
  2
ZU_SYM__USERS_HOME_SYMBOL_STD_SYM_B01_-1
 70
    64
 10
0.0
 20
0.0
 30
0.0
  3
ZU_SYM__USERS_HOME_SYMBOL_STD_SYM_B01_-1
  1

  0
POINT
  5
AF
100
AcDbEntity
  8
0
370
    -3
  6
Continuous
100
AcDbPoint
 10
0.0
 20
0.0
 30
0.0
  0
LINE
  5
B0
100
AcDbEntity
  8
0
370
    -3
  6
Continuous
100
AcDbLine
 10
-0.000018
 20
-4.599998
 30
0.0
 11
-3.000017
 21
-4.599986
 31
0.0
  0
LINE
  5
B1
100
AcDbEntity
  8
0
370
    -3
  6
Continuous
100
AcDbLine
 10
-2.999996
 20
-4.59997
 30
0.0
 11
-3.499991
 21
-3.899967
 31
0.0
  0
LINE
  5
B2
100
AcDbEntity
  8
0
370
    -3
  6
Continuous
100
AcDbLine
 10
-3.500012
 20
-3.89998
 30
0.0
 11
-3.49998
 21
3.90001
 31
0.0
  0
LINE
  5
B3
100
AcDbEntity
  8
0
370
    -3
  6
Continuous
100
AcDbLine
 10
-3.499965
 20
3.9
 30
0.0
 11
-2.999964
 21
4.599998
 31
0.0
  0
LINE
  5
B4
100
AcDbEntity
  8
0
370
    -3
  6
Continuous
100
AcDbLine
 10
-2.999979
 20
4.600012
 30
0.0
 11
0.000019
 21
4.600001
 31
0.0
  0
LINE
  5
B5
100
AcDbEntity
  8
0
370
    -3
  6
Continuous
100
AcDbLine
 10
0.000019
 20
4.6
 30
0.0
 11
-0.000019
 21
-4.6
 31
0.0
  0
LINE
  5
B6
100
AcDbEntity
  8
0
370
    -3
  6
Continuous
100
AcDbLine
 10
-3.000008
 20
-2.299986
 30
0.0
 11
-0.000008
 21
-2.299998
 31
0.0
  0
LINE
  5
B7
100
AcDbEntity
  8
0
370
    -3
  6
Continuous
100
AcDbLine
 10
-2.999989
 20
2.300011
 30
0.0
 11
0.000009
 21
2.3
 31
0.0
  0
ARC
  5
B8
100
AcDbEntity
  8
0
370
    -3
  6
Continuous
100
AcDbCircle
 10
-1.930014
 20
-3.449991
 30
0.0
 40
1.57
100
AcDbArc
 50
132.899744
 51
179.999745
  0
ARC
  5
B9
100
AcDbEntity
  8
0
370
    -3
  6
Continuous
100
AcDbCircle
 10
-1.929986
 20
3.450007
 30
0.0
 40
1.57
100
AcDbArc
 50
179.999745
 51
227.099746
  0
ARC
  5
BA
100
AcDbEntity
  8
0
370
    -3
  6
Continuous
100
AcDbCircle
 10
2.040001
 20
-0.000008
 30
0.0
 40
5.539999
100
AcDbArc
 50
155.470187
 51
204.52925
  0
ENDBLK
  5
BB
100
AcDbEntity
  8
0
100
AcDbBlockEnd
  0
BLOCK
  5
BE
100
AcDbEntity
  8
0
100
AcDbBlockBegin
  2
ZU_SYM__USERS_HOME_SYMBOL_STD_SYM_B01_00002-1
 70
    64
 10
0.0
 20
0.0
 30
0.0
  3
ZU_SYM__USERS_HOME_SYMBOL_STD_SYM_B01_00002-1
  1

  0
POINT
  5
BF
100
AcDbEntity
  8
0
370
    -3
  6
Continuous
100
AcDbPoint
 10
0.0
 20
0.0
 30
0.0
  0
LINE
  5
C0
100
AcDbEntity
  8
0
370
    -3
  6
Continuous
100
AcDbLine
 10
-0.000018
 20
-4.599998
 30
0.0
 11
-3.000017
 21
-4.599986
 31
0.0
  0
LINE
  5
C1
100
AcDbEntity
  8
0
370
    -3
  6
Continuous
100
AcDbLine
 10
-2.999996
 20
-4.59997
 30
0.0
 11
-3.499991
 21
-3.899967
 31
0.0
  0
LINE
  5
C2
100
AcDbEntity
  8
0
370
    -3
  6
Continuous
100
AcDbLine
 10
-3.500012
 20
-3.89998
 30
0.0
 11
-3.49998
 21
3.90001
 31
0.0
  0
LINE
  5
C3
100
AcDbEntity
  8
0
370
    -3
  6
Continuous
100
AcDbLine
 10
-3.499965
 20
3.9
 30
0.0
 11
-2.999964
 21
4.599998
 31
0.0
  0
LINE
  5
C4
100
AcDbEntity
  8
0
370
    -3
  6
Continuous
100
AcDbLine
 10
-2.999979
 20
4.600012
 30
0.0
 11
0.000019
 21
4.600001
 31
0.0
  0
LINE
  5
C5
100
AcDbEntity
  8
0
370
    -3
  6
Continuous
100
AcDbLine
 10
0.000019
 20
4.6
 30
0.0
 11
-0.000019
 21
-4.6
 31
0.0
  0
LINE
  5
C6
100
AcDbEntity
  8
0
370
    -3
  6
Continuous
100
AcDbLine
 10
-3.000008
 20
-2.299986
 30
0.0
 11
-0.000008
 21
-2.299998
 31
0.0
  0
LINE
  5
C7
100
AcDbEntity
  8
0
370
    -3
  6
Continuous
100
AcDbLine
 10
-2.999989
 20
2.300011
 30
0.0
 11
0.000009
 21
2.3
 31
0.0
  0
ARC
  5
C8
100
AcDbEntity
  8
0
370
    -3
  6
Continuous
100
AcDbCircle
 10
-1.930014
 20
-3.449991
 30
0.0
 40
1.57
100
AcDbArc
 50
132.899744
 51
179.999745
  0
ARC
  5
C9
100
AcDbEntity
  8
0
370
    -3
  6
Continuous
100
AcDbCircle
 10
-1.929986
 20
3.450007
 30
0.0
 40
1.57
100
AcDbArc
 50
179.999745
 51
227.099746
  0
ARC
  5
CA
100
AcDbEntity
  8
0
370
    -3
  6
Continuous
100
AcDbCircle
 10
2.040001
 20
-0.000008
 30
0.0
 40
5.539999
100
AcDbArc
 50
155.470187
 51
204.52925
  0
ENDBLK
  5
CB
100
AcDbEntity
  8
0
100
AcDbBlockEnd
  0
BLOCK
  5
CE
100
AcDbEntity
  8
0
100
AcDbBlockBegin
  2
ZU_SYM__USERS_HOME_SYMBOL_STD_SYM_B01_00003-1
 70
    64
 10
0.0
 20
0.0
 30
0.0
  3
ZU_SYM__USERS_HOME_SYMBOL_STD_SYM_B01_00003-1
  1

  0
ARC
  5
CF
100
AcDbEntity
  8
0
370
    -3
  6
Continuous
100
AcDbCircle
 10
2.040001
 20
-0.000008
 30
0.0
 40
5.539999
100
AcDbArc
 50
155.470187
 51
204.52925
  0
ARC
  5
D0
100
AcDbEntity
  8
0
370
    -3
  6
Continuous
100
AcDbCircle
 10
-1.929986
 20
3.450007
 30
0.0
 40
1.57
100
AcDbArc
 50
179.999745
 51
227.099746
  0
ARC
  5
D1
100
AcDbEntity
  8
0
370
    -3
  6
Continuous
100
AcDbCircle
 10
-1.930014
 20
-3.449991
 30
0.0
 40
1.57
100
AcDbArc
 50
132.899744
 51
179.999745
  0
LINE
  5
D2
100
AcDbEntity
  8
0
370
    -3
  6
Continuous
100
AcDbLine
 10
-2.999989
 20
2.300011
 30
0.0
 11
0.000009
 21
2.3
 31
0.0
  0
LINE
  5
D3
100
AcDbEntity
  8
0
370
    -3
  6
Continuous
100
AcDbLine
 10
-3.000008
 20
-2.299986
 30
0.0
 11
-0.000008
 21
-2.299998
 31
0.0
  0
LINE
  5
D4
100
AcDbEntity
  8
0
370
    -3
  6
Continuous
100
AcDbLine
 10
0.000019
 20
4.6
 30
0.0
 11
-0.000019
 21
-4.6
 31
0.0
  0
LINE
  5
D5
100
AcDbEntity
  8
0
370
    -3
  6
Continuous
100
AcDbLine
 10
-2.999979
 20
4.600012
 30
0.0
 11
0.000019
 21
4.600001
 31
0.0
  0
LINE
  5
D6
100
AcDbEntity
  8
0
370
    -3
  6
Continuous
100
AcDbLine
 10
-3.499965
 20
3.9
 30
0.0
 11
-2.999964
 21
4.599998
 31
0.0
  0
LINE
  5
D7
100
AcDbEntity
  8
0
370
    -3
  6
Continuous
100
AcDbLine
 10
-3.500012
 20
-3.89998
 30
0.0
 11
-3.49998
 21
3.90001
 31
0.0
  0
LINE
  5
D8
100
AcDbEntity
  8
0
370
    -3
  6
Continuous
100
AcDbLine
 10
-2.999996
 20
-4.59997
 30
0.0
 11
-3.499991
 21
-3.899967
 31
0.0
  0
LINE
  5
D9
100
AcDbEntity
  8
0
370
    -3
  6
Continuous
100
AcDbLine
 10
-0.000018
 20
-4.599998
 30
0.0
 11
-3.000017
 21
-4.599986
 31
0.0
  0
POINT
  5
DA
100
AcDbEntity
  8
0
370
    -3
  6
Continuous
100
AcDbPoint
 10
0.0
 20
0.0
 30
0.0
  0
ENDBLK
  5
DB
100
AcDbEntity
  8
0
100
AcDbBlockEnd
  0
BLOCK
  5
DE
100
AcDbEntity
  8
0
100
AcDbBlockBegin
  2
ZU_SYM__USERS_HOME_SYMBOL_STD_SYM_B01_00004-1
 70
    64
 10
0.0
 20
0.0
 30
0.0
  3
ZU_SYM__USERS_HOME_SYMBOL_STD_SYM_B01_00004-1
  1

  0
ARC
  5
DF
100
AcDbEntity
  8
0
370
    -3
  6
Continuous
100
AcDbCircle
 10
2.040001
 20
-0.000008
 30
0.0
 40
5.539999
100
AcDbArc
 50
155.470187
 51
204.52925
  0
ARC
  5
E0
100
AcDbEntity
  8
0
370
    -3
  6
Continuous
100
AcDbCircle
 10
-1.929986
 20
3.450007
 30
0.0
 40
1.57
100
AcDbArc
 50
179.999745
 51
227.099746
  0
ARC
  5
E1
100
AcDbEntity
  8
0
370
    -3
  6
Continuous
100
AcDbCircle
 10
-1.930014
 20
-3.449991
 30
0.0
 40
1.57
100
AcDbArc
 50
132.899744
 51
179.999745
  0
LINE
  5
E2
100
AcDbEntity
  8
0
370
    -3
  6
Continuous
100
AcDbLine
 10
-2.999989
 20
2.300011
 30
0.0
 11
0.000009
 21
2.3
 31
0.0
  0
LINE
  5
E3
100
AcDbEntity
  8
0
370
    -3
  6
Continuous
100
AcDbLine
 10
-3.000008
 20
-2.299986
 30
0.0
 11
-0.000008
 21
-2.299998
 31
0.0
  0
LINE
  5
E4
100
AcDbEntity
  8
0
370
    -3
  6
Continuous
100
AcDbLine
 10
0.000019
 20
4.6
 30
0.0
 11
-0.000019
 21
-4.6
 31
0.0
  0
LINE
  5
E5
100
AcDbEntity
  8
0
370
    -3
  6
Continuous
100
AcDbLine
 10
-2.999979
 20
4.600012
 30
0.0
 11
0.000019
 21
4.600001
 31
0.0
  0
LINE
  5
E6
100
AcDbEntity
  8
0
370
    -3
  6
Continuous
100
AcDbLine
 10
-3.499965
 20
3.9
 30
0.0
 11
-2.999964
 21
4.599998
 31
0.0
  0
LINE
  5
E7
100
AcDbEntity
  8
0
370
    -3
  6
Continuous
100
AcDbLine
 10
-3.500012
 20
-3.89998
 30
0.0
 11
-3.49998
 21
3.90001
 31
0.0
  0
LINE
  5
E8
100
AcDbEntity
  8
0
370
    -3
  6
Continuous
100
AcDbLine
 10
-2.999996
 20
-4.59997
 30
0.0
 11
-3.499991
 21
-3.899967
 31
0.0
  0
LINE
  5
E9
100
AcDbEntity
  8
0
370
    -3
  6
Continuous
100
AcDbLine
 10
-0.000018
 20
-4.599998
 30
0.0
 11
-3.000017
 21
-4.599986
 31
0.0
  0
POINT
  5
EA
100
AcDbEntity
  8
0
370
    -3
  6
Continuous
100
AcDbPoint
 10
0.0
 20
0.0
 30
0.0
  0
ENDBLK
  5
EB
100
AcDbEntity
  8
0
100
AcDbBlockEnd
  0
BLOCK
  5
128
100
AcDbEntity
  8
0
100
AcDbBlockBegin
  2
ZU_SYM_K__CAD_SYM_POO_SYM_B20_-1
 70
    64
 10
0.0
 20
0.0
 30
0.0
  3
ZU_SYM_K__CAD_SYM_POO_SYM_B20_-1
  1

  0
LINE
  5
129
100
AcDbEntity
  8
0
370
    -3
  6
Continuous
100
AcDbLine
 10
-7.499999
 20
6.5
 30
0.0
 11
-7.499999
 21
-6.5
 31
0.0
  0
LINE
  5
12A
100
AcDbEntity
  8
0
370
    -3
  6
Continuous
100
AcDbLine
 10
-7.499998
 20
-6.499999
 30
0.0
 11
-7.999999
 21
-5.63407
 31
0.0
  0
LINE
  5
12B
100
AcDbEntity
  8
0
370
    -3
  6
Continuous
100
AcDbLine
 10
-7.499999
 20
6.5
 30
0.0
 11
-7.999999
 21
5.633876
 31
0.0
  0
LINE
  5
12C
100
AcDbEntity
  8
0
370
    -3
  6
Continuous
100
AcDbLine
 10
0.0
 20
-6.5
 30
0.0
 11
-7.499998
 21
-6.5
 31
0.0
  0
LINE
  5
12D
100
AcDbEntity
  8
0
370
    -3
  6
Continuous
100
AcDbLine
 10
0.0
 20
6.5
 30
0.0
 11
-7.499999
 21
6.5
 31
0.0
  0
LINE
  5
12E
100
AcDbEntity
  8
0
370
    -3
  6
Continuous
100
AcDbLine
 10
-7.999999
 20
5.633876
 30
0.0
 11
-7.999999
 21
-5.63407
 31
0.0
  0
LINE
  5
12F
100
AcDbEntity
  8
0
370
    -3
  6
Continuous
100
AcDbLine
 10
0.0
 20
-6.5
 30
0.0
 11
0.0
 21
6.5
 31
0.0
  0
POINT
  5
130
100
AcDbEntity
  8
0
370
    -3
  6
Continuous
100
AcDbPoint
 10
0.0
 20
0.0
 30
0.0
  0
ENDBLK
  5
131
100
AcDbEntity
  8
0
100
AcDbBlockEnd
  0
BLOCK
  5
7B6
100
AcDbEntity
  8
0
100
AcDbBlockBegin
  2
ZU_SYM_K__CAD_SYM_POO_SYM_B20_00005-1
 70
    64
 10
0.0
 20
0.0
 30
0.0
  3
ZU_SYM_K__CAD_SYM_POO_SYM_B20_00005-1
  1

  0
LINE
  5
7B7
100
AcDbEntity
  8
0
370
    -3
  6
Continuous
100
AcDbLine
 10
-7.499999
 20
6.5
 30
0.0
 11
-7.499999
 21
-6.5
 31
0.0
  0
LINE
  5
7B8
100
AcDbEntity
  8
0
370
    -3
  6
Continuous
100
AcDbLine
 10
-7.499998
 20
-6.499999
 30
0.0
 11
-7.999999
 21
-5.63407
 31
0.0
  0
LINE
  5
7B9
100
AcDbEntity
  8
0
370
    -3
  6
Continuous
100
AcDbLine
 10
-7.499999
 20
6.5
 30
0.0
 11
-7.999999
 21
5.633876
 31
0.0
  0
LINE
  5
7BA
100
AcDbEntity
  8
0
370
    -3
  6
Continuous
100
AcDbLine
 10
0.0
 20
-6.5
 30
0.0
 11
-7.499998
 21
-6.5
 31
0.0
  0
LINE
  5
7BB
100
AcDbEntity
  8
0
370
    -3
  6
Continuous
100
AcDbLine
 10
0.0
 20
6.5
 30
0.0
 11
-7.499999
 21
6.5
 31
0.0
  0
LINE
  5
7BC
100
AcDbEntity
  8
0
370
    -3
  6
Continuous
100
AcDbLine
 10
-7.999999
 20
5.633876
 30
0.0
 11
-7.999999
 21
-5.63407
 31
0.0
  0
LINE
  5
7BD
100
AcDbEntity
  8
0
370
    -3
  6
Continuous
100
AcDbLine
 10
0.0
 20
-6.5
 30
0.0
 11
0.0
 21
6.5
 31
0.0
  0
POINT
  5
7BE
100
AcDbEntity
  8
0
370
    -3
  6
Continuous
100
AcDbPoint
 10
0.0
 20
0.0
 30
0.0
  0
ENDBLK
  5
7BF
100
AcDbEntity
  8
0
100
AcDbBlockEnd
  0
ENDSEC
  0
SECTION
  2
ENTITIES
  0
LINE
  5
2A
100
AcDbEntity
  8
0
370
    -3
  6
CENTER
100
AcDbLine
 10
-33.763582
 20
-42.582778
 30
0.0
 11
-20.961928
 21
-42.582778
 31
0.0
  0
LINE
  5
2B
100
AcDbEntity
  8
0
370
    -3
  6
Continuous
100
AcDbLine
 10
593.517642
 20
-166.082778
 30
0.0
 11
590.417642
 21
-166.082778
 31
0.0
  0
LINE
  5
2C
100
AcDbEntity
  8
0
370
    -3
  6
Continuous
100
AcDbLine
 10
593.517642
 20
-166.082778
 30
0.0
 11
593.517642
 21
-168.823159
 31
0.0
  0
LINE
  5
2D
100
AcDbEntity
  8
0
370
    -3
  6
Continuous
100
AcDbLine
 10
593.517642
 20
-166.082778
 30
0.0
 11
590.417642
 21
-166.082778
 31
0.0
  0
ARC
  5
2E
100
AcDbEntity
  8
0
370
    -3
  6
Continuous
100
AcDbCircle
 10
613.517642
 20
-168.823159
 30
0.0
 40
20.0
100
AcDbArc
 50
180.0
 51
197.502524
  0
ARC
  5
2F
100
AcDbEntity
  8
0
370
    -3
  6
Continuous
100
AcDbCircle
 10
613.517642
 20
-168.823159
 30
0.0
 40
20.0
100
AcDbArc
 50
180.0
 51
197.502524
  0
ARC
  5
30
100
AcDbEntity
  8
0
370
    -3
  6
Continuous
100
AcDbCircle
 10
665.017642
 20
-152.582778
 30
0.0
 40
74.0
100
AcDbArc
 50
197.502524
 51
198.924517
  0
ARC
  5
31
100
AcDbEntity
  8
0
370
    -3
  6
Continuous
100
AcDbCircle
 10
665.017642
 20
-152.582778
 30
0.0
 40
74.0
100
AcDbArc
 50
341.075228
 51
342.497476
  0
LINE
  5
32
100
AcDbEntity
  8
0
370
    -3
  6
Continuous
100
AcDbLine
 10
736.517642
 20
-166.082778
 30
0.0
 11
736.517642
 21
-168.823159
 31
0.0
  0
ARC
  5
33
100
AcDbEntity
  8
0
370
    -3
  6
Continuous
100
AcDbCircle
 10
716.517642
 20
-168.823159
 30
0.0
 40
20.0
100
AcDbArc
 50
342.497476
 51
0.0
  0
ARC
  5
34
100
AcDbEntity
  8
0
370
    -3
  6
Continuous
100
AcDbCircle
 10
716.517642
 20
-168.823159
 30
0.0
 40
20.0
100
AcDbArc
 50
342.497476
 51
0.0
  0
ARC
  5
35
100
AcDbEntity
  8
0
370
    -3
  6
Continuous
100
AcDbCircle
 10
-396.98255
 20
-152.582778
 30
0.0
 40
74.0
100
AcDbArc
 50
197.502524
 51
252.511984
  0
ARC
  5
36
100
AcDbEntity
  8
0
370
    -3
  6
Continuous
100
AcDbCircle
 10
-413.222902
 20
-204.082775
 30
0.0
 40
20.0
100
AcDbArc
 50
252.497476
 51
270.0
  0
LINE
  5
37
100
AcDbEntity
  8
0
370
    -3
  6
Continuous
100
AcDbLine
 10
-413.222902
 20
-224.082775
 30
0.0
 11
-380.742139
 21
-224.082775
 31
0.0
  0
ARC
  5
38
100
AcDbEntity
  8
0
370
    -3
  6
Continuous
100
AcDbCircle
 10
-380.742139
 20
-204.082775
 30
0.0
 40
20.0
100
AcDbArc
 50
270.0
 51
287.502524
  0
LINE
  5
39
100
AcDbEntity
  8
0
370
    -3
  6
Continuous
100
AcDbLine
 10
-394.48255
 20
-213.582778
 30
0.0
 11
-394.48255
 21
-213.072361
 31
0.0
  0
ARC
  5
3A
100
AcDbEntity
  8
0
370
    -3
  6
Continuous
100
AcDbCircle
 10
-396.98255
 20
86.917222
 30
0.0
 40
300.0
100
AcDbArc
 50
263.967951
 51
276.032049
  0
LINE
  5
3B
100
AcDbEntity
  8
0
370
    -3
  6
Continuous
100
AcDbLine
 10
-399.48255
 20
-213.582778
 30
0.0
 11
-399.48255
 21
-213.072361
 31
0.0
  0
LINE
  5
3C
100
AcDbEntity
  8
0
370
    -3
  6
Continuous
100
AcDbLine
 10
-399.48255
 20
-213.582778
 30
0.0
 11
-394.48255
 21
-213.582778
 31
0.0
  0
ARC
  5
3D
100
AcDbEntity
  8
0
370
    -3
  6
Continuous
100
AcDbCircle
 10
-365.98255
 20
-206.449443
 30
0.0
 40
5.0
100
AcDbArc
 50
276.032049
 51
0.0
  0
ARC
  5
3E
100
AcDbEntity
  8
0
370
    -3
  6
Continuous
100
AcDbCircle
 10
-427.98255
 20
-206.449443
 30
0.0
 40
5.0
100
AcDbArc
 50
180.0
 51
263.967951
  0
LINE
  5
3F
100
AcDbEntity
  8
0
370
    -3
  6
Continuous
100
AcDbLine
 10
-432.98255
 20
-179.082778
 30
0.0
 11
-422.465391
 21
-179.082778
 31
0.0
  0
LINE
  5
40
100
AcDbEntity
  8
0
370
    -3
  6
Continuous
100
AcDbLine
 10
-432.98255
 20
-174.902658
 30
0.0
 11
-432.98255
 21
-179.082778
 31
0.0
  0
LINE
  5
41
100
AcDbEntity
  8
0
370
    -3
  6
Continuous
100
AcDbLine
 10
-432.98255
 20
-179.082778
 30
0.0
 11
-432.98255
 21
-206.449443
 31
0.0
  0
LINE
  5
42
100
AcDbEntity
  8
0
370
    -3
  6
Continuous
100
AcDbLine
 10
-360.98255
 20
-174.902658
 30
0.0
 11
-360.98255
 21
-179.082778
 31
0.0
  0
LINE
  5
43
100
AcDbEntity
  8
0
370
    -3
  6
Continuous
100
AcDbLine
 10
-371.499709
 20
-179.082778
 30
0.0
 11
-360.98255
 21
-179.082778
 31
0.0
  0
LINE
  5
44
100
AcDbEntity
  8
0
370
    -3
  6
Continuous
100
AcDbLine
 10
-360.98255
 20
-179.082778
 30
0.0
 11
-360.98255
 21
-206.449443
 31
0.0
  0
LINE
  5
45
100
AcDbEntity
  8
0
370
    -3
  6
Continuous
100
AcDbLine
 10
-338.98255
 20
-232.544316
 30
0.0
 11
-327.479605
 21
-231.659474
 31
0.0
  0
LINE
  5
46
100
AcDbEntity
  8
0
370
    -3
  6
Continuous
100
AcDbLine
 10
-466.48255
 20
-230.082778
 30
0.0
 11
-457.98255
 21
-230.082778
 31
0.0
  0
LINE
  5
47
100
AcDbEntity
  8
0
370
    -3
  6
Continuous
100
AcDbLine
 10
-457.98255
 20
-230.082778
 30
0.0
 11
-338.98255
 21
-232.582778
 31
0.0
  0
INSERT
  5
53
100
AcDbEntity
  8
0
100
AcDbBlockReference
  2
ZU_SYM_K__CAD_SYM_POO_SYM_N20_-1
 10
-445.419483
 20
-201.019474
 30
0.0
 41
-1.0
 42
1.0
 50
359.999861
  0
INSERT
  5
5F
100
AcDbEntity
  8
0
100
AcDbBlockReference
  2
ZU_SYM_K__CAD_SYM_POO_SYM_N20_00001-1
 10
-348.545736
 20
-201.019592
 30
0.0
  0
LINE
  5
60
100
AcDbEntity
  8
0
370
    -3
  6
DASHED
100
AcDbLine
 10
662.517604
 20
-213.582778
 30
0.0
 11
662.517604
 21
-213.072361
 31
0.0
  0
LINE
  5
61
100
AcDbEntity
  8
0
370
    -3
  6
DASHED
100
AcDbLine
 10
667.517604
 20
-213.582778
 30
0.0
 11
667.517604
 21
-213.072361
 31
0.0
  0
LINE
  5
62
100
AcDbEntity
  8
0
370
    -3
  6
DASHED
100
AcDbLine
 10
662.517604
 20
-213.582778
 30
0.0
 11
667.517604
 21
-213.582778
 31
0.0
  0
ARC
  5
63
100
AcDbEntity
  8
0
370
    -3
  6
DASHED
100
AcDbCircle
 10
665.017604
 20
86.917222
 30
0.0
 40
300.0
100
AcDbArc
 50
263.967951
 51
276.032049
  0
ARC
  5
64
100
AcDbEntity
  8
0
370
    -3
  6
DASHED
100
AcDbCircle
 10
696.017604
 20
-206.449443
 30
0.0
 40
5.0
100
AcDbArc
 50
276.032049
 51
0.0
  0
ARC
  5
65
100
AcDbEntity
  8
0
370
    -3
  6
DASHED
100
AcDbCircle
 10
634.017604
 20
-206.449443
 30
0.0
 40
5.0
100
AcDbArc
 50
180.0
 51
263.967951
  0
LINE
  5
66
100
AcDbEntity
  8
0
370
    -3
  6
DASHED
100
AcDbLine
 10
629.017604
 20
-174.402659
 30
0.0
 11
629.017604
 21
-206.449443
 31
0.0
  0
LINE
  5
67
100
AcDbEntity
  8
0
370
    -3
  6
DASHED
100
AcDbLine
 10
629.017604
 20
-179.082778
 30
0.0
 11
641.894908
 21
-179.082778
 31
0.0
  0
LINE
  5
68
100
AcDbEntity
  8
0
370
    -3
  6
DASHED
100
AcDbLine
 10
701.017604
 20
-174.402658
 30
0.0
 11
701.017604
 21
-206.449443
 31
0.0
  0
LINE
  5
69
100
AcDbEntity
  8
0
370
    -3
  6
DASHED
100
AcDbLine
 10
688.140298
 20
-179.082778
 30
0.0
 11
701.017604
 21
-179.082778
 31
0.0
  0
ARC
  5
6A
100
AcDbEntity
  8
0
370
    -3
  6
Continuous
100
AcDbCircle
 10
-254.487404
 20
-159.982778
 30
0.0
 40
20.6
100
AcDbArc
 50
235.0
 51
270.0
  0
ARC
  5
6B
100
AcDbEntity
  8
0
370
    -3
  6
Continuous
100
AcDbCircle
 10
-272.382559
 20
-169.426398
 30
0.0
 40
2.6
100
AcDbArc
 50
180.0
 51
235.0
  0
LINE
  5
6C
100
AcDbEntity
  8
0
370
    -3
  6
Continuous
100
AcDbLine
 10
-266.303079
 20
-176.85731
 30
0.0
 11
-273.873858
 21
-171.556193
 31
0.0
  0
LINE
  5
6D
100
AcDbEntity
  8
0
370
    -3
  6
Continuous
100
AcDbLine
 10
-274.982559
 20
-169.426398
 30
0.0
 11
-274.982559
 21
-121.582778
 31
0.0
  0
LINE
  5
6E
100
AcDbEntity
  8
0
370
    -3
  6
Continuous
100
AcDbLine
 10
-176.982559
 20
-162.624692
 30
0.0
 11
-92.982559
 21
-162.624692
 31
0.0
  0
LINE
  5
6F
100
AcDbEntity
  8
0
370
    -3
  6
Continuous
100
AcDbLine
 10
-176.982559
 20
-167.71586
 30
0.0
 11
-92.982559
 21
-167.71586
 31
0.0
  0
LINE
  5
70
100
AcDbEntity
  8
0
370
    -3
  6
Continuous
100
AcDbLine
 10
-176.982559
 20
-172.082778
 30
0.0
 11
-92.982559
 21
-172.082778
 31
0.0
  0
LINE
  5
71
100
AcDbEntity
  8
0
370
    -3
  6
Continuous
100
AcDbLine
 10
-176.982559
 20
-172.582778
 30
0.0
 11
-92.982559
 21
-172.582778
 31
0.0
  0
LINE
  5
72
100
AcDbEntity
  8
0
370
    -3
  6
Continuous
100
AcDbLine
 10
-183.782559
 20
-213.082778
 30
0.0
 11
-95.782559
 21
-213.082778
 31
0.0
  0
ARC
  5
73
100
AcDbEntity
  8
0
370
    -3
  6
Continuous
100
AcDbCircle
 10
-183.782559
 20
-212.082778
 30
0.0
 40
1.0
100
AcDbArc
 50
180.0
 51
270.0
  0
LINE
  5
74
100
AcDbEntity
  8
0
370
    -3
  6
Continuous
100
AcDbLine
 10
-177.782559
 20
-213.582778
 30
0.0
 11
-169.782559
 21
-213.582778
 31
0.0
  0
LINE
  5
75
100
AcDbEntity
  8
0
370
    -3
  6
Continuous
100
AcDbLine
 10
-169.782559
 20
-213.082778
 30
0.0
 11
-169.782559
 21
-213.582778
 31
0.0
  0
LINE
  5
76
100
AcDbEntity
  8
0
370
    -3
  6
Continuous
100
AcDbLine
 10
-177.782559
 20
-213.082778
 30
0.0
 11
-177.782559
 21
-213.582778
 31
0.0
  0
LINE
  5
77
100
AcDbEntity
  8
0
370
    -3
  6
Continuous
100
AcDbLine
 10
-94.782559
 20
-174.082778
 30
0.0
 11
-176.982559
 21
-174.082778
 31
0.0
  0
ELLIPSE
  5
78
100
AcDbEntity
  8
0
370
    -3
  6
Continuous
100
AcDbEllipse
 10
-187.982559
 20
-168.910109
 30
0.0
 11
4.6999999999999886
 21
0.0
 31
0.0
210
0.0
220
0.0
230
1.0
 40
0.766646
 41
0.0
 42
6.2831853071795862
  0
LINE
  5
79
100
AcDbEntity
  8
0
370
    -3
  6
Continuous
100
AcDbLine
 10
-189.982559
 20
-171.902484
 30
0.0
 11
-187.982559
 21
-170.726699
 31
0.0
  0
LINE
  5
7A
100
AcDbEntity
  8
0
370
    -3
  6
Continuous
100
AcDbLine
 10
-187.982559
 20
-170.726699
 30
0.0
 11
-185.982559
 21
-169.074057
 31
0.0
  0
LINE
  5
7B
100
AcDbEntity
  8
0
370
    -3
  6
Continuous
100
AcDbLine
 10
-185.982559
 20
-171.902484
 30
0.0
 11
-187.982559
 21
-170.726699
 31
0.0
  0
LINE
  5
7C
100
AcDbEntity
  8
0
370
    -3
  6
Continuous
100
AcDbLine
 10
-187.982559
 20
-170.726699
 30
0.0
 11
-189.982559
 21
-169.074057
 31
0.0
  0
LINE
  5
7D
100
AcDbEntity
  8
0
370
    -3
  6
Continuous
100
AcDbLine
 10
-176.982559
 20
-172.922474
 30
0.0
 11
-176.982559
 21
-121.582778
 31
0.0
  0
ARC
  5
7E
100
AcDbEntity
  8
0
370
    -3
  6
Continuous
100
AcDbCircle
 10
-179.982559
 20
-172.922474
 30
0.0
 40
3.0
100
AcDbArc
 50
270.0
 51
0.0
  0
LINE
  5
7F
100
AcDbEntity
  8
0
370
    -3
  6
Continuous
100
AcDbLine
 10
-183.982559
 20
-175.922474
 30
0.0
 11
-179.982559
 21
-175.922474
 31
0.0
  0
ARC
  5
80
100
AcDbEntity
  8
0
370
    -3
  6
Continuous
100
AcDbCircle
 10
-183.982559
 20
-178.922474
 30
0.0
 40
3.0
100
AcDbArc
 50
90.0
 51
180.0
  0
LINE
  5
81
100
AcDbEntity
  8
0
370
    -3
  6
Continuous
100
AcDbLine
 10
-186.982559
 20
-180.582778
 30
0.0
 11
-254.487404
 21
-180.582778
 31
0.0
  0
LINE
  5
82
100
AcDbEntity
  8
0
370
    -3
  6
Continuous
100
AcDbLine
 10
-186.982559
 20
-180.582778
 30
0.0
 11
-186.982559
 21
-178.922474
 31
0.0
  0
LINE
  5
83
100
AcDbEntity
  8
0
370
    -3
  6
Continuous
100
AcDbLine
 10
-184.782559
 20
-176.031108
 30
0.0
 11
-184.782559
 21
-212.082778
 31
0.0
  0
LINE
  5
84
100
AcDbEntity
  8
0
370
    -3
  6
Continuous
100
AcDbLine
 10
-184.782559
 20
-179.082778
 30
0.0
 11
-94.782559
 21
-179.082778
 31
0.0
  0
ELLIPSE
  5
85
100
AcDbEntity
  8
0
370
    -3
  6
Continuous
100
AcDbEllipse
 10
-187.982559
 20
-74.255447
 30
0.0
 11
4.6999999999999886
 21
0.0
 31
0.0
210
0.0
220
0.0
230
1.0
 40
0.766646
 41
0.0
 42
6.2831853071795862
  0
LINE
  5
86
100
AcDbEntity
  8
0
370
    -3
  6
Continuous
100
AcDbLine
 10
-189.982559
 20
-71.263071
 30
0.0
 11
-187.982559
 21
-72.438857
 31
0.0
  0
LINE
  5
87
100
AcDbEntity
  8
0
370
    -3
  6
Continuous
100
AcDbLine
 10
-187.982559
 20
-72.438857
 30
0.0
 11
-185.982559
 21
-74.091498
 31
0.0
  0
LINE
  5
88
100
AcDbEntity
  8
0
370
    -3
  6
Continuous
100
AcDbLine
 10
-185.982559
 20
-71.263071
 30
0.0
 11
-187.982559
 21
-72.438857
 31
0.0
  0
LINE
  5
89
100
AcDbEntity
  8
0
370
    -3
  6
Continuous
100
AcDbLine
 10
-187.982559
 20
-72.438857
 30
0.0
 11
-189.982559
 21
-74.091498
 31
0.0
  0
LINE
  5
8A
100
AcDbEntity
  8
0
370
    -3
  6
Continuous
100
AcDbLine
 10
-176.982559
 20
-62.582778
 30
0.0
 11
-176.982559
 21
-121.582778
 31
0.0
  0
ARC
  5
8B
100
AcDbEntity
  8
0
370
    -3
  6
Continuous
100
AcDbCircle
 10
-254.487404
 20
-83.182778
 30
0.0
 40
20.6
100
AcDbArc
 50
90.0
 51
125.0
  0
ARC
  5
8C
100
AcDbEntity
  8
0
370
    -3
  6
Continuous
100
AcDbCircle
 10
-272.382559
 20
-73.739158
 30
0.0
 40
2.6
100
AcDbArc
 50
125.0
 51
180.0
  0
LINE
  5
8D
100
AcDbEntity
  8
0
370
    -3
  6
Continuous
100
AcDbLine
 10
-274.982559
 20
-73.739158
 30
0.0
 11
-274.982559
 21
-121.582778
 31
0.0
  0
LINE
  5
8E
100
AcDbEntity
  8
0
370
    -3
  6
Continuous
100
AcDbLine
 10
-266.303079
 20
-66.308246
 30
0.0
 11
-273.873858
 21
-71.609362
 31
0.0
  0
LINE
  5
8F
100
AcDbEntity
  8
0
370
    -3
  6
Continuous
100
AcDbLine
 10
-176.982559
 20
-62.582778
 30
0.0
 11
-254.487404
 21
-62.582778
 31
0.0
  0
LINE
  5
90
100
AcDbEntity
  8
0
370
    -3
  6
Continuous
100
AcDbLine
 10
-176.982559
 20
-135.582778
 30
0.0
 11
-92.982559
 21
-135.582778
 31
0.0
  0
LINE
  5
91
100
AcDbEntity
  8
0
370
    -3
  6
Continuous
100
AcDbLine
 10
-176.982559
 20
-139.968893
 30
0.0
 11
-92.982559
 21
-139.968893
 31
0.0
  0
LINE
  5
92
100
AcDbEntity
  8
0
370
    -3
  6
Continuous
100
AcDbLine
 10
-176.982559
 20
-141.210812
 30
0.0
 11
-92.982559
 21
-141.210812
 31
0.0
  0
LINE
  5
93
100
AcDbEntity
  8
0
370
    -3
  6
Continuous
100
AcDbLine
 10
-176.982559
 20
-144.421017
 30
0.0
 11
-92.982559
 21
-144.421017
 31
0.0
  0
LINE
  5
94
100
AcDbEntity
  8
0
370
    -3
  6
Continuous
100
AcDbLine
 10
-176.982559
 20
-145.767419
 30
0.0
 11
-92.982559
 21
-145.767419
 31
0.0
  0
LINE
  5
95
100
AcDbEntity
  8
0
370
    -3
  6
Continuous
100
AcDbLine
 10
-176.982559
 20
-148.86015
 30
0.0
 11
-92.982559
 21
-148.86015
 31
0.0
  0
LINE
  5
96
100
AcDbEntity
  8
0
370
    -3
  6
Continuous
100
AcDbLine
 10
-176.982559
 20
-150.339173
 30
0.0
 11
-92.982559
 21
-150.339173
 31
0.0
  0
LINE
  5
97
100
AcDbEntity
  8
0
370
    -3
  6
Continuous
100
AcDbLine
 10
-176.982559
 20
-153.297169
 30
0.0
 11
-92.982559
 21
-153.297169
 31
0.0
  0
LINE
  5
98
100
AcDbEntity
  8
0
370
    -3
  6
Continuous
100
AcDbLine
 10
-176.982559
 20
-154.886379
 30
0.0
 11
-92.982559
 21
-154.886379
 31
0.0
  0
LINE
  5
99
100
AcDbEntity
  8
0
370
    -3
  6
Continuous
100
AcDbLine
 10
-176.982559
 20
-70.582778
 30
0.0
 11
-92.982559
 21
-70.582778
 31
0.0
  0
LINE
  5
9A
100
AcDbEntity
  8
0
370
    -3
  6
Continuous
100
AcDbLine
 10
-176.982559
 20
-71.082778
 30
0.0
 11
-92.982559
 21
-71.082778
 31
0.0
  0
LINE
  5
9B
100
AcDbEntity
  8
0
370
    -3
  6
Continuous
100
AcDbLine
 10
-176.982559
 20
-75.449695
 30
0.0
 11
-92.982559
 21
-75.449695
 31
0.0
  0
LINE
  5
9C
100
AcDbEntity
  8
0
370
    -3
  6
Continuous
100
AcDbLine
 10
-176.982559
 20
-80.540864
 30
0.0
 11
-92.982559
 21
-80.540864
 31
0.0
  0
LINE
  5
9D
100
AcDbEntity
  8
0
370
    -3
  6
Continuous
100
AcDbLine
 10
-176.982559
 20
-88.279177
 30
0.0
 11
-92.982559
 21
-88.279177
 31
0.0
  0
LINE
  5
9E
100
AcDbEntity
  8
0
370
    -3
  6
Continuous
100
AcDbLine
 10
-176.982559
 20
-89.868387
 30
0.0
 11
-92.982559
 21
-89.868387
 31
0.0
  0
LINE
  5
9F
100
AcDbEntity
  8
0
370
    -3
  6
Continuous
100
AcDbLine
 10
-176.982559
 20
-92.826382
 30
0.0
 11
-92.982559
 21
-92.826382
 31
0.0
  0
LINE
  5
A0
100
AcDbEntity
  8
0
370
    -3
  6
Continuous
100
AcDbLine
 10
-176.982559
 20
-94.305405
 30
0.0
 11
-92.982559
 21
-94.305405
 31
0.0
  0
LINE
  5
A1
100
AcDbEntity
  8
0
370
    -3
  6
Continuous
100
AcDbLine
 10
-176.982559
 20
-97.398136
 30
0.0
 11
-92.982559
 21
-97.398136
 31
0.0
  0
LINE
  5
A2
100
AcDbEntity
  8
0
370
    -3
  6
Continuous
100
AcDbLine
 10
-176.982559
 20
-98.744538
 30
0.0
 11
-92.982559
 21
-98.744538
 31
0.0
  0
LINE
  5
A3
100
AcDbEntity
  8
0
370
    -3
  6
Continuous
100
AcDbLine
 10
-176.982559
 20
-103.196663
 30
0.0
 11
-92.982559
 21
-103.196663
 31
0.0
  0
LINE
  5
A4
100
AcDbEntity
  8
0
370
    -3
  6
Continuous
100
AcDbLine
 10
-176.982559
 20
-101.954743
 30
0.0
 11
-92.982559
 21
-101.954743
 31
0.0
  0
LINE
  5
A5
100
AcDbEntity
  8
0
370
    -3
  6
Continuous
100
AcDbLine
 10
-176.982559
 20
-107.582778
 30
0.0
 11
-92.982559
 21
-107.582778
 31
0.0
  0
LINE
  5
A6
100
AcDbEntity
  8
0
370
    -3
  6
Continuous
100
AcDbLine
 10
-92.982559
 20
-68.082778
 30
0.0
 11
-176.982559
 21
-68.082778
 31
0.0
  0
LINE
  5
A7
100
AcDbEntity
  8
0
370
    -3
  6
Continuous
100
AcDbLine
 10
-94.782559
 20
-174.082778
 30
0.0
 11
-94.782559
 21
-212.082778
 31
0.0
  0
ARC
  5
A8
100
AcDbEntity
  8
0
370
    -3
  6
Continuous
100
AcDbCircle
 10
-95.782559
 20
-212.082778
 30
0.0
 40
1.0
100
AcDbArc
 50
270.0
 51
0.0
  0
LINE
  5
A9
100
AcDbEntity
  8
0
370
    -3
  6
Continuous
100
AcDbLine
 10
-109.782559
 20
-213.582778
 30
0.0
 11
-101.782559
 21
-213.582778
 31
0.0
  0
LINE
  5
AA
100
AcDbEntity
  8
0
370
    -3
  6
Continuous
100
AcDbLine
 10
-109.782559
 20
-213.082778
 30
0.0
 11
-109.782559
 21
-213.582778
 31
0.0
  0
LINE
  5
AB
100
AcDbEntity
  8
0
370
    -3
  6
Continuous
100
AcDbLine
 10
-101.782559
 20
-213.082778
 30
0.0
 11
-101.782559
 21
-213.582778
 31
0.0
  0
LINE
  5
AC
100
AcDbEntity
  8
0
370
    -3
  6
Continuous
100
AcDbLine
 10
-92.982559
 20
-175.082778
 30
0.0
 11
-94.782559
 21
-175.082778
 31
0.0
  0
INSERT
  5
BC
100
AcDbEntity
  8
0
100
AcDbBlockReference
  2
ZU_SYM__USERS_HOME_SYMBOL_STD_SYM_B01_-1
 10
-36.482559
 20
-201.019592
 30
0.0
  0
INSERT
  5
CC
100
AcDbEntity
  8
0
100
AcDbBlockReference
  2
ZU_SYM__USERS_HOME_SYMBOL_STD_SYM_B01_00002-1
 10
-36.482559
 20
-104.145963
 30
0.0
  0
INSERT
  5
DC
100
AcDbEntity
  8
0
100
AcDbBlockReference
  2
ZU_SYM__USERS_HOME_SYMBOL_STD_SYM_B01_00003-1
 10
-36.482544
 20
102.675107
 30
0.0
  0
INSERT
  5
EC
100
AcDbEntity
  8
0
100
AcDbBlockReference
  2
ZU_SYM__USERS_HOME_SYMBOL_STD_SYM_B01_00004-1
 10
-36.482544
 20
199.548736
 30
0.0
  0
LINE
  5
ED
100
AcDbEntity
  8
0
370
    -3
  6
Continuous
100
AcDbLine
 10
-176.982559
 20
97.111921
 30
0.0
 11
-254.487404
 21
97.111921
 31
0.0
  0
LINE
  5
EE
100
AcDbEntity
  8
0
370
    -3
  6
Continuous
100
AcDbLine
 10
-176.982559
 20
97.111921
 30
0.0
 11
-176.982559
 21
151.111921
 31
0.0
  0
LINE
  5
EF
100
AcDbEntity
  8
0
370
    -3
  6
Continuous
100
AcDbLine
 10
-176.982559
 20
205.111921
 30
0.0
 11
-176.982559
 21
151.111921
 31
0.0
  0
LINE
  5
F0
100
AcDbEntity
  8
0
370
    -3
  6
Continuous
100
AcDbLine
 10
-176.982559
 20
205.111921
 30
0.0
 11
-254.487404
 21
205.111921
 31
0.0
  0
LINE
  5
F1
100
AcDbEntity
  8
0
370
    -3
  6
Continuous
100
AcDbLine
 10
-187.982559
 20
101.968
 30
0.0
 11
-189.982559
 21
103.620641
 31
0.0
  0
LINE
  5
F2
100
AcDbEntity
  8
0
370
    -3
  6
Continuous
100
AcDbLine
 10
-185.982559
 20
100.792214
 30
0.0
 11
-187.982559
 21
101.968
 31
0.0
  0
LINE
  5
F3
100
AcDbEntity
  8
0
370
    -3
  6
Continuous
100
AcDbLine
 10
-187.982559
 20
101.968
 30
0.0
 11
-185.982559
 21
103.620641
 31
0.0
  0
LINE
  5
F4
100
AcDbEntity
  8
0
370
    -3
  6
Continuous
100
AcDbLine
 10
-189.982559
 20
100.792214
 30
0.0
 11
-187.982559
 21
101.968
 31
0.0
  0
ELLIPSE
  5
F5
100
AcDbEntity
  8
0
370
    -3
  6
Continuous
100
AcDbEllipse
 10
-187.982559
 20
103.78459
 30
0.0
 11
4.6999999999999886
 21
0.0
 31
0.0
210
0.0
220
0.0
230
1.0
 40
0.766646
 41
0.0
 42
6.2831853071795862
  0
LINE
  5
F6
100
AcDbEntity
  8
0
370
    -3
  6
Continuous
100
AcDbLine
 10
-187.982559
 20
200.255842
 30
0.0
 11
-189.982559
 21
198.6032
 31
0.0
  0
LINE
  5
F7
100
AcDbEntity
  8
0
370
    -3
  6
Continuous
100
AcDbLine
 10
-185.982559
 20
201.431627
 30
0.0
 11
-187.982559
 21
200.255842
 31
0.0
  0
LINE
  5
F8
100
AcDbEntity
  8
0
370
    -3
  6
Continuous
100
AcDbLine
 10
-187.982559
 20
200.255842
 30
0.0
 11
-185.982559
 21
198.6032
 31
0.0
  0
LINE
  5
F9
100
AcDbEntity
  8
0
370
    -3
  6
Continuous
100
AcDbLine
 10
-189.982559
 20
201.431627
 30
0.0
 11
-187.982559
 21
200.255842
 31
0.0
  0
ELLIPSE
  5
FA
100
AcDbEntity
  8
0
370
    -3
  6
Continuous
100
AcDbEllipse
 10
-187.982559
 20
198.439252
 30
0.0
 11
4.6999999999999886
 21
0.0
 31
0.0
210
0.0
220
0.0
230
1.0
 40
0.766646
 41
0.0
 42
6.2831853071795862
  0
LINE
  5
FB
100
AcDbEntity
  8
0
370
    -3
  6
Continuous
100
AcDbLine
 10
-92.982559
 20
203.611921
 30
0.0
 11
-176.982559
 21
203.611921
 31
0.0
  0
LINE
  5
FC
100
AcDbEntity
  8
0
370
    -3
  6
Continuous
100
AcDbLine
 10
-176.982559
 20
201.611921
 30
0.0
 11
-92.982559
 21
201.611921
 31
0.0
  0
LINE
  5
FD
100
AcDbEntity
  8
0
370
    -3
  6
Continuous
100
AcDbLine
 10
-176.982559
 20
202.111921
 30
0.0
 11
-92.982559
 21
202.111921
 31
0.0
  0
LINE
  5
FE
100
AcDbEntity
  8
0
370
    -3
  6
Continuous
100
AcDbLine
 10
-176.982559
 20
197.245003
 30
0.0
 11
-92.982559
 21
197.245003
 31
0.0
  0
LINE
  5
FF
100
AcDbEntity
  8
0
370
    -3
  6
Continuous
100
AcDbLine
 10
-176.982559
 20
195.616576
 30
0.0
 11
-92.982559
 21
195.616576
 31
0.0
  0
LINE
  5
100
100
AcDbEntity
  8
0
370
    -3
  6
Continuous
100
AcDbLine
 10
-176.982559
 20
192.153834
 30
0.0
 11
-92.982559
 21
192.153834
 31
0.0
  0
LINE
  5
101
100
AcDbEntity
  8
0
370
    -3
  6
Continuous
100
AcDbLine
 10
-177.140159
 20
191.152356
 30
0.0
 11
-92.982559
 21
191.152356
 31
0.0
  0
LINE
  5
102
100
AcDbEntity
  8
0
370
    -3
  6
Continuous
100
AcDbLine
 10
-176.982559
 20
179.868316
 30
0.0
 11
-92.982559
 21
179.868316
 31
0.0
  0
LINE
  5
103
100
AcDbEntity
  8
0
370
    -3
  6
Continuous
100
AcDbLine
 10
-176.982559
 20
178.389293
 30
0.0
 11
-92.982559
 21
178.389293
 31
0.0
  0
LINE
  5
104
100
AcDbEntity
  8
0
370
    -3
  6
Continuous
100
AcDbLine
 10
-176.982559
 20
175.296562
 30
0.0
 11
-92.982559
 21
175.296562
 31
0.0
  0
LINE
  5
105
100
AcDbEntity
  8
0
370
    -3
  6
Continuous
100
AcDbLine
 10
-176.982559
 20
173.95016
 30
0.0
 11
-92.982559
 21
173.95016
 31
0.0
  0
LINE
  5
106
100
AcDbEntity
  8
0
370
    -3
  6
Continuous
100
AcDbLine
 10
-176.982559
 20
171.111921
 30
0.0
 11
-92.982559
 21
171.111921
 31
0.0
  0
LINE
  5
107
100
AcDbEntity
  8
0
370
    -3
  6
Continuous
100
AcDbLine
 10
-176.982559
 20
182.826312
 30
0.0
 11
-92.982559
 21
182.826312
 31
0.0
  0
LINE
  5
108
100
AcDbEntity
  8
0
370
    -3
  6
Continuous
100
AcDbLine
 10
-176.982559
 20
184.415522
 30
0.0
 11
-92.982559
 21
184.415522
 31
0.0
  0
LINE
  5
109
100
AcDbEntity
  8
0
370
    -3
  6
Continuous
100
AcDbLine
 10
-266.303079
 20
201.386453
 30
0.0
 11
-273.873858
 21
196.085336
 31
0.0
  0
LINE
  5
10A
100
AcDbEntity
  8
0
370
    -3
  6
Continuous
100
AcDbLine
 10
-274.982559
 20
193.955541
 30
0.0
 11
-274.982559
 21
151.111921
 31
0.0
  0
ARC
  5
10B
100
AcDbEntity
  8
0
370
    -3
  6
Continuous
100
AcDbCircle
 10
-272.382559
 20
193.955541
 30
0.0
 40
2.6
100
AcDbArc
 50
125.0
 51
180.0
  0
ARC
  5
10C
100
AcDbEntity
  8
0
370
    -3
  6
Continuous
100
AcDbCircle
 10
-254.487404
 20
184.511921
 30
0.0
 40
20.6
100
AcDbArc
 50
90.0
 51
125.0
  0
LINE
  5
10D
100
AcDbEntity
  8
0
370
    -3
  6
Continuous
100
AcDbLine
 10
-92.982559
 20
98.611921
 30
0.0
 11
-176.982559
 21
98.611921
 31
0.0
  0
LINE
  5
10E
100
AcDbEntity
  8
0
370
    -3
  6
Continuous
100
AcDbLine
 10
-176.982559
 20
100.611921
 30
0.0
 11
-92.982559
 21
100.611921
 31
0.0
  0
LINE
  5
10F
100
AcDbEntity
  8
0
370
    -3
  6
Continuous
100
AcDbLine
 10
-176.982559
 20
100.111921
 30
0.0
 11
-92.982559
 21
100.111921
 31
0.0
  0
LINE
  5
110
100
AcDbEntity
  8
0
370
    -3
  6
Continuous
100
AcDbLine
 10
-176.982559
 20
104.978838
 30
0.0
 11
-92.982559
 21
104.978838
 31
0.0
  0
LINE
  5
111
100
AcDbEntity
  8
0
370
    -3
  6
Continuous
100
AcDbLine
 10
-176.982559
 20
106.607265
 30
0.0
 11
-92.982559
 21
106.607265
 31
0.0
  0
LINE
  5
112
100
AcDbEntity
  8
0
370
    -3
  6
Continuous
100
AcDbLine
 10
-176.982559
 20
110.070007
 30
0.0
 11
-92.982559
 21
110.070007
 31
0.0
  0
LINE
  5
113
100
AcDbEntity
  8
0
370
    -3
  6
Continuous
100
AcDbLine
 10
-177.140159
 20
111.071485
 30
0.0
 11
-92.982559
 21
111.071485
 31
0.0
  0
LINE
  5
114
100
AcDbEntity
  8
0
370
    -3
  6
Continuous
100
AcDbLine
 10
-176.982559
 20
122.355525
 30
0.0
 11
-92.982559
 21
122.355525
 31
0.0
  0
LINE
  5
115
100
AcDbEntity
  8
0
370
    -3
  6
Continuous
100
AcDbLine
 10
-176.982559
 20
123.834548
 30
0.0
 11
-92.982559
 21
123.834548
 31
0.0
  0
LINE
  5
116
100
AcDbEntity
  8
0
370
    -3
  6
Continuous
100
AcDbLine
 10
-176.982559
 20
126.927279
 30
0.0
 11
-92.982559
 21
126.927279
 31
0.0
  0
LINE
  5
117
100
AcDbEntity
  8
0
370
    -3
  6
Continuous
100
AcDbLine
 10
-176.982559
 20
128.273681
 30
0.0
 11
-92.982559
 21
128.273681
 31
0.0
  0
LINE
  5
118
100
AcDbEntity
  8
0
370
    -3
  6
Continuous
100
AcDbLine
 10
-176.982559
 20
131.111921
 30
0.0
 11
-92.982559
 21
131.111921
 31
0.0
  0
LINE
  5
119
100
AcDbEntity
  8
0
370
    -3
  6
Continuous
100
AcDbLine
 10
-176.982559
 20
119.39753
 30
0.0
 11
-92.982559
 21
119.39753
 31
0.0
  0
LINE
  5
11A
100
AcDbEntity
  8
0
370
    -3
  6
Continuous
100
AcDbLine
 10
-176.982559
 20
117.80832
 30
0.0
 11
-92.982559
 21
117.80832
 31
0.0
  0
LINE
  5
11B
100
AcDbEntity
  8
0
370
    -3
  6
Continuous
100
AcDbLine
 10
-266.303079
 20
100.837389
 30
0.0
 11
-273.873858
 21
106.138505
 31
0.0
  0
LINE
  5
11C
100
AcDbEntity
  8
0
370
    -3
  6
Continuous
100
AcDbLine
 10
-274.982559
 20
108.268301
 30
0.0
 11
-274.982559
 21
151.111921
 31
0.0
  0
ARC
  5
11D
100
AcDbEntity
  8
0
370
    -3
  6
Continuous
100
AcDbCircle
 10
-272.382559
 20
108.268301
 30
0.0
 40
2.6
100
AcDbArc
 50
180.0
 51
235.0
  0
ARC
  5
11E
100
AcDbEntity
  8
0
370
    -3
  6
Continuous
100
AcDbCircle
 10
-254.487404
 20
117.711921
 30
0.0
 40
20.6
100
AcDbArc
 50
235.0
 51
270.0
  0
MTEXT
  5
120
100
AcDbEntity
  8
0
370
    -3
  6
Continuous
100
AcDbMText
 10
805.378723
 20
-188.374115
 30
0.0
 40
6.6
 41
0.0
 71
     7
 72
     1
  1
\W0.82;GM-SHYFB-RH
  7
ZU_SHPTB00001
 11
1.0
 21
0.0
 31
0.0
 73
     1
 44
1.0
  0
MTEXT
  5
121
100
AcDbEntity
  8
0
370
    -3
  6
Continuous
100
AcDbMText
 10
805.378723
 20
-199.374115
 30
0.0
 40
6.6
 41
0.0
 71
     7
 72
     1
  1
\W0.82;0.2kW
  7
ZU_SHPTB00001
 11
1.0
 21
0.0
 31
0.0
 73
     1
 44
1.0
  0
MTEXT
  5
122
100
AcDbEntity
  8
0
370
    -3
  6
Continuous
100
AcDbMText
 10
805.378723
 20
-210.374115
 30
0.0
 40
6.6
 41
0.0
 71
     7
 72
     1
  1
\W0.82;1/1200-1/1440
  7
ZU_SHPTB00001
 11
1.0
 21
0.0
 31
0.0
 73
     1
 44
1.0
  0
MTEXT
  5
123
100
AcDbEntity
  8
0
370
    -3
  6
Continuous
100
AcDbMText
 10
805.378723
 20
-221.374115
 30
0.0
 40
6.6
 41
0.0
 71
     7
 72
     1
  1
\W0.82;SCALE\W1.36; \W0.82;1/1
  7
ZU_SHPTB00001
 11
1.0
 21
0.0
 31
0.0
 73
     1
 44
1.0
  0
LINE
  5
124
100
AcDbEntity
  8
0
370
    -3
  6
Continuous
100
AcDbLine
 10
-92.982559
 20
-175.082778
 30
0.0
 11
-92.982559
 21
-121.582778
 31
0.0
  0
LINE
  5
125
100
AcDbEntity
  8
0
370
    -3
  6
Continuous
100
AcDbLine
 10
-92.982559
 20
-68.082778
 30
0.0
 11
-92.982559
 21
-121.582778
 31
0.0
  0
LINE
  5
126
100
AcDbEntity
  8
0
370
    -3
  6
Continuous
100
AcDbLine
 10
-25.482559
 20
-77.582778
 30
0.0
 11
-25.482559
 21
-22.582778
 31
0.0
  0
INSERT
  5
132
100
AcDbEntity
  8
0
100
AcDbBlockReference
  2
ZU_SYM_K__CAD_SYM_POO_SYM_B20_-1
 10
-29.982559
 20
-67.582778
 30
0.0
  0
LINE
  5
133
100
AcDbEntity
  8
0
370
    -3
  6
Continuous
100
AcDbLine
 10
-29.982559
 20
-77.582778
 30
0.0
 11
-25.482559
 21
-77.582778
 31
0.0
  0
LINE
  5
134
100
AcDbEntity
  8
0
370
    -3
  6
Continuous
100
AcDbLine
 10
-29.982559
 20
-52.582778
 30
0.0
 11
-25.482559
 21
-52.582778
 31
0.0
  0
LINE
  5
135
100
AcDbEntity
  8
0
370
    -3
  6
Continuous
100
AcDbLine
 10
-29.982559
 20
-77.582778
 30
0.0
 11
-29.982559
 21
-22.582778
 31
0.0
  0
LINE
  5
136
100
AcDbEntity
  8
0
370
    -3
  6
Continuous
100
AcDbLine
 10
-29.982559
 20
-32.582778
 30
0.0
 11
-25.482559
 21
-32.582778
 31
0.0
  0
LINE
  5
137
100
AcDbEntity
  8
0
370
    -3
  6
Continuous
100
AcDbLine
 10
-25.482559
 20
-22.582778
 30
0.0
 11
-29.982559
 21
-22.582778
 31
0.0
  0
ARC
  5
138
100
AcDbEntity
  8
0
370
    -3
  6
Continuous
100
AcDbCircle
 10
-81.482574
 20
-74.082778
 30
0.0
 40
5.0
100
AcDbArc
 50
0.0
 51
90.0
  0
LINE
  5
139
100
AcDbEntity
  8
0
370
    -3
  6
Continuous
100
AcDbLine
 10
-81.482574
 20
-69.082778
 30
0.0
 11
-92.982574
 21
-69.082778
 31
0.0
  0
LINE
  5
13A
100
AcDbEntity
  8
0
370
    -3
  6
Continuous
100
AcDbLine
 10
-26.482559
 20
-81.082778
 30
0.0
 11
-33.482559
 21
-81.082778
 31
0.0
  0
ARC
  5
13B
100
AcDbEntity
  8
0
370
    -3
  6
Continuous
100
AcDbCircle
 10
-33.482559
 20
-84.082778
 30
0.0
 40
3.0
100
AcDbArc
 50
90.0
 51
180.0
  0
LINE
  5
13C
100
AcDbEntity
  8
0
370
    -3
  6
Continuous
100
AcDbLine
 10
-36.482559
 20
-84.082778
 30
0.0
 11
-36.482559
 21
-143.582778
 31
0.0
  0
ARC
  5
13D
100
AcDbEntity
  8
0
370
    -3
  6
Continuous
100
AcDbCircle
 10
-76.482574
 20
-182.754334
 30
0.0
 40
5.0
100
AcDbArc
 50
180.0
 51
268.0
  0
LINE
  5
13E
100
AcDbEntity
  8
0
370
    -3
  6
Continuous
100
AcDbLine
 10
-53.778283
 20
-188.550233
 30
0.0
 11
-76.657072
 21
-187.751288
 31
0.0
  0
LINE
  5
13F
100
AcDbEntity
  8
0
370
    -3
  6
Continuous
100
AcDbLine
 10
-81.482574
 20
-179.205725
 30
0.0
 11
-81.482574
 21
-182.754334
 31
0.0
  0
LINE
  5
140
100
AcDbEntity
  8
0
370
    -3
  6
Continuous
100
AcDbLine
 10
-86.395312
 20
-174.206486
 30
0.0
 11
-92.982559
 21
-174.091505
 31
0.0
  0
ARC
  5
141
100
AcDbEntity
  8
0
370
    -3
  6
Continuous
100
AcDbCircle
 10
-86.482574
 20
-179.205725
 30
0.0
 40
5.0
100
AcDbArc
 50
0.0
 51
89.0
  0
LINE
  5
142
100
AcDbEntity
  8
0
370
    -3
  6
Continuous
100
AcDbLine
 10
-36.482559
 20
-143.582778
 30
0.0
 11
-36.482559
 21
-221.082778
 31
0.0
  0
LINE
  5
143
100
AcDbEntity
  8
0
370
    -3
  6
CENTER
100
AcDbLine
 10
-86.613503
 20
-152.582778
 30
0.0
 11
-11.658444
 21
-152.582778
 31
0.0
  0
LINE
  5
144
100
AcDbEntity
  8
0
370
    -3
  6
Continuous
100
AcDbLine
 10
-76.482574
 20
-74.082778
 30
0.0
 11
-76.482574
 21
-76.082778
 31
0.0
  0
ARC
  5
145
100
AcDbEntity
  8
0
370
    -3
  6
Continuous
100
AcDbCircle
 10
-38.482559
 20
-89.832778
 30
0.0
 40
2.0
100
AcDbArc
 50
270.0
 51
0.0
  0
ARC
  5
146
100
AcDbEntity
  8
0
370
    -3
  6
Continuous
100
AcDbCircle
 10
-53.952781
 20
-193.547187
 30
0.0
 40
5.0
100
AcDbArc
 50
30.0
 51
88.0
  0
ARC
  5
147
100
AcDbEntity
  8
0
370
    -3
  6
Continuous
100
AcDbCircle
 10
-41.466381
 20
-221.591297
 30
0.0
 40
5.0
100
AcDbArc
 50
3.644461
 51
53.063279
  0
LINE
  5
148
100
AcDbEntity
  8
0
370
    -3
  6
Continuous
100
AcDbLine
 10
-38.461718
 20
-217.594799
 30
0.0
 11
-79.487237
 21
-186.750832
 31
0.0
  0
ARC
  5
149
100
AcDbEntity
  8
0
370
    -3
  6
Continuous
100
AcDbCircle
 10
-74.482574
 20
-89.832778
 30
0.0
 40
2.0
100
AcDbArc
 50
180.0
 51
270.0
  0
LINE
  5
14A
100
AcDbEntity
  8
0
370
    -3
  6
Continuous
100
AcDbLine
 10
-76.482574
 20
-74.082778
 30
0.0
 11
-76.482574
 21
-127.382778
 31
0.0
  0
LINE
  5
14B
100
AcDbEntity
  8
0
370
    -3
  6
Continuous
100
AcDbLine
 10
-38.482559
 20
-91.832778
 30
0.0
 11
-74.482574
 21
-91.832778
 31
0.0
  0
ARC
  5
14C
100
AcDbEntity
  8
0
370
    -3
  6
Continuous
100
AcDbCircle
 10
-41.482559
 20
-215.146244
 30
0.0
 40
5.0
100
AcDbArc
 50
0.0
 51
30.0
  0
LINE
  5
14D
100
AcDbEntity
  8
0
370
    -3
  6
Continuous
100
AcDbLine
 10
-37.152432
 20
-212.646244
 30
0.0
 11
-49.622654
 21
-191.047187
 31
0.0
  0
ARC
  5
14E
100
AcDbEntity
  8
0
370
    -3
  6
Continuous
100
AcDbCircle
 10
-33.482559
 20
-221.082778
 30
0.0
 40
3.0
100
AcDbArc
 50
180.0
 51
270.0
  0
LINE
  5
14F
100
AcDbEntity
  8
0
370
    -3
  6
Continuous
100
AcDbLine
 10
-26.482559
 20
-224.082778
 30
0.0
 11
-33.482559
 21
-224.082778
 31
0.0
  0
LINE
  5
150
100
AcDbEntity
  8
0
370
    -3
  6
Continuous
100
AcDbLine
 10
-92.982574
 20
-141.582778
 30
0.0
 11
-38.482559
 21
-141.582778
 31
0.0
  0
LINE
  5
151
100
AcDbEntity
  8
0
370
    -3
  6
Continuous
100
AcDbLine
 10
-92.982574
 20
-101.582778
 30
0.0
 11
-78.482574
 21
-101.582778
 31
0.0
  0
LINE
  5
152
100
AcDbEntity
  8
0
370
    -3
  6
Continuous
100
AcDbLine
 10
-74.482574
 20
-129.382778
 30
0.0
 11
-38.482559
 21
-129.382778
 31
0.0
  0
ARC
  5
153
100
AcDbEntity
  8
0
370
    -3
  6
Continuous
100
AcDbCircle
 10
-38.482559
 20
-127.382778
 30
0.0
 40
2.0
100
AcDbArc
 50
270.0
 51
0.0
  0
ARC
  5
154
100
AcDbEntity
  8
0
370
    -3
  6
Continuous
100
AcDbCircle
 10
-74.482574
 20
-127.382778
 30
0.0
 40
2.0
100
AcDbArc
 50
180.0
 51
270.0
  0
ARC
  5
155
100
AcDbEntity
  8
0
370
    -3
  6
Continuous
100
AcDbCircle
 10
-38.482559
 20
-143.582778
 30
0.0
 40
2.0
100
AcDbArc
 50
0.0
 51
90.0
  0
ARC
  5
156
100
AcDbEntity
  8
0
370
    -3
  6
Continuous
100
AcDbCircle
 10
-78.482574
 20
-103.582778
 30
0.0
 40
2.0
100
AcDbArc
 50
0.0
 51
90.0
  0
LINE
  5
157
100
AcDbEntity
  8
0
370
    -3
  6
Continuous
100
AcDbLine
 10
-92.982559
 20
-74.582778
 30
0.0
 11
-92.982559
 21
-128.082778
 31
0.0
  0
LINE
  5
158
100
AcDbEntity
  8
0
370
    -3
  6
Continuous
100
AcDbLine
 10
-92.982559
 20
-121.582778
 30
0.0
 11
-92.982559
 21
-69.082778
 31
0.0
  0
LINE
  5
159
100
AcDbEntity
  8
0
370
    -3
  6
Continuous
100
AcDbLine
 10
-92.982559
 20
-69.082778
 30
0.0
 11
-92.982559
 21
-174.082778
 31
0.0
  0
LINE
  5
15A
100
AcDbEntity
  8
0
370
    -3
  6
Continuous
100
AcDbLine
 10
-92.982559
 20
-121.582778
 30
0.0
 11
-92.982559
 21
-175.082778
 31
0.0
  0
LINE
  5
15B
100
AcDbEntity
  8
0
370
    -3
  6
CENTER
100
AcDbLine
 10
-40.981554
 20
-67.582778
 30
0.0
 11
-14.482559
 21
-67.582778
 31
0.0
  0
LINE
  5
15C
100
AcDbEntity
  8
0
370
    -3
  6
Continuous
100
AcDbLine
 10
326.517441
 20
-132.332778
 30
0.0
 11
324.567441
 21
-132.332778
 31
0.0
  0
LINE
  5
15D
100
AcDbEntity
  8
0
370
    -3
  6
Continuous
100
AcDbLine
 10
326.517441
 20
-84.832778
 30
0.0
 11
324.567441
 21
-84.832778
 31
0.0
  0
LINE
  5
15E
100
AcDbEntity
  8
0
370
    -3
  6
Continuous
100
AcDbLine
 10
426.467441
 20
-132.332778
 30
0.0
 11
424.517441
 21
-132.332778
 31
0.0
  0
LINE
  5
15F
100
AcDbEntity
  8
0
370
    -3
  6
Continuous
100
AcDbLine
 10
426.467441
 20
-84.832778
 30
0.0
 11
424.517441
 21
-84.832778
 31
0.0
  0
LINE
  5
160
100
AcDbEntity
  8
0
370
    -3
  6
Continuous
100
AcDbLine
 10
324.567441
 20
-132.332778
 30
0.0
 11
324.567441
 21
-84.832778
 31
0.0
  0
LINE
  5
161
100
AcDbEntity
  8
0
370
    -3
  6
Continuous
100
AcDbLine
 10
426.467441
 20
-132.332778
 30
0.0
 11
426.467441
 21
-84.832778
 31
0.0
  0
LINE
  5
162
100
AcDbEntity
  8
0
370
    -3
  6
Continuous
100
AcDbLine
 10
361.517441
 20
-141.132778
 30
0.0
 11
361.517441
 21
-143.082778
 31
0.0
  0
LINE
  5
163
100
AcDbEntity
  8
0
370
    -3
  6
Continuous
100
AcDbLine
 10
361.517441
 20
-74.082778
 30
0.0
 11
361.517441
 21
-76.032778
 31
0.0
  0
LINE
  5
164
100
AcDbEntity
  8
0
370
    -3
  6
Continuous
100
AcDbLine
 10
454.117441
 20
-140.082778
 30
0.0
 11
433.917441
 21
-140.082778
 31
0.0
  0
LINE
  5
165
100
AcDbEntity
  8
0
370
    -3
  6
Continuous
100
AcDbLine
 10
296.517441
 20
-140.082778
 30
0.0
 11
317.517441
 21
-140.082778
 31
0.0
  0
LINE
  5
166
100
AcDbEntity
  8
0
370
    -3
  6
Continuous
100
AcDbLine
 10
454.517441
 20
-140.082778
 30
0.0
 11
433.517441
 21
-140.082778
 31
0.0
  0
LINE
  5
167
100
AcDbEntity
  8
0
370
    -3
  6
Continuous
100
AcDbLine
 10
454.117441
 20
-77.082778
 30
0.0
 11
433.917441
 21
-77.082778
 31
0.0
  0
LINE
  5
168
100
AcDbEntity
  8
0
370
    -3
  6
Continuous
100
AcDbLine
 10
296.517441
 20
-77.082778
 30
0.0
 11
317.517441
 21
-77.082778
 31
0.0
  0
LINE
  5
169
100
AcDbEntity
  8
0
370
    -3
  6
Continuous
100
AcDbLine
 10
454.517441
 20
-77.082778
 30
0.0
 11
433.517441
 21
-77.082778
 31
0.0
  0
LINE
  5
16A
100
AcDbEntity
  8
0
370
    -3
  6
Continuous
100
AcDbLine
 10
454.517441
 20
-140.082778
 30
0.0
 11
433.517441
 21
-140.082778
 31
0.0
  0
LINE
  5
16B
100
AcDbEntity
  8
0
370
    -3
  6
Continuous
100
AcDbLine
 10
317.517441
 20
-140.082778
 30
0.0
 11
317.517441
 21
-141.082778
 31
0.0
  0
LINE
  5
16C
100
AcDbEntity
  8
0
370
    -3
  6
Continuous
100
AcDbLine
 10
296.517441
 20
-140.082778
 30
0.0
 11
317.517441
 21
-140.082778
 31
0.0
  0
LINE
  5
16D
100
AcDbEntity
  8
0
370
    -3
  6
Continuous
100
AcDbLine
 10
332.617441
 20
-141.082778
 30
0.0
 11
317.517441
 21
-141.082778
 31
0.0
  0
LINE
  5
16E
100
AcDbEntity
  8
0
370
    -3
  6
Continuous
100
AcDbLine
 10
433.517441
 20
-141.082778
 30
0.0
 11
418.017441
 21
-141.082778
 31
0.0
  0
LINE
  5
16F
100
AcDbEntity
  8
0
370
    -3
  6
Continuous
100
AcDbLine
 10
420.017441
 20
-141.082778
 30
0.0
 11
433.517441
 21
-141.082778
 31
0.0
  0
LINE
  5
170
100
AcDbEntity
  8
0
370
    -3
  6
Continuous
100
AcDbLine
 10
433.517441
 20
-140.082778
 30
0.0
 11
433.517441
 21
-141.082778
 31
0.0
  0
LINE
  5
171
100
AcDbEntity
  8
0
370
    -3
  6
Continuous
100
AcDbLine
 10
454.517441
 20
-77.082778
 30
0.0
 11
433.517441
 21
-77.082778
 31
0.0
  0
LINE
  5
172
100
AcDbEntity
  8
0
370
    -3
  6
Continuous
100
AcDbLine
 10
317.517441
 20
-77.082778
 30
0.0
 11
317.517441
 21
-76.082778
 31
0.0
  0
LINE
  5
173
100
AcDbEntity
  8
0
370
    -3
  6
Continuous
100
AcDbLine
 10
296.517441
 20
-77.082778
 30
0.0
 11
317.517441
 21
-77.082778
 31
0.0
  0
LINE
  5
174
100
AcDbEntity
  8
0
370
    -3
  6
Continuous
100
AcDbLine
 10
332.617441
 20
-76.082778
 30
0.0
 11
317.517441
 21
-76.082778
 31
0.0
  0
LINE
  5
175
100
AcDbEntity
  8
0
370
    -3
  6
Continuous
100
AcDbLine
 10
433.517441
 20
-76.082778
 30
0.0
 11
418.017441
 21
-76.082778
 31
0.0
  0
LINE
  5
176
100
AcDbEntity
  8
0
370
    -3
  6
Continuous
100
AcDbLine
 10
420.017441
 20
-76.082778
 30
0.0
 11
433.517441
 21
-76.082778
 31
0.0
  0
LINE
  5
177
100
AcDbEntity
  8
0
370
    -3
  6
Continuous
100
AcDbLine
 10
433.517441
 20
-77.082778
 30
0.0
 11
433.517441
 21
-76.082778
 31
0.0
  0
LINE
  5
178
100
AcDbEntity
  8
0
370
    -3
  6
Continuous
100
AcDbLine
 10
332.617441
 20
-141.082778
 30
0.0
 11
317.917441
 21
-141.082778
 31
0.0
  0
LINE
  5
179
100
AcDbEntity
  8
0
370
    -3
  6
Continuous
100
AcDbLine
 10
454.517441
 20
-108.582778
 30
0.0
 11
454.517441
 21
-140.082778
 31
0.0
  0
LINE
  5
17A
100
AcDbEntity
  8
0
370
    -3
  6
Continuous
100
AcDbLine
 10
317.517441
 20
-140.082778
 30
0.0
 11
317.517441
 21
-141.082778
 31
0.0
  0
LINE
  5
17B
100
AcDbEntity
  8
0
370
    -3
  6
Continuous
100
AcDbLine
 10
433.517441
 20
-140.082778
 30
0.0
 11
433.517441
 21
-141.082778
 31
0.0
  0
LINE
  5
17C
100
AcDbEntity
  8
0
370
    -3
  6
Continuous
100
AcDbLine
 10
452.017441
 20
-131.082778
 30
0.0
 11
426.467441
 21
-131.082778
 31
0.0
  0
LINE
  5
17D
100
AcDbEntity
  8
0
370
    -3
  6
Continuous
100
AcDbLine
 10
332.617441
 20
-141.082778
 30
0.0
 11
317.517441
 21
-141.082778
 31
0.0
  0
LINE
  5
17E
100
AcDbEntity
  8
0
370
    -3
  6
Continuous
100
AcDbLine
 10
420.017441
 20
-141.082778
 30
0.0
 11
433.517441
 21
-141.082778
 31
0.0
  0
LINE
  5
17F
100
AcDbEntity
  8
0
370
    -3
  6
Continuous
100
AcDbLine
 10
296.517441
 20
-108.582778
 30
0.0
 11
296.517441
 21
-140.082778
 31
0.0
  0
LINE
  5
180
100
AcDbEntity
  8
0
370
    -3
  6
Continuous
100
AcDbLine
 10
324.567441
 20
-131.082778
 30
0.0
 11
299.017441
 21
-131.082778
 31
0.0
  0
LINE
  5
181
100
AcDbEntity
  8
0
370
    -3
  6
Continuous
100
AcDbLine
 10
424.517441
 20
-131.082778
 30
0.0
 11
387.517441
 21
-131.082778
 31
0.0
  0
LINE
  5
182
100
AcDbEntity
  8
0
370
    -3
  6
Continuous
100
AcDbLine
 10
363.517441
 20
-131.082778
 30
0.0
 11
326.517441
 21
-131.082778
 31
0.0
  0
LINE
  5
183
100
AcDbEntity
  8
0
370
    -3
  6
Continuous
100
AcDbLine
 10
332.617441
 20
-76.082778
 30
0.0
 11
317.917441
 21
-76.082778
 31
0.0
  0
LINE
  5
184
100
AcDbEntity
  8
0
370
    -3
  6
Continuous
100
AcDbLine
 10
454.517441
 20
-108.582778
 30
0.0
 11
454.517441
 21
-77.082778
 31
0.0
  0
LINE
  5
185
100
AcDbEntity
  8
0
370
    -3
  6
Continuous
100
AcDbLine
 10
317.517441
 20
-77.082778
 30
0.0
 11
317.517441
 21
-76.082778
 31
0.0
  0
LINE
  5
186
100
AcDbEntity
  8
0
370
    -3
  6
Continuous
100
AcDbLine
 10
433.517441
 20
-77.082778
 30
0.0
 11
433.517441
 21
-76.082778
 31
0.0
  0
LINE
  5
187
100
AcDbEntity
  8
0
370
    -3
  6
Continuous
100
AcDbLine
 10
452.017441
 20
-86.082778
 30
0.0
 11
426.467441
 21
-86.082778
 31
0.0
  0
LINE
  5
188
100
AcDbEntity
  8
0
370
    -3
  6
Continuous
100
AcDbLine
 10
332.617441
 20
-76.082778
 30
0.0
 11
317.517441
 21
-76.082778
 31
0.0
  0
LINE
  5
189
100
AcDbEntity
  8
0
370
    -3
  6
Continuous
100
AcDbLine
 10
420.017441
 20
-76.082778
 30
0.0
 11
433.517441
 21
-76.082778
 31
0.0
  0
LINE
  5
18A
100
AcDbEntity
  8
0
370
    -3
  6
Continuous
100
AcDbLine
 10
296.517441
 20
-108.582778
 30
0.0
 11
296.517441
 21
-77.082778
 31
0.0
  0
LINE
  5
18B
100
AcDbEntity
  8
0
370
    -3
  6
Continuous
100
AcDbLine
 10
324.567441
 20
-86.082778
 30
0.0
 11
299.017441
 21
-86.082778
 31
0.0
  0
LINE
  5
18C
100
AcDbEntity
  8
0
370
    -3
  6
Continuous
100
AcDbLine
 10
424.517441
 20
-86.082778
 30
0.0
 11
387.517441
 21
-86.082778
 31
0.0
  0
LINE
  5
18D
100
AcDbEntity
  8
0
370
    -3
  6
Continuous
100
AcDbLine
 10
363.517441
 20
-86.082778
 30
0.0
 11
326.517441
 21
-86.082778
 31
0.0
  0
LINE
  5
18E
100
AcDbEntity
  8
0
370
    -3
  6
Continuous
100
AcDbLine
 10
317.517441
 20
-140.082778
 30
0.0
 11
317.517441
 21
-141.082778
 31
0.0
  0
LINE
  5
18F
100
AcDbEntity
  8
0
370
    -3
  6
Continuous
100
AcDbLine
 10
296.517441
 20
-140.082778
 30
0.0
 11
317.517441
 21
-140.082778
 31
0.0
  0
LINE
  5
190
100
AcDbEntity
  8
0
370
    -3
  6
Continuous
100
AcDbLine
 10
296.517441
 20
-140.082778
 30
0.0
 11
317.517441
 21
-140.082778
 31
0.0
  0
LINE
  5
191
100
AcDbEntity
  8
0
370
    -3
  6
Continuous
100
AcDbLine
 10
317.517441
 20
-140.082778
 30
0.0
 11
317.517441
 21
-141.082778
 31
0.0
  0
LINE
  5
192
100
AcDbEntity
  8
0
370
    -3
  6
Continuous
100
AcDbLine
 10
332.617441
 20
-141.082778
 30
0.0
 11
317.517441
 21
-141.082778
 31
0.0
  0
LINE
  5
193
100
AcDbEntity
  8
0
370
    -3
  6
Continuous
100
AcDbLine
 10
433.517441
 20
-141.082778
 30
0.0
 11
418.017441
 21
-141.082778
 31
0.0
  0
LINE
  5
194
100
AcDbEntity
  8
0
370
    -3
  6
Continuous
100
AcDbLine
 10
433.517441
 20
-141.082778
 30
0.0
 11
418.017441
 21
-141.082778
 31
0.0
  0
LINE
  5
195
100
AcDbEntity
  8
0
370
    -3
  6
Continuous
100
AcDbLine
 10
420.017441
 20
-141.082778
 30
0.0
 11
433.517441
 21
-141.082778
 31
0.0
  0
LINE
  5
196
100
AcDbEntity
  8
0
370
    -3
  6
Continuous
100
AcDbLine
 10
433.517441
 20
-140.082778
 30
0.0
 11
433.517441
 21
-141.082778
 31
0.0
  0
LINE
  5
197
100
AcDbEntity
  8
0
370
    -3
  6
Continuous
100
AcDbLine
 10
454.517441
 20
-140.082778
 30
0.0
 11
433.517441
 21
-140.082778
 31
0.0
  0
LINE
  5
198
100
AcDbEntity
  8
0
370
    -3
  6
Continuous
100
AcDbLine
 10
433.517441
 20
-140.082778
 30
0.0
 11
433.517441
 21
-141.082778
 31
0.0
  0
LINE
  5
199
100
AcDbEntity
  8
0
370
    -3
  6
Continuous
100
AcDbLine
 10
420.017441
 20
-141.082778
 30
0.0
 11
433.517441
 21
-141.082778
 31
0.0
  0
LINE
  5
19A
100
AcDbEntity
  8
0
370
    -3
  6
Continuous
100
AcDbLine
 10
454.517441
 20
-140.082778
 30
0.0
 11
433.517441
 21
-140.082778
 31
0.0
  0
LINE
  5
19B
100
AcDbEntity
  8
0
370
    -3
  6
Continuous
100
AcDbLine
 10
317.517441
 20
-77.082778
 30
0.0
 11
317.517441
 21
-76.082778
 31
0.0
  0
LINE
  5
19C
100
AcDbEntity
  8
0
370
    -3
  6
Continuous
100
AcDbLine
 10
296.517441
 20
-77.082778
 30
0.0
 11
317.517441
 21
-77.082778
 31
0.0
  0
LINE
  5
19D
100
AcDbEntity
  8
0
370
    -3
  6
Continuous
100
AcDbLine
 10
296.517441
 20
-77.082778
 30
0.0
 11
317.517441
 21
-77.082778
 31
0.0
  0
LINE
  5
19E
100
AcDbEntity
  8
0
370
    -3
  6
Continuous
100
AcDbLine
 10
317.517441
 20
-77.082778
 30
0.0
 11
317.517441
 21
-76.082778
 31
0.0
  0
LINE
  5
19F
100
AcDbEntity
  8
0
370
    -3
  6
Continuous
100
AcDbLine
 10
332.617441
 20
-76.082778
 30
0.0
 11
317.517441
 21
-76.082778
 31
0.0
  0
LINE
  5
1A0
100
AcDbEntity
  8
0
370
    -3
  6
Continuous
100
AcDbLine
 10
433.517441
 20
-76.082778
 30
0.0
 11
418.017441
 21
-76.082778
 31
0.0
  0
LINE
  5
1A1
100
AcDbEntity
  8
0
370
    -3
  6
Continuous
100
AcDbLine
 10
433.517441
 20
-76.082778
 30
0.0
 11
418.017441
 21
-76.082778
 31
0.0
  0
LINE
  5
1A2
100
AcDbEntity
  8
0
370
    -3
  6
Continuous
100
AcDbLine
 10
420.017441
 20
-76.082778
 30
0.0
 11
433.517441
 21
-76.082778
 31
0.0
  0
LINE
  5
1A3
100
AcDbEntity
  8
0
370
    -3
  6
Continuous
100
AcDbLine
 10
433.517441
 20
-77.082778
 30
0.0
 11
433.517441
 21
-76.082778
 31
0.0
  0
LINE
  5
1A4
100
AcDbEntity
  8
0
370
    -3
  6
Continuous
100
AcDbLine
 10
454.517441
 20
-77.082778
 30
0.0
 11
433.517441
 21
-77.082778
 31
0.0
  0
LINE
  5
1A5
100
AcDbEntity
  8
0
370
    -3
  6
Continuous
100
AcDbLine
 10
433.517441
 20
-77.082778
 30
0.0
 11
433.517441
 21
-76.082778
 31
0.0
  0
LINE
  5
1A6
100
AcDbEntity
  8
0
370
    -3
  6
Continuous
100
AcDbLine
 10
420.017441
 20
-76.082778
 30
0.0
 11
433.517441
 21
-76.082778
 31
0.0
  0
LINE
  5
1A7
100
AcDbEntity
  8
0
370
    -3
  6
Continuous
100
AcDbLine
 10
454.517441
 20
-77.082778
 30
0.0
 11
433.517441
 21
-77.082778
 31
0.0
  0
LINE
  5
1A8
100
AcDbEntity
  8
0
370
    -3
  6
Continuous
100
AcDbLine
 10
433.117441
 20
-141.082778
 30
0.0
 11
418.01744
 21
-141.082778
 31
0.0
  0
LINE
  5
1A9
100
AcDbEntity
  8
0
370
    -3
  6
Continuous
100
AcDbLine
 10
387.517441
 20
-108.582778
 30
0.0
 11
387.517441
 21
-131.282778
 31
0.0
  0
LINE
  5
1AA
100
AcDbEntity
  8
0
370
    -3
  6
Continuous
100
AcDbLine
 10
326.517441
 20
-108.582778
 30
0.0
 11
326.517441
 21
-132.332778
 31
0.0
  0
LINE
  5
1AB
100
AcDbEntity
  8
0
370
    -3
  6
Continuous
100
AcDbLine
 10
424.517441
 20
-108.582778
 30
0.0
 11
424.517441
 21
-132.332778
 31
0.0
  0
LINE
  5
1AC
100
AcDbEntity
  8
0
370
    -3
  6
Continuous
100
AcDbLine
 10
363.517441
 20
-108.582778
 30
0.0
 11
363.517441
 21
-131.282778
 31
0.0
  0
LINE
  5
1AD
100
AcDbEntity
  8
0
370
    -3
  6
Continuous
100
AcDbLine
 10
387.517441
 20
-131.282778
 30
0.0
 11
363.517441
 21
-131.282778
 31
0.0
  0
LINE
  5
1AE
100
AcDbEntity
  8
0
370
    -3
  6
Continuous
100
AcDbLine
 10
433.117441
 20
-76.082778
 30
0.0
 11
418.01744
 21
-76.082778
 31
0.0
  0
LINE
  5
1AF
100
AcDbEntity
  8
0
370
    -3
  6
Continuous
100
AcDbLine
 10
387.517441
 20
-108.582778
 30
0.0
 11
387.517441
 21
-85.882778
 31
0.0
  0
LINE
  5
1B0
100
AcDbEntity
  8
0
370
    -3
  6
Continuous
100
AcDbLine
 10
326.517441
 20
-108.582778
 30
0.0
 11
326.517441
 21
-84.832778
 31
0.0
  0
LINE
  5
1B1
100
AcDbEntity
  8
0
370
    -3
  6
Continuous
100
AcDbLine
 10
424.517441
 20
-108.582778
 30
0.0
 11
424.517441
 21
-84.832778
 31
0.0
  0
LINE
  5
1B2
100
AcDbEntity
  8
0
370
    -3
  6
Continuous
100
AcDbLine
 10
363.517441
 20
-108.582778
 30
0.0
 11
363.517441
 21
-85.882778
 31
0.0
  0
LINE
  5
1B3
100
AcDbEntity
  8
0
370
    -3
  6
Continuous
100
AcDbLine
 10
387.517441
 20
-85.882778
 30
0.0
 11
363.517441
 21
-85.882778
 31
0.0
  0
LINE
  5
1B4
100
AcDbEntity
  8
0
370
    -3
  6
Continuous
100
AcDbLine
 10
420.017441
 20
-141.082778
 30
0.0
 11
433.517441
 21
-141.082778
 31
0.0
  0
LINE
  5
1B5
100
AcDbEntity
  8
0
370
    -3
  6
Continuous
100
AcDbLine
 10
418.017441
 20
-73.582778
 30
0.0
 11
380.517441
 21
-73.582778
 31
0.0
  0
LINE
  5
1B6
100
AcDbEntity
  8
0
370
    -3
  6
Continuous
100
AcDbLine
 10
380.517441
 20
-73.582778
 30
0.0
 11
380.517441
 21
-74.082778
 31
0.0
  0
LINE
  5
1B7
100
AcDbEntity
  8
0
370
    -3
  6
Continuous
100
AcDbLine
 10
418.017441
 20
-73.582778
 30
0.0
 11
418.017441
 21
-76.082778
 31
0.0
  0
LINE
  5
1B8
100
AcDbEntity
  8
0
370
    -3
  6
Continuous
100
AcDbLine
 10
380.517441
 20
-74.082778
 30
0.0
 11
361.517441
 21
-74.082778
 31
0.0
  0
LINE
  5
1B9
100
AcDbEntity
  8
0
370
    -3
  6
Continuous
100
AcDbLine
 10
361.517441
 20
-76.032778
 30
0.0
 11
332.81109
 21
-76.032778
 31
0.0
  0
LINE
  5
1BA
100
AcDbEntity
  8
0
370
    -3
  6
Continuous
100
AcDbLine
 10
418.017441
 20
-143.582778
 30
0.0
 11
418.017441
 21
-141.082778
 31
0.0
  0
LINE
  5
1BB
100
AcDbEntity
  8
0
370
    -3
  6
Continuous
100
AcDbLine
 10
418.017441
 20
-143.582778
 30
0.0
 11
380.517441
 21
-143.582778
 31
0.0
  0
LINE
  5
1BC
100
AcDbEntity
  8
0
370
    -3
  6
Continuous
100
AcDbLine
 10
380.517441
 20
-143.582778
 30
0.0
 11
380.517441
 21
-143.082778
 31
0.0
  0
LINE
  5
1BD
100
AcDbEntity
  8
0
370
    -3
  6
Continuous
100
AcDbLine
 10
380.517441
 20
-143.082778
 30
0.0
 11
361.517441
 21
-143.082778
 31
0.0
  0
LINE
  5
1BE
100
AcDbEntity
  8
0
370
    -3
  6
Continuous
100
AcDbLine
 10
361.517441
 20
-141.132778
 30
0.0
 11
332.81109
 21
-141.132778
 31
0.0
  0
LINE
  5
1BF
100
AcDbEntity
  8
0
370
    -3
  6
CENTER
100
AcDbLine
 10
463.233556
 20
-108.582778
 30
0.0
 11
291.197008
 21
-108.582778
 31
0.0
  0
ARC
  5
1C0
100
AcDbEntity
  8
0
370
    -3
  6
Continuous
100
AcDbCircle
 10
332.617441
 20
-141.482778
 30
0.0
 40
0.4
100
AcDbArc
 50
61.044976
 51
90.0
  0
ARC
  5
1C1
100
AcDbEntity
  8
0
370
    -3
  6
Continuous
100
AcDbCircle
 10
332.617441
 20
-75.682778
 30
0.0
 40
0.4
100
AcDbArc
 50
270.0
 51
298.955024
  0
ARC
  5
1C2
100
AcDbEntity
  8
0
370
    -3
  6
Continuous
100
AcDbCircle
 10
452.017441
 20
-133.582778
 30
0.0
 40
2.5
100
AcDbArc
 50
0.0
 51
90.0
  0
ARC
  5
1C3
100
AcDbEntity
  8
0
370
    -3
  6
Continuous
100
AcDbCircle
 10
299.017441
 20
-133.582778
 30
0.0
 40
2.5
100
AcDbArc
 50
90.0
 51
180.0
  0
ARC
  5
1C4
100
AcDbEntity
  8
0
370
    -3
  6
Continuous
100
AcDbCircle
 10
452.017441
 20
-83.582778
 30
0.0
 40
2.5
100
AcDbArc
 50
270.0
 51
0.0
  0
ARC
  5
1C5
100
AcDbEntity
  8
0
370
    -3
  6
Continuous
100
AcDbCircle
 10
299.017441
 20
-83.582778
 30
0.0
 40
2.5
100
AcDbArc
 50
180.0
 51
270.0
  0
LINE
  5
1C6
100
AcDbEntity
  8
0
370
    -3
  6
CENTER
100
AcDbLine
 10
159.517441
 20
-14.263536
 30
0.0
 11
159.517441
 21
-239.967552
 31
0.0
  0
LINE
  5
1C7
100
AcDbEntity
  8
0
370
    -3
  6
Continuous
100
AcDbLine
 10
511.517441
 20
-82.282778
 30
0.0
 11
511.517441
 21
-87.199373
 31
0.0
  0
LINE
  5
1C8
100
AcDbEntity
  8
0
370
    -3
  6
Continuous
100
AcDbLine
 10
497.517441
 20
-82.282778
 30
0.0
 11
497.517441
 21
-87.199373
 31
0.0
  0
LINE
  5
1C9
100
AcDbEntity
  8
0
370
    -3
  6
Continuous
100
AcDbLine
 10
511.517441
 20
-82.282778
 30
0.0
 11
497.517441
 21
-82.282778
 31
0.0
  0
LINE
  5
1CA
100
AcDbEntity
  8
0
370
    -3
  6
CENTER
100
AcDbLine
 10
504.517441
 20
-66.925
 30
0.0
 11
504.517441
 21
-146.925
 31
0.0
  0
ARC
  5
1CB
100
AcDbEntity
  8
0
370
    -3
  6
Continuous
100
AcDbCircle
 10
504.517441
 20
-108.582778
 30
0.0
 40
22.5
100
AcDbArc
 50
108.126204
 51
71.873796
  0
CIRCLE
  5
1CC
100
AcDbEntity
  8
0
370
    -3
  6
Continuous
100
AcDbCircle
 10
504.517441
 20
-108.582778
 30
0.0
 40
31.5
  0
LINE
  5
1CD
100
AcDbEntity
  8
0
370
    -3
  6
CENTER
100
AcDbLine
 10
540.555959
 20
-108.582778
 30
0.0
 11
469.125851
 21
-108.582778
 31
0.0
  0
LINE
  5
1CE
100
AcDbEntity
  8
0
370
    -3
  6
Continuous
100
AcDbLine
 10
296.517441
 20
-82.282778
 30
0.0
 11
454.517441
 21
-82.282778
 31
0.0
  0
LINE
  5
1CF
100
AcDbEntity
  8
0
370
    -3
  6
Continuous
100
AcDbLine
 10
-26.482559
 20
-152.582778
 30
0.0
 11
-26.482559
 21
-224.082778
 31
0.0
  0
LINE
  5
1D0
100
AcDbEntity
  8
0
370
    -3
  6
Continuous
100
AcDbLine
 10
-26.482559
 20
-152.582778
 30
0.0
 11
-26.482559
 21
-81.082778
 31
0.0
  0
ARC
  5
1D1
100
AcDbEntity
  8
0
370
    -3
  6
Continuous
100
AcDbCircle
 10
-26.482559
 20
-80.082778
 30
0.0
 40
1.0
100
AcDbArc
 50
270.0
 51
360.0
  0
ARC
  5
1D2
100
AcDbEntity
  8
0
370
    -3
  6
Continuous
100
AcDbCircle
 10
-24.482559
 20
-58.582778
 30
0.0
 40
1.0
100
AcDbArc
 50
90.0
 51
180.0
  0
LINE
  5
1D3
100
AcDbEntity
  8
0
370
    -3
  6
Continuous
100
AcDbLine
 10
-25.482559
 20
-80.082778
 30
0.0
 11
-25.482559
 21
-58.582778
 31
0.0
  0
LINE
  5
1D4
100
AcDbEntity
  8
0
370
    -3
  6
Continuous
100
AcDbLine
 10
152.517441
 20
-82.282778
 30
0.0
 11
166.517441
 21
-82.282778
 31
0.0
  0
LINE
  5
1D5
100
AcDbEntity
  8
0
370
    -3
  6
Continuous
100
AcDbLine
 10
152.517441
 20
-82.282778
 30
0.0
 11
152.517441
 21
-87.199373
 31
0.0
  0
LINE
  5
1D6
100
AcDbEntity
  8
0
370
    -3
  6
Continuous
100
AcDbLine
 10
166.517441
 20
-82.282778
 30
0.0
 11
166.517441
 21
-87.199373
 31
0.0
  0
ARC
  5
1D7
100
AcDbEntity
  8
0
370
    -3
  6
Continuous
100
AcDbCircle
 10
159.517441
 20
-108.582778
 30
0.0
 40
22.5
100
AcDbArc
 50
108.126204
 51
71.873796
  0
CIRCLE
  5
1D8
100
AcDbEntity
  8
0
370
    -3
  6
Continuous
100
AcDbCircle
 10
159.517441
 20
-108.582778
 30
0.0
 40
31.5
  0
CIRCLE
  5
1D9
100
AcDbEntity
  8
0
370
    -3
  6
Continuous
100
AcDbCircle
 10
159.517441
 20
-108.582778
 30
0.0
 40
64.5
  0
CIRCLE
  5
1DA
100
AcDbEntity
  8
0
370
    -3
  6
Continuous
100
AcDbCircle
 10
159.517441
 20
-108.582778
 30
0.0
 40
66.0
  0
CIRCLE
  5
1DB
100
AcDbEntity
  8
0
370
    -3
  6
Continuous
100
AcDbCircle
 10
50.517441
 20
-31.582778
 30
0.0
 40
4.5
  0
CIRCLE
  5
1DC
100
AcDbEntity
  8
0
370
    -3
  6
Continuous
100
AcDbCircle
 10
50.517441
 20
-31.582778
 30
0.0
 40
7.0
  0
CIRCLE
  5
1DD
100
AcDbEntity
  8
0
370
    -3
  6
Continuous
100
AcDbCircle
 10
206.517441
 20
-31.582778
 30
0.0
 40
7.0
  0
CIRCLE
  5
1DE
100
AcDbEntity
  8
0
370
    -3
  6
Continuous
100
AcDbCircle
 10
206.517441
 20
-31.582778
 30
0.0
 40
4.5
  0
LINE
  5
1DF
100
AcDbEntity
  8
0
370
    -3
  6
Continuous
100
AcDbLine
 10
8.517441
 20
-61.582778
 30
0.0
 11
5.517441
 21
-71.582778
 31
0.0
  0
LINE
  5
1E0
100
AcDbEntity
  8
0
370
    -3
  6
Continuous
100
AcDbLine
 10
8.517441
 20
-31.582778
 30
0.0
 11
8.517441
 21
-61.582778
 31
0.0
  0
ARC
  5
1E1
100
AcDbEntity
  8
0
370
    -3
  6
Continuous
100
AcDbCircle
 10
18.517441
 20
-31.582778
 30
0.0
 40
10.0
100
AcDbArc
 50
90.0
 51
180.0
  0
ARC
  5
1E2
100
AcDbEntity
  8
0
370
    -3
  6
Continuous
100
AcDbCircle
 10
18.517441
 20
-31.582778
 30
0.0
 40
9.0
100
AcDbArc
 50
90.0
 51
180.0
  0
LINE
  5
1E3
100
AcDbEntity
  8
0
370
    -3
  6
Continuous
100
AcDbLine
 10
5.517441
 20
-71.582778
 30
0.0
 11
5.517441
 21
-182.582778
 31
0.0
  0
LINE
  5
1E4
100
AcDbEntity
  8
0
370
    -3
  6
Continuous
100
AcDbLine
 10
246.517441
 20
-31.582778
 30
0.0
 11
246.517441
 21
-222.582778
 31
0.0
  0
LINE
  5
1E5
100
AcDbEntity
  8
0
370
    -3
  6
Continuous
100
AcDbLine
 10
245.517441
 20
-31.582778
 30
0.0
 11
245.517441
 21
-222.582778
 31
0.0
  0
ARC
  5
1E6
100
AcDbEntity
  8
0
370
    -3
  6
Continuous
100
AcDbCircle
 10
236.517441
 20
-31.582778
 30
0.0
 40
10.0
100
AcDbArc
 50
0.0
 51
90.0
  0
ARC
  5
1E7
100
AcDbEntity
  8
0
370
    -3
  6
Continuous
100
AcDbCircle
 10
236.517441
 20
-31.582778
 30
0.0
 40
9.0
100
AcDbArc
 50
0.0
 51
90.0
  0
LINE
  5
1E8
100
AcDbEntity
  8
0
370
    -3
  6
Continuous
100
AcDbLine
 10
236.517441
 20
-21.582778
 30
0.0
 11
18.517441
 21
-21.582778
 31
0.0
  0
LINE
  5
1E9
100
AcDbEntity
  8
0
370
    -3
  6
Continuous
100
AcDbLine
 10
18.517441
 20
-22.582778
 30
0.0
 11
236.517441
 21
-22.582778
 31
0.0
  0
ARC
  5
1EA
100
AcDbEntity
  8
0
370
    -3
  6
Continuous
100
AcDbCircle
 10
69.27244
 20
-43.082778
 30
0.0
 40
10.0
100
AcDbArc
 50
90.0
 51
148.48463
  0
ARC
  5
1EB
100
AcDbEntity
  8
0
370
    -3
  6
Continuous
100
AcDbCircle
 10
30.017441
 20
-69.545254
 30
0.0
 40
10.0
100
AcDbArc
 50
92.865984
 51
180.0
  0
ARC
  5
1EC
100
AcDbEntity
  8
0
370
    -3
  6
Continuous
100
AcDbCircle
 10
55.324159
 20
-53.051254
 30
0.0
 40
10.0
100
AcDbArc
 50
102.620195
 51
153.323715
  0
ARC
  5
1ED
100
AcDbEntity
  8
0
370
    -3
  6
Continuous
100
AcDbCircle
 10
28.517441
 20
-39.582778
 30
0.0
 40
20.0
100
AcDbArc
 50
272.865984
 51
333.323715
  0
ARC
  5
1EE
100
AcDbEntity
  8
0
370
    -3
  6
Continuous
100
AcDbCircle
 10
50.517441
 20
-31.582778
 30
0.0
 40
12.0
100
AcDbArc
 50
282.620195
 51
328.48463
  0
ARC
  5
1EF
100
AcDbEntity
  8
0
370
    -3
  6
Continuous
100
AcDbCircle
 10
69.27244
 20
-43.082778
 30
0.0
 40
8.5
100
AcDbArc
 50
90.0
 51
148.48463
  0
ARC
  5
1F0
100
AcDbEntity
  8
0
370
    -3
  6
Continuous
100
AcDbCircle
 10
50.517441
 20
-31.582778
 30
0.0
 40
13.5
100
AcDbArc
 50
282.620195
 51
328.48463
  0
ARC
  5
1F1
100
AcDbEntity
  8
0
370
    -3
  6
Continuous
100
AcDbCircle
 10
55.324159
 20
-53.051254
 30
0.0
 40
8.5
100
AcDbArc
 50
102.620195
 51
153.323715
  0
ARC
  5
1F2
100
AcDbEntity
  8
0
370
    -3
  6
Continuous
100
AcDbCircle
 10
28.517441
 20
-39.582778
 30
0.0
 40
21.5
100
AcDbArc
 50
272.865984
 51
333.323715
  0
ARC
  5
1F3
100
AcDbEntity
  8
0
370
    -3
  6
Continuous
100
AcDbCircle
 10
30.017441
 20
-69.545254
 30
0.0
 40
8.5
100
AcDbArc
 50
92.865984
 51
180.0
  0
ARC
  5
1F4
100
AcDbEntity
  8
0
370
    -3
  6
Continuous
100
AcDbCircle
 10
201.710722
 20
-53.051254
 30
0.0
 40
10.0
100
AcDbArc
 50
26.676285
 51
77.379805
  0
ARC
  5
1F5
100
AcDbEntity
  8
0
370
    -3
  6
Continuous
100
AcDbCircle
 10
201.710722
 20
-53.051254
 30
0.0
 40
8.5
100
AcDbArc
 50
26.676285
 51
77.379805
  0
ARC
  5
1F6
100
AcDbEntity
  8
0
370
    -3
  6
Continuous
100
AcDbCircle
 10
206.517441
 20
-31.582778
 30
0.0
 40
12.0
100
AcDbArc
 50
211.51537
 51
257.379805
  0
ARC
  5
1F7
100
AcDbEntity
  8
0
370
    -3
  6
Continuous
100
AcDbCircle
 10
206.517441
 20
-31.582778
 30
0.0
 40
13.5
100
AcDbArc
 50
211.51537
 51
257.379805
  0
ARC
  5
1F8
100
AcDbEntity
  8
0
370
    -3
  6
Continuous
100
AcDbCircle
 10
187.762442
 20
-43.082778
 30
0.0
 40
10.0
100
AcDbArc
 50
31.51537
 51
90.0
  0
ARC
  5
1F9
100
AcDbEntity
  8
0
370
    -3
  6
Continuous
100
AcDbCircle
 10
187.762442
 20
-43.082778
 30
0.0
 40
8.5
100
AcDbArc
 50
31.51537
 51
90.0
  0
LINE
  5
1FA
100
AcDbEntity
  8
0
370
    -3
  6
Continuous
100
AcDbLine
 10
69.27244
 20
-34.582778
 30
0.0
 11
187.762442
 21
-34.582778
 31
0.0
  0
LINE
  5
1FB
100
AcDbEntity
  8
0
370
    -3
  6
Continuous
100
AcDbLine
 10
69.27244
 20
-33.082778
 30
0.0
 11
187.762442
 21
-33.082778
 31
0.0
  0
ARC
  5
1FC
100
AcDbEntity
  8
0
370
    -3
  6
Continuous
100
AcDbCircle
 10
228.517441
 20
-39.582778
 30
0.0
 40
20.0
100
AcDbArc
 50
206.676285
 51
263.300235
  0
ARC
  5
1FD
100
AcDbEntity
  8
0
370
    -3
  6
Continuous
100
AcDbCircle
 10
225.017441
 20
-69.377912
 30
0.0
 40
10.0
100
AcDbArc
 50
0.0
 51
83.300235
  0
ARC
  5
1FE
100
AcDbEntity
  8
0
370
    -3
  6
Continuous
100
AcDbCircle
 10
225.017441
 20
-69.377912
 30
0.0
 40
8.5
100
AcDbArc
 50
0.0
 51
83.300235
  0
ARC
  5
1FF
100
AcDbEntity
  8
0
370
    -3
  6
Continuous
100
AcDbCircle
 10
228.517441
 20
-39.582778
 30
0.0
 40
21.5
100
AcDbArc
 50
206.676285
 51
263.300235
  0
LINE
  5
200
100
AcDbEntity
  8
0
370
    -3
  6
Continuous
100
AcDbLine
 10
235.017441
 20
-69.377912
 30
0.0
 11
235.017441
 21
-184.787644
 31
0.0
  0
LINE
  5
201
100
AcDbEntity
  8
0
370
    -3
  6
Continuous
100
AcDbLine
 10
233.517441
 20
-69.377912
 30
0.0
 11
233.517441
 21
-184.787644
 31
0.0
  0
LINE
  5
202
100
AcDbEntity
  8
0
370
    -3
  6
Continuous
100
AcDbLine
 10
21.517441
 20
-69.545254
 30
0.0
 11
21.517441
 21
-184.620301
 31
0.0
  0
LINE
  5
203
100
AcDbEntity
  8
0
370
    -3
  6
Continuous
100
AcDbLine
 10
20.017441
 20
-69.545254
 30
0.0
 11
20.017441
 21
-184.620301
 31
0.0
  0
LINE
  5
204
100
AcDbEntity
  8
0
370
    -3
  6
Continuous
100
AcDbLine
 10
9.517441
 20
-222.582778
 30
0.0
 11
9.517441
 21
-31.582778
 31
0.0
  0
CIRCLE
  5
205
100
AcDbEntity
  8
0
370
    -3
  6
Continuous
100
AcDbCircle
 10
50.517441
 20
-222.582778
 30
0.0
 40
7.0
  0
CIRCLE
  5
206
100
AcDbEntity
  8
0
370
    -3
  6
Continuous
100
AcDbCircle
 10
206.517441
 20
-222.582778
 30
0.0
 40
4.5
  0
LINE
  5
207
100
AcDbEntity
  8
0
370
    -3
  6
Continuous
100
AcDbLine
 10
8.517441
 20
-192.582778
 30
0.0
 11
5.517441
 21
-182.582778
 31
0.0
  0
LINE
  5
208
100
AcDbEntity
  8
0
370
    -3
  6
Continuous
100
AcDbLine
 10
8.517441
 20
-192.582778
 30
0.0
 11
8.517441
 21
-222.582778
 31
0.0
  0
ARC
  5
209
100
AcDbEntity
  8
0
370
    -3
  6
Continuous
100
AcDbCircle
 10
18.517441
 20
-222.582778
 30
0.0
 40
10.0
100
AcDbArc
 50
180.0
 51
270.0
  0
ARC
  5
20A
100
AcDbEntity
  8
0
370
    -3
  6
Continuous
100
AcDbCircle
 10
18.517441
 20
-222.582778
 30
0.0
 40
9.0
100
AcDbArc
 50
180.0
 51
270.0
  0
LINE
  5
20B
100
AcDbEntity
  8
0
370
    -3
  6
Continuous
100
AcDbLine
 10
236.517441
 20
-232.582778
 30
0.0
 11
18.517441
 21
-232.582778
 31
0.0
  0
LINE
  5
20C
100
AcDbEntity
  8
0
370
    -3
  6
Continuous
100
AcDbLine
 10
236.517441
 20
-231.582778
 30
0.0
 11
18.517441
 21
-231.582778
 31
0.0
  0
ARC
  5
20D
100
AcDbEntity
  8
0
370
    -3
  6
Continuous
100
AcDbCircle
 10
236.517441
 20
-222.582778
 30
0.0
 40
10.0
100
AcDbArc
 50
270.0
 51
0.0
  0
ARC
  5
20E
100
AcDbEntity
  8
0
370
    -3
  6
Continuous
100
AcDbCircle
 10
236.517441
 20
-222.582778
 30
0.0
 40
9.0
100
AcDbArc
 50
270.0
 51
0.0
  0
CIRCLE
  5
20F
100
AcDbEntity
  8
0
370
    -3
  6
Continuous
100
AcDbCircle
 10
50.517441
 20
-222.582778
 30
0.0
 40
4.4
  0
ARC
  5
210
100
AcDbEntity
  8
0
370
    -3
  6
Continuous
100
AcDbCircle
 10
187.762442
 20
-211.082778
 30
0.0
 40
10.0
100
AcDbArc
 50
270.0
 51
328.48463
  0
ARC
  5
211
100
AcDbEntity
  8
0
370
    -3
  6
Continuous
100
AcDbCircle
 10
187.762442
 20
-211.082778
 30
0.0
 40
8.5
100
AcDbArc
 50
270.0
 51
328.48463
  0
ARC
  5
212
100
AcDbEntity
  8
0
370
    -3
  6
Continuous
100
AcDbCircle
 10
206.517441
 20
-222.582778
 30
0.0
 40
12.0
100
AcDbArc
 50
102.620195
 51
148.48463
  0
ARC
  5
213
100
AcDbEntity
  8
0
370
    -3
  6
Continuous
100
AcDbCircle
 10
206.517441
 20
-222.582778
 30
0.0
 40
13.5
100
AcDbArc
 50
102.620195
 51
148.48463
  0
ARC
  5
214
100
AcDbEntity
  8
0
370
    -3
  6
Continuous
100
AcDbCircle
 10
201.710722
 20
-201.114302
 30
0.0
 40
8.5
100
AcDbArc
 50
282.620195
 51
333.323715
  0
ARC
  5
215
100
AcDbEntity
  8
0
370
    -3
  6
Continuous
100
AcDbCircle
 10
201.710722
 20
-201.114302
 30
0.0
 40
10.0
100
AcDbArc
 50
282.620195
 51
333.323715
  0
ARC
  5
216
100
AcDbEntity
  8
0
370
    -3
  6
Continuous
100
AcDbCircle
 10
228.517441
 20
-214.582778
 30
0.0
 40
20.0
100
AcDbArc
 50
96.699765
 51
153.323715
  0
ARC
  5
217
100
AcDbEntity
  8
0
370
    -3
  6
Continuous
100
AcDbCircle
 10
228.517441
 20
-214.582778
 30
0.0
 40
21.5
100
AcDbArc
 50
96.699765
 51
153.323715
  0
ARC
  5
218
100
AcDbEntity
  8
0
370
    -3
  6
Continuous
100
AcDbCircle
 10
225.017441
 20
-184.787644
 30
0.0
 40
10.0
100
AcDbArc
 50
276.699765
 51
0.0
  0
ARC
  5
219
100
AcDbEntity
  8
0
370
    -3
  6
Continuous
100
AcDbCircle
 10
225.017441
 20
-184.787644
 30
0.0
 40
8.5
100
AcDbArc
 50
276.699765
 51
0.0
  0
CIRCLE
  5
21A
100
AcDbEntity
  8
0
370
    -3
  6
Continuous
100
AcDbCircle
 10
206.517441
 20
-222.582778
 30
0.0
 40
7.0
  0
ARC
  5
21B
100
AcDbEntity
  8
0
370
    -3
  6
Continuous
100
AcDbCircle
 10
30.017441
 20
-184.620301
 30
0.0
 40
8.5
100
AcDbArc
 50
180.0
 51
267.134016
  0
ARC
  5
21C
100
AcDbEntity
  8
0
370
    -3
  6
Continuous
100
AcDbCircle
 10
30.017441
 20
-184.620301
 30
0.0
 40
10.0
100
AcDbArc
 50
180.0
 51
267.134016
  0
ARC
  5
21D
100
AcDbEntity
  8
0
370
    -3
  6
Continuous
100
AcDbCircle
 10
28.517441
 20
-214.582778
 30
0.0
 40
21.5
100
AcDbArc
 50
26.676285
 51
87.134016
  0
ARC
  5
21E
100
AcDbEntity
  8
0
370
    -3
  6
Continuous
100
AcDbCircle
 10
28.517441
 20
-214.582778
 30
0.0
 40
20.0
100
AcDbArc
 50
26.676285
 51
87.134016
  0
ARC
  5
21F
100
AcDbEntity
  8
0
370
    -3
  6
Continuous
100
AcDbCircle
 10
55.324159
 20
-201.114302
 30
0.0
 40
8.5
100
AcDbArc
 50
206.676285
 51
257.379805
  0
ARC
  5
220
100
AcDbEntity
  8
0
370
    -3
  6
Continuous
100
AcDbCircle
 10
55.324159
 20
-201.114302
 30
0.0
 40
10.0
100
AcDbArc
 50
206.676285
 51
257.379805
  0
ARC
  5
221
100
AcDbEntity
  8
0
370
    -3
  6
Continuous
100
AcDbCircle
 10
50.517441
 20
-222.582778
 30
0.0
 40
12.0
100
AcDbArc
 50
31.51537
 51
77.379805
  0
ARC
  5
222
100
AcDbEntity
  8
0
370
    -3
  6
Continuous
100
AcDbCircle
 10
50.517441
 20
-222.582778
 30
0.0
 40
13.5
100
AcDbArc
 50
31.51537
 51
77.379805
  0
ARC
  5
223
100
AcDbEntity
  8
0
370
    -3
  6
Continuous
100
AcDbCircle
 10
69.27244
 20
-211.082778
 30
0.0
 40
10.0
100
AcDbArc
 50
211.51537
 51
270.0
  0
ARC
  5
224
100
AcDbEntity
  8
0
370
    -3
  6
Continuous
100
AcDbCircle
 10
69.27244
 20
-211.082778
 30
0.0
 40
8.5
100
AcDbArc
 50
211.51537
 51
270.0
  0
LINE
  5
225
100
AcDbEntity
  8
0
370
    -3
  6
Continuous
100
AcDbLine
 10
187.762442
 20
-219.582778
 30
0.0
 11
69.27244
 21
-219.582778
 31
0.0
  0
LINE
  5
226
100
AcDbEntity
  8
0
370
    -3
  6
Continuous
100
AcDbLine
 10
187.762442
 20
-221.082778
 30
0.0
 11
69.27244
 21
-221.082778
 31
0.0
  0
ARC
  5
227
100
AcDbEntity
  8
0
370
    -3
  6
Continuous
100
AcDbCircle
 10
-16.982559
 20
-83.582778
 30
0.0
 40
3.0
100
AcDbArc
 50
180.0
 51
270.0
  0
ARC
  5
228
100
AcDbEntity
  8
0
370
    -3
  6
Continuous
100
AcDbCircle
 10
-21.982559
 20
-83.082778
 30
0.0
 40
2.0
100
AcDbArc
 50
360.0
 51
90.0
  0
LINE
  5
229
100
AcDbEntity
  8
0
370
    -3
  6
Continuous
100
AcDbLine
 10
-16.982559
 20
-218.582778
 30
0.0
 11
5.517441
 21
-218.582778
 31
0.0
  0
LINE
  5
22A
100
AcDbEntity
  8
0
370
    -3
  6
Continuous
100
AcDbLine
 10
-19.982559
 20
-152.582778
 30
0.0
 11
-19.982559
 21
-195.569931
 31
0.0
  0
LINE
  5
22B
100
AcDbEntity
  8
0
370
    -3
  6
Continuous
100
AcDbLine
 10
-21.982559
 20
-224.082778
 30
0.0
 11
-26.482559
 21
-224.082778
 31
0.0
  0
ARC
  5
22C
100
AcDbEntity
  8
0
370
    -3
  6
Continuous
100
AcDbCircle
 10
-16.982559
 20
-195.569931
 30
0.0
 40
3.0
100
AcDbArc
 50
180.0
 51
270.0
  0
LINE
  5
22D
100
AcDbEntity
  8
0
370
    -3
  6
Continuous
100
AcDbLine
 10
-16.982559
 20
-198.569931
 30
0.0
 11
-8.482559
 21
-198.569931
 31
0.0
  0
ARC
  5
22E
100
AcDbEntity
  8
0
370
    -3
  6
Continuous
100
AcDbCircle
 10
-16.982559
 20
-210.582778
 30
0.0
 40
3.0
100
AcDbArc
 50
90.0
 51
180.0
  0
LINE
  5
22F
100
AcDbEntity
  8
0
370
    -3
  6
Continuous
100
AcDbLine
 10
-16.982559
 20
-207.582778
 30
0.0
 11
-8.482559
 21
-207.582778
 31
0.0
  0
ARC
  5
230
100
AcDbEntity
  8
0
370
    -3
  6
Continuous
100
AcDbCircle
 10
-8.482559
 20
-193.569931
 30
0.0
 40
5.0
100
AcDbArc
 50
270.0
 51
351.914005
  0
ARC
  5
231
100
AcDbEntity
  8
0
370
    -3
  6
Continuous
100
AcDbCircle
 10
-8.482559
 20
-202.582778
 30
0.0
 40
5.0
100
AcDbArc
 50
270.0
 51
350.385223
  0
ARC
  5
232
100
AcDbEntity
  8
0
370
    -3
  6
Continuous
100
AcDbCircle
 10
-16.982559
 20
-221.582778
 30
0.0
 40
3.0
100
AcDbArc
 50
90.0
 51
180.0
  0
ARC
  5
233
100
AcDbEntity
  8
0
370
    -3
  6
Continuous
100
AcDbCircle
 10
-21.982559
 20
-222.082778
 30
0.0
 40
2.0
100
AcDbArc
 50
270.0
 51
0.0
  0
ARC
  5
234
100
AcDbEntity
  8
0
370
    -3
  6
Continuous
100
AcDbCircle
 10
-11.482559
 20
-84.582778
 30
0.0
 40
2.0
100
AcDbArc
 50
180.0
 51
270.0
  0
ARC
  5
235
100
AcDbEntity
  8
0
370
    -3
  6
Continuous
100
AcDbCircle
 10
-14.482559
 20
-58.582778
 30
0.0
 40
1.0
100
AcDbArc
 50
0.0
 51
90.0
  0
LINE
  5
236
100
AcDbEntity
  8
0
370
    -3
  6
Continuous
100
AcDbLine
 10
-14.482559
 20
-57.582778
 30
0.0
 11
-24.482559
 21
-57.582778
 31
0.0
  0
LINE
  5
237
100
AcDbEntity
  8
0
370
    -3
  6
Continuous
100
AcDbLine
 10
-13.482559
 20
-84.582778
 30
0.0
 11
-13.482559
 21
-58.582778
 31
0.0
  0
LINE
  5
238
100
AcDbEntity
  8
0
370
    -3
  6
Continuous
100
AcDbLine
 10
-19.982559
 20
-94.582778
 30
0.0
 11
-19.982559
 21
-83.082778
 31
0.0
  0
LINE
  5
239
100
AcDbEntity
  8
0
370
    -3
  6
Continuous
100
AcDbLine
 10
-19.982559
 20
-210.582778
 30
0.0
 11
-19.982559
 21
-222.082778
 31
0.0
  0
LINE
  5
23A
100
AcDbEntity
  8
0
370
    -3
  6
Continuous
100
AcDbLine
 10
-16.982559
 20
-110.834991
 30
0.0
 11
-6.576909
 21
-110.834991
 31
0.0
  0
LINE
  5
23B
100
AcDbEntity
  8
0
370
    -3
  6
Continuous
100
AcDbLine
 10
-16.982559
 20
-193.848808
 30
0.0
 11
-6.049837
 21
-193.848808
 31
0.0
  0
ARC
  5
23C
100
AcDbEntity
  8
0
370
    -3
  6
Continuous
100
AcDbCircle
 10
-16.982559
 20
-113.834991
 30
0.0
 40
3.0
100
AcDbArc
 50
90.0
 51
180.0
  0
ARC
  5
23D
100
AcDbEntity
  8
0
370
    -3
  6
Continuous
100
AcDbCircle
 10
-16.982559
 20
-190.848808
 30
0.0
 40
3.0
100
AcDbArc
 50
180.0
 51
270.0
  0
ARC
  5
23E
100
AcDbEntity
  8
0
370
    -3
  6
Continuous
100
AcDbCircle
 10
-0.594935
 20
-101.246593
 30
0.0
 40
3.0
100
AcDbArc
 50
189.614777
 51
270.0
  0
ARC
  5
23F
100
AcDbEntity
  8
0
370
    -3
  6
Continuous
100
AcDbCircle
 10
-0.562095
 20
-110.470351
 30
0.0
 40
3.0
100
AcDbArc
 50
188.085995
 51
270.0
  0
ARC
  5
240
100
AcDbEntity
  8
0
370
    -3
  6
Continuous
100
AcDbCircle
 10
-0.562095
 20
-194.695205
 30
0.0
 40
3.0
100
AcDbArc
 50
90.0
 51
171.914005
  0
ARC
  5
241
100
AcDbEntity
  8
0
370
    -3
  6
Continuous
100
AcDbCircle
 10
-0.594935
 20
-203.918962
 30
0.0
 40
3.0
100
AcDbArc
 50
90.0
 51
170.385223
  0
ARC
  5
242
100
AcDbEntity
  8
0
370
    -3
  6
Continuous
100
AcDbCircle
 10
5.517441
 20
-221.582778
 30
0.0
 40
3.0
100
AcDbArc
 50
0.0
 51
90.0
  0
LINE
  5
243
100
AcDbEntity
  8
0
370
    -3
  6
Continuous
100
AcDbLine
 10
-21.982559
 20
-81.082778
 30
0.0
 11
-26.482559
 21
-81.082778
 31
0.0
  0
LINE
  5
244
100
AcDbEntity
  8
0
370
    -3
  6
Continuous
100
AcDbLine
 10
-16.982559
 20
-86.582778
 30
0.0
 11
5.517441
 21
-86.582778
 31
0.0
  0
LINE
  5
245
100
AcDbEntity
  8
0
370
    -3
  6
Continuous
100
AcDbLine
 10
-19.982559
 20
-152.582778
 30
0.0
 11
-19.982559
 21
-109.595625
 31
0.0
  0
ARC
  5
246
100
AcDbEntity
  8
0
370
    -3
  6
Continuous
100
AcDbCircle
 10
-16.982559
 20
-109.595625
 30
0.0
 40
3.0
100
AcDbArc
 50
90.0
 51
180.0
  0
LINE
  5
247
100
AcDbEntity
  8
0
370
    -3
  6
Continuous
100
AcDbLine
 10
-16.982559
 20
-106.595625
 30
0.0
 11
-8.482559
 21
-106.595625
 31
0.0
  0
ARC
  5
248
100
AcDbEntity
  8
0
370
    -3
  6
Continuous
100
AcDbCircle
 10
-16.982559
 20
-94.582778
 30
0.0
 40
3.0
100
AcDbArc
 50
180.0
 51
270.0
  0
LINE
  5
249
100
AcDbEntity
  8
0
370
    -3
  6
Continuous
100
AcDbLine
 10
-16.982559
 20
-97.582778
 30
0.0
 11
-8.482559
 21
-97.582778
 31
0.0
  0
ARC
  5
24A
100
AcDbEntity
  8
0
370
    -3
  6
Continuous
100
AcDbCircle
 10
-8.482559
 20
-111.595625
 30
0.0
 40
5.0
100
AcDbArc
 50
8.085995
 51
90.0
  0
ARC
  5
24B
100
AcDbEntity
  8
0
370
    -3
  6
Continuous
100
AcDbCircle
 10
-8.482559
 20
-102.582778
 30
0.0
 40
5.0
100
AcDbArc
 50
9.614777
 51
90.0
  0
LINE
  5
24C
100
AcDbEntity
  8
0
370
    -3
  6
CENTER
100
AcDbLine
 10
206.517441
 20
-23.104252
 30
0.0
 11
206.517441
 21
-41.845556
 31
0.0
  0
LINE
  5
24D
100
AcDbEntity
  8
0
370
    -3
  6
CENTER
100
AcDbLine
 10
215.517441
 20
-31.582778
 30
0.0
 11
196.453931
 21
-31.582778
 31
0.0
  0
LINE
  5
24E
100
AcDbEntity
  8
0
370
    -3
  6
CENTER
100
AcDbLine
 10
206.517441
 20
-214.104252
 30
0.0
 11
206.517441
 21
-232.845556
 31
0.0
  0
LINE
  5
24F
100
AcDbEntity
  8
0
370
    -3
  6
CENTER
100
AcDbLine
 10
59.517441
 20
-31.582778
 30
0.0
 11
40.453931
 21
-31.582778
 31
0.0
  0
LINE
  5
250
100
AcDbEntity
  8
0
370
    -3
  6
CENTER
100
AcDbLine
 10
50.517441
 20
-22.582778
 30
0.0
 11
50.517441
 21
-42.467196
 31
0.0
  0
LINE
  5
251
100
AcDbEntity
  8
0
370
    -3
  6
CENTER
100
AcDbLine
 10
60.748545
 20
-222.582778
 30
0.0
 11
42.021852
 21
-222.582778
 31
0.0
  0
LINE
  5
252
100
AcDbEntity
  8
0
370
    -3
  6
CENTER
100
AcDbLine
 10
50.517441
 20
-214.104252
 30
0.0
 11
50.517441
 21
-230.943826
 31
0.0
  0
LINE
  5
253
100
AcDbEntity
  8
0
370
    -3
  6
CENTER
100
AcDbLine
 10
216.748545
 20
-222.582778
 30
0.0
 11
198.021852
 21
-222.582778
 31
0.0
  0
LINE
  5
254
100
AcDbEntity
  8
0
370
    -3
  6
Continuous
100
AcDbLine
 10
-26.482559
 20
-152.582778
 30
0.0
 11
-26.482559
 21
-222.582778
 31
0.0
  0
LINE
  5
255
100
AcDbEntity
  8
0
370
    -3
  6
Continuous
100
AcDbLine
 10
-26.482559
 20
-152.582778
 30
0.0
 11
-26.482559
 21
-81.082778
 31
0.0
  0
LINE
  5
256
100
AcDbEntity
  8
0
370
    -3
  6
CENTER
100
AcDbLine
 10
255.691809
 20
-108.582778
 30
0.0
 11
68.046761
 21
-108.582778
 31
0.0
  0
LINE
  5
257
100
AcDbEntity
  8
0
370
    -3
  6
Continuous
100
AcDbLine
 10
-19.982923
 20
129.611921
 30
0.0
 11
-19.982923
 21
82.111921
 31
0.0
  0
LINE
  5
258
100
AcDbEntity
  8
0
370
    -3
  6
Continuous
100
AcDbLine
 10
243.526761
 20
221.111921
 30
0.0
 11
244.036353
 21
220.612109
 31
0.0
  0
LINE
  5
259
100
AcDbEntity
  8
0
370
    -3
  6
Continuous
100
AcDbLine
 10
5.493933
 20
93.111921
 30
0.0
 11
246.516977
 21
93.111921
 31
0.0
  0
LINE
  5
25A
100
AcDbEntity
  8
0
370
    -3
  6
Continuous
100
AcDbLine
 10
-21.982923
 20
79.611921
 30
0.0
 11
-26.482923
 21
79.611921
 31
0.0
  0
ARC
  5
25B
100
AcDbEntity
  8
0
370
    -3
  6
Continuous
100
AcDbCircle
 10
-16.982923
 20
82.111921
 30
0.0
 40
3.0
100
AcDbArc
 50
90.0
 51
180.0
  0
ARC
  5
25C
100
AcDbEntity
  8
0
370
    -3
  6
Continuous
100
AcDbCircle
 10
-21.982923
 20
81.611921
 30
0.0
 40
2.0
100
AcDbArc
 50
270.0
 51
0.0
  0
LINE
  5
25D
100
AcDbEntity
  8
0
370
    -3
  6
Continuous
100
AcDbLine
 10
-19.982923
 20
82.111921
 30
0.0
 11
-19.982923
 21
81.611921
 31
0.0
  0
LINE
  5
25E
100
AcDbEntity
  8
0
370
    -3
  6
Continuous
100
AcDbLine
 10
-16.982923
 20
217.111921
 30
0.0
 11
7.987444
 21
217.111921
 31
0.0
  0
ARC
  5
25F
100
AcDbEntity
  8
0
370
    -3
  6
Continuous
100
AcDbCircle
 10
-8.482923
 20
90.111921
 30
0.0
 40
5.0
100
AcDbArc
 50
270.0
 51
0.0
  0
LINE
  5
260
100
AcDbEntity
  8
0
370
    -3
  6
Continuous
100
AcDbLine
 10
-21.982923
 20
222.611921
 30
0.0
 11
-26.482923
 21
222.611921
 31
0.0
  0
ARC
  5
261
100
AcDbEntity
  8
0
370
    -3
  6
Continuous
100
AcDbCircle
 10
-16.982923
 20
220.111921
 30
0.0
 40
3.0
100
AcDbArc
 50
180.0
 51
270.0
  0
LINE
  5
262
100
AcDbEntity
  8
0
370
    -3
  6
CENTER
100
AcDbLine
 10
259.885078
 20
151.111921
 30
0.0
 11
-284.111191
 21
151.111921
 31
0.0
  0
ARC
  5
263
100
AcDbEntity
  8
0
370
    -3
  6
Continuous
100
AcDbCircle
 10
-21.982923
 20
220.611921
 30
0.0
 40
2.0
100
AcDbArc
 50
0.0
 51
90.0
  0
LINE
  5
264
100
AcDbEntity
  8
0
370
    -3
  6
Continuous
100
AcDbLine
 10
-19.982923
 20
220.111921
 30
0.0
 11
-19.982923
 21
220.611921
 31
0.0
  0
LINE
  5
265
100
AcDbEntity
  8
0
370
    -3
  6
Continuous
100
AcDbLine
 10
-16.982923
 20
85.111921
 30
0.0
 11
-8.482923
 21
85.111921
 31
0.0
  0
LINE
  5
266
100
AcDbEntity
  8
0
370
    -3
  6
Continuous
100
AcDbLine
 10
-3.482923
 20
93.611921
 30
0.0
 11
-3.482923
 21
90.111921
 31
0.0
  0
LINE
  5
267
100
AcDbEntity
  8
0
370
    -3
  6
Continuous
100
AcDbLine
 10
10.986881
 20
220.053793
 30
0.0
 11
10.997701
 21
220.612109
 31
0.0
  0
LINE
  5
268
100
AcDbEntity
  8
0
370
    -3
  6
Continuous
100
AcDbLine
 10
5.526767
 20
93.111921
 30
0.0
 11
5.53533
 21
93.553793
 31
0.0
  0
ARC
  5
269
100
AcDbEntity
  8
0
370
    -3
  6
Continuous
100
AcDbCircle
 10
7.987444
 20
220.111921
 30
0.0
 40
3.0
100
AcDbArc
 50
270.0
 51
358.889756
  0
LINE
  5
26A
100
AcDbEntity
  8
0
370
    -3
  6
Continuous
100
AcDbLine
 10
-0.482923
 20
96.611921
 30
0.0
 11
2.535893
 21
96.611921
 31
0.0
  0
ARC
  5
26B
100
AcDbEntity
  8
0
370
    -3
  6
Continuous
100
AcDbCircle
 10
-0.482923
 20
93.611921
 30
0.0
 40
3.0
100
AcDbArc
 50
90.0
 51
180.0
  0
ARC
  5
26C
100
AcDbEntity
  8
0
370
    -3
  6
Continuous
100
AcDbCircle
 10
2.535893
 20
93.611921
 30
0.0
 40
3.0
100
AcDbArc
 50
358.889756
 51
90.0
  0
LINE
  5
26D
100
AcDbEntity
  8
0
370
    -3
  6
Continuous
100
AcDbLine
 10
102.416977
 20
226.111921
 30
0.0
 11
216.616977
 21
226.111921
 31
0.0
  0
LINE
  5
26E
100
AcDbEntity
  8
0
370
    -3
  6
Continuous
100
AcDbLine
 10
11.507293
 20
221.111921
 30
0.0
 11
227.179555
 21
221.111921
 31
0.0
  0
LINE
  5
26F
100
AcDbEntity
  8
0
370
    -3
  6
Continuous
100
AcDbLine
 10
102.016977
 20
222.111921
 30
0.0
 11
102.016977
 21
221.111921
 31
0.0
  0
LINE
  5
270
100
AcDbEntity
  8
0
370
    -3
  6
Continuous
100
AcDbLine
 10
246.516977
 20
93.111921
 30
0.0
 11
244.036353
 21
220.612109
 31
0.0
  0
LINE
  5
271
100
AcDbEntity
  8
0
370
    -3
  6
Continuous
100
AcDbLine
 10
102.166977
 20
223.611921
 30
0.0
 11
102.016977
 21
223.611921
 31
0.0
  0
LINE
  5
272
100
AcDbEntity
  8
0
370
    -3
  6
Continuous
100
AcDbLine
 10
102.166977
 20
222.111921
 30
0.0
 11
102.016977
 21
222.111921
 31
0.0
  0
LINE
  5
273
100
AcDbEntity
  8
0
370
    -3
  6
Continuous
100
AcDbLine
 10
102.166977
 20
223.611921
 30
0.0
 11
102.166977
 21
222.111921
 31
0.0
  0
LINE
  5
274
100
AcDbEntity
  8
0
370
    -3
  6
Continuous
100
AcDbLine
 10
102.016977
 20
225.711921
 30
0.0
 11
102.016977
 21
223.611921
 31
0.0
  0
LINE
  5
275
100
AcDbEntity
  8
0
370
    -3
  6
Continuous
100
AcDbLine
 10
102.016977
 20
225.711921
 30
0.0
 11
102.416977
 21
226.111921
 31
0.0
  0
LINE
  5
276
100
AcDbEntity
  8
0
370
    -3
  6
Continuous
100
AcDbLine
 10
-26.482559
 20
79.611921
 30
0.0
 11
-26.482559
 21
130.611921
 31
0.0
  0
LINE
  5
277
100
AcDbEntity
  8
0
370
    -3
  6
Continuous
100
AcDbLine
 10
217.016977
 20
221.111921
 30
0.0
 11
243.526761
 21
221.111921
 31
0.0
  0
LINE
  5
278
100
AcDbEntity
  8
0
370
    -3
  6
Continuous
100
AcDbLine
 10
217.016977
 20
225.711921
 30
0.0
 11
216.616977
 21
226.111921
 31
0.0
  0
LINE
  5
279
100
AcDbEntity
  8
0
370
    -3
  6
Continuous
100
AcDbLine
 10
217.016977
 20
222.111921
 30
0.0
 11
217.016977
 21
221.111921
 31
0.0
  0
LINE
  5
27A
100
AcDbEntity
  8
0
370
    -3
  6
Continuous
100
AcDbLine
 10
-3.482923
 20
90.111921
 30
0.0
 11
-3.482923
 21
217.111921
 31
0.0
  0
LINE
  5
27B
100
AcDbEntity
  8
0
370
    -3
  6
Continuous
100
AcDbLine
 10
216.866977
 20
223.611921
 30
0.0
 11
217.016977
 21
223.611921
 31
0.0
  0
LINE
  5
27C
100
AcDbEntity
  8
0
370
    -3
  6
Continuous
100
AcDbLine
 10
8.517441
 20
93.111921
 30
0.0
 11
11.017441
 21
220.63147
 31
0.0
  0
LINE
  5
27D
100
AcDbEntity
  8
0
370
    -3
  6
Continuous
100
AcDbLine
 10
216.866977
 20
222.111921
 30
0.0
 11
217.016977
 21
222.111921
 31
0.0
  0
LINE
  5
27E
100
AcDbEntity
  8
0
370
    -3
  6
Continuous
100
AcDbLine
 10
-19.982923
 20
220.611921
 30
0.0
 11
-19.982923
 21
172.611921
 31
0.0
  0
LINE
  5
27F
100
AcDbEntity
  8
0
370
    -3
  6
Continuous
100
AcDbLine
 10
216.866977
 20
223.611921
 30
0.0
 11
216.866977
 21
222.111921
 31
0.0
  0
LINE
  5
280
100
AcDbEntity
  8
0
370
    -3
  6
Continuous
100
AcDbLine
 10
243.526761
 20
81.111921
 30
0.0
 11
246.516977
 21
93.111921
 31
0.0
  0
LINE
  5
281
100
AcDbEntity
  8
0
370
    -3
  6
Continuous
100
AcDbLine
 10
217.016977
 20
225.711921
 30
0.0
 11
217.016977
 21
223.611921
 31
0.0
  0
LINE
  5
282
100
AcDbEntity
  8
0
370
    -3
  6
Continuous
100
AcDbLine
 10
102.016977
 20
80.111921
 30
0.0
 11
102.016977
 21
81.111921
 31
0.0
  0
LINE
  5
283
100
AcDbEntity
  8
0
370
    -3
  6
Continuous
100
AcDbLine
 10
102.166977
 20
78.611921
 30
0.0
 11
102.016977
 21
78.611921
 31
0.0
  0
LINE
  5
284
100
AcDbEntity
  8
0
370
    -3
  6
Continuous
100
AcDbLine
 10
102.166977
 20
80.111921
 30
0.0
 11
102.016977
 21
80.111921
 31
0.0
  0
LINE
  5
285
100
AcDbEntity
  8
0
370
    -3
  6
Continuous
100
AcDbLine
 10
102.166977
 20
78.611921
 30
0.0
 11
102.166977
 21
80.111921
 31
0.0
  0
LINE
  5
286
100
AcDbEntity
  8
0
370
    -3
  6
Continuous
100
AcDbLine
 10
102.016977
 20
76.511921
 30
0.0
 11
102.016977
 21
78.611921
 31
0.0
  0
LINE
  5
287
100
AcDbEntity
  8
0
370
    -3
  6
Continuous
100
AcDbLine
 10
102.016977
 20
76.511921
 30
0.0
 11
102.416977
 21
76.111921
 31
0.0
  0
LINE
  5
288
100
AcDbEntity
  8
0
370
    -3
  6
Continuous
100
AcDbLine
 10
102.416977
 20
76.111921
 30
0.0
 11
216.616977
 21
76.111921
 31
0.0
  0
LINE
  5
289
100
AcDbEntity
  8
0
370
    -3
  6
Continuous
100
AcDbLine
 10
217.016977
 20
81.111921
 30
0.0
 11
243.526761
 21
81.111921
 31
0.0
  0
LINE
  5
28A
100
AcDbEntity
  8
0
370
    -3
  6
Continuous
100
AcDbLine
 10
217.016977
 20
76.511921
 30
0.0
 11
216.616977
 21
76.111921
 31
0.0
  0
LINE
  5
28B
100
AcDbEntity
  8
0
370
    -3
  6
Continuous
100
AcDbLine
 10
217.016977
 20
80.111921
 30
0.0
 11
217.016977
 21
81.111921
 31
0.0
  0
LINE
  5
28C
100
AcDbEntity
  8
0
370
    -3
  6
Continuous
100
AcDbLine
 10
216.866977
 20
78.611921
 30
0.0
 11
217.016977
 21
78.611921
 31
0.0
  0
LINE
  5
28D
100
AcDbEntity
  8
0
370
    -3
  6
Continuous
100
AcDbLine
 10
216.866977
 20
80.111921
 30
0.0
 11
217.016977
 21
80.111921
 31
0.0
  0
LINE
  5
28E
100
AcDbEntity
  8
0
370
    -3
  6
Continuous
100
AcDbLine
 10
216.866977
 20
78.611921
 30
0.0
 11
216.866977
 21
80.111921
 31
0.0
  0
LINE
  5
28F
100
AcDbEntity
  8
0
370
    -3
  6
Continuous
100
AcDbLine
 10
-26.482923
 20
88.361921
 30
0.0
 11
-26.482923
 21
79.611921
 31
0.0
  0
LINE
  5
290
100
AcDbEntity
  8
0
370
    -3
  6
Continuous
100
AcDbLine
 10
217.016977
 20
76.511921
 30
0.0
 11
217.016977
 21
78.611921
 31
0.0
  0
LINE
  5
291
100
AcDbEntity
  8
0
370
    -3
  6
Continuous
100
AcDbLine
 10
11.507293
 20
81.111921
 30
0.0
 11
227.179555
 21
81.111921
 31
0.0
  0
LINE
  5
292
100
AcDbEntity
  8
0
370
    -3
  6
Continuous
100
AcDbLine
 10
102.416977
 20
76.111921
 30
0.0
 11
216.616977
 21
76.111921
 31
0.0
  0
LINE
  5
293
100
AcDbEntity
  8
0
370
    -3
  6
Continuous
100
AcDbLine
 10
102.016977
 20
80.111921
 30
0.0
 11
102.016977
 21
81.111921
 31
0.0
  0
LINE
  5
294
100
AcDbEntity
  8
0
370
    -3
  6
Continuous
100
AcDbLine
 10
102.166977
 20
78.611921
 30
0.0
 11
102.016977
 21
78.611921
 31
0.0
  0
LINE
  5
295
100
AcDbEntity
  8
0
370
    -3
  6
Continuous
100
AcDbLine
 10
102.166977
 20
80.111921
 30
0.0
 11
102.016977
 21
80.111921
 31
0.0
  0
LINE
  5
296
100
AcDbEntity
  8
0
370
    -3
  6
Continuous
100
AcDbLine
 10
102.166977
 20
78.611921
 30
0.0
 11
102.166977
 21
80.111921
 31
0.0
  0
LINE
  5
297
100
AcDbEntity
  8
0
370
    -3
  6
Continuous
100
AcDbLine
 10
102.016977
 20
76.511921
 30
0.0
 11
102.016977
 21
78.611921
 31
0.0
  0
LINE
  5
298
100
AcDbEntity
  8
0
370
    -3
  6
Continuous
100
AcDbLine
 10
102.016977
 20
76.511921
 30
0.0
 11
102.416977
 21
76.111921
 31
0.0
  0
LINE
  5
299
100
AcDbEntity
  8
0
370
    -3
  6
Continuous
100
AcDbLine
 10
217.016977
 20
81.111921
 30
0.0
 11
243.526761
 21
81.111921
 31
0.0
  0
LINE
  5
29A
100
AcDbEntity
  8
0
370
    -3
  6
Continuous
100
AcDbLine
 10
217.016977
 20
76.511921
 30
0.0
 11
216.616977
 21
76.111921
 31
0.0
  0
LINE
  5
29B
100
AcDbEntity
  8
0
370
    -3
  6
Continuous
100
AcDbLine
 10
217.016977
 20
80.111921
 30
0.0
 11
217.016977
 21
81.111921
 31
0.0
  0
LINE
  5
29C
100
AcDbEntity
  8
0
370
    -3
  6
Continuous
100
AcDbLine
 10
216.866977
 20
78.611921
 30
0.0
 11
217.016977
 21
78.611921
 31
0.0
  0
LINE
  5
29D
100
AcDbEntity
  8
0
370
    -3
  6
Continuous
100
AcDbLine
 10
216.866977
 20
80.111921
 30
0.0
 11
217.016977
 21
80.111921
 31
0.0
  0
LINE
  5
29E
100
AcDbEntity
  8
0
370
    -3
  6
Continuous
100
AcDbLine
 10
216.866977
 20
78.611921
 30
0.0
 11
216.866977
 21
80.111921
 31
0.0
  0
LINE
  5
29F
100
AcDbEntity
  8
0
370
    -3
  6
Continuous
100
AcDbLine
 10
217.016977
 20
76.511921
 30
0.0
 11
217.016977
 21
78.611921
 31
0.0
  0
LINE
  5
2A0
100
AcDbEntity
  8
0
370
    -3
  6
Continuous
100
AcDbLine
 10
11.507293
 20
221.111921
 30
0.0
 11
10.997701
 21
220.612109
 31
0.0
  0
LINE
  5
2A1
100
AcDbEntity
  8
0
370
    -3
  6
Continuous
100
AcDbLine
 10
11.507293
 20
81.111921
 30
0.0
 11
8.517077
 21
93.111921
 31
0.0
  0
LINE
  5
2A2
100
AcDbEntity
  8
0
370
    -3
  6
CENTER
100
AcDbLine
 10
159.516977
 20
260.961418
 30
0.0
 11
159.516977
 21
36.788509
 31
0.0
  0
LINE
  5
2A3
100
AcDbEntity
  8
0
370
    -3
  6
Continuous
100
AcDbLine
 10
191.016977
 20
230.111921
 30
0.0
 11
191.016977
 21
226.111921
 31
0.0
  0
LINE
  5
2A4
100
AcDbEntity
  8
0
370
    -3
  6
Continuous
100
AcDbLine
 10
128.016977
 20
230.111921
 30
0.0
 11
128.016977
 21
226.111921
 31
0.0
  0
LINE
  5
2A5
100
AcDbEntity
  8
0
370
    -3
  6
Continuous
100
AcDbLine
 10
191.016977
 20
230.111921
 30
0.0
 11
128.016977
 21
230.111921
 31
0.0
  0
LINE
  5
2A6
100
AcDbEntity
  8
0
370
    -3
  6
Continuous
100
AcDbLine
 10
191.016977
 20
72.111921
 30
0.0
 11
191.016977
 21
76.111921
 31
0.0
  0
LINE
  5
2A7
100
AcDbEntity
  8
0
370
    -3
  6
Continuous
100
AcDbLine
 10
191.016977
 20
72.111921
 30
0.0
 11
128.016977
 21
72.111921
 31
0.0
  0
LINE
  5
2A8
100
AcDbEntity
  8
0
370
    -3
  6
Continuous
100
AcDbLine
 10
128.016977
 20
72.111921
 30
0.0
 11
128.016977
 21
76.111921
 31
0.0
  0
LINE
  5
2A9
100
AcDbEntity
  8
0
370
    -3
  6
Continuous
100
AcDbLine
 10
-16.982559
 20
192.859707
 30
0.0
 11
-6.576909
 21
192.859707
 31
0.0
  0
ARC
  5
2AA
100
AcDbEntity
  8
0
370
    -3
  6
Continuous
100
AcDbCircle
 10
-16.982559
 20
189.859707
 30
0.0
 40
3.0
100
AcDbArc
 50
90.0
 51
180.0
  0
ARC
  5
2AB
100
AcDbEntity
  8
0
370
    -3
  6
Continuous
100
AcDbCircle
 10
-16.982559
 20
194.099074
 30
0.0
 40
3.0
100
AcDbArc
 50
90.0
 51
180.0
  0
LINE
  5
2AC
100
AcDbEntity
  8
0
370
    -3
  6
Continuous
100
AcDbLine
 10
-16.982559
 20
197.099074
 30
0.0
 11
-8.482559
 21
197.099074
 31
0.0
  0
ARC
  5
2AD
100
AcDbEntity
  8
0
370
    -3
  6
Continuous
100
AcDbCircle
 10
-16.982559
 20
209.111921
 30
0.0
 40
3.0
100
AcDbArc
 50
180.0
 51
270.0
  0
LINE
  5
2AE
100
AcDbEntity
  8
0
370
    -3
  6
Continuous
100
AcDbLine
 10
-16.982559
 20
206.111921
 30
0.0
 11
-8.482559
 21
206.111921
 31
0.0
  0
ARC
  5
2AF
100
AcDbEntity
  8
0
370
    -3
  6
Continuous
100
AcDbCircle
 10
-8.482559
 20
192.099074
 30
0.0
 40
5.0
100
AcDbArc
 50
8.085995
 51
90.0
  0
ARC
  5
2B0
100
AcDbEntity
  8
0
370
    -3
  6
Continuous
100
AcDbCircle
 10
-8.482559
 20
201.111921
 30
0.0
 40
5.0
100
AcDbArc
 50
9.614777
 51
90.0
  0
LINE
  5
2B1
100
AcDbEntity
  8
0
370
    -3
  6
Continuous
100
AcDbLine
 10
-19.982559
 20
209.111921
 30
0.0
 11
-19.982559
 21
220.611921
 31
0.0
  0
ARC
  5
2B2
100
AcDbEntity
  8
0
370
    -3
  6
Continuous
100
AcDbCircle
 10
-16.982559
 20
108.124768
 30
0.0
 40
3.0
100
AcDbArc
 50
180.0
 51
270.0
  0
LINE
  5
2B3
100
AcDbEntity
  8
0
370
    -3
  6
Continuous
100
AcDbLine
 10
-16.982559
 20
105.124768
 30
0.0
 11
-8.482559
 21
105.124768
 31
0.0
  0
ARC
  5
2B4
100
AcDbEntity
  8
0
370
    -3
  6
Continuous
100
AcDbCircle
 10
-16.982559
 20
93.111921
 30
0.0
 40
3.0
100
AcDbArc
 50
90.0
 51
180.0
  0
LINE
  5
2B5
100
AcDbEntity
  8
0
370
    -3
  6
Continuous
100
AcDbLine
 10
-16.982559
 20
96.111921
 30
0.0
 11
-8.482559
 21
96.111921
 31
0.0
  0
ARC
  5
2B6
100
AcDbEntity
  8
0
370
    -3
  6
Continuous
100
AcDbCircle
 10
-8.482559
 20
110.124768
 30
0.0
 40
5.0
100
AcDbArc
 50
270.0
 51
351.914005
  0
ARC
  5
2B7
100
AcDbEntity
  8
0
370
    -3
  6
Continuous
100
AcDbCircle
 10
-8.482559
 20
101.111921
 30
0.0
 40
5.0
100
AcDbArc
 50
270.0
 51
350.385223
  0
LINE
  5
2B8
100
AcDbEntity
  8
0
370
    -3
  6
Continuous
100
AcDbLine
 10
-19.982559
 20
93.111921
 30
0.0
 11
-19.982559
 21
81.611921
 31
0.0
  0
LINE
  5
2B9
100
AcDbEntity
  8
0
370
    -3
  6
Continuous
100
AcDbLine
 10
-16.982559
 20
109.845891
 30
0.0
 11
-6.049837
 21
109.845891
 31
0.0
  0
ARC
  5
2BA
100
AcDbEntity
  8
0
370
    -3
  6
Continuous
100
AcDbCircle
 10
-16.982559
 20
112.845891
 30
0.0
 40
3.0
100
AcDbArc
 50
180.0
 51
270.0
  0
LINE
  5
2BB
100
AcDbEntity
  8
0
370
    -3
  6
Continuous
100
AcDbLine
 10
-19.982559
 20
171.611921
 30
0.0
 11
-19.982559
 21
194.099074
 31
0.0
  0
LINE
  5
2BC
100
AcDbEntity
  8
0
370
    -3
  6
Continuous
100
AcDbLine
 10
-19.982559
 20
130.611921
 30
0.0
 11
-19.982559
 21
108.124768
 31
0.0
  0
LINE
  5
2BD
100
AcDbEntity
  8
0
370
    -3
  6
Continuous
100
AcDbLine
 10
-26.482559
 20
222.611921
 30
0.0
 11
-26.482559
 21
171.611921
 31
0.0
  0
LINE
  5
2BE
100
AcDbEntity
  8
0
370
    -3
  6
Continuous
100
AcDbLine
 10
-92.982559
 20
203.611921
 30
0.0
 11
-92.982559
 21
151.111921
 31
0.0
  0
LINE
  5
2BF
100
AcDbEntity
  8
0
370
    -3
  6
Continuous
100
AcDbLine
 10
-92.982559
 20
98.611921
 30
0.0
 11
-92.982559
 21
151.111921
 31
0.0
  0
LINE
  5
2C0
100
AcDbEntity
  8
0
370
    -3
  6
CENTER
100
AcDbLine
 10
-454.795822
 20
-121.582778
 30
0.0
 11
-334.795822
 21
-121.582778
 31
0.0
  0
LINE
  5
2C1
100
AcDbEntity
  8
0
370
    -3
  6
CENTER
100
AcDbLine
 10
-396.98255
 20
-238.798113
 30
0.0
 11
-396.98255
 21
-6.133762
 31
0.0
  0
LINE
  5
2C2
100
AcDbEntity
  8
0
370
    -3
  6
Continuous
100
AcDbLine
 10
-417.482517
 20
-63.196058
 30
0.0
 11
-417.482517
 21
-32.51001
 31
0.0
  0
ARC
  5
2C3
100
AcDbEntity
  8
0
370
    -3
  6
Continuous
100
AcDbCircle
 10
-407.482646
 20
-32.582803
 30
0.0
 40
10.0
100
AcDbArc
 50
90.000139
 51
108.286358
  0
LINE
  5
2C4
100
AcDbEntity
  8
0
370
    -3
  6
Continuous
100
AcDbLine
 10
-407.482671
 20
-22.582803
 30
0.0
 11
-386.582775
 21
-22.582752
 31
0.0
  0
ARC
  5
2C5
100
AcDbEntity
  8
0
370
    -3
  6
Continuous
100
AcDbCircle
 10
-386.482782
 20
-32.582778
 30
0.0
 40
10.0
100
AcDbArc
 50
0.00007
 51
90.973393
  0
LINE
  5
2C6
100
AcDbEntity
  8
0
370
    -3
  6
CENTER
100
AcDbLine
 10
-409.487675
 20
-42.582778
 30
0.0
 11
-384.32517
 21
-42.582778
 31
0.0
  0
CIRCLE
  5
2C7
100
AcDbEntity
  8
0
370
    -3
  6
Continuous
100
AcDbCircle
 10
-396.98277
 20
-42.582778
 30
0.0
 40
10.0
  0
ARC
  5
2C8
100
AcDbEntity
  8
0
370
    -3
  6
Continuous
100
AcDbCircle
 10
-407.482782
 20
-32.582778
 30
0.0
 40
10.0
100
AcDbArc
 50
108.286912
 51
180.00007
  0
ARC
  5
2C9
100
AcDbEntity
  8
0
370
    -3
  6
Continuous
100
AcDbCircle
 10
-386.482737
 20
-67.582778
 30
0.0
 40
6.5
100
AcDbArc
 50
46.568144
 51
130.391139
  0
ARC
  5
2CA
100
AcDbEntity
  8
0
370
    -3
  6
Continuous
100
AcDbCircle
 10
-386.482737
 20
-67.582778
 30
0.0
 40
5.633955
100
AcDbArc
 50
57.900608
 51
119.058675
  0
ARC
  5
2CB
100
AcDbEntity
  8
0
370
    -3
  6
Continuous
100
AcDbCircle
 10
-407.482737
 20
-67.582778
 30
0.0
 40
6.5
100
AcDbArc
 50
49.608783
 51
133.432042
  0
ARC
  5
2CC
100
AcDbEntity
  8
0
370
    -3
  6
Continuous
100
AcDbCircle
 10
-407.482737
 20
-67.582778
 30
0.0
 40
5.633955
100
AcDbArc
 50
60.941178
 51
122.099647
  0
LINE
  5
2CD
100
AcDbEntity
  8
0
370
    -3
  6
Continuous
100
AcDbLine
 10
-471.98255
 20
-51.482778
 30
0.0
 11
-471.98255
 21
-108.582778
 31
0.0
  0
LINE
  5
2CE
100
AcDbEntity
  8
0
370
    -3
  6
Continuous
100
AcDbLine
 10
-471.98255
 20
-51.482778
 30
0.0
 11
-471.58255
 21
-51.082778
 31
0.0
  0
LINE
  5
2CF
100
AcDbEntity
  8
0
370
    -3
  6
Continuous
100
AcDbLine
 10
-466.98255
 20
-51.082778
 30
0.0
 11
-471.58255
 21
-51.082778
 31
0.0
  0
LINE
  5
2D0
100
AcDbEntity
  8
0
370
    -3
  6
Continuous
100
AcDbLine
 10
-321.98255
 20
-51.482778
 30
0.0
 11
-321.98255
 21
-108.582778
 31
0.0
  0
LINE
  5
2D1
100
AcDbEntity
  8
0
370
    -3
  6
Continuous
100
AcDbLine
 10
-321.98255
 20
-51.482778
 30
0.0
 11
-322.38255
 21
-51.082778
 31
0.0
  0
LINE
  5
2D2
100
AcDbEntity
  8
0
370
    -3
  6
Continuous
100
AcDbLine
 10
-326.98255
 20
-51.082778
 30
0.0
 11
-322.38255
 21
-51.082778
 31
0.0
  0
LINE
  5
2D3
100
AcDbEntity
  8
0
370
    -3
  6
Continuous
100
AcDbLine
 10
-466.98255
 20
-24.582778
 30
0.0
 11
-466.98255
 21
-128.582778
 31
0.0
  0
LINE
  5
2D4
100
AcDbEntity
  8
0
370
    -3
  6
Continuous
100
AcDbLine
 10
-338.98255
 20
-106.626277
 30
0.0
 11
-338.98255
 21
-21.582778
 31
0.0
  0
LINE
  5
2D5
100
AcDbEntity
  8
0
370
    -3
  6
Continuous
100
AcDbLine
 10
-326.98255
 20
-108.582778
 30
0.0
 11
-326.98255
 21
-23.042839
 31
0.0
  0
ARC
  5
2D6
100
AcDbEntity
  8
0
370
    -3
  6
Continuous
100
AcDbCircle
 10
-386.482655
 20
-32.582778
 30
0.0
 40
10.0
100
AcDbArc
 50
71.713781
 51
90.0
  0
LINE
  5
2D7
100
AcDbEntity
  8
0
370
    -3
  6
Continuous
100
AcDbLine
 10
-386.482655
 20
-22.582778
 30
0.0
 11
-407.38255
 21
-22.582778
 31
0.0
  0
LINE
  5
2D8
100
AcDbEntity
  8
0
370
    -3
  6
Continuous
100
AcDbLine
 10
-466.48255
 20
-24.082778
 30
0.0
 11
-457.98255
 21
-24.082778
 31
0.0
  0
LINE
  5
2D9
100
AcDbEntity
  8
0
370
    -3
  6
Continuous
100
AcDbLine
 10
-457.98255
 20
-24.082778
 30
0.0
 11
-410.620086
 21
-23.087768
 31
0.0
  0
LINE
  5
2DA
100
AcDbEntity
  8
0
370
    -3
  6
Continuous
100
AcDbLine
 10
-466.98255
 20
-24.582778
 30
0.0
 11
-466.48255
 21
-24.082778
 31
0.0
  0
LINE
  5
2DB
100
AcDbEntity
  8
0
370
    -3
  6
Continuous
100
AcDbLine
 10
-327.479605
 20
-22.506081
 30
0.0
 11
-326.98255
 21
-23.042839
 31
0.0
  0
LINE
  5
2DC
100
AcDbEntity
  8
0
370
    -3
  6
Continuous
100
AcDbLine
 10
-327.479605
 20
-22.506081
 30
0.0
 11
-326.98255
 21
-23.042839
 31
0.0
  0
LINE
  5
2DD
100
AcDbEntity
  8
0
370
    -3
  6
Continuous
100
AcDbLine
 10
-338.98255
 20
-21.621239
 30
0.0
 11
-327.479605
 21
-22.506081
 31
0.0
  0
LINE
  5
2DE
100
AcDbEntity
  8
0
370
    -3
  6
CENTER
100
AcDbLine
 10
-311.132666
 20
-108.582778
 30
0.0
 11
-485.85305
 21
-108.582778
 31
0.0
  0
LINE
  5
2DF
100
AcDbEntity
  8
0
370
    -3
  6
Continuous
100
AcDbLine
 10
-317.98255
 20
-140.082778
 30
0.0
 11
-321.98255
 21
-140.082778
 31
0.0
  0
LINE
  5
2E0
100
AcDbEntity
  8
0
370
    -3
  6
Continuous
100
AcDbLine
 10
-317.98255
 20
-77.082778
 30
0.0
 11
-317.98255
 21
-140.082778
 31
0.0
  0
LINE
  5
2E1
100
AcDbEntity
  8
0
370
    -3
  6
Continuous
100
AcDbLine
 10
-321.98255
 20
-165.682778
 30
0.0
 11
-321.98255
 21
-108.582778
 31
0.0
  0
LINE
  5
2E2
100
AcDbEntity
  8
0
370
    -3
  6
Continuous
100
AcDbLine
 10
-321.98255
 20
-165.682778
 30
0.0
 11
-322.38255
 21
-166.082778
 31
0.0
  0
LINE
  5
2E3
100
AcDbEntity
  8
0
370
    -3
  6
Continuous
100
AcDbLine
 10
-325.48255
 20
-166.082778
 30
0.0
 11
-322.38255
 21
-166.082778
 31
0.0
  0
LINE
  5
2E4
100
AcDbEntity
  8
0
370
    -3
  6
Continuous
100
AcDbLine
 10
-466.98255
 20
-176.582778
 30
0.0
 11
-466.98255
 21
-229.582778
 31
0.0
  0
LINE
  5
2E5
100
AcDbEntity
  8
0
370
    -3
  6
Continuous
100
AcDbLine
 10
-466.98255
 20
-229.582778
 30
0.0
 11
-466.48255
 21
-230.082778
 31
0.0
  0
LINE
  5
2E6
100
AcDbEntity
  8
0
370
    -3
  6
Continuous
100
AcDbLine
 10
-338.98255
 20
-198.539279
 30
0.0
 11
-338.98255
 21
-232.582778
 31
0.0
  0
LINE
  5
2E7
100
AcDbEntity
  8
0
370
    -3
  6
Continuous
100
AcDbLine
 10
-326.98255
 20
-108.582778
 30
0.0
 11
-326.98255
 21
-128.582778
 31
0.0
  0
LINE
  5
2E8
100
AcDbEntity
  8
0
370
    -3
  6
Continuous
100
AcDbLine
 10
-326.98255
 20
-231.122716
 30
0.0
 11
-327.479605
 21
-231.659474
 31
0.0
  0
LINE
  5
2E9
100
AcDbEntity
  8
0
370
    -3
  6
Continuous
100
AcDbLine
 10
-326.98255
 20
-231.122716
 30
0.0
 11
-327.479605
 21
-231.659474
 31
0.0
  0
LINE
  5
2EA
100
AcDbEntity
  8
0
370
    -3
  6
Continuous
100
AcDbLine
 10
-475.98255
 20
-77.082778
 30
0.0
 11
-475.98255
 21
-140.082778
 31
0.0
  0
LINE
  5
2EB
100
AcDbEntity
  8
0
370
    -3
  6
Continuous
100
AcDbLine
 10
-475.98255
 20
-140.082778
 30
0.0
 11
-471.98255
 21
-140.082778
 31
0.0
  0
LINE
  5
2EC
100
AcDbEntity
  8
0
370
    -3
  6
Continuous
100
AcDbLine
 10
-471.98255
 20
-165.682778
 30
0.0
 11
-471.98255
 21
-108.582778
 31
0.0
  0
LINE
  5
2ED
100
AcDbEntity
  8
0
370
    -3
  6
Continuous
100
AcDbLine
 10
-471.98255
 20
-165.682778
 30
0.0
 11
-471.58255
 21
-166.082778
 31
0.0
  0
LINE
  5
2EE
100
AcDbEntity
  8
0
370
    -3
  6
Continuous
100
AcDbLine
 10
-468.48255
 20
-166.082778
 30
0.0
 11
-471.58255
 21
-166.082778
 31
0.0
  0
LINE
  5
2EF
100
AcDbEntity
  8
0
370
    -3
  6
Continuous
100
AcDbLine
 10
-317.98255
 20
-77.082778
 30
0.0
 11
-321.98255
 21
-77.082778
 31
0.0
  0
LINE
  5
2F0
100
AcDbEntity
  8
0
370
    -3
  6
Continuous
100
AcDbLine
 10
-475.98255
 20
-77.082778
 30
0.0
 11
-471.98255
 21
-77.082778
 31
0.0
  0
LINE
  5
2F1
100
AcDbEntity
  8
0
370
    -3
  6
Continuous
100
AcDbLine
 10
-376.482583
 20
-63.196058
 30
0.0
 11
-376.482583
 21
-32.51001
 31
0.0
  0
LINE
  5
2F2
100
AcDbEntity
  8
0
370
    -3
  6
Continuous
100
AcDbLine
 10
-386.652981
 20
-22.584257
 30
0.0
 11
-338.98255
 21
-21.582778
 31
0.0
  0
ARC
  5
2F3
100
AcDbEntity
  8
0
370
    -3
  6
Continuous
100
AcDbCircle
 10
-396.98255
 20
-152.582778
 30
0.0
 40
74.0
100
AcDbArc
 50
136.293595
 51
162.497476
  0
ARC
  5
2F4
100
AcDbEntity
  8
0
370
    -3
  6
Continuous
100
AcDbCircle
 10
-448.48255
 20
-168.823159
 30
0.0
 40
20.0
100
AcDbArc
 50
180.0
 51
197.502524
  0
LINE
  5
2F5
100
AcDbEntity
  8
0
370
    -3
  6
Continuous
100
AcDbLine
 10
-468.48255
 20
-136.342396
 30
0.0
 11
-468.48255
 21
-168.823159
 31
0.0
  0
ARC
  5
2F6
100
AcDbEntity
  8
0
370
    -3
  6
Continuous
100
AcDbCircle
 10
-448.48255
 20
-136.342396
 30
0.0
 40
20.0
100
AcDbArc
 50
162.497476
 51
180.0
  0
ARC
  5
2F7
100
AcDbEntity
  8
0
370
    -3
  6
Continuous
100
AcDbCircle
 10
-396.98255
 20
-152.582778
 30
0.0
 40
74.0
100
AcDbArc
 50
287.488016
 51
342.497476
  0
ARC
  5
2F8
100
AcDbEntity
  8
0
370
    -3
  6
Continuous
100
AcDbCircle
 10
-345.48255
 20
-168.823159
 30
0.0
 40
20.0
100
AcDbArc
 50
342.497476
 51
0.0
  0
LINE
  5
2F9
100
AcDbEntity
  8
0
370
    -3
  6
Continuous
100
AcDbLine
 10
-325.48255
 20
-136.342396
 30
0.0
 11
-325.48255
 21
-168.823159
 31
0.0
  0
ARC
  5
2FA
100
AcDbEntity
  8
0
370
    -3
  6
Continuous
100
AcDbCircle
 10
-345.48255
 20
-136.342396
 30
0.0
 40
20.0
100
AcDbArc
 50
0.0
 51
17.502524
  0
ARC
  5
2FB
100
AcDbEntity
  8
0
370
    -3
  6
Continuous
100
AcDbCircle
 10
-396.98255
 20
-152.582778
 30
0.0
 40
74.0
100
AcDbArc
 50
17.502524
 51
43.706405
  0
LINE
  5
2FC
100
AcDbEntity
  8
0
370
    -3
  6
Continuous
100
AcDbLine
 10
-326.98255
 20
-176.582778
 30
0.0
 11
-326.98255
 21
-231.122716
 31
0.0
  0
LINE
  5
2FD
100
AcDbEntity
  8
0
370
    -3
  6
CENTER
100
AcDbLine
 10
-83.819609
 20
-121.582778
 30
0.0
 11
-280.808561
 21
-121.582778
 31
0.0
  0
LINE
  5
2FE
100
AcDbEntity
  8
0
370
    -3
  6
Continuous
100
AcDbLine
 10
-92.982544
 20
203.611921
 30
0.0
 11
-92.982544
 21
151.111921
 31
0.0
  0
LINE
  5
2FF
100
AcDbEntity
  8
0
370
    -3
  6
Continuous
100
AcDbLine
 10
-92.982544
 20
98.611921
 30
0.0
 11
-92.982544
 21
151.111921
 31
0.0
  0
LINE
  5
300
100
AcDbEntity
  8
0
370
    -3
  6
CENTER
100
AcDbLine
 10
680.351564
 20
-121.582778
 30
0.0
 11
650.351564
 21
-121.582778
 31
0.0
  0
ARC
  5
301
100
AcDbEntity
  8
0
370
    -3
  6
DASHED
100
AcDbCircle
 10
318.417611
 20
-121.082778
 30
0.0
 40
400.6
100
AcDbArc
 50
0.0
 51
4.529193
  0
ARC
  5
302
100
AcDbEntity
  8
0
370
    -3
  6
DASHED
100
AcDbCircle
 10
697.230564
 20
-91.070334
 30
0.0
 40
20.6
100
AcDbArc
 50
4.529945
 51
45.0
  0
LINE
  5
303
100
AcDbEntity
  8
0
370
    -3
  6
DASHED
100
AcDbLine
 10
709.618218
 20
-74.325188
 30
0.0
 11
711.796964
 21
-76.503934
 31
0.0
  0
ARC
  5
304
100
AcDbEntity
  8
0
370
    -3
  6
DASHED
100
AcDbCircle
 10
318.417611
 20
-121.082778
 30
0.0
 40
400.6
100
AcDbArc
 50
355.470807
 51
360.0
  0
ARC
  5
305
100
AcDbEntity
  8
0
370
    -3
  6
DASHED
100
AcDbCircle
 10
697.230564
 20
-151.095222
 30
0.0
 40
20.6
100
AcDbArc
 50
315.0
 51
355.470055
  0
LINE
  5
306
100
AcDbEntity
  8
0
370
    -3
  6
DASHED
100
AcDbLine
 10
709.618218
 20
-167.840367
 30
0.0
 11
711.796964
 21
-165.661621
 31
0.0
  0
ARC
  5
307
100
AcDbEntity
  8
0
370
    -3
  6
DASHED
100
AcDbCircle
 10
649.12554
 20
-139.131832
 30
0.0
 40
40.6
100
AcDbArc
 50
225.0
 51
267.469876
  0
LINE
  5
308
100
AcDbEntity
  8
0
370
    -3
  6
DASHED
100
AcDbLine
 10
620.417004
 20
-167.840367
 30
0.0
 11
618.238259
 21
-165.661621
 31
0.0
  0
ARC
  5
309
100
AcDbEntity
  8
0
370
    -3
  6
DASHED
100
AcDbCircle
 10
632.804658
 20
-151.095222
 30
0.0
 40
20.6
100
AcDbArc
 50
184.529945
 51
225.0
  0
ARC
  5
30A
100
AcDbEntity
  8
0
370
    -3
  6
DASHED
100
AcDbCircle
 10
1011.617611
 20
-121.082778
 30
0.0
 40
400.6
100
AcDbArc
 50
180.0
 51
184.529193
  0
ARC
  5
30B
100
AcDbEntity
  8
0
370
    -3
  6
DASHED
100
AcDbCircle
 10
665.017611
 20
220.517222
 30
0.0
 40
400.6
100
AcDbArc
 50
267.470639
 51
270.0
  0
ARC
  5
30C
100
AcDbEntity
  8
0
370
    -3
  6
DASHED
100
AcDbCircle
 10
680.909683
 20
-139.131832
 30
0.0
 40
40.6
100
AcDbArc
 50
272.530124
 51
315.0
  0
ARC
  5
30D
100
AcDbEntity
  8
0
370
    -3
  6
DASHED
100
AcDbCircle
 10
665.017611
 20
220.517222
 30
0.0
 40
400.6
100
AcDbArc
 50
270.0
 51
272.529361
  0
ARC
  5
30E
100
AcDbEntity
  8
0
370
    -3
  6
DASHED
100
AcDbCircle
 10
680.909683
 20
-103.033724
 30
0.0
 40
40.6
100
AcDbArc
 50
45.0
 51
87.469876
  0
ARC
  5
30F
100
AcDbEntity
  8
0
370
    -3
  6
DASHED
100
AcDbCircle
 10
649.12554
 20
-103.033724
 30
0.0
 40
40.6
100
AcDbArc
 50
92.530124
 51
135.0
  0
LINE
  5
310
100
AcDbEntity
  8
0
370
    -3
  6
DASHED
100
AcDbLine
 10
620.417004
 20
-74.325188
 30
0.0
 11
618.238259
 21
-76.503934
 31
0.0
  0
ARC
  5
311
100
AcDbEntity
  8
0
370
    -3
  6
DASHED
100
AcDbCircle
 10
632.804658
 20
-91.070334
 30
0.0
 40
20.6
100
AcDbArc
 50
135.0
 51
175.470055
  0
ARC
  5
312
100
AcDbEntity
  8
0
370
    -3
  6
DASHED
100
AcDbCircle
 10
1011.617611
 20
-121.082778
 30
0.0
 40
400.6
100
AcDbArc
 50
175.470807
 51
180.0
  0
ARC
  5
313
100
AcDbEntity
  8
0
370
    -3
  6
DASHED
100
AcDbCircle
 10
665.017611
 20
-462.682778
 30
0.0
 40
400.6
100
AcDbArc
 50
87.470639
 51
90.0
  0
ARC
  5
314
100
AcDbEntity
  8
0
370
    -3
  6
DASHED
100
AcDbCircle
 10
665.017611
 20
-462.682778
 30
0.0
 40
400.6
100
AcDbArc
 50
90.0
 51
92.529361
  0
ARC
  5
315
100
AcDbEntity
  8
0
370
    -3
  6
Continuous
100
AcDbCircle
 10
675.517483
 20
-32.582778
 30
0.0
 40
10.0
100
AcDbArc
 50
71.713781
 51
90.0
  0
LINE
  5
316
100
AcDbEntity
  8
0
370
    -3
  6
Continuous
100
AcDbLine
 10
675.517483
 20
-22.582778
 30
0.0
 11
654.617588
 21
-22.582778
 31
0.0
  0
LINE
  5
317
100
AcDbEntity
  8
0
370
    -3
  6
CENTER
100
AcDbLine
 10
750.867472
 20
-108.582778
 30
0.0
 11
576.147089
 21
-108.582778
 31
0.0
  0
LINE
  5
318
100
AcDbEntity
  8
0
370
    -3
  6
CENTER
100
AcDbLine
 10
590.564705
 20
-214.582778
 30
0.0
 11
738.062645
 21
-214.582778
 31
0.0
  0
LINE
  5
319
100
AcDbEntity
  8
0
370
    -3
  6
CENTER
100
AcDbLine
 10
591.302194
 20
-39.582778
 30
0.0
 11
738.062645
 21
-39.582778
 31
0.0
  0
LINE
  5
31A
100
AcDbEntity
  8
0
370
    -3
  6
Continuous
100
AcDbLine
 10
744.017588
 20
-140.082778
 30
0.0
 11
740.017588
 21
-140.082778
 31
0.0
  0
LINE
  5
31B
100
AcDbEntity
  8
0
370
    -3
  6
Continuous
100
AcDbLine
 10
744.017588
 20
-77.082778
 30
0.0
 11
744.017588
 21
-140.082778
 31
0.0
  0
LINE
  5
31C
100
AcDbEntity
  8
0
370
    -3
  6
Continuous
100
AcDbLine
 10
744.017588
 20
-77.082778
 30
0.0
 11
740.017588
 21
-77.082778
 31
0.0
  0
LINE
  5
31D
100
AcDbEntity
  8
0
370
    -3
  6
Continuous
100
AcDbLine
 10
586.017588
 20
-77.082778
 30
0.0
 11
586.017588
 21
-140.082778
 31
0.0
  0
LINE
  5
31E
100
AcDbEntity
  8
0
370
    -3
  6
Continuous
100
AcDbLine
 10
586.017588
 20
-140.082778
 30
0.0
 11
590.017588
 21
-140.082778
 31
0.0
  0
LINE
  5
31F
100
AcDbEntity
  8
0
370
    -3
  6
Continuous
100
AcDbLine
 10
586.017588
 20
-77.082778
 30
0.0
 11
590.017588
 21
-77.082778
 31
0.0
  0
LINE
  5
320
100
AcDbEntity
  8
0
370
    -3
  6
Continuous
100
AcDbLine
 10
590.017588
 20
-165.682778
 30
0.0
 11
590.017588
 21
-108.582778
 31
0.0
  0
LINE
  5
321
100
AcDbEntity
  8
0
370
    -3
  6
Continuous
100
AcDbLine
 10
590.017588
 20
-165.682778
 30
0.0
 11
590.417588
 21
-166.082778
 31
0.0
  0
LINE
  5
322
100
AcDbEntity
  8
0
370
    -3
  6
Continuous
100
AcDbLine
 10
595.017588
 20
-166.082778
 30
0.0
 11
590.417588
 21
-166.082778
 31
0.0
  0
LINE
  5
323
100
AcDbEntity
  8
0
370
    -3
  6
Continuous
100
AcDbLine
 10
740.017588
 20
-165.682778
 30
0.0
 11
740.017588
 21
-108.582778
 31
0.0
  0
LINE
  5
324
100
AcDbEntity
  8
0
370
    -3
  6
Continuous
100
AcDbLine
 10
740.017588
 20
-165.682778
 30
0.0
 11
739.617588
 21
-166.082778
 31
0.0
  0
LINE
  5
325
100
AcDbEntity
  8
0
370
    -3
  6
Continuous
100
AcDbLine
 10
735.017588
 20
-166.082778
 30
0.0
 11
739.617588
 21
-166.082778
 31
0.0
  0
LINE
  5
326
100
AcDbEntity
  8
0
370
    -3
  6
Continuous
100
AcDbLine
 10
590.017588
 20
-51.482778
 30
0.0
 11
590.017588
 21
-108.582778
 31
0.0
  0
LINE
  5
327
100
AcDbEntity
  8
0
370
    -3
  6
Continuous
100
AcDbLine
 10
590.017588
 20
-51.482778
 30
0.0
 11
590.417588
 21
-51.082778
 31
0.0
  0
LINE
  5
328
100
AcDbEntity
  8
0
370
    -3
  6
Continuous
100
AcDbLine
 10
595.017588
 20
-51.082778
 30
0.0
 11
590.417588
 21
-51.082778
 31
0.0
  0
LINE
  5
329
100
AcDbEntity
  8
0
370
    -3
  6
Continuous
100
AcDbLine
 10
740.017588
 20
-51.482778
 30
0.0
 11
740.017588
 21
-108.582778
 31
0.0
  0
LINE
  5
32A
100
AcDbEntity
  8
0
370
    -3
  6
Continuous
100
AcDbLine
 10
740.017588
 20
-51.482778
 30
0.0
 11
739.617588
 21
-51.082778
 31
0.0
  0
LINE
  5
32B
100
AcDbEntity
  8
0
370
    -3
  6
Continuous
100
AcDbLine
 10
735.017588
 20
-51.082778
 30
0.0
 11
739.617588
 21
-51.082778
 31
0.0
  0
LINE
  5
32C
100
AcDbEntity
  8
0
370
    -3
  6
Continuous
100
AcDbLine
 10
734.517588
 20
-230.082778
 30
0.0
 11
726.017588
 21
-230.082778
 31
0.0
  0
LINE
  5
32D
100
AcDbEntity
  8
0
370
    -3
  6
Continuous
100
AcDbLine
 10
726.017588
 20
-230.082778
 30
0.0
 11
607.017588
 21
-232.582778
 31
0.0
  0
LINE
  5
32E
100
AcDbEntity
  8
0
370
    -3
  6
Continuous
100
AcDbLine
 10
607.017588
 20
-21.582778
 30
0.0
 11
607.017588
 21
-232.582778
 31
0.0
  0
LINE
  5
32F
100
AcDbEntity
  8
0
370
    -3
  6
Continuous
100
AcDbLine
 10
734.517588
 20
-24.082778
 30
0.0
 11
726.017588
 21
-24.082778
 31
0.0
  0
LINE
  5
330
100
AcDbEntity
  8
0
370
    -3
  6
Continuous
100
AcDbLine
 10
726.017588
 20
-24.082778
 30
0.0
 11
607.017588
 21
-21.582778
 31
0.0
  0
LINE
  5
331
100
AcDbEntity
  8
0
370
    -3
  6
Continuous
100
AcDbLine
 10
735.017588
 20
-229.582778
 30
0.0
 11
734.517588
 21
-230.082778
 31
0.0
  0
LINE
  5
332
100
AcDbEntity
  8
0
370
    -3
  6
Continuous
100
AcDbLine
 10
735.017588
 20
-176.582777
 30
0.0
 11
735.017588
 21
-229.582778
 31
0.0
  0
LINE
  5
333
100
AcDbEntity
  8
0
370
    -3
  6
Continuous
100
AcDbLine
 10
735.017588
 20
-24.582778
 30
0.0
 11
735.017588
 21
-128.582777
 31
0.0
  0
LINE
  5
334
100
AcDbEntity
  8
0
370
    -3
  6
Continuous
100
AcDbLine
 10
735.017588
 20
-24.582778
 30
0.0
 11
734.517588
 21
-24.082778
 31
0.0
  0
LINE
  5
335
100
AcDbEntity
  8
0
370
    -3
  6
Continuous
100
AcDbLine
 10
735.017588
 20
-128.582777
 30
0.0
 11
735.017588
 21
-176.582777
 31
0.0
  0
LINE
  5
336
100
AcDbEntity
  8
0
370
    -3
  6
Continuous
100
AcDbLine
 10
595.514642
 20
-22.506081
 30
0.0
 11
595.017588
 21
-23.042839
 31
0.0
  0
LINE
  5
337
100
AcDbEntity
  8
0
370
    -3
  6
Continuous
100
AcDbLine
 10
595.017588
 20
-231.122716
 30
0.0
 11
595.514642
 21
-231.659474
 31
0.0
  0
LINE
  5
338
100
AcDbEntity
  8
0
370
    -3
  6
Continuous
100
AcDbLine
 10
607.017588
 20
-232.544316
 30
0.0
 11
595.514642
 21
-231.659474
 31
0.0
  0
LINE
  5
339
100
AcDbEntity
  8
0
370
    -3
  6
Continuous
100
AcDbLine
 10
595.017588
 20
-231.122716
 30
0.0
 11
595.514642
 21
-231.659474
 31
0.0
  0
LINE
  5
33A
100
AcDbEntity
  8
0
370
    -3
  6
Continuous
100
AcDbLine
 10
595.514642
 20
-22.506081
 30
0.0
 11
595.017588
 21
-23.042839
 31
0.0
  0
LINE
  5
33B
100
AcDbEntity
  8
0
370
    -3
  6
Continuous
100
AcDbLine
 10
607.017588
 20
-21.621239
 30
0.0
 11
595.514642
 21
-22.506081
 31
0.0
  0
LINE
  5
33C
100
AcDbEntity
  8
0
370
    -3
  6
Continuous
100
AcDbLine
 10
607.017588
 20
-108.582778
 30
0.0
 11
607.017588
 21
-21.582778
 31
0.0
  0
LINE
  5
33D
100
AcDbEntity
  8
0
370
    -3
  6
Continuous
100
AcDbLine
 10
607.017588
 20
-108.582778
 30
0.0
 11
607.017588
 21
-232.582778
 31
0.0
  0
LINE
  5
33E
100
AcDbEntity
  8
0
370
    -3
  6
Continuous
100
AcDbLine
 10
595.017588
 20
-108.582778
 30
0.0
 11
595.017588
 21
-23.042839
 31
0.0
  0
LINE
  5
33F
100
AcDbEntity
  8
0
370
    -3
  6
Continuous
100
AcDbLine
 10
595.017588
 20
-108.582778
 30
0.0
 11
595.017588
 21
-231.122716
 31
0.0
  0
LINE
  5
340
100
AcDbEntity
  8
0
370
    -3
  6
CENTER
100
AcDbLine
 10
665.01747
 20
-11.465294
 30
0.0
 11
665.017751
 21
-242.387107
 31
0.0
  0
ARC
  5
341
100
AcDbEntity
  8
0
370
    -3
  6
Continuous
100
AcDbCircle
 10
-396.98255
 20
220.017222
 30
0.0
 40
390.797
100
AcDbArc
 50
270.0
 51
272.529361
  0
ARC
  5
342
100
AcDbEntity
  8
0
370
    -3
  6
Continuous
100
AcDbCircle
 10
-396.98255
 20
220.017222
 30
0.0
 40
400.6
100
AcDbArc
 50
270.0
 51
272.529361
  0
ARC
  5
343
100
AcDbEntity
  8
0
370
    -3
  6
Continuous
100
AcDbCircle
 10
-396.98255
 20
220.017222
 30
0.0
 40
390.797
100
AcDbArc
 50
267.470639
 51
270.0
  0
ARC
  5
344
100
AcDbEntity
  8
0
370
    -3
  6
Continuous
100
AcDbCircle
 10
-396.98255
 20
220.017222
 30
0.0
 40
400.6
100
AcDbArc
 50
267.470639
 51
270.0
  0
LINE
  5
345
100
AcDbEntity
  8
0
370
    -3
  6
Continuous
100
AcDbLine
 10
-439.338247
 20
-170.585278
 30
0.0
 11
-439.82505
 21
-171.072081
 31
0.0
  0
LINE
  5
346
100
AcDbEntity
  8
0
370
    -3
  6
Continuous
100
AcDbLine
 10
-445.98505
 20
-163.938474
 30
0.0
 11
-446.471853
 21
-164.425277
 31
0.0
  0
LINE
  5
347
100
AcDbEntity
  8
0
370
    -3
  6
Continuous
100
AcDbLine
 10
-439.590794
 20
-170.898416
 30
0.0
 11
-446.267893
 21
-164.221317
 31
0.0
  0
LINE
  5
348
100
AcDbEntity
  8
0
370
    -3
  6
Continuous
100
AcDbLine
 10
-439.338247
 20
-170.585278
 30
0.0
 11
-445.98505
 21
-163.938474
 31
0.0
  0
ARC
  5
349
100
AcDbEntity
  8
0
370
    -3
  6
Continuous
100
AcDbCircle
 10
-440.398907
 20
-164.999134
 30
0.0
 40
6.099999
100
AcDbArc
 50
174.601928
 51
275.398089
  0
LINE
  5
34A
100
AcDbEntity
  8
0
370
    -3
  6
Continuous
100
AcDbLine
 10
-441.583157
 20
-168.340367
 30
0.0
 11
-443.761903
 21
-166.161621
 31
0.0
  0
ARC
  5
34B
100
AcDbEntity
  8
0
370
    -3
  6
Continuous
100
AcDbCircle
 10
-412.874622
 20
-139.631832
 30
0.0
 40
40.6
100
AcDbArc
 50
225.0
 51
267.469876
  0
LINE
  5
34C
100
AcDbEntity
  8
0
370
    -3
  6
Continuous
100
AcDbLine
 10
-354.626854
 20
-170.585278
 30
0.0
 11
-354.140051
 21
-171.072081
 31
0.0
  0
LINE
  5
34D
100
AcDbEntity
  8
0
370
    -3
  6
Continuous
100
AcDbLine
 10
-347.98005
 20
-163.938474
 30
0.0
 11
-347.493247
 21
-164.425277
 31
0.0
  0
LINE
  5
34E
100
AcDbEntity
  8
0
370
    -3
  6
Continuous
100
AcDbLine
 10
-354.374307
 20
-170.898416
 30
0.0
 11
-347.697208
 21
-164.221317
 31
0.0
  0
LINE
  5
34F
100
AcDbEntity
  8
0
370
    -3
  6
Continuous
100
AcDbLine
 10
-354.626854
 20
-170.585278
 30
0.0
 11
-347.98005
 21
-163.938474
 31
0.0
  0
ARC
  5
350
100
AcDbEntity
  8
0
370
    -3
  6
Continuous
100
AcDbCircle
 10
-353.566194
 20
-164.999134
 30
0.0
 40
6.099999
100
AcDbArc
 50
264.601911
 51
5.398072
  0
LINE
  5
351
100
AcDbEntity
  8
0
370
    -3
  6
Continuous
100
AcDbLine
 10
-352.381943
 20
-168.340367
 30
0.0
 11
-350.203198
 21
-166.161621
 31
0.0
  0
ARC
  5
352
100
AcDbEntity
  8
0
370
    -3
  6
Continuous
100
AcDbCircle
 10
-381.090479
 20
-139.631832
 30
0.0
 40
40.6
100
AcDbArc
 50
272.530124
 51
315.0
  0
ARC
  5
353
100
AcDbEntity
  8
0
370
    -3
  6
Continuous
100
AcDbCircle
 10
-396.98255
 20
-463.182778
 30
0.0
 40
400.6
100
AcDbArc
 50
90.0
 51
92.529361
  0
ARC
  5
354
100
AcDbEntity
  8
0
370
    -3
  6
Continuous
100
AcDbCircle
 10
-396.98255
 20
-463.182778
 30
0.0
 40
400.6
100
AcDbArc
 50
87.470639
 51
90.0
  0
LINE
  5
355
100
AcDbEntity
  8
0
370
    -3
  6
Continuous
100
AcDbLine
 10
-445.98505
 20
-79.227081
 30
0.0
 11
-446.471853
 21
-78.740278
 31
0.0
  0
LINE
  5
356
100
AcDbEntity
  8
0
370
    -3
  6
Continuous
100
AcDbLine
 10
-439.338247
 20
-72.580278
 30
0.0
 11
-445.98505
 21
-79.227081
 31
0.0
  0
LINE
  5
357
100
AcDbEntity
  8
0
370
    -3
  6
Continuous
100
AcDbLine
 10
-439.338247
 20
-72.580278
 30
0.0
 11
-439.82505
 21
-72.093475
 31
0.0
  0
LINE
  5
358
100
AcDbEntity
  8
0
370
    -3
  6
Continuous
100
AcDbLine
 10
-439.590794
 20
-72.267139
 30
0.0
 11
-446.267893
 21
-78.944239
 31
0.0
  0
ARC
  5
359
100
AcDbEntity
  8
0
370
    -3
  6
Continuous
100
AcDbCircle
 10
-440.398907
 20
-78.166421
 30
0.0
 40
6.099999
100
AcDbArc
 50
84.601911
 51
185.398072
  0
LINE
  5
35A
100
AcDbEntity
  8
0
370
    -3
  6
Continuous
100
AcDbLine
 10
-354.626854
 20
-72.580278
 30
0.0
 11
-347.98005
 21
-79.227081
 31
0.0
  0
LINE
  5
35B
100
AcDbEntity
  8
0
370
    -3
  6
Continuous
100
AcDbLine
 10
-352.381943
 20
-74.825188
 30
0.0
 11
-350.203198
 21
-77.003934
 31
0.0
  0
LINE
  5
35C
100
AcDbEntity
  8
0
370
    -3
  6
Continuous
100
AcDbLine
 10
-347.98005
 20
-79.227081
 30
0.0
 11
-347.493247
 21
-78.740278
 31
0.0
  0
LINE
  5
35D
100
AcDbEntity
  8
0
370
    -3
  6
Continuous
100
AcDbLine
 10
-354.626854
 20
-72.580278
 30
0.0
 11
-354.140051
 21
-72.093475
 31
0.0
  0
LINE
  5
35E
100
AcDbEntity
  8
0
370
    -3
  6
Continuous
100
AcDbLine
 10
-354.374307
 20
-72.267139
 30
0.0
 11
-347.697208
 21
-78.944239
 31
0.0
  0
POINT
  5
35F
100
AcDbEntity
  8
0
370
    -3
  6
Continuous
100
AcDbPoint
 10
-351.303452
 20
-75.90368
 30
0.0
  0
ARC
  5
360
100
AcDbEntity
  8
0
370
    -3
  6
Continuous
100
AcDbCircle
 10
-353.566194
 20
-78.166421
 30
0.0
 40
6.099999
100
AcDbArc
 50
354.601928
 51
95.398089
  0
ARC
  5
361
100
AcDbEntity
  8
0
370
    -3
  6
Continuous
100
AcDbCircle
 10
-743.58255
 20
-121.582778
 30
0.0
 40
390.797
100
AcDbArc
 50
355.470807
 51
0.0
  0
ARC
  5
362
100
AcDbEntity
  8
0
370
    -3
  6
Continuous
100
AcDbCircle
 10
-364.769597
 20
-151.595222
 30
0.0
 40
10.797
100
AcDbArc
 50
315.0
 51
355.470055
  0
LINE
  5
363
100
AcDbEntity
  8
0
370
    -3
  6
Continuous
100
AcDbLine
 10
-359.313711
 20
-161.408599
 30
0.0
 11
-357.134966
 21
-159.229854
 31
0.0
  0
ARC
  5
364
100
AcDbEntity
  8
0
370
    -3
  6
Continuous
100
AcDbCircle
 10
-381.090479
 20
-139.631832
 30
0.0
 40
30.797
100
AcDbArc
 50
272.530124
 51
315.0
  0
ARC
  5
365
100
AcDbEntity
  8
0
370
    -3
  6
Continuous
100
AcDbCircle
 10
-412.874622
 20
-139.631832
 30
0.0
 40
30.797
100
AcDbArc
 50
225.0
 51
267.469876
  0
LINE
  5
366
100
AcDbEntity
  8
0
370
    -3
  6
Continuous
100
AcDbLine
 10
-434.651389
 20
-161.408599
 30
0.0
 11
-436.830135
 21
-159.229854
 31
0.0
  0
ARC
  5
367
100
AcDbEntity
  8
0
370
    -3
  6
Continuous
100
AcDbCircle
 10
-429.195503
 20
-151.595222
 30
0.0
 40
10.797
100
AcDbArc
 50
184.529945
 51
225.0
  0
ARC
  5
368
100
AcDbEntity
  8
0
370
    -3
  6
Continuous
100
AcDbCircle
 10
-50.38255
 20
-121.582778
 30
0.0
 40
390.797
100
AcDbArc
 50
180.0
 51
184.529193
  0
ARC
  5
369
100
AcDbEntity
  8
0
370
    -3
  6
Continuous
100
AcDbCircle
 10
-379.326107
 20
-125.082778
 30
0.0
 40
1.0
100
AcDbArc
 50
90.0
 51
168.787729
  0
LINE
  5
36A
100
AcDbEntity
  8
0
370
    -3
  6
Continuous
100
AcDbLine
 10
-376.276271
 20
-124.082778
 30
0.0
 11
-379.326107
 21
-124.082778
 31
0.0
  0
ARC
  5
36B
100
AcDbEntity
  8
0
370
    -3
  6
Continuous
100
AcDbCircle
 10
-376.276271
 20
-125.082778
 30
0.0
 40
1.0
100
AcDbArc
 50
350.405932
 51
90.0
  0
ARC
  5
36C
100
AcDbEntity
  8
0
370
    -3
  6
Continuous
100
AcDbCircle
 10
-370.714699
 20
-125.082778
 30
0.0
 40
1.0
100
AcDbArc
 50
90.0
 51
172.410458
  0
LINE
  5
36D
100
AcDbEntity
  8
0
370
    -3
  6
Continuous
100
AcDbLine
 10
-367.690913
 20
-124.082778
 30
0.0
 11
-370.714699
 21
-124.082778
 31
0.0
  0
ARC
  5
36E
100
AcDbEntity
  8
0
370
    -3
  6
Continuous
100
AcDbCircle
 10
-367.690913
 20
-125.082778
 30
0.0
 40
1.0
100
AcDbArc
 50
353.186146
 51
90.0
  0
ARC
  5
36F
100
AcDbEntity
  8
0
370
    -3
  6
Continuous
100
AcDbCircle
 10
-362.15799
 20
-125.082778
 30
0.0
 40
1.0
100
AcDbArc
 50
90.0
 51
174.26083
  0
LINE
  5
370
100
AcDbEntity
  8
0
370
    -3
  6
Continuous
100
AcDbLine
 10
-359.144078
 20
-124.082778
 30
0.0
 11
-362.15799
 21
-124.082778
 31
0.0
  0
ARC
  5
371
100
AcDbEntity
  8
0
370
    -3
  6
Continuous
100
AcDbCircle
 10
-359.144078
 20
-125.082778
 30
0.0
 40
1.0
100
AcDbArc
 50
354.715267
 51
90.0
  0
ARC
  5
372
100
AcDbEntity
  8
0
370
    -3
  6
Continuous
100
AcDbCircle
 10
-379.305643
 20
-145.20008
 30
0.0
 40
1.0
100
AcDbArc
 50
210.0
 51
306.813854
  0
LINE
  5
373
100
AcDbEntity
  8
0
370
    -3
  6
Continuous
100
AcDbLine
 10
-380.171668
 20
-145.70008
 30
0.0
 11
-381.683561
 21
-143.081404
 31
0.0
  0
ARC
  5
374
100
AcDbEntity
  8
0
370
    -3
  6
Continuous
100
AcDbCircle
 10
-380.817536
 20
-142.581404
 30
0.0
 40
1.0
100
AcDbArc
 50
127.589542
 51
210.0
  0
ARC
  5
375
100
AcDbEntity
  8
0
370
    -3
  6
Continuous
100
AcDbCircle
 10
-375.032225
 20
-152.601856
 30
0.0
 40
1.0
100
AcDbArc
 50
210.0
 51
305.284733
  0
LINE
  5
376
100
AcDbEntity
  8
0
370
    -3
  6
Continuous
100
AcDbLine
 10
-375.898251
 20
-153.101856
 30
0.0
 11
-377.405207
 21
-150.491732
 31
0.0
  0
ARC
  5
377
100
AcDbEntity
  8
0
370
    -3
  6
Continuous
100
AcDbCircle
 10
-376.539181
 20
-149.991732
 30
0.0
 40
1.0
100
AcDbArc
 50
125.73917
 51
210.0
  0
ARC
  5
378
100
AcDbEntity
  8
0
370
    -3
  6
Continuous
100
AcDbCircle
 10
-389.535581
 20
-127.481307
 30
0.0
 40
1.0
100
AcDbArc
 50
141.618272
 51
210.0
  0
LINE
  5
379
100
AcDbEntity
  8
0
370
    -3
  6
Continuous
100
AcDbLine
 10
-388.817487
 20
-130.725083
 30
0.0
 11
-390.401606
 21
-127.981307
 31
0.0
  0
ARC
  5
37A
100
AcDbEntity
  8
0
370
    -3
  6
Continuous
100
AcDbCircle
 10
-385.12324
 20
-135.123706
 30
0.0
 40
1.0
100
AcDbArc
 50
131.212271
 51
210.0
  0
LINE
  5
37B
100
AcDbEntity
  8
0
370
    -3
  6
Continuous
100
AcDbLine
 10
-384.464347
 20
-138.264942
 30
0.0
 11
-385.989265
 21
-135.623706
 31
0.0
  0
ARC
  5
37C
100
AcDbEntity
  8
0
370
    -3
  6
Continuous
100
AcDbCircle
 10
-383.598322
 20
-137.764942
 30
0.0
 40
1.0
100
AcDbArc
 50
210.0
 51
309.594068
  0
ARC
  5
37D
100
AcDbEntity
  8
0
370
    -3
  6
Continuous
100
AcDbCircle
 10
-388.150789
 20
-125.082778
 30
0.0
 40
1.0
100
AcDbArc
 50
90.0
 51
158.381728
  0
ARC
  5
37E
100
AcDbEntity
  8
0
370
    -3
  6
Continuous
100
AcDbCircle
 10
-396.98255
 20
-121.582778
 30
0.0
 40
8.5
100
AcDbArc
 50
321.618272
 51
338.381728
  0
ARC
  5
37F
100
AcDbEntity
  8
0
370
    -3
  6
Continuous
100
AcDbCircle
 10
-387.951461
 20
-130.225083
 30
0.0
 40
1.0
100
AcDbArc
 50
210.0
 51
316.260205
  0
LINE
  5
380
100
AcDbEntity
  8
0
370
    -3
  6
Continuous
100
AcDbLine
 10
-384.98255
 20
-124.082778
 30
0.0
 11
-388.150789
 21
-124.082778
 31
0.0
  0
ARC
  5
381
100
AcDbEntity
  8
0
370
    -3
  6
Continuous
100
AcDbCircle
 10
-384.98255
 20
-125.082778
 30
0.0
 40
1.0
100
AcDbArc
 50
343.739795
 51
90.0
  0
ARC
  5
382
100
AcDbEntity
  8
0
370
    -3
  6
Continuous
100
AcDbCircle
 10
-396.98255
 20
-121.582778
 30
0.0
 40
13.5
100
AcDbArc
 50
316.260205
 51
343.739795
  0
ARC
  5
383
100
AcDbEntity
  8
0
370
    -3
  6
Continuous
100
AcDbCircle
 10
-396.98255
 20
-121.582778
 30
0.0
 40
17.0
100
AcDbArc
 50
311.212271
 51
348.787729
  0
ARC
  5
384
100
AcDbEntity
  8
0
370
    -3
  6
Continuous
100
AcDbCircle
 10
-396.98255
 20
-121.582778
 30
0.0
 40
22.0
100
AcDbArc
 50
309.594068
 51
350.405932
  0
ARC
  5
385
100
AcDbEntity
  8
0
370
    -3
  6
Continuous
100
AcDbCircle
 10
-396.98255
 20
-121.582778
 30
0.0
 40
30.5
100
AcDbArc
 50
306.813854
 51
353.186146
  0
ARC
  5
386
100
AcDbEntity
  8
0
370
    -3
  6
Continuous
100
AcDbCircle
 10
-396.98255
 20
-121.582778
 30
0.0
 40
25.5
100
AcDbArc
 50
307.589542
 51
352.410458
  0
ARC
  5
387
100
AcDbEntity
  8
0
370
    -3
  6
Continuous
100
AcDbCircle
 10
-396.98255
 20
-121.582778
 30
0.0
 40
34.0
100
AcDbArc
 50
305.73917
 51
354.26083
  0
ARC
  5
388
100
AcDbEntity
  8
0
370
    -3
  6
Continuous
100
AcDbCircle
 10
-396.98255
 20
-121.582778
 30
0.0
 40
39.0
100
AcDbArc
 50
305.284733
 51
354.715267
  0
ARC
  5
389
100
AcDbEntity
  8
0
370
    -3
  6
Continuous
100
AcDbCircle
 10
-385.367821
 20
-148.70008
 30
0.0
 40
1.0
100
AcDbArc
 50
293.186146
 51
30.0
  0
LINE
  5
38A
100
AcDbEntity
  8
0
370
    -3
  6
Continuous
100
AcDbLine
 10
-384.501795
 20
-148.20008
 30
0.0
 11
-386.013688
 21
-145.581404
 31
0.0
  0
ARC
  5
38B
100
AcDbEntity
  8
0
370
    -3
  6
Continuous
100
AcDbCircle
 10
-386.879714
 20
-146.081404
 30
0.0
 40
1.0
100
AcDbArc
 50
30.0
 51
112.410458
  0
ARC
  5
38C
100
AcDbEntity
  8
0
370
    -3
  6
Continuous
100
AcDbCircle
 10
-381.094403
 20
-156.101856
 30
0.0
 40
1.0
100
AcDbArc
 50
294.715267
 51
30.0
  0
LINE
  5
38D
100
AcDbEntity
  8
0
370
    -3
  6
Continuous
100
AcDbLine
 10
-380.228378
 20
-155.601856
 30
0.0
 11
-381.735334
 21
-152.991732
 31
0.0
  0
ARC
  5
38E
100
AcDbEntity
  8
0
370
    -3
  6
Continuous
100
AcDbCircle
 10
-382.601359
 20
-153.491732
 30
0.0
 40
1.0
100
AcDbArc
 50
30.0
 51
114.26083
  0
ARC
  5
38F
100
AcDbEntity
  8
0
370
    -3
  6
Continuous
100
AcDbCircle
 10
-395.597759
 20
-130.981307
 30
0.0
 40
1.0
100
AcDbArc
 50
30.0
 51
98.381728
  0
LINE
  5
390
100
AcDbEntity
  8
0
370
    -3
  6
Continuous
100
AcDbLine
 10
-393.147614
 20
-133.225083
 30
0.0
 11
-394.731733
 21
-130.481307
 31
0.0
  0
ARC
  5
391
100
AcDbEntity
  8
0
370
    -3
  6
Continuous
100
AcDbCircle
 10
-391.185417
 20
-138.623706
 30
0.0
 40
1.0
100
AcDbArc
 50
30.0
 51
108.787729
  0
LINE
  5
392
100
AcDbEntity
  8
0
370
    -3
  6
Continuous
100
AcDbLine
 10
-388.794474
 20
-140.764942
 30
0.0
 11
-390.319392
 21
-138.123706
 31
0.0
  0
ARC
  5
393
100
AcDbEntity
  8
0
370
    -3
  6
Continuous
100
AcDbCircle
 10
-389.6605
 20
-141.264942
 30
0.0
 40
1.0
100
AcDbArc
 50
290.405932
 51
30.0
  0
ARC
  5
394
100
AcDbEntity
  8
0
370
    -3
  6
Continuous
100
AcDbCircle
 10
-398.367342
 20
-130.981307
 30
0.0
 40
1.0
100
AcDbArc
 50
81.618272
 51
150.0
  0
ARC
  5
395
100
AcDbEntity
  8
0
370
    -3
  6
Continuous
100
AcDbCircle
 10
-396.98255
 20
-121.582778
 30
0.0
 40
8.5
100
AcDbArc
 50
261.618272
 51
278.381728
  0
ARC
  5
396
100
AcDbEntity
  8
0
370
    -3
  6
Continuous
100
AcDbCircle
 10
-394.013639
 20
-133.725083
 30
0.0
 40
1.0
100
AcDbArc
 50
283.739795
 51
30.0
  0
LINE
  5
397
100
AcDbEntity
  8
0
370
    -3
  6
Continuous
100
AcDbLine
 10
-400.817487
 20
-133.225083
 30
0.0
 11
-399.233367
 21
-130.481307
 31
0.0
  0
ARC
  5
398
100
AcDbEntity
  8
0
370
    -3
  6
Continuous
100
AcDbCircle
 10
-399.951461
 20
-133.725083
 30
0.0
 40
1.0
100
AcDbArc
 50
150.0
 51
256.260205
  0
ARC
  5
399
100
AcDbEntity
  8
0
370
    -3
  6
Continuous
100
AcDbCircle
 10
-396.98255
 20
-121.582778
 30
0.0
 40
13.5
100
AcDbArc
 50
256.260205
 51
283.739795
  0
ARC
  5
39A
100
AcDbEntity
  8
0
370
    -3
  6
Continuous
100
AcDbCircle
 10
-402.779683
 20
-138.623706
 30
0.0
 40
1.0
100
AcDbArc
 50
71.212271
 51
150.0
  0
LINE
  5
39B
100
AcDbEntity
  8
0
370
    -3
  6
Continuous
100
AcDbLine
 10
-405.170626
 20
-140.764942
 30
0.0
 11
-403.645709
 21
-138.123706
 31
0.0
  0
ARC
  5
39C
100
AcDbEntity
  8
0
370
    -3
  6
Continuous
100
AcDbCircle
 10
-396.98255
 20
-121.582778
 30
0.0
 40
17.0
100
AcDbArc
 50
251.212271
 51
288.787729
  0
ARC
  5
39D
100
AcDbEntity
  8
0
370
    -3
  6
Continuous
100
AcDbCircle
 10
-404.304601
 20
-141.264942
 30
0.0
 40
1.0
100
AcDbArc
 50
150.0
 51
249.594068
  0
ARC
  5
39E
100
AcDbEntity
  8
0
370
    -3
  6
Continuous
100
AcDbCircle
 10
-407.085387
 20
-146.081404
 30
0.0
 40
1.0
100
AcDbArc
 50
67.589542
 51
150.0
  0
ARC
  5
39F
100
AcDbEntity
  8
0
370
    -3
  6
Continuous
100
AcDbCircle
 10
-411.363742
 20
-153.491732
 30
0.0
 40
1.0
100
AcDbArc
 50
65.73917
 51
150.0
  0
ARC
  5
3A0
100
AcDbEntity
  8
0
370
    -3
  6
Continuous
100
AcDbCircle
 10
-396.98255
 20
-121.582778
 30
0.0
 40
22.0
100
AcDbArc
 50
249.594068
 51
290.405932
  0
LINE
  5
3A1
100
AcDbEntity
  8
0
370
    -3
  6
Continuous
100
AcDbLine
 10
-409.463305
 20
-148.20008
 30
0.0
 11
-407.951412
 21
-145.581404
 31
0.0
  0
ARC
  5
3A2
100
AcDbEntity
  8
0
370
    -3
  6
Continuous
100
AcDbCircle
 10
-408.59728
 20
-148.70008
 30
0.0
 40
1.0
100
AcDbArc
 50
150.0
 51
246.813854
  0
ARC
  5
3A3
100
AcDbEntity
  8
0
370
    -3
  6
Continuous
100
AcDbCircle
 10
-396.98255
 20
-121.582778
 30
0.0
 40
30.5
100
AcDbArc
 50
246.813854
 51
293.186146
  0
ARC
  5
3A4
100
AcDbEntity
  8
0
370
    -3
  6
Continuous
100
AcDbCircle
 10
-396.98255
 20
-121.582778
 30
0.0
 40
25.5
100
AcDbArc
 50
247.589542
 51
292.410458
  0
ARC
  5
3A5
100
AcDbEntity
  8
0
370
    -3
  6
Continuous
100
AcDbCircle
 10
-396.98255
 20
-121.582778
 30
0.0
 40
34.0
100
AcDbArc
 50
245.73917
 51
294.26083
  0
ARC
  5
3A6
100
AcDbEntity
  8
0
370
    -3
  6
Continuous
100
AcDbCircle
 10
-396.98255
 20
-121.582778
 30
0.0
 40
39.0
100
AcDbArc
 50
245.284733
 51
294.715267
  0
LINE
  5
3A7
100
AcDbEntity
  8
0
370
    -3
  6
Continuous
100
AcDbLine
 10
-413.736723
 20
-155.601856
 30
0.0
 11
-412.229767
 21
-152.991732
 31
0.0
  0
ARC
  5
3A8
100
AcDbEntity
  8
0
370
    -3
  6
Continuous
100
AcDbCircle
 10
-412.870698
 20
-156.101856
 30
0.0
 40
1.0
100
AcDbArc
 50
150.0
 51
245.284733
  0
CIRCLE
  5
3A9
100
AcDbEntity
  8
0
370
    -3
  6
Continuous
100
AcDbCircle
 10
-396.98255
 20
-121.582778
 30
0.0
 40
5.0
  0
ARC
  5
3AA
100
AcDbEntity
  8
0
370
    -3
  6
Continuous
100
AcDbCircle
 10
-418.932875
 20
-152.601856
 30
0.0
 40
1.0
100
AcDbArc
 50
234.715267
 51
330.0
  0
ARC
  5
3AB
100
AcDbEntity
  8
0
370
    -3
  6
Continuous
100
AcDbCircle
 10
-417.425919
 20
-149.991732
 30
0.0
 40
1.0
100
AcDbArc
 50
330.0
 51
54.26083
  0
ARC
  5
3AC
100
AcDbEntity
  8
0
370
    -3
  6
Continuous
100
AcDbCircle
 10
-431.807111
 20
-125.082778
 30
0.0
 40
1.0
100
AcDbArc
 50
5.73917
 51
90.0
  0
ARC
  5
3AD
100
AcDbEntity
  8
0
370
    -3
  6
Continuous
100
AcDbCircle
 10
-434.821023
 20
-125.082778
 30
0.0
 40
1.0
100
AcDbArc
 50
90.0
 51
185.284733
  0
ARC
  5
3AE
100
AcDbEntity
  8
0
370
    -3
  6
Continuous
100
AcDbCircle
 10
-423.250401
 20
-125.082778
 30
0.0
 40
1.0
100
AcDbArc
 50
7.589542
 51
90.0
  0
ARC
  5
3AF
100
AcDbEntity
  8
0
370
    -3
  6
Continuous
100
AcDbCircle
 10
-414.659458
 20
-145.20008
 30
0.0
 40
1.0
100
AcDbArc
 50
233.186146
 51
330.0
  0
ARC
  5
3B0
100
AcDbEntity
  8
0
370
    -3
  6
Continuous
100
AcDbCircle
 10
-413.147565
 20
-142.581404
 30
0.0
 40
1.0
100
AcDbArc
 50
330.0
 51
52.410458
  0
ARC
  5
3B1
100
AcDbEntity
  8
0
370
    -3
  6
Continuous
100
AcDbCircle
 10
-426.274187
 20
-125.082778
 30
0.0
 40
1.0
100
AcDbArc
 50
90.0
 51
186.813854
  0
ARC
  5
3B2
100
AcDbEntity
  8
0
370
    -3
  6
Continuous
100
AcDbCircle
 10
-417.68883
 20
-125.082778
 30
0.0
 40
1.0
100
AcDbArc
 50
90.0
 51
189.594068
  0
ARC
  5
3B3
100
AcDbEntity
  8
0
370
    -3
  6
Continuous
100
AcDbCircle
 10
-414.638994
 20
-125.082778
 30
0.0
 40
1.0
100
AcDbArc
 50
11.212271
 51
90.0
  0
ARC
  5
3B4
100
AcDbEntity
  8
0
370
    -3
  6
Continuous
100
AcDbCircle
 10
-410.366779
 20
-137.764942
 30
0.0
 40
1.0
100
AcDbArc
 50
230.405932
 51
330.0
  0
ARC
  5
3B5
100
AcDbEntity
  8
0
370
    -3
  6
Continuous
100
AcDbCircle
 10
-408.841861
 20
-135.123706
 30
0.0
 40
1.0
100
AcDbArc
 50
330.0
 51
48.787729
  0
ARC
  5
3B6
100
AcDbEntity
  8
0
370
    -3
  6
Continuous
100
AcDbCircle
 10
-406.013639
 20
-130.225083
 30
0.0
 40
1.0
100
AcDbArc
 50
223.739795
 51
330.0
  0
ARC
  5
3B7
100
AcDbEntity
  8
0
370
    -3
  6
Continuous
100
AcDbCircle
 10
-408.98255
 20
-125.082778
 30
0.0
 40
1.0
100
AcDbArc
 50
90.0
 51
196.260205
  0
ARC
  5
3B8
100
AcDbEntity
  8
0
370
    -3
  6
Continuous
100
AcDbCircle
 10
-405.814311
 20
-125.082778
 30
0.0
 40
1.0
100
AcDbArc
 50
21.618272
 51
90.0
  0
ARC
  5
3B9
100
AcDbEntity
  8
0
370
    -3
  6
Continuous
100
AcDbCircle
 10
-404.42952
 20
-127.481307
 30
0.0
 40
1.0
100
AcDbArc
 50
330.0
 51
38.381728
  0
ARC
  5
3BA
100
AcDbEntity
  8
0
370
    -3
  6
Continuous
100
AcDbCircle
 10
-396.98255
 20
-121.582778
 30
0.0
 40
39.0
100
AcDbArc
 50
185.284733
 51
234.715267
  0
ARC
  5
3BB
100
AcDbEntity
  8
0
370
    -3
  6
Continuous
100
AcDbCircle
 10
-396.98255
 20
-121.582778
 30
0.0
 40
30.5
100
AcDbArc
 50
186.813854
 51
233.186146
  0
ARC
  5
3BC
100
AcDbEntity
  8
0
370
    -3
  6
Continuous
100
AcDbCircle
 10
-396.98255
 20
-121.582778
 30
0.0
 40
34.0
100
AcDbArc
 50
185.73917
 51
234.26083
  0
ARC
  5
3BD
100
AcDbEntity
  8
0
370
    -3
  6
Continuous
100
AcDbCircle
 10
-396.98255
 20
-121.582778
 30
0.0
 40
25.5
100
AcDbArc
 50
187.589542
 51
232.410458
  0
ARC
  5
3BE
100
AcDbEntity
  8
0
370
    -3
  6
Continuous
100
AcDbCircle
 10
-396.98255
 20
-121.582778
 30
0.0
 40
22.0
100
AcDbArc
 50
189.594068
 51
230.405932
  0
ARC
  5
3BF
100
AcDbEntity
  8
0
370
    -3
  6
Continuous
100
AcDbCircle
 10
-396.98255
 20
-121.582778
 30
0.0
 40
17.0
100
AcDbArc
 50
191.212271
 51
228.787729
  0
ARC
  5
3C0
100
AcDbEntity
  8
0
370
    -3
  6
Continuous
100
AcDbCircle
 10
-396.98255
 20
-121.582778
 30
0.0
 40
13.5
100
AcDbArc
 50
196.260205
 51
223.739795
  0
ARC
  5
3C1
100
AcDbEntity
  8
0
370
    -3
  6
Continuous
100
AcDbCircle
 10
-396.98255
 20
-121.582778
 30
0.0
 40
8.5
100
AcDbArc
 50
201.618272
 51
218.381728
  0
LINE
  5
3C2
100
AcDbEntity
  8
0
370
    -3
  6
Continuous
100
AcDbLine
 10
-413.793432
 20
-145.70008
 30
0.0
 11
-412.281539
 21
-143.081404
 31
0.0
  0
LINE
  5
3C3
100
AcDbEntity
  8
0
370
    -3
  6
Continuous
100
AcDbLine
 10
-434.821023
 20
-124.082778
 30
0.0
 11
-431.807111
 21
-124.082778
 31
0.0
  0
ARC
  5
3C4
100
AcDbEntity
  8
0
370
    -3
  6
Continuous
100
AcDbCircle
 10
-743.58255
 20
-121.582778
 30
0.0
 40
400.6
100
AcDbArc
 50
355.470807
 51
0.0
  0
ARC
  5
3C5
100
AcDbEntity
  8
0
370
    -3
  6
Continuous
100
AcDbCircle
 10
-364.769597
 20
-151.595222
 30
0.0
 40
20.6
100
AcDbArc
 50
315.0
 51
355.470055
  0
ARC
  5
3C6
100
AcDbEntity
  8
0
370
    -3
  6
Continuous
100
AcDbCircle
 10
-50.38255
 20
-121.582778
 30
0.0
 40
400.6
100
AcDbArc
 50
180.0
 51
184.529193
  0
ARC
  5
3C7
100
AcDbEntity
  8
0
370
    -3
  6
Continuous
100
AcDbCircle
 10
-429.195503
 20
-151.595222
 30
0.0
 40
20.6
100
AcDbArc
 50
184.529945
 51
225.0
  0
ARC
  5
3C8
100
AcDbEntity
  8
0
370
    -3
  6
Continuous
100
AcDbCircle
 10
-50.38255
 20
-121.582778
 30
0.0
 40
400.6
100
AcDbArc
 50
175.470807
 51
180.0
  0
ARC
  5
3C9
100
AcDbEntity
  8
0
370
    -3
  6
Continuous
100
AcDbCircle
 10
-429.195503
 20
-91.570334
 30
0.0
 40
20.6
100
AcDbArc
 50
135.0
 51
175.470055
  0
LINE
  5
3CA
100
AcDbEntity
  8
0
370
    -3
  6
Continuous
100
AcDbLine
 10
-441.583157
 20
-74.825188
 30
0.0
 11
-443.761903
 21
-77.003934
 31
0.0
  0
ARC
  5
3CB
100
AcDbEntity
  8
0
370
    -3
  6
Continuous
100
AcDbCircle
 10
-412.874622
 20
-103.533724
 30
0.0
 40
40.6
100
AcDbArc
 50
92.530124
 51
135.0
  0
ARC
  5
3CC
100
AcDbEntity
  8
0
370
    -3
  6
Continuous
100
AcDbCircle
 10
-743.58255
 20
-121.582778
 30
0.0
 40
400.6
100
AcDbArc
 50
0.0
 51
4.529193
  0
ARC
  5
3CD
100
AcDbEntity
  8
0
370
    -3
  6
Continuous
100
AcDbCircle
 10
-364.769597
 20
-91.570334
 30
0.0
 40
20.6
100
AcDbArc
 50
4.529945
 51
45.0
  0
LINE
  5
3CE
100
AcDbEntity
  8
0
370
    -3
  6
Continuous
100
AcDbLine
 10
-352.381943
 20
-74.825188
 30
0.0
 11
-350.203198
 21
-77.003934
 31
0.0
  0
ARC
  5
3CF
100
AcDbEntity
  8
0
370
    -3
  6
Continuous
100
AcDbCircle
 10
-381.090479
 20
-103.533724
 30
0.0
 40
40.6
100
AcDbArc
 50
45.0
 51
87.469876
  0
LINE
  5
3D0
100
AcDbEntity
  8
0
370
    -3
  6
Continuous
100
AcDbLine
 10
-418.06685
 20
-153.101856
 30
0.0
 11
-416.559894
 21
-150.491732
 31
0.0
  0
LINE
  5
3D1
100
AcDbEntity
  8
0
370
    -3
  6
Continuous
100
AcDbLine
 10
-409.500753
 20
-138.264942
 30
0.0
 11
-407.975836
 21
-135.623706
 31
0.0
  0
LINE
  5
3D2
100
AcDbEntity
  8
0
370
    -3
  6
Continuous
100
AcDbLine
 10
-405.147614
 20
-130.725083
 30
0.0
 11
-403.563494
 21
-127.981307
 31
0.0
  0
LINE
  5
3D3
100
AcDbEntity
  8
0
370
    -3
  6
Continuous
100
AcDbLine
 10
-408.98255
 20
-124.082778
 30
0.0
 11
-405.814311
 21
-124.082778
 31
0.0
  0
LINE
  5
3D4
100
AcDbEntity
  8
0
370
    -3
  6
Continuous
100
AcDbLine
 10
-417.68883
 20
-124.082778
 30
0.0
 11
-414.638994
 21
-124.082778
 31
0.0
  0
LINE
  5
3D5
100
AcDbEntity
  8
0
370
    -3
  6
Continuous
100
AcDbLine
 10
-426.274187
 20
-124.082778
 30
0.0
 11
-423.250401
 21
-124.082778
 31
0.0
  0
ARC
  5
3D6
100
AcDbEntity
  8
0
370
    -3
  6
Continuous
100
AcDbCircle
 10
-396.98255
 20
-121.582778
 30
0.0
 40
39.0
100
AcDbArc
 50
65.284733
 51
114.715267
  0
ARC
  5
3D7
100
AcDbEntity
  8
0
370
    -3
  6
Continuous
100
AcDbCircle
 10
-396.98255
 20
-121.582778
 30
0.0
 40
34.0
100
AcDbArc
 50
65.73917
 51
114.26083
  0
ARC
  5
3D8
100
AcDbEntity
  8
0
370
    -3
  6
Continuous
100
AcDbCircle
 10
-396.98255
 20
-121.582778
 30
0.0
 40
25.5
100
AcDbArc
 50
67.589542
 51
112.410458
  0
ARC
  5
3D9
100
AcDbEntity
  8
0
370
    -3
  6
Continuous
100
AcDbCircle
 10
-396.98255
 20
-121.582778
 30
0.0
 40
30.5
100
AcDbArc
 50
66.813854
 51
113.186146
  0
ARC
  5
3DA
100
AcDbEntity
  8
0
370
    -3
  6
Continuous
100
AcDbCircle
 10
-396.98255
 20
-121.582778
 30
0.0
 40
22.0
100
AcDbArc
 50
69.594068
 51
110.405932
  0
ARC
  5
3DB
100
AcDbEntity
  8
0
370
    -3
  6
Continuous
100
AcDbCircle
 10
-396.98255
 20
-121.582778
 30
0.0
 40
17.0
100
AcDbArc
 50
71.212271
 51
108.787729
  0
ARC
  5
3DC
100
AcDbEntity
  8
0
370
    -3
  6
Continuous
100
AcDbCircle
 10
-396.98255
 20
-121.582778
 30
0.0
 40
13.5
100
AcDbArc
 50
76.260205
 51
103.739795
  0
ARC
  5
3DD
100
AcDbEntity
  8
0
370
    -3
  6
Continuous
100
AcDbCircle
 10
-394.013639
 20
-109.440473
 30
0.0
 40
1.0
100
AcDbArc
 50
330.0
 51
76.260205
  0
ARC
  5
3DE
100
AcDbEntity
  8
0
370
    -3
  6
Continuous
100
AcDbCircle
 10
-389.6605
 20
-101.900614
 30
0.0
 40
1.0
100
AcDbArc
 50
330.0
 51
69.594068
  0
LINE
  5
3DF
100
AcDbEntity
  8
0
370
    -3
  6
Continuous
100
AcDbLine
 10
-388.794474
 20
-102.400614
 30
0.0
 11
-390.319392
 21
-105.041849
 31
0.0
  0
ARC
  5
3E0
100
AcDbEntity
  8
0
370
    -3
  6
Continuous
100
AcDbCircle
 10
-391.185417
 20
-104.541849
 30
0.0
 40
1.0
100
AcDbArc
 50
251.212271
 51
330.0
  0
LINE
  5
3E1
100
AcDbEntity
  8
0
370
    -3
  6
Continuous
100
AcDbLine
 10
-393.147614
 20
-109.940473
 30
0.0
 11
-394.731733
 21
-112.684248
 31
0.0
  0
ARC
  5
3E2
100
AcDbEntity
  8
0
370
    -3
  6
Continuous
100
AcDbCircle
 10
-395.597759
 20
-112.184248
 30
0.0
 40
1.0
100
AcDbArc
 50
261.618272
 51
330.0
  0
ARC
  5
3E3
100
AcDbEntity
  8
0
370
    -3
  6
Continuous
100
AcDbCircle
 10
-382.601359
 20
-89.673824
 30
0.0
 40
1.0
100
AcDbArc
 50
245.73917
 51
330.0
  0
LINE
  5
3E4
100
AcDbEntity
  8
0
370
    -3
  6
Continuous
100
AcDbLine
 10
-380.228378
 20
-87.563699
 30
0.0
 11
-381.735334
 21
-90.173824
 31
0.0
  0
ARC
  5
3E5
100
AcDbEntity
  8
0
370
    -3
  6
Continuous
100
AcDbCircle
 10
-381.094403
 20
-87.063699
 30
0.0
 40
1.0
100
AcDbArc
 50
330.0
 51
65.284733
  0
ARC
  5
3E6
100
AcDbEntity
  8
0
370
    -3
  6
Continuous
100
AcDbCircle
 10
-386.879714
 20
-97.084151
 30
0.0
 40
1.0
100
AcDbArc
 50
247.589542
 51
330.0
  0
LINE
  5
3E7
100
AcDbEntity
  8
0
370
    -3
  6
Continuous
100
AcDbLine
 10
-384.501795
 20
-94.965476
 30
0.0
 11
-386.013688
 21
-97.584151
 31
0.0
  0
ARC
  5
3E8
100
AcDbEntity
  8
0
370
    -3
  6
Continuous
100
AcDbCircle
 10
-385.367821
 20
-94.465476
 30
0.0
 40
1.0
100
AcDbArc
 50
330.0
 51
66.813854
  0
ARC
  5
3E9
100
AcDbEntity
  8
0
370
    -3
  6
Continuous
100
AcDbCircle
 10
-396.98255
 20
-121.582778
 30
0.0
 40
39.0
100
AcDbArc
 50
5.284733
 51
54.715267
  0
ARC
  5
3EA
100
AcDbEntity
  8
0
370
    -3
  6
Continuous
100
AcDbCircle
 10
-396.98255
 20
-121.582778
 30
0.0
 40
34.0
100
AcDbArc
 50
5.73917
 51
54.26083
  0
ARC
  5
3EB
100
AcDbEntity
  8
0
370
    -3
  6
Continuous
100
AcDbCircle
 10
-396.98255
 20
-121.582778
 30
0.0
 40
25.5
100
AcDbArc
 50
7.589542
 51
52.410458
  0
ARC
  5
3EC
100
AcDbEntity
  8
0
370
    -3
  6
Continuous
100
AcDbCircle
 10
-396.98255
 20
-121.582778
 30
0.0
 40
30.5
100
AcDbArc
 50
6.813854
 51
53.186146
  0
ARC
  5
3ED
100
AcDbEntity
  8
0
370
    -3
  6
Continuous
100
AcDbCircle
 10
-396.98255
 20
-121.582778
 30
0.0
 40
22.0
100
AcDbArc
 50
9.594068
 51
50.405932
  0
ARC
  5
3EE
100
AcDbEntity
  8
0
370
    -3
  6
Continuous
100
AcDbCircle
 10
-396.98255
 20
-121.582778
 30
0.0
 40
17.0
100
AcDbArc
 50
11.212271
 51
48.787729
  0
ARC
  5
3EF
100
AcDbEntity
  8
0
370
    -3
  6
Continuous
100
AcDbCircle
 10
-396.98255
 20
-121.582778
 30
0.0
 40
13.5
100
AcDbArc
 50
16.260205
 51
43.739795
  0
ARC
  5
3F0
100
AcDbEntity
  8
0
370
    -3
  6
Continuous
100
AcDbCircle
 10
-384.98255
 20
-118.082778
 30
0.0
 40
1.0
100
AcDbArc
 50
270.0
 51
16.260205
  0
LINE
  5
3F1
100
AcDbEntity
  8
0
370
    -3
  6
Continuous
100
AcDbLine
 10
-384.98255
 20
-119.082778
 30
0.0
 11
-388.150789
 21
-119.082778
 31
0.0
  0
ARC
  5
3F2
100
AcDbEntity
  8
0
370
    -3
  6
Continuous
100
AcDbCircle
 10
-387.951461
 20
-112.940473
 30
0.0
 40
1.0
100
AcDbArc
 50
43.739795
 51
150.0
  0
ARC
  5
3F3
100
AcDbEntity
  8
0
370
    -3
  6
Continuous
100
AcDbCircle
 10
-396.98255
 20
-121.582778
 30
0.0
 40
8.5
100
AcDbArc
 50
21.618272
 51
38.381728
  0
ARC
  5
3F4
100
AcDbEntity
  8
0
370
    -3
  6
Continuous
100
AcDbCircle
 10
-388.150789
 20
-118.082778
 30
0.0
 40
1.0
100
AcDbArc
 50
201.618272
 51
270.0
  0
ARC
  5
3F5
100
AcDbEntity
  8
0
370
    -3
  6
Continuous
100
AcDbCircle
 10
-383.598322
 20
-105.400614
 30
0.0
 40
1.0
100
AcDbArc
 50
50.405932
 51
150.0
  0
LINE
  5
3F6
100
AcDbEntity
  8
0
370
    -3
  6
Continuous
100
AcDbLine
 10
-384.464347
 20
-104.900614
 30
0.0
 11
-385.989265
 21
-107.541849
 31
0.0
  0
ARC
  5
3F7
100
AcDbEntity
  8
0
370
    -3
  6
Continuous
100
AcDbCircle
 10
-385.12324
 20
-108.041849
 30
0.0
 40
1.0
100
AcDbArc
 50
150.0
 51
228.787729
  0
LINE
  5
3F8
100
AcDbEntity
  8
0
370
    -3
  6
Continuous
100
AcDbLine
 10
-388.817487
 20
-112.440473
 30
0.0
 11
-390.401606
 21
-115.184248
 31
0.0
  0
ARC
  5
3F9
100
AcDbEntity
  8
0
370
    -3
  6
Continuous
100
AcDbCircle
 10
-389.535581
 20
-115.684248
 30
0.0
 40
1.0
100
AcDbArc
 50
150.0
 51
218.381728
  0
ARC
  5
3FA
100
AcDbEntity
  8
0
370
    -3
  6
Continuous
100
AcDbCircle
 10
-376.539181
 20
-93.173824
 30
0.0
 40
1.0
100
AcDbArc
 50
150.0
 51
234.26083
  0
LINE
  5
3FB
100
AcDbEntity
  8
0
370
    -3
  6
Continuous
100
AcDbLine
 10
-375.898251
 20
-90.063699
 30
0.0
 11
-377.405207
 21
-92.673824
 31
0.0
  0
ARC
  5
3FC
100
AcDbEntity
  8
0
370
    -3
  6
Continuous
100
AcDbCircle
 10
-375.032225
 20
-90.563699
 30
0.0
 40
1.0
100
AcDbArc
 50
54.715267
 51
150.0
  0
ARC
  5
3FD
100
AcDbEntity
  8
0
370
    -3
  6
Continuous
100
AcDbCircle
 10
-380.817536
 20
-100.584151
 30
0.0
 40
1.0
100
AcDbArc
 50
150.0
 51
232.410458
  0
LINE
  5
3FE
100
AcDbEntity
  8
0
370
    -3
  6
Continuous
100
AcDbLine
 10
-380.171668
 20
-97.465476
 30
0.0
 11
-381.683561
 21
-100.084151
 31
0.0
  0
ARC
  5
3FF
100
AcDbEntity
  8
0
370
    -3
  6
Continuous
100
AcDbCircle
 10
-379.305643
 20
-97.965476
 30
0.0
 40
1.0
100
AcDbArc
 50
53.186146
 51
150.0
  0
ARC
  5
400
100
AcDbEntity
  8
0
370
    -3
  6
Continuous
100
AcDbCircle
 10
-359.144078
 20
-118.082778
 30
0.0
 40
1.0
100
AcDbArc
 50
270.0
 51
5.284733
  0
LINE
  5
401
100
AcDbEntity
  8
0
370
    -3
  6
Continuous
100
AcDbLine
 10
-359.144078
 20
-119.082778
 30
0.0
 11
-362.15799
 21
-119.082778
 31
0.0
  0
ARC
  5
402
100
AcDbEntity
  8
0
370
    -3
  6
Continuous
100
AcDbCircle
 10
-362.15799
 20
-118.082778
 30
0.0
 40
1.0
100
AcDbArc
 50
185.73917
 51
270.0
  0
ARC
  5
403
100
AcDbEntity
  8
0
370
    -3
  6
Continuous
100
AcDbCircle
 10
-367.690913
 20
-118.082778
 30
0.0
 40
1.0
100
AcDbArc
 50
270.0
 51
6.813854
  0
LINE
  5
404
100
AcDbEntity
  8
0
370
    -3
  6
Continuous
100
AcDbLine
 10
-367.690913
 20
-119.082778
 30
0.0
 11
-370.714699
 21
-119.082778
 31
0.0
  0
ARC
  5
405
100
AcDbEntity
  8
0
370
    -3
  6
Continuous
100
AcDbCircle
 10
-370.714699
 20
-118.082778
 30
0.0
 40
1.0
100
AcDbArc
 50
187.589542
 51
270.0
  0
ARC
  5
406
100
AcDbEntity
  8
0
370
    -3
  6
Continuous
100
AcDbCircle
 10
-376.276271
 20
-118.082778
 30
0.0
 40
1.0
100
AcDbArc
 50
270.0
 51
9.594068
  0
LINE
  5
407
100
AcDbEntity
  8
0
370
    -3
  6
Continuous
100
AcDbLine
 10
-376.276271
 20
-119.082778
 30
0.0
 11
-379.326107
 21
-119.082778
 31
0.0
  0
ARC
  5
408
100
AcDbEntity
  8
0
370
    -3
  6
Continuous
100
AcDbCircle
 10
-379.326107
 20
-118.082778
 30
0.0
 40
1.0
100
AcDbArc
 50
191.212271
 51
270.0
  0
LINE
  5
409
100
AcDbEntity
  8
0
370
    -3
  6
Continuous
100
AcDbLine
 10
-359.313711
 20
-81.756956
 30
0.0
 11
-357.134966
 21
-83.935702
 31
0.0
  0
ARC
  5
40A
100
AcDbEntity
  8
0
370
    -3
  6
Continuous
100
AcDbCircle
 10
-364.769597
 20
-91.570334
 30
0.0
 40
10.797
100
AcDbArc
 50
4.529945
 51
45.0
  0
ARC
  5
40B
100
AcDbEntity
  8
0
370
    -3
  6
Continuous
100
AcDbCircle
 10
-743.58255
 20
-121.582778
 30
0.0
 40
390.797
100
AcDbArc
 50
0.0
 51
4.529193
  0
ARC
  5
40C
100
AcDbEntity
  8
0
370
    -3
  6
Continuous
100
AcDbCircle
 10
-399.951461
 20
-109.440473
 30
0.0
 40
1.0
100
AcDbArc
 50
103.739795
 51
210.0
  0
LINE
  5
40D
100
AcDbEntity
  8
0
370
    -3
  6
Continuous
100
AcDbLine
 10
-400.817487
 20
-109.940473
 30
0.0
 11
-399.233367
 21
-112.684248
 31
0.0
  0
ARC
  5
40E
100
AcDbEntity
  8
0
370
    -3
  6
Continuous
100
AcDbCircle
 10
-396.98255
 20
-121.582778
 30
0.0
 40
8.5
100
AcDbArc
 50
81.618272
 51
98.381728
  0
ARC
  5
40F
100
AcDbEntity
  8
0
370
    -3
  6
Continuous
100
AcDbCircle
 10
-398.367342
 20
-112.184248
 30
0.0
 40
1.0
100
AcDbArc
 50
210.0
 51
278.381728
  0
ARC
  5
410
100
AcDbEntity
  8
0
370
    -3
  6
Continuous
100
AcDbCircle
 10
-396.98255
 20
-463.182778
 30
0.0
 40
390.797
100
AcDbArc
 50
90.0
 51
92.529361
  0
ARC
  5
411
100
AcDbEntity
  8
0
370
    -3
  6
Continuous
100
AcDbCircle
 10
-396.98255
 20
-463.182778
 30
0.0
 40
390.797
100
AcDbArc
 50
87.470639
 51
90.0
  0
ARC
  5
412
100
AcDbEntity
  8
0
370
    -3
  6
Continuous
100
AcDbCircle
 10
-381.090479
 20
-103.533724
 30
0.0
 40
30.797
100
AcDbArc
 50
45.0
 51
87.469876
  0
LINE
  5
413
100
AcDbEntity
  8
0
370
    -3
  6
Continuous
100
AcDbLine
 10
-426.274187
 20
-119.082778
 30
0.0
 11
-423.250401
 21
-119.082778
 31
0.0
  0
LINE
  5
414
100
AcDbEntity
  8
0
370
    -3
  6
Continuous
100
AcDbLine
 10
-417.68883
 20
-119.082778
 30
0.0
 11
-414.638994
 21
-119.082778
 31
0.0
  0
LINE
  5
415
100
AcDbEntity
  8
0
370
    -3
  6
Continuous
100
AcDbLine
 10
-408.98255
 20
-119.082778
 30
0.0
 11
-405.814311
 21
-119.082778
 31
0.0
  0
LINE
  5
416
100
AcDbEntity
  8
0
370
    -3
  6
Continuous
100
AcDbLine
 10
-405.147614
 20
-112.440473
 30
0.0
 11
-403.563494
 21
-115.184248
 31
0.0
  0
LINE
  5
417
100
AcDbEntity
  8
0
370
    -3
  6
Continuous
100
AcDbLine
 10
-409.500753
 20
-104.900614
 30
0.0
 11
-407.975836
 21
-107.541849
 31
0.0
  0
LINE
  5
418
100
AcDbEntity
  8
0
370
    -3
  6
Continuous
100
AcDbLine
 10
-418.06685
 20
-90.063699
 30
0.0
 11
-416.559894
 21
-92.673824
 31
0.0
  0
LINE
  5
419
100
AcDbEntity
  8
0
370
    -3
  6
Continuous
100
AcDbLine
 10
-413.793432
 20
-97.465476
 30
0.0
 11
-412.281539
 21
-100.084151
 31
0.0
  0
ARC
  5
41A
100
AcDbEntity
  8
0
370
    -3
  6
Continuous
100
AcDbCircle
 10
-396.98255
 20
-121.582778
 30
0.0
 40
8.5
100
AcDbArc
 50
141.618272
 51
158.381728
  0
ARC
  5
41B
100
AcDbEntity
  8
0
370
    -3
  6
Continuous
100
AcDbCircle
 10
-396.98255
 20
-121.582778
 30
0.0
 40
13.5
100
AcDbArc
 50
136.260205
 51
163.739795
  0
ARC
  5
41C
100
AcDbEntity
  8
0
370
    -3
  6
Continuous
100
AcDbCircle
 10
-396.98255
 20
-121.582778
 30
0.0
 40
17.0
100
AcDbArc
 50
131.212271
 51
168.787729
  0
ARC
  5
41D
100
AcDbEntity
  8
0
370
    -3
  6
Continuous
100
AcDbCircle
 10
-396.98255
 20
-121.582778
 30
0.0
 40
22.0
100
AcDbArc
 50
129.594068
 51
170.405932
  0
ARC
  5
41E
100
AcDbEntity
  8
0
370
    -3
  6
Continuous
100
AcDbCircle
 10
-396.98255
 20
-121.582778
 30
0.0
 40
25.5
100
AcDbArc
 50
127.589542
 51
172.410458
  0
ARC
  5
41F
100
AcDbEntity
  8
0
370
    -3
  6
Continuous
100
AcDbCircle
 10
-396.98255
 20
-121.582778
 30
0.0
 40
34.0
100
AcDbArc
 50
125.73917
 51
174.26083
  0
ARC
  5
420
100
AcDbEntity
  8
0
370
    -3
  6
Continuous
100
AcDbCircle
 10
-396.98255
 20
-121.582778
 30
0.0
 40
30.5
100
AcDbArc
 50
126.813854
 51
173.186146
  0
ARC
  5
421
100
AcDbEntity
  8
0
370
    -3
  6
Continuous
100
AcDbCircle
 10
-396.98255
 20
-121.582778
 30
0.0
 40
39.0
100
AcDbArc
 50
125.284733
 51
174.715267
  0
ARC
  5
422
100
AcDbEntity
  8
0
370
    -3
  6
Continuous
100
AcDbCircle
 10
-404.42952
 20
-115.684248
 30
0.0
 40
1.0
100
AcDbArc
 50
321.618272
 51
30.0
  0
ARC
  5
423
100
AcDbEntity
  8
0
370
    -3
  6
Continuous
100
AcDbCircle
 10
-405.814311
 20
-118.082778
 30
0.0
 40
1.0
100
AcDbArc
 50
270.0
 51
338.381728
  0
ARC
  5
424
100
AcDbEntity
  8
0
370
    -3
  6
Continuous
100
AcDbCircle
 10
-408.98255
 20
-118.082778
 30
0.0
 40
1.0
100
AcDbArc
 50
163.739795
 51
270.0
  0
ARC
  5
425
100
AcDbEntity
  8
0
370
    -3
  6
Continuous
100
AcDbCircle
 10
-406.013639
 20
-112.940473
 30
0.0
 40
1.0
100
AcDbArc
 50
30.0
 51
136.260205
  0
ARC
  5
426
100
AcDbEntity
  8
0
370
    -3
  6
Continuous
100
AcDbCircle
 10
-408.841861
 20
-108.041849
 30
0.0
 40
1.0
100
AcDbArc
 50
311.212271
 51
30.0
  0
ARC
  5
427
100
AcDbEntity
  8
0
370
    -3
  6
Continuous
100
AcDbCircle
 10
-410.366779
 20
-105.400614
 30
0.0
 40
1.0
100
AcDbArc
 50
30.0
 51
129.594068
  0
ARC
  5
428
100
AcDbEntity
  8
0
370
    -3
  6
Continuous
100
AcDbCircle
 10
-414.638994
 20
-118.082778
 30
0.0
 40
1.0
100
AcDbArc
 50
270.0
 51
348.787729
  0
ARC
  5
429
100
AcDbEntity
  8
0
370
    -3
  6
Continuous
100
AcDbCircle
 10
-417.68883
 20
-118.082778
 30
0.0
 40
1.0
100
AcDbArc
 50
170.405932
 51
270.0
  0
ARC
  5
42A
100
AcDbEntity
  8
0
370
    -3
  6
Continuous
100
AcDbCircle
 10
-413.147565
 20
-100.584151
 30
0.0
 40
1.0
100
AcDbArc
 50
307.589542
 51
30.0
  0
ARC
  5
42B
100
AcDbEntity
  8
0
370
    -3
  6
Continuous
100
AcDbCircle
 10
-414.659458
 20
-97.965476
 30
0.0
 40
1.0
100
AcDbArc
 50
30.0
 51
126.813854
  0
ARC
  5
42C
100
AcDbEntity
  8
0
370
    -3
  6
Continuous
100
AcDbCircle
 10
-423.250401
 20
-118.082778
 30
0.0
 40
1.0
100
AcDbArc
 50
270.0
 51
352.410458
  0
ARC
  5
42D
100
AcDbEntity
  8
0
370
    -3
  6
Continuous
100
AcDbCircle
 10
-417.425919
 20
-93.173824
 30
0.0
 40
1.0
100
AcDbArc
 50
305.73917
 51
30.0
  0
ARC
  5
42E
100
AcDbEntity
  8
0
370
    -3
  6
Continuous
100
AcDbCircle
 10
-418.932875
 20
-90.563699
 30
0.0
 40
1.0
100
AcDbArc
 50
30.0
 51
125.284733
  0
ARC
  5
42F
100
AcDbEntity
  8
0
370
    -3
  6
Continuous
100
AcDbCircle
 10
-412.870698
 20
-87.063699
 30
0.0
 40
1.0
100
AcDbArc
 50
114.715267
 51
210.0
  0
LINE
  5
430
100
AcDbEntity
  8
0
370
    -3
  6
Continuous
100
AcDbLine
 10
-413.736723
 20
-87.563699
 30
0.0
 11
-412.229767
 21
-90.173824
 31
0.0
  0
ARC
  5
431
100
AcDbEntity
  8
0
370
    -3
  6
Continuous
100
AcDbCircle
 10
-408.59728
 20
-94.465476
 30
0.0
 40
1.0
100
AcDbArc
 50
113.186146
 51
210.0
  0
LINE
  5
432
100
AcDbEntity
  8
0
370
    -3
  6
Continuous
100
AcDbLine
 10
-409.463305
 20
-94.965476
 30
0.0
 11
-407.951412
 21
-97.584151
 31
0.0
  0
ARC
  5
433
100
AcDbEntity
  8
0
370
    -3
  6
Continuous
100
AcDbCircle
 10
-411.363742
 20
-89.673824
 30
0.0
 40
1.0
100
AcDbArc
 50
210.0
 51
294.26083
  0
ARC
  5
434
100
AcDbEntity
  8
0
370
    -3
  6
Continuous
100
AcDbCircle
 10
-407.085387
 20
-97.084151
 30
0.0
 40
1.0
100
AcDbArc
 50
210.0
 51
292.410458
  0
ARC
  5
435
100
AcDbEntity
  8
0
370
    -3
  6
Continuous
100
AcDbCircle
 10
-404.304601
 20
-101.900614
 30
0.0
 40
1.0
100
AcDbArc
 50
110.405932
 51
210.0
  0
LINE
  5
436
100
AcDbEntity
  8
0
370
    -3
  6
Continuous
100
AcDbLine
 10
-405.170626
 20
-102.400614
 30
0.0
 11
-403.645709
 21
-105.041849
 31
0.0
  0
ARC
  5
437
100
AcDbEntity
  8
0
370
    -3
  6
Continuous
100
AcDbCircle
 10
-402.779683
 20
-104.541849
 30
0.0
 40
1.0
100
AcDbArc
 50
210.0
 51
288.787729
  0
ARC
  5
438
100
AcDbEntity
  8
0
370
    -3
  6
Continuous
100
AcDbCircle
 10
-412.874622
 20
-103.533724
 30
0.0
 40
30.797
100
AcDbArc
 50
92.530124
 51
135.0
  0
LINE
  5
439
100
AcDbEntity
  8
0
370
    -3
  6
Continuous
100
AcDbLine
 10
-434.821023
 20
-119.082778
 30
0.0
 11
-431.807111
 21
-119.082778
 31
0.0
  0
ARC
  5
43A
100
AcDbEntity
  8
0
370
    -3
  6
Continuous
100
AcDbCircle
 10
-426.274187
 20
-118.082778
 30
0.0
 40
1.0
100
AcDbArc
 50
173.186146
 51
270.0
  0
ARC
  5
43B
100
AcDbEntity
  8
0
370
    -3
  6
Continuous
100
AcDbCircle
 10
-434.821023
 20
-118.082778
 30
0.0
 40
1.0
100
AcDbArc
 50
174.715267
 51
270.0
  0
ARC
  5
43C
100
AcDbEntity
  8
0
370
    -3
  6
Continuous
100
AcDbCircle
 10
-431.807111
 20
-118.082778
 30
0.0
 40
1.0
100
AcDbArc
 50
270.0
 51
354.26083
  0
ARC
  5
43D
100
AcDbEntity
  8
0
370
    -3
  6
Continuous
100
AcDbCircle
 10
-50.38255
 20
-121.582778
 30
0.0
 40
390.797
100
AcDbArc
 50
175.470807
 51
180.0
  0
ARC
  5
43E
100
AcDbEntity
  8
0
370
    -3
  6
Continuous
100
AcDbCircle
 10
-429.195503
 20
-91.570334
 30
0.0
 40
10.797
100
AcDbArc
 50
135.0
 51
175.470055
  0
LINE
  5
43F
100
AcDbEntity
  8
0
370
    -3
  6
Continuous
100
AcDbLine
 10
-434.651389
 20
-81.756956
 30
0.0
 11
-436.830135
 21
-83.935702
 31
0.0
  0
CIRCLE
  5
440
100
AcDbEntity
  8
0
370
    -3
  6
Continuous
100
AcDbCircle
 10
28.517441
 20
-39.582778
 30
0.0
 40
9.0
  0
CIRCLE
  5
441
100
AcDbEntity
  8
0
370
    -3
  6
Continuous
100
AcDbCircle
 10
28.517441
 20
-39.582778
 30
0.0
 40
13.0
  0
LINE
  5
442
100
AcDbEntity
  8
0
370
    -3
  6
CENTER
100
AcDbLine
 10
44.017441
 20
-39.582778
 30
0.0
 11
13.017441
 21
-39.582778
 31
0.0
  0
LINE
  5
443
100
AcDbEntity
  8
0
370
    -3
  6
CENTER
100
AcDbLine
 10
28.517441
 20
-24.082778
 30
0.0
 11
28.517441
 21
-55.082778
 31
0.0
  0
CIRCLE
  5
444
100
AcDbEntity
  8
0
370
    -3
  6
Continuous
100
AcDbCircle
 10
228.517441
 20
-39.582778
 30
0.0
 40
9.0
  0
CIRCLE
  5
445
100
AcDbEntity
  8
0
370
    -3
  6
Continuous
100
AcDbCircle
 10
228.517441
 20
-39.582778
 30
0.0
 40
13.0
  0
LINE
  5
446
100
AcDbEntity
  8
0
370
    -3
  6
CENTER
100
AcDbLine
 10
244.017441
 20
-39.582778
 30
0.0
 11
213.017441
 21
-39.582778
 31
0.0
  0
LINE
  5
447
100
AcDbEntity
  8
0
370
    -3
  6
CENTER
100
AcDbLine
 10
228.517441
 20
-24.082778
 30
0.0
 11
228.517441
 21
-55.082778
 31
0.0
  0
CIRCLE
  5
448
100
AcDbEntity
  8
0
370
    -3
  6
Continuous
100
AcDbCircle
 10
228.517441
 20
-214.582778
 30
0.0
 40
9.0
  0
CIRCLE
  5
449
100
AcDbEntity
  8
0
370
    -3
  6
Continuous
100
AcDbCircle
 10
228.517441
 20
-214.582778
 30
0.0
 40
13.0
  0
LINE
  5
44A
100
AcDbEntity
  8
0
370
    -3
  6
CENTER
100
AcDbLine
 10
244.017441
 20
-214.582778
 30
0.0
 11
213.017441
 21
-214.582778
 31
0.0
  0
LINE
  5
44B
100
AcDbEntity
  8
0
370
    -3
  6
CENTER
100
AcDbLine
 10
228.517441
 20
-199.082778
 30
0.0
 11
228.517441
 21
-230.082778
 31
0.0
  0
CIRCLE
  5
44C
100
AcDbEntity
  8
0
370
    -3
  6
Continuous
100
AcDbCircle
 10
28.517441
 20
-214.582778
 30
0.0
 40
9.0
  0
CIRCLE
  5
44D
100
AcDbEntity
  8
0
370
    -3
  6
Continuous
100
AcDbCircle
 10
28.517441
 20
-214.582778
 30
0.0
 40
13.0
  0
LINE
  5
44E
100
AcDbEntity
  8
0
370
    -3
  6
CENTER
100
AcDbLine
 10
28.517441
 20
-199.082778
 30
0.0
 11
28.517441
 21
-230.082778
 31
0.0
  0
LINE
  5
44F
100
AcDbEntity
  8
0
370
    -3
  6
CENTER
100
AcDbLine
 10
44.017441
 20
-214.582778
 30
0.0
 11
13.017441
 21
-214.582778
 31
0.0
  0
LINE
  5
450
100
AcDbEntity
  8
0
370
    -3
  6
DASHED
100
AcDbLine
 10
714.017604
 20
-48.582778
 30
0.0
 11
616.017604
 21
-48.582778
 31
0.0
  0
LINE
  5
451
100
AcDbEntity
  8
0
370
    -3
  6
DASHED
100
AcDbLine
 10
714.017604
 20
-30.582778
 30
0.0
 11
616.017604
 21
-30.582778
 31
0.0
  0
LINE
  5
452
100
AcDbEntity
  8
0
370
    -3
  6
DASHED
100
AcDbLine
 10
616.017604
 20
-52.582778
 30
0.0
 11
595.017604
 21
-52.582778
 31
0.0
  0
LINE
  5
453
100
AcDbEntity
  8
0
370
    -3
  6
DASHED
100
AcDbLine
 10
616.017604
 20
-26.582778
 30
0.0
 11
595.017604
 21
-26.582778
 31
0.0
  0
LINE
  5
454
100
AcDbEntity
  8
0
370
    -3
  6
DASHED
100
AcDbLine
 10
616.017604
 20
-52.582778
 30
0.0
 11
616.017604
 21
-26.582778
 31
0.0
  0
LINE
  5
455
100
AcDbEntity
  8
0
370
    -3
  6
DASHED
100
AcDbLine
 10
714.017604
 20
-26.582778
 30
0.0
 11
735.017604
 21
-26.582778
 31
0.0
  0
LINE
  5
456
100
AcDbEntity
  8
0
370
    -3
  6
DASHED
100
AcDbLine
 10
714.017604
 20
-52.582778
 30
0.0
 11
735.017604
 21
-52.582778
 31
0.0
  0
LINE
  5
457
100
AcDbEntity
  8
0
370
    -3
  6
DASHED
100
AcDbLine
 10
714.017604
 20
-52.582778
 30
0.0
 11
714.017604
 21
-26.582778
 31
0.0
  0
LINE
  5
458
100
AcDbEntity
  8
0
370
    -3
  6
DASHED
100
AcDbLine
 10
714.017604
 20
-223.582778
 30
0.0
 11
616.017604
 21
-223.582778
 31
0.0
  0
LINE
  5
459
100
AcDbEntity
  8
0
370
    -3
  6
DASHED
100
AcDbLine
 10
714.017604
 20
-205.582778
 30
0.0
 11
616.017604
 21
-205.582778
 31
0.0
  0
LINE
  5
45A
100
AcDbEntity
  8
0
370
    -3
  6
DASHED
100
AcDbLine
 10
616.017604
 20
-227.582778
 30
0.0
 11
595.017604
 21
-227.582778
 31
0.0
  0
LINE
  5
45B
100
AcDbEntity
  8
0
370
    -3
  6
DASHED
100
AcDbLine
 10
616.017604
 20
-201.582778
 30
0.0
 11
595.017604
 21
-201.582778
 31
0.0
  0
LINE
  5
45C
100
AcDbEntity
  8
0
370
    -3
  6
DASHED
100
AcDbLine
 10
616.017604
 20
-227.582778
 30
0.0
 11
616.017604
 21
-201.582778
 31
0.0
  0
LINE
  5
45D
100
AcDbEntity
  8
0
370
    -3
  6
DASHED
100
AcDbLine
 10
714.017604
 20
-227.582778
 30
0.0
 11
735.017604
 21
-227.582778
 31
0.0
  0
LINE
  5
45E
100
AcDbEntity
  8
0
370
    -3
  6
DASHED
100
AcDbLine
 10
714.017604
 20
-227.582778
 30
0.0
 11
714.017604
 21
-201.582778
 31
0.0
  0
LINE
  5
45F
100
AcDbEntity
  8
0
370
    -3
  6
Continuous
100
AcDbLine
 10
-92.982559
 20
97.611921
 30
0.0
 11
-92.982559
 21
204.611921
 31
0.0
  0
ARC
  5
460
100
AcDbEntity
  8
0
370
    -3
  6
Continuous
100
AcDbCircle
 10
-81.482544
 20
102.611921
 30
0.0
 40
5.0
100
AcDbArc
 50
270.0
 51
0.0
  0
LINE
  5
461
100
AcDbEntity
  8
0
370
    -3
  6
Continuous
100
AcDbLine
 10
-38.482544
 20
97.611921
 30
0.0
 11
-92.982544
 21
97.611921
 31
0.0
  0
ARC
  5
462
100
AcDbEntity
  8
0
370
    -3
  6
Continuous
100
AcDbCircle
 10
-81.482544
 20
199.611921
 30
0.0
 40
5.0
100
AcDbArc
 50
0.0
 51
90.0
  0
ARC
  5
463
100
AcDbEntity
  8
0
370
    -3
  6
Continuous
100
AcDbCircle
 10
-80.308548
 20
153.087968
 30
0.0
 40
15.324423
100
AcDbArc
 50
75.542186
 51
94.393704
  0
ARC
  5
464
100
AcDbEntity
  8
0
370
    -3
  6
Continuous
100
AcDbCircle
 10
-80.308548
 20
149.135874
 30
0.0
 40
15.324423
100
AcDbArc
 50
265.606296
 51
284.457814
  0
LINE
  5
465
100
AcDbEntity
  8
0
370
    -3
  6
Continuous
100
AcDbLine
 10
-76.482544
 20
102.611921
 30
0.0
 11
-76.482544
 21
199.611921
 31
0.0
  0
LINE
  5
466
100
AcDbEntity
  8
0
370
    -3
  6
Continuous
100
AcDbLine
 10
-81.482544
 20
133.856487
 30
0.0
 11
-92.982544
 21
133.856487
 31
0.0
  0
LINE
  5
467
100
AcDbEntity
  8
0
370
    -3
  6
Continuous
100
AcDbLine
 10
-81.482544
 20
168.367355
 30
0.0
 11
-92.982544
 21
168.367355
 31
0.0
  0
LINE
  5
468
100
AcDbEntity
  8
0
370
    -3
  6
Continuous
100
AcDbLine
 10
-38.482544
 20
204.611921
 30
0.0
 11
-92.982544
 21
204.611921
 31
0.0
  0
LINE
  5
469
100
AcDbEntity
  8
0
370
    -3
  6
Continuous
100
AcDbLine
 10
-92.982544
 20
170.411921
 30
0.0
 11
-92.982544
 21
131.811921
 31
0.0
  0
ARC
  5
46A
100
AcDbEntity
  8
0
370
    -3
  6
Continuous
100
AcDbCircle
 10
-38.482544
 20
95.611921
 30
0.0
 40
2.0
100
AcDbArc
 50
0.0
 51
90.026639
  0
ARC
  5
46B
100
AcDbEntity
  8
0
370
    -3
  6
Continuous
100
AcDbCircle
 10
-33.482544
 20
82.611921
 30
0.0
 40
3.0
100
AcDbArc
 50
180.0
 51
270.0
  0
LINE
  5
46C
100
AcDbEntity
  8
0
370
    -3
  6
Continuous
100
AcDbLine
 10
-33.482544
 20
79.611921
 30
0.0
 11
-26.482544
 21
79.611921
 31
0.0
  0
LINE
  5
46D
100
AcDbEntity
  8
0
370
    -3
  6
Continuous
100
AcDbLine
 10
-36.482544
 20
83.398958
 30
0.0
 11
-36.482544
 21
82.611921
 31
0.0
  0
LINE
  5
46E
100
AcDbEntity
  8
0
370
    -3
  6
Continuous
100
AcDbLine
 10
-36.482544
 20
134.111921
 30
0.0
 11
-36.482544
 21
83.398958
 31
0.0
  0
LINE
  5
46F
100
AcDbEntity
  8
0
370
    -3
  6
Continuous
100
AcDbLine
 10
-36.982544
 20
146.211255
 30
0.0
 11
-36.462544
 21
147.111921
 31
0.0
  0
LINE
  5
470
100
AcDbEntity
  8
0
370
    -3
  6
Continuous
100
AcDbLine
 10
-36.462544
 20
134.111921
 30
0.0
 11
-36.982544
 21
135.012588
 31
0.0
  0
LINE
  5
471
100
AcDbEntity
  8
0
370
    -3
  6
Continuous
100
AcDbLine
 10
-36.982544
 20
167.211255
 30
0.0
 11
-36.462544
 21
168.111921
 31
0.0
  0
LINE
  5
472
100
AcDbEntity
  8
0
370
    -3
  6
Continuous
100
AcDbLine
 10
-36.462544
 20
155.111921
 30
0.0
 11
-36.982544
 21
156.012588
 31
0.0
  0
ARC
  5
473
100
AcDbEntity
  8
0
370
    -3
  6
Continuous
100
AcDbCircle
 10
-38.482544
 20
206.611921
 30
0.0
 40
2.0
100
AcDbArc
 50
270.024533
 51
0.0
  0
LINE
  5
474
100
AcDbEntity
  8
0
370
    -3
  6
Continuous
100
AcDbLine
 10
-36.462544
 20
134.111921
 30
0.0
 11
-36.462544
 21
147.111921
 31
0.0
  0
LINE
  5
475
100
AcDbEntity
  8
0
370
    -3
  6
Continuous
100
AcDbLine
 10
-36.982544
 20
135.012588
 30
0.0
 11
-36.982544
 21
146.211255
 31
0.0
  0
LINE
  5
476
100
AcDbEntity
  8
0
370
    -3
  6
Continuous
100
AcDbLine
 10
-36.462544
 20
155.111921
 30
0.0
 11
-36.462544
 21
168.111921
 31
0.0
  0
LINE
  5
477
100
AcDbEntity
  8
0
370
    -3
  6
Continuous
100
AcDbLine
 10
-36.982544
 20
156.012588
 30
0.0
 11
-36.982544
 21
167.211255
 31
0.0
  0
ARC
  5
478
100
AcDbEntity
  8
0
370
    -3
  6
Continuous
100
AcDbCircle
 10
-33.482544
 20
219.611921
 30
0.0
 40
3.0
100
AcDbArc
 50
90.0
 51
180.0
  0
LINE
  5
479
100
AcDbEntity
  8
0
370
    -3
  6
Continuous
100
AcDbLine
 10
-33.482544
 20
222.611921
 30
0.0
 11
-26.482544
 21
222.611921
 31
0.0
  0
LINE
  5
47A
100
AcDbEntity
  8
0
370
    -3
  6
Continuous
100
AcDbLine
 10
-36.482544
 20
218.824884
 30
0.0
 11
-36.482544
 21
168.111921
 31
0.0
  0
LINE
  5
47B
100
AcDbEntity
  8
0
370
    -3
  6
Continuous
100
AcDbLine
 10
-36.482544
 20
219.611921
 30
0.0
 11
-36.482544
 21
218.824884
 31
0.0
  0
LINE
  5
47C
100
AcDbEntity
  8
0
370
    -3
  6
Continuous
100
AcDbLine
 10
-36.482544
 20
155.146562
 30
0.0
 11
-36.482544
 21
147.07728
 31
0.0
  0
LINE
  5
47D
100
AcDbEntity
  8
0
370
    -3
  6
Continuous
100
AcDbLine
 10
-36.482544
 20
167.352303
 30
0.0
 11
-36.482544
 21
155.146562
 31
0.0
  0
LINE
  5
47E
100
AcDbEntity
  8
0
370
    -3
  6
Continuous
100
AcDbLine
 10
-36.482544
 20
168.07728
 30
0.0
 11
-36.482544
 21
167.352303
 31
0.0
  0
LINE
  5
47F
100
AcDbEntity
  8
0
370
    -3
  6
Continuous
100
AcDbLine
 10
-28.982544
 20
155.111921
 30
0.0
 11
-36.462544
 21
155.111921
 31
0.0
  0
LINE
  5
480
100
AcDbEntity
  8
0
370
    -3
  6
Continuous
100
AcDbLine
 10
-28.982544
 20
134.111921
 30
0.0
 11
-36.462544
 21
134.111921
 31
0.0
  0
LINE
  5
481
100
AcDbEntity
  8
0
370
    -3
  6
Continuous
100
AcDbLine
 10
-36.462544
 20
147.111921
 30
0.0
 11
-28.982544
 21
147.111921
 31
0.0
  0
LINE
  5
482
100
AcDbEntity
  8
0
370
    -3
  6
Continuous
100
AcDbLine
 10
-36.462544
 20
168.111921
 30
0.0
 11
-28.982544
 21
168.111921
 31
0.0
  0
LINE
  5
483
100
AcDbEntity
  8
0
370
    -3
  6
Continuous
100
AcDbLine
 10
-28.982544
 20
171.611921
 30
0.0
 11
-28.982544
 21
130.611921
 31
0.0
  0
LINE
  5
484
100
AcDbEntity
  8
0
370
    -3
  6
Continuous
100
AcDbLine
 10
-28.982544
 20
130.611921
 30
0.0
 11
-24.482544
 21
130.611921
 31
0.0
  0
LINE
  5
485
100
AcDbEntity
  8
0
370
    -3
  6
Continuous
100
AcDbLine
 10
-28.982544
 20
171.611921
 30
0.0
 11
-24.482544
 21
171.611921
 31
0.0
  0
ARC
  5
486
100
AcDbEntity
  8
0
370
    -3
  6
Continuous
100
AcDbCircle
 10
-23.482544
 20
170.611921
 30
0.0
 40
1.0
100
AcDbArc
 50
90.0
 51
180.0
  0
LINE
  5
487
100
AcDbEntity
  8
0
370
    -3
  6
Continuous
100
AcDbLine
 10
-26.482544
 20
173.367259
 30
0.0
 11
-26.482544
 21
171.611921
 31
0.0
  0
LINE
  5
488
100
AcDbEntity
  8
0
370
    -3
  6
Continuous
100
AcDbLine
 10
-12.482544
 20
171.611921
 30
0.0
 11
-23.482544
 21
171.611921
 31
0.0
  0
LINE
  5
489
100
AcDbEntity
  8
0
370
    -3
  6
Continuous
100
AcDbLine
 10
-12.482544
 20
130.611921
 30
0.0
 11
-12.482544
 21
171.611921
 31
0.0
  0
LINE
  5
48A
100
AcDbEntity
  8
0
370
    -3
  6
Continuous
100
AcDbLine
 10
-24.482544
 20
171.611921
 30
0.0
 11
-24.482544
 21
130.611921
 31
0.0
  0
LINE
  5
48B
100
AcDbEntity
  8
0
370
    -3
  6
Continuous
100
AcDbLine
 10
-23.482544
 20
130.611921
 30
0.0
 11
-12.482544
 21
130.611921
 31
0.0
  0
ARC
  5
48C
100
AcDbEntity
  8
0
370
    -3
  6
Continuous
100
AcDbCircle
 10
-23.482544
 20
131.611921
 30
0.0
 40
1.0
100
AcDbArc
 50
180.0
 51
270.0
  0
CIRCLE
  5
48D
100
AcDbEntity
  8
0
370
    -3
  6
Continuous
100
AcDbCircle
 10
159.517441
 20
-108.582778
 30
0.0
 40
57.5
  0
LINE
  5
48E
100
AcDbEntity
  8
0
370
    -3
  6
DASHED
100
AcDbLine
 10
714.017604
 20
-227.582778
 30
0.0
 11
714.017604
 21
-201.582778
 31
0.0
  0
LINE
  5
48F
100
AcDbEntity
  8
0
370
    -3
  6
DASHED
100
AcDbLine
 10
714.017604
 20
-227.582778
 30
0.0
 11
735.017604
 21
-227.582778
 31
0.0
  0
LINE
  5
490
100
AcDbEntity
  8
0
370
    -3
  6
DASHED
100
AcDbLine
 10
714.017604
 20
-201.582778
 30
0.0
 11
735.017604
 21
-201.582778
 31
0.0
  0
LINE
  5
491
100
AcDbEntity
  8
0
370
    -3
  6
DASHED
100
AcDbLine
 10
616.017604
 20
-227.582778
 30
0.0
 11
616.017604
 21
-201.582778
 31
0.0
  0
LINE
  5
492
100
AcDbEntity
  8
0
370
    -3
  6
DASHED
100
AcDbLine
 10
616.017604
 20
-201.582778
 30
0.0
 11
595.017604
 21
-201.582778
 31
0.0
  0
LINE
  5
493
100
AcDbEntity
  8
0
370
    -3
  6
DASHED
100
AcDbLine
 10
616.017604
 20
-227.582778
 30
0.0
 11
595.017604
 21
-227.582778
 31
0.0
  0
LINE
  5
494
100
AcDbEntity
  8
0
370
    -3
  6
DASHED
100
AcDbLine
 10
714.017604
 20
-205.582778
 30
0.0
 11
616.017604
 21
-205.582778
 31
0.0
  0
LINE
  5
495
100
AcDbEntity
  8
0
370
    -3
  6
DASHED
100
AcDbLine
 10
714.017604
 20
-223.582778
 30
0.0
 11
616.017604
 21
-223.582778
 31
0.0
  0
LINE
  5
496
100
AcDbEntity
  8
0
370
    -3
  6
DASHED
100
AcDbLine
 10
714.017604
 20
-52.582778
 30
0.0
 11
714.017604
 21
-26.582778
 31
0.0
  0
LINE
  5
497
100
AcDbEntity
  8
0
370
    -3
  6
DASHED
100
AcDbLine
 10
714.017604
 20
-52.582778
 30
0.0
 11
735.017604
 21
-52.582778
 31
0.0
  0
LINE
  5
498
100
AcDbEntity
  8
0
370
    -3
  6
DASHED
100
AcDbLine
 10
714.017604
 20
-26.582778
 30
0.0
 11
735.017604
 21
-26.582778
 31
0.0
  0
LINE
  5
499
100
AcDbEntity
  8
0
370
    -3
  6
DASHED
100
AcDbLine
 10
616.017604
 20
-52.582778
 30
0.0
 11
616.017604
 21
-26.582778
 31
0.0
  0
LINE
  5
49A
100
AcDbEntity
  8
0
370
    -3
  6
DASHED
100
AcDbLine
 10
616.017604
 20
-26.582778
 30
0.0
 11
595.017604
 21
-26.582778
 31
0.0
  0
LINE
  5
49B
100
AcDbEntity
  8
0
370
    -3
  6
DASHED
100
AcDbLine
 10
616.017604
 20
-52.582778
 30
0.0
 11
595.017604
 21
-52.582778
 31
0.0
  0
LINE
  5
49C
100
AcDbEntity
  8
0
370
    -3
  6
DASHED
100
AcDbLine
 10
714.017604
 20
-30.582778
 30
0.0
 11
616.017604
 21
-30.582778
 31
0.0
  0
LINE
  5
49D
100
AcDbEntity
  8
0
370
    -3
  6
DASHED
100
AcDbLine
 10
714.017604
 20
-48.582778
 30
0.0
 11
616.017604
 21
-48.582778
 31
0.0
  0
LINE
  5
49E
100
AcDbEntity
  8
0
370
    -3
  6
CENTER
100
AcDbLine
 10
44.017441
 20
-214.582778
 30
0.0
 11
13.017441
 21
-214.582778
 31
0.0
  0
LINE
  5
49F
100
AcDbEntity
  8
0
370
    -3
  6
CENTER
100
AcDbLine
 10
28.517441
 20
-199.082778
 30
0.0
 11
28.517441
 21
-230.082778
 31
0.0
  0
CIRCLE
  5
4A0
100
AcDbEntity
  8
0
370
    -3
  6
Continuous
100
AcDbCircle
 10
28.517441
 20
-214.582778
 30
0.0
 40
13.0
  0
CIRCLE
  5
4A1
100
AcDbEntity
  8
0
370
    -3
  6
Continuous
100
AcDbCircle
 10
28.517441
 20
-214.582778
 30
0.0
 40
9.0
  0
LINE
  5
4A2
100
AcDbEntity
  8
0
370
    -3
  6
CENTER
100
AcDbLine
 10
228.517441
 20
-199.082778
 30
0.0
 11
228.517441
 21
-230.082778
 31
0.0
  0
LINE
  5
4A3
100
AcDbEntity
  8
0
370
    -3
  6
CENTER
100
AcDbLine
 10
244.017441
 20
-214.582778
 30
0.0
 11
213.017441
 21
-214.582778
 31
0.0
  0
CIRCLE
  5
4A4
100
AcDbEntity
  8
0
370
    -3
  6
Continuous
100
AcDbCircle
 10
228.517441
 20
-214.582778
 30
0.0
 40
13.0
  0
CIRCLE
  5
4A5
100
AcDbEntity
  8
0
370
    -3
  6
Continuous
100
AcDbCircle
 10
228.517441
 20
-214.582778
 30
0.0
 40
9.0
  0
LINE
  5
4A6
100
AcDbEntity
  8
0
370
    -3
  6
CENTER
100
AcDbLine
 10
228.517441
 20
-24.082778
 30
0.0
 11
228.517441
 21
-55.082778
 31
0.0
  0
LINE
  5
4A7
100
AcDbEntity
  8
0
370
    -3
  6
CENTER
100
AcDbLine
 10
244.017441
 20
-39.582778
 30
0.0
 11
213.017441
 21
-39.582778
 31
0.0
  0
CIRCLE
  5
4A8
100
AcDbEntity
  8
0
370
    -3
  6
Continuous
100
AcDbCircle
 10
228.517441
 20
-39.582778
 30
0.0
 40
13.0
  0
CIRCLE
  5
4A9
100
AcDbEntity
  8
0
370
    -3
  6
Continuous
100
AcDbCircle
 10
228.517441
 20
-39.582778
 30
0.0
 40
9.0
  0
LINE
  5
4AA
100
AcDbEntity
  8
0
370
    -3
  6
CENTER
100
AcDbLine
 10
28.517441
 20
-24.082778
 30
0.0
 11
28.517441
 21
-55.082778
 31
0.0
  0
LINE
  5
4AB
100
AcDbEntity
  8
0
370
    -3
  6
CENTER
100
AcDbLine
 10
44.017441
 20
-39.582778
 30
0.0
 11
13.017441
 21
-39.582778
 31
0.0
  0
CIRCLE
  5
4AC
100
AcDbEntity
  8
0
370
    -3
  6
Continuous
100
AcDbCircle
 10
28.517441
 20
-39.582778
 30
0.0
 40
13.0
  0
CIRCLE
  5
4AD
100
AcDbEntity
  8
0
370
    -3
  6
Continuous
100
AcDbCircle
 10
28.517441
 20
-39.582778
 30
0.0
 40
9.0
  0
LINE
  5
4AE
100
AcDbEntity
  8
0
370
    -3
  6
Continuous
100
AcDbLine
 10
-434.651389
 20
-81.756956
 30
0.0
 11
-436.830135
 21
-83.935702
 31
0.0
  0
ARC
  5
4AF
100
AcDbEntity
  8
0
370
    -3
  6
Continuous
100
AcDbCircle
 10
-429.195503
 20
-91.570334
 30
0.0
 40
10.797
100
AcDbArc
 50
135.0
 51
175.470055
  0
ARC
  5
4B0
100
AcDbEntity
  8
0
370
    -3
  6
Continuous
100
AcDbCircle
 10
-50.38255
 20
-121.582778
 30
0.0
 40
390.797
100
AcDbArc
 50
175.470807
 51
180.0
  0
ARC
  5
4B1
100
AcDbEntity
  8
0
370
    -3
  6
Continuous
100
AcDbCircle
 10
-431.807111
 20
-118.082778
 30
0.0
 40
1.0
100
AcDbArc
 50
270.0
 51
354.26083
  0
ARC
  5
4B2
100
AcDbEntity
  8
0
370
    -3
  6
Continuous
100
AcDbCircle
 10
-434.821023
 20
-118.082778
 30
0.0
 40
1.0
100
AcDbArc
 50
174.715267
 51
270.0
  0
ARC
  5
4B3
100
AcDbEntity
  8
0
370
    -3
  6
Continuous
100
AcDbCircle
 10
-426.274187
 20
-118.082778
 30
0.0
 40
1.0
100
AcDbArc
 50
173.186146
 51
270.0
  0
LINE
  5
4B4
100
AcDbEntity
  8
0
370
    -3
  6
Continuous
100
AcDbLine
 10
-434.821023
 20
-119.082778
 30
0.0
 11
-431.807111
 21
-119.082778
 31
0.0
  0
ARC
  5
4B5
100
AcDbEntity
  8
0
370
    -3
  6
Continuous
100
AcDbCircle
 10
-412.874622
 20
-103.533724
 30
0.0
 40
30.797
100
AcDbArc
 50
92.530124
 51
135.0
  0
ARC
  5
4B6
100
AcDbEntity
  8
0
370
    -3
  6
Continuous
100
AcDbCircle
 10
-402.779683
 20
-104.541849
 30
0.0
 40
1.0
100
AcDbArc
 50
210.0
 51
288.787729
  0
LINE
  5
4B7
100
AcDbEntity
  8
0
370
    -3
  6
Continuous
100
AcDbLine
 10
-405.170626
 20
-102.400614
 30
0.0
 11
-403.645709
 21
-105.041849
 31
0.0
  0
ARC
  5
4B8
100
AcDbEntity
  8
0
370
    -3
  6
Continuous
100
AcDbCircle
 10
-404.304601
 20
-101.900614
 30
0.0
 40
1.0
100
AcDbArc
 50
110.405932
 51
210.0
  0
ARC
  5
4B9
100
AcDbEntity
  8
0
370
    -3
  6
Continuous
100
AcDbCircle
 10
-407.085387
 20
-97.084151
 30
0.0
 40
1.0
100
AcDbArc
 50
210.0
 51
292.410458
  0
ARC
  5
4BA
100
AcDbEntity
  8
0
370
    -3
  6
Continuous
100
AcDbCircle
 10
-411.363742
 20
-89.673824
 30
0.0
 40
1.0
100
AcDbArc
 50
210.0
 51
294.26083
  0
LINE
  5
4BB
100
AcDbEntity
  8
0
370
    -3
  6
Continuous
100
AcDbLine
 10
-409.463305
 20
-94.965476
 30
0.0
 11
-407.951412
 21
-97.584151
 31
0.0
  0
ARC
  5
4BC
100
AcDbEntity
  8
0
370
    -3
  6
Continuous
100
AcDbCircle
 10
-408.59728
 20
-94.465476
 30
0.0
 40
1.0
100
AcDbArc
 50
113.186146
 51
210.0
  0
LINE
  5
4BD
100
AcDbEntity
  8
0
370
    -3
  6
Continuous
100
AcDbLine
 10
-413.736723
 20
-87.563699
 30
0.0
 11
-412.229767
 21
-90.173824
 31
0.0
  0
ARC
  5
4BE
100
AcDbEntity
  8
0
370
    -3
  6
Continuous
100
AcDbCircle
 10
-412.870698
 20
-87.063699
 30
0.0
 40
1.0
100
AcDbArc
 50
114.715267
 51
210.0
  0
ARC
  5
4BF
100
AcDbEntity
  8
0
370
    -3
  6
Continuous
100
AcDbCircle
 10
-418.932875
 20
-90.563699
 30
0.0
 40
1.0
100
AcDbArc
 50
30.0
 51
125.284733
  0
ARC
  5
4C0
100
AcDbEntity
  8
0
370
    -3
  6
Continuous
100
AcDbCircle
 10
-417.425919
 20
-93.173824
 30
0.0
 40
1.0
100
AcDbArc
 50
305.73917
 51
30.0
  0
ARC
  5
4C1
100
AcDbEntity
  8
0
370
    -3
  6
Continuous
100
AcDbCircle
 10
-423.250401
 20
-118.082778
 30
0.0
 40
1.0
100
AcDbArc
 50
270.0
 51
352.410458
  0
ARC
  5
4C2
100
AcDbEntity
  8
0
370
    -3
  6
Continuous
100
AcDbCircle
 10
-414.659458
 20
-97.965476
 30
0.0
 40
1.0
100
AcDbArc
 50
30.0
 51
126.813854
  0
ARC
  5
4C3
100
AcDbEntity
  8
0
370
    -3
  6
Continuous
100
AcDbCircle
 10
-413.147565
 20
-100.584151
 30
0.0
 40
1.0
100
AcDbArc
 50
307.589542
 51
30.0
  0
ARC
  5
4C4
100
AcDbEntity
  8
0
370
    -3
  6
Continuous
100
AcDbCircle
 10
-417.68883
 20
-118.082778
 30
0.0
 40
1.0
100
AcDbArc
 50
170.405932
 51
270.0
  0
ARC
  5
4C5
100
AcDbEntity
  8
0
370
    -3
  6
Continuous
100
AcDbCircle
 10
-414.638994
 20
-118.082778
 30
0.0
 40
1.0
100
AcDbArc
 50
270.0
 51
348.787729
  0
ARC
  5
4C6
100
AcDbEntity
  8
0
370
    -3
  6
Continuous
100
AcDbCircle
 10
-410.366779
 20
-105.400614
 30
0.0
 40
1.0
100
AcDbArc
 50
30.0
 51
129.594068
  0
ARC
  5
4C7
100
AcDbEntity
  8
0
370
    -3
  6
Continuous
100
AcDbCircle
 10
-408.841861
 20
-108.041849
 30
0.0
 40
1.0
100
AcDbArc
 50
311.212271
 51
30.0
  0
ARC
  5
4C8
100
AcDbEntity
  8
0
370
    -3
  6
Continuous
100
AcDbCircle
 10
-406.013639
 20
-112.940473
 30
0.0
 40
1.0
100
AcDbArc
 50
30.0
 51
136.260205
  0
ARC
  5
4C9
100
AcDbEntity
  8
0
370
    -3
  6
Continuous
100
AcDbCircle
 10
-408.98255
 20
-118.082778
 30
0.0
 40
1.0
100
AcDbArc
 50
163.739795
 51
270.0
  0
ARC
  5
4CA
100
AcDbEntity
  8
0
370
    -3
  6
Continuous
100
AcDbCircle
 10
-405.814311
 20
-118.082778
 30
0.0
 40
1.0
100
AcDbArc
 50
270.0
 51
338.381728
  0
ARC
  5
4CB
100
AcDbEntity
  8
0
370
    -3
  6
Continuous
100
AcDbCircle
 10
-404.42952
 20
-115.684248
 30
0.0
 40
1.0
100
AcDbArc
 50
321.618272
 51
30.0
  0
ARC
  5
4CC
100
AcDbEntity
  8
0
370
    -3
  6
Continuous
100
AcDbCircle
 10
-396.98255
 20
-121.582778
 30
0.0
 40
39.0
100
AcDbArc
 50
125.284733
 51
174.715267
  0
ARC
  5
4CD
100
AcDbEntity
  8
0
370
    -3
  6
Continuous
100
AcDbCircle
 10
-396.98255
 20
-121.582778
 30
0.0
 40
30.5
100
AcDbArc
 50
126.813854
 51
173.186146
  0
ARC
  5
4CE
100
AcDbEntity
  8
0
370
    -3
  6
Continuous
100
AcDbCircle
 10
-396.98255
 20
-121.582778
 30
0.0
 40
34.0
100
AcDbArc
 50
125.73917
 51
174.26083
  0
ARC
  5
4CF
100
AcDbEntity
  8
0
370
    -3
  6
Continuous
100
AcDbCircle
 10
-396.98255
 20
-121.582778
 30
0.0
 40
25.5
100
AcDbArc
 50
127.589542
 51
172.410458
  0
ARC
  5
4D0
100
AcDbEntity
  8
0
370
    -3
  6
Continuous
100
AcDbCircle
 10
-396.98255
 20
-121.582778
 30
0.0
 40
22.0
100
AcDbArc
 50
129.594068
 51
170.405932
  0
ARC
  5
4D1
100
AcDbEntity
  8
0
370
    -3
  6
Continuous
100
AcDbCircle
 10
-396.98255
 20
-121.582778
 30
0.0
 40
17.0
100
AcDbArc
 50
131.212271
 51
168.787729
  0
ARC
  5
4D2
100
AcDbEntity
  8
0
370
    -3
  6
Continuous
100
AcDbCircle
 10
-396.98255
 20
-121.582778
 30
0.0
 40
13.5
100
AcDbArc
 50
136.260205
 51
163.739795
  0
ARC
  5
4D3
100
AcDbEntity
  8
0
370
    -3
  6
Continuous
100
AcDbCircle
 10
-396.98255
 20
-121.582778
 30
0.0
 40
8.5
100
AcDbArc
 50
141.618272
 51
158.381728
  0
LINE
  5
4D4
100
AcDbEntity
  8
0
370
    -3
  6
Continuous
100
AcDbLine
 10
-413.793432
 20
-97.465476
 30
0.0
 11
-412.281539
 21
-100.084151
 31
0.0
  0
LINE
  5
4D5
100
AcDbEntity
  8
0
370
    -3
  6
Continuous
100
AcDbLine
 10
-418.06685
 20
-90.063699
 30
0.0
 11
-416.559894
 21
-92.673824
 31
0.0
  0
LINE
  5
4D6
100
AcDbEntity
  8
0
370
    -3
  6
Continuous
100
AcDbLine
 10
-409.500753
 20
-104.900614
 30
0.0
 11
-407.975836
 21
-107.541849
 31
0.0
  0
LINE
  5
4D7
100
AcDbEntity
  8
0
370
    -3
  6
Continuous
100
AcDbLine
 10
-405.147614
 20
-112.440473
 30
0.0
 11
-403.563494
 21
-115.184248
 31
0.0
  0
LINE
  5
4D8
100
AcDbEntity
  8
0
370
    -3
  6
Continuous
100
AcDbLine
 10
-408.98255
 20
-119.082778
 30
0.0
 11
-405.814311
 21
-119.082778
 31
0.0
  0
LINE
  5
4D9
100
AcDbEntity
  8
0
370
    -3
  6
Continuous
100
AcDbLine
 10
-417.68883
 20
-119.082778
 30
0.0
 11
-414.638994
 21
-119.082778
 31
0.0
  0
LINE
  5
4DA
100
AcDbEntity
  8
0
370
    -3
  6
Continuous
100
AcDbLine
 10
-426.274187
 20
-119.082778
 30
0.0
 11
-423.250401
 21
-119.082778
 31
0.0
  0
ARC
  5
4DB
100
AcDbEntity
  8
0
370
    -3
  6
Continuous
100
AcDbCircle
 10
-381.090479
 20
-103.533724
 30
0.0
 40
30.797
100
AcDbArc
 50
45.0
 51
87.469876
  0
ARC
  5
4DC
100
AcDbEntity
  8
0
370
    -3
  6
Continuous
100
AcDbCircle
 10
-396.98255
 20
-463.182778
 30
0.0
 40
390.797
100
AcDbArc
 50
87.470639
 51
90.0
  0
ARC
  5
4DD
100
AcDbEntity
  8
0
370
    -3
  6
Continuous
100
AcDbCircle
 10
-396.98255
 20
-463.182778
 30
0.0
 40
390.797
100
AcDbArc
 50
90.0
 51
92.529361
  0
ARC
  5
4DE
100
AcDbEntity
  8
0
370
    -3
  6
Continuous
100
AcDbCircle
 10
-398.367342
 20
-112.184248
 30
0.0
 40
1.0
100
AcDbArc
 50
210.0
 51
278.381728
  0
ARC
  5
4DF
100
AcDbEntity
  8
0
370
    -3
  6
Continuous
100
AcDbCircle
 10
-396.98255
 20
-121.582778
 30
0.0
 40
8.5
100
AcDbArc
 50
81.618272
 51
98.381728
  0
LINE
  5
4E0
100
AcDbEntity
  8
0
370
    -3
  6
Continuous
100
AcDbLine
 10
-400.817487
 20
-109.940473
 30
0.0
 11
-399.233367
 21
-112.684248
 31
0.0
  0
ARC
  5
4E1
100
AcDbEntity
  8
0
370
    -3
  6
Continuous
100
AcDbCircle
 10
-399.951461
 20
-109.440473
 30
0.0
 40
1.0
100
AcDbArc
 50
103.739795
 51
210.0
  0
ARC
  5
4E2
100
AcDbEntity
  8
0
370
    -3
  6
Continuous
100
AcDbCircle
 10
-743.58255
 20
-121.582778
 30
0.0
 40
390.797
100
AcDbArc
 50
0.0
 51
4.529193
  0
ARC
  5
4E3
100
AcDbEntity
  8
0
370
    -3
  6
Continuous
100
AcDbCircle
 10
-364.769597
 20
-91.570334
 30
0.0
 40
10.797
100
AcDbArc
 50
4.529945
 51
45.0
  0
LINE
  5
4E4
100
AcDbEntity
  8
0
370
    -3
  6
Continuous
100
AcDbLine
 10
-359.313711
 20
-81.756956
 30
0.0
 11
-357.134966
 21
-83.935702
 31
0.0
  0
ARC
  5
4E5
100
AcDbEntity
  8
0
370
    -3
  6
Continuous
100
AcDbCircle
 10
-379.326107
 20
-118.082778
 30
0.0
 40
1.0
100
AcDbArc
 50
191.212271
 51
270.0
  0
LINE
  5
4E6
100
AcDbEntity
  8
0
370
    -3
  6
Continuous
100
AcDbLine
 10
-376.276271
 20
-119.082778
 30
0.0
 11
-379.326107
 21
-119.082778
 31
0.0
  0
ARC
  5
4E7
100
AcDbEntity
  8
0
370
    -3
  6
Continuous
100
AcDbCircle
 10
-376.276271
 20
-118.082778
 30
0.0
 40
1.0
100
AcDbArc
 50
270.0
 51
9.594068
  0
ARC
  5
4E8
100
AcDbEntity
  8
0
370
    -3
  6
Continuous
100
AcDbCircle
 10
-370.714699
 20
-118.082778
 30
0.0
 40
1.0
100
AcDbArc
 50
187.589542
 51
270.0
  0
LINE
  5
4E9
100
AcDbEntity
  8
0
370
    -3
  6
Continuous
100
AcDbLine
 10
-367.690913
 20
-119.082778
 30
0.0
 11
-370.714699
 21
-119.082778
 31
0.0
  0
ARC
  5
4EA
100
AcDbEntity
  8
0
370
    -3
  6
Continuous
100
AcDbCircle
 10
-367.690913
 20
-118.082778
 30
0.0
 40
1.0
100
AcDbArc
 50
270.0
 51
6.813854
  0
ARC
  5
4EB
100
AcDbEntity
  8
0
370
    -3
  6
Continuous
100
AcDbCircle
 10
-362.15799
 20
-118.082778
 30
0.0
 40
1.0
100
AcDbArc
 50
185.73917
 51
270.0
  0
LINE
  5
4EC
100
AcDbEntity
  8
0
370
    -3
  6
Continuous
100
AcDbLine
 10
-359.144078
 20
-119.082778
 30
0.0
 11
-362.15799
 21
-119.082778
 31
0.0
  0
ARC
  5
4ED
100
AcDbEntity
  8
0
370
    -3
  6
Continuous
100
AcDbCircle
 10
-359.144078
 20
-118.082778
 30
0.0
 40
1.0
100
AcDbArc
 50
270.0
 51
5.284733
  0
ARC
  5
4EE
100
AcDbEntity
  8
0
370
    -3
  6
Continuous
100
AcDbCircle
 10
-379.305643
 20
-97.965476
 30
0.0
 40
1.0
100
AcDbArc
 50
53.186146
 51
150.0
  0
LINE
  5
4EF
100
AcDbEntity
  8
0
370
    -3
  6
Continuous
100
AcDbLine
 10
-380.171668
 20
-97.465476
 30
0.0
 11
-381.683561
 21
-100.084151
 31
0.0
  0
ARC
  5
4F0
100
AcDbEntity
  8
0
370
    -3
  6
Continuous
100
AcDbCircle
 10
-380.817536
 20
-100.584151
 30
0.0
 40
1.0
100
AcDbArc
 50
150.0
 51
232.410458
  0
ARC
  5
4F1
100
AcDbEntity
  8
0
370
    -3
  6
Continuous
100
AcDbCircle
 10
-375.032225
 20
-90.563699
 30
0.0
 40
1.0
100
AcDbArc
 50
54.715267
 51
150.0
  0
LINE
  5
4F2
100
AcDbEntity
  8
0
370
    -3
  6
Continuous
100
AcDbLine
 10
-375.898251
 20
-90.063699
 30
0.0
 11
-377.405207
 21
-92.673824
 31
0.0
  0
ARC
  5
4F3
100
AcDbEntity
  8
0
370
    -3
  6
Continuous
100
AcDbCircle
 10
-376.539181
 20
-93.173824
 30
0.0
 40
1.0
100
AcDbArc
 50
150.0
 51
234.26083
  0
ARC
  5
4F4
100
AcDbEntity
  8
0
370
    -3
  6
Continuous
100
AcDbCircle
 10
-389.535581
 20
-115.684248
 30
0.0
 40
1.0
100
AcDbArc
 50
150.0
 51
218.381728
  0
LINE
  5
4F5
100
AcDbEntity
  8
0
370
    -3
  6
Continuous
100
AcDbLine
 10
-388.817487
 20
-112.440473
 30
0.0
 11
-390.401606
 21
-115.184248
 31
0.0
  0
ARC
  5
4F6
100
AcDbEntity
  8
0
370
    -3
  6
Continuous
100
AcDbCircle
 10
-385.12324
 20
-108.041849
 30
0.0
 40
1.0
100
AcDbArc
 50
150.0
 51
228.787729
  0
LINE
  5
4F7
100
AcDbEntity
  8
0
370
    -3
  6
Continuous
100
AcDbLine
 10
-384.464347
 20
-104.900614
 30
0.0
 11
-385.989265
 21
-107.541849
 31
0.0
  0
ARC
  5
4F8
100
AcDbEntity
  8
0
370
    -3
  6
Continuous
100
AcDbCircle
 10
-383.598322
 20
-105.400614
 30
0.0
 40
1.0
100
AcDbArc
 50
50.405932
 51
150.0
  0
ARC
  5
4F9
100
AcDbEntity
  8
0
370
    -3
  6
Continuous
100
AcDbCircle
 10
-388.150789
 20
-118.082778
 30
0.0
 40
1.0
100
AcDbArc
 50
201.618272
 51
270.0
  0
ARC
  5
4FA
100
AcDbEntity
  8
0
370
    -3
  6
Continuous
100
AcDbCircle
 10
-396.98255
 20
-121.582778
 30
0.0
 40
8.5
100
AcDbArc
 50
21.618272
 51
38.381728
  0
ARC
  5
4FB
100
AcDbEntity
  8
0
370
    -3
  6
Continuous
100
AcDbCircle
 10
-387.951461
 20
-112.940473
 30
0.0
 40
1.0
100
AcDbArc
 50
43.739795
 51
150.0
  0
LINE
  5
4FC
100
AcDbEntity
  8
0
370
    -3
  6
Continuous
100
AcDbLine
 10
-384.98255
 20
-119.082778
 30
0.0
 11
-388.150789
 21
-119.082778
 31
0.0
  0
ARC
  5
4FD
100
AcDbEntity
  8
0
370
    -3
  6
Continuous
100
AcDbCircle
 10
-384.98255
 20
-118.082778
 30
0.0
 40
1.0
100
AcDbArc
 50
270.0
 51
16.260205
  0
ARC
  5
4FE
100
AcDbEntity
  8
0
370
    -3
  6
Continuous
100
AcDbCircle
 10
-396.98255
 20
-121.582778
 30
0.0
 40
13.5
100
AcDbArc
 50
16.260205
 51
43.739795
  0
ARC
  5
4FF
100
AcDbEntity
  8
0
370
    -3
  6
Continuous
100
AcDbCircle
 10
-396.98255
 20
-121.582778
 30
0.0
 40
17.0
100
AcDbArc
 50
11.212271
 51
48.787729
  0
ARC
  5
500
100
AcDbEntity
  8
0
370
    -3
  6
Continuous
100
AcDbCircle
 10
-396.98255
 20
-121.582778
 30
0.0
 40
22.0
100
AcDbArc
 50
9.594068
 51
50.405932
  0
ARC
  5
501
100
AcDbEntity
  8
0
370
    -3
  6
Continuous
100
AcDbCircle
 10
-396.98255
 20
-121.582778
 30
0.0
 40
30.5
100
AcDbArc
 50
6.813854
 51
53.186146
  0
ARC
  5
502
100
AcDbEntity
  8
0
370
    -3
  6
Continuous
100
AcDbCircle
 10
-396.98255
 20
-121.582778
 30
0.0
 40
25.5
100
AcDbArc
 50
7.589542
 51
52.410458
  0
ARC
  5
503
100
AcDbEntity
  8
0
370
    -3
  6
Continuous
100
AcDbCircle
 10
-396.98255
 20
-121.582778
 30
0.0
 40
34.0
100
AcDbArc
 50
5.73917
 51
54.26083
  0
ARC
  5
504
100
AcDbEntity
  8
0
370
    -3
  6
Continuous
100
AcDbCircle
 10
-396.98255
 20
-121.582778
 30
0.0
 40
39.0
100
AcDbArc
 50
5.284733
 51
54.715267
  0
ARC
  5
505
100
AcDbEntity
  8
0
370
    -3
  6
Continuous
100
AcDbCircle
 10
-385.367821
 20
-94.465476
 30
0.0
 40
1.0
100
AcDbArc
 50
330.0
 51
66.813854
  0
LINE
  5
506
100
AcDbEntity
  8
0
370
    -3
  6
Continuous
100
AcDbLine
 10
-384.501795
 20
-94.965476
 30
0.0
 11
-386.013688
 21
-97.584151
 31
0.0
  0
ARC
  5
507
100
AcDbEntity
  8
0
370
    -3
  6
Continuous
100
AcDbCircle
 10
-386.879714
 20
-97.084151
 30
0.0
 40
1.0
100
AcDbArc
 50
247.589542
 51
330.0
  0
ARC
  5
508
100
AcDbEntity
  8
0
370
    -3
  6
Continuous
100
AcDbCircle
 10
-381.094403
 20
-87.063699
 30
0.0
 40
1.0
100
AcDbArc
 50
330.0
 51
65.284733
  0
LINE
  5
509
100
AcDbEntity
  8
0
370
    -3
  6
Continuous
100
AcDbLine
 10
-380.228378
 20
-87.563699
 30
0.0
 11
-381.735334
 21
-90.173824
 31
0.0
  0
ARC
  5
50A
100
AcDbEntity
  8
0
370
    -3
  6
Continuous
100
AcDbCircle
 10
-382.601359
 20
-89.673824
 30
0.0
 40
1.0
100
AcDbArc
 50
245.73917
 51
330.0
  0
ARC
  5
50B
100
AcDbEntity
  8
0
370
    -3
  6
Continuous
100
AcDbCircle
 10
-395.597759
 20
-112.184248
 30
0.0
 40
1.0
100
AcDbArc
 50
261.618272
 51
330.0
  0
LINE
  5
50C
100
AcDbEntity
  8
0
370
    -3
  6
Continuous
100
AcDbLine
 10
-393.147614
 20
-109.940473
 30
0.0
 11
-394.731733
 21
-112.684248
 31
0.0
  0
ARC
  5
50D
100
AcDbEntity
  8
0
370
    -3
  6
Continuous
100
AcDbCircle
 10
-391.185417
 20
-104.541849
 30
0.0
 40
1.0
100
AcDbArc
 50
251.212271
 51
330.0
  0
LINE
  5
50E
100
AcDbEntity
  8
0
370
    -3
  6
Continuous
100
AcDbLine
 10
-388.794474
 20
-102.400614
 30
0.0
 11
-390.319392
 21
-105.041849
 31
0.0
  0
ARC
  5
50F
100
AcDbEntity
  8
0
370
    -3
  6
Continuous
100
AcDbCircle
 10
-389.6605
 20
-101.900614
 30
0.0
 40
1.0
100
AcDbArc
 50
330.0
 51
69.594068
  0
ARC
  5
510
100
AcDbEntity
  8
0
370
    -3
  6
Continuous
100
AcDbCircle
 10
-394.013639
 20
-109.440473
 30
0.0
 40
1.0
100
AcDbArc
 50
330.0
 51
76.260205
  0
ARC
  5
511
100
AcDbEntity
  8
0
370
    -3
  6
Continuous
100
AcDbCircle
 10
-396.98255
 20
-121.582778
 30
0.0
 40
13.5
100
AcDbArc
 50
76.260205
 51
103.739795
  0
ARC
  5
512
100
AcDbEntity
  8
0
370
    -3
  6
Continuous
100
AcDbCircle
 10
-396.98255
 20
-121.582778
 30
0.0
 40
17.0
100
AcDbArc
 50
71.212271
 51
108.787729
  0
ARC
  5
513
100
AcDbEntity
  8
0
370
    -3
  6
Continuous
100
AcDbCircle
 10
-396.98255
 20
-121.582778
 30
0.0
 40
22.0
100
AcDbArc
 50
69.594068
 51
110.405932
  0
ARC
  5
514
100
AcDbEntity
  8
0
370
    -3
  6
Continuous
100
AcDbCircle
 10
-396.98255
 20
-121.582778
 30
0.0
 40
30.5
100
AcDbArc
 50
66.813854
 51
113.186146
  0
ARC
  5
515
100
AcDbEntity
  8
0
370
    -3
  6
Continuous
100
AcDbCircle
 10
-396.98255
 20
-121.582778
 30
0.0
 40
25.5
100
AcDbArc
 50
67.589542
 51
112.410458
  0
ARC
  5
516
100
AcDbEntity
  8
0
370
    -3
  6
Continuous
100
AcDbCircle
 10
-396.98255
 20
-121.582778
 30
0.0
 40
34.0
100
AcDbArc
 50
65.73917
 51
114.26083
  0
ARC
  5
517
100
AcDbEntity
  8
0
370
    -3
  6
Continuous
100
AcDbCircle
 10
-396.98255
 20
-121.582778
 30
0.0
 40
39.0
100
AcDbArc
 50
65.284733
 51
114.715267
  0
LINE
  5
518
100
AcDbEntity
  8
0
370
    -3
  6
Continuous
100
AcDbLine
 10
-426.274187
 20
-124.082778
 30
0.0
 11
-423.250401
 21
-124.082778
 31
0.0
  0
LINE
  5
519
100
AcDbEntity
  8
0
370
    -3
  6
Continuous
100
AcDbLine
 10
-417.68883
 20
-124.082778
 30
0.0
 11
-414.638994
 21
-124.082778
 31
0.0
  0
LINE
  5
51A
100
AcDbEntity
  8
0
370
    -3
  6
Continuous
100
AcDbLine
 10
-408.98255
 20
-124.082778
 30
0.0
 11
-405.814311
 21
-124.082778
 31
0.0
  0
LINE
  5
51B
100
AcDbEntity
  8
0
370
    -3
  6
Continuous
100
AcDbLine
 10
-405.147614
 20
-130.725083
 30
0.0
 11
-403.563494
 21
-127.981307
 31
0.0
  0
LINE
  5
51C
100
AcDbEntity
  8
0
370
    -3
  6
Continuous
100
AcDbLine
 10
-409.500753
 20
-138.264942
 30
0.0
 11
-407.975836
 21
-135.623706
 31
0.0
  0
LINE
  5
51D
100
AcDbEntity
  8
0
370
    -3
  6
Continuous
100
AcDbLine
 10
-418.06685
 20
-153.101856
 30
0.0
 11
-416.559894
 21
-150.491732
 31
0.0
  0
ARC
  5
51E
100
AcDbEntity
  8
0
370
    -3
  6
Continuous
100
AcDbCircle
 10
-381.090479
 20
-103.533724
 30
0.0
 40
40.6
100
AcDbArc
 50
45.0
 51
87.469876
  0
LINE
  5
51F
100
AcDbEntity
  8
0
370
    -3
  6
Continuous
100
AcDbLine
 10
-352.381943
 20
-74.825188
 30
0.0
 11
-350.203198
 21
-77.003934
 31
0.0
  0
ARC
  5
520
100
AcDbEntity
  8
0
370
    -3
  6
Continuous
100
AcDbCircle
 10
-364.769597
 20
-91.570334
 30
0.0
 40
20.6
100
AcDbArc
 50
4.529945
 51
45.0
  0
ARC
  5
521
100
AcDbEntity
  8
0
370
    -3
  6
Continuous
100
AcDbCircle
 10
-743.58255
 20
-121.582778
 30
0.0
 40
400.6
100
AcDbArc
 50
0.0
 51
4.529193
  0
ARC
  5
522
100
AcDbEntity
  8
0
370
    -3
  6
Continuous
100
AcDbCircle
 10
-412.874622
 20
-103.533724
 30
0.0
 40
40.6
100
AcDbArc
 50
92.530124
 51
135.0
  0
LINE
  5
523
100
AcDbEntity
  8
0
370
    -3
  6
Continuous
100
AcDbLine
 10
-441.583157
 20
-74.825188
 30
0.0
 11
-443.761903
 21
-77.003934
 31
0.0
  0
ARC
  5
524
100
AcDbEntity
  8
0
370
    -3
  6
Continuous
100
AcDbCircle
 10
-429.195503
 20
-91.570334
 30
0.0
 40
20.6
100
AcDbArc
 50
135.0
 51
175.470055
  0
ARC
  5
525
100
AcDbEntity
  8
0
370
    -3
  6
Continuous
100
AcDbCircle
 10
-50.38255
 20
-121.582778
 30
0.0
 40
400.6
100
AcDbArc
 50
175.470807
 51
180.0
  0
ARC
  5
526
100
AcDbEntity
  8
0
370
    -3
  6
Continuous
100
AcDbCircle
 10
-429.195503
 20
-151.595222
 30
0.0
 40
20.6
100
AcDbArc
 50
184.529945
 51
225.0
  0
ARC
  5
527
100
AcDbEntity
  8
0
370
    -3
  6
Continuous
100
AcDbCircle
 10
-50.38255
 20
-121.582778
 30
0.0
 40
400.6
100
AcDbArc
 50
180.0
 51
184.529193
  0
ARC
  5
528
100
AcDbEntity
  8
0
370
    -3
  6
Continuous
100
AcDbCircle
 10
-364.769597
 20
-151.595222
 30
0.0
 40
20.6
100
AcDbArc
 50
315.0
 51
355.470055
  0
ARC
  5
529
100
AcDbEntity
  8
0
370
    -3
  6
Continuous
100
AcDbCircle
 10
-743.58255
 20
-121.582778
 30
0.0
 40
400.6
100
AcDbArc
 50
355.470807
 51
0.0
  0
LINE
  5
52A
100
AcDbEntity
  8
0
370
    -3
  6
Continuous
100
AcDbLine
 10
-434.821023
 20
-124.082778
 30
0.0
 11
-431.807111
 21
-124.082778
 31
0.0
  0
LINE
  5
52B
100
AcDbEntity
  8
0
370
    -3
  6
Continuous
100
AcDbLine
 10
-413.793432
 20
-145.70008
 30
0.0
 11
-412.281539
 21
-143.081404
 31
0.0
  0
ARC
  5
52C
100
AcDbEntity
  8
0
370
    -3
  6
Continuous
100
AcDbCircle
 10
-396.98255
 20
-121.582778
 30
0.0
 40
8.5
100
AcDbArc
 50
201.618272
 51
218.381728
  0
ARC
  5
52D
100
AcDbEntity
  8
0
370
    -3
  6
Continuous
100
AcDbCircle
 10
-396.98255
 20
-121.582778
 30
0.0
 40
13.5
100
AcDbArc
 50
196.260205
 51
223.739795
  0
ARC
  5
52E
100
AcDbEntity
  8
0
370
    -3
  6
Continuous
100
AcDbCircle
 10
-396.98255
 20
-121.582778
 30
0.0
 40
17.0
100
AcDbArc
 50
191.212271
 51
228.787729
  0
ARC
  5
52F
100
AcDbEntity
  8
0
370
    -3
  6
Continuous
100
AcDbCircle
 10
-396.98255
 20
-121.582778
 30
0.0
 40
22.0
100
AcDbArc
 50
189.594068
 51
230.405932
  0
ARC
  5
530
100
AcDbEntity
  8
0
370
    -3
  6
Continuous
100
AcDbCircle
 10
-396.98255
 20
-121.582778
 30
0.0
 40
25.5
100
AcDbArc
 50
187.589542
 51
232.410458
  0
ARC
  5
531
100
AcDbEntity
  8
0
370
    -3
  6
Continuous
100
AcDbCircle
 10
-396.98255
 20
-121.582778
 30
0.0
 40
34.0
100
AcDbArc
 50
185.73917
 51
234.26083
  0
ARC
  5
532
100
AcDbEntity
  8
0
370
    -3
  6
Continuous
100
AcDbCircle
 10
-396.98255
 20
-121.582778
 30
0.0
 40
30.5
100
AcDbArc
 50
186.813854
 51
233.186146
  0
ARC
  5
533
100
AcDbEntity
  8
0
370
    -3
  6
Continuous
100
AcDbCircle
 10
-396.98255
 20
-121.582778
 30
0.0
 40
39.0
100
AcDbArc
 50
185.284733
 51
234.715267
  0
ARC
  5
534
100
AcDbEntity
  8
0
370
    -3
  6
Continuous
100
AcDbCircle
 10
-404.42952
 20
-127.481307
 30
0.0
 40
1.0
100
AcDbArc
 50
330.0
 51
38.381728
  0
ARC
  5
535
100
AcDbEntity
  8
0
370
    -3
  6
Continuous
100
AcDbCircle
 10
-405.814311
 20
-125.082778
 30
0.0
 40
1.0
100
AcDbArc
 50
21.618272
 51
90.0
  0
ARC
  5
536
100
AcDbEntity
  8
0
370
    -3
  6
Continuous
100
AcDbCircle
 10
-408.98255
 20
-125.082778
 30
0.0
 40
1.0
100
AcDbArc
 50
90.0
 51
196.260205
  0
ARC
  5
537
100
AcDbEntity
  8
0
370
    -3
  6
Continuous
100
AcDbCircle
 10
-406.013639
 20
-130.225083
 30
0.0
 40
1.0
100
AcDbArc
 50
223.739795
 51
330.0
  0
ARC
  5
538
100
AcDbEntity
  8
0
370
    -3
  6
Continuous
100
AcDbCircle
 10
-408.841861
 20
-135.123706
 30
0.0
 40
1.0
100
AcDbArc
 50
330.0
 51
48.787729
  0
ARC
  5
539
100
AcDbEntity
  8
0
370
    -3
  6
Continuous
100
AcDbCircle
 10
-410.366779
 20
-137.764942
 30
0.0
 40
1.0
100
AcDbArc
 50
230.405932
 51
330.0
  0
ARC
  5
53A
100
AcDbEntity
  8
0
370
    -3
  6
Continuous
100
AcDbCircle
 10
-414.638994
 20
-125.082778
 30
0.0
 40
1.0
100
AcDbArc
 50
11.212271
 51
90.0
  0
ARC
  5
53B
100
AcDbEntity
  8
0
370
    -3
  6
Continuous
100
AcDbCircle
 10
-417.68883
 20
-125.082778
 30
0.0
 40
1.0
100
AcDbArc
 50
90.0
 51
189.594068
  0
ARC
  5
53C
100
AcDbEntity
  8
0
370
    -3
  6
Continuous
100
AcDbCircle
 10
-426.274187
 20
-125.082778
 30
0.0
 40
1.0
100
AcDbArc
 50
90.0
 51
186.813854
  0
ARC
  5
53D
100
AcDbEntity
  8
0
370
    -3
  6
Continuous
100
AcDbCircle
 10
-413.147565
 20
-142.581404
 30
0.0
 40
1.0
100
AcDbArc
 50
330.0
 51
52.410458
  0
ARC
  5
53E
100
AcDbEntity
  8
0
370
    -3
  6
Continuous
100
AcDbCircle
 10
-414.659458
 20
-145.20008
 30
0.0
 40
1.0
100
AcDbArc
 50
233.186146
 51
330.0
  0
ARC
  5
53F
100
AcDbEntity
  8
0
370
    -3
  6
Continuous
100
AcDbCircle
 10
-423.250401
 20
-125.082778
 30
0.0
 40
1.0
100
AcDbArc
 50
7.589542
 51
90.0
  0
ARC
  5
540
100
AcDbEntity
  8
0
370
    -3
  6
Continuous
100
AcDbCircle
 10
-434.821023
 20
-125.082778
 30
0.0
 40
1.0
100
AcDbArc
 50
90.0
 51
185.284733
  0
ARC
  5
541
100
AcDbEntity
  8
0
370
    -3
  6
Continuous
100
AcDbCircle
 10
-431.807111
 20
-125.082778
 30
0.0
 40
1.0
100
AcDbArc
 50
5.73917
 51
90.0
  0
ARC
  5
542
100
AcDbEntity
  8
0
370
    -3
  6
Continuous
100
AcDbCircle
 10
-417.425919
 20
-149.991732
 30
0.0
 40
1.0
100
AcDbArc
 50
330.0
 51
54.26083
  0
ARC
  5
543
100
AcDbEntity
  8
0
370
    -3
  6
Continuous
100
AcDbCircle
 10
-418.932875
 20
-152.601856
 30
0.0
 40
1.0
100
AcDbArc
 50
234.715267
 51
330.0
  0
CIRCLE
  5
544
100
AcDbEntity
  8
0
370
    -3
  6
Continuous
100
AcDbCircle
 10
-396.98255
 20
-121.582778
 30
0.0
 40
5.0
  0
ARC
  5
545
100
AcDbEntity
  8
0
370
    -3
  6
Continuous
100
AcDbCircle
 10
-412.870698
 20
-156.101856
 30
0.0
 40
1.0
100
AcDbArc
 50
150.0
 51
245.284733
  0
LINE
  5
546
100
AcDbEntity
  8
0
370
    -3
  6
Continuous
100
AcDbLine
 10
-413.736723
 20
-155.601856
 30
0.0
 11
-412.229767
 21
-152.991732
 31
0.0
  0
ARC
  5
547
100
AcDbEntity
  8
0
370
    -3
  6
Continuous
100
AcDbCircle
 10
-396.98255
 20
-121.582778
 30
0.0
 40
39.0
100
AcDbArc
 50
245.284733
 51
294.715267
  0
ARC
  5
548
100
AcDbEntity
  8
0
370
    -3
  6
Continuous
100
AcDbCircle
 10
-396.98255
 20
-121.582778
 30
0.0
 40
34.0
100
AcDbArc
 50
245.73917
 51
294.26083
  0
ARC
  5
549
100
AcDbEntity
  8
0
370
    -3
  6
Continuous
100
AcDbCircle
 10
-396.98255
 20
-121.582778
 30
0.0
 40
25.5
100
AcDbArc
 50
247.589542
 51
292.410458
  0
ARC
  5
54A
100
AcDbEntity
  8
0
370
    -3
  6
Continuous
100
AcDbCircle
 10
-396.98255
 20
-121.582778
 30
0.0
 40
30.5
100
AcDbArc
 50
246.813854
 51
293.186146
  0
ARC
  5
54B
100
AcDbEntity
  8
0
370
    -3
  6
Continuous
100
AcDbCircle
 10
-408.59728
 20
-148.70008
 30
0.0
 40
1.0
100
AcDbArc
 50
150.0
 51
246.813854
  0
LINE
  5
54C
100
AcDbEntity
  8
0
370
    -3
  6
Continuous
100
AcDbLine
 10
-409.463305
 20
-148.20008
 30
0.0
 11
-407.951412
 21
-145.581404
 31
0.0
  0
ARC
  5
54D
100
AcDbEntity
  8
0
370
    -3
  6
Continuous
100
AcDbCircle
 10
-396.98255
 20
-121.582778
 30
0.0
 40
22.0
100
AcDbArc
 50
249.594068
 51
290.405932
  0
ARC
  5
54E
100
AcDbEntity
  8
0
370
    -3
  6
Continuous
100
AcDbCircle
 10
-411.363742
 20
-153.491732
 30
0.0
 40
1.0
100
AcDbArc
 50
65.73917
 51
150.0
  0
ARC
  5
54F
100
AcDbEntity
  8
0
370
    -3
  6
Continuous
100
AcDbCircle
 10
-407.085387
 20
-146.081404
 30
0.0
 40
1.0
100
AcDbArc
 50
67.589542
 51
150.0
  0
ARC
  5
550
100
AcDbEntity
  8
0
370
    -3
  6
Continuous
100
AcDbCircle
 10
-404.304601
 20
-141.264942
 30
0.0
 40
1.0
100
AcDbArc
 50
150.0
 51
249.594068
  0
ARC
  5
551
100
AcDbEntity
  8
0
370
    -3
  6
Continuous
100
AcDbCircle
 10
-396.98255
 20
-121.582778
 30
0.0
 40
17.0
100
AcDbArc
 50
251.212271
 51
288.787729
  0
LINE
  5
552
100
AcDbEntity
  8
0
370
    -3
  6
Continuous
100
AcDbLine
 10
-405.170626
 20
-140.764942
 30
0.0
 11
-403.645709
 21
-138.123706
 31
0.0
  0
ARC
  5
553
100
AcDbEntity
  8
0
370
    -3
  6
Continuous
100
AcDbCircle
 10
-402.779683
 20
-138.623706
 30
0.0
 40
1.0
100
AcDbArc
 50
71.212271
 51
150.0
  0
ARC
  5
554
100
AcDbEntity
  8
0
370
    -3
  6
Continuous
100
AcDbCircle
 10
-396.98255
 20
-121.582778
 30
0.0
 40
13.5
100
AcDbArc
 50
256.260205
 51
283.739795
  0
ARC
  5
555
100
AcDbEntity
  8
0
370
    -3
  6
Continuous
100
AcDbCircle
 10
-399.951461
 20
-133.725083
 30
0.0
 40
1.0
100
AcDbArc
 50
150.0
 51
256.260205
  0
LINE
  5
556
100
AcDbEntity
  8
0
370
    -3
  6
Continuous
100
AcDbLine
 10
-400.817487
 20
-133.225083
 30
0.0
 11
-399.233367
 21
-130.481307
 31
0.0
  0
ARC
  5
557
100
AcDbEntity
  8
0
370
    -3
  6
Continuous
100
AcDbCircle
 10
-394.013639
 20
-133.725083
 30
0.0
 40
1.0
100
AcDbArc
 50
283.739795
 51
30.0
  0
ARC
  5
558
100
AcDbEntity
  8
0
370
    -3
  6
Continuous
100
AcDbCircle
 10
-396.98255
 20
-121.582778
 30
0.0
 40
8.5
100
AcDbArc
 50
261.618272
 51
278.381728
  0
ARC
  5
559
100
AcDbEntity
  8
0
370
    -3
  6
Continuous
100
AcDbCircle
 10
-398.367342
 20
-130.981307
 30
0.0
 40
1.0
100
AcDbArc
 50
81.618272
 51
150.0
  0
ARC
  5
55A
100
AcDbEntity
  8
0
370
    -3
  6
Continuous
100
AcDbCircle
 10
-389.6605
 20
-141.264942
 30
0.0
 40
1.0
100
AcDbArc
 50
290.405932
 51
30.0
  0
LINE
  5
55B
100
AcDbEntity
  8
0
370
    -3
  6
Continuous
100
AcDbLine
 10
-388.794474
 20
-140.764942
 30
0.0
 11
-390.319392
 21
-138.123706
 31
0.0
  0
ARC
  5
55C
100
AcDbEntity
  8
0
370
    -3
  6
Continuous
100
AcDbCircle
 10
-391.185417
 20
-138.623706
 30
0.0
 40
1.0
100
AcDbArc
 50
30.0
 51
108.787729
  0
LINE
  5
55D
100
AcDbEntity
  8
0
370
    -3
  6
Continuous
100
AcDbLine
 10
-393.147614
 20
-133.225083
 30
0.0
 11
-394.731733
 21
-130.481307
 31
0.0
  0
ARC
  5
55E
100
AcDbEntity
  8
0
370
    -3
  6
Continuous
100
AcDbCircle
 10
-395.597759
 20
-130.981307
 30
0.0
 40
1.0
100
AcDbArc
 50
30.0
 51
98.381728
  0
ARC
  5
55F
100
AcDbEntity
  8
0
370
    -3
  6
Continuous
100
AcDbCircle
 10
-382.601359
 20
-153.491732
 30
0.0
 40
1.0
100
AcDbArc
 50
30.0
 51
114.26083
  0
LINE
  5
560
100
AcDbEntity
  8
0
370
    -3
  6
Continuous
100
AcDbLine
 10
-380.228378
 20
-155.601856
 30
0.0
 11
-381.735334
 21
-152.991732
 31
0.0
  0
ARC
  5
561
100
AcDbEntity
  8
0
370
    -3
  6
Continuous
100
AcDbCircle
 10
-381.094403
 20
-156.101856
 30
0.0
 40
1.0
100
AcDbArc
 50
294.715267
 51
30.0
  0
ARC
  5
562
100
AcDbEntity
  8
0
370
    -3
  6
Continuous
100
AcDbCircle
 10
-386.879714
 20
-146.081404
 30
0.0
 40
1.0
100
AcDbArc
 50
30.0
 51
112.410458
  0
LINE
  5
563
100
AcDbEntity
  8
0
370
    -3
  6
Continuous
100
AcDbLine
 10
-384.501795
 20
-148.20008
 30
0.0
 11
-386.013688
 21
-145.581404
 31
0.0
  0
ARC
  5
564
100
AcDbEntity
  8
0
370
    -3
  6
Continuous
100
AcDbCircle
 10
-385.367821
 20
-148.70008
 30
0.0
 40
1.0
100
AcDbArc
 50
293.186146
 51
30.0
  0
ARC
  5
565
100
AcDbEntity
  8
0
370
    -3
  6
Continuous
100
AcDbCircle
 10
-396.98255
 20
-121.582778
 30
0.0
 40
39.0
100
AcDbArc
 50
305.284733
 51
354.715267
  0
ARC
  5
566
100
AcDbEntity
  8
0
370
    -3
  6
Continuous
100
AcDbCircle
 10
-396.98255
 20
-121.582778
 30
0.0
 40
34.0
100
AcDbArc
 50
305.73917
 51
354.26083
  0
ARC
  5
567
100
AcDbEntity
  8
0
370
    -3
  6
Continuous
100
AcDbCircle
 10
-396.98255
 20
-121.582778
 30
0.0
 40
25.5
100
AcDbArc
 50
307.589542
 51
352.410458
  0
ARC
  5
568
100
AcDbEntity
  8
0
370
    -3
  6
Continuous
100
AcDbCircle
 10
-396.98255
 20
-121.582778
 30
0.0
 40
30.5
100
AcDbArc
 50
306.813854
 51
353.186146
  0
ARC
  5
569
100
AcDbEntity
  8
0
370
    -3
  6
Continuous
100
AcDbCircle
 10
-396.98255
 20
-121.582778
 30
0.0
 40
22.0
100
AcDbArc
 50
309.594068
 51
350.405932
  0
ARC
  5
56A
100
AcDbEntity
  8
0
370
    -3
  6
Continuous
100
AcDbCircle
 10
-396.98255
 20
-121.582778
 30
0.0
 40
17.0
100
AcDbArc
 50
311.212271
 51
348.787729
  0
ARC
  5
56B
100
AcDbEntity
  8
0
370
    -3
  6
Continuous
100
AcDbCircle
 10
-396.98255
 20
-121.582778
 30
0.0
 40
13.5
100
AcDbArc
 50
316.260205
 51
343.739795
  0
ARC
  5
56C
100
AcDbEntity
  8
0
370
    -3
  6
Continuous
100
AcDbCircle
 10
-384.98255
 20
-125.082778
 30
0.0
 40
1.0
100
AcDbArc
 50
343.739795
 51
90.0
  0
LINE
  5
56D
100
AcDbEntity
  8
0
370
    -3
  6
Continuous
100
AcDbLine
 10
-384.98255
 20
-124.082778
 30
0.0
 11
-388.150789
 21
-124.082778
 31
0.0
  0
ARC
  5
56E
100
AcDbEntity
  8
0
370
    -3
  6
Continuous
100
AcDbCircle
 10
-387.951461
 20
-130.225083
 30
0.0
 40
1.0
100
AcDbArc
 50
210.0
 51
316.260205
  0
ARC
  5
56F
100
AcDbEntity
  8
0
370
    -3
  6
Continuous
100
AcDbCircle
 10
-396.98255
 20
-121.582778
 30
0.0
 40
8.5
100
AcDbArc
 50
321.618272
 51
338.381728
  0
ARC
  5
570
100
AcDbEntity
  8
0
370
    -3
  6
Continuous
100
AcDbCircle
 10
-388.150789
 20
-125.082778
 30
0.0
 40
1.0
100
AcDbArc
 50
90.0
 51
158.381728
  0
ARC
  5
571
100
AcDbEntity
  8
0
370
    -3
  6
Continuous
100
AcDbCircle
 10
-383.598322
 20
-137.764942
 30
0.0
 40
1.0
100
AcDbArc
 50
210.0
 51
309.594068
  0
LINE
  5
572
100
AcDbEntity
  8
0
370
    -3
  6
Continuous
100
AcDbLine
 10
-384.464347
 20
-138.264942
 30
0.0
 11
-385.989265
 21
-135.623706
 31
0.0
  0
ARC
  5
573
100
AcDbEntity
  8
0
370
    -3
  6
Continuous
100
AcDbCircle
 10
-385.12324
 20
-135.123706
 30
0.0
 40
1.0
100
AcDbArc
 50
131.212271
 51
210.0
  0
LINE
  5
574
100
AcDbEntity
  8
0
370
    -3
  6
Continuous
100
AcDbLine
 10
-388.817487
 20
-130.725083
 30
0.0
 11
-390.401606
 21
-127.981307
 31
0.0
  0
ARC
  5
575
100
AcDbEntity
  8
0
370
    -3
  6
Continuous
100
AcDbCircle
 10
-389.535581
 20
-127.481307
 30
0.0
 40
1.0
100
AcDbArc
 50
141.618272
 51
210.0
  0
ARC
  5
576
100
AcDbEntity
  8
0
370
    -3
  6
Continuous
100
AcDbCircle
 10
-376.539181
 20
-149.991732
 30
0.0
 40
1.0
100
AcDbArc
 50
125.73917
 51
210.0
  0
LINE
  5
577
100
AcDbEntity
  8
0
370
    -3
  6
Continuous
100
AcDbLine
 10
-375.898251
 20
-153.101856
 30
0.0
 11
-377.405207
 21
-150.491732
 31
0.0
  0
ARC
  5
578
100
AcDbEntity
  8
0
370
    -3
  6
Continuous
100
AcDbCircle
 10
-375.032225
 20
-152.601856
 30
0.0
 40
1.0
100
AcDbArc
 50
210.0
 51
305.284733
  0
ARC
  5
579
100
AcDbEntity
  8
0
370
    -3
  6
Continuous
100
AcDbCircle
 10
-380.817536
 20
-142.581404
 30
0.0
 40
1.0
100
AcDbArc
 50
127.589542
 51
210.0
  0
LINE
  5
57A
100
AcDbEntity
  8
0
370
    -3
  6
Continuous
100
AcDbLine
 10
-380.171668
 20
-145.70008
 30
0.0
 11
-381.683561
 21
-143.081404
 31
0.0
  0
ARC
  5
57B
100
AcDbEntity
  8
0
370
    -3
  6
Continuous
100
AcDbCircle
 10
-379.305643
 20
-145.20008
 30
0.0
 40
1.0
100
AcDbArc
 50
210.0
 51
306.813854
  0
ARC
  5
57C
100
AcDbEntity
  8
0
370
    -3
  6
Continuous
100
AcDbCircle
 10
-359.144078
 20
-125.082778
 30
0.0
 40
1.0
100
AcDbArc
 50
354.715267
 51
90.0
  0
LINE
  5
57D
100
AcDbEntity
  8
0
370
    -3
  6
Continuous
100
AcDbLine
 10
-359.144078
 20
-124.082778
 30
0.0
 11
-362.15799
 21
-124.082778
 31
0.0
  0
ARC
  5
57E
100
AcDbEntity
  8
0
370
    -3
  6
Continuous
100
AcDbCircle
 10
-362.15799
 20
-125.082778
 30
0.0
 40
1.0
100
AcDbArc
 50
90.0
 51
174.26083
  0
ARC
  5
57F
100
AcDbEntity
  8
0
370
    -3
  6
Continuous
100
AcDbCircle
 10
-367.690913
 20
-125.082778
 30
0.0
 40
1.0
100
AcDbArc
 50
353.186146
 51
90.0
  0
LINE
  5
580
100
AcDbEntity
  8
0
370
    -3
  6
Continuous
100
AcDbLine
 10
-367.690913
 20
-124.082778
 30
0.0
 11
-370.714699
 21
-124.082778
 31
0.0
  0
ARC
  5
581
100
AcDbEntity
  8
0
370
    -3
  6
Continuous
100
AcDbCircle
 10
-370.714699
 20
-125.082778
 30
0.0
 40
1.0
100
AcDbArc
 50
90.0
 51
172.410458
  0
ARC
  5
582
100
AcDbEntity
  8
0
370
    -3
  6
Continuous
100
AcDbCircle
 10
-376.276271
 20
-125.082778
 30
0.0
 40
1.0
100
AcDbArc
 50
350.405932
 51
90.0
  0
LINE
  5
583
100
AcDbEntity
  8
0
370
    -3
  6
Continuous
100
AcDbLine
 10
-376.276271
 20
-124.082778
 30
0.0
 11
-379.326107
 21
-124.082778
 31
0.0
  0
ARC
  5
584
100
AcDbEntity
  8
0
370
    -3
  6
Continuous
100
AcDbCircle
 10
-379.326107
 20
-125.082778
 30
0.0
 40
1.0
100
AcDbArc
 50
90.0
 51
168.787729
  0
ARC
  5
585
100
AcDbEntity
  8
0
370
    -3
  6
Continuous
100
AcDbCircle
 10
-50.38255
 20
-121.582778
 30
0.0
 40
390.797
100
AcDbArc
 50
180.0
 51
184.529193
  0
ARC
  5
586
100
AcDbEntity
  8
0
370
    -3
  6
Continuous
100
AcDbCircle
 10
-429.195503
 20
-151.595222
 30
0.0
 40
10.797
100
AcDbArc
 50
184.529945
 51
225.0
  0
LINE
  5
587
100
AcDbEntity
  8
0
370
    -3
  6
Continuous
100
AcDbLine
 10
-434.651389
 20
-161.408599
 30
0.0
 11
-436.830135
 21
-159.229854
 31
0.0
  0
ARC
  5
588
100
AcDbEntity
  8
0
370
    -3
  6
Continuous
100
AcDbCircle
 10
-412.874622
 20
-139.631832
 30
0.0
 40
30.797
100
AcDbArc
 50
225.0
 51
267.469876
  0
ARC
  5
589
100
AcDbEntity
  8
0
370
    -3
  6
Continuous
100
AcDbCircle
 10
-381.090479
 20
-139.631832
 30
0.0
 40
30.797
100
AcDbArc
 50
272.530124
 51
315.0
  0
LINE
  5
58A
100
AcDbEntity
  8
0
370
    -3
  6
Continuous
100
AcDbLine
 10
-359.313711
 20
-161.408599
 30
0.0
 11
-357.134966
 21
-159.229854
 31
0.0
  0
ARC
  5
58B
100
AcDbEntity
  8
0
370
    -3
  6
Continuous
100
AcDbCircle
 10
-364.769597
 20
-151.595222
 30
0.0
 40
10.797
100
AcDbArc
 50
315.0
 51
355.470055
  0
ARC
  5
58C
100
AcDbEntity
  8
0
370
    -3
  6
Continuous
100
AcDbCircle
 10
-743.58255
 20
-121.582778
 30
0.0
 40
390.797
100
AcDbArc
 50
355.470807
 51
0.0
  0
ARC
  5
58D
100
AcDbEntity
  8
0
370
    -3
  6
Continuous
100
AcDbCircle
 10
-353.566194
 20
-78.166421
 30
0.0
 40
6.099999
100
AcDbArc
 50
354.601928
 51
95.398089
  0
POINT
  5
58E
100
AcDbEntity
  8
0
370
    -3
  6
Continuous
100
AcDbPoint
 10
-351.303452
 20
-75.90368
 30
0.0
  0
LINE
  5
58F
100
AcDbEntity
  8
0
370
    -3
  6
Continuous
100
AcDbLine
 10
-354.374307
 20
-72.267139
 30
0.0
 11
-347.697208
 21
-78.944239
 31
0.0
  0
LINE
  5
590
100
AcDbEntity
  8
0
370
    -3
  6
Continuous
100
AcDbLine
 10
-354.626854
 20
-72.580278
 30
0.0
 11
-354.140051
 21
-72.093475
 31
0.0
  0
LINE
  5
591
100
AcDbEntity
  8
0
370
    -3
  6
Continuous
100
AcDbLine
 10
-347.98005
 20
-79.227081
 30
0.0
 11
-347.493247
 21
-78.740278
 31
0.0
  0
LINE
  5
592
100
AcDbEntity
  8
0
370
    -3
  6
Continuous
100
AcDbLine
 10
-352.381943
 20
-74.825188
 30
0.0
 11
-350.203198
 21
-77.003934
 31
0.0
  0
LINE
  5
593
100
AcDbEntity
  8
0
370
    -3
  6
Continuous
100
AcDbLine
 10
-354.626854
 20
-72.580278
 30
0.0
 11
-347.98005
 21
-79.227081
 31
0.0
  0
ARC
  5
594
100
AcDbEntity
  8
0
370
    -3
  6
Continuous
100
AcDbCircle
 10
-440.398907
 20
-78.166421
 30
0.0
 40
6.099999
100
AcDbArc
 50
84.601911
 51
185.398072
  0
LINE
  5
595
100
AcDbEntity
  8
0
370
    -3
  6
Continuous
100
AcDbLine
 10
-439.590794
 20
-72.267139
 30
0.0
 11
-446.267893
 21
-78.944239
 31
0.0
  0
LINE
  5
596
100
AcDbEntity
  8
0
370
    -3
  6
Continuous
100
AcDbLine
 10
-439.338247
 20
-72.580278
 30
0.0
 11
-439.82505
 21
-72.093475
 31
0.0
  0
LINE
  5
597
100
AcDbEntity
  8
0
370
    -3
  6
Continuous
100
AcDbLine
 10
-439.338247
 20
-72.580278
 30
0.0
 11
-445.98505
 21
-79.227081
 31
0.0
  0
LINE
  5
598
100
AcDbEntity
  8
0
370
    -3
  6
Continuous
100
AcDbLine
 10
-445.98505
 20
-79.227081
 30
0.0
 11
-446.471853
 21
-78.740278
 31
0.0
  0
ARC
  5
599
100
AcDbEntity
  8
0
370
    -3
  6
Continuous
100
AcDbCircle
 10
-396.98255
 20
-463.182778
 30
0.0
 40
400.6
100
AcDbArc
 50
87.470639
 51
90.0
  0
ARC
  5
59A
100
AcDbEntity
  8
0
370
    -3
  6
Continuous
100
AcDbCircle
 10
-396.98255
 20
-463.182778
 30
0.0
 40
400.6
100
AcDbArc
 50
90.0
 51
92.529361
  0
LINE
  5
59B
100
AcDbEntity
  8
0
370
    -3
  6
Continuous
100
AcDbLine
 10
-352.381943
 20
-168.340367
 30
0.0
 11
-350.203198
 21
-166.161621
 31
0.0
  0
ARC
  5
59C
100
AcDbEntity
  8
0
370
    -3
  6
Continuous
100
AcDbCircle
 10
-353.566194
 20
-164.999134
 30
0.0
 40
6.099999
100
AcDbArc
 50
264.601911
 51
5.398072
  0
LINE
  5
59D
100
AcDbEntity
  8
0
370
    -3
  6
Continuous
100
AcDbLine
 10
-354.626854
 20
-170.585278
 30
0.0
 11
-347.98005
 21
-163.938474
 31
0.0
  0
LINE
  5
59E
100
AcDbEntity
  8
0
370
    -3
  6
Continuous
100
AcDbLine
 10
-354.374307
 20
-170.898416
 30
0.0
 11
-347.697208
 21
-164.221317
 31
0.0
  0
LINE
  5
59F
100
AcDbEntity
  8
0
370
    -3
  6
Continuous
100
AcDbLine
 10
-347.98005
 20
-163.938474
 30
0.0
 11
-347.493247
 21
-164.425277
 31
0.0
  0
LINE
  5
5A0
100
AcDbEntity
  8
0
370
    -3
  6
Continuous
100
AcDbLine
 10
-354.626854
 20
-170.585278
 30
0.0
 11
-354.140051
 21
-171.072081
 31
0.0
  0
LINE
  5
5A1
100
AcDbEntity
  8
0
370
    -3
  6
Continuous
100
AcDbLine
 10
-441.583157
 20
-168.340367
 30
0.0
 11
-443.761903
 21
-166.161621
 31
0.0
  0
ARC
  5
5A2
100
AcDbEntity
  8
0
370
    -3
  6
Continuous
100
AcDbCircle
 10
-440.398907
 20
-164.999134
 30
0.0
 40
6.099999
100
AcDbArc
 50
174.601928
 51
275.398089
  0
LINE
  5
5A3
100
AcDbEntity
  8
0
370
    -3
  6
Continuous
100
AcDbLine
 10
-439.338247
 20
-170.585278
 30
0.0
 11
-445.98505
 21
-163.938474
 31
0.0
  0
LINE
  5
5A4
100
AcDbEntity
  8
0
370
    -3
  6
Continuous
100
AcDbLine
 10
-439.590794
 20
-170.898416
 30
0.0
 11
-446.267893
 21
-164.221317
 31
0.0
  0
LINE
  5
5A5
100
AcDbEntity
  8
0
370
    -3
  6
Continuous
100
AcDbLine
 10
-445.98505
 20
-163.938474
 30
0.0
 11
-446.471853
 21
-164.425277
 31
0.0
  0
LINE
  5
5A6
100
AcDbEntity
  8
0
370
    -3
  6
Continuous
100
AcDbLine
 10
-439.338247
 20
-170.585278
 30
0.0
 11
-439.82505
 21
-171.072081
 31
0.0
  0
ARC
  5
5A7
100
AcDbEntity
  8
0
370
    -3
  6
Continuous
100
AcDbCircle
 10
-396.98255
 20
220.017222
 30
0.0
 40
400.6
100
AcDbArc
 50
267.470639
 51
270.0
  0
ARC
  5
5A8
100
AcDbEntity
  8
0
370
    -3
  6
Continuous
100
AcDbCircle
 10
-396.98255
 20
220.017222
 30
0.0
 40
390.797
100
AcDbArc
 50
267.470639
 51
270.0
  0
ARC
  5
5A9
100
AcDbEntity
  8
0
370
    -3
  6
Continuous
100
AcDbCircle
 10
-396.98255
 20
220.017222
 30
0.0
 40
400.6
100
AcDbArc
 50
270.0
 51
272.529361
  0
ARC
  5
5AA
100
AcDbEntity
  8
0
370
    -3
  6
Continuous
100
AcDbCircle
 10
-396.98255
 20
220.017222
 30
0.0
 40
390.797
100
AcDbArc
 50
270.0
 51
272.529361
  0
LINE
  5
5AB
100
AcDbEntity
  8
0
370
    -3
  6
Continuous
100
AcDbLine
 10
595.017588
 20
-108.582778
 30
0.0
 11
595.017588
 21
-231.122716
 31
0.0
  0
LINE
  5
5AC
100
AcDbEntity
  8
0
370
    -3
  6
Continuous
100
AcDbLine
 10
595.017588
 20
-108.582778
 30
0.0
 11
595.017588
 21
-23.042839
 31
0.0
  0
LINE
  5
5AD
100
AcDbEntity
  8
0
370
    -3
  6
Continuous
100
AcDbLine
 10
607.017588
 20
-108.582778
 30
0.0
 11
607.017588
 21
-232.582778
 31
0.0
  0
LINE
  5
5AE
100
AcDbEntity
  8
0
370
    -3
  6
Continuous
100
AcDbLine
 10
607.017588
 20
-108.582778
 30
0.0
 11
607.017588
 21
-21.582778
 31
0.0
  0
LINE
  5
5AF
100
AcDbEntity
  8
0
370
    -3
  6
Continuous
100
AcDbLine
 10
607.017588
 20
-21.621239
 30
0.0
 11
595.514642
 21
-22.506081
 31
0.0
  0
LINE
  5
5B0
100
AcDbEntity
  8
0
370
    -3
  6
Continuous
100
AcDbLine
 10
595.514642
 20
-22.506081
 30
0.0
 11
595.017588
 21
-23.042839
 31
0.0
  0
LINE
  5
5B1
100
AcDbEntity
  8
0
370
    -3
  6
Continuous
100
AcDbLine
 10
595.017588
 20
-231.122716
 30
0.0
 11
595.514642
 21
-231.659474
 31
0.0
  0
LINE
  5
5B2
100
AcDbEntity
  8
0
370
    -3
  6
Continuous
100
AcDbLine
 10
607.017588
 20
-232.544316
 30
0.0
 11
595.514642
 21
-231.659474
 31
0.0
  0
LINE
  5
5B3
100
AcDbEntity
  8
0
370
    -3
  6
Continuous
100
AcDbLine
 10
595.017588
 20
-231.122716
 30
0.0
 11
595.514642
 21
-231.659474
 31
0.0
  0
LINE
  5
5B4
100
AcDbEntity
  8
0
370
    -3
  6
Continuous
100
AcDbLine
 10
595.514642
 20
-22.506081
 30
0.0
 11
595.017588
 21
-23.042839
 31
0.0
  0
LINE
  5
5B5
100
AcDbEntity
  8
0
370
    -3
  6
Continuous
100
AcDbLine
 10
735.017588
 20
-128.582777
 30
0.0
 11
735.017588
 21
-176.582777
 31
0.0
  0
LINE
  5
5B6
100
AcDbEntity
  8
0
370
    -3
  6
Continuous
100
AcDbLine
 10
735.017588
 20
-24.582778
 30
0.0
 11
734.517588
 21
-24.082778
 31
0.0
  0
LINE
  5
5B7
100
AcDbEntity
  8
0
370
    -3
  6
Continuous
100
AcDbLine
 10
735.017588
 20
-24.582778
 30
0.0
 11
735.017588
 21
-128.582777
 31
0.0
  0
LINE
  5
5B8
100
AcDbEntity
  8
0
370
    -3
  6
Continuous
100
AcDbLine
 10
735.017588
 20
-176.582777
 30
0.0
 11
735.017588
 21
-229.582778
 31
0.0
  0
LINE
  5
5B9
100
AcDbEntity
  8
0
370
    -3
  6
Continuous
100
AcDbLine
 10
735.017588
 20
-229.582778
 30
0.0
 11
734.517588
 21
-230.082778
 31
0.0
  0
LINE
  5
5BA
100
AcDbEntity
  8
0
370
    -3
  6
Continuous
100
AcDbLine
 10
726.017588
 20
-24.082778
 30
0.0
 11
607.017588
 21
-21.582778
 31
0.0
  0
LINE
  5
5BB
100
AcDbEntity
  8
0
370
    -3
  6
Continuous
100
AcDbLine
 10
734.517588
 20
-24.082778
 30
0.0
 11
726.017588
 21
-24.082778
 31
0.0
  0
LINE
  5
5BC
100
AcDbEntity
  8
0
370
    -3
  6
Continuous
100
AcDbLine
 10
607.017588
 20
-21.582778
 30
0.0
 11
607.017588
 21
-232.582778
 31
0.0
  0
LINE
  5
5BD
100
AcDbEntity
  8
0
370
    -3
  6
Continuous
100
AcDbLine
 10
726.017588
 20
-230.082778
 30
0.0
 11
607.017588
 21
-232.582778
 31
0.0
  0
LINE
  5
5BE
100
AcDbEntity
  8
0
370
    -3
  6
Continuous
100
AcDbLine
 10
734.517588
 20
-230.082778
 30
0.0
 11
726.017588
 21
-230.082778
 31
0.0
  0
LINE
  5
5BF
100
AcDbEntity
  8
0
370
    -3
  6
Continuous
100
AcDbLine
 10
735.017588
 20
-51.082778
 30
0.0
 11
739.617588
 21
-51.082778
 31
0.0
  0
LINE
  5
5C0
100
AcDbEntity
  8
0
370
    -3
  6
Continuous
100
AcDbLine
 10
740.017588
 20
-51.482778
 30
0.0
 11
739.617588
 21
-51.082778
 31
0.0
  0
LINE
  5
5C1
100
AcDbEntity
  8
0
370
    -3
  6
Continuous
100
AcDbLine
 10
740.017588
 20
-51.482778
 30
0.0
 11
740.017588
 21
-108.582778
 31
0.0
  0
LINE
  5
5C2
100
AcDbEntity
  8
0
370
    -3
  6
Continuous
100
AcDbLine
 10
595.017588
 20
-51.082778
 30
0.0
 11
590.417588
 21
-51.082778
 31
0.0
  0
LINE
  5
5C3
100
AcDbEntity
  8
0
370
    -3
  6
Continuous
100
AcDbLine
 10
590.017588
 20
-51.482778
 30
0.0
 11
590.417588
 21
-51.082778
 31
0.0
  0
LINE
  5
5C4
100
AcDbEntity
  8
0
370
    -3
  6
Continuous
100
AcDbLine
 10
590.017588
 20
-51.482778
 30
0.0
 11
590.017588
 21
-108.582778
 31
0.0
  0
LINE
  5
5C5
100
AcDbEntity
  8
0
370
    -3
  6
Continuous
100
AcDbLine
 10
735.017588
 20
-166.082778
 30
0.0
 11
739.617588
 21
-166.082778
 31
0.0
  0
LINE
  5
5C6
100
AcDbEntity
  8
0
370
    -3
  6
Continuous
100
AcDbLine
 10
740.017588
 20
-165.682778
 30
0.0
 11
739.617588
 21
-166.082778
 31
0.0
  0
LINE
  5
5C7
100
AcDbEntity
  8
0
370
    -3
  6
Continuous
100
AcDbLine
 10
740.017588
 20
-165.682778
 30
0.0
 11
740.017588
 21
-108.582778
 31
0.0
  0
LINE
  5
5C8
100
AcDbEntity
  8
0
370
    -3
  6
Continuous
100
AcDbLine
 10
595.017588
 20
-166.082778
 30
0.0
 11
590.417588
 21
-166.082778
 31
0.0
  0
LINE
  5
5C9
100
AcDbEntity
  8
0
370
    -3
  6
Continuous
100
AcDbLine
 10
590.017588
 20
-165.682778
 30
0.0
 11
590.417588
 21
-166.082778
 31
0.0
  0
LINE
  5
5CA
100
AcDbEntity
  8
0
370
    -3
  6
Continuous
100
AcDbLine
 10
590.017588
 20
-165.682778
 30
0.0
 11
590.017588
 21
-108.582778
 31
0.0
  0
LINE
  5
5CB
100
AcDbEntity
  8
0
370
    -3
  6
Continuous
100
AcDbLine
 10
586.017588
 20
-77.082778
 30
0.0
 11
590.017588
 21
-77.082778
 31
0.0
  0
LINE
  5
5CC
100
AcDbEntity
  8
0
370
    -3
  6
Continuous
100
AcDbLine
 10
586.017588
 20
-140.082778
 30
0.0
 11
590.017588
 21
-140.082778
 31
0.0
  0
LINE
  5
5CD
100
AcDbEntity
  8
0
370
    -3
  6
Continuous
100
AcDbLine
 10
586.017588
 20
-77.082778
 30
0.0
 11
586.017588
 21
-140.082778
 31
0.0
  0
LINE
  5
5CE
100
AcDbEntity
  8
0
370
    -3
  6
Continuous
100
AcDbLine
 10
744.017588
 20
-77.082778
 30
0.0
 11
740.017588
 21
-77.082778
 31
0.0
  0
LINE
  5
5CF
100
AcDbEntity
  8
0
370
    -3
  6
Continuous
100
AcDbLine
 10
744.017588
 20
-77.082778
 30
0.0
 11
744.017588
 21
-140.082778
 31
0.0
  0
LINE
  5
5D0
100
AcDbEntity
  8
0
370
    -3
  6
Continuous
100
AcDbLine
 10
744.017588
 20
-140.082778
 30
0.0
 11
740.017588
 21
-140.082778
 31
0.0
  0
LINE
  5
5D1
100
AcDbEntity
  8
0
370
    -3
  6
CENTER
100
AcDbLine
 10
591.302194
 20
-39.582778
 30
0.0
 11
738.062645
 21
-39.582778
 31
0.0
  0
LINE
  5
5D2
100
AcDbEntity
  8
0
370
    -3
  6
CENTER
100
AcDbLine
 10
590.564705
 20
-214.582778
 30
0.0
 11
738.062645
 21
-214.582778
 31
0.0
  0
LINE
  5
5D3
100
AcDbEntity
  8
0
370
    -3
  6
CENTER
100
AcDbLine
 10
750.867472
 20
-108.582778
 30
0.0
 11
576.147089
 21
-108.582778
 31
0.0
  0
LINE
  5
5D4
100
AcDbEntity
  8
0
370
    -3
  6
Continuous
100
AcDbLine
 10
675.517483
 20
-22.582778
 30
0.0
 11
654.617588
 21
-22.582778
 31
0.0
  0
ARC
  5
5D5
100
AcDbEntity
  8
0
370
    -3
  6
Continuous
100
AcDbCircle
 10
675.517483
 20
-32.582778
 30
0.0
 40
10.0
100
AcDbArc
 50
71.713781
 51
90.0
  0
ARC
  5
5D6
100
AcDbEntity
  8
0
370
    -3
  6
DASHED
100
AcDbCircle
 10
665.017611
 20
-462.682778
 30
0.0
 40
400.6
100
AcDbArc
 50
90.0
 51
92.529361
  0
ARC
  5
5D7
100
AcDbEntity
  8
0
370
    -3
  6
DASHED
100
AcDbCircle
 10
665.017611
 20
-462.682778
 30
0.0
 40
400.6
100
AcDbArc
 50
87.470639
 51
90.0
  0
ARC
  5
5D8
100
AcDbEntity
  8
0
370
    -3
  6
DASHED
100
AcDbCircle
 10
1011.617611
 20
-121.082778
 30
0.0
 40
400.6
100
AcDbArc
 50
175.470807
 51
180.0
  0
ARC
  5
5D9
100
AcDbEntity
  8
0
370
    -3
  6
DASHED
100
AcDbCircle
 10
632.804658
 20
-91.070334
 30
0.0
 40
20.6
100
AcDbArc
 50
135.0
 51
175.470055
  0
LINE
  5
5DA
100
AcDbEntity
  8
0
370
    -3
  6
DASHED
100
AcDbLine
 10
620.417004
 20
-74.325188
 30
0.0
 11
618.238259
 21
-76.503934
 31
0.0
  0
ARC
  5
5DB
100
AcDbEntity
  8
0
370
    -3
  6
DASHED
100
AcDbCircle
 10
649.12554
 20
-103.033724
 30
0.0
 40
40.6
100
AcDbArc
 50
92.530124
 51
135.0
  0
ARC
  5
5DC
100
AcDbEntity
  8
0
370
    -3
  6
DASHED
100
AcDbCircle
 10
680.909683
 20
-103.033724
 30
0.0
 40
40.6
100
AcDbArc
 50
45.0
 51
87.469876
  0
ARC
  5
5DD
100
AcDbEntity
  8
0
370
    -3
  6
DASHED
100
AcDbCircle
 10
665.017611
 20
220.517222
 30
0.0
 40
400.6
100
AcDbArc
 50
270.0
 51
272.529361
  0
ARC
  5
5DE
100
AcDbEntity
  8
0
370
    -3
  6
DASHED
100
AcDbCircle
 10
680.909683
 20
-139.131832
 30
0.0
 40
40.6
100
AcDbArc
 50
272.530124
 51
315.0
  0
ARC
  5
5DF
100
AcDbEntity
  8
0
370
    -3
  6
DASHED
100
AcDbCircle
 10
665.017611
 20
220.517222
 30
0.0
 40
400.6
100
AcDbArc
 50
267.470639
 51
270.0
  0
ARC
  5
5E0
100
AcDbEntity
  8
0
370
    -3
  6
DASHED
100
AcDbCircle
 10
1011.617611
 20
-121.082778
 30
0.0
 40
400.6
100
AcDbArc
 50
180.0
 51
184.529193
  0
ARC
  5
5E1
100
AcDbEntity
  8
0
370
    -3
  6
DASHED
100
AcDbCircle
 10
632.804658
 20
-151.095222
 30
0.0
 40
20.6
100
AcDbArc
 50
184.529945
 51
225.0
  0
LINE
  5
5E2
100
AcDbEntity
  8
0
370
    -3
  6
DASHED
100
AcDbLine
 10
620.417004
 20
-167.840367
 30
0.0
 11
618.238259
 21
-165.661621
 31
0.0
  0
ARC
  5
5E3
100
AcDbEntity
  8
0
370
    -3
  6
DASHED
100
AcDbCircle
 10
649.12554
 20
-139.131832
 30
0.0
 40
40.6
100
AcDbArc
 50
225.0
 51
267.469876
  0
LINE
  5
5E4
100
AcDbEntity
  8
0
370
    -3
  6
DASHED
100
AcDbLine
 10
709.618218
 20
-167.840367
 30
0.0
 11
711.796964
 21
-165.661621
 31
0.0
  0
ARC
  5
5E5
100
AcDbEntity
  8
0
370
    -3
  6
DASHED
100
AcDbCircle
 10
697.230564
 20
-151.095222
 30
0.0
 40
20.6
100
AcDbArc
 50
315.0
 51
355.470055
  0
ARC
  5
5E6
100
AcDbEntity
  8
0
370
    -3
  6
DASHED
100
AcDbCircle
 10
318.417611
 20
-121.082778
 30
0.0
 40
400.6
100
AcDbArc
 50
355.470807
 51
360.0
  0
LINE
  5
5E7
100
AcDbEntity
  8
0
370
    -3
  6
DASHED
100
AcDbLine
 10
709.618218
 20
-74.325188
 30
0.0
 11
711.796964
 21
-76.503934
 31
0.0
  0
ARC
  5
5E8
100
AcDbEntity
  8
0
370
    -3
  6
DASHED
100
AcDbCircle
 10
697.230564
 20
-91.070334
 30
0.0
 40
20.6
100
AcDbArc
 50
4.529945
 51
45.0
  0
ARC
  5
5E9
100
AcDbEntity
  8
0
370
    -3
  6
DASHED
100
AcDbCircle
 10
318.417611
 20
-121.082778
 30
0.0
 40
400.6
100
AcDbArc
 50
0.0
 51
4.529193
  0
LINE
  5
5EA
100
AcDbEntity
  8
0
370
    -3
  6
CENTER
100
AcDbLine
 10
680.351564
 20
-121.582778
 30
0.0
 11
650.351564
 21
-121.582778
 31
0.0
  0
LINE
  5
5EB
100
AcDbEntity
  8
0
370
    -3
  6
Continuous
100
AcDbLine
 10
-92.982544
 20
98.611921
 30
0.0
 11
-92.982544
 21
151.111921
 31
0.0
  0
LINE
  5
5EC
100
AcDbEntity
  8
0
370
    -3
  6
Continuous
100
AcDbLine
 10
-92.982544
 20
203.611921
 30
0.0
 11
-92.982544
 21
151.111921
 31
0.0
  0
LINE
  5
5ED
100
AcDbEntity
  8
0
370
    -3
  6
Continuous
100
AcDbLine
 10
-326.98255
 20
-176.582778
 30
0.0
 11
-326.98255
 21
-231.122716
 31
0.0
  0
ARC
  5
5EE
100
AcDbEntity
  8
0
370
    -3
  6
Continuous
100
AcDbCircle
 10
-396.98255
 20
-152.582778
 30
0.0
 40
74.0
100
AcDbArc
 50
17.502524
 51
43.706405
  0
ARC
  5
5EF
100
AcDbEntity
  8
0
370
    -3
  6
Continuous
100
AcDbCircle
 10
-345.48255
 20
-136.342396
 30
0.0
 40
20.0
100
AcDbArc
 50
0.0
 51
17.502524
  0
LINE
  5
5F0
100
AcDbEntity
  8
0
370
    -3
  6
Continuous
100
AcDbLine
 10
-325.48255
 20
-136.342396
 30
0.0
 11
-325.48255
 21
-168.823159
 31
0.0
  0
ARC
  5
5F1
100
AcDbEntity
  8
0
370
    -3
  6
Continuous
100
AcDbCircle
 10
-345.48255
 20
-168.823159
 30
0.0
 40
20.0
100
AcDbArc
 50
342.497476
 51
0.0
  0
ARC
  5
5F2
100
AcDbEntity
  8
0
370
    -3
  6
Continuous
100
AcDbCircle
 10
-396.98255
 20
-152.582778
 30
0.0
 40
74.0
100
AcDbArc
 50
309.229812
 51
342.497476
  0
ARC
  5
5F3
100
AcDbEntity
  8
0
370
    -3
  6
Continuous
100
AcDbCircle
 10
-448.48255
 20
-136.342396
 30
0.0
 40
20.0
100
AcDbArc
 50
162.497476
 51
180.0
  0
LINE
  5
5F4
100
AcDbEntity
  8
0
370
    -3
  6
Continuous
100
AcDbLine
 10
-468.48255
 20
-136.342396
 30
0.0
 11
-468.48255
 21
-168.823159
 31
0.0
  0
ARC
  5
5F5
100
AcDbEntity
  8
0
370
    -3
  6
Continuous
100
AcDbCircle
 10
-448.48255
 20
-168.823159
 30
0.0
 40
20.0
100
AcDbArc
 50
180.0
 51
197.502524
  0
ARC
  5
5F6
100
AcDbEntity
  8
0
370
    -3
  6
Continuous
100
AcDbCircle
 10
-396.98255
 20
-152.582778
 30
0.0
 40
74.0
100
AcDbArc
 50
136.293595
 51
162.497476
  0
LINE
  5
5F7
100
AcDbEntity
  8
0
370
    -3
  6
Continuous
100
AcDbLine
 10
-386.652981
 20
-22.584257
 30
0.0
 11
-338.98255
 21
-21.582778
 31
0.0
  0
LINE
  5
5F8
100
AcDbEntity
  8
0
370
    -3
  6
Continuous
100
AcDbLine
 10
-376.482583
 20
-63.196058
 30
0.0
 11
-376.482583
 21
-32.51001
 31
0.0
  0
LINE
  5
5F9
100
AcDbEntity
  8
0
370
    -3
  6
Continuous
100
AcDbLine
 10
-475.98255
 20
-77.082778
 30
0.0
 11
-471.98255
 21
-77.082778
 31
0.0
  0
LINE
  5
5FA
100
AcDbEntity
  8
0
370
    -3
  6
Continuous
100
AcDbLine
 10
-317.98255
 20
-77.082778
 30
0.0
 11
-321.98255
 21
-77.082778
 31
0.0
  0
LINE
  5
5FB
100
AcDbEntity
  8
0
370
    -3
  6
Continuous
100
AcDbLine
 10
-468.48255
 20
-166.082778
 30
0.0
 11
-471.58255
 21
-166.082778
 31
0.0
  0
LINE
  5
5FC
100
AcDbEntity
  8
0
370
    -3
  6
Continuous
100
AcDbLine
 10
-471.98255
 20
-165.682778
 30
0.0
 11
-471.58255
 21
-166.082778
 31
0.0
  0
LINE
  5
5FD
100
AcDbEntity
  8
0
370
    -3
  6
Continuous
100
AcDbLine
 10
-471.98255
 20
-165.682778
 30
0.0
 11
-471.98255
 21
-108.582778
 31
0.0
  0
LINE
  5
5FE
100
AcDbEntity
  8
0
370
    -3
  6
Continuous
100
AcDbLine
 10
-475.98255
 20
-140.082778
 30
0.0
 11
-471.98255
 21
-140.082778
 31
0.0
  0
LINE
  5
5FF
100
AcDbEntity
  8
0
370
    -3
  6
Continuous
100
AcDbLine
 10
-475.98255
 20
-77.082778
 30
0.0
 11
-475.98255
 21
-140.082778
 31
0.0
  0
LINE
  5
600
100
AcDbEntity
  8
0
370
    -3
  6
Continuous
100
AcDbLine
 10
-326.98255
 20
-231.122716
 30
0.0
 11
-327.479605
 21
-231.659474
 31
0.0
  0
LINE
  5
601
100
AcDbEntity
  8
0
370
    -3
  6
Continuous
100
AcDbLine
 10
-326.98255
 20
-231.122716
 30
0.0
 11
-327.479605
 21
-231.659474
 31
0.0
  0
LINE
  5
602
100
AcDbEntity
  8
0
370
    -3
  6
Continuous
100
AcDbLine
 10
-326.98255
 20
-108.582778
 30
0.0
 11
-326.98255
 21
-128.582778
 31
0.0
  0
LINE
  5
603
100
AcDbEntity
  8
0
370
    -3
  6
Continuous
100
AcDbLine
 10
-338.98255
 20
-198.539279
 30
0.0
 11
-338.98255
 21
-232.582778
 31
0.0
  0
LINE
  5
604
100
AcDbEntity
  8
0
370
    -3
  6
Continuous
100
AcDbLine
 10
-466.98255
 20
-229.582778
 30
0.0
 11
-466.48255
 21
-230.082778
 31
0.0
  0
LINE
  5
605
100
AcDbEntity
  8
0
370
    -3
  6
Continuous
100
AcDbLine
 10
-466.98255
 20
-176.582778
 30
0.0
 11
-466.98255
 21
-229.582778
 31
0.0
  0
LINE
  5
606
100
AcDbEntity
  8
0
370
    -3
  6
Continuous
100
AcDbLine
 10
-325.48255
 20
-166.082778
 30
0.0
 11
-322.38255
 21
-166.082778
 31
0.0
  0
LINE
  5
607
100
AcDbEntity
  8
0
370
    -3
  6
Continuous
100
AcDbLine
 10
-321.98255
 20
-165.682778
 30
0.0
 11
-322.38255
 21
-166.082778
 31
0.0
  0
LINE
  5
608
100
AcDbEntity
  8
0
370
    -3
  6
Continuous
100
AcDbLine
 10
-321.98255
 20
-165.682778
 30
0.0
 11
-321.98255
 21
-108.582778
 31
0.0
  0
LINE
  5
609
100
AcDbEntity
  8
0
370
    -3
  6
Continuous
100
AcDbLine
 10
-317.98255
 20
-77.082778
 30
0.0
 11
-317.98255
 21
-140.082778
 31
0.0
  0
LINE
  5
60A
100
AcDbEntity
  8
0
370
    -3
  6
Continuous
100
AcDbLine
 10
-317.98255
 20
-140.082778
 30
0.0
 11
-321.98255
 21
-140.082778
 31
0.0
  0
LINE
  5
60B
100
AcDbEntity
  8
0
370
    -3
  6
CENTER
100
AcDbLine
 10
-311.132666
 20
-108.582778
 30
0.0
 11
-485.85305
 21
-108.582778
 31
0.0
  0
LINE
  5
60C
100
AcDbEntity
  8
0
370
    -3
  6
Continuous
100
AcDbLine
 10
-338.98255
 20
-21.621239
 30
0.0
 11
-327.479605
 21
-22.506081
 31
0.0
  0
LINE
  5
60D
100
AcDbEntity
  8
0
370
    -3
  6
Continuous
100
AcDbLine
 10
-327.479605
 20
-22.506081
 30
0.0
 11
-326.98255
 21
-23.042839
 31
0.0
  0
LINE
  5
60E
100
AcDbEntity
  8
0
370
    -3
  6
Continuous
100
AcDbLine
 10
-327.479605
 20
-22.506081
 30
0.0
 11
-326.98255
 21
-23.042839
 31
0.0
  0
LINE
  5
60F
100
AcDbEntity
  8
0
370
    -3
  6
Continuous
100
AcDbLine
 10
-466.98255
 20
-24.582778
 30
0.0
 11
-466.48255
 21
-24.082778
 31
0.0
  0
LINE
  5
610
100
AcDbEntity
  8
0
370
    -3
  6
Continuous
100
AcDbLine
 10
-457.98255
 20
-24.082778
 30
0.0
 11
-410.620086
 21
-23.087768
 31
0.0
  0
LINE
  5
611
100
AcDbEntity
  8
0
370
    -3
  6
Continuous
100
AcDbLine
 10
-466.48255
 20
-24.082778
 30
0.0
 11
-457.98255
 21
-24.082778
 31
0.0
  0
LINE
  5
612
100
AcDbEntity
  8
0
370
    -3
  6
Continuous
100
AcDbLine
 10
-386.482655
 20
-22.582778
 30
0.0
 11
-407.38255
 21
-22.582778
 31
0.0
  0
ARC
  5
613
100
AcDbEntity
  8
0
370
    -3
  6
Continuous
100
AcDbCircle
 10
-386.482655
 20
-32.582778
 30
0.0
 40
10.0
100
AcDbArc
 50
71.713781
 51
90.0
  0
LINE
  5
614
100
AcDbEntity
  8
0
370
    -3
  6
Continuous
100
AcDbLine
 10
-326.98255
 20
-108.582778
 30
0.0
 11
-326.98255
 21
-23.042839
 31
0.0
  0
LINE
  5
615
100
AcDbEntity
  8
0
370
    -3
  6
Continuous
100
AcDbLine
 10
-338.98255
 20
-106.626277
 30
0.0
 11
-338.98255
 21
-21.582778
 31
0.0
  0
LINE
  5
616
100
AcDbEntity
  8
0
370
    -3
  6
Continuous
100
AcDbLine
 10
-466.98255
 20
-24.582778
 30
0.0
 11
-466.98255
 21
-128.582778
 31
0.0
  0
LINE
  5
617
100
AcDbEntity
  8
0
370
    -3
  6
Continuous
100
AcDbLine
 10
-326.98255
 20
-51.082778
 30
0.0
 11
-322.38255
 21
-51.082778
 31
0.0
  0
LINE
  5
618
100
AcDbEntity
  8
0
370
    -3
  6
Continuous
100
AcDbLine
 10
-321.98255
 20
-51.482778
 30
0.0
 11
-322.38255
 21
-51.082778
 31
0.0
  0
LINE
  5
619
100
AcDbEntity
  8
0
370
    -3
  6
Continuous
100
AcDbLine
 10
-321.98255
 20
-51.482778
 30
0.0
 11
-321.98255
 21
-108.582778
 31
0.0
  0
LINE
  5
61A
100
AcDbEntity
  8
0
370
    -3
  6
Continuous
100
AcDbLine
 10
-466.98255
 20
-51.082778
 30
0.0
 11
-471.58255
 21
-51.082778
 31
0.0
  0
LINE
  5
61B
100
AcDbEntity
  8
0
370
    -3
  6
Continuous
100
AcDbLine
 10
-471.98255
 20
-51.482778
 30
0.0
 11
-471.58255
 21
-51.082778
 31
0.0
  0
LINE
  5
61C
100
AcDbEntity
  8
0
370
    -3
  6
Continuous
100
AcDbLine
 10
-471.98255
 20
-51.482778
 30
0.0
 11
-471.98255
 21
-108.582778
 31
0.0
  0
ARC
  5
61D
100
AcDbEntity
  8
0
370
    -3
  6
Continuous
100
AcDbCircle
 10
-407.482737
 20
-67.582778
 30
0.0
 40
5.633955
100
AcDbArc
 50
60.941178
 51
122.099647
  0
ARC
  5
61E
100
AcDbEntity
  8
0
370
    -3
  6
Continuous
100
AcDbCircle
 10
-407.482737
 20
-67.582778
 30
0.0
 40
6.5
100
AcDbArc
 50
49.608783
 51
133.432042
  0
ARC
  5
61F
100
AcDbEntity
  8
0
370
    -3
  6
Continuous
100
AcDbCircle
 10
-386.482737
 20
-67.582778
 30
0.0
 40
5.633955
100
AcDbArc
 50
57.900608
 51
119.058675
  0
ARC
  5
620
100
AcDbEntity
  8
0
370
    -3
  6
Continuous
100
AcDbCircle
 10
-386.482737
 20
-67.582778
 30
0.0
 40
6.5
100
AcDbArc
 50
46.568144
 51
130.391139
  0
ARC
  5
621
100
AcDbEntity
  8
0
370
    -3
  6
Continuous
100
AcDbCircle
 10
-407.482782
 20
-32.582778
 30
0.0
 40
10.0
100
AcDbArc
 50
108.286912
 51
180.00007
  0
CIRCLE
  5
622
100
AcDbEntity
  8
0
370
    -3
  6
Continuous
100
AcDbCircle
 10
-396.98277
 20
-42.582778
 30
0.0
 40
10.0
  0
LINE
  5
623
100
AcDbEntity
  8
0
370
    -3
  6
CENTER
100
AcDbLine
 10
-409.487675
 20
-42.582778
 30
0.0
 11
-384.32517
 21
-42.582778
 31
0.0
  0
ARC
  5
624
100
AcDbEntity
  8
0
370
    -3
  6
Continuous
100
AcDbCircle
 10
-386.482782
 20
-32.582778
 30
0.0
 40
10.0
100
AcDbArc
 50
0.00007
 51
90.973393
  0
LINE
  5
625
100
AcDbEntity
  8
0
370
    -3
  6
Continuous
100
AcDbLine
 10
-407.482671
 20
-22.582803
 30
0.0
 11
-386.582775
 21
-22.582752
 31
0.0
  0
ARC
  5
626
100
AcDbEntity
  8
0
370
    -3
  6
Continuous
100
AcDbCircle
 10
-407.482646
 20
-32.582803
 30
0.0
 40
10.0
100
AcDbArc
 50
90.000139
 51
108.286358
  0
LINE
  5
627
100
AcDbEntity
  8
0
370
    -3
  6
Continuous
100
AcDbLine
 10
-417.482517
 20
-63.196058
 30
0.0
 11
-417.482517
 21
-32.51001
 31
0.0
  0
LINE
  5
628
100
AcDbEntity
  8
0
370
    -3
  6
CENTER
100
AcDbLine
 10
-454.795822
 20
-121.582778
 30
0.0
 11
-334.795822
 21
-121.582778
 31
0.0
  0
LINE
  5
629
100
AcDbEntity
  8
0
370
    -3
  6
Continuous
100
AcDbLine
 10
-92.982559
 20
98.611921
 30
0.0
 11
-92.982559
 21
151.111921
 31
0.0
  0
LINE
  5
62A
100
AcDbEntity
  8
0
370
    -3
  6
Continuous
100
AcDbLine
 10
-92.982559
 20
203.611921
 30
0.0
 11
-92.982559
 21
151.111921
 31
0.0
  0
LINE
  5
62B
100
AcDbEntity
  8
0
370
    -3
  6
Continuous
100
AcDbLine
 10
-26.482559
 20
222.611921
 30
0.0
 11
-26.482559
 21
171.611921
 31
0.0
  0
LINE
  5
62C
100
AcDbEntity
  8
0
370
    -3
  6
Continuous
100
AcDbLine
 10
-19.982559
 20
130.611921
 30
0.0
 11
-19.982559
 21
108.124768
 31
0.0
  0
LINE
  5
62D
100
AcDbEntity
  8
0
370
    -3
  6
Continuous
100
AcDbLine
 10
-19.982559
 20
171.611921
 30
0.0
 11
-19.982559
 21
194.099074
 31
0.0
  0
ARC
  5
62E
100
AcDbEntity
  8
0
370
    -3
  6
Continuous
100
AcDbCircle
 10
-16.982559
 20
112.845891
 30
0.0
 40
3.0
100
AcDbArc
 50
180.0
 51
270.0
  0
LINE
  5
62F
100
AcDbEntity
  8
0
370
    -3
  6
Continuous
100
AcDbLine
 10
-16.982559
 20
109.845891
 30
0.0
 11
-6.049837
 21
109.845891
 31
0.0
  0
LINE
  5
630
100
AcDbEntity
  8
0
370
    -3
  6
Continuous
100
AcDbLine
 10
-19.982559
 20
93.111921
 30
0.0
 11
-19.982559
 21
81.611921
 31
0.0
  0
ARC
  5
631
100
AcDbEntity
  8
0
370
    -3
  6
Continuous
100
AcDbCircle
 10
-8.482559
 20
101.111921
 30
0.0
 40
5.0
100
AcDbArc
 50
270.0
 51
350.385223
  0
ARC
  5
632
100
AcDbEntity
  8
0
370
    -3
  6
Continuous
100
AcDbCircle
 10
-8.482559
 20
110.124768
 30
0.0
 40
5.0
100
AcDbArc
 50
270.0
 51
351.914005
  0
LINE
  5
633
100
AcDbEntity
  8
0
370
    -3
  6
Continuous
100
AcDbLine
 10
-16.982559
 20
96.111921
 30
0.0
 11
-8.482559
 21
96.111921
 31
0.0
  0
ARC
  5
634
100
AcDbEntity
  8
0
370
    -3
  6
Continuous
100
AcDbCircle
 10
-16.982559
 20
93.111921
 30
0.0
 40
3.0
100
AcDbArc
 50
90.0
 51
180.0
  0
LINE
  5
635
100
AcDbEntity
  8
0
370
    -3
  6
Continuous
100
AcDbLine
 10
-16.982559
 20
105.124768
 30
0.0
 11
-8.482559
 21
105.124768
 31
0.0
  0
ARC
  5
636
100
AcDbEntity
  8
0
370
    -3
  6
Continuous
100
AcDbCircle
 10
-16.982559
 20
108.124768
 30
0.0
 40
3.0
100
AcDbArc
 50
180.0
 51
270.0
  0
LINE
  5
637
100
AcDbEntity
  8
0
370
    -3
  6
Continuous
100
AcDbLine
 10
-19.982559
 20
209.111921
 30
0.0
 11
-19.982559
 21
220.611921
 31
0.0
  0
ARC
  5
638
100
AcDbEntity
  8
0
370
    -3
  6
Continuous
100
AcDbCircle
 10
-8.482559
 20
201.111921
 30
0.0
 40
5.0
100
AcDbArc
 50
9.614777
 51
90.0
  0
ARC
  5
639
100
AcDbEntity
  8
0
370
    -3
  6
Continuous
100
AcDbCircle
 10
-8.482559
 20
192.099074
 30
0.0
 40
5.0
100
AcDbArc
 50
8.085995
 51
90.0
  0
LINE
  5
63A
100
AcDbEntity
  8
0
370
    -3
  6
Continuous
100
AcDbLine
 10
-16.982559
 20
206.111921
 30
0.0
 11
-8.482559
 21
206.111921
 31
0.0
  0
ARC
  5
63B
100
AcDbEntity
  8
0
370
    -3
  6
Continuous
100
AcDbCircle
 10
-16.982559
 20
209.111921
 30
0.0
 40
3.0
100
AcDbArc
 50
180.0
 51
270.0
  0
LINE
  5
63C
100
AcDbEntity
  8
0
370
    -3
  6
Continuous
100
AcDbLine
 10
-16.982559
 20
197.099074
 30
0.0
 11
-8.482559
 21
197.099074
 31
0.0
  0
ARC
  5
63D
100
AcDbEntity
  8
0
370
    -3
  6
Continuous
100
AcDbCircle
 10
-16.982559
 20
194.099074
 30
0.0
 40
3.0
100
AcDbArc
 50
90.0
 51
180.0
  0
ARC
  5
63E
100
AcDbEntity
  8
0
370
    -3
  6
Continuous
100
AcDbCircle
 10
-16.982559
 20
189.859707
 30
0.0
 40
3.0
100
AcDbArc
 50
90.0
 51
180.0
  0
LINE
  5
63F
100
AcDbEntity
  8
0
370
    -3
  6
Continuous
100
AcDbLine
 10
-16.982559
 20
192.859707
 30
0.0
 11
-6.576909
 21
192.859707
 31
0.0
  0
LINE
  5
640
100
AcDbEntity
  8
0
370
    -3
  6
Continuous
100
AcDbLine
 10
128.016977
 20
72.111921
 30
0.0
 11
128.016977
 21
76.111921
 31
0.0
  0
LINE
  5
641
100
AcDbEntity
  8
0
370
    -3
  6
Continuous
100
AcDbLine
 10
191.016977
 20
72.111921
 30
0.0
 11
128.016977
 21
72.111921
 31
0.0
  0
LINE
  5
642
100
AcDbEntity
  8
0
370
    -3
  6
Continuous
100
AcDbLine
 10
191.016977
 20
72.111921
 30
0.0
 11
191.016977
 21
76.111921
 31
0.0
  0
LINE
  5
643
100
AcDbEntity
  8
0
370
    -3
  6
Continuous
100
AcDbLine
 10
191.016977
 20
230.111921
 30
0.0
 11
128.016977
 21
230.111921
 31
0.0
  0
LINE
  5
644
100
AcDbEntity
  8
0
370
    -3
  6
Continuous
100
AcDbLine
 10
128.016977
 20
230.111921
 30
0.0
 11
128.016977
 21
226.111921
 31
0.0
  0
LINE
  5
645
100
AcDbEntity
  8
0
370
    -3
  6
Continuous
100
AcDbLine
 10
191.016977
 20
230.111921
 30
0.0
 11
191.016977
 21
226.111921
 31
0.0
  0
LINE
  5
646
100
AcDbEntity
  8
0
370
    -3
  6
CENTER
100
AcDbLine
 10
159.516977
 20
260.961418
 30
0.0
 11
159.516977
 21
36.788509
 31
0.0
  0
LINE
  5
647
100
AcDbEntity
  8
0
370
    -3
  6
Continuous
100
AcDbLine
 10
11.507293
 20
81.111921
 30
0.0
 11
8.517077
 21
93.111921
 31
0.0
  0
LINE
  5
648
100
AcDbEntity
  8
0
370
    -3
  6
Continuous
100
AcDbLine
 10
11.507293
 20
221.111921
 30
0.0
 11
10.997701
 21
220.612109
 31
0.0
  0
LINE
  5
649
100
AcDbEntity
  8
0
370
    -3
  6
Continuous
100
AcDbLine
 10
217.016977
 20
76.511921
 30
0.0
 11
217.016977
 21
78.611921
 31
0.0
  0
LINE
  5
64A
100
AcDbEntity
  8
0
370
    -3
  6
Continuous
100
AcDbLine
 10
216.866977
 20
78.611921
 30
0.0
 11
216.866977
 21
80.111921
 31
0.0
  0
LINE
  5
64B
100
AcDbEntity
  8
0
370
    -3
  6
Continuous
100
AcDbLine
 10
216.866977
 20
80.111921
 30
0.0
 11
217.016977
 21
80.111921
 31
0.0
  0
LINE
  5
64C
100
AcDbEntity
  8
0
370
    -3
  6
Continuous
100
AcDbLine
 10
216.866977
 20
78.611921
 30
0.0
 11
217.016977
 21
78.611921
 31
0.0
  0
LINE
  5
64D
100
AcDbEntity
  8
0
370
    -3
  6
Continuous
100
AcDbLine
 10
217.016977
 20
80.111921
 30
0.0
 11
217.016977
 21
81.111921
 31
0.0
  0
LINE
  5
64E
100
AcDbEntity
  8
0
370
    -3
  6
Continuous
100
AcDbLine
 10
217.016977
 20
76.511921
 30
0.0
 11
216.616977
 21
76.111921
 31
0.0
  0
LINE
  5
64F
100
AcDbEntity
  8
0
370
    -3
  6
Continuous
100
AcDbLine
 10
217.016977
 20
81.111921
 30
0.0
 11
243.526761
 21
81.111921
 31
0.0
  0
LINE
  5
650
100
AcDbEntity
  8
0
370
    -3
  6
Continuous
100
AcDbLine
 10
102.016977
 20
76.511921
 30
0.0
 11
102.416977
 21
76.111921
 31
0.0
  0
LINE
  5
651
100
AcDbEntity
  8
0
370
    -3
  6
Continuous
100
AcDbLine
 10
102.016977
 20
76.511921
 30
0.0
 11
102.016977
 21
78.611921
 31
0.0
  0
LINE
  5
652
100
AcDbEntity
  8
0
370
    -3
  6
Continuous
100
AcDbLine
 10
102.166977
 20
78.611921
 30
0.0
 11
102.166977
 21
80.111921
 31
0.0
  0
LINE
  5
653
100
AcDbEntity
  8
0
370
    -3
  6
Continuous
100
AcDbLine
 10
102.166977
 20
80.111921
 30
0.0
 11
102.016977
 21
80.111921
 31
0.0
  0
LINE
  5
654
100
AcDbEntity
  8
0
370
    -3
  6
Continuous
100
AcDbLine
 10
102.166977
 20
78.611921
 30
0.0
 11
102.016977
 21
78.611921
 31
0.0
  0
LINE
  5
655
100
AcDbEntity
  8
0
370
    -3
  6
Continuous
100
AcDbLine
 10
102.016977
 20
80.111921
 30
0.0
 11
102.016977
 21
81.111921
 31
0.0
  0
LINE
  5
656
100
AcDbEntity
  8
0
370
    -3
  6
Continuous
100
AcDbLine
 10
102.416977
 20
76.111921
 30
0.0
 11
216.616977
 21
76.111921
 31
0.0
  0
LINE
  5
657
100
AcDbEntity
  8
0
370
    -3
  6
Continuous
100
AcDbLine
 10
11.507293
 20
81.111921
 30
0.0
 11
227.179555
 21
81.111921
 31
0.0
  0
LINE
  5
658
100
AcDbEntity
  8
0
370
    -3
  6
Continuous
100
AcDbLine
 10
217.016977
 20
76.511921
 30
0.0
 11
217.016977
 21
78.611921
 31
0.0
  0
LINE
  5
659
100
AcDbEntity
  8
0
370
    -3
  6
Continuous
100
AcDbLine
 10
-26.482923
 20
88.361921
 30
0.0
 11
-26.482923
 21
79.611921
 31
0.0
  0
LINE
  5
65A
100
AcDbEntity
  8
0
370
    -3
  6
Continuous
100
AcDbLine
 10
216.866977
 20
78.611921
 30
0.0
 11
216.866977
 21
80.111921
 31
0.0
  0
LINE
  5
65B
100
AcDbEntity
  8
0
370
    -3
  6
Continuous
100
AcDbLine
 10
216.866977
 20
80.111921
 30
0.0
 11
217.016977
 21
80.111921
 31
0.0
  0
LINE
  5
65C
100
AcDbEntity
  8
0
370
    -3
  6
Continuous
100
AcDbLine
 10
216.866977
 20
78.611921
 30
0.0
 11
217.016977
 21
78.611921
 31
0.0
  0
LINE
  5
65D
100
AcDbEntity
  8
0
370
    -3
  6
Continuous
100
AcDbLine
 10
217.016977
 20
80.111921
 30
0.0
 11
217.016977
 21
81.111921
 31
0.0
  0
LINE
  5
65E
100
AcDbEntity
  8
0
370
    -3
  6
Continuous
100
AcDbLine
 10
217.016977
 20
76.511921
 30
0.0
 11
216.616977
 21
76.111921
 31
0.0
  0
LINE
  5
65F
100
AcDbEntity
  8
0
370
    -3
  6
Continuous
100
AcDbLine
 10
217.016977
 20
81.111921
 30
0.0
 11
243.526761
 21
81.111921
 31
0.0
  0
LINE
  5
660
100
AcDbEntity
  8
0
370
    -3
  6
Continuous
100
AcDbLine
 10
102.416977
 20
76.111921
 30
0.0
 11
216.616977
 21
76.111921
 31
0.0
  0
LINE
  5
661
100
AcDbEntity
  8
0
370
    -3
  6
Continuous
100
AcDbLine
 10
102.016977
 20
76.511921
 30
0.0
 11
102.416977
 21
76.111921
 31
0.0
  0
LINE
  5
662
100
AcDbEntity
  8
0
370
    -3
  6
Continuous
100
AcDbLine
 10
102.016977
 20
76.511921
 30
0.0
 11
102.016977
 21
78.611921
 31
0.0
  0
LINE
  5
663
100
AcDbEntity
  8
0
370
    -3
  6
Continuous
100
AcDbLine
 10
102.166977
 20
78.611921
 30
0.0
 11
102.166977
 21
80.111921
 31
0.0
  0
LINE
  5
664
100
AcDbEntity
  8
0
370
    -3
  6
Continuous
100
AcDbLine
 10
102.166977
 20
80.111921
 30
0.0
 11
102.016977
 21
80.111921
 31
0.0
  0
LINE
  5
665
100
AcDbEntity
  8
0
370
    -3
  6
Continuous
100
AcDbLine
 10
102.166977
 20
78.611921
 30
0.0
 11
102.016977
 21
78.611921
 31
0.0
  0
LINE
  5
666
100
AcDbEntity
  8
0
370
    -3
  6
Continuous
100
AcDbLine
 10
102.016977
 20
80.111921
 30
0.0
 11
102.016977
 21
81.111921
 31
0.0
  0
LINE
  5
667
100
AcDbEntity
  8
0
370
    -3
  6
Continuous
100
AcDbLine
 10
217.016977
 20
225.711921
 30
0.0
 11
217.016977
 21
223.611921
 31
0.0
  0
LINE
  5
668
100
AcDbEntity
  8
0
370
    -3
  6
Continuous
100
AcDbLine
 10
243.526761
 20
81.111921
 30
0.0
 11
246.516977
 21
93.111921
 31
0.0
  0
LINE
  5
669
100
AcDbEntity
  8
0
370
    -3
  6
Continuous
100
AcDbLine
 10
216.866977
 20
223.611921
 30
0.0
 11
216.866977
 21
222.111921
 31
0.0
  0
LINE
  5
66A
100
AcDbEntity
  8
0
370
    -3
  6
Continuous
100
AcDbLine
 10
-19.982923
 20
220.611921
 30
0.0
 11
-19.982923
 21
172.611921
 31
0.0
  0
LINE
  5
66B
100
AcDbEntity
  8
0
370
    -3
  6
Continuous
100
AcDbLine
 10
216.866977
 20
222.111921
 30
0.0
 11
217.016977
 21
222.111921
 31
0.0
  0
LINE
  5
66C
100
AcDbEntity
  8
0
370
    -3
  6
Continuous
100
AcDbLine
 10
8.517441
 20
93.111921
 30
0.0
 11
11.017441
 21
220.63147
 31
0.0
  0
LINE
  5
66D
100
AcDbEntity
  8
0
370
    -3
  6
Continuous
100
AcDbLine
 10
216.866977
 20
223.611921
 30
0.0
 11
217.016977
 21
223.611921
 31
0.0
  0
LINE
  5
66E
100
AcDbEntity
  8
0
370
    -3
  6
Continuous
100
AcDbLine
 10
-3.482923
 20
90.111921
 30
0.0
 11
-3.482923
 21
217.111921
 31
0.0
  0
LINE
  5
66F
100
AcDbEntity
  8
0
370
    -3
  6
Continuous
100
AcDbLine
 10
217.016977
 20
222.111921
 30
0.0
 11
217.016977
 21
221.111921
 31
0.0
  0
LINE
  5
670
100
AcDbEntity
  8
0
370
    -3
  6
Continuous
100
AcDbLine
 10
217.016977
 20
225.711921
 30
0.0
 11
216.616977
 21
226.111921
 31
0.0
  0
LINE
  5
671
100
AcDbEntity
  8
0
370
    -3
  6
Continuous
100
AcDbLine
 10
217.016977
 20
221.111921
 30
0.0
 11
243.526761
 21
221.111921
 31
0.0
  0
LINE
  5
672
100
AcDbEntity
  8
0
370
    -3
  6
Continuous
100
AcDbLine
 10
-26.482559
 20
79.611921
 30
0.0
 11
-26.482559
 21
130.611921
 31
0.0
  0
LINE
  5
673
100
AcDbEntity
  8
0
370
    -3
  6
Continuous
100
AcDbLine
 10
102.016977
 20
225.711921
 30
0.0
 11
102.416977
 21
226.111921
 31
0.0
  0
LINE
  5
674
100
AcDbEntity
  8
0
370
    -3
  6
Continuous
100
AcDbLine
 10
102.016977
 20
225.711921
 30
0.0
 11
102.016977
 21
223.611921
 31
0.0
  0
LINE
  5
675
100
AcDbEntity
  8
0
370
    -3
  6
Continuous
100
AcDbLine
 10
102.166977
 20
223.611921
 30
0.0
 11
102.166977
 21
222.111921
 31
0.0
  0
LINE
  5
676
100
AcDbEntity
  8
0
370
    -3
  6
Continuous
100
AcDbLine
 10
102.166977
 20
222.111921
 30
0.0
 11
102.016977
 21
222.111921
 31
0.0
  0
LINE
  5
677
100
AcDbEntity
  8
0
370
    -3
  6
Continuous
100
AcDbLine
 10
102.166977
 20
223.611921
 30
0.0
 11
102.016977
 21
223.611921
 31
0.0
  0
LINE
  5
678
100
AcDbEntity
  8
0
370
    -3
  6
Continuous
100
AcDbLine
 10
246.516977
 20
93.111921
 30
0.0
 11
244.036353
 21
220.612109
 31
0.0
  0
LINE
  5
679
100
AcDbEntity
  8
0
370
    -3
  6
Continuous
100
AcDbLine
 10
102.016977
 20
222.111921
 30
0.0
 11
102.016977
 21
221.111921
 31
0.0
  0
LINE
  5
67A
100
AcDbEntity
  8
0
370
    -3
  6
Continuous
100
AcDbLine
 10
11.507293
 20
221.111921
 30
0.0
 11
227.179555
 21
221.111921
 31
0.0
  0
LINE
  5
67B
100
AcDbEntity
  8
0
370
    -3
  6
Continuous
100
AcDbLine
 10
102.416977
 20
226.111921
 30
0.0
 11
216.616977
 21
226.111921
 31
0.0
  0
ARC
  5
67C
100
AcDbEntity
  8
0
370
    -3
  6
Continuous
100
AcDbCircle
 10
2.535893
 20
93.611921
 30
0.0
 40
3.0
100
AcDbArc
 50
358.889756
 51
90.0
  0
ARC
  5
67D
100
AcDbEntity
  8
0
370
    -3
  6
Continuous
100
AcDbCircle
 10
-0.482923
 20
93.611921
 30
0.0
 40
3.0
100
AcDbArc
 50
90.0
 51
180.0
  0
LINE
  5
67E
100
AcDbEntity
  8
0
370
    -3
  6
Continuous
100
AcDbLine
 10
-0.482923
 20
96.611921
 30
0.0
 11
2.535893
 21
96.611921
 31
0.0
  0
ARC
  5
67F
100
AcDbEntity
  8
0
370
    -3
  6
Continuous
100
AcDbCircle
 10
7.987444
 20
220.111921
 30
0.0
 40
3.0
100
AcDbArc
 50
270.0
 51
358.889756
  0
LINE
  5
680
100
AcDbEntity
  8
0
370
    -3
  6
Continuous
100
AcDbLine
 10
5.526767
 20
93.111921
 30
0.0
 11
5.53533
 21
93.553793
 31
0.0
  0
LINE
  5
681
100
AcDbEntity
  8
0
370
    -3
  6
Continuous
100
AcDbLine
 10
10.986881
 20
220.053793
 30
0.0
 11
10.997701
 21
220.612109
 31
0.0
  0
LINE
  5
682
100
AcDbEntity
  8
0
370
    -3
  6
Continuous
100
AcDbLine
 10
-3.482923
 20
93.611921
 30
0.0
 11
-3.482923
 21
90.111921
 31
0.0
  0
LINE
  5
683
100
AcDbEntity
  8
0
370
    -3
  6
Continuous
100
AcDbLine
 10
-16.982923
 20
85.111921
 30
0.0
 11
-8.482923
 21
85.111921
 31
0.0
  0
LINE
  5
684
100
AcDbEntity
  8
0
370
    -3
  6
Continuous
100
AcDbLine
 10
-19.982923
 20
220.111921
 30
0.0
 11
-19.982923
 21
220.611921
 31
0.0
  0
ARC
  5
685
100
AcDbEntity
  8
0
370
    -3
  6
Continuous
100
AcDbCircle
 10
-21.982923
 20
220.611921
 30
0.0
 40
2.0
100
AcDbArc
 50
0.0
 51
90.0
  0
ARC
  5
686
100
AcDbEntity
  8
0
370
    -3
  6
Continuous
100
AcDbCircle
 10
-16.982923
 20
220.111921
 30
0.0
 40
3.0
100
AcDbArc
 50
180.0
 51
270.0
  0
LINE
  5
687
100
AcDbEntity
  8
0
370
    -3
  6
Continuous
100
AcDbLine
 10
-21.982923
 20
222.611921
 30
0.0
 11
-26.482923
 21
222.611921
 31
0.0
  0
ARC
  5
688
100
AcDbEntity
  8
0
370
    -3
  6
Continuous
100
AcDbCircle
 10
-8.482923
 20
90.111921
 30
0.0
 40
5.0
100
AcDbArc
 50
270.0
 51
0.0
  0
LINE
  5
689
100
AcDbEntity
  8
0
370
    -3
  6
Continuous
100
AcDbLine
 10
-16.982923
 20
217.111921
 30
0.0
 11
7.987444
 21
217.111921
 31
0.0
  0
LINE
  5
68A
100
AcDbEntity
  8
0
370
    -3
  6
Continuous
100
AcDbLine
 10
-19.982923
 20
82.111921
 30
0.0
 11
-19.982923
 21
81.611921
 31
0.0
  0
ARC
  5
68B
100
AcDbEntity
  8
0
370
    -3
  6
Continuous
100
AcDbCircle
 10
-21.982923
 20
81.611921
 30
0.0
 40
2.0
100
AcDbArc
 50
270.0
 51
0.0
  0
ARC
  5
68C
100
AcDbEntity
  8
0
370
    -3
  6
Continuous
100
AcDbCircle
 10
-16.982923
 20
82.111921
 30
0.0
 40
3.0
100
AcDbArc
 50
90.0
 51
180.0
  0
LINE
  5
68D
100
AcDbEntity
  8
0
370
    -3
  6
Continuous
100
AcDbLine
 10
-21.982923
 20
79.611921
 30
0.0
 11
-26.482923
 21
79.611921
 31
0.0
  0
LINE
  5
68E
100
AcDbEntity
  8
0
370
    -3
  6
Continuous
100
AcDbLine
 10
5.493933
 20
93.111921
 30
0.0
 11
246.516977
 21
93.111921
 31
0.0
  0
LINE
  5
68F
100
AcDbEntity
  8
0
370
    -3
  6
Continuous
100
AcDbLine
 10
243.526761
 20
221.111921
 30
0.0
 11
244.036353
 21
220.612109
 31
0.0
  0
LINE
  5
690
100
AcDbEntity
  8
0
370
    -3
  6
Continuous
100
AcDbLine
 10
-19.982923
 20
129.611921
 30
0.0
 11
-19.982923
 21
82.111921
 31
0.0
  0
LINE
  5
691
100
AcDbEntity
  8
0
370
    -3
  6
CENTER
100
AcDbLine
 10
255.691809
 20
-108.582778
 30
0.0
 11
68.046761
 21
-108.582778
 31
0.0
  0
LINE
  5
692
100
AcDbEntity
  8
0
370
    -3
  6
Continuous
100
AcDbLine
 10
-26.482559
 20
-152.582778
 30
0.0
 11
-26.482559
 21
-81.082778
 31
0.0
  0
LINE
  5
693
100
AcDbEntity
  8
0
370
    -3
  6
Continuous
100
AcDbLine
 10
-26.482559
 20
-152.582778
 30
0.0
 11
-26.482559
 21
-222.582778
 31
0.0
  0
LINE
  5
694
100
AcDbEntity
  8
0
370
    -3
  6
CENTER
100
AcDbLine
 10
216.748545
 20
-222.582778
 30
0.0
 11
198.021852
 21
-222.582778
 31
0.0
  0
LINE
  5
695
100
AcDbEntity
  8
0
370
    -3
  6
CENTER
100
AcDbLine
 10
50.517441
 20
-214.104252
 30
0.0
 11
50.517441
 21
-230.943826
 31
0.0
  0
LINE
  5
696
100
AcDbEntity
  8
0
370
    -3
  6
CENTER
100
AcDbLine
 10
60.748545
 20
-222.582778
 30
0.0
 11
42.021852
 21
-222.582778
 31
0.0
  0
LINE
  5
697
100
AcDbEntity
  8
0
370
    -3
  6
CENTER
100
AcDbLine
 10
50.517441
 20
-22.582778
 30
0.0
 11
50.517441
 21
-42.467196
 31
0.0
  0
LINE
  5
698
100
AcDbEntity
  8
0
370
    -3
  6
CENTER
100
AcDbLine
 10
59.517441
 20
-31.582778
 30
0.0
 11
40.453931
 21
-31.582778
 31
0.0
  0
LINE
  5
699
100
AcDbEntity
  8
0
370
    -3
  6
CENTER
100
AcDbLine
 10
206.517441
 20
-214.104252
 30
0.0
 11
206.517441
 21
-232.845556
 31
0.0
  0
LINE
  5
69A
100
AcDbEntity
  8
0
370
    -3
  6
CENTER
100
AcDbLine
 10
215.517441
 20
-31.582778
 30
0.0
 11
196.453931
 21
-31.582778
 31
0.0
  0
LINE
  5
69B
100
AcDbEntity
  8
0
370
    -3
  6
CENTER
100
AcDbLine
 10
206.517441
 20
-23.104252
 30
0.0
 11
206.517441
 21
-41.845556
 31
0.0
  0
ARC
  5
69C
100
AcDbEntity
  8
0
370
    -3
  6
Continuous
100
AcDbCircle
 10
-8.482559
 20
-102.582778
 30
0.0
 40
5.0
100
AcDbArc
 50
9.614777
 51
90.0
  0
ARC
  5
69D
100
AcDbEntity
  8
0
370
    -3
  6
Continuous
100
AcDbCircle
 10
-8.482559
 20
-111.595625
 30
0.0
 40
5.0
100
AcDbArc
 50
8.085995
 51
90.0
  0
LINE
  5
69E
100
AcDbEntity
  8
0
370
    -3
  6
Continuous
100
AcDbLine
 10
-16.982559
 20
-97.582778
 30
0.0
 11
-8.482559
 21
-97.582778
 31
0.0
  0
ARC
  5
69F
100
AcDbEntity
  8
0
370
    -3
  6
Continuous
100
AcDbCircle
 10
-16.982559
 20
-94.582778
 30
0.0
 40
3.0
100
AcDbArc
 50
180.0
 51
270.0
  0
LINE
  5
6A0
100
AcDbEntity
  8
0
370
    -3
  6
Continuous
100
AcDbLine
 10
-16.982559
 20
-106.595625
 30
0.0
 11
-8.482559
 21
-106.595625
 31
0.0
  0
ARC
  5
6A1
100
AcDbEntity
  8
0
370
    -3
  6
Continuous
100
AcDbCircle
 10
-16.982559
 20
-109.595625
 30
0.0
 40
3.0
100
AcDbArc
 50
90.0
 51
180.0
  0
LINE
  5
6A2
100
AcDbEntity
  8
0
370
    -3
  6
Continuous
100
AcDbLine
 10
-19.982559
 20
-152.582778
 30
0.0
 11
-19.982559
 21
-109.595625
 31
0.0
  0
LINE
  5
6A3
100
AcDbEntity
  8
0
370
    -3
  6
Continuous
100
AcDbLine
 10
-16.982559
 20
-86.582778
 30
0.0
 11
5.517441
 21
-86.582778
 31
0.0
  0
LINE
  5
6A4
100
AcDbEntity
  8
0
370
    -3
  6
Continuous
100
AcDbLine
 10
-21.982559
 20
-81.082778
 30
0.0
 11
-26.482559
 21
-81.082778
 31
0.0
  0
ARC
  5
6A5
100
AcDbEntity
  8
0
370
    -3
  6
Continuous
100
AcDbCircle
 10
5.517441
 20
-221.582778
 30
0.0
 40
3.0
100
AcDbArc
 50
0.0
 51
90.0
  0
ARC
  5
6A6
100
AcDbEntity
  8
0
370
    -3
  6
Continuous
100
AcDbCircle
 10
-0.594935
 20
-203.918962
 30
0.0
 40
3.0
100
AcDbArc
 50
90.0
 51
170.385223
  0
ARC
  5
6A7
100
AcDbEntity
  8
0
370
    -3
  6
Continuous
100
AcDbCircle
 10
-0.562095
 20
-194.695205
 30
0.0
 40
3.0
100
AcDbArc
 50
90.0
 51
171.914005
  0
ARC
  5
6A8
100
AcDbEntity
  8
0
370
    -3
  6
Continuous
100
AcDbCircle
 10
-0.562095
 20
-110.470351
 30
0.0
 40
3.0
100
AcDbArc
 50
188.085995
 51
270.0
  0
ARC
  5
6A9
100
AcDbEntity
  8
0
370
    -3
  6
Continuous
100
AcDbCircle
 10
-0.594935
 20
-101.246593
 30
0.0
 40
3.0
100
AcDbArc
 50
189.614777
 51
270.0
  0
ARC
  5
6AA
100
AcDbEntity
  8
0
370
    -3
  6
Continuous
100
AcDbCircle
 10
-16.982559
 20
-190.848808
 30
0.0
 40
3.0
100
AcDbArc
 50
180.0
 51
270.0
  0
ARC
  5
6AB
100
AcDbEntity
  8
0
370
    -3
  6
Continuous
100
AcDbCircle
 10
-16.982559
 20
-113.834991
 30
0.0
 40
3.0
100
AcDbArc
 50
90.0
 51
180.0
  0
LINE
  5
6AC
100
AcDbEntity
  8
0
370
    -3
  6
Continuous
100
AcDbLine
 10
-16.982559
 20
-193.848808
 30
0.0
 11
-6.049837
 21
-193.848808
 31
0.0
  0
LINE
  5
6AD
100
AcDbEntity
  8
0
370
    -3
  6
Continuous
100
AcDbLine
 10
-16.982559
 20
-110.834991
 30
0.0
 11
-6.576909
 21
-110.834991
 31
0.0
  0
LINE
  5
6AE
100
AcDbEntity
  8
0
370
    -3
  6
Continuous
100
AcDbLine
 10
-19.982559
 20
-210.582778
 30
0.0
 11
-19.982559
 21
-222.082778
 31
0.0
  0
LINE
  5
6AF
100
AcDbEntity
  8
0
370
    -3
  6
Continuous
100
AcDbLine
 10
-19.982559
 20
-94.582778
 30
0.0
 11
-19.982559
 21
-83.082778
 31
0.0
  0
LINE
  5
6B0
100
AcDbEntity
  8
0
370
    -3
  6
Continuous
100
AcDbLine
 10
-13.482559
 20
-84.582778
 30
0.0
 11
-13.482559
 21
-58.582778
 31
0.0
  0
LINE
  5
6B1
100
AcDbEntity
  8
0
370
    -3
  6
Continuous
100
AcDbLine
 10
-14.482559
 20
-57.582778
 30
0.0
 11
-24.482559
 21
-57.582778
 31
0.0
  0
ARC
  5
6B2
100
AcDbEntity
  8
0
370
    -3
  6
Continuous
100
AcDbCircle
 10
-14.482559
 20
-58.582778
 30
0.0
 40
1.0
100
AcDbArc
 50
0.0
 51
90.0
  0
ARC
  5
6B3
100
AcDbEntity
  8
0
370
    -3
  6
Continuous
100
AcDbCircle
 10
-11.482559
 20
-84.582778
 30
0.0
 40
2.0
100
AcDbArc
 50
180.0
 51
270.0
  0
ARC
  5
6B4
100
AcDbEntity
  8
0
370
    -3
  6
Continuous
100
AcDbCircle
 10
-21.982559
 20
-222.082778
 30
0.0
 40
2.0
100
AcDbArc
 50
270.0
 51
0.0
  0
ARC
  5
6B5
100
AcDbEntity
  8
0
370
    -3
  6
Continuous
100
AcDbCircle
 10
-16.982559
 20
-221.582778
 30
0.0
 40
3.0
100
AcDbArc
 50
90.0
 51
180.0
  0
ARC
  5
6B6
100
AcDbEntity
  8
0
370
    -3
  6
Continuous
100
AcDbCircle
 10
-8.482559
 20
-202.582778
 30
0.0
 40
5.0
100
AcDbArc
 50
270.0
 51
350.385223
  0
ARC
  5
6B7
100
AcDbEntity
  8
0
370
    -3
  6
Continuous
100
AcDbCircle
 10
-8.482559
 20
-193.569931
 30
0.0
 40
5.0
100
AcDbArc
 50
270.0
 51
351.914005
  0
LINE
  5
6B8
100
AcDbEntity
  8
0
370
    -3
  6
Continuous
100
AcDbLine
 10
-16.982559
 20
-207.582778
 30
0.0
 11
-8.482559
 21
-207.582778
 31
0.0
  0
ARC
  5
6B9
100
AcDbEntity
  8
0
370
    -3
  6
Continuous
100
AcDbCircle
 10
-16.982559
 20
-210.582778
 30
0.0
 40
3.0
100
AcDbArc
 50
90.0
 51
180.0
  0
LINE
  5
6BA
100
AcDbEntity
  8
0
370
    -3
  6
Continuous
100
AcDbLine
 10
-16.982559
 20
-198.569931
 30
0.0
 11
-8.482559
 21
-198.569931
 31
0.0
  0
ARC
  5
6BB
100
AcDbEntity
  8
0
370
    -3
  6
Continuous
100
AcDbCircle
 10
-16.982559
 20
-195.569931
 30
0.0
 40
3.0
100
AcDbArc
 50
180.0
 51
270.0
  0
LINE
  5
6BC
100
AcDbEntity
  8
0
370
    -3
  6
Continuous
100
AcDbLine
 10
-21.982559
 20
-224.082778
 30
0.0
 11
-26.482559
 21
-224.082778
 31
0.0
  0
LINE
  5
6BD
100
AcDbEntity
  8
0
370
    -3
  6
Continuous
100
AcDbLine
 10
-19.982559
 20
-152.582778
 30
0.0
 11
-19.982559
 21
-195.569931
 31
0.0
  0
LINE
  5
6BE
100
AcDbEntity
  8
0
370
    -3
  6
Continuous
100
AcDbLine
 10
-16.982559
 20
-218.582778
 30
0.0
 11
5.517441
 21
-218.582778
 31
0.0
  0
ARC
  5
6BF
100
AcDbEntity
  8
0
370
    -3
  6
Continuous
100
AcDbCircle
 10
-21.982559
 20
-83.082778
 30
0.0
 40
2.0
100
AcDbArc
 50
360.0
 51
90.0
  0
ARC
  5
6C0
100
AcDbEntity
  8
0
370
    -3
  6
Continuous
100
AcDbCircle
 10
-16.982559
 20
-83.582778
 30
0.0
 40
3.0
100
AcDbArc
 50
180.0
 51
270.0
  0
LINE
  5
6C1
100
AcDbEntity
  8
0
370
    -3
  6
Continuous
100
AcDbLine
 10
187.762442
 20
-221.082778
 30
0.0
 11
69.27244
 21
-221.082778
 31
0.0
  0
LINE
  5
6C2
100
AcDbEntity
  8
0
370
    -3
  6
Continuous
100
AcDbLine
 10
187.762442
 20
-219.582778
 30
0.0
 11
69.27244
 21
-219.582778
 31
0.0
  0
ARC
  5
6C3
100
AcDbEntity
  8
0
370
    -3
  6
Continuous
100
AcDbCircle
 10
69.27244
 20
-211.082778
 30
0.0
 40
8.5
100
AcDbArc
 50
211.51537
 51
270.0
  0
ARC
  5
6C4
100
AcDbEntity
  8
0
370
    -3
  6
Continuous
100
AcDbCircle
 10
69.27244
 20
-211.082778
 30
0.0
 40
10.0
100
AcDbArc
 50
211.51537
 51
270.0
  0
ARC
  5
6C5
100
AcDbEntity
  8
0
370
    -3
  6
Continuous
100
AcDbCircle
 10
50.517441
 20
-222.582778
 30
0.0
 40
13.5
100
AcDbArc
 50
31.51537
 51
77.379805
  0
ARC
  5
6C6
100
AcDbEntity
  8
0
370
    -3
  6
Continuous
100
AcDbCircle
 10
50.517441
 20
-222.582778
 30
0.0
 40
12.0
100
AcDbArc
 50
31.51537
 51
77.379805
  0
ARC
  5
6C7
100
AcDbEntity
  8
0
370
    -3
  6
Continuous
100
AcDbCircle
 10
55.324159
 20
-201.114302
 30
0.0
 40
10.0
100
AcDbArc
 50
206.676285
 51
257.379805
  0
ARC
  5
6C8
100
AcDbEntity
  8
0
370
    -3
  6
Continuous
100
AcDbCircle
 10
55.324159
 20
-201.114302
 30
0.0
 40
8.5
100
AcDbArc
 50
206.676285
 51
257.379805
  0
ARC
  5
6C9
100
AcDbEntity
  8
0
370
    -3
  6
Continuous
100
AcDbCircle
 10
28.517441
 20
-214.582778
 30
0.0
 40
20.0
100
AcDbArc
 50
26.676285
 51
87.134016
  0
ARC
  5
6CA
100
AcDbEntity
  8
0
370
    -3
  6
Continuous
100
AcDbCircle
 10
28.517441
 20
-214.582778
 30
0.0
 40
21.5
100
AcDbArc
 50
26.676285
 51
87.134016
  0
ARC
  5
6CB
100
AcDbEntity
  8
0
370
    -3
  6
Continuous
100
AcDbCircle
 10
30.017441
 20
-184.620301
 30
0.0
 40
10.0
100
AcDbArc
 50
180.0
 51
267.134016
  0
ARC
  5
6CC
100
AcDbEntity
  8
0
370
    -3
  6
Continuous
100
AcDbCircle
 10
30.017441
 20
-184.620301
 30
0.0
 40
8.5
100
AcDbArc
 50
180.0
 51
267.134016
  0
CIRCLE
  5
6CD
100
AcDbEntity
  8
0
370
    -3
  6
Continuous
100
AcDbCircle
 10
206.517441
 20
-222.582778
 30
0.0
 40
7.0
  0
ARC
  5
6CE
100
AcDbEntity
  8
0
370
    -3
  6
Continuous
100
AcDbCircle
 10
225.017441
 20
-184.787644
 30
0.0
 40
8.5
100
AcDbArc
 50
276.699765
 51
0.0
  0
ARC
  5
6CF
100
AcDbEntity
  8
0
370
    -3
  6
Continuous
100
AcDbCircle
 10
225.017441
 20
-184.787644
 30
0.0
 40
10.0
100
AcDbArc
 50
276.699765
 51
0.0
  0
ARC
  5
6D0
100
AcDbEntity
  8
0
370
    -3
  6
Continuous
100
AcDbCircle
 10
228.517441
 20
-214.582778
 30
0.0
 40
21.5
100
AcDbArc
 50
96.699765
 51
153.323715
  0
ARC
  5
6D1
100
AcDbEntity
  8
0
370
    -3
  6
Continuous
100
AcDbCircle
 10
228.517441
 20
-214.582778
 30
0.0
 40
20.0
100
AcDbArc
 50
96.699765
 51
153.323715
  0
ARC
  5
6D2
100
AcDbEntity
  8
0
370
    -3
  6
Continuous
100
AcDbCircle
 10
201.710722
 20
-201.114302
 30
0.0
 40
10.0
100
AcDbArc
 50
282.620195
 51
333.323715
  0
ARC
  5
6D3
100
AcDbEntity
  8
0
370
    -3
  6
Continuous
100
AcDbCircle
 10
201.710722
 20
-201.114302
 30
0.0
 40
8.5
100
AcDbArc
 50
282.620195
 51
333.323715
  0
ARC
  5
6D4
100
AcDbEntity
  8
0
370
    -3
  6
Continuous
100
AcDbCircle
 10
206.517441
 20
-222.582778
 30
0.0
 40
13.5
100
AcDbArc
 50
102.620195
 51
148.48463
  0
ARC
  5
6D5
100
AcDbEntity
  8
0
370
    -3
  6
Continuous
100
AcDbCircle
 10
206.517441
 20
-222.582778
 30
0.0
 40
12.0
100
AcDbArc
 50
102.620195
 51
148.48463
  0
ARC
  5
6D6
100
AcDbEntity
  8
0
370
    -3
  6
Continuous
100
AcDbCircle
 10
187.762442
 20
-211.082778
 30
0.0
 40
8.5
100
AcDbArc
 50
270.0
 51
328.48463
  0
ARC
  5
6D7
100
AcDbEntity
  8
0
370
    -3
  6
Continuous
100
AcDbCircle
 10
187.762442
 20
-211.082778
 30
0.0
 40
10.0
100
AcDbArc
 50
270.0
 51
328.48463
  0
CIRCLE
  5
6D8
100
AcDbEntity
  8
0
370
    -3
  6
Continuous
100
AcDbCircle
 10
50.517441
 20
-222.582778
 30
0.0
 40
4.4
  0
ARC
  5
6D9
100
AcDbEntity
  8
0
370
    -3
  6
Continuous
100
AcDbCircle
 10
236.517441
 20
-222.582778
 30
0.0
 40
9.0
100
AcDbArc
 50
270.0
 51
0.0
  0
ARC
  5
6DA
100
AcDbEntity
  8
0
370
    -3
  6
Continuous
100
AcDbCircle
 10
236.517441
 20
-222.582778
 30
0.0
 40
10.0
100
AcDbArc
 50
270.0
 51
0.0
  0
LINE
  5
6DB
100
AcDbEntity
  8
0
370
    -3
  6
Continuous
100
AcDbLine
 10
236.517441
 20
-231.582778
 30
0.0
 11
18.517441
 21
-231.582778
 31
0.0
  0
LINE
  5
6DC
100
AcDbEntity
  8
0
370
    -3
  6
Continuous
100
AcDbLine
 10
236.517441
 20
-232.582778
 30
0.0
 11
18.517441
 21
-232.582778
 31
0.0
  0
ARC
  5
6DD
100
AcDbEntity
  8
0
370
    -3
  6
Continuous
100
AcDbCircle
 10
18.517441
 20
-222.582778
 30
0.0
 40
9.0
100
AcDbArc
 50
180.0
 51
270.0
  0
ARC
  5
6DE
100
AcDbEntity
  8
0
370
    -3
  6
Continuous
100
AcDbCircle
 10
18.517441
 20
-222.582778
 30
0.0
 40
10.0
100
AcDbArc
 50
180.0
 51
270.0
  0
LINE
  5
6DF
100
AcDbEntity
  8
0
370
    -3
  6
Continuous
100
AcDbLine
 10
8.517441
 20
-192.582778
 30
0.0
 11
8.517441
 21
-222.582778
 31
0.0
  0
LINE
  5
6E0
100
AcDbEntity
  8
0
370
    -3
  6
Continuous
100
AcDbLine
 10
8.517441
 20
-192.582778
 30
0.0
 11
5.517441
 21
-182.582778
 31
0.0
  0
CIRCLE
  5
6E1
100
AcDbEntity
  8
0
370
    -3
  6
Continuous
100
AcDbCircle
 10
206.517441
 20
-222.582778
 30
0.0
 40
4.5
  0
CIRCLE
  5
6E2
100
AcDbEntity
  8
0
370
    -3
  6
Continuous
100
AcDbCircle
 10
50.517441
 20
-222.582778
 30
0.0
 40
7.0
  0
LINE
  5
6E3
100
AcDbEntity
  8
0
370
    -3
  6
Continuous
100
AcDbLine
 10
9.517441
 20
-222.582778
 30
0.0
 11
9.517441
 21
-31.582778
 31
0.0
  0
LINE
  5
6E4
100
AcDbEntity
  8
0
370
    -3
  6
Continuous
100
AcDbLine
 10
20.017441
 20
-69.545254
 30
0.0
 11
20.017441
 21
-184.620301
 31
0.0
  0
LINE
  5
6E5
100
AcDbEntity
  8
0
370
    -3
  6
Continuous
100
AcDbLine
 10
21.517441
 20
-69.545254
 30
0.0
 11
21.517441
 21
-184.620301
 31
0.0
  0
LINE
  5
6E6
100
AcDbEntity
  8
0
370
    -3
  6
Continuous
100
AcDbLine
 10
233.517441
 20
-69.377912
 30
0.0
 11
233.517441
 21
-184.787644
 31
0.0
  0
LINE
  5
6E7
100
AcDbEntity
  8
0
370
    -3
  6
Continuous
100
AcDbLine
 10
235.017441
 20
-69.377912
 30
0.0
 11
235.017441
 21
-184.787644
 31
0.0
  0
ARC
  5
6E8
100
AcDbEntity
  8
0
370
    -3
  6
Continuous
100
AcDbCircle
 10
228.517441
 20
-39.582778
 30
0.0
 40
21.5
100
AcDbArc
 50
206.676285
 51
263.300235
  0
ARC
  5
6E9
100
AcDbEntity
  8
0
370
    -3
  6
Continuous
100
AcDbCircle
 10
225.017441
 20
-69.377912
 30
0.0
 40
8.5
100
AcDbArc
 50
0.0
 51
83.300235
  0
ARC
  5
6EA
100
AcDbEntity
  8
0
370
    -3
  6
Continuous
100
AcDbCircle
 10
225.017441
 20
-69.377912
 30
0.0
 40
10.0
100
AcDbArc
 50
0.0
 51
83.300235
  0
ARC
  5
6EB
100
AcDbEntity
  8
0
370
    -3
  6
Continuous
100
AcDbCircle
 10
228.517441
 20
-39.582778
 30
0.0
 40
20.0
100
AcDbArc
 50
206.676285
 51
263.300235
  0
LINE
  5
6EC
100
AcDbEntity
  8
0
370
    -3
  6
Continuous
100
AcDbLine
 10
69.27244
 20
-33.082778
 30
0.0
 11
187.762442
 21
-33.082778
 31
0.0
  0
LINE
  5
6ED
100
AcDbEntity
  8
0
370
    -3
  6
Continuous
100
AcDbLine
 10
69.27244
 20
-34.582778
 30
0.0
 11
187.762442
 21
-34.582778
 31
0.0
  0
ARC
  5
6EE
100
AcDbEntity
  8
0
370
    -3
  6
Continuous
100
AcDbCircle
 10
187.762442
 20
-43.082778
 30
0.0
 40
8.5
100
AcDbArc
 50
31.51537
 51
90.0
  0
ARC
  5
6EF
100
AcDbEntity
  8
0
370
    -3
  6
Continuous
100
AcDbCircle
 10
187.762442
 20
-43.082778
 30
0.0
 40
10.0
100
AcDbArc
 50
31.51537
 51
90.0
  0
ARC
  5
6F0
100
AcDbEntity
  8
0
370
    -3
  6
Continuous
100
AcDbCircle
 10
206.517441
 20
-31.582778
 30
0.0
 40
13.5
100
AcDbArc
 50
211.51537
 51
257.379805
  0
ARC
  5
6F1
100
AcDbEntity
  8
0
370
    -3
  6
Continuous
100
AcDbCircle
 10
206.517441
 20
-31.582778
 30
0.0
 40
12.0
100
AcDbArc
 50
211.51537
 51
257.379805
  0
ARC
  5
6F2
100
AcDbEntity
  8
0
370
    -3
  6
Continuous
100
AcDbCircle
 10
201.710722
 20
-53.051254
 30
0.0
 40
8.5
100
AcDbArc
 50
26.676285
 51
77.379805
  0
ARC
  5
6F3
100
AcDbEntity
  8
0
370
    -3
  6
Continuous
100
AcDbCircle
 10
201.710722
 20
-53.051254
 30
0.0
 40
10.0
100
AcDbArc
 50
26.676285
 51
77.379805
  0
ARC
  5
6F4
100
AcDbEntity
  8
0
370
    -3
  6
Continuous
100
AcDbCircle
 10
30.017441
 20
-69.545254
 30
0.0
 40
8.5
100
AcDbArc
 50
92.865984
 51
180.0
  0
ARC
  5
6F5
100
AcDbEntity
  8
0
370
    -3
  6
Continuous
100
AcDbCircle
 10
28.517441
 20
-39.582778
 30
0.0
 40
21.5
100
AcDbArc
 50
272.865984
 51
333.323715
  0
ARC
  5
6F6
100
AcDbEntity
  8
0
370
    -3
  6
Continuous
100
AcDbCircle
 10
55.324159
 20
-53.051254
 30
0.0
 40
8.5
100
AcDbArc
 50
102.620195
 51
153.323715
  0
ARC
  5
6F7
100
AcDbEntity
  8
0
370
    -3
  6
Continuous
100
AcDbCircle
 10
50.517441
 20
-31.582778
 30
0.0
 40
13.5
100
AcDbArc
 50
282.620195
 51
328.48463
  0
ARC
  5
6F8
100
AcDbEntity
  8
0
370
    -3
  6
Continuous
100
AcDbCircle
 10
69.27244
 20
-43.082778
 30
0.0
 40
8.5
100
AcDbArc
 50
90.0
 51
148.48463
  0
ARC
  5
6F9
100
AcDbEntity
  8
0
370
    -3
  6
Continuous
100
AcDbCircle
 10
50.517441
 20
-31.582778
 30
0.0
 40
12.0
100
AcDbArc
 50
282.620195
 51
328.48463
  0
ARC
  5
6FA
100
AcDbEntity
  8
0
370
    -3
  6
Continuous
100
AcDbCircle
 10
28.517441
 20
-39.582778
 30
0.0
 40
20.0
100
AcDbArc
 50
272.865984
 51
333.323715
  0
ARC
  5
6FB
100
AcDbEntity
  8
0
370
    -3
  6
Continuous
100
AcDbCircle
 10
55.324159
 20
-53.051254
 30
0.0
 40
10.0
100
AcDbArc
 50
102.620195
 51
153.323715
  0
ARC
  5
6FC
100
AcDbEntity
  8
0
370
    -3
  6
Continuous
100
AcDbCircle
 10
30.017441
 20
-69.545254
 30
0.0
 40
10.0
100
AcDbArc
 50
92.865984
 51
180.0
  0
ARC
  5
6FD
100
AcDbEntity
  8
0
370
    -3
  6
Continuous
100
AcDbCircle
 10
69.27244
 20
-43.082778
 30
0.0
 40
10.0
100
AcDbArc
 50
90.0
 51
148.48463
  0
LINE
  5
6FE
100
AcDbEntity
  8
0
370
    -3
  6
Continuous
100
AcDbLine
 10
18.517441
 20
-22.582778
 30
0.0
 11
236.517441
 21
-22.582778
 31
0.0
  0
LINE
  5
6FF
100
AcDbEntity
  8
0
370
    -3
  6
Continuous
100
AcDbLine
 10
236.517441
 20
-21.582778
 30
0.0
 11
18.517441
 21
-21.582778
 31
0.0
  0
ARC
  5
700
100
AcDbEntity
  8
0
370
    -3
  6
Continuous
100
AcDbCircle
 10
236.517441
 20
-31.582778
 30
0.0
 40
9.0
100
AcDbArc
 50
0.0
 51
90.0
  0
ARC
  5
701
100
AcDbEntity
  8
0
370
    -3
  6
Continuous
100
AcDbCircle
 10
236.517441
 20
-31.582778
 30
0.0
 40
10.0
100
AcDbArc
 50
0.0
 51
90.0
  0
LINE
  5
702
100
AcDbEntity
  8
0
370
    -3
  6
Continuous
100
AcDbLine
 10
245.517441
 20
-31.582778
 30
0.0
 11
245.517441
 21
-222.582778
 31
0.0
  0
LINE
  5
703
100
AcDbEntity
  8
0
370
    -3
  6
Continuous
100
AcDbLine
 10
246.517441
 20
-31.582778
 30
0.0
 11
246.517441
 21
-222.582778
 31
0.0
  0
LINE
  5
704
100
AcDbEntity
  8
0
370
    -3
  6
Continuous
100
AcDbLine
 10
5.517441
 20
-71.582778
 30
0.0
 11
5.517441
 21
-182.582778
 31
0.0
  0
ARC
  5
705
100
AcDbEntity
  8
0
370
    -3
  6
Continuous
100
AcDbCircle
 10
18.517441
 20
-31.582778
 30
0.0
 40
9.0
100
AcDbArc
 50
90.0
 51
180.0
  0
ARC
  5
706
100
AcDbEntity
  8
0
370
    -3
  6
Continuous
100
AcDbCircle
 10
18.517441
 20
-31.582778
 30
0.0
 40
10.0
100
AcDbArc
 50
90.0
 51
180.0
  0
LINE
  5
707
100
AcDbEntity
  8
0
370
    -3
  6
Continuous
100
AcDbLine
 10
8.517441
 20
-31.582778
 30
0.0
 11
8.517441
 21
-61.582778
 31
0.0
  0
LINE
  5
708
100
AcDbEntity
  8
0
370
    -3
  6
Continuous
100
AcDbLine
 10
8.517441
 20
-61.582778
 30
0.0
 11
5.517441
 21
-71.582778
 31
0.0
  0
CIRCLE
  5
709
100
AcDbEntity
  8
0
370
    -3
  6
Continuous
100
AcDbCircle
 10
206.517441
 20
-31.582778
 30
0.0
 40
4.5
  0
CIRCLE
  5
70A
100
AcDbEntity
  8
0
370
    -3
  6
Continuous
100
AcDbCircle
 10
206.517441
 20
-31.582778
 30
0.0
 40
7.0
  0
CIRCLE
  5
70B
100
AcDbEntity
  8
0
370
    -3
  6
Continuous
100
AcDbCircle
 10
50.517441
 20
-31.582778
 30
0.0
 40
7.0
  0
CIRCLE
  5
70C
100
AcDbEntity
  8
0
370
    -3
  6
Continuous
100
AcDbCircle
 10
50.517441
 20
-31.582778
 30
0.0
 40
4.5
  0
CIRCLE
  5
70D
100
AcDbEntity
  8
0
370
    -3
  6
Continuous
100
AcDbCircle
 10
159.517441
 20
-108.582778
 30
0.0
 40
66.0
  0
CIRCLE
  5
70E
100
AcDbEntity
  8
0
370
    -3
  6
Continuous
100
AcDbCircle
 10
159.517441
 20
-108.582778
 30
0.0
 40
64.5
  0
CIRCLE
  5
70F
100
AcDbEntity
  8
0
370
    -3
  6
Continuous
100
AcDbCircle
 10
159.517441
 20
-108.582778
 30
0.0
 40
31.5
  0
ARC
  5
710
100
AcDbEntity
  8
0
370
    -3
  6
Continuous
100
AcDbCircle
 10
159.517441
 20
-108.582778
 30
0.0
 40
22.5
100
AcDbArc
 50
108.126204
 51
71.873796
  0
LINE
  5
711
100
AcDbEntity
  8
0
370
    -3
  6
Continuous
100
AcDbLine
 10
166.517441
 20
-82.282778
 30
0.0
 11
166.517441
 21
-87.199373
 31
0.0
  0
LINE
  5
712
100
AcDbEntity
  8
0
370
    -3
  6
Continuous
100
AcDbLine
 10
152.517441
 20
-82.282778
 30
0.0
 11
152.517441
 21
-87.199373
 31
0.0
  0
LINE
  5
713
100
AcDbEntity
  8
0
370
    -3
  6
Continuous
100
AcDbLine
 10
152.517441
 20
-82.282778
 30
0.0
 11
166.517441
 21
-82.282778
 31
0.0
  0
LINE
  5
714
100
AcDbEntity
  8
0
370
    -3
  6
Continuous
100
AcDbLine
 10
-25.482559
 20
-80.082778
 30
0.0
 11
-25.482559
 21
-58.582778
 31
0.0
  0
ARC
  5
715
100
AcDbEntity
  8
0
370
    -3
  6
Continuous
100
AcDbCircle
 10
-24.482559
 20
-58.582778
 30
0.0
 40
1.0
100
AcDbArc
 50
90.0
 51
180.0
  0
ARC
  5
716
100
AcDbEntity
  8
0
370
    -3
  6
Continuous
100
AcDbCircle
 10
-26.482559
 20
-80.082778
 30
0.0
 40
1.0
100
AcDbArc
 50
270.0
 51
360.0
  0
LINE
  5
717
100
AcDbEntity
  8
0
370
    -3
  6
Continuous
100
AcDbLine
 10
-26.482559
 20
-152.582778
 30
0.0
 11
-26.482559
 21
-81.082778
 31
0.0
  0
LINE
  5
718
100
AcDbEntity
  8
0
370
    -3
  6
Continuous
100
AcDbLine
 10
-26.482559
 20
-152.582778
 30
0.0
 11
-26.482559
 21
-224.082778
 31
0.0
  0
LINE
  5
719
100
AcDbEntity
  8
0
370
    -3
  6
Continuous
100
AcDbLine
 10
296.517441
 20
-82.282778
 30
0.0
 11
454.517441
 21
-82.282778
 31
0.0
  0
LINE
  5
71A
100
AcDbEntity
  8
0
370
    -3
  6
CENTER
100
AcDbLine
 10
540.555959
 20
-108.582778
 30
0.0
 11
469.125851
 21
-108.582778
 31
0.0
  0
CIRCLE
  5
71B
100
AcDbEntity
  8
0
370
    -3
  6
Continuous
100
AcDbCircle
 10
504.517441
 20
-108.582778
 30
0.0
 40
31.5
  0
ARC
  5
71C
100
AcDbEntity
  8
0
370
    -3
  6
Continuous
100
AcDbCircle
 10
504.517441
 20
-108.582778
 30
0.0
 40
22.5
100
AcDbArc
 50
108.126204
 51
71.873796
  0
LINE
  5
71D
100
AcDbEntity
  8
0
370
    -3
  6
CENTER
100
AcDbLine
 10
504.517441
 20
-66.925
 30
0.0
 11
504.517441
 21
-146.925
 31
0.0
  0
LINE
  5
71E
100
AcDbEntity
  8
0
370
    -3
  6
Continuous
100
AcDbLine
 10
511.517441
 20
-82.282778
 30
0.0
 11
497.517441
 21
-82.282778
 31
0.0
  0
LINE
  5
71F
100
AcDbEntity
  8
0
370
    -3
  6
Continuous
100
AcDbLine
 10
497.517441
 20
-82.282778
 30
0.0
 11
497.517441
 21
-87.199373
 31
0.0
  0
LINE
  5
720
100
AcDbEntity
  8
0
370
    -3
  6
Continuous
100
AcDbLine
 10
511.517441
 20
-82.282778
 30
0.0
 11
511.517441
 21
-87.199373
 31
0.0
  0
LINE
  5
721
100
AcDbEntity
  8
0
370
    -3
  6
CENTER
100
AcDbLine
 10
159.517441
 20
-14.263536
 30
0.0
 11
159.517441
 21
-239.967552
 31
0.0
  0
ARC
  5
722
100
AcDbEntity
  8
0
370
    -3
  6
Continuous
100
AcDbCircle
 10
299.017441
 20
-83.582778
 30
0.0
 40
2.5
100
AcDbArc
 50
180.0
 51
270.0
  0
ARC
  5
723
100
AcDbEntity
  8
0
370
    -3
  6
Continuous
100
AcDbCircle
 10
452.017441
 20
-83.582778
 30
0.0
 40
2.5
100
AcDbArc
 50
270.0
 51
0.0
  0
ARC
  5
724
100
AcDbEntity
  8
0
370
    -3
  6
Continuous
100
AcDbCircle
 10
299.017441
 20
-133.582778
 30
0.0
 40
2.5
100
AcDbArc
 50
90.0
 51
180.0
  0
ARC
  5
725
100
AcDbEntity
  8
0
370
    -3
  6
Continuous
100
AcDbCircle
 10
452.017441
 20
-133.582778
 30
0.0
 40
2.5
100
AcDbArc
 50
0.0
 51
90.0
  0
ARC
  5
726
100
AcDbEntity
  8
0
370
    -3
  6
Continuous
100
AcDbCircle
 10
332.617441
 20
-75.682778
 30
0.0
 40
0.4
100
AcDbArc
 50
270.0
 51
298.955024
  0
ARC
  5
727
100
AcDbEntity
  8
0
370
    -3
  6
Continuous
100
AcDbCircle
 10
332.617441
 20
-141.482778
 30
0.0
 40
0.4
100
AcDbArc
 50
61.044976
 51
90.0
  0
LINE
  5
728
100
AcDbEntity
  8
0
370
    -3
  6
CENTER
100
AcDbLine
 10
463.233556
 20
-108.582778
 30
0.0
 11
291.197008
 21
-108.582778
 31
0.0
  0
LINE
  5
729
100
AcDbEntity
  8
0
370
    -3
  6
Continuous
100
AcDbLine
 10
361.517441
 20
-141.132778
 30
0.0
 11
332.81109
 21
-141.132778
 31
0.0
  0
LINE
  5
72A
100
AcDbEntity
  8
0
370
    -3
  6
Continuous
100
AcDbLine
 10
380.517441
 20
-143.082778
 30
0.0
 11
361.517441
 21
-143.082778
 31
0.0
  0
LINE
  5
72B
100
AcDbEntity
  8
0
370
    -3
  6
Continuous
100
AcDbLine
 10
380.517441
 20
-143.582778
 30
0.0
 11
380.517441
 21
-143.082778
 31
0.0
  0
LINE
  5
72C
100
AcDbEntity
  8
0
370
    -3
  6
Continuous
100
AcDbLine
 10
418.017441
 20
-143.582778
 30
0.0
 11
380.517441
 21
-143.582778
 31
0.0
  0
LINE
  5
72D
100
AcDbEntity
  8
0
370
    -3
  6
Continuous
100
AcDbLine
 10
418.017441
 20
-143.582778
 30
0.0
 11
418.017441
 21
-141.082778
 31
0.0
  0
LINE
  5
72E
100
AcDbEntity
  8
0
370
    -3
  6
Continuous
100
AcDbLine
 10
361.517441
 20
-76.032778
 30
0.0
 11
332.81109
 21
-76.032778
 31
0.0
  0
LINE
  5
72F
100
AcDbEntity
  8
0
370
    -3
  6
Continuous
100
AcDbLine
 10
380.517441
 20
-74.082778
 30
0.0
 11
361.517441
 21
-74.082778
 31
0.0
  0
LINE
  5
730
100
AcDbEntity
  8
0
370
    -3
  6
Continuous
100
AcDbLine
 10
418.017441
 20
-73.582778
 30
0.0
 11
418.017441
 21
-76.082778
 31
0.0
  0
LINE
  5
731
100
AcDbEntity
  8
0
370
    -3
  6
Continuous
100
AcDbLine
 10
380.517441
 20
-73.582778
 30
0.0
 11
380.517441
 21
-74.082778
 31
0.0
  0
LINE
  5
732
100
AcDbEntity
  8
0
370
    -3
  6
Continuous
100
AcDbLine
 10
418.017441
 20
-73.582778
 30
0.0
 11
380.517441
 21
-73.582778
 31
0.0
  0
LINE
  5
733
100
AcDbEntity
  8
0
370
    -3
  6
Continuous
100
AcDbLine
 10
420.017441
 20
-141.082778
 30
0.0
 11
433.517441
 21
-141.082778
 31
0.0
  0
LINE
  5
734
100
AcDbEntity
  8
0
370
    -3
  6
Continuous
100
AcDbLine
 10
387.517441
 20
-85.882778
 30
0.0
 11
363.517441
 21
-85.882778
 31
0.0
  0
LINE
  5
735
100
AcDbEntity
  8
0
370
    -3
  6
Continuous
100
AcDbLine
 10
363.517441
 20
-108.582778
 30
0.0
 11
363.517441
 21
-85.882778
 31
0.0
  0
LINE
  5
736
100
AcDbEntity
  8
0
370
    -3
  6
Continuous
100
AcDbLine
 10
424.517441
 20
-108.582778
 30
0.0
 11
424.517441
 21
-84.832778
 31
0.0
  0
LINE
  5
737
100
AcDbEntity
  8
0
370
    -3
  6
Continuous
100
AcDbLine
 10
326.517441
 20
-108.582778
 30
0.0
 11
326.517441
 21
-84.832778
 31
0.0
  0
LINE
  5
738
100
AcDbEntity
  8
0
370
    -3
  6
Continuous
100
AcDbLine
 10
387.517441
 20
-108.582778
 30
0.0
 11
387.517441
 21
-85.882778
 31
0.0
  0
LINE
  5
739
100
AcDbEntity
  8
0
370
    -3
  6
Continuous
100
AcDbLine
 10
433.117441
 20
-76.082778
 30
0.0
 11
418.01744
 21
-76.082778
 31
0.0
  0
LINE
  5
73A
100
AcDbEntity
  8
0
370
    -3
  6
Continuous
100
AcDbLine
 10
387.517441
 20
-131.282778
 30
0.0
 11
363.517441
 21
-131.282778
 31
0.0
  0
LINE
  5
73B
100
AcDbEntity
  8
0
370
    -3
  6
Continuous
100
AcDbLine
 10
363.517441
 20
-108.582778
 30
0.0
 11
363.517441
 21
-131.282778
 31
0.0
  0
LINE
  5
73C
100
AcDbEntity
  8
0
370
    -3
  6
Continuous
100
AcDbLine
 10
424.517441
 20
-108.582778
 30
0.0
 11
424.517441
 21
-132.332778
 31
0.0
  0
LINE
  5
73D
100
AcDbEntity
  8
0
370
    -3
  6
Continuous
100
AcDbLine
 10
326.517441
 20
-108.582778
 30
0.0
 11
326.517441
 21
-132.332778
 31
0.0
  0
LINE
  5
73E
100
AcDbEntity
  8
0
370
    -3
  6
Continuous
100
AcDbLine
 10
387.517441
 20
-108.582778
 30
0.0
 11
387.517441
 21
-131.282778
 31
0.0
  0
LINE
  5
73F
100
AcDbEntity
  8
0
370
    -3
  6
Continuous
100
AcDbLine
 10
433.117441
 20
-141.082778
 30
0.0
 11
418.01744
 21
-141.082778
 31
0.0
  0
LINE
  5
740
100
AcDbEntity
  8
0
370
    -3
  6
Continuous
100
AcDbLine
 10
454.517441
 20
-77.082778
 30
0.0
 11
433.517441
 21
-77.082778
 31
0.0
  0
LINE
  5
741
100
AcDbEntity
  8
0
370
    -3
  6
Continuous
100
AcDbLine
 10
420.017441
 20
-76.082778
 30
0.0
 11
433.517441
 21
-76.082778
 31
0.0
  0
LINE
  5
742
100
AcDbEntity
  8
0
370
    -3
  6
Continuous
100
AcDbLine
 10
433.517441
 20
-77.082778
 30
0.0
 11
433.517441
 21
-76.082778
 31
0.0
  0
LINE
  5
743
100
AcDbEntity
  8
0
370
    -3
  6
Continuous
100
AcDbLine
 10
454.517441
 20
-77.082778
 30
0.0
 11
433.517441
 21
-77.082778
 31
0.0
  0
LINE
  5
744
100
AcDbEntity
  8
0
370
    -3
  6
Continuous
100
AcDbLine
 10
433.517441
 20
-77.082778
 30
0.0
 11
433.517441
 21
-76.082778
 31
0.0
  0
LINE
  5
745
100
AcDbEntity
  8
0
370
    -3
  6
Continuous
100
AcDbLine
 10
420.017441
 20
-76.082778
 30
0.0
 11
433.517441
 21
-76.082778
 31
0.0
  0
LINE
  5
746
100
AcDbEntity
  8
0
370
    -3
  6
Continuous
100
AcDbLine
 10
433.517441
 20
-76.082778
 30
0.0
 11
418.017441
 21
-76.082778
 31
0.0
  0
LINE
  5
747
100
AcDbEntity
  8
0
370
    -3
  6
Continuous
100
AcDbLine
 10
433.517441
 20
-76.082778
 30
0.0
 11
418.017441
 21
-76.082778
 31
0.0
  0
LINE
  5
748
100
AcDbEntity
  8
0
370
    -3
  6
Continuous
100
AcDbLine
 10
332.617441
 20
-76.082778
 30
0.0
 11
317.517441
 21
-76.082778
 31
0.0
  0
LINE
  5
749
100
AcDbEntity
  8
0
370
    -3
  6
Continuous
100
AcDbLine
 10
317.517441
 20
-77.082778
 30
0.0
 11
317.517441
 21
-76.082778
 31
0.0
  0
LINE
  5
74A
100
AcDbEntity
  8
0
370
    -3
  6
Continuous
100
AcDbLine
 10
296.517441
 20
-77.082778
 30
0.0
 11
317.517441
 21
-77.082778
 31
0.0
  0
LINE
  5
74B
100
AcDbEntity
  8
0
370
    -3
  6
Continuous
100
AcDbLine
 10
296.517441
 20
-77.082778
 30
0.0
 11
317.517441
 21
-77.082778
 31
0.0
  0
LINE
  5
74C
100
AcDbEntity
  8
0
370
    -3
  6
Continuous
100
AcDbLine
 10
317.517441
 20
-77.082778
 30
0.0
 11
317.517441
 21
-76.082778
 31
0.0
  0
LINE
  5
74D
100
AcDbEntity
  8
0
370
    -3
  6
Continuous
100
AcDbLine
 10
454.517441
 20
-140.082778
 30
0.0
 11
433.517441
 21
-140.082778
 31
0.0
  0
LINE
  5
74E
100
AcDbEntity
  8
0
370
    -3
  6
Continuous
100
AcDbLine
 10
420.017441
 20
-141.082778
 30
0.0
 11
433.517441
 21
-141.082778
 31
0.0
  0
LINE
  5
74F
100
AcDbEntity
  8
0
370
    -3
  6
Continuous
100
AcDbLine
 10
433.517441
 20
-140.082778
 30
0.0
 11
433.517441
 21
-141.082778
 31
0.0
  0
LINE
  5
750
100
AcDbEntity
  8
0
370
    -3
  6
Continuous
100
AcDbLine
 10
454.517441
 20
-140.082778
 30
0.0
 11
433.517441
 21
-140.082778
 31
0.0
  0
LINE
  5
751
100
AcDbEntity
  8
0
370
    -3
  6
Continuous
100
AcDbLine
 10
433.517441
 20
-140.082778
 30
0.0
 11
433.517441
 21
-141.082778
 31
0.0
  0
LINE
  5
752
100
AcDbEntity
  8
0
370
    -3
  6
Continuous
100
AcDbLine
 10
420.017441
 20
-141.082778
 30
0.0
 11
433.517441
 21
-141.082778
 31
0.0
  0
LINE
  5
753
100
AcDbEntity
  8
0
370
    -3
  6
Continuous
100
AcDbLine
 10
433.517441
 20
-141.082778
 30
0.0
 11
418.017441
 21
-141.082778
 31
0.0
  0
LINE
  5
754
100
AcDbEntity
  8
0
370
    -3
  6
Continuous
100
AcDbLine
 10
433.517441
 20
-141.082778
 30
0.0
 11
418.017441
 21
-141.082778
 31
0.0
  0
LINE
  5
755
100
AcDbEntity
  8
0
370
    -3
  6
Continuous
100
AcDbLine
 10
332.617441
 20
-141.082778
 30
0.0
 11
317.517441
 21
-141.082778
 31
0.0
  0
LINE
  5
756
100
AcDbEntity
  8
0
370
    -3
  6
Continuous
100
AcDbLine
 10
317.517441
 20
-140.082778
 30
0.0
 11
317.517441
 21
-141.082778
 31
0.0
  0
LINE
  5
757
100
AcDbEntity
  8
0
370
    -3
  6
Continuous
100
AcDbLine
 10
296.517441
 20
-140.082778
 30
0.0
 11
317.517441
 21
-140.082778
 31
0.0
  0
LINE
  5
758
100
AcDbEntity
  8
0
370
    -3
  6
Continuous
100
AcDbLine
 10
296.517441
 20
-140.082778
 30
0.0
 11
317.517441
 21
-140.082778
 31
0.0
  0
LINE
  5
759
100
AcDbEntity
  8
0
370
    -3
  6
Continuous
100
AcDbLine
 10
317.517441
 20
-140.082778
 30
0.0
 11
317.517441
 21
-141.082778
 31
0.0
  0
LINE
  5
75A
100
AcDbEntity
  8
0
370
    -3
  6
Continuous
100
AcDbLine
 10
363.517441
 20
-86.082778
 30
0.0
 11
326.517441
 21
-86.082778
 31
0.0
  0
LINE
  5
75B
100
AcDbEntity
  8
0
370
    -3
  6
Continuous
100
AcDbLine
 10
424.517441
 20
-86.082778
 30
0.0
 11
387.517441
 21
-86.082778
 31
0.0
  0
LINE
  5
75C
100
AcDbEntity
  8
0
370
    -3
  6
Continuous
100
AcDbLine
 10
324.567441
 20
-86.082778
 30
0.0
 11
299.017441
 21
-86.082778
 31
0.0
  0
LINE
  5
75D
100
AcDbEntity
  8
0
370
    -3
  6
Continuous
100
AcDbLine
 10
296.517441
 20
-108.582778
 30
0.0
 11
296.517441
 21
-77.082778
 31
0.0
  0
LINE
  5
75E
100
AcDbEntity
  8
0
370
    -3
  6
Continuous
100
AcDbLine
 10
420.017441
 20
-76.082778
 30
0.0
 11
433.517441
 21
-76.082778
 31
0.0
  0
LINE
  5
75F
100
AcDbEntity
  8
0
370
    -3
  6
Continuous
100
AcDbLine
 10
332.617441
 20
-76.082778
 30
0.0
 11
317.517441
 21
-76.082778
 31
0.0
  0
LINE
  5
760
100
AcDbEntity
  8
0
370
    -3
  6
Continuous
100
AcDbLine
 10
452.017441
 20
-86.082778
 30
0.0
 11
426.467441
 21
-86.082778
 31
0.0
  0
LINE
  5
761
100
AcDbEntity
  8
0
370
    -3
  6
Continuous
100
AcDbLine
 10
433.517441
 20
-77.082778
 30
0.0
 11
433.517441
 21
-76.082778
 31
0.0
  0
LINE
  5
762
100
AcDbEntity
  8
0
370
    -3
  6
Continuous
100
AcDbLine
 10
317.517441
 20
-77.082778
 30
0.0
 11
317.517441
 21
-76.082778
 31
0.0
  0
LINE
  5
763
100
AcDbEntity
  8
0
370
    -3
  6
Continuous
100
AcDbLine
 10
454.517441
 20
-108.582778
 30
0.0
 11
454.517441
 21
-77.082778
 31
0.0
  0
LINE
  5
764
100
AcDbEntity
  8
0
370
    -3
  6
Continuous
100
AcDbLine
 10
332.617441
 20
-76.082778
 30
0.0
 11
317.917441
 21
-76.082778
 31
0.0
  0
LINE
  5
765
100
AcDbEntity
  8
0
370
    -3
  6
Continuous
100
AcDbLine
 10
363.517441
 20
-131.082778
 30
0.0
 11
326.517441
 21
-131.082778
 31
0.0
  0
LINE
  5
766
100
AcDbEntity
  8
0
370
    -3
  6
Continuous
100
AcDbLine
 10
424.517441
 20
-131.082778
 30
0.0
 11
387.517441
 21
-131.082778
 31
0.0
  0
LINE
  5
767
100
AcDbEntity
  8
0
370
    -3
  6
Continuous
100
AcDbLine
 10
324.567441
 20
-131.082778
 30
0.0
 11
299.017441
 21
-131.082778
 31
0.0
  0
LINE
  5
768
100
AcDbEntity
  8
0
370
    -3
  6
Continuous
100
AcDbLine
 10
296.517441
 20
-108.582778
 30
0.0
 11
296.517441
 21
-140.082778
 31
0.0
  0
LINE
  5
769
100
AcDbEntity
  8
0
370
    -3
  6
Continuous
100
AcDbLine
 10
420.017441
 20
-141.082778
 30
0.0
 11
433.517441
 21
-141.082778
 31
0.0
  0
LINE
  5
76A
100
AcDbEntity
  8
0
370
    -3
  6
Continuous
100
AcDbLine
 10
332.617441
 20
-141.082778
 30
0.0
 11
317.517441
 21
-141.082778
 31
0.0
  0
LINE
  5
76B
100
AcDbEntity
  8
0
370
    -3
  6
Continuous
100
AcDbLine
 10
452.017441
 20
-131.082778
 30
0.0
 11
426.467441
 21
-131.082778
 31
0.0
  0
LINE
  5
76C
100
AcDbEntity
  8
0
370
    -3
  6
Continuous
100
AcDbLine
 10
433.517441
 20
-140.082778
 30
0.0
 11
433.517441
 21
-141.082778
 31
0.0
  0
LINE
  5
76D
100
AcDbEntity
  8
0
370
    -3
  6
Continuous
100
AcDbLine
 10
317.517441
 20
-140.082778
 30
0.0
 11
317.517441
 21
-141.082778
 31
0.0
  0
LINE
  5
76E
100
AcDbEntity
  8
0
370
    -3
  6
Continuous
100
AcDbLine
 10
454.517441
 20
-108.582778
 30
0.0
 11
454.517441
 21
-140.082778
 31
0.0
  0
LINE
  5
76F
100
AcDbEntity
  8
0
370
    -3
  6
Continuous
100
AcDbLine
 10
332.617441
 20
-141.082778
 30
0.0
 11
317.917441
 21
-141.082778
 31
0.0
  0
LINE
  5
770
100
AcDbEntity
  8
0
370
    -3
  6
Continuous
100
AcDbLine
 10
433.517441
 20
-77.082778
 30
0.0
 11
433.517441
 21
-76.082778
 31
0.0
  0
LINE
  5
771
100
AcDbEntity
  8
0
370
    -3
  6
Continuous
100
AcDbLine
 10
420.017441
 20
-76.082778
 30
0.0
 11
433.517441
 21
-76.082778
 31
0.0
  0
LINE
  5
772
100
AcDbEntity
  8
0
370
    -3
  6
Continuous
100
AcDbLine
 10
433.517441
 20
-76.082778
 30
0.0
 11
418.017441
 21
-76.082778
 31
0.0
  0
LINE
  5
773
100
AcDbEntity
  8
0
370
    -3
  6
Continuous
100
AcDbLine
 10
332.617441
 20
-76.082778
 30
0.0
 11
317.517441
 21
-76.082778
 31
0.0
  0
LINE
  5
774
100
AcDbEntity
  8
0
370
    -3
  6
Continuous
100
AcDbLine
 10
296.517441
 20
-77.082778
 30
0.0
 11
317.517441
 21
-77.082778
 31
0.0
  0
LINE
  5
775
100
AcDbEntity
  8
0
370
    -3
  6
Continuous
100
AcDbLine
 10
317.517441
 20
-77.082778
 30
0.0
 11
317.517441
 21
-76.082778
 31
0.0
  0
LINE
  5
776
100
AcDbEntity
  8
0
370
    -3
  6
Continuous
100
AcDbLine
 10
454.517441
 20
-77.082778
 30
0.0
 11
433.517441
 21
-77.082778
 31
0.0
  0
LINE
  5
777
100
AcDbEntity
  8
0
370
    -3
  6
Continuous
100
AcDbLine
 10
433.517441
 20
-140.082778
 30
0.0
 11
433.517441
 21
-141.082778
 31
0.0
  0
LINE
  5
778
100
AcDbEntity
  8
0
370
    -3
  6
Continuous
100
AcDbLine
 10
420.017441
 20
-141.082778
 30
0.0
 11
433.517441
 21
-141.082778
 31
0.0
  0
LINE
  5
779
100
AcDbEntity
  8
0
370
    -3
  6
Continuous
100
AcDbLine
 10
433.517441
 20
-141.082778
 30
0.0
 11
418.017441
 21
-141.082778
 31
0.0
  0
LINE
  5
77A
100
AcDbEntity
  8
0
370
    -3
  6
Continuous
100
AcDbLine
 10
332.617441
 20
-141.082778
 30
0.0
 11
317.517441
 21
-141.082778
 31
0.0
  0
LINE
  5
77B
100
AcDbEntity
  8
0
370
    -3
  6
Continuous
100
AcDbLine
 10
296.517441
 20
-140.082778
 30
0.0
 11
317.517441
 21
-140.082778
 31
0.0
  0
LINE
  5
77C
100
AcDbEntity
  8
0
370
    -3
  6
Continuous
100
AcDbLine
 10
317.517441
 20
-140.082778
 30
0.0
 11
317.517441
 21
-141.082778
 31
0.0
  0
LINE
  5
77D
100
AcDbEntity
  8
0
370
    -3
  6
Continuous
100
AcDbLine
 10
454.517441
 20
-140.082778
 30
0.0
 11
433.517441
 21
-140.082778
 31
0.0
  0
LINE
  5
77E
100
AcDbEntity
  8
0
370
    -3
  6
Continuous
100
AcDbLine
 10
454.517441
 20
-77.082778
 30
0.0
 11
433.517441
 21
-77.082778
 31
0.0
  0
LINE
  5
77F
100
AcDbEntity
  8
0
370
    -3
  6
Continuous
100
AcDbLine
 10
296.517441
 20
-77.082778
 30
0.0
 11
317.517441
 21
-77.082778
 31
0.0
  0
LINE
  5
780
100
AcDbEntity
  8
0
370
    -3
  6
Continuous
100
AcDbLine
 10
454.117441
 20
-77.082778
 30
0.0
 11
433.917441
 21
-77.082778
 31
0.0
  0
LINE
  5
781
100
AcDbEntity
  8
0
370
    -3
  6
Continuous
100
AcDbLine
 10
454.517441
 20
-140.082778
 30
0.0
 11
433.517441
 21
-140.082778
 31
0.0
  0
LINE
  5
782
100
AcDbEntity
  8
0
370
    -3
  6
Continuous
100
AcDbLine
 10
296.517441
 20
-140.082778
 30
0.0
 11
317.517441
 21
-140.082778
 31
0.0
  0
LINE
  5
783
100
AcDbEntity
  8
0
370
    -3
  6
Continuous
100
AcDbLine
 10
454.117441
 20
-140.082778
 30
0.0
 11
433.917441
 21
-140.082778
 31
0.0
  0
LINE
  5
784
100
AcDbEntity
  8
0
370
    -3
  6
Continuous
100
AcDbLine
 10
361.517441
 20
-74.082778
 30
0.0
 11
361.517441
 21
-76.032778
 31
0.0
  0
LINE
  5
785
100
AcDbEntity
  8
0
370
    -3
  6
Continuous
100
AcDbLine
 10
361.517441
 20
-141.132778
 30
0.0
 11
361.517441
 21
-143.082778
 31
0.0
  0
LINE
  5
786
100
AcDbEntity
  8
0
370
    -3
  6
Continuous
100
AcDbLine
 10
426.467441
 20
-132.332778
 30
0.0
 11
426.467441
 21
-84.832778
 31
0.0
  0
LINE
  5
787
100
AcDbEntity
  8
0
370
    -3
  6
Continuous
100
AcDbLine
 10
324.567441
 20
-132.332778
 30
0.0
 11
324.567441
 21
-84.832778
 31
0.0
  0
LINE
  5
788
100
AcDbEntity
  8
0
370
    -3
  6
Continuous
100
AcDbLine
 10
426.467441
 20
-84.832778
 30
0.0
 11
424.517441
 21
-84.832778
 31
0.0
  0
LINE
  5
789
100
AcDbEntity
  8
0
370
    -3
  6
Continuous
100
AcDbLine
 10
426.467441
 20
-132.332778
 30
0.0
 11
424.517441
 21
-132.332778
 31
0.0
  0
LINE
  5
78A
100
AcDbEntity
  8
0
370
    -3
  6
Continuous
100
AcDbLine
 10
326.517441
 20
-84.832778
 30
0.0
 11
324.567441
 21
-84.832778
 31
0.0
  0
LINE
  5
78B
100
AcDbEntity
  8
0
370
    -3
  6
Continuous
100
AcDbLine
 10
326.517441
 20
-132.332778
 30
0.0
 11
324.567441
 21
-132.332778
 31
0.0
  0
LINE
  5
78C
100
AcDbEntity
  8
0
370
    -3
  6
CENTER
100
AcDbLine
 10
-40.981554
 20
-67.582778
 30
0.0
 11
-14.482559
 21
-67.582778
 31
0.0
  0
LINE
  5
78D
100
AcDbEntity
  8
0
370
    -3
  6
Continuous
100
AcDbLine
 10
-92.982559
 20
-121.582778
 30
0.0
 11
-92.982559
 21
-175.082778
 31
0.0
  0
LINE
  5
78E
100
AcDbEntity
  8
0
370
    -3
  6
Continuous
100
AcDbLine
 10
-92.982559
 20
-69.082778
 30
0.0
 11
-92.982559
 21
-174.082778
 31
0.0
  0
LINE
  5
78F
100
AcDbEntity
  8
0
370
    -3
  6
Continuous
100
AcDbLine
 10
-92.982559
 20
-121.582778
 30
0.0
 11
-92.982559
 21
-69.082778
 31
0.0
  0
LINE
  5
790
100
AcDbEntity
  8
0
370
    -3
  6
Continuous
100
AcDbLine
 10
-92.982559
 20
-74.582778
 30
0.0
 11
-92.982559
 21
-128.082778
 31
0.0
  0
ARC
  5
791
100
AcDbEntity
  8
0
370
    -3
  6
Continuous
100
AcDbCircle
 10
-78.482574
 20
-103.582778
 30
0.0
 40
2.0
100
AcDbArc
 50
0.0
 51
90.0
  0
ARC
  5
792
100
AcDbEntity
  8
0
370
    -3
  6
Continuous
100
AcDbCircle
 10
-38.482559
 20
-143.582778
 30
0.0
 40
2.0
100
AcDbArc
 50
0.0
 51
90.0
  0
ARC
  5
793
100
AcDbEntity
  8
0
370
    -3
  6
Continuous
100
AcDbCircle
 10
-74.482574
 20
-127.382778
 30
0.0
 40
2.0
100
AcDbArc
 50
180.0
 51
270.0
  0
ARC
  5
794
100
AcDbEntity
  8
0
370
    -3
  6
Continuous
100
AcDbCircle
 10
-38.482559
 20
-127.382778
 30
0.0
 40
2.0
100
AcDbArc
 50
270.0
 51
0.0
  0
LINE
  5
795
100
AcDbEntity
  8
0
370
    -3
  6
Continuous
100
AcDbLine
 10
-74.482574
 20
-129.382778
 30
0.0
 11
-38.482559
 21
-129.382778
 31
0.0
  0
LINE
  5
796
100
AcDbEntity
  8
0
370
    -3
  6
Continuous
100
AcDbLine
 10
-92.982574
 20
-101.582778
 30
0.0
 11
-78.482574
 21
-101.582778
 31
0.0
  0
LINE
  5
797
100
AcDbEntity
  8
0
370
    -3
  6
Continuous
100
AcDbLine
 10
-92.982574
 20
-141.582778
 30
0.0
 11
-38.482559
 21
-141.582778
 31
0.0
  0
LINE
  5
798
100
AcDbEntity
  8
0
370
    -3
  6
Continuous
100
AcDbLine
 10
-26.482559
 20
-224.082778
 30
0.0
 11
-33.482559
 21
-224.082778
 31
0.0
  0
ARC
  5
799
100
AcDbEntity
  8
0
370
    -3
  6
Continuous
100
AcDbCircle
 10
-33.482559
 20
-221.082778
 30
0.0
 40
3.0
100
AcDbArc
 50
180.0
 51
270.0
  0
LINE
  5
79A
100
AcDbEntity
  8
0
370
    -3
  6
Continuous
100
AcDbLine
 10
-37.152432
 20
-212.646244
 30
0.0
 11
-49.622654
 21
-191.047187
 31
0.0
  0
ARC
  5
79B
100
AcDbEntity
  8
0
370
    -3
  6
Continuous
100
AcDbCircle
 10
-41.482559
 20
-215.146244
 30
0.0
 40
5.0
100
AcDbArc
 50
0.0
 51
30.0
  0
LINE
  5
79C
100
AcDbEntity
  8
0
370
    -3
  6
Continuous
100
AcDbLine
 10
-38.482559
 20
-91.832778
 30
0.0
 11
-74.482574
 21
-91.832778
 31
0.0
  0
LINE
  5
79D
100
AcDbEntity
  8
0
370
    -3
  6
Continuous
100
AcDbLine
 10
-76.482574
 20
-74.082778
 30
0.0
 11
-76.482574
 21
-127.382778
 31
0.0
  0
ARC
  5
79E
100
AcDbEntity
  8
0
370
    -3
  6
Continuous
100
AcDbCircle
 10
-74.482574
 20
-89.832778
 30
0.0
 40
2.0
100
AcDbArc
 50
180.0
 51
270.0
  0
LINE
  5
79F
100
AcDbEntity
  8
0
370
    -3
  6
Continuous
100
AcDbLine
 10
-38.461718
 20
-217.594799
 30
0.0
 11
-79.487237
 21
-186.750832
 31
0.0
  0
ARC
  5
7A0
100
AcDbEntity
  8
0
370
    -3
  6
Continuous
100
AcDbCircle
 10
-41.466381
 20
-221.591297
 30
0.0
 40
5.0
100
AcDbArc
 50
3.644461
 51
53.063279
  0
ARC
  5
7A1
100
AcDbEntity
  8
0
370
    -3
  6
Continuous
100
AcDbCircle
 10
-53.952781
 20
-193.547187
 30
0.0
 40
5.0
100
AcDbArc
 50
30.0
 51
88.0
  0
ARC
  5
7A2
100
AcDbEntity
  8
0
370
    -3
  6
Continuous
100
AcDbCircle
 10
-38.482559
 20
-89.832778
 30
0.0
 40
2.0
100
AcDbArc
 50
270.0
 51
0.0
  0
LINE
  5
7A3
100
AcDbEntity
  8
0
370
    -3
  6
Continuous
100
AcDbLine
 10
-76.482574
 20
-74.082778
 30
0.0
 11
-76.482574
 21
-76.082778
 31
0.0
  0
LINE
  5
7A4
100
AcDbEntity
  8
0
370
    -3
  6
CENTER
100
AcDbLine
 10
-86.613503
 20
-152.582778
 30
0.0
 11
-11.658444
 21
-152.582778
 31
0.0
  0
LINE
  5
7A5
100
AcDbEntity
  8
0
370
    -3
  6
Continuous
100
AcDbLine
 10
-36.482559
 20
-143.582778
 30
0.0
 11
-36.482559
 21
-221.082778
 31
0.0
  0
ARC
  5
7A6
100
AcDbEntity
  8
0
370
    -3
  6
Continuous
100
AcDbCircle
 10
-86.482574
 20
-179.205725
 30
0.0
 40
5.0
100
AcDbArc
 50
0.0
 51
89.0
  0
LINE
  5
7A7
100
AcDbEntity
  8
0
370
    -3
  6
Continuous
100
AcDbLine
 10
-86.395312
 20
-174.206486
 30
0.0
 11
-92.982559
 21
-174.091505
 31
0.0
  0
LINE
  5
7A8
100
AcDbEntity
  8
0
370
    -3
  6
Continuous
100
AcDbLine
 10
-81.482574
 20
-179.205725
 30
0.0
 11
-81.482574
 21
-182.754334
 31
0.0
  0
LINE
  5
7A9
100
AcDbEntity
  8
0
370
    -3
  6
Continuous
100
AcDbLine
 10
-53.778283
 20
-188.550233
 30
0.0
 11
-76.657072
 21
-187.751288
 31
0.0
  0
ARC
  5
7AA
100
AcDbEntity
  8
0
370
    -3
  6
Continuous
100
AcDbCircle
 10
-76.482574
 20
-182.754334
 30
0.0
 40
5.0
100
AcDbArc
 50
180.0
 51
268.0
  0
LINE
  5
7AB
100
AcDbEntity
  8
0
370
    -3
  6
Continuous
100
AcDbLine
 10
-36.482559
 20
-84.082778
 30
0.0
 11
-36.482559
 21
-143.582778
 31
0.0
  0
ARC
  5
7AC
100
AcDbEntity
  8
0
370
    -3
  6
Continuous
100
AcDbCircle
 10
-33.482559
 20
-84.082778
 30
0.0
 40
3.0
100
AcDbArc
 50
90.0
 51
180.0
  0
LINE
  5
7AD
100
AcDbEntity
  8
0
370
    -3
  6
Continuous
100
AcDbLine
 10
-26.482559
 20
-81.082778
 30
0.0
 11
-33.482559
 21
-81.082778
 31
0.0
  0
LINE
  5
7AE
100
AcDbEntity
  8
0
370
    -3
  6
Continuous
100
AcDbLine
 10
-81.482574
 20
-69.082778
 30
0.0
 11
-92.982574
 21
-69.082778
 31
0.0
  0
ARC
  5
7AF
100
AcDbEntity
  8
0
370
    -3
  6
Continuous
100
AcDbCircle
 10
-81.482574
 20
-74.082778
 30
0.0
 40
5.0
100
AcDbArc
 50
0.0
 51
90.0
  0
LINE
  5
7B0
100
AcDbEntity
  8
0
370
    -3
  6
Continuous
100
AcDbLine
 10
-25.482559
 20
-22.582778
 30
0.0
 11
-29.982559
 21
-22.582778
 31
0.0
  0
LINE
  5
7B1
100
AcDbEntity
  8
0
370
    -3
  6
Continuous
100
AcDbLine
 10
-29.982559
 20
-32.582778
 30
0.0
 11
-25.482559
 21
-32.582778
 31
0.0
  0
LINE
  5
7B2
100
AcDbEntity
  8
0
370
    -3
  6
Continuous
100
AcDbLine
 10
-29.982559
 20
-77.582778
 30
0.0
 11
-29.982559
 21
-22.582778
 31
0.0
  0
LINE
  5
7B3
100
AcDbEntity
  8
0
370
    -3
  6
Continuous
100
AcDbLine
 10
-29.982559
 20
-52.582778
 30
0.0
 11
-25.482559
 21
-52.582778
 31
0.0
  0
LINE
  5
7B4
100
AcDbEntity
  8
0
370
    -3
  6
Continuous
100
AcDbLine
 10
-29.982559
 20
-77.582778
 30
0.0
 11
-25.482559
 21
-77.582778
 31
0.0
  0
INSERT
  5
7C0
100
AcDbEntity
  8
0
100
AcDbBlockReference
  2
ZU_SYM_K__CAD_SYM_POO_SYM_B20_00005-1
 10
-29.982559
 20
-67.582778
 30
0.0
  0
LINE
  5
7C1
100
AcDbEntity
  8
0
370
    -3
  6
Continuous
100
AcDbLine
 10
-25.482559
 20
-77.582778
 30
0.0
 11
-25.482559
 21
-22.582778
 31
0.0
  0
LINE
  5
7C2
100
AcDbEntity
  8
0
370
    -3
  6
Continuous
100
AcDbLine
 10
-92.982559
 20
-68.082778
 30
0.0
 11
-92.982559
 21
-121.582778
 31
0.0
  0
LINE
  5
7C3
100
AcDbEntity
  8
0
370
    -3
  6
Continuous
100
AcDbLine
 10
-92.982559
 20
-175.082778
 30
0.0
 11
-92.982559
 21
-121.582778
 31
0.0
  0
ENDSEC
  0
SECTION
  2
OBJECTS
  0
DICTIONARY
  5
19
100
AcDbDictionary
280
     0
281
     1
  3
ACAD_GROUP
350
1A
  3
ACAD_MLINESTYLE
350
1B
  3
ACAD_LAYOUT
350
1E
  3
ACAD_PLOTSETTINGS
350
22
  3
ACAD_PLOTSTYLENAME
350
1F
  3
ACAD_WIPEOUT_VARS
350
23
  3
DWGPROPS
350
7C4
  0
DICTIONARY
  5
1A
102
{ACAD_REACTORS
330
19
102
}
100
AcDbDictionary
280
     0
281
     1
  0
DICTIONARY
  5
1B
102
{ACAD_REACTORS
330
19
102
}
100
AcDbDictionary
280
     0
281
     1
  3
Standard
350
1C
  0
MLINESTYLE
  5
1C
102
{ACAD_REACTORS
330
1B
102
}
100
AcDbMlineStyle
  2
Standard
 70
     0
  3

 62
     0
 51
90.0
 52
90.0
 71
     2
 49
0.5
 62
   256
  6
ByLayer
 49
-0.5
 62
   256
  6
ByLayer
  0
ACDBDICTIONARYWDFLT
  5
1F
102
{ACAD_REACTORS
330
19
102
}
100
AcDbDictionary
281
     1
  3
Normal
350
1D
100
AcDbDictionaryWithDefault
340
1D
  0
ACDBPLACEHOLDER
  5
1D
102
{ACAD_REACTORS
330
1F
102
}
  0
LAYOUT
  5
20
102
{ACAD_REACTORS
330
1E
102
}
100
AcDbPlotSettings
  1

  2

  4

  6

 40
0.0
 41
0.0
 42
0.0
 43
0.0
 44
0.0
 45
0.0
 46
0.0
 47
0.0
 48
0.0
 49
0.0
140
0.0
141
0.0
142
1.0
143
1.0
 70
  1024
 72
     0
 73
     0
 74
     0
  7

 75
     0
147
1.0
148
0.0
149
0.0
100
AcDbLayout
  1
Model
 70
     0
 71
     0
 10
0.0
 20
0.0
 11
0.0
 21
0.0
 12
0.0
 22
0.0
 32
0.0
 14
0.0
 24
0.0
 34
0.0
 15
0.0
 25
0.0
 35
0.0
146
0.0
 13
0.0
 23
0.0
 33
0.0
 16
0.0
 26
0.0
 36
0.0
 17
0.0
 27
0.0
 37
0.0
 76
     0
330
A
331
0
345
0
346
0
  0
LAYOUT
  5
21
102
{ACAD_REACTORS
330
1E
102
}
100
AcDbPlotSettings
  1

  2

  4

  6

 40
0.0
 41
0.0
 42
0.0
 43
0.0
 44
0.0
 45
0.0
 46
0.0
 47
0.0
 48
0.0
 49
0.0
140
0.0
141
0.0
142
1.0
143
1.0
 70
     0
 72
     0
 73
     0
 74
     0
  7

 75
     0
147
1.0
148
0.0
149
0.0
100
AcDbLayout
  1
Layout1
 70
     0
 71
     0
 10
0.0
 20
0.0
 11
0.0
 21
0.0
 12
0.0
 22
0.0
 32
0.0
 14
0.0
 24
0.0
 34
0.0
 15
0.0
 25
0.0
 35
0.0
146
0.0
 13
0.0
 23
0.0
 33
0.0
 16
0.0
 26
0.0
 36
0.0
 17
0.0
 27
0.0
 37
0.0
 76
     0
330
B
331
0
345
0
346
0
  0
DICTIONARY
  5
1E
102
{ACAD_REACTORS
330
19
102
}
100
AcDbDictionary
280
     0
281
     1
  3
Layout1
350
21
  3
Model
350
20
  0
DICTIONARY
  5
22
102
{ACAD_REACTORS
330
19
102
}
100
AcDbDictionary
280
     0
281
     1
  0
WIPEOUTVARIABLES
  5
23
100
AcDbWipeoutVariables
 70
     1
  0
XRECORD
  5
7C4
100
AcDbXrecord
280
     1
  1
DWGPROPS COOKIE
  2

  3

  4

  6

  7

  8
TB24944
  9

300
=
301
=
302
=
303
=
304
=
305
=
306
=
307
=
308
=
309
=
 40
0.0
 41
2455965.593588
 42
2455965.593588
  1

 90
        0
  0
ENDSEC
  0
EOF
