  0
SECTION
  2
HEADER
  9
$ACADVER
  1
AC1015
  9
$ACADMAINTVER
 70
     6
  9
$DWGCODEPAGE
  3
ANSI_932
  9
$INSBASE
 10
0.0
 20
0.0
 30
0.0
  9
$EXTMIN
 10
1.000000E+20
 20
1.000000E+20
 30
1.000000E+20
  9
$EXTMAX
 10
-1.000000E+20
 20
-1.000000E+20
 30
-1.000000E+20
  9
$LIMMIN
 10
0.0
 20
0.0
  9
$LIMMAX
 10
0.0
 20
0.0
  9
$ORTHOMODE
 70
     0
  9
$REGENMODE
 70
     1
  9
$FILLMODE
 70
     1
  9
$QTEXTMODE
 70
     0
  9
$MIRRTEXT
 70
     1
  9
$LTSCALE
 40
1.0
  9
$ATTMODE
 70
     1
  9
$TEXTSIZE
 40
7.0
  9
$TRACEWID
 40
0.05
  9
$TEXTSTYLE
  7
Standard
  9
$CLAYER
  8
0
  9
$CELTYPE
  6
Continuous
  9
$CECOLOR
 62
   256
  9
$CELTSCALE
 40
1.0
  9
$DISPSILH
 70
     0
  9
$DIMSCALE
 40
1.0
  9
$DIMASZ
 40
1.931852
  9
$DIMEXO
 40
1.0
  9
$DIMDLI
 40
0.38
  9
$DIMRND
 40
0.0
  9
$DIMDLE
 40
0.0
  9
$DIMEXE
 40
2.0
  9
$DIMTP
 40
0.0
  9
$DIMTM
 40
0.0
  9
$DIMTXT
 40
2.8
  9
$DIMCEN
 40
0.09
  9
$DIMTSZ
 40
0.0
  9
$DIMTOL
 70
     0
  9
$DIMLIM
 70
     0
  9
$DIMTIH
 70
     1
  9
$DIMTOH
 70
     1
  9
$DIMSE1
 70
     0
  9
$DIMSE2
 70
     0
  9
$DIMTAD
 70
     1
  9
$DIMZIN
 70
     0
  9
$DIMBLK
  1

  9
$DIMASO
 70
     1
  9
$DIMSHO
 70
     1
  9
$DIMPOST
  1

  9
$DIMAPOST
  1

  9
$DIMALT
 70
     0
  9
$DIMALTD
 70
     2
  9
$DIMALTF
 40
25.4
  9
$DIMLFAC
 40
1.0
  9
$DIMTOFL
 70
     0
  9
$DIMTVP
 40
0.0
  9
$DIMTIX
 70
     0
  9
$DIMSOXD
 70
     0
  9
$DIMSAH
 70
     0
  9
$DIMBLK1
  1

  9
$DIMBLK2
  1

  9
$DIMSTYLE
  2
Standard
  9
$DIMCLRD
 70
     0
  9
$DIMCLRE
 70
     0
  9
$DIMCLRT
 70
     0
  9
$DIMTFAC
 40
0.714286
  9
$DIMGAP
 40
0.09
  9
$DIMJUST
 70
     0
  9
$DIMSD1
 70
     0
  9
$DIMSD2
 70
     0
  9
$DIMTOLJ
 70
     1
  9
$DIMTZIN
 70
     0
  9
$DIMALTZ
 70
     0
  9
$DIMALTTZ
 70
     0
  9
$DIMUPT
 70
     0
  9
$DIMDEC
 70
     4
  9
$DIMTDEC
 70
     4
  9
$DIMALTU
 70
     2
  9
$DIMALTTD
 70
     2
  9
$DIMTXSTY
  7
Standard
  9
$DIMAUNIT
 70
     0
  9
$DIMADEC
 70
     0
  9
$DIMALTRND
 40
0.0
  9
$DIMAZIN
 70
     0
  9
$DIMDSEP
 70
     0
  9
$DIMATFIT
 70
     3
  9
$DIMFRAC
 70
     0
  9
$DIMLDRBLK
  1

  9
$DIMLUNIT
 70
     2
  9
$DIMLWD
 70
     0
  9
$DIMLWE
 70
     0
  9
$DIMTMOVE
 70
     0
  9
$LUNITS
 70
     2
  9
$LUPREC
 70
     3
  9
$SKETCHINC
 40
0.1
  9
$FILLETRAD
 40
0.0
  9
$AUNITS
 70
     0
  9
$AUPREC
 70
     0
  9
$MENU
  1
acad
  9
$ELEVATION
 40
0.0
  9
$PELEVATION
 40
0.0
  9
$THICKNESS
 40
0.0
  9
$LIMCHECK
 70
     0
  9
$CHAMFERA
 40
0.0
  9
$CHAMFERB
 40
0.0
  9
$CHAMFERC
 40
0.0
  9
$CHAMFERD
 40
0.0
  9
$SKPOLY
 70
     0
  9
$TDCREATE
 40
0.000000000
  9
$TDUCREATE
 40
0.000000000
  9
$TDUPDATE
 40
0.000000000
  9
$TDUUPDATE
 40
0.000000000
  9
$TDINDWG
 40
0.0000000000
  9
$TDUSRTIMER
 40
0.0000000000
  9
$USRTIMER
 70
     1
  9
$ANGBASE
 50
0.0
  9
$ANGDIR
 70
     0
  9
$PDMODE
 70
     0
  9
$PDSIZE
 40
0.0
  9
$PLINEWID
 40
0.0
  9
$SPLFRAME
 70
     0
  9
$SPLINETYPE
 70
     6
  9
$SPLINESEGS
 70
     8
  9
$HANDSEED
  5
486
  9
$SURFTAB1
 70
     6
  9
$SURFTAB2
 70
     6
  9
$SURFTYPE
 70
     6
  9
$SURFU
 70
     6
  9
$SURFV
 70
     6
  9
$UCSBASE
  2

  9
$UCSNAME
  2

  9
$UCSORG
 10
0.0
 20
0.0
 30
0.0
  9
$UCSXDIR
 10
1.0
 20
0.0
 30
0.0
  9
$UCSYDIR
 10
0.0
 20
1.0
 30
0.0
  9
$UCSORTHOREF
  2

  9
$UCSORTHOVIEW
 70
     0
  9
$UCSORGTOP
 10
0.0
 20
0.0
 30
0.0
  9
$UCSORGBOTTOM
 10
0.0
 20
0.0
 30
0.0
  9
$UCSORGLEFT
 10
0.0
 20
0.0
 30
0.0
  9
$UCSORGRIGHT
 10
0.0
 20
0.0
 30
0.0
  9
$UCSORGFRONT
 10
0.0
 20
0.0
 30
0.0
  9
$UCSORGBACK
 10
0.0
 20
0.0
 30
0.0
  9
$PUCSBASE
  2

  9
$PUCSNAME
  2

  9
$PUCSORG
 10
0.0
 20
0.0
 30
0.0
  9
$PUCSXDIR
 10
1.0
 20
0.0
 30
0.0
  9
$PUCSYDIR
 10
0.0
 20
1.0
 30
0.0
  9
$PUCSORTHOREF
  2

  9
$PUCSORTHOVIEW
 70
     0
  9
$PUCSORGTOP
 10
0.0
 20
0.0
 30
0.0
  9
$PUCSORGBOTTOM
 10
0.0
 20
0.0
 30
0.0
  9
$PUCSORGLEFT
 10
0.0
 20
0.0
 30
0.0
  9
$PUCSORGRIGHT
 10
0.0
 20
0.0
 30
0.0
  9
$PUCSORGFRONT
 10
0.0
 20
0.0
 30
0.0
  9
$PUCSORGBACK
 10
0.0
 20
0.0
 30
0.0
  9
$USERI1
 70
     0
  9
$USERI2
 70
     0
  9
$USERI3
 70
     0
  9
$USERI4
 70
     0
  9
$USERI5
 70
     0
  9
$USERR1
 40
0.0
  9
$USERR2
 40
0.0
  9
$USERR3
 40
0.0
  9
$USERR4
 40
0.0
  9
$USERR5
 40
0.0
  9
$WORLDVIEW
 70
     1
  9
$SHADEDGE
 70
     3
  9
$SHADEDIF
 70
    70
  9
$TILEMODE
 70
     1
  9
$MAXACTVP
 70
    16
  9
$PINSBASE
 10
0.0
 20
0.0
 30
0.0
  9
$PLIMCHECK
 70
     0
  9
$PEXTMIN
 10
1.000000E+20
 20
1.000000E+20
 30
1.000000E+20
  9
$PEXTMAX
 10
-1.000000E+20
 20
-1.000000E+20
 30
-1.000000E+20
  9
$PLIMMIN
 10
0.0
 20
0.0
  9
$PLIMMAX
 10
12.0
 20
9.0
  9
$UNITMODE
 70
     0
  9
$VISRETAIN
 70
     0
  9
$PLINEGEN
 70
     1
  9
$PSLTSCALE
 70
     0
  9
$TREEDEPTH
 70
  3020
  9
$CMLSTYLE
  2
Standard
  9
$CMLJUST
 70
     0
  9
$CMLSCALE
 40
1.0
  9
$PROXYGRAPHICS
 70
     0
  9
$MEASUREMENT
 70
     0
  9
$CELWEIGHT
370
     0
  9
$ENDCAPS
280
     0
  9
$JOINSTYLE
280
     0
  9
$LWDISPLAY
290
     0
  9
$INSUNITS
 70
     0
  9
$HYPERLINKBASE
  1

  9
$STYLESHEET
  1

  9
$XEDIT
290
     1
  9
$CEPSNTYPE
380
     0
  9
$PSTYLEMODE
290
     1
  9
$FINGERPRINTGUID
  2

  9
$VERSIONGUID
  2

  9
$EXTNAMES
290
     1
  9
$PSVPSCALE
 40
0.0
  0
ENDSEC
  0
SECTION
  2
CLASSES
  0
CLASS
  1
LWPOLYLINE
  2
AcDbPolyline
  3
AutoCAD 2000
 90
    32768
280
     0
281
     1
  0
CLASS
  1
IMAGE
  2
AcDbRasterImage
  3
ISM
 90
    32895
280
     0
281
     1
  0
CLASS
  1
OLE2FRAME
  2
AcDbOle2Frame
  3
AutoCAD 2000
 90
    32768
280
     0
281
     1
  0
CLASS
  1
HATCH
  2
AcDbHatch
  3
AutoCAD 2000
 90
    32768
280
     0
281
     1
  0
CLASS
  1
DICTIONARYVAR
  2
AcDbDictionaryVar
  3
AutoCAD 2000
 90
    32768
280
     0
281
     0
  0
CLASS
  1
RASTERVARIABLES
  2
AcDbRasterVariables
  3
ISM
 90
    32768
280
     0
281
     0
  0
CLASS
  1
IMAGEDEF
  2
AcDbRasterImageDef
  3
ISM
 90
    32768
280
     0
281
     0
  0
CLASS
  1
IMAGEDEF_REACTOR
  2
AcDbRasterImageDefReactor
  3
ISM
 90
    32769
280
     0
281
     0
  0
CLASS
  1
IDBUFFER
  2
AcDbIdBuffer
  3
AutoCAD 2000
 90
    32768
280
     0
281
     0
  0
CLASS
  1
SPATIAL_FILTER
  2
AcDbSpatialFilter
  3
AutoCAD 2000
 90
    32768
280
     0
281
     0
  0
CLASS
  1
XRECORD
  2
AcDbXrecord
  3
AutoCAD 2000
 90
        0
280
     0
281
     0
  0
CLASS
  1
SORTENTSTABLE
  2
AcDbSortentsTable
  3
AutoCAD 2000
 90
    32768
280
     0
281
     0
  0
CLASS
  1
LAYER_INDEX
  2
AcDbLayerIndex
  3
AutoCAD 2000
 90
    32768
280
     0
281
     0
  0
CLASS
  1
SPATIAL_INDEX
  2
AcDbSpatialIndex
  3
AutoCAD 2000
 90
    32768
280
     0
281
     0
  0
CLASS
  1
OBJECT_PTR
  2
CAseDLPNTableRecord
  3
"ASE-LPNTableRecord"
 90
    32769
280
     0
281
     0
  0
CLASS
  1
LAYOUT
  2
AcDbLayout
  3
AutoCAD 2000
 90
        0
280
     0
281
     0
  0
CLASS
  1
PLOTSETTINGS
  2
AcDbPlotSettings
  3
AutoCAD 2000
 90
    32768
280
     0
281
     0
  0
CLASS
  1
ACDBDICTIONARYWDFLT
  2
AcDbDictionaryWithDefault
  3
AutoCAD 2000
 90
        0
280
     0
281
     0
  0
CLASS
  1
ACDBPLACEHOLDER
  2
AcDbPlaceHolder
  3
AutoCAD 2000
 90
        0
280
     0
281
     0
  0
CLASS
  1
VBA_PROJECT
  2
AcDbVbaProject
  3
acadvba
 90
    32768
280
     0
281
     0
  0
CLASS
  1
WIPEOUT
  2
AcDbWipeout
  3
WipeOut|AutoCAD Express Tool|expresstools@autodesk.com
 90
    32895
280
     0
281
     1
  0
CLASS
  1
WIPEOUTVARIABLES
  2
AcDbWipeoutVariables
  3
WipeOut|AutoCAD Express Tool|expresstools@autodesk.com
 90
        0
280
     0
281
     0
  0
CLASS
  1
RTEXT
  2
RText
  3
RText|AutoCAD Express Tool|expresstools@autodesk.com
 90
    32768
280
     0
281
     1
  0
CLASS
  1
ARCALIGNEDTEXT
  2
AcDbArcAlignedText
  3
ATEXT|AutoCAD Express Tool|expresstools@autodesk.com
 90
    32768
280
     0
281
     1
  0
ENDSEC
  0
SECTION
  2
TABLES
  0
TABLE
  2
VPORT
  5
7
100
AcDbSymbolTable
 70
     1
  0
VPORT
  5
15
100
AcDbSymbolTableRecord
100
AcDbViewportTableRecord
  2
*ACTIVE
 70
     0
 10
0.0
 20
0.0
 11
1.0
 21
1.0
 12
0.0
 22
0.0
 13
0.0
 23
0.0
 14
1.0
 24
1.0
 15
0.0
 25
0.0
 16
0.0
 26
0.0
 36
1.0
 17
0.0
 27
0.0
 37
0.0
 40
100.0
 41
1.0
 42
50.0
 43
0.0
 44
0.0
 50
0.0
 51
0.0
 71
     0
 72
   100
 73
     1
 74
     1
 75
     0
 76
     0
 77
     0
 78
     0
281
     0
 65
     0
110
0.0
120
0.0
130
0.0
111
1.0
121
0.0
131
0.0
112
0.0
122
1.0
132
0.0
345
0
346
0
 79
     0
146
0.0
  0
ENDTAB
  0
TABLE
  2
LTYPE
  5
4
100
AcDbSymbolTable
 70
     7
  0
LTYPE
  5
11
100
AcDbSymbolTableRecord
100
AcDbLinetypeTableRecord
  2
ByBlock
 70
    64
  3

 72
    65
 73
     0
 40
0.0
  0
LTYPE
  5
12
100
AcDbSymbolTableRecord
100
AcDbLinetypeTableRecord
  2
ByLayer
 70
    64
  3

 72
    65
 73
     0
 40
0.0
  0
LTYPE
  5
13
100
AcDbSymbolTableRecord
100
AcDbLinetypeTableRecord
  2
Continuous
 70
    64
  3
Solid line
 72
    65
 73
     0
 40
0.0
  0
LTYPE
  5
24
100
AcDbSymbolTableRecord
100
AcDbLinetypeTableRecord
  2
DASHED
 70
    64
  3
Dashed __ __ __ __ __ __ __ __ __ __ __ __ __ _
 72
    65
 73
     2
 40
0.75
 49
0.5
 74
     0
 49
-0.25
 74
     0
  0
LTYPE
  5
25
100
AcDbSymbolTableRecord
100
AcDbLinetypeTableRecord
  2
CENTER
 70
    64
  3
Center ____ _ ____ _ ____ _ ____ _ ____ _ ____
 72
    65
 73
     4
 40
1.0
 49
0.5
 74
     0
 49
-0.25
 74
     0
 49
0.0
 74
     0
 49
-0.25
 74
     0
  0
LTYPE
  5
26
100
AcDbSymbolTableRecord
100
AcDbLinetypeTableRecord
  2
DIVIDE
 70
    64
  3
Divide ____ . . ____ . . ____ . . ____ . . ____
 72
    65
 73
     6
 40
1.25
 49
0.5
 74
     0
 49
-0.25
 74
     0
 49
0.0
 74
     0
 49
-0.25
 74
     0
 49
0.0
 74
     0
 49
-0.25
 74
     0
  0
LTYPE
  5
27
100
AcDbSymbolTableRecord
100
AcDbLinetypeTableRecord
  2
PHANTOM
 70
    64
  3
Phantom ______  __  __  ______  __  __  ______
 72
    65
 73
     6
 40
9.0
 49
4.3
 74
     0
 49
-0.7
 74
     0
 49
1.3
 74
     0
 49
-0.7
 74
     0
 49
1.3
 74
     0
 49
-0.7
 74
     0
  0
ENDTAB
  0
TABLE
  2
LAYER
  5
2
100
AcDbSymbolTable
 70
     3
  0
LAYER
  5
14
100
AcDbSymbolTableRecord
100
AcDbLayerTableRecord
  2
0
 70
    64
 62
    53
  6
Continuous
290
     1
370
    -3
390
1D
  0
LAYER
  5
28
100
AcDbSymbolTableRecord
100
AcDbLayerTableRecord
  2
3
 70
    64
 62
     4
  6
Continuous
290
     1
370
    -3
390
1D
  0
LAYER
  5
29
100
AcDbSymbolTableRecord
100
AcDbLayerTableRecord
  2
5
 70
    64
 62
   191
  6
Continuous
290
     1
370
    -3
390
1D
  0
ENDTAB
  0
TABLE
  2
STYLE
  5
3
100
AcDbSymbolTable
 70
     2
  0
STYLE
  5
17
100
AcDbSymbolTableRecord
100
AcDbTextStyleTableRecord
  2
Standard
 70
     0
 40
0.0
 41
1.0
 50
0.0
 71
     0
 42
0.0
  3
txt
  4

  0
STYLE
  5
141
100
AcDbSymbolTableRecord
100
AcDbTextStyleTableRecord
  2
ZU_SHPTB00001
 70
     0
 40
0.0
 41
1.0
 50
0.0
 71
     0
 42
0.0
  3
monotxt
  4
bigfont
  0
ENDTAB
  0
TABLE
  2
VIEW
  5
5
100
AcDbSymbolTable
 70
     0
  0
ENDTAB
  0
TABLE
  2
UCS
  5
6
100
AcDbSymbolTable
 70
     0
  0
ENDTAB
  0
TABLE
  2
APPID
  5
8
100
AcDbSymbolTable
 70
     1
  0
APPID
  5
16
100
AcDbSymbolTableRecord
100
AcDbRegAppTableRecord
  2
ACAD
 70
     0
  0
ENDTAB
  0
TABLE
  2
DIMSTYLE
  5
9
100
AcDbSymbolTable
 70
     1
100
AcDbDimStyleTable
 71
     0
  0
DIMSTYLE
105
18
100
AcDbSymbolTableRecord
100
AcDbDimStyleTableRecord
  2
Standard
 70
     0
  3

  4

 40
1.0
 41
0.18
 42
0.0625
 43
0.38
 44
0.18
 45
0.0
 46
0.0
 47
0.0
 48
0.0
 71
     0
 72
     0
 73
     1
 74
     1
 75
     0
 76
     0
 77
     0
 78
     0
 79
     0
140
0.18
141
0.09
142
0.0
143
25.4
144
1.0
145
0.0
146
1.0
147
0.09
148
0.0
170
     0
171
     2
172
     0
173
     0
174
     0
175
     0
176
     0
177
     0
178
     0
179
     0
271
     4
272
     4
273
     2
274
     2
275
     0
276
     0
277
     2
278
    46
279
     0
280
     0
281
     0
282
     0
283
     1
284
     0
285
     0
286
     0
288
     0
340
17
341
0
342
0
343
0
344
0
371
    -2
372
    -2
  0
ENDTAB
  0
TABLE
  2
BLOCK_RECORD
  5
1
100
AcDbSymbolTable
 70
     7
  0
BLOCK_RECORD
  5
A
100
AcDbSymbolTableRecord
100
AcDbBlockTableRecord
  2
*MODEL_SPACE
340
20
  0
BLOCK_RECORD
  5
B
100
AcDbSymbolTableRecord
100
AcDbBlockTableRecord
  2
*PAPER_SPACE
340
21
  0
BLOCK_RECORD
  5
51
100
AcDbSymbolTableRecord
100
AcDbBlockTableRecord
  2
ZU_SYM_K__CAD_SYM_POO_SYM_N20_-1
340
0
102
{BLKREFS
331
5C
102
}
  0
BLOCK_RECORD
  5
5D
100
AcDbSymbolTableRecord
100
AcDbBlockTableRecord
  2
ZU_SYM_K__CAD_SYM_POO_SYM_N20_00001-1
340
0
102
{BLKREFS
331
68
102
}
  0
BLOCK_RECORD
  5
69
100
AcDbSymbolTableRecord
100
AcDbBlockTableRecord
  2
ZU_SYM__USERS_HOME_SYMBOL_STD_SYM_B01_-1
340
0
102
{BLKREFS
331
78
102
}
  0
BLOCK_RECORD
  5
79
100
AcDbSymbolTableRecord
100
AcDbBlockTableRecord
  2
ZU_SYM__USERS_HOME_SYMBOL_STD_SYM_B01_00002-1
340
0
102
{BLKREFS
331
88
102
}
  0
BLOCK_RECORD
  5
121
100
AcDbSymbolTableRecord
100
AcDbBlockTableRecord
  2
ZU_SYM__USERS_HOME_SYMBOL_STD_SYM_B01_00003-1
340
0
102
{BLKREFS
331
130
102
}
  0
BLOCK_RECORD
  5
131
100
AcDbSymbolTableRecord
100
AcDbBlockTableRecord
  2
ZU_SYM__USERS_HOME_SYMBOL_STD_SYM_B01_00004-1
340
0
102
{BLKREFS
331
140
102
}
  0
BLOCK_RECORD
  5
253
100
AcDbSymbolTableRecord
100
AcDbBlockTableRecord
  2
ZU_SYM__USERS_HOME_SYMBOL_POO_SYM_B20_-1
340
0
102
{BLKREFS
331
25E
102
}
  0
ENDTAB
  0
ENDSEC
  0
SECTION
  2
BLOCKS
  0
BLOCK
  5
D
100
AcDbEntity
  8
0
100
AcDbBlockBegin
  2
*MODEL_SPACE
 70
     0
 10
0.0
 20
0.0
 30
0.0
  3
*MODEL_SPACE
  1

  0
ENDBLK
  5
E
100
AcDbEntity
  8
0
100
AcDbBlockEnd
  0
BLOCK
  5
F
100
AcDbEntity
 67
     1
  8
0
100
AcDbBlockBegin
  2
*PAPER_SPACE
 70
     0
 10
0.0
 20
0.0
 30
0.0
  3
*PAPER_SPACE
  1

  0
ENDBLK
  5
10
100
AcDbEntity
 67
     1
  8
0
100
AcDbBlockEnd
  0
BLOCK
  5
52
100
AcDbEntity
  8
0
100
AcDbBlockBegin
  2
ZU_SYM_K__CAD_SYM_POO_SYM_N20_-1
 70
    64
 10
0.0
 20
0.0
 30
0.0
  3
ZU_SYM_K__CAD_SYM_POO_SYM_N20_-1
  1

  0
POINT
  5
53
100
AcDbEntity
  8
0
370
    -3
  6
Continuous
100
AcDbPoint
 10
0.0
 20
0.0
 30
0.0
  0
LINE
  5
54
100
AcDbEntity
  8
0
370
    -3
  6
Continuous
100
AcDbLine
 10
-2.300001
 20
-4.0
 30
0.0
 11
-4.6
 21
-0.000001
 31
0.0
  0
LINE
  5
55
100
AcDbEntity
  8
0
370
    -3
  6
Continuous
100
AcDbLine
 10
-4.6
 20
0.000001
 30
0.0
 11
-2.300001
 21
4.0
 31
0.0
  0
LINE
  5
56
100
AcDbEntity
  8
0
370
    -3
  6
Continuous
100
AcDbLine
 10
-2.299999
 20
4.0
 30
0.0
 11
2.299999
 21
4.0
 31
0.0
  0
LINE
  5
57
100
AcDbEntity
  8
0
370
    -3
  6
Continuous
100
AcDbLine
 10
2.300001
 20
4.0
 30
0.0
 11
4.6
 21
0.000001
 31
0.0
  0
LINE
  5
58
100
AcDbEntity
  8
0
370
    -3
  6
Continuous
100
AcDbLine
 10
4.6
 20
-0.000001
 30
0.0
 11
2.300001
 21
-4.0
 31
0.0
  0
LINE
  5
59
100
AcDbEntity
  8
0
370
    -3
  6
Continuous
100
AcDbLine
 10
2.299999
 20
-4.0
 30
0.0
 11
-2.299999
 21
-4.0
 31
0.0
  0
CIRCLE
  5
5A
100
AcDbEntity
  8
0
370
    -3
  6
Continuous
100
AcDbCircle
 10
0.0
 20
0.0
 30
0.0
 40
4.0
  0
ENDBLK
  5
5B
100
AcDbEntity
  8
0
100
AcDbBlockEnd
  0
BLOCK
  5
5E
100
AcDbEntity
  8
0
100
AcDbBlockBegin
  2
ZU_SYM_K__CAD_SYM_POO_SYM_N20_00001-1
 70
    64
 10
0.0
 20
0.0
 30
0.0
  3
ZU_SYM_K__CAD_SYM_POO_SYM_N20_00001-1
  1

  0
POINT
  5
5F
100
AcDbEntity
  8
0
370
    -3
  6
Continuous
100
AcDbPoint
 10
0.0
 20
0.0
 30
0.0
  0
LINE
  5
60
100
AcDbEntity
  8
0
370
    -3
  6
Continuous
100
AcDbLine
 10
-2.300001
 20
-4.0
 30
0.0
 11
-4.6
 21
-0.000001
 31
0.0
  0
LINE
  5
61
100
AcDbEntity
  8
0
370
    -3
  6
Continuous
100
AcDbLine
 10
-4.6
 20
0.000001
 30
0.0
 11
-2.300001
 21
4.0
 31
0.0
  0
LINE
  5
62
100
AcDbEntity
  8
0
370
    -3
  6
Continuous
100
AcDbLine
 10
-2.299999
 20
4.0
 30
0.0
 11
2.299999
 21
4.0
 31
0.0
  0
LINE
  5
63
100
AcDbEntity
  8
0
370
    -3
  6
Continuous
100
AcDbLine
 10
2.300001
 20
4.0
 30
0.0
 11
4.6
 21
0.000001
 31
0.0
  0
LINE
  5
64
100
AcDbEntity
  8
0
370
    -3
  6
Continuous
100
AcDbLine
 10
4.6
 20
-0.000001
 30
0.0
 11
2.300001
 21
-4.0
 31
0.0
  0
LINE
  5
65
100
AcDbEntity
  8
0
370
    -3
  6
Continuous
100
AcDbLine
 10
2.299999
 20
-4.0
 30
0.0
 11
-2.299999
 21
-4.0
 31
0.0
  0
CIRCLE
  5
66
100
AcDbEntity
  8
0
370
    -3
  6
Continuous
100
AcDbCircle
 10
0.0
 20
0.0
 30
0.0
 40
4.0
  0
ENDBLK
  5
67
100
AcDbEntity
  8
0
100
AcDbBlockEnd
  0
BLOCK
  5
6A
100
AcDbEntity
  8
0
100
AcDbBlockBegin
  2
ZU_SYM__USERS_HOME_SYMBOL_STD_SYM_B01_-1
 70
    64
 10
0.0
 20
0.0
 30
0.0
  3
ZU_SYM__USERS_HOME_SYMBOL_STD_SYM_B01_-1
  1

  0
POINT
  5
6B
100
AcDbEntity
  8
0
370
    -3
  6
Continuous
100
AcDbPoint
 10
0.0
 20
0.0
 30
0.0
  0
LINE
  5
6C
100
AcDbEntity
  8
0
370
    -3
  6
Continuous
100
AcDbLine
 10
-0.000018
 20
-4.599998
 30
0.0
 11
-3.000017
 21
-4.599986
 31
0.0
  0
LINE
  5
6D
100
AcDbEntity
  8
0
370
    -3
  6
Continuous
100
AcDbLine
 10
-2.999996
 20
-4.59997
 30
0.0
 11
-3.499991
 21
-3.899967
 31
0.0
  0
LINE
  5
6E
100
AcDbEntity
  8
0
370
    -3
  6
Continuous
100
AcDbLine
 10
-3.500012
 20
-3.89998
 30
0.0
 11
-3.49998
 21
3.90001
 31
0.0
  0
LINE
  5
6F
100
AcDbEntity
  8
0
370
    -3
  6
Continuous
100
AcDbLine
 10
-3.499965
 20
3.9
 30
0.0
 11
-2.999964
 21
4.599998
 31
0.0
  0
LINE
  5
70
100
AcDbEntity
  8
0
370
    -3
  6
Continuous
100
AcDbLine
 10
-2.999979
 20
4.600012
 30
0.0
 11
0.000019
 21
4.600001
 31
0.0
  0
LINE
  5
71
100
AcDbEntity
  8
0
370
    -3
  6
Continuous
100
AcDbLine
 10
0.000019
 20
4.6
 30
0.0
 11
-0.000019
 21
-4.6
 31
0.0
  0
LINE
  5
72
100
AcDbEntity
  8
0
370
    -3
  6
Continuous
100
AcDbLine
 10
-3.000008
 20
-2.299986
 30
0.0
 11
-0.000008
 21
-2.299998
 31
0.0
  0
LINE
  5
73
100
AcDbEntity
  8
0
370
    -3
  6
Continuous
100
AcDbLine
 10
-2.999989
 20
2.300011
 30
0.0
 11
0.000009
 21
2.3
 31
0.0
  0
ARC
  5
74
100
AcDbEntity
  8
0
370
    -3
  6
Continuous
100
AcDbCircle
 10
-1.930014
 20
-3.449991
 30
0.0
 40
1.57
100
AcDbArc
 50
132.899744
 51
179.999745
  0
ARC
  5
75
100
AcDbEntity
  8
0
370
    -3
  6
Continuous
100
AcDbCircle
 10
-1.929986
 20
3.450007
 30
0.0
 40
1.57
100
AcDbArc
 50
179.999745
 51
227.099746
  0
ARC
  5
76
100
AcDbEntity
  8
0
370
    -3
  6
Continuous
100
AcDbCircle
 10
2.040001
 20
-0.000008
 30
0.0
 40
5.539999
100
AcDbArc
 50
155.470187
 51
204.52925
  0
ENDBLK
  5
77
100
AcDbEntity
  8
0
100
AcDbBlockEnd
  0
BLOCK
  5
7A
100
AcDbEntity
  8
0
100
AcDbBlockBegin
  2
ZU_SYM__USERS_HOME_SYMBOL_STD_SYM_B01_00002-1
 70
    64
 10
0.0
 20
0.0
 30
0.0
  3
ZU_SYM__USERS_HOME_SYMBOL_STD_SYM_B01_00002-1
  1

  0
POINT
  5
7B
100
AcDbEntity
  8
0
370
    -3
  6
Continuous
100
AcDbPoint
 10
0.0
 20
0.0
 30
0.0
  0
LINE
  5
7C
100
AcDbEntity
  8
0
370
    -3
  6
Continuous
100
AcDbLine
 10
-0.000018
 20
-4.599998
 30
0.0
 11
-3.000017
 21
-4.599986
 31
0.0
  0
LINE
  5
7D
100
AcDbEntity
  8
0
370
    -3
  6
Continuous
100
AcDbLine
 10
-2.999996
 20
-4.59997
 30
0.0
 11
-3.499991
 21
-3.899967
 31
0.0
  0
LINE
  5
7E
100
AcDbEntity
  8
0
370
    -3
  6
Continuous
100
AcDbLine
 10
-3.500012
 20
-3.89998
 30
0.0
 11
-3.49998
 21
3.90001
 31
0.0
  0
LINE
  5
7F
100
AcDbEntity
  8
0
370
    -3
  6
Continuous
100
AcDbLine
 10
-3.499965
 20
3.9
 30
0.0
 11
-2.999964
 21
4.599998
 31
0.0
  0
LINE
  5
80
100
AcDbEntity
  8
0
370
    -3
  6
Continuous
100
AcDbLine
 10
-2.999979
 20
4.600012
 30
0.0
 11
0.000019
 21
4.600001
 31
0.0
  0
LINE
  5
81
100
AcDbEntity
  8
0
370
    -3
  6
Continuous
100
AcDbLine
 10
0.000019
 20
4.6
 30
0.0
 11
-0.000019
 21
-4.6
 31
0.0
  0
LINE
  5
82
100
AcDbEntity
  8
0
370
    -3
  6
Continuous
100
AcDbLine
 10
-3.000008
 20
-2.299986
 30
0.0
 11
-0.000008
 21
-2.299998
 31
0.0
  0
LINE
  5
83
100
AcDbEntity
  8
0
370
    -3
  6
Continuous
100
AcDbLine
 10
-2.999989
 20
2.300011
 30
0.0
 11
0.000009
 21
2.3
 31
0.0
  0
ARC
  5
84
100
AcDbEntity
  8
0
370
    -3
  6
Continuous
100
AcDbCircle
 10
-1.930014
 20
-3.449991
 30
0.0
 40
1.57
100
AcDbArc
 50
132.899744
 51
179.999745
  0
ARC
  5
85
100
AcDbEntity
  8
0
370
    -3
  6
Continuous
100
AcDbCircle
 10
-1.929986
 20
3.450007
 30
0.0
 40
1.57
100
AcDbArc
 50
179.999745
 51
227.099746
  0
ARC
  5
86
100
AcDbEntity
  8
0
370
    -3
  6
Continuous
100
AcDbCircle
 10
2.040001
 20
-0.000008
 30
0.0
 40
5.539999
100
AcDbArc
 50
155.470187
 51
204.52925
  0
ENDBLK
  5
87
100
AcDbEntity
  8
0
100
AcDbBlockEnd
  0
BLOCK
  5
122
100
AcDbEntity
  8
0
100
AcDbBlockBegin
  2
ZU_SYM__USERS_HOME_SYMBOL_STD_SYM_B01_00003-1
 70
    64
 10
0.0
 20
0.0
 30
0.0
  3
ZU_SYM__USERS_HOME_SYMBOL_STD_SYM_B01_00003-1
  1

  0
POINT
  5
123
100
AcDbEntity
  8
0
370
    -3
  6
Continuous
100
AcDbPoint
 10
0.0
 20
0.0
 30
0.0
  0
LINE
  5
124
100
AcDbEntity
  8
0
370
    -3
  6
Continuous
100
AcDbLine
 10
-0.000018
 20
-4.599998
 30
0.0
 11
-3.000017
 21
-4.599986
 31
0.0
  0
LINE
  5
125
100
AcDbEntity
  8
0
370
    -3
  6
Continuous
100
AcDbLine
 10
-2.999996
 20
-4.59997
 30
0.0
 11
-3.499991
 21
-3.899967
 31
0.0
  0
LINE
  5
126
100
AcDbEntity
  8
0
370
    -3
  6
Continuous
100
AcDbLine
 10
-3.500012
 20
-3.89998
 30
0.0
 11
-3.49998
 21
3.90001
 31
0.0
  0
LINE
  5
127
100
AcDbEntity
  8
0
370
    -3
  6
Continuous
100
AcDbLine
 10
-3.499965
 20
3.9
 30
0.0
 11
-2.999964
 21
4.599998
 31
0.0
  0
LINE
  5
128
100
AcDbEntity
  8
0
370
    -3
  6
Continuous
100
AcDbLine
 10
-2.999979
 20
4.600012
 30
0.0
 11
0.000019
 21
4.600001
 31
0.0
  0
LINE
  5
129
100
AcDbEntity
  8
0
370
    -3
  6
Continuous
100
AcDbLine
 10
0.000019
 20
4.6
 30
0.0
 11
-0.000019
 21
-4.6
 31
0.0
  0
LINE
  5
12A
100
AcDbEntity
  8
0
370
    -3
  6
Continuous
100
AcDbLine
 10
-3.000008
 20
-2.299986
 30
0.0
 11
-0.000008
 21
-2.299998
 31
0.0
  0
LINE
  5
12B
100
AcDbEntity
  8
0
370
    -3
  6
Continuous
100
AcDbLine
 10
-2.999989
 20
2.300011
 30
0.0
 11
0.000009
 21
2.3
 31
0.0
  0
ARC
  5
12C
100
AcDbEntity
  8
0
370
    -3
  6
Continuous
100
AcDbCircle
 10
-1.930014
 20
-3.449991
 30
0.0
 40
1.57
100
AcDbArc
 50
132.899744
 51
179.999745
  0
ARC
  5
12D
100
AcDbEntity
  8
0
370
    -3
  6
Continuous
100
AcDbCircle
 10
-1.929986
 20
3.450007
 30
0.0
 40
1.57
100
AcDbArc
 50
179.999745
 51
227.099746
  0
ARC
  5
12E
100
AcDbEntity
  8
0
370
    -3
  6
Continuous
100
AcDbCircle
 10
2.040001
 20
-0.000008
 30
0.0
 40
5.539999
100
AcDbArc
 50
155.470187
 51
204.52925
  0
ENDBLK
  5
12F
100
AcDbEntity
  8
0
100
AcDbBlockEnd
  0
BLOCK
  5
132
100
AcDbEntity
  8
0
100
AcDbBlockBegin
  2
ZU_SYM__USERS_HOME_SYMBOL_STD_SYM_B01_00004-1
 70
    64
 10
0.0
 20
0.0
 30
0.0
  3
ZU_SYM__USERS_HOME_SYMBOL_STD_SYM_B01_00004-1
  1

  0
POINT
  5
133
100
AcDbEntity
  8
0
370
    -3
  6
Continuous
100
AcDbPoint
 10
0.0
 20
0.0
 30
0.0
  0
LINE
  5
134
100
AcDbEntity
  8
0
370
    -3
  6
Continuous
100
AcDbLine
 10
-0.000018
 20
-4.599998
 30
0.0
 11
-3.000017
 21
-4.599986
 31
0.0
  0
LINE
  5
135
100
AcDbEntity
  8
0
370
    -3
  6
Continuous
100
AcDbLine
 10
-2.999996
 20
-4.59997
 30
0.0
 11
-3.499991
 21
-3.899967
 31
0.0
  0
LINE
  5
136
100
AcDbEntity
  8
0
370
    -3
  6
Continuous
100
AcDbLine
 10
-3.500012
 20
-3.89998
 30
0.0
 11
-3.49998
 21
3.90001
 31
0.0
  0
LINE
  5
137
100
AcDbEntity
  8
0
370
    -3
  6
Continuous
100
AcDbLine
 10
-3.499965
 20
3.9
 30
0.0
 11
-2.999964
 21
4.599998
 31
0.0
  0
LINE
  5
138
100
AcDbEntity
  8
0
370
    -3
  6
Continuous
100
AcDbLine
 10
-2.999979
 20
4.600012
 30
0.0
 11
0.000019
 21
4.600001
 31
0.0
  0
LINE
  5
139
100
AcDbEntity
  8
0
370
    -3
  6
Continuous
100
AcDbLine
 10
0.000019
 20
4.6
 30
0.0
 11
-0.000019
 21
-4.6
 31
0.0
  0
LINE
  5
13A
100
AcDbEntity
  8
0
370
    -3
  6
Continuous
100
AcDbLine
 10
-3.000008
 20
-2.299986
 30
0.0
 11
-0.000008
 21
-2.299998
 31
0.0
  0
LINE
  5
13B
100
AcDbEntity
  8
0
370
    -3
  6
Continuous
100
AcDbLine
 10
-2.999989
 20
2.300011
 30
0.0
 11
0.000009
 21
2.3
 31
0.0
  0
ARC
  5
13C
100
AcDbEntity
  8
0
370
    -3
  6
Continuous
100
AcDbCircle
 10
-1.930014
 20
-3.449991
 30
0.0
 40
1.57
100
AcDbArc
 50
132.899744
 51
179.999745
  0
ARC
  5
13D
100
AcDbEntity
  8
0
370
    -3
  6
Continuous
100
AcDbCircle
 10
-1.929986
 20
3.450007
 30
0.0
 40
1.57
100
AcDbArc
 50
179.999745
 51
227.099746
  0
ARC
  5
13E
100
AcDbEntity
  8
0
370
    -3
  6
Continuous
100
AcDbCircle
 10
2.040001
 20
-0.000008
 30
0.0
 40
5.539999
100
AcDbArc
 50
155.470187
 51
204.52925
  0
ENDBLK
  5
13F
100
AcDbEntity
  8
0
100
AcDbBlockEnd
  0
BLOCK
  5
254
100
AcDbEntity
  8
0
100
AcDbBlockBegin
  2
ZU_SYM__USERS_HOME_SYMBOL_POO_SYM_B20_-1
 70
    64
 10
0.0
 20
0.0
 30
0.0
  3
ZU_SYM__USERS_HOME_SYMBOL_POO_SYM_B20_-1
  1

  0
LINE
  5
255
100
AcDbEntity
  8
0
370
    -3
  6
Continuous
100
AcDbLine
 10
-7.499999
 20
6.5
 30
0.0
 11
-7.499999
 21
-6.5
 31
0.0
  0
LINE
  5
256
100
AcDbEntity
  8
0
370
    -3
  6
Continuous
100
AcDbLine
 10
-7.499998
 20
-6.499999
 30
0.0
 11
-7.999999
 21
-5.63407
 31
0.0
  0
LINE
  5
257
100
AcDbEntity
  8
0
370
    -3
  6
Continuous
100
AcDbLine
 10
-7.499999
 20
6.5
 30
0.0
 11
-7.999999
 21
5.633876
 31
0.0
  0
LINE
  5
258
100
AcDbEntity
  8
0
370
    -3
  6
Continuous
100
AcDbLine
 10
0.0
 20
-6.5
 30
0.0
 11
-7.499998
 21
-6.5
 31
0.0
  0
LINE
  5
259
100
AcDbEntity
  8
0
370
    -3
  6
Continuous
100
AcDbLine
 10
0.0
 20
6.5
 30
0.0
 11
-7.499999
 21
6.5
 31
0.0
  0
LINE
  5
25A
100
AcDbEntity
  8
0
370
    -3
  6
Continuous
100
AcDbLine
 10
-7.999999
 20
5.633876
 30
0.0
 11
-7.999999
 21
-5.63407
 31
0.0
  0
LINE
  5
25B
100
AcDbEntity
  8
0
370
    -3
  6
Continuous
100
AcDbLine
 10
0.0
 20
-6.5
 30
0.0
 11
0.0
 21
6.5
 31
0.0
  0
POINT
  5
25C
100
AcDbEntity
  8
0
370
    -3
  6
Continuous
100
AcDbPoint
 10
0.0
 20
0.0
 30
0.0
  0
ENDBLK
  5
25D
100
AcDbEntity
  8
0
100
AcDbBlockEnd
  0
ENDSEC
  0
SECTION
  2
ENTITIES
  0
LINE
  5
2A
100
AcDbEntity
  8
0
370
    -3
  6
Continuous
100
AcDbLine
 10
788.338489
 20
-187.564847
 30
0.0
 11
788.338489
 21
-190.305229
 31
0.0
  0
ARC
  5
2B
100
AcDbEntity
  8
0
370
    -3
  6
Continuous
100
AcDbCircle
 10
768.338489
 20
-190.305229
 30
0.0
 40
20.0
100
AcDbArc
 50
342.497476
 51
0.0
  0
ARC
  5
2C
100
AcDbEntity
  8
0
370
    -3
  6
Continuous
100
AcDbCircle
 10
716.838489
 20
-174.064847
 30
0.0
 40
74.0
100
AcDbArc
 50
341.075356
 51
342.497476
  0
ARC
  5
2D
100
AcDbEntity
  8
0
370
    -3
  6
Continuous
100
AcDbCircle
 10
716.838489
 20
-174.064847
 30
0.0
 40
74.0
100
AcDbArc
 50
197.502524
 51
198.924644
  0
LINE
  5
2E
100
AcDbEntity
  8
0
370
    -3
  6
Continuous
100
AcDbLine
 10
645.338489
 20
-187.564847
 30
0.0
 11
645.338489
 21
-190.305229
 31
0.0
  0
ARC
  5
2F
100
AcDbEntity
  8
0
370
    -3
  6
Continuous
100
AcDbCircle
 10
665.338489
 20
-190.305229
 30
0.0
 40
20.0
100
AcDbArc
 50
180.0
 51
197.502524
  0
ARC
  5
30
100
AcDbEntity
  8
0
370
    -3
  6
Continuous
100
AcDbCircle
 10
727.338489
 20
-54.064847
 30
0.0
 40
10.0
100
AcDbArc
 50
71.713738
 51
90.0
  0
LINE
  5
31
100
AcDbEntity
  8
0
370
    -3
  6
Continuous
100
AcDbLine
 10
706.438489
 20
-44.064847
 30
0.0
 11
727.238489
 21
-44.064847
 31
0.0
  0
LINE
  5
32
100
AcDbEntity
  8
0
370
    -3
  6
Continuous
100
AcDbLine
 10
706.338489
 20
-44.064847
 30
0.0
 11
727.338489
 21
-44.064847
 31
0.0
  0
LINE
  5
33
100
AcDbEntity
  8
0
370
    -3
  6
DASHED
100
AcDbLine
 10
744.402575
 20
-80.064847
 30
0.0
 11
752.838489
 21
-80.064847
 31
0.0
  0
LINE
  5
34
100
AcDbEntity
  8
0
370
    -3
  6
DASHED
100
AcDbLine
 10
752.838489
 20
-83.00476
 30
0.0
 11
752.838489
 21
-52.698183
 31
0.0
  0
ARC
  5
35
100
AcDbEntity
  8
0
370
    -3
  6
DASHED
100
AcDbCircle
 10
747.838489
 20
-52.698183
 30
0.0
 40
5.0
100
AcDbArc
 50
0.0
 51
83.967951
  0
LINE
  5
36
100
AcDbEntity
  8
0
370
    -3
  6
DASHED
100
AcDbLine
 10
689.274402
 20
-80.064847
 30
0.0
 11
680.838489
 21
-80.064847
 31
0.0
  0
LINE
  5
37
100
AcDbEntity
  8
0
370
    -3
  6
DASHED
100
AcDbLine
 10
680.838489
 20
-83.00476
 30
0.0
 11
680.838489
 21
-52.698183
 31
0.0
  0
ARC
  5
38
100
AcDbEntity
  8
0
370
    -3
  6
DASHED
100
AcDbCircle
 10
685.838489
 20
-52.698183
 30
0.0
 40
5.0
100
AcDbArc
 50
96.032049
 51
180.0
  0
LINE
  5
39
100
AcDbEntity
  8
0
370
    -3
  6
DASHED
100
AcDbLine
 10
719.338489
 20
-46.075264
 30
0.0
 11
719.338489
 21
-45.564847
 31
0.0
  0
ARC
  5
3A
100
AcDbEntity
  8
0
370
    -3
  6
DASHED
100
AcDbCircle
 10
716.838489
 20
-346.064847
 30
0.0
 40
300.0
100
AcDbArc
 50
83.967951
 51
96.032049
  0
LINE
  5
3B
100
AcDbEntity
  8
0
370
    -3
  6
DASHED
100
AcDbLine
 10
714.338489
 20
-46.064849
 30
0.0
 11
714.338489
 21
-45.564847
 31
0.0
  0
LINE
  5
3C
100
AcDbEntity
  8
0
370
    -3
  6
DASHED
100
AcDbLine
 10
719.338489
 20
-45.564847
 30
0.0
 11
714.338489
 21
-45.564847
 31
0.0
  0
LINE
  5
3D
100
AcDbEntity
  8
0
370
    -3
  6
Continuous
100
AcDbLine
 10
-301.096741
 20
-80.064847
 30
0.0
 11
-292.660828
 21
-80.064847
 31
0.0
  0
LINE
  5
3E
100
AcDbEntity
  8
0
370
    -3
  6
Continuous
100
AcDbLine
 10
-270.660828
 20
-43.103309
 30
0.0
 11
-259.157882
 21
-43.988151
 31
0.0
  0
LINE
  5
3F
100
AcDbEntity
  8
0
370
    -3
  6
Continuous
100
AcDbLine
 10
-281.860828
 20
-43.300141
 30
0.0
 11
-270.660828
 21
-43.064847
 31
0.0
  0
LINE
  5
40
100
AcDbEntity
  8
0
370
    -3
  6
Continuous
100
AcDbLine
 10
-292.660828
 20
-83.00476
 30
0.0
 11
-292.660828
 21
-52.698183
 31
0.0
  0
LINE
  5
41
100
AcDbEntity
  8
0
370
    -3
  6
Continuous
100
AcDbLine
 10
-318.324904
 20
-44.066193
 30
0.0
 11
-270.660828
 21
-43.064847
 31
0.0
  0
LINE
  5
42
100
AcDbEntity
  8
0
370
    -3
  6
Continuous
100
AcDbLine
 10
-326.160828
 20
-46.075264
 30
0.0
 11
-326.160828
 21
-45.564847
 31
0.0
  0
ARC
  5
43
100
AcDbEntity
  8
0
370
    -3
  6
Continuous
100
AcDbCircle
 10
-297.660828
 20
-52.698183
 30
0.0
 40
5.0
100
AcDbArc
 50
0.0
 51
83.967951
  0
ARC
  5
44
100
AcDbEntity
  8
0
370
    -3
  6
Continuous
100
AcDbCircle
 10
-318.160828
 20
-54.064847
 30
0.0
 40
10.0
100
AcDbArc
 50
48.69639
 51
90.0
  0
ARC
  5
45
100
AcDbEntity
  8
0
370
    -3
  6
Continuous
100
AcDbCircle
 10
-328.660828
 20
-346.064847
 30
0.0
 40
300.0
100
AcDbArc
 50
83.967951
 51
96.032049
  0
LINE
  5
46
100
AcDbEntity
  8
0
370
    -3
  6
Continuous
100
AcDbLine
 10
-331.160828
 20
-46.064849
 30
0.0
 11
-331.160828
 21
-45.564847
 31
0.0
  0
LINE
  5
47
100
AcDbEntity
  8
0
370
    -3
  6
Continuous
100
AcDbLine
 10
-326.160828
 20
-45.564847
 30
0.0
 11
-331.160828
 21
-45.564847
 31
0.0
  0
ARC
  5
48
100
AcDbEntity
  8
0
370
    -3
  6
Continuous
100
AcDbCircle
 10
-339.160828
 20
-54.064847
 30
0.0
 40
10.0
100
AcDbArc
 50
90.0
 51
131.30361
  0
LINE
  5
49
100
AcDbEntity
  8
0
370
    -3
  6
Continuous
100
AcDbLine
 10
-339.160723
 20
-44.064847
 30
0.0
 11
-318.260828
 21
-44.064847
 31
0.0
  0
ARC
  5
4A
100
AcDbEntity
  8
0
370
    -3
  6
Continuous
100
AcDbCircle
 10
-339.160723
 20
-54.064847
 30
0.0
 40
10.0
100
AcDbArc
 50
90.0
 51
108.286219
  0
LINE
  5
4B
100
AcDbEntity
  8
0
370
    -3
  6
Continuous
100
AcDbLine
 10
-339.160828
 20
-44.064847
 30
0.0
 11
-318.160828
 21
-44.064847
 31
0.0
  0
ARC
  5
4C
100
AcDbEntity
  8
0
370
    -3
  6
Continuous
100
AcDbCircle
 10
-359.660828
 20
-52.698183
 30
0.0
 40
5.0
100
AcDbArc
 50
96.032049
 51
180.0
  0
LINE
  5
4D
100
AcDbEntity
  8
0
370
    -3
  6
Continuous
100
AcDbLine
 10
-364.660828
 20
-83.00476
 30
0.0
 11
-364.660828
 21
-52.698183
 31
0.0
  0
LINE
  5
4E
100
AcDbEntity
  8
0
370
    -3
  6
Continuous
100
AcDbLine
 10
-356.224914
 20
-80.064847
 30
0.0
 11
-364.660828
 21
-80.064847
 31
0.0
  0
LINE
  5
4F
100
AcDbEntity
  8
0
370
    -3
  6
Continuous
100
AcDbLine
 10
-398.160828
 20
-45.564847
 30
0.0
 11
-389.660828
 21
-45.564847
 31
0.0
  0
LINE
  5
50
100
AcDbEntity
  8
0
370
    -3
  6
Continuous
100
AcDbLine
 10
-389.660828
 20
-45.564847
 30
0.0
 11
-342.298476
 21
-44.56984
 31
0.0
  0
INSERT
  5
5C
100
AcDbEntity
  8
0
100
AcDbBlockReference
  2
ZU_SYM_K__CAD_SYM_POO_SYM_N20_-1
 10
-377.097642
 20
-222.501662
 30
0.0
 41
-1.0
  0
INSERT
  5
68
100
AcDbEntity
  8
0
100
AcDbBlockReference
  2
ZU_SYM_K__CAD_SYM_POO_SYM_N20_00001-1
 10
-280.224013
 20
-222.501662
 30
0.0
 41
-1.0
  0
INSERT
  5
78
100
AcDbEntity
  8
0
100
AcDbBlockReference
  2
ZU_SYM__USERS_HOME_SYMBOL_STD_SYM_B01_-1
 10
151.839172
 20
-222.501662
 30
0.0
  0
INSERT
  5
88
100
AcDbEntity
  8
0
100
AcDbBlockReference
  2
ZU_SYM__USERS_HOME_SYMBOL_STD_SYM_B01_00002-1
 10
151.839172
 20
-125.628033
 30
0.0
 41
-1.0
 50
180.0
  0
LINE
  5
89
100
AcDbEntity
  8
0
370
    -3
  6
Continuous
100
AcDbLine
 10
-14.460828
 20
-80.064847
 30
0.0
 11
-14.460828
 21
-81.836993
 31
0.0
  0
LINE
  5
8A
100
AcDbEntity
  8
0
370
    -3
  6
Continuous
100
AcDbLine
 10
75.539172
 20
-80.064847
 30
0.0
 11
-14.460828
 21
-80.064847
 31
0.0
  0
LINE
  5
8B
100
AcDbEntity
  8
0
370
    -3
  6
Continuous
100
AcDbLine
 10
75.539172
 20
-80.064847
 30
0.0
 11
75.539172
 21
-85.064847
 31
0.0
  0
LINE
  5
8C
100
AcDbEntity
  8
0
370
    -3
  6
Continuous
100
AcDbLine
 10
75.539172
 20
-85.064847
 30
0.0
 11
-6.660828
 21
-85.064847
 31
0.0
  0
LINE
  5
8D
100
AcDbEntity
  8
0
370
    -3
  6
Continuous
100
AcDbLine
 10
-13.460828
 20
-46.064847
 30
0.0
 11
74.539172
 21
-46.064847
 31
0.0
  0
LINE
  5
8E
100
AcDbEntity
  8
0
370
    -3
  6
Continuous
100
AcDbLine
 10
-14.460828
 20
-80.064847
 30
0.0
 11
-14.460828
 21
-47.064847
 31
0.0
  0
ARC
  5
8F
100
AcDbEntity
  8
0
370
    -3
  6
Continuous
100
AcDbCircle
 10
-13.460828
 20
-47.064847
 30
0.0
 40
1.0
100
AcDbArc
 50
90.0
 51
180.0
  0
LINE
  5
90
100
AcDbEntity
  8
0
370
    -3
  6
Continuous
100
AcDbLine
 10
-14.460828
 20
-80.064847
 30
0.0
 11
75.539172
 21
-80.064847
 31
0.0
  0
LINE
  5
91
100
AcDbEntity
  8
0
370
    -3
  6
Continuous
100
AcDbLine
 10
75.539172
 20
-80.064847
 30
0.0
 11
75.539172
 21
-47.064847
 31
0.0
  0
ARC
  5
92
100
AcDbEntity
  8
0
370
    -3
  6
Continuous
100
AcDbCircle
 10
74.539172
 20
-47.064847
 30
0.0
 40
1.0
100
AcDbArc
 50
0.0
 51
90.0
  0
LINE
  5
93
100
AcDbEntity
  8
0
370
    -3
  6
Continuous
100
AcDbLine
 10
60.539172
 20
-45.564847
 30
0.0
 11
68.539172
 21
-45.564847
 31
0.0
  0
LINE
  5
94
100
AcDbEntity
  8
0
370
    -3
  6
Continuous
100
AcDbLine
 10
-7.460828
 20
-45.564847
 30
0.0
 11
0.539172
 21
-45.564847
 31
0.0
  0
LINE
  5
95
100
AcDbEntity
  8
0
370
    -3
  6
Continuous
100
AcDbLine
 10
68.539172
 20
-46.064847
 30
0.0
 11
68.539172
 21
-45.564847
 31
0.0
  0
LINE
  5
96
100
AcDbEntity
  8
0
370
    -3
  6
Continuous
100
AcDbLine
 10
60.539172
 20
-46.064847
 30
0.0
 11
60.539172
 21
-45.564847
 31
0.0
  0
LINE
  5
97
100
AcDbEntity
  8
0
370
    -3
  6
Continuous
100
AcDbLine
 10
0.539172
 20
-46.064847
 30
0.0
 11
0.539172
 21
-45.564847
 31
0.0
  0
LINE
  5
98
100
AcDbEntity
  8
0
370
    -3
  6
Continuous
100
AcDbLine
 10
-7.460828
 20
-46.064847
 30
0.0
 11
-7.460828
 21
-45.564847
 31
0.0
  0
LINE
  5
99
100
AcDbEntity
  8
0
370
    -3
  6
Continuous
100
AcDbLine
 10
-4.960828
 20
-46.064847
 30
0.0
 11
-4.960828
 21
-45.564847
 31
0.0
  0
LINE
  5
9A
100
AcDbEntity
  8
0
370
    -3
  6
Continuous
100
AcDbLine
 10
66.039172
 20
-46.064847
 30
0.0
 11
66.039172
 21
-45.564847
 31
0.0
  0
LINE
  5
9B
100
AcDbEntity
  8
0
370
    -3
  6
Continuous
100
AcDbLine
 10
-13.660828
 20
-81.945626
 30
0.0
 11
-9.660828
 21
-81.945626
 31
0.0
  0
LINE
  5
9C
100
AcDbEntity
  8
0
370
    -3
  6
Continuous
100
AcDbLine
 10
-109.660828
 20
-143.564847
 30
0.0
 11
-109.660828
 21
-91.121642
 31
0.0
  0
LINE
  5
9D
100
AcDbEntity
  8
0
370
    -3
  6
Continuous
100
AcDbLine
 10
-6.660828
 20
-143.564847
 30
0.0
 11
-6.660828
 21
-84.945626
 31
0.0
  0
ARC
  5
9E
100
AcDbEntity
  8
0
370
    -3
  6
Continuous
100
AcDbCircle
 10
-13.660828
 20
-78.945626
 30
0.0
 40
3.0
100
AcDbArc
 50
180.0
 51
270.0
  0
ARC
  5
9F
100
AcDbEntity
  8
0
370
    -3
  6
Continuous
100
AcDbCircle
 10
-9.660828
 20
-84.945626
 30
0.0
 40
3.0
100
AcDbArc
 50
0.0
 51
90.0
  0
ARC
  5
A0
100
AcDbEntity
  8
0
370
    -3
  6
Continuous
100
AcDbCircle
 10
-107.060828
 20
-196.008052
 30
0.0
 40
2.6
100
AcDbArc
 50
180.0
 51
235.0
  0
LINE
  5
A1
100
AcDbEntity
  8
0
370
    -3
  6
Continuous
100
AcDbLine
 10
-98.82638
 20
-204.947888
 30
0.0
 11
-108.552126
 21
-198.137848
 31
0.0
  0
ARC
  5
A2
100
AcDbEntity
  8
0
370
    -3
  6
Continuous
100
AcDbCircle
 10
-87.354852
 20
-188.564847
 30
0.0
 40
20.0
100
AcDbArc
 50
235.0
 51
270.0
  0
LINE
  5
A3
100
AcDbEntity
  8
0
370
    -3
  6
Continuous
100
AcDbLine
 10
-109.660828
 20
-143.564847
 30
0.0
 11
-109.660828
 21
-196.008052
 31
0.0
  0
LINE
  5
A4
100
AcDbEntity
  8
0
370
    -3
  6
Continuous
100
AcDbLine
 10
-6.660828
 20
-208.564847
 30
0.0
 11
-87.354852
 21
-208.564847
 31
0.0
  0
LINE
  5
A5
100
AcDbEntity
  8
0
370
    -3
  6
Continuous
100
AcDbLine
 10
60.339172
 20
-203.064847
 30
0.0
 11
90.339172
 21
-203.064847
 31
0.0
  0
LINE
  5
A6
100
AcDbEntity
  8
0
370
    -3
  6
Continuous
100
AcDbLine
 10
-6.660828
 20
-200.564847
 30
0.0
 11
90.339172
 21
-200.564847
 31
0.0
  0
LINE
  5
A7
100
AcDbEntity
  8
0
370
    -3
  6
Continuous
100
AcDbLine
 10
-6.660828
 20
-199.564847
 30
0.0
 11
90.339172
 21
-199.564847
 31
0.0
  0
LINE
  5
A8
100
AcDbEntity
  8
0
370
    -3
  6
Continuous
100
AcDbLine
 10
-6.660828
 20
-198.564847
 30
0.0
 11
90.339172
 21
-198.564847
 31
0.0
  0
LINE
  5
A9
100
AcDbEntity
  8
0
370
    -3
  6
Continuous
100
AcDbLine
 10
-6.660828
 20
-143.564847
 30
0.0
 11
-6.660828
 21
-208.564847
 31
0.0
  0
LINE
  5
AA
100
AcDbEntity
  8
0
370
    -3
  6
Continuous
100
AcDbLine
 10
-6.660828
 20
-193.880381
 30
0.0
 11
90.339172
 21
-193.880381
 31
0.0
  0
LINE
  5
AB
100
AcDbEntity
  8
0
370
    -3
  6
Continuous
100
AcDbLine
 10
-6.660828
 20
-188.930634
 30
0.0
 11
90.339172
 21
-188.930634
 31
0.0
  0
LINE
  5
AC
100
AcDbEntity
  8
0
370
    -3
  6
Continuous
100
AcDbLine
 10
-6.660828
 20
-158.564847
 30
0.0
 11
90.339172
 21
-158.564847
 31
0.0
  0
LINE
  5
AD
100
AcDbEntity
  8
0
370
    -3
  6
Continuous
100
AcDbLine
 10
-6.660828
 20
-162.938109
 30
0.0
 11
90.339172
 21
-162.938109
 31
0.0
  0
LINE
  5
AE
100
AcDbEntity
  8
0
370
    -3
  6
Continuous
100
AcDbLine
 10
-6.660828
 20
-164.204347
 30
0.0
 11
90.339172
 21
-164.204347
 31
0.0
  0
LINE
  5
AF
100
AcDbEntity
  8
0
370
    -3
  6
Continuous
100
AcDbLine
 10
-6.660828
 20
-168.394901
 30
0.0
 11
90.339172
 21
-168.394901
 31
0.0
  0
LINE
  5
B0
100
AcDbEntity
  8
0
370
    -3
  6
Continuous
100
AcDbLine
 10
-6.660828
 20
-169.756781
 30
0.0
 11
90.339172
 21
-169.756781
 31
0.0
  0
LINE
  5
B1
100
AcDbEntity
  8
0
370
    -3
  6
Continuous
100
AcDbLine
 10
-6.660828
 20
-173.847282
 30
0.0
 11
90.339172
 21
-173.847282
 31
0.0
  0
LINE
  5
B2
100
AcDbEntity
  8
0
370
    -3
  6
Continuous
100
AcDbLine
 10
-6.660828
 20
-175.315639
 30
0.0
 11
90.339172
 21
-175.315639
 31
0.0
  0
LINE
  5
B3
100
AcDbEntity
  8
0
370
    -3
  6
Continuous
100
AcDbLine
 10
-6.660828
 20
-179.279384
 30
0.0
 11
90.339172
 21
-179.279384
 31
0.0
  0
LINE
  5
B4
100
AcDbEntity
  8
0
370
    -3
  6
Continuous
100
AcDbLine
 10
-6.660828
 20
-180.884032
 30
0.0
 11
90.339172
 21
-180.884032
 31
0.0
  0
LINE
  5
B5
100
AcDbEntity
  8
0
370
    -3
  6
Continuous
100
AcDbLine
 10
-6.660828
 20
-128.564847
 30
0.0
 11
90.339172
 21
-128.564847
 31
0.0
  0
LINE
  5
B6
100
AcDbEntity
  8
0
370
    -3
  6
Continuous
100
AcDbLine
 10
-6.660828
 20
-124.191585
 30
0.0
 11
90.339172
 21
-124.191585
 31
0.0
  0
LINE
  5
B7
100
AcDbEntity
  8
0
370
    -3
  6
Continuous
100
AcDbLine
 10
-6.660828
 20
-122.925348
 30
0.0
 11
90.339172
 21
-122.925348
 31
0.0
  0
LINE
  5
B8
100
AcDbEntity
  8
0
370
    -3
  6
Continuous
100
AcDbLine
 10
-6.660828
 20
-118.734794
 30
0.0
 11
90.339172
 21
-118.734794
 31
0.0
  0
LINE
  5
B9
100
AcDbEntity
  8
0
370
    -3
  6
Continuous
100
AcDbLine
 10
-6.660828
 20
-117.372914
 30
0.0
 11
90.339172
 21
-117.372914
 31
0.0
  0
LINE
  5
BA
100
AcDbEntity
  8
0
370
    -3
  6
Continuous
100
AcDbLine
 10
-6.660828
 20
-113.282413
 30
0.0
 11
90.339172
 21
-113.282413
 31
0.0
  0
LINE
  5
BB
100
AcDbEntity
  8
0
370
    -3
  6
Continuous
100
AcDbLine
 10
-6.660828
 20
-111.814056
 30
0.0
 11
90.339172
 21
-111.814056
 31
0.0
  0
LINE
  5
BC
100
AcDbEntity
  8
0
370
    -3
  6
Continuous
100
AcDbLine
 10
-6.660828
 20
-107.85031
 30
0.0
 11
90.339172
 21
-107.85031
 31
0.0
  0
LINE
  5
BD
100
AcDbEntity
  8
0
370
    -3
  6
Continuous
100
AcDbLine
 10
-6.660828
 20
-106.245662
 30
0.0
 11
90.339172
 21
-106.245662
 31
0.0
  0
LINE
  5
BE
100
AcDbEntity
  8
0
370
    -3
  6
Continuous
100
AcDbLine
 10
-6.660828
 20
-98.199061
 30
0.0
 11
90.339172
 21
-98.199061
 31
0.0
  0
LINE
  5
BF
100
AcDbEntity
  8
0
370
    -3
  6
Continuous
100
AcDbLine
 10
-6.660828
 20
-88.564847
 30
0.0
 11
90.339172
 21
-88.564847
 31
0.0
  0
LINE
  5
C0
100
AcDbEntity
  8
0
370
    -3
  6
Continuous
100
AcDbLine
 10
-6.660828
 20
-87.564847
 30
0.0
 11
90.339172
 21
-87.564847
 31
0.0
  0
LINE
  5
C1
100
AcDbEntity
  8
0
370
    -3
  6
Continuous
100
AcDbLine
 10
-6.660828
 20
-86.564847
 30
0.0
 11
90.339172
 21
-86.564847
 31
0.0
  0
LINE
  5
C2
100
AcDbEntity
  8
0
370
    -3
  6
Continuous
100
AcDbLine
 10
-17.660828
 20
-197.304962
 30
0.0
 11
-19.660828
 21
-195.652321
 31
0.0
  0
LINE
  5
C3
100
AcDbEntity
  8
0
370
    -3
  6
Continuous
100
AcDbLine
 10
-15.660828
 20
-198.480748
 30
0.0
 11
-17.660828
 21
-197.304962
 31
0.0
  0
LINE
  5
C4
100
AcDbEntity
  8
0
370
    -3
  6
Continuous
100
AcDbLine
 10
-17.660828
 20
-197.304962
 30
0.0
 11
-15.660828
 21
-195.652321
 31
0.0
  0
LINE
  5
C5
100
AcDbEntity
  8
0
370
    -3
  6
Continuous
100
AcDbLine
 10
-19.660828
 20
-198.480748
 30
0.0
 11
-17.660828
 21
-197.304962
 31
0.0
  0
ELLIPSE
  5
C6
100
AcDbEntity
  8
0
370
    -3
  6
Continuous
100
AcDbEllipse
 10
-17.660828
 20
-195.488372
 30
0.0
 11
4.6999999999999886
 21
0.0
 31
0.0
210
0.0
220
0.0
230
1.0
 40
0.766646
 41
0.0
 42
6.2831853071795862
  0
LINE
  5
C7
100
AcDbEntity
  8
0
370
    -3
  6
Continuous
100
AcDbLine
 10
-17.660828
 20
-89.824732
 30
0.0
 11
-19.660828
 21
-91.477374
 31
0.0
  0
LINE
  5
C8
100
AcDbEntity
  8
0
370
    -3
  6
Continuous
100
AcDbLine
 10
-15.660828
 20
-88.648947
 30
0.0
 11
-17.660828
 21
-89.824732
 31
0.0
  0
LINE
  5
C9
100
AcDbEntity
  8
0
370
    -3
  6
Continuous
100
AcDbLine
 10
75.539172
 20
-84.064847
 30
0.0
 11
90.339172
 21
-84.064847
 31
0.0
  0
ARC
  5
CA
100
AcDbEntity
  8
0
370
    -3
  6
Continuous
100
AcDbCircle
 10
-87.354852
 20
-98.564847
 30
0.0
 40
20.0
100
AcDbArc
 50
90.0
 51
125.0
  0
LINE
  5
CB
100
AcDbEntity
  8
0
370
    -3
  6
Continuous
100
AcDbLine
 10
-17.660828
 20
-89.824732
 30
0.0
 11
-15.660828
 21
-91.477374
 31
0.0
  0
LINE
  5
CC
100
AcDbEntity
  8
0
370
    -3
  6
Continuous
100
AcDbLine
 10
-19.660828
 20
-88.648947
 30
0.0
 11
-17.660828
 21
-89.824732
 31
0.0
  0
ELLIPSE
  5
CD
100
AcDbEntity
  8
0
370
    -3
  6
Continuous
100
AcDbEllipse
 10
-17.660828
 20
-91.641322
 30
0.0
 11
4.6999999999999886
 21
0.0
 31
0.0
210
0.0
220
0.0
230
1.0
 40
0.766646
 41
0.0
 42
6.2831853071795862
  0
LINE
  5
CE
100
AcDbEntity
  8
0
370
    -3
  6
Continuous
100
AcDbLine
 10
-16.660828
 20
-78.564847
 30
0.0
 11
-87.354852
 21
-78.564847
 31
0.0
  0
ARC
  5
CF
100
AcDbEntity
  8
0
370
    -3
  6
Continuous
100
AcDbCircle
 10
-107.060828
 20
-91.121642
 30
0.0
 40
2.6
100
AcDbArc
 50
125.0
 51
180.0
  0
LINE
  5
D0
100
AcDbEntity
  8
0
370
    -3
  6
Continuous
100
AcDbLine
 10
-98.82638
 20
-82.181806
 30
0.0
 11
-108.552126
 21
-88.991847
 31
0.0
  0
LINE
  5
D1
100
AcDbEntity
  8
0
370
    -3
  6
Continuous
100
AcDbLine
 10
-6.660828
 20
-203.064847
 30
0.0
 11
90.339172
 21
-203.064847
 31
0.0
  0
LINE
  5
D2
100
AcDbEntity
  8
0
370
    -3
  6
Continuous
100
AcDbLine
 10
-16.660828
 20
-78.564847
 30
0.0
 11
-16.660828
 21
-78.945626
 31
0.0
  0
LINE
  5
D3
100
AcDbEntity
  8
0
370
    -3
  6
Continuous
100
AcDbLine
 10
-6.660828
 20
-93.249313
 30
0.0
 11
90.339172
 21
-93.249313
 31
0.0
  0
ELLIPSE
  5
D4
100
AcDbEntity
  8
0
370
    -3
  6
Continuous
100
AcDbEllipse
 10
-17.660828
 20
141.536302
 30
0.0
 11
4.6999999999999886
 21
0.0
 31
0.0
210
0.0
220
0.0
230
1.0
 40
0.766646
 41
0.0
 42
6.2831853071795862
  0
LINE
  5
D5
100
AcDbEntity
  8
0
370
    -3
  6
Continuous
100
AcDbLine
 10
-19.660828
 20
138.543927
 30
0.0
 11
-17.660828
 21
139.719712
 31
0.0
  0
LINE
  5
D6
100
AcDbEntity
  8
0
370
    -3
  6
Continuous
100
AcDbLine
 10
-17.660828
 20
139.719712
 30
0.0
 11
-15.660828
 21
141.372354
 31
0.0
  0
LINE
  5
D7
100
AcDbEntity
  8
0
370
    -3
  6
Continuous
100
AcDbLine
 10
-15.660828
 20
138.543927
 30
0.0
 11
-17.660828
 21
139.719712
 31
0.0
  0
LINE
  5
D8
100
AcDbEntity
  8
0
370
    -3
  6
Continuous
100
AcDbLine
 10
-17.660828
 20
139.719712
 30
0.0
 11
-19.660828
 21
141.372354
 31
0.0
  0
LINE
  5
D9
100
AcDbEntity
  8
0
370
    -3
  6
Continuous
100
AcDbLine
 10
-6.660828
 20
133.459827
 30
0.0
 11
-87.354852
 21
133.459827
 31
0.0
  0
LINE
  5
DA
100
AcDbEntity
  8
0
370
    -3
  6
Continuous
100
AcDbLine
 10
-109.660828
 20
193.459827
 30
0.0
 11
-109.660828
 21
146.016622
 31
0.0
  0
ARC
  5
DB
100
AcDbEntity
  8
0
370
    -3
  6
Continuous
100
AcDbCircle
 10
-87.354852
 20
153.459827
 30
0.0
 40
20.0
100
AcDbArc
 50
235.0
 51
270.0
  0
LINE
  5
DC
100
AcDbEntity
  8
0
370
    -3
  6
Continuous
100
AcDbLine
 10
-98.82638
 20
137.076786
 30
0.0
 11
-108.552126
 21
143.886827
 31
0.0
  0
ARC
  5
DD
100
AcDbEntity
  8
0
370
    -3
  6
Continuous
100
AcDbCircle
 10
-107.060828
 20
146.016622
 30
0.0
 40
2.6
100
AcDbArc
 50
180.0
 51
235.0
  0
LINE
  5
DE
100
AcDbEntity
  8
0
370
    -3
  6
Continuous
100
AcDbLine
 10
-6.660828
 20
152.459827
 30
0.0
 11
-6.660828
 21
133.459827
 31
0.0
  0
ARC
  5
DF
100
AcDbEntity
  8
0
370
    -3
  6
Continuous
100
AcDbCircle
 10
-13.660828
 20
158.459827
 30
0.0
 40
3.0
100
AcDbArc
 50
180.0
 51
270.0
  0
LINE
  5
E0
100
AcDbEntity
  8
0
370
    -3
  6
Continuous
100
AcDbLine
 10
-9.660828
 20
155.459827
 30
0.0
 11
-13.660828
 21
155.459827
 31
0.0
  0
ARC
  5
E1
100
AcDbEntity
  8
0
370
    -3
  6
Continuous
100
AcDbCircle
 10
-9.660828
 20
152.459827
 30
0.0
 40
3.0
100
AcDbArc
 50
0.0
 51
90.0
  0
LINE
  5
E2
100
AcDbEntity
  8
0
370
    -3
  6
Continuous
100
AcDbLine
 10
-16.660828
 20
158.459827
 30
0.0
 11
-16.660828
 21
193.459827
 31
0.0
  0
LINE
  5
E3
100
AcDbEntity
  8
0
370
    -3
  6
Continuous
100
AcDbLine
 10
-6.660828
 20
143.144293
 30
0.0
 11
90.339172
 21
143.144293
 31
0.0
  0
LINE
  5
E4
100
AcDbEntity
  8
0
370
    -3
  6
Continuous
100
AcDbLine
 10
-6.660828
 20
148.094041
 30
0.0
 11
90.339172
 21
148.094041
 31
0.0
  0
LINE
  5
E5
100
AcDbEntity
  8
0
370
    -3
  6
Continuous
100
AcDbLine
 10
-15.56382
 20
156.140642
 30
0.0
 11
90.339172
 21
156.140642
 31
0.0
  0
LINE
  5
E6
100
AcDbEntity
  8
0
370
    -3
  6
Continuous
100
AcDbLine
 10
-16.574491
 20
157.74529
 30
0.0
 11
-14.160425
 21
157.74529
 31
0.0
  0
LINE
  5
E7
100
AcDbEntity
  8
0
370
    -3
  6
Continuous
100
AcDbLine
 10
75.539172
 20
161.709036
 30
0.0
 11
90.339172
 21
161.709036
 31
0.0
  0
LINE
  5
E8
100
AcDbEntity
  8
0
370
    -3
  6
Continuous
100
AcDbLine
 10
-16.660828
 20
163.177393
 30
0.0
 11
-14.460828
 21
163.177393
 31
0.0
  0
LINE
  5
E9
100
AcDbEntity
  8
0
370
    -3
  6
Continuous
100
AcDbLine
 10
-16.660828
 20
167.267893
 30
0.0
 11
-14.460828
 21
167.267893
 31
0.0
  0
LINE
  5
EA
100
AcDbEntity
  8
0
370
    -3
  6
Continuous
100
AcDbLine
 10
-16.660828
 20
168.629774
 30
0.0
 11
-14.460828
 21
168.629774
 31
0.0
  0
LINE
  5
EB
100
AcDbEntity
  8
0
370
    -3
  6
Continuous
100
AcDbLine
 10
-16.660828
 20
173.459827
 30
0.0
 11
-14.460828
 21
173.459827
 31
0.0
  0
LINE
  5
EC
100
AcDbEntity
  8
0
370
    -3
  6
Continuous
100
AcDbLine
 10
75.539172
 20
223.742262
 30
0.0
 11
90.339172
 21
223.742262
 31
0.0
  0
LINE
  5
ED
100
AcDbEntity
  8
0
370
    -3
  6
Continuous
100
AcDbLine
 10
75.539172
 20
168.629774
 30
0.0
 11
90.339172
 21
168.629774
 31
0.0
  0
LINE
  5
EE
100
AcDbEntity
  8
0
370
    -3
  6
Continuous
100
AcDbLine
 10
-16.660828
 20
223.742262
 30
0.0
 11
-14.460828
 21
223.742262
 31
0.0
  0
LINE
  5
EF
100
AcDbEntity
  8
0
370
    -3
  6
Continuous
100
AcDbLine
 10
75.539172
 20
163.177393
 30
0.0
 11
90.339172
 21
163.177393
 31
0.0
  0
LINE
  5
F0
100
AcDbEntity
  8
0
370
    -3
  6
Continuous
100
AcDbLine
 10
75.539172
 20
218.289881
 30
0.0
 11
90.339172
 21
218.289881
 31
0.0
  0
LINE
  5
F1
100
AcDbEntity
  8
0
370
    -3
  6
Continuous
100
AcDbLine
 10
75.539172
 20
173.459827
 30
0.0
 11
90.339172
 21
173.459827
 31
0.0
  0
LINE
  5
F2
100
AcDbEntity
  8
0
370
    -3
  6
Continuous
100
AcDbLine
 10
-16.660828
 20
218.289881
 30
0.0
 11
-14.460828
 21
218.289881
 31
0.0
  0
LINE
  5
F3
100
AcDbEntity
  8
0
370
    -3
  6
Continuous
100
AcDbLine
 10
75.539172
 20
167.267893
 30
0.0
 11
90.339172
 21
167.267893
 31
0.0
  0
LINE
  5
F4
100
AcDbEntity
  8
0
370
    -3
  6
Continuous
100
AcDbLine
 10
75.539172
 20
219.651761
 30
0.0
 11
90.339172
 21
219.651761
 31
0.0
  0
LINE
  5
F5
100
AcDbEntity
  8
0
370
    -3
  6
Continuous
100
AcDbLine
 10
-16.660828
 20
219.651761
 30
0.0
 11
-14.460828
 21
219.651761
 31
0.0
  0
LINE
  5
F6
100
AcDbEntity
  8
0
370
    -3
  6
Continuous
100
AcDbLine
 10
75.539172
 20
213.459827
 30
0.0
 11
90.339172
 21
213.459827
 31
0.0
  0
LINE
  5
F7
100
AcDbEntity
  8
0
370
    -3
  6
Continuous
100
AcDbLine
 10
-16.660828
 20
213.459827
 30
0.0
 11
-14.460828
 21
213.459827
 31
0.0
  0
LINE
  5
F8
100
AcDbEntity
  8
0
370
    -3
  6
Continuous
100
AcDbLine
 10
-6.660828
 20
250.459827
 30
0.0
 11
90.339172
 21
250.459827
 31
0.0
  0
LINE
  5
F9
100
AcDbEntity
  8
0
370
    -3
  6
Continuous
100
AcDbLine
 10
-6.660828
 20
250.959827
 30
0.0
 11
90.339172
 21
250.959827
 31
0.0
  0
LINE
  5
FA
100
AcDbEntity
  8
0
370
    -3
  6
Continuous
100
AcDbLine
 10
-6.660828
 20
249.459827
 30
0.0
 11
90.339172
 21
249.459827
 31
0.0
  0
LINE
  5
FB
100
AcDbEntity
  8
0
370
    -3
  6
Continuous
100
AcDbLine
 10
-6.660828
 20
248.459827
 30
0.0
 11
90.339172
 21
248.459827
 31
0.0
  0
LINE
  5
FC
100
AcDbEntity
  8
0
370
    -3
  6
Continuous
100
AcDbLine
 10
-6.660828
 20
243.775361
 30
0.0
 11
90.339172
 21
243.775361
 31
0.0
  0
LINE
  5
FD
100
AcDbEntity
  8
0
370
    -3
  6
Continuous
100
AcDbLine
 10
-6.660828
 20
238.825614
 30
0.0
 11
90.339172
 21
238.825614
 31
0.0
  0
LINE
  5
FE
100
AcDbEntity
  8
0
370
    -3
  6
Continuous
100
AcDbLine
 10
-15.56382
 20
230.779012
 30
0.0
 11
90.339172
 21
230.779012
 31
0.0
  0
LINE
  5
FF
100
AcDbEntity
  8
0
370
    -3
  6
Continuous
100
AcDbLine
 10
-16.574491
 20
229.174364
 30
0.0
 11
-14.160425
 21
229.174364
 31
0.0
  0
LINE
  5
100
100
AcDbEntity
  8
0
370
    -3
  6
Continuous
100
AcDbLine
 10
-16.660828
 20
225.210619
 30
0.0
 11
-14.460828
 21
225.210619
 31
0.0
  0
LINE
  5
101
100
AcDbEntity
  8
0
370
    -3
  6
Continuous
100
AcDbLine
 10
-6.660828
 20
234.459827
 30
0.0
 11
-6.660828
 21
253.459827
 31
0.0
  0
ARC
  5
102
100
AcDbEntity
  8
0
370
    -3
  6
Continuous
100
AcDbCircle
 10
-13.660828
 20
228.459827
 30
0.0
 40
3.0
100
AcDbArc
 50
90.0
 51
180.0
  0
LINE
  5
103
100
AcDbEntity
  8
0
370
    -3
  6
Continuous
100
AcDbLine
 10
-9.660828
 20
231.459827
 30
0.0
 11
-13.660828
 21
231.459827
 31
0.0
  0
ARC
  5
104
100
AcDbEntity
  8
0
370
    -3
  6
Continuous
100
AcDbCircle
 10
-9.660828
 20
234.459827
 30
0.0
 40
3.0
100
AcDbArc
 50
270.0
 51
0.0
  0
LINE
  5
105
100
AcDbEntity
  8
0
370
    -3
  6
Continuous
100
AcDbLine
 10
-16.660828
 20
228.459827
 30
0.0
 11
-16.660828
 21
193.459827
 31
0.0
  0
LINE
  5
106
100
AcDbEntity
  8
0
370
    -3
  6
Continuous
100
AcDbLine
 10
90.339172
 20
251.959827
 30
0.0
 11
-6.660828
 21
251.959827
 31
0.0
  0
LINE
  5
107
100
AcDbEntity
  8
0
370
    -3
  6
Continuous
100
AcDbLine
 10
-6.660828
 20
253.459827
 30
0.0
 11
-87.354852
 21
253.459827
 31
0.0
  0
LINE
  5
108
100
AcDbEntity
  8
0
370
    -3
  6
Continuous
100
AcDbLine
 10
-109.660828
 20
193.459827
 30
0.0
 11
-109.660828
 21
240.903032
 31
0.0
  0
ARC
  5
109
100
AcDbEntity
  8
0
370
    -3
  6
Continuous
100
AcDbCircle
 10
-87.354852
 20
233.459827
 30
0.0
 40
20.0
100
AcDbArc
 50
90.0
 51
125.0
  0
LINE
  5
10A
100
AcDbEntity
  8
0
370
    -3
  6
Continuous
100
AcDbLine
 10
-98.82638
 20
249.842868
 30
0.0
 11
-108.552126
 21
243.032828
 31
0.0
  0
ARC
  5
10B
100
AcDbEntity
  8
0
370
    -3
  6
Continuous
100
AcDbCircle
 10
-107.060828
 20
240.903032
 30
0.0
 40
2.6
100
AcDbArc
 50
125.0
 51
180.0
  0
LINE
  5
10C
100
AcDbEntity
  8
0
370
    -3
  6
Continuous
100
AcDbLine
 10
-6.660828
 20
135.959827
 30
0.0
 11
90.339172
 21
135.959827
 31
0.0
  0
LINE
  5
10D
100
AcDbEntity
  8
0
370
    -3
  6
Continuous
100
AcDbLine
 10
-6.660828
 20
136.459827
 30
0.0
 11
90.339172
 21
136.459827
 31
0.0
  0
LINE
  5
10E
100
AcDbEntity
  8
0
370
    -3
  6
Continuous
100
AcDbLine
 10
-6.660828
 20
137.459827
 30
0.0
 11
90.339172
 21
137.459827
 31
0.0
  0
LINE
  5
10F
100
AcDbEntity
  8
0
370
    -3
  6
Continuous
100
AcDbLine
 10
-6.660828
 20
138.459827
 30
0.0
 11
90.339172
 21
138.459827
 31
0.0
  0
ELLIPSE
  5
110
100
AcDbEntity
  8
0
370
    -3
  6
Continuous
100
AcDbEllipse
 10
-17.660828
 20
245.383352
 30
0.0
 11
4.6999999999999886
 21
0.0
 31
0.0
210
0.0
220
0.0
230
1.0
 40
0.766646
 41
0.0
 42
6.2831853071795862
  0
LINE
  5
111
100
AcDbEntity
  8
0
370
    -3
  6
Continuous
100
AcDbLine
 10
-19.660828
 20
248.375728
 30
0.0
 11
-17.660828
 21
247.199942
 31
0.0
  0
LINE
  5
112
100
AcDbEntity
  8
0
370
    -3
  6
Continuous
100
AcDbLine
 10
-17.660828
 20
247.199942
 30
0.0
 11
-15.660828
 21
245.547301
 31
0.0
  0
LINE
  5
113
100
AcDbEntity
  8
0
370
    -3
  6
Continuous
100
AcDbLine
 10
-15.660828
 20
248.375728
 30
0.0
 11
-17.660828
 21
247.199942
 31
0.0
  0
LINE
  5
114
100
AcDbEntity
  8
0
370
    -3
  6
Continuous
100
AcDbLine
 10
-17.660828
 20
247.199942
 30
0.0
 11
-19.660828
 21
245.547301
 31
0.0
  0
LINE
  5
115
100
AcDbEntity
  8
0
370
    -3
  6
Continuous
100
AcDbLine
 10
90.339172
 20
134.959827
 30
0.0
 11
-6.660828
 21
134.959827
 31
0.0
  0
ARC
  5
116
100
AcDbEntity
  8
0
370
    -3
  6
Continuous
100
AcDbCircle
 10
74.539172
 20
158.459827
 30
0.0
 40
1.0
100
AcDbArc
 50
270.0
 51
0.0
  0
ARC
  5
117
100
AcDbEntity
  8
0
370
    -3
  6
Continuous
100
AcDbCircle
 10
74.539172
 20
228.459827
 30
0.0
 40
1.0
100
AcDbArc
 50
0.0
 51
90.0
  0
LINE
  5
118
100
AcDbEntity
  8
0
370
    -3
  6
Continuous
100
AcDbLine
 10
75.539172
 20
228.459827
 30
0.0
 11
75.539172
 21
158.459827
 31
0.0
  0
ARC
  5
119
100
AcDbEntity
  8
0
370
    -3
  6
Continuous
100
AcDbCircle
 10
-13.460828
 20
228.459827
 30
0.0
 40
1.0
100
AcDbArc
 50
90.0
 51
180.0
  0
ARC
  5
11A
100
AcDbEntity
  8
0
370
    -3
  6
Continuous
100
AcDbCircle
 10
-13.460828
 20
158.459827
 30
0.0
 40
1.0
100
AcDbArc
 50
180.0
 51
270.0
  0
LINE
  5
11B
100
AcDbEntity
  8
0
370
    -3
  6
Continuous
100
AcDbLine
 10
-14.460828
 20
228.459827
 30
0.0
 11
-14.460828
 21
158.459827
 31
0.0
  0
LINE
  5
11C
100
AcDbEntity
  8
0
370
    -3
  6
Continuous
100
AcDbLine
 10
74.539172
 20
229.459827
 30
0.0
 11
-13.460828
 21
229.459827
 31
0.0
  0
LINE
  5
11D
100
AcDbEntity
  8
0
370
    -3
  6
Continuous
100
AcDbLine
 10
74.539172
 20
157.459827
 30
0.0
 11
-13.460828
 21
157.459827
 31
0.0
  0
LINE
  5
11E
100
AcDbEntity
  8
0
370
    -3
  6
Continuous
100
AcDbLine
 10
75.539172
 20
225.210619
 30
0.0
 11
90.339172
 21
225.210619
 31
0.0
  0
LINE
  5
11F
100
AcDbEntity
  8
0
370
    -3
  6
Continuous
100
AcDbLine
 10
75.23877
 20
229.174364
 30
0.0
 11
90.339172
 21
229.174364
 31
0.0
  0
LINE
  5
120
100
AcDbEntity
  8
0
370
    -3
  6
Continuous
100
AcDbLine
 10
75.23877
 20
157.74529
 30
0.0
 11
90.339172
 21
157.74529
 31
0.0
  0
INSERT
  5
130
100
AcDbEntity
  8
0
100
AcDbBlockReference
  2
ZU_SYM__USERS_HOME_SYMBOL_STD_SYM_B01_00003-1
 10
152.19893
 20
145.023012
 30
0.0
 50
360.0
  0
INSERT
  5
140
100
AcDbEntity
  8
0
100
AcDbBlockReference
  2
ZU_SYM__USERS_HOME_SYMBOL_STD_SYM_B01_00004-1
 10
152.19893
 20
241.896641
 30
0.0
 41
-1.0
 50
180.0
  0
MTEXT
  5
142
100
AcDbEntity
  8
0
370
    -3
  6
Continuous
100
AcDbMText
 10
839.623779
 20
-213.565536
 30
0.0
 40
6.6
 41
0.0
 71
     7
 72
     1
  1
\W0.82;GM-SHYFB-RR
  7
ZU_SHPTB00001
 11
1.0
 21
0.0
 31
0.0
 73
     1
 44
1.0
  0
MTEXT
  5
143
100
AcDbEntity
  8
0
370
    -3
  6
Continuous
100
AcDbMText
 10
839.623779
 20
-224.565536
 30
0.0
 40
6.6
 41
0.0
 71
     7
 72
     1
  1
\W0.82;0.4kW
  7
ZU_SHPTB00001
 11
1.0
 21
0.0
 31
0.0
 73
     1
 44
1.0
  0
MTEXT
  5
144
100
AcDbEntity
  8
0
370
    -3
  6
Continuous
100
AcDbMText
 10
839.623779
 20
-235.565536
 30
0.0
 40
6.6
 41
0.0
 71
     7
 72
     1
  1
\W0.82;1/300-1/480
  7
ZU_SHPTB00001
 11
1.0
 21
0.0
 31
0.0
 73
     1
 44
1.0
  0
MTEXT
  5
145
100
AcDbEntity
  8
0
370
    -3
  6
Continuous
100
AcDbMText
 10
839.623779
 20
-246.565536
 30
0.0
 40
6.6
 41
0.0
 71
     7
 72
     1
  1
\W0.82;SCALE\W1.36; \W0.82;1/1
  7
ZU_SHPTB00001
 11
1.0
 21
0.0
 31
0.0
 73
     1
 44
1.0
  0
LINE
  5
146
100
AcDbEntity
  8
0
370
    -3
  6
CENTER
100
AcDbLine
 10
-291.755619
 20
-143.564847
 30
0.0
 11
-355.333556
 21
-143.564847
 31
0.0
  0
LINE
  5
147
100
AcDbEntity
  8
0
370
    -3
  6
CENTER
100
AcDbLine
 10
-179.623288
 20
-130.064847
 30
0.0
 11
-414.791368
 21
-130.064847
 31
0.0
  0
LINE
  5
148
100
AcDbEntity
  8
0
370
    -3
  6
Continuous
100
AcDbLine
 10
-403.660828
 20
-72.964847
 30
0.0
 11
-403.660828
 21
-130.064847
 31
0.0
  0
LINE
  5
149
100
AcDbEntity
  8
0
370
    -3
  6
Continuous
100
AcDbLine
 10
-398.660828
 20
-46.064847
 30
0.0
 11
-398.660828
 21
-150.064846
 31
0.0
  0
LINE
  5
14A
100
AcDbEntity
  8
0
370
    -3
  6
Continuous
100
AcDbLine
 10
-403.660828
 20
-187.164847
 30
0.0
 11
-403.260828
 21
-187.564847
 31
0.0
  0
LINE
  5
14B
100
AcDbEntity
  8
0
370
    -3
  6
Continuous
100
AcDbLine
 10
-400.160828
 20
-187.564847
 30
0.0
 11
-403.260828
 21
-187.564847
 31
0.0
  0
LINE
  5
14C
100
AcDbEntity
  8
0
370
    -3
  6
Continuous
100
AcDbLine
 10
-403.660828
 20
-187.164847
 30
0.0
 11
-403.660828
 21
-130.064847
 31
0.0
  0
LINE
  5
14D
100
AcDbEntity
  8
0
370
    -3
  6
Continuous
100
AcDbLine
 10
-258.660828
 20
-130.064847
 30
0.0
 11
-258.660828
 21
-44.524909
 31
0.0
  0
LINE
  5
14E
100
AcDbEntity
  8
0
370
    -3
  6
Continuous
100
AcDbLine
 10
-270.660828
 20
-106.896147
 30
0.0
 11
-270.660828
 21
-43.064847
 31
0.0
  0
LINE
  5
14F
100
AcDbEntity
  8
0
370
    -3
  6
Continuous
100
AcDbLine
 10
-258.660828
 20
-130.064847
 30
0.0
 11
-258.660828
 21
-150.064847
 31
0.0
  0
LINE
  5
150
100
AcDbEntity
  8
0
370
    -3
  6
Continuous
100
AcDbLine
 10
-270.660828
 20
-220.021348
 30
0.0
 11
-270.660828
 21
-254.064847
 31
0.0
  0
LINE
  5
151
100
AcDbEntity
  8
0
370
    -3
  6
Continuous
100
AcDbLine
 10
-257.160828
 20
-187.564847
 30
0.0
 11
-254.060828
 21
-187.564847
 31
0.0
  0
LINE
  5
152
100
AcDbEntity
  8
0
370
    -3
  6
Continuous
100
AcDbLine
 10
-253.660828
 20
-187.164847
 30
0.0
 11
-254.060828
 21
-187.564847
 31
0.0
  0
LINE
  5
153
100
AcDbEntity
  8
0
370
    -3
  6
Continuous
100
AcDbLine
 10
-253.660828
 20
-187.164847
 30
0.0
 11
-253.660828
 21
-130.064847
 31
0.0
  0
LINE
  5
154
100
AcDbEntity
  8
0
370
    -3
  6
Continuous
100
AcDbLine
 10
-253.660828
 20
-72.964847
 30
0.0
 11
-253.660828
 21
-130.064847
 31
0.0
  0
LINE
  5
155
100
AcDbEntity
  8
0
370
    -3
  6
Continuous
100
AcDbLine
 10
-241.660828
 20
-107.064847
 30
0.0
 11
-186.660828
 21
-107.064847
 31
0.0
  0
LINE
  5
156
100
AcDbEntity
  8
0
370
    -3
  6
Continuous
100
AcDbLine
 10
-251.660828
 20
-110.064847
 30
0.0
 11
-186.660828
 21
-110.064847
 31
0.0
  0
LINE
  5
157
100
AcDbEntity
  8
0
370
    -3
  6
Continuous
100
AcDbLine
 10
-251.660828
 20
-150.064847
 30
0.0
 11
-186.660828
 21
-150.064847
 31
0.0
  0
LINE
  5
158
100
AcDbEntity
  8
0
370
    -3
  6
Continuous
100
AcDbLine
 10
-241.660828
 20
-110.064847
 30
0.0
 11
-241.660828
 21
-107.064847
 31
0.0
  0
LINE
  5
159
100
AcDbEntity
  8
0
370
    -3
  6
Continuous
100
AcDbLine
 10
-251.660828
 20
-109.064847
 30
0.0
 11
-251.660828
 21
-151.064847
 31
0.0
  0
LINE
  5
15A
100
AcDbEntity
  8
0
370
    -3
  6
Continuous
100
AcDbLine
 10
-253.660828
 20
-109.064847
 30
0.0
 11
-251.660828
 21
-109.064847
 31
0.0
  0
LINE
  5
15B
100
AcDbEntity
  8
0
370
    -3
  6
Continuous
100
AcDbLine
 10
-253.660828
 20
-151.064847
 30
0.0
 11
-251.660828
 21
-151.064847
 31
0.0
  0
LINE
  5
15C
100
AcDbEntity
  8
0
370
    -3
  6
CENTER
100
AcDbLine
 10
-328.660828
 20
-29.417751
 30
0.0
 11
-328.660828
 21
-261.583247
 31
0.0
  0
LINE
  5
15D
100
AcDbEntity
  8
0
370
    -3
  6
Continuous
100
AcDbLine
 10
-398.660828
 20
-46.064847
 30
0.0
 11
-398.160828
 21
-45.564847
 31
0.0
  0
LINE
  5
15E
100
AcDbEntity
  8
0
370
    -3
  6
Continuous
100
AcDbLine
 10
-398.660828
 20
-72.564847
 30
0.0
 11
-403.260828
 21
-72.564847
 31
0.0
  0
LINE
  5
15F
100
AcDbEntity
  8
0
370
    -3
  6
Continuous
100
AcDbLine
 10
-403.660828
 20
-72.964847
 30
0.0
 11
-403.260828
 21
-72.564847
 31
0.0
  0
LINE
  5
160
100
AcDbEntity
  8
0
370
    -3
  6
Continuous
100
AcDbLine
 10
-398.660828
 20
-198.064846
 30
0.0
 11
-398.660828
 21
-251.064847
 31
0.0
  0
LINE
  5
161
100
AcDbEntity
  8
0
370
    -3
  6
Continuous
100
AcDbLine
 10
-398.660828
 20
-251.064847
 30
0.0
 11
-398.160828
 21
-251.564847
 31
0.0
  0
LINE
  5
162
100
AcDbEntity
  8
0
370
    -3
  6
Continuous
100
AcDbLine
 10
-398.160828
 20
-251.564847
 30
0.0
 11
-389.660828
 21
-251.564847
 31
0.0
  0
LINE
  5
163
100
AcDbEntity
  8
0
370
    -3
  6
Continuous
100
AcDbLine
 10
-259.157882
 20
-43.988151
 30
0.0
 11
-258.660828
 21
-44.524909
 31
0.0
  0
LINE
  5
164
100
AcDbEntity
  8
0
370
    -3
  6
Continuous
100
AcDbLine
 10
-258.660828
 20
-252.604786
 30
0.0
 11
-259.157882
 21
-253.141544
 31
0.0
  0
LINE
  5
165
100
AcDbEntity
  8
0
370
    -3
  6
Continuous
100
AcDbLine
 10
-270.660828
 20
-254.026386
 30
0.0
 11
-259.157882
 21
-253.141544
 31
0.0
  0
LINE
  5
166
100
AcDbEntity
  8
0
370
    -3
  6
Continuous
100
AcDbLine
 10
-389.660828
 20
-251.564847
 30
0.0
 11
-270.660828
 21
-254.064847
 31
0.0
  0
LINE
  5
167
100
AcDbEntity
  8
0
370
    -3
  6
Continuous
100
AcDbLine
 10
-258.660828
 20
-252.604786
 30
0.0
 11
-259.157882
 21
-253.141544
 31
0.0
  0
LINE
  5
168
100
AcDbEntity
  8
0
370
    -3
  6
Continuous
100
AcDbLine
 10
-259.157882
 20
-43.988151
 30
0.0
 11
-258.660828
 21
-44.524909
 31
0.0
  0
LINE
  5
169
100
AcDbEntity
  8
0
370
    -3
  6
Continuous
100
AcDbLine
 10
-258.660828
 20
-72.564847
 30
0.0
 11
-254.060828
 21
-72.564847
 31
0.0
  0
LINE
  5
16A
100
AcDbEntity
  8
0
370
    -3
  6
Continuous
100
AcDbLine
 10
-253.660828
 20
-72.964847
 30
0.0
 11
-254.060828
 21
-72.564847
 31
0.0
  0
LINE
  5
16B
100
AcDbEntity
  8
0
370
    -3
  6
Continuous
100
AcDbLine
 10
-186.660828
 20
-150.064847
 30
0.0
 11
-186.660828
 21
-107.064847
 31
0.0
  0
LINE
  5
16C
100
AcDbEntity
  8
0
370
    -3
  6
Continuous
100
AcDbLine
 10
367.838708
 20
51.459827
 30
0.0
 11
327.838708
 21
51.459827
 31
0.0
  0
LINE
  5
16D
100
AcDbEntity
  8
0
370
    -3
  6
Continuous
100
AcDbLine
 10
199.829024
 20
123.459827
 30
0.0
 11
196.838808
 21
135.459827
 31
0.0
  0
LINE
  5
16E
100
AcDbEntity
  8
0
370
    -3
  6
Continuous
100
AcDbLine
 10
199.829024
 20
263.459827
 30
0.0
 11
199.319432
 21
262.960015
 31
0.0
  0
LINE
  5
16F
100
AcDbEntity
  8
0
370
    -3
  6
Continuous
100
AcDbLine
 10
405.338708
 20
118.859827
 30
0.0
 11
405.338708
 21
120.959827
 31
0.0
  0
LINE
  5
170
100
AcDbEntity
  8
0
370
    -3
  6
Continuous
100
AcDbLine
 10
405.188708
 20
120.959827
 30
0.0
 11
405.188708
 21
122.459827
 31
0.0
  0
LINE
  5
171
100
AcDbEntity
  8
0
370
    -3
  6
Continuous
100
AcDbLine
 10
405.188708
 20
122.459827
 30
0.0
 11
405.338708
 21
122.459827
 31
0.0
  0
LINE
  5
172
100
AcDbEntity
  8
0
370
    -3
  6
Continuous
100
AcDbLine
 10
405.188708
 20
120.959827
 30
0.0
 11
405.338708
 21
120.959827
 31
0.0
  0
LINE
  5
173
100
AcDbEntity
  8
0
370
    -3
  6
Continuous
100
AcDbLine
 10
405.338708
 20
122.459827
 30
0.0
 11
405.338708
 21
123.459827
 31
0.0
  0
LINE
  5
174
100
AcDbEntity
  8
0
370
    -3
  6
Continuous
100
AcDbLine
 10
405.338708
 20
118.859827
 30
0.0
 11
404.938708
 21
118.459827
 31
0.0
  0
LINE
  5
175
100
AcDbEntity
  8
0
370
    -3
  6
Continuous
100
AcDbLine
 10
405.338708
 20
123.459827
 30
0.0
 11
431.848492
 21
123.459827
 31
0.0
  0
LINE
  5
176
100
AcDbEntity
  8
0
370
    -3
  6
Continuous
100
AcDbLine
 10
368.838708
 20
118.459827
 30
0.0
 11
326.838708
 21
118.459827
 31
0.0
  0
LINE
  5
177
100
AcDbEntity
  8
0
370
    -3
  6
Continuous
100
AcDbLine
 10
290.338708
 20
118.859827
 30
0.0
 11
290.738708
 21
118.459827
 31
0.0
  0
LINE
  5
178
100
AcDbEntity
  8
0
370
    -3
  6
Continuous
100
AcDbLine
 10
290.338708
 20
118.859827
 30
0.0
 11
290.338708
 21
120.959827
 31
0.0
  0
LINE
  5
179
100
AcDbEntity
  8
0
370
    -3
  6
Continuous
100
AcDbLine
 10
290.488708
 20
120.959827
 30
0.0
 11
290.488708
 21
122.459827
 31
0.0
  0
LINE
  5
17A
100
AcDbEntity
  8
0
370
    -3
  6
Continuous
100
AcDbLine
 10
290.488708
 20
122.459827
 30
0.0
 11
290.338708
 21
122.459827
 31
0.0
  0
LINE
  5
17B
100
AcDbEntity
  8
0
370
    -3
  6
Continuous
100
AcDbLine
 10
290.488708
 20
120.959827
 30
0.0
 11
290.338708
 21
120.959827
 31
0.0
  0
LINE
  5
17C
100
AcDbEntity
  8
0
370
    -3
  6
Continuous
100
AcDbLine
 10
290.338708
 20
122.459827
 30
0.0
 11
290.338708
 21
123.459827
 31
0.0
  0
LINE
  5
17D
100
AcDbEntity
  8
0
370
    -3
  6
Continuous
100
AcDbLine
 10
290.738708
 20
118.459827
 30
0.0
 11
404.938708
 21
118.459827
 31
0.0
  0
LINE
  5
17E
100
AcDbEntity
  8
0
370
    -3
  6
Continuous
100
AcDbLine
 10
199.829024
 20
123.459827
 30
0.0
 11
415.501286
 21
123.459827
 31
0.0
  0
LINE
  5
17F
100
AcDbEntity
  8
0
370
    -3
  6
Continuous
100
AcDbLine
 10
405.338708
 20
118.859827
 30
0.0
 11
405.338708
 21
120.959827
 31
0.0
  0
LINE
  5
180
100
AcDbEntity
  8
0
370
    -3
  6
Continuous
100
AcDbLine
 10
405.188708
 20
120.959827
 30
0.0
 11
405.188708
 21
122.459827
 31
0.0
  0
LINE
  5
181
100
AcDbEntity
  8
0
370
    -3
  6
Continuous
100
AcDbLine
 10
405.188708
 20
122.459827
 30
0.0
 11
405.338708
 21
122.459827
 31
0.0
  0
LINE
  5
182
100
AcDbEntity
  8
0
370
    -3
  6
Continuous
100
AcDbLine
 10
405.188708
 20
120.959827
 30
0.0
 11
405.338708
 21
120.959827
 31
0.0
  0
LINE
  5
183
100
AcDbEntity
  8
0
370
    -3
  6
Continuous
100
AcDbLine
 10
405.338708
 20
122.459827
 30
0.0
 11
405.338708
 21
123.459827
 31
0.0
  0
LINE
  5
184
100
AcDbEntity
  8
0
370
    -3
  6
Continuous
100
AcDbLine
 10
405.338708
 20
118.859827
 30
0.0
 11
404.938708
 21
118.459827
 31
0.0
  0
LINE
  5
185
100
AcDbEntity
  8
0
370
    -3
  6
Continuous
100
AcDbLine
 10
405.338708
 20
123.459827
 30
0.0
 11
431.848492
 21
123.459827
 31
0.0
  0
LINE
  5
186
100
AcDbEntity
  8
0
370
    -3
  6
Continuous
100
AcDbLine
 10
290.738708
 20
118.459827
 30
0.0
 11
404.938708
 21
118.459827
 31
0.0
  0
LINE
  5
187
100
AcDbEntity
  8
0
370
    -3
  6
Continuous
100
AcDbLine
 10
290.338708
 20
118.859827
 30
0.0
 11
290.738708
 21
118.459827
 31
0.0
  0
LINE
  5
188
100
AcDbEntity
  8
0
370
    -3
  6
Continuous
100
AcDbLine
 10
290.338708
 20
118.859827
 30
0.0
 11
290.338708
 21
120.959827
 31
0.0
  0
LINE
  5
189
100
AcDbEntity
  8
0
370
    -3
  6
Continuous
100
AcDbLine
 10
290.488708
 20
120.959827
 30
0.0
 11
290.488708
 21
122.459827
 31
0.0
  0
LINE
  5
18A
100
AcDbEntity
  8
0
370
    -3
  6
Continuous
100
AcDbLine
 10
290.488708
 20
122.459827
 30
0.0
 11
290.338708
 21
122.459827
 31
0.0
  0
LINE
  5
18B
100
AcDbEntity
  8
0
370
    -3
  6
Continuous
100
AcDbLine
 10
290.488708
 20
120.959827
 30
0.0
 11
290.338708
 21
120.959827
 31
0.0
  0
LINE
  5
18C
100
AcDbEntity
  8
0
370
    -3
  6
Continuous
100
AcDbLine
 10
290.338708
 20
122.459827
 30
0.0
 11
290.338708
 21
123.459827
 31
0.0
  0
LINE
  5
18D
100
AcDbEntity
  8
0
370
    -3
  6
Continuous
100
AcDbLine
 10
405.338708
 20
268.059827
 30
0.0
 11
405.338708
 21
265.959827
 31
0.0
  0
LINE
  5
18E
100
AcDbEntity
  8
0
370
    -3
  6
Continuous
100
AcDbLine
 10
431.848492
 20
123.459827
 30
0.0
 11
434.838708
 21
135.459827
 31
0.0
  0
LINE
  5
18F
100
AcDbEntity
  8
0
370
    -3
  6
Continuous
100
AcDbLine
 10
405.188708
 20
265.959827
 30
0.0
 11
405.188708
 21
264.459827
 31
0.0
  0
LINE
  5
190
100
AcDbEntity
  8
0
370
    -3
  6
Continuous
100
AcDbLine
 10
405.188708
 20
264.459827
 30
0.0
 11
405.338708
 21
264.459827
 31
0.0
  0
LINE
  5
191
100
AcDbEntity
  8
0
370
    -3
  6
Continuous
100
AcDbLine
 10
196.839172
 20
135.459827
 30
0.0
 11
199.339172
 21
262.979376
 31
0.0
  0
LINE
  5
192
100
AcDbEntity
  8
0
370
    -3
  6
Continuous
100
AcDbLine
 10
405.188708
 20
265.959827
 30
0.0
 11
405.338708
 21
265.959827
 31
0.0
  0
LINE
  5
193
100
AcDbEntity
  8
0
370
    -3
  6
Continuous
100
AcDbLine
 10
184.838808
 20
132.459827
 30
0.0
 11
184.838808
 21
259.459827
 31
0.0
  0
LINE
  5
194
100
AcDbEntity
  8
0
370
    -3
  6
Continuous
100
AcDbLine
 10
405.338708
 20
264.459827
 30
0.0
 11
405.338708
 21
263.459827
 31
0.0
  0
LINE
  5
195
100
AcDbEntity
  8
0
370
    -3
  6
Continuous
100
AcDbLine
 10
405.338708
 20
268.059827
 30
0.0
 11
404.938708
 21
268.459827
 31
0.0
  0
LINE
  5
196
100
AcDbEntity
  8
0
370
    -3
  6
Continuous
100
AcDbLine
 10
405.338708
 20
263.459827
 30
0.0
 11
431.848492
 21
263.459827
 31
0.0
  0
LINE
  5
197
100
AcDbEntity
  8
0
370
    -3
  6
Continuous
100
AcDbLine
 10
290.338708
 20
268.059827
 30
0.0
 11
290.738708
 21
268.459827
 31
0.0
  0
LINE
  5
198
100
AcDbEntity
  8
0
370
    -3
  6
Continuous
100
AcDbLine
 10
290.338708
 20
268.059827
 30
0.0
 11
290.338708
 21
265.959827
 31
0.0
  0
LINE
  5
199
100
AcDbEntity
  8
0
370
    -3
  6
Continuous
100
AcDbLine
 10
290.488708
 20
265.959827
 30
0.0
 11
290.488708
 21
264.459827
 31
0.0
  0
LINE
  5
19A
100
AcDbEntity
  8
0
370
    -3
  6
Continuous
100
AcDbLine
 10
290.488708
 20
264.459827
 30
0.0
 11
290.338708
 21
264.459827
 31
0.0
  0
LINE
  5
19B
100
AcDbEntity
  8
0
370
    -3
  6
CENTER
100
AcDbLine
 10
347.838708
 20
278.736138
 30
0.0
 11
347.838708
 21
44.473614
 31
0.0
  0
LINE
  5
19C
100
AcDbEntity
  8
0
370
    -3
  6
Continuous
100
AcDbLine
 10
290.488708
 20
265.959827
 30
0.0
 11
290.338708
 21
265.959827
 31
0.0
  0
LINE
  5
19D
100
AcDbEntity
  8
0
370
    -3
  6
Continuous
100
AcDbLine
 10
434.838708
 20
135.459827
 30
0.0
 11
432.358084
 21
262.960015
 31
0.0
  0
LINE
  5
19E
100
AcDbEntity
  8
0
370
    -3
  6
Continuous
100
AcDbLine
 10
290.338708
 20
264.459827
 30
0.0
 11
290.338708
 21
263.459827
 31
0.0
  0
LINE
  5
19F
100
AcDbEntity
  8
0
370
    -3
  6
Continuous
100
AcDbLine
 10
199.829024
 20
263.459827
 30
0.0
 11
415.501286
 21
263.459827
 31
0.0
  0
LINE
  5
1A0
100
AcDbEntity
  8
0
370
    -3
  6
Continuous
100
AcDbLine
 10
290.738708
 20
268.459827
 30
0.0
 11
404.938708
 21
268.459827
 31
0.0
  0
ARC
  5
1A1
100
AcDbEntity
  8
0
370
    -3
  6
Continuous
100
AcDbCircle
 10
190.857624
 20
135.959827
 30
0.0
 40
3.0
100
AcDbArc
 50
358.889756
 51
90.0
  0
ARC
  5
1A2
100
AcDbEntity
  8
0
370
    -3
  6
Continuous
100
AcDbCircle
 10
187.838808
 20
135.959827
 30
0.0
 40
3.0
100
AcDbArc
 50
90.0
 51
180.0
  0
LINE
  5
1A3
100
AcDbEntity
  8
0
370
    -3
  6
Continuous
100
AcDbLine
 10
187.838808
 20
138.959827
 30
0.0
 11
190.857624
 21
138.959827
 31
0.0
  0
ARC
  5
1A4
100
AcDbEntity
  8
0
370
    -3
  6
Continuous
100
AcDbCircle
 10
196.309175
 20
262.459827
 30
0.0
 40
3.0
100
AcDbArc
 50
270.0
 51
358.889756
  0
LINE
  5
1A5
100
AcDbEntity
  8
0
370
    -3
  6
Continuous
100
AcDbLine
 10
193.848498
 20
135.459827
 30
0.0
 11
193.857061
 21
135.901698
 31
0.0
  0
LINE
  5
1A6
100
AcDbEntity
  8
0
370
    -3
  6
Continuous
100
AcDbLine
 10
199.308612
 20
262.401698
 30
0.0
 11
199.319432
 21
262.960015
 31
0.0
  0
LINE
  5
1A7
100
AcDbEntity
  8
0
370
    -3
  6
Continuous
100
AcDbLine
 10
184.838808
 20
135.959827
 30
0.0
 11
184.838808
 21
132.459827
 31
0.0
  0
LINE
  5
1A8
100
AcDbEntity
  8
0
370
    -3
  6
Continuous
100
AcDbLine
 10
171.338808
 20
127.459827
 30
0.0
 11
179.838808
 21
127.459827
 31
0.0
  0
LINE
  5
1A9
100
AcDbEntity
  8
0
370
    -3
  6
Continuous
100
AcDbLine
 10
168.338808
 20
124.459827
 30
0.0
 11
168.338808
 21
123.959827
 31
0.0
  0
ARC
  5
1AA
100
AcDbEntity
  8
0
370
    -3
  6
Continuous
100
AcDbCircle
 10
166.338808
 20
123.959827
 30
0.0
 40
2.0
100
AcDbArc
 50
270.0
 51
0.0
  0
LINE
  5
1AB
100
AcDbEntity
  8
0
370
    -3
  6
CENTER
100
AcDbLine
 10
448.206809
 20
193.459827
 30
0.0
 11
-122.767229
 21
193.459827
 31
0.0
  0
ARC
  5
1AC
100
AcDbEntity
  8
0
370
    -3
  6
Continuous
100
AcDbCircle
 10
171.338808
 20
124.459827
 30
0.0
 40
3.0
100
AcDbArc
 50
90.0
 51
180.0
  0
LINE
  5
1AD
100
AcDbEntity
  8
0
370
    -3
  6
Continuous
100
AcDbLine
 10
166.338808
 20
121.959827
 30
0.0
 11
161.838808
 21
121.959827
 31
0.0
  0
ARC
  5
1AE
100
AcDbEntity
  8
0
370
    -3
  6
Continuous
100
AcDbCircle
 10
179.838808
 20
132.459827
 30
0.0
 40
5.0
100
AcDbArc
 50
270.0
 51
0.0
  0
LINE
  5
1AF
100
AcDbEntity
  8
0
370
    -3
  6
Continuous
100
AcDbLine
 10
171.338808
 20
259.459827
 30
0.0
 11
196.309175
 21
259.459827
 31
0.0
  0
LINE
  5
1B0
100
AcDbEntity
  8
0
370
    -3
  6
Continuous
100
AcDbLine
 10
168.338808
 20
262.459827
 30
0.0
 11
168.338808
 21
262.959827
 31
0.0
  0
ARC
  5
1B1
100
AcDbEntity
  8
0
370
    -3
  6
Continuous
100
AcDbCircle
 10
166.338808
 20
262.959827
 30
0.0
 40
2.0
100
AcDbArc
 50
0.0
 51
90.0
  0
ARC
  5
1B2
100
AcDbEntity
  8
0
370
    -3
  6
Continuous
100
AcDbCircle
 10
171.338808
 20
262.459827
 30
0.0
 40
3.0
100
AcDbArc
 50
180.0
 51
270.0
  0
LINE
  5
1B3
100
AcDbEntity
  8
0
370
    -3
  6
Continuous
100
AcDbLine
 10
166.338808
 20
264.959827
 30
0.0
 11
161.838808
 21
264.959827
 31
0.0
  0
LINE
  5
1B4
100
AcDbEntity
  8
0
370
    -3
  6
Continuous
100
AcDbLine
 10
193.815664
 20
135.459827
 30
0.0
 11
434.838708
 21
135.459827
 31
0.0
  0
LINE
  5
1B5
100
AcDbEntity
  8
0
370
    -3
  6
Continuous
100
AcDbLine
 10
327.838708
 20
116.459827
 30
0.0
 11
327.838708
 21
51.459827
 31
0.0
  0
LINE
  5
1B6
100
AcDbEntity
  8
0
370
    -3
  6
Continuous
100
AcDbLine
 10
367.838708
 20
116.459827
 30
0.0
 11
367.838708
 21
51.459827
 31
0.0
  0
LINE
  5
1B7
100
AcDbEntity
  8
0
370
    -3
  6
Continuous
100
AcDbLine
 10
326.838708
 20
118.459827
 30
0.0
 11
326.838708
 21
116.459827
 31
0.0
  0
LINE
  5
1B8
100
AcDbEntity
  8
0
370
    -3
  6
Continuous
100
AcDbLine
 10
326.838708
 20
116.459827
 30
0.0
 11
368.838708
 21
116.459827
 31
0.0
  0
LINE
  5
1B9
100
AcDbEntity
  8
0
370
    -3
  6
Continuous
100
AcDbLine
 10
368.838708
 20
118.459827
 30
0.0
 11
368.838708
 21
116.459827
 31
0.0
  0
LINE
  5
1BA
100
AcDbEntity
  8
0
370
    -3
  6
Continuous
100
AcDbLine
 10
353.838708
 20
106.459827
 30
0.0
 11
341.838708
 21
106.459827
 31
0.0
  0
LINE
  5
1BB
100
AcDbEntity
  8
0
370
    -3
  6
Continuous
100
AcDbLine
 10
353.838708
 20
51.459827
 30
0.0
 11
353.838708
 21
106.459827
 31
0.0
  0
LINE
  5
1BC
100
AcDbEntity
  8
0
370
    -3
  6
Continuous
100
AcDbLine
 10
431.848492
 20
263.459827
 30
0.0
 11
432.358084
 21
262.960015
 31
0.0
  0
LINE
  5
1BD
100
AcDbEntity
  8
0
370
    -3
  6
Continuous
100
AcDbLine
 10
341.838708
 20
51.459827
 30
0.0
 11
341.838708
 21
106.459827
 31
0.0
  0
ARC
  5
1BE
100
AcDbEntity
  8
0
370
    -3
  6
Continuous
100
AcDbCircle
 10
347.838708
 20
106.459827
 30
0.0
 40
6.0
100
AcDbArc
 50
0.0
 51
180.0
  0
ARC
  5
1BF
100
AcDbEntity
  8
0
370
    -3
  6
Continuous
100
AcDbCircle
 10
171.339172
 20
150.472674
 30
0.0
 40
3.0
100
AcDbArc
 50
180.0
 51
270.0
  0
LINE
  5
1C0
100
AcDbEntity
  8
0
370
    -3
  6
Continuous
100
AcDbLine
 10
168.339172
 20
135.459827
 30
0.0
 11
168.339172
 21
123.959827
 31
0.0
  0
LINE
  5
1C1
100
AcDbEntity
  8
0
370
    -3
  6
Continuous
100
AcDbLine
 10
171.339172
 20
147.472674
 30
0.0
 11
179.839172
 21
147.472674
 31
0.0
  0
ARC
  5
1C2
100
AcDbEntity
  8
0
370
    -3
  6
Continuous
100
AcDbCircle
 10
171.339172
 20
135.459827
 30
0.0
 40
3.0
100
AcDbArc
 50
90.0
 51
180.0
  0
LINE
  5
1C3
100
AcDbEntity
  8
0
370
    -3
  6
Continuous
100
AcDbLine
 10
171.339172
 20
151.712041
 30
0.0
 11
181.744822
 21
151.712041
 31
0.0
  0
LINE
  5
1C4
100
AcDbEntity
  8
0
370
    -3
  6
Continuous
100
AcDbLine
 10
171.339172
 20
138.459827
 30
0.0
 11
179.839172
 21
138.459827
 31
0.0
  0
ARC
  5
1C5
100
AcDbEntity
  8
0
370
    -3
  6
Continuous
100
AcDbCircle
 10
179.839172
 20
152.472674
 30
0.0
 40
5.0
100
AcDbArc
 50
270.0
 51
351.914005
  0
ARC
  5
1C6
100
AcDbEntity
  8
0
370
    -3
  6
Continuous
100
AcDbCircle
 10
171.339172
 20
154.712041
 30
0.0
 40
3.0
100
AcDbArc
 50
180.0
 51
270.0
  0
ARC
  5
1C7
100
AcDbEntity
  8
0
370
    -3
  6
Continuous
100
AcDbCircle
 10
179.839172
 20
143.459827
 30
0.0
 40
5.0
100
AcDbArc
 50
270.0
 51
350.385223
  0
LINE
  5
1C8
100
AcDbEntity
  8
0
370
    -3
  6
Continuous
100
AcDbLine
 10
168.339172
 20
251.459827
 30
0.0
 11
168.339172
 21
262.959827
 31
0.0
  0
LINE
  5
1C9
100
AcDbEntity
  8
0
370
    -3
  6
Continuous
100
AcDbLine
 10
171.339172
 20
234.725857
 30
0.0
 11
182.271894
 21
234.725857
 31
0.0
  0
ARC
  5
1CA
100
AcDbEntity
  8
0
370
    -3
  6
Continuous
100
AcDbCircle
 10
171.339172
 20
231.725857
 30
0.0
 40
3.0
100
AcDbArc
 50
90.0
 51
180.0
  0
ARC
  5
1CB
100
AcDbEntity
  8
0
370
    -3
  6
Continuous
100
AcDbCircle
 10
171.339172
 20
236.44698
 30
0.0
 40
3.0
100
AcDbArc
 50
90.0
 51
180.0
  0
LINE
  5
1CC
100
AcDbEntity
  8
0
370
    -3
  6
Continuous
100
AcDbLine
 10
171.339172
 20
239.44698
 30
0.0
 11
179.839172
 21
239.44698
 31
0.0
  0
ARC
  5
1CD
100
AcDbEntity
  8
0
370
    -3
  6
Continuous
100
AcDbCircle
 10
171.339172
 20
251.459827
 30
0.0
 40
3.0
100
AcDbArc
 50
180.0
 51
270.0
  0
LINE
  5
1CE
100
AcDbEntity
  8
0
370
    -3
  6
Continuous
100
AcDbLine
 10
171.339172
 20
248.459827
 30
0.0
 11
179.839172
 21
248.459827
 31
0.0
  0
ARC
  5
1CF
100
AcDbEntity
  8
0
370
    -3
  6
Continuous
100
AcDbCircle
 10
179.839172
 20
234.44698
 30
0.0
 40
5.0
100
AcDbArc
 50
8.085995
 51
90.0
  0
ARC
  5
1D0
100
AcDbEntity
  8
0
370
    -3
  6
Continuous
100
AcDbCircle
 10
179.839172
 20
243.459827
 30
0.0
 40
5.0
100
AcDbArc
 50
9.614777
 51
90.0
  0
LINE
  5
1D1
100
AcDbEntity
  8
0
370
    -3
  6
Continuous
100
AcDbLine
 10
168.339172
 20
172.959827
 30
0.0
 11
168.339172
 21
150.472674
 31
0.0
  0
LINE
  5
1D2
100
AcDbEntity
  8
0
370
    -3
  6
Continuous
100
AcDbLine
 10
168.339172
 20
213.959827
 30
0.0
 11
168.339172
 21
236.44698
 31
0.0
  0
LINE
  5
1D3
100
AcDbEntity
  8
0
370
    -3
  6
Continuous
100
AcDbLine
 10
161.839172
 20
264.959827
 30
0.0
 11
161.839172
 21
213.959827
 31
0.0
  0
LINE
  5
1D4
100
AcDbEntity
  8
0
370
    -3
  6
Continuous
100
AcDbLine
 10
161.839172
 20
172.959827
 30
0.0
 11
161.839172
 21
121.959827
 31
0.0
  0
LINE
  5
1D5
100
AcDbEntity
  8
0
370
    -3
  6
Continuous
100
AcDbLine
 10
90.339172
 20
251.959827
 30
0.0
 11
90.339172
 21
193.459827
 31
0.0
  0
LINE
  5
1D6
100
AcDbEntity
  8
0
370
    -3
  6
Continuous
100
AcDbLine
 10
90.339172
 20
134.959827
 30
0.0
 11
90.339172
 21
193.459827
 31
0.0
  0
ARC
  5
1D7
100
AcDbEntity
  8
0
370
    -3
  6
Continuous
100
AcDbCircle
 10
-328.660828
 20
-174.064847
 30
0.0
 40
40.0
100
AcDbArc
 50
238.03868
 51
301.950063
  0
ARC
  5
1D8
100
AcDbEntity
  8
0
370
    -3
  6
Continuous
100
AcDbCircle
 10
-354.160828
 20
-208.687817
 30
0.0
 40
3.0
100
AcDbArc
 50
0.0
 51
15.607761
  0
ARC
  5
1D9
100
AcDbEntity
  8
0
370
    -3
  6
Continuous
100
AcDbCircle
 10
-343.160828
 20
-214.546325
 30
0.0
 40
3.0
100
AcDbArc
 50
70.293059
 51
180.0
  0
LINE
  5
1DA
100
AcDbEntity
  8
0
370
    -3
  6
Continuous
100
AcDbLine
 10
-346.160828
 20
-214.546325
 30
0.0
 11
-346.160828
 21
-237.68857
 31
0.0
  0
LINE
  5
1DB
100
AcDbEntity
  8
0
370
    -3
  6
Continuous
100
AcDbLine
 10
-351.160828
 20
-208.687817
 30
0.0
 11
-351.160828
 21
-237.68857
 31
0.0
  0
ARC
  5
1DC
100
AcDbEntity
  8
0
370
    -3
  6
Continuous
100
AcDbCircle
 10
-314.160828
 20
-214.546325
 30
0.0
 40
3.0
100
AcDbArc
 50
0.0
 51
109.706941
  0
LINE
  5
1DD
100
AcDbEntity
  8
0
370
    -3
  6
Continuous
100
AcDbLine
 10
-311.160828
 20
-214.546325
 30
0.0
 11
-311.160828
 21
-237.68857
 31
0.0
  0
ARC
  5
1DE
100
AcDbEntity
  8
0
370
    -3
  6
Continuous
100
AcDbCircle
 10
-303.160828
 20
-208.687817
 30
0.0
 40
3.0
100
AcDbArc
 50
164.392239
 51
180.0
  0
LINE
  5
1DF
100
AcDbEntity
  8
0
370
    -3
  6
Continuous
100
AcDbLine
 10
-306.160828
 20
-208.687817
 30
0.0
 11
-306.160828
 21
-237.68857
 31
0.0
  0
ARC
  5
1E0
100
AcDbEntity
  8
0
370
    -3
  6
Continuous
100
AcDbCircle
 10
-328.660828
 20
-174.064847
 30
0.0
 40
74.0
100
AcDbArc
 50
17.502524
 51
36.10759
  0
ARC
  5
1E1
100
AcDbEntity
  8
0
370
    -3
  6
Continuous
100
AcDbCircle
 10
-277.160828
 20
-157.824466
 30
0.0
 40
20.0
100
AcDbArc
 50
0.0
 51
17.502524
  0
LINE
  5
1E2
100
AcDbEntity
  8
0
370
    -3
  6
Continuous
100
AcDbLine
 10
-257.160828
 20
-157.824466
 30
0.0
 11
-257.160828
 21
-190.305229
 31
0.0
  0
ARC
  5
1E3
100
AcDbEntity
  8
0
370
    -3
  6
Continuous
100
AcDbCircle
 10
-277.160828
 20
-190.305229
 30
0.0
 40
20.0
100
AcDbArc
 50
342.497476
 51
0.0
  0
ARC
  5
1E4
100
AcDbEntity
  8
0
370
    -3
  6
Continuous
100
AcDbCircle
 10
-328.660828
 20
-174.064847
 30
0.0
 40
74.0
100
AcDbArc
 50
287.502524
 51
342.497476
  0
ARC
  5
1E5
100
AcDbEntity
  8
0
370
    -3
  6
Continuous
100
AcDbCircle
 10
-312.420446
 20
-225.564847
 30
0.0
 40
20.0
100
AcDbArc
 50
270.0
 51
287.502524
  0
ARC
  5
1E6
100
AcDbEntity
  8
0
370
    -3
  6
Continuous
100
AcDbCircle
 10
-303.160828
 20
-237.68857
 30
0.0
 40
3.0
100
AcDbArc
 50
180.0
 51
270.0
  0
ARC
  5
1E7
100
AcDbEntity
  8
0
370
    -3
  6
Continuous
100
AcDbCircle
 10
-314.160828
 20
-237.68857
 30
0.0
 40
3.0
100
AcDbArc
 50
270.0
 51
0.0
  0
LINE
  5
1E8
100
AcDbEntity
  8
0
370
    -3
  6
Continuous
100
AcDbLine
 10
-312.420446
 20
-245.564847
 30
0.0
 11
-344.90121
 21
-245.564847
 31
0.0
  0
ARC
  5
1E9
100
AcDbEntity
  8
0
370
    -3
  6
Continuous
100
AcDbCircle
 10
-344.90121
 20
-225.564847
 30
0.0
 40
20.0
100
AcDbArc
 50
252.497476
 51
270.0
  0
ARC
  5
1EA
100
AcDbEntity
  8
0
370
    -3
  6
Continuous
100
AcDbCircle
 10
-343.160828
 20
-237.68857
 30
0.0
 40
3.0
100
AcDbArc
 50
180.0
 51
270.0
  0
ARC
  5
1EB
100
AcDbEntity
  8
0
370
    -3
  6
Continuous
100
AcDbCircle
 10
-354.160828
 20
-237.68857
 30
0.0
 40
3.0
100
AcDbArc
 50
270.0
 51
0.0
  0
ARC
  5
1EC
100
AcDbEntity
  8
0
370
    -3
  6
Continuous
100
AcDbCircle
 10
-328.660828
 20
-174.064847
 30
0.0
 40
74.0
100
AcDbArc
 50
197.502524
 51
252.497476
  0
ARC
  5
1ED
100
AcDbEntity
  8
0
370
    -3
  6
Continuous
100
AcDbCircle
 10
-380.160828
 20
-190.305229
 30
0.0
 40
20.0
100
AcDbArc
 50
180.0
 51
197.502524
  0
LINE
  5
1EE
100
AcDbEntity
  8
0
370
    -3
  6
Continuous
100
AcDbLine
 10
-400.160828
 20
-157.824466
 30
0.0
 11
-400.160828
 21
-190.305229
 31
0.0
  0
ARC
  5
1EF
100
AcDbEntity
  8
0
370
    -3
  6
Continuous
100
AcDbCircle
 10
-328.660828
 20
-174.064847
 30
0.0
 40
74.0
100
AcDbArc
 50
143.89241
 51
162.497476
  0
ARC
  5
1F0
100
AcDbEntity
  8
0
370
    -3
  6
Continuous
100
AcDbCircle
 10
-380.160828
 20
-157.824466
 30
0.0
 40
20.0
100
AcDbArc
 50
162.497476
 51
180.0
  0
LINE
  5
1F1
100
AcDbEntity
  8
0
370
    -3
  6
Continuous
100
AcDbLine
 10
-258.660828
 20
-198.064847
 30
0.0
 11
-258.660828
 21
-252.604786
 31
0.0
  0
LINE
  5
1F2
100
AcDbEntity
  8
0
370
    -3
  6
Continuous
100
AcDbLine
 10
161.839172
 20
-102.564847
 30
0.0
 11
161.839172
 21
-245.564847
 31
0.0
  0
LINE
  5
1F3
100
AcDbEntity
  8
0
370
    -3
  6
Continuous
100
AcDbLine
 10
161.839172
 20
-102.564847
 30
0.0
 11
161.839172
 21
-245.564847
 31
0.0
  0
LINE
  5
1F4
100
AcDbEntity
  8
0
370
    -3
  6
Continuous
100
AcDbLine
 10
161.839172
 20
-102.564847
 30
0.0
 11
161.839172
 21
-245.564847
 31
0.0
  0
LINE
  5
1F5
100
AcDbEntity
  8
0
370
    -3
  6
Continuous
100
AcDbLine
 10
161.839172
 20
-102.564847
 30
0.0
 11
161.839172
 21
-245.564847
 31
0.0
  0
LINE
  5
1F6
100
AcDbEntity
  8
0
370
    -3
  6
Continuous
100
AcDbLine
 10
161.839172
 20
-102.564847
 30
0.0
 11
161.839172
 21
-245.564847
 31
0.0
  0
LINE
  5
1F7
100
AcDbEntity
  8
0
370
    -3
  6
Continuous
100
AcDbLine
 10
161.839172
 20
-102.564847
 30
0.0
 11
161.839172
 21
-245.564847
 31
0.0
  0
LINE
  5
1F8
100
AcDbEntity
  8
0
370
    -3
  6
Continuous
100
AcDbLine
 10
161.839172
 20
-102.564847
 30
0.0
 11
161.839172
 21
-245.564847
 31
0.0
  0
LINE
  5
1F9
100
AcDbEntity
  8
0
370
    -3
  6
Continuous
100
AcDbLine
 10
151.437248
 20
-231.842415
 30
0.0
 11
142.505537
 21
-216.372238
 31
0.0
  0
ARC
  5
1FA
100
AcDbEntity
  8
0
370
    -3
  6
Continuous
100
AcDbCircle
 10
119.839172
 20
-211.167781
 30
0.0
 40
3.0
100
AcDbArc
 50
180.0
 51
268.0
  0
LINE
  5
1FB
100
AcDbEntity
  8
0
370
    -3
  6
Continuous
100
AcDbLine
 10
161.839172
 20
-174.064847
 30
0.0
 11
161.839172
 21
-245.564847
 31
0.0
  0
LINE
  5
1FC
100
AcDbEntity
  8
0
370
    -3
  6
Continuous
100
AcDbLine
 10
119.734474
 20
-214.165953
 30
0.0
 11
140.01216
 21
-214.874066
 31
0.0
  0
ARC
  5
1FD
100
AcDbEntity
  8
0
370
    -3
  6
Continuous
100
AcDbCircle
 10
113.839172
 20
-206.300547
 30
0.0
 40
3.0
100
AcDbArc
 50
0.0
 51
87.0
  0
ARC
  5
1FE
100
AcDbEntity
  8
0
370
    -3
  6
Continuous
100
AcDbCircle
 10
123.674498
 20
-217.305371
 30
0.0
 40
3.0
100
AcDbArc
 50
44.631108
 51
88.0
  0
ARC
  5
1FF
100
AcDbEntity
  8
0
370
    -3
  6
Continuous
100
AcDbCircle
 10
148.839172
 20
-233.342415
 30
0.0
 40
3.0
100
AcDbArc
 50
0.0
 51
30.0
  0
LINE
  5
200
100
AcDbEntity
  8
0
370
    -3
  6
Continuous
100
AcDbLine
 10
116.839172
 20
-206.300547
 30
0.0
 11
116.839172
 21
-211.167781
 31
0.0
  0
ARC
  5
201
100
AcDbEntity
  8
0
370
    -3
  6
Continuous
100
AcDbCircle
 10
139.907461
 20
-217.872238
 30
0.0
 40
3.0
100
AcDbArc
 50
30.0
 51
88.0
  0
ARC
  5
202
100
AcDbEntity
  8
0
370
    -3
  6
Continuous
100
AcDbCircle
 10
161.639172
 20
-237.014847
 30
0.0
 40
0.2
100
AcDbArc
 50
0.0
 51
90.0
  0
LINE
  5
203
100
AcDbEntity
  8
0
370
    -3
  6
Continuous
100
AcDbLine
 10
161.839172
 20
-174.064847
 30
0.0
 11
161.839172
 21
-102.564847
 31
0.0
  0
ARC
  5
204
100
AcDbEntity
  8
0
370
    -3
  6
Continuous
100
AcDbCircle
 10
161.639172
 20
-111.114847
 30
0.0
 40
0.2
100
AcDbArc
 50
270.0
 51
0.0
  0
ARC
  5
205
100
AcDbEntity
  8
0
370
    -3
  6
Continuous
100
AcDbCircle
 10
153.839172
 20
-243.564847
 30
0.0
 40
2.0
100
AcDbArc
 50
180.0
 51
270.0
  0
ARC
  5
206
100
AcDbEntity
  8
0
370
    -3
  6
Continuous
100
AcDbCircle
 10
112.339172
 20
-111.064847
 30
0.0
 40
3.0
100
AcDbArc
 50
180.0
 51
270.0
  0
LINE
  5
207
100
AcDbEntity
  8
0
370
    -3
  6
Continuous
100
AcDbLine
 10
150.974106
 20
-240.68857
 30
0.0
 11
125.809433
 21
-215.197752
 31
0.0
  0
ARC
  5
208
100
AcDbEntity
  8
0
370
    -3
  6
Continuous
100
AcDbCircle
 10
153.839172
 20
-104.564847
 30
0.0
 40
2.0
100
AcDbArc
 50
90.0
 51
180.0
  0
ARC
  5
209
100
AcDbEntity
  8
0
370
    -3
  6
Continuous
100
AcDbCircle
 10
146.839172
 20
-133.064847
 30
0.0
 40
5.0
100
AcDbArc
 50
270.0
 51
0.0
  0
ARC
  5
20A
100
AcDbEntity
  8
0
370
    -3
  6
Continuous
100
AcDbCircle
 10
148.839172
 20
-242.796188
 30
0.0
 40
3.0
100
AcDbArc
 50
0.0
 51
44.631108
  0
LINE
  5
20B
100
AcDbEntity
  8
0
370
    -3
  6
Continuous
100
AcDbLine
 10
112.339172
 20
-114.064847
 30
0.0
 11
149.839172
 21
-114.064847
 31
0.0
  0
LINE
  5
20C
100
AcDbEntity
  8
0
370
    -3
  6
Continuous
100
AcDbLine
 10
151.839172
 20
-243.564847
 30
0.0
 11
151.839172
 21
-174.064847
 31
0.0
  0
LINE
  5
20D
100
AcDbEntity
  8
0
370
    -3
  6
Continuous
100
AcDbLine
 10
161.839172
 20
-102.564847
 30
0.0
 11
153.839172
 21
-102.564847
 31
0.0
  0
LINE
  5
20E
100
AcDbEntity
  8
0
370
    -3
  6
Continuous
100
AcDbLine
 10
161.839172
 20
-245.564847
 30
0.0
 11
153.839172
 21
-245.564847
 31
0.0
  0
LINE
  5
20F
100
AcDbEntity
  8
0
370
    -3
  6
Continuous
100
AcDbLine
 10
151.839172
 20
-104.564847
 30
0.0
 11
151.839172
 21
-174.064847
 31
0.0
  0
ARC
  5
210
100
AcDbEntity
  8
0
370
    -3
  6
Continuous
100
AcDbCircle
 10
149.839172
 20
-112.064847
 30
0.0
 40
2.0
100
AcDbArc
 50
270.0
 51
0.0
  0
ARC
  5
211
100
AcDbEntity
  8
0
370
    -3
  6
Continuous
100
AcDbCircle
 10
146.839172
 20
-210.032749
 30
0.0
 40
5.0
100
AcDbArc
 50
0.0
 51
87.0
  0
ARC
  5
212
100
AcDbEntity
  8
0
370
    -3
  6
Continuous
100
AcDbCircle
 10
146.839172
 20
-168.064847
 30
0.0
 40
5.0
100
AcDbArc
 50
0.0
 51
90.0
  0
LINE
  5
213
100
AcDbEntity
  8
0
370
    -3
  6
CENTER
100
AcDbLine
 10
161.839172
 20
-174.064847
 30
0.0
 11
132.294509
 21
-174.064847
 31
0.0
  0
LINE
  5
214
100
AcDbEntity
  8
0
370
    -3
  6
Continuous
100
AcDbLine
 10
106.339172
 20
-123.064847
 30
0.0
 11
90.339172
 21
-123.064847
 31
0.0
  0
ARC
  5
215
100
AcDbEntity
  8
0
370
    -3
  6
Continuous
100
AcDbCircle
 10
106.339172
 20
-126.064847
 30
0.0
 40
3.0
100
AcDbArc
 50
0.0
 51
90.0
  0
LINE
  5
216
100
AcDbEntity
  8
0
370
    -3
  6
Continuous
100
AcDbLine
 10
146.839172
 20
-138.064847
 30
0.0
 11
112.339172
 21
-138.064847
 31
0.0
  0
ARC
  5
217
100
AcDbEntity
  8
0
370
    -3
  6
Continuous
100
AcDbCircle
 10
112.339172
 20
-135.064847
 30
0.0
 40
3.0
100
AcDbArc
 50
180.0
 51
270.0
  0
LINE
  5
218
100
AcDbEntity
  8
0
370
    -3
  6
Continuous
100
AcDbLine
 10
146.839172
 20
-163.064847
 30
0.0
 11
90.339172
 21
-163.064847
 31
0.0
  0
LINE
  5
219
100
AcDbEntity
  8
0
370
    -3
  6
Continuous
100
AcDbLine
 10
90.339172
 20
-201.814847
 30
0.0
 11
90.339172
 21
-202.564847
 31
0.0
  0
LINE
  5
21A
100
AcDbEntity
  8
0
370
    -3
  6
Continuous
100
AcDbLine
 10
90.339172
 20
-203.07026
 30
0.0
 11
90.339172
 21
-84.07026
 31
0.0
  0
LINE
  5
21B
100
AcDbEntity
  8
0
370
    -3
  6
Continuous
100
AcDbLine
 10
161.839172
 20
-174.064847
 30
0.0
 11
161.839172
 21
-245.564847
 31
0.0
  0
LINE
  5
21C
100
AcDbEntity
  8
0
370
    -3
  6
Continuous
100
AcDbLine
 10
161.839172
 20
-174.064847
 30
0.0
 11
161.839172
 21
-104.064847
 31
0.0
  0
ARC
  5
21D
100
AcDbEntity
  8
0
370
    -3
  6
Continuous
100
AcDbCircle
 10
171.339172
 20
-105.064847
 30
0.0
 40
3.0
100
AcDbArc
 50
180.0
 51
270.0
  0
ARC
  5
21E
100
AcDbEntity
  8
0
370
    -3
  6
Continuous
100
AcDbCircle
 10
166.339172
 20
-104.564847
 30
0.0
 40
2.0
100
AcDbArc
 50
360.0
 51
90.0
  0
LINE
  5
21F
100
AcDbEntity
  8
0
370
    -3
  6
Continuous
100
AcDbLine
 10
171.339172
 20
-240.064847
 30
0.0
 11
193.839172
 21
-240.064847
 31
0.0
  0
LINE
  5
220
100
AcDbEntity
  8
0
370
    -3
  6
Continuous
100
AcDbLine
 10
168.339172
 20
-174.064847
 30
0.0
 11
168.339172
 21
-217.052
 31
0.0
  0
LINE
  5
221
100
AcDbEntity
  8
0
370
    -3
  6
Continuous
100
AcDbLine
 10
166.339172
 20
-245.564847
 30
0.0
 11
161.839172
 21
-245.564847
 31
0.0
  0
ARC
  5
222
100
AcDbEntity
  8
0
370
    -3
  6
Continuous
100
AcDbCircle
 10
171.339172
 20
-217.052
 30
0.0
 40
3.0
100
AcDbArc
 50
180.0
 51
270.0
  0
LINE
  5
223
100
AcDbEntity
  8
0
370
    -3
  6
Continuous
100
AcDbLine
 10
171.339172
 20
-220.052
 30
0.0
 11
179.839172
 21
-220.052
 31
0.0
  0
ARC
  5
224
100
AcDbEntity
  8
0
370
    -3
  6
Continuous
100
AcDbCircle
 10
171.339172
 20
-232.064847
 30
0.0
 40
3.0
100
AcDbArc
 50
90.0
 51
180.0
  0
LINE
  5
225
100
AcDbEntity
  8
0
370
    -3
  6
Continuous
100
AcDbLine
 10
171.339172
 20
-229.064847
 30
0.0
 11
179.839172
 21
-229.064847
 31
0.0
  0
ARC
  5
226
100
AcDbEntity
  8
0
370
    -3
  6
Continuous
100
AcDbCircle
 10
179.839172
 20
-215.052
 30
0.0
 40
5.0
100
AcDbArc
 50
270.0
 51
351.914005
  0
ARC
  5
227
100
AcDbEntity
  8
0
370
    -3
  6
Continuous
100
AcDbCircle
 10
179.839172
 20
-224.064847
 30
0.0
 40
5.0
100
AcDbArc
 50
270.0
 51
350.385223
  0
ARC
  5
228
100
AcDbEntity
  8
0
370
    -3
  6
Continuous
100
AcDbCircle
 10
171.339172
 20
-243.064847
 30
0.0
 40
3.0
100
AcDbArc
 50
90.0
 51
180.0
  0
ARC
  5
229
100
AcDbEntity
  8
0
370
    -3
  6
Continuous
100
AcDbCircle
 10
166.339172
 20
-243.564847
 30
0.0
 40
2.0
100
AcDbArc
 50
270.0
 51
0.0
  0
ARC
  5
22A
100
AcDbEntity
  8
0
370
    -3
  6
Continuous
100
AcDbCircle
 10
176.839172
 20
-106.064847
 30
0.0
 40
2.0
100
AcDbArc
 50
180.0
 51
270.0
  0
ARC
  5
22B
100
AcDbEntity
  8
0
370
    -3
  6
Continuous
100
AcDbCircle
 10
173.839172
 20
-80.064847
 30
0.0
 40
1.0
100
AcDbArc
 50
0.0
 51
90.0
  0
ARC
  5
22C
100
AcDbEntity
  8
0
370
    -3
  6
Continuous
100
AcDbCircle
 10
163.839172
 20
-80.064847
 30
0.0
 40
1.0
100
AcDbArc
 50
90.0
 51
180.0
  0
LINE
  5
22D
100
AcDbEntity
  8
0
370
    -3
  6
Continuous
100
AcDbLine
 10
173.839172
 20
-79.064847
 30
0.0
 11
163.839172
 21
-79.064847
 31
0.0
  0
LINE
  5
22E
100
AcDbEntity
  8
0
370
    -3
  6
Continuous
100
AcDbLine
 10
174.839172
 20
-106.064847
 30
0.0
 11
174.839172
 21
-80.064847
 31
0.0
  0
LINE
  5
22F
100
AcDbEntity
  8
0
370
    -3
  6
Continuous
100
AcDbLine
 10
168.339172
 20
-116.064847
 30
0.0
 11
168.339172
 21
-104.564847
 31
0.0
  0
LINE
  5
230
100
AcDbEntity
  8
0
370
    -3
  6
Continuous
100
AcDbLine
 10
168.339172
 20
-232.064847
 30
0.0
 11
168.339172
 21
-243.564847
 31
0.0
  0
LINE
  5
231
100
AcDbEntity
  8
0
370
    -3
  6
Continuous
100
AcDbLine
 10
171.339172
 20
-132.317061
 30
0.0
 11
181.744822
 21
-132.317061
 31
0.0
  0
LINE
  5
232
100
AcDbEntity
  8
0
370
    -3
  6
Continuous
100
AcDbLine
 10
171.339172
 20
-215.330877
 30
0.0
 11
182.271894
 21
-215.330877
 31
0.0
  0
ARC
  5
233
100
AcDbEntity
  8
0
370
    -3
  6
Continuous
100
AcDbCircle
 10
171.339172
 20
-135.317061
 30
0.0
 40
3.0
100
AcDbArc
 50
90.0
 51
180.0
  0
ARC
  5
234
100
AcDbEntity
  8
0
370
    -3
  6
Continuous
100
AcDbCircle
 10
171.339172
 20
-212.330877
 30
0.0
 40
3.0
100
AcDbArc
 50
180.0
 51
270.0
  0
ARC
  5
235
100
AcDbEntity
  8
0
370
    -3
  6
Continuous
100
AcDbCircle
 10
187.726796
 20
-122.728663
 30
0.0
 40
3.0
100
AcDbArc
 50
189.614777
 51
270.0
  0
ARC
  5
236
100
AcDbEntity
  8
0
370
    -3
  6
Continuous
100
AcDbCircle
 10
187.759637
 20
-131.95242
 30
0.0
 40
3.0
100
AcDbArc
 50
188.085995
 51
270.0
  0
ARC
  5
237
100
AcDbEntity
  8
0
370
    -3
  6
Continuous
100
AcDbCircle
 10
187.759637
 20
-216.177274
 30
0.0
 40
3.0
100
AcDbArc
 50
90.0
 51
171.914005
  0
ARC
  5
238
100
AcDbEntity
  8
0
370
    -3
  6
Continuous
100
AcDbCircle
 10
187.726796
 20
-225.401032
 30
0.0
 40
3.0
100
AcDbArc
 50
90.0
 51
170.385223
  0
LINE
  5
239
100
AcDbEntity
  8
0
370
    -3
  6
Continuous
100
AcDbLine
 10
161.839172
 20
-174.064847
 30
0.0
 11
161.839172
 21
-102.564847
 31
0.0
  0
LINE
  5
23A
100
AcDbEntity
  8
0
370
    -3
  6
Continuous
100
AcDbLine
 10
161.839172
 20
-174.064847
 30
0.0
 11
161.839172
 21
-245.564847
 31
0.0
  0
ARC
  5
23B
100
AcDbEntity
  8
0
370
    -3
  6
Continuous
100
AcDbCircle
 10
193.839172
 20
-243.064847
 30
0.0
 40
3.0
100
AcDbArc
 50
0.0
 51
90.0
  0
LINE
  5
23C
100
AcDbEntity
  8
0
370
    -3
  6
Continuous
100
AcDbLine
 10
196.839172
 20
-83.064847
 30
0.0
 11
193.839172
 21
-93.064847
 31
0.0
  0
LINE
  5
23D
100
AcDbEntity
  8
0
370
    -3
  6
Continuous
100
AcDbLine
 10
196.839172
 20
-53.064847
 30
0.0
 11
196.839172
 21
-83.064847
 31
0.0
  0
LINE
  5
23E
100
AcDbEntity
  8
0
370
    -3
  6
Continuous
100
AcDbLine
 10
193.839172
 20
-93.064847
 30
0.0
 11
193.839172
 21
-204.064847
 31
0.0
  0
LINE
  5
23F
100
AcDbEntity
  8
0
370
    -3
  6
Continuous
100
AcDbLine
 10
197.839172
 20
-244.064847
 30
0.0
 11
197.839172
 21
-53.064847
 31
0.0
  0
LINE
  5
240
100
AcDbEntity
  8
0
370
    -3
  6
Continuous
100
AcDbLine
 10
196.839172
 20
-214.064847
 30
0.0
 11
193.839172
 21
-204.064847
 31
0.0
  0
LINE
  5
241
100
AcDbEntity
  8
0
370
    -3
  6
Continuous
100
AcDbLine
 10
196.839172
 20
-214.064847
 30
0.0
 11
196.839172
 21
-244.064847
 31
0.0
  0
ARC
  5
242
100
AcDbEntity
  8
0
370
    -3
  6
Continuous
100
AcDbCircle
 10
206.839172
 20
-244.064847
 30
0.0
 40
10.0
100
AcDbArc
 50
180.0
 51
270.0
  0
ARC
  5
243
100
AcDbEntity
  8
0
370
    -3
  6
Continuous
100
AcDbCircle
 10
206.839172
 20
-244.064847
 30
0.0
 40
9.0
100
AcDbArc
 50
180.0
 51
270.0
  0
ARC
  5
244
100
AcDbEntity
  8
0
370
    -3
  6
Continuous
100
AcDbCircle
 10
161.839172
 20
-101.564847
 30
0.0
 40
1.0
100
AcDbArc
 50
270.0
 51
360.0
  0
LINE
  5
245
100
AcDbEntity
  8
0
370
    -3
  6
Continuous
100
AcDbLine
 10
166.339172
 20
-102.564847
 30
0.0
 11
161.839172
 21
-102.564847
 31
0.0
  0
LINE
  5
246
100
AcDbEntity
  8
0
370
    -3
  6
Continuous
100
AcDbLine
 10
162.839172
 20
-101.564847
 30
0.0
 11
162.839172
 21
-80.064847
 31
0.0
  0
LINE
  5
247
100
AcDbEntity
  8
0
370
    -3
  6
Continuous
100
AcDbLine
 10
171.339172
 20
-108.064847
 30
0.0
 11
193.839172
 21
-108.064847
 31
0.0
  0
LINE
  5
248
100
AcDbEntity
  8
0
370
    -3
  6
Continuous
100
AcDbLine
 10
168.339172
 20
-174.064847
 30
0.0
 11
168.339172
 21
-131.077694
 31
0.0
  0
ARC
  5
249
100
AcDbEntity
  8
0
370
    -3
  6
Continuous
100
AcDbCircle
 10
171.339172
 20
-131.077694
 30
0.0
 40
3.0
100
AcDbArc
 50
90.0
 51
180.0
  0
LINE
  5
24A
100
AcDbEntity
  8
0
370
    -3
  6
Continuous
100
AcDbLine
 10
171.339172
 20
-128.077694
 30
0.0
 11
179.839172
 21
-128.077694
 31
0.0
  0
ARC
  5
24B
100
AcDbEntity
  8
0
370
    -3
  6
Continuous
100
AcDbCircle
 10
171.339172
 20
-116.064847
 30
0.0
 40
3.0
100
AcDbArc
 50
180.0
 51
270.0
  0
LINE
  5
24C
100
AcDbEntity
  8
0
370
    -3
  6
Continuous
100
AcDbLine
 10
171.339172
 20
-119.064847
 30
0.0
 11
179.839172
 21
-119.064847
 31
0.0
  0
ARC
  5
24D
100
AcDbEntity
  8
0
370
    -3
  6
Continuous
100
AcDbCircle
 10
179.839172
 20
-133.077694
 30
0.0
 40
5.0
100
AcDbArc
 50
8.085995
 51
90.0
  0
ARC
  5
24E
100
AcDbEntity
  8
0
370
    -3
  6
Continuous
100
AcDbCircle
 10
179.839172
 20
-124.064847
 30
0.0
 40
5.0
100
AcDbArc
 50
9.614777
 51
90.0
  0
LINE
  5
24F
100
AcDbEntity
  8
0
370
    -3
  6
Continuous
100
AcDbLine
 10
162.839172
 20
-44.064847
 30
0.0
 11
162.839172
 21
-99.064847
 31
0.0
  0
LINE
  5
250
100
AcDbEntity
  8
0
370
    -3
  6
Continuous
100
AcDbLine
 10
158.339172
 20
-44.064847
 30
0.0
 11
158.339172
 21
-99.064847
 31
0.0
  0
LINE
  5
251
100
AcDbEntity
  8
0
370
    -3
  6
DASHED
100
AcDbLine
 10
158.339172
 20
-74.064847
 30
0.0
 11
162.839172
 21
-74.064847
 31
0.0
  0
LINE
  5
252
100
AcDbEntity
  8
0
370
    -3
  6
CENTER
100
AcDbLine
 10
154.558149
 20
-64.064847
 30
0.0
 11
167.359803
 21
-64.064847
 31
0.0
  0
INSERT
  5
25E
100
AcDbEntity
  8
0
100
AcDbBlockReference
  2
ZU_SYM__USERS_HOME_SYMBOL_POO_SYM_B20_-1
 10
158.339172
 20
-89.064847
 30
0.0
  0
LINE
  5
25F
100
AcDbEntity
  8
0
370
    -3
  6
Continuous
100
AcDbLine
 10
158.339172
 20
-99.064847
 30
0.0
 11
162.839172
 21
-99.064847
 31
0.0
  0
LINE
  5
260
100
AcDbEntity
  8
0
370
    -3
  6
CENTER
100
AcDbLine
 10
148.630496
 20
-89.064847
 30
0.0
 11
168.930218
 21
-89.064847
 31
0.0
  0
LINE
  5
261
100
AcDbEntity
  8
0
370
    -3
  6
Continuous
100
AcDbLine
 10
161.839172
 20
-174.064847
 30
0.0
 11
161.839172
 21
-102.564847
 31
0.0
  0
LINE
  5
262
100
AcDbEntity
  8
0
370
    -3
  6
Continuous
100
AcDbLine
 10
161.839172
 20
-174.064847
 30
0.0
 11
161.839172
 21
-244.064847
 31
0.0
  0
LINE
  5
263
100
AcDbEntity
  8
0
370
    -3
  6
Continuous
100
AcDbLine
 10
161.839172
 20
-174.064847
 30
0.0
 11
161.839172
 21
-102.564847
 31
0.0
  0
LINE
  5
264
100
AcDbEntity
  8
0
370
    -3
  6
Continuous
100
AcDbLine
 10
161.839172
 20
-174.064847
 30
0.0
 11
161.839172
 21
-245.564847
 31
0.0
  0
LINE
  5
265
100
AcDbEntity
  8
0
370
    -3
  6
Continuous
100
AcDbLine
 10
161.839172
 20
-174.064847
 30
0.0
 11
161.839172
 21
-102.564847
 31
0.0
  0
LINE
  5
266
100
AcDbEntity
  8
0
370
    -3
  6
Continuous
100
AcDbLine
 10
161.839172
 20
-174.064847
 30
0.0
 11
161.839172
 21
-244.064847
 31
0.0
  0
LINE
  5
267
100
AcDbEntity
  8
0
370
    -3
  6
Continuous
100
AcDbLine
 10
161.839172
 20
-174.064847
 30
0.0
 11
161.839172
 21
-102.564847
 31
0.0
  0
LINE
  5
268
100
AcDbEntity
  8
0
370
    -3
  6
Continuous
100
AcDbLine
 10
161.839172
 20
-174.064847
 30
0.0
 11
161.839172
 21
-245.564847
 31
0.0
  0
LINE
  5
269
100
AcDbEntity
  8
0
370
    -3
  6
Continuous
100
AcDbLine
 10
161.839172
 20
-174.064847
 30
0.0
 11
161.839172
 21
-245.564847
 31
0.0
  0
LINE
  5
26A
100
AcDbEntity
  8
0
370
    -3
  6
Continuous
100
AcDbLine
 10
161.839172
 20
-174.064847
 30
0.0
 11
161.839172
 21
-102.564847
 31
0.0
  0
LINE
  5
26B
100
AcDbEntity
  8
0
370
    -3
  6
Continuous
100
AcDbLine
 10
161.839172
 20
-174.064847
 30
0.0
 11
161.839172
 21
-104.064847
 31
0.0
  0
LINE
  5
26C
100
AcDbEntity
  8
0
370
    -3
  6
Continuous
100
AcDbLine
 10
161.839172
 20
-174.064847
 30
0.0
 11
161.839172
 21
-245.564847
 31
0.0
  0
LINE
  5
26D
100
AcDbEntity
  8
0
370
    -3
  6
Continuous
100
AcDbLine
 10
161.839172
 20
-174.064847
 30
0.0
 11
161.839172
 21
-102.564847
 31
0.0
  0
LINE
  5
26E
100
AcDbEntity
  8
0
370
    -3
  6
Continuous
100
AcDbLine
 10
161.839172
 20
-174.064847
 30
0.0
 11
161.839172
 21
-244.064847
 31
0.0
  0
LINE
  5
26F
100
AcDbEntity
  8
0
370
    -3
  6
Continuous
100
AcDbLine
 10
161.839172
 20
-174.064847
 30
0.0
 11
161.839172
 21
-102.564847
 31
0.0
  0
LINE
  5
270
100
AcDbEntity
  8
0
370
    -3
  6
Continuous
100
AcDbLine
 10
161.839172
 20
-174.064847
 30
0.0
 11
161.839172
 21
-245.564847
 31
0.0
  0
LINE
  5
271
100
AcDbEntity
  8
0
370
    -3
  6
Continuous
100
AcDbLine
 10
161.839172
 20
-174.064847
 30
0.0
 11
161.839172
 21
-102.564847
 31
0.0
  0
LINE
  5
272
100
AcDbEntity
  8
0
370
    -3
  6
Continuous
100
AcDbLine
 10
161.839172
 20
-174.064847
 30
0.0
 11
161.839172
 21
-244.064847
 31
0.0
  0
LINE
  5
273
100
AcDbEntity
  8
0
370
    -3
  6
Continuous
100
AcDbLine
 10
161.839172
 20
-174.064847
 30
0.0
 11
161.839172
 21
-102.564847
 31
0.0
  0
LINE
  5
274
100
AcDbEntity
  8
0
370
    -3
  6
Continuous
100
AcDbLine
 10
161.839172
 20
-174.064847
 30
0.0
 11
161.839172
 21
-245.564847
 31
0.0
  0
LINE
  5
275
100
AcDbEntity
  8
0
370
    -3
  6
Continuous
100
AcDbLine
 10
161.839172
 20
-174.064847
 30
0.0
 11
161.839172
 21
-102.564847
 31
0.0
  0
LINE
  5
276
100
AcDbEntity
  8
0
370
    -3
  6
Continuous
100
AcDbLine
 10
161.839172
 20
-174.064847
 30
0.0
 11
161.839172
 21
-244.064847
 31
0.0
  0
LINE
  5
277
100
AcDbEntity
  8
0
370
    -3
  6
Continuous
100
AcDbLine
 10
161.839172
 20
-174.064847
 30
0.0
 11
161.839172
 21
-102.564847
 31
0.0
  0
LINE
  5
278
100
AcDbEntity
  8
0
370
    -3
  6
Continuous
100
AcDbLine
 10
161.839172
 20
-174.064847
 30
0.0
 11
161.839172
 21
-245.564847
 31
0.0
  0
LINE
  5
279
100
AcDbEntity
  8
0
370
    -3
  6
Continuous
100
AcDbLine
 10
161.839172
 20
-174.064847
 30
0.0
 11
161.839172
 21
-245.564847
 31
0.0
  0
LINE
  5
27A
100
AcDbEntity
  8
0
370
    -3
  6
Continuous
100
AcDbLine
 10
161.839172
 20
-174.064847
 30
0.0
 11
161.839172
 21
-102.564847
 31
0.0
  0
LINE
  5
27B
100
AcDbEntity
  8
0
370
    -3
  6
Continuous
100
AcDbLine
 10
161.839172
 20
-174.064847
 30
0.0
 11
161.839172
 21
-104.064847
 31
0.0
  0
LINE
  5
27C
100
AcDbEntity
  8
0
370
    -3
  6
Continuous
100
AcDbLine
 10
161.839172
 20
-174.064847
 30
0.0
 11
161.839172
 21
-245.564847
 31
0.0
  0
LINE
  5
27D
100
AcDbEntity
  8
0
370
    -3
  6
Continuous
100
AcDbLine
 10
147.100852
 20
-205.039601
 30
0.0
 11
90.339172
 21
-202.064847
 31
0.0
  0
LINE
  5
27E
100
AcDbEntity
  8
0
370
    -3
  6
Continuous
100
AcDbLine
 10
90.339172
 20
-143.564847
 30
0.0
 11
90.339172
 21
-202.064847
 31
0.0
  0
ARC
  5
27F
100
AcDbEntity
  8
0
370
    -3
  6
Continuous
100
AcDbCircle
 10
104.339172
 20
-89.338
 30
0.0
 40
5.0
100
AcDbArc
 50
360.0
 51
93.0
  0
LINE
  5
280
100
AcDbEntity
  8
0
370
    -3
  6
Continuous
100
AcDbLine
 10
109.339172
 20
-99.564847
 30
0.0
 11
109.339172
 21
-89.338
 31
0.0
  0
LINE
  5
281
100
AcDbEntity
  8
0
370
    -3
  6
Continuous
100
AcDbLine
 10
109.339172
 20
-143.564847
 30
0.0
 11
109.339172
 21
-99.564847
 31
0.0
  0
LINE
  5
282
100
AcDbEntity
  8
0
370
    -3
  6
Continuous
100
AcDbLine
 10
104.077492
 20
-84.344852
 30
0.0
 11
90.339172
 21
-85.064847
 31
0.0
  0
LINE
  5
283
100
AcDbEntity
  8
0
370
    -3
  6
Continuous
100
AcDbLine
 10
161.839172
 20
-174.064847
 30
0.0
 11
161.839172
 21
-102.564847
 31
0.0
  0
LINE
  5
284
100
AcDbEntity
  8
0
370
    -3
  6
Continuous
100
AcDbLine
 10
161.839172
 20
-174.064847
 30
0.0
 11
161.839172
 21
-244.064847
 31
0.0
  0
LINE
  5
285
100
AcDbEntity
  8
0
370
    -3
  6
Continuous
100
AcDbLine
 10
161.839172
 20
-174.064847
 30
0.0
 11
161.839172
 21
-102.564847
 31
0.0
  0
LINE
  5
286
100
AcDbEntity
  8
0
370
    -3
  6
Continuous
100
AcDbLine
 10
161.839172
 20
-174.064847
 30
0.0
 11
161.839172
 21
-245.564847
 31
0.0
  0
LINE
  5
287
100
AcDbEntity
  8
0
370
    -3
  6
Continuous
100
AcDbLine
 10
161.839172
 20
-174.064847
 30
0.0
 11
161.839172
 21
-102.564847
 31
0.0
  0
LINE
  5
288
100
AcDbEntity
  8
0
370
    -3
  6
Continuous
100
AcDbLine
 10
161.839172
 20
-174.064847
 30
0.0
 11
161.839172
 21
-244.064847
 31
0.0
  0
LINE
  5
289
100
AcDbEntity
  8
0
370
    -3
  6
Continuous
100
AcDbLine
 10
161.839172
 20
-174.064847
 30
0.0
 11
161.839172
 21
-102.564847
 31
0.0
  0
LINE
  5
28A
100
AcDbEntity
  8
0
370
    -3
  6
Continuous
100
AcDbLine
 10
161.839172
 20
-174.064847
 30
0.0
 11
161.839172
 21
-245.564847
 31
0.0
  0
LINE
  5
28B
100
AcDbEntity
  8
0
370
    -3
  6
Continuous
100
AcDbLine
 10
161.839172
 20
-174.064847
 30
0.0
 11
161.839172
 21
-245.564847
 31
0.0
  0
LINE
  5
28C
100
AcDbEntity
  8
0
370
    -3
  6
Continuous
100
AcDbLine
 10
161.839172
 20
-174.064847
 30
0.0
 11
161.839172
 21
-102.564847
 31
0.0
  0
LINE
  5
28D
100
AcDbEntity
  8
0
370
    -3
  6
Continuous
100
AcDbLine
 10
161.839172
 20
-174.064847
 30
0.0
 11
161.839172
 21
-104.064847
 31
0.0
  0
LINE
  5
28E
100
AcDbEntity
  8
0
370
    -3
  6
Continuous
100
AcDbLine
 10
161.839172
 20
-174.064847
 30
0.0
 11
161.839172
 21
-245.564847
 31
0.0
  0
LINE
  5
28F
100
AcDbEntity
  8
0
370
    -3
  6
Continuous
100
AcDbLine
 10
90.339172
 20
-85.564847
 30
0.0
 11
90.339172
 21
-86.314847
 31
0.0
  0
LINE
  5
290
100
AcDbEntity
  8
0
370
    -3
  6
Continuous
100
AcDbLine
 10
90.339172
 20
-202.564847
 30
0.0
 11
90.339172
 21
-201.814847
 31
0.0
  0
POINT
  5
291
100
AcDbEntity
  8
0
370
    -3
  6
DASHED
100
AcDbPoint
 10
347.839172
 20
-109.951151
 30
0.0
  0
CIRCLE
  5
292
100
AcDbEntity
  8
0
370
    -3
  6
Continuous
100
AcDbCircle
 10
347.839172
 20
-130.064847
 30
0.0
 40
3.5
  0
CIRCLE
  5
293
100
AcDbEntity
  8
0
370
    -3
  6
Continuous
100
AcDbCircle
 10
347.839172
 20
-130.064847
 30
0.0
 40
4.0
  0
LINE
  5
294
100
AcDbEntity
  8
0
370
    -3
  6
CENTER
100
AcDbLine
 10
238.839172
 20
-235.586321
 30
0.0
 11
238.839172
 21
-252.425895
 31
0.0
  0
LINE
  5
295
100
AcDbEntity
  8
0
370
    -3
  6
CENTER
100
AcDbLine
 10
394.839172
 20
-235.586321
 30
0.0
 11
394.839172
 21
-254.327626
 31
0.0
  0
LINE
  5
296
100
AcDbEntity
  8
0
370
    -3
  6
CENTER
100
AcDbLine
 10
405.070276
 20
-244.064847
 30
0.0
 11
386.343584
 21
-244.064847
 31
0.0
  0
LINE
  5
297
100
AcDbEntity
  8
0
370
    -3
  6
CENTER
100
AcDbLine
 10
247.839172
 20
-53.064847
 30
0.0
 11
228.775662
 21
-53.064847
 31
0.0
  0
LINE
  5
298
100
AcDbEntity
  8
0
370
    -3
  6
CENTER
100
AcDbLine
 10
403.839172
 20
-53.064847
 30
0.0
 11
384.775662
 21
-53.064847
 31
0.0
  0
LINE
  5
299
100
AcDbEntity
  8
0
370
    -3
  6
CENTER
100
AcDbLine
 10
394.839172
 20
-44.586321
 30
0.0
 11
394.839172
 21
-63.327626
 31
0.0
  0
LINE
  5
29A
100
AcDbEntity
  8
0
370
    -3
  6
CENTER
100
AcDbLine
 10
238.839172
 20
-44.064847
 30
0.0
 11
238.839172
 21
-63.949266
 31
0.0
  0
CIRCLE
  5
29B
100
AcDbEntity
  8
0
370
    -3
  6
Continuous
100
AcDbCircle
 10
347.839172
 20
-130.064847
 30
0.0
 40
64.5
  0
CIRCLE
  5
29C
100
AcDbEntity
  8
0
370
    -3
  6
Continuous
100
AcDbCircle
 10
347.839172
 20
-130.064847
 30
0.0
 40
66.0
  0
CIRCLE
  5
29D
100
AcDbEntity
  8
0
370
    -3
  6
Continuous
100
AcDbCircle
 10
238.839172
 20
-53.064847
 30
0.0
 40
4.5
  0
CIRCLE
  5
29E
100
AcDbEntity
  8
0
370
    -3
  6
Continuous
100
AcDbCircle
 10
238.839172
 20
-53.064847
 30
0.0
 40
7.0
  0
CIRCLE
  5
29F
100
AcDbEntity
  8
0
370
    -3
  6
Continuous
100
AcDbCircle
 10
394.839172
 20
-53.064847
 30
0.0
 40
7.0
  0
CIRCLE
  5
2A0
100
AcDbEntity
  8
0
370
    -3
  6
Continuous
100
AcDbCircle
 10
394.839172
 20
-53.064847
 30
0.0
 40
4.5
  0
ARC
  5
2A1
100
AcDbEntity
  8
0
370
    -3
  6
Continuous
100
AcDbCircle
 10
206.839172
 20
-53.064847
 30
0.0
 40
10.0
100
AcDbArc
 50
90.0
 51
180.0
  0
ARC
  5
2A2
100
AcDbEntity
  8
0
370
    -3
  6
Continuous
100
AcDbCircle
 10
206.839172
 20
-53.064847
 30
0.0
 40
9.0
100
AcDbArc
 50
90.0
 51
180.0
  0
LINE
  5
2A3
100
AcDbEntity
  8
0
370
    -3
  6
Continuous
100
AcDbLine
 10
434.839172
 20
-53.064847
 30
0.0
 11
434.839172
 21
-244.064847
 31
0.0
  0
LINE
  5
2A4
100
AcDbEntity
  8
0
370
    -3
  6
Continuous
100
AcDbLine
 10
433.839172
 20
-53.064847
 30
0.0
 11
433.839172
 21
-244.064847
 31
0.0
  0
ARC
  5
2A5
100
AcDbEntity
  8
0
370
    -3
  6
Continuous
100
AcDbCircle
 10
424.839172
 20
-53.064847
 30
0.0
 40
10.0
100
AcDbArc
 50
0.0
 51
90.0
  0
ARC
  5
2A6
100
AcDbEntity
  8
0
370
    -3
  6
Continuous
100
AcDbCircle
 10
424.839172
 20
-53.064847
 30
0.0
 40
9.0
100
AcDbArc
 50
0.0
 51
90.0
  0
LINE
  5
2A7
100
AcDbEntity
  8
0
370
    -3
  6
Continuous
100
AcDbLine
 10
424.839172
 20
-43.064847
 30
0.0
 11
206.839172
 21
-43.064847
 31
0.0
  0
LINE
  5
2A8
100
AcDbEntity
  8
0
370
    -3
  6
Continuous
100
AcDbLine
 10
206.839172
 20
-44.064847
 30
0.0
 11
424.839172
 21
-44.064847
 31
0.0
  0
ARC
  5
2A9
100
AcDbEntity
  8
0
370
    -3
  6
Continuous
100
AcDbCircle
 10
257.594172
 20
-64.564847
 30
0.0
 40
10.0
100
AcDbArc
 50
90.0
 51
148.48463
  0
ARC
  5
2AA
100
AcDbEntity
  8
0
370
    -3
  6
Continuous
100
AcDbCircle
 10
218.339172
 20
-91.027324
 30
0.0
 40
10.0
100
AcDbArc
 50
92.865984
 51
180.0
  0
ARC
  5
2AB
100
AcDbEntity
  8
0
370
    -3
  6
Continuous
100
AcDbCircle
 10
243.645891
 20
-74.533323
 30
0.0
 40
10.0
100
AcDbArc
 50
102.620195
 51
153.323715
  0
ARC
  5
2AC
100
AcDbEntity
  8
0
370
    -3
  6
Continuous
100
AcDbCircle
 10
216.839172
 20
-61.064847
 30
0.0
 40
20.0
100
AcDbArc
 50
272.865984
 51
333.323715
  0
ARC
  5
2AD
100
AcDbEntity
  8
0
370
    -3
  6
Continuous
100
AcDbCircle
 10
238.839172
 20
-53.064847
 30
0.0
 40
12.0
100
AcDbArc
 50
282.620195
 51
328.48463
  0
ARC
  5
2AE
100
AcDbEntity
  8
0
370
    -3
  6
Continuous
100
AcDbCircle
 10
257.594172
 20
-64.564847
 30
0.0
 40
8.5
100
AcDbArc
 50
90.0
 51
148.48463
  0
ARC
  5
2AF
100
AcDbEntity
  8
0
370
    -3
  6
Continuous
100
AcDbCircle
 10
238.839172
 20
-53.064847
 30
0.0
 40
13.5
100
AcDbArc
 50
282.620195
 51
328.48463
  0
ARC
  5
2B0
100
AcDbEntity
  8
0
370
    -3
  6
Continuous
100
AcDbCircle
 10
243.645891
 20
-74.533323
 30
0.0
 40
8.5
100
AcDbArc
 50
102.620195
 51
153.323715
  0
ARC
  5
2B1
100
AcDbEntity
  8
0
370
    -3
  6
Continuous
100
AcDbCircle
 10
216.839172
 20
-61.064847
 30
0.0
 40
21.5
100
AcDbArc
 50
272.865984
 51
333.323715
  0
ARC
  5
2B2
100
AcDbEntity
  8
0
370
    -3
  6
Continuous
100
AcDbCircle
 10
218.339172
 20
-91.027324
 30
0.0
 40
8.5
100
AcDbArc
 50
92.865984
 51
180.0
  0
ARC
  5
2B3
100
AcDbEntity
  8
0
370
    -3
  6
Continuous
100
AcDbCircle
 10
390.032454
 20
-74.533323
 30
0.0
 40
10.0
100
AcDbArc
 50
26.676285
 51
77.379805
  0
ARC
  5
2B4
100
AcDbEntity
  8
0
370
    -3
  6
Continuous
100
AcDbCircle
 10
390.032454
 20
-74.533323
 30
0.0
 40
8.5
100
AcDbArc
 50
26.676285
 51
77.379805
  0
ARC
  5
2B5
100
AcDbEntity
  8
0
370
    -3
  6
Continuous
100
AcDbCircle
 10
394.839172
 20
-53.064847
 30
0.0
 40
12.0
100
AcDbArc
 50
211.51537
 51
257.379805
  0
ARC
  5
2B6
100
AcDbEntity
  8
0
370
    -3
  6
Continuous
100
AcDbCircle
 10
394.839172
 20
-53.064847
 30
0.0
 40
13.5
100
AcDbArc
 50
211.51537
 51
257.379805
  0
ARC
  5
2B7
100
AcDbEntity
  8
0
370
    -3
  6
Continuous
100
AcDbCircle
 10
376.084173
 20
-64.564847
 30
0.0
 40
10.0
100
AcDbArc
 50
31.51537
 51
90.0
  0
ARC
  5
2B8
100
AcDbEntity
  8
0
370
    -3
  6
Continuous
100
AcDbCircle
 10
376.084173
 20
-64.564847
 30
0.0
 40
8.5
100
AcDbArc
 50
31.51537
 51
90.0
  0
LINE
  5
2B9
100
AcDbEntity
  8
0
370
    -3
  6
Continuous
100
AcDbLine
 10
257.594172
 20
-56.064847
 30
0.0
 11
376.084173
 21
-56.064847
 31
0.0
  0
LINE
  5
2BA
100
AcDbEntity
  8
0
370
    -3
  6
Continuous
100
AcDbLine
 10
257.594172
 20
-54.564847
 30
0.0
 11
376.084173
 21
-54.564847
 31
0.0
  0
ARC
  5
2BB
100
AcDbEntity
  8
0
370
    -3
  6
Continuous
100
AcDbCircle
 10
416.839172
 20
-61.064847
 30
0.0
 40
20.0
100
AcDbArc
 50
206.676285
 51
263.300235
  0
ARC
  5
2BC
100
AcDbEntity
  8
0
370
    -3
  6
Continuous
100
AcDbCircle
 10
413.339172
 20
-90.859981
 30
0.0
 40
10.0
100
AcDbArc
 50
0.0
 51
83.300235
  0
ARC
  5
2BD
100
AcDbEntity
  8
0
370
    -3
  6
Continuous
100
AcDbCircle
 10
413.339172
 20
-90.859981
 30
0.0
 40
8.5
100
AcDbArc
 50
0.0
 51
83.300235
  0
ARC
  5
2BE
100
AcDbEntity
  8
0
370
    -3
  6
Continuous
100
AcDbCircle
 10
416.839172
 20
-61.064847
 30
0.0
 40
21.5
100
AcDbArc
 50
206.676285
 51
263.300235
  0
LINE
  5
2BF
100
AcDbEntity
  8
0
370
    -3
  6
Continuous
100
AcDbLine
 10
423.339172
 20
-90.859981
 30
0.0
 11
423.339172
 21
-206.269713
 31
0.0
  0
LINE
  5
2C0
100
AcDbEntity
  8
0
370
    -3
  6
Continuous
100
AcDbLine
 10
421.839172
 20
-90.859981
 30
0.0
 11
421.839172
 21
-206.269713
 31
0.0
  0
LINE
  5
2C1
100
AcDbEntity
  8
0
370
    -3
  6
Continuous
100
AcDbLine
 10
209.839172
 20
-91.027324
 30
0.0
 11
209.839172
 21
-206.102371
 31
0.0
  0
LINE
  5
2C2
100
AcDbEntity
  8
0
370
    -3
  6
Continuous
100
AcDbLine
 10
208.339172
 20
-91.027324
 30
0.0
 11
208.339172
 21
-206.102371
 31
0.0
  0
LINE
  5
2C3
100
AcDbEntity
  8
0
370
    -3
  6
CENTER
100
AcDbLine
 10
249.070276
 20
-244.064847
 30
0.0
 11
230.343584
 21
-244.064847
 31
0.0
  0
CIRCLE
  5
2C4
100
AcDbEntity
  8
0
370
    -3
  6
Continuous
100
AcDbCircle
 10
238.839172
 20
-244.064847
 30
0.0
 40
7.0
  0
CIRCLE
  5
2C5
100
AcDbEntity
  8
0
370
    -3
  6
Continuous
100
AcDbCircle
 10
394.839172
 20
-244.064847
 30
0.0
 40
4.5
  0
LINE
  5
2C6
100
AcDbEntity
  8
0
370
    -3
  6
Continuous
100
AcDbLine
 10
424.839172
 20
-254.064847
 30
0.0
 11
206.839172
 21
-254.064847
 31
0.0
  0
LINE
  5
2C7
100
AcDbEntity
  8
0
370
    -3
  6
Continuous
100
AcDbLine
 10
424.839172
 20
-253.064847
 30
0.0
 11
206.839172
 21
-253.064847
 31
0.0
  0
ARC
  5
2C8
100
AcDbEntity
  8
0
370
    -3
  6
Continuous
100
AcDbCircle
 10
424.839172
 20
-244.064847
 30
0.0
 40
10.0
100
AcDbArc
 50
270.0
 51
0.0
  0
ARC
  5
2C9
100
AcDbEntity
  8
0
370
    -3
  6
Continuous
100
AcDbCircle
 10
424.839172
 20
-244.064847
 30
0.0
 40
9.0
100
AcDbArc
 50
270.0
 51
0.0
  0
CIRCLE
  5
2CA
100
AcDbEntity
  8
0
370
    -3
  6
Continuous
100
AcDbCircle
 10
238.839172
 20
-244.064847
 30
0.0
 40
4.4
  0
ARC
  5
2CB
100
AcDbEntity
  8
0
370
    -3
  6
Continuous
100
AcDbCircle
 10
376.084173
 20
-232.564847
 30
0.0
 40
10.0
100
AcDbArc
 50
270.0
 51
328.48463
  0
ARC
  5
2CC
100
AcDbEntity
  8
0
370
    -3
  6
Continuous
100
AcDbCircle
 10
376.084173
 20
-232.564847
 30
0.0
 40
8.5
100
AcDbArc
 50
270.0
 51
328.48463
  0
ARC
  5
2CD
100
AcDbEntity
  8
0
370
    -3
  6
Continuous
100
AcDbCircle
 10
394.839172
 20
-244.064847
 30
0.0
 40
12.0
100
AcDbArc
 50
102.620195
 51
148.48463
  0
ARC
  5
2CE
100
AcDbEntity
  8
0
370
    -3
  6
Continuous
100
AcDbCircle
 10
394.839172
 20
-244.064847
 30
0.0
 40
13.5
100
AcDbArc
 50
102.620195
 51
148.48463
  0
ARC
  5
2CF
100
AcDbEntity
  8
0
370
    -3
  6
Continuous
100
AcDbCircle
 10
390.032454
 20
-222.596371
 30
0.0
 40
8.5
100
AcDbArc
 50
282.620195
 51
333.323715
  0
ARC
  5
2D0
100
AcDbEntity
  8
0
370
    -3
  6
Continuous
100
AcDbCircle
 10
390.032454
 20
-222.596371
 30
0.0
 40
10.0
100
AcDbArc
 50
282.620195
 51
333.323715
  0
ARC
  5
2D1
100
AcDbEntity
  8
0
370
    -3
  6
Continuous
100
AcDbCircle
 10
416.839172
 20
-236.064847
 30
0.0
 40
20.0
100
AcDbArc
 50
96.699765
 51
153.323715
  0
ARC
  5
2D2
100
AcDbEntity
  8
0
370
    -3
  6
Continuous
100
AcDbCircle
 10
416.839172
 20
-236.064847
 30
0.0
 40
21.5
100
AcDbArc
 50
96.699765
 51
153.323715
  0
ARC
  5
2D3
100
AcDbEntity
  8
0
370
    -3
  6
Continuous
100
AcDbCircle
 10
413.339172
 20
-206.269713
 30
0.0
 40
10.0
100
AcDbArc
 50
276.699765
 51
0.0
  0
ARC
  5
2D4
100
AcDbEntity
  8
0
370
    -3
  6
Continuous
100
AcDbCircle
 10
413.339172
 20
-206.269713
 30
0.0
 40
8.5
100
AcDbArc
 50
276.699765
 51
0.0
  0
CIRCLE
  5
2D5
100
AcDbEntity
  8
0
370
    -3
  6
Continuous
100
AcDbCircle
 10
394.839172
 20
-244.064847
 30
0.0
 40
7.0
  0
ARC
  5
2D6
100
AcDbEntity
  8
0
370
    -3
  6
Continuous
100
AcDbCircle
 10
218.339172
 20
-206.102371
 30
0.0
 40
8.5
100
AcDbArc
 50
180.0
 51
267.134016
  0
ARC
  5
2D7
100
AcDbEntity
  8
0
370
    -3
  6
Continuous
100
AcDbCircle
 10
218.339172
 20
-206.102371
 30
0.0
 40
10.0
100
AcDbArc
 50
180.0
 51
267.134016
  0
ARC
  5
2D8
100
AcDbEntity
  8
0
370
    -3
  6
Continuous
100
AcDbCircle
 10
216.839172
 20
-236.064847
 30
0.0
 40
21.5
100
AcDbArc
 50
26.676285
 51
87.134016
  0
ARC
  5
2D9
100
AcDbEntity
  8
0
370
    -3
  6
Continuous
100
AcDbCircle
 10
216.839172
 20
-236.064847
 30
0.0
 40
20.0
100
AcDbArc
 50
26.676285
 51
87.134016
  0
ARC
  5
2DA
100
AcDbEntity
  8
0
370
    -3
  6
Continuous
100
AcDbCircle
 10
243.645891
 20
-222.596371
 30
0.0
 40
8.5
100
AcDbArc
 50
206.676285
 51
257.379805
  0
ARC
  5
2DB
100
AcDbEntity
  8
0
370
    -3
  6
Continuous
100
AcDbCircle
 10
243.645891
 20
-222.596371
 30
0.0
 40
10.0
100
AcDbArc
 50
206.676285
 51
257.379805
  0
ARC
  5
2DC
100
AcDbEntity
  8
0
370
    -3
  6
Continuous
100
AcDbCircle
 10
238.839172
 20
-244.064847
 30
0.0
 40
12.0
100
AcDbArc
 50
31.51537
 51
77.379805
  0
ARC
  5
2DD
100
AcDbEntity
  8
0
370
    -3
  6
Continuous
100
AcDbCircle
 10
238.839172
 20
-244.064847
 30
0.0
 40
13.5
100
AcDbArc
 50
31.51537
 51
77.379805
  0
ARC
  5
2DE
100
AcDbEntity
  8
0
370
    -3
  6
Continuous
100
AcDbCircle
 10
257.594172
 20
-232.564847
 30
0.0
 40
10.0
100
AcDbArc
 50
211.51537
 51
270.0
  0
ARC
  5
2DF
100
AcDbEntity
  8
0
370
    -3
  6
Continuous
100
AcDbCircle
 10
257.594172
 20
-232.564847
 30
0.0
 40
8.5
100
AcDbArc
 50
211.51537
 51
270.0
  0
LINE
  5
2E0
100
AcDbEntity
  8
0
370
    -3
  6
Continuous
100
AcDbLine
 10
376.084173
 20
-241.064847
 30
0.0
 11
257.594172
 21
-241.064847
 31
0.0
  0
LINE
  5
2E1
100
AcDbEntity
  8
0
370
    -3
  6
Continuous
100
AcDbLine
 10
376.084173
 20
-242.564847
 30
0.0
 11
257.594172
 21
-242.564847
 31
0.0
  0
POINT
  5
2E2
100
AcDbEntity
  8
0
370
    -3
  6
DASHED
100
AcDbPoint
 10
504.479072
 20
-109.951151
 30
0.0
  0
LINE
  5
2E3
100
AcDbEntity
  8
0
370
    -3
  6
CENTER
100
AcDbLine
 10
444.01354
 20
-130.064847
 30
0.0
 11
221.163457
 21
-130.064847
 31
0.0
  0
LINE
  5
2E4
100
AcDbEntity
  8
0
370
    -3
  6
CENTER
100
AcDbLine
 10
347.839172
 20
-35.745606
 30
0.0
 11
347.839172
 21
-261.449622
 31
0.0
  0
CIRCLE
  5
2E5
100
AcDbEntity
  8
0
370
    -3
  6
Continuous
100
AcDbCircle
 10
504.479072
 20
-130.064847
 30
0.0
 40
3.5
  0
CIRCLE
  5
2E6
100
AcDbEntity
  8
0
370
    -3
  6
Continuous
100
AcDbCircle
 10
504.479072
 20
-130.064847
 30
0.0
 40
4.0
  0
LINE
  5
2E7
100
AcDbEntity
  8
0
370
    -3
  6
CENTER
100
AcDbLine
 10
504.479072
 20
-103.537497
 30
0.0
 11
504.479072
 21
-153.537497
 31
0.0
  0
LINE
  5
2E8
100
AcDbEntity
  8
0
370
    -3
  6
CENTER
100
AcDbLine
 10
481.079717
 20
-130.064847
 30
0.0
 11
528.829717
 21
-130.064847
 31
0.0
  0
CIRCLE
  5
2E9
100
AcDbEntity
  8
0
370
    -3
  6
Continuous
100
AcDbCircle
 10
347.839172
 20
-130.064847
 30
0.0
 40
40.0
  0
LINE
  5
2EA
100
AcDbEntity
  8
0
370
    -3
  6
DASHED
100
AcDbLine
 10
158.339172
 20
-54.064847
 30
0.0
 11
162.839172
 21
-54.064847
 31
0.0
  0
LINE
  5
2EB
100
AcDbEntity
  8
0
370
    -3
  6
Continuous
100
AcDbLine
 10
158.339172
 20
-44.064847
 30
0.0
 11
162.839172
 21
-44.064847
 31
0.0
  0
LINE
  5
2EC
100
AcDbEntity
  8
0
370
    -3
  6
CENTER
100
AcDbLine
 10
135.37388
 20
-143.564847
 30
0.0
 11
-119.222232
 21
-143.564847
 31
0.0
  0
ARC
  5
2ED
100
AcDbEntity
  8
0
370
    -3
  6
DASHED
100
AcDbCircle
 10
683.679281
 20
-113.084444
 30
0.0
 40
25.6
100
AcDbArc
 50
135.0
 51
175.337794
  0
LINE
  5
2EE
100
AcDbEntity
  8
0
370
    -3
  6
DASHED
100
AcDbLine
 10
669.627773
 20
-90.932086
 30
0.0
 11
665.577348
 21
-94.982511
 31
0.0
  0
ARC
  5
2EF
100
AcDbEntity
  8
0
370
    -3
  6
DASHED
100
AcDbCircle
 10
698.336308
 20
-119.640621
 30
0.0
 40
40.6
100
AcDbArc
 50
92.946011
 51
135.0
  0
LINE
  5
2F0
100
AcDbEntity
  8
0
370
    -3
  6
DASHED
100
AcDbLine
 10
764.049204
 20
-90.932086
 30
0.0
 11
768.099629
 21
-94.982511
 31
0.0
  0
ARC
  5
2F1
100
AcDbEntity
  8
0
370
    -3
  6
DASHED
100
AcDbCircle
 10
749.997696
 20
-113.084444
 30
0.0
 40
25.6
100
AcDbArc
 50
4.662206
 51
45.0
  0
ARC
  5
2F2
100
AcDbEntity
  8
0
370
    -3
  6
DASHED
100
AcDbCircle
 10
735.340669
 20
-119.640621
 30
0.0
 40
40.6
100
AcDbArc
 50
45.0
 51
87.053989
  0
ARC
  5
2F3
100
AcDbEntity
  8
0
370
    -3
  6
DASHED
100
AcDbCircle
 10
376.238489
 20
-143.564847
 30
0.0
 40
400.6
100
AcDbArc
 50
0.0
 51
4.662206
  0
ARC
  5
2F4
100
AcDbEntity
  8
0
370
    -3
  6
DASHED
100
AcDbCircle
 10
376.238489
 20
-143.564847
 30
0.0
 40
400.6
100
AcDbArc
 50
355.337794
 51
0.0
  0
ARC
  5
2F5
100
AcDbEntity
  8
0
370
    -3
  6
DASHED
100
AcDbCircle
 10
749.997696
 20
-174.04525
 30
0.0
 40
25.6
100
AcDbArc
 50
315.0
 51
355.337794
  0
ARC
  5
2F6
100
AcDbEntity
  8
0
370
    -3
  6
DASHED
100
AcDbCircle
 10
735.340669
 20
-167.489074
 30
0.0
 40
40.6
100
AcDbArc
 50
272.946011
 51
315.0
  0
LINE
  5
2F7
100
AcDbEntity
  8
0
370
    -3
  6
DASHED
100
AcDbLine
 10
764.049204
 20
-196.197609
 30
0.0
 11
768.099629
 21
-192.147184
 31
0.0
  0
ARC
  5
2F8
100
AcDbEntity
  8
0
370
    -3
  6
DASHED
100
AcDbCircle
 10
716.838489
 20
-479.164847
 30
0.0
 40
400.6
100
AcDbArc
 50
90.0
 51
92.946011
  0
ARC
  5
2F9
100
AcDbEntity
  8
0
370
    -3
  6
DASHED
100
AcDbCircle
 10
716.838489
 20
-479.164847
 30
0.0
 40
400.6
100
AcDbArc
 50
87.053989
 51
90.0
  0
ARC
  5
2FA
100
AcDbEntity
  8
0
370
    -3
  6
DASHED
100
AcDbCircle
 10
1057.438489
 20
-143.564847
 30
0.0
 40
400.6
100
AcDbArc
 50
175.337794
 51
180.0
  0
ARC
  5
2FB
100
AcDbEntity
  8
0
370
    -3
  6
DASHED
100
AcDbCircle
 10
1057.438489
 20
-143.564847
 30
0.0
 40
400.6
100
AcDbArc
 50
180.0
 51
184.662206
  0
LINE
  5
2FC
100
AcDbEntity
  8
0
370
    -3
  6
DASHED
100
AcDbLine
 10
669.627773
 20
-196.197609
 30
0.0
 11
665.577348
 21
-192.147184
 31
0.0
  0
ARC
  5
2FD
100
AcDbEntity
  8
0
370
    -3
  6
DASHED
100
AcDbCircle
 10
683.679281
 20
-174.04525
 30
0.0
 40
25.6
100
AcDbArc
 50
184.662206
 51
225.0
  0
ARC
  5
2FE
100
AcDbEntity
  8
0
370
    -3
  6
DASHED
100
AcDbCircle
 10
698.336308
 20
-167.489074
 30
0.0
 40
40.6
100
AcDbArc
 50
225.0
 51
267.053989
  0
LINE
  5
2FF
100
AcDbEntity
  8
0
370
    -3
  6
CENTER
100
AcDbLine
 10
682.095731
 20
-143.564847
 30
0.0
 11
754.787398
 21
-143.564847
 31
0.0
  0
LINE
  5
300
100
AcDbEntity
  8
0
370
    -3
  6
CENTER
100
AcDbLine
 10
716.838489
 20
-30.69117
 30
0.0
 11
716.838489
 21
-264.266318
 31
0.0
  0
LINE
  5
301
100
AcDbEntity
  8
0
370
    -3
  6
CENTER
100
AcDbLine
 10
567.800949
 20
-130.064847
 30
0.0
 11
802.969029
 21
-130.064847
 31
0.0
  0
LINE
  5
302
100
AcDbEntity
  8
0
370
    -3
  6
Continuous
100
AcDbLine
 10
646.838489
 20
-130.064847
 30
0.0
 11
646.838489
 21
-44.524909
 31
0.0
  0
LINE
  5
303
100
AcDbEntity
  8
0
370
    -3
  6
Continuous
100
AcDbLine
 10
658.838489
 20
-130.064847
 30
0.0
 11
658.838489
 21
-43.064847
 31
0.0
  0
LINE
  5
304
100
AcDbEntity
  8
0
370
    -3
  6
Continuous
100
AcDbLine
 10
646.838489
 20
-130.064847
 30
0.0
 11
646.838489
 21
-252.604786
 31
0.0
  0
LINE
  5
305
100
AcDbEntity
  8
0
370
    -3
  6
Continuous
100
AcDbLine
 10
658.838489
 20
-130.064847
 30
0.0
 11
658.838489
 21
-254.064847
 31
0.0
  0
ARC
  5
306
100
AcDbEntity
  8
0
370
    -3
  6
Continuous
100
AcDbCircle
 10
717.338489
 20
-174.064846
 30
0.0
 40
74.0
100
AcDbArc
 50
197.502524
 51
197.69223
  0
LINE
  5
307
100
AcDbEntity
  8
0
370
    -3
  6
Continuous
100
AcDbLine
 10
646.838489
 20
-72.564847
 30
0.0
 11
642.238489
 21
-72.564847
 31
0.0
  0
LINE
  5
308
100
AcDbEntity
  8
0
370
    -3
  6
Continuous
100
AcDbLine
 10
641.838489
 20
-72.964847
 30
0.0
 11
642.238489
 21
-72.564847
 31
0.0
  0
LINE
  5
309
100
AcDbEntity
  8
0
370
    -3
  6
Continuous
100
AcDbLine
 10
641.838489
 20
-72.964847
 30
0.0
 11
641.838489
 21
-130.064847
 31
0.0
  0
LINE
  5
30A
100
AcDbEntity
  8
0
370
    -3
  6
Continuous
100
AcDbLine
 10
646.838489
 20
-187.564847
 30
0.0
 11
642.238489
 21
-187.564847
 31
0.0
  0
LINE
  5
30B
100
AcDbEntity
  8
0
370
    -3
  6
Continuous
100
AcDbLine
 10
641.838489
 20
-187.164847
 30
0.0
 11
642.238489
 21
-187.564847
 31
0.0
  0
LINE
  5
30C
100
AcDbEntity
  8
0
370
    -3
  6
Continuous
100
AcDbLine
 10
641.838489
 20
-187.164847
 30
0.0
 11
641.838489
 21
-130.064847
 31
0.0
  0
LINE
  5
30D
100
AcDbEntity
  8
0
370
    -3
  6
Continuous
100
AcDbLine
 10
629.838489
 20
-107.064847
 30
0.0
 11
574.838489
 21
-107.064847
 31
0.0
  0
LINE
  5
30E
100
AcDbEntity
  8
0
370
    -3
  6
Continuous
100
AcDbLine
 10
639.838489
 20
-110.064847
 30
0.0
 11
574.838489
 21
-110.064847
 31
0.0
  0
LINE
  5
30F
100
AcDbEntity
  8
0
370
    -3
  6
Continuous
100
AcDbLine
 10
639.838489
 20
-150.064847
 30
0.0
 11
574.838489
 21
-150.064847
 31
0.0
  0
LINE
  5
310
100
AcDbEntity
  8
0
370
    -3
  6
Continuous
100
AcDbLine
 10
629.838489
 20
-110.064847
 30
0.0
 11
629.838489
 21
-107.064847
 31
0.0
  0
LINE
  5
311
100
AcDbEntity
  8
0
370
    -3
  6
Continuous
100
AcDbLine
 10
639.838489
 20
-109.064847
 30
0.0
 11
639.838489
 21
-151.064847
 31
0.0
  0
LINE
  5
312
100
AcDbEntity
  8
0
370
    -3
  6
Continuous
100
AcDbLine
 10
641.838489
 20
-109.064847
 30
0.0
 11
639.838489
 21
-109.064847
 31
0.0
  0
LINE
  5
313
100
AcDbEntity
  8
0
370
    -3
  6
Continuous
100
AcDbLine
 10
641.838489
 20
-151.064847
 30
0.0
 11
639.838489
 21
-151.064847
 31
0.0
  0
ARC
  5
314
100
AcDbEntity
  8
0
370
    -3
  6
DASHED
100
AcDbCircle
 10
716.838489
 20
192.035153
 30
0.0
 40
400.6
100
AcDbArc
 50
267.053989
 51
270.0
  0
ARC
  5
315
100
AcDbEntity
  8
0
370
    -3
  6
DASHED
100
AcDbCircle
 10
716.838489
 20
192.035153
 30
0.0
 40
400.6
100
AcDbArc
 50
270.0
 51
272.946011
  0
LINE
  5
316
100
AcDbEntity
  8
0
370
    -3
  6
Continuous
100
AcDbLine
 10
786.838489
 20
-150.064846
 30
0.0
 11
786.838489
 21
-198.064846
 31
0.0
  0
LINE
  5
317
100
AcDbEntity
  8
0
370
    -3
  6
Continuous
100
AcDbLine
 10
786.838489
 20
-198.064846
 30
0.0
 11
786.838489
 21
-251.064847
 31
0.0
  0
LINE
  5
318
100
AcDbEntity
  8
0
370
    -3
  6
Continuous
100
AcDbLine
 10
786.838489
 20
-187.564847
 30
0.0
 11
791.438489
 21
-187.564847
 31
0.0
  0
LINE
  5
319
100
AcDbEntity
  8
0
370
    -3
  6
Continuous
100
AcDbLine
 10
791.838489
 20
-187.164847
 30
0.0
 11
791.438489
 21
-187.564847
 31
0.0
  0
LINE
  5
31A
100
AcDbEntity
  8
0
370
    -3
  6
Continuous
100
AcDbLine
 10
791.838489
 20
-187.164847
 30
0.0
 11
791.838489
 21
-130.064847
 31
0.0
  0
LINE
  5
31B
100
AcDbEntity
  8
0
370
    -3
  6
CENTER
100
AcDbLine
 10
642.385605
 20
-236.064847
 30
0.0
 11
789.883546
 21
-236.064847
 31
0.0
  0
LINE
  5
31C
100
AcDbEntity
  8
0
370
    -3
  6
Continuous
100
AcDbLine
 10
786.838489
 20
-46.064847
 30
0.0
 11
786.338489
 21
-45.564847
 31
0.0
  0
LINE
  5
31D
100
AcDbEntity
  8
0
370
    -3
  6
Continuous
100
AcDbLine
 10
786.838489
 20
-45.753923
 30
0.0
 11
786.838489
 21
-150.064846
 31
0.0
  0
LINE
  5
31E
100
AcDbEntity
  8
0
370
    -3
  6
Continuous
100
AcDbLine
 10
786.838489
 20
-251.064847
 30
0.0
 11
786.338489
 21
-251.564847
 31
0.0
  0
LINE
  5
31F
100
AcDbEntity
  8
0
370
    -3
  6
Continuous
100
AcDbLine
 10
786.338489
 20
-251.564847
 30
0.0
 11
777.838489
 21
-251.564847
 31
0.0
  0
LINE
  5
320
100
AcDbEntity
  8
0
370
    -3
  6
Continuous
100
AcDbLine
 10
658.838489
 20
-43.103309
 30
0.0
 11
647.335543
 21
-43.988151
 31
0.0
  0
LINE
  5
321
100
AcDbEntity
  8
0
370
    -3
  6
Continuous
100
AcDbLine
 10
647.335543
 20
-43.988151
 30
0.0
 11
646.838489
 21
-44.524909
 31
0.0
  0
LINE
  5
322
100
AcDbEntity
  8
0
370
    -3
  6
Continuous
100
AcDbLine
 10
646.838489
 20
-252.604786
 30
0.0
 11
647.335543
 21
-253.141544
 31
0.0
  0
LINE
  5
323
100
AcDbEntity
  8
0
370
    -3
  6
Continuous
100
AcDbLine
 10
658.838489
 20
-254.026386
 30
0.0
 11
647.335543
 21
-253.141544
 31
0.0
  0
LINE
  5
324
100
AcDbEntity
  8
0
370
    -3
  6
Continuous
100
AcDbLine
 10
786.838489
 20
-45.753923
 30
0.0
 11
658.838489
 21
-43.064847
 31
0.0
  0
LINE
  5
325
100
AcDbEntity
  8
0
370
    -3
  6
Continuous
100
AcDbLine
 10
777.838489
 20
-251.564847
 30
0.0
 11
658.838489
 21
-254.064847
 31
0.0
  0
LINE
  5
326
100
AcDbEntity
  8
0
370
    -3
  6
Continuous
100
AcDbLine
 10
646.838489
 20
-252.604786
 30
0.0
 11
647.335543
 21
-253.141544
 31
0.0
  0
LINE
  5
327
100
AcDbEntity
  8
0
370
    -3
  6
Continuous
100
AcDbLine
 10
647.335543
 20
-43.988151
 30
0.0
 11
646.838489
 21
-44.524909
 31
0.0
  0
LINE
  5
328
100
AcDbEntity
  8
0
370
    -3
  6
Continuous
100
AcDbLine
 10
786.838489
 20
-72.564847
 30
0.0
 11
791.438489
 21
-72.564847
 31
0.0
  0
LINE
  5
329
100
AcDbEntity
  8
0
370
    -3
  6
Continuous
100
AcDbLine
 10
791.838489
 20
-72.964847
 30
0.0
 11
791.438489
 21
-72.564847
 31
0.0
  0
LINE
  5
32A
100
AcDbEntity
  8
0
370
    -3
  6
Continuous
100
AcDbLine
 10
791.838489
 20
-72.964847
 30
0.0
 11
791.838489
 21
-130.064847
 31
0.0
  0
LINE
  5
32B
100
AcDbEntity
  8
0
370
    -3
  6
Continuous
100
AcDbLine
 10
574.838489
 20
-150.064847
 30
0.0
 11
574.838489
 21
-107.064847
 31
0.0
  0
LINE
  5
32C
100
AcDbEntity
  8
0
370
    -3
  6
CENTER
100
AcDbLine
 10
643.123095
 20
-61.064847
 30
0.0
 11
789.883546
 21
-61.064847
 31
0.0
  0
LINE
  5
32D
100
AcDbEntity
  8
0
370
    -3
  6
Continuous
100
AcDbLine
 10
90.339172
 20
134.959827
 30
0.0
 11
90.339172
 21
193.459827
 31
0.0
  0
LINE
  5
32E
100
AcDbEntity
  8
0
370
    -3
  6
Continuous
100
AcDbLine
 10
90.339172
 20
251.959827
 30
0.0
 11
90.339172
 21
193.459827
 31
0.0
  0
ARC
  5
32F
100
AcDbEntity
  8
0
370
    -3
  6
Continuous
100
AcDbCircle
 10
-328.660828
 20
-479.164847
 30
0.0
 40
400.6
100
AcDbArc
 50
90.0
 51
92.946011
  0
ARC
  5
330
100
AcDbEntity
  8
0
370
    -3
  6
Continuous
100
AcDbCircle
 10
-328.660828
 20
-479.164847
 30
0.0
 40
400.6
100
AcDbArc
 50
87.053989
 51
90.0
  0
ARC
  5
331
100
AcDbEntity
  8
0
370
    -3
  6
Continuous
100
AcDbCircle
 10
-329.779302
 20
-153.502101
 30
0.0
 40
1.5
100
AcDbArc
 50
83.578178
 51
150.0
  0
ARC
  5
332
100
AcDbEntity
  8
0
370
    -3
  6
Continuous
100
AcDbCircle
 10
-328.660828
 20
-143.564847
 30
0.0
 40
8.5
100
AcDbArc
 50
263.578178
 51
276.421822
  0
ARC
  5
333
100
AcDbEntity
  8
0
370
    -3
  6
Continuous
100
AcDbCircle
 10
-327.542354
 20
-153.502101
 30
0.0
 40
1.5
100
AcDbArc
 50
30.0
 51
96.421822
  0
LINE
  5
334
100
AcDbEntity
  8
0
370
    -3
  6
Continuous
100
AcDbLine
 10
-326.243316
 20
-152.752101
 30
0.0
 11
-324.641233
 21
-155.52699
 31
0.0
  0
ARC
  5
335
100
AcDbEntity
  8
0
370
    -3
  6
Continuous
100
AcDbCircle
 10
-325.940271
 20
-156.27699
 30
0.0
 40
1.5
100
AcDbArc
 50
282.079787
 51
30.0
  0
ARC
  5
336
100
AcDbEntity
  8
0
370
    -3
  6
Continuous
100
AcDbCircle
 10
-328.660828
 20
-143.564847
 30
0.0
 40
14.5
100
AcDbArc
 50
257.920213
 51
282.079787
  0
ARC
  5
337
100
AcDbEntity
  8
0
370
    -3
  6
Continuous
100
AcDbCircle
 10
-336.267521
 20
-164.740027
 30
0.0
 40
1.5
100
AcDbArc
 50
150.0
 51
250.240348
  0
LINE
  5
338
100
AcDbEntity
  8
0
370
    -3
  6
Continuous
100
AcDbLine
 10
-337.566559
 20
-163.990027
 30
0.0
 11
-336.038432
 21
-161.343232
 31
0.0
  0
ARC
  5
339
100
AcDbEntity
  8
0
370
    -3
  6
Continuous
100
AcDbCircle
 10
-334.739394
 20
-162.093232
 30
0.0
 40
1.5
100
AcDbArc
 50
71.837004
 51
150.0
  0
ARC
  5
33A
100
AcDbEntity
  8
0
370
    -3
  6
Continuous
100
AcDbCircle
 10
-328.660828
 20
-143.564847
 30
0.0
 40
18.0
100
AcDbArc
 50
251.837004
 51
288.162996
  0
ARC
  5
33B
100
AcDbEntity
  8
0
370
    -3
  6
Continuous
100
AcDbCircle
 10
-322.582262
 20
-162.093232
 30
0.0
 40
1.5
100
AcDbArc
 50
30.0
 51
108.162996
  0
LINE
  5
33C
100
AcDbEntity
  8
0
370
    -3
  6
Continuous
100
AcDbLine
 10
-321.283224
 20
-161.343232
 30
0.0
 11
-319.755096
 21
-163.990027
 31
0.0
  0
ARC
  5
33D
100
AcDbEntity
  8
0
370
    -3
  6
Continuous
100
AcDbCircle
 10
-321.054135
 20
-164.740027
 30
0.0
 40
1.5
100
AcDbArc
 50
289.759652
 51
30.0
  0
ARC
  5
33E
100
AcDbEntity
  8
0
370
    -3
  6
Continuous
100
AcDbCircle
 10
-328.660828
 20
-143.564847
 30
0.0
 40
24.0
100
AcDbArc
 50
250.240348
 51
289.759652
  0
ARC
  5
33F
100
AcDbEntity
  8
0
370
    -3
  6
Continuous
100
AcDbCircle
 10
-338.309588
 20
-152.27699
 30
0.0
 40
1.5
100
AcDbArc
 50
222.079787
 51
330.0
  0
LINE
  5
340
100
AcDbEntity
  8
0
370
    -3
  6
Continuous
100
AcDbLine
 10
-337.01055
 20
-153.02699
 30
0.0
 11
-335.408467
 21
-150.252101
 31
0.0
  0
ARC
  5
341
100
AcDbEntity
  8
0
370
    -3
  6
Continuous
100
AcDbCircle
 10
-336.707505
 20
-149.502101
 30
0.0
 40
1.5
100
AcDbArc
 50
330.0
 51
36.421822
  0
ARC
  5
342
100
AcDbEntity
  8
0
370
    -3
  6
Continuous
100
AcDbCircle
 10
-328.660828
 20
-143.564847
 30
0.0
 40
8.5
100
AcDbArc
 50
203.578178
 51
216.421822
  0
ARC
  5
343
100
AcDbEntity
  8
0
370
    -3
  6
Continuous
100
AcDbCircle
 10
-337.825979
 20
-147.564847
 30
0.0
 40
1.5
100
AcDbArc
 50
23.578178
 51
90.0
  0
LINE
  5
344
100
AcDbEntity
  8
0
370
    -3
  6
Continuous
100
AcDbLine
 10
-337.825979
 20
-146.064847
 30
0.0
 11
-341.030145
 21
-146.064847
 31
0.0
  0
ARC
  5
345
100
AcDbEntity
  8
0
370
    -3
  6
Continuous
100
AcDbCircle
 10
-341.030145
 20
-147.564847
 30
0.0
 40
1.5
100
AcDbArc
 50
90.0
 51
197.920213
  0
ARC
  5
346
100
AcDbEntity
  8
0
370
    -3
  6
Continuous
100
AcDbCircle
 10
-328.660828
 20
-143.564847
 30
0.0
 40
14.5
100
AcDbArc
 50
197.920213
 51
222.079787
  0
ARC
  5
347
100
AcDbEntity
  8
0
370
    -3
  6
Continuous
100
AcDbCircle
 10
-343.195724
 20
-160.740027
 30
0.0
 40
1.5
100
AcDbArc
 50
229.759652
 51
330.0
  0
LINE
  5
348
100
AcDbEntity
  8
0
370
    -3
  6
Continuous
100
AcDbLine
 10
-341.896686
 20
-161.490027
 30
0.0
 11
-340.368559
 21
-158.843232
 31
0.0
  0
ARC
  5
349
100
AcDbEntity
  8
0
370
    -3
  6
Continuous
100
AcDbCircle
 10
-341.667597
 20
-158.093232
 30
0.0
 40
1.5
100
AcDbArc
 50
330.0
 51
48.162996
  0
ARC
  5
34A
100
AcDbEntity
  8
0
370
    -3
  6
Continuous
100
AcDbCircle
 10
-328.660828
 20
-143.564847
 30
0.0
 40
18.0
100
AcDbArc
 50
191.837004
 51
228.162996
  0
ARC
  5
34B
100
AcDbEntity
  8
0
370
    -3
  6
Continuous
100
AcDbCircle
 10
-347.746162
 20
-147.564847
 30
0.0
 40
1.5
100
AcDbArc
 50
11.837004
 51
90.0
  0
LINE
  5
34C
100
AcDbEntity
  8
0
370
    -3
  6
Continuous
100
AcDbLine
 10
-347.746162
 20
-146.064847
 30
0.0
 11
-350.802418
 21
-146.064847
 31
0.0
  0
ARC
  5
34D
100
AcDbEntity
  8
0
370
    -3
  6
Continuous
100
AcDbCircle
 10
-350.802418
 20
-147.564847
 30
0.0
 40
1.5
100
AcDbArc
 50
90.0
 51
190.240348
  0
ARC
  5
34E
100
AcDbEntity
  8
0
370
    -3
  6
Continuous
100
AcDbCircle
 10
-328.660828
 20
-143.564847
 30
0.0
 40
24.0
100
AcDbArc
 50
190.240348
 51
229.759652
  0
ARC
  5
34F
100
AcDbEntity
  8
0
370
    -3
  6
Continuous
100
AcDbCircle
 10
-338.309588
 20
-134.852705
 30
0.0
 40
1.5
100
AcDbArc
 50
30.0
 51
137.920213
  0
LINE
  5
350
100
AcDbEntity
  8
0
370
    -3
  6
Continuous
100
AcDbLine
 10
-337.01055
 20
-134.102705
 30
0.0
 11
-335.408467
 21
-136.877593
 31
0.0
  0
ARC
  5
351
100
AcDbEntity
  8
0
370
    -3
  6
Continuous
100
AcDbCircle
 10
-336.707505
 20
-137.627593
 30
0.0
 40
1.5
100
AcDbArc
 50
323.578178
 51
30.0
  0
ARC
  5
352
100
AcDbEntity
  8
0
370
    -3
  6
Continuous
100
AcDbCircle
 10
-328.660828
 20
-143.564847
 30
0.0
 40
8.5
100
AcDbArc
 50
143.578178
 51
156.421822
  0
ARC
  5
353
100
AcDbEntity
  8
0
370
    -3
  6
Continuous
100
AcDbCircle
 10
-337.825979
 20
-139.564847
 30
0.0
 40
1.5
100
AcDbArc
 50
270.0
 51
336.421822
  0
LINE
  5
354
100
AcDbEntity
  8
0
370
    -3
  6
Continuous
100
AcDbLine
 10
-337.825979
 20
-141.064847
 30
0.0
 11
-341.030145
 21
-141.064847
 31
0.0
  0
ARC
  5
355
100
AcDbEntity
  8
0
370
    -3
  6
Continuous
100
AcDbCircle
 10
-341.030145
 20
-139.564847
 30
0.0
 40
1.5
100
AcDbArc
 50
162.079787
 51
270.0
  0
ARC
  5
356
100
AcDbEntity
  8
0
370
    -3
  6
Continuous
100
AcDbCircle
 10
-328.660828
 20
-143.564847
 30
0.0
 40
14.5
100
AcDbArc
 50
137.920213
 51
162.079787
  0
ARC
  5
357
100
AcDbEntity
  8
0
370
    -3
  6
Continuous
100
AcDbCircle
 10
-343.195724
 20
-126.389668
 30
0.0
 40
1.5
100
AcDbArc
 50
30.0
 51
130.240348
  0
LINE
  5
358
100
AcDbEntity
  8
0
370
    -3
  6
Continuous
100
AcDbLine
 10
-341.896686
 20
-125.639668
 30
0.0
 11
-340.368559
 21
-128.286463
 31
0.0
  0
ARC
  5
359
100
AcDbEntity
  8
0
370
    -3
  6
Continuous
100
AcDbCircle
 10
-341.667597
 20
-129.036463
 30
0.0
 40
1.5
100
AcDbArc
 50
311.837004
 51
30.0
  0
ARC
  5
35A
100
AcDbEntity
  8
0
370
    -3
  6
Continuous
100
AcDbCircle
 10
-328.660828
 20
-143.564847
 30
0.0
 40
18.0
100
AcDbArc
 50
131.837004
 51
168.162996
  0
ARC
  5
35B
100
AcDbEntity
  8
0
370
    -3
  6
Continuous
100
AcDbCircle
 10
-347.746162
 20
-139.564847
 30
0.0
 40
1.5
100
AcDbArc
 50
270.0
 51
348.162996
  0
LINE
  5
35C
100
AcDbEntity
  8
0
370
    -3
  6
Continuous
100
AcDbLine
 10
-347.746162
 20
-141.064847
 30
0.0
 11
-350.802418
 21
-141.064847
 31
0.0
  0
ARC
  5
35D
100
AcDbEntity
  8
0
370
    -3
  6
Continuous
100
AcDbCircle
 10
-350.802418
 20
-139.564847
 30
0.0
 40
1.5
100
AcDbArc
 50
169.759652
 51
270.0
  0
ARC
  5
35E
100
AcDbEntity
  8
0
370
    -3
  6
Continuous
100
AcDbCircle
 10
-328.660828
 20
-143.564847
 30
0.0
 40
24.0
100
AcDbArc
 50
130.240348
 51
169.759652
  0
ARC
  5
35F
100
AcDbEntity
  8
0
370
    -3
  6
Continuous
100
AcDbCircle
 10
-316.291511
 20
-147.564847
 30
0.0
 40
1.5
100
AcDbArc
 50
342.079787
 51
90.0
  0
LINE
  5
360
100
AcDbEntity
  8
0
370
    -3
  6
Continuous
100
AcDbLine
 10
-316.291511
 20
-146.064847
 30
0.0
 11
-319.495676
 21
-146.064847
 31
0.0
  0
ARC
  5
361
100
AcDbEntity
  8
0
370
    -3
  6
Continuous
100
AcDbCircle
 10
-319.495676
 20
-147.564847
 30
0.0
 40
1.5
100
AcDbArc
 50
90.0
 51
156.421822
  0
ARC
  5
362
100
AcDbEntity
  8
0
370
    -3
  6
Continuous
100
AcDbCircle
 10
-328.660828
 20
-143.564847
 30
0.0
 40
8.5
100
AcDbArc
 50
323.578178
 51
336.421822
  0
ARC
  5
363
100
AcDbEntity
  8
0
370
    -3
  6
Continuous
100
AcDbCircle
 10
-320.61415
 20
-149.502101
 30
0.0
 40
1.5
100
AcDbArc
 50
143.578178
 51
210.0
  0
LINE
  5
364
100
AcDbEntity
  8
0
370
    -3
  6
Continuous
100
AcDbLine
 10
-321.913189
 20
-150.252101
 30
0.0
 11
-320.311106
 21
-153.02699
 31
0.0
  0
ARC
  5
365
100
AcDbEntity
  8
0
370
    -3
  6
Continuous
100
AcDbCircle
 10
-319.012068
 20
-152.27699
 30
0.0
 40
1.5
100
AcDbArc
 50
210.0
 51
317.920213
  0
ARC
  5
366
100
AcDbEntity
  8
0
370
    -3
  6
Continuous
100
AcDbCircle
 10
-328.660828
 20
-143.564847
 30
0.0
 40
14.5
100
AcDbArc
 50
317.920213
 51
342.079787
  0
ARC
  5
367
100
AcDbEntity
  8
0
370
    -3
  6
Continuous
100
AcDbCircle
 10
-306.519238
 20
-147.564847
 30
0.0
 40
1.5
100
AcDbArc
 50
349.759652
 51
90.0
  0
LINE
  5
368
100
AcDbEntity
  8
0
370
    -3
  6
Continuous
100
AcDbLine
 10
-306.519238
 20
-146.064847
 30
0.0
 11
-309.575493
 21
-146.064847
 31
0.0
  0
ARC
  5
369
100
AcDbEntity
  8
0
370
    -3
  6
Continuous
100
AcDbCircle
 10
-309.575493
 20
-147.564847
 30
0.0
 40
1.5
100
AcDbArc
 50
90.0
 51
168.162996
  0
ARC
  5
36A
100
AcDbEntity
  8
0
370
    -3
  6
Continuous
100
AcDbCircle
 10
-328.660828
 20
-143.564847
 30
0.0
 40
18.0
100
AcDbArc
 50
311.837004
 51
348.162996
  0
ARC
  5
36B
100
AcDbEntity
  8
0
370
    -3
  6
Continuous
100
AcDbCircle
 10
-315.654059
 20
-158.093232
 30
0.0
 40
1.5
100
AcDbArc
 50
131.837004
 51
210.0
  0
LINE
  5
36C
100
AcDbEntity
  8
0
370
    -3
  6
Continuous
100
AcDbLine
 10
-316.953097
 20
-158.843232
 30
0.0
 11
-315.424969
 21
-161.490027
 31
0.0
  0
ARC
  5
36D
100
AcDbEntity
  8
0
370
    -3
  6
Continuous
100
AcDbCircle
 10
-314.125931
 20
-160.740027
 30
0.0
 40
1.5
100
AcDbArc
 50
210.0
 51
310.240348
  0
ARC
  5
36E
100
AcDbEntity
  8
0
370
    -3
  6
Continuous
100
AcDbCircle
 10
-328.660828
 20
-143.564847
 30
0.0
 40
24.0
100
AcDbArc
 50
310.240348
 51
349.759652
  0
LINE
  5
36F
100
AcDbEntity
  8
0
370
    -3
  6
Continuous
100
AcDbLine
 10
-289.228287
 20
-188.419434
 30
0.0
 11
-285.177862
 21
-184.369009
 31
0.0
  0
ARC
  5
370
100
AcDbEntity
  8
0
370
    -3
  6
Continuous
100
AcDbCircle
 10
-295.501621
 20
-174.04525
 30
0.0
 40
14.6
100
AcDbArc
 50
315.0
 51
355.337794
  0
ARC
  5
371
100
AcDbEntity
  8
0
370
    -3
  6
Continuous
100
AcDbCircle
 10
-669.260828
 20
-143.564847
 30
0.0
 40
389.6
100
AcDbArc
 50
355.337794
 51
0.0
  0
ARC
  5
372
100
AcDbEntity
  8
0
370
    -3
  6
Continuous
100
AcDbCircle
 10
-328.660828
 20
-479.164847
 30
0.0
 40
389.6
100
AcDbArc
 50
87.053989
 51
90.0
  0
ARC
  5
373
100
AcDbEntity
  8
0
370
    -3
  6
Continuous
100
AcDbCircle
 10
-310.158647
 20
-119.640621
 30
0.0
 40
29.6
100
AcDbArc
 50
45.0
 51
87.053989
  0
LINE
  5
374
100
AcDbEntity
  8
0
370
    -3
  6
Continuous
100
AcDbLine
 10
-289.228287
 20
-98.71026
 30
0.0
 11
-285.177862
 21
-102.760685
 31
0.0
  0
ARC
  5
375
100
AcDbEntity
  8
0
370
    -3
  6
Continuous
100
AcDbCircle
 10
-295.501621
 20
-113.084444
 30
0.0
 40
14.6
100
AcDbArc
 50
4.662206
 51
45.0
  0
ARC
  5
376
100
AcDbEntity
  8
0
370
    -3
  6
Continuous
100
AcDbCircle
 10
-669.260828
 20
-143.564847
 30
0.0
 40
389.6
100
AcDbArc
 50
0.0
 51
4.662206
  0
ARC
  5
377
100
AcDbEntity
  8
0
370
    -3
  6
Continuous
100
AcDbCircle
 10
-328.660828
 20
-479.164847
 30
0.0
 40
389.6
100
AcDbArc
 50
90.0
 51
92.946011
  0
LINE
  5
378
100
AcDbEntity
  8
0
370
    -3
  6
Continuous
100
AcDbLine
 10
-368.093369
 20
-98.71026
 30
0.0
 11
-372.143794
 21
-102.760685
 31
0.0
  0
ARC
  5
379
100
AcDbEntity
  8
0
370
    -3
  6
Continuous
100
AcDbCircle
 10
-347.163008
 20
-119.640621
 30
0.0
 40
29.6
100
AcDbArc
 50
92.946011
 51
135.0
  0
ARC
  5
37A
100
AcDbEntity
  8
0
370
    -3
  6
Continuous
100
AcDbCircle
 10
-361.820035
 20
-113.084444
 30
0.0
 40
14.6
100
AcDbArc
 50
135.0
 51
175.337794
  0
ARC
  5
37B
100
AcDbEntity
  8
0
370
    -3
  6
Continuous
100
AcDbCircle
 10
-296.911812
 20
-147.564847
 30
0.0
 40
1.5
100
AcDbArc
 50
352.819244
 51
90.0
  0
LINE
  5
37C
100
AcDbEntity
  8
0
370
    -3
  6
Continuous
100
AcDbLine
 10
-296.911812
 20
-146.064847
 30
0.0
 11
-299.938015
 21
-146.064847
 31
0.0
  0
ARC
  5
37D
100
AcDbEntity
  8
0
370
    -3
  6
Continuous
100
AcDbCircle
 10
-290.369184
 20
-147.564847
 30
0.0
 40
1.5
100
AcDbArc
 50
90.0
 51
174.03643
  0
LINE
  5
37E
100
AcDbEntity
  8
0
370
    -3
  6
Continuous
100
AcDbLine
 10
-287.354049
 20
-146.064847
 30
0.0
 11
-290.369184
 21
-146.064847
 31
0.0
  0
ARC
  5
37F
100
AcDbEntity
  8
0
370
    -3
  6
Continuous
100
AcDbCircle
 10
-287.354049
 20
-147.564847
 30
0.0
 40
1.5
100
AcDbArc
 50
354.468928
 51
90.0
  0
LINE
  5
380
100
AcDbEntity
  8
0
370
    -3
  6
Continuous
100
AcDbLine
 10
-351.479281
 20
-109.042127
 30
0.0
 11
-349.971713
 21
-111.653311
 31
0.0
  0
ARC
  5
381
100
AcDbEntity
  8
0
370
    -3
  6
Continuous
100
AcDbCircle
 10
-352.778319
 20
-109.792127
 30
0.0
 40
1.5
100
AcDbArc
 50
30.0
 51
125.531072
  0
ARC
  5
382
100
AcDbEntity
  8
0
370
    -3
  6
Continuous
100
AcDbCircle
 10
-344.342548
 20
-108.403311
 30
0.0
 40
1.5
100
AcDbArc
 50
210.0
 51
294.03643
  0
LINE
  5
383
100
AcDbEntity
  8
0
370
    -3
  6
Continuous
100
AcDbLine
 10
-347.149154
 20
-106.542127
 30
0.0
 11
-345.641586
 21
-109.153311
 31
0.0
  0
ARC
  5
384
100
AcDbEntity
  8
0
370
    -3
  6
Continuous
100
AcDbCircle
 10
-345.850116
 20
-105.792127
 30
0.0
 40
1.5
100
AcDbArc
 50
114.468928
 51
210.0
  0
ARC
  5
385
100
AcDbEntity
  8
0
370
    -3
  6
Continuous
100
AcDbCircle
 10
-328.660828
 20
-143.564847
 30
0.0
 40
43.0
100
AcDbArc
 50
65.531072
 51
114.468928
  0
ARC
  5
386
100
AcDbEntity
  8
0
370
    -3
  6
Continuous
100
AcDbCircle
 10
-328.660828
 20
-143.564847
 30
0.0
 40
37.0
100
AcDbArc
 50
65.96357
 51
114.03643
  0
ARC
  5
387
100
AcDbEntity
  8
0
370
    -3
  6
Continuous
100
AcDbCircle
 10
-312.979107
 20
-108.403311
 30
0.0
 40
1.5
100
AcDbArc
 50
245.96357
 51
330.0
  0
LINE
  5
388
100
AcDbEntity
  8
0
370
    -3
  6
Continuous
100
AcDbLine
 10
-311.680069
 20
-109.153311
 30
0.0
 11
-310.172502
 21
-106.542127
 31
0.0
  0
ARC
  5
389
100
AcDbEntity
  8
0
370
    -3
  6
Continuous
100
AcDbCircle
 10
-311.47154
 20
-105.792127
 30
0.0
 40
1.5
100
AcDbArc
 50
330.0
 51
65.531072
  0
ARC
  5
38A
100
AcDbEntity
  8
0
370
    -3
  6
Continuous
100
AcDbCircle
 10
-328.660828
 20
-143.564847
 30
0.0
 40
43.0
100
AcDbArc
 50
5.531072
 51
54.468928
  0
ARC
  5
38B
100
AcDbEntity
  8
0
370
    -3
  6
Continuous
100
AcDbCircle
 10
-304.543337
 20
-109.792127
 30
0.0
 40
1.5
100
AcDbArc
 50
54.468928
 51
150.0
  0
ARC
  5
38C
100
AcDbEntity
  8
0
370
    -3
  6
Continuous
100
AcDbCircle
 10
-287.354049
 20
-139.564847
 30
0.0
 40
1.5
100
AcDbArc
 50
270.0
 51
5.531072
  0
ARC
  5
38D
100
AcDbEntity
  8
0
370
    -3
  6
Continuous
100
AcDbCircle
 10
-290.369184
 20
-139.564847
 30
0.0
 40
1.5
100
AcDbArc
 50
185.96357
 51
270.0
  0
ARC
  5
38E
100
AcDbEntity
  8
0
370
    -3
  6
Continuous
100
AcDbCircle
 10
-296.911812
 20
-139.564847
 30
0.0
 40
1.5
100
AcDbArc
 50
270.0
 51
7.180756
  0
LINE
  5
38F
100
AcDbEntity
  8
0
370
    -3
  6
Continuous
100
AcDbLine
 10
-296.911812
 20
-141.064847
 30
0.0
 11
-299.938015
 21
-141.064847
 31
0.0
  0
LINE
  5
390
100
AcDbEntity
  8
0
370
    -3
  6
Continuous
100
AcDbLine
 10
-307.349942
 20
-111.653311
 30
0.0
 11
-305.842375
 21
-109.042127
 31
0.0
  0
LINE
  5
391
100
AcDbEntity
  8
0
370
    -3
  6
Continuous
100
AcDbLine
 10
-287.354049
 20
-141.064847
 30
0.0
 11
-290.369184
 21
-141.064847
 31
0.0
  0
ARC
  5
392
100
AcDbEntity
  8
0
370
    -3
  6
Continuous
100
AcDbCircle
 10
-295.501621
 20
-113.084444
 30
0.0
 40
25.6
100
AcDbArc
 50
4.662206
 51
45.0
  0
LINE
  5
393
100
AcDbEntity
  8
0
370
    -3
  6
Continuous
100
AcDbLine
 10
-281.450112
 20
-90.932086
 30
0.0
 11
-277.399687
 21
-94.982511
 31
0.0
  0
ARC
  5
394
100
AcDbEntity
  8
0
370
    -3
  6
Continuous
100
AcDbCircle
 10
-310.158647
 20
-119.640621
 30
0.0
 40
40.6
100
AcDbArc
 50
45.0
 51
87.053989
  0
LINE
  5
395
100
AcDbEntity
  8
0
370
    -3
  6
Continuous
100
AcDbLine
 10
-281.450112
 20
-196.197609
 30
0.0
 11
-277.399687
 21
-192.147184
 31
0.0
  0
ARC
  5
396
100
AcDbEntity
  8
0
370
    -3
  6
Continuous
100
AcDbCircle
 10
-295.501621
 20
-174.04525
 30
0.0
 40
25.6
100
AcDbArc
 50
315.0
 51
355.337794
  0
ARC
  5
397
100
AcDbEntity
  8
0
370
    -3
  6
Continuous
100
AcDbCircle
 10
-669.260828
 20
-143.564847
 30
0.0
 40
400.6
100
AcDbArc
 50
355.337794
 51
0.0
  0
ARC
  5
398
100
AcDbEntity
  8
0
370
    -3
  6
Continuous
100
AcDbCircle
 10
11.939172
 20
-143.564847
 30
0.0
 40
400.6
100
AcDbArc
 50
175.337794
 51
180.0
  0
ARC
  5
399
100
AcDbEntity
  8
0
370
    -3
  6
Continuous
100
AcDbCircle
 10
-328.660828
 20
192.035153
 30
0.0
 40
400.6
100
AcDbArc
 50
270.0
 51
272.946011
  0
ARC
  5
39A
100
AcDbEntity
  8
0
370
    -3
  6
Continuous
100
AcDbCircle
 10
-310.158647
 20
-167.489074
 30
0.0
 40
40.6
100
AcDbArc
 50
272.946011
 51
315.0
  0
ARC
  5
39B
100
AcDbEntity
  8
0
370
    -3
  6
Continuous
100
AcDbCircle
 10
-347.163008
 20
-167.489074
 30
0.0
 40
40.6
100
AcDbArc
 50
225.0
 51
267.053989
  0
ARC
  5
39C
100
AcDbEntity
  8
0
370
    -3
  6
Continuous
100
AcDbCircle
 10
11.939172
 20
-143.564847
 30
0.0
 40
400.6
100
AcDbArc
 50
180.0
 51
184.662206
  0
ARC
  5
39D
100
AcDbEntity
  8
0
370
    -3
  6
Continuous
100
AcDbCircle
 10
-361.820035
 20
-174.04525
 30
0.0
 40
25.6
100
AcDbArc
 50
184.662206
 51
225.0
  0
LINE
  5
39E
100
AcDbEntity
  8
0
370
    -3
  6
Continuous
100
AcDbLine
 10
-375.871544
 20
-196.197609
 30
0.0
 11
-379.921969
 21
-192.147184
 31
0.0
  0
ARC
  5
39F
100
AcDbEntity
  8
0
370
    -3
  6
Continuous
100
AcDbCircle
 10
-328.660828
 20
192.035153
 30
0.0
 40
400.6
100
AcDbArc
 50
267.053989
 51
270.0
  0
ARC
  5
3A0
100
AcDbEntity
  8
0
370
    -3
  6
Continuous
100
AcDbCircle
 10
-361.820035
 20
-113.084444
 30
0.0
 40
25.6
100
AcDbArc
 50
135.0
 51
175.337794
  0
LINE
  5
3A1
100
AcDbEntity
  8
0
370
    -3
  6
Continuous
100
AcDbLine
 10
-375.871544
 20
-90.932086
 30
0.0
 11
-379.921969
 21
-94.982511
 31
0.0
  0
ARC
  5
3A2
100
AcDbEntity
  8
0
370
    -3
  6
Continuous
100
AcDbCircle
 10
-347.163008
 20
-119.640621
 30
0.0
 40
40.6
100
AcDbArc
 50
92.946011
 51
135.0
  0
ARC
  5
3A3
100
AcDbEntity
  8
0
370
    -3
  6
Continuous
100
AcDbCircle
 10
-669.260828
 20
-143.564847
 30
0.0
 40
400.6
100
AcDbArc
 50
0.0
 51
4.662206
  0
ARC
  5
3A4
100
AcDbEntity
  8
0
370
    -3
  6
Continuous
100
AcDbCircle
 10
-376.319825
 20
-191.223844
 30
0.0
 40
6.099999
100
AcDbArc
 50
174.601928
 51
275.398089
  0
POINT
  5
3A5
100
AcDbEntity
  8
0
370
    -3
  6
Continuous
100
AcDbPoint
 10
-378.582567
 20
-193.486586
 30
0.0
  0
LINE
  5
3A6
100
AcDbEntity
  8
0
370
    -3
  6
Continuous
100
AcDbLine
 10
-375.259165
 20
-196.809988
 30
0.0
 11
-381.905968
 21
-190.163184
 31
0.0
  0
LINE
  5
3A7
100
AcDbEntity
  8
0
370
    -3
  6
Continuous
100
AcDbLine
 10
-375.511712
 20
-197.123126
 30
0.0
 11
-382.188811
 21
-190.446027
 31
0.0
  0
LINE
  5
3A8
100
AcDbEntity
  8
0
370
    -3
  6
Continuous
100
AcDbLine
 10
-381.905968
 20
-190.163184
 30
0.0
 11
-382.392772
 21
-190.649988
 31
0.0
  0
LINE
  5
3A9
100
AcDbEntity
  8
0
370
    -3
  6
Continuous
100
AcDbLine
 10
-375.259165
 20
-196.809988
 30
0.0
 11
-375.745968
 21
-197.296791
 31
0.0
  0
ARC
  5
3AA
100
AcDbEntity
  8
0
370
    -3
  6
Continuous
100
AcDbCircle
 10
11.939172
 20
-143.564847
 30
0.0
 40
389.6
100
AcDbArc
 50
175.337794
 51
180.0
  0
ARC
  5
3AB
100
AcDbEntity
  8
0
370
    -3
  6
Continuous
100
AcDbCircle
 10
-376.319825
 20
-95.90585
 30
0.0
 40
6.099999
100
AcDbArc
 50
84.601911
 51
185.398072
  0
ARC
  5
3AC
100
AcDbEntity
  8
0
370
    -3
  6
Continuous
100
AcDbCircle
 10
11.939172
 20
-143.564847
 30
0.0
 40
389.6
100
AcDbArc
 50
180.0
 51
184.662206
  0
POINT
  5
3AD
100
AcDbEntity
  8
0
370
    -3
  6
Continuous
100
AcDbPoint
 10
-378.582567
 20
-93.643109
 30
0.0
  0
ARC
  5
3AE
100
AcDbEntity
  8
0
370
    -3
  6
Continuous
100
AcDbCircle
 10
-361.820035
 20
-174.04525
 30
0.0
 40
14.6
100
AcDbArc
 50
184.662206
 51
225.0
  0
LINE
  5
3AF
100
AcDbEntity
  8
0
370
    -3
  6
Continuous
100
AcDbLine
 10
-375.259165
 20
-90.319707
 30
0.0
 11
-381.905968
 21
-96.96651
 31
0.0
  0
ARC
  5
3B0
100
AcDbEntity
  8
0
370
    -3
  6
Continuous
100
AcDbCircle
 10
-347.163008
 20
-167.489074
 30
0.0
 40
29.6
100
AcDbArc
 50
225.0
 51
267.053989
  0
LINE
  5
3B1
100
AcDbEntity
  8
0
370
    -3
  6
Continuous
100
AcDbLine
 10
-375.511712
 20
-90.006568
 30
0.0
 11
-382.188811
 21
-96.683667
 31
0.0
  0
ARC
  5
3B2
100
AcDbEntity
  8
0
370
    -3
  6
Continuous
100
AcDbCircle
 10
-328.660828
 20
192.035153
 30
0.0
 40
389.6
100
AcDbArc
 50
270.0
 51
272.946011
  0
LINE
  5
3B3
100
AcDbEntity
  8
0
370
    -3
  6
Continuous
100
AcDbLine
 10
-381.905968
 20
-96.96651
 30
0.0
 11
-382.392772
 21
-96.479707
 31
0.0
  0
ARC
  5
3B4
100
AcDbEntity
  8
0
370
    -3
  6
Continuous
100
AcDbCircle
 10
-328.660828
 20
192.035153
 30
0.0
 40
389.6
100
AcDbArc
 50
267.053989
 51
270.0
  0
LINE
  5
3B5
100
AcDbEntity
  8
0
370
    -3
  6
Continuous
100
AcDbLine
 10
-375.259165
 20
-90.319707
 30
0.0
 11
-375.745968
 21
-89.832903
 31
0.0
  0
ARC
  5
3B6
100
AcDbEntity
  8
0
370
    -3
  6
Continuous
100
AcDbCircle
 10
-310.158647
 20
-167.489074
 30
0.0
 40
29.6
100
AcDbArc
 50
272.946011
 51
315.0
  0
ARC
  5
3B7
100
AcDbEntity
  8
0
370
    -3
  6
Continuous
100
AcDbCircle
 10
-281.001831
 20
-95.90585
 30
0.0
 40
6.099999
100
AcDbArc
 50
354.601928
 51
95.398089
  0
LINE
  5
3B8
100
AcDbEntity
  8
0
370
    -3
  6
Continuous
100
AcDbLine
 10
-368.093369
 20
-188.419434
 30
0.0
 11
-372.143794
 21
-184.369009
 31
0.0
  0
POINT
  5
3B9
100
AcDbEntity
  8
0
370
    -3
  6
Continuous
100
AcDbPoint
 10
-278.739089
 20
-93.643109
 30
0.0
  0
LINE
  5
3BA
100
AcDbEntity
  8
0
370
    -3
  6
DASHED
100
AcDbLine
 10
-365.72945
 20
-190.111261
 30
0.0
 11
-365.712807
 21
-190.111261
 31
0.0
  0
LINE
  5
3BB
100
AcDbEntity
  8
0
370
    -3
  6
Continuous
100
AcDbLine
 10
-282.062491
 20
-90.319707
 30
0.0
 11
-275.415687
 21
-96.96651
 31
0.0
  0
ARC
  5
3BC
100
AcDbEntity
  8
0
370
    -3
  6
Continuous
100
AcDbCircle
 10
-299.938015
 20
-147.564847
 30
0.0
 40
1.5
100
AcDbArc
 50
90.0
 51
172.071858
  0
LINE
  5
3BD
100
AcDbEntity
  8
0
370
    -3
  6
Continuous
100
AcDbLine
 10
-281.809944
 20
-90.006568
 30
0.0
 11
-275.132845
 21
-96.683667
 31
0.0
  0
ARC
  5
3BE
100
AcDbEntity
  8
0
370
    -3
  6
Continuous
100
AcDbCircle
 10
-328.660828
 20
-143.564847
 30
0.0
 40
33.5
100
AcDbArc
 50
307.180756
 51
352.819244
  0
LINE
  5
3BF
100
AcDbEntity
  8
0
370
    -3
  6
Continuous
100
AcDbLine
 10
-275.415687
 20
-96.96651
 30
0.0
 11
-274.928884
 21
-96.479707
 31
0.0
  0
ARC
  5
3C0
100
AcDbEntity
  8
0
370
    -3
  6
Continuous
100
AcDbCircle
 10
-328.660828
 20
-143.564847
 30
0.0
 40
43.0
100
AcDbArc
 50
305.531072
 51
354.468928
  0
LINE
  5
3C1
100
AcDbEntity
  8
0
370
    -3
  6
Continuous
100
AcDbLine
 10
-282.062491
 20
-90.319707
 30
0.0
 11
-281.575687
 21
-89.832903
 31
0.0
  0
ARC
  5
3C2
100
AcDbEntity
  8
0
370
    -3
  6
Continuous
100
AcDbCircle
 10
-328.660828
 20
-143.564847
 30
0.0
 40
37.0
100
AcDbArc
 50
305.96357
 51
354.03643
  0
ARC
  5
3C3
100
AcDbEntity
  8
0
370
    -3
  6
Continuous
100
AcDbCircle
 10
-281.001831
 20
-191.223844
 30
0.0
 40
6.099999
100
AcDbArc
 50
264.601911
 51
5.398072
  0
ARC
  5
3C4
100
AcDbEntity
  8
0
370
    -3
  6
Continuous
100
AcDbCircle
 10
-328.660828
 20
-143.564847
 30
0.0
 40
27.5
100
AcDbArc
 50
307.928142
 51
352.071858
  0
POINT
  5
3C5
100
AcDbEntity
  8
0
370
    -3
  6
Continuous
100
AcDbPoint
 10
-278.739089
 20
-193.486586
 30
0.0
  0
ARC
  5
3C6
100
AcDbEntity
  8
0
370
    -3
  6
Continuous
100
AcDbCircle
 10
-310.83532
 20
-166.439533
 30
0.0
 40
1.5
100
AcDbArc
 50
127.928142
 51
210.0
  0
LINE
  5
3C7
100
AcDbEntity
  8
0
370
    -3
  6
Continuous
100
AcDbLine
 10
-282.062491
 20
-196.809988
 30
0.0
 11
-275.415687
 21
-190.163184
 31
0.0
  0
ARC
  5
3C8
100
AcDbEntity
  8
0
370
    -3
  6
Continuous
100
AcDbCircle
 10
-309.322218
 20
-169.060301
 30
0.0
 40
1.5
100
AcDbArc
 50
210.0
 51
307.180756
  0
LINE
  5
3C9
100
AcDbEntity
  8
0
370
    -3
  6
Continuous
100
AcDbLine
 10
-281.809944
 20
-197.123126
 30
0.0
 11
-275.132845
 21
-190.446027
 31
0.0
  0
ARC
  5
3CA
100
AcDbEntity
  8
0
370
    -3
  6
Continuous
100
AcDbCircle
 10
-306.050904
 20
-174.726384
 30
0.0
 40
1.5
100
AcDbArc
 50
125.96357
 51
210.0
  0
LINE
  5
3CB
100
AcDbEntity
  8
0
370
    -3
  6
Continuous
100
AcDbLine
 10
-275.415687
 20
-190.163184
 30
0.0
 11
-274.928884
 21
-190.649988
 31
0.0
  0
LINE
  5
3CC
100
AcDbEntity
  8
0
370
    -3
  6
Continuous
100
AcDbLine
 10
-312.134358
 20
-167.189533
 30
0.0
 11
-310.621256
 21
-169.810301
 31
0.0
  0
LINE
  5
3CD
100
AcDbEntity
  8
0
370
    -3
  6
Continuous
100
AcDbLine
 10
-282.062491
 20
-196.809988
 30
0.0
 11
-281.575687
 21
-197.296791
 31
0.0
  0
LINE
  5
3CE
100
AcDbEntity
  8
0
370
    -3
  6
Continuous
100
AcDbLine
 10
-307.349942
 20
-175.476384
 30
0.0
 11
-305.842375
 21
-178.087567
 31
0.0
  0
ARC
  5
3CF
100
AcDbEntity
  8
0
370
    -3
  6
Continuous
100
AcDbCircle
 10
-304.543337
 20
-177.337567
 30
0.0
 40
1.5
100
AcDbArc
 50
210.0
 51
305.531072
  0
ARC
  5
3D0
100
AcDbEntity
  8
0
370
    -3
  6
Continuous
100
AcDbCircle
 10
-341.071234
 20
-173.060301
 30
0.0
 40
1.5
100
AcDbArc
 50
150.0
 51
247.180756
  0
LINE
  5
3D1
100
AcDbEntity
  8
0
370
    -3
  6
Continuous
100
AcDbLine
 10
-342.370272
 20
-172.310301
 30
0.0
 11
-340.857171
 21
-169.689533
 31
0.0
  0
ARC
  5
3D2
100
AcDbEntity
  8
0
370
    -3
  6
Continuous
100
AcDbCircle
 10
-344.342548
 20
-178.726384
 30
0.0
 40
1.5
100
AcDbArc
 50
65.96357
 51
150.0
  0
LINE
  5
3D3
100
AcDbEntity
  8
0
370
    -3
  6
Continuous
100
AcDbLine
 10
-347.149154
 20
-180.587567
 30
0.0
 11
-345.641586
 21
-177.976384
 31
0.0
  0
ARC
  5
3D4
100
AcDbEntity
  8
0
370
    -3
  6
Continuous
100
AcDbCircle
 10
-345.850116
 20
-181.337567
 30
0.0
 40
1.5
100
AcDbArc
 50
150.0
 51
245.531072
  0
ARC
  5
3D5
100
AcDbEntity
  8
0
370
    -3
  6
Continuous
100
AcDbCircle
 10
-339.558133
 20
-170.439533
 30
0.0
 40
1.5
100
AcDbArc
 50
67.928142
 51
150.0
  0
ARC
  5
3D6
100
AcDbEntity
  8
0
370
    -3
  6
Continuous
100
AcDbCircle
 10
-328.660828
 20
-143.564847
 30
0.0
 40
33.5
100
AcDbArc
 50
247.180756
 51
292.819244
  0
ARC
  5
3D7
100
AcDbEntity
  8
0
370
    -3
  6
Continuous
100
AcDbCircle
 10
-328.660828
 20
-143.564847
 30
0.0
 40
43.0
100
AcDbArc
 50
245.531072
 51
294.468928
  0
ARC
  5
3D8
100
AcDbEntity
  8
0
370
    -3
  6
Continuous
100
AcDbCircle
 10
-328.660828
 20
-143.564847
 30
0.0
 40
37.0
100
AcDbArc
 50
245.96357
 51
294.03643
  0
ARC
  5
3D9
100
AcDbEntity
  8
0
370
    -3
  6
Continuous
100
AcDbCircle
 10
-328.660828
 20
-143.564847
 30
0.0
 40
27.5
100
AcDbArc
 50
247.928142
 51
292.071858
  0
ARC
  5
3DA
100
AcDbEntity
  8
0
370
    -3
  6
Continuous
100
AcDbCircle
 10
-317.763523
 20
-170.439533
 30
0.0
 40
1.5
100
AcDbArc
 50
30.0
 51
112.071858
  0
ARC
  5
3DB
100
AcDbEntity
  8
0
370
    -3
  6
Continuous
100
AcDbCircle
 10
-316.250422
 20
-173.060301
 30
0.0
 40
1.5
100
AcDbArc
 50
292.819244
 51
30.0
  0
ARC
  5
3DC
100
AcDbEntity
  8
0
370
    -3
  6
Continuous
100
AcDbCircle
 10
-312.979107
 20
-178.726384
 30
0.0
 40
1.5
100
AcDbArc
 50
30.0
 51
114.03643
  0
LINE
  5
3DD
100
AcDbEntity
  8
0
370
    -3
  6
Continuous
100
AcDbLine
 10
-316.464485
 20
-169.689533
 30
0.0
 11
-314.951383
 21
-172.310301
 31
0.0
  0
LINE
  5
3DE
100
AcDbEntity
  8
0
370
    -3
  6
Continuous
100
AcDbLine
 10
-311.680069
 20
-177.976384
 30
0.0
 11
-310.172502
 21
-180.587567
 31
0.0
  0
ARC
  5
3DF
100
AcDbEntity
  8
0
370
    -3
  6
Continuous
100
AcDbCircle
 10
-311.47154
 20
-181.337567
 30
0.0
 40
1.5
100
AcDbArc
 50
294.468928
 51
30.0
  0
ARC
  5
3E0
100
AcDbEntity
  8
0
370
    -3
  6
Continuous
100
AcDbCircle
 10
-347.999437
 20
-169.060301
 30
0.0
 40
1.5
100
AcDbArc
 50
232.819244
 51
330.0
  0
LINE
  5
3E1
100
AcDbEntity
  8
0
370
    -3
  6
Continuous
100
AcDbLine
 10
-346.700399
 20
-169.810301
 30
0.0
 11
-345.187298
 21
-167.189533
 31
0.0
  0
ARC
  5
3E2
100
AcDbEntity
  8
0
370
    -3
  6
Continuous
100
AcDbCircle
 10
-351.270751
 20
-174.726384
 30
0.0
 40
1.5
100
AcDbArc
 50
330.0
 51
54.03643
  0
LINE
  5
3E3
100
AcDbEntity
  8
0
370
    -3
  6
Continuous
100
AcDbLine
 10
-351.479281
 20
-178.087567
 30
0.0
 11
-349.971713
 21
-175.476384
 31
0.0
  0
ARC
  5
3E4
100
AcDbEntity
  8
0
370
    -3
  6
Continuous
100
AcDbCircle
 10
-352.778319
 20
-177.337567
 30
0.0
 40
1.5
100
AcDbArc
 50
234.468928
 51
330.0
  0
ARC
  5
3E5
100
AcDbEntity
  8
0
370
    -3
  6
Continuous
100
AcDbCircle
 10
-346.486336
 20
-166.439533
 30
0.0
 40
1.5
100
AcDbArc
 50
330.0
 51
52.071858
  0
ARC
  5
3E6
100
AcDbEntity
  8
0
370
    -3
  6
Continuous
100
AcDbCircle
 10
-328.660828
 20
-143.564847
 30
0.0
 40
33.5
100
AcDbArc
 50
187.180756
 51
232.819244
  0
ARC
  5
3E7
100
AcDbEntity
  8
0
370
    -3
  6
Continuous
100
AcDbCircle
 10
-328.660828
 20
-143.564847
 30
0.0
 40
43.0
100
AcDbArc
 50
185.531072
 51
234.468928
  0
ARC
  5
3E8
100
AcDbEntity
  8
0
370
    -3
  6
Continuous
100
AcDbCircle
 10
-328.660828
 20
-143.564847
 30
0.0
 40
37.0
100
AcDbArc
 50
185.96357
 51
234.03643
  0
ARC
  5
3E9
100
AcDbEntity
  8
0
370
    -3
  6
Continuous
100
AcDbCircle
 10
-328.660828
 20
-143.564847
 30
0.0
 40
27.5
100
AcDbArc
 50
187.928142
 51
232.071858
  0
ARC
  5
3EA
100
AcDbEntity
  8
0
370
    -3
  6
Continuous
100
AcDbCircle
 10
-357.383641
 20
-147.564847
 30
0.0
 40
1.5
100
AcDbArc
 50
7.928142
 51
90.0
  0
ARC
  5
3EB
100
AcDbEntity
  8
0
370
    -3
  6
Continuous
100
AcDbCircle
 10
-360.409844
 20
-147.564847
 30
0.0
 40
1.5
100
AcDbArc
 50
90.0
 51
187.180756
  0
ARC
  5
3EC
100
AcDbEntity
  8
0
370
    -3
  6
Continuous
100
AcDbCircle
 10
-366.952472
 20
-147.564847
 30
0.0
 40
1.5
100
AcDbArc
 50
5.96357
 51
90.0
  0
LINE
  5
3ED
100
AcDbEntity
  8
0
370
    -3
  6
Continuous
100
AcDbLine
 10
-357.383641
 20
-146.064847
 30
0.0
 11
-360.409844
 21
-146.064847
 31
0.0
  0
LINE
  5
3EE
100
AcDbEntity
  8
0
370
    -3
  6
Continuous
100
AcDbLine
 10
-366.952472
 20
-146.064847
 30
0.0
 11
-369.967607
 21
-146.064847
 31
0.0
  0
ARC
  5
3EF
100
AcDbEntity
  8
0
370
    -3
  6
Continuous
100
AcDbCircle
 10
-369.967607
 20
-147.564847
 30
0.0
 40
1.5
100
AcDbArc
 50
90.0
 51
185.531072
  0
ARC
  5
3F0
100
AcDbEntity
  8
0
370
    -3
  6
Continuous
100
AcDbCircle
 10
-347.999437
 20
-118.069393
 30
0.0
 40
1.5
100
AcDbArc
 50
30.0
 51
127.180756
  0
LINE
  5
3F1
100
AcDbEntity
  8
0
370
    -3
  6
Continuous
100
AcDbLine
 10
-346.700399
 20
-117.319393
 30
0.0
 11
-345.187298
 21
-119.940161
 31
0.0
  0
ARC
  5
3F2
100
AcDbEntity
  8
0
370
    -3
  6
Continuous
100
AcDbCircle
 10
-351.270751
 20
-112.403311
 30
0.0
 40
1.5
100
AcDbArc
 50
305.96357
 51
30.0
  0
ARC
  5
3F3
100
AcDbEntity
  8
0
370
    -3
  6
Continuous
100
AcDbCircle
 10
-346.486336
 20
-120.690161
 30
0.0
 40
1.5
100
AcDbArc
 50
307.928142
 51
30.0
  0
ARC
  5
3F4
100
AcDbEntity
  8
0
370
    -3
  6
Continuous
100
AcDbCircle
 10
-328.660828
 20
-143.564847
 30
0.0
 40
33.5
100
AcDbArc
 50
127.180756
 51
172.819244
  0
ARC
  5
3F5
100
AcDbEntity
  8
0
370
    -3
  6
Continuous
100
AcDbCircle
 10
-328.660828
 20
-143.564847
 30
0.0
 40
43.0
100
AcDbArc
 50
125.531072
 51
174.468928
  0
ARC
  5
3F6
100
AcDbEntity
  8
0
370
    -3
  6
Continuous
100
AcDbCircle
 10
-328.660828
 20
-143.564847
 30
0.0
 40
37.0
100
AcDbArc
 50
125.96357
 51
174.03643
  0
ARC
  5
3F7
100
AcDbEntity
  8
0
370
    -3
  6
Continuous
100
AcDbCircle
 10
-328.660828
 20
-143.564847
 30
0.0
 40
27.5
100
AcDbArc
 50
127.928142
 51
172.071858
  0
ARC
  5
3F8
100
AcDbEntity
  8
0
370
    -3
  6
Continuous
100
AcDbCircle
 10
-357.383641
 20
-139.564847
 30
0.0
 40
1.5
100
AcDbArc
 50
270.0
 51
352.071858
  0
ARC
  5
3F9
100
AcDbEntity
  8
0
370
    -3
  6
Continuous
100
AcDbCircle
 10
-360.409844
 20
-139.564847
 30
0.0
 40
1.5
100
AcDbArc
 50
172.819244
 51
270.0
  0
ARC
  5
3FA
100
AcDbEntity
  8
0
370
    -3
  6
Continuous
100
AcDbCircle
 10
-366.952472
 20
-139.564847
 30
0.0
 40
1.5
100
AcDbArc
 50
270.0
 51
354.03643
  0
LINE
  5
3FB
100
AcDbEntity
  8
0
370
    -3
  6
Continuous
100
AcDbLine
 10
-357.383641
 20
-141.064847
 30
0.0
 11
-360.409844
 21
-141.064847
 31
0.0
  0
LINE
  5
3FC
100
AcDbEntity
  8
0
370
    -3
  6
Continuous
100
AcDbLine
 10
-366.952472
 20
-141.064847
 30
0.0
 11
-369.967607
 21
-141.064847
 31
0.0
  0
ARC
  5
3FD
100
AcDbEntity
  8
0
370
    -3
  6
Continuous
100
AcDbCircle
 10
-369.967607
 20
-139.564847
 30
0.0
 40
1.5
100
AcDbArc
 50
174.468928
 51
270.0
  0
ARC
  5
3FE
100
AcDbEntity
  8
0
370
    -3
  6
Continuous
100
AcDbCircle
 10
-341.071234
 20
-114.069393
 30
0.0
 40
1.5
100
AcDbArc
 50
112.819244
 51
210.0
  0
LINE
  5
3FF
100
AcDbEntity
  8
0
370
    -3
  6
Continuous
100
AcDbLine
 10
-342.370272
 20
-114.819393
 30
0.0
 11
-340.857171
 21
-117.440161
 31
0.0
  0
ARC
  5
400
100
AcDbEntity
  8
0
370
    -3
  6
Continuous
100
AcDbCircle
 10
-339.558133
 20
-116.690161
 30
0.0
 40
1.5
100
AcDbArc
 50
210.0
 51
292.071858
  0
ARC
  5
401
100
AcDbEntity
  8
0
370
    -3
  6
Continuous
100
AcDbCircle
 10
-328.660828
 20
-143.564847
 30
0.0
 40
33.5
100
AcDbArc
 50
67.180756
 51
112.819244
  0
ARC
  5
402
100
AcDbEntity
  8
0
370
    -3
  6
Continuous
100
AcDbCircle
 10
-328.660828
 20
-143.564847
 30
0.0
 40
27.5
100
AcDbArc
 50
67.928142
 51
112.071858
  0
ARC
  5
403
100
AcDbEntity
  8
0
370
    -3
  6
Continuous
100
AcDbCircle
 10
-317.763523
 20
-116.690161
 30
0.0
 40
1.5
100
AcDbArc
 50
247.928142
 51
330.0
  0
ARC
  5
404
100
AcDbEntity
  8
0
370
    -3
  6
Continuous
100
AcDbCircle
 10
-316.250422
 20
-114.069393
 30
0.0
 40
1.5
100
AcDbArc
 50
330.0
 51
67.180756
  0
LINE
  5
405
100
AcDbEntity
  8
0
370
    -3
  6
Continuous
100
AcDbLine
 10
-316.464485
 20
-117.440161
 30
0.0
 11
-314.951383
 21
-114.819393
 31
0.0
  0
ARC
  5
406
100
AcDbEntity
  8
0
370
    -3
  6
Continuous
100
AcDbCircle
 10
-328.660828
 20
-143.564847
 30
0.0
 40
33.5
100
AcDbArc
 50
7.180756
 51
52.819244
  0
ARC
  5
407
100
AcDbEntity
  8
0
370
    -3
  6
Continuous
100
AcDbCircle
 10
-328.660828
 20
-143.564847
 30
0.0
 40
37.0
100
AcDbArc
 50
5.96357
 51
54.03643
  0
ARC
  5
408
100
AcDbEntity
  8
0
370
    -3
  6
Continuous
100
AcDbCircle
 10
-306.050904
 20
-112.403311
 30
0.0
 40
1.5
100
AcDbArc
 50
150.0
 51
234.03643
  0
ARC
  5
409
100
AcDbEntity
  8
0
370
    -3
  6
Continuous
100
AcDbCircle
 10
-309.322218
 20
-118.069393
 30
0.0
 40
1.5
100
AcDbArc
 50
52.819244
 51
150.0
  0
ARC
  5
40A
100
AcDbEntity
  8
0
370
    -3
  6
Continuous
100
AcDbCircle
 10
-328.660828
 20
-143.564847
 30
0.0
 40
27.5
100
AcDbArc
 50
7.928142
 51
52.071858
  0
ARC
  5
40B
100
AcDbEntity
  8
0
370
    -3
  6
Continuous
100
AcDbCircle
 10
-299.938015
 20
-139.564847
 30
0.0
 40
1.5
100
AcDbArc
 50
187.928142
 51
270.0
  0
LINE
  5
40C
100
AcDbEntity
  8
0
370
    -3
  6
Continuous
100
AcDbLine
 10
-312.134358
 20
-119.940161
 30
0.0
 11
-310.621256
 21
-117.319393
 31
0.0
  0
ARC
  5
40D
100
AcDbEntity
  8
0
370
    -3
  6
Continuous
100
AcDbCircle
 10
-310.83532
 20
-120.690161
 30
0.0
 40
1.5
100
AcDbArc
 50
150.0
 51
232.071858
  0
CIRCLE
  5
40E
100
AcDbEntity
  8
0
370
    -3
  6
Continuous
100
AcDbCircle
 10
-328.660828
 20
-143.564847
 30
0.0
 40
5.0
  0
ARC
  5
40F
100
AcDbEntity
  8
0
370
    -3
  6
Continuous
100
AcDbCircle
 10
-320.61415
 20
-137.627593
 30
0.0
 40
1.5
100
AcDbArc
 50
150.0
 51
216.421822
  0
ARC
  5
410
100
AcDbEntity
  8
0
370
    -3
  6
Continuous
100
AcDbCircle
 10
-319.495676
 20
-139.564847
 30
0.0
 40
1.5
100
AcDbArc
 50
203.578178
 51
270.0
  0
ARC
  5
411
100
AcDbEntity
  8
0
370
    -3
  6
Continuous
100
AcDbCircle
 10
-314.125931
 20
-126.389668
 30
0.0
 40
1.5
100
AcDbArc
 50
49.759652
 51
150.0
  0
ARC
  5
412
100
AcDbEntity
  8
0
370
    -3
  6
Continuous
100
AcDbCircle
 10
-316.291511
 20
-139.564847
 30
0.0
 40
1.5
100
AcDbArc
 50
270.0
 51
17.920213
  0
ARC
  5
413
100
AcDbEntity
  8
0
370
    -3
  6
Continuous
100
AcDbCircle
 10
-309.575493
 20
-139.564847
 30
0.0
 40
1.5
100
AcDbArc
 50
191.837004
 51
270.0
  0
ARC
  5
414
100
AcDbEntity
  8
0
370
    -3
  6
Continuous
100
AcDbCircle
 10
-315.654059
 20
-129.036463
 30
0.0
 40
1.5
100
AcDbArc
 50
150.0
 51
228.162996
  0
ARC
  5
415
100
AcDbEntity
  8
0
370
    -3
  6
Continuous
100
AcDbCircle
 10
-306.519238
 20
-139.564847
 30
0.0
 40
1.5
100
AcDbArc
 50
270.0
 51
10.240348
  0
ARC
  5
416
100
AcDbEntity
  8
0
370
    -3
  6
Continuous
100
AcDbCircle
 10
-319.012068
 20
-134.852705
 30
0.0
 40
1.5
100
AcDbArc
 50
42.079787
 51
150.0
  0
LINE
  5
417
100
AcDbEntity
  8
0
370
    -3
  6
Continuous
100
AcDbLine
 10
-316.953097
 20
-128.286463
 30
0.0
 11
-315.424969
 21
-125.639668
 31
0.0
  0
ARC
  5
418
100
AcDbEntity
  8
0
370
    -3
  6
Continuous
100
AcDbCircle
 10
-328.660828
 20
-143.564847
 30
0.0
 40
18.0
100
AcDbArc
 50
11.837004
 51
48.162996
  0
ARC
  5
419
100
AcDbEntity
  8
0
370
    -3
  6
Continuous
100
AcDbCircle
 10
-328.660828
 20
-143.564847
 30
0.0
 40
14.5
100
AcDbArc
 50
17.920213
 51
42.079787
  0
LINE
  5
41A
100
AcDbEntity
  8
0
370
    -3
  6
Continuous
100
AcDbLine
 10
-316.291511
 20
-141.064847
 30
0.0
 11
-319.495676
 21
-141.064847
 31
0.0
  0
LINE
  5
41B
100
AcDbEntity
  8
0
370
    -3
  6
Continuous
100
AcDbLine
 10
-306.519238
 20
-141.064847
 30
0.0
 11
-309.575493
 21
-141.064847
 31
0.0
  0
LINE
  5
41C
100
AcDbEntity
  8
0
370
    -3
  6
Continuous
100
AcDbLine
 10
-321.913189
 20
-136.877593
 30
0.0
 11
-320.311106
 21
-134.102705
 31
0.0
  0
ARC
  5
41D
100
AcDbEntity
  8
0
370
    -3
  6
Continuous
100
AcDbCircle
 10
-328.660828
 20
-143.564847
 30
0.0
 40
24.0
100
AcDbArc
 50
10.240348
 51
49.759652
  0
ARC
  5
41E
100
AcDbEntity
  8
0
370
    -3
  6
Continuous
100
AcDbCircle
 10
-328.660828
 20
-143.564847
 30
0.0
 40
8.5
100
AcDbArc
 50
23.578178
 51
36.421822
  0
ARC
  5
41F
100
AcDbEntity
  8
0
370
    -3
  6
Continuous
100
AcDbCircle
 10
-331.381385
 20
-130.852705
 30
0.0
 40
1.5
100
AcDbArc
 50
102.079787
 51
210.0
  0
LINE
  5
420
100
AcDbEntity
  8
0
370
    -3
  6
Continuous
100
AcDbLine
 10
-332.680423
 20
-131.602705
 30
0.0
 11
-331.07834
 21
-134.377593
 31
0.0
  0
ARC
  5
421
100
AcDbEntity
  8
0
370
    -3
  6
Continuous
100
AcDbCircle
 10
-329.779302
 20
-133.627593
 30
0.0
 40
1.5
100
AcDbArc
 50
210.0
 51
276.421822
  0
ARC
  5
422
100
AcDbEntity
  8
0
370
    -3
  6
Continuous
100
AcDbCircle
 10
-328.660828
 20
-143.564847
 30
0.0
 40
8.5
100
AcDbArc
 50
83.578178
 51
96.421822
  0
ARC
  5
423
100
AcDbEntity
  8
0
370
    -3
  6
Continuous
100
AcDbCircle
 10
-327.542354
 20
-133.627593
 30
0.0
 40
1.5
100
AcDbArc
 50
263.578178
 51
330.0
  0
LINE
  5
424
100
AcDbEntity
  8
0
370
    -3
  6
Continuous
100
AcDbLine
 10
-326.243316
 20
-134.377593
 30
0.0
 11
-324.641233
 21
-131.602705
 31
0.0
  0
ARC
  5
425
100
AcDbEntity
  8
0
370
    -3
  6
Continuous
100
AcDbCircle
 10
-325.940271
 20
-130.852705
 30
0.0
 40
1.5
100
AcDbArc
 50
330.0
 51
77.920213
  0
ARC
  5
426
100
AcDbEntity
  8
0
370
    -3
  6
Continuous
100
AcDbCircle
 10
-328.660828
 20
-143.564847
 30
0.0
 40
14.5
100
AcDbArc
 50
77.920213
 51
102.079787
  0
ARC
  5
427
100
AcDbEntity
  8
0
370
    -3
  6
Continuous
100
AcDbCircle
 10
-336.267521
 20
-122.389668
 30
0.0
 40
1.5
100
AcDbArc
 50
109.759652
 51
210.0
  0
LINE
  5
428
100
AcDbEntity
  8
0
370
    -3
  6
Continuous
100
AcDbLine
 10
-337.566559
 20
-123.139668
 30
0.0
 11
-336.038432
 21
-125.786463
 31
0.0
  0
ARC
  5
429
100
AcDbEntity
  8
0
370
    -3
  6
Continuous
100
AcDbCircle
 10
-334.739394
 20
-125.036463
 30
0.0
 40
1.5
100
AcDbArc
 50
210.0
 51
288.162996
  0
ARC
  5
42A
100
AcDbEntity
  8
0
370
    -3
  6
Continuous
100
AcDbCircle
 10
-328.660828
 20
-143.564847
 30
0.0
 40
18.0
100
AcDbArc
 50
71.837004
 51
108.162996
  0
ARC
  5
42B
100
AcDbEntity
  8
0
370
    -3
  6
Continuous
100
AcDbCircle
 10
-322.582262
 20
-125.036463
 30
0.0
 40
1.5
100
AcDbArc
 50
251.837004
 51
330.0
  0
LINE
  5
42C
100
AcDbEntity
  8
0
370
    -3
  6
Continuous
100
AcDbLine
 10
-321.283224
 20
-125.786463
 30
0.0
 11
-319.755096
 21
-123.139668
 31
0.0
  0
ARC
  5
42D
100
AcDbEntity
  8
0
370
    -3
  6
Continuous
100
AcDbCircle
 10
-321.054135
 20
-122.389668
 30
0.0
 40
1.5
100
AcDbArc
 50
330.0
 51
70.240348
  0
ARC
  5
42E
100
AcDbEntity
  8
0
370
    -3
  6
Continuous
100
AcDbCircle
 10
-328.660828
 20
-143.564847
 30
0.0
 40
24.0
100
AcDbArc
 50
70.240348
 51
109.759652
  0
ARC
  5
42F
100
AcDbEntity
  8
0
370
    -3
  6
Continuous
100
AcDbCircle
 10
-331.381385
 20
-156.27699
 30
0.0
 40
1.5
100
AcDbArc
 50
150.0
 51
257.920213
  0
LINE
  5
430
100
AcDbEntity
  8
0
370
    -3
  6
Continuous
100
AcDbLine
 10
-332.680423
 20
-155.52699
 30
0.0
 11
-331.07834
 21
-152.752101
 31
0.0
  0
CIRCLE
  5
431
100
AcDbEntity
  8
0
370
    -3
  6
Continuous
100
AcDbCircle
 10
216.839172
 20
-61.064847
 30
0.0
 40
9.0
  0
CIRCLE
  5
432
100
AcDbEntity
  8
0
370
    -3
  6
Continuous
100
AcDbCircle
 10
216.839172
 20
-61.064847
 30
0.0
 40
13.0
  0
LINE
  5
433
100
AcDbEntity
  8
0
370
    -3
  6
CENTER
100
AcDbLine
 10
232.339172
 20
-61.064847
 30
0.0
 11
201.339172
 21
-61.064847
 31
0.0
  0
LINE
  5
434
100
AcDbEntity
  8
0
370
    -3
  6
CENTER
100
AcDbLine
 10
216.839172
 20
-45.564847
 30
0.0
 11
216.839172
 21
-76.564847
 31
0.0
  0
CIRCLE
  5
435
100
AcDbEntity
  8
0
370
    -3
  6
Continuous
100
AcDbCircle
 10
416.839172
 20
-61.064847
 30
0.0
 40
9.0
  0
CIRCLE
  5
436
100
AcDbEntity
  8
0
370
    -3
  6
Continuous
100
AcDbCircle
 10
416.839172
 20
-61.064847
 30
0.0
 40
13.0
  0
LINE
  5
437
100
AcDbEntity
  8
0
370
    -3
  6
CENTER
100
AcDbLine
 10
432.339172
 20
-61.064847
 30
0.0
 11
401.339172
 21
-61.064847
 31
0.0
  0
LINE
  5
438
100
AcDbEntity
  8
0
370
    -3
  6
CENTER
100
AcDbLine
 10
416.839172
 20
-45.564847
 30
0.0
 11
416.839172
 21
-76.564847
 31
0.0
  0
CIRCLE
  5
439
100
AcDbEntity
  8
0
370
    -3
  6
Continuous
100
AcDbCircle
 10
416.839172
 20
-236.064847
 30
0.0
 40
9.0
  0
CIRCLE
  5
43A
100
AcDbEntity
  8
0
370
    -3
  6
Continuous
100
AcDbCircle
 10
416.839172
 20
-236.064847
 30
0.0
 40
13.0
  0
LINE
  5
43B
100
AcDbEntity
  8
0
370
    -3
  6
CENTER
100
AcDbLine
 10
432.339172
 20
-236.064847
 30
0.0
 11
401.339172
 21
-236.064847
 31
0.0
  0
LINE
  5
43C
100
AcDbEntity
  8
0
370
    -3
  6
CENTER
100
AcDbLine
 10
416.839172
 20
-220.564847
 30
0.0
 11
416.839172
 21
-251.564847
 31
0.0
  0
CIRCLE
  5
43D
100
AcDbEntity
  8
0
370
    -3
  6
Continuous
100
AcDbCircle
 10
216.839172
 20
-236.064847
 30
0.0
 40
9.0
  0
CIRCLE
  5
43E
100
AcDbEntity
  8
0
370
    -3
  6
Continuous
100
AcDbCircle
 10
216.839172
 20
-236.064847
 30
0.0
 40
13.0
  0
LINE
  5
43F
100
AcDbEntity
  8
0
370
    -3
  6
CENTER
100
AcDbLine
 10
232.339172
 20
-236.064847
 30
0.0
 11
201.339172
 21
-236.064847
 31
0.0
  0
LINE
  5
440
100
AcDbEntity
  8
0
370
    -3
  6
CENTER
100
AcDbLine
 10
216.839172
 20
-220.564847
 30
0.0
 11
216.839172
 21
-251.564847
 31
0.0
  0
LINE
  5
441
100
AcDbEntity
  8
0
370
    -3
  6
CENTER
100
AcDbLine
 10
216.839172
 20
-252.340241
 30
0.0
 11
216.839172
 21
-219.99552
 31
0.0
  0
LINE
  5
442
100
AcDbEntity
  8
0
370
    -3
  6
DASHED
100
AcDbLine
 10
765.838489
 20
-70.064847
 30
0.0
 11
667.838489
 21
-70.064847
 31
0.0
  0
LINE
  5
443
100
AcDbEntity
  8
0
370
    -3
  6
DASHED
100
AcDbLine
 10
765.838489
 20
-52.064847
 30
0.0
 11
667.838489
 21
-52.064847
 31
0.0
  0
LINE
  5
444
100
AcDbEntity
  8
0
370
    -3
  6
DASHED
100
AcDbLine
 10
667.838489
 20
-74.064847
 30
0.0
 11
646.838489
 21
-74.064847
 31
0.0
  0
LINE
  5
445
100
AcDbEntity
  8
0
370
    -3
  6
DASHED
100
AcDbLine
 10
667.838489
 20
-48.064847
 30
0.0
 11
646.838489
 21
-48.064847
 31
0.0
  0
LINE
  5
446
100
AcDbEntity
  8
0
370
    -3
  6
DASHED
100
AcDbLine
 10
667.838489
 20
-74.064847
 30
0.0
 11
667.838489
 21
-48.064847
 31
0.0
  0
LINE
  5
447
100
AcDbEntity
  8
0
370
    -3
  6
DASHED
100
AcDbLine
 10
765.838489
 20
-48.064847
 30
0.0
 11
786.838489
 21
-48.064847
 31
0.0
  0
LINE
  5
448
100
AcDbEntity
  8
0
370
    -3
  6
DASHED
100
AcDbLine
 10
765.838489
 20
-74.064847
 30
0.0
 11
786.838489
 21
-74.064847
 31
0.0
  0
LINE
  5
449
100
AcDbEntity
  8
0
370
    -3
  6
DASHED
100
AcDbLine
 10
765.838489
 20
-74.064847
 30
0.0
 11
765.838489
 21
-48.064847
 31
0.0
  0
LINE
  5
44A
100
AcDbEntity
  8
0
370
    -3
  6
DASHED
100
AcDbLine
 10
765.838489
 20
-245.064847
 30
0.0
 11
667.838489
 21
-245.064847
 31
0.0
  0
LINE
  5
44B
100
AcDbEntity
  8
0
370
    -3
  6
DASHED
100
AcDbLine
 10
765.838489
 20
-227.064847
 30
0.0
 11
667.838489
 21
-227.064847
 31
0.0
  0
LINE
  5
44C
100
AcDbEntity
  8
0
370
    -3
  6
DASHED
100
AcDbLine
 10
667.838489
 20
-249.064847
 30
0.0
 11
646.838489
 21
-249.064847
 31
0.0
  0
LINE
  5
44D
100
AcDbEntity
  8
0
370
    -3
  6
DASHED
100
AcDbLine
 10
667.838489
 20
-223.064847
 30
0.0
 11
646.838489
 21
-223.064847
 31
0.0
  0
LINE
  5
44E
100
AcDbEntity
  8
0
370
    -3
  6
DASHED
100
AcDbLine
 10
667.838489
 20
-249.064847
 30
0.0
 11
667.838489
 21
-223.064847
 31
0.0
  0
LINE
  5
44F
100
AcDbEntity
  8
0
370
    -3
  6
DASHED
100
AcDbLine
 10
765.838489
 20
-223.064847
 30
0.0
 11
786.838489
 21
-223.064847
 31
0.0
  0
LINE
  5
450
100
AcDbEntity
  8
0
370
    -3
  6
DASHED
100
AcDbLine
 10
765.838489
 20
-249.064847
 30
0.0
 11
786.838489
 21
-249.064847
 31
0.0
  0
LINE
  5
451
100
AcDbEntity
  8
0
370
    -3
  6
DASHED
100
AcDbLine
 10
765.838489
 20
-249.064847
 30
0.0
 11
765.838489
 21
-223.064847
 31
0.0
  0
LINE
  5
452
100
AcDbEntity
  8
0
370
    -3
  6
Continuous
100
AcDbLine
 10
159.69893
 20
172.959827
 30
0.0
 11
159.69893
 21
213.959827
 31
0.0
  0
LINE
  5
453
100
AcDbEntity
  8
0
370
    -3
  6
Continuous
100
AcDbLine
 10
164.19893
 20
172.959827
 30
0.0
 11
164.19893
 21
213.959827
 31
0.0
  0
LINE
  5
454
100
AcDbEntity
  8
0
370
    -3
  6
Continuous
100
AcDbLine
 10
176.19893
 20
213.959827
 30
0.0
 11
176.19893
 21
172.959827
 31
0.0
  0
LINE
  5
455
100
AcDbEntity
  8
0
370
    -3
  6
Continuous
100
AcDbLine
 10
152.19893
 20
210.459827
 30
0.0
 11
152.19893
 21
262.959827
 31
0.0
  0
LINE
  5
456
100
AcDbEntity
  8
0
370
    -3
  6
Continuous
100
AcDbLine
 10
152.19893
 20
123.959827
 30
0.0
 11
152.19893
 21
176.459827
 31
0.0
  0
LINE
  5
457
100
AcDbEntity
  8
0
370
    -3
  6
Continuous
100
AcDbLine
 10
154.19893
 20
264.959827
 30
0.0
 11
161.839172
 21
264.959827
 31
0.0
  0
LINE
  5
458
100
AcDbEntity
  8
0
370
    -3
  6
Continuous
100
AcDbLine
 10
154.19893
 20
121.959827
 30
0.0
 11
161.839172
 21
121.959827
 31
0.0
  0
LINE
  5
459
100
AcDbEntity
  8
0
370
    -3
  6
Continuous
100
AcDbLine
 10
150.19893
 20
133.959827
 30
0.0
 11
90.339172
 21
133.959827
 31
0.0
  0
LINE
  5
45A
100
AcDbEntity
  8
0
370
    -3
  6
Continuous
100
AcDbLine
 10
150.19893
 20
252.959827
 30
0.0
 11
90.339172
 21
252.959827
 31
0.0
  0
LINE
  5
45B
100
AcDbEntity
  8
0
370
    -3
  6
Continuous
100
AcDbLine
 10
109.69893
 20
249.959827
 30
0.0
 11
109.69893
 21
136.959827
 31
0.0
  0
ARC
  5
45C
100
AcDbEntity
  8
0
370
    -3
  6
Continuous
100
AcDbCircle
 10
106.69893
 20
136.959827
 30
0.0
 40
3.0
100
AcDbArc
 50
270.0
 51
0.0
  0
ELLIPSE
  5
45D
100
AcDbEntity
  8
0
370
    -3
  6
Continuous
100
AcDbEllipse
 10
106.69893
 20
176.722293
 30
0.0
 11
-3.0
 21
0.0
 31
0.0
210
0.0
220
0.0
230
1.0
 40
0.087489
 41
1.5707963267948966
 42
3.1415926535897944
  0
LINE
  5
45E
100
AcDbEntity
  8
0
370
    -3
  6
Continuous
100
AcDbLine
 10
106.69893
 20
176.459827
 30
0.0
 11
90.69893
 21
176.459827
 31
0.0
  0
LINE
  5
45F
100
AcDbEntity
  8
0
370
    -3
  6
Continuous
100
AcDbLine
 10
106.69893
 20
210.459827
 30
0.0
 11
90.69893
 21
210.459827
 31
0.0
  0
ARC
  5
460
100
AcDbEntity
  8
0
370
    -3
  6
Continuous
100
AcDbCircle
 10
106.69893
 20
249.959827
 30
0.0
 40
3.0
100
AcDbArc
 50
0.0
 51
90.0
  0
ELLIPSE
  5
461
100
AcDbEntity
  8
0
370
    -3
  6
Continuous
100
AcDbEllipse
 10
106.69893
 20
210.197361
 30
0.0
 11
-3.0
 21
0.0
 31
0.0
210
0.0
220
0.0
230
1.0
 40
0.087489
 41
3.1415926535897944
 42
4.7123889803846897
  0
LINE
  5
462
100
AcDbEntity
  8
0
370
    -3
  6
Continuous
100
AcDbLine
 10
90.339172
 20
252.959827
 30
0.0
 11
90.339172
 21
133.959827
 31
0.0
  0
LINE
  5
463
100
AcDbEntity
  8
0
370
    -3
  6
Continuous
100
AcDbLine
 10
151.69893
 20
177.360493
 30
0.0
 11
152.21893
 21
176.459827
 31
0.0
  0
LINE
  5
464
100
AcDbEntity
  8
0
370
    -3
  6
Continuous
100
AcDbLine
 10
152.21893
 20
189.459827
 30
0.0
 11
151.69893
 21
188.55916
 31
0.0
  0
LINE
  5
465
100
AcDbEntity
  8
0
370
    -3
  6
Continuous
100
AcDbLine
 10
151.69893
 20
198.360493
 30
0.0
 11
152.21893
 21
197.459827
 31
0.0
  0
LINE
  5
466
100
AcDbEntity
  8
0
370
    -3
  6
Continuous
100
AcDbLine
 10
152.21893
 20
210.459827
 30
0.0
 11
151.69893
 21
209.55916
 31
0.0
  0
LINE
  5
467
100
AcDbEntity
  8
0
370
    -3
  6
Continuous
100
AcDbLine
 10
152.19893
 20
189.425186
 30
0.0
 11
152.19893
 21
197.494468
 31
0.0
  0
LINE
  5
468
100
AcDbEntity
  8
0
370
    -3
  6
Continuous
100
AcDbLine
 10
151.69893
 20
188.55916
 30
0.0
 11
151.69893
 21
177.360493
 31
0.0
  0
LINE
  5
469
100
AcDbEntity
  8
0
370
    -3
  6
Continuous
100
AcDbLine
 10
152.21893
 20
189.459827
 30
0.0
 11
152.21893
 21
176.459827
 31
0.0
  0
LINE
  5
46A
100
AcDbEntity
  8
0
370
    -3
  6
Continuous
100
AcDbLine
 10
151.69893
 20
209.55916
 30
0.0
 11
151.69893
 21
198.360493
 31
0.0
  0
LINE
  5
46B
100
AcDbEntity
  8
0
370
    -3
  6
Continuous
100
AcDbLine
 10
152.21893
 20
210.459827
 30
0.0
 11
152.21893
 21
197.459827
 31
0.0
  0
LINE
  5
46C
100
AcDbEntity
  8
0
370
    -3
  6
Continuous
100
AcDbLine
 10
159.69893
 20
189.459827
 30
0.0
 11
152.21893
 21
189.459827
 31
0.0
  0
LINE
  5
46D
100
AcDbEntity
  8
0
370
    -3
  6
Continuous
100
AcDbLine
 10
152.21893
 20
176.459827
 30
0.0
 11
159.69893
 21
176.459827
 31
0.0
  0
LINE
  5
46E
100
AcDbEntity
  8
0
370
    -3
  6
Continuous
100
AcDbLine
 10
159.69893
 20
210.459827
 30
0.0
 11
152.21893
 21
210.459827
 31
0.0
  0
LINE
  5
46F
100
AcDbEntity
  8
0
370
    -3
  6
Continuous
100
AcDbLine
 10
152.21893
 20
197.459827
 30
0.0
 11
159.69893
 21
197.459827
 31
0.0
  0
LINE
  5
470
100
AcDbEntity
  8
0
370
    -3
  6
Continuous
100
AcDbLine
 10
159.69893
 20
172.959827
 30
0.0
 11
164.19893
 21
172.959827
 31
0.0
  0
LINE
  5
471
100
AcDbEntity
  8
0
370
    -3
  6
Continuous
100
AcDbLine
 10
159.69893
 20
213.959827
 30
0.0
 11
164.19893
 21
213.959827
 31
0.0
  0
ARC
  5
472
100
AcDbEntity
  8
0
370
    -3
  6
Continuous
100
AcDbCircle
 10
165.19893
 20
212.959827
 30
0.0
 40
1.0
100
AcDbArc
 50
90.0
 51
180.0
  0
ARC
  5
473
100
AcDbEntity
  8
0
370
    -3
  6
Continuous
100
AcDbCircle
 10
165.19893
 20
173.959827
 30
0.0
 40
1.0
100
AcDbArc
 50
180.0
 51
270.0
  0
LINE
  5
474
100
AcDbEntity
  8
0
370
    -3
  6
Continuous
100
AcDbLine
 10
176.19893
 20
172.959827
 30
0.0
 11
165.19893
 21
172.959827
 31
0.0
  0
LINE
  5
475
100
AcDbEntity
  8
0
370
    -3
  6
Continuous
100
AcDbLine
 10
165.19893
 20
213.959827
 30
0.0
 11
176.19893
 21
213.959827
 31
0.0
  0
ARC
  5
476
100
AcDbEntity
  8
0
370
    -3
  6
Continuous
100
AcDbCircle
 10
154.19893
 20
262.959827
 30
0.0
 40
2.0
100
AcDbArc
 50
90.0
 51
180.0
  0
ARC
  5
477
100
AcDbEntity
  8
0
370
    -3
  6
Continuous
100
AcDbCircle
 10
150.19893
 20
254.959827
 30
0.0
 40
2.0
100
AcDbArc
 50
270.0
 51
0.0
  0
ARC
  5
478
100
AcDbEntity
  8
0
370
    -3
  6
Continuous
100
AcDbCircle
 10
154.19893
 20
123.959827
 30
0.0
 40
2.0
100
AcDbArc
 50
180.0
 51
270.0
  0
ARC
  5
479
100
AcDbEntity
  8
0
370
    -3
  6
Continuous
100
AcDbCircle
 10
150.19893
 20
131.959827
 30
0.0
 40
2.0
100
AcDbArc
 50
0.0
 51
90.0
  0
CIRCLE
  5
47A
100
AcDbEntity
  8
0
370
    -3
  6
Continuous
100
AcDbCircle
 10
347.839172
 20
-130.064847
 30
0.0
 40
57.5
  0
LINE
  5
47B
100
AcDbEntity
  8
0
370
    -3
  6
Continuous
100
AcDbLine
 10
353.839172
 20
-107.064847
 30
0.0
 11
353.839172
 21
-115.064847
 31
0.0
  0
LINE
  5
47C
100
AcDbEntity
  8
0
370
    -3
  6
Continuous
100
AcDbLine
 10
353.839172
 20
-107.064847
 30
0.0
 11
341.839172
 21
-107.064847
 31
0.0
  0
LINE
  5
47D
100
AcDbEntity
  8
0
370
    -3
  6
Continuous
100
AcDbLine
 10
341.839172
 20
-107.064847
 30
0.0
 11
341.839172
 21
-115.064847
 31
0.0
  0
LINE
  5
47E
100
AcDbEntity
  8
0
370
    -3
  6
Continuous
100
AcDbLine
 10
353.839172
 20
-115.064847
 30
0.0
 11
341.839172
 21
-115.064847
 31
0.0
  0
ARC
  5
47F
100
AcDbEntity
  8
0
370
    -3
  6
Continuous
100
AcDbCircle
 10
347.839172
 20
-130.064847
 30
0.0
 40
20.0
100
AcDbArc
 50
107.457603
 51
72.542397
  0
LINE
  5
480
100
AcDbEntity
  8
0
370
    -3
  6
Continuous
100
AcDbLine
 10
498.479072
 20
-107.064847
 30
0.0
 11
498.479072
 21
-115.064847
 31
0.0
  0
LINE
  5
481
100
AcDbEntity
  8
0
370
    -3
  6
Continuous
100
AcDbLine
 10
498.479072
 20
-107.064847
 30
0.0
 11
510.479072
 21
-107.064847
 31
0.0
  0
LINE
  5
482
100
AcDbEntity
  8
0
370
    -3
  6
Continuous
100
AcDbLine
 10
510.479072
 20
-107.064847
 30
0.0
 11
510.479072
 21
-115.064847
 31
0.0
  0
LINE
  5
483
100
AcDbEntity
  8
0
370
    -3
  6
Continuous
100
AcDbLine
 10
498.479072
 20
-115.064847
 30
0.0
 11
510.479072
 21
-115.064847
 31
0.0
  0
ARC
  5
484
100
AcDbEntity
  8
0
370
    -3
  6
Continuous
100
AcDbCircle
 10
504.479072
 20
-130.064847
 30
0.0
 40
20.0
100
AcDbArc
 50
107.457603
 51
72.542397
  0
ENDSEC
  0
SECTION
  2
OBJECTS
  0
DICTIONARY
  5
19
100
AcDbDictionary
280
     0
281
     1
  3
ACAD_GROUP
350
1A
  3
ACAD_MLINESTYLE
350
1B
  3
ACAD_LAYOUT
350
1E
  3
ACAD_PLOTSETTINGS
350
22
  3
ACAD_PLOTSTYLENAME
350
1F
  3
ACAD_WIPEOUT_VARS
350
23
  3
DWGPROPS
350
485
  0
DICTIONARY
  5
1A
102
{ACAD_REACTORS
330
19
102
}
100
AcDbDictionary
280
     0
281
     1
  0
DICTIONARY
  5
1B
102
{ACAD_REACTORS
330
19
102
}
100
AcDbDictionary
280
     0
281
     1
  3
Standard
350
1C
  0
MLINESTYLE
  5
1C
102
{ACAD_REACTORS
330
1B
102
}
100
AcDbMlineStyle
  2
Standard
 70
     0
  3

 62
     0
 51
90.0
 52
90.0
 71
     2
 49
0.5
 62
   256
  6
ByLayer
 49
-0.5
 62
   256
  6
ByLayer
  0
ACDBDICTIONARYWDFLT
  5
1F
102
{ACAD_REACTORS
330
19
102
}
100
AcDbDictionary
281
     1
  3
Normal
350
1D
100
AcDbDictionaryWithDefault
340
1D
  0
ACDBPLACEHOLDER
  5
1D
102
{ACAD_REACTORS
330
1F
102
}
  0
LAYOUT
  5
20
102
{ACAD_REACTORS
330
1E
102
}
100
AcDbPlotSettings
  1

  2

  4

  6

 40
0.0
 41
0.0
 42
0.0
 43
0.0
 44
0.0
 45
0.0
 46
0.0
 47
0.0
 48
0.0
 49
0.0
140
0.0
141
0.0
142
1.0
143
1.0
 70
  1024
 72
     0
 73
     0
 74
     0
  7

 75
     0
147
1.0
148
0.0
149
0.0
100
AcDbLayout
  1
Model
 70
     0
 71
     0
 10
0.0
 20
0.0
 11
0.0
 21
0.0
 12
0.0
 22
0.0
 32
0.0
 14
0.0
 24
0.0
 34
0.0
 15
0.0
 25
0.0
 35
0.0
146
0.0
 13
0.0
 23
0.0
 33
0.0
 16
0.0
 26
0.0
 36
0.0
 17
0.0
 27
0.0
 37
0.0
 76
     0
330
A
331
0
345
0
346
0
  0
LAYOUT
  5
21
102
{ACAD_REACTORS
330
1E
102
}
100
AcDbPlotSettings
  1

  2

  4

  6

 40
0.0
 41
0.0
 42
0.0
 43
0.0
 44
0.0
 45
0.0
 46
0.0
 47
0.0
 48
0.0
 49
0.0
140
0.0
141
0.0
142
1.0
143
1.0
 70
     0
 72
     0
 73
     0
 74
     0
  7

 75
     0
147
1.0
148
0.0
149
0.0
100
AcDbLayout
  1
Layout1
 70
     0
 71
     0
 10
0.0
 20
0.0
 11
0.0
 21
0.0
 12
0.0
 22
0.0
 32
0.0
 14
0.0
 24
0.0
 34
0.0
 15
0.0
 25
0.0
 35
0.0
146
0.0
 13
0.0
 23
0.0
 33
0.0
 16
0.0
 26
0.0
 36
0.0
 17
0.0
 27
0.0
 37
0.0
 76
     0
330
B
331
0
345
0
346
0
  0
DICTIONARY
  5
1E
102
{ACAD_REACTORS
330
19
102
}
100
AcDbDictionary
280
     0
281
     1
  3
Layout1
350
21
  3
Model
350
20
  0
DICTIONARY
  5
22
102
{ACAD_REACTORS
330
19
102
}
100
AcDbDictionary
280
     0
281
     1
  0
WIPEOUTVARIABLES
  5
23
100
AcDbWipeoutVariables
 70
     1
  0
XRECORD
  5
485
100
AcDbXrecord
280
     1
  1
DWGPROPS COOKIE
  2

  3

  4

  6

  7

  8
TB24944
  9

300
=
301
=
302
=
303
=
304
=
305
=
306
=
307
=
308
=
309
=
 40
0.0
 41
2455965.593646
 42
2455965.593646
  1

 90
        0
  0
ENDSEC
  0
EOF
