  0
SECTION
  2
HEADER
  9
$ACADVER
  1
AC1015
  9
$ACADMAINTVER
 70
     6
  9
$DWGCODEPAGE
  3
ANSI_932
  9
$INSBASE
 10
0.0
 20
0.0
 30
0.0
  9
$EXTMIN
 10
1.000000E+20
 20
1.000000E+20
 30
1.000000E+20
  9
$EXTMAX
 10
-1.000000E+20
 20
-1.000000E+20
 30
-1.000000E+20
  9
$LIMMIN
 10
0.0
 20
0.0
  9
$LIMMAX
 10
0.0
 20
0.0
  9
$ORTHOMODE
 70
     0
  9
$REGENMODE
 70
     1
  9
$FILLMODE
 70
     1
  9
$QTEXTMODE
 70
     0
  9
$MIRRTEXT
 70
     1
  9
$LTSCALE
 40
1.0
  9
$ATTMODE
 70
     1
  9
$TEXTSIZE
 40
7.0
  9
$TRACEWID
 40
0.05
  9
$TEXTSTYLE
  7
Standard
  9
$CLAYER
  8
0
  9
$CELTYPE
  6
Continuous
  9
$CECOLOR
 62
   256
  9
$CELTSCALE
 40
1.0
  9
$DISPSILH
 70
     0
  9
$DIMSCALE
 40
1.0
  9
$DIMASZ
 40
1.931852
  9
$DIMEXO
 40
1.0
  9
$DIMDLI
 40
0.38
  9
$DIMRND
 40
0.0
  9
$DIMDLE
 40
0.0
  9
$DIMEXE
 40
2.0
  9
$DIMTP
 40
0.0
  9
$DIMTM
 40
0.0
  9
$DIMTXT
 40
2.8
  9
$DIMCEN
 40
0.09
  9
$DIMTSZ
 40
0.0
  9
$DIMTOL
 70
     0
  9
$DIMLIM
 70
     0
  9
$DIMTIH
 70
     1
  9
$DIMTOH
 70
     1
  9
$DIMSE1
 70
     0
  9
$DIMSE2
 70
     0
  9
$DIMTAD
 70
     1
  9
$DIMZIN
 70
     0
  9
$DIMBLK
  1

  9
$DIMASO
 70
     1
  9
$DIMSHO
 70
     1
  9
$DIMPOST
  1

  9
$DIMAPOST
  1

  9
$DIMALT
 70
     0
  9
$DIMALTD
 70
     2
  9
$DIMALTF
 40
25.4
  9
$DIMLFAC
 40
1.0
  9
$DIMTOFL
 70
     0
  9
$DIMTVP
 40
0.0
  9
$DIMTIX
 70
     0
  9
$DIMSOXD
 70
     0
  9
$DIMSAH
 70
     0
  9
$DIMBLK1
  1

  9
$DIMBLK2
  1

  9
$DIMSTYLE
  2
Standard
  9
$DIMCLRD
 70
     0
  9
$DIMCLRE
 70
     0
  9
$DIMCLRT
 70
     0
  9
$DIMTFAC
 40
0.714286
  9
$DIMGAP
 40
0.09
  9
$DIMJUST
 70
     0
  9
$DIMSD1
 70
     0
  9
$DIMSD2
 70
     0
  9
$DIMTOLJ
 70
     1
  9
$DIMTZIN
 70
     0
  9
$DIMALTZ
 70
     0
  9
$DIMALTTZ
 70
     0
  9
$DIMUPT
 70
     0
  9
$DIMDEC
 70
     4
  9
$DIMTDEC
 70
     4
  9
$DIMALTU
 70
     2
  9
$DIMALTTD
 70
     2
  9
$DIMTXSTY
  7
Standard
  9
$DIMAUNIT
 70
     0
  9
$DIMADEC
 70
     0
  9
$DIMALTRND
 40
0.0
  9
$DIMAZIN
 70
     0
  9
$DIMDSEP
 70
     0
  9
$DIMATFIT
 70
     3
  9
$DIMFRAC
 70
     0
  9
$DIMLDRBLK
  1

  9
$DIMLUNIT
 70
     2
  9
$DIMLWD
 70
     0
  9
$DIMLWE
 70
     0
  9
$DIMTMOVE
 70
     0
  9
$LUNITS
 70
     2
  9
$LUPREC
 70
     3
  9
$SKETCHINC
 40
0.1
  9
$FILLETRAD
 40
0.0
  9
$AUNITS
 70
     0
  9
$AUPREC
 70
     0
  9
$MENU
  1
acad
  9
$ELEVATION
 40
0.0
  9
$PELEVATION
 40
0.0
  9
$THICKNESS
 40
0.0
  9
$LIMCHECK
 70
     0
  9
$CHAMFERA
 40
0.0
  9
$CHAMFERB
 40
0.0
  9
$CHAMFERC
 40
0.0
  9
$CHAMFERD
 40
0.0
  9
$SKPOLY
 70
     0
  9
$TDCREATE
 40
0.000000000
  9
$TDUCREATE
 40
0.000000000
  9
$TDUPDATE
 40
0.000000000
  9
$TDUUPDATE
 40
0.000000000
  9
$TDINDWG
 40
0.0000000000
  9
$TDUSRTIMER
 40
0.0000000000
  9
$USRTIMER
 70
     1
  9
$ANGBASE
 50
0.0
  9
$ANGDIR
 70
     0
  9
$PDMODE
 70
     0
  9
$PDSIZE
 40
0.0
  9
$PLINEWID
 40
0.0
  9
$SPLFRAME
 70
     0
  9
$SPLINETYPE
 70
     6
  9
$SPLINESEGS
 70
     8
  9
$HANDSEED
  5
616
  9
$SURFTAB1
 70
     6
  9
$SURFTAB2
 70
     6
  9
$SURFTYPE
 70
     6
  9
$SURFU
 70
     6
  9
$SURFV
 70
     6
  9
$UCSBASE
  2

  9
$UCSNAME
  2

  9
$UCSORG
 10
0.0
 20
0.0
 30
0.0
  9
$UCSXDIR
 10
1.0
 20
0.0
 30
0.0
  9
$UCSYDIR
 10
0.0
 20
1.0
 30
0.0
  9
$UCSORTHOREF
  2

  9
$UCSORTHOVIEW
 70
     0
  9
$UCSORGTOP
 10
0.0
 20
0.0
 30
0.0
  9
$UCSORGBOTTOM
 10
0.0
 20
0.0
 30
0.0
  9
$UCSORGLEFT
 10
0.0
 20
0.0
 30
0.0
  9
$UCSORGRIGHT
 10
0.0
 20
0.0
 30
0.0
  9
$UCSORGFRONT
 10
0.0
 20
0.0
 30
0.0
  9
$UCSORGBACK
 10
0.0
 20
0.0
 30
0.0
  9
$PUCSBASE
  2

  9
$PUCSNAME
  2

  9
$PUCSORG
 10
0.0
 20
0.0
 30
0.0
  9
$PUCSXDIR
 10
1.0
 20
0.0
 30
0.0
  9
$PUCSYDIR
 10
0.0
 20
1.0
 30
0.0
  9
$PUCSORTHOREF
  2

  9
$PUCSORTHOVIEW
 70
     0
  9
$PUCSORGTOP
 10
0.0
 20
0.0
 30
0.0
  9
$PUCSORGBOTTOM
 10
0.0
 20
0.0
 30
0.0
  9
$PUCSORGLEFT
 10
0.0
 20
0.0
 30
0.0
  9
$PUCSORGRIGHT
 10
0.0
 20
0.0
 30
0.0
  9
$PUCSORGFRONT
 10
0.0
 20
0.0
 30
0.0
  9
$PUCSORGBACK
 10
0.0
 20
0.0
 30
0.0
  9
$USERI1
 70
     0
  9
$USERI2
 70
     0
  9
$USERI3
 70
     0
  9
$USERI4
 70
     0
  9
$USERI5
 70
     0
  9
$USERR1
 40
0.0
  9
$USERR2
 40
0.0
  9
$USERR3
 40
0.0
  9
$USERR4
 40
0.0
  9
$USERR5
 40
0.0
  9
$WORLDVIEW
 70
     1
  9
$SHADEDGE
 70
     3
  9
$SHADEDIF
 70
    70
  9
$TILEMODE
 70
     1
  9
$MAXACTVP
 70
    16
  9
$PINSBASE
 10
0.0
 20
0.0
 30
0.0
  9
$PLIMCHECK
 70
     0
  9
$PEXTMIN
 10
1.000000E+20
 20
1.000000E+20
 30
1.000000E+20
  9
$PEXTMAX
 10
-1.000000E+20
 20
-1.000000E+20
 30
-1.000000E+20
  9
$PLIMMIN
 10
0.0
 20
0.0
  9
$PLIMMAX
 10
12.0
 20
9.0
  9
$UNITMODE
 70
     0
  9
$VISRETAIN
 70
     0
  9
$PLINEGEN
 70
     1
  9
$PSLTSCALE
 70
     0
  9
$TREEDEPTH
 70
  3020
  9
$CMLSTYLE
  2
Standard
  9
$CMLJUST
 70
     0
  9
$CMLSCALE
 40
1.0
  9
$PROXYGRAPHICS
 70
     0
  9
$MEASUREMENT
 70
     0
  9
$CELWEIGHT
370
     0
  9
$ENDCAPS
280
     0
  9
$JOINSTYLE
280
     0
  9
$LWDISPLAY
290
     0
  9
$INSUNITS
 70
     0
  9
$HYPERLINKBASE
  1

  9
$STYLESHEET
  1

  9
$XEDIT
290
     1
  9
$CEPSNTYPE
380
     0
  9
$PSTYLEMODE
290
     1
  9
$FINGERPRINTGUID
  2

  9
$VERSIONGUID
  2

  9
$EXTNAMES
290
     1
  9
$PSVPSCALE
 40
0.0
  0
ENDSEC
  0
SECTION
  2
CLASSES
  0
CLASS
  1
LWPOLYLINE
  2
AcDbPolyline
  3
AutoCAD 2000
 90
    32768
280
     0
281
     1
  0
CLASS
  1
IMAGE
  2
AcDbRasterImage
  3
ISM
 90
    32895
280
     0
281
     1
  0
CLASS
  1
OLE2FRAME
  2
AcDbOle2Frame
  3
AutoCAD 2000
 90
    32768
280
     0
281
     1
  0
CLASS
  1
HATCH
  2
AcDbHatch
  3
AutoCAD 2000
 90
    32768
280
     0
281
     1
  0
CLASS
  1
DICTIONARYVAR
  2
AcDbDictionaryVar
  3
AutoCAD 2000
 90
    32768
280
     0
281
     0
  0
CLASS
  1
RASTERVARIABLES
  2
AcDbRasterVariables
  3
ISM
 90
    32768
280
     0
281
     0
  0
CLASS
  1
IMAGEDEF
  2
AcDbRasterImageDef
  3
ISM
 90
    32768
280
     0
281
     0
  0
CLASS
  1
IMAGEDEF_REACTOR
  2
AcDbRasterImageDefReactor
  3
ISM
 90
    32769
280
     0
281
     0
  0
CLASS
  1
IDBUFFER
  2
AcDbIdBuffer
  3
AutoCAD 2000
 90
    32768
280
     0
281
     0
  0
CLASS
  1
SPATIAL_FILTER
  2
AcDbSpatialFilter
  3
AutoCAD 2000
 90
    32768
280
     0
281
     0
  0
CLASS
  1
XRECORD
  2
AcDbXrecord
  3
AutoCAD 2000
 90
        0
280
     0
281
     0
  0
CLASS
  1
SORTENTSTABLE
  2
AcDbSortentsTable
  3
AutoCAD 2000
 90
    32768
280
     0
281
     0
  0
CLASS
  1
LAYER_INDEX
  2
AcDbLayerIndex
  3
AutoCAD 2000
 90
    32768
280
     0
281
     0
  0
CLASS
  1
SPATIAL_INDEX
  2
AcDbSpatialIndex
  3
AutoCAD 2000
 90
    32768
280
     0
281
     0
  0
CLASS
  1
OBJECT_PTR
  2
CAseDLPNTableRecord
  3
"ASE-LPNTableRecord"
 90
    32769
280
     0
281
     0
  0
CLASS
  1
LAYOUT
  2
AcDbLayout
  3
AutoCAD 2000
 90
        0
280
     0
281
     0
  0
CLASS
  1
PLOTSETTINGS
  2
AcDbPlotSettings
  3
AutoCAD 2000
 90
    32768
280
     0
281
     0
  0
CLASS
  1
ACDBDICTIONARYWDFLT
  2
AcDbDictionaryWithDefault
  3
AutoCAD 2000
 90
        0
280
     0
281
     0
  0
CLASS
  1
ACDBPLACEHOLDER
  2
AcDbPlaceHolder
  3
AutoCAD 2000
 90
        0
280
     0
281
     0
  0
CLASS
  1
VBA_PROJECT
  2
AcDbVbaProject
  3
acadvba
 90
    32768
280
     0
281
     0
  0
CLASS
  1
WIPEOUT
  2
AcDbWipeout
  3
WipeOut|AutoCAD Express Tool|expresstools@autodesk.com
 90
    32895
280
     0
281
     1
  0
CLASS
  1
WIPEOUTVARIABLES
  2
AcDbWipeoutVariables
  3
WipeOut|AutoCAD Express Tool|expresstools@autodesk.com
 90
        0
280
     0
281
     0
  0
CLASS
  1
RTEXT
  2
RText
  3
RText|AutoCAD Express Tool|expresstools@autodesk.com
 90
    32768
280
     0
281
     1
  0
CLASS
  1
ARCALIGNEDTEXT
  2
AcDbArcAlignedText
  3
ATEXT|AutoCAD Express Tool|expresstools@autodesk.com
 90
    32768
280
     0
281
     1
  0
ENDSEC
  0
SECTION
  2
TABLES
  0
TABLE
  2
VPORT
  5
7
100
AcDbSymbolTable
 70
     1
  0
VPORT
  5
15
100
AcDbSymbolTableRecord
100
AcDbViewportTableRecord
  2
*ACTIVE
 70
     0
 10
0.0
 20
0.0
 11
1.0
 21
1.0
 12
0.0
 22
0.0
 13
0.0
 23
0.0
 14
1.0
 24
1.0
 15
0.0
 25
0.0
 16
0.0
 26
0.0
 36
1.0
 17
0.0
 27
0.0
 37
0.0
 40
100.0
 41
1.0
 42
50.0
 43
0.0
 44
0.0
 50
0.0
 51
0.0
 71
     0
 72
   100
 73
     1
 74
     1
 75
     0
 76
     0
 77
     0
 78
     0
281
     0
 65
     0
110
0.0
120
0.0
130
0.0
111
1.0
121
0.0
131
0.0
112
0.0
122
1.0
132
0.0
345
0
346
0
 79
     0
146
0.0
  0
ENDTAB
  0
TABLE
  2
LTYPE
  5
4
100
AcDbSymbolTable
 70
     7
  0
LTYPE
  5
11
100
AcDbSymbolTableRecord
100
AcDbLinetypeTableRecord
  2
ByBlock
 70
    64
  3

 72
    65
 73
     0
 40
0.0
  0
LTYPE
  5
12
100
AcDbSymbolTableRecord
100
AcDbLinetypeTableRecord
  2
ByLayer
 70
    64
  3

 72
    65
 73
     0
 40
0.0
  0
LTYPE
  5
13
100
AcDbSymbolTableRecord
100
AcDbLinetypeTableRecord
  2
Continuous
 70
    64
  3
Solid line
 72
    65
 73
     0
 40
0.0
  0
LTYPE
  5
24
100
AcDbSymbolTableRecord
100
AcDbLinetypeTableRecord
  2
DASHED
 70
    64
  3
Dashed __ __ __ __ __ __ __ __ __ __ __ __ __ _
 72
    65
 73
     2
 40
0.75
 49
0.5
 74
     0
 49
-0.25
 74
     0
  0
LTYPE
  5
25
100
AcDbSymbolTableRecord
100
AcDbLinetypeTableRecord
  2
CENTER
 70
    64
  3
Center ____ _ ____ _ ____ _ ____ _ ____ _ ____
 72
    65
 73
     4
 40
1.0
 49
0.5
 74
     0
 49
-0.25
 74
     0
 49
0.0
 74
     0
 49
-0.25
 74
     0
  0
LTYPE
  5
26
100
AcDbSymbolTableRecord
100
AcDbLinetypeTableRecord
  2
DIVIDE
 70
    64
  3
Divide ____ . . ____ . . ____ . . ____ . . ____
 72
    65
 73
     6
 40
1.25
 49
0.5
 74
     0
 49
-0.25
 74
     0
 49
0.0
 74
     0
 49
-0.25
 74
     0
 49
0.0
 74
     0
 49
-0.25
 74
     0
  0
LTYPE
  5
27
100
AcDbSymbolTableRecord
100
AcDbLinetypeTableRecord
  2
PHANTOM
 70
    64
  3
Phantom ______  __  __  ______  __  __  ______
 72
    65
 73
     6
 40
9.0
 49
4.3
 74
     0
 49
-0.7
 74
     0
 49
1.3
 74
     0
 49
-0.7
 74
     0
 49
1.3
 74
     0
 49
-0.7
 74
     0
  0
ENDTAB
  0
TABLE
  2
LAYER
  5
2
100
AcDbSymbolTable
 70
     3
  0
LAYER
  5
14
100
AcDbSymbolTableRecord
100
AcDbLayerTableRecord
  2
0
 70
    64
 62
    53
  6
Continuous
290
     1
370
    -3
390
1D
  0
LAYER
  5
28
100
AcDbSymbolTableRecord
100
AcDbLayerTableRecord
  2
3
 70
    64
 62
     4
  6
Continuous
290
     1
370
    -3
390
1D
  0
LAYER
  5
29
100
AcDbSymbolTableRecord
100
AcDbLayerTableRecord
  2
5
 70
    64
 62
   191
  6
Continuous
290
     1
370
    -3
390
1D
  0
ENDTAB
  0
TABLE
  2
STYLE
  5
3
100
AcDbSymbolTable
 70
     2
  0
STYLE
  5
17
100
AcDbSymbolTableRecord
100
AcDbTextStyleTableRecord
  2
Standard
 70
     0
 40
0.0
 41
1.0
 50
0.0
 71
     0
 42
0.0
  3
txt
  4

  0
STYLE
  5
2A
100
AcDbSymbolTableRecord
100
AcDbTextStyleTableRecord
  2
ZU_SHPTB00001
 70
     0
 40
0.0
 41
1.0
 50
0.0
 71
     0
 42
0.0
  3
monotxt
  4
bigfont
  0
ENDTAB
  0
TABLE
  2
VIEW
  5
5
100
AcDbSymbolTable
 70
     0
  0
ENDTAB
  0
TABLE
  2
UCS
  5
6
100
AcDbSymbolTable
 70
     0
  0
ENDTAB
  0
TABLE
  2
APPID
  5
8
100
AcDbSymbolTable
 70
     1
  0
APPID
  5
16
100
AcDbSymbolTableRecord
100
AcDbRegAppTableRecord
  2
ACAD
 70
     0
  0
ENDTAB
  0
TABLE
  2
DIMSTYLE
  5
9
100
AcDbSymbolTable
 70
     1
100
AcDbDimStyleTable
 71
     0
  0
DIMSTYLE
105
18
100
AcDbSymbolTableRecord
100
AcDbDimStyleTableRecord
  2
Standard
 70
     0
  3

  4

 40
1.0
 41
0.18
 42
0.0625
 43
0.38
 44
0.18
 45
0.0
 46
0.0
 47
0.0
 48
0.0
 71
     0
 72
     0
 73
     1
 74
     1
 75
     0
 76
     0
 77
     0
 78
     0
 79
     0
140
0.18
141
0.09
142
0.0
143
25.4
144
1.0
145
0.0
146
1.0
147
0.09
148
0.0
170
     0
171
     2
172
     0
173
     0
174
     0
175
     0
176
     0
177
     0
178
     0
179
     0
271
     4
272
     4
273
     2
274
     2
275
     0
276
     0
277
     2
278
    46
279
     0
280
     0
281
     0
282
     0
283
     1
284
     0
285
     0
286
     0
288
     0
340
17
341
0
342
0
343
0
344
0
371
    -2
372
    -2
  0
ENDTAB
  0
TABLE
  2
BLOCK_RECORD
  5
1
100
AcDbSymbolTable
 70
    20
  0
BLOCK_RECORD
  5
A
100
AcDbSymbolTableRecord
100
AcDbBlockTableRecord
  2
*MODEL_SPACE
340
20
  0
BLOCK_RECORD
  5
B
100
AcDbSymbolTableRecord
100
AcDbBlockTableRecord
  2
*PAPER_SPACE
340
21
  0
BLOCK_RECORD
  5
6E
100
AcDbSymbolTableRecord
100
AcDbBlockTableRecord
  2
ZU_SYM__USERS_HOME_SYMBOL_STD_SYM_B01_-1
340
0
102
{BLKREFS
331
80
102
}
  0
BLOCK_RECORD
  5
81
100
AcDbSymbolTableRecord
100
AcDbBlockTableRecord
  2
ZU_SYM__USERS_HOME_SYMBOL_STD_SYM_B01_00001-1
340
0
102
{BLKREFS
331
93
102
}
  0
BLOCK_RECORD
  5
94
100
AcDbSymbolTableRecord
100
AcDbBlockTableRecord
  2
ZU_SYM__USERS_HOME_SYMBOL_STD_SYM_B01_00002-1
340
0
102
{BLKREFS
331
A6
102
}
  0
BLOCK_RECORD
  5
A8
100
AcDbSymbolTableRecord
100
AcDbBlockTableRecord
  2
ZU_SYM__USERS_HOME_SYMBOL_STD_SYM_B01_00003-1
340
0
102
{BLKREFS
331
BA
102
}
  0
BLOCK_RECORD
  5
29B
100
AcDbSymbolTableRecord
100
AcDbBlockTableRecord
  2
ZU_SYM__USERS_HOME_SYMBOL_STD_SYM_B01_00004-1
340
0
102
{BLKREFS
331
2A6
102
}
  0
BLOCK_RECORD
  5
2D0
100
AcDbSymbolTableRecord
100
AcDbBlockTableRecord
  2
ZU_SYM__USERS_HOME_SYMBOL_STD_SYM_B01_00005-1
340
0
102
{BLKREFS
331
2DB
102
}
  0
BLOCK_RECORD
  5
306
100
AcDbSymbolTableRecord
100
AcDbBlockTableRecord
  2
ZU_SYM__USERS_HOME_SYMBOL_STD_SYM_B01_00006-1
340
0
102
{BLKREFS
331
311
102
}
  0
BLOCK_RECORD
  5
33C
100
AcDbSymbolTableRecord
100
AcDbBlockTableRecord
  2
ZU_SYM__USERS_HOME_SYMBOL_STD_SYM_B01_00007-1
340
0
102
{BLKREFS
331
347
102
}
  0
BLOCK_RECORD
  5
373
100
AcDbSymbolTableRecord
100
AcDbBlockTableRecord
  2
ZU_SYM__USERS_HOME_SYMBOL_STD_SYM_B01_00008-1
340
0
102
{BLKREFS
331
382
102
}
  0
BLOCK_RECORD
  5
3B9
100
AcDbSymbolTableRecord
100
AcDbBlockTableRecord
  2
ZU_SYM__USERS_HOME_SYMBOL_STD_SYM_B01_00009-1
340
0
102
{BLKREFS
331
3C4
102
}
  0
BLOCK_RECORD
  5
3CB
100
AcDbSymbolTableRecord
100
AcDbBlockTableRecord
  2
ZU_SYM__USERS_HOME_SYMBOL_POO_SYM_B20_-1
340
0
102
{BLKREFS
331
3D3
102
}
  0
BLOCK_RECORD
  5
3EA
100
AcDbSymbolTableRecord
100
AcDbBlockTableRecord
  2
ZU_SYM__USERS_HOME_SYMBOL_STD_SYM_B01_00010-1
340
0
102
{BLKREFS
331
3F9
102
}
  0
BLOCK_RECORD
  5
400
100
AcDbSymbolTableRecord
100
AcDbBlockTableRecord
  2
ZU_SYM__USERS_HOME_SYMBOL_STD_SYM_B01_00011-1
340
0
102
{BLKREFS
331
40F
102
}
  0
BLOCK_RECORD
  5
411
100
AcDbSymbolTableRecord
100
AcDbBlockTableRecord
  2
ZU_SYM__USERS_HOME_SYMBOL_STD_SYM_B01_00012-1
340
0
102
{BLKREFS
331
41C
102
}
  0
BLOCK_RECORD
  5
437
100
AcDbSymbolTableRecord
100
AcDbBlockTableRecord
  2
ZU_SYM__USERS_HOME_SYMBOL_POO_SYM_B20_00013-1
340
0
102
{BLKREFS
331
442
102
}
  0
BLOCK_RECORD
  5
46A
100
AcDbSymbolTableRecord
100
AcDbBlockTableRecord
  2
ZU_SYM__USERS_HOME_SYMBOL_POO_SYM_B20_00014-1
340
0
102
{BLKREFS
331
475
102
}
  0
BLOCK_RECORD
  5
495
100
AcDbSymbolTableRecord
100
AcDbBlockTableRecord
  2
ZU_SYM__USERS_HOME_SYMBOL_POO_SYM_B20_00015-1
340
0
102
{BLKREFS
331
4A0
102
}
  0
BLOCK_RECORD
  5
582
100
AcDbSymbolTableRecord
100
AcDbBlockTableRecord
  2
ZU_SYM__USERS_HOME_SYMBOL_POO_SYM_B20_00016-1
340
0
102
{BLKREFS
331
58A
102
}
  0
BLOCK_RECORD
  5
5D3
100
AcDbSymbolTableRecord
100
AcDbBlockTableRecord
  2
ZU_SYM__USERS_HOME_SYMBOL_STD_SYM_B01_00017-1
340
0
102
{BLKREFS
331
5E2
102
}
  0
BLOCK_RECORD
  5
5EE
100
AcDbSymbolTableRecord
100
AcDbBlockTableRecord
  2
ZU_SYM__USERS_HOME_SYMBOL_POO_SYM_B20_00018-1
340
0
102
{BLKREFS
331
5F6
102
}
  0
ENDTAB
  0
ENDSEC
  0
SECTION
  2
BLOCKS
  0
BLOCK
  5
D
100
AcDbEntity
  8
0
100
AcDbBlockBegin
  2
*MODEL_SPACE
 70
     0
 10
0.0
 20
0.0
 30
0.0
  3
*MODEL_SPACE
  1

  0
ENDBLK
  5
E
100
AcDbEntity
  8
0
100
AcDbBlockEnd
  0
BLOCK
  5
F
100
AcDbEntity
 67
     1
  8
0
100
AcDbBlockBegin
  2
*PAPER_SPACE
 70
     0
 10
0.0
 20
0.0
 30
0.0
  3
*PAPER_SPACE
  1

  0
ENDBLK
  5
10
100
AcDbEntity
 67
     1
  8
0
100
AcDbBlockEnd
  0
BLOCK
  5
6F
100
AcDbEntity
  8
0
100
AcDbBlockBegin
  2
ZU_SYM__USERS_HOME_SYMBOL_STD_SYM_B01_-1
 70
    64
 10
0.0
 20
0.0
 30
0.0
  3
ZU_SYM__USERS_HOME_SYMBOL_STD_SYM_B01_-1
  1

  0
POINT
  5
70
100
AcDbEntity
  8
0
370
    -3
  6
Continuous
100
AcDbPoint
 10
0.0
 20
0.0
 30
0.0
  0
LINE
  5
71
100
AcDbEntity
  8
0
370
    -3
  6
Continuous
100
AcDbLine
 10
-0.000025
 20
-4.599994
 30
0.0
 11
-4.300015
 21
-4.599977
 31
0.0
  0
LINE
  5
72
100
AcDbEntity
  8
0
370
    -3
  6
Continuous
100
AcDbLine
 10
-4.299996
 20
-4.599962
 30
0.0
 11
-4.79999
 21
-3.899959
 31
0.0
  0
LINE
  5
73
100
AcDbEntity
  8
0
370
    -3
  6
Continuous
100
AcDbLine
 10
-4.80001
 20
-3.899973
 30
0.0
 11
-4.799979
 21
3.900012
 31
0.0
  0
LINE
  5
74
100
AcDbEntity
  8
0
370
    -3
  6
Continuous
100
AcDbLine
 10
-4.799962
 20
3.900001
 30
0.0
 11
-4.299962
 21
4.599999
 31
0.0
  0
LINE
  5
75
100
AcDbEntity
  8
0
370
    -3
  6
Continuous
100
AcDbLine
 10
-4.299978
 20
4.600015
 30
0.0
 11
0.000013
 21
4.599998
 31
0.0
  0
LINE
  5
76
100
AcDbEntity
  8
0
370
    -3
  6
Continuous
100
AcDbLine
 10
0.000016
 20
4.599992
 30
0.0
 11
-0.000021
 21
-4.599992
 31
0.0
  0
LINE
  5
77
100
AcDbEntity
  8
0
370
    -3
  6
Continuous
100
AcDbLine
 10
-4.300006
 20
-2.29998
 30
0.0
 11
-1.300007
 21
-2.299992
 31
0.0
  0
LINE
  5
78
100
AcDbEntity
  8
0
370
    -3
  6
Continuous
100
AcDbLine
 10
-4.299987
 20
2.300014
 30
0.0
 11
-1.29999
 21
2.300004
 31
0.0
  0
ARC
  5
79
100
AcDbEntity
  8
0
370
    -3
  6
Continuous
100
AcDbCircle
 10
-3.230014
 20
-3.449986
 30
0.0
 40
1.57
100
AcDbArc
 50
132.899744
 51
179.999745
  0
ARC
  5
7A
100
AcDbEntity
  8
0
370
    -3
  6
Continuous
100
AcDbCircle
 10
-3.229986
 20
3.450012
 30
0.0
 40
1.57
100
AcDbArc
 50
179.999745
 51
227.099746
  0
ARC
  5
7B
100
AcDbEntity
  8
0
370
    -3
  6
Continuous
100
AcDbCircle
 10
0.740001
 20
-0.000003
 30
0.0
 40
5.539999
100
AcDbArc
 50
155.470187
 51
204.52925
  0
LINE
  5
7C
100
AcDbEntity
  8
0
370
    -3
  6
Continuous
100
AcDbLine
 10
-1.300018
 20
-4.599993
 30
0.0
 11
-1.299981
 21
4.600004
 31
0.0
  0
LINE
  5
7D
100
AcDbEntity
  8
0
370
    -3
  6
Continuous
100
AcDbLine
 10
-1.3
 20
-0.299995
 30
0.0
 11
-0.000004
 21
-0.000001
 31
0.0
  0
LINE
  5
7E
100
AcDbEntity
  8
0
370
    -3
  6
Continuous
100
AcDbLine
 10
-1.299999
 20
0.300007
 30
0.0
 11
-0.000001
 21
0.600002
 31
0.0
  0
ENDBLK
  5
7F
100
AcDbEntity
  8
0
100
AcDbBlockEnd
  0
BLOCK
  5
82
100
AcDbEntity
  8
0
100
AcDbBlockBegin
  2
ZU_SYM__USERS_HOME_SYMBOL_STD_SYM_B01_00001-1
 70
    64
 10
0.0
 20
0.0
 30
0.0
  3
ZU_SYM__USERS_HOME_SYMBOL_STD_SYM_B01_00001-1
  1

  0
POINT
  5
83
100
AcDbEntity
  8
0
370
    -3
  6
Continuous
100
AcDbPoint
 10
0.0
 20
0.0
 30
0.0
  0
LINE
  5
84
100
AcDbEntity
  8
0
370
    -3
  6
Continuous
100
AcDbLine
 10
-0.000025
 20
-4.599994
 30
0.0
 11
-4.300015
 21
-4.599977
 31
0.0
  0
LINE
  5
85
100
AcDbEntity
  8
0
370
    -3
  6
Continuous
100
AcDbLine
 10
-4.299996
 20
-4.599962
 30
0.0
 11
-4.79999
 21
-3.899959
 31
0.0
  0
LINE
  5
86
100
AcDbEntity
  8
0
370
    -3
  6
Continuous
100
AcDbLine
 10
-4.80001
 20
-3.899973
 30
0.0
 11
-4.799979
 21
3.900012
 31
0.0
  0
LINE
  5
87
100
AcDbEntity
  8
0
370
    -3
  6
Continuous
100
AcDbLine
 10
-4.799962
 20
3.900001
 30
0.0
 11
-4.299962
 21
4.599999
 31
0.0
  0
LINE
  5
88
100
AcDbEntity
  8
0
370
    -3
  6
Continuous
100
AcDbLine
 10
-4.299978
 20
4.600015
 30
0.0
 11
0.000013
 21
4.599998
 31
0.0
  0
LINE
  5
89
100
AcDbEntity
  8
0
370
    -3
  6
Continuous
100
AcDbLine
 10
0.000016
 20
4.599992
 30
0.0
 11
-0.000021
 21
-4.599992
 31
0.0
  0
LINE
  5
8A
100
AcDbEntity
  8
0
370
    -3
  6
Continuous
100
AcDbLine
 10
-4.300006
 20
-2.29998
 30
0.0
 11
-1.300007
 21
-2.299992
 31
0.0
  0
LINE
  5
8B
100
AcDbEntity
  8
0
370
    -3
  6
Continuous
100
AcDbLine
 10
-4.299987
 20
2.300014
 30
0.0
 11
-1.29999
 21
2.300004
 31
0.0
  0
ARC
  5
8C
100
AcDbEntity
  8
0
370
    -3
  6
Continuous
100
AcDbCircle
 10
-3.230014
 20
-3.449986
 30
0.0
 40
1.57
100
AcDbArc
 50
132.899744
 51
179.999745
  0
ARC
  5
8D
100
AcDbEntity
  8
0
370
    -3
  6
Continuous
100
AcDbCircle
 10
-3.229986
 20
3.450012
 30
0.0
 40
1.57
100
AcDbArc
 50
179.999745
 51
227.099746
  0
ARC
  5
8E
100
AcDbEntity
  8
0
370
    -3
  6
Continuous
100
AcDbCircle
 10
0.740001
 20
-0.000003
 30
0.0
 40
5.539999
100
AcDbArc
 50
155.470187
 51
204.52925
  0
LINE
  5
8F
100
AcDbEntity
  8
0
370
    -3
  6
Continuous
100
AcDbLine
 10
-1.300018
 20
-4.599993
 30
0.0
 11
-1.299981
 21
4.600004
 31
0.0
  0
LINE
  5
90
100
AcDbEntity
  8
0
370
    -3
  6
Continuous
100
AcDbLine
 10
-1.3
 20
-0.299995
 30
0.0
 11
-0.000004
 21
-0.000001
 31
0.0
  0
LINE
  5
91
100
AcDbEntity
  8
0
370
    -3
  6
Continuous
100
AcDbLine
 10
-1.299999
 20
0.300007
 30
0.0
 11
-0.000001
 21
0.600002
 31
0.0
  0
ENDBLK
  5
92
100
AcDbEntity
  8
0
100
AcDbBlockEnd
  0
BLOCK
  5
95
100
AcDbEntity
  8
0
100
AcDbBlockBegin
  2
ZU_SYM__USERS_HOME_SYMBOL_STD_SYM_B01_00002-1
 70
    64
 10
0.0
 20
0.0
 30
0.0
  3
ZU_SYM__USERS_HOME_SYMBOL_STD_SYM_B01_00002-1
  1

  0
POINT
  5
96
100
AcDbEntity
  8
0
370
    -3
  6
Continuous
100
AcDbPoint
 10
0.0
 20
0.0
 30
0.0
  0
LINE
  5
97
100
AcDbEntity
  8
0
370
    -3
  6
Continuous
100
AcDbLine
 10
-0.000025
 20
-4.599994
 30
0.0
 11
-4.300015
 21
-4.599977
 31
0.0
  0
LINE
  5
98
100
AcDbEntity
  8
0
370
    -3
  6
Continuous
100
AcDbLine
 10
-4.299996
 20
-4.599962
 30
0.0
 11
-4.79999
 21
-3.899959
 31
0.0
  0
LINE
  5
99
100
AcDbEntity
  8
0
370
    -3
  6
Continuous
100
AcDbLine
 10
-4.80001
 20
-3.899973
 30
0.0
 11
-4.799979
 21
3.900012
 31
0.0
  0
LINE
  5
9A
100
AcDbEntity
  8
0
370
    -3
  6
Continuous
100
AcDbLine
 10
-4.799962
 20
3.900001
 30
0.0
 11
-4.299962
 21
4.599999
 31
0.0
  0
LINE
  5
9B
100
AcDbEntity
  8
0
370
    -3
  6
Continuous
100
AcDbLine
 10
-4.299978
 20
4.600015
 30
0.0
 11
0.000013
 21
4.599998
 31
0.0
  0
LINE
  5
9C
100
AcDbEntity
  8
0
370
    -3
  6
Continuous
100
AcDbLine
 10
0.000016
 20
4.599992
 30
0.0
 11
-0.000021
 21
-4.599992
 31
0.0
  0
LINE
  5
9D
100
AcDbEntity
  8
0
370
    -3
  6
Continuous
100
AcDbLine
 10
-4.300006
 20
-2.29998
 30
0.0
 11
-1.300007
 21
-2.299992
 31
0.0
  0
LINE
  5
9E
100
AcDbEntity
  8
0
370
    -3
  6
Continuous
100
AcDbLine
 10
-4.299987
 20
2.300014
 30
0.0
 11
-1.29999
 21
2.300004
 31
0.0
  0
ARC
  5
9F
100
AcDbEntity
  8
0
370
    -3
  6
Continuous
100
AcDbCircle
 10
-3.230014
 20
-3.449986
 30
0.0
 40
1.57
100
AcDbArc
 50
132.899744
 51
179.999745
  0
ARC
  5
A0
100
AcDbEntity
  8
0
370
    -3
  6
Continuous
100
AcDbCircle
 10
-3.229986
 20
3.450012
 30
0.0
 40
1.57
100
AcDbArc
 50
179.999745
 51
227.099746
  0
ARC
  5
A1
100
AcDbEntity
  8
0
370
    -3
  6
Continuous
100
AcDbCircle
 10
0.740001
 20
-0.000003
 30
0.0
 40
5.539999
100
AcDbArc
 50
155.470187
 51
204.52925
  0
LINE
  5
A2
100
AcDbEntity
  8
0
370
    -3
  6
Continuous
100
AcDbLine
 10
-1.300018
 20
-4.599993
 30
0.0
 11
-1.299981
 21
4.600004
 31
0.0
  0
LINE
  5
A3
100
AcDbEntity
  8
0
370
    -3
  6
Continuous
100
AcDbLine
 10
-1.3
 20
-0.299995
 30
0.0
 11
-0.000004
 21
-0.000001
 31
0.0
  0
LINE
  5
A4
100
AcDbEntity
  8
0
370
    -3
  6
Continuous
100
AcDbLine
 10
-1.299999
 20
0.300007
 30
0.0
 11
-0.000001
 21
0.600002
 31
0.0
  0
ENDBLK
  5
A5
100
AcDbEntity
  8
0
100
AcDbBlockEnd
  0
BLOCK
  5
A9
100
AcDbEntity
  8
0
100
AcDbBlockBegin
  2
ZU_SYM__USERS_HOME_SYMBOL_STD_SYM_B01_00003-1
 70
    64
 10
0.0
 20
0.0
 30
0.0
  3
ZU_SYM__USERS_HOME_SYMBOL_STD_SYM_B01_00003-1
  1

  0
POINT
  5
AA
100
AcDbEntity
  8
0
370
    -3
  6
Continuous
100
AcDbPoint
 10
0.0
 20
0.0
 30
0.0
  0
LINE
  5
AB
100
AcDbEntity
  8
0
370
    -3
  6
Continuous
100
AcDbLine
 10
-0.000025
 20
-4.599994
 30
0.0
 11
-4.300015
 21
-4.599977
 31
0.0
  0
LINE
  5
AC
100
AcDbEntity
  8
0
370
    -3
  6
Continuous
100
AcDbLine
 10
-4.299996
 20
-4.599962
 30
0.0
 11
-4.79999
 21
-3.899959
 31
0.0
  0
LINE
  5
AD
100
AcDbEntity
  8
0
370
    -3
  6
Continuous
100
AcDbLine
 10
-4.80001
 20
-3.899973
 30
0.0
 11
-4.799979
 21
3.900012
 31
0.0
  0
LINE
  5
AE
100
AcDbEntity
  8
0
370
    -3
  6
Continuous
100
AcDbLine
 10
-4.799962
 20
3.900001
 30
0.0
 11
-4.299962
 21
4.599999
 31
0.0
  0
LINE
  5
AF
100
AcDbEntity
  8
0
370
    -3
  6
Continuous
100
AcDbLine
 10
-4.299978
 20
4.600015
 30
0.0
 11
0.000013
 21
4.599998
 31
0.0
  0
LINE
  5
B0
100
AcDbEntity
  8
0
370
    -3
  6
Continuous
100
AcDbLine
 10
0.000016
 20
4.599992
 30
0.0
 11
-0.000021
 21
-4.599992
 31
0.0
  0
LINE
  5
B1
100
AcDbEntity
  8
0
370
    -3
  6
Continuous
100
AcDbLine
 10
-4.300006
 20
-2.29998
 30
0.0
 11
-1.300007
 21
-2.299992
 31
0.0
  0
LINE
  5
B2
100
AcDbEntity
  8
0
370
    -3
  6
Continuous
100
AcDbLine
 10
-4.299987
 20
2.300014
 30
0.0
 11
-1.29999
 21
2.300004
 31
0.0
  0
ARC
  5
B3
100
AcDbEntity
  8
0
370
    -3
  6
Continuous
100
AcDbCircle
 10
-3.230014
 20
-3.449986
 30
0.0
 40
1.57
100
AcDbArc
 50
132.899744
 51
179.999745
  0
ARC
  5
B4
100
AcDbEntity
  8
0
370
    -3
  6
Continuous
100
AcDbCircle
 10
-3.229986
 20
3.450012
 30
0.0
 40
1.57
100
AcDbArc
 50
179.999745
 51
227.099746
  0
ARC
  5
B5
100
AcDbEntity
  8
0
370
    -3
  6
Continuous
100
AcDbCircle
 10
0.740001
 20
-0.000003
 30
0.0
 40
5.539999
100
AcDbArc
 50
155.470187
 51
204.52925
  0
LINE
  5
B6
100
AcDbEntity
  8
0
370
    -3
  6
Continuous
100
AcDbLine
 10
-1.300018
 20
-4.599993
 30
0.0
 11
-1.299981
 21
4.600004
 31
0.0
  0
LINE
  5
B7
100
AcDbEntity
  8
0
370
    -3
  6
Continuous
100
AcDbLine
 10
-1.3
 20
-0.299995
 30
0.0
 11
-0.000004
 21
-0.000001
 31
0.0
  0
LINE
  5
B8
100
AcDbEntity
  8
0
370
    -3
  6
Continuous
100
AcDbLine
 10
-1.299999
 20
0.300007
 30
0.0
 11
-0.000001
 21
0.600002
 31
0.0
  0
ENDBLK
  5
B9
100
AcDbEntity
  8
0
100
AcDbBlockEnd
  0
BLOCK
  5
29C
100
AcDbEntity
  8
0
100
AcDbBlockBegin
  2
ZU_SYM__USERS_HOME_SYMBOL_STD_SYM_B01_00004-1
 70
    64
 10
0.0
 20
0.0
 30
0.0
  3
ZU_SYM__USERS_HOME_SYMBOL_STD_SYM_B01_00004-1
  1

  0
CIRCLE
  5
29D
100
AcDbEntity
  8
0
370
    -3
  6
Continuous
100
AcDbCircle
 10
0.0
 20
0.0
 30
0.0
 40
4.0
  0
LINE
  5
29E
100
AcDbEntity
  8
0
370
    -3
  6
Continuous
100
AcDbLine
 10
2.299999
 20
-4.0
 30
0.0
 11
-2.299999
 21
-4.0
 31
0.0
  0
LINE
  5
29F
100
AcDbEntity
  8
0
370
    -3
  6
Continuous
100
AcDbLine
 10
4.6
 20
-0.000001
 30
0.0
 11
2.300001
 21
-4.0
 31
0.0
  0
LINE
  5
2A0
100
AcDbEntity
  8
0
370
    -3
  6
Continuous
100
AcDbLine
 10
2.300001
 20
4.0
 30
0.0
 11
4.6
 21
0.000001
 31
0.0
  0
LINE
  5
2A1
100
AcDbEntity
  8
0
370
    -3
  6
Continuous
100
AcDbLine
 10
-2.299999
 20
4.0
 30
0.0
 11
2.299999
 21
4.0
 31
0.0
  0
LINE
  5
2A2
100
AcDbEntity
  8
0
370
    -3
  6
Continuous
100
AcDbLine
 10
-4.6
 20
0.000001
 30
0.0
 11
-2.300001
 21
4.0
 31
0.0
  0
LINE
  5
2A3
100
AcDbEntity
  8
0
370
    -3
  6
Continuous
100
AcDbLine
 10
-2.300001
 20
-4.0
 30
0.0
 11
-4.6
 21
-0.000001
 31
0.0
  0
POINT
  5
2A4
100
AcDbEntity
  8
0
370
    -3
  6
Continuous
100
AcDbPoint
 10
0.0
 20
0.0
 30
0.0
  0
ENDBLK
  5
2A5
100
AcDbEntity
  8
0
100
AcDbBlockEnd
  0
BLOCK
  5
2D1
100
AcDbEntity
  8
0
100
AcDbBlockBegin
  2
ZU_SYM__USERS_HOME_SYMBOL_STD_SYM_B01_00005-1
 70
    64
 10
0.0
 20
0.0
 30
0.0
  3
ZU_SYM__USERS_HOME_SYMBOL_STD_SYM_B01_00005-1
  1

  0
CIRCLE
  5
2D2
100
AcDbEntity
  8
0
370
    -3
  6
Continuous
100
AcDbCircle
 10
0.0
 20
0.0
 30
0.0
 40
4.0
  0
LINE
  5
2D3
100
AcDbEntity
  8
0
370
    -3
  6
Continuous
100
AcDbLine
 10
2.299999
 20
-4.0
 30
0.0
 11
-2.299999
 21
-4.0
 31
0.0
  0
LINE
  5
2D4
100
AcDbEntity
  8
0
370
    -3
  6
Continuous
100
AcDbLine
 10
4.6
 20
-0.000001
 30
0.0
 11
2.300001
 21
-4.0
 31
0.0
  0
LINE
  5
2D5
100
AcDbEntity
  8
0
370
    -3
  6
Continuous
100
AcDbLine
 10
2.300001
 20
4.0
 30
0.0
 11
4.6
 21
0.000001
 31
0.0
  0
LINE
  5
2D6
100
AcDbEntity
  8
0
370
    -3
  6
Continuous
100
AcDbLine
 10
-2.299999
 20
4.0
 30
0.0
 11
2.299999
 21
4.0
 31
0.0
  0
LINE
  5
2D7
100
AcDbEntity
  8
0
370
    -3
  6
Continuous
100
AcDbLine
 10
-4.6
 20
0.000001
 30
0.0
 11
-2.300001
 21
4.0
 31
0.0
  0
LINE
  5
2D8
100
AcDbEntity
  8
0
370
    -3
  6
Continuous
100
AcDbLine
 10
-2.300001
 20
-4.0
 30
0.0
 11
-4.6
 21
-0.000001
 31
0.0
  0
POINT
  5
2D9
100
AcDbEntity
  8
0
370
    -3
  6
Continuous
100
AcDbPoint
 10
0.0
 20
0.0
 30
0.0
  0
ENDBLK
  5
2DA
100
AcDbEntity
  8
0
100
AcDbBlockEnd
  0
BLOCK
  5
307
100
AcDbEntity
  8
0
100
AcDbBlockBegin
  2
ZU_SYM__USERS_HOME_SYMBOL_STD_SYM_B01_00006-1
 70
    64
 10
0.0
 20
0.0
 30
0.0
  3
ZU_SYM__USERS_HOME_SYMBOL_STD_SYM_B01_00006-1
  1

  0
CIRCLE
  5
308
100
AcDbEntity
  8
0
370
    -3
  6
Continuous
100
AcDbCircle
 10
0.0
 20
0.0
 30
0.0
 40
4.0
  0
LINE
  5
309
100
AcDbEntity
  8
0
370
    -3
  6
Continuous
100
AcDbLine
 10
2.299999
 20
-4.0
 30
0.0
 11
-2.299999
 21
-4.0
 31
0.0
  0
LINE
  5
30A
100
AcDbEntity
  8
0
370
    -3
  6
Continuous
100
AcDbLine
 10
4.6
 20
-0.000001
 30
0.0
 11
2.300001
 21
-4.0
 31
0.0
  0
LINE
  5
30B
100
AcDbEntity
  8
0
370
    -3
  6
Continuous
100
AcDbLine
 10
2.300001
 20
4.0
 30
0.0
 11
4.6
 21
0.000001
 31
0.0
  0
LINE
  5
30C
100
AcDbEntity
  8
0
370
    -3
  6
Continuous
100
AcDbLine
 10
-2.299999
 20
4.0
 30
0.0
 11
2.299999
 21
4.0
 31
0.0
  0
LINE
  5
30D
100
AcDbEntity
  8
0
370
    -3
  6
Continuous
100
AcDbLine
 10
-4.6
 20
0.000001
 30
0.0
 11
-2.300001
 21
4.0
 31
0.0
  0
LINE
  5
30E
100
AcDbEntity
  8
0
370
    -3
  6
Continuous
100
AcDbLine
 10
-2.300001
 20
-4.0
 30
0.0
 11
-4.6
 21
-0.000001
 31
0.0
  0
POINT
  5
30F
100
AcDbEntity
  8
0
370
    -3
  6
Continuous
100
AcDbPoint
 10
0.0
 20
0.0
 30
0.0
  0
ENDBLK
  5
310
100
AcDbEntity
  8
0
100
AcDbBlockEnd
  0
BLOCK
  5
33D
100
AcDbEntity
  8
0
100
AcDbBlockBegin
  2
ZU_SYM__USERS_HOME_SYMBOL_STD_SYM_B01_00007-1
 70
    64
 10
0.0
 20
0.0
 30
0.0
  3
ZU_SYM__USERS_HOME_SYMBOL_STD_SYM_B01_00007-1
  1

  0
CIRCLE
  5
33E
100
AcDbEntity
  8
0
370
    -3
  6
Continuous
100
AcDbCircle
 10
0.0
 20
0.0
 30
0.0
 40
4.0
  0
LINE
  5
33F
100
AcDbEntity
  8
0
370
    -3
  6
Continuous
100
AcDbLine
 10
2.299999
 20
-4.0
 30
0.0
 11
-2.299999
 21
-4.0
 31
0.0
  0
LINE
  5
340
100
AcDbEntity
  8
0
370
    -3
  6
Continuous
100
AcDbLine
 10
4.6
 20
-0.000001
 30
0.0
 11
2.300001
 21
-4.0
 31
0.0
  0
LINE
  5
341
100
AcDbEntity
  8
0
370
    -3
  6
Continuous
100
AcDbLine
 10
2.300001
 20
4.0
 30
0.0
 11
4.6
 21
0.000001
 31
0.0
  0
LINE
  5
342
100
AcDbEntity
  8
0
370
    -3
  6
Continuous
100
AcDbLine
 10
-2.299999
 20
4.0
 30
0.0
 11
2.299999
 21
4.0
 31
0.0
  0
LINE
  5
343
100
AcDbEntity
  8
0
370
    -3
  6
Continuous
100
AcDbLine
 10
-4.6
 20
0.000001
 30
0.0
 11
-2.300001
 21
4.0
 31
0.0
  0
LINE
  5
344
100
AcDbEntity
  8
0
370
    -3
  6
Continuous
100
AcDbLine
 10
-2.300001
 20
-4.0
 30
0.0
 11
-4.6
 21
-0.000001
 31
0.0
  0
POINT
  5
345
100
AcDbEntity
  8
0
370
    -3
  6
Continuous
100
AcDbPoint
 10
0.0
 20
0.0
 30
0.0
  0
ENDBLK
  5
346
100
AcDbEntity
  8
0
100
AcDbBlockEnd
  0
BLOCK
  5
374
100
AcDbEntity
  8
0
100
AcDbBlockBegin
  2
ZU_SYM__USERS_HOME_SYMBOL_STD_SYM_B01_00008-1
 70
    64
 10
0.0
 20
0.0
 30
0.0
  3
ZU_SYM__USERS_HOME_SYMBOL_STD_SYM_B01_00008-1
  1

  0
POINT
  5
375
100
AcDbEntity
  8
0
370
    -3
  6
Continuous
100
AcDbPoint
 10
0.0
 20
0.0
 30
0.0
  0
LINE
  5
376
100
AcDbEntity
  8
0
370
    -3
  6
Continuous
100
AcDbLine
 10
-0.000018
 20
-4.599998
 30
0.0
 11
-3.000017
 21
-4.599986
 31
0.0
  0
LINE
  5
377
100
AcDbEntity
  8
0
370
    -3
  6
Continuous
100
AcDbLine
 10
-2.999996
 20
-4.59997
 30
0.0
 11
-3.499991
 21
-3.899967
 31
0.0
  0
LINE
  5
378
100
AcDbEntity
  8
0
370
    -3
  6
Continuous
100
AcDbLine
 10
-3.500012
 20
-3.89998
 30
0.0
 11
-3.49998
 21
3.90001
 31
0.0
  0
LINE
  5
379
100
AcDbEntity
  8
0
370
    -3
  6
Continuous
100
AcDbLine
 10
-3.499965
 20
3.9
 30
0.0
 11
-2.999964
 21
4.599998
 31
0.0
  0
LINE
  5
37A
100
AcDbEntity
  8
0
370
    -3
  6
Continuous
100
AcDbLine
 10
-2.999979
 20
4.600012
 30
0.0
 11
0.000019
 21
4.600001
 31
0.0
  0
LINE
  5
37B
100
AcDbEntity
  8
0
370
    -3
  6
Continuous
100
AcDbLine
 10
0.000019
 20
4.6
 30
0.0
 11
-0.000019
 21
-4.6
 31
0.0
  0
LINE
  5
37C
100
AcDbEntity
  8
0
370
    -3
  6
Continuous
100
AcDbLine
 10
-3.000008
 20
-2.299986
 30
0.0
 11
-0.000008
 21
-2.299998
 31
0.0
  0
LINE
  5
37D
100
AcDbEntity
  8
0
370
    -3
  6
Continuous
100
AcDbLine
 10
-2.999989
 20
2.300011
 30
0.0
 11
0.000009
 21
2.3
 31
0.0
  0
ARC
  5
37E
100
AcDbEntity
  8
0
370
    -3
  6
Continuous
100
AcDbCircle
 10
-1.930014
 20
-3.449991
 30
0.0
 40
1.57
100
AcDbArc
 50
132.899744
 51
179.999745
  0
ARC
  5
37F
100
AcDbEntity
  8
0
370
    -3
  6
Continuous
100
AcDbCircle
 10
-1.929986
 20
3.450007
 30
0.0
 40
1.57
100
AcDbArc
 50
179.999745
 51
227.099746
  0
ARC
  5
380
100
AcDbEntity
  8
0
370
    -3
  6
Continuous
100
AcDbCircle
 10
2.040001
 20
-0.000008
 30
0.0
 40
5.539999
100
AcDbArc
 50
155.470187
 51
204.52925
  0
ENDBLK
  5
381
100
AcDbEntity
  8
0
100
AcDbBlockEnd
  0
BLOCK
  5
3BA
100
AcDbEntity
  8
0
100
AcDbBlockBegin
  2
ZU_SYM__USERS_HOME_SYMBOL_STD_SYM_B01_00009-1
 70
    64
 10
0.0
 20
0.0
 30
0.0
  3
ZU_SYM__USERS_HOME_SYMBOL_STD_SYM_B01_00009-1
  1

  0
CIRCLE
  5
3BB
100
AcDbEntity
  8
0
370
    -3
  6
Continuous
100
AcDbCircle
 10
0.0
 20
0.0
 30
0.0
 40
4.0
  0
LINE
  5
3BC
100
AcDbEntity
  8
0
370
    -3
  6
Continuous
100
AcDbLine
 10
4.0
 20
2.299992
 30
0.0
 11
3.999996
 21
-2.300002
 31
0.0
  0
LINE
  5
3BD
100
AcDbEntity
  8
0
370
    -3
  6
Continuous
100
AcDbLine
 10
0.000007
 20
4.6
 30
0.0
 11
4.000001
 21
2.299995
 31
0.0
  0
LINE
  5
3BE
100
AcDbEntity
  8
0
370
    -3
  6
Continuous
100
AcDbLine
 10
-3.999993
 20
2.300002
 30
0.0
 11
0.000005
 21
4.599996
 31
0.0
  0
LINE
  5
3BF
100
AcDbEntity
  8
0
370
    -3
  6
Continuous
100
AcDbLine
 10
-4.0
 20
-2.299992
 30
0.0
 11
-3.999996
 21
2.300002
 31
0.0
  0
LINE
  5
3C0
100
AcDbEntity
  8
0
370
    -3
  6
Continuous
100
AcDbLine
 10
-0.000007
 20
-4.6
 30
0.0
 11
-4.000001
 21
-2.299995
 31
0.0
  0
LINE
  5
3C1
100
AcDbEntity
  8
0
370
    -3
  6
Continuous
100
AcDbLine
 10
3.999993
 20
-2.300002
 30
0.0
 11
-0.000005
 21
-4.599996
 31
0.0
  0
POINT
  5
3C2
100
AcDbEntity
  8
0
370
    -3
  6
Continuous
100
AcDbPoint
 10
0.0
 20
0.0
 30
0.0
  0
ENDBLK
  5
3C3
100
AcDbEntity
  8
0
100
AcDbBlockEnd
  0
BLOCK
  5
3CC
100
AcDbEntity
  8
0
100
AcDbBlockBegin
  2
ZU_SYM__USERS_HOME_SYMBOL_POO_SYM_B20_-1
 70
    64
 10
0.0
 20
0.0
 30
0.0
  3
ZU_SYM__USERS_HOME_SYMBOL_POO_SYM_B20_-1
  1

  0
LINE
  5
3CD
100
AcDbEntity
  8
0
370
    -3
  6
Continuous
100
AcDbLine
 10
0.0
 20
-5.0
 30
0.0
 11
-6.0
 21
-5.0
 31
0.0
  0
LINE
  5
3CE
100
AcDbEntity
  8
0
370
    -3
  6
Continuous
100
AcDbLine
 10
0.0
 20
5.0
 30
0.0
 11
-6.0
 21
5.0
 31
0.0
  0
LINE
  5
3CF
100
AcDbEntity
  8
0
370
    -3
  6
Continuous
100
AcDbLine
 10
-6.0
 20
-5.0
 30
0.0
 11
-6.0
 21
5.0
 31
0.0
  0
LINE
  5
3D0
100
AcDbEntity
  8
0
370
    -3
  6
Continuous
100
AcDbLine
 10
0.0
 20
5.0
 30
0.0
 11
0.0
 21
-5.0
 31
0.0
  0
POINT
  5
3D1
100
AcDbEntity
  8
0
370
    -3
  6
Continuous
100
AcDbPoint
 10
0.0
 20
0.0
 30
0.0
  0
ENDBLK
  5
3D2
100
AcDbEntity
  8
0
100
AcDbBlockEnd
  0
BLOCK
  5
3EB
100
AcDbEntity
  8
0
100
AcDbBlockBegin
  2
ZU_SYM__USERS_HOME_SYMBOL_STD_SYM_B01_00010-1
 70
    64
 10
0.0
 20
0.0
 30
0.0
  3
ZU_SYM__USERS_HOME_SYMBOL_STD_SYM_B01_00010-1
  1

  0
ARC
  5
3EC
100
AcDbEntity
  8
0
370
    -3
  6
Continuous
100
AcDbCircle
 10
2.040001
 20
-0.000008
 30
0.0
 40
5.539999
100
AcDbArc
 50
155.470187
 51
204.52925
  0
ARC
  5
3ED
100
AcDbEntity
  8
0
370
    -3
  6
Continuous
100
AcDbCircle
 10
-1.929986
 20
3.450007
 30
0.0
 40
1.57
100
AcDbArc
 50
179.999745
 51
227.099746
  0
ARC
  5
3EE
100
AcDbEntity
  8
0
370
    -3
  6
Continuous
100
AcDbCircle
 10
-1.930014
 20
-3.449991
 30
0.0
 40
1.57
100
AcDbArc
 50
132.899744
 51
179.999745
  0
LINE
  5
3EF
100
AcDbEntity
  8
0
370
    -3
  6
Continuous
100
AcDbLine
 10
-2.999989
 20
2.300011
 30
0.0
 11
0.000009
 21
2.3
 31
0.0
  0
LINE
  5
3F0
100
AcDbEntity
  8
0
370
    -3
  6
Continuous
100
AcDbLine
 10
-3.000008
 20
-2.299986
 30
0.0
 11
-0.000008
 21
-2.299998
 31
0.0
  0
LINE
  5
3F1
100
AcDbEntity
  8
0
370
    -3
  6
Continuous
100
AcDbLine
 10
0.000019
 20
4.6
 30
0.0
 11
-0.000019
 21
-4.6
 31
0.0
  0
LINE
  5
3F2
100
AcDbEntity
  8
0
370
    -3
  6
Continuous
100
AcDbLine
 10
-2.999979
 20
4.600012
 30
0.0
 11
0.000019
 21
4.600001
 31
0.0
  0
LINE
  5
3F3
100
AcDbEntity
  8
0
370
    -3
  6
Continuous
100
AcDbLine
 10
-3.499965
 20
3.9
 30
0.0
 11
-2.999964
 21
4.599998
 31
0.0
  0
LINE
  5
3F4
100
AcDbEntity
  8
0
370
    -3
  6
Continuous
100
AcDbLine
 10
-3.500012
 20
-3.89998
 30
0.0
 11
-3.49998
 21
3.90001
 31
0.0
  0
LINE
  5
3F5
100
AcDbEntity
  8
0
370
    -3
  6
Continuous
100
AcDbLine
 10
-2.999996
 20
-4.59997
 30
0.0
 11
-3.499991
 21
-3.899967
 31
0.0
  0
LINE
  5
3F6
100
AcDbEntity
  8
0
370
    -3
  6
Continuous
100
AcDbLine
 10
-0.000018
 20
-4.599998
 30
0.0
 11
-3.000017
 21
-4.599986
 31
0.0
  0
POINT
  5
3F7
100
AcDbEntity
  8
0
370
    -3
  6
Continuous
100
AcDbPoint
 10
0.0
 20
0.0
 30
0.0
  0
ENDBLK
  5
3F8
100
AcDbEntity
  8
0
100
AcDbBlockEnd
  0
BLOCK
  5
401
100
AcDbEntity
  8
0
100
AcDbBlockBegin
  2
ZU_SYM__USERS_HOME_SYMBOL_STD_SYM_B01_00011-1
 70
    64
 10
0.0
 20
0.0
 30
0.0
  3
ZU_SYM__USERS_HOME_SYMBOL_STD_SYM_B01_00011-1
  1

  0
POINT
  5
402
100
AcDbEntity
  8
0
370
    -3
  6
Continuous
100
AcDbPoint
 10
0.0
 20
0.0
 30
0.0
  0
LINE
  5
403
100
AcDbEntity
  8
0
370
    -3
  6
Continuous
100
AcDbLine
 10
-0.000018
 20
-4.599998
 30
0.0
 11
-3.000017
 21
-4.599986
 31
0.0
  0
LINE
  5
404
100
AcDbEntity
  8
0
370
    -3
  6
Continuous
100
AcDbLine
 10
-2.999996
 20
-4.59997
 30
0.0
 11
-3.499991
 21
-3.899967
 31
0.0
  0
LINE
  5
405
100
AcDbEntity
  8
0
370
    -3
  6
Continuous
100
AcDbLine
 10
-3.500012
 20
-3.89998
 30
0.0
 11
-3.49998
 21
3.90001
 31
0.0
  0
LINE
  5
406
100
AcDbEntity
  8
0
370
    -3
  6
Continuous
100
AcDbLine
 10
-3.499965
 20
3.9
 30
0.0
 11
-2.999964
 21
4.599998
 31
0.0
  0
LINE
  5
407
100
AcDbEntity
  8
0
370
    -3
  6
Continuous
100
AcDbLine
 10
-2.999979
 20
4.600012
 30
0.0
 11
0.000019
 21
4.600001
 31
0.0
  0
LINE
  5
408
100
AcDbEntity
  8
0
370
    -3
  6
Continuous
100
AcDbLine
 10
0.000019
 20
4.6
 30
0.0
 11
-0.000019
 21
-4.6
 31
0.0
  0
LINE
  5
409
100
AcDbEntity
  8
0
370
    -3
  6
Continuous
100
AcDbLine
 10
-3.000008
 20
-2.299986
 30
0.0
 11
-0.000008
 21
-2.299998
 31
0.0
  0
LINE
  5
40A
100
AcDbEntity
  8
0
370
    -3
  6
Continuous
100
AcDbLine
 10
-2.999989
 20
2.300011
 30
0.0
 11
0.000009
 21
2.3
 31
0.0
  0
ARC
  5
40B
100
AcDbEntity
  8
0
370
    -3
  6
Continuous
100
AcDbCircle
 10
-1.930014
 20
-3.449991
 30
0.0
 40
1.57
100
AcDbArc
 50
132.899744
 51
179.999745
  0
ARC
  5
40C
100
AcDbEntity
  8
0
370
    -3
  6
Continuous
100
AcDbCircle
 10
-1.929986
 20
3.450007
 30
0.0
 40
1.57
100
AcDbArc
 50
179.999745
 51
227.099746
  0
ARC
  5
40D
100
AcDbEntity
  8
0
370
    -3
  6
Continuous
100
AcDbCircle
 10
2.040001
 20
-0.000008
 30
0.0
 40
5.539999
100
AcDbArc
 50
155.470187
 51
204.52925
  0
ENDBLK
  5
40E
100
AcDbEntity
  8
0
100
AcDbBlockEnd
  0
BLOCK
  5
412
100
AcDbEntity
  8
0
100
AcDbBlockBegin
  2
ZU_SYM__USERS_HOME_SYMBOL_STD_SYM_B01_00012-1
 70
    64
 10
0.0
 20
0.0
 30
0.0
  3
ZU_SYM__USERS_HOME_SYMBOL_STD_SYM_B01_00012-1
  1

  0
CIRCLE
  5
413
100
AcDbEntity
  8
0
370
    -3
  6
Continuous
100
AcDbCircle
 10
0.0
 20
0.0
 30
0.0
 40
4.0
  0
LINE
  5
414
100
AcDbEntity
  8
0
370
    -3
  6
Continuous
100
AcDbLine
 10
4.0
 20
2.299992
 30
0.0
 11
3.999996
 21
-2.300002
 31
0.0
  0
LINE
  5
415
100
AcDbEntity
  8
0
370
    -3
  6
Continuous
100
AcDbLine
 10
0.000007
 20
4.6
 30
0.0
 11
4.000001
 21
2.299995
 31
0.0
  0
LINE
  5
416
100
AcDbEntity
  8
0
370
    -3
  6
Continuous
100
AcDbLine
 10
-3.999993
 20
2.300002
 30
0.0
 11
0.000005
 21
4.599996
 31
0.0
  0
LINE
  5
417
100
AcDbEntity
  8
0
370
    -3
  6
Continuous
100
AcDbLine
 10
-4.0
 20
-2.299992
 30
0.0
 11
-3.999996
 21
2.300002
 31
0.0
  0
LINE
  5
418
100
AcDbEntity
  8
0
370
    -3
  6
Continuous
100
AcDbLine
 10
-0.000007
 20
-4.6
 30
0.0
 11
-4.000001
 21
-2.299995
 31
0.0
  0
LINE
  5
419
100
AcDbEntity
  8
0
370
    -3
  6
Continuous
100
AcDbLine
 10
3.999993
 20
-2.300002
 30
0.0
 11
-0.000005
 21
-4.599996
 31
0.0
  0
POINT
  5
41A
100
AcDbEntity
  8
0
370
    -3
  6
Continuous
100
AcDbPoint
 10
0.0
 20
0.0
 30
0.0
  0
ENDBLK
  5
41B
100
AcDbEntity
  8
0
100
AcDbBlockEnd
  0
BLOCK
  5
438
100
AcDbEntity
  8
0
100
AcDbBlockBegin
  2
ZU_SYM__USERS_HOME_SYMBOL_POO_SYM_B20_00013-1
 70
    64
 10
0.0
 20
0.0
 30
0.0
  3
ZU_SYM__USERS_HOME_SYMBOL_POO_SYM_B20_00013-1
  1

  0
CIRCLE
  5
439
100
AcDbEntity
  8
0
370
    -3
  6
Continuous
100
AcDbCircle
 10
0.0
 20
0.0
 30
0.0
 40
5.0
  0
POINT
  5
43A
100
AcDbEntity
  8
0
370
    -3
  6
Continuous
100
AcDbPoint
 10
0.0
 20
0.0
 30
0.0
  0
LINE
  5
43B
100
AcDbEntity
  8
0
370
    -3
  6
Continuous
100
AcDbLine
 10
-2.499998
 20
-1.443372
 30
0.0
 11
-2.499999
 21
1.443378
 31
0.0
  0
LINE
  5
43C
100
AcDbEntity
  8
0
370
    -3
  6
Continuous
100
AcDbLine
 10
2.499998
 20
1.443372
 30
0.0
 11
2.499999
 21
-1.443374
 31
0.0
  0
LINE
  5
43D
100
AcDbEntity
  8
0
370
    -3
  6
Continuous
100
AcDbLine
 10
0.000005
 20
2.886749
 30
0.0
 11
2.499999
 21
1.443372
 31
0.0
  0
LINE
  5
43E
100
AcDbEntity
  8
0
370
    -3
  6
Continuous
100
AcDbLine
 10
-0.000006
 20
-2.886747
 30
0.0
 11
-2.499998
 21
-1.443372
 31
0.0
  0
LINE
  5
43F
100
AcDbEntity
  8
0
370
    -3
  6
Continuous
100
AcDbLine
 10
0.000005
 20
2.886748
 30
0.0
 11
-2.5
 21
1.443377
 31
0.0
  0
LINE
  5
440
100
AcDbEntity
  8
0
370
    -3
  6
Continuous
100
AcDbLine
 10
2.499999
 20
-1.443374
 30
0.0
 11
-0.000005
 21
-2.886748
 31
0.0
  0
ENDBLK
  5
441
100
AcDbEntity
  8
0
100
AcDbBlockEnd
  0
BLOCK
  5
46B
100
AcDbEntity
  8
0
100
AcDbBlockBegin
  2
ZU_SYM__USERS_HOME_SYMBOL_POO_SYM_B20_00014-1
 70
    64
 10
0.0
 20
0.0
 30
0.0
  3
ZU_SYM__USERS_HOME_SYMBOL_POO_SYM_B20_00014-1
  1

  0
CIRCLE
  5
46C
100
AcDbEntity
  8
0
370
    -3
  6
Continuous
100
AcDbCircle
 10
0.0
 20
0.0
 30
0.0
 40
5.0
  0
POINT
  5
46D
100
AcDbEntity
  8
0
370
    -3
  6
Continuous
100
AcDbPoint
 10
0.0
 20
0.0
 30
0.0
  0
LINE
  5
46E
100
AcDbEntity
  8
0
370
    -3
  6
Continuous
100
AcDbLine
 10
-2.499998
 20
-1.443372
 30
0.0
 11
-2.499999
 21
1.443378
 31
0.0
  0
LINE
  5
46F
100
AcDbEntity
  8
0
370
    -3
  6
Continuous
100
AcDbLine
 10
2.499998
 20
1.443372
 30
0.0
 11
2.499999
 21
-1.443374
 31
0.0
  0
LINE
  5
470
100
AcDbEntity
  8
0
370
    -3
  6
Continuous
100
AcDbLine
 10
0.000005
 20
2.886749
 30
0.0
 11
2.499999
 21
1.443372
 31
0.0
  0
LINE
  5
471
100
AcDbEntity
  8
0
370
    -3
  6
Continuous
100
AcDbLine
 10
-0.000006
 20
-2.886747
 30
0.0
 11
-2.499998
 21
-1.443372
 31
0.0
  0
LINE
  5
472
100
AcDbEntity
  8
0
370
    -3
  6
Continuous
100
AcDbLine
 10
0.000005
 20
2.886748
 30
0.0
 11
-2.5
 21
1.443377
 31
0.0
  0
LINE
  5
473
100
AcDbEntity
  8
0
370
    -3
  6
Continuous
100
AcDbLine
 10
2.499999
 20
-1.443374
 30
0.0
 11
-0.000005
 21
-2.886748
 31
0.0
  0
ENDBLK
  5
474
100
AcDbEntity
  8
0
100
AcDbBlockEnd
  0
BLOCK
  5
496
100
AcDbEntity
  8
0
100
AcDbBlockBegin
  2
ZU_SYM__USERS_HOME_SYMBOL_POO_SYM_B20_00015-1
 70
    64
 10
0.0
 20
0.0
 30
0.0
  3
ZU_SYM__USERS_HOME_SYMBOL_POO_SYM_B20_00015-1
  1

  0
CIRCLE
  5
497
100
AcDbEntity
  8
0
370
    -3
  6
Continuous
100
AcDbCircle
 10
0.0
 20
0.0
 30
0.0
 40
5.0
  0
POINT
  5
498
100
AcDbEntity
  8
0
370
    -3
  6
Continuous
100
AcDbPoint
 10
0.0
 20
0.0
 30
0.0
  0
LINE
  5
499
100
AcDbEntity
  8
0
370
    -3
  6
Continuous
100
AcDbLine
 10
-2.499998
 20
-1.443372
 30
0.0
 11
-2.499999
 21
1.443378
 31
0.0
  0
LINE
  5
49A
100
AcDbEntity
  8
0
370
    -3
  6
Continuous
100
AcDbLine
 10
2.499998
 20
1.443372
 30
0.0
 11
2.499999
 21
-1.443374
 31
0.0
  0
LINE
  5
49B
100
AcDbEntity
  8
0
370
    -3
  6
Continuous
100
AcDbLine
 10
0.000005
 20
2.886749
 30
0.0
 11
2.499999
 21
1.443372
 31
0.0
  0
LINE
  5
49C
100
AcDbEntity
  8
0
370
    -3
  6
Continuous
100
AcDbLine
 10
-0.000006
 20
-2.886747
 30
0.0
 11
-2.499998
 21
-1.443372
 31
0.0
  0
LINE
  5
49D
100
AcDbEntity
  8
0
370
    -3
  6
Continuous
100
AcDbLine
 10
0.000005
 20
2.886748
 30
0.0
 11
-2.5
 21
1.443377
 31
0.0
  0
LINE
  5
49E
100
AcDbEntity
  8
0
370
    -3
  6
Continuous
100
AcDbLine
 10
2.499999
 20
-1.443374
 30
0.0
 11
-0.000005
 21
-2.886748
 31
0.0
  0
ENDBLK
  5
49F
100
AcDbEntity
  8
0
100
AcDbBlockEnd
  0
BLOCK
  5
583
100
AcDbEntity
  8
0
100
AcDbBlockBegin
  2
ZU_SYM__USERS_HOME_SYMBOL_POO_SYM_B20_00016-1
 70
    64
 10
0.0
 20
0.0
 30
0.0
  3
ZU_SYM__USERS_HOME_SYMBOL_POO_SYM_B20_00016-1
  1

  0
LINE
  5
584
100
AcDbEntity
  8
0
370
    -3
  6
Continuous
100
AcDbLine
 10
0.0
 20
-5.0
 30
0.0
 11
-6.0
 21
-5.0
 31
0.0
  0
LINE
  5
585
100
AcDbEntity
  8
0
370
    -3
  6
Continuous
100
AcDbLine
 10
0.0
 20
5.0
 30
0.0
 11
-6.0
 21
5.0
 31
0.0
  0
LINE
  5
586
100
AcDbEntity
  8
0
370
    -3
  6
Continuous
100
AcDbLine
 10
-6.0
 20
-5.0
 30
0.0
 11
-6.0
 21
5.0
 31
0.0
  0
LINE
  5
587
100
AcDbEntity
  8
0
370
    -3
  6
Continuous
100
AcDbLine
 10
0.0
 20
5.0
 30
0.0
 11
0.0
 21
-5.0
 31
0.0
  0
POINT
  5
588
100
AcDbEntity
  8
0
370
    -3
  6
Continuous
100
AcDbPoint
 10
0.0
 20
0.0
 30
0.0
  0
ENDBLK
  5
589
100
AcDbEntity
  8
0
100
AcDbBlockEnd
  0
BLOCK
  5
5D4
100
AcDbEntity
  8
0
100
AcDbBlockBegin
  2
ZU_SYM__USERS_HOME_SYMBOL_STD_SYM_B01_00017-1
 70
    64
 10
0.0
 20
0.0
 30
0.0
  3
ZU_SYM__USERS_HOME_SYMBOL_STD_SYM_B01_00017-1
  1

  0
ARC
  5
5D5
100
AcDbEntity
  8
0
370
    -3
  6
Continuous
100
AcDbCircle
 10
2.040001
 20
-0.000008
 30
0.0
 40
5.539999
100
AcDbArc
 50
155.470187
 51
204.52925
  0
ARC
  5
5D6
100
AcDbEntity
  8
0
370
    -3
  6
Continuous
100
AcDbCircle
 10
-1.929986
 20
3.450007
 30
0.0
 40
1.57
100
AcDbArc
 50
179.999745
 51
227.099746
  0
ARC
  5
5D7
100
AcDbEntity
  8
0
370
    -3
  6
Continuous
100
AcDbCircle
 10
-1.930014
 20
-3.449991
 30
0.0
 40
1.57
100
AcDbArc
 50
132.899744
 51
179.999745
  0
LINE
  5
5D8
100
AcDbEntity
  8
0
370
    -3
  6
Continuous
100
AcDbLine
 10
-2.999989
 20
2.300011
 30
0.0
 11
0.000009
 21
2.3
 31
0.0
  0
LINE
  5
5D9
100
AcDbEntity
  8
0
370
    -3
  6
Continuous
100
AcDbLine
 10
-3.000008
 20
-2.299986
 30
0.0
 11
-0.000008
 21
-2.299998
 31
0.0
  0
LINE
  5
5DA
100
AcDbEntity
  8
0
370
    -3
  6
Continuous
100
AcDbLine
 10
0.000019
 20
4.6
 30
0.0
 11
-0.000019
 21
-4.6
 31
0.0
  0
LINE
  5
5DB
100
AcDbEntity
  8
0
370
    -3
  6
Continuous
100
AcDbLine
 10
-2.999979
 20
4.600012
 30
0.0
 11
0.000019
 21
4.600001
 31
0.0
  0
LINE
  5
5DC
100
AcDbEntity
  8
0
370
    -3
  6
Continuous
100
AcDbLine
 10
-3.499965
 20
3.9
 30
0.0
 11
-2.999964
 21
4.599998
 31
0.0
  0
LINE
  5
5DD
100
AcDbEntity
  8
0
370
    -3
  6
Continuous
100
AcDbLine
 10
-3.500012
 20
-3.89998
 30
0.0
 11
-3.49998
 21
3.90001
 31
0.0
  0
LINE
  5
5DE
100
AcDbEntity
  8
0
370
    -3
  6
Continuous
100
AcDbLine
 10
-2.999996
 20
-4.59997
 30
0.0
 11
-3.499991
 21
-3.899967
 31
0.0
  0
LINE
  5
5DF
100
AcDbEntity
  8
0
370
    -3
  6
Continuous
100
AcDbLine
 10
-0.000018
 20
-4.599998
 30
0.0
 11
-3.000017
 21
-4.599986
 31
0.0
  0
POINT
  5
5E0
100
AcDbEntity
  8
0
370
    -3
  6
Continuous
100
AcDbPoint
 10
0.0
 20
0.0
 30
0.0
  0
ENDBLK
  5
5E1
100
AcDbEntity
  8
0
100
AcDbBlockEnd
  0
BLOCK
  5
5EF
100
AcDbEntity
  8
0
100
AcDbBlockBegin
  2
ZU_SYM__USERS_HOME_SYMBOL_POO_SYM_B20_00018-1
 70
    64
 10
0.0
 20
0.0
 30
0.0
  3
ZU_SYM__USERS_HOME_SYMBOL_POO_SYM_B20_00018-1
  1

  0
LINE
  5
5F0
100
AcDbEntity
  8
0
370
    -3
  6
Continuous
100
AcDbLine
 10
0.0
 20
-5.0
 30
0.0
 11
-6.0
 21
-5.0
 31
0.0
  0
LINE
  5
5F1
100
AcDbEntity
  8
0
370
    -3
  6
Continuous
100
AcDbLine
 10
0.0
 20
5.0
 30
0.0
 11
-6.0
 21
5.0
 31
0.0
  0
LINE
  5
5F2
100
AcDbEntity
  8
0
370
    -3
  6
Continuous
100
AcDbLine
 10
-6.0
 20
-5.0
 30
0.0
 11
-6.0
 21
5.0
 31
0.0
  0
LINE
  5
5F3
100
AcDbEntity
  8
0
370
    -3
  6
Continuous
100
AcDbLine
 10
0.0
 20
5.0
 30
0.0
 11
0.0
 21
-5.0
 31
0.0
  0
POINT
  5
5F4
100
AcDbEntity
  8
0
370
    -3
  6
Continuous
100
AcDbPoint
 10
0.0
 20
0.0
 30
0.0
  0
ENDBLK
  5
5F5
100
AcDbEntity
  8
0
100
AcDbBlockEnd
  0
ENDSEC
  0
SECTION
  2
ENTITIES
  0
MTEXT
  5
2B
100
AcDbEntity
  8
0
370
    -3
  6
Continuous
100
AcDbMText
 10
-545.724426
 20
222.010986
 30
0.0
 40
15.0
 41
0.0
 71
     7
 72
     1
  1
\W0.43;DATE\W0.72; \W0.43;2011.12.26
  7
ZU_SHPTB00001
 11
1.0
 21
0.0
 31
0.0
 73
     1
 44
1.0
  0
MTEXT
  5
2C
100
AcDbEntity
  8
0
370
    -3
  6
Continuous
100
AcDbMText
 10
-546.158691
 20
257.706757
 30
0.0
 40
15.0
 41
0.0
 71
     7
 72
     1
  1
\W0.42;GEAR\W0.70; \W0.42;RATIO\W0.70;  \W0.42;1/270-1/450
  7
ZU_SHPTB00001
 11
1.0
 21
0.0
 31
0.0
 73
     1
 44
1.0
  0
MTEXT
  5
2D
100
AcDbEntity
  8
0
370
    -3
  6
Continuous
100
AcDbMText
 10
-546.158691
 20
274.656769
 30
0.0
 40
15.0
 41
0.0
 71
     7
 72
     1
  1
\W0.43;11.1-6.7r/min\W0.53;　
  7
ZU_SHPTB00001
 11
1.0
 21
0.0
 31
0.0
 73
     1
 44
1.0
  0
MTEXT
  5
2E
100
AcDbEntity
  8
0
370
    -3
  6
Continuous
100
AcDbMText
 10
-546.158691
 20
308.556763
 30
0.0
 40
15.0
 41
0.0
 71
     7
 72
     1
  1
\W0.48;GV-S
  7
ZU_SHPTB00001
 11
1.0
 21
0.0
 31
0.0
 73
     1
 44
1.0
  0
MTEXT
  5
2F
100
AcDbEntity
  8
0
370
    -3
  6
Continuous
100
AcDbMText
 10
-546.158691
 20
240.75676
 30
0.0
 40
15.0
 41
0.0
 71
     7
 72
     1
  1
\W0.43;SCALE\W0.72;  \W0.43;1/1
  7
ZU_SHPTB00001
 11
1.0
 21
0.0
 31
0.0
 73
     1
 44
1.0
  0
MTEXT
  5
30
100
AcDbEntity
  8
0
370
    -3
  6
Continuous
100
AcDbMText
 10
-546.158691
 20
291.60675
 30
0.0
 40
15.0
 41
0.0
 71
     7
 72
     1
  1
\W0.43;0.2kW
  7
ZU_SHPTB00001
 11
1.0
 21
0.0
 31
0.0
 73
     1
 44
1.0
  0
MTEXT
  5
31
100
AcDbEntity
  8
0
370
    -3
  6
Continuous
100
AcDbMText
 10
-546.158691
 20
325.506775
 30
0.0
 40
15.0
 41
0.0
 71
     7
 72
     1
  1
\W0.63;三菱ギヤードモータ  
  7
ZU_SHPTB00001
 11
1.0
 21
0.0
 31
0.0
 73
     1
 44
1.0
  0
MTEXT
  5
32
100
AcDbEntity
  8
0
370
    -3
  6
Continuous
100
AcDbMText
 10
-546.158691
 20
325.506775
 30
0.0
 40
15.0
 41
0.0
 71
     7
 72
     1
  1
\W0.63;三菱ギヤードモータ  
  7
ZU_SHPTB00001
 11
1.0
 21
0.0
 31
0.0
 73
     1
 44
1.0
  0
LINE
  5
33
100
AcDbEntity
  8
0
370
    -3
  6
Continuous
100
AcDbLine
 10
-499.577686
 20
-54.384413
 30
0.0
 11
-487.046323
 21
-54.384413
 31
0.0
  0
ARC
  5
34
100
AcDbEntity
  8
0
370
    -3
  6
Continuous
100
AcDbCircle
 10
-469.790889
 20
44.115587
 30
0.0
 40
100.0
100
AcDbArc
 50
260.063633
 51
270.0
  0
ARC
  5
35
100
AcDbEntity
  8
0
370
    -3
  6
Continuous
100
AcDbCircle
 10
-469.790889
 20
44.115587
 30
0.0
 40
100.0
100
AcDbArc
 50
270.0
 51
279.936367
  0
LINE
  5
36
100
AcDbEntity
  8
0
370
    -3
  6
Continuous
100
AcDbLine
 10
-440.004093
 20
-54.384413
 30
0.0
 11
-452.535455
 21
-54.384413
 31
0.0
  0
LINE
  5
37
100
AcDbEntity
  8
0
370
    -3
  6
Continuous
100
AcDbLine
 10
-270.319741
 20
246.5
 30
0.0
 11
-272.917256
 21
246.5
 31
0.0
  0
LINE
  5
38
100
AcDbEntity
  8
0
370
    -3
  6
Continuous
100
AcDbLine
 10
-270.319741
 20
253.780539
 30
0.0
 11
-274.819741
 21
253.780539
 31
0.0
  0
LINE
  5
39
100
AcDbEntity
  8
0
370
    -3
  6
Continuous
100
AcDbLine
 10
-270.319741
 20
266.345597
 30
0.0
 11
-273.292077
 21
266.50137
 31
0.0
  0
LINE
  5
3A
100
AcDbEntity
  8
0
370
    -3
  6
Continuous
100
AcDbLine
 10
-270.319741
 20
268.654403
 30
0.0
 11
-273.292077
 21
268.49863
 31
0.0
  0
LINE
  5
3B
100
AcDbEntity
  8
0
370
    -3
  6
Continuous
100
AcDbLine
 10
-270.319741
 20
270.845597
 30
0.0
 11
-273.292077
 21
271.00137
 31
0.0
  0
LINE
  5
3C
100
AcDbEntity
  8
0
370
    -3
  6
Continuous
100
AcDbLine
 10
-270.319741
 20
273.154403
 30
0.0
 11
-273.292077
 21
272.99863
 31
0.0
  0
LINE
  5
3D
100
AcDbEntity
  8
0
370
    -3
  6
Continuous
100
AcDbLine
 10
-270.319741
 20
275.345597
 30
0.0
 11
-273.292077
 21
275.50137
 31
0.0
  0
LINE
  5
3E
100
AcDbEntity
  8
0
370
    -3
  6
Continuous
100
AcDbLine
 10
-270.319741
 20
277.654403
 30
0.0
 11
-273.292077
 21
277.49863
 31
0.0
  0
LINE
  5
3F
100
AcDbEntity
  8
0
370
    -3
  6
Continuous
100
AcDbLine
 10
-270.319741
 20
279.845597
 30
0.0
 11
-273.292077
 21
280.00137
 31
0.0
  0
LINE
  5
40
100
AcDbEntity
  8
0
370
    -3
  6
Continuous
100
AcDbLine
 10
-270.319741
 20
282.154403
 30
0.0
 11
-273.292077
 21
281.99863
 31
0.0
  0
LINE
  5
41
100
AcDbEntity
  8
0
370
    -3
  6
Continuous
100
AcDbLine
 10
-274.119741
 20
286.0
 30
0.0
 11
-270.319741
 21
286.0
 31
0.0
  0
LINE
  5
42
100
AcDbEntity
  8
0
370
    -3
  6
Continuous
100
AcDbLine
 10
-274.119741
 20
314.0
 30
0.0
 11
-270.319741
 21
314.0
 31
0.0
  0
LINE
  5
43
100
AcDbEntity
  8
0
370
    -3
  6
Continuous
100
AcDbLine
 10
-270.319741
 20
317.845597
 30
0.0
 11
-273.292077
 21
318.00137
 31
0.0
  0
LINE
  5
44
100
AcDbEntity
  8
0
370
    -3
  6
Continuous
100
AcDbLine
 10
-270.319741
 20
320.154403
 30
0.0
 11
-273.292077
 21
319.99863
 31
0.0
  0
LINE
  5
45
100
AcDbEntity
  8
0
370
    -3
  6
Continuous
100
AcDbLine
 10
-270.319741
 20
322.345597
 30
0.0
 11
-273.292077
 21
322.50137
 31
0.0
  0
LINE
  5
46
100
AcDbEntity
  8
0
370
    -3
  6
Continuous
100
AcDbLine
 10
-270.319741
 20
324.654403
 30
0.0
 11
-273.292077
 21
324.49863
 31
0.0
  0
LINE
  5
47
100
AcDbEntity
  8
0
370
    -3
  6
Continuous
100
AcDbLine
 10
-270.319741
 20
326.845597
 30
0.0
 11
-273.292077
 21
327.00137
 31
0.0
  0
LINE
  5
48
100
AcDbEntity
  8
0
370
    -3
  6
Continuous
100
AcDbLine
 10
-270.319741
 20
329.154403
 30
0.0
 11
-273.292077
 21
328.99863
 31
0.0
  0
LINE
  5
49
100
AcDbEntity
  8
0
370
    -3
  6
Continuous
100
AcDbLine
 10
-270.319741
 20
331.345597
 30
0.0
 11
-273.292077
 21
331.50137
 31
0.0
  0
LINE
  5
4A
100
AcDbEntity
  8
0
370
    -3
  6
Continuous
100
AcDbLine
 10
-270.319741
 20
333.654403
 30
0.0
 11
-273.292077
 21
333.49863
 31
0.0
  0
LINE
  5
4B
100
AcDbEntity
  8
0
370
    -3
  6
Continuous
100
AcDbLine
 10
-270.319741
 20
346.219461
 30
0.0
 11
-274.819741
 21
346.219461
 31
0.0
  0
LINE
  5
4C
100
AcDbEntity
  8
0
370
    -3
  6
Continuous
100
AcDbLine
 10
-270.319741
 20
353.5
 30
0.0
 11
-272.917256
 21
353.5
 31
0.0
  0
ARC
  5
4D
100
AcDbEntity
  8
0
370
    -3
  6
Continuous
100
AcDbCircle
 10
-276.319741
 20
329.656548
 30
0.0
 40
1.0
100
AcDbArc
 50
301.986261
 51
0.0
  0
ARC
  5
4E
100
AcDbEntity
  8
0
370
    -3
  6
Continuous
100
AcDbCircle
 10
-275.260309
 20
327.960198
 30
0.0
 40
1.0
100
AcDbArc
 50
121.986261
 51
177.707541
  0
ARC
  5
4F
100
AcDbEntity
  8
0
370
    -3
  6
Continuous
100
AcDbCircle
 10
423.180259
 20
300.0
 30
0.0
 40
700.0
100
AcDbArc
 50
175.768744
 51
176.379938
  0
LINE
  5
50
100
AcDbEntity
  8
0
370
    -3
  6
Continuous
100
AcDbLine
 10
-275.319741
 20
345.719461
 30
0.0
 11
-275.319741
 21
329.656548
 31
0.0
  0
ARC
  5
51
100
AcDbEntity
  8
0
370
    -3
  6
Continuous
100
AcDbCircle
 10
-275.260309
 20
272.039802
 30
0.0
 40
1.0
100
AcDbArc
 50
182.292459
 51
238.013739
  0
ARC
  5
52
100
AcDbEntity
  8
0
370
    -3
  6
Continuous
100
AcDbCircle
 10
-276.319741
 20
270.343452
 30
0.0
 40
1.0
100
AcDbArc
 50
0.0
 51
58.013739
  0
ARC
  5
53
100
AcDbEntity
  8
0
370
    -3
  6
Continuous
100
AcDbCircle
 10
423.180259
 20
300.0
 30
0.0
 40
700.0
100
AcDbArc
 50
180.0
 51
182.865819
  0
LINE
  5
54
100
AcDbEntity
  8
0
370
    -3
  6
Continuous
100
AcDbLine
 10
-275.319741
 20
254.280539
 30
0.0
 11
-275.319741
 21
270.343452
 31
0.0
  0
ARC
  5
55
100
AcDbEntity
  8
0
370
    -3
  6
Continuous
100
AcDbCircle
 10
-273.239741
 20
281.0
 30
0.0
 40
1.0
100
AcDbArc
 50
93.0
 51
267.0
  0
ARC
  5
56
100
AcDbEntity
  8
0
370
    -3
  6
Continuous
100
AcDbCircle
 10
-273.239741
 20
276.5
 30
0.0
 40
1.0
100
AcDbArc
 50
93.0
 51
267.0
  0
ARC
  5
57
100
AcDbEntity
  8
0
370
    -3
  6
Continuous
100
AcDbCircle
 10
-273.239741
 20
272.0
 30
0.0
 40
1.0
100
AcDbArc
 50
93.0
 51
267.0
  0
ARC
  5
58
100
AcDbEntity
  8
0
370
    -3
  6
Continuous
100
AcDbCircle
 10
-273.239741
 20
267.5
 30
0.0
 40
1.0
100
AcDbArc
 50
93.0
 51
267.0
  0
LINE
  5
59
100
AcDbEntity
  8
0
370
    -3
  6
Continuous
100
AcDbLine
 10
-274.819741
 20
313.3
 30
0.0
 11
-274.819741
 21
300.0
 31
0.0
  0
ARC
  5
5A
100
AcDbEntity
  8
0
370
    -3
  6
Continuous
100
AcDbCircle
 10
-274.119741
 20
313.3
 30
0.0
 40
0.7
100
AcDbArc
 50
90.0
 51
180.0
  0
ARC
  5
5B
100
AcDbEntity
  8
0
370
    -3
  6
Continuous
100
AcDbCircle
 10
-274.119741
 20
286.7
 30
0.0
 40
0.7
100
AcDbArc
 50
180.0
 51
270.0
  0
LINE
  5
5C
100
AcDbEntity
  8
0
370
    -3
  6
Continuous
100
AcDbLine
 10
-274.819741
 20
286.7
 30
0.0
 11
-274.819741
 21
300.0
 31
0.0
  0
ARC
  5
5D
100
AcDbEntity
  8
0
370
    -3
  6
Continuous
100
AcDbCircle
 10
-274.819741
 20
345.719461
 30
0.0
 40
0.5
100
AcDbArc
 50
90.0
 51
180.0
  0
ARC
  5
5E
100
AcDbEntity
  8
0
370
    -3
  6
Continuous
100
AcDbCircle
 10
-272.917256
 20
351.5
 30
0.0
 40
2.0
100
AcDbArc
 50
90.0
 51
175.768744
  0
LINE
  5
5F
100
AcDbEntity
  8
0
370
    -3
  6
Continuous
100
AcDbLine
 10
-276.06487
 20
332.517303
 30
0.0
 11
-276.06487
 21
332.482697
 31
0.0
  0
LINE
  5
60
100
AcDbEntity
  8
0
370
    -3
  6
Continuous
100
AcDbLine
 10
-276.06487
 20
267.482697
 30
0.0
 11
-276.06487
 21
267.517303
 31
0.0
  0
ARC
  5
61
100
AcDbEntity
  8
0
370
    -3
  6
Continuous
100
AcDbCircle
 10
-272.917256
 20
248.5
 30
0.0
 40
2.0
100
AcDbArc
 50
184.231256
 51
270.0
  0
ARC
  5
62
100
AcDbEntity
  8
0
370
    -3
  6
Continuous
100
AcDbCircle
 10
-274.819741
 20
254.280539
 30
0.0
 40
0.5
100
AcDbArc
 50
180.0
 51
270.0
  0
ARC
  5
63
100
AcDbEntity
  8
0
370
    -3
  6
Continuous
100
AcDbCircle
 10
-273.239741
 20
323.5
 30
0.0
 40
1.0
100
AcDbArc
 50
93.0
 51
267.0
  0
ARC
  5
64
100
AcDbEntity
  8
0
370
    -3
  6
Continuous
100
AcDbCircle
 10
-273.239741
 20
319.0
 30
0.0
 40
1.0
100
AcDbArc
 50
93.0
 51
267.0
  0
ARC
  5
65
100
AcDbEntity
  8
0
370
    -3
  6
Continuous
100
AcDbCircle
 10
-273.239741
 20
332.5
 30
0.0
 40
1.0
100
AcDbArc
 50
93.0
 51
267.0
  0
ARC
  5
66
100
AcDbEntity
  8
0
370
    -3
  6
Continuous
100
AcDbCircle
 10
-273.239741
 20
328.0
 30
0.0
 40
1.0
100
AcDbArc
 50
93.0
 51
267.0
  0
LINE
  5
67
100
AcDbEntity
  8
0
370
    -3
  6
Continuous
100
AcDbLine
 10
-276.819741
 20
319.5
 30
0.0
 11
-276.819741
 21
280.5
 31
0.0
  0
ARC
  5
68
100
AcDbEntity
  8
0
370
    -3
  6
Continuous
100
AcDbCircle
 10
-276.319741
 20
280.5
 30
0.0
 40
0.5
100
AcDbArc
 50
180.0
 51
224.884862
  0
ARC
  5
69
100
AcDbEntity
  8
0
370
    -3
  6
Continuous
100
AcDbCircle
 10
-276.319741
 20
319.5
 30
0.0
 40
0.5
100
AcDbArc
 50
135.115138
 51
180.0
  0
ARC
  5
6A
100
AcDbEntity
  8
0
370
    -3
  6
Continuous
100
AcDbCircle
 10
-277.028267
 20
320.205684
 30
0.0
 40
0.5
100
AcDbArc
 50
315.115138
 51
358.347093
  0
ARC
  5
6B
100
AcDbEntity
  8
0
370
    -3
  6
Continuous
100
AcDbCircle
 10
-277.028267
 20
279.794316
 30
0.0
 40
0.5
100
AcDbArc
 50
1.652907
 51
44.884862
  0
ARC
  5
6C
100
AcDbEntity
  8
0
370
    -3
  6
Continuous
100
AcDbCircle
 10
423.180259
 20
300.0
 30
0.0
 40
700.0
100
AcDbArc
 50
177.134181
 51
180.0
  0
ARC
  5
6D
100
AcDbEntity
  8
0
370
    -3
  6
Continuous
100
AcDbCircle
 10
423.180259
 20
300.0
 30
0.0
 40
700.0
100
AcDbArc
 50
183.620062
 51
184.231256
  0
INSERT
  5
80
100
AcDbEntity
  8
0
100
AcDbBlockReference
  2
ZU_SYM__USERS_HOME_SYMBOL_STD_SYM_B01_-1
 10
-275.319739
 20
339.59798
 30
0.0
 50
360.0
  0
INSERT
  5
93
100
AcDbEntity
  8
0
100
AcDbBlockReference
  2
ZU_SYM__USERS_HOME_SYMBOL_STD_SYM_B01_00001-1
 10
-275.319739
 20
339.59798
 30
0.0
 50
360.0
  0
INSERT
  5
A6
100
AcDbEntity
  8
0
100
AcDbBlockReference
  2
ZU_SYM__USERS_HOME_SYMBOL_STD_SYM_B01_00002-1
 10
-275.319739
 20
339.59798
 30
0.0
 50
360.0
  0
LINE
  5
A7
100
AcDbEntity
  8
0
370
    -3
  6
CENTER
100
AcDbLine
 10
-267.26234
 20
339.59798
 30
0.0
 11
-281.893505
 21
339.59798
 31
0.0
  0
INSERT
  5
BA
100
AcDbEntity
  8
0
100
AcDbBlockReference
  2
ZU_SYM__USERS_HOME_SYMBOL_STD_SYM_B01_00003-1
 10
-275.319739
 20
260.40202
 30
0.0
 41
-1.0
 50
180.0
  0
LINE
  5
BB
100
AcDbEntity
  8
0
370
    -3
  6
CENTER
100
AcDbLine
 10
-267.26234
 20
260.40202
 30
0.0
 11
-281.893505
 21
260.40202
 31
0.0
  0
ARC
  5
BC
100
AcDbEntity
  8
0
370
    -3
  6
Continuous
100
AcDbCircle
 10
-413.290889
 20
-31.865383
 30
0.0
 40
0.5
100
AcDbArc
 50
0.0
 51
90.0
  0
LINE
  5
BD
100
AcDbEntity
  8
0
370
    -3
  6
Continuous
100
AcDbLine
 10
-247.836888
 20
245.0
 30
0.0
 11
-256.800703
 21
245.0
 31
0.0
  0
LINE
  5
BE
100
AcDbEntity
  8
0
370
    -3
  6
Continuous
100
AcDbLine
 10
-414.290889
 20
-31.365383
 30
0.0
 11
-413.290889
 21
-31.365383
 31
0.0
  0
ARC
  5
BF
100
AcDbEntity
  8
0
370
    -3
  6
Continuous
100
AcDbCircle
 10
-256.800703
 20
244.5
 30
0.0
 40
0.5
100
AcDbArc
 50
90.0
 51
180.0
  0
ARC
  5
C0
100
AcDbEntity
  8
0
370
    -3
  6
Continuous
100
AcDbCircle
 10
-414.290889
 20
-30.865383
 30
0.0
 40
0.5
100
AcDbArc
 50
180.0
 51
270.0
  0
LINE
  5
C1
100
AcDbEntity
  8
0
370
    -3
  6
Continuous
100
AcDbLine
 10
-257.300703
 20
244.5
 30
0.0
 11
-257.300703
 21
243.5
 31
0.0
  0
LINE
  5
C2
100
AcDbEntity
  8
0
370
    -3
  6
Continuous
100
AcDbLine
 10
-414.790889
 20
-21.901568
 30
0.0
 11
-414.790889
 21
-30.865383
 31
0.0
  0
LINE
  5
C3
100
AcDbEntity
  8
0
370
    -3
  6
Continuous
100
AcDbLine
 10
-262.134933
 20
243.0
 30
0.0
 11
-261.819428
 21
233.965101
 31
0.0
  0
ARC
  5
C4
100
AcDbEntity
  8
0
370
    -3
  6
Continuous
100
AcDbCircle
 10
-403.790889
 20
28.115892
 30
0.0
 40
1.0
100
AcDbArc
 50
0.0
 51
88.0
  0
LINE
  5
C5
100
AcDbEntity
  8
0
370
    -3
  6
Continuous
100
AcDbLine
 10
-262.134933
 20
243.0
 30
0.0
 11
-262.134933
 21
245.0
 31
0.0
  0
LINE
  5
C6
100
AcDbEntity
  8
0
370
    -3
  6
Continuous
100
AcDbLine
 10
-412.790889
 20
29.430788
 30
0.0
 11
-403.75599
 21
29.115283
 31
0.0
  0
LINE
  5
C7
100
AcDbEntity
  8
0
370
    -3
  6
Continuous
100
AcDbLine
 10
-196.504531
 20
243.0
 30
0.0
 11
-196.504531
 21
245.0
 31
0.0
  0
LINE
  5
C8
100
AcDbEntity
  8
0
370
    -3
  6
Continuous
100
AcDbLine
 10
-402.790889
 20
28.115892
 30
0.0
 11
-402.790889
 21
-3.384413
 31
0.0
  0
LINE
  5
C9
100
AcDbEntity
  8
0
370
    -3
  6
Continuous
100
AcDbLine
 10
-262.134933
 20
245.0
 30
0.0
 11
-196.504531
 21
245.0
 31
0.0
  0
ARC
  5
CA
100
AcDbEntity
  8
0
370
    -3
  6
Continuous
100
AcDbCircle
 10
-414.290889
 20
15.132743
 30
0.0
 40
0.5
100
AcDbArc
 50
92.0
 51
180.0
  0
LINE
  5
CB
100
AcDbEntity
  8
0
370
    -3
  6
Continuous
100
AcDbLine
 10
-414.308339
 20
15.632438
 30
0.0
 11
-413.27344
 21
15.668578
 31
0.0
  0
ARC
  5
CC
100
AcDbEntity
  8
0
370
    -3
  6
Continuous
100
AcDbCircle
 10
-413.290889
 20
16.168273
 30
0.0
 40
0.5
100
AcDbArc
 50
272.0
 51
0.0
  0
LINE
  5
CD
100
AcDbEntity
  8
0
370
    -3
  6
Continuous
100
AcDbLine
 10
-412.790889
 20
9.615587
 30
0.0
 11
-412.790889
 21
29.430788
 31
0.0
  0
LINE
  5
CE
100
AcDbEntity
  8
0
370
    -3
  6
Continuous
100
AcDbLine
 10
-414.790889
 20
-3.384413
 30
0.0
 11
-414.790889
 21
15.132743
 31
0.0
  0
ARC
  5
CF
100
AcDbEntity
  8
0
370
    -3
  6
Continuous
100
AcDbCircle
 10
-413.290889
 20
25.096558
 30
0.0
 40
0.5
100
AcDbArc
 50
270.0
 51
0.0
  0
LINE
  5
D0
100
AcDbEntity
  8
0
370
    -3
  6
Continuous
100
AcDbLine
 10
-414.290889
 20
24.596558
 30
0.0
 11
-413.290889
 21
24.596558
 31
0.0
  0
ARC
  5
D1
100
AcDbEntity
  8
0
370
    -3
  6
Continuous
100
AcDbCircle
 10
-414.290889
 20
24.096558
 30
0.0
 40
0.5
100
AcDbArc
 50
90.0
 51
180.0
  0
LINE
  5
D2
100
AcDbEntity
  8
0
370
    -3
  6
Continuous
100
AcDbLine
 10
-414.790889
 20
15.132743
 30
0.0
 11
-414.790889
 21
24.096558
 31
0.0
  0
LINE
  5
D3
100
AcDbEntity
  8
0
370
    -3
  6
Continuous
100
AcDbLine
 10
-393.990889
 20
23.446958
 30
0.0
 11
-356.634293
 21
23.446958
 31
0.0
  0
ARC
  5
D4
100
AcDbEntity
  8
0
370
    -3
  6
Continuous
100
AcDbCircle
 10
-393.990889
 20
16.646958
 30
0.0
 40
6.8
100
AcDbArc
 50
90.0
 51
180.0
  0
ARC
  5
D5
100
AcDbEntity
  8
0
370
    -3
  6
Continuous
100
AcDbCircle
 10
-393.990889
 20
-23.415784
 30
0.0
 40
6.8
100
AcDbArc
 50
180.0
 51
270.0
  0
LINE
  5
D6
100
AcDbEntity
  8
0
370
    -3
  6
Continuous
100
AcDbLine
 10
-393.990889
 20
-30.215784
 30
0.0
 11
-356.634293
 21
-30.215784
 31
0.0
  0
ARC
  5
D7
100
AcDbEntity
  8
0
370
    -3
  6
Continuous
100
AcDbCircle
 10
-375.790889
 20
-3.384413
 30
0.0
 40
10.4775
100
AcDbArc
 50
0.0
 51
180.0
  0
ARC
  5
D8
100
AcDbEntity
  8
0
370
    -3
  6
Continuous
100
AcDbCircle
 10
-375.790889
 20
-3.384413
 30
0.0
 40
9.3155
100
AcDbArc
 50
0.0
 51
180.0
  0
ARC
  5
D9
100
AcDbEntity
  8
0
370
    -3
  6
Continuous
100
AcDbCircle
 10
-375.790889
 20
-3.384413
 30
0.0
 40
14.0
100
AcDbArc
 50
0.0
 51
180.0
  0
LINE
  5
DA
100
AcDbEntity
  8
0
370
    -3
  6
Continuous
100
AcDbLine
 10
-354.984259
 20
-3.384413
 30
0.0
 11
-354.984259
 21
35.615587
 31
0.0
  0
LINE
  5
DB
100
AcDbEntity
  8
0
370
    -3
  6
Continuous
100
AcDbLine
 10
-391.280776
 20
42.115587
 30
0.0
 11
-359.724278
 21
42.115587
 31
0.0
  0
LINE
  5
DC
100
AcDbEntity
  8
0
370
    -3
  6
Continuous
100
AcDbLine
 10
-400.035366
 20
35.615587
 30
0.0
 11
-400.035366
 21
32.23076
 31
0.0
  0
LINE
  5
DD
100
AcDbEntity
  8
0
370
    -3
  6
Continuous
100
AcDbLine
 10
-399.697271
 20
32.813858
 30
0.0
 11
-399.697271
 21
35.615587
 31
0.0
  0
ARC
  5
DE
100
AcDbEntity
  8
0
370
    -3
  6
Continuous
100
AcDbCircle
 10
-400.790889
 20
24.615587
 30
0.0
 40
1.0
100
AcDbArc
 50
103.342364
 51
180.0
  0
ARC
  5
DF
100
AcDbEntity
  8
0
370
    -3
  6
Continuous
100
AcDbCircle
 10
-401.090889
 20
25.880498
 30
0.0
 40
0.3
100
AcDbArc
 50
283.342364
 51
0.0
  0
ARC
  5
E0
100
AcDbEntity
  8
0
370
    -3
  6
Continuous
100
AcDbCircle
 10
-391.280776
 20
36.115587
 30
0.0
 40
6.0
100
AcDbArc
 50
90.0
 51
180.0
  0
LINE
  5
E1
100
AcDbEntity
  8
0
370
    -3
  6
Continuous
100
AcDbLine
 10
-397.280776
 20
35.066776
 30
0.0
 11
-397.280776
 21
36.115587
 31
0.0
  0
ARC
  5
E2
100
AcDbEntity
  8
0
370
    -3
  6
Continuous
100
AcDbCircle
 10
-393.990889
 20
29.115587
 30
0.0
 40
6.8
100
AcDbArc
 50
90.0
 51
180.0
  0
LINE
  5
E3
100
AcDbEntity
  8
0
370
    -3
  6
Continuous
100
AcDbLine
 10
-400.790889
 20
-3.384413
 30
0.0
 11
-400.790889
 21
29.115587
 31
0.0
  0
ARC
  5
E4
100
AcDbEntity
  8
0
370
    -3
  6
Continuous
100
AcDbCircle
 10
-364.358031
 20
32.115587
 30
0.0
 40
3.8
100
AcDbArc
 50
22.977375
 51
90.0
  0
ARC
  5
E5
100
AcDbEntity
  8
0
370
    -3
  6
Continuous
100
AcDbCircle
 10
-360.354978
 20
22.674621
 30
0.0
 40
3.8
100
AcDbArc
 50
0.0
 51
22.977375
  0
LINE
  5
E6
100
AcDbEntity
  8
0
370
    -3
  6
Continuous
100
AcDbLine
 10
-356.856473
 20
24.158018
 30
0.0
 11
-360.859527
 21
33.598984
 31
0.0
  0
LINE
  5
E7
100
AcDbEntity
  8
0
370
    -3
  6
Continuous
100
AcDbLine
 10
-393.990889
 20
35.915587
 30
0.0
 11
-364.358031
 21
35.915587
 31
0.0
  0
LINE
  5
E8
100
AcDbEntity
  8
0
370
    -3
  6
Continuous
100
AcDbLine
 10
-356.554978
 20
-3.384413
 30
0.0
 11
-356.554978
 21
22.674621
 31
0.0
  0
LINE
  5
E9
100
AcDbEntity
  8
0
370
    -3
  6
Continuous
100
AcDbLine
 10
-401.790889
 20
-3.384413
 30
0.0
 11
-401.790889
 21
24.615587
 31
0.0
  0
ARC
  5
EA
100
AcDbEntity
  8
0
370
    -3
  6
Continuous
100
AcDbCircle
 10
-392.697271
 20
35.615587
 30
0.0
 40
7.0
100
AcDbArc
 50
90.0
 51
180.0
  0
LINE
  5
EB
100
AcDbEntity
  8
0
370
    -3
  6
Continuous
100
AcDbLine
 10
-402.790889
 20
27.615587
 30
0.0
 11
-401.790889
 21
27.615587
 31
0.0
  0
LINE
  5
EC
100
AcDbEntity
  8
0
370
    -3
  6
Continuous
100
AcDbLine
 10
-401.790889
 20
27.615587
 30
0.0
 11
-401.790889
 21
-3.384413
 31
0.0
  0
LINE
  5
ED
100
AcDbEntity
  8
0
370
    -3
  6
Continuous
100
AcDbLine
 10
-350.319741
 20
35.615587
 30
0.0
 11
-350.319741
 21
-3.384413
 31
0.0
  0
LINE
  5
EE
100
AcDbEntity
  8
0
370
    -3
  6
Continuous
100
AcDbLine
 10
-355.322354
 20
-3.384413
 30
0.0
 11
-355.322354
 21
35.615587
 31
0.0
  0
LINE
  5
EF
100
AcDbEntity
  8
0
370
    -3
  6
Continuous
100
AcDbLine
 10
-358.119741
 20
43.415587
 30
0.0
 11
-392.235366
 21
43.415587
 31
0.0
  0
ELLIPSE
  5
F0
100
AcDbEntity
  8
0
370
    -3
  6
Continuous
100
AcDbEllipse
 10
-352.20515
 20
36.115587
 30
0.0
 11
0.0
 21
3.5
 31
0.0
210
0.0
220
0.0
230
1.0
 40
0.656603
 41
4.1037320181004482
 42
5.8501343317261245
  0
ARC
  5
F1
100
AcDbEntity
  8
0
370
    -3
  6
Continuous
100
AcDbCircle
 10
-358.119741
 20
35.615587
 30
0.0
 40
7.8
100
AcDbArc
 50
0.0
 51
90.0
  0
ARC
  5
F2
100
AcDbEntity
  8
0
370
    -3
  6
Continuous
100
AcDbCircle
 10
-362.784259
 20
35.615587
 30
0.0
 40
7.8
100
AcDbArc
 50
0.0
 51
90.0
  0
ARC
  5
F3
100
AcDbEntity
  8
0
370
    -3
  6
Continuous
100
AcDbCircle
 10
-362.322354
 20
35.615587
 30
0.0
 40
7.0
100
AcDbArc
 50
0.0
 51
90.0
  0
LINE
  5
F4
100
AcDbEntity
  8
0
370
    -3
  6
Continuous
100
AcDbLine
 10
-362.322354
 20
42.615587
 30
0.0
 11
-392.697271
 21
42.615587
 31
0.0
  0
ARC
  5
F5
100
AcDbEntity
  8
0
370
    -3
  6
Continuous
100
AcDbCircle
 10
-392.235366
 20
35.615587
 30
0.0
 40
7.8
100
AcDbArc
 50
90.0
 51
180.0
  0
LINE
  5
F6
100
AcDbEntity
  8
0
370
    -3
  6
CENTER
100
AcDbLine
 10
-375.790889
 20
15.26052
 30
0.0
 11
-375.790889
 21
-24.68487
 31
0.0
  0
LINE
  5
F7
100
AcDbEntity
  8
0
370
    -3
  6
Continuous
100
AcDbLine
 10
-354.984259
 20
-3.384413
 30
0.0
 11
-354.984259
 21
-42.384413
 31
0.0
  0
LINE
  5
F8
100
AcDbEntity
  8
0
370
    -3
  6
Continuous
100
AcDbLine
 10
-391.280776
 20
-48.884413
 30
0.0
 11
-359.724278
 21
-48.884413
 31
0.0
  0
LINE
  5
F9
100
AcDbEntity
  8
0
370
    -3
  6
Continuous
100
AcDbLine
 10
-400.035366
 20
-42.384413
 30
0.0
 11
-400.035366
 21
-38.999585
 31
0.0
  0
LINE
  5
FA
100
AcDbEntity
  8
0
370
    -3
  6
Continuous
100
AcDbLine
 10
-399.697271
 20
-39.582683
 30
0.0
 11
-399.697271
 21
-42.384413
 31
0.0
  0
ARC
  5
FB
100
AcDbEntity
  8
0
370
    -3
  6
Continuous
100
AcDbCircle
 10
-400.790889
 20
-31.384413
 30
0.0
 40
1.0
100
AcDbArc
 50
180.0
 51
256.657636
  0
ARC
  5
FC
100
AcDbEntity
  8
0
370
    -3
  6
Continuous
100
AcDbCircle
 10
-401.090889
 20
-32.649324
 30
0.0
 40
0.3
100
AcDbArc
 50
0.0
 51
76.657636
  0
ARC
  5
FD
100
AcDbEntity
  8
0
370
    -3
  6
Continuous
100
AcDbCircle
 10
-391.280776
 20
-42.884413
 30
0.0
 40
6.0
100
AcDbArc
 50
180.0
 51
270.0
  0
LINE
  5
FE
100
AcDbEntity
  8
0
370
    -3
  6
Continuous
100
AcDbLine
 10
-397.280776
 20
-41.835601
 30
0.0
 11
-397.280776
 21
-42.884413
 31
0.0
  0
ARC
  5
FF
100
AcDbEntity
  8
0
370
    -3
  6
Continuous
100
AcDbCircle
 10
-393.990889
 20
-35.884413
 30
0.0
 40
6.8
100
AcDbArc
 50
180.0
 51
270.0
  0
LINE
  5
100
100
AcDbEntity
  8
0
370
    -3
  6
Continuous
100
AcDbLine
 10
-400.790889
 20
-3.384413
 30
0.0
 11
-400.790889
 21
-35.884413
 31
0.0
  0
ARC
  5
101
100
AcDbEntity
  8
0
370
    -3
  6
Continuous
100
AcDbCircle
 10
-364.358031
 20
-38.884413
 30
0.0
 40
3.8
100
AcDbArc
 50
270.0
 51
337.022625
  0
LINE
  5
102
100
AcDbEntity
  8
0
370
    -3
  6
Continuous
100
AcDbLine
 10
-358.119741
 20
-50.184413
 30
0.0
 11
-392.235366
 21
-50.184413
 31
0.0
  0
ELLIPSE
  5
103
100
AcDbEntity
  8
0
370
    -3
  6
Continuous
100
AcDbEllipse
 10
-352.20515
 20
-42.884413
 30
0.0
 11
0.0
 21
3.5
 31
0.0
210
0.0
220
0.0
230
1.0
 40
0.656603
 41
3.5746436290431376
 42
5.3210459426689347
  0
ARC
  5
104
100
AcDbEntity
  8
0
370
    -3
  6
Continuous
100
AcDbCircle
 10
-358.119741
 20
-42.384413
 30
0.0
 40
7.8
100
AcDbArc
 50
270.0
 51
0.0
  0
ARC
  5
105
100
AcDbEntity
  8
0
370
    -3
  6
Continuous
100
AcDbCircle
 10
-362.784259
 20
-42.384413
 30
0.0
 40
7.8
100
AcDbArc
 50
270.0
 51
0.0
  0
ARC
  5
106
100
AcDbEntity
  8
0
370
    -3
  6
Continuous
100
AcDbCircle
 10
-362.322354
 20
-42.384413
 30
0.0
 40
7.0
100
AcDbArc
 50
270.0
 51
0.0
  0
LINE
  5
107
100
AcDbEntity
  8
0
370
    -3
  6
Continuous
100
AcDbLine
 10
-362.322354
 20
-49.384413
 30
0.0
 11
-392.697271
 21
-49.384413
 31
0.0
  0
ARC
  5
108
100
AcDbEntity
  8
0
370
    -3
  6
Continuous
100
AcDbCircle
 10
-392.235366
 20
-42.384413
 30
0.0
 40
7.8
100
AcDbArc
 50
180.0
 51
270.0
  0
ARC
  5
109
100
AcDbEntity
  8
0
370
    -3
  6
Continuous
100
AcDbCircle
 10
-375.790889
 20
-3.384413
 30
0.0
 40
10.4775
100
AcDbArc
 50
180.0
 51
360.0
  0
ARC
  5
10A
100
AcDbEntity
  8
0
370
    -3
  6
Continuous
100
AcDbCircle
 10
-375.790889
 20
-3.384413
 30
0.0
 40
9.3155
100
AcDbArc
 50
180.0
 51
360.0
  0
ARC
  5
10B
100
AcDbEntity
  8
0
370
    -3
  6
Continuous
100
AcDbCircle
 10
-375.790889
 20
-3.384413
 30
0.0
 40
14.0
100
AcDbArc
 50
180.0
 51
360.0
  0
ARC
  5
10C
100
AcDbEntity
  8
0
370
    -3
  6
Continuous
100
AcDbCircle
 10
-360.354978
 20
-29.443446
 30
0.0
 40
3.8
100
AcDbArc
 50
337.022625
 51
0.0
  0
LINE
  5
10D
100
AcDbEntity
  8
0
370
    -3
  6
Continuous
100
AcDbLine
 10
-356.856473
 20
-30.926843
 30
0.0
 11
-360.859527
 21
-40.36781
 31
0.0
  0
LINE
  5
10E
100
AcDbEntity
  8
0
370
    -3
  6
Continuous
100
AcDbLine
 10
-393.990889
 20
-42.684413
 30
0.0
 11
-364.358031
 21
-42.684413
 31
0.0
  0
LINE
  5
10F
100
AcDbEntity
  8
0
370
    -3
  6
Continuous
100
AcDbLine
 10
-356.554978
 20
-3.384413
 30
0.0
 11
-356.554978
 21
-29.443446
 31
0.0
  0
LINE
  5
110
100
AcDbEntity
  8
0
370
    -3
  6
Continuous
100
AcDbLine
 10
-401.790889
 20
-3.384413
 30
0.0
 11
-401.790889
 21
-31.384413
 31
0.0
  0
ARC
  5
111
100
AcDbEntity
  8
0
370
    -3
  6
Continuous
100
AcDbCircle
 10
-392.697271
 20
-42.384413
 30
0.0
 40
7.0
100
AcDbArc
 50
180.0
 51
270.0
  0
LINE
  5
112
100
AcDbEntity
  8
0
370
    -3
  6
Continuous
100
AcDbLine
 10
-402.790889
 20
-34.384413
 30
0.0
 11
-401.790889
 21
-34.384413
 31
0.0
  0
LINE
  5
113
100
AcDbEntity
  8
0
370
    -3
  6
Continuous
100
AcDbLine
 10
-401.790889
 20
-34.384413
 30
0.0
 11
-401.790889
 21
-3.384413
 31
0.0
  0
LINE
  5
114
100
AcDbEntity
  8
0
370
    -3
  6
Continuous
100
AcDbLine
 10
-350.319741
 20
-42.384413
 30
0.0
 11
-350.319741
 21
-3.384413
 31
0.0
  0
LINE
  5
115
100
AcDbEntity
  8
0
370
    -3
  6
Continuous
100
AcDbLine
 10
-355.322354
 20
-3.384413
 30
0.0
 11
-355.322354
 21
-42.384413
 31
0.0
  0
LINE
  5
116
100
AcDbEntity
  8
0
370
    -3
  6
Continuous
100
AcDbLine
 10
-192.222272
 20
-50.184413
 30
0.0
 11
-275.093801
 21
-50.184413
 31
0.0
  0
LINE
  5
117
100
AcDbEntity
  8
0
370
    -3
  6
Continuous
100
AcDbLine
 10
-192.222272
 20
43.415587
 30
0.0
 11
-275.093801
 21
43.415587
 31
0.0
  0
POINT
  5
118
100
AcDbEntity
  8
0
370
    -3
  6
CENTER
100
AcDbPoint
 10
-300.319741
 20
7.093087
 30
0.0
  0
POINT
  5
119
100
AcDbEntity
  8
0
370
    -3
  6
CENTER
100
AcDbPoint
 10
-300.319741
 20
-13.861913
 30
0.0
  0
POINT
  5
11A
100
AcDbEntity
  8
0
370
    -3
  6
CENTER
100
AcDbPoint
 10
-300.319741
 20
-13.861913
 30
0.0
  0
POINT
  5
11B
100
AcDbEntity
  8
0
370
    -3
  6
CENTER
100
AcDbPoint
 10
-300.319741
 20
7.093087
 30
0.0
  0
ARC
  5
11C
100
AcDbEntity
  8
0
370
    -3
  6
Continuous
100
AcDbCircle
 10
-298.319741
 20
-15.384413
 30
0.0
 40
2.0
100
AcDbArc
 50
180.0
 51
270.0
  0
LINE
  5
11D
100
AcDbEntity
  8
0
370
    -3
  6
Continuous
100
AcDbLine
 10
-300.319741
 20
-15.384413
 30
0.0
 11
-300.319741
 21
-3.384413
 31
0.0
  0
ARC
  5
11E
100
AcDbEntity
  8
0
370
    -3
  6
Continuous
100
AcDbCircle
 10
-298.319741
 20
8.615587
 30
0.0
 40
2.0
100
AcDbArc
 50
90.0
 51
180.0
  0
LINE
  5
11F
100
AcDbEntity
  8
0
370
    -3
  6
Continuous
100
AcDbLine
 10
-300.319741
 20
8.615587
 30
0.0
 11
-300.319741
 21
-3.384413
 31
0.0
  0
LINE
  5
120
100
AcDbEntity
  8
0
370
    -3
  6
Continuous
100
AcDbLine
 10
-270.557095
 20
-44.884413
 30
0.0
 11
-272.274607
 21
-42.884413
 31
0.0
  0
LINE
  5
121
100
AcDbEntity
  8
0
370
    -3
  6
Continuous
100
AcDbLine
 10
-272.274607
 20
-42.884413
 30
0.0
 11
-270.557095
 21
-40.884413
 31
0.0
  0
ARC
  5
122
100
AcDbEntity
  8
0
370
    -3
  6
Continuous
100
AcDbCircle
 10
-259.875265
 20
-38.134413
 30
0.0
 40
3.8
100
AcDbArc
 50
221.390427
 51
270.0
  0
ARC
  5
123
100
AcDbEntity
  8
0
370
    -3
  6
Continuous
100
AcDbCircle
 10
-275.093801
 20
-42.384413
 30
0.0
 40
7.8
100
AcDbArc
 50
180.0
 51
270.0
  0
ARC
  5
124
100
AcDbEntity
  8
0
370
    -3
  6
Continuous
100
AcDbCircle
 10
-272.642615
 20
-42.384413
 30
0.0
 40
7.8
100
AcDbArc
 50
180.0
 51
270.0
  0
ELLIPSE
  5
125
100
AcDbEntity
  8
0
370
    -3
  6
Continuous
100
AcDbEllipse
 10
-273.105637
 20
-42.884413
 30
0.0
 11
0.0000000000002274
 21
3.5
 31
0.0
210
0.0
220
0.0
230
1.0
 40
0.982815
 41
0.0
 42
6.2831853071795862
  0
LINE
  5
126
100
AcDbEntity
  8
0
370
    -3
  6
Continuous
100
AcDbLine
 10
-274.182326
 20
-44.884413
 30
0.0
 11
-272.274607
 21
-42.884413
 31
0.0
  0
LINE
  5
127
100
AcDbEntity
  8
0
370
    -3
  6
Continuous
100
AcDbLine
 10
-272.274607
 20
-42.884413
 30
0.0
 11
-274.182326
 21
-40.884413
 31
0.0
  0
ARC
  5
128
100
AcDbEntity
  8
0
370
    -3
  6
Continuous
100
AcDbCircle
 10
-268.852
 20
-27.948875
 30
0.0
 40
3.8
100
AcDbArc
 50
180.0
 51
221.390427
  0
LINE
  5
129
100
AcDbEntity
  8
0
370
    -3
  6
Continuous
100
AcDbLine
 10
-262.726107
 20
-40.646922
 30
0.0
 11
-271.702842
 21
-30.461384
 31
0.0
  0
LINE
  5
12A
100
AcDbEntity
  8
0
370
    -3
  6
Continuous
100
AcDbLine
 10
-298.319741
 20
-17.384413
 30
0.0
 11
-282.893801
 21
-17.384413
 31
0.0
  0
LINE
  5
12B
100
AcDbEntity
  8
0
370
    -3
  6
Continuous
100
AcDbLine
 10
-282.893801
 20
-3.384413
 30
0.0
 11
-282.893801
 21
-42.384413
 31
0.0
  0
LINE
  5
12C
100
AcDbEntity
  8
0
370
    -3
  6
Continuous
100
AcDbLine
 10
-280.442615
 20
-3.384413
 30
0.0
 11
-280.442615
 21
-42.384413
 31
0.0
  0
LINE
  5
12D
100
AcDbEntity
  8
0
370
    -3
  6
Continuous
100
AcDbLine
 10
-272.652
 20
-3.384413
 30
0.0
 11
-272.652
 21
-27.948875
 31
0.0
  0
LINE
  5
12E
100
AcDbEntity
  8
0
370
    -3
  6
Continuous
100
AcDbLine
 10
-184.422272
 20
-3.384413
 30
0.0
 11
-184.422272
 21
-42.384413
 31
0.0
  0
LINE
  5
12F
100
AcDbEntity
  8
0
370
    -3
  6
Continuous
100
AcDbLine
 10
-191.440381
 20
-3.384413
 30
0.0
 11
-191.440381
 21
-27.931404
 31
0.0
  0
ARC
  5
130
100
AcDbEntity
  8
0
370
    -3
  6
Continuous
100
AcDbCircle
 10
-195.240381
 20
-27.931404
 30
0.0
 40
3.8
100
AcDbArc
 50
318.14922
 51
0.0
  0
LINE
  5
131
100
AcDbEntity
  8
0
370
    -3
  6
Continuous
100
AcDbLine
 10
-201.893788
 20
-3.384413
 30
0.0
 11
-201.893788
 21
-31.934413
 31
0.0
  0
LINE
  5
132
100
AcDbEntity
  8
0
370
    -3
  6
Continuous
100
AcDbLine
 10
-416.290889
 20
-22.134413
 30
0.0
 11
-414.790889
 21
-22.134413
 31
0.0
  0
LINE
  5
133
100
AcDbEntity
  8
0
370
    -3
  6
Continuous
100
AcDbLine
 10
-416.290889
 20
15.365587
 30
0.0
 11
-414.790889
 21
15.365587
 31
0.0
  0
ARC
  5
134
100
AcDbEntity
  8
0
370
    -3
  6
Continuous
100
AcDbCircle
 10
-192.222272
 20
-42.384413
 30
0.0
 40
7.8
100
AcDbArc
 50
270.0
 51
360.0
  0
LINE
  5
135
100
AcDbEntity
  8
0
370
    -3
  6
Continuous
100
AcDbLine
 10
-189.800598
 20
-42.884413
 30
0.0
 11
-188.083087
 21
-40.884413
 31
0.0
  0
LINE
  5
136
100
AcDbEntity
  8
0
370
    -3
  6
Continuous
100
AcDbLine
 10
-188.083087
 20
-44.884413
 30
0.0
 11
-189.800598
 21
-42.884413
 31
0.0
  0
ELLIPSE
  5
137
100
AcDbEntity
  8
0
370
    -3
  6
Continuous
100
AcDbEllipse
 10
-190.631629
 20
-42.884413
 30
0.0
 11
0.000000000000199
 21
3.5
 31
0.0
210
0.0
220
0.0
230
1.0
 40
0.982815
 41
0.0
 42
6.2831853071795862
  0
LINE
  5
138
100
AcDbEntity
  8
0
370
    -3
  6
Continuous
100
AcDbLine
 10
-191.708318
 20
-44.884413
 30
0.0
 11
-189.800598
 21
-42.884413
 31
0.0
  0
LINE
  5
139
100
AcDbEntity
  8
0
370
    -3
  6
Continuous
100
AcDbLine
 10
-189.800598
 20
-42.884413
 30
0.0
 11
-191.708318
 21
-40.884413
 31
0.0
  0
ARC
  5
13A
100
AcDbEntity
  8
0
370
    -3
  6
Continuous
100
AcDbCircle
 10
-204.379209
 20
-38.134413
 30
0.0
 40
3.8
100
AcDbArc
 50
270.0
 51
318.14922
  0
LINE
  5
13B
100
AcDbEntity
  8
0
370
    -3
  6
Continuous
100
AcDbLine
 10
-201.548646
 20
-40.669746
 30
0.0
 11
-192.409819
 21
-30.466737
 31
0.0
  0
ARC
  5
13C
100
AcDbEntity
  8
0
370
    -3
  6
Continuous
100
AcDbCircle
 10
-211.893788
 20
-31.934413
 30
0.0
 40
10.0
100
AcDbArc
 50
270.0
 51
360.0
  0
POINT
  5
13D
100
AcDbEntity
  8
0
370
    -3
  6
Continuous
100
AcDbPoint
 10
-300.319732
 20
195.5225
 30
0.0
  0
LINE
  5
13E
100
AcDbEntity
  8
0
370
    -3
  6
Continuous
100
AcDbLine
 10
-259.875265
 20
-41.934413
 30
0.0
 11
-204.379209
 21
-41.934413
 31
0.0
  0
LINE
  5
13F
100
AcDbEntity
  8
0
370
    -3
  6
CENTER
100
AcDbLine
 10
-229.319732
 20
249.777417
 30
0.0
 11
-229.319732
 21
226.867441
 31
0.0
  0
LINE
  5
140
100
AcDbEntity
  8
0
370
    -3
  6
Continuous
100
AcDbLine
 10
-191.440381
 20
-3.384413
 30
0.0
 11
-191.440381
 21
21.162579
 31
0.0
  0
LINE
  5
141
100
AcDbEntity
  8
0
370
    -3
  6
Continuous
100
AcDbLine
 10
-261.069741
 20
245.0
 30
0.0
 11
-192.569732
 21
245.0
 31
0.0
  0
LINE
  5
142
100
AcDbEntity
  8
0
370
    -3
  6
Continuous
100
AcDbLine
 10
-184.422272
 20
-3.384413
 30
0.0
 11
-184.422272
 21
35.615587
 31
0.0
  0
LINE
  5
143
100
AcDbEntity
  8
0
370
    -3
  6
Continuous
100
AcDbLine
 10
-261.069741
 20
245.0
 30
0.0
 11
-261.069741
 21
246.5
 31
0.0
  0
LINE
  5
144
100
AcDbEntity
  8
0
370
    -3
  6
Continuous
100
AcDbLine
 10
-189.800598
 20
36.115587
 30
0.0
 11
-188.083087
 21
34.115587
 31
0.0
  0
LINE
  5
145
100
AcDbEntity
  8
0
370
    -3
  6
Continuous
100
AcDbLine
 10
-192.569732
 20
246.505412
 30
0.0
 11
-192.569732
 21
245.0
 31
0.0
  0
LINE
  5
146
100
AcDbEntity
  8
0
370
    -3
  6
Continuous
100
AcDbLine
 10
-188.083087
 20
38.115587
 30
0.0
 11
-189.800598
 21
36.115587
 31
0.0
  0
LINE
  5
147
100
AcDbEntity
  8
0
370
    -3
  6
CENTER
100
AcDbLine
 10
-229.319732
 20
249.777417
 30
0.0
 11
-229.319732
 21
220.867441
 31
0.0
  0
ARC
  5
148
100
AcDbEntity
  8
0
370
    -3
  6
Continuous
100
AcDbCircle
 10
-195.240381
 20
21.162579
 30
0.0
 40
3.8
100
AcDbArc
 50
0.0
 51
41.85078
  0
POINT
  5
149
100
AcDbEntity
  8
0
370
    -3
  6
Continuous
100
AcDbPoint
 10
-300.319732
 20
195.5225
 30
0.0
  0
ARC
  5
14A
100
AcDbEntity
  8
0
370
    -3
  6
Continuous
100
AcDbCircle
 10
-192.222272
 20
35.615587
 30
0.0
 40
7.8
100
AcDbArc
 50
0.0
 51
90.0
  0
LINE
  5
14B
100
AcDbEntity
  8
0
370
    -3
  6
Continuous
100
AcDbLine
 10
-281.203319
 20
181.568139
 30
0.0
 11
-282.893792
 21
185.19337
 31
0.0
  0
LINE
  5
14C
100
AcDbEntity
  8
0
370
    -3
  6
Continuous
100
AcDbLine
 10
-191.708318
 20
38.115587
 30
0.0
 11
-189.800598
 21
36.115587
 31
0.0
  0
ARC
  5
14D
100
AcDbEntity
  8
0
370
    -3
  6
Continuous
100
AcDbCircle
 10
-279.571965
 20
182.328852
 30
0.0
 40
1.8
100
AcDbArc
 50
205.0
 51
295.0
  0
LINE
  5
14E
100
AcDbEntity
  8
0
370
    -3
  6
Continuous
100
AcDbLine
 10
-189.800598
 20
36.115587
 30
0.0
 11
-191.708318
 21
34.115587
 31
0.0
  0
LINE
  5
14F
100
AcDbEntity
  8
0
370
    -3
  6
CENTER
100
AcDbLine
 10
-274.63108
 20
185.930298
 30
0.0
 11
-271.761159
 21
179.775733
 31
0.0
  0
ELLIPSE
  5
150
100
AcDbEntity
  8
0
370
    -3
  6
Continuous
100
AcDbEllipse
 10
-190.631629
 20
36.115587
 30
0.0
 11
0.0
 21
3.5
 31
0.0
210
0.0
220
0.0
230
1.0
 40
0.982815
 41
0.0
 42
6.2831853071795862
  0
ARC
  5
151
100
AcDbEntity
  8
0
370
    -3
  6
Continuous
100
AcDbCircle
 10
-276.078162
 20
189.033577
 30
0.0
 40
9.0
100
AcDbArc
 50
278.398469
 51
311.601548
  0
ARC
  5
152
100
AcDbEntity
  8
0
370
    -3
  6
Continuous
100
AcDbCircle
 10
-204.379209
 20
31.365587
 30
0.0
 40
3.8
100
AcDbArc
 50
41.85078
 51
90.0
  0
POINT
  5
153
100
AcDbEntity
  8
0
370
    -3
  6
Continuous
100
AcDbPoint
 10
-273.373405
 20
183.233207
 30
0.0
  0
LINE
  5
154
100
AcDbEntity
  8
0
370
    -3
  6
Continuous
100
AcDbLine
 10
-201.548646
 20
33.90092
 30
0.0
 11
-192.409819
 21
23.697912
 31
0.0
  0
LINE
  5
155
100
AcDbEntity
  8
0
370
    -3
  6
Continuous
100
AcDbLine
 10
-270.201328
 20
184.712371
 30
0.0
 11
-269.787574
 21
183.825073
 31
0.0
  0
ARC
  5
156
100
AcDbEntity
  8
0
370
    -3
  6
Continuous
100
AcDbCircle
 10
-211.893788
 20
25.165587
 30
0.0
 40
10.0
100
AcDbArc
 50
0.0
 51
90.0
  0
LINE
  5
157
100
AcDbEntity
  8
0
370
    -3
  6
Continuous
100
AcDbLine
 10
-276.545483
 20
181.754043
 30
0.0
 11
-276.131729
 21
180.866745
 31
0.0
  0
LINE
  5
158
100
AcDbEntity
  8
0
370
    -3
  6
Continuous
100
AcDbLine
 10
-201.893788
 20
-3.384413
 30
0.0
 11
-201.893788
 21
25.165587
 31
0.0
  0
ARC
  5
159
100
AcDbEntity
  8
0
370
    -3
  6
Continuous
100
AcDbCircle
 10
-270.965774
 20
183.27567
 30
0.0
 40
1.299999
100
AcDbArc
 50
311.601548
 51
25.000018
  0
ARC
  5
15A
100
AcDbEntity
  8
0
370
    -3
  6
Continuous
100
AcDbCircle
 10
-259.875265
 20
31.365587
 30
0.0
 40
3.8
100
AcDbArc
 50
90.0
 51
138.609573
  0
ARC
  5
15B
100
AcDbEntity
  8
0
370
    -3
  6
Continuous
100
AcDbCircle
 10
-274.953529
 20
181.416149
 30
0.0
 40
1.299999
100
AcDbArc
 50
204.999999
 51
278.398469
  0
LINE
  5
15C
100
AcDbEntity
  8
0
370
    -3
  6
Continuous
100
AcDbLine
 10
-259.875265
 20
35.165587
 30
0.0
 11
-204.379209
 21
35.165587
 31
0.0
  0
ARC
  5
15D
100
AcDbEntity
  8
0
370
    -3
  6
Continuous
100
AcDbCircle
 10
-257.40672
 20
185.606082
 30
0.0
 40
2.8
100
AcDbArc
 50
205.0
 51
267.843273
  0
LINE
  5
15E
100
AcDbEntity
  8
0
370
    -3
  6
Continuous
100
AcDbLine
 10
-262.726107
 20
33.878096
 30
0.0
 11
-271.702842
 21
23.692559
 31
0.0
  0
LINE
  5
15F
100
AcDbEntity
  8
0
370
    -3
  6
Continuous
100
AcDbLine
 10
-260.619413
 20
185.870358
 30
0.0
 11
-259.944382
 21
184.422751
 31
0.0
  0
LINE
  5
160
100
AcDbEntity
  8
0
370
    -3
  6
Continuous
100
AcDbLine
 10
-272.274607
 20
36.115587
 30
0.0
 11
-270.557095
 21
34.115587
 31
0.0
  0
ARC
  5
161
100
AcDbEntity
  8
0
370
    -3
  6
Continuous
100
AcDbCircle
 10
-234.90213
 20
783.182473
 30
0.0
 40
600.8
100
AcDbArc
 50
266.682408
 51
272.437505
  0
LINE
  5
162
100
AcDbEntity
  8
0
370
    -3
  6
Continuous
100
AcDbLine
 10
-270.557095
 20
38.115587
 30
0.0
 11
-272.274607
 21
36.115587
 31
0.0
  0
ARC
  5
163
100
AcDbEntity
  8
0
370
    -3
  6
Continuous
100
AcDbCircle
 10
-258.584643
 20
231.3
 30
0.0
 40
0.3
100
AcDbArc
 50
270.0
 51
346.657636
  0
ARC
  5
164
100
AcDbEntity
  8
0
370
    -3
  6
Continuous
100
AcDbCircle
 10
-268.852
 20
21.18005
 30
0.0
 40
3.8
100
AcDbArc
 50
138.609573
 51
180.0
  0
ARC
  5
165
100
AcDbEntity
  8
0
370
    -3
  6
Continuous
100
AcDbCircle
 10
-200.054821
 20
231.3
 30
0.0
 40
0.3
100
AcDbArc
 50
193.342364
 51
270.0
  0
ARC
  5
166
100
AcDbEntity
  8
0
370
    -3
  6
Continuous
100
AcDbCircle
 10
-275.093801
 20
35.615587
 30
0.0
 40
7.8
100
AcDbArc
 50
90.0
 51
180.0
  0
ARC
  5
167
100
AcDbEntity
  8
0
370
    -3
  6
Continuous
100
AcDbCircle
 10
-267.519732
 20
224.2
 30
0.0
 40
6.8
100
AcDbArc
 50
90.0
 51
180.0
  0
ARC
  5
168
100
AcDbEntity
  8
0
370
    -3
  6
Continuous
100
AcDbCircle
 10
-272.642615
 20
35.615587
 30
0.0
 40
7.8
100
AcDbArc
 50
90.0
 51
180.0
  0
LINE
  5
169
100
AcDbEntity
  8
0
370
    -3
  6
Continuous
100
AcDbLine
 10
-198.319732
 20
233.0
 30
0.0
 11
-198.319732
 21
232.0
 31
0.0
  0
ELLIPSE
  5
16A
100
AcDbEntity
  8
0
370
    -3
  6
Continuous
100
AcDbEllipse
 10
-273.105637
 20
36.115587
 30
0.0
 11
0.0
 21
3.5
 31
0.0
210
0.0
220
0.0
230
1.0
 40
0.982815
 41
0.0
 42
6.2831853071795862
  0
LINE
  5
16B
100
AcDbEntity
  8
0
370
    -3
  6
Continuous
100
AcDbLine
 10
-260.319732
 20
233.0
 30
0.0
 11
-260.319732
 21
232.0
 31
0.0
  0
LINE
  5
16C
100
AcDbEntity
  8
0
370
    -3
  6
Continuous
100
AcDbLine
 10
-274.182326
 20
38.115587
 30
0.0
 11
-272.274607
 21
36.115587
 31
0.0
  0
LINE
  5
16D
100
AcDbEntity
  8
0
370
    -3
  6
Continuous
100
AcDbLine
 10
-260.319732
 20
232.0
 30
0.0
 11
-198.319732
 21
232.0
 31
0.0
  0
LINE
  5
16E
100
AcDbEntity
  8
0
370
    -3
  6
Continuous
100
AcDbLine
 10
-272.274607
 20
36.115587
 30
0.0
 11
-274.182326
 21
34.115587
 31
0.0
  0
LINE
  5
16F
100
AcDbEntity
  8
0
370
    -3
  6
Continuous
100
AcDbLine
 10
-260.319732
 20
233.0
 30
0.0
 11
-198.319732
 21
233.0
 31
0.0
  0
LINE
  5
170
100
AcDbEntity
  8
0
370
    -3
  6
Continuous
100
AcDbLine
 10
-298.319741
 20
10.615587
 30
0.0
 11
-282.893801
 21
10.615587
 31
0.0
  0
LINE
  5
171
100
AcDbEntity
  8
0
370
    -3
  6
Continuous
100
AcDbLine
 10
-276.319732
 20
220.0
 30
0.0
 11
-274.319732
 21
220.0
 31
0.0
  0
LINE
  5
172
100
AcDbEntity
  8
0
370
    -3
  6
Continuous
100
AcDbLine
 10
-272.652
 20
-3.384413
 30
0.0
 11
-272.652
 21
21.18005
 31
0.0
  0
LINE
  5
173
100
AcDbEntity
  8
0
370
    -3
  6
Continuous
100
AcDbLine
 10
-298.319732
 20
220.0
 30
0.0
 11
-276.319732
 21
220.0
 31
0.0
  0
LINE
  5
174
100
AcDbEntity
  8
0
370
    -3
  6
Continuous
100
AcDbLine
 10
-282.893801
 20
-3.384413
 30
0.0
 11
-282.893801
 21
35.615587
 31
0.0
  0
ARC
  5
175
100
AcDbEntity
  8
0
370
    -3
  6
Continuous
100
AcDbCircle
 10
-298.319732
 20
218.0
 30
0.0
 40
2.0
100
AcDbArc
 50
90.0
 51
180.0
  0
LINE
  5
176
100
AcDbEntity
  8
0
370
    -3
  6
Continuous
100
AcDbLine
 10
-280.442615
 20
-3.384413
 30
0.0
 11
-280.442615
 21
35.615587
 31
0.0
  0
ARC
  5
177
100
AcDbEntity
  8
0
370
    -3
  6
Continuous
100
AcDbCircle
 10
-298.319732
 20
194.0
 30
0.0
 40
2.0
100
AcDbArc
 50
180.0
 51
270.0
  0
LINE
  5
178
100
AcDbEntity
  8
0
370
    -3
  6
CENTER
100
AcDbLine
 10
-229.319741
 20
-53.076176
 30
0.0
 11
-229.319741
 21
47.308227
 31
0.0
  0
LINE
  5
179
100
AcDbEntity
  8
0
370
    -3
  6
Continuous
100
AcDbLine
 10
-300.319732
 20
218.0
 30
0.0
 11
-300.319732
 21
206.0
 31
0.0
  0
LINE
  5
17A
100
AcDbEntity
  8
0
370
    -3
  6
CENTER
100
AcDbLine
 10
76.006475
 20
-3.384413
 30
0.0
 11
115.951864
 21
-3.384413
 31
0.0
  0
LINE
  5
17B
100
AcDbEntity
  8
0
370
    -3
  6
Continuous
100
AcDbLine
 10
-300.319732
 20
194.0
 30
0.0
 11
-300.319732
 21
206.0
 31
0.0
  0
CIRCLE
  5
17C
100
AcDbEntity
  8
0
370
    -3
  6
DASHED
100
AcDbCircle
 10
94.651407
 20
-3.384413
 30
0.0
 40
14.0
  0
LINE
  5
17D
100
AcDbEntity
  8
0
370
    -3
  6
CENTER
100
AcDbLine
 10
-305.798356
 20
206.0
 30
0.0
 11
-265.491869
 21
206.0
 31
0.0
  0
LINE
  5
17E
100
AcDbEntity
  8
0
370
    -3
  6
Continuous
100
AcDbLine
 10
121.651407
 20
27.615587
 30
0.0
 11
121.651407
 21
26.166713
 31
0.0
  0
LINE
  5
17F
100
AcDbEntity
  8
0
370
    -3
  6
Continuous
100
AcDbLine
 10
-276.319732
 20
220.0
 30
0.0
 11
-276.319732
 21
206.0
 31
0.0
  0
LINE
  5
180
100
AcDbEntity
  8
0
370
    -3
  6
Continuous
100
AcDbLine
 10
76.980259
 20
-50.184413
 30
0.0
 11
109.151407
 21
-50.184413
 31
0.0
  0
ARC
  5
181
100
AcDbEntity
  8
0
370
    -3
  6
Continuous
100
AcDbCircle
 10
-201.319732
 20
231.0
 30
0.0
 40
1.0
100
AcDbArc
 50
13.342364
 51
90.0
  0
LINE
  5
182
100
AcDbEntity
  8
0
370
    -3
  6
CENTER
100
AcDbLine
 10
94.651407
 20
15.26052
 30
0.0
 11
94.651407
 21
-24.68487
 31
0.0
  0
LINE
  5
183
100
AcDbEntity
  8
0
370
    -3
  6
Continuous
100
AcDbLine
 10
-267.519732
 20
231.0
 30
0.0
 11
-197.881579
 21
231.0
 31
0.0
  0
LINE
  5
184
100
AcDbEntity
  8
0
370
    -3
  6
Continuous
100
AcDbLine
 10
119.651407
 20
32.115587
 30
0.0
 11
119.651407
 21
23.264889
 31
0.0
  0
ARC
  5
185
100
AcDbEntity
  8
0
370
    -3
  6
Continuous
100
AcDbCircle
 10
-257.319732
 20
231.0
 30
0.0
 40
1.0
100
AcDbArc
 50
90.0
 51
166.657636
  0
ARC
  5
186
100
AcDbEntity
  8
0
370
    -3
  6
Continuous
100
AcDbCircle
 10
119.651407
 20
24.615587
 30
0.0
 40
1.0
100
AcDbArc
 50
7.469284
 51
90.0
  0
ARC
  5
187
100
AcDbEntity
  8
0
370
    -3
  6
Continuous
100
AcDbCircle
 10
-259.644039
 20
228.0
 30
0.0
 40
3.0
100
AcDbArc
 50
90.0
 51
180.0
  0
LINE
  5
188
100
AcDbEntity
  8
0
370
    -3
  6
Continuous
100
AcDbLine
 10
120.651407
 20
24.757882
 30
0.0
 11
120.651407
 21
27.615587
 31
0.0
  0
POINT
  5
189
100
AcDbEntity
  8
0
370
    -3
  6
CENTER
100
AcDbPoint
 10
-300.319732
 20
216.4775
 30
0.0
  0
LINE
  5
18A
100
AcDbEntity
  8
0
370
    -3
  6
Continuous
100
AcDbLine
 10
121.651407
 20
27.615587
 30
0.0
 11
120.651407
 21
27.615587
 31
0.0
  0
POINT
  5
18B
100
AcDbEntity
  8
0
370
    -3
  6
CENTER
100
AcDbPoint
 10
-300.319732
 20
195.5225
 30
0.0
  0
ARC
  5
18C
100
AcDbEntity
  8
0
370
    -3
  6
Continuous
100
AcDbCircle
 10
115.851407
 20
32.115587
 30
0.0
 40
3.8
100
AcDbArc
 50
0.0
 51
36.757251
  0
LINE
  5
18D
100
AcDbEntity
  8
0
370
    -3
  6
Continuous
100
AcDbLine
 10
-298.319732
 20
192.0
 30
0.0
 11
-274.319732
 21
192.0
 31
0.0
  0
LINE
  5
18E
100
AcDbEntity
  8
0
370
    -3
  6
Continuous
100
AcDbLine
 10
69.180259
 20
34.114406
 30
0.0
 11
69.180259
 21
-40.883231
 31
0.0
  0
ARC
  5
18F
100
AcDbEntity
  8
0
370
    -3
  6
Continuous
100
AcDbCircle
 10
-263.338336
 20
184.602503
 30
0.0
 40
3.0
100
AcDbArc
 50
25.0
 51
115.0
  0
ARC
  5
190
100
AcDbEntity
  8
0
370
    -3
  6
Continuous
100
AcDbCircle
 10
76.980259
 20
35.615587
 30
0.0
 40
7.8
100
AcDbArc
 50
90.0
 51
151.87484
  0
LINE
  5
191
100
AcDbEntity
  8
0
370
    -3
  6
Continuous
100
AcDbLine
 10
-274.730448
 20
189.0
 30
0.0
 11
-282.893792
 21
185.19337
 31
0.0
  0
ELLIPSE
  5
192
100
AcDbEntity
  8
0
370
    -3
  6
Continuous
100
AcDbEllipse
 10
71.065667
 20
36.115587
 30
0.0
 11
0.0
 21
3.5
 31
0.0
210
0.0
220
0.0
230
1.0
 40
0.656603
 41
0.0
 42
6.2831853071795862
  0
LINE
  5
193
100
AcDbEntity
  8
0
370
    -3
  6
Continuous
100
AcDbLine
 10
-276.319732
 20
206.0
 30
0.0
 11
-276.319732
 21
192.0
 31
0.0
  0
LINE
  5
194
100
AcDbEntity
  8
0
370
    -3
  6
Continuous
100
AcDbLine
 10
69.018387
 20
37.705604
 30
0.0
 11
69.528214
 21
36.115587
 31
0.0
  0
LINE
  5
195
100
AcDbEntity
  8
0
370
    -3
  6
Continuous
100
AcDbLine
 10
-274.319732
 20
189.19152
 30
0.0
 11
-274.319732
 21
224.2
 31
0.0
  0
LINE
  5
196
100
AcDbEntity
  8
0
370
    -3
  6
Continuous
100
AcDbLine
 10
69.528214
 20
36.115587
 30
0.0
 11
70.577402
 21
38.115587
 31
0.0
  0
LINE
  5
197
100
AcDbEntity
  8
0
370
    -3
  6
Continuous
100
AcDbLine
 10
-262.644039
 20
194.635985
 30
0.0
 11
-262.644039
 21
228.0
 31
0.0
  0
LINE
  5
198
100
AcDbEntity
  8
0
370
    -3
  6
Continuous
100
AcDbLine
 10
69.528214
 20
36.115587
 30
0.0
 11
70.577402
 21
34.115587
 31
0.0
  0
ARC
  5
199
100
AcDbEntity
  8
0
370
    -3
  6
Continuous
100
AcDbCircle
 10
-197.881579
 20
227.2
 30
0.0
 40
3.8
100
AcDbArc
 50
25.0
 51
90.0
  0
LINE
  5
19A
100
AcDbEntity
  8
0
370
    -3
  6
Continuous
100
AcDbLine
 10
69.018387
 20
34.525571
 30
0.0
 11
69.528214
 21
36.115587
 31
0.0
  0
LINE
  5
19B
100
AcDbEntity
  8
0
370
    -3
  6
Continuous
100
AcDbLine
 10
-184.590909
 20
226.619246
 30
0.0
 11
-186.281382
 21
230.244477
 31
0.0
  0
LINE
  5
19C
100
AcDbEntity
  8
0
370
    -3
  6
Continuous
100
AcDbLine
 10
107.476649
 20
37.705604
 30
0.0
 11
107.986476
 21
36.115587
 31
0.0
  0
ARC
  5
19D
100
AcDbEntity
  8
0
370
    -3
  6
Continuous
100
AcDbCircle
 10
-186.222263
 20
225.858533
 30
0.0
 40
1.8
100
AcDbArc
 50
295.0
 51
25.0
  0
LINE
  5
19E
100
AcDbEntity
  8
0
370
    -3
  6
Continuous
100
AcDbLine
 10
107.476649
 20
34.525571
 30
0.0
 11
107.986476
 21
36.115587
 31
0.0
  0
LINE
  5
19F
100
AcDbEntity
  8
0
370
    -3
  6
CENTER
100
AcDbLine
 10
-192.157071
 20
224.38856
 30
0.0
 11
-189.28715
 21
218.233995
 31
0.0
  0
LINE
  5
1A0
100
AcDbEntity
  8
0
370
    -3
  6
Continuous
100
AcDbLine
 10
107.986476
 20
36.115587
 30
0.0
 11
109.035664
 21
34.115587
 31
0.0
  0
POINT
  5
1A1
100
AcDbEntity
  8
0
370
    -3
  6
Continuous
100
AcDbPoint
 10
-190.923107
 20
221.680413
 30
0.0
  0
LINE
  5
1A2
100
AcDbEntity
  8
0
370
    -3
  6
Continuous
100
AcDbLine
 10
107.986476
 20
36.115587
 30
0.0
 11
109.035664
 21
38.115587
 31
0.0
  0
LINE
  5
1A3
100
AcDbEntity
  8
0
370
    -3
  6
Continuous
100
AcDbLine
 10
-187.72732
 20
223.170633
 30
0.0
 11
-187.313566
 21
222.283335
 31
0.0
  0
ELLIPSE
  5
1A4
100
AcDbEntity
  8
0
370
    -3
  6
Continuous
100
AcDbEllipse
 10
109.523929
 20
36.115587
 30
0.0
 11
0.0
 21
3.5
 31
0.0
210
0.0
220
0.0
230
1.0
 40
0.656603
 41
0.0
 42
6.2831853071795862
  0
LINE
  5
1A5
100
AcDbEntity
  8
0
370
    -3
  6
CENTER
100
AcDbLine
 10
-192.157071
 20
224.38856
 30
0.0
 11
-189.28715
 21
218.233995
 31
0.0
  0
ARC
  5
1A6
100
AcDbEntity
  8
0
370
    -3
  6
Continuous
100
AcDbCircle
 10
76.980259
 20
-42.384413
 30
0.0
 40
7.8
100
AcDbArc
 50
208.12516
 51
270.0
  0
ARC
  5
1A7
100
AcDbEntity
  8
0
370
    -3
  6
Continuous
100
AcDbCircle
 10
-188.491765
 20
221.733931
 30
0.0
 40
1.299999
100
AcDbArc
 50
311.601548
 51
25.000018
  0
ELLIPSE
  5
1A8
100
AcDbEntity
  8
0
370
    -3
  6
Continuous
100
AcDbEllipse
 10
71.065667
 20
-42.884413
 30
0.0
 11
0.0
 21
3.5
 31
0.0
210
0.0
220
0.0
230
1.0
 40
0.656603
 41
0.0
 42
6.2831853071795862
  0
ARC
  5
1A9
100
AcDbEntity
  8
0
370
    -3
  6
Continuous
100
AcDbCircle
 10
-193.604154
 20
227.491839
 30
0.0
 40
9.0
100
AcDbArc
 50
278.398469
 51
311.601548
  0
LINE
  5
1AA
100
AcDbEntity
  8
0
370
    -3
  6
Continuous
100
AcDbLine
 10
69.018387
 20
-44.474429
 30
0.0
 11
69.528214
 21
-42.884413
 31
0.0
  0
LINE
  5
1AB
100
AcDbEntity
  8
0
370
    -3
  6
Continuous
100
AcDbLine
 10
-194.071474
 20
220.212305
 30
0.0
 11
-193.65772
 21
219.325007
 31
0.0
  0
LINE
  5
1AC
100
AcDbEntity
  8
0
370
    -3
  6
Continuous
100
AcDbLine
 10
69.528214
 20
-42.884413
 30
0.0
 11
70.577402
 21
-44.884413
 31
0.0
  0
ARC
  5
1AD
100
AcDbEntity
  8
0
370
    -3
  6
Continuous
100
AcDbCircle
 10
-192.479521
 20
219.87441
 30
0.0
 40
1.299999
100
AcDbArc
 50
204.999999
 51
278.398469
  0
LINE
  5
1AE
100
AcDbEntity
  8
0
370
    -3
  6
Continuous
100
AcDbLine
 10
69.528214
 20
-42.884413
 30
0.0
 11
70.577402
 21
-40.884413
 31
0.0
  0
ARC
  5
1AF
100
AcDbEntity
  8
0
370
    -3
  6
Continuous
100
AcDbCircle
 10
-198.398757
 20
214.884326
 30
0.0
 40
3.0
100
AcDbArc
 50
115.0
 51
205.0
  0
LINE
  5
1B0
100
AcDbEntity
  8
0
370
    -3
  6
Continuous
100
AcDbLine
 10
69.018387
 20
-41.294396
 30
0.0
 11
69.528214
 21
-42.884413
 31
0.0
  0
LINE
  5
1B1
100
AcDbEntity
  8
0
370
    -3
  6
Continuous
100
AcDbLine
 10
-196.382254
 20
203.461316
 30
0.0
 11
-201.11768
 21
213.616472
 31
0.0
  0
ARC
  5
1B2
100
AcDbEntity
  8
0
370
    -3
  6
Continuous
100
AcDbCircle
 10
-198.919915
 20
202.277985
 30
0.0
 40
2.8
100
AcDbArc
 50
344.545811
 51
25.0
  0
LINE
  5
1B3
100
AcDbEntity
  8
0
370
    -3
  6
Continuous
100
AcDbLine
 10
107.476649
 20
-44.474429
 30
0.0
 11
107.986476
 21
-42.884413
 31
0.0
  0
ARC
  5
1B4
100
AcDbEntity
  8
0
370
    -3
  6
Continuous
100
AcDbCircle
 10
-212.004816
 20
227.2
 30
0.0
 40
3.8
100
AcDbArc
 50
25.0
 51
90.0
  0
LINE
  5
1B5
100
AcDbEntity
  8
0
370
    -3
  6
Continuous
100
AcDbLine
 10
107.476649
 20
-41.294396
 30
0.0
 11
107.986476
 21
-42.884413
 31
0.0
  0
LINE
  5
1B6
100
AcDbEntity
  8
0
370
    -3
  6
Continuous
100
AcDbLine
 10
-205.132584
 20
221.454017
 30
0.0
 11
-208.560846
 21
228.805949
 31
0.0
  0
LINE
  5
1B7
100
AcDbEntity
  8
0
370
    -3
  6
Continuous
100
AcDbLine
 10
107.986476
 20
-42.884413
 30
0.0
 11
109.035664
 21
-40.884413
 31
0.0
  0
LINE
  5
1B8
100
AcDbEntity
  8
0
370
    -3
  6
Continuous
100
AcDbLine
 10
-193.531844
 20
226.863531
 30
0.0
 11
-194.437609
 21
228.805949
 31
0.0
  0
LINE
  5
1B9
100
AcDbEntity
  8
0
370
    -3
  6
Continuous
100
AcDbLine
 10
107.986476
 20
-42.884413
 30
0.0
 11
109.035664
 21
-44.884413
 31
0.0
  0
LINE
  5
1BA
100
AcDbEntity
  8
0
370
    -3
  6
Continuous
100
AcDbLine
 10
-185.46155
 20
224.227179
 30
0.0
 11
-278.811252
 21
180.697498
 31
0.0
  0
LINE
  5
1BB
100
AcDbEntity
  8
0
370
    -3
  6
Continuous
100
AcDbLine
 10
-186.281382
 20
230.244477
 30
0.0
 11
-274.730448
 21
189.0
 31
0.0
  0
ARC
  5
1BC
100
AcDbEntity
  8
0
370
    -3
  6
Continuous
100
AcDbCircle
 10
-209.809637
 20
193.716302
 30
0.0
 40
10.8
100
AcDbArc
 50
272.437505
 51
342.341575
  0
ARC
  5
1BD
100
AcDbEntity
  8
0
370
    -3
  6
Continuous
100
AcDbCircle
 10
-486.145372
 20
281.685397
 30
0.0
 40
300.8
100
AcDbArc
 50
342.341575
 51
347.89975
  0
ELLIPSE
  5
1BE
100
AcDbEntity
  8
0
370
    -3
  6
Continuous
100
AcDbEllipse
 10
109.523929
 20
-42.884413
 30
0.0
 11
0.0
 21
3.5
 31
0.0
210
0.0
220
0.0
230
1.0
 40
0.656603
 41
0.1628176711169038
 42
2.9787749824728893
  0
LINE
  5
1BF
100
AcDbEntity
  8
0
370
    -3
  6
Continuous
100
AcDbLine
 10
-260.820037
 20
233.0
 30
0.0
 11
-197.793889
 21
233.0
 31
0.0
  0
ARC
  5
1C0
100
AcDbEntity
  8
0
370
    -3
  6
Continuous
100
AcDbCircle
 10
102.344517
 20
31.365587
 30
0.0
 40
3.8
100
AcDbArc
 50
23.227672
 51
90.0
  0
ARC
  5
1C1
100
AcDbEntity
  8
0
370
    -3
  6
Continuous
100
AcDbCircle
 10
-260.820037
 20
234.0
 30
0.0
 40
1.0
100
AcDbArc
 50
182.0
 51
270.0
  0
ARC
  5
1C2
100
AcDbEntity
  8
0
370
    -3
  6
Continuous
100
AcDbCircle
 10
-197.819428
 20
234.0
 30
0.0
 40
1.0
100
AcDbArc
 50
270.0
 51
358.0
  0
LINE
  5
1C3
100
AcDbEntity
  8
0
370
    -3
  6
Continuous
100
AcDbLine
 10
102.344517
 20
35.165587
 30
0.0
 11
77.83388
 21
35.165587
 31
0.0
  0
LINE
  5
1C4
100
AcDbEntity
  8
0
370
    -3
  6
Continuous
100
AcDbLine
 10
-196.504531
 20
243.0
 30
0.0
 11
-196.820037
 21
233.965101
 31
0.0
  0
ARC
  5
1C5
100
AcDbEntity
  8
0
370
    -3
  6
Continuous
100
AcDbCircle
 10
106.290615
 20
22.170917
 30
0.0
 40
3.8
100
AcDbArc
 50
0.0
 51
23.227672
  0
LINE
  5
1C6
100
AcDbEntity
  8
0
370
    -3
  6
CENTER
100
AcDbLine
 10
-229.319732
 20
247.419236
 30
0.0
 11
-229.319732
 21
227.495264
 31
0.0
  0
LINE
  5
1C7
100
AcDbEntity
  8
0
370
    -3
  6
Continuous
100
AcDbLine
 10
110.090615
 20
22.170917
 30
0.0
 11
110.090615
 21
-1.147797
 31
0.0
  0
ARC
  5
1C8
100
AcDbEntity
  8
0
370
    -3
  6
Continuous
100
AcDbCircle
 10
-257.800703
 20
243.5
 30
0.0
 40
0.5
100
AcDbArc
 50
270.0
 51
0.0
  0
LINE
  5
1C9
100
AcDbEntity
  8
0
370
    -3
  6
Continuous
100
AcDbLine
 10
105.836508
 20
32.864253
 30
0.0
 11
109.782606
 21
23.669583
 31
0.0
  0
LINE
  5
1CA
100
AcDbEntity
  8
0
370
    -3
  6
Continuous
100
AcDbLine
 10
-257.300703
 20
244.5
 30
0.0
 11
-257.300703
 21
243.5
 31
0.0
  0
LINE
  5
1CB
100
AcDbEntity
  8
0
370
    -3
  6
Continuous
100
AcDbLine
 10
105.836508
 20
-39.633079
 30
0.0
 11
109.151407
 21
-31.909144
 31
0.0
  0
ARC
  5
1CC
100
AcDbEntity
  8
0
370
    -3
  6
Continuous
100
AcDbCircle
 10
-256.800703
 20
244.5
 30
0.0
 40
0.5
100
AcDbArc
 50
90.0
 51
180.0
  0
ARC
  5
1CD
100
AcDbEntity
  8
0
370
    -3
  6
Continuous
100
AcDbCircle
 10
102.344517
 20
-38.134413
 30
0.0
 40
3.8
100
AcDbArc
 50
270.0
 51
336.772328
  0
LINE
  5
1CE
100
AcDbEntity
  8
0
370
    -3
  6
Continuous
100
AcDbLine
 10
-247.836888
 20
245.0
 30
0.0
 11
-256.800703
 21
245.0
 31
0.0
  0
LINE
  5
1CF
100
AcDbEntity
  8
0
370
    -3
  6
Continuous
100
AcDbLine
 10
102.344517
 20
-41.934413
 30
0.0
 11
77.83388
 21
-41.934413
 31
0.0
  0
LINE
  5
1D0
100
AcDbEntity
  8
0
370
    -3
  6
Continuous
100
AcDbLine
 10
-210.802577
 20
245.0
 30
0.0
 11
-201.838762
 21
245.0
 31
0.0
  0
ARC
  5
1D1
100
AcDbEntity
  8
0
370
    -3
  6
Continuous
100
AcDbCircle
 10
111.095884
 20
35.615587
 30
0.0
 40
7.8
100
AcDbArc
 50
0.0
 51
90.0
  0
LINE
  5
1D2
100
AcDbEntity
  8
0
370
    -3
  6
Continuous
100
AcDbLine
 10
-201.338762
 20
244.5
 30
0.0
 11
-201.338762
 21
243.5
 31
0.0
  0
LINE
  5
1D3
100
AcDbEntity
  8
0
370
    -3
  6
Continuous
100
AcDbLine
 10
118.895884
 20
35.615587
 30
0.0
 11
118.895884
 21
22.074399
 31
0.0
  0
ARC
  5
1D4
100
AcDbEntity
  8
0
370
    -3
  6
Continuous
100
AcDbCircle
 10
-200.838762
 20
243.5
 30
0.0
 40
0.5
100
AcDbArc
 50
180.0
 51
270.0
  0
LINE
  5
1D5
100
AcDbEntity
  8
0
370
    -3
  6
Continuous
100
AcDbLine
 10
76.980259
 20
43.415587
 30
0.0
 11
111.095884
 21
43.415587
 31
0.0
  0
ARC
  5
1D6
100
AcDbEntity
  8
0
370
    -3
  6
Continuous
100
AcDbCircle
 10
-201.838762
 20
244.5
 30
0.0
 40
0.5
100
AcDbArc
 50
0.0
 51
90.0
  0
ARC
  5
1D7
100
AcDbEntity
  8
0
370
    -3
  6
Continuous
100
AcDbCircle
 10
105.839299
 20
-42.384413
 30
0.0
 40
7.8
100
AcDbArc
 50
270.0
 51
295.127201
  0
LINE
  5
1D8
100
AcDbEntity
  8
0
370
    -3
  6
Continuous
100
AcDbLine
 10
-402.790889
 20
27.615587
 30
0.0
 11
-402.790889
 21
-34.384413
 31
0.0
  0
LINE
  5
1D9
100
AcDbEntity
  8
0
370
    -3
  6
Continuous
100
AcDbLine
 10
-229.319732
 20
243.0
 30
0.0
 11
-196.504531
 21
243.0
 31
0.0
  0
LINE
  5
1DA
100
AcDbEntity
  8
0
370
    -3
  6
Continuous
100
AcDbLine
 10
113.639299
 20
11.576059
 30
0.0
 11
113.639299
 21
35.615587
 31
0.0
  0
LINE
  5
1DB
100
AcDbEntity
  8
0
370
    -3
  6
Continuous
100
AcDbLine
 10
-401.790889
 20
-34.384413
 30
0.0
 11
-401.790889
 21
27.615587
 31
0.0
  0
LINE
  5
1DC
100
AcDbEntity
  8
0
370
    -3
  6
Continuous
100
AcDbLine
 10
-229.319732
 20
243.0
 30
0.0
 11
-262.134933
 21
243.0
 31
0.0
  0
ARC
  5
1DD
100
AcDbEntity
  8
0
370
    -3
  6
Continuous
100
AcDbCircle
 10
105.839299
 20
35.615587
 30
0.0
 40
7.8
100
AcDbArc
 50
0.0
 51
90.0
  0
LINE
  5
1DE
100
AcDbEntity
  8
0
370
    -3
  6
Continuous
100
AcDbLine
 10
-402.790889
 20
27.615587
 30
0.0
 11
-401.790889
 21
27.615587
 31
0.0
  0
ARC
  5
1DF
100
AcDbEntity
  8
0
370
    -3
  6
Continuous
100
AcDbCircle
 10
-200.838762
 20
243.5
 30
0.0
 40
0.5
100
AcDbArc
 50
180.0
 51
270.0
  0
ARC
  5
1E0
100
AcDbEntity
  8
0
370
    -3
  6
Continuous
100
AcDbCircle
 10
77.83388
 20
28.365587
 30
0.0
 40
6.8
100
AcDbArc
 50
90.0
 51
180.0
  0
LINE
  5
1E1
100
AcDbEntity
  8
0
370
    -3
  6
Continuous
100
AcDbLine
 10
-402.790889
 20
-34.384413
 30
0.0
 11
-402.790889
 21
27.615587
 31
0.0
  0
ARC
  5
1E2
100
AcDbEntity
  8
0
370
    -3
  6
Continuous
100
AcDbCircle
 10
-201.838762
 20
244.5
 30
0.0
 40
0.5
100
AcDbArc
 50
0.0
 51
90.0
  0
LINE
  5
1E3
100
AcDbEntity
  8
0
370
    -3
  6
Continuous
100
AcDbLine
 10
71.03388
 20
28.365587
 30
0.0
 11
71.03388
 21
-35.134413
 31
0.0
  0
LINE
  5
1E4
100
AcDbEntity
  8
0
370
    -3
  6
Continuous
100
AcDbLine
 10
-402.790889
 20
-34.384413
 30
0.0
 11
-401.790889
 21
-34.384413
 31
0.0
  0
LINE
  5
1E5
100
AcDbEntity
  8
0
370
    -3
  6
Continuous
100
AcDbLine
 10
-201.338762
 20
244.5
 30
0.0
 11
-201.338762
 21
243.5
 31
0.0
  0
ARC
  5
1E6
100
AcDbEntity
  8
0
370
    -3
  6
Continuous
100
AcDbCircle
 10
77.83388
 20
-35.134413
 30
0.0
 40
6.8
100
AcDbArc
 50
180.0
 51
270.0
  0
LINE
  5
1E7
100
AcDbEntity
  8
0
370
    -3
  6
Continuous
100
AcDbLine
 10
-401.790889
 20
24.615587
 30
0.0
 11
-401.790889
 21
-31.384413
 31
0.0
  0
ARC
  5
1E8
100
AcDbEntity
  8
0
370
    -3
  6
Continuous
100
AcDbCircle
 10
-211.838762
 20
243.5
 30
0.0
 40
0.5
100
AcDbArc
 50
270.0
 51
0.0
  0
ARC
  5
1E9
100
AcDbEntity
  8
0
370
    -3
  6
Continuous
100
AcDbCircle
 10
-403.790889
 20
-34.884717
 30
0.0
 40
1.0
100
AcDbArc
 50
272.0
 51
0.0
  0
LINE
  5
1EA
100
AcDbEntity
  8
0
370
    -3
  6
Continuous
100
AcDbLine
 10
-210.802577
 20
245.0
 30
0.0
 11
-202.145079
 21
245.0
 31
0.0
  0
LINE
  5
1EB
100
AcDbEntity
  8
0
370
    -3
  6
Continuous
100
AcDbLine
 10
-412.790889
 20
-36.199614
 30
0.0
 11
-403.75599
 21
-35.884108
 31
0.0
  0
LINE
  5
1EC
100
AcDbEntity
  8
0
370
    -3
  6
Continuous
100
AcDbLine
 10
-210.838762
 20
245.0
 30
0.0
 11
-202.145079
 21
245.0
 31
0.0
  0
LINE
  5
1ED
100
AcDbEntity
  8
0
370
    -3
  6
Continuous
100
AcDbLine
 10
121.651407
 20
28.115892
 30
0.0
 11
121.651407
 21
26.166713
 31
0.0
  0
LINE
  5
1EE
100
AcDbEntity
  8
0
370
    -3
  6
Continuous
100
AcDbLine
 10
-402.790889
 20
-34.884717
 30
0.0
 11
-402.790889
 21
-3.384413
 31
0.0
  0
ARC
  5
1EF
100
AcDbEntity
  8
0
370
    -3
  6
Continuous
100
AcDbCircle
 10
-210.838762
 20
244.5
 30
0.0
 40
0.5
100
AcDbArc
 50
90.0
 51
180.0
  0
ARC
  5
1F0
100
AcDbEntity
  8
0
370
    -3
  6
Continuous
100
AcDbCircle
 10
-414.290889
 20
-21.901568
 30
0.0
 40
0.5
100
AcDbArc
 50
180.0
 51
268.0
  0
LINE
  5
1F1
100
AcDbEntity
  8
0
370
    -3
  6
Continuous
100
AcDbLine
 10
-211.338762
 20
244.5
 30
0.0
 11
-211.338762
 21
243.5
 31
0.0
  0
ARC
  5
1F2
100
AcDbEntity
  8
0
370
    -3
  6
Continuous
100
AcDbCircle
 10
122.651407
 20
28.115892
 30
0.0
 40
1.0
100
AcDbArc
 50
92.0
 51
180.0
  0
LINE
  5
1F3
100
AcDbEntity
  8
0
370
    -3
  6
Continuous
100
AcDbLine
 10
-414.308339
 20
-22.401264
 30
0.0
 11
-413.27344
 21
-22.437403
 31
0.0
  0
ARC
  5
1F4
100
AcDbEntity
  8
0
370
    -3
  6
Continuous
100
AcDbCircle
 10
-247.800703
 20
244.5
 30
0.0
 40
0.5
100
AcDbArc
 50
0.0
 51
90.0
  0
LINE
  5
1F5
100
AcDbEntity
  8
0
370
    -3
  6
Continuous
100
AcDbLine
 10
123.975387
 20
29.162736
 30
0.0
 11
122.616508
 21
29.115283
 31
0.0
  0
ARC
  5
1F6
100
AcDbEntity
  8
0
370
    -3
  6
Continuous
100
AcDbCircle
 10
-413.290889
 20
-22.937099
 30
0.0
 40
0.5
100
AcDbArc
 50
0.0
 51
88.0
  0
LINE
  5
1F7
100
AcDbEntity
  8
0
370
    -3
  6
Continuous
100
AcDbLine
 10
-247.300703
 20
244.5
 30
0.0
 11
-247.300703
 21
243.5
 31
0.0
  0
LINE
  5
1F8
100
AcDbEntity
  8
0
370
    -3
  6
Continuous
100
AcDbLine
 10
-412.790889
 20
-16.384413
 30
0.0
 11
-412.790889
 21
-36.199614
 31
0.0
  0
ARC
  5
1F9
100
AcDbEntity
  8
0
370
    -3
  6
Continuous
100
AcDbCircle
 10
-246.800703
 20
243.5
 30
0.0
 40
0.5
100
AcDbArc
 50
180.0
 51
270.0
  0
LINE
  5
1FA
100
AcDbEntity
  8
0
370
    -3
  6
Continuous
100
AcDbLine
 10
-414.790889
 20
-3.384413
 30
0.0
 11
-414.790889
 21
-21.901568
 31
0.0
  0
ARC
  5
1FB
100
AcDbEntity
  8
0
370
    -3
  6
Continuous
100
AcDbCircle
 10
-257.800703
 20
243.5
 30
0.0
 40
0.5
100
AcDbArc
 50
270.0
 51
0.0
  0
LINE
  5
1FC
100
AcDbEntity
  8
0
370
    -3
  6
Continuous
100
AcDbLine
 10
-483.123181
 20
-86.384413
 30
0.0
 11
-485.43834
 21
-86.384413
 31
0.0
  0
ARC
  5
1FD
100
AcDbEntity
  8
0
370
    -3
  6
Continuous
100
AcDbCircle
 10
-509.801134
 20
41.996534
 30
0.0
 40
1.0
100
AcDbArc
 50
48.0
 51
131.401106
  0
LINE
  5
1FE
100
AcDbEntity
  8
0
370
    -3
  6
Continuous
100
AcDbLine
 10
-127.819741
 20
300.0
 30
0.0
 11
-127.819741
 21
263.0
 31
0.0
  0
ARC
  5
1FF
100
AcDbEntity
  8
0
370
    -3
  6
Continuous
100
AcDbCircle
 10
130.847819
 20
-85.884413
 30
0.0
 40
3.0
100
AcDbArc
 50
270.0
 51
0.0
  0
LINE
  5
200
100
AcDbEntity
  8
0
370
    -3
  6
Continuous
100
AcDbLine
 10
-456.458598
 20
-86.384413
 30
0.0
 11
-454.143439
 21
-86.384413
 31
0.0
  0
ARC
  5
201
100
AcDbEntity
  8
0
370
    -3
  6
Continuous
100
AcDbCircle
 10
-513.874722
 20
26.928385
 30
0.0
 40
1.0
100
AcDbArc
 50
273.0
 51
325.486921
  0
LINE
  5
202
100
AcDbEntity
  8
0
370
    -3
  6
Continuous
100
AcDbLine
 10
-127.819741
 20
253.0
 30
0.0
 11
-127.819741
 21
222.5
 31
0.0
  0
LINE
  5
203
100
AcDbEntity
  8
0
370
    -3
  6
Continuous
100
AcDbLine
 10
136.151407
 20
-104.884413
 30
0.0
 11
188.651407
 21
-104.884413
 31
0.0
  0
ARC
  5
204
100
AcDbEntity
  8
0
370
    -3
  6
Continuous
100
AcDbCircle
 10
-469.790889
 20
-27.884413
 30
0.0
 40
60.0
100
AcDbArc
 50
257.161432
 51
282.838568
  0
ARC
  5
205
100
AcDbEntity
  8
0
370
    -3
  6
Continuous
100
AcDbCircle
 10
-513.94054
 20
26.832443
 30
0.0
 40
1.0
100
AcDbArc
 50
325.611524
 51
87.0
  0
LINE
  5
206
100
AcDbEntity
  8
0
370
    -3
  6
Continuous
100
AcDbLine
 10
-116.819741
 20
220.5
 30
0.0
 11
-116.819741
 21
300.0
 31
0.0
  0
LINE
  5
207
100
AcDbEntity
  8
0
370
    -3
  6
Continuous
100
AcDbLine
 10
241.151407
 20
-104.884413
 30
0.0
 11
188.651407
 21
-104.884413
 31
0.0
  0
ARC
  5
208
100
AcDbEntity
  8
0
370
    -3
  6
Continuous
100
AcDbCircle
 10
-522.594448
 20
4.309761
 30
0.0
 40
3.0
100
AcDbArc
 50
103.423521
 51
170.0
  0
LINE
  5
209
100
AcDbEntity
  8
0
370
    -3
  6
Continuous
100
AcDbLine
 10
-518.752203
 20
19.05978
 30
0.0
 11
-519.843225
 21
19.116958
 31
0.0
  0
ARC
  5
20A
100
AcDbEntity
  8
0
370
    -3
  6
Continuous
100
AcDbCircle
 10
-128.819741
 20
222.5
 30
0.0
 40
2.0
100
AcDbArc
 50
180.0
 51
270.0
  0
ARC
  5
20B
100
AcDbEntity
  8
0
370
    -3
  6
Continuous
100
AcDbCircle
 10
188.651407
 20
-396.884413
 30
0.0
 40
450.0
100
AcDbArc
 50
90.0
 51
92.158403
  0
ARC
  5
20C
100
AcDbEntity
  8
0
370
    -3
  6
Continuous
100
AcDbCircle
 10
-485.290889
 20
-82.384413
 30
0.0
 40
3.0
100
AcDbArc
 50
180.0
 51
270.0
  0
ARC
  5
20D
100
AcDbEntity
  8
0
370
    -3
  6
Continuous
100
AcDbCircle
 10
-518.804539
 20
18.06115
 30
0.0
 40
1.0
100
AcDbArc
 50
336.36857
 51
87.0
  0
LINE
  5
20E
100
AcDbEntity
  8
0
370
    -3
  6
Continuous
100
AcDbLine
 10
-116.819741
 20
220.5
 30
0.0
 11
-128.819741
 21
220.5
 31
0.0
  0
ARC
  5
20F
100
AcDbEntity
  8
0
370
    -3
  6
Continuous
100
AcDbCircle
 10
188.651407
 20
-396.884413
 30
0.0
 40
450.0
100
AcDbArc
 50
87.841597
 51
90.0
  0
ARC
  5
210
100
AcDbEntity
  8
0
370
    -3
  6
Continuous
100
AcDbCircle
 10
-454.290889
 20
-82.384413
 30
0.0
 40
3.0
100
AcDbArc
 50
270.0
 51
0.0
  0
ARC
  5
211
100
AcDbEntity
  8
0
370
    -3
  6
Continuous
100
AcDbCircle
 10
-519.790889
 20
20.115587
 30
0.0
 40
1.0
100
AcDbArc
 50
93.0
 51
267.0
  0
ARC
  5
212
100
AcDbEntity
  8
0
370
    -3
  6
Continuous
100
AcDbCircle
 10
-125.819741
 20
222.5
 30
0.0
 40
2.0
100
AcDbArc
 50
180.0
 51
270.0
  0
LINE
  5
213
100
AcDbEntity
  8
0
370
    -3
  6
Continuous
100
AcDbLine
 10
268.151407
 20
-12.157562
 30
0.0
 11
268.151407
 21
-86.68826
 31
0.0
  0
ARC
  5
214
100
AcDbEntity
  8
0
370
    -3
  6
Continuous
100
AcDbCircle
 10
-495.290889
 20
-57.384413
 30
0.0
 40
3.0
100
AcDbArc
 50
0.0
 51
90.0
  0
ARC
  5
215
100
AcDbEntity
  8
0
370
    -3
  6
Continuous
100
AcDbCircle
 10
-516.734081
 20
22.278533
 30
0.0
 40
1.0
100
AcDbArc
 50
273.0
 51
331.335416
  0
LINE
  5
216
100
AcDbEntity
  8
0
370
    -3
  6
Continuous
100
AcDbLine
 10
-130.819741
 20
235.733225
 30
0.0
 11
-130.819741
 21
222.5
 31
0.0
  0
LINE
  5
217
100
AcDbEntity
  8
0
370
    -3
  6
Continuous
100
AcDbLine
 10
260.756888
 20
-6.884413
 30
0.0
 11
260.756888
 21
-85.884413
 31
0.0
  0
ARC
  5
218
100
AcDbEntity
  8
0
370
    -3
  6
Continuous
100
AcDbCircle
 10
-485.290889
 20
-57.711472
 30
0.0
 40
3.0
100
AcDbArc
 50
81.344941
 51
180.0
  0
LINE
  5
219
100
AcDbEntity
  8
0
370
    -3
  6
Continuous
100
AcDbLine
 10
-516.681745
 20
21.279903
 30
0.0
 11
-519.843225
 21
21.114217
 31
0.0
  0
ARC
  5
21A
100
AcDbEntity
  8
0
370
    -3
  6
Continuous
100
AcDbCircle
 10
-522.590889
 20
15.915587
 30
0.0
 40
0.7
100
AcDbArc
 50
90.0
 51
180.0
  0
ARC
  5
21B
100
AcDbEntity
  8
0
370
    -3
  6
Continuous
100
AcDbCircle
 10
-135.819741
 20
235.733225
 30
0.0
 40
5.0
100
AcDbArc
 50
0.0
 51
87.0
  0
ARC
  5
21C
100
AcDbEntity
  8
0
370
    -3
  6
Continuous
100
AcDbCircle
 10
188.651407
 20
-1.884413
 30
0.0
 40
33.0
100
AcDbArc
 50
183.275829
 51
270.0
  0
ARC
  5
21D
100
AcDbEntity
  8
0
370
    -3
  6
Continuous
100
AcDbCircle
 10
-444.290889
 20
-57.384413
 30
0.0
 40
3.0
100
AcDbArc
 50
90.0
 51
180.0
  0
ARC
  5
21E
100
AcDbEntity
  8
0
370
    -3
  6
Continuous
100
AcDbCircle
 10
-516.641164
 20
22.447772
 30
0.0
 40
1.0
100
AcDbArc
 50
331.128648
 51
87.0
  0
LINE
  5
21F
100
AcDbEntity
  8
0
370
    -3
  6
Continuous
100
AcDbLine
 10
-523.290889
 20
15.915587
 30
0.0
 11
-523.290889
 21
-3.384413
 31
0.0
  0
ARC
  5
220
100
AcDbEntity
  8
0
370
    -3
  6
Continuous
100
AcDbCircle
 10
153.708597
 20
-3.884413
 30
0.0
 40
2.0
100
AcDbArc
 50
3.275829
 51
90.0
  0
ARC
  5
221
100
AcDbEntity
  8
0
370
    -3
  6
Continuous
100
AcDbCircle
 10
-454.290889
 20
-57.711472
 30
0.0
 40
3.0
100
AcDbArc
 50
0.0
 51
98.655059
  0
LINE
  5
222
100
AcDbEntity
  8
0
370
    -3
  6
Continuous
100
AcDbLine
 10
-516.588828
 20
23.446402
 30
0.0
 11
-519.843225
 21
23.616958
 31
0.0
  0
LINE
  5
223
100
AcDbEntity
  8
0
370
    -3
  6
Continuous
100
AcDbLine
 10
-499.105058
 20
40.647084
 30
0.0
 11
-498.789519
 21
46.667923
 31
0.0
  0
ARC
  5
224
100
AcDbEntity
  8
0
370
    -3
  6
Continuous
100
AcDbCircle
 10
235.251407
 20
-4.384413
 30
0.0
 40
2.5
100
AcDbArc
 50
0.0
 51
90.0
  0
ARC
  5
225
100
AcDbEntity
  8
0
370
    -3
  6
Continuous
100
AcDbCircle
 10
-497.290889
 20
-82.613861
 30
0.0
 40
5.0
100
AcDbArc
 50
0.0
 51
63.321766
  0
LINE
  5
226
100
AcDbEntity
  8
0
370
    -3
  6
Continuous
100
AcDbLine
 10
-513.822386
 20
25.929756
 30
0.0
 11
-519.843225
 21
25.614217
 31
0.0
  0
LINE
  5
227
100
AcDbEntity
  8
0
370
    -3
  6
Continuous
100
AcDbLine
 10
-501.006374
 20
40.712902
 30
0.0
 11
-501.29226
 21
46.167923
 31
0.0
  0
ARC
  5
228
100
AcDbEntity
  8
0
370
    -3
  6
Continuous
100
AcDbCircle
 10
223.594218
 20
-3.884413
 30
0.0
 40
2.0
100
AcDbArc
 50
90.0
 51
176.724171
  0
ARC
  5
229
100
AcDbEntity
  8
0
370
    -3
  6
Continuous
100
AcDbCircle
 10
-469.790889
 20
-27.884413
 30
0.0
 40
56.25
100
AcDbArc
 50
220.772805
 51
243.321766
  0
LINE
  5
22A
100
AcDbEntity
  8
0
370
    -3
  6
Continuous
100
AcDbLine
 10
-513.888204
 20
27.831072
 30
0.0
 11
-519.343225
 21
28.116958
 31
0.0
  0
ARC
  5
22B
100
AcDbEntity
  8
0
370
    -3
  6
Continuous
100
AcDbCircle
 10
-502.290889
 20
46.115587
 30
0.0
 40
1.0
100
AcDbArc
 50
3.0
 51
177.0
  0
ARC
  5
22C
100
AcDbEntity
  8
0
370
    -3
  6
Continuous
100
AcDbCircle
 10
188.651407
 20
-1.884413
 30
0.0
 40
33.0
100
AcDbArc
 50
270.0
 51
356.724171
  0
ARC
  5
22D
100
AcDbEntity
  8
0
370
    -3
  6
Continuous
100
AcDbCircle
 10
-516.175828
 20
-67.884413
 30
0.0
 40
5.0
100
AcDbArc
 50
40.772805
 51
90.0
  0
ARC
  5
22E
100
AcDbEntity
  8
0
370
    -3
  6
Continuous
100
AcDbCircle
 10
-519.790889
 20
24.615587
 30
0.0
 40
1.0
100
AcDbArc
 50
93.0
 51
267.0
  0
LINE
  5
22F
100
AcDbEntity
  8
0
370
    -3
  6
Continuous
100
AcDbLine
 10
-496.621704
 20
43.413526
 30
0.0
 11
-496.79226
 21
46.667923
 31
0.0
  0
LINE
  5
230
100
AcDbEntity
  8
0
370
    -3
  6
Continuous
100
AcDbLine
 10
237.751407
 20
-4.384413
 30
0.0
 11
237.751407
 21
-78.484413
 31
0.0
  0
LINE
  5
231
100
AcDbEntity
  8
0
370
    -3
  6
Continuous
100
AcDbLine
 10
-520.950486
 20
-62.884413
 30
0.0
 11
-516.175828
 21
-62.884413
 31
0.0
  0
ARC
  5
232
100
AcDbEntity
  8
0
370
    -3
  6
Continuous
100
AcDbCircle
 10
-519.290889
 20
29.115587
 30
0.0
 40
1.0
100
AcDbArc
 50
93.0
 51
267.0
  0
ARC
  5
233
100
AcDbEntity
  8
0
370
    -3
  6
Continuous
100
AcDbCircle
 10
-497.790889
 20
46.615587
 30
0.0
 40
1.0
100
AcDbArc
 50
3.0
 51
177.0
  0
LINE
  5
234
100
AcDbEntity
  8
0
370
    -3
  6
Continuous
100
AcDbLine
 10
223.594218
 20
-1.884413
 30
0.0
 11
235.251407
 21
-1.884413
 31
0.0
  0
ARC
  5
235
100
AcDbEntity
  8
0
370
    -3
  6
Continuous
100
AcDbCircle
 10
-520.950486
 20
-57.884413
 30
0.0
 40
5.0
100
AcDbArc
 50
190.0
 51
270.0
  0
ARC
  5
236
100
AcDbEntity
  8
0
370
    -3
  6
Continuous
100
AcDbCircle
 10
-469.790889
 20
-3.384413
 30
0.0
 40
52.5
100
AcDbArc
 50
151.026551
 51
151.437166
  0
LINE
  5
237
100
AcDbEntity
  8
0
370
    -3
  6
Continuous
100
AcDbLine
 10
-492.235082
 20
45.576901
 30
0.0
 11
-492.29226
 21
46.667923
 31
0.0
  0
ARC
  5
238
100
AcDbEntity
  8
0
370
    -3
  6
Continuous
100
AcDbCircle
 10
188.651407
 20
-1.884413
 30
0.0
 40
22.5
100
AcDbArc
 50
80.734832
 51
22.461281
  0
ARC
  5
239
100
AcDbEntity
  8
0
370
    -3
  6
Continuous
100
AcDbCircle
 10
-442.290889
 20
-82.613861
 30
0.0
 40
5.0
100
AcDbArc
 50
116.678234
 51
180.0
  0
ARC
  5
23A
100
AcDbEntity
  8
0
370
    -3
  6
Continuous
100
AcDbCircle
 10
-469.790889
 20
-3.384413
 30
0.0
 40
52.5
100
AcDbArc
 50
151.026551
 51
151.437166
  0
ARC
  5
23B
100
AcDbEntity
  8
0
370
    -3
  6
Continuous
100
AcDbCircle
 10
-488.790889
 20
46.615587
 30
0.0
 40
1.0
100
AcDbArc
 50
20.070332
 51
177.0
  0
ARC
  5
23C
100
AcDbEntity
  8
0
370
    -3
  6
Continuous
100
AcDbCircle
 10
188.651407
 20
-1.884413
 30
0.0
 40
22.5
100
AcDbArc
 50
20.020867
 51
83.014857
  0
ARC
  5
23D
100
AcDbEntity
  8
0
370
    -3
  6
Continuous
100
AcDbCircle
 10
-469.790889
 20
-27.884413
 30
0.0
 40
56.25
100
AcDbArc
 50
296.678234
 51
319.227195
  0
ARC
  5
23E
100
AcDbEntity
  8
0
370
    -3
  6
Continuous
100
AcDbCircle
 10
-469.790889
 20
-3.384413
 30
0.0
 40
52.5
100
AcDbArc
 50
156.336295
 51
156.888398
  0
LINE
  5
23F
100
AcDbEntity
  8
0
370
    -3
  6
Continuous
100
AcDbLine
 10
-489.837622
 20
45.750066
 30
0.0
 11
-489.789519
 21
46.667923
 31
0.0
  0
ARC
  5
240
100
AcDbEntity
  8
0
370
    -3
  6
Continuous
100
AcDbCircle
 10
188.651407
 20
-396.884413
 30
0.0
 40
425.06899
100
AcDbArc
 50
90.0
 51
92.456227
  0
ARC
  5
241
100
AcDbEntity
  8
0
370
    -3
  6
Continuous
100
AcDbCircle
 10
-423.405951
 20
-67.884413
 30
0.0
 40
5.0
100
AcDbArc
 50
90.0
 51
139.227195
  0
ARC
  5
242
100
AcDbEntity
  8
0
370
    -3
  6
Continuous
100
AcDbCircle
 10
-518.997088
 20
17.615587
 30
0.0
 40
1.0
100
AcDbArc
 50
270.0
 51
336.888398
  0
ARC
  5
243
100
AcDbEntity
  8
0
370
    -3
  6
Continuous
100
AcDbCircle
 10
-490.836251
 20
45.802402
 30
0.0
 40
1.0
100
AcDbArc
 50
293.164432
 51
357.0
  0
LINE
  5
244
100
AcDbEntity
  8
0
370
    -3
  6
Continuous
100
AcDbLine
 10
-53.317457
 20
230.261786
 30
0.0
 11
-53.371766
 21
227.15039
 31
0.0
  0
ARC
  5
245
100
AcDbEntity
  8
0
370
    -3
  6
Continuous
100
AcDbCircle
 10
203.151407
 20
-12.157562
 30
0.0
 40
40.124128
100
AcDbArc
 50
3.004087
 51
84.684912
  0
LINE
  5
246
100
AcDbEntity
  8
0
370
    -3
  6
Continuous
100
AcDbLine
 10
-418.631292
 20
-62.884413
 30
0.0
 11
-423.405951
 21
-62.884413
 31
0.0
  0
ARC
  5
247
100
AcDbEntity
  8
0
370
    -3
  6
Continuous
100
AcDbCircle
 10
-469.790889
 20
-3.384413
 30
0.0
 40
52.5
100
AcDbArc
 50
156.304919
 51
156.888398
  0
ARC
  5
248
100
AcDbEntity
  8
0
370
    -3
  6
Continuous
100
AcDbCircle
 10
-486.912345
 20
47.301934
 30
0.0
 40
1.0
100
AcDbArc
 50
200.070332
 51
288.664571
  0
ARC
  5
249
100
AcDbEntity
  8
0
370
    -3
  6
Continuous
100
AcDbCircle
 10
-55.371462
 20
227.185295
 30
0.0
 40
2.0
100
AcDbArc
 50
290.519052
 51
359.0
  0
LINE
  5
24A
100
AcDbEntity
  8
0
370
    -3
  6
Continuous
100
AcDbLine
 10
243.220397
 20
-10.054769
 30
0.0
 11
243.220397
 21
-85.884413
 31
0.0
  0
ARC
  5
24B
100
AcDbEntity
  8
0
370
    -3
  6
Continuous
100
AcDbCircle
 10
-418.631292
 20
-57.884413
 30
0.0
 40
5.0
100
AcDbArc
 50
270.0
 51
350.0
  0
LINE
  5
24C
100
AcDbEntity
  8
0
370
    -3
  6
Continuous
100
AcDbLine
 10
-522.590889
 20
16.615587
 30
0.0
 11
-518.997088
 21
16.615587
 31
0.0
  0
ARC
  5
24D
100
AcDbEntity
  8
0
370
    -3
  6
Continuous
100
AcDbCircle
 10
-491.236452
 20
45.629237
 30
0.0
 40
1.0
100
AcDbArc
 50
183.0
 51
293.63143
  0
LINE
  5
24E
100
AcDbEntity
  8
0
370
    -3
  6
Continuous
100
AcDbLine
 10
-116.319741
 20
220.491272
 30
0.0
 11
-116.319741
 21
299.936492
 31
0.0
  0
ARC
  5
24F
100
AcDbEntity
  8
0
370
    -3
  6
Continuous
100
AcDbCircle
 10
203.151407
 20
-12.157562
 30
0.0
 40
65.0
100
AcDbArc
 50
0.0
 51
87.841597
  0
LINE
  5
250
100
AcDbEntity
  8
0
370
    -3
  6
Continuous
100
AcDbLine
 10
-492.290889
 20
-57.384413
 30
0.0
 11
-492.290889
 21
-85.384413
 31
0.0
  0
LINE
  5
251
100
AcDbEntity
  8
0
370
    -3
  6
Continuous
100
AcDbLine
 10
-270.319741
 20
331.900206
 30
0.0
 11
-191.319741
 21
331.900206
 31
0.0
  0
ARC
  5
252
100
AcDbEntity
  8
0
370
    -3
  6
Continuous
100
AcDbCircle
 10
-495.453835
 20
43.558779
 30
0.0
 40
1.0
100
AcDbArc
 50
298.664584
 51
357.0
  0
LINE
  5
253
100
AcDbEntity
  8
0
370
    -3
  6
Continuous
100
AcDbLine
 10
-116.319741
 20
379.508728
 30
0.0
 11
-116.319741
 21
300.063508
 31
0.0
  0
ARC
  5
254
100
AcDbEntity
  8
0
370
    -3
  6
Continuous
100
AcDbCircle
 10
188.651407
 20
-1.884413
 30
0.0
 40
27.5
100
AcDbArc
 50
5.488856
 51
82.579133
  0
LINE
  5
255
100
AcDbEntity
  8
0
370
    -3
  6
Continuous
100
AcDbLine
 10
-447.290889
 20
-57.384413
 30
0.0
 11
-447.290889
 21
-85.384413
 31
0.0
  0
LINE
  5
256
100
AcDbEntity
  8
0
370
    -3
  6
Continuous
100
AcDbLine
 10
-270.319741
 20
333.099794
 30
0.0
 11
-191.319741
 21
333.099794
 31
0.0
  0
LINE
  5
257
100
AcDbEntity
  8
0
370
    -3
  6
Continuous
100
AcDbLine
 10
-494.455205
 20
43.506443
 30
0.0
 11
-494.289519
 21
46.667923
 31
0.0
  0
ARC
  5
258
100
AcDbEntity
  8
0
370
    -3
  6
Continuous
100
AcDbCircle
 10
-28.819741
 20
247.166128
 30
0.0
 40
2.0
100
AcDbArc
 50
271.0
 51
0.0
  0
LINE
  5
259
100
AcDbEntity
  8
0
370
    -3
  6
CENTER
100
AcDbLine
 10
188.651407
 20
62.475953
 30
0.0
 11
188.651407
 21
-109.000082
 31
0.0
  0
LINE
  5
25A
100
AcDbEntity
  8
0
370
    -3
  6
Continuous
100
AcDbLine
 10
-488.290889
 20
-57.711472
 30
0.0
 11
-488.290889
 21
-82.384413
 31
0.0
  0
ARC
  5
25B
100
AcDbEntity
  8
0
370
    -3
  6
Continuous
100
AcDbCircle
 10
-495.623075
 20
43.465862
 30
0.0
 40
1.0
100
AcDbArc
 50
183.0
 51
298.871352
  0
ARC
  5
25C
100
AcDbEntity
  8
0
370
    -3
  6
Continuous
100
AcDbCircle
 10
-159.819741
 20
219.435303
 30
0.0
 40
2.0
100
AcDbArc
 50
180.0
 51
268.116277
  0
ARC
  5
25D
100
AcDbEntity
  8
0
370
    -3
  6
Continuous
100
AcDbCircle
 10
188.651407
 20
-1.884413
 30
0.0
 40
27.5
100
AcDbArc
 50
80.268363
 51
8.578456
  0
LINE
  5
25E
100
AcDbEntity
  8
0
370
    -3
  6
Continuous
100
AcDbLine
 10
-451.290889
 20
-57.711472
 30
0.0
 11
-451.290889
 21
-82.384413
 31
0.0
  0
ARC
  5
25F
100
AcDbEntity
  8
0
370
    -3
  6
Continuous
100
AcDbCircle
 10
-493.290889
 20
46.615587
 30
0.0
 40
1.0
100
AcDbArc
 50
3.0
 51
177.0
  0
ARC
  5
260
100
AcDbEntity
  8
0
370
    -3
  6
Continuous
100
AcDbCircle
 10
-26.819741
 20
219.465395
 30
0.0
 40
2.0
100
AcDbArc
 50
271.0
 51
0.0
  0
LINE
  5
261
100
AcDbEntity
  8
0
370
    -3
  6
Continuous
100
AcDbLine
 10
243.454996
 20
-6.884413
 30
0.0
 11
243.454996
 21
-85.884413
 31
0.0
  0
ARC
  5
262
100
AcDbEntity
  8
0
370
    -3
  6
Continuous
100
AcDbCircle
 10
-510.102432
 20
6.050257
 30
0.0
 40
15.0
100
AcDbArc
 50
151.549677
 51
170.0
  0
LINE
  5
263
100
AcDbEntity
  8
0
370
    -3
  6
Continuous
100
AcDbLine
 10
-270.319741
 20
352.5
 30
0.0
 11
-270.319741
 21
300.0
 31
0.0
  0
ARC
  5
264
100
AcDbEntity
  8
0
370
    -3
  6
Continuous
100
AcDbCircle
 10
-469.790889
 20
-3.384413
 30
0.0
 40
52.5
100
AcDbArc
 50
118.562834
 51
118.973449
  0
LINE
  5
265
100
AcDbEntity
  8
0
370
    -3
  6
CENTER
100
AcDbLine
 10
-137.319741
 20
230.0
 30
0.0
 11
-159.319741
 21
230.0
 31
0.0
  0
ARC
  5
266
100
AcDbEntity
  8
0
370
    -3
  6
Continuous
100
AcDbCircle
 10
188.651407
 20
-396.884413
 30
0.0
 40
425.06899
100
AcDbArc
 50
87.543773
 51
90.0
  0
ARC
  5
267
100
AcDbEntity
  8
0
370
    -3
  6
Continuous
100
AcDbCircle
 10
-528.635256
 20
-6.914283
 30
0.0
 40
1.0
100
AcDbArc
 50
279.914783
 51
350.0
  0
LINE
  5
268
100
AcDbEntity
  8
0
370
    -3
  6
Continuous
100
AcDbLine
 10
-270.319741
 20
268.099794
 30
0.0
 11
-191.319741
 21
268.099794
 31
0.0
  0
ARC
  5
269
100
AcDbEntity
  8
0
370
    -3
  6
Continuous
100
AcDbCircle
 10
-469.790889
 20
-3.384413
 30
0.0
 40
52.5
100
AcDbArc
 50
105.877702
 51
108.664571
  0
CIRCLE
  5
26A
100
AcDbEntity
  8
0
370
    -3
  6
Continuous
100
AcDbCircle
 10
-38.319741
 20
230.0
 30
0.0
 40
6.0
  0
CIRCLE
  5
26B
100
AcDbEntity
  8
0
370
    -3
  6
Continuous
100
AcDbCircle
 10
188.651407
 20
-1.884413
 30
0.0
 40
3.3235
  0
ARC
  5
26C
100
AcDbEntity
  8
0
370
    -3
  6
Continuous
100
AcDbCircle
 10
-528.290889
 20
-8.884413
 30
0.0
 40
1.0
100
AcDbArc
 50
99.914783
 51
180.0
  0
LINE
  5
26D
100
AcDbEntity
  8
0
370
    -3
  6
Continuous
100
AcDbLine
 10
-270.319741
 20
266.900206
 30
0.0
 11
-191.319741
 21
266.900206
 31
0.0
  0
ARC
  5
26E
100
AcDbEntity
  8
0
370
    -3
  6
Continuous
100
AcDbCircle
 10
-469.790889
 20
-50.884413
 30
0.0
 40
100.0
100
AcDbArc
 50
90.0
 51
97.79785
  0
LINE
  5
26F
100
AcDbEntity
  8
0
370
    -3
  6
CENTER
100
AcDbLine
 10
-27.319741
 20
230.0
 30
0.0
 11
-49.319741
 21
230.0
 31
0.0
  0
CIRCLE
  5
270
100
AcDbEntity
  8
0
370
    -3
  6
Continuous
100
AcDbCircle
 10
188.651407
 20
-1.884413
 30
0.0
 40
4.0
  0
LINE
  5
271
100
AcDbEntity
  8
0
370
    -3
  6
Continuous
100
AcDbLine
 10
-527.650448
 20
-7.087931
 30
0.0
 11
-524.874548
 21
8.654979
 31
0.0
  0
LINE
  5
272
100
AcDbEntity
  8
0
370
    -3
  6
Continuous
100
AcDbLine
 10
-270.319741
 20
249.5
 30
0.0
 11
-191.319741
 21
249.5
 31
0.0
  0
ARC
  5
273
100
AcDbEntity
  8
0
370
    -3
  6
Continuous
100
AcDbCircle
 10
-483.290889
 20
47.695504
 30
0.0
 40
0.5
100
AcDbArc
 50
97.79785
 51
180.0
  0
LINE
  5
274
100
AcDbEntity
  8
0
370
    -3
  6
CENTER
100
AcDbLine
 10
-38.319741
 20
241.0
 30
0.0
 11
-38.319741
 21
219.0
 31
0.0
  0
LINE
  5
275
100
AcDbEntity
  8
0
370
    -3
  6
Continuous
100
AcDbLine
 10
171.651407
 20
-5.884413
 30
0.0
 11
171.651407
 21
2.115587
 31
0.0
  0
LINE
  5
276
100
AcDbEntity
  8
0
370
    -3
  6
Continuous
100
AcDbLine
 10
-529.290889
 20
-27.884413
 30
0.0
 11
-529.290889
 21
-8.884413
 31
0.0
  0
LINE
  5
277
100
AcDbEntity
  8
0
370
    -3
  6
Continuous
100
AcDbLine
 10
-270.319741
 20
249.0
 30
0.0
 11
-191.319741
 21
249.0
 31
0.0
  0
LINE
  5
278
100
AcDbEntity
  8
0
370
    -3
  6
Continuous
100
AcDbLine
 10
-483.790889
 20
47.695504
 30
0.0
 11
-483.790889
 21
47.593524
 31
0.0
  0
LINE
  5
279
100
AcDbEntity
  8
0
370
    -3
  6
Continuous
100
AcDbLine
 10
-114.319741
 20
215.937772
 30
0.0
 11
-26.784836
 21
217.465699
 31
0.0
  0
LINE
  5
27A
100
AcDbEntity
  8
0
370
    -3
  6
Continuous
100
AcDbLine
 10
178.651407
 20
-5.884413
 30
0.0
 11
178.651407
 21
2.115587
 31
0.0
  0
ARC
  5
27B
100
AcDbEntity
  8
0
370
    -3
  6
Continuous
100
AcDbCircle
 10
-528.635256
 20
-48.854543
 30
0.0
 40
1.0
100
AcDbArc
 50
10.0
 51
80.085217
  0
LINE
  5
27C
100
AcDbEntity
  8
0
370
    -3
  6
Continuous
100
AcDbLine
 10
-270.319741
 20
252.673403
 30
0.0
 11
-191.319741
 21
252.673403
 31
0.0
  0
ARC
  5
27D
100
AcDbEntity
  8
0
370
    -3
  6
Continuous
100
AcDbCircle
 10
-484.290889
 20
47.593524
 30
0.0
 40
0.5
100
AcDbArc
 50
285.877702
 51
0.0
  0
LINE
  5
27E
100
AcDbEntity
  8
0
370
    -3
  6
Continuous
100
AcDbLine
 10
-116.319741
 20
220.5
 30
0.0
 11
-76.319741
 21
221.198203
 31
0.0
  0
LINE
  5
27F
100
AcDbEntity
  8
0
370
    -3
  6
Continuous
100
AcDbLine
 10
171.651407
 20
-5.884413
 30
0.0
 11
178.651407
 21
-5.884413
 31
0.0
  0
ARC
  5
280
100
AcDbEntity
  8
0
370
    -3
  6
Continuous
100
AcDbCircle
 10
-528.290889
 20
-46.884413
 30
0.0
 40
1.0
100
AcDbArc
 50
180.0
 51
260.085217
  0
LINE
  5
281
100
AcDbEntity
  8
0
370
    -3
  6
Continuous
100
AcDbLine
 10
-270.319741
 20
259.567553
 30
0.0
 11
-191.319741
 21
259.567553
 31
0.0
  0
ARC
  5
282
100
AcDbEntity
  8
0
370
    -3
  6
Continuous
100
AcDbCircle
 10
-500.007745
 20
40.765238
 30
0.0
 40
1.0
100
AcDbArc
 50
183.0
 51
301.115753
  0
ARC
  5
283
100
AcDbEntity
  8
0
370
    -3
  6
Continuous
100
AcDbCircle
 10
-38.319741
 20
230.0
 30
0.0
 40
15.0
100
AcDbArc
 50
90.0
 51
179.0
  0
LINE
  5
284
100
AcDbEntity
  8
0
370
    -3
  6
Continuous
100
AcDbLine
 10
171.651407
 20
2.115587
 30
0.0
 11
178.651407
 21
2.115587
 31
0.0
  0
LINE
  5
285
100
AcDbEntity
  8
0
370
    -3
  6
Continuous
100
AcDbLine
 10
-527.650448
 20
-48.680894
 30
0.0
 11
-524.874548
 21
-64.423805
 31
0.0
  0
LINE
  5
286
100
AcDbEntity
  8
0
370
    -3
  6
Continuous
100
AcDbLine
 10
-270.319741
 20
271.400206
 30
0.0
 11
-263.319741
 21
271.400206
 31
0.0
  0
ARC
  5
287
100
AcDbEntity
  8
0
370
    -3
  6
Continuous
100
AcDbCircle
 10
-500.103687
 20
40.69942
 30
0.0
 40
1.0
100
AcDbArc
 50
307.785803
 51
357.0
  0
LINE
  5
288
100
AcDbEntity
  8
0
370
    -3
  6
Continuous
100
AcDbLine
 10
-38.319741
 20
245.0
 30
0.0
 11
-28.784836
 21
245.166432
 31
0.0
  0
ELLIPSE
  5
289
100
AcDbEntity
  8
0
370
    -3
  6
Continuous
100
AcDbEllipse
 10
252.105942
 20
-6.884413
 30
0.0
 11
0.0
 21
15.0
 31
0.0
210
0.0
220
0.0
230
1.0
 40
0.57673
 41
4.7123889803846897
 42
1.5707963267948968
  0
LINE
  5
28A
100
AcDbEntity
  8
0
370
    -3
  6
Continuous
100
AcDbLine
 10
-529.290889
 20
-27.884413
 30
0.0
 11
-529.290889
 21
-46.884413
 31
0.0
  0
LINE
  5
28B
100
AcDbEntity
  8
0
370
    -3
  6
Continuous
100
AcDbLine
 10
-270.319741
 20
275.900206
 30
0.0
 11
-263.319741
 21
275.900206
 31
0.0
  0
ARC
  5
28C
100
AcDbEntity
  8
0
370
    -3
  6
Continuous
100
AcDbCircle
 10
-469.790889
 20
-3.384413
 30
0.0
 40
52.5
100
AcDbArc
 50
113.136889
 51
113.663705
  0
ARC
  5
28D
100
AcDbEntity
  8
0
370
    -3
  6
Continuous
100
AcDbCircle
 10
-77.454148
 20
286.188303
 30
0.0
 40
65.0
100
AcDbArc
 50
271.0
 51
290.519052
  0
ARC
  5
28E
100
AcDbEntity
  8
0
370
    -3
  6
Continuous
100
AcDbCircle
 10
188.651407
 20
-1.884413
 30
0.0
 40
14.0
100
AcDbArc
 50
196.60155
 51
163.39845
  0
LINE
  5
28F
100
AcDbEntity
  8
0
370
    -3
  6
Continuous
100
AcDbLine
 10
-552.290889
 20
-91.884413
 30
0.0
 11
-552.290889
 21
-106.884413
 31
0.0
  0
LINE
  5
290
100
AcDbEntity
  8
0
370
    -3
  6
Continuous
100
AcDbLine
 10
-270.319741
 20
324.099794
 30
0.0
 11
-263.319741
 21
324.099794
 31
0.0
  0
LINE
  5
291
100
AcDbEntity
  8
0
370
    -3
  6
Continuous
100
AcDbLine
 10
-497.989531
 20
32.706952
 30
0.0
 11
-509.132003
 21
42.739679
 31
0.0
  0
LINE
  5
292
100
AcDbEntity
  8
0
370
    -3
  6
Continuous
100
AcDbLine
 10
-159.885484
 20
217.436384
 30
0.0
 11
-114.319741
 21
215.937772
 31
0.0
  0
ARC
  5
293
100
AcDbEntity
  8
0
370
    -3
  6
Continuous
100
AcDbCircle
 10
-50.319741
 20
-85.438852
 30
0.0
 40
3.0
100
AcDbArc
 50
180.0
 51
269.0
  0
LINE
  5
294
100
AcDbEntity
  8
0
370
    -3
  6
CENTER
100
AcDbLine
 10
-539.790889
 20
-109.964916
 30
0.0
 11
-539.790889
 21
-79.729096
 31
0.0
  0
LINE
  5
295
100
AcDbEntity
  8
0
370
    -3
  6
Continuous
100
AcDbLine
 10
-270.319741
 20
328.599794
 30
0.0
 11
-263.319741
 21
328.599794
 31
0.0
  0
LINE
  5
296
100
AcDbEntity
  8
0
370
    -3
  6
Continuous
100
AcDbLine
 10
-505.882254
 20
24.814229
 30
0.0
 11
-515.914981
 21
35.956701
 31
0.0
  0
LINE
  5
297
100
AcDbEntity
  8
0
370
    -3
  6
Continuous
100
AcDbLine
 10
-23.019741
 20
285.5
 30
0.0
 11
-24.819741
 21
285.5
 31
0.0
  0
ARC
  5
298
100
AcDbEntity
  8
0
370
    -3
  6
Continuous
100
AcDbCircle
 10
-26.067337
 20
-86.094118
 30
0.0
 40
3.0
100
AcDbArc
 50
180.0
 51
253.018232
  0
LINE
  5
299
100
AcDbEntity
  8
0
370
    -3
  6
Continuous
100
AcDbLine
 10
-524.290889
 20
-106.884413
 30
0.0
 11
-524.290889
 21
-95.816364
 31
0.0
  0
LINE
  5
29A
100
AcDbEntity
  8
0
370
    -3
  6
Continuous
100
AcDbLine
 10
-208.319741
 20
327.400206
 30
0.0
 11
-191.319741
 21
327.400206
 31
0.0
  0
INSERT
  5
2A6
100
AcDbEntity
  8
0
100
AcDbBlockReference
  2
ZU_SYM__USERS_HOME_SYMBOL_STD_SYM_B01_00004-1
 10
-430.19291
 20
36.213567
 30
0.0
 50
360.0
  0
LINE
  5
2A7
100
AcDbEntity
  8
0
370
    -3
  6
Continuous
100
AcDbLine
 10
-22.819741
 20
300.0
 30
0.0
 11
-22.819741
 21
285.7
 31
0.0
  0
ARC
  5
2A8
100
AcDbEntity
  8
0
370
    -3
  6
Continuous
100
AcDbCircle
 10
-131.950894
 20
-84.900434
 30
0.0
 40
3.0
100
AcDbArc
 50
271.883723
 51
309.887635
  0
ARC
  5
2A9
100
AcDbEntity
  8
0
370
    -3
  6
Continuous
100
AcDbCircle
 10
-510.102432
 20
-61.819082
 30
0.0
 40
15.0
100
AcDbArc
 50
190.0
 51
225.0
  0
LINE
  5
2AA
100
AcDbEntity
  8
0
370
    -3
  6
Continuous
100
AcDbLine
 10
-208.319741
 20
277.099794
 30
0.0
 11
-191.319741
 21
277.099794
 31
0.0
  0
LINE
  5
2AB
100
AcDbEntity
  8
0
370
    -3
  6
Continuous
100
AcDbLine
 10
-22.819741
 20
285.7
 30
0.0
 11
-23.019741
 21
285.5
 31
0.0
  0
LINE
  5
2AC
100
AcDbEntity
  8
0
370
    -3
  6
Continuous
100
AcDbLine
 10
-26.819741
 20
-106.884413
 30
0.0
 11
-26.819741
 21
-106.384413
 31
0.0
  0
ARC
  5
2AD
100
AcDbEntity
  8
0
370
    -3
  6
Continuous
100
AcDbCircle
 10
-546.290889
 20
-73.367926
 30
0.0
 40
3.0
100
AcDbArc
 50
30.733843
 51
180.0
  0
LINE
  5
2AE
100
AcDbEntity
  8
0
370
    -3
  6
Continuous
100
AcDbLine
 10
-208.319741
 20
272.599794
 30
0.0
 11
-191.319741
 21
272.599794
 31
0.0
  0
ARC
  5
2AF
100
AcDbEntity
  8
0
370
    -3
  6
Continuous
100
AcDbCircle
 10
-22.419741
 20
285.75
 30
0.0
 40
0.4
100
AcDbArc
 50
90.0
 51
180.0
  0
LINE
  5
2B0
100
AcDbEntity
  8
0
370
    -3
  6
Continuous
100
AcDbLine
 10
-26.819741
 20
-106.384413
 30
0.0
 11
-24.819741
 21
-106.384413
 31
0.0
  0
ARC
  5
2B1
100
AcDbEntity
  8
0
370
    -3
  6
Continuous
100
AcDbCircle
 10
-393.290889
 20
-73.367926
 30
0.0
 40
3.0
100
AcDbArc
 50
0.0
 51
149.266157
  0
LINE
  5
2B2
100
AcDbEntity
  8
0
370
    -3
  6
Continuous
100
AcDbLine
 10
-20.259933
 20
286.0
 30
0.0
 11
-20.819741
 21
286.15
 31
0.0
  0
LINE
  5
2B3
100
AcDbEntity
  8
0
370
    -3
  6
CENTER
100
AcDbLine
 10
-38.319741
 20
-85.128441
 30
0.0
 11
-38.319741
 21
-109.716703
 31
0.0
  0
LINE
  5
2B4
100
AcDbEntity
  8
0
370
    -3
  6
Continuous
100
AcDbLine
 10
-520.709034
 20
-72.425684
 30
0.0
 11
-514.498983
 21
-78.635734
 31
0.0
  0
LINE
  5
2B5
100
AcDbEntity
  8
0
370
    -3
  6
Continuous
100
AcDbLine
 10
-20.819741
 20
286.15
 30
0.0
 11
-22.419741
 21
286.15
 31
0.0
  0
LINE
  5
2B6
100
AcDbEntity
  8
0
370
    -3
  6
Continuous
100
AcDbLine
 10
-159.819741
 20
-106.884413
 30
0.0
 11
-26.819741
 21
-106.884413
 31
0.0
  0
ARC
  5
2B7
100
AcDbEntity
  8
0
370
    -3
  6
Continuous
100
AcDbCircle
 10
-503.892382
 20
-68.029132
 30
0.0
 40
15.0
100
AcDbArc
 50
225.0
 51
259.695154
  0
LINE
  5
2B8
100
AcDbEntity
  8
0
370
    -3
  6
Continuous
100
AcDbLine
 10
-23.019741
 20
314.5
 30
0.0
 11
-24.819741
 21
314.5
 31
0.0
  0
LINE
  5
2B9
100
AcDbEntity
  8
0
370
    -3
  6
Continuous
100
AcDbLine
 10
-24.819741
 20
-106.384413
 30
0.0
 11
-24.819741
 21
-91.332505
 31
0.0
  0
LINE
  5
2BA
100
AcDbEntity
  8
0
370
    -3
  6
Continuous
100
AcDbLine
 10
-506.575663
 20
-82.787181
 30
0.0
 11
-488.121622
 21
-86.142461
 31
0.0
  0
LINE
  5
2BB
100
AcDbEntity
  8
0
370
    -3
  6
Continuous
100
AcDbLine
 10
-22.819741
 20
300.0
 30
0.0
 11
-22.819741
 21
314.3
 31
0.0
  0
LINE
  5
2BC
100
AcDbEntity
  8
0
370
    -3
  6
Continuous
100
AcDbLine
 10
-27.767384
 20
-88.832961
 30
0.0
 11
-114.319741
 21
-87.322184
 31
0.0
  0
ARC
  5
2BD
100
AcDbEntity
  8
0
370
    -3
  6
Continuous
100
AcDbCircle
 10
-485.43834
 20
-71.384413
 30
0.0
 40
15.0
100
AcDbArc
 50
259.695154
 51
270.0
  0
LINE
  5
2BE
100
AcDbEntity
  8
0
370
    -3
  6
Continuous
100
AcDbLine
 10
-22.819741
 20
314.3
 30
0.0
 11
-23.019741
 21
314.5
 31
0.0
  0
ARC
  5
2BF
100
AcDbEntity
  8
0
370
    -3
  6
Continuous
100
AcDbCircle
 10
-27.819741
 20
-91.832505
 30
0.0
 40
3.0
100
AcDbArc
 50
0.0
 51
89.0
  0
ARC
  5
2C0
100
AcDbEntity
  8
0
370
    -3
  6
Continuous
100
AcDbCircle
 10
-410.946523
 20
-48.854543
 30
0.0
 40
1.0
100
AcDbArc
 50
99.914783
 51
170.0
  0
ARC
  5
2C1
100
AcDbEntity
  8
0
370
    -3
  6
Continuous
100
AcDbCircle
 10
-22.419741
 20
314.25
 30
0.0
 40
0.4
100
AcDbArc
 50
180.0
 51
270.0
  0
ARC
  5
2C2
100
AcDbEntity
  8
0
370
    -3
  6
Continuous
100
AcDbCircle
 10
-25.819741
 20
-88.368403
 30
0.0
 40
1.0
100
AcDbArc
 50
180.0
 51
240.0
  0
ARC
  5
2C3
100
AcDbEntity
  8
0
370
    -3
  6
Continuous
100
AcDbCircle
 10
-411.290889
 20
-46.884413
 30
0.0
 40
1.0
100
AcDbArc
 50
279.914783
 51
0.0
  0
LINE
  5
2C4
100
AcDbEntity
  8
0
370
    -3
  6
Continuous
100
AcDbLine
 10
-20.259933
 20
314.0
 30
0.0
 11
-20.819741
 21
313.85
 31
0.0
  0
LINE
  5
2C5
100
AcDbEntity
  8
0
370
    -3
  6
Continuous
100
AcDbLine
 10
-132.884819
 20
-87.932772
 30
0.0
 11
-114.319741
 21
-87.322184
 31
0.0
  0
LINE
  5
2C6
100
AcDbEntity
  8
0
370
    -3
  6
Continuous
100
AcDbLine
 10
-411.931331
 20
-48.680894
 30
0.0
 11
-414.70723
 21
-64.423805
 31
0.0
  0
LINE
  5
2C7
100
AcDbEntity
  8
0
370
    -3
  6
Continuous
100
AcDbLine
 10
-20.819741
 20
313.85
 30
0.0
 11
-22.419741
 21
313.85
 31
0.0
  0
LINE
  5
2C8
100
AcDbEntity
  8
0
370
    -3
  6
Continuous
100
AcDbLine
 10
-159.819741
 20
-106.884413
 30
0.0
 11
-159.819741
 21
-106.384413
 31
0.0
  0
LINE
  5
2C9
100
AcDbEntity
  8
0
370
    -3
  6
Continuous
100
AcDbLine
 10
-410.290889
 20
-36.112312
 30
0.0
 11
-410.290889
 21
-46.884413
 31
0.0
  0
LINE
  5
2CA
100
AcDbEntity
  8
0
370
    -3
  6
Continuous
100
AcDbLine
 10
-16.819741
 20
283.0
 30
0.0
 11
-16.819741
 21
286.0
 31
0.0
  0
LINE
  5
2CB
100
AcDbEntity
  8
0
370
    -3
  6
Continuous
100
AcDbLine
 10
-161.819741
 20
-106.384413
 30
0.0
 11
-159.819741
 21
-106.384413
 31
0.0
  0
ARC
  5
2CC
100
AcDbEntity
  8
0
370
    -3
  6
Continuous
100
AcDbCircle
 10
-469.790889
 20
-396.884413
 30
0.0
 40
450.0
100
AcDbArc
 50
87.841597
 51
90.0
  0
LINE
  5
2CD
100
AcDbEntity
  8
0
370
    -3
  6
Continuous
100
AcDbLine
 10
19.180259
 20
313.6
 30
0.0
 11
19.180259
 21
300.0
 31
0.0
  0
LINE
  5
2CE
100
AcDbEntity
  8
0
370
    -3
  6
Continuous
100
AcDbLine
 10
-116.319741
 20
-1.884413
 30
0.0
 11
-116.319741
 21
-75.746287
 31
0.0
  0
ARC
  5
2CF
100
AcDbEntity
  8
0
370
    -3
  6
Continuous
100
AcDbCircle
 10
-429.479347
 20
-61.819082
 30
0.0
 40
15.0
100
AcDbArc
 50
315.0
 51
350.0
  0
INSERT
  5
2DB
100
AcDbEntity
  8
0
100
AcDbBlockReference
  2
ZU_SYM__USERS_HOME_SYMBOL_STD_SYM_B01_00005-1
 10
-509.388869
 20
36.213567
 30
0.0
 41
-1.0
  0
LINE
  5
2DC
100
AcDbEntity
  8
0
370
    -3
  6
Continuous
100
AcDbLine
 10
18.780259
 20
314.0
 30
0.0
 11
-20.259933
 21
314.0
 31
0.0
  0
LINE
  5
2DD
100
AcDbEntity
  8
0
370
    -3
  6
Continuous
100
AcDbLine
 10
-116.319741
 20
-1.884413
 30
0.0
 11
-116.319741
 21
53.115587
 31
0.0
  0
LINE
  5
2DE
100
AcDbEntity
  8
0
370
    -3
  6
Continuous
100
AcDbLine
 10
-418.872745
 20
-72.425684
 30
0.0
 11
-425.082795
 21
-78.635734
 31
0.0
  0
ARC
  5
2DF
100
AcDbEntity
  8
0
370
    -3
  6
Continuous
100
AcDbCircle
 10
18.780259
 20
313.6
 30
0.0
 40
0.4
100
AcDbArc
 50
0.0
 51
90.0
  0
LINE
  5
2E0
100
AcDbEntity
  8
0
370
    -3
  6
Continuous
100
AcDbLine
 10
-116.819741
 20
53.124315
 30
0.0
 11
-74.819741
 21
52.391202
 31
0.0
  0
ARC
  5
2E1
100
AcDbEntity
  8
0
370
    -3
  6
Continuous
100
AcDbCircle
 10
-435.689397
 20
-68.029132
 30
0.0
 40
15.0
100
AcDbArc
 50
280.304846
 51
315.0
  0
LINE
  5
2E2
100
AcDbEntity
  8
0
370
    -3
  6
Continuous
100
AcDbLine
 10
19.180259
 20
283.0
 30
0.0
 11
19.180259
 21
286.4
 31
0.0
  0
LINE
  5
2E3
100
AcDbEntity
  8
0
370
    -3
  6
Continuous
100
AcDbLine
 10
-114.319741
 20
-59.595522
 30
0.0
 11
-114.319741
 21
-73.139757
 31
0.0
  0
LINE
  5
2E4
100
AcDbEntity
  8
0
370
    -3
  6
Continuous
100
AcDbLine
 10
-390.290889
 20
-50.184413
 30
0.0
 11
-390.290889
 21
-86.68826
 31
0.0
  0
LINE
  5
2E5
100
AcDbEntity
  8
0
370
    -3
  6
Continuous
100
AcDbLine
 10
19.180259
 20
283.0
 30
0.0
 11
-16.819741
 21
283.0
 31
0.0
  0
ARC
  5
2E6
100
AcDbEntity
  8
0
370
    -3
  6
Continuous
100
AcDbCircle
 10
-116.319741
 20
-59.595522
 30
0.0
 40
2.0
100
AcDbArc
 50
0.0
 51
90.0
  0
ARC
  5
2E7
100
AcDbEntity
  8
0
370
    -3
  6
Continuous
100
AcDbCircle
 10
-400.290889
 20
-50.217124
 30
0.0
 40
10.0
100
AcDbArc
 50
342.186024
 51
0.187423
  0
LINE
  5
2E8
100
AcDbEntity
  8
0
370
    -3
  6
Continuous
100
AcDbLine
 10
19.180259
 20
286.4
 30
0.0
 11
19.180259
 21
300.0
 31
0.0
  0
ARC
  5
2E9
100
AcDbEntity
  8
0
370
    -3
  6
Continuous
100
AcDbCircle
 10
-116.319741
 20
-73.139757
 30
0.0
 40
2.0
100
AcDbArc
 50
309.887635
 51
0.0
  0
LINE
  5
2EA
100
AcDbEntity
  8
0
370
    -3
  6
Continuous
100
AcDbLine
 10
-433.006115
 20
-82.787181
 30
0.0
 11
-451.460157
 21
-86.142461
 31
0.0
  0
LINE
  5
2EB
100
AcDbEntity
  8
0
370
    -3
  6
Continuous
100
AcDbLine
 10
18.780259
 20
286.0
 30
0.0
 11
-20.259933
 21
286.0
 31
0.0
  0
LINE
  5
2EC
100
AcDbEntity
  8
0
370
    -3
  6
Continuous
100
AcDbLine
 10
-115.037173
 20
-74.674364
 30
0.0
 11
-130.027042
 21
-87.202344
 31
0.0
  0
ARC
  5
2ED
100
AcDbEntity
  8
0
370
    -3
  6
Continuous
100
AcDbCircle
 10
-454.143439
 20
-71.384413
 30
0.0
 40
15.0
100
AcDbArc
 50
270.0
 51
280.304846
  0
ARC
  5
2EE
100
AcDbEntity
  8
0
370
    -3
  6
Continuous
100
AcDbCircle
 10
18.780259
 20
286.4
 30
0.0
 40
0.4
100
AcDbArc
 50
270.0
 51
0.0
  0
LINE
  5
2EF
100
AcDbEntity
  8
0
370
    -3
  6
Continuous
100
AcDbLine
 10
-23.019741
 20
-16.384413
 30
0.0
 11
-24.819741
 21
-16.384413
 31
0.0
  0
ARC
  5
2F0
100
AcDbEntity
  8
0
370
    -3
  6
Continuous
100
AcDbCircle
 10
-455.290889
 20
-12.157562
 30
0.0
 40
65.0
100
AcDbArc
 50
39.47169
 51
87.841597
  0
LINE
  5
2F1
100
AcDbEntity
  8
0
370
    -3
  6
Continuous
100
AcDbLine
 10
-191.319741
 20
353.5
 30
0.0
 11
-191.319741
 21
300.0
 31
0.0
  0
LINE
  5
2F2
100
AcDbEntity
  8
0
370
    -3
  6
Continuous
100
AcDbLine
 10
-22.819741
 20
-1.884413
 30
0.0
 11
-22.819741
 21
-16.184413
 31
0.0
  0
LINE
  5
2F3
100
AcDbEntity
  8
0
370
    -3
  6
Continuous
100
AcDbLine
 10
-549.290889
 20
-12.157562
 30
0.0
 11
-549.290889
 21
-86.68826
 31
0.0
  0
ARC
  5
2F4
100
AcDbEntity
  8
0
370
    -3
  6
Continuous
100
AcDbCircle
 10
-25.819741
 20
273.5
 30
0.0
 40
1.0
100
AcDbArc
 50
270.0
 51
0.0
  0
LINE
  5
2F5
100
AcDbEntity
  8
0
370
    -3
  6
Continuous
100
AcDbLine
 10
-22.819741
 20
-16.184413
 30
0.0
 11
-23.019741
 21
-16.384413
 31
0.0
  0
ARC
  5
2F6
100
AcDbEntity
  8
0
370
    -3
  6
Continuous
100
AcDbCircle
 10
-484.290889
 20
-12.157562
 30
0.0
 40
65.0
100
AcDbArc
 50
92.158403
 51
180.0
  0
ARC
  5
2F7
100
AcDbEntity
  8
0
370
    -3
  6
Continuous
100
AcDbCircle
 10
-25.819741
 20
271.5
 30
0.0
 40
1.0
100
AcDbArc
 50
90.0
 51
180.0
  0
ARC
  5
2F8
100
AcDbEntity
  8
0
370
    -3
  6
Continuous
100
AcDbCircle
 10
-22.419741
 20
-16.134413
 30
0.0
 40
0.4
100
AcDbArc
 50
90.0
 51
180.0
  0
ARC
  5
2F9
100
AcDbEntity
  8
0
370
    -3
  6
Continuous
100
AcDbCircle
 10
-469.790889
 20
-396.884413
 30
0.0
 40
450.0
100
AcDbArc
 50
90.0
 51
92.158403
  0
LINE
  5
2FA
100
AcDbEntity
  8
0
370
    -3
  6
Continuous
100
AcDbLine
 10
-24.819741
 20
219.465395
 30
0.0
 11
-24.819741
 21
300.0
 31
0.0
  0
LINE
  5
2FB
100
AcDbEntity
  8
0
370
    -3
  6
Continuous
100
AcDbLine
 10
-20.259933
 20
-15.884413
 30
0.0
 11
-20.819741
 21
-15.734413
 31
0.0
  0
LINE
  5
2FC
100
AcDbEntity
  8
0
370
    -3
  6
CENTER
100
AcDbLine
 10
-399.790889
 20
-109.964916
 30
0.0
 11
-399.790889
 21
-79.729096
 31
0.0
  0
LINE
  5
2FD
100
AcDbEntity
  8
0
370
    -3
  6
Continuous
100
AcDbLine
 10
-26.819741
 20
247.166128
 30
0.0
 11
-26.819741
 21
300.0
 31
0.0
  0
LINE
  5
2FE
100
AcDbEntity
  8
0
370
    -3
  6
Continuous
100
AcDbLine
 10
-20.819741
 20
-15.734413
 30
0.0
 11
-22.419741
 21
-15.734413
 31
0.0
  0
POINT
  5
2FF
100
AcDbEntity
  8
0
370
    -3
  6
Continuous
100
AcDbPoint
 10
-469.790889
 20
-1.884413
 30
0.0
  0
LINE
  5
300
100
AcDbEntity
  8
0
370
    -3
  6
CENTER
100
AcDbLine
 10
-314.192435
 20
300.0
 30
0.0
 11
33.521141
 21
300.0
 31
0.0
  0
LINE
  5
301
100
AcDbEntity
  8
0
370
    -3
  6
Continuous
100
AcDbLine
 10
-23.019741
 20
12.615587
 30
0.0
 11
-24.819741
 21
12.615587
 31
0.0
  0
POINT
  5
302
100
AcDbEntity
  8
0
370
    -3
  6
Continuous
100
AcDbPoint
 10
-469.790889
 20
-27.884413
 30
0.0
  0
ARC
  5
303
100
AcDbEntity
  8
0
370
    -3
  6
Continuous
100
AcDbCircle
 10
-25.819741
 20
326.5
 30
0.0
 40
1.0
100
AcDbArc
 50
0.0
 51
90.0
  0
LINE
  5
304
100
AcDbEntity
  8
0
370
    -3
  6
Continuous
100
AcDbLine
 10
-22.819741
 20
-1.884413
 30
0.0
 11
-22.819741
 21
12.415587
 31
0.0
  0
LINE
  5
305
100
AcDbEntity
  8
0
370
    -3
  6
Continuous
100
AcDbLine
 10
-417.290889
 20
-104.884413
 30
0.0
 11
-469.790889
 21
-104.884413
 31
0.0
  0
INSERT
  5
311
100
AcDbEntity
  8
0
100
AcDbBlockReference
  2
ZU_SYM__USERS_HOME_SYMBOL_STD_SYM_B01_00006-1
 10
-509.388869
 20
-42.982392
 30
0.0
 50
180.0
  0
ARC
  5
312
100
AcDbEntity
  8
0
370
    -3
  6
Continuous
100
AcDbCircle
 10
-25.819741
 20
328.5
 30
0.0
 40
1.0
100
AcDbArc
 50
180.0
 51
270.0
  0
LINE
  5
313
100
AcDbEntity
  8
0
370
    -3
  6
Continuous
100
AcDbLine
 10
-22.819741
 20
12.415587
 30
0.0
 11
-23.019741
 21
12.615587
 31
0.0
  0
ARC
  5
314
100
AcDbEntity
  8
0
370
    -3
  6
Continuous
100
AcDbCircle
 10
-499.790889
 20
45.805789
 30
0.0
 40
5.0
100
AcDbArc
 50
104.971191
 51
169.571084
  0
ARC
  5
315
100
AcDbEntity
  8
0
370
    -3
  6
Continuous
100
AcDbCircle
 10
-417.290889
 20
-106.884413
 30
0.0
 40
2.0
100
AcDbArc
 50
0.0
 51
90.0
  0
LINE
  5
316
100
AcDbEntity
  8
0
370
    -3
  6
Continuous
100
AcDbLine
 10
-24.819741
 20
380.534605
 30
0.0
 11
-24.819741
 21
300.0
 31
0.0
  0
ARC
  5
317
100
AcDbEntity
  8
0
370
    -3
  6
Continuous
100
AcDbCircle
 10
-22.419741
 20
12.365587
 30
0.0
 40
0.4
100
AcDbArc
 50
180.0
 51
270.0
  0
ARC
  5
318
100
AcDbEntity
  8
0
370
    -3
  6
Continuous
100
AcDbCircle
 10
-511.790889
 20
38.115587
 30
0.0
 40
5.0
100
AcDbArc
 50
74.668085
 51
195.373201
  0
ARC
  5
319
100
AcDbEntity
  8
0
370
    -3
  6
Continuous
100
AcDbCircle
 10
-469.790889
 20
-27.884413
 30
0.0
 40
86.0
100
AcDbArc
 50
310.245754
 51
329.266157
  0
LINE
  5
31A
100
AcDbEntity
  8
0
370
    -3
  6
Continuous
100
AcDbLine
 10
-26.819741
 20
352.833872
 30
0.0
 11
-26.819741
 21
300.0
 31
0.0
  0
LINE
  5
31B
100
AcDbEntity
  8
0
370
    -3
  6
Continuous
100
AcDbLine
 10
-20.259933
 20
12.115587
 30
0.0
 11
-20.819741
 21
11.965587
 31
0.0
  0
ARC
  5
31C
100
AcDbEntity
  8
0
370
    -3
  6
Continuous
100
AcDbCircle
 10
-427.790889
 20
38.115587
 30
0.0
 40
5.0
100
AcDbArc
 50
344.626799
 51
105.331915
  0
ARC
  5
31D
100
AcDbEntity
  8
0
370
    -3
  6
Continuous
100
AcDbCircle
 10
-469.790889
 20
-27.884413
 30
0.0
 40
86.0
100
AcDbArc
 50
210.733843
 51
229.754246
  0
LINE
  5
31E
100
AcDbEntity
  8
0
370
    -3
  6
Continuous
100
AcDbLine
 10
-20.819741
 20
11.965587
 30
0.0
 11
-22.419741
 21
11.965587
 31
0.0
  0
ARC
  5
31F
100
AcDbEntity
  8
0
370
    -3
  6
Continuous
100
AcDbCircle
 10
-439.790889
 20
45.805789
 30
0.0
 40
5.0
100
AcDbArc
 50
10.428916
 51
75.028809
  0
ARC
  5
320
100
AcDbEntity
  8
0
370
    -3
  6
Continuous
100
AcDbCircle
 10
-522.290889
 20
-106.884413
 30
0.0
 40
2.0
100
AcDbArc
 50
90.0
 51
180.0
  0
LINE
  5
321
100
AcDbEntity
  8
0
370
    -3
  6
Continuous
100
AcDbLine
 10
19.180259
 20
11.715587
 30
0.0
 11
19.180259
 21
-1.884413
 31
0.0
  0
ARC
  5
322
100
AcDbEntity
  8
0
370
    -3
  6
Continuous
100
AcDbCircle
 10
-426.389853
 20
-38.206791
 30
0.0
 40
1.0
100
AcDbArc
 50
93.0
 51
222.0
  0
LINE
  5
323
100
AcDbEntity
  8
0
370
    -3
  6
Continuous
100
AcDbLine
 10
-522.290889
 20
-104.884413
 30
0.0
 11
-469.790889
 21
-104.884413
 31
0.0
  0
LINE
  5
324
100
AcDbEntity
  8
0
370
    -3
  6
Continuous
100
AcDbLine
 10
18.780259
 20
12.115587
 30
0.0
 11
-20.259933
 21
12.115587
 31
0.0
  0
LINE
  5
325
100
AcDbEntity
  8
0
370
    -3
  6
Continuous
100
AcDbLine
 10
-513.13959
 20
-37.208161
 30
0.0
 11
-519.343225
 21
-36.883042
 31
0.0
  0
POINT
  5
326
100
AcDbEntity
  8
0
370
    -3
  6
Continuous
100
AcDbPoint
 10
-469.790889
 20
-1.884413
 30
0.0
  0
ARC
  5
327
100
AcDbEntity
  8
0
370
    -3
  6
Continuous
100
AcDbCircle
 10
18.780259
 20
11.715587
 30
0.0
 40
0.4
100
AcDbArc
 50
0.0
 51
90.0
  0
ARC
  5
328
100
AcDbEntity
  8
0
370
    -3
  6
DASHED
100
AcDbCircle
 10
-513.790889
 20
-30.010715
 30
0.0
 40
7.0
100
AcDbArc
 50
180.0
 51
188.223085
  0
LINE
  5
329
100
AcDbEntity
  8
0
370
    -3
  6
Continuous
100
AcDbLine
 10
-390.290889
 20
-88.884413
 30
0.0
 11
-407.944305
 21
-88.884413
 31
0.0
  0
LINE
  5
32A
100
AcDbEntity
  8
0
370
    -3
  6
Continuous
100
AcDbLine
 10
19.180259
 20
-15.484413
 30
0.0
 11
19.180259
 21
-1.884413
 31
0.0
  0
ARC
  5
32B
100
AcDbEntity
  8
0
370
    -3
  6
Continuous
100
AcDbCircle
 10
-522.594448
 20
4.309761
 30
0.0
 40
3.0
100
AcDbArc
 50
103.423521
 51
170.0
  0
LINE
  5
32C
100
AcDbEntity
  8
0
370
    -3
  6
Continuous
100
AcDbLine
 10
-549.290889
 20
-88.884413
 30
0.0
 11
-531.637474
 21
-88.884413
 31
0.0
  0
LINE
  5
32D
100
AcDbEntity
  8
0
370
    -3
  6
Continuous
100
AcDbLine
 10
18.780259
 20
-15.884413
 30
0.0
 11
-20.259933
 21
-15.884413
 31
0.0
  0
ARC
  5
32E
100
AcDbEntity
  8
0
370
    -3
  6
Continuous
100
AcDbCircle
 10
-495.290889
 20
-57.384413
 30
0.0
 40
3.0
100
AcDbArc
 50
0.0
 51
90.0
  0
ARC
  5
32F
100
AcDbEntity
  8
0
370
    -3
  6
Continuous
100
AcDbCircle
 10
-390.290889
 20
-91.884413
 30
0.0
 40
3.0
100
AcDbArc
 50
0.0
 51
90.0
  0
ARC
  5
330
100
AcDbEntity
  8
0
370
    -3
  6
Continuous
100
AcDbCircle
 10
18.780259
 20
-15.484413
 30
0.0
 40
0.4
100
AcDbArc
 50
270.0
 51
0.0
  0
ARC
  5
331
100
AcDbEntity
  8
0
370
    -3
  6
Continuous
100
AcDbCircle
 10
-485.290889
 20
-57.711472
 30
0.0
 40
3.0
100
AcDbArc
 50
81.344941
 51
180.0
  0
ARC
  5
332
100
AcDbEntity
  8
0
370
    -3
  6
Continuous
100
AcDbCircle
 10
-549.290889
 20
-91.884413
 30
0.0
 40
3.0
100
AcDbArc
 50
90.0
 51
180.0
  0
ELLIPSE
  5
333
100
AcDbEntity
  8
0
370
    -3
  6
Continuous
100
AcDbEllipse
 10
-41.193539
 20
-6.884413
 30
0.0
 11
0.0
 21
15.0
 31
0.0
210
0.0
220
0.0
230
1.0
 40
0.808413
 41
4.7123889803846897
 42
1.5707963267948968
  0
ARC
  5
334
100
AcDbEntity
  8
0
370
    -3
  6
Continuous
100
AcDbCircle
 10
-444.290889
 20
-57.384413
 30
0.0
 40
3.0
100
AcDbArc
 50
90.0
 51
180.0
  0
LINE
  5
335
100
AcDbEntity
  8
0
370
    -3
  6
Continuous
100
AcDbLine
 10
-387.290889
 20
-106.884413
 30
0.0
 11
-415.290889
 21
-106.884413
 31
0.0
  0
LINE
  5
336
100
AcDbEntity
  8
0
370
    -3
  6
Continuous
100
AcDbLine
 10
-53.319741
 20
-85.438852
 30
0.0
 11
-53.319741
 21
-6.884413
 31
0.0
  0
ARC
  5
337
100
AcDbEntity
  8
0
370
    -3
  6
Continuous
100
AcDbCircle
 10
-454.290889
 20
-57.711472
 30
0.0
 40
3.0
100
AcDbArc
 50
0.0
 51
98.655059
  0
LINE
  5
338
100
AcDbEntity
  8
0
370
    -3
  6
Continuous
100
AcDbLine
 10
-387.290889
 20
-91.884413
 30
0.0
 11
-387.290889
 21
-106.884413
 31
0.0
  0
LINE
  5
339
100
AcDbEntity
  8
0
370
    -3
  6
Continuous
100
AcDbLine
 10
-29.067337
 20
-6.884413
 30
0.0
 11
-29.067337
 21
-86.094118
 31
0.0
  0
ARC
  5
33A
100
AcDbEntity
  8
0
370
    -3
  6
Continuous
100
AcDbCircle
 10
-510.102432
 20
6.050257
 30
0.0
 40
15.0
100
AcDbArc
 50
151.549677
 51
170.0
  0
LINE
  5
33B
100
AcDbEntity
  8
0
370
    -3
  6
Continuous
100
AcDbLine
 10
-415.290889
 20
-106.884413
 30
0.0
 11
-415.290889
 21
-95.816364
 31
0.0
  0
INSERT
  5
347
100
AcDbEntity
  8
0
100
AcDbBlockReference
  2
ZU_SYM__USERS_HOME_SYMBOL_STD_SYM_B01_00007-1
 10
-430.19291
 20
-42.982392
 30
0.0
 41
-1.0
 50
180.0
  0
ARC
  5
348
100
AcDbEntity
  8
0
370
    -3
  6
Continuous
100
AcDbCircle
 10
-12.819741
 20
-1.884413
 30
0.0
 40
4.0
100
AcDbArc
 50
90.0
 51
270.0
  0
ARC
  5
349
100
AcDbEntity
  8
0
370
    -3
  6
DASHED
100
AcDbCircle
 10
-429.479347
 20
6.050257
 30
0.0
 40
15.0
100
AcDbArc
 50
44.777489
 51
45.0
  0
LINE
  5
34A
100
AcDbEntity
  8
0
370
    -3
  6
Continuous
100
AcDbLine
 10
-416.990889
 20
16.615587
 30
0.0
 11
-420.584691
 21
16.615587
 31
0.0
  0
LINE
  5
34B
100
AcDbEntity
  8
0
370
    -3
  6
Continuous
100
AcDbLine
 10
19.180259
 20
-5.884413
 30
0.0
 11
-12.819741
 21
-5.884413
 31
0.0
  0
ARC
  5
34C
100
AcDbEntity
  8
0
370
    -3
  6
DASHED
100
AcDbCircle
 10
-510.102432
 20
6.050257
 30
0.0
 40
15.0
100
AcDbArc
 50
135.0
 51
135.222511
  0
ARC
  5
34D
100
AcDbEntity
  8
0
370
    -3
  6
Continuous
100
AcDbCircle
 10
-416.990889
 20
15.915587
 30
0.0
 40
0.7
100
AcDbArc
 50
0.0
 51
90.0
  0
LINE
  5
34E
100
AcDbEntity
  8
0
370
    -3
  6
Continuous
100
AcDbLine
 10
19.180259
 20
2.115587
 30
0.0
 11
-12.819741
 21
2.115587
 31
0.0
  0
ARC
  5
34F
100
AcDbEntity
  8
0
370
    -3
  6
Continuous
100
AcDbCircle
 10
-505.790889
 20
26.402384
 30
0.0
 40
15.0
100
AcDbArc
 50
135.0
 51
180.0
  0
LINE
  5
350
100
AcDbEntity
  8
0
370
    -3
  6
Continuous
100
AcDbLine
 10
-416.290889
 20
15.915587
 30
0.0
 11
-416.290889
 21
-3.384413
 31
0.0
  0
LINE
  5
351
100
AcDbEntity
  8
0
370
    -3
  6
CENTER
100
AcDbLine
 10
28.454259
 20
-1.884413
 30
0.0
 11
-57.07238
 21
-1.884413
 31
0.0
  0
ARC
  5
352
100
AcDbEntity
  8
0
370
    -3
  6
Continuous
100
AcDbCircle
 10
-499.577686
 20
32.615587
 30
0.0
 40
15.0
100
AcDbArc
 50
90.0
 51
135.0
  0
LINE
  5
353
100
AcDbEntity
  8
0
370
    -3
  6
Continuous
100
AcDbLine
 10
-416.990889
 20
-23.384413
 30
0.0
 11
-420.584691
 21
-23.384413
 31
0.0
  0
LINE
  5
354
100
AcDbEntity
  8
0
370
    -3
  6
Continuous
100
AcDbLine
 10
-24.819741
 20
-1.884413
 30
0.0
 11
-24.819741
 21
-28.384413
 31
0.0
  0
ARC
  5
355
100
AcDbEntity
  8
0
370
    -3
  6
Continuous
100
AcDbCircle
 10
-440.004093
 20
32.615587
 30
0.0
 40
15.0
100
AcDbArc
 50
45.0
 51
90.0
  0
ARC
  5
356
100
AcDbEntity
  8
0
370
    -3
  6
Continuous
100
AcDbCircle
 10
-416.990889
 20
-22.684413
 30
0.0
 40
0.7
100
AcDbArc
 50
270.0
 51
0.0
  0
LINE
  5
357
100
AcDbEntity
  8
0
370
    -3
  6
Continuous
100
AcDbLine
 10
-24.819741
 20
-1.884413
 30
0.0
 11
-24.819741
 21
24.615587
 31
0.0
  0
ARC
  5
358
100
AcDbEntity
  8
0
370
    -3
  6
Continuous
100
AcDbCircle
 10
-433.790889
 20
26.402384
 30
0.0
 40
15.0
100
AcDbArc
 50
0.0
 51
45.0
  0
LINE
  5
359
100
AcDbEntity
  8
0
370
    -3
  6
Continuous
100
AcDbLine
 10
-416.290889
 20
-22.684413
 30
0.0
 11
-416.290889
 21
-3.384413
 31
0.0
  0
LINE
  5
35A
100
AcDbEntity
  8
0
370
    -3
  6
Continuous
100
AcDbLine
 10
-26.819741
 20
29.202391
 30
0.0
 11
-26.819741
 21
-1.884413
 31
0.0
  0
ARC
  5
35B
100
AcDbEntity
  8
0
370
    -3
  6
Continuous
100
AcDbCircle
 10
-469.790889
 20
-50.884413
 30
0.0
 40
100.0
100
AcDbArc
 50
97.79785
 51
99.936367
  0
LINE
  5
35C
100
AcDbEntity
  8
0
370
    -3
  6
Continuous
100
AcDbLine
 10
-26.819741
 20
-88.368403
 30
0.0
 11
-26.819741
 21
-1.884413
 31
0.0
  0
ARC
  5
35D
100
AcDbEntity
  8
0
370
    -3
  6
Continuous
100
AcDbCircle
 10
-469.790889
 20
-50.884413
 30
0.0
 40
100.0
100
AcDbArc
 50
80.063633
 51
82.20215
  0
ARC
  5
35E
100
AcDbEntity
  8
0
370
    -3
  6
Continuous
100
AcDbCircle
 10
-25.819741
 20
-28.384413
 30
0.0
 40
1.0
100
AcDbArc
 50
270.0
 51
0.0
  0
ARC
  5
35F
100
AcDbEntity
  8
0
370
    -3
  6
Continuous
100
AcDbCircle
 10
-417.790889
 20
17.615587
 30
0.0
 40
1.0
100
AcDbArc
 50
180.0
 51
270.0
  0
ARC
  5
360
100
AcDbEntity
  8
0
370
    -3
  6
Continuous
100
AcDbCircle
 10
-25.819741
 20
24.615587
 30
0.0
 40
1.0
100
AcDbArc
 50
0.0
 51
90.0
  0
ARC
  5
361
100
AcDbEntity
  8
0
370
    -3
  6
Continuous
100
AcDbCircle
 10
-521.790889
 20
17.615587
 30
0.0
 40
1.0
100
AcDbArc
 50
270.0
 51
0.0
  0
ARC
  5
362
100
AcDbEntity
  8
0
370
    -3
  6
Continuous
100
AcDbCircle
 10
-25.819741
 20
-30.384413
 30
0.0
 40
1.0
100
AcDbArc
 50
90.0
 51
180.0
  0
LINE
  5
363
100
AcDbEntity
  8
0
370
    -3
  6
Continuous
100
AcDbLine
 10
-516.397491
 20
37.008986
 30
0.0
 11
-510.184288
 21
43.222189
 31
0.0
  0
ARC
  5
364
100
AcDbEntity
  8
0
370
    -3
  6
Continuous
100
AcDbCircle
 10
-25.819741
 20
26.615587
 30
0.0
 40
1.0
100
AcDbArc
 50
180.0
 51
270.0
  0
LINE
  5
365
100
AcDbEntity
  8
0
370
    -3
  6
Continuous
100
AcDbLine
 10
-499.577686
 20
47.615587
 30
0.0
 11
-487.046323
 21
47.615587
 31
0.0
  0
ARC
  5
366
100
AcDbEntity
  8
0
370
    -3
  6
Continuous
100
AcDbCircle
 10
-75.954148
 20
-12.598898
 30
0.0
 40
65.0
100
AcDbArc
 50
41.568311
 51
89.0
  0
LINE
  5
367
100
AcDbEntity
  8
0
370
    -3
  6
Continuous
100
AcDbLine
 10
-440.004093
 20
47.615587
 30
0.0
 11
-452.535455
 21
47.615587
 31
0.0
  0
ARC
  5
368
100
AcDbEntity
  8
0
370
    -3
  6
Continuous
100
AcDbCircle
 10
-28.819741
 20
29.202391
 30
0.0
 40
2.0
100
AcDbArc
 50
0.0
 51
41.568311
  0
LINE
  5
369
100
AcDbEntity
  8
0
370
    -3
  6
Continuous
100
AcDbLine
 10
-423.184288
 20
37.008986
 30
0.0
 11
-429.397491
 21
43.222189
 31
0.0
  0
ELLIPSE
  5
36A
100
AcDbEntity
  8
0
370
    -3
  6
Continuous
100
AcDbEllipse
 10
125.196873
 20
-6.884413
 30
0.0
 11
0.0
 21
15.0
 31
0.0
210
0.0
220
0.0
230
1.0
 40
0.57673
 41
4.7123889803846897
 42
1.5707963267948968
  0
LINE
  5
36B
100
AcDbEntity
  8
0
370
    -3
  6
Continuous
100
AcDbLine
 10
-418.790889
 20
17.615587
 30
0.0
 11
-418.790889
 21
26.402384
 31
0.0
  0
LINE
  5
36C
100
AcDbEntity
  8
0
370
    -3
  6
Continuous
100
AcDbLine
 10
116.545927
 20
-6.884413
 30
0.0
 11
116.545927
 21
-85.884413
 31
0.0
  0
LINE
  5
36D
100
AcDbEntity
  8
0
370
    -3
  6
Continuous
100
AcDbLine
 10
-522.290889
 20
16.615587
 30
0.0
 11
-521.790889
 21
16.615587
 31
0.0
  0
LINE
  5
36E
100
AcDbEntity
  8
0
370
    -3
  6
Continuous
100
AcDbLine
 10
133.847819
 20
-6.884413
 30
0.0
 11
133.847819
 21
-85.884413
 31
0.0
  0
LINE
  5
36F
100
AcDbEntity
  8
0
370
    -3
  6
Continuous
100
AcDbLine
 10
-520.790889
 20
17.615587
 30
0.0
 11
-520.790889
 21
26.402384
 31
0.0
  0
LINE
  5
370
100
AcDbEntity
  8
0
370
    -3
  6
Continuous
100
AcDbLine
 10
109.151407
 20
-12.157562
 30
0.0
 11
109.151407
 21
-86.68826
 31
0.0
  0
ARC
  5
371
100
AcDbEntity
  8
0
370
    -3
  6
Continuous
100
AcDbCircle
 10
-433.790889
 20
-33.171209
 30
0.0
 40
15.0
100
AcDbArc
 50
315.0
 51
0.0
  0
LINE
  5
372
100
AcDbEntity
  8
0
370
    -3
  6
Continuous
100
AcDbLine
 10
-414.560249
 20
24.5178
 30
0.0
 11
-412.790889
 21
26.28716
 31
0.0
  0
INSERT
  5
382
100
AcDbEntity
  8
0
100
AcDbBlockReference
  2
ZU_SYM__USERS_HOME_SYMBOL_STD_SYM_B01_00008-1
 10
-155.319741
 20
-72.078587
 30
0.0
  0
ARC
  5
383
100
AcDbEntity
  8
0
370
    -3
  6
Continuous
100
AcDbCircle
 10
174.151407
 20
-12.157562
 30
0.0
 40
65.0
100
AcDbArc
 50
92.158403
 51
180.0
  0
LINE
  5
384
100
AcDbEntity
  8
0
370
    -3
  6
Continuous
100
AcDbLine
 10
-423.184288
 20
-43.777811
 30
0.0
 11
-429.397491
 21
-49.991014
 31
0.0
  0
LINE
  5
385
100
AcDbEntity
  8
0
370
    -3
  6
Continuous
100
AcDbLine
 10
-270.319741
 20
277.099794
 30
0.0
 11
-208.319741
 21
277.099794
 31
0.0
  0
ARC
  5
386
100
AcDbEntity
  8
0
370
    -3
  6
Continuous
100
AcDbCircle
 10
174.151407
 20
-12.157562
 30
0.0
 40
40.124128
100
AcDbArc
 50
95.315088
 51
176.995913
  0
LINE
  5
387
100
AcDbEntity
  8
0
370
    -3
  6
Continuous
100
AcDbLine
 10
-440.004093
 20
-54.384413
 30
0.0
 11
-444.290889
 21
-54.384413
 31
0.0
  0
LINE
  5
388
100
AcDbEntity
  8
0
370
    -3
  6
Continuous
100
AcDbLine
 10
-263.319741
 20
275.900206
 30
0.0
 11
-191.319741
 21
275.900206
 31
0.0
  0
LINE
  5
389
100
AcDbEntity
  8
0
370
    -3
  6
Continuous
100
AcDbLine
 10
134.082418
 20
-10.054769
 30
0.0
 11
134.082418
 21
-85.884413
 31
0.0
  0
ARC
  5
38A
100
AcDbEntity
  8
0
370
    -3
  6
Continuous
100
AcDbCircle
 10
-440.004093
 20
-39.384413
 30
0.0
 40
15.0
100
AcDbArc
 50
270.0
 51
315.0
  0
LINE
  5
38B
100
AcDbEntity
  8
0
370
    -3
  6
Continuous
100
AcDbLine
 10
-420.829576
 20
19.05978
 30
0.0
 11
-419.738553
 21
19.116958
 31
0.0
  0
LINE
  5
38C
100
AcDbEntity
  8
0
370
    -3
  6
Continuous
100
AcDbLine
 10
-270.319741
 20
272.599794
 30
0.0
 11
-203.177131
 21
272.599794
 31
0.0
  0
LINE
  5
38D
100
AcDbEntity
  8
0
370
    -3
  6
Continuous
100
AcDbLine
 10
139.551407
 20
-4.384413
 30
0.0
 11
139.551407
 21
-78.484413
 31
0.0
  0
ARC
  5
38E
100
AcDbEntity
  8
0
370
    -3
  6
Continuous
100
AcDbCircle
 10
-521.790889
 20
-24.384413
 30
0.0
 40
1.0
100
AcDbArc
 50
0.0
 51
90.0
  0
ARC
  5
38F
100
AcDbEntity
  8
0
370
    -3
  6
Continuous
100
AcDbCircle
 10
-420.77724
 20
18.06115
 30
0.0
 40
1.0
100
AcDbArc
 50
93.0
 51
203.63143
  0
LINE
  5
390
100
AcDbEntity
  8
0
370
    -3
  6
Continuous
100
AcDbLine
 10
-263.319741
 20
271.400206
 30
0.0
 11
-191.319741
 21
271.400206
 31
0.0
  0
ARC
  5
391
100
AcDbEntity
  8
0
370
    -3
  6
Continuous
100
AcDbCircle
 10
142.051407
 20
-4.384413
 30
0.0
 40
2.5
100
AcDbArc
 50
90.0
 51
180.0
  0
LINE
  5
392
100
AcDbEntity
  8
0
370
    -3
  6
Continuous
100
AcDbLine
 10
-520.790889
 20
-24.384413
 30
0.0
 11
-520.790889
 21
-33.171209
 31
0.0
  0
ARC
  5
393
100
AcDbEntity
  8
0
370
    -3
  6
Continuous
100
AcDbCircle
 10
-419.790889
 20
20.115587
 30
0.0
 40
1.0
100
AcDbArc
 50
273.0
 51
87.0
  0
LINE
  5
394
100
AcDbEntity
  8
0
370
    -3
  6
Continuous
100
AcDbLine
 10
-270.319741
 20
322.900206
 30
0.0
 11
-208.319741
 21
322.900206
 31
0.0
  0
LINE
  5
395
100
AcDbEntity
  8
0
370
    -3
  6
Continuous
100
AcDbLine
 10
153.708597
 20
-1.884413
 30
0.0
 11
142.051407
 21
-1.884413
 31
0.0
  0
ARC
  5
396
100
AcDbEntity
  8
0
370
    -3
  6
Continuous
100
AcDbCircle
 10
-505.790889
 20
-33.171209
 30
0.0
 40
15.0
100
AcDbArc
 50
180.0
 51
225.0
  0
LINE
  5
397
100
AcDbEntity
  8
0
370
    -3
  6
Continuous
100
AcDbLine
 10
-422.900034
 20
21.279903
 30
0.0
 11
-419.738553
 21
21.114217
 31
0.0
  0
LINE
  5
398
100
AcDbEntity
  8
0
370
    -3
  6
Continuous
100
AcDbLine
 10
-266.819741
 20
324.099794
 30
0.0
 11
-191.319741
 21
324.099794
 31
0.0
  0
LINE
  5
399
100
AcDbEntity
  8
0
370
    -3
  6
Continuous
100
AcDbLine
 10
-191.319741
 20
-55.884413
 30
0.0
 11
-191.319741
 21
-50.184413
 31
0.0
  0
LINE
  5
39A
100
AcDbEntity
  8
0
370
    -3
  6
Continuous
100
AcDbLine
 10
-516.397491
 20
-43.777811
 30
0.0
 11
-510.184288
 21
-49.991014
 31
0.0
  0
LINE
  5
39B
100
AcDbEntity
  8
0
370
    -3
  6
Continuous
100
AcDbLine
 10
-422.992951
 20
23.446402
 30
0.0
 11
-419.738553
 21
23.616958
 31
0.0
  0
LINE
  5
39C
100
AcDbEntity
  8
0
370
    -3
  6
Continuous
100
AcDbLine
 10
-270.319741
 20
327.400206
 30
0.0
 11
-199.819741
 21
327.400206
 31
0.0
  0
LINE
  5
39D
100
AcDbEntity
  8
0
370
    -3
  6
Continuous
100
AcDbLine
 10
-191.319741
 20
49.115587
 30
0.0
 11
-191.319741
 21
43.363196
 31
0.0
  0
ARC
  5
39E
100
AcDbEntity
  8
0
370
    -3
  6
Continuous
100
AcDbCircle
 10
-499.577686
 20
-39.384413
 30
0.0
 40
15.0
100
AcDbArc
 50
225.0
 51
270.0
  0
ARC
  5
39F
100
AcDbEntity
  8
0
370
    -3
  6
Continuous
100
AcDbCircle
 10
-419.790889
 20
24.615587
 30
0.0
 40
1.0
100
AcDbArc
 50
273.0
 51
87.0
  0
LINE
  5
3A0
100
AcDbEntity
  8
0
370
    -3
  6
Continuous
100
AcDbLine
 10
-263.319741
 20
328.599794
 30
0.0
 11
-191.319741
 21
328.599794
 31
0.0
  0
LINE
  5
3A1
100
AcDbEntity
  8
0
370
    -3
  6
Continuous
100
AcDbLine
 10
-270.319741
 20
-50.708956
 30
0.0
 11
-191.319741
 21
-50.708956
 31
0.0
  0
LINE
  5
3A2
100
AcDbEntity
  8
0
370
    -3
  6
Continuous
100
AcDbLine
 10
-499.577686
 20
-54.384413
 30
0.0
 11
-495.290889
 21
-54.384413
 31
0.0
  0
ARC
  5
3A3
100
AcDbEntity
  8
0
370
    -3
  6
Continuous
100
AcDbCircle
 10
-420.290889
 20
29.115587
 30
0.0
 40
1.0
100
AcDbArc
 50
273.0
 51
87.0
  0
LINE
  5
3A4
100
AcDbEntity
  8
0
370
    -3
  6
Continuous
100
AcDbLine
 10
-191.319741
 20
246.5
 30
0.0
 11
-191.319741
 21
300.0
 31
0.0
  0
LINE
  5
3A5
100
AcDbEntity
  8
0
370
    -3
  6
Continuous
100
AcDbLine
 10
-191.319741
 20
-55.884413
 30
0.0
 11
-191.319741
 21
-50.184413
 31
0.0
  0
ARC
  5
3A6
100
AcDbEntity
  8
0
370
    -3
  6
Continuous
100
AcDbCircle
 10
-469.790889
 20
44.115587
 30
0.0
 40
100.0
100
AcDbArc
 50
261.344941
 51
262.20215
  0
ARC
  5
3A7
100
AcDbEntity
  8
0
370
    -3
  6
Continuous
100
AcDbCircle
 10
-469.790889
 20
-3.384413
 30
0.0
 40
52.5
100
AcDbArc
 50
23.111602
 51
23.663705
  0
LINE
  5
3A8
100
AcDbEntity
  8
0
370
    -3
  6
Continuous
100
AcDbLine
 10
-270.319741
 20
246.5
 30
0.0
 11
-270.319741
 21
300.0
 31
0.0
  0
LINE
  5
3A9
100
AcDbEntity
  8
0
370
    -3
  6
Continuous
100
AcDbLine
 10
-191.319741
 20
-55.884413
 30
0.0
 11
-270.319741
 21
-55.884413
 31
0.0
  0
LINE
  5
3AA
100
AcDbEntity
  8
0
370
    -3
  6
Continuous
100
AcDbLine
 10
-418.790889
 20
-24.384413
 30
0.0
 11
-418.790889
 21
-33.171209
 31
0.0
  0
ARC
  5
3AB
100
AcDbEntity
  8
0
370
    -3
  6
Continuous
100
AcDbCircle
 10
-420.584691
 20
17.615587
 30
0.0
 40
1.0
100
AcDbArc
 50
203.111602
 51
270.0
  0
LINE
  5
3AC
100
AcDbEntity
  8
0
370
    -3
  6
Continuous
100
AcDbLine
 10
-270.319741
 20
281.599794
 30
0.0
 11
-191.319741
 21
281.599794
 31
0.0
  0
LINE
  5
3AD
100
AcDbEntity
  8
0
370
    -3
  6
Continuous
100
AcDbLine
 10
-270.319741
 20
-54.384413
 30
0.0
 11
-191.319741
 21
-54.384413
 31
0.0
  0
ARC
  5
3AE
100
AcDbEntity
  8
0
370
    -3
  6
Continuous
100
AcDbCircle
 10
-417.790889
 20
-24.384413
 30
0.0
 40
1.0
100
AcDbArc
 50
90.0
 51
180.0
  0
ARC
  5
3AF
100
AcDbEntity
  8
0
370
    -3
  6
Continuous
100
AcDbCircle
 10
-469.790889
 20
-3.384413
 30
0.0
 40
52.5
100
AcDbArc
 50
23.111602
 51
23.695081
  0
LINE
  5
3B0
100
AcDbEntity
  8
0
370
    -3
  6
Continuous
100
AcDbLine
 10
-270.319741
 20
280.386085
 30
0.0
 11
-191.319741
 21
280.386085
 31
0.0
  0
LINE
  5
3B1
100
AcDbEntity
  8
0
370
    -3
  6
Continuous
100
AcDbLine
 10
-270.319741
 20
-53.884413
 30
0.0
 11
-191.319741
 21
-53.884413
 31
0.0
  0
LINE
  5
3B2
100
AcDbEntity
  8
0
370
    -3
  6
Continuous
100
AcDbLine
 10
-523.290889
 20
13.196206
 30
0.0
 11
-523.290889
 21
15.657547
 31
0.0
  0
LINE
  5
3B3
100
AcDbEntity
  8
0
370
    -3
  6
Continuous
100
AcDbLine
 10
-420.829576
 20
-25.828605
 30
0.0
 11
-419.738553
 21
-25.885783
 31
0.0
  0
LINE
  5
3B4
100
AcDbEntity
  8
0
370
    -3
  6
Continuous
100
AcDbLine
 10
-191.319741
 20
353.5
 30
0.0
 11
-191.319741
 21
300.0
 31
0.0
  0
LINE
  5
3B5
100
AcDbEntity
  8
0
370
    -3
  6
Continuous
100
AcDbLine
 10
-191.319741
 20
49.115587
 30
0.0
 11
-191.319741
 21
43.363196
 31
0.0
  0
ARC
  5
3B6
100
AcDbEntity
  8
0
370
    -3
  6
Continuous
100
AcDbCircle
 10
-469.790889
 20
44.115587
 30
0.0
 40
100.0
100
AcDbArc
 50
277.79785
 51
278.655059
  0
ARC
  5
3B7
100
AcDbEntity
  8
0
370
    -3
  6
Continuous
100
AcDbCircle
 10
-420.77724
 20
-24.829976
 30
0.0
 40
1.0
100
AcDbArc
 50
156.36857
 51
267.0
  0
LINE
  5
3B8
100
AcDbEntity
  8
0
370
    -3
  6
Continuous
100
AcDbLine
 10
-270.319741
 20
43.942184
 30
0.0
 11
-191.319741
 21
43.942184
 31
0.0
  0
INSERT
  5
3C4
100
AcDbEntity
  8
0
100
AcDbBlockReference
  2
ZU_SYM__USERS_HOME_SYMBOL_STD_SYM_B01_00009-1
 10
-513.985063
 20
-72.078587
 30
0.0
  0
ARC
  5
3C5
100
AcDbEntity
  8
0
370
    -3
  6
Continuous
100
AcDbCircle
 10
-419.790889
 20
-26.884413
 30
0.0
 40
1.0
100
AcDbArc
 50
273.0
 51
87.0
  0
LINE
  5
3C6
100
AcDbEntity
  8
0
370
    -3
  6
Continuous
100
AcDbLine
 10
-270.319741
 20
47.615587
 30
0.0
 11
-191.319741
 21
47.615587
 31
0.0
  0
LINE
  5
3C7
100
AcDbEntity
  8
0
370
    -3
  6
Continuous
100
AcDbLine
 10
-422.900034
 20
-28.048728
 30
0.0
 11
-419.738553
 21
-27.883042
 31
0.0
  0
LINE
  5
3C8
100
AcDbEntity
  8
0
370
    -3
  6
Continuous
100
AcDbLine
 10
-270.319741
 20
47.115587
 30
0.0
 11
-191.319741
 21
47.115587
 31
0.0
  0
LINE
  5
3C9
100
AcDbEntity
  8
0
370
    -3
  6
Continuous
100
AcDbLine
 10
-422.992951
 20
-30.215227
 30
0.0
 11
-419.738553
 21
-30.385783
 31
0.0
  0
LINE
  5
3CA
100
AcDbEntity
  8
0
370
    -3
  6
Continuous
100
AcDbLine
 10
-270.319741
 20
353.5
 30
0.0
 11
-270.319741
 21
300.0
 31
0.0
  0
INSERT
  5
3D3
100
AcDbEntity
  8
0
100
AcDbBlockReference
  2
ZU_SYM__USERS_HOME_SYMBOL_POO_SYM_B20_-1
 10
-122.819741
 20
-27.884413
 30
0.0
  0
LINE
  5
3D4
100
AcDbEntity
  8
0
370
    -3
  6
Continuous
100
AcDbLine
 10
-191.319741
 20
49.115587
 30
0.0
 11
-270.319741
 21
49.115587
 31
0.0
  0
ARC
  5
3D5
100
AcDbEntity
  8
0
370
    -3
  6
Continuous
100
AcDbCircle
 10
-419.790889
 20
-31.384413
 30
0.0
 40
1.0
100
AcDbArc
 50
273.0
 51
87.0
  0
LINE
  5
3D6
100
AcDbEntity
  8
0
370
    -3
  6
Continuous
100
AcDbLine
 10
-208.319741
 20
322.900206
 30
0.0
 11
-191.319741
 21
322.900206
 31
0.0
  0
LINE
  5
3D7
100
AcDbEntity
  8
0
370
    -3
  6
Continuous
100
AcDbLine
 10
-270.319741
 20
-55.884413
 30
0.0
 11
-270.319741
 21
-53.634413
 31
0.0
  0
ARC
  5
3D8
100
AcDbEntity
  8
0
370
    -3
  6
Continuous
100
AcDbCircle
 10
-420.290889
 20
-35.884413
 30
0.0
 40
1.0
100
AcDbArc
 50
273.0
 51
87.0
  0
LINE
  5
3D9
100
AcDbEntity
  8
0
370
    -3
  6
Continuous
100
AcDbLine
 10
-270.319741
 20
318.39316
 30
0.0
 11
-191.319741
 21
318.39316
 31
0.0
  0
LINE
  5
3DA
100
AcDbEntity
  8
0
370
    -3
  6
Continuous
100
AcDbLine
 10
-270.319741
 20
-55.884413
 30
0.0
 11
-272.990518
 21
-55.884413
 31
0.0
  0
ARC
  5
3DB
100
AcDbEntity
  8
0
370
    -3
  6
Continuous
100
AcDbCircle
 10
-469.790889
 20
-3.384413
 30
0.0
 40
52.5
100
AcDbArc
 50
336.336295
 51
336.888398
  0
LINE
  5
3DC
100
AcDbEntity
  8
0
370
    -3
  6
Continuous
100
AcDbLine
 10
-270.319741
 20
314.0
 30
0.0
 11
-191.319741
 21
314.0
 31
0.0
  0
ARC
  5
3DD
100
AcDbEntity
  8
0
370
    -3
  6
Continuous
100
AcDbCircle
 10
-272.990518
 20
-53.884413
 30
0.0
 40
2.0
100
AcDbArc
 50
184.14895
 51
270.0
  0
ARC
  5
3DE
100
AcDbEntity
  8
0
370
    -3
  6
Continuous
100
AcDbCircle
 10
-420.584691
 20
-24.384413
 30
0.0
 40
1.0
100
AcDbArc
 50
90.0
 51
156.888398
  0
LINE
  5
3DF
100
AcDbEntity
  8
0
370
    -3
  6
Continuous
100
AcDbLine
 10
-270.319741
 20
319.613915
 30
0.0
 11
-191.319741
 21
319.613915
 31
0.0
  0
LINE
  5
3E0
100
AcDbEntity
  8
0
370
    -3
  6
Continuous
100
AcDbLine
 10
-270.319741
 20
-55.134413
 30
0.0
 11
-270.319741
 21
-55.884413
 31
0.0
  0
ARC
  5
3E1
100
AcDbEntity
  8
0
370
    -3
  6
Continuous
100
AcDbCircle
 10
-469.790889
 20
-3.384413
 30
0.0
 40
52.5
100
AcDbArc
 50
336.304919
 51
336.888398
  0
LINE
  5
3E2
100
AcDbEntity
  8
0
370
    -3
  6
Continuous
100
AcDbLine
 10
-270.319741
 20
286.0
 30
0.0
 11
-191.319741
 21
286.0
 31
0.0
  0
LINE
  5
3E3
100
AcDbEntity
  8
0
370
    -3
  6
Continuous
100
AcDbLine
 10
-191.319741
 20
246.5
 30
0.0
 11
-191.319741
 21
300.0
 31
0.0
  0
LINE
  5
3E4
100
AcDbEntity
  8
0
370
    -3
  6
Continuous
100
AcDbLine
 10
-270.319741
 20
49.115587
 30
0.0
 11
-272.990518
 21
49.115587
 31
0.0
  0
ARC
  5
3E5
100
AcDbEntity
  8
0
370
    -3
  6
Continuous
100
AcDbCircle
 10
-426.389853
 20
31.437965
 30
0.0
 40
1.0
100
AcDbArc
 50
138.0
 51
267.0
  0
LINE
  5
3E6
100
AcDbEntity
  8
0
370
    -3
  6
Continuous
100
AcDbLine
 10
-191.319741
 20
246.5
 30
0.0
 11
-229.319732
 21
246.5
 31
0.0
  0
ARC
  5
3E7
100
AcDbEntity
  8
0
370
    -3
  6
Continuous
100
AcDbCircle
 10
-272.990518
 20
47.115587
 30
0.0
 40
2.0
100
AcDbArc
 50
90.0
 51
175.85105
  0
LINE
  5
3E8
100
AcDbEntity
  8
0
370
    -3
  6
Continuous
100
AcDbLine
 10
-426.442189
 20
30.439336
 30
0.0
 11
-420.238553
 21
30.114217
 31
0.0
  0
LINE
  5
3E9
100
AcDbEntity
  8
0
370
    -3
  6
Continuous
100
AcDbLine
 10
-229.319732
 20
246.5
 30
0.0
 11
-270.319741
 21
246.5
 31
0.0
  0
INSERT
  5
3F9
100
AcDbEntity
  8
0
100
AcDbBlockReference
  2
ZU_SYM__USERS_HOME_SYMBOL_STD_SYM_B01_00010-1
 10
-155.319749
 20
255.805826
 30
0.0
  0
ARC
  5
3FA
100
AcDbEntity
  8
0
370
    -3
  6
Continuous
100
AcDbCircle
 10
423.180259
 20
-3.384413
 30
0.0
 40
700.0
100
AcDbArc
 50
175.85105
 51
176.166643
  0
ARC
  5
3FB
100
AcDbEntity
  8
0
370
    -3
  6
Continuous
100
AcDbCircle
 10
-469.790889
 20
-3.384413
 30
0.0
 40
61.5
100
AcDbArc
 50
41.401106
 51
48.598894
  0
LINE
  5
3FC
100
AcDbEntity
  8
0
370
    -3
  6
Continuous
100
AcDbLine
 10
-270.319741
 20
49.115587
 30
0.0
 11
-270.319741
 21
43.415587
 31
0.0
  0
ARC
  5
3FD
100
AcDbEntity
  8
0
370
    -3
  6
Continuous
100
AcDbCircle
 10
-424.409942
 20
36.625832
 30
0.0
 40
1.0
100
AcDbArc
 50
318.0
 51
41.401106
  0
ARC
  5
3FE
100
AcDbEntity
  8
0
370
    -3
  6
Continuous
100
AcDbCircle
 10
423.180259
 20
-3.384413
 30
0.0
 40
700.0
100
AcDbArc
 50
183.795679
 51
184.14895
  0
ARC
  5
3FF
100
AcDbEntity
  8
0
370
    -3
  6
Continuous
100
AcDbCircle
 10
-434.968512
 20
40.016624
 30
0.0
 40
1.0
100
AcDbArc
 50
183.0
 51
312.0
  0
INSERT
  5
40F
100
AcDbEntity
  8
0
100
AcDbBlockReference
  2
ZU_SYM__USERS_HOME_SYMBOL_STD_SYM_B01_00011-1
 10
-155.319741
 20
16.309761
 30
0.0
  0
LINE
  5
410
100
AcDbEntity
  8
0
370
    -3
  6
Continuous
100
AcDbLine
 10
-270.319741
 20
-53.634413
 30
0.0
 11
-270.319741
 21
-50.184413
 31
0.0
  0
INSERT
  5
41C
100
AcDbEntity
  8
0
100
AcDbBlockReference
  2
ZU_SYM__USERS_HOME_SYMBOL_STD_SYM_B01_00012-1
 10
-425.596716
 20
-72.078587
 30
0.0
  0
LINE
  5
41D
100
AcDbEntity
  8
0
370
    -3
  6
Continuous
100
AcDbLine
 10
-435.967141
 20
39.964288
 30
0.0
 11
-436.29226
 21
46.167923
 31
0.0
  0
POINT
  5
41E
100
AcDbEntity
  8
0
370
    -3
  6
Continuous
100
AcDbPoint
 10
-280.119741
 20
43.415587
 30
0.0
  0
ARC
  5
41F
100
AcDbEntity
  8
0
370
    -3
  6
Continuous
100
AcDbCircle
 10
-429.780645
 20
41.996534
 30
0.0
 40
1.0
100
AcDbArc
 50
48.598894
 51
132.0
  0
ARC
  5
420
100
AcDbEntity
  8
0
370
    -3
  6
Continuous
100
AcDbCircle
 10
-425.707057
 20
26.928385
 30
0.0
 40
1.0
100
AcDbArc
 50
214.513079
 51
267.0
  0
ARC
  5
421
100
AcDbEntity
  8
0
370
    -3
  6
Continuous
100
AcDbCircle
 10
-425.641239
 20
26.832443
 30
0.0
 40
1.0
100
AcDbArc
 50
93.0
 51
214.388476
  0
ARC
  5
422
100
AcDbEntity
  8
0
370
    -3
  6
Continuous
100
AcDbCircle
 10
-422.847698
 20
22.278533
 30
0.0
 40
1.0
100
AcDbArc
 50
208.664584
 51
267.0
  0
ARC
  5
423
100
AcDbEntity
  8
0
370
    -3
  6
Continuous
100
AcDbCircle
 10
-422.940615
 20
22.447772
 30
0.0
 40
1.0
100
AcDbArc
 50
93.0
 51
208.871352
  0
LINE
  5
424
100
AcDbEntity
  8
0
370
    -3
  6
Continuous
100
AcDbLine
 10
-425.759393
 20
25.929756
 30
0.0
 11
-419.738553
 21
25.614217
 31
0.0
  0
LINE
  5
425
100
AcDbEntity
  8
0
370
    -3
  6
Continuous
100
AcDbLine
 10
-425.693575
 20
27.831072
 30
0.0
 11
-420.238553
 21
28.116958
 31
0.0
  0
ARC
  5
426
100
AcDbEntity
  8
0
370
    -3
  6
Continuous
100
AcDbCircle
 10
-469.790889
 20
-3.384413
 30
0.0
 40
52.5
100
AcDbArc
 50
28.562834
 51
28.973449
  0
ARC
  5
427
100
AcDbEntity
  8
0
370
    -3
  6
Continuous
100
AcDbCircle
 10
-469.790889
 20
-3.384413
 30
0.0
 40
52.5
100
AcDbArc
 50
28.562834
 51
28.973449
  0
LINE
  5
428
100
AcDbEntity
  8
0
370
    -3
  6
Continuous
100
AcDbLine
 10
-440.476721
 20
40.647084
 30
0.0
 11
-440.79226
 21
46.667923
 31
0.0
  0
LINE
  5
429
100
AcDbEntity
  8
0
370
    -3
  6
Continuous
100
AcDbLine
 10
-438.575404
 20
40.712902
 30
0.0
 11
-438.289519
 21
46.167923
 31
0.0
  0
ARC
  5
42A
100
AcDbEntity
  8
0
370
    -3
  6
Continuous
100
AcDbCircle
 10
-437.290889
 20
46.115587
 30
0.0
 40
1.0
100
AcDbArc
 50
3.0
 51
177.0
  0
LINE
  5
42B
100
AcDbEntity
  8
0
370
    -3
  6
Continuous
100
AcDbLine
 10
-442.960075
 20
43.413526
 30
0.0
 11
-442.789519
 21
46.667923
 31
0.0
  0
LINE
  5
42C
100
AcDbEntity
  8
0
370
    -3
  6
Continuous
100
AcDbLine
 10
-149.319741
 20
242.7
 30
0.0
 11
-149.319741
 21
300.0
 31
0.0
  0
LINE
  5
42D
100
AcDbEntity
  8
0
370
    -3
  6
Continuous
100
AcDbLine
 10
-416.619316
 20
28.115587
 30
0.0
 11
-414.990114
 21
29.74479
 31
0.0
  0
ARC
  5
42E
100
AcDbEntity
  8
0
370
    -3
  6
Continuous
100
AcDbCircle
 10
-441.790889
 20
46.615587
 30
0.0
 40
1.0
100
AcDbArc
 50
3.0
 51
177.0
  0
LINE
  5
42F
100
AcDbEntity
  8
0
370
    -3
  6
Continuous
100
AcDbLine
 10
-176.319741
 20
251.5
 30
0.0
 11
-176.319741
 21
284.0
 31
0.0
  0
LINE
  5
430
100
AcDbEntity
  8
0
370
    -3
  6
Continuous
100
AcDbLine
 10
-433.790889
 20
-99.384413
 30
0.0
 11
-433.790889
 21
-99.884413
 31
0.0
  0
LINE
  5
431
100
AcDbEntity
  8
0
370
    -3
  6
Continuous
100
AcDbLine
 10
-447.346697
 20
45.576901
 30
0.0
 11
-447.289519
 21
46.667923
 31
0.0
  0
ARC
  5
432
100
AcDbEntity
  8
0
370
    -3
  6
Continuous
100
AcDbCircle
 10
-153.319741
 20
242.712376
 30
0.0
 40
2.0
100
AcDbArc
 50
180.0
 51
267.0
  0
LINE
  5
433
100
AcDbEntity
  8
0
370
    -3
  6
Continuous
100
AcDbLine
 10
-505.790889
 20
-99.384413
 30
0.0
 11
-505.790889
 21
-99.884413
 31
0.0
  0
ARC
  5
434
100
AcDbEntity
  8
0
370
    -3
  6
Continuous
100
AcDbCircle
 10
-450.790889
 20
46.615587
 30
0.0
 40
1.0
100
AcDbArc
 50
3.0
 51
159.929668
  0
LINE
  5
435
100
AcDbEntity
  8
0
370
    -3
  6
Continuous
100
AcDbLine
 10
-155.319741
 20
242.712376
 30
0.0
 11
-155.319741
 21
267.569423
 31
0.0
  0
LINE
  5
436
100
AcDbEntity
  8
0
370
    -3
  6
Continuous
100
AcDbLine
 10
-127.819741
 20
33.115587
 30
0.0
 11
-128.819741
 21
33.115587
 31
0.0
  0
INSERT
  5
442
100
AcDbEntity
  8
0
100
AcDbBlockReference
  2
ZU_SYM__USERS_HOME_SYMBOL_POO_SYM_B20_00013-1
 10
-512.790889
 20
-99.384413
 30
0.0
  0
LINE
  5
443
100
AcDbEntity
  8
0
370
    -3
  6
Continuous
100
AcDbLine
 10
-449.744157
 20
45.750066
 30
0.0
 11
-449.79226
 21
46.667923
 31
0.0
  0
LINE
  5
444
100
AcDbEntity
  8
0
370
    -3
  6
Continuous
100
AcDbLine
 10
-149.319741
 20
242.7
 30
0.0
 11
-149.319741
 21
240.5
 31
0.0
  0
LINE
  5
445
100
AcDbEntity
  8
0
370
    -3
  6
Continuous
100
AcDbLine
 10
-128.819741
 20
33.115587
 30
0.0
 11
-128.819741
 21
43.115587
 31
0.0
  0
ARC
  5
446
100
AcDbEntity
  8
0
370
    -3
  6
Continuous
100
AcDbCircle
 10
-448.745527
 20
45.802402
 30
0.0
 40
1.0
100
AcDbArc
 50
183.0
 51
246.835568
  0
LINE
  5
447
100
AcDbEntity
  8
0
370
    -3
  6
CENTER
100
AcDbLine
 10
-165.319741
 20
290.299221
 30
0.0
 11
-165.319741
 21
311.15949
 31
0.0
  0
LINE
  5
448
100
AcDbEntity
  8
0
370
    -3
  6
Continuous
100
AcDbLine
 10
-122.819741
 20
44.215587
 30
0.0
 11
-122.819741
 21
39.721574
 31
0.0
  0
ARC
  5
449
100
AcDbEntity
  8
0
370
    -3
  6
Continuous
100
AcDbCircle
 10
-452.669434
 20
47.301934
 30
0.0
 40
1.0
100
AcDbArc
 50
251.335429
 51
339.929668
  0
LINE
  5
44A
100
AcDbEntity
  8
0
370
    -3
  6
Continuous
100
AcDbLine
 10
-149.319741
 20
240.5
 30
0.0
 11
-156.476749
 21
240.875083
 31
0.0
  0
LINE
  5
44B
100
AcDbEntity
  8
0
370
    -3
  6
Continuous
100
AcDbLine
 10
-122.819741
 20
43.115587
 30
0.0
 11
-128.819741
 21
43.115587
 31
0.0
  0
ARC
  5
44C
100
AcDbEntity
  8
0
370
    -3
  6
Continuous
100
AcDbCircle
 10
-448.345326
 20
45.629237
 30
0.0
 40
1.0
100
AcDbArc
 50
246.36857
 51
357.0
  0
ARC
  5
44D
100
AcDbEntity
  8
0
370
    -3
  6
Continuous
100
AcDbCircle
 10
-156.319741
 20
243.870971
 30
0.0
 40
3.0
100
AcDbArc
 50
180.0
 51
267.0
  0
ARC
  5
44E
100
AcDbEntity
  8
0
370
    -3
  6
Continuous
100
AcDbCircle
 10
-123.819741
 20
48.525094
 30
0.0
 40
1.0
100
AcDbArc
 50
0.0
 51
90.0
  0
ARC
  5
44F
100
AcDbEntity
  8
0
370
    -3
  6
Continuous
100
AcDbCircle
 10
-444.127944
 20
43.558779
 30
0.0
 40
1.0
100
AcDbArc
 50
183.0
 51
241.335416
  0
ARC
  5
450
100
AcDbEntity
  8
0
370
    -3
  6
Continuous
100
AcDbCircle
 10
-157.319741
 20
267.569423
 30
0.0
 40
2.0
100
AcDbArc
 50
0.0
 51
90.0
  0
ARC
  5
451
100
AcDbEntity
  8
0
370
    -3
  6
Continuous
100
AcDbCircle
 10
-126.819741
 20
50.525094
 30
0.0
 40
1.0
100
AcDbArc
 50
180.0
 51
270.0
  0
LINE
  5
452
100
AcDbEntity
  8
0
370
    -3
  6
Continuous
100
AcDbLine
 10
-445.126574
 20
43.506443
 30
0.0
 11
-445.29226
 21
46.667923
 31
0.0
  0
ARC
  5
453
100
AcDbEntity
  8
0
370
    -3
  6
Continuous
100
AcDbCircle
 10
-157.319741
 20
271.569423
 30
0.0
 40
2.0
100
AcDbArc
 50
180.0
 51
270.0
  0
LINE
  5
454
100
AcDbEntity
  8
0
370
    -3
  6
Continuous
100
AcDbLine
 10
-126.819741
 20
49.525094
 30
0.0
 11
-123.819741
 21
49.525094
 31
0.0
  0
ARC
  5
455
100
AcDbEntity
  8
0
370
    -3
  6
Continuous
100
AcDbCircle
 10
-443.958704
 20
43.465862
 30
0.0
 40
1.0
100
AcDbArc
 50
241.128648
 51
357.0
  0
LINE
  5
456
100
AcDbEntity
  8
0
370
    -3
  6
Continuous
100
AcDbLine
 10
-191.319741
 20
246.5
 30
0.0
 11
-162.319741
 21
246.5
 31
0.0
  0
ARC
  5
457
100
AcDbEntity
  8
0
370
    -3
  6
Continuous
100
AcDbCircle
 10
-123.819741
 20
39.721574
 30
0.0
 40
1.0
100
AcDbArc
 50
270.0
 51
0.0
  0
ARC
  5
458
100
AcDbEntity
  8
0
370
    -3
  6
Continuous
100
AcDbCircle
 10
-446.290889
 20
46.615587
 30
0.0
 40
1.0
100
AcDbArc
 50
3.0
 51
177.0
  0
ARC
  5
459
100
AcDbEntity
  8
0
370
    -3
  6
Continuous
100
AcDbCircle
 10
-181.319741
 20
251.5
 30
0.0
 40
5.0
100
AcDbArc
 50
270.0
 51
0.0
  0
ARC
  5
45A
100
AcDbEntity
  8
0
370
    -3
  6
Continuous
100
AcDbCircle
 10
-126.819741
 20
37.721574
 30
0.0
 40
1.0
100
AcDbArc
 50
90.0
 51
180.0
  0
ARC
  5
45B
100
AcDbEntity
  8
0
370
    -3
  6
Continuous
100
AcDbCircle
 10
-469.790889
 20
-3.384413
 30
0.0
 40
52.5
100
AcDbArc
 50
61.026551
 51
61.437166
  0
LINE
  5
45C
100
AcDbEntity
  8
0
370
    -3
  6
Continuous
100
AcDbLine
 10
-191.319741
 20
249.0
 30
0.0
 11
-181.319741
 21
249.0
 31
0.0
  0
LINE
  5
45D
100
AcDbEntity
  8
0
370
    -3
  6
Continuous
100
AcDbLine
 10
-126.819741
 20
38.721574
 30
0.0
 11
-123.819741
 21
38.721574
 31
0.0
  0
ARC
  5
45E
100
AcDbEntity
  8
0
370
    -3
  6
Continuous
100
AcDbCircle
 10
-469.790889
 20
-3.384413
 30
0.0
 40
52.5
100
AcDbArc
 50
71.335429
 51
74.122298
  0
ARC
  5
45F
100
AcDbEntity
  8
0
370
    -3
  6
Continuous
100
AcDbCircle
 10
-181.319741
 20
254.0
 30
0.0
 40
5.0
100
AcDbArc
 50
270.0
 51
0.0
  0
LINE
  5
460
100
AcDbEntity
  8
0
370
    -3
  6
Continuous
100
AcDbLine
 10
-122.819741
 20
39.721574
 30
0.0
 11
-122.819741
 21
48.525094
 31
0.0
  0
ARC
  5
461
100
AcDbEntity
  8
0
370
    -3
  6
Continuous
100
AcDbCircle
 10
-456.290889
 20
47.695504
 30
0.0
 40
0.5
100
AcDbArc
 50
0.0
 51
82.20215
  0
ARC
  5
462
100
AcDbEntity
  8
0
370
    -3
  6
Continuous
100
AcDbCircle
 10
-162.319741
 20
243.5
 30
0.0
 40
3.0
100
AcDbArc
 50
0.0
 51
90.0
  0
LINE
  5
463
100
AcDbEntity
  8
0
370
    -3
  6
CENTER
100
AcDbLine
 10
271.652089
 20
-1.884413
 30
0.0
 11
102.51235
 21
-1.884413
 31
0.0
  0
LINE
  5
464
100
AcDbEntity
  8
0
370
    -3
  6
Continuous
100
AcDbLine
 10
-455.790889
 20
47.695504
 30
0.0
 11
-455.790889
 21
47.593524
 31
0.0
  0
LINE
  5
465
100
AcDbEntity
  8
0
370
    -3
  6
Continuous
100
AcDbLine
 10
-191.319741
 20
287.0
 30
0.0
 11
-154.319741
 21
287.0
 31
0.0
  0
LINE
  5
466
100
AcDbEntity
  8
0
370
    -3
  6
CENTER
100
AcDbLine
 10
-156.119478
 20
-3.384413
 30
0.0
 11
-310.0
 21
-3.384413
 31
0.0
  0
ARC
  5
467
100
AcDbEntity
  8
0
370
    -3
  6
Continuous
100
AcDbCircle
 10
-455.290889
 20
47.593524
 30
0.0
 40
0.5
100
AcDbArc
 50
180.0
 51
254.122298
  0
ARC
  5
468
100
AcDbEntity
  8
0
370
    -3
  6
Continuous
100
AcDbCircle
 10
-173.319741
 20
284.0
 30
0.0
 40
3.0
100
AcDbArc
 50
90.0
 51
180.0
  0
LINE
  5
469
100
AcDbEntity
  8
0
370
    -3
  6
Continuous
100
AcDbLine
 10
-159.319741
 20
-67.478573
 30
0.0
 11
-159.319741
 21
1.27457
 31
0.0
  0
INSERT
  5
475
100
AcDbEntity
  8
0
100
AcDbBlockReference
  2
ZU_SYM__USERS_HOME_SYMBOL_POO_SYM_B20_00014-1
 10
-541.790889
 20
-27.884413
 30
0.0
  0
ARC
  5
476
100
AcDbEntity
  8
0
370
    -3
  6
Continuous
100
AcDbCircle
 10
-439.574034
 20
40.765238
 30
0.0
 40
1.0
100
AcDbArc
 50
238.884247
 51
357.0
  0
CIRCLE
  5
477
100
AcDbEntity
  8
0
370
    -3
  6
Continuous
100
AcDbCircle
 10
-165.319741
 20
300.0
 30
0.0
 40
8.35
  0
LINE
  5
478
100
AcDbEntity
  8
0
370
    -3
  6
Continuous
100
AcDbLine
 10
-162.319741
 20
-23.384413
 30
0.0
 11
-184.422272
 21
-23.384413
 31
0.0
  0
ARC
  5
479
100
AcDbEntity
  8
0
370
    -3
  6
Continuous
100
AcDbCircle
 10
-439.478091
 20
40.69942
 30
0.0
 40
1.0
100
AcDbArc
 50
183.0
 51
232.214197
  0
LINE
  5
47A
100
AcDbEntity
  8
0
370
    -3
  6
Continuous
100
AcDbLine
 10
-151.319741
 20
290.0
 30
0.0
 11
-151.319741
 21
300.0
 31
0.0
  0
ARC
  5
47B
100
AcDbEntity
  8
0
370
    -3
  6
Continuous
100
AcDbCircle
 10
-162.319741
 20
-26.384413
 30
0.0
 40
3.0
100
AcDbArc
 50
0.0
 51
90.0
  0
ARC
  5
47C
100
AcDbEntity
  8
0
370
    -3
  6
Continuous
100
AcDbCircle
 10
-469.790889
 20
-3.384413
 30
0.0
 40
52.5
100
AcDbArc
 50
66.336295
 51
66.863111
  0
ARC
  5
47D
100
AcDbEntity
  8
0
370
    -3
  6
Continuous
100
AcDbCircle
 10
-154.319741
 20
290.0
 30
0.0
 40
3.0
100
AcDbArc
 50
270.0
 51
0.0
  0
LINE
  5
47E
100
AcDbEntity
  8
0
370
    -3
  6
CENTER
100
AcDbLine
 10
208.271547
 20
-3.384413
 30
0.0
 11
169.125357
 21
-3.384413
 31
0.0
  0
LINE
  5
47F
100
AcDbEntity
  8
0
370
    -3
  6
Continuous
100
AcDbLine
 10
-441.592248
 20
32.706952
 30
0.0
 11
-430.449776
 21
42.739679
 31
0.0
  0
ARC
  5
480
100
AcDbEntity
  8
0
370
    -3
  6
Continuous
100
AcDbCircle
 10
-173.319741
 20
266.569423
 30
0.0
 40
3.0
100
AcDbArc
 50
90.0
 51
180.0
  0
POINT
  5
481
100
AcDbEntity
  8
0
370
    -3
  6
Continuous
100
AcDbPoint
 10
-184.319741
 20
-56.015325
 30
0.0
  0
LINE
  5
482
100
AcDbEntity
  8
0
370
    -3
  6
Continuous
100
AcDbLine
 10
-433.699524
 20
24.814229
 30
0.0
 11
-423.666797
 21
35.956701
 31
0.0
  0
LINE
  5
483
100
AcDbEntity
  8
0
370
    -3
  6
Continuous
100
AcDbLine
 10
-159.319741
 20
269.569423
 30
0.0
 11
-173.319741
 21
269.569423
 31
0.0
  0
ARC
  5
484
100
AcDbEntity
  8
0
370
    -3
  6
Continuous
100
AcDbCircle
 10
-156.319741
 20
-83.013441
 30
0.0
 40
3.0
100
AcDbArc
 50
180.0
 51
267.0
  0
LINE
  5
485
100
AcDbEntity
  8
0
370
    -3
  6
Continuous
100
AcDbLine
 10
-426.442189
 20
-37.208161
 30
0.0
 11
-420.238553
 21
-36.883042
 31
0.0
  0
LINE
  5
486
100
AcDbEntity
  8
0
370
    -3
  6
Continuous
100
AcDbLine
 10
-159.319741
 20
243.5
 30
0.0
 11
-159.319741
 21
287.0
 31
0.0
  0
ARC
  5
487
100
AcDbEntity
  8
0
370
    -3
  6
Continuous
100
AcDbCircle
 10
-162.319741
 20
-59.399794
 30
0.0
 40
3.0
100
AcDbArc
 50
0.0
 51
89.0
  0
ARC
  5
488
100
AcDbEntity
  8
0
370
    -3
  6
Continuous
100
AcDbCircle
 10
-469.790889
 20
-3.384413
 30
0.0
 40
61.5
100
AcDbArc
 50
311.401106
 51
318.598894
  0
LINE
  5
489
100
AcDbEntity
  8
0
370
    -3
  6
Continuous
100
AcDbLine
 10
-151.319741
 20
310.0
 30
0.0
 11
-151.319741
 21
300.0
 31
0.0
  0
ARC
  5
48A
100
AcDbEntity
  8
0
370
    -3
  6
Continuous
100
AcDbCircle
 10
-154.319741
 20
44.82169
 30
0.0
 40
3.0
100
AcDbArc
 50
0.0
 51
88.0
  0
ARC
  5
48B
100
AcDbEntity
  8
0
370
    -3
  6
Continuous
100
AcDbCircle
 10
-424.409942
 20
-43.394657
 30
0.0
 40
1.0
100
AcDbArc
 50
318.598894
 51
42.0
  0
ARC
  5
48C
100
AcDbEntity
  8
0
370
    -3
  6
Continuous
100
AcDbCircle
 10
-157.815172
 20
-82.935069
 30
0.0
 40
3.0
100
AcDbArc
 50
220.0
 51
267.0
  0
ARC
  5
48D
100
AcDbEntity
  8
0
370
    -3
  6
Continuous
100
AcDbCircle
 10
-434.968512
 20
-46.785449
 30
0.0
 40
1.0
100
AcDbArc
 50
48.0
 51
177.0
  0
LINE
  5
48E
100
AcDbEntity
  8
0
370
    -3
  6
Continuous
100
AcDbLine
 10
-435.967141
 20
-46.733113
 30
0.0
 11
-436.29226
 21
-52.936749
 31
0.0
  0
ARC
  5
48F
100
AcDbEntity
  8
0
370
    -3
  6
Continuous
100
AcDbCircle
 10
-429.780645
 20
-48.76536
 30
0.0
 40
1.0
100
AcDbArc
 50
228.0
 51
311.401106
  0
ARC
  5
490
100
AcDbEntity
  8
0
370
    -3
  6
Continuous
100
AcDbCircle
 10
-185.739069
 20
-58.991008
 30
0.0
 40
3.0
100
AcDbArc
 50
40.0
 51
89.0
  0
ARC
  5
491
100
AcDbEntity
  8
0
370
    -3
  6
Continuous
100
AcDbCircle
 10
-425.707057
 20
-33.697211
 30
0.0
 40
1.0
100
AcDbArc
 50
93.0
 51
145.486921
  0
ARC
  5
492
100
AcDbEntity
  8
0
370
    -3
  6
Continuous
100
AcDbCircle
 10
-149.319741
 20
32.615587
 30
0.0
 40
2.0
100
AcDbArc
 50
180.0
 51
270.0
  0
ARC
  5
493
100
AcDbEntity
  8
0
370
    -3
  6
Continuous
100
AcDbCircle
 10
-425.641239
 20
-33.601268
 30
0.0
 40
1.0
100
AcDbArc
 50
145.611524
 51
267.0
  0
LINE
  5
494
100
AcDbEntity
  8
0
370
    -3
  6
Continuous
100
AcDbLine
 10
-149.319741
 20
-86.384413
 30
0.0
 11
-157.97218
 21
-85.930958
 31
0.0
  0
INSERT
  5
4A0
100
AcDbEntity
  8
0
100
AcDbBlockReference
  2
ZU_SYM__USERS_HOME_SYMBOL_POO_SYM_B20_00015-1
 10
-426.790889
 20
-99.384413
 30
0.0
  0
ARC
  5
4A1
100
AcDbEntity
  8
0
370
    -3
  6
Continuous
100
AcDbCircle
 10
-422.847698
 20
-29.047358
 30
0.0
 40
1.0
100
AcDbArc
 50
93.0
 51
151.335416
  0
LINE
  5
4A2
100
AcDbEntity
  8
0
370
    -3
  6
Continuous
100
AcDbLine
 10
-183.440936
 20
-57.062645
 30
0.0
 11
-160.113306
 21
-84.863432
 31
0.0
  0
ARC
  5
4A3
100
AcDbEntity
  8
0
370
    -3
  6
Continuous
100
AcDbCircle
 10
-422.940615
 20
-29.216598
 30
0.0
 40
1.0
100
AcDbArc
 50
151.128648
 51
267.0
  0
LINE
  5
4A4
100
AcDbEntity
  8
0
370
    -3
  6
Continuous
100
AcDbLine
 10
-425.759393
 20
-32.698581
 30
0.0
 11
-419.738553
 21
-32.383042
 31
0.0
  0
LINE
  5
4A5
100
AcDbEntity
  8
0
370
    -3
  6
Continuous
100
AcDbLine
 10
-425.693575
 20
-34.599898
 30
0.0
 11
-420.238553
 21
-34.885783
 31
0.0
  0
LINE
  5
4A6
100
AcDbEntity
  8
0
370
    -3
  6
Continuous
100
AcDbLine
 10
-151.319741
 20
32.615587
 30
0.0
 11
-151.319741
 21
44.82169
 31
0.0
  0
ARC
  5
4A7
100
AcDbEntity
  8
0
370
    -3
  6
Continuous
100
AcDbCircle
 10
-469.790889
 20
-3.384413
 30
0.0
 40
52.5
100
AcDbArc
 50
331.026551
 51
331.437166
  0
LINE
  5
4A8
100
AcDbEntity
  8
0
370
    -3
  6
CENTER
100
AcDbLine
 10
-165.319741
 20
27.048237
 30
0.0
 11
-165.319741
 21
51.511378
 31
0.0
  0
ARC
  5
4A9
100
AcDbEntity
  8
0
370
    -3
  6
Continuous
100
AcDbCircle
 10
-469.790889
 20
-3.384413
 30
0.0
 40
52.5
100
AcDbArc
 50
331.026551
 51
331.437166
  0
LINE
  5
4AA
100
AcDbEntity
  8
0
370
    -3
  6
Continuous
100
AcDbLine
 10
-162.267369
 20
-56.400251
 30
0.0
 11
-191.319726
 21
-55.89314
 31
0.0
  0
LINE
  5
4AB
100
AcDbEntity
  8
0
370
    -3
  6
Continuous
100
AcDbLine
 10
-440.476721
 20
-47.415909
 30
0.0
 11
-440.79226
 21
-53.436749
 31
0.0
  0
LINE
  5
4AC
100
AcDbEntity
  8
0
370
    -3
  6
Continuous
100
AcDbLine
 10
-154.215043
 20
47.819862
 30
0.0
 11
-191.319756
 21
49.115587
 31
0.0
  0
LINE
  5
4AD
100
AcDbEntity
  8
0
370
    -3
  6
Continuous
100
AcDbLine
 10
-438.575404
 20
-47.481727
 30
0.0
 11
-438.289519
 21
-52.936749
 31
0.0
  0
LINE
  5
4AE
100
AcDbEntity
  8
0
370
    -3
  6
Continuous
100
AcDbLine
 10
-149.319741
 20
-84.184413
 30
0.0
 11
-149.319741
 21
-86.384413
 31
0.0
  0
ARC
  5
4AF
100
AcDbEntity
  8
0
370
    -3
  6
Continuous
100
AcDbCircle
 10
-437.290889
 20
-52.884413
 30
0.0
 40
1.0
100
AcDbArc
 50
183.0
 51
357.0
  0
ARC
  5
4B0
100
AcDbEntity
  8
0
370
    -3
  6
Continuous
100
AcDbCircle
 10
-181.319726
 20
43.710951
 30
0.0
 40
5.0
100
AcDbArc
 50
0.0
 51
88.0
  0
LINE
  5
4B1
100
AcDbEntity
  8
0
370
    -3
  6
Continuous
100
AcDbLine
 10
-442.960075
 20
-50.182351
 30
0.0
 11
-442.789519
 21
-53.436749
 31
0.0
  0
LINE
  5
4B2
100
AcDbEntity
  8
0
370
    -3
  6
Continuous
100
AcDbLine
 10
-149.319741
 20
30.615587
 30
0.0
 11
-171.581421
 21
31.782272
 31
0.0
  0
ARC
  5
4B3
100
AcDbEntity
  8
0
370
    -3
  6
Continuous
100
AcDbCircle
 10
-441.790889
 20
-53.384413
 30
0.0
 40
1.0
100
AcDbArc
 50
183.0
 51
357.0
  0
ARC
  5
4B4
100
AcDbEntity
  8
0
370
    -3
  6
Continuous
100
AcDbCircle
 10
-156.319741
 20
27.978325
 30
0.0
 40
3.0
100
AcDbArc
 50
87.0
 51
180.0
  0
LINE
  5
4B5
100
AcDbEntity
  8
0
370
    -3
  6
Continuous
100
AcDbLine
 10
-447.346697
 20
-52.345726
 30
0.0
 11
-447.289519
 21
-53.436749
 31
0.0
  0
LINE
  5
4B6
100
AcDbEntity
  8
0
370
    -3
  6
Continuous
100
AcDbLine
 10
-149.319741
 20
357.3
 30
0.0
 11
-149.319741
 21
300.0
 31
0.0
  0
ARC
  5
4B7
100
AcDbEntity
  8
0
370
    -3
  6
Continuous
100
AcDbCircle
 10
-157.319741
 20
-67.078587
 30
0.0
 40
2.0
100
AcDbArc
 50
0.0
 51
90.0
  0
ARC
  5
4B8
100
AcDbEntity
  8
0
370
    -3
  6
Continuous
100
AcDbCircle
 10
-450.790889
 20
-53.384413
 30
0.0
 40
1.0
100
AcDbArc
 50
200.070332
 51
357.0
  0
LINE
  5
4B9
100
AcDbEntity
  8
0
370
    -3
  6
Continuous
100
AcDbLine
 10
-176.319741
 20
348.5
 30
0.0
 11
-176.319741
 21
316.0
 31
0.0
  0
ARC
  5
4BA
100
AcDbEntity
  8
0
370
    -3
  6
Continuous
100
AcDbCircle
 10
-157.319741
 20
-63.078587
 30
0.0
 40
2.0
100
AcDbArc
 50
180.0
 51
270.0
  0
LINE
  5
4BB
100
AcDbEntity
  8
0
370
    -3
  6
Continuous
100
AcDbLine
 10
-426.339921
 20
40.164619
 30
0.0
 11
-425.290891
 21
39.558959
 31
0.0
  0
LINE
  5
4BC
100
AcDbEntity
  8
0
370
    -3
  6
Continuous
100
AcDbLine
 10
-449.744157
 20
-52.518891
 30
0.0
 11
-449.79226
 21
-53.436749
 31
0.0
  0
LINE
  5
4BD
100
AcDbEntity
  8
0
370
    -3
  6
Continuous
100
AcDbLine
 10
-155.319741
 20
-84.172037
 30
0.0
 11
-155.319741
 21
-67.078587
 31
0.0
  0
LINE
  5
4BE
100
AcDbEntity
  8
0
370
    -3
  6
Continuous
100
AcDbLine
 10
-425.290892
 20
39.558959
 30
0.0
 11
-425.290892
 21
39.11559
 31
0.0
  0
ARC
  5
4BF
100
AcDbEntity
  8
0
370
    -3
  6
Continuous
100
AcDbCircle
 10
-448.745527
 20
-52.571227
 30
0.0
 40
1.0
100
AcDbArc
 50
113.164432
 51
177.0
  0
LINE
  5
4C0
100
AcDbEntity
  8
0
370
    -3
  6
Continuous
100
AcDbLine
 10
-155.319741
 20
357.287624
 30
0.0
 11
-155.319741
 21
332.430577
 31
0.0
  0
ARC
  5
4C1
100
AcDbEntity
  8
0
370
    -3
  6
Continuous
100
AcDbCircle
 10
-153.319741
 20
-84.172037
 30
0.0
 40
2.0
100
AcDbArc
 50
180.0
 51
267.0
  0
LINE
  5
4C2
100
AcDbEntity
  8
0
370
    -3
  6
Continuous
100
AcDbLine
 10
-513.241855
 20
40.164622
 30
0.0
 11
-514.290889
 21
39.558965
 31
0.0
  0
ARC
  5
4C3
100
AcDbEntity
  8
0
370
    -3
  6
Continuous
100
AcDbCircle
 10
-452.669434
 20
-54.070759
 30
0.0
 40
1.0
100
AcDbArc
 50
20.070332
 51
108.664571
  0
ARC
  5
4C4
100
AcDbEntity
  8
0
370
    -3
  6
Continuous
100
AcDbCircle
 10
-153.319741
 20
28.822474
 30
0.0
 40
2.0
100
AcDbArc
 50
87.0
 51
180.0
  0
LINE
  5
4C5
100
AcDbEntity
  8
0
370
    -3
  6
Continuous
100
AcDbLine
 10
-514.290888
 20
39.115589
 30
0.0
 11
-514.290888
 21
39.558965
 31
0.0
  0
ARC
  5
4C6
100
AcDbEntity
  8
0
370
    -3
  6
Continuous
100
AcDbCircle
 10
-448.345326
 20
-52.398062
 30
0.0
 40
1.0
100
AcDbArc
 50
3.0
 51
113.63143
  0
ARC
  5
4C7
100
AcDbEntity
  8
0
370
    -3
  6
Continuous
100
AcDbCircle
 10
-177.319741
 20
8.57771
 30
0.0
 40
1.0
100
AcDbArc
 50
0.0
 51
60.0
  0
ARC
  5
4C8
100
AcDbEntity
  8
0
370
    -3
  6
Continuous
100
AcDbCircle
 10
-547.290889
 20
-18.884413
 30
0.0
 40
2.0
100
AcDbArc
 50
90.0
 51
180.0
  0
ARC
  5
4C9
100
AcDbEntity
  8
0
370
    -3
  6
Continuous
100
AcDbCircle
 10
-444.127944
 20
-50.327604
 30
0.0
 40
1.0
100
AcDbArc
 50
118.664584
 51
177.0
  0
ARC
  5
4CA
100
AcDbEntity
  8
0
370
    -3
  6
Continuous
100
AcDbCircle
 10
-171.319741
 20
36.77542
 30
0.0
 40
5.0
100
AcDbArc
 50
180.0
 51
267.0
  0
LINE
  5
4CB
100
AcDbEntity
  8
0
370
    -3
  6
Continuous
100
AcDbLine
 10
-547.290889
 20
-16.884413
 30
0.0
 11
-539.790889
 21
-16.884413
 31
0.0
  0
LINE
  5
4CC
100
AcDbEntity
  8
0
370
    -3
  6
Continuous
100
AcDbLine
 10
-445.126574
 20
-50.275268
 30
0.0
 11
-445.29226
 21
-53.436749
 31
0.0
  0
ARC
  5
4CD
100
AcDbEntity
  8
0
370
    -3
  6
Continuous
100
AcDbCircle
 10
-157.319741
 20
332.430577
 30
0.0
 40
2.0
100
AcDbArc
 50
270.0
 51
0.0
  0
ARC
  5
4CE
100
AcDbEntity
  8
0
370
    -3
  6
Continuous
100
AcDbCircle
 10
-176.319741
 20
31.815335
 30
0.0
 40
1.0
100
AcDbArc
 50
120.0
 51
180.0
  0
ARC
  5
4CF
100
AcDbEntity
  8
0
370
    -3
  6
Continuous
100
AcDbCircle
 10
-539.790889
 20
-8.884413
 30
0.0
 40
8.0
100
AcDbArc
 50
270.0
 51
90.0
  0
ARC
  5
4D0
100
AcDbEntity
  8
0
370
    -3
  6
Continuous
100
AcDbCircle
 10
-443.958704
 20
-50.234687
 30
0.0
 40
1.0
100
AcDbArc
 50
3.0
 51
118.871352
  0
ARC
  5
4D1
100
AcDbEntity
  8
0
370
    -3
  6
Continuous
100
AcDbCircle
 10
-157.319741
 20
328.430577
 30
0.0
 40
2.0
100
AcDbArc
 50
90.0
 51
180.0
  0
LINE
  5
4D2
100
AcDbEntity
  8
0
370
    -3
  6
Continuous
100
AcDbLine
 10
-176.319741
 20
33.547386
 30
0.0
 11
-176.319741
 21
43.710951
 31
0.0
  0
LINE
  5
4D3
100
AcDbEntity
  8
0
370
    -3
  6
Continuous
100
AcDbLine
 10
-545.876793
 20
-0.884413
 30
0.0
 11
-539.790889
 21
-0.884413
 31
0.0
  0
ARC
  5
4D4
100
AcDbEntity
  8
0
370
    -3
  6
Continuous
100
AcDbCircle
 10
-446.290889
 20
-53.384413
 30
0.0
 40
1.0
100
AcDbArc
 50
183.0
 51
357.0
  0
ARC
  5
4D5
100
AcDbEntity
  8
0
370
    -3
  6
Continuous
100
AcDbCircle
 10
-177.319741
 20
33.547386
 30
0.0
 40
1.0
100
AcDbArc
 50
300.0
 51
0.0
  0
ARC
  5
4D6
100
AcDbEntity
  8
0
370
    -3
  6
Continuous
100
AcDbCircle
 10
-545.876793
 20
1.115587
 30
0.0
 40
2.0
100
AcDbArc
 50
167.837508
 51
270.0
  0
ARC
  5
4D7
100
AcDbEntity
  8
0
370
    -3
  6
Continuous
100
AcDbCircle
 10
-469.790889
 20
-3.384413
 30
0.0
 40
52.5
100
AcDbArc
 50
298.562834
 51
298.973449
  0
LINE
  5
4D8
100
AcDbEntity
  8
0
370
    -3
  6
Continuous
100
AcDbLine
 10
-177.319741
 20
10.309761
 30
0.0
 11
-177.319741
 21
31.815335
 31
0.0
  0
ARC
  5
4D9
100
AcDbEntity
  8
0
370
    -3
  6
Continuous
100
AcDbCircle
 10
-438.790889
 20
-99.884413
 30
0.0
 40
5.0
100
AcDbArc
 50
270.0
 51
0.0
  0
ARC
  5
4DA
100
AcDbEntity
  8
0
370
    -3
  6
Continuous
100
AcDbCircle
 10
-469.790889
 20
-3.384413
 30
0.0
 40
52.5
100
AcDbArc
 50
285.877702
 51
288.664571
  0
ARC
  5
4DB
100
AcDbEntity
  8
0
370
    -3
  6
Continuous
100
AcDbCircle
 10
-176.319741
 20
10.309761
 30
0.0
 40
1.0
100
AcDbArc
 50
180.0
 51
240.0
  0
ARC
  5
4DC
100
AcDbEntity
  8
0
370
    -3
  6
Continuous
100
AcDbCircle
 10
-426.790889
 20
-99.384413
 30
0.0
 40
7.0
100
AcDbArc
 50
61.263962
 51
180.0
  0
ARC
  5
4DD
100
AcDbEntity
  8
0
370
    -3
  6
Continuous
100
AcDbCircle
 10
-456.290889
 20
-54.46433
 30
0.0
 40
0.5
100
AcDbArc
 50
277.79785
 51
0.0
  0
LINE
  5
4DE
100
AcDbEntity
  8
0
370
    -3
  6
Continuous
100
AcDbLine
 10
-159.319741
 20
-83.013441
 30
0.0
 11
-159.319741
 21
-67.478573
 31
0.0
  0
ARC
  5
4DF
100
AcDbEntity
  8
0
370
    -3
  6
Continuous
100
AcDbCircle
 10
-421.021588
 20
-88.862285
 30
0.0
 40
5.0
100
AcDbArc
 50
241.263962
 51
316.112971
  0
LINE
  5
4E0
100
AcDbEntity
  8
0
370
    -3
  6
Continuous
100
AcDbLine
 10
-455.790889
 20
-54.46433
 30
0.0
 11
-455.790889
 21
-54.362349
 31
0.0
  0
LINE
  5
4E1
100
AcDbEntity
  8
0
370
    -3
  6
Continuous
100
AcDbLine
 10
-159.319741
 20
-47.884413
 30
0.0
 11
-149.319741
 21
-47.884413
 31
0.0
  0
ARC
  5
4E2
100
AcDbEntity
  8
0
370
    -3
  6
Continuous
100
AcDbCircle
 10
-416.624303
 20
33.721574
 30
0.0
 40
5.0
100
AcDbArc
 50
49.876066
 51
158.520534
  0
ARC
  5
4E3
100
AcDbEntity
  8
0
370
    -3
  6
Continuous
100
AcDbCircle
 10
-455.290889
 20
-54.362349
 30
0.0
 40
0.5
100
AcDbArc
 50
105.877702
 51
180.0
  0
LINE
  5
4E4
100
AcDbEntity
  8
0
370
    -3
  6
Continuous
100
AcDbLine
 10
-191.319741
 20
313.0
 30
0.0
 11
-154.319741
 21
313.0
 31
0.0
  0
LINE
  5
4E5
100
AcDbEntity
  8
0
370
    -3
  6
Continuous
100
AcDbLine
 10
-149.319741
 20
-84.184413
 30
0.0
 11
-149.319741
 21
30.615587
 31
0.0
  0
ARC
  5
4E6
100
AcDbEntity
  8
0
370
    -3
  6
Continuous
100
AcDbCircle
 10
-427.790889
 20
38.115587
 30
0.0
 40
7.0
100
AcDbArc
 50
333.747574
 51
338.520534
  0
ARC
  5
4E7
100
AcDbEntity
  8
0
370
    -3
  6
Continuous
100
AcDbCircle
 10
-439.574034
 20
-47.534063
 30
0.0
 40
1.0
100
AcDbArc
 50
3.0
 51
121.115753
  0
ARC
  5
4E8
100
AcDbEntity
  8
0
370
    -3
  6
Continuous
100
AcDbCircle
 10
-173.319741
 20
316.0
 30
0.0
 40
3.0
100
AcDbArc
 50
180.0
 51
270.0
  0
LINE
  5
4E9
100
AcDbEntity
  8
0
370
    -3
  6
Continuous
100
AcDbLine
 10
-159.319741
 20
-7.884413
 30
0.0
 11
-149.319741
 21
-7.884413
 31
0.0
  0
ARC
  5
4EA
100
AcDbEntity
  8
0
370
    -3
  6
Continuous
100
AcDbCircle
 10
-500.790889
 20
-99.884413
 30
0.0
 40
5.0
100
AcDbArc
 50
180.0
 51
270.0
  0
ARC
  5
4EB
100
AcDbEntity
  8
0
370
    -3
  6
Continuous
100
AcDbCircle
 10
-439.478091
 20
-47.468245
 30
0.0
 40
1.0
100
AcDbArc
 50
127.785803
 51
177.0
  0
ARC
  5
4EC
100
AcDbEntity
  8
0
370
    -3
  6
Continuous
100
AcDbCircle
 10
-154.319741
 20
310.0
 30
0.0
 40
3.0
100
AcDbArc
 50
0.0
 51
90.0
  0
LINE
  5
4ED
100
AcDbEntity
  8
0
370
    -3
  6
Continuous
100
AcDbLine
 10
-177.319741
 20
16.615587
 30
0.0
 11
-184.422272
 21
16.615587
 31
0.0
  0
ARC
  5
4EE
100
AcDbEntity
  8
0
370
    -3
  6
Continuous
100
AcDbCircle
 10
-518.560191
 20
-88.862285
 30
0.0
 40
5.0
100
AcDbArc
 50
223.887029
 51
298.736038
  0
ARC
  5
4EF
100
AcDbEntity
  8
0
370
    -3
  6
Continuous
100
AcDbCircle
 10
-469.790889
 20
-3.384413
 30
0.0
 40
52.5
100
AcDbArc
 50
293.136889
 51
293.663705
  0
ARC
  5
4F0
100
AcDbEntity
  8
0
370
    -3
  6
Continuous
100
AcDbCircle
 10
-173.319741
 20
333.430577
 30
0.0
 40
3.0
100
AcDbArc
 50
180.0
 51
270.0
  0
LINE
  5
4F1
100
AcDbEntity
  8
0
370
    -3
  6
Continuous
100
AcDbLine
 10
-176.319741
 20
6.173549
 30
0.0
 11
-176.319741
 21
8.57771
 31
0.0
  0
ARC
  5
4F2
100
AcDbEntity
  8
0
370
    -3
  6
Continuous
100
AcDbCircle
 10
-512.790889
 20
-99.384413
 30
0.0
 40
7.0
100
AcDbArc
 50
0.0
 51
118.736038
  0
LINE
  5
4F3
100
AcDbEntity
  8
0
370
    -3
  6
Continuous
100
AcDbLine
 10
-441.592248
 20
-39.475778
 30
0.0
 11
-430.449776
 21
-49.508505
 31
0.0
  0
LINE
  5
4F4
100
AcDbEntity
  8
0
370
    -3
  6
Continuous
100
AcDbLine
 10
-159.319741
 20
330.430577
 30
0.0
 11
-173.319741
 21
330.430577
 31
0.0
  0
ARC
  5
4F5
100
AcDbEntity
  8
0
370
    -3
  6
Continuous
100
AcDbCircle
 10
-173.319741
 20
6.173549
 30
0.0
 40
3.0
100
AcDbArc
 50
180.0
 51
270.0
  0
ARC
  5
4F6
100
AcDbEntity
  8
0
370
    -3
  6
Continuous
100
AcDbCircle
 10
-522.957476
 20
33.721574
 30
0.0
 40
5.0
100
AcDbArc
 50
21.479466
 51
130.123934
  0
LINE
  5
4F7
100
AcDbEntity
  8
0
370
    -3
  6
Continuous
100
AcDbLine
 10
-433.699524
 20
-31.583054
 30
0.0
 11
-423.666797
 21
-42.725526
 31
0.0
  0
LINE
  5
4F8
100
AcDbEntity
  8
0
370
    -3
  6
Continuous
100
AcDbLine
 10
-159.319741
 20
356.129029
 30
0.0
 11
-159.319741
 21
313.0
 31
0.0
  0
ARC
  5
4F9
100
AcDbEntity
  8
0
370
    -3
  6
Continuous
100
AcDbCircle
 10
-162.319741
 20
6.173549
 30
0.0
 40
3.0
100
AcDbArc
 50
270.0
 51
0.0
  0
ARC
  5
4FA
100
AcDbEntity
  8
0
370
    -3
  6
Continuous
100
AcDbCircle
 10
-511.790889
 20
38.115587
 30
0.0
 40
7.0
100
AcDbArc
 50
201.479466
 51
206.252426
  0
ARC
  5
4FB
100
AcDbEntity
  8
0
370
    -3
  6
Continuous
100
AcDbCircle
 10
-469.790889
 20
-50.884413
 30
0.0
 40
100.0
100
AcDbArc
 50
82.20215
 51
90.0
  0
LINE
  5
4FC
100
AcDbEntity
  8
0
370
    -3
  6
Continuous
100
AcDbLine
 10
-158.319741
 20
3.173549
 30
0.0
 11
-173.319741
 21
3.173549
 31
0.0
  0
ARC
  5
4FD
100
AcDbEntity
  8
0
370
    -3
  6
Continuous
100
AcDbCircle
 10
-397.790889
 20
-27.884413
 30
0.0
 40
7.0
100
AcDbArc
 50
235.150095
 51
244.623066
  0
ARC
  5
4FE
100
AcDbEntity
  8
0
370
    -3
  6
Continuous
100
AcDbCircle
 10
-469.790889
 20
44.115587
 30
0.0
 40
100.0
100
AcDbArc
 50
270.0
 51
277.79785
  0
ARC
  5
4FF
100
AcDbEntity
  8
0
370
    -3
  6
Continuous
100
AcDbCircle
 10
-158.319741
 20
6.173549
 30
0.0
 40
3.0
100
AcDbArc
 50
270.0
 51
0.0
  0
ARC
  5
500
100
AcDbEntity
  8
0
370
    -3
  6
Continuous
100
AcDbCircle
 10
-513.191926
 20
-38.206791
 30
0.0
 40
1.0
100
AcDbArc
 50
318.0
 51
87.0
  0
LINE
  5
501
100
AcDbEntity
  8
0
370
    -3
  6
Continuous
100
AcDbLine
 10
-155.319741
 20
6.173549
 30
0.0
 11
-155.319741
 21
28.822474
 31
0.0
  0
ARC
  5
502
100
AcDbEntity
  8
0
370
    -3
  6
Continuous
100
AcDbCircle
 10
-469.790889
 20
-3.384413
 30
0.0
 40
61.5
100
AcDbArc
 50
221.401106
 51
228.598894
  0
LINE
  5
503
100
AcDbEntity
  8
0
370
    -3
  6
CENTER
100
AcDbLine
 10
-148.319741
 20
241.0
 30
0.0
 11
-148.319741
 21
219.0
 31
0.0
  0
ARC
  5
504
100
AcDbEntity
  8
0
370
    -3
  6
Continuous
100
AcDbCircle
 10
-157.319741
 20
1.27457
 30
0.0
 40
2.0
100
AcDbArc
 50
101.536959
 51
180.0
  0
LINE
  5
505
100
AcDbEntity
  8
0
370
    -3
  6
Continuous
100
AcDbLine
 10
-548.290889
 20
-34.884413
 30
0.0
 11
-541.790889
 21
-34.884413
 31
0.0
  0
ARC
  5
506
100
AcDbEntity
  8
0
370
    -3
  6
Continuous
100
AcDbCircle
 10
-515.171836
 20
-43.394657
 30
0.0
 40
1.0
100
AcDbArc
 50
138.0
 51
221.401106
  0
CIRCLE
  5
507
100
AcDbEntity
  8
0
370
    -3
  6
Continuous
100
AcDbCircle
 10
-148.319741
 20
230.0
 30
0.0
 40
6.0
  0
LINE
  5
508
100
AcDbEntity
  8
0
370
    -3
  6
Continuous
100
AcDbLine
 10
-159.319741
 20
6.173549
 30
0.0
 11
-159.319741
 21
11.709783
 31
0.0
  0
ARC
  5
509
100
AcDbEntity
  8
0
370
    -3
  6
Continuous
100
AcDbCircle
 10
-548.290889
 20
-35.884413
 30
0.0
 40
1.0
100
AcDbArc
 50
90.0
 51
180.0
  0
ARC
  5
50A
100
AcDbEntity
  8
0
370
    -3
  6
Continuous
100
AcDbCircle
 10
-504.613267
 20
-46.785449
 30
0.0
 40
1.0
100
AcDbArc
 50
3.0
 51
132.0
  0
LINE
  5
50B
100
AcDbEntity
  8
0
370
    -3
  6
Continuous
100
AcDbLine
 10
-161.819741
 20
219.435303
 30
0.0
 11
-161.819741
 21
243.564697
 31
0.0
  0
LINE
  5
50C
100
AcDbEntity
  8
0
370
    -3
  6
Continuous
100
AcDbLine
 10
-159.319741
 20
11.709783
 30
0.0
 11
-159.319741
 21
27.978325
 31
0.0
  0
ARC
  5
50D
100
AcDbEntity
  8
0
370
    -3
  6
Continuous
100
AcDbCircle
 10
-541.790889
 20
-27.884413
 30
0.0
 40
7.0
100
AcDbArc
 50
270.0
 51
90.0
  0
LINE
  5
50E
100
AcDbEntity
  8
0
370
    -3
  6
Continuous
100
AcDbLine
 10
-503.614638
 20
-46.733113
 30
0.0
 11
-503.289519
 21
-52.936749
 31
0.0
  0
ARC
  5
50F
100
AcDbEntity
  8
0
370
    -3
  6
Continuous
100
AcDbCircle
 10
-158.819741
 20
-91.787368
 30
0.0
 40
3.0
100
AcDbArc
 50
91.883723
 51
180.0
  0
LINE
  5
510
100
AcDbEntity
  8
0
370
    -3
  6
Continuous
100
AcDbLine
 10
-548.290889
 20
-20.884413
 30
0.0
 11
-541.790889
 21
-20.884413
 31
0.0
  0
ARC
  5
511
100
AcDbEntity
  8
0
370
    -3
  6
Continuous
100
AcDbCircle
 10
-509.801134
 20
-48.76536
 30
0.0
 40
1.0
100
AcDbArc
 50
228.598894
 51
312.0
  0
ARC
  5
512
100
AcDbEntity
  8
0
370
    -3
  6
Continuous
100
AcDbCircle
 10
-159.819741
 20
243.564697
 30
0.0
 40
2.0
100
AcDbArc
 50
98.684911
 51
180.0
  0
LINE
  5
513
100
AcDbEntity
  8
0
370
    -3
  6
Continuous
100
AcDbLine
 10
-161.819741
 20
-106.384413
 30
0.0
 11
-161.819741
 21
-91.287368
 31
0.0
  0
ARC
  5
514
100
AcDbEntity
  8
0
370
    -3
  6
Continuous
100
AcDbCircle
 10
-548.290889
 20
-19.884413
 30
0.0
 40
1.0
100
AcDbArc
 50
180.0
 51
270.0
  0
ARC
  5
515
100
AcDbEntity
  8
0
370
    -3
  6
Continuous
100
AcDbCircle
 10
-513.874722
 20
-33.697211
 30
0.0
 40
1.0
100
AcDbArc
 50
34.513079
 51
87.0
  0
LINE
  5
516
100
AcDbEntity
  8
0
370
    -3
  6
Continuous
100
AcDbLine
 10
-158.918355
 20
-88.788989
 30
0.0
 11
-131.85228
 21
-87.898812
 31
0.0
  0
ARC
  5
517
100
AcDbEntity
  8
0
370
    -3
  6
Continuous
100
AcDbCircle
 10
-413.093799
 20
-96.487911
 30
0.0
 40
6.0
100
AcDbArc
 50
129.571895
 51
191.940335
  0
ARC
  5
518
100
AcDbEntity
  8
0
370
    -3
  6
Continuous
100
AcDbCircle
 10
-513.94054
 20
-33.601268
 30
0.0
 40
1.0
100
AcDbArc
 50
273.0
 51
34.388476
  0
LINE
  5
519
100
AcDbEntity
  8
0
370
    -3
  6
Continuous
100
AcDbLine
 10
-149.319741
 20
283.0
 30
0.0
 11
-127.819741
 21
283.0
 31
0.0
  0
LINE
  5
51A
100
AcDbEntity
  8
0
370
    -3
  6
CENTER
100
AcDbLine
 10
-148.319741
 20
-82.911244
 30
0.0
 11
-148.319741
 21
-109.716703
 31
0.0
  0
ARC
  5
51B
100
AcDbEntity
  8
0
370
    -3
  6
Continuous
100
AcDbCircle
 10
-426.790889
 20
-99.384413
 30
0.0
 40
8.0
100
AcDbArc
 50
316.567463
 51
11.940335
  0
LINE
  5
51C
100
AcDbEntity
  8
0
370
    -3
  6
Continuous
100
AcDbLine
 10
-518.752203
 20
-25.828605
 30
0.0
 11
-519.843225
 21
-25.885783
 31
0.0
  0
LINE
  5
51D
100
AcDbEntity
  8
0
370
    -3
  6
Continuous
100
AcDbLine
 10
-132.558061
 20
240.56915
 30
0.0
 11
-149.319741
 21
241.447592
 31
0.0
  0
LINE
  5
51E
100
AcDbEntity
  8
0
370
    -3
  6
Continuous
100
AcDbLine
 10
-127.819741
 20
-47.884413
 30
0.0
 11
-149.319741
 21
-47.884413
 31
0.0
  0
ARC
  5
51F
100
AcDbEntity
  8
0
370
    -3
  6
Continuous
100
AcDbCircle
 10
-512.790889
 20
-99.384413
 30
0.0
 40
8.0
100
AcDbArc
 50
168.059665
 51
223.432537
  0
ARC
  5
520
100
AcDbEntity
  8
0
370
    -3
  6
Continuous
100
AcDbCircle
 10
-518.804539
 20
-24.829976
 30
0.0
 40
1.0
100
AcDbArc
 50
273.0
 51
23.63143
  0
LINE
  5
521
100
AcDbEntity
  8
0
370
    -3
  6
Continuous
100
AcDbLine
 10
-149.319741
 20
317.0
 30
0.0
 11
-127.819741
 21
317.0
 31
0.0
  0
LINE
  5
522
100
AcDbEntity
  8
0
370
    -3
  6
Continuous
100
AcDbLine
 10
-149.319741
 20
-7.884413
 30
0.0
 11
-130.819741
 21
-7.884413
 31
0.0
  0
ARC
  5
523
100
AcDbEntity
  8
0
370
    -3
  6
Continuous
100
AcDbCircle
 10
-526.487979
 20
-96.487911
 30
0.0
 40
6.0
100
AcDbArc
 50
348.059665
 51
50.428105
  0
ARC
  5
524
100
AcDbEntity
  8
0
370
    -3
  6
Continuous
100
AcDbCircle
 10
-519.790889
 20
-26.884413
 30
0.0
 40
1.0
100
AcDbArc
 50
93.0
 51
267.0
  0
LINE
  5
525
100
AcDbEntity
  8
0
370
    -3
  6
Continuous
100
AcDbLine
 10
-149.319741
 20
-86.43682
 30
0.0
 11
-149.319741
 21
30.667995
 31
0.0
  0
ARC
  5
526
100
AcDbEntity
  8
0
370
    -3
  6
Continuous
100
AcDbCircle
 10
-423.475395
 20
-81.270975
 30
0.0
 40
3.0
100
AcDbArc
 50
45.0
 51
135.0
  0
ARC
  5
527
100
AcDbEntity
  8
0
370
    -3
  6
Continuous
100
AcDbCircle
 10
-516.734081
 20
-29.047358
 30
0.0
 40
1.0
100
AcDbArc
 50
28.664584
 51
87.0
  0
LINE
  5
528
100
AcDbEntity
  8
0
370
    -3
  6
Continuous
100
AcDbLine
 10
-132.558061
 20
31.546437
 30
0.0
 11
-149.319741
 21
30.667995
 31
0.0
  0
LINE
  5
529
100
AcDbEntity
  8
0
370
    -3
  6
Continuous
100
AcDbLine
 10
-421.354075
 20
-79.149654
 30
0.0
 11
-414.990114
 21
-85.513615
 31
0.0
  0
LINE
  5
52A
100
AcDbEntity
  8
0
370
    -3
  6
Continuous
100
AcDbLine
 10
-516.681745
 20
-28.048728
 30
0.0
 11
-519.843225
 21
-27.883042
 31
0.0
  0
LINE
  5
52B
100
AcDbEntity
  8
0
370
    -3
  6
Continuous
100
AcDbLine
 10
-132.558061
 20
-87.315263
 30
0.0
 11
-149.319741
 21
-86.43682
 31
0.0
  0
ARC
  5
52C
100
AcDbEntity
  8
0
370
    -3
  6
Continuous
100
AcDbCircle
 10
-417.111434
 20
-87.634936
 30
0.0
 40
3.0
100
AcDbArc
 50
315.0
 51
45.0
  0
ARC
  5
52D
100
AcDbEntity
  8
0
370
    -3
  6
Continuous
100
AcDbCircle
 10
-516.641164
 20
-29.216598
 30
0.0
 40
1.0
100
AcDbArc
 50
273.0
 51
28.871352
  0
LINE
  5
52E
100
AcDbEntity
  8
0
370
    -3
  6
CENTER
100
AcDbLine
 10
-114.497612
 20
-27.884413
 30
0.0
 11
-151.139575
 21
-27.884413
 31
0.0
  0
ARC
  5
52F
100
AcDbEntity
  8
0
370
    -3
  6
Continuous
100
AcDbCircle
 10
-410.040366
 20
-80.563868
 30
0.0
 40
3.0
100
AcDbArc
 50
225.0
 51
315.0
  0
LINE
  5
530
100
AcDbEntity
  8
0
370
    -3
  6
Continuous
100
AcDbLine
 10
-516.588828
 20
-30.215227
 30
0.0
 11
-519.843225
 21
-30.385783
 31
0.0
  0
LINE
  5
531
100
AcDbEntity
  8
0
370
    -3
  6
Continuous
100
AcDbLine
 10
-116.819741
 20
53.115587
 30
0.0
 11
-125.81974
 21
53.115587
 31
0.0
  0
ARC
  5
532
100
AcDbEntity
  8
0
370
    -3
  6
Continuous
100
AcDbCircle
 10
-416.404327
 20
-74.199907
 30
0.0
 40
3.0
100
AcDbArc
 50
135.0
 51
225.0
  0
LINE
  5
533
100
AcDbEntity
  8
0
370
    -3
  6
Continuous
100
AcDbLine
 10
-513.822386
 20
-32.698581
 30
0.0
 11
-519.843225
 21
-32.383042
 31
0.0
  0
LINE
  5
534
100
AcDbEntity
  8
0
370
    -3
  6
Continuous
100
AcDbLine
 10
-127.819741
 20
0.988571
 30
0.0
 11
-127.819741
 21
37.721574
 31
0.0
  0
LINE
  5
535
100
AcDbEntity
  8
0
370
    -3
  6
Continuous
100
AcDbLine
 10
-418.525648
 20
-76.321227
 30
0.0
 11
-412.161687
 21
-82.685188
 31
0.0
  0
LINE
  5
536
100
AcDbEntity
  8
0
370
    -3
  6
Continuous
100
AcDbLine
 10
-513.888204
 20
-34.599898
 30
0.0
 11
-519.343225
 21
-34.885783
 31
0.0
  0
LINE
  5
537
100
AcDbEntity
  8
0
370
    -3
  6
Continuous
100
AcDbLine
 10
-127.819741
 20
-18.757396
 30
0.0
 11
-127.819741
 21
-22.884413
 31
0.0
  0
ARC
  5
538
100
AcDbEntity
  8
0
370
    -3
  6
Continuous
100
AcDbCircle
 10
-516.106384
 20
-81.270975
 30
0.0
 40
3.0
100
AcDbArc
 50
45.0
 51
135.0
  0
ARC
  5
539
100
AcDbEntity
  8
0
370
    -3
  6
Continuous
100
AcDbCircle
 10
-519.790889
 20
-31.384413
 30
0.0
 40
1.0
100
AcDbArc
 50
93.0
 51
267.0
  0
ARC
  5
53A
100
AcDbEntity
  8
0
370
    -3
  6
Continuous
100
AcDbCircle
 10
-125.819741
 20
51.115587
 30
0.0
 40
2.0
100
AcDbArc
 50
90.0
 51
180.0
  0
LINE
  5
53B
100
AcDbEntity
  8
0
370
    -3
  6
Continuous
100
AcDbLine
 10
-518.227704
 20
-79.149654
 30
0.0
 11
-524.591665
 21
-85.513615
 31
0.0
  0
ARC
  5
53C
100
AcDbEntity
  8
0
370
    -3
  6
Continuous
100
AcDbCircle
 10
-519.290889
 20
-35.884413
 30
0.0
 40
1.0
100
AcDbArc
 50
93.0
 51
267.0
  0
LINE
  5
53D
100
AcDbEntity
  8
0
370
    -3
  6
Continuous
100
AcDbLine
 10
-116.819741
 20
-27.884413
 30
0.0
 11
-116.819741
 21
-76.164169
 31
0.0
  0
ARC
  5
53E
100
AcDbEntity
  8
0
370
    -3
  6
Continuous
100
AcDbCircle
 10
-522.470345
 20
-87.634936
 30
0.0
 40
3.0
100
AcDbArc
 50
135.0
 51
225.0
  0
ARC
  5
53F
100
AcDbEntity
  8
0
370
    -3
  6
Continuous
100
AcDbCircle
 10
-469.790889
 20
-3.384413
 30
0.0
 40
52.5
100
AcDbArc
 50
208.562834
 51
208.973449
  0
LINE
  5
540
100
AcDbEntity
  8
0
370
    -3
  6
Continuous
100
AcDbLine
 10
-116.819741
 20
-27.884413
 30
0.0
 11
-116.819741
 21
53.115587
 31
0.0
  0
ARC
  5
541
100
AcDbEntity
  8
0
370
    -3
  6
Continuous
100
AcDbCircle
 10
-529.541412
 20
-80.563868
 30
0.0
 40
3.0
100
AcDbArc
 50
225.0
 51
315.0
  0
ARC
  5
542
100
AcDbEntity
  8
0
370
    -3
  6
Continuous
100
AcDbCircle
 10
-469.790889
 20
-3.384413
 30
0.0
 40
52.5
100
AcDbArc
 50
208.562834
 51
208.973449
  0
LINE
  5
543
100
AcDbEntity
  8
0
370
    -3
  6
Continuous
100
AcDbLine
 10
-127.819741
 20
43.115587
 30
0.0
 11
-127.819741
 21
51.115587
 31
0.0
  0
ARC
  5
544
100
AcDbEntity
  8
0
370
    -3
  6
Continuous
100
AcDbCircle
 10
-523.177451
 20
-74.199907
 30
0.0
 40
3.0
100
AcDbArc
 50
315.0
 51
45.0
  0
ARC
  5
545
100
AcDbEntity
  8
0
370
    -3
  6
Continuous
100
AcDbCircle
 10
-469.790889
 20
-3.384413
 30
0.0
 40
52.5
100
AcDbArc
 50
203.111602
 51
203.663705
  0
LINE
  5
546
100
AcDbEntity
  8
0
370
    -3
  6
Continuous
100
AcDbLine
 10
-127.819741
 20
-32.884413
 30
0.0
 11
-127.819741
 21
-85.357564
 31
0.0
  0
LINE
  5
547
100
AcDbEntity
  8
0
370
    -3
  6
Continuous
100
AcDbLine
 10
-521.056131
 20
-76.321227
 30
0.0
 11
-527.420092
 21
-82.685188
 31
0.0
  0
ARC
  5
548
100
AcDbEntity
  8
0
370
    -3
  6
Continuous
100
AcDbCircle
 10
-518.997088
 20
-24.384413
 30
0.0
 40
1.0
100
AcDbArc
 50
23.111602
 51
90.0
  0
ARC
  5
549
100
AcDbEntity
  8
0
370
    -3
  6
Continuous
100
AcDbCircle
 10
-123.819741
 20
-21.884413
 30
0.0
 40
1.0
100
AcDbArc
 50
0.0
 51
90.0
  0
LINE
  5
54A
100
AcDbEntity
  8
0
370
    -3
  6
Continuous
100
AcDbLine
 10
-520.31445
 20
25.467575
 30
0.0
 11
-524.591665
 21
29.74479
 31
0.0
  0
ARC
  5
54B
100
AcDbEntity
  8
0
370
    -3
  6
Continuous
100
AcDbCircle
 10
-469.790889
 20
-3.384413
 30
0.0
 40
52.5
100
AcDbArc
 50
203.111602
 51
203.695081
  0
ARC
  5
54C
100
AcDbEntity
  8
0
370
    -3
  6
Continuous
100
AcDbCircle
 10
-126.819741
 20
-19.884413
 30
0.0
 40
1.0
100
AcDbArc
 50
180.0
 51
270.0
  0
ARC
  5
54D
100
AcDbEntity
  8
0
370
    -3
  6
Continuous
100
AcDbCircle
 10
-522.470345
 20
31.86611
 30
0.0
 40
3.0
100
AcDbArc
 50
135.0
 51
225.0
  0
LINE
  5
54E
100
AcDbEntity
  8
0
370
    -3
  6
Continuous
100
AcDbLine
 10
-522.590889
 20
-23.384413
 30
0.0
 11
-518.997088
 21
-23.384413
 31
0.0
  0
LINE
  5
54F
100
AcDbEntity
  8
0
370
    -3
  6
Continuous
100
AcDbLine
 10
-122.819741
 20
-33.884413
 30
0.0
 11
-122.819741
 21
-21.884413
 31
0.0
  0
ARC
  5
550
100
AcDbEntity
  8
0
370
    -3
  6
Continuous
100
AcDbCircle
 10
-529.541412
 20
24.795042
 30
0.0
 40
3.0
100
AcDbArc
 50
45.0
 51
135.0
  0
ARC
  5
551
100
AcDbEntity
  8
0
370
    -3
  6
Continuous
100
AcDbCircle
 10
-522.590889
 20
-22.684413
 30
0.0
 40
0.7
100
AcDbArc
 50
180.0
 51
270.0
  0
ARC
  5
552
100
AcDbEntity
  8
0
370
    -3
  6
Continuous
100
AcDbCircle
 10
-126.819741
 20
334.0
 30
0.0
 40
1.0
100
AcDbArc
 50
90.0
 51
180.0
  0
LINE
  5
553
100
AcDbEntity
  8
0
370
    -3
  6
Continuous
100
AcDbLine
 10
-126.819741
 20
-20.884413
 30
0.0
 11
-123.819741
 21
-20.884413
 31
0.0
  0
ARC
  5
554
100
AcDbEntity
  8
0
370
    -3
  6
Continuous
100
AcDbCircle
 10
-523.177451
 20
18.431081
 30
0.0
 40
3.0
100
AcDbArc
 50
37.295539
 51
45.0
  0
LINE
  5
555
100
AcDbEntity
  8
0
370
    -3
  6
Continuous
100
AcDbLine
 10
-523.290889
 20
-22.684413
 30
0.0
 11
-523.290889
 21
-3.384413
 31
0.0
  0
ARC
  5
556
100
AcDbEntity
  8
0
370
    -3
  6
Continuous
100
AcDbCircle
 10
-129.819741
 20
-18.757396
 30
0.0
 40
2.0
100
AcDbArc
 50
0.0
 51
75.522488
  0
LINE
  5
557
100
AcDbEntity
  8
0
370
    -3
  6
Continuous
100
AcDbLine
 10
-521.056131
 20
20.552402
 30
0.0
 11
-527.420092
 21
26.916363
 31
0.0
  0
LINE
  5
558
100
AcDbEntity
  8
0
370
    -3
  6
Continuous
100
AcDbLine
 10
-499.105058
 20
-47.415909
 30
0.0
 11
-498.789519
 21
-53.436749
 31
0.0
  0
LINE
  5
559
100
AcDbEntity
  8
0
370
    -3
  6
Continuous
100
AcDbLine
 10
-130.819741
 20
-14.884413
 30
0.0
 11
-130.819741
 21
-2.884413
 31
0.0
  0
ARC
  5
55A
100
AcDbEntity
  8
0
370
    -3
  6
Continuous
100
AcDbCircle
 10
-417.111434
 20
31.86611
 30
0.0
 40
3.0
100
AcDbArc
 50
315.0
 51
45.0
  0
LINE
  5
55B
100
AcDbEntity
  8
0
370
    -3
  6
Continuous
100
AcDbLine
 10
-501.006374
 20
-47.481727
 30
0.0
 11
-501.29226
 21
-52.936749
 31
0.0
  0
ARC
  5
55C
100
AcDbEntity
  8
0
370
    -3
  6
Continuous
100
AcDbCircle
 10
-128.819741
 20
-14.884413
 30
0.0
 40
2.0
100
AcDbArc
 50
180.0
 51
255.522488
  0
ARC
  5
55D
100
AcDbEntity
  8
0
370
    -3
  6
Continuous
100
AcDbCircle
 10
-502.290889
 20
-52.884413
 30
0.0
 40
1.0
100
AcDbArc
 50
183.0
 51
357.0
  0
ARC
  5
55E
100
AcDbEntity
  8
0
370
    -3
  6
Continuous
100
AcDbCircle
 10
-129.819741
 20
0.988571
 30
0.0
 40
2.0
100
AcDbArc
 50
284.477512
 51
360.0
  0
LINE
  5
55F
100
AcDbEntity
  8
0
370
    -3
  6
Continuous
100
AcDbLine
 10
-496.621704
 20
-50.182351
 30
0.0
 11
-496.79226
 21
-53.436749
 31
0.0
  0
ARC
  5
560
100
AcDbEntity
  8
0
370
    -3
  6
Continuous
100
AcDbCircle
 10
-128.819741
 20
-2.884413
 30
0.0
 40
2.0
100
AcDbArc
 50
104.477512
 51
180.0
  0
ARC
  5
561
100
AcDbEntity
  8
0
370
    -3
  6
Continuous
100
AcDbCircle
 10
-497.790889
 20
-53.384413
 30
0.0
 40
1.0
100
AcDbArc
 50
183.0
 51
357.0
  0
LINE
  5
562
100
AcDbEntity
  8
0
370
    -3
  6
Continuous
100
AcDbLine
 10
-127.819741
 20
300.0
 30
0.0
 11
-127.819741
 21
337.0
 31
0.0
  0
ARC
  5
563
100
AcDbEntity
  8
0
370
    -3
  6
Continuous
100
AcDbCircle
 10
-123.819741
 20
-33.884413
 30
0.0
 40
1.0
100
AcDbArc
 50
270.0
 51
0.0
  0
LINE
  5
564
100
AcDbEntity
  8
0
370
    -3
  6
Continuous
100
AcDbLine
 10
-492.235082
 20
-52.345726
 30
0.0
 11
-492.29226
 21
-53.436749
 31
0.0
  0
ARC
  5
565
100
AcDbEntity
  8
0
370
    -3
  6
Continuous
100
AcDbCircle
 10
-126.819741
 20
-35.884413
 30
0.0
 40
1.0
100
AcDbArc
 50
90.0
 51
180.0
  0
ARC
  5
566
100
AcDbEntity
  8
0
370
    -3
  6
Continuous
100
AcDbCircle
 10
-469.790889
 20
-396.884413
 30
0.0
 40
450.0
100
AcDbArc
 50
87.841597
 51
90.0
  0
ARC
  5
567
100
AcDbEntity
  8
0
370
    -3
  6
Continuous
100
AcDbCircle
 10
-488.790889
 20
-53.384413
 30
0.0
 40
1.0
100
AcDbArc
 50
183.0
 51
339.929668
  0
LINE
  5
568
100
AcDbEntity
  8
0
370
    -3
  6
Continuous
100
AcDbLine
 10
-116.819741
 20
379.5
 30
0.0
 11
-116.819741
 21
300.0
 31
0.0
  0
LINE
  5
569
100
AcDbEntity
  8
0
370
    -3
  6
Continuous
100
AcDbLine
 10
-126.819741
 20
-34.884413
 30
0.0
 11
-123.819741
 21
-34.884413
 31
0.0
  0
ARC
  5
56A
100
AcDbEntity
  8
0
370
    -3
  6
Continuous
100
AcDbCircle
 10
-469.790889
 20
-396.884413
 30
0.0
 40
450.0
100
AcDbArc
 50
90.0
 51
92.158403
  0
LINE
  5
56B
100
AcDbEntity
  8
0
370
    -3
  6
Continuous
100
AcDbLine
 10
-489.837622
 20
-52.518891
 30
0.0
 11
-489.789519
 21
-53.436749
 31
0.0
  0
ARC
  5
56C
100
AcDbEntity
  8
0
370
    -3
  6
Continuous
100
AcDbCircle
 10
-132.819741
 20
-92.308411
 30
0.0
 40
5.0
100
AcDbArc
 50
65.063485
 51
87.0
  0
ARC
  5
56D
100
AcDbEntity
  8
0
370
    -3
  6
Continuous
100
AcDbCircle
 10
-484.290889
 20
-12.157562
 30
0.0
 40
65.0
100
AcDbArc
 50
92.158403
 51
180.0
  0
ARC
  5
56E
100
AcDbEntity
  8
0
370
    -3
  6
Continuous
100
AcDbCircle
 10
-490.836251
 20
-52.571227
 30
0.0
 40
1.0
100
AcDbArc
 50
3.0
 51
66.835568
  0
ARC
  5
56F
100
AcDbEntity
  8
0
370
    -3
  6
Continuous
100
AcDbCircle
 10
-132.819741
 20
36.539585
 30
0.0
 40
5.0
100
AcDbArc
 50
273.0
 51
316.780153
  0
ARC
  5
570
100
AcDbEntity
  8
0
370
    -3
  6
Continuous
100
AcDbCircle
 10
-469.790889
 20
-27.884413
 30
0.0
 40
83.0
100
AcDbArc
 50
197.813976
 51
230.428105
  0
ARC
  5
571
100
AcDbEntity
  8
0
370
    -3
  6
Continuous
100
AcDbCircle
 10
-486.912345
 20
-54.070759
 30
0.0
 40
1.0
100
AcDbArc
 50
71.335429
 51
159.929668
  0
LINE
  5
572
100
AcDbEntity
  8
0
370
    -3
  6
Continuous
100
AcDbLine
 10
144.551407
 20
-83.484413
 30
0.0
 11
188.651407
 21
-83.484413
 31
0.0
  0
ARC
  5
573
100
AcDbEntity
  8
0
370
    -3
  6
Continuous
100
AcDbCircle
 10
-539.290889
 20
-50.217124
 30
0.0
 40
10.0
100
AcDbArc
 50
180.0
 51
197.813976
  0
ARC
  5
574
100
AcDbEntity
  8
0
370
    -3
  6
Continuous
100
AcDbCircle
 10
-491.236452
 20
-52.398062
 30
0.0
 40
1.0
100
AcDbArc
 50
66.36857
 51
177.0
  0
ARC
  5
575
100
AcDbEntity
  8
0
370
    -3
  6
Continuous
100
AcDbCircle
 10
144.551407
 20
-78.484413
 30
0.0
 40
5.0
100
AcDbArc
 50
180.0
 51
270.0
  0
LINE
  5
576
100
AcDbEntity
  8
0
370
    -3
  6
Continuous
100
AcDbLine
 10
-549.290889
 20
-12.157562
 30
0.0
 11
-549.290889
 21
-50.217124
 31
0.0
  0
ARC
  5
577
100
AcDbEntity
  8
0
370
    -3
  6
Continuous
100
AcDbCircle
 10
-495.453835
 20
-50.327604
 30
0.0
 40
1.0
100
AcDbArc
 50
3.0
 51
61.335416
  0
ARC
  5
578
100
AcDbEntity
  8
0
370
    -3
  6
Continuous
100
AcDbCircle
 10
232.751407
 20
-78.484413
 30
0.0
 40
5.0
100
AcDbArc
 50
270.0
 51
0.0
  0
LINE
  5
579
100
AcDbEntity
  8
0
370
    -3
  6
Continuous
100
AcDbLine
 10
-494.455205
 20
-50.275268
 30
0.0
 11
-494.289519
 21
-53.436749
 31
0.0
  0
LINE
  5
57A
100
AcDbEntity
  8
0
370
    -3
  6
Continuous
100
AcDbLine
 10
-126.819754
 20
263.0
 30
0.0
 11
-126.819755
 21
263.0
 31
0.0
  0
LINE
  5
57B
100
AcDbEntity
  8
0
370
    -3
  6
Continuous
100
AcDbLine
 10
232.751407
 20
-83.484413
 30
0.0
 11
188.651407
 21
-83.484413
 31
0.0
  0
ARC
  5
57C
100
AcDbEntity
  8
0
370
    -3
  6
Continuous
100
AcDbCircle
 10
-495.623075
 20
-50.234687
 30
0.0
 40
1.0
100
AcDbArc
 50
61.128648
 51
177.0
  0
ARC
  5
57D
100
AcDbEntity
  8
0
370
    -3
  6
Continuous
100
AcDbCircle
 10
-132.819741
 20
235.576002
 30
0.0
 40
5.0
100
AcDbArc
 50
0.0
 51
87.0
  0
ARC
  5
57E
100
AcDbEntity
  8
0
370
    -3
  6
Continuous
100
AcDbCircle
 10
131.082418
 20
-85.884413
 30
0.0
 40
3.0
100
AcDbArc
 50
270.0
 51
0.0
  0
LINE
  5
57F
100
AcDbEntity
  8
0
370
    -3
  6
Continuous
100
AcDbLine
 10
-419.267328
 20
25.467575
 30
0.0
 11
-414.990114
 21
29.74479
 31
0.0
  0
ARC
  5
580
100
AcDbEntity
  8
0
370
    -3
  6
Continuous
100
AcDbCircle
 10
-400.290889
 20
-50.217124
 30
0.0
 40
10.0
100
AcDbArc
 50
342.186024
 51
0.0
  0
ARC
  5
581
100
AcDbEntity
  8
0
370
    -3
  6
Continuous
100
AcDbCircle
 10
-493.290889
 20
-53.384413
 30
0.0
 40
1.0
100
AcDbArc
 50
183.0
 51
357.0
  0
INSERT
  5
58A
100
AcDbEntity
  8
0
100
AcDbBlockReference
  2
ZU_SYM__USERS_HOME_SYMBOL_POO_SYM_B20_00016-1
 10
-122.819741
 20
258.0
 30
0.0
 41
-1.0
 50
180.0
  0
ARC
  5
58B
100
AcDbEntity
  8
0
370
    -3
  6
Continuous
100
AcDbCircle
 10
246.220397
 20
-85.884413
 30
0.0
 40
3.0
100
AcDbArc
 50
180.0
 51
270.0
  0
ARC
  5
58C
100
AcDbEntity
  8
0
370
    -3
  6
Continuous
100
AcDbCircle
 10
-416.404327
 20
18.431081
 30
0.0
 40
3.0
100
AcDbArc
 50
135.0
 51
142.704461
  0
ARC
  5
58D
100
AcDbEntity
  8
0
370
    -3
  6
Continuous
100
AcDbCircle
 10
-469.790889
 20
-27.884413
 30
0.0
 40
83.0
100
AcDbArc
 50
309.571895
 51
342.186024
  0
ARC
  5
58E
100
AcDbEntity
  8
0
370
    -3
  6
Continuous
100
AcDbCircle
 10
-469.790889
 20
-3.384413
 30
0.0
 40
52.5
100
AcDbArc
 50
241.026551
 51
241.437166
  0
ARC
  5
58F
100
AcDbEntity
  8
0
370
    -3
  6
Continuous
100
AcDbCircle
 10
106.151407
 20
-86.68826
 30
0.0
 40
3.0
100
AcDbArc
 50
300.0
 51
0.0
  0
LINE
  5
590
100
AcDbEntity
  8
0
370
    -3
  6
CENTER
100
AcDbLine
 10
-489.516909
 20
-1.884413
 30
0.0
 11
-448.890616
 21
-1.884413
 31
0.0
  0
ARC
  5
591
100
AcDbEntity
  8
0
370
    -3
  6
Continuous
100
AcDbCircle
 10
-469.790889
 20
-3.384413
 30
0.0
 40
52.5
100
AcDbArc
 50
251.335429
 51
254.122298
  0
ARC
  5
592
100
AcDbEntity
  8
0
370
    -3
  6
Continuous
100
AcDbCircle
 10
271.151407
 20
-86.68826
 30
0.0
 40
3.0
100
AcDbArc
 50
180.0
 51
240.0
  0
LINE
  5
593
100
AcDbEntity
  8
0
370
    -3
  6
Continuous
100
AcDbLine
 10
-418.525648
 20
20.552402
 30
0.0
 11
-414.712132
 21
24.365918
 31
0.0
  0
LINE
  5
594
100
AcDbEntity
  8
0
370
    -3
  6
CENTER
100
AcDbLine
 10
-469.790889
 20
55.688387
 30
0.0
 11
-469.790889
 21
-1.884413
 31
0.0
  0
ARC
  5
595
100
AcDbEntity
  8
0
370
    -3
  6
Continuous
100
AcDbCircle
 10
-469.790889
 20
44.115587
 30
0.0
 40
100.0
100
AcDbArc
 50
262.20215
 51
270.0
  0
LINE
  5
596
100
AcDbEntity
  8
0
370
    -3
  6
Continuous
100
AcDbLine
 10
271.151407
 20
-106.884413
 30
0.0
 11
243.151407
 21
-106.884413
 31
0.0
  0
LINE
  5
597
100
AcDbEntity
  8
0
370
    -3
  6
CENTER
100
AcDbLine
 10
-469.790889
 20
55.688387
 30
0.0
 11
-469.790889
 21
-1.884413
 31
0.0
  0
ARC
  5
598
100
AcDbEntity
  8
0
370
    -3
  6
Continuous
100
AcDbCircle
 10
-483.290889
 20
-54.46433
 30
0.0
 40
0.5
100
AcDbArc
 50
180.0
 51
262.20215
  0
LINE
  5
599
100
AcDbEntity
  8
0
370
    -3
  6
CENTER
100
AcDbLine
 10
258.651407
 20
-110.464916
 30
0.0
 11
258.651407
 21
-80.229096
 31
0.0
  0
LINE
  5
59A
100
AcDbEntity
  8
0
370
    -3
  6
CENTER
100
AcDbLine
 10
-469.790889
 20
55.688387
 30
0.0
 11
-469.790889
 21
-107.176431
 31
0.0
  0
LINE
  5
59B
100
AcDbEntity
  8
0
370
    -3
  6
Continuous
100
AcDbLine
 10
-483.790889
 20
-54.46433
 30
0.0
 11
-483.790889
 21
-54.362349
 31
0.0
  0
ARC
  5
59C
100
AcDbEntity
  8
0
370
    -3
  6
Continuous
100
AcDbCircle
 10
136.151407
 20
-106.884413
 30
0.0
 40
2.0
100
AcDbArc
 50
90.0
 51
180.0
  0
LINE
  5
59D
100
AcDbEntity
  8
0
370
    -3
  6
Continuous
100
AcDbLine
 10
-387.290889
 20
-106.384413
 30
0.0
 11
-415.290889
 21
-106.384413
 31
0.0
  0
ARC
  5
59E
100
AcDbEntity
  8
0
370
    -3
  6
Continuous
100
AcDbCircle
 10
-484.290889
 20
-54.362349
 30
0.0
 40
0.5
100
AcDbArc
 50
0.0
 51
74.122298
  0
LINE
  5
59F
100
AcDbEntity
  8
0
370
    -3
  6
Continuous
100
AcDbLine
 10
106.151407
 20
-106.884413
 30
0.0
 11
134.151407
 21
-106.884413
 31
0.0
  0
LINE
  5
5A0
100
AcDbEntity
  8
0
370
    -3
  6
Continuous
100
AcDbLine
 10
-524.290889
 20
-106.384413
 30
0.0
 11
-552.290889
 21
-106.384413
 31
0.0
  0
ARC
  5
5A1
100
AcDbEntity
  8
0
370
    -3
  6
Continuous
100
AcDbCircle
 10
-500.007745
 20
-47.534063
 30
0.0
 40
1.0
100
AcDbArc
 50
58.884247
 51
177.0
  0
LINE
  5
5A2
100
AcDbEntity
  8
0
370
    -3
  6
Continuous
100
AcDbLine
 10
106.151407
 20
-91.884413
 30
0.0
 11
106.151407
 21
-106.884413
 31
0.0
  0
LINE
  5
5A3
100
AcDbEntity
  8
0
370
    -3
  6
Continuous
100
AcDbLine
 10
-524.290889
 20
-106.884413
 30
0.0
 11
-552.290889
 21
-106.884413
 31
0.0
  0
ARC
  5
5A4
100
AcDbEntity
  8
0
370
    -3
  6
Continuous
100
AcDbCircle
 10
-500.103687
 20
-47.468245
 30
0.0
 40
1.0
100
AcDbArc
 50
3.0
 51
52.214197
  0
ARC
  5
5A5
100
AcDbEntity
  8
0
370
    -3
  6
Continuous
100
AcDbCircle
 10
109.151407
 20
-91.884413
 30
0.0
 40
3.0
100
AcDbArc
 50
90.0
 51
180.0
  0
ARC
  5
5A6
100
AcDbEntity
  8
0
370
    -3
  6
Continuous
100
AcDbCircle
 10
-552.290889
 20
-86.68826
 30
0.0
 40
3.0
100
AcDbArc
 50
300.0
 51
0.0
  0
ARC
  5
5A7
100
AcDbEntity
  8
0
370
    -3
  6
Continuous
100
AcDbCircle
 10
-469.790889
 20
-3.384413
 30
0.0
 40
52.5
100
AcDbArc
 50
246.336295
 51
246.863111
  0
LINE
  5
5A8
100
AcDbEntity
  8
0
370
    -3
  6
Continuous
100
AcDbLine
 10
109.151407
 20
-88.884413
 30
0.0
 11
188.651407
 21
-88.884413
 31
0.0
  0
ARC
  5
5A9
100
AcDbEntity
  8
0
370
    -3
  6
Continuous
100
AcDbCircle
 10
-387.290889
 20
-86.68826
 30
0.0
 40
3.0
100
AcDbArc
 50
180.0
 51
240.0
  0
LINE
  5
5AA
100
AcDbEntity
  8
0
370
    -3
  6
Continuous
100
AcDbLine
 10
-497.989531
 20
-39.475778
 30
0.0
 11
-509.132003
 21
-49.508505
 31
0.0
  0
ARC
  5
5AB
100
AcDbEntity
  8
0
370
    -3
  6
Continuous
100
AcDbCircle
 10
-126.819741
 20
250.0
 30
0.0
 40
1.0
100
AcDbArc
 50
90.0
 51
180.0
  0
LINE
  5
5AC
100
AcDbEntity
  8
0
370
    -3
  6
CENTER
100
AcDbLine
 10
118.651407
 20
-110.464916
 30
0.0
 11
118.651407
 21
-80.729096
 31
0.0
  0
ARC
  5
5AD
100
AcDbEntity
  8
0
370
    -3
  6
Continuous
100
AcDbCircle
 10
-531.637474
 20
-91.884413
 30
0.0
 40
3.0
100
AcDbArc
 50
45.980317
 51
90.0
  0
LINE
  5
5AE
100
AcDbEntity
  8
0
370
    -3
  6
Continuous
100
AcDbLine
 10
-505.882254
 20
-31.583054
 30
0.0
 11
-515.914981
 21
-42.725526
 31
0.0
  0
LINE
  5
5AF
100
AcDbEntity
  8
0
370
    -3
  6
Continuous
100
AcDbLine
 10
-126.819754
 20
263.0
 30
0.0
 11
-126.819755
 21
263.0
 31
0.0
  0
LINE
  5
5B0
100
AcDbEntity
  8
0
370
    -3
  6
Continuous
100
AcDbLine
 10
271.151407
 20
-91.884413
 30
0.0
 11
271.151407
 21
-106.884413
 31
0.0
  0
ARC
  5
5B1
100
AcDbEntity
  8
0
370
    -3
  6
Continuous
100
AcDbCircle
 10
-527.290889
 20
-95.816364
 30
0.0
 40
3.0
100
AcDbArc
 50
0.0
 51
49.754246
  0
ARC
  5
5B2
100
AcDbEntity
  8
0
370
    -3
  6
Continuous
100
AcDbCircle
 10
-513.191926
 20
31.437965
 30
0.0
 40
1.0
100
AcDbArc
 50
273.0
 51
42.0
  0
ARC
  5
5B3
100
AcDbEntity
  8
0
370
    -3
  6
Continuous
100
AcDbCircle
 10
-126.819741
 20
266.0
 30
0.0
 40
1.0
100
AcDbArc
 50
180.0
 51
270.0
  0
ARC
  5
5B4
100
AcDbEntity
  8
0
370
    -3
  6
Continuous
100
AcDbCircle
 10
268.151407
 20
-91.884413
 30
0.0
 40
3.0
100
AcDbArc
 50
0.0
 51
90.0
  0
ARC
  5
5B5
100
AcDbEntity
  8
0
370
    -3
  6
Continuous
100
AcDbCircle
 10
-412.290889
 20
-95.816364
 30
0.0
 40
3.0
100
AcDbArc
 50
130.245754
 51
180.0
  0
LINE
  5
5B6
100
AcDbEntity
  8
0
370
    -3
  6
Continuous
100
AcDbLine
 10
-513.13959
 20
30.439336
 30
0.0
 11
-519.343225
 21
30.114217
 31
0.0
  0
LINE
  5
5B7
100
AcDbEntity
  8
0
370
    -3
  6
Continuous
100
AcDbLine
 10
-126.819741
 20
265.0
 30
0.0
 11
-123.819741
 21
265.0
 31
0.0
  0
LINE
  5
5B8
100
AcDbEntity
  8
0
370
    -3
  6
Continuous
100
AcDbLine
 10
268.151407
 20
-88.884413
 30
0.0
 11
188.651407
 21
-88.884413
 31
0.0
  0
ARC
  5
5B9
100
AcDbEntity
  8
0
370
    -3
  6
Continuous
100
AcDbCircle
 10
-407.944305
 20
-91.884413
 30
0.0
 40
3.0
100
AcDbArc
 50
90.0
 51
134.019683
  0
ARC
  5
5BA
100
AcDbEntity
  8
0
370
    -3
  6
Continuous
100
AcDbCircle
 10
-469.790889
 20
-3.384413
 30
0.0
 40
61.5
100
AcDbArc
 50
131.401106
 51
138.598894
  0
ARC
  5
5BB
100
AcDbEntity
  8
0
370
    -3
  6
Continuous
100
AcDbCircle
 10
-123.819741
 20
264.0
 30
0.0
 40
1.0
100
AcDbArc
 50
0.0
 51
90.0
  0
ARC
  5
5BC
100
AcDbEntity
  8
0
370
    -3
  6
Continuous
100
AcDbCircle
 10
241.151407
 20
-106.884413
 30
0.0
 40
2.0
100
AcDbArc
 50
0.0
 51
90.0
  0
POINT
  5
5BD
100
AcDbEntity
  8
0
370
    -3
  6
CENTER
100
AcDbPoint
 10
-469.790889
 20
-27.884413
 30
0.0
  0
ARC
  5
5BE
100
AcDbEntity
  8
0
370
    -3
  6
Continuous
100
AcDbCircle
 10
-515.171836
 20
36.625832
 30
0.0
 40
1.0
100
AcDbArc
 50
138.598894
 51
222.0
  0
LINE
  5
5BF
100
AcDbEntity
  8
0
370
    -3
  6
Continuous
100
AcDbLine
 10
-126.819741
 20
251.0
 30
0.0
 11
-123.819741
 21
251.0
 31
0.0
  0
ARC
  5
5C0
100
AcDbEntity
  8
0
370
    -3
  6
Continuous
100
AcDbCircle
 10
263.756888
 20
-85.884413
 30
0.0
 40
3.0
100
AcDbArc
 50
180.0
 51
270.0
  0
POINT
  5
5C1
100
AcDbEntity
  8
0
370
    -3
  6
CENTER
100
AcDbPoint
 10
-469.790889
 20
-1.884413
 30
0.0
  0
ARC
  5
5C2
100
AcDbEntity
  8
0
370
    -3
  6
Continuous
100
AcDbCircle
 10
-504.613267
 20
40.016624
 30
0.0
 40
1.0
100
AcDbArc
 50
228.0
 51
357.0
  0
LINE
  5
5C3
100
AcDbEntity
  8
0
370
    -3
  6
Continuous
100
AcDbLine
 10
-122.819741
 20
264.0
 30
0.0
 11
-122.819741
 21
252.0
 31
0.0
  0
ARC
  5
5C4
100
AcDbEntity
  8
0
370
    -3
  6
Continuous
100
AcDbCircle
 10
113.545927
 20
-85.884413
 30
0.0
 40
3.0
100
AcDbArc
 50
270.0
 51
0.0
  0
LINE
  5
5C5
100
AcDbEntity
  8
0
370
    -3
  6
CENTER
100
AcDbLine
 10
-369.556698
 20
-3.384413
 30
0.0
 11
-564.045997
 21
-3.384413
 31
0.0
  0
LINE
  5
5C6
100
AcDbEntity
  8
0
370
    -3
  6
Continuous
100
AcDbLine
 10
-503.614638
 20
39.964288
 30
0.0
 11
-503.289519
 21
46.167923
 31
0.0
  0
ARC
  5
5C7
100
AcDbEntity
  8
0
370
    -3
  6
Continuous
100
AcDbCircle
 10
-123.819741
 20
252.0
 30
0.0
 40
1.0
100
AcDbArc
 50
270.0
 51
0.0
  0
ARC
  5
5C8
100
AcDbEntity
  8
0
370
    -3
  6
Continuous
100
AcDbCircle
 10
246.454996
 20
-85.884413
 30
0.0
 40
3.0
100
AcDbArc
 50
180.0
 51
270.0
  0
LINE
  5
5C9
100
AcDbEntity
  8
0
370
    -3
  6
Continuous
100
AcDbLine
 10
-270.319741
 20
350.5
 30
0.0
 11
-191.319741
 21
350.5
 31
0.0
  0
LINE
  5
5CA
100
AcDbEntity
  8
0
370
    -3
  6
Continuous
100
AcDbLine
 10
-270.319741
 20
351.0
 30
0.0
 11
-191.319741
 21
351.0
 31
0.0
  0
LINE
  5
5CB
100
AcDbEntity
  8
0
370
    -3
  6
Continuous
100
AcDbLine
 10
-270.319741
 20
352.5
 30
0.0
 11
-270.319741
 21
350.25
 31
0.0
  0
LINE
  5
5CC
100
AcDbEntity
  8
0
370
    -3
  6
Continuous
100
AcDbLine
 10
-270.319741
 20
351.75
 30
0.0
 11
-270.319741
 21
352.5
 31
0.0
  0
ARC
  5
5CD
100
AcDbEntity
  8
0
370
    -3
  6
Continuous
100
AcDbCircle
 10
-28.819741
 20
352.833872
 30
0.0
 40
2.0
100
AcDbArc
 50
0.0
 51
89.0
  0
ARC
  5
5CE
100
AcDbEntity
  8
0
370
    -3
  6
Continuous
100
AcDbCircle
 10
-38.319741
 20
370.0
 30
0.0
 40
15.0
100
AcDbArc
 50
181.0
 51
270.0
  0
LINE
  5
5CF
100
AcDbEntity
  8
0
370
    -3
  6
Continuous
100
AcDbLine
 10
-38.319741
 20
355.0
 30
0.0
 11
-28.784836
 21
354.833568
 31
0.0
  0
LINE
  5
5D0
100
AcDbEntity
  8
0
370
    -3
  6
Continuous
100
AcDbLine
 10
-191.319741
 20
353.5
 30
0.0
 11
-270.319741
 21
353.5
 31
0.0
  0
LINE
  5
5D1
100
AcDbEntity
  8
0
370
    -3
  6
Continuous
100
AcDbLine
 10
-270.319741
 20
340.432447
 30
0.0
 11
-191.319741
 21
340.432447
 31
0.0
  0
LINE
  5
5D2
100
AcDbEntity
  8
0
370
    -3
  6
Continuous
100
AcDbLine
 10
-270.319741
 20
347.326597
 30
0.0
 11
-191.319741
 21
347.326597
 31
0.0
  0
INSERT
  5
5E2
100
AcDbEntity
  8
0
100
AcDbBlockReference
  2
ZU_SYM__USERS_HOME_SYMBOL_STD_SYM_B01_00017-1
 10
-155.319749
 20
344.194174
 30
0.0
 41
-1.0
 50
180.0
  0
ARC
  5
5E3
100
AcDbEntity
  8
0
370
    -3
  6
Continuous
100
AcDbCircle
 10
-153.319741
 20
357.287624
 30
0.0
 40
2.0
100
AcDbArc
 50
93.0
 51
180.0
  0
LINE
  5
5E4
100
AcDbEntity
  8
0
370
    -3
  6
Continuous
100
AcDbLine
 10
-149.319741
 20
357.3
 30
0.0
 11
-149.319741
 21
359.5
 31
0.0
  0
ARC
  5
5E5
100
AcDbEntity
  8
0
370
    -3
  6
Continuous
100
AcDbCircle
 10
-156.319741
 20
356.129029
 30
0.0
 40
3.0
100
AcDbArc
 50
93.0
 51
180.0
  0
LINE
  5
5E6
100
AcDbEntity
  8
0
370
    -3
  6
Continuous
100
AcDbLine
 10
-191.319741
 20
353.5
 30
0.0
 11
-162.319741
 21
353.5
 31
0.0
  0
ARC
  5
5E7
100
AcDbEntity
  8
0
370
    -3
  6
Continuous
100
AcDbCircle
 10
-181.319741
 20
348.5
 30
0.0
 40
5.0
100
AcDbArc
 50
0.0
 51
90.0
  0
LINE
  5
5E8
100
AcDbEntity
  8
0
370
    -3
  6
Continuous
100
AcDbLine
 10
-191.319741
 20
351.0
 30
0.0
 11
-181.319741
 21
351.0
 31
0.0
  0
ARC
  5
5E9
100
AcDbEntity
  8
0
370
    -3
  6
Continuous
100
AcDbCircle
 10
-181.319741
 20
346.0
 30
0.0
 40
5.0
100
AcDbArc
 50
0.0
 51
90.0
  0
ARC
  5
5EA
100
AcDbEntity
  8
0
370
    -3
  6
Continuous
100
AcDbCircle
 10
-162.319741
 20
356.5
 30
0.0
 40
3.0
100
AcDbArc
 50
270.0
 51
0.0
  0
LINE
  5
5EB
100
AcDbEntity
  8
0
370
    -3
  6
Continuous
100
AcDbLine
 10
-161.819741
 20
380.564697
 30
0.0
 11
-161.819741
 21
356.435303
 31
0.0
  0
ARC
  5
5EC
100
AcDbEntity
  8
0
370
    -3
  6
Continuous
100
AcDbCircle
 10
-159.819741
 20
356.435303
 30
0.0
 40
2.0
100
AcDbArc
 50
180.0
 51
261.315089
  0
LINE
  5
5ED
100
AcDbEntity
  8
0
370
    -3
  6
Continuous
100
AcDbLine
 10
-126.819754
 20
337.0
 30
0.0
 11
-126.819755
 21
337.0
 31
0.0
  0
INSERT
  5
5F6
100
AcDbEntity
  8
0
100
AcDbBlockReference
  2
ZU_SYM__USERS_HOME_SYMBOL_POO_SYM_B20_00018-1
 10
-122.819741
 20
342.0
 30
0.0
  0
ARC
  5
5F7
100
AcDbEntity
  8
0
370
    -3
  6
Continuous
100
AcDbCircle
 10
-126.819741
 20
350.0
 30
0.0
 40
1.0
100
AcDbArc
 50
180.0
 51
270.0
  0
LINE
  5
5F8
100
AcDbEntity
  8
0
370
    -3
  6
Continuous
100
AcDbLine
 10
-126.819754
 20
337.0
 30
0.0
 11
-126.819755
 21
337.0
 31
0.0
  0
LINE
  5
5F9
100
AcDbEntity
  8
0
370
    -3
  6
Continuous
100
AcDbLine
 10
-126.819741
 20
335.0
 30
0.0
 11
-123.819741
 21
335.0
 31
0.0
  0
ARC
  5
5FA
100
AcDbEntity
  8
0
370
    -3
  6
Continuous
100
AcDbCircle
 10
-123.819741
 20
336.0
 30
0.0
 40
1.0
100
AcDbArc
 50
270.0
 51
0.0
  0
LINE
  5
5FB
100
AcDbEntity
  8
0
370
    -3
  6
Continuous
100
AcDbLine
 10
-126.819741
 20
349.0
 30
0.0
 11
-123.819741
 21
349.0
 31
0.0
  0
LINE
  5
5FC
100
AcDbEntity
  8
0
370
    -3
  6
Continuous
100
AcDbLine
 10
-122.819741
 20
336.0
 30
0.0
 11
-122.819741
 21
348.0
 31
0.0
  0
ARC
  5
5FD
100
AcDbEntity
  8
0
370
    -3
  6
Continuous
100
AcDbCircle
 10
-123.819741
 20
348.0
 30
0.0
 40
1.0
100
AcDbArc
 50
0.0
 51
90.0
  0
LINE
  5
5FE
100
AcDbEntity
  8
0
370
    -3
  6
Continuous
100
AcDbLine
 10
-127.819741
 20
347.0
 30
0.0
 11
-127.819741
 21
377.5
 31
0.0
  0
LINE
  5
5FF
100
AcDbEntity
  8
0
370
    -3
  6
Continuous
100
AcDbLine
 10
-149.319741
 20
359.5
 30
0.0
 11
-156.476749
 21
359.124917
 31
0.0
  0
LINE
  5
600
100
AcDbEntity
  8
0
370
    -3
  6
CENTER
100
AcDbLine
 10
-148.319741
 20
359.0
 30
0.0
 11
-148.319741
 21
381.0
 31
0.0
  0
CIRCLE
  5
601
100
AcDbEntity
  8
0
370
    -3
  6
Continuous
100
AcDbCircle
 10
-148.319741
 20
370.0
 30
0.0
 40
6.0
  0
LINE
  5
602
100
AcDbEntity
  8
0
370
    -3
  6
CENTER
100
AcDbLine
 10
-137.319741
 20
370.0
 30
0.0
 11
-159.319741
 21
370.0
 31
0.0
  0
LINE
  5
603
100
AcDbEntity
  8
0
370
    -3
  6
Continuous
100
AcDbLine
 10
-132.558061
 20
359.43085
 30
0.0
 11
-149.319741
 21
358.552408
 31
0.0
  0
ARC
  5
604
100
AcDbEntity
  8
0
370
    -3
  6
Continuous
100
AcDbCircle
 10
-132.819741
 20
364.423998
 30
0.0
 40
5.0
100
AcDbArc
 50
273.0
 51
0.0
  0
ARC
  5
605
100
AcDbEntity
  8
0
370
    -3
  6
Continuous
100
AcDbCircle
 10
-128.819741
 20
377.5
 30
0.0
 40
2.0
100
AcDbArc
 50
90.0
 51
180.0
  0
LINE
  5
606
100
AcDbEntity
  8
0
370
    -3
  6
Continuous
100
AcDbLine
 10
-116.819741
 20
379.5
 30
0.0
 11
-128.819741
 21
379.5
 31
0.0
  0
ARC
  5
607
100
AcDbEntity
  8
0
370
    -3
  6
Continuous
100
AcDbCircle
 10
-125.819741
 20
377.5
 30
0.0
 40
2.0
100
AcDbArc
 50
90.0
 51
180.0
  0
LINE
  5
608
100
AcDbEntity
  8
0
370
    -3
  6
Continuous
100
AcDbLine
 10
-130.819741
 20
364.266775
 30
0.0
 11
-130.819741
 21
377.5
 31
0.0
  0
ARC
  5
609
100
AcDbEntity
  8
0
370
    -3
  6
Continuous
100
AcDbCircle
 10
-135.819741
 20
364.266775
 30
0.0
 40
5.0
100
AcDbArc
 50
273.0
 51
0.0
  0
ARC
  5
60A
100
AcDbEntity
  8
0
370
    -3
  6
Continuous
100
AcDbCircle
 10
-55.371462
 20
372.814705
 30
0.0
 40
2.0
100
AcDbArc
 50
1.0
 51
69.480948
  0
LINE
  5
60B
100
AcDbEntity
  8
0
370
    -3
  6
Continuous
100
AcDbLine
 10
-53.317457
 20
369.738214
 30
0.0
 11
-53.371766
 21
372.84961
 31
0.0
  0
ARC
  5
60C
100
AcDbEntity
  8
0
370
    -3
  6
Continuous
100
AcDbCircle
 10
-26.819741
 20
380.534605
 30
0.0
 40
2.0
100
AcDbArc
 50
0.0
 51
89.0
  0
ARC
  5
60D
100
AcDbEntity
  8
0
370
    -3
  6
Continuous
100
AcDbCircle
 10
-159.819741
 20
380.564697
 30
0.0
 40
2.0
100
AcDbArc
 50
91.883723
 51
180.0
  0
LINE
  5
60E
100
AcDbEntity
  8
0
370
    -3
  6
CENTER
100
AcDbLine
 10
-27.319741
 20
370.0
 30
0.0
 11
-49.319741
 21
370.0
 31
0.0
  0
LINE
  5
60F
100
AcDbEntity
  8
0
370
    -3
  6
Continuous
100
AcDbLine
 10
-114.319741
 20
384.062228
 30
0.0
 11
-26.784836
 21
382.534301
 31
0.0
  0
LINE
  5
610
100
AcDbEntity
  8
0
370
    -3
  6
Continuous
100
AcDbLine
 10
-116.319741
 20
379.5
 30
0.0
 11
-76.319741
 21
378.801797
 31
0.0
  0
ARC
  5
611
100
AcDbEntity
  8
0
370
    -3
  6
Continuous
100
AcDbCircle
 10
-77.454148
 20
313.811697
 30
0.0
 40
65.0
100
AcDbArc
 50
69.480948
 51
89.0
  0
LINE
  5
612
100
AcDbEntity
  8
0
370
    -3
  6
Continuous
100
AcDbLine
 10
-159.885484
 20
382.563616
 30
0.0
 11
-114.319741
 21
384.062228
 31
0.0
  0
CIRCLE
  5
613
100
AcDbEntity
  8
0
370
    -3
  6
Continuous
100
AcDbCircle
 10
-38.319741
 20
370.0
 30
0.0
 40
6.0
  0
LINE
  5
614
100
AcDbEntity
  8
0
370
    -3
  6
CENTER
100
AcDbLine
 10
-38.319741
 20
359.0
 30
0.0
 11
-38.319741
 21
381.0
 31
0.0
  0
ENDSEC
  0
SECTION
  2
OBJECTS
  0
DICTIONARY
  5
19
100
AcDbDictionary
280
     0
281
     1
  3
ACAD_GROUP
350
1A
  3
ACAD_MLINESTYLE
350
1B
  3
ACAD_LAYOUT
350
1E
  3
ACAD_PLOTSETTINGS
350
22
  3
ACAD_PLOTSTYLENAME
350
1F
  3
ACAD_WIPEOUT_VARS
350
23
  3
DWGPROPS
350
615
  0
DICTIONARY
  5
1A
102
{ACAD_REACTORS
330
19
102
}
100
AcDbDictionary
280
     0
281
     1
  0
DICTIONARY
  5
1B
102
{ACAD_REACTORS
330
19
102
}
100
AcDbDictionary
280
     0
281
     1
  3
Standard
350
1C
  0
MLINESTYLE
  5
1C
102
{ACAD_REACTORS
330
1B
102
}
100
AcDbMlineStyle
  2
Standard
 70
     0
  3

 62
     0
 51
90.0
 52
90.0
 71
     2
 49
0.5
 62
   256
  6
ByLayer
 49
-0.5
 62
   256
  6
ByLayer
  0
ACDBDICTIONARYWDFLT
  5
1F
102
{ACAD_REACTORS
330
19
102
}
100
AcDbDictionary
281
     1
  3
Normal
350
1D
100
AcDbDictionaryWithDefault
340
1D
  0
ACDBPLACEHOLDER
  5
1D
102
{ACAD_REACTORS
330
1F
102
}
  0
LAYOUT
  5
20
102
{ACAD_REACTORS
330
1E
102
}
100
AcDbPlotSettings
  1

  2

  4

  6

 40
0.0
 41
0.0
 42
0.0
 43
0.0
 44
0.0
 45
0.0
 46
0.0
 47
0.0
 48
0.0
 49
0.0
140
0.0
141
0.0
142
1.0
143
1.0
 70
  1024
 72
     0
 73
     0
 74
     0
  7

 75
     0
147
1.0
148
0.0
149
0.0
100
AcDbLayout
  1
Model
 70
     0
 71
     0
 10
0.0
 20
0.0
 11
0.0
 21
0.0
 12
0.0
 22
0.0
 32
0.0
 14
0.0
 24
0.0
 34
0.0
 15
0.0
 25
0.0
 35
0.0
146
0.0
 13
0.0
 23
0.0
 33
0.0
 16
0.0
 26
0.0
 36
0.0
 17
0.0
 27
0.0
 37
0.0
 76
     0
330
A
331
0
345
0
346
0
  0
LAYOUT
  5
21
102
{ACAD_REACTORS
330
1E
102
}
100
AcDbPlotSettings
  1

  2

  4

  6

 40
0.0
 41
0.0
 42
0.0
 43
0.0
 44
0.0
 45
0.0
 46
0.0
 47
0.0
 48
0.0
 49
0.0
140
0.0
141
0.0
142
1.0
143
1.0
 70
     0
 72
     0
 73
     0
 74
     0
  7

 75
     0
147
1.0
148
0.0
149
0.0
100
AcDbLayout
  1
Layout1
 70
     0
 71
     0
 10
0.0
 20
0.0
 11
0.0
 21
0.0
 12
0.0
 22
0.0
 32
0.0
 14
0.0
 24
0.0
 34
0.0
 15
0.0
 25
0.0
 35
0.0
146
0.0
 13
0.0
 23
0.0
 33
0.0
 16
0.0
 26
0.0
 36
0.0
 17
0.0
 27
0.0
 37
0.0
 76
     0
330
B
331
0
345
0
346
0
  0
DICTIONARY
  5
1E
102
{ACAD_REACTORS
330
19
102
}
100
AcDbDictionary
280
     0
281
     1
  3
Layout1
350
21
  3
Model
350
20
  0
DICTIONARY
  5
22
102
{ACAD_REACTORS
330
19
102
}
100
AcDbDictionary
280
     0
281
     1
  0
WIPEOUTVARIABLES
  5
23
100
AcDbWipeoutVariables
 70
     1
  0
XRECORD
  5
615
100
AcDbXrecord
280
     1
  1
DWGPROPS COOKIE
  2

  3

  4

  6

  7

  8
HK96464
  9

300
=
301
=
302
=
303
=
304
=
305
=
306
=
307
=
308
=
309
=
 40
0.0
 41
2455931.627928
 42
2455931.627928
  1

 90
        0
  0
ENDSEC
  0
EOF
