  0
SECTION
  2
HEADER
  9
$ACADVER
  1
AC1015
  9
$ACADMAINTVER
 70
     6
  9
$DWGCODEPAGE
  3
ANSI_932
  9
$INSBASE
 10
0.0
 20
0.0
 30
0.0
  9
$EXTMIN
 10
1.000000E+20
 20
1.000000E+20
 30
1.000000E+20
  9
$EXTMAX
 10
-1.000000E+20
 20
-1.000000E+20
 30
-1.000000E+20
  9
$LIMMIN
 10
0.0
 20
0.0
  9
$LIMMAX
 10
0.0
 20
0.0
  9
$ORTHOMODE
 70
     0
  9
$REGENMODE
 70
     1
  9
$FILLMODE
 70
     1
  9
$QTEXTMODE
 70
     0
  9
$MIRRTEXT
 70
     1
  9
$LTSCALE
 40
1.0
  9
$ATTMODE
 70
     1
  9
$TEXTSIZE
 40
7.0
  9
$TRACEWID
 40
0.05
  9
$TEXTSTYLE
  7
Standard
  9
$CLAYER
  8
0
  9
$CELTYPE
  6
Continuous
  9
$CECOLOR
 62
   256
  9
$CELTSCALE
 40
1.0
  9
$DISPSILH
 70
     0
  9
$DIMSCALE
 40
1.0
  9
$DIMASZ
 40
1.931852
  9
$DIMEXO
 40
1.0
  9
$DIMDLI
 40
0.38
  9
$DIMRND
 40
0.0
  9
$DIMDLE
 40
0.0
  9
$DIMEXE
 40
2.0
  9
$DIMTP
 40
0.0
  9
$DIMTM
 40
0.0
  9
$DIMTXT
 40
10.0
  9
$DIMCEN
 40
0.09
  9
$DIMTSZ
 40
0.0
  9
$DIMTOL
 70
     0
  9
$DIMLIM
 70
     0
  9
$DIMTIH
 70
     1
  9
$DIMTOH
 70
     1
  9
$DIMSE1
 70
     0
  9
$DIMSE2
 70
     0
  9
$DIMTAD
 70
     1
  9
$DIMZIN
 70
     0
  9
$DIMBLK
  1

  9
$DIMASO
 70
     1
  9
$DIMSHO
 70
     1
  9
$DIMPOST
  1

  9
$DIMAPOST
  1

  9
$DIMALT
 70
     0
  9
$DIMALTD
 70
     2
  9
$DIMALTF
 40
25.4
  9
$DIMLFAC
 40
1.0
  9
$DIMTOFL
 70
     0
  9
$DIMTVP
 40
0.0
  9
$DIMTIX
 70
     0
  9
$DIMSOXD
 70
     0
  9
$DIMSAH
 70
     0
  9
$DIMBLK1
  1

  9
$DIMBLK2
  1

  9
$DIMSTYLE
  2
Standard
  9
$DIMCLRD
 70
     0
  9
$DIMCLRE
 70
     0
  9
$DIMCLRT
 70
     0
  9
$DIMTFAC
 40
0.714286
  9
$DIMGAP
 40
0.09
  9
$DIMJUST
 70
     0
  9
$DIMSD1
 70
     0
  9
$DIMSD2
 70
     0
  9
$DIMTOLJ
 70
     1
  9
$DIMTZIN
 70
     0
  9
$DIMALTZ
 70
     0
  9
$DIMALTTZ
 70
     0
  9
$DIMUPT
 70
     0
  9
$DIMDEC
 70
     4
  9
$DIMTDEC
 70
     4
  9
$DIMALTU
 70
     2
  9
$DIMALTTD
 70
     2
  9
$DIMTXSTY
  7
Standard
  9
$DIMAUNIT
 70
     0
  9
$DIMADEC
 70
     0
  9
$DIMALTRND
 40
0.0
  9
$DIMAZIN
 70
     0
  9
$DIMDSEP
 70
     0
  9
$DIMATFIT
 70
     3
  9
$DIMFRAC
 70
     0
  9
$DIMLDRBLK
  1

  9
$DIMLUNIT
 70
     2
  9
$DIMLWD
 70
     0
  9
$DIMLWE
 70
     0
  9
$DIMTMOVE
 70
     0
  9
$LUNITS
 70
     2
  9
$LUPREC
 70
     3
  9
$SKETCHINC
 40
0.1
  9
$FILLETRAD
 40
0.0
  9
$AUNITS
 70
     0
  9
$AUPREC
 70
     0
  9
$MENU
  1
acad
  9
$ELEVATION
 40
0.0
  9
$PELEVATION
 40
0.0
  9
$THICKNESS
 40
0.0
  9
$LIMCHECK
 70
     0
  9
$CHAMFERA
 40
0.0
  9
$CHAMFERB
 40
0.0
  9
$CHAMFERC
 40
0.0
  9
$CHAMFERD
 40
0.0
  9
$SKPOLY
 70
     0
  9
$TDCREATE
 40
0.000000000
  9
$TDUCREATE
 40
0.000000000
  9
$TDUPDATE
 40
0.000000000
  9
$TDUUPDATE
 40
0.000000000
  9
$TDINDWG
 40
0.0000000000
  9
$TDUSRTIMER
 40
0.0000000000
  9
$USRTIMER
 70
     1
  9
$ANGBASE
 50
0.0
  9
$ANGDIR
 70
     0
  9
$PDMODE
 70
     0
  9
$PDSIZE
 40
0.0
  9
$PLINEWID
 40
0.0
  9
$SPLFRAME
 70
     0
  9
$SPLINETYPE
 70
     6
  9
$SPLINESEGS
 70
     8
  9
$HANDSEED
  5
53A
  9
$SURFTAB1
 70
     6
  9
$SURFTAB2
 70
     6
  9
$SURFTYPE
 70
     6
  9
$SURFU
 70
     6
  9
$SURFV
 70
     6
  9
$UCSBASE
  2

  9
$UCSNAME
  2

  9
$UCSORG
 10
0.0
 20
0.0
 30
0.0
  9
$UCSXDIR
 10
1.0
 20
0.0
 30
0.0
  9
$UCSYDIR
 10
0.0
 20
1.0
 30
0.0
  9
$UCSORTHOREF
  2

  9
$UCSORTHOVIEW
 70
     0
  9
$UCSORGTOP
 10
0.0
 20
0.0
 30
0.0
  9
$UCSORGBOTTOM
 10
0.0
 20
0.0
 30
0.0
  9
$UCSORGLEFT
 10
0.0
 20
0.0
 30
0.0
  9
$UCSORGRIGHT
 10
0.0
 20
0.0
 30
0.0
  9
$UCSORGFRONT
 10
0.0
 20
0.0
 30
0.0
  9
$UCSORGBACK
 10
0.0
 20
0.0
 30
0.0
  9
$PUCSBASE
  2

  9
$PUCSNAME
  2

  9
$PUCSORG
 10
0.0
 20
0.0
 30
0.0
  9
$PUCSXDIR
 10
1.0
 20
0.0
 30
0.0
  9
$PUCSYDIR
 10
0.0
 20
1.0
 30
0.0
  9
$PUCSORTHOREF
  2

  9
$PUCSORTHOVIEW
 70
     0
  9
$PUCSORGTOP
 10
0.0
 20
0.0
 30
0.0
  9
$PUCSORGBOTTOM
 10
0.0
 20
0.0
 30
0.0
  9
$PUCSORGLEFT
 10
0.0
 20
0.0
 30
0.0
  9
$PUCSORGRIGHT
 10
0.0
 20
0.0
 30
0.0
  9
$PUCSORGFRONT
 10
0.0
 20
0.0
 30
0.0
  9
$PUCSORGBACK
 10
0.0
 20
0.0
 30
0.0
  9
$USERI1
 70
     0
  9
$USERI2
 70
     0
  9
$USERI3
 70
     0
  9
$USERI4
 70
     0
  9
$USERI5
 70
     0
  9
$USERR1
 40
0.0
  9
$USERR2
 40
0.0
  9
$USERR3
 40
0.0
  9
$USERR4
 40
0.0
  9
$USERR5
 40
0.0
  9
$WORLDVIEW
 70
     1
  9
$SHADEDGE
 70
     3
  9
$SHADEDIF
 70
    70
  9
$TILEMODE
 70
     1
  9
$MAXACTVP
 70
    16
  9
$PINSBASE
 10
0.0
 20
0.0
 30
0.0
  9
$PLIMCHECK
 70
     0
  9
$PEXTMIN
 10
1.000000E+20
 20
1.000000E+20
 30
1.000000E+20
  9
$PEXTMAX
 10
-1.000000E+20
 20
-1.000000E+20
 30
-1.000000E+20
  9
$PLIMMIN
 10
0.0
 20
0.0
  9
$PLIMMAX
 10
12.0
 20
9.0
  9
$UNITMODE
 70
     0
  9
$VISRETAIN
 70
     0
  9
$PLINEGEN
 70
     1
  9
$PSLTSCALE
 70
     0
  9
$TREEDEPTH
 70
  3020
  9
$CMLSTYLE
  2
Standard
  9
$CMLJUST
 70
     0
  9
$CMLSCALE
 40
1.0
  9
$PROXYGRAPHICS
 70
     0
  9
$MEASUREMENT
 70
     0
  9
$CELWEIGHT
370
     0
  9
$ENDCAPS
280
     0
  9
$JOINSTYLE
280
     0
  9
$LWDISPLAY
290
     0
  9
$INSUNITS
 70
     0
  9
$HYPERLINKBASE
  1

  9
$STYLESHEET
  1

  9
$XEDIT
290
     1
  9
$CEPSNTYPE
380
     0
  9
$PSTYLEMODE
290
     1
  9
$FINGERPRINTGUID
  2

  9
$VERSIONGUID
  2

  9
$EXTNAMES
290
     1
  9
$PSVPSCALE
 40
0.0
  0
ENDSEC
  0
SECTION
  2
CLASSES
  0
CLASS
  1
LWPOLYLINE
  2
AcDbPolyline
  3
AutoCAD 2000
 90
    32768
280
     0
281
     1
  0
CLASS
  1
IMAGE
  2
AcDbRasterImage
  3
ISM
 90
    32895
280
     0
281
     1
  0
CLASS
  1
OLE2FRAME
  2
AcDbOle2Frame
  3
AutoCAD 2000
 90
    32768
280
     0
281
     1
  0
CLASS
  1
HATCH
  2
AcDbHatch
  3
AutoCAD 2000
 90
    32768
280
     0
281
     1
  0
CLASS
  1
DICTIONARYVAR
  2
AcDbDictionaryVar
  3
AutoCAD 2000
 90
    32768
280
     0
281
     0
  0
CLASS
  1
RASTERVARIABLES
  2
AcDbRasterVariables
  3
ISM
 90
    32768
280
     0
281
     0
  0
CLASS
  1
IMAGEDEF
  2
AcDbRasterImageDef
  3
ISM
 90
    32768
280
     0
281
     0
  0
CLASS
  1
IMAGEDEF_REACTOR
  2
AcDbRasterImageDefReactor
  3
ISM
 90
    32769
280
     0
281
     0
  0
CLASS
  1
IDBUFFER
  2
AcDbIdBuffer
  3
AutoCAD 2000
 90
    32768
280
     0
281
     0
  0
CLASS
  1
SPATIAL_FILTER
  2
AcDbSpatialFilter
  3
AutoCAD 2000
 90
    32768
280
     0
281
     0
  0
CLASS
  1
XRECORD
  2
AcDbXrecord
  3
AutoCAD 2000
 90
        0
280
     0
281
     0
  0
CLASS
  1
SORTENTSTABLE
  2
AcDbSortentsTable
  3
AutoCAD 2000
 90
    32768
280
     0
281
     0
  0
CLASS
  1
LAYER_INDEX
  2
AcDbLayerIndex
  3
AutoCAD 2000
 90
    32768
280
     0
281
     0
  0
CLASS
  1
SPATIAL_INDEX
  2
AcDbSpatialIndex
  3
AutoCAD 2000
 90
    32768
280
     0
281
     0
  0
CLASS
  1
OBJECT_PTR
  2
CAseDLPNTableRecord
  3
"ASE-LPNTableRecord"
 90
    32769
280
     0
281
     0
  0
CLASS
  1
LAYOUT
  2
AcDbLayout
  3
AutoCAD 2000
 90
        0
280
     0
281
     0
  0
CLASS
  1
PLOTSETTINGS
  2
AcDbPlotSettings
  3
AutoCAD 2000
 90
    32768
280
     0
281
     0
  0
CLASS
  1
ACDBDICTIONARYWDFLT
  2
AcDbDictionaryWithDefault
  3
AutoCAD 2000
 90
        0
280
     0
281
     0
  0
CLASS
  1
ACDBPLACEHOLDER
  2
AcDbPlaceHolder
  3
AutoCAD 2000
 90
        0
280
     0
281
     0
  0
CLASS
  1
VBA_PROJECT
  2
AcDbVbaProject
  3
acadvba
 90
    32768
280
     0
281
     0
  0
CLASS
  1
WIPEOUT
  2
AcDbWipeout
  3
WipeOut|AutoCAD Express Tool|expresstools@autodesk.com
 90
    32895
280
     0
281
     1
  0
CLASS
  1
WIPEOUTVARIABLES
  2
AcDbWipeoutVariables
  3
WipeOut|AutoCAD Express Tool|expresstools@autodesk.com
 90
        0
280
     0
281
     0
  0
CLASS
  1
RTEXT
  2
RText
  3
RText|AutoCAD Express Tool|expresstools@autodesk.com
 90
    32768
280
     0
281
     1
  0
CLASS
  1
ARCALIGNEDTEXT
  2
AcDbArcAlignedText
  3
ATEXT|AutoCAD Express Tool|expresstools@autodesk.com
 90
    32768
280
     0
281
     1
  0
ENDSEC
  0
SECTION
  2
TABLES
  0
TABLE
  2
VPORT
  5
7
100
AcDbSymbolTable
 70
     1
  0
VPORT
  5
15
100
AcDbSymbolTableRecord
100
AcDbViewportTableRecord
  2
*ACTIVE
 70
     0
 10
0.0
 20
0.0
 11
1.0
 21
1.0
 12
0.0
 22
0.0
 13
0.0
 23
0.0
 14
1.0
 24
1.0
 15
0.0
 25
0.0
 16
0.0
 26
0.0
 36
1.0
 17
0.0
 27
0.0
 37
0.0
 40
100.0
 41
1.0
 42
50.0
 43
0.0
 44
0.0
 50
0.0
 51
0.0
 71
     0
 72
   100
 73
     1
 74
     1
 75
     0
 76
     0
 77
     0
 78
     0
281
     0
 65
     0
110
0.0
120
0.0
130
0.0
111
1.0
121
0.0
131
0.0
112
0.0
122
1.0
132
0.0
345
0
346
0
 79
     0
146
0.0
  0
ENDTAB
  0
TABLE
  2
LTYPE
  5
4
100
AcDbSymbolTable
 70
     7
  0
LTYPE
  5
11
100
AcDbSymbolTableRecord
100
AcDbLinetypeTableRecord
  2
ByBlock
 70
    64
  3

 72
    65
 73
     0
 40
0.0
  0
LTYPE
  5
12
100
AcDbSymbolTableRecord
100
AcDbLinetypeTableRecord
  2
ByLayer
 70
    64
  3

 72
    65
 73
     0
 40
0.0
  0
LTYPE
  5
13
100
AcDbSymbolTableRecord
100
AcDbLinetypeTableRecord
  2
Continuous
 70
    64
  3
Solid line
 72
    65
 73
     0
 40
0.0
  0
LTYPE
  5
24
100
AcDbSymbolTableRecord
100
AcDbLinetypeTableRecord
  2
DASHED
 70
    64
  3
Dashed __ __ __ __ __ __ __ __ __ __ __ __ __ _
 72
    65
 73
     2
 40
0.75
 49
0.5
 74
     0
 49
-0.25
 74
     0
  0
LTYPE
  5
25
100
AcDbSymbolTableRecord
100
AcDbLinetypeTableRecord
  2
CENTER
 70
    64
  3
Center ____ _ ____ _ ____ _ ____ _ ____ _ ____
 72
    65
 73
     4
 40
1.0
 49
0.5
 74
     0
 49
-0.25
 74
     0
 49
0.0
 74
     0
 49
-0.25
 74
     0
  0
LTYPE
  5
26
100
AcDbSymbolTableRecord
100
AcDbLinetypeTableRecord
  2
DIVIDE
 70
    64
  3
Divide ____ . . ____ . . ____ . . ____ . . ____
 72
    65
 73
     6
 40
1.25
 49
0.5
 74
     0
 49
-0.25
 74
     0
 49
0.0
 74
     0
 49
-0.25
 74
     0
 49
0.0
 74
     0
 49
-0.25
 74
     0
  0
LTYPE
  5
27
100
AcDbSymbolTableRecord
100
AcDbLinetypeTableRecord
  2
PHANTOM
 70
    64
  3
Phantom ______  __  __  ______  __  __  ______
 72
    65
 73
     6
 40
9.0
 49
4.3
 74
     0
 49
-0.7
 74
     0
 49
1.3
 74
     0
 49
-0.7
 74
     0
 49
1.3
 74
     0
 49
-0.7
 74
     0
  0
ENDTAB
  0
TABLE
  2
LAYER
  5
2
100
AcDbSymbolTable
 70
     3
  0
LAYER
  5
14
100
AcDbSymbolTableRecord
100
AcDbLayerTableRecord
  2
0
 70
    64
 62
    53
  6
Continuous
290
     1
370
    -3
390
1D
  0
LAYER
  5
28
100
AcDbSymbolTableRecord
100
AcDbLayerTableRecord
  2
3
 70
    64
 62
     4
  6
Continuous
290
     1
370
    -3
390
1D
  0
LAYER
  5
29
100
AcDbSymbolTableRecord
100
AcDbLayerTableRecord
  2
5
 70
    64
 62
   191
  6
Continuous
290
     1
370
    -3
390
1D
  0
ENDTAB
  0
TABLE
  2
STYLE
  5
3
100
AcDbSymbolTable
 70
     2
  0
STYLE
  5
17
100
AcDbSymbolTableRecord
100
AcDbTextStyleTableRecord
  2
Standard
 70
     0
 40
0.0
 41
1.0
 50
0.0
 71
     0
 42
0.0
  3
txt
  4

  0
STYLE
  5
2A
100
AcDbSymbolTableRecord
100
AcDbTextStyleTableRecord
  2
ZU_SHPTB00001
 70
     0
 40
0.0
 41
1.0
 50
0.0
 71
     0
 42
0.0
  3
monotxt
  4
bigfont
  0
ENDTAB
  0
TABLE
  2
VIEW
  5
5
100
AcDbSymbolTable
 70
     0
  0
ENDTAB
  0
TABLE
  2
UCS
  5
6
100
AcDbSymbolTable
 70
     0
  0
ENDTAB
  0
TABLE
  2
APPID
  5
8
100
AcDbSymbolTable
 70
     1
  0
APPID
  5
16
100
AcDbSymbolTableRecord
100
AcDbRegAppTableRecord
  2
ACAD
 70
     0
  0
ENDTAB
  0
TABLE
  2
DIMSTYLE
  5
9
100
AcDbSymbolTable
 70
     1
100
AcDbDimStyleTable
 71
     0
  0
DIMSTYLE
105
18
100
AcDbSymbolTableRecord
100
AcDbDimStyleTableRecord
  2
Standard
 70
     0
  3

  4

 40
1.0
 41
0.18
 42
0.0625
 43
0.38
 44
0.18
 45
0.0
 46
0.0
 47
0.0
 48
0.0
 71
     0
 72
     0
 73
     1
 74
     1
 75
     0
 76
     0
 77
     0
 78
     0
 79
     0
140
0.18
141
0.09
142
0.0
143
25.4
144
1.0
145
0.0
146
1.0
147
0.09
148
0.0
170
     0
171
     2
172
     0
173
     0
174
     0
175
     0
176
     0
177
     0
178
     0
179
     0
271
     4
272
     4
273
     2
274
     2
275
     0
276
     0
277
     2
278
    46
279
     0
280
     0
281
     0
282
     0
283
     1
284
     0
285
     0
286
     0
288
     0
340
17
341
0
342
0
343
0
344
0
371
    -2
372
    -2
  0
ENDTAB
  0
TABLE
  2
BLOCK_RECORD
  5
1
100
AcDbSymbolTable
 70
     9
  0
BLOCK_RECORD
  5
A
100
AcDbSymbolTableRecord
100
AcDbBlockTableRecord
  2
*MODEL_SPACE
340
20
  0
BLOCK_RECORD
  5
B
100
AcDbSymbolTableRecord
100
AcDbBlockTableRecord
  2
*PAPER_SPACE
340
21
  0
BLOCK_RECORD
  5
6A
100
AcDbSymbolTableRecord
100
AcDbBlockTableRecord
  2
ZU_SYM__USERS_HOME_SYMBOL_STD_SYM_B01_-1
340
0
102
{BLKREFS
331
7C
102
}
  0
BLOCK_RECORD
  5
7D
100
AcDbSymbolTableRecord
100
AcDbBlockTableRecord
  2
ZU_SYM__USERS_HOME_SYMBOL_STD_SYM_B01_00001-1
340
0
102
{BLKREFS
331
8F
102
}
  0
BLOCK_RECORD
  5
90
100
AcDbSymbolTableRecord
100
AcDbBlockTableRecord
  2
ZU_SYM__USERS_HOME_SYMBOL_STD_SYM_B01_00002-1
340
0
102
{BLKREFS
331
A2
102
}
  0
BLOCK_RECORD
  5
A4
100
AcDbSymbolTableRecord
100
AcDbBlockTableRecord
  2
ZU_SYM__USERS_HOME_SYMBOL_STD_SYM_B01_00003-1
340
0
102
{BLKREFS
331
B6
102
}
  0
BLOCK_RECORD
  5
1BE
100
AcDbSymbolTableRecord
100
AcDbBlockTableRecord
  2
ZU_SYM__USERS_HOME_SYMBOL_POO_SYM_B20_-1
340
0
102
{BLKREFS
331
1C6
102
}
  0
BLOCK_RECORD
  5
3C5
100
AcDbSymbolTableRecord
100
AcDbBlockTableRecord
  2
ZU_SYM__USERS_HOME_SYMBOL_STD_SYM_B01_00004-1
340
0
102
{BLKREFS
331
3D0
102
}
  0
BLOCK_RECORD
  5
3D1
100
AcDbSymbolTableRecord
100
AcDbBlockTableRecord
  2
ZU_SYM__USERS_HOME_SYMBOL_STD_SYM_B01_00005-1
340
0
102
{BLKREFS
331
3DC
102
}
  0
BLOCK_RECORD
  5
3DD
100
AcDbSymbolTableRecord
100
AcDbBlockTableRecord
  2
ZU_SYM__USERS_HOME_SYMBOL_STD_SYM_B01_00006-1
340
0
102
{BLKREFS
331
3E8
102
}
  0
BLOCK_RECORD
  5
3E9
100
AcDbSymbolTableRecord
100
AcDbBlockTableRecord
  2
ZU_SYM__USERS_HOME_SYMBOL_STD_SYM_B01_00007-1
340
0
102
{BLKREFS
331
3F4
102
}
  0
ENDTAB
  0
ENDSEC
  0
SECTION
  2
BLOCKS
  0
BLOCK
  5
D
100
AcDbEntity
  8
0
100
AcDbBlockBegin
  2
*MODEL_SPACE
 70
     0
 10
0.0
 20
0.0
 30
0.0
  3
*MODEL_SPACE
  1

  0
ENDBLK
  5
E
100
AcDbEntity
  8
0
100
AcDbBlockEnd
  0
BLOCK
  5
F
100
AcDbEntity
 67
     1
  8
0
100
AcDbBlockBegin
  2
*PAPER_SPACE
 70
     0
 10
0.0
 20
0.0
 30
0.0
  3
*PAPER_SPACE
  1

  0
ENDBLK
  5
10
100
AcDbEntity
 67
     1
  8
0
100
AcDbBlockEnd
  0
BLOCK
  5
6B
100
AcDbEntity
  8
0
100
AcDbBlockBegin
  2
ZU_SYM__USERS_HOME_SYMBOL_STD_SYM_B01_-1
 70
    64
 10
0.0
 20
0.0
 30
0.0
  3
ZU_SYM__USERS_HOME_SYMBOL_STD_SYM_B01_-1
  1

  0
POINT
  5
6C
100
AcDbEntity
  8
0
370
    -3
  6
Continuous
100
AcDbPoint
 10
0.0
 20
0.0
 30
0.0
  0
LINE
  5
6D
100
AcDbEntity
  8
0
370
    -3
  6
Continuous
100
AcDbLine
 10
-0.000025
 20
-4.599994
 30
0.0
 11
-4.300015
 21
-4.599977
 31
0.0
  0
LINE
  5
6E
100
AcDbEntity
  8
0
370
    -3
  6
Continuous
100
AcDbLine
 10
-4.299996
 20
-4.599962
 30
0.0
 11
-4.79999
 21
-3.899959
 31
0.0
  0
LINE
  5
6F
100
AcDbEntity
  8
0
370
    -3
  6
Continuous
100
AcDbLine
 10
-4.80001
 20
-3.899973
 30
0.0
 11
-4.799979
 21
3.900012
 31
0.0
  0
LINE
  5
70
100
AcDbEntity
  8
0
370
    -3
  6
Continuous
100
AcDbLine
 10
-4.799962
 20
3.900001
 30
0.0
 11
-4.299962
 21
4.599999
 31
0.0
  0
LINE
  5
71
100
AcDbEntity
  8
0
370
    -3
  6
Continuous
100
AcDbLine
 10
-4.299978
 20
4.600015
 30
0.0
 11
0.000013
 21
4.599998
 31
0.0
  0
LINE
  5
72
100
AcDbEntity
  8
0
370
    -3
  6
Continuous
100
AcDbLine
 10
0.000016
 20
4.599992
 30
0.0
 11
-0.000021
 21
-4.599992
 31
0.0
  0
LINE
  5
73
100
AcDbEntity
  8
0
370
    -3
  6
Continuous
100
AcDbLine
 10
-4.300006
 20
-2.29998
 30
0.0
 11
-1.300007
 21
-2.299992
 31
0.0
  0
LINE
  5
74
100
AcDbEntity
  8
0
370
    -3
  6
Continuous
100
AcDbLine
 10
-4.299987
 20
2.300014
 30
0.0
 11
-1.29999
 21
2.300004
 31
0.0
  0
ARC
  5
75
100
AcDbEntity
  8
0
370
    -3
  6
Continuous
100
AcDbCircle
 10
-3.230014
 20
-3.449986
 30
0.0
 40
1.57
100
AcDbArc
 50
132.899744
 51
179.999745
  0
ARC
  5
76
100
AcDbEntity
  8
0
370
    -3
  6
Continuous
100
AcDbCircle
 10
-3.229986
 20
3.450012
 30
0.0
 40
1.57
100
AcDbArc
 50
179.999745
 51
227.099746
  0
ARC
  5
77
100
AcDbEntity
  8
0
370
    -3
  6
Continuous
100
AcDbCircle
 10
0.740001
 20
-0.000003
 30
0.0
 40
5.539999
100
AcDbArc
 50
155.470187
 51
204.52925
  0
LINE
  5
78
100
AcDbEntity
  8
0
370
    -3
  6
Continuous
100
AcDbLine
 10
-1.300018
 20
-4.599993
 30
0.0
 11
-1.299981
 21
4.600004
 31
0.0
  0
LINE
  5
79
100
AcDbEntity
  8
0
370
    -3
  6
Continuous
100
AcDbLine
 10
-1.3
 20
-0.299995
 30
0.0
 11
-0.000004
 21
-0.000001
 31
0.0
  0
LINE
  5
7A
100
AcDbEntity
  8
0
370
    -3
  6
Continuous
100
AcDbLine
 10
-1.299999
 20
0.300007
 30
0.0
 11
-0.000001
 21
0.600002
 31
0.0
  0
ENDBLK
  5
7B
100
AcDbEntity
  8
0
100
AcDbBlockEnd
  0
BLOCK
  5
7E
100
AcDbEntity
  8
0
100
AcDbBlockBegin
  2
ZU_SYM__USERS_HOME_SYMBOL_STD_SYM_B01_00001-1
 70
    64
 10
0.0
 20
0.0
 30
0.0
  3
ZU_SYM__USERS_HOME_SYMBOL_STD_SYM_B01_00001-1
  1

  0
POINT
  5
7F
100
AcDbEntity
  8
0
370
    -3
  6
Continuous
100
AcDbPoint
 10
0.0
 20
0.0
 30
0.0
  0
LINE
  5
80
100
AcDbEntity
  8
0
370
    -3
  6
Continuous
100
AcDbLine
 10
-0.000025
 20
-4.599994
 30
0.0
 11
-4.300015
 21
-4.599977
 31
0.0
  0
LINE
  5
81
100
AcDbEntity
  8
0
370
    -3
  6
Continuous
100
AcDbLine
 10
-4.299996
 20
-4.599962
 30
0.0
 11
-4.79999
 21
-3.899959
 31
0.0
  0
LINE
  5
82
100
AcDbEntity
  8
0
370
    -3
  6
Continuous
100
AcDbLine
 10
-4.80001
 20
-3.899973
 30
0.0
 11
-4.799979
 21
3.900012
 31
0.0
  0
LINE
  5
83
100
AcDbEntity
  8
0
370
    -3
  6
Continuous
100
AcDbLine
 10
-4.799962
 20
3.900001
 30
0.0
 11
-4.299962
 21
4.599999
 31
0.0
  0
LINE
  5
84
100
AcDbEntity
  8
0
370
    -3
  6
Continuous
100
AcDbLine
 10
-4.299978
 20
4.600015
 30
0.0
 11
0.000013
 21
4.599998
 31
0.0
  0
LINE
  5
85
100
AcDbEntity
  8
0
370
    -3
  6
Continuous
100
AcDbLine
 10
0.000016
 20
4.599992
 30
0.0
 11
-0.000021
 21
-4.599992
 31
0.0
  0
LINE
  5
86
100
AcDbEntity
  8
0
370
    -3
  6
Continuous
100
AcDbLine
 10
-4.300006
 20
-2.29998
 30
0.0
 11
-1.300007
 21
-2.299992
 31
0.0
  0
LINE
  5
87
100
AcDbEntity
  8
0
370
    -3
  6
Continuous
100
AcDbLine
 10
-4.299987
 20
2.300014
 30
0.0
 11
-1.29999
 21
2.300004
 31
0.0
  0
ARC
  5
88
100
AcDbEntity
  8
0
370
    -3
  6
Continuous
100
AcDbCircle
 10
-3.230014
 20
-3.449986
 30
0.0
 40
1.57
100
AcDbArc
 50
132.899744
 51
179.999745
  0
ARC
  5
89
100
AcDbEntity
  8
0
370
    -3
  6
Continuous
100
AcDbCircle
 10
-3.229986
 20
3.450012
 30
0.0
 40
1.57
100
AcDbArc
 50
179.999745
 51
227.099746
  0
ARC
  5
8A
100
AcDbEntity
  8
0
370
    -3
  6
Continuous
100
AcDbCircle
 10
0.740001
 20
-0.000003
 30
0.0
 40
5.539999
100
AcDbArc
 50
155.470187
 51
204.52925
  0
LINE
  5
8B
100
AcDbEntity
  8
0
370
    -3
  6
Continuous
100
AcDbLine
 10
-1.300018
 20
-4.599993
 30
0.0
 11
-1.299981
 21
4.600004
 31
0.0
  0
LINE
  5
8C
100
AcDbEntity
  8
0
370
    -3
  6
Continuous
100
AcDbLine
 10
-1.3
 20
-0.299995
 30
0.0
 11
-0.000004
 21
-0.000001
 31
0.0
  0
LINE
  5
8D
100
AcDbEntity
  8
0
370
    -3
  6
Continuous
100
AcDbLine
 10
-1.299999
 20
0.300007
 30
0.0
 11
-0.000001
 21
0.600002
 31
0.0
  0
ENDBLK
  5
8E
100
AcDbEntity
  8
0
100
AcDbBlockEnd
  0
BLOCK
  5
91
100
AcDbEntity
  8
0
100
AcDbBlockBegin
  2
ZU_SYM__USERS_HOME_SYMBOL_STD_SYM_B01_00002-1
 70
    64
 10
0.0
 20
0.0
 30
0.0
  3
ZU_SYM__USERS_HOME_SYMBOL_STD_SYM_B01_00002-1
  1

  0
POINT
  5
92
100
AcDbEntity
  8
0
370
    -3
  6
Continuous
100
AcDbPoint
 10
0.0
 20
0.0
 30
0.0
  0
LINE
  5
93
100
AcDbEntity
  8
0
370
    -3
  6
Continuous
100
AcDbLine
 10
-0.000025
 20
-4.599994
 30
0.0
 11
-4.300015
 21
-4.599977
 31
0.0
  0
LINE
  5
94
100
AcDbEntity
  8
0
370
    -3
  6
Continuous
100
AcDbLine
 10
-4.299996
 20
-4.599962
 30
0.0
 11
-4.79999
 21
-3.899959
 31
0.0
  0
LINE
  5
95
100
AcDbEntity
  8
0
370
    -3
  6
Continuous
100
AcDbLine
 10
-4.80001
 20
-3.899973
 30
0.0
 11
-4.799979
 21
3.900012
 31
0.0
  0
LINE
  5
96
100
AcDbEntity
  8
0
370
    -3
  6
Continuous
100
AcDbLine
 10
-4.799962
 20
3.900001
 30
0.0
 11
-4.299962
 21
4.599999
 31
0.0
  0
LINE
  5
97
100
AcDbEntity
  8
0
370
    -3
  6
Continuous
100
AcDbLine
 10
-4.299978
 20
4.600015
 30
0.0
 11
0.000013
 21
4.599998
 31
0.0
  0
LINE
  5
98
100
AcDbEntity
  8
0
370
    -3
  6
Continuous
100
AcDbLine
 10
0.000016
 20
4.599992
 30
0.0
 11
-0.000021
 21
-4.599992
 31
0.0
  0
LINE
  5
99
100
AcDbEntity
  8
0
370
    -3
  6
Continuous
100
AcDbLine
 10
-4.300006
 20
-2.29998
 30
0.0
 11
-1.300007
 21
-2.299992
 31
0.0
  0
LINE
  5
9A
100
AcDbEntity
  8
0
370
    -3
  6
Continuous
100
AcDbLine
 10
-4.299987
 20
2.300014
 30
0.0
 11
-1.29999
 21
2.300004
 31
0.0
  0
ARC
  5
9B
100
AcDbEntity
  8
0
370
    -3
  6
Continuous
100
AcDbCircle
 10
-3.230014
 20
-3.449986
 30
0.0
 40
1.57
100
AcDbArc
 50
132.899744
 51
179.999745
  0
ARC
  5
9C
100
AcDbEntity
  8
0
370
    -3
  6
Continuous
100
AcDbCircle
 10
-3.229986
 20
3.450012
 30
0.0
 40
1.57
100
AcDbArc
 50
179.999745
 51
227.099746
  0
ARC
  5
9D
100
AcDbEntity
  8
0
370
    -3
  6
Continuous
100
AcDbCircle
 10
0.740001
 20
-0.000003
 30
0.0
 40
5.539999
100
AcDbArc
 50
155.470187
 51
204.52925
  0
LINE
  5
9E
100
AcDbEntity
  8
0
370
    -3
  6
Continuous
100
AcDbLine
 10
-1.300018
 20
-4.599993
 30
0.0
 11
-1.299981
 21
4.600004
 31
0.0
  0
LINE
  5
9F
100
AcDbEntity
  8
0
370
    -3
  6
Continuous
100
AcDbLine
 10
-1.3
 20
-0.299995
 30
0.0
 11
-0.000004
 21
-0.000001
 31
0.0
  0
LINE
  5
A0
100
AcDbEntity
  8
0
370
    -3
  6
Continuous
100
AcDbLine
 10
-1.299999
 20
0.300007
 30
0.0
 11
-0.000001
 21
0.600002
 31
0.0
  0
ENDBLK
  5
A1
100
AcDbEntity
  8
0
100
AcDbBlockEnd
  0
BLOCK
  5
A5
100
AcDbEntity
  8
0
100
AcDbBlockBegin
  2
ZU_SYM__USERS_HOME_SYMBOL_STD_SYM_B01_00003-1
 70
    64
 10
0.0
 20
0.0
 30
0.0
  3
ZU_SYM__USERS_HOME_SYMBOL_STD_SYM_B01_00003-1
  1

  0
POINT
  5
A6
100
AcDbEntity
  8
0
370
    -3
  6
Continuous
100
AcDbPoint
 10
0.0
 20
0.0
 30
0.0
  0
LINE
  5
A7
100
AcDbEntity
  8
0
370
    -3
  6
Continuous
100
AcDbLine
 10
-0.000025
 20
-4.599994
 30
0.0
 11
-4.300015
 21
-4.599977
 31
0.0
  0
LINE
  5
A8
100
AcDbEntity
  8
0
370
    -3
  6
Continuous
100
AcDbLine
 10
-4.299996
 20
-4.599962
 30
0.0
 11
-4.79999
 21
-3.899959
 31
0.0
  0
LINE
  5
A9
100
AcDbEntity
  8
0
370
    -3
  6
Continuous
100
AcDbLine
 10
-4.80001
 20
-3.899973
 30
0.0
 11
-4.799979
 21
3.900012
 31
0.0
  0
LINE
  5
AA
100
AcDbEntity
  8
0
370
    -3
  6
Continuous
100
AcDbLine
 10
-4.799962
 20
3.900001
 30
0.0
 11
-4.299962
 21
4.599999
 31
0.0
  0
LINE
  5
AB
100
AcDbEntity
  8
0
370
    -3
  6
Continuous
100
AcDbLine
 10
-4.299978
 20
4.600015
 30
0.0
 11
0.000013
 21
4.599998
 31
0.0
  0
LINE
  5
AC
100
AcDbEntity
  8
0
370
    -3
  6
Continuous
100
AcDbLine
 10
0.000016
 20
4.599992
 30
0.0
 11
-0.000021
 21
-4.599992
 31
0.0
  0
LINE
  5
AD
100
AcDbEntity
  8
0
370
    -3
  6
Continuous
100
AcDbLine
 10
-4.300006
 20
-2.29998
 30
0.0
 11
-1.300007
 21
-2.299992
 31
0.0
  0
LINE
  5
AE
100
AcDbEntity
  8
0
370
    -3
  6
Continuous
100
AcDbLine
 10
-4.299987
 20
2.300014
 30
0.0
 11
-1.29999
 21
2.300004
 31
0.0
  0
ARC
  5
AF
100
AcDbEntity
  8
0
370
    -3
  6
Continuous
100
AcDbCircle
 10
-3.230014
 20
-3.449986
 30
0.0
 40
1.57
100
AcDbArc
 50
132.899744
 51
179.999745
  0
ARC
  5
B0
100
AcDbEntity
  8
0
370
    -3
  6
Continuous
100
AcDbCircle
 10
-3.229986
 20
3.450012
 30
0.0
 40
1.57
100
AcDbArc
 50
179.999745
 51
227.099746
  0
ARC
  5
B1
100
AcDbEntity
  8
0
370
    -3
  6
Continuous
100
AcDbCircle
 10
0.740001
 20
-0.000003
 30
0.0
 40
5.539999
100
AcDbArc
 50
155.470187
 51
204.52925
  0
LINE
  5
B2
100
AcDbEntity
  8
0
370
    -3
  6
Continuous
100
AcDbLine
 10
-1.300018
 20
-4.599993
 30
0.0
 11
-1.299981
 21
4.600004
 31
0.0
  0
LINE
  5
B3
100
AcDbEntity
  8
0
370
    -3
  6
Continuous
100
AcDbLine
 10
-1.3
 20
-0.299995
 30
0.0
 11
-0.000004
 21
-0.000001
 31
0.0
  0
LINE
  5
B4
100
AcDbEntity
  8
0
370
    -3
  6
Continuous
100
AcDbLine
 10
-1.299999
 20
0.300007
 30
0.0
 11
-0.000001
 21
0.600002
 31
0.0
  0
ENDBLK
  5
B5
100
AcDbEntity
  8
0
100
AcDbBlockEnd
  0
BLOCK
  5
1BF
100
AcDbEntity
  8
0
100
AcDbBlockBegin
  2
ZU_SYM__USERS_HOME_SYMBOL_POO_SYM_B20_-1
 70
    64
 10
0.0
 20
0.0
 30
0.0
  3
ZU_SYM__USERS_HOME_SYMBOL_POO_SYM_B20_-1
  1

  0
LINE
  5
1C0
100
AcDbEntity
  8
0
370
    -3
  6
Continuous
100
AcDbLine
 10
0.0
 20
-4.249999
 30
0.0
 11
-5.0
 21
-4.249999
 31
0.0
  0
LINE
  5
1C1
100
AcDbEntity
  8
0
370
    -3
  6
Continuous
100
AcDbLine
 10
0.0
 20
4.249999
 30
0.0
 11
-5.0
 21
4.249999
 31
0.0
  0
LINE
  5
1C2
100
AcDbEntity
  8
0
370
    -3
  6
Continuous
100
AcDbLine
 10
-5.0
 20
-4.249999
 30
0.0
 11
-5.0
 21
4.249999
 31
0.0
  0
LINE
  5
1C3
100
AcDbEntity
  8
0
370
    -3
  6
Continuous
100
AcDbLine
 10
0.0
 20
-4.249999
 30
0.0
 11
0.0
 21
4.249999
 31
0.0
  0
POINT
  5
1C4
100
AcDbEntity
  8
0
370
    -3
  6
Continuous
100
AcDbPoint
 10
0.0
 20
0.0
 30
0.0
  0
ENDBLK
  5
1C5
100
AcDbEntity
  8
0
100
AcDbBlockEnd
  0
BLOCK
  5
3C6
100
AcDbEntity
  8
0
100
AcDbBlockBegin
  2
ZU_SYM__USERS_HOME_SYMBOL_STD_SYM_B01_00004-1
 70
    64
 10
0.0
 20
0.0
 30
0.0
  3
ZU_SYM__USERS_HOME_SYMBOL_STD_SYM_B01_00004-1
  1

  0
CIRCLE
  5
3C7
100
AcDbEntity
  8
0
370
    -3
  6
Continuous
100
AcDbCircle
 10
0.0
 20
0.0
 30
0.0
 40
4.0
  0
LINE
  5
3C8
100
AcDbEntity
  8
0
370
    -3
  6
Continuous
100
AcDbLine
 10
2.299999
 20
-4.0
 30
0.0
 11
-2.299999
 21
-4.0
 31
0.0
  0
LINE
  5
3C9
100
AcDbEntity
  8
0
370
    -3
  6
Continuous
100
AcDbLine
 10
4.6
 20
-0.000001
 30
0.0
 11
2.300001
 21
-4.0
 31
0.0
  0
LINE
  5
3CA
100
AcDbEntity
  8
0
370
    -3
  6
Continuous
100
AcDbLine
 10
2.300001
 20
4.0
 30
0.0
 11
4.6
 21
0.000001
 31
0.0
  0
LINE
  5
3CB
100
AcDbEntity
  8
0
370
    -3
  6
Continuous
100
AcDbLine
 10
-2.299999
 20
4.0
 30
0.0
 11
2.299999
 21
4.0
 31
0.0
  0
LINE
  5
3CC
100
AcDbEntity
  8
0
370
    -3
  6
Continuous
100
AcDbLine
 10
-4.6
 20
0.000001
 30
0.0
 11
-2.300001
 21
4.0
 31
0.0
  0
LINE
  5
3CD
100
AcDbEntity
  8
0
370
    -3
  6
Continuous
100
AcDbLine
 10
-2.300001
 20
-4.0
 30
0.0
 11
-4.6
 21
-0.000001
 31
0.0
  0
POINT
  5
3CE
100
AcDbEntity
  8
0
370
    -3
  6
Continuous
100
AcDbPoint
 10
0.0
 20
0.0
 30
0.0
  0
ENDBLK
  5
3CF
100
AcDbEntity
  8
0
100
AcDbBlockEnd
  0
BLOCK
  5
3D2
100
AcDbEntity
  8
0
100
AcDbBlockBegin
  2
ZU_SYM__USERS_HOME_SYMBOL_STD_SYM_B01_00005-1
 70
    64
 10
0.0
 20
0.0
 30
0.0
  3
ZU_SYM__USERS_HOME_SYMBOL_STD_SYM_B01_00005-1
  1

  0
CIRCLE
  5
3D3
100
AcDbEntity
  8
0
370
    -3
  6
Continuous
100
AcDbCircle
 10
0.0
 20
0.0
 30
0.0
 40
4.0
  0
LINE
  5
3D4
100
AcDbEntity
  8
0
370
    -3
  6
Continuous
100
AcDbLine
 10
2.299999
 20
-4.0
 30
0.0
 11
-2.299999
 21
-4.0
 31
0.0
  0
LINE
  5
3D5
100
AcDbEntity
  8
0
370
    -3
  6
Continuous
100
AcDbLine
 10
4.6
 20
-0.000001
 30
0.0
 11
2.300001
 21
-4.0
 31
0.0
  0
LINE
  5
3D6
100
AcDbEntity
  8
0
370
    -3
  6
Continuous
100
AcDbLine
 10
2.300001
 20
4.0
 30
0.0
 11
4.6
 21
0.000001
 31
0.0
  0
LINE
  5
3D7
100
AcDbEntity
  8
0
370
    -3
  6
Continuous
100
AcDbLine
 10
-2.299999
 20
4.0
 30
0.0
 11
2.299999
 21
4.0
 31
0.0
  0
LINE
  5
3D8
100
AcDbEntity
  8
0
370
    -3
  6
Continuous
100
AcDbLine
 10
-4.6
 20
0.000001
 30
0.0
 11
-2.300001
 21
4.0
 31
0.0
  0
LINE
  5
3D9
100
AcDbEntity
  8
0
370
    -3
  6
Continuous
100
AcDbLine
 10
-2.300001
 20
-4.0
 30
0.0
 11
-4.6
 21
-0.000001
 31
0.0
  0
POINT
  5
3DA
100
AcDbEntity
  8
0
370
    -3
  6
Continuous
100
AcDbPoint
 10
0.0
 20
0.0
 30
0.0
  0
ENDBLK
  5
3DB
100
AcDbEntity
  8
0
100
AcDbBlockEnd
  0
BLOCK
  5
3DE
100
AcDbEntity
  8
0
100
AcDbBlockBegin
  2
ZU_SYM__USERS_HOME_SYMBOL_STD_SYM_B01_00006-1
 70
    64
 10
0.0
 20
0.0
 30
0.0
  3
ZU_SYM__USERS_HOME_SYMBOL_STD_SYM_B01_00006-1
  1

  0
CIRCLE
  5
3DF
100
AcDbEntity
  8
0
370
    -3
  6
Continuous
100
AcDbCircle
 10
0.0
 20
0.0
 30
0.0
 40
4.0
  0
LINE
  5
3E0
100
AcDbEntity
  8
0
370
    -3
  6
Continuous
100
AcDbLine
 10
2.299999
 20
-4.0
 30
0.0
 11
-2.299999
 21
-4.0
 31
0.0
  0
LINE
  5
3E1
100
AcDbEntity
  8
0
370
    -3
  6
Continuous
100
AcDbLine
 10
4.6
 20
-0.000001
 30
0.0
 11
2.300001
 21
-4.0
 31
0.0
  0
LINE
  5
3E2
100
AcDbEntity
  8
0
370
    -3
  6
Continuous
100
AcDbLine
 10
2.300001
 20
4.0
 30
0.0
 11
4.6
 21
0.000001
 31
0.0
  0
LINE
  5
3E3
100
AcDbEntity
  8
0
370
    -3
  6
Continuous
100
AcDbLine
 10
-2.299999
 20
4.0
 30
0.0
 11
2.299999
 21
4.0
 31
0.0
  0
LINE
  5
3E4
100
AcDbEntity
  8
0
370
    -3
  6
Continuous
100
AcDbLine
 10
-4.6
 20
0.000001
 30
0.0
 11
-2.300001
 21
4.0
 31
0.0
  0
LINE
  5
3E5
100
AcDbEntity
  8
0
370
    -3
  6
Continuous
100
AcDbLine
 10
-2.300001
 20
-4.0
 30
0.0
 11
-4.6
 21
-0.000001
 31
0.0
  0
POINT
  5
3E6
100
AcDbEntity
  8
0
370
    -3
  6
Continuous
100
AcDbPoint
 10
0.0
 20
0.0
 30
0.0
  0
ENDBLK
  5
3E7
100
AcDbEntity
  8
0
100
AcDbBlockEnd
  0
BLOCK
  5
3EA
100
AcDbEntity
  8
0
100
AcDbBlockBegin
  2
ZU_SYM__USERS_HOME_SYMBOL_STD_SYM_B01_00007-1
 70
    64
 10
0.0
 20
0.0
 30
0.0
  3
ZU_SYM__USERS_HOME_SYMBOL_STD_SYM_B01_00007-1
  1

  0
CIRCLE
  5
3EB
100
AcDbEntity
  8
0
370
    -3
  6
Continuous
100
AcDbCircle
 10
0.0
 20
0.0
 30
0.0
 40
4.0
  0
LINE
  5
3EC
100
AcDbEntity
  8
0
370
    -3
  6
Continuous
100
AcDbLine
 10
2.299999
 20
-4.0
 30
0.0
 11
-2.299999
 21
-4.0
 31
0.0
  0
LINE
  5
3ED
100
AcDbEntity
  8
0
370
    -3
  6
Continuous
100
AcDbLine
 10
4.6
 20
-0.000001
 30
0.0
 11
2.300001
 21
-4.0
 31
0.0
  0
LINE
  5
3EE
100
AcDbEntity
  8
0
370
    -3
  6
Continuous
100
AcDbLine
 10
2.300001
 20
4.0
 30
0.0
 11
4.6
 21
0.000001
 31
0.0
  0
LINE
  5
3EF
100
AcDbEntity
  8
0
370
    -3
  6
Continuous
100
AcDbLine
 10
-2.299999
 20
4.0
 30
0.0
 11
2.299999
 21
4.0
 31
0.0
  0
LINE
  5
3F0
100
AcDbEntity
  8
0
370
    -3
  6
Continuous
100
AcDbLine
 10
-4.6
 20
0.000001
 30
0.0
 11
-2.300001
 21
4.0
 31
0.0
  0
LINE
  5
3F1
100
AcDbEntity
  8
0
370
    -3
  6
Continuous
100
AcDbLine
 10
-2.300001
 20
-4.0
 30
0.0
 11
-4.6
 21
-0.000001
 31
0.0
  0
POINT
  5
3F2
100
AcDbEntity
  8
0
370
    -3
  6
Continuous
100
AcDbPoint
 10
0.0
 20
0.0
 30
0.0
  0
ENDBLK
  5
3F3
100
AcDbEntity
  8
0
100
AcDbBlockEnd
  0
ENDSEC
  0
SECTION
  2
ENTITIES
  0
MTEXT
  5
2B
100
AcDbEntity
  8
0
370
    -3
  6
Continuous
100
AcDbMText
 10
-571.256531
 20
259.770203
 30
0.0
 40
15.0
 41
0.0
 71
     7
 72
     1
  1
\W0.43;DATE\W0.72; \W0.43;2011.12.26
  7
ZU_SHPTB00001
 11
1.0
 21
0.0
 31
0.0
 73
     1
 44
1.0
  0
MTEXT
  5
2C
100
AcDbEntity
  8
0
370
    -3
  6
Continuous
100
AcDbMText
 10
-571.636719
 20
294.027771
 30
0.0
 40
15.0
 41
0.0
 71
     7
 72
     1
  1
\W0.42;GEAR\W0.70; \W0.42;RATIO\W0.70;  \W0.42;1/40-1/50
  7
ZU_SHPTB00001
 11
1.0
 21
0.0
 31
0.0
 73
     1
 44
1.0
  0
MTEXT
  5
2D
100
AcDbEntity
  8
0
370
    -3
  6
Continuous
100
AcDbMText
 10
-571.636719
 20
310.977783
 30
0.0
 40
15.0
 41
0.0
 71
     7
 72
     1
  1
\W0.43;75-60r/min\W0.53;　
  7
ZU_SHPTB00001
 11
1.0
 21
0.0
 31
0.0
 73
     1
 44
1.0
  0
MTEXT
  5
2E
100
AcDbEntity
  8
0
370
    -3
  6
Continuous
100
AcDbMText
 10
-571.636719
 20
344.877777
 30
0.0
 40
15.0
 41
0.0
 71
     7
 72
     1
  1
\W0.48;GV-S
  7
ZU_SHPTB00001
 11
1.0
 21
0.0
 31
0.0
 73
     1
 44
1.0
  0
MTEXT
  5
2F
100
AcDbEntity
  8
0
370
    -3
  6
Continuous
100
AcDbMText
 10
-571.636719
 20
277.077759
 30
0.0
 40
15.0
 41
0.0
 71
     7
 72
     1
  1
\W0.43;SCALE\W0.72;  \W0.43;1/1
  7
ZU_SHPTB00001
 11
1.0
 21
0.0
 31
0.0
 73
     1
 44
1.0
  0
MTEXT
  5
30
100
AcDbEntity
  8
0
370
    -3
  6
Continuous
100
AcDbMText
 10
-571.636719
 20
327.927765
 30
0.0
 40
15.0
 41
0.0
 71
     7
 72
     1
  1
\W0.43;0.4kW
  7
ZU_SHPTB00001
 11
1.0
 21
0.0
 31
0.0
 73
     1
 44
1.0
  0
MTEXT
  5
31
100
AcDbEntity
  8
0
370
    -3
  6
Continuous
100
AcDbMText
 10
-571.636719
 20
361.827789
 30
0.0
 40
15.0
 41
0.0
 71
     7
 72
     1
  1
\W0.63;三菱ギヤードモータ  
  7
ZU_SHPTB00001
 11
1.0
 21
0.0
 31
0.0
 73
     1
 44
1.0
  0
MTEXT
  5
32
100
AcDbEntity
  8
0
370
    -3
  6
Continuous
100
AcDbMText
 10
-571.636719
 20
361.827789
 30
0.0
 40
15.0
 41
0.0
 71
     7
 72
     1
  1
\W0.63;三菱ギヤードモータ  
  7
ZU_SHPTB00001
 11
1.0
 21
0.0
 31
0.0
 73
     1
 44
1.0
  0
LINE
  5
33
100
AcDbEntity
  8
0
370
    -3
  6
Continuous
100
AcDbLine
 10
-243.282575
 20
167.746221
 30
0.0
 11
-245.88009
 21
167.746221
 31
0.0
  0
LINE
  5
34
100
AcDbEntity
  8
0
370
    -3
  6
Continuous
100
AcDbLine
 10
-243.282575
 20
175.02676
 30
0.0
 11
-247.782575
 21
175.02676
 31
0.0
  0
LINE
  5
35
100
AcDbEntity
  8
0
370
    -3
  6
Continuous
100
AcDbLine
 10
-243.282575
 20
187.591818
 30
0.0
 11
-246.254911
 21
187.747591
 31
0.0
  0
LINE
  5
36
100
AcDbEntity
  8
0
370
    -3
  6
Continuous
100
AcDbLine
 10
-243.282575
 20
189.900624
 30
0.0
 11
-246.254911
 21
189.74485
 31
0.0
  0
LINE
  5
37
100
AcDbEntity
  8
0
370
    -3
  6
Continuous
100
AcDbLine
 10
-243.282575
 20
192.091818
 30
0.0
 11
-246.254911
 21
192.247591
 31
0.0
  0
LINE
  5
38
100
AcDbEntity
  8
0
370
    -3
  6
Continuous
100
AcDbLine
 10
-243.282575
 20
194.400624
 30
0.0
 11
-246.254911
 21
194.24485
 31
0.0
  0
LINE
  5
39
100
AcDbEntity
  8
0
370
    -3
  6
Continuous
100
AcDbLine
 10
-243.282575
 20
196.591818
 30
0.0
 11
-246.254911
 21
196.747591
 31
0.0
  0
LINE
  5
3A
100
AcDbEntity
  8
0
370
    -3
  6
Continuous
100
AcDbLine
 10
-243.282575
 20
198.900624
 30
0.0
 11
-246.254911
 21
198.74485
 31
0.0
  0
LINE
  5
3B
100
AcDbEntity
  8
0
370
    -3
  6
Continuous
100
AcDbLine
 10
-243.282575
 20
201.091818
 30
0.0
 11
-246.254911
 21
201.247591
 31
0.0
  0
LINE
  5
3C
100
AcDbEntity
  8
0
370
    -3
  6
Continuous
100
AcDbLine
 10
-243.282575
 20
203.400624
 30
0.0
 11
-246.254911
 21
203.24485
 31
0.0
  0
LINE
  5
3D
100
AcDbEntity
  8
0
370
    -3
  6
Continuous
100
AcDbLine
 10
-247.082575
 20
207.246221
 30
0.0
 11
-243.282575
 21
207.246221
 31
0.0
  0
LINE
  5
3E
100
AcDbEntity
  8
0
370
    -3
  6
Continuous
100
AcDbLine
 10
-247.082575
 20
235.246221
 30
0.0
 11
-243.282575
 21
235.246221
 31
0.0
  0
LINE
  5
3F
100
AcDbEntity
  8
0
370
    -3
  6
Continuous
100
AcDbLine
 10
-243.282575
 20
239.091818
 30
0.0
 11
-246.254911
 21
239.247591
 31
0.0
  0
LINE
  5
40
100
AcDbEntity
  8
0
370
    -3
  6
Continuous
100
AcDbLine
 10
-243.282575
 20
241.400624
 30
0.0
 11
-246.254911
 21
241.24485
 31
0.0
  0
LINE
  5
41
100
AcDbEntity
  8
0
370
    -3
  6
Continuous
100
AcDbLine
 10
-243.282575
 20
243.591818
 30
0.0
 11
-246.254911
 21
243.747591
 31
0.0
  0
LINE
  5
42
100
AcDbEntity
  8
0
370
    -3
  6
Continuous
100
AcDbLine
 10
-243.282575
 20
245.900624
 30
0.0
 11
-246.254911
 21
245.74485
 31
0.0
  0
LINE
  5
43
100
AcDbEntity
  8
0
370
    -3
  6
Continuous
100
AcDbLine
 10
-243.282575
 20
248.091818
 30
0.0
 11
-246.254911
 21
248.247591
 31
0.0
  0
LINE
  5
44
100
AcDbEntity
  8
0
370
    -3
  6
Continuous
100
AcDbLine
 10
-243.282575
 20
250.400624
 30
0.0
 11
-246.254911
 21
250.24485
 31
0.0
  0
LINE
  5
45
100
AcDbEntity
  8
0
370
    -3
  6
Continuous
100
AcDbLine
 10
-243.282575
 20
252.591818
 30
0.0
 11
-246.254911
 21
252.747591
 31
0.0
  0
LINE
  5
46
100
AcDbEntity
  8
0
370
    -3
  6
Continuous
100
AcDbLine
 10
-243.282575
 20
254.900624
 30
0.0
 11
-246.254911
 21
254.74485
 31
0.0
  0
LINE
  5
47
100
AcDbEntity
  8
0
370
    -3
  6
Continuous
100
AcDbLine
 10
-243.282575
 20
267.465682
 30
0.0
 11
-247.782575
 21
267.465682
 31
0.0
  0
LINE
  5
48
100
AcDbEntity
  8
0
370
    -3
  6
Continuous
100
AcDbLine
 10
-243.282575
 20
274.746221
 30
0.0
 11
-245.88009
 21
274.746221
 31
0.0
  0
ARC
  5
49
100
AcDbEntity
  8
0
370
    -3
  6
Continuous
100
AcDbCircle
 10
-249.282575
 20
250.902769
 30
0.0
 40
1.0
100
AcDbArc
 50
301.986261
 51
0.0
  0
ARC
  5
4A
100
AcDbEntity
  8
0
370
    -3
  6
Continuous
100
AcDbCircle
 10
-248.223144
 20
249.206419
 30
0.0
 40
1.0
100
AcDbArc
 50
121.986261
 51
177.707541
  0
ARC
  5
4B
100
AcDbEntity
  8
0
370
    -3
  6
Continuous
100
AcDbCircle
 10
450.217425
 20
221.246221
 30
0.0
 40
700.0
100
AcDbArc
 50
175.768744
 51
176.379938
  0
LINE
  5
4C
100
AcDbEntity
  8
0
370
    -3
  6
Continuous
100
AcDbLine
 10
-248.282575
 20
266.965682
 30
0.0
 11
-248.282575
 21
250.902769
 31
0.0
  0
ARC
  5
4D
100
AcDbEntity
  8
0
370
    -3
  6
Continuous
100
AcDbCircle
 10
-248.223144
 20
193.286023
 30
0.0
 40
1.0
100
AcDbArc
 50
182.292459
 51
238.013739
  0
ARC
  5
4E
100
AcDbEntity
  8
0
370
    -3
  6
Continuous
100
AcDbCircle
 10
-249.282575
 20
191.589673
 30
0.0
 40
1.0
100
AcDbArc
 50
0.0
 51
58.013739
  0
ARC
  5
4F
100
AcDbEntity
  8
0
370
    -3
  6
Continuous
100
AcDbCircle
 10
450.217425
 20
221.246221
 30
0.0
 40
700.0
100
AcDbArc
 50
180.0
 51
182.865819
  0
LINE
  5
50
100
AcDbEntity
  8
0
370
    -3
  6
Continuous
100
AcDbLine
 10
-248.282575
 20
175.52676
 30
0.0
 11
-248.282575
 21
191.589673
 31
0.0
  0
ARC
  5
51
100
AcDbEntity
  8
0
370
    -3
  6
Continuous
100
AcDbCircle
 10
-246.202575
 20
202.246221
 30
0.0
 40
1.0
100
AcDbArc
 50
93.0
 51
267.0
  0
ARC
  5
52
100
AcDbEntity
  8
0
370
    -3
  6
Continuous
100
AcDbCircle
 10
-246.202575
 20
197.746221
 30
0.0
 40
1.0
100
AcDbArc
 50
93.0
 51
267.0
  0
ARC
  5
53
100
AcDbEntity
  8
0
370
    -3
  6
Continuous
100
AcDbCircle
 10
-246.202575
 20
193.246221
 30
0.0
 40
1.0
100
AcDbArc
 50
93.0
 51
267.0
  0
ARC
  5
54
100
AcDbEntity
  8
0
370
    -3
  6
Continuous
100
AcDbCircle
 10
-246.202575
 20
188.746221
 30
0.0
 40
1.0
100
AcDbArc
 50
93.0
 51
267.0
  0
LINE
  5
55
100
AcDbEntity
  8
0
370
    -3
  6
Continuous
100
AcDbLine
 10
-247.782575
 20
234.546221
 30
0.0
 11
-247.782575
 21
221.246221
 31
0.0
  0
ARC
  5
56
100
AcDbEntity
  8
0
370
    -3
  6
Continuous
100
AcDbCircle
 10
-247.082575
 20
234.546221
 30
0.0
 40
0.7
100
AcDbArc
 50
90.0
 51
180.0
  0
ARC
  5
57
100
AcDbEntity
  8
0
370
    -3
  6
Continuous
100
AcDbCircle
 10
-247.082575
 20
207.946221
 30
0.0
 40
0.7
100
AcDbArc
 50
180.0
 51
270.0
  0
LINE
  5
58
100
AcDbEntity
  8
0
370
    -3
  6
Continuous
100
AcDbLine
 10
-247.782575
 20
207.946221
 30
0.0
 11
-247.782575
 21
221.246221
 31
0.0
  0
ARC
  5
59
100
AcDbEntity
  8
0
370
    -3
  6
Continuous
100
AcDbCircle
 10
-247.782575
 20
266.965682
 30
0.0
 40
0.5
100
AcDbArc
 50
90.0
 51
180.0
  0
ARC
  5
5A
100
AcDbEntity
  8
0
370
    -3
  6
Continuous
100
AcDbCircle
 10
-245.88009
 20
272.746221
 30
0.0
 40
2.0
100
AcDbArc
 50
90.0
 51
175.768744
  0
LINE
  5
5B
100
AcDbEntity
  8
0
370
    -3
  6
Continuous
100
AcDbLine
 10
-249.027704
 20
253.763523
 30
0.0
 11
-249.027704
 21
253.728918
 31
0.0
  0
LINE
  5
5C
100
AcDbEntity
  8
0
370
    -3
  6
Continuous
100
AcDbLine
 10
-249.027704
 20
188.728918
 30
0.0
 11
-249.027704
 21
188.763523
 31
0.0
  0
ARC
  5
5D
100
AcDbEntity
  8
0
370
    -3
  6
Continuous
100
AcDbCircle
 10
-245.88009
 20
169.746221
 30
0.0
 40
2.0
100
AcDbArc
 50
184.231256
 51
270.0
  0
ARC
  5
5E
100
AcDbEntity
  8
0
370
    -3
  6
Continuous
100
AcDbCircle
 10
-247.782575
 20
175.52676
 30
0.0
 40
0.5
100
AcDbArc
 50
180.0
 51
270.0
  0
ARC
  5
5F
100
AcDbEntity
  8
0
370
    -3
  6
Continuous
100
AcDbCircle
 10
-246.202575
 20
244.746221
 30
0.0
 40
1.0
100
AcDbArc
 50
93.0
 51
267.0
  0
ARC
  5
60
100
AcDbEntity
  8
0
370
    -3
  6
Continuous
100
AcDbCircle
 10
-246.202575
 20
240.246221
 30
0.0
 40
1.0
100
AcDbArc
 50
93.0
 51
267.0
  0
ARC
  5
61
100
AcDbEntity
  8
0
370
    -3
  6
Continuous
100
AcDbCircle
 10
-246.202575
 20
253.746221
 30
0.0
 40
1.0
100
AcDbArc
 50
93.0
 51
267.0
  0
ARC
  5
62
100
AcDbEntity
  8
0
370
    -3
  6
Continuous
100
AcDbCircle
 10
-246.202575
 20
249.246221
 30
0.0
 40
1.0
100
AcDbArc
 50
93.0
 51
267.0
  0
LINE
  5
63
100
AcDbEntity
  8
0
370
    -3
  6
Continuous
100
AcDbLine
 10
-249.782575
 20
240.746221
 30
0.0
 11
-249.782575
 21
201.746221
 31
0.0
  0
ARC
  5
64
100
AcDbEntity
  8
0
370
    -3
  6
Continuous
100
AcDbCircle
 10
-249.282575
 20
201.746221
 30
0.0
 40
0.5
100
AcDbArc
 50
180.0
 51
224.884862
  0
ARC
  5
65
100
AcDbEntity
  8
0
370
    -3
  6
Continuous
100
AcDbCircle
 10
-249.282575
 20
240.746221
 30
0.0
 40
0.5
100
AcDbArc
 50
135.115138
 51
180.0
  0
ARC
  5
66
100
AcDbEntity
  8
0
370
    -3
  6
Continuous
100
AcDbCircle
 10
-249.991102
 20
241.451905
 30
0.0
 40
0.5
100
AcDbArc
 50
315.115138
 51
358.347093
  0
ARC
  5
67
100
AcDbEntity
  8
0
370
    -3
  6
Continuous
100
AcDbCircle
 10
-249.991102
 20
201.040536
 30
0.0
 40
0.5
100
AcDbArc
 50
1.652907
 51
44.884862
  0
ARC
  5
68
100
AcDbEntity
  8
0
370
    -3
  6
Continuous
100
AcDbCircle
 10
450.217425
 20
221.246221
 30
0.0
 40
700.0
100
AcDbArc
 50
177.134181
 51
180.0
  0
ARC
  5
69
100
AcDbEntity
  8
0
370
    -3
  6
Continuous
100
AcDbCircle
 10
450.217425
 20
221.246221
 30
0.0
 40
700.0
100
AcDbArc
 50
183.620062
 51
184.231256
  0
INSERT
  5
7C
100
AcDbEntity
  8
0
100
AcDbBlockReference
  2
ZU_SYM__USERS_HOME_SYMBOL_STD_SYM_B01_-1
 10
-248.282573
 20
260.8442
 30
0.0
 50
360.0
  0
INSERT
  5
8F
100
AcDbEntity
  8
0
100
AcDbBlockReference
  2
ZU_SYM__USERS_HOME_SYMBOL_STD_SYM_B01_00001-1
 10
-248.282573
 20
260.8442
 30
0.0
 50
360.0
  0
INSERT
  5
A2
100
AcDbEntity
  8
0
100
AcDbBlockReference
  2
ZU_SYM__USERS_HOME_SYMBOL_STD_SYM_B01_00002-1
 10
-248.282573
 20
260.8442
 30
0.0
 50
360.0
  0
LINE
  5
A3
100
AcDbEntity
  8
0
370
    -3
  6
CENTER
100
AcDbLine
 10
-240.225174
 20
260.8442
 30
0.0
 11
-254.856339
 21
260.8442
 31
0.0
  0
INSERT
  5
B6
100
AcDbEntity
  8
0
100
AcDbBlockReference
  2
ZU_SYM__USERS_HOME_SYMBOL_STD_SYM_B01_00003-1
 10
-248.282573
 20
181.648241
 30
0.0
 41
-1.0
 50
180.0
  0
LINE
  5
B7
100
AcDbEntity
  8
0
370
    -3
  6
CENTER
100
AcDbLine
 10
-240.225174
 20
181.648241
 30
0.0
 11
-254.856339
 21
181.648241
 31
0.0
  0
LINE
  5
B8
100
AcDbEntity
  8
0
370
    -3
  6
Continuous
100
AcDbLine
 10
-129.282575
 20
272.246221
 30
0.0
 11
-111.782575
 21
272.246221
 31
0.0
  0
LINE
  5
B9
100
AcDbEntity
  8
0
370
    -3
  6
Continuous
100
AcDbLine
 10
-129.282575
 20
271.746221
 30
0.0
 11
-111.782575
 21
271.746221
 31
0.0
  0
LINE
  5
BA
100
AcDbEntity
  8
0
370
    -3
  6
Continuous
100
AcDbLine
 10
-129.282575
 20
267.379303
 30
0.0
 11
-111.782575
 21
267.379303
 31
0.0
  0
LINE
  5
BB
100
AcDbEntity
  8
0
370
    -3
  6
Continuous
100
AcDbLine
 10
-129.282575
 20
262.288134
 30
0.0
 11
-111.782575
 21
262.288134
 31
0.0
  0
LINE
  5
BC
100
AcDbEntity
  8
0
370
    -3
  6
Continuous
100
AcDbLine
 10
-129.282575
 20
254.549822
 30
0.0
 11
-111.782575
 21
254.549822
 31
0.0
  0
LINE
  5
BD
100
AcDbEntity
  8
0
370
    -3
  6
Continuous
100
AcDbLine
 10
-129.282575
 20
252.960612
 30
0.0
 11
-111.782575
 21
252.960612
 31
0.0
  0
LINE
  5
BE
100
AcDbEntity
  8
0
370
    -3
  6
Continuous
100
AcDbLine
 10
-129.282575
 20
250.002616
 30
0.0
 11
-111.782575
 21
250.002616
 31
0.0
  0
LINE
  5
BF
100
AcDbEntity
  8
0
370
    -3
  6
Continuous
100
AcDbLine
 10
-129.282575
 20
248.523593
 30
0.0
 11
-111.782575
 21
248.523593
 31
0.0
  0
LINE
  5
C0
100
AcDbEntity
  8
0
370
    -3
  6
Continuous
100
AcDbLine
 10
-129.282575
 20
245.430862
 30
0.0
 11
-111.782575
 21
245.430862
 31
0.0
  0
LINE
  5
C1
100
AcDbEntity
  8
0
370
    -3
  6
Continuous
100
AcDbLine
 10
-129.282575
 20
244.08446
 30
0.0
 11
-111.782575
 21
244.08446
 31
0.0
  0
LINE
  5
C2
100
AcDbEntity
  8
0
370
    -3
  6
Continuous
100
AcDbLine
 10
-129.282575
 20
240.874255
 30
0.0
 11
-111.782575
 21
240.874255
 31
0.0
  0
LINE
  5
C3
100
AcDbEntity
  8
0
370
    -3
  6
Continuous
100
AcDbLine
 10
-129.282575
 20
239.632336
 30
0.0
 11
-111.782575
 21
239.632336
 31
0.0
  0
LINE
  5
C4
100
AcDbEntity
  8
0
370
    -3
  6
Continuous
100
AcDbLine
 10
-129.282575
 20
235.246221
 30
0.0
 11
-111.782575
 21
235.246221
 31
0.0
  0
LINE
  5
C5
100
AcDbEntity
  8
0
370
    -3
  6
Continuous
100
AcDbLine
 10
-129.282575
 20
207.246221
 30
0.0
 11
-111.782575
 21
207.246221
 31
0.0
  0
LINE
  5
C6
100
AcDbEntity
  8
0
370
    -3
  6
Continuous
100
AcDbLine
 10
-129.282575
 20
202.860106
 30
0.0
 11
-111.782575
 21
202.860106
 31
0.0
  0
LINE
  5
C7
100
AcDbEntity
  8
0
370
    -3
  6
Continuous
100
AcDbLine
 10
-129.282575
 20
201.618186
 30
0.0
 11
-111.782575
 21
201.618186
 31
0.0
  0
LINE
  5
C8
100
AcDbEntity
  8
0
370
    -3
  6
Continuous
100
AcDbLine
 10
-129.282575
 20
198.407981
 30
0.0
 11
-111.782575
 21
198.407981
 31
0.0
  0
LINE
  5
C9
100
AcDbEntity
  8
0
370
    -3
  6
Continuous
100
AcDbLine
 10
-129.282575
 20
197.061579
 30
0.0
 11
-111.782575
 21
197.061579
 31
0.0
  0
LINE
  5
CA
100
AcDbEntity
  8
0
370
    -3
  6
Continuous
100
AcDbLine
 10
-129.282575
 20
193.968848
 30
0.0
 11
-111.782575
 21
193.968848
 31
0.0
  0
LINE
  5
CB
100
AcDbEntity
  8
0
370
    -3
  6
Continuous
100
AcDbLine
 10
-129.282575
 20
192.489825
 30
0.0
 11
-111.782575
 21
192.489825
 31
0.0
  0
LINE
  5
CC
100
AcDbEntity
  8
0
370
    -3
  6
Continuous
100
AcDbLine
 10
-129.282575
 20
189.53183
 30
0.0
 11
-111.782575
 21
189.53183
 31
0.0
  0
LINE
  5
CD
100
AcDbEntity
  8
0
370
    -3
  6
Continuous
100
AcDbLine
 10
-129.282575
 20
187.94262
 30
0.0
 11
-111.782575
 21
187.94262
 31
0.0
  0
LINE
  5
CE
100
AcDbEntity
  8
0
370
    -3
  6
Continuous
100
AcDbLine
 10
-129.282575
 20
180.204307
 30
0.0
 11
-111.782575
 21
180.204307
 31
0.0
  0
LINE
  5
CF
100
AcDbEntity
  8
0
370
    -3
  6
Continuous
100
AcDbLine
 10
-129.282575
 20
175.113138
 30
0.0
 11
-111.782575
 21
175.113138
 31
0.0
  0
LINE
  5
D0
100
AcDbEntity
  8
0
370
    -3
  6
Continuous
100
AcDbLine
 10
-129.282575
 20
170.746221
 30
0.0
 11
-111.782575
 21
170.746221
 31
0.0
  0
LINE
  5
D1
100
AcDbEntity
  8
0
370
    -3
  6
Continuous
100
AcDbLine
 10
-129.282575
 20
170.246221
 30
0.0
 11
-111.782575
 21
170.246221
 31
0.0
  0
LINE
  5
D2
100
AcDbEntity
  8
0
370
    -3
  6
Continuous
100
AcDbLine
 10
-157.385106
 20
0.042886
 30
0.0
 11
-129.282575
 21
0.042886
 31
0.0
  0
LINE
  5
D3
100
AcDbEntity
  8
0
370
    -3
  6
Continuous
100
AcDbLine
 10
-157.385106
 20
-37.457114
 30
0.0
 11
-129.282575
 21
-37.457114
 31
0.0
  0
ARC
  5
D4
100
AcDbEntity
  8
0
370
    -3
  6
Continuous
100
AcDbCircle
 10
450.217425
 20
-18.707114
 30
0.0
 40
700.0
100
AcDbArc
 50
175.85105
 51
176.166643
  0
ARC
  5
D5
100
AcDbEntity
  8
0
370
    -3
  6
Continuous
100
AcDbCircle
 10
-245.953352
 20
31.792886
 30
0.0
 40
2.0
100
AcDbArc
 50
90.0
 51
175.85105
  0
LINE
  5
D6
100
AcDbEntity
  8
0
370
    -3
  6
Continuous
100
AcDbLine
 10
-243.282575
 20
33.792886
 30
0.0
 11
-245.953352
 21
33.792886
 31
0.0
  0
ARC
  5
D7
100
AcDbEntity
  8
0
370
    -3
  6
Continuous
100
AcDbCircle
 10
450.217425
 20
-18.707114
 30
0.0
 40
700.0
100
AcDbArc
 50
183.795679
 51
184.14895
  0
LINE
  5
D8
100
AcDbEntity
  8
0
370
    -3
  6
Continuous
100
AcDbLine
 10
-243.282575
 20
-68.957114
 30
0.0
 11
-243.282575
 21
-65.507114
 31
0.0
  0
LINE
  5
D9
100
AcDbEntity
  8
0
370
    -3
  6
Continuous
100
AcDbLine
 10
-243.282575
 20
-70.457114
 30
0.0
 11
-243.282575
 21
-71.207114
 31
0.0
  0
ARC
  5
DA
100
AcDbEntity
  8
0
370
    -3
  6
Continuous
100
AcDbCircle
 10
-245.953352
 20
-69.207114
 30
0.0
 40
2.0
100
AcDbArc
 50
184.14895
 51
270.0
  0
LINE
  5
DB
100
AcDbEntity
  8
0
370
    -3
  6
Continuous
100
AcDbLine
 10
-243.282575
 20
-71.207114
 30
0.0
 11
-245.953352
 21
-71.207114
 31
0.0
  0
LINE
  5
DC
100
AcDbEntity
  8
0
370
    -3
  6
Continuous
100
AcDbLine
 10
-243.282575
 20
-71.207114
 30
0.0
 11
-243.282575
 21
-68.957114
 31
0.0
  0
LINE
  5
DD
100
AcDbEntity
  8
0
370
    -3
  6
Continuous
100
AcDbLine
 10
-243.282575
 20
33.792886
 30
0.0
 11
-243.282575
 21
28.092886
 31
0.0
  0
LINE
  5
DE
100
AcDbEntity
  8
0
370
    -3
  6
Continuous
100
AcDbLine
 10
-129.282575
 20
33.792886
 30
0.0
 11
-129.282575
 21
-18.707114
 31
0.0
  0
LINE
  5
DF
100
AcDbEntity
  8
0
370
    -3
  6
Continuous
100
AcDbLine
 10
-243.282575
 20
32.292886
 30
0.0
 11
-129.282575
 21
32.292886
 31
0.0
  0
LINE
  5
E0
100
AcDbEntity
  8
0
370
    -3
  6
Continuous
100
AcDbLine
 10
-243.282575
 20
31.792886
 30
0.0
 11
-129.282575
 21
31.792886
 31
0.0
  0
LINE
  5
E1
100
AcDbEntity
  8
0
370
    -3
  6
Continuous
100
AcDbLine
 10
-129.282575
 20
33.792886
 30
0.0
 11
-243.282575
 21
33.792886
 31
0.0
  0
LINE
  5
E2
100
AcDbEntity
  8
0
370
    -3
  6
Continuous
100
AcDbLine
 10
-129.282575
 20
-65.509328
 30
0.0
 11
-129.282575
 21
-18.707114
 31
0.0
  0
LINE
  5
E3
100
AcDbEntity
  8
0
370
    -3
  6
Continuous
100
AcDbLine
 10
-243.282575
 20
-69.707114
 30
0.0
 11
-136.282575
 21
-69.707114
 31
0.0
  0
LINE
  5
E4
100
AcDbEntity
  8
0
370
    -3
  6
Continuous
100
AcDbLine
 10
-243.282575
 20
-69.207114
 30
0.0
 11
-136.282575
 21
-69.207114
 31
0.0
  0
LINE
  5
E5
100
AcDbEntity
  8
0
370
    -3
  6
Continuous
100
AcDbLine
 10
-136.282575
 20
-71.207114
 30
0.0
 11
-243.282575
 21
-71.207114
 31
0.0
  0
LINE
  5
E6
100
AcDbEntity
  8
0
370
    -3
  6
Continuous
100
AcDbLine
 10
-157.517767
 20
21.725333
 30
0.0
 11
-129.282575
 21
21.725333
 31
0.0
  0
LINE
  5
E7
100
AcDbEntity
  8
0
370
    -3
  6
Continuous
100
AcDbLine
 10
-157.385106
 20
14.39268
 30
0.0
 11
-129.282575
 21
14.39268
 31
0.0
  0
LINE
  5
E8
100
AcDbEntity
  8
0
370
    -3
  6
Continuous
100
AcDbLine
 10
-157.385106
 20
13.193092
 30
0.0
 11
-129.282575
 21
13.193092
 31
0.0
  0
LINE
  5
E9
100
AcDbEntity
  8
0
370
    -3
  6
Continuous
100
AcDbLine
 10
-157.385106
 20
9.89268
 30
0.0
 11
-129.282575
 21
9.89268
 31
0.0
  0
LINE
  5
EA
100
AcDbEntity
  8
0
370
    -3
  6
Continuous
100
AcDbLine
 10
-157.385106
 20
8.693092
 30
0.0
 11
-141.139966
 21
8.693092
 31
0.0
  0
LINE
  5
EB
100
AcDbEntity
  8
0
370
    -3
  6
Continuous
100
AcDbLine
 10
-157.385106
 20
5.39268
 30
0.0
 11
-129.282575
 21
5.39268
 31
0.0
  0
LINE
  5
EC
100
AcDbEntity
  8
0
370
    -3
  6
Continuous
100
AcDbLine
 10
-243.282575
 20
28.619483
 30
0.0
 11
-129.282575
 21
28.619483
 31
0.0
  0
LINE
  5
ED
100
AcDbEntity
  8
0
370
    -3
  6
Continuous
100
AcDbLine
 10
-157.385106
 20
4.193092
 30
0.0
 11
-129.282575
 21
4.193092
 31
0.0
  0
LINE
  5
EE
100
AcDbEntity
  8
0
370
    -3
  6
Continuous
100
AcDbLine
 10
-146.282575
 20
8.693092
 30
0.0
 11
-129.282575
 21
8.693092
 31
0.0
  0
LINE
  5
EF
100
AcDbEntity
  8
0
370
    -3
  6
Continuous
100
AcDbLine
 10
-157.385106
 20
-41.60732
 30
0.0
 11
-146.282575
 21
-41.60732
 31
0.0
  0
LINE
  5
F0
100
AcDbEntity
  8
0
370
    -3
  6
Continuous
100
AcDbLine
 10
-157.385106
 20
-42.806908
 30
0.0
 11
-129.282575
 21
-42.806908
 31
0.0
  0
LINE
  5
F1
100
AcDbEntity
  8
0
370
    -3
  6
Continuous
100
AcDbLine
 10
-157.385106
 20
-46.10732
 30
0.0
 11
-137.782575
 21
-46.10732
 31
0.0
  0
LINE
  5
F2
100
AcDbEntity
  8
0
370
    -3
  6
Continuous
100
AcDbLine
 10
-157.385106
 20
-47.306908
 30
0.0
 11
-129.282575
 21
-47.306908
 31
0.0
  0
LINE
  5
F3
100
AcDbEntity
  8
0
370
    -3
  6
Continuous
100
AcDbLine
 10
-157.385106
 20
-50.60732
 30
0.0
 11
-129.282575
 21
-50.60732
 31
0.0
  0
LINE
  5
F4
100
AcDbEntity
  8
0
370
    -3
  6
Continuous
100
AcDbLine
 10
-157.385106
 20
-51.806908
 30
0.0
 11
-129.282575
 21
-51.806908
 31
0.0
  0
LINE
  5
F5
100
AcDbEntity
  8
0
370
    -3
  6
Continuous
100
AcDbLine
 10
-157.517767
 20
-59.139561
 30
0.0
 11
-129.282575
 21
-59.139561
 31
0.0
  0
LINE
  5
F6
100
AcDbEntity
  8
0
370
    -3
  6
Continuous
100
AcDbLine
 10
-146.282575
 20
-46.10732
 30
0.0
 11
-129.282575
 21
-46.10732
 31
0.0
  0
LINE
  5
F7
100
AcDbEntity
  8
0
370
    -3
  6
Continuous
100
AcDbLine
 10
-243.282575
 20
-66.033711
 30
0.0
 11
-135.186217
 21
-66.033711
 31
0.0
  0
LINE
  5
F8
100
AcDbEntity
  8
0
370
    -3
  6
Continuous
100
AcDbLine
 10
-146.282575
 20
-41.60732
 30
0.0
 11
-129.282575
 21
-41.60732
 31
0.0
  0
LINE
  5
F9
100
AcDbEntity
  8
0
370
    -3
  6
Continuous
100
AcDbLine
 10
-129.282575
 20
-65.509328
 30
0.0
 11
-129.282575
 21
-18.707114
 31
0.0
  0
LINE
  5
FA
100
AcDbEntity
  8
0
370
    -3
  6
Continuous
100
AcDbLine
 10
-129.282575
 20
33.792886
 30
0.0
 11
-129.282575
 21
-18.707114
 31
0.0
  0
LINE
  5
FB
100
AcDbEntity
  8
0
370
    -3
  6
Continuous
100
AcDbLine
 10
-129.282575
 20
-18.707114
 30
0.0
 11
-129.282575
 21
33.792886
 31
0.0
  0
LINE
  5
FC
100
AcDbEntity
  8
0
370
    -3
  6
CENTER
100
AcDbLine
 10
-124.931524
 20
-18.707114
 30
0.0
 11
-282.053352
 21
-18.707114
 31
0.0
  0
LINE
  5
FD
100
AcDbEntity
  8
0
370
    -3
  6
Continuous
100
AcDbLine
 10
-30.394513
 20
-3.707358
 30
0.0
 11
-8.282559
 21
-3.707358
 31
0.0
  0
LINE
  5
FE
100
AcDbEntity
  8
0
370
    -3
  6
Continuous
100
AcDbLine
 10
-30.394513
 20
2.068732
 30
0.0
 11
-8.282559
 21
2.068732
 31
0.0
  0
LINE
  5
FF
100
AcDbEntity
  8
0
370
    -3
  6
CENTER
100
AcDbLine
 10
-2.705283
 20
-0.707114
 30
0.0
 11
-77.351209
 21
-0.707114
 31
0.0
  0
LINE
  5
100
100
AcDbEntity
  8
0
370
    -3
  6
Continuous
100
AcDbLine
 10
-8.282559
 20
8.46481
 30
0.0
 11
-8.282559
 21
-9.807114
 31
0.0
  0
LINE
  5
101
100
AcDbEntity
  8
0
370
    -3
  6
Continuous
100
AcDbLine
 10
-36.482559
 20
-11.707114
 30
0.0
 11
-38.282575
 21
-11.707114
 31
0.0
  0
LINE
  5
102
100
AcDbEntity
  8
0
370
    -3
  6
Continuous
100
AcDbLine
 10
-36.482559
 20
10.36481
 30
0.0
 11
-38.282575
 21
10.36481
 31
0.0
  0
LINE
  5
103
100
AcDbEntity
  8
0
370
    -3
  6
Continuous
100
AcDbLine
 10
-36.282559
 20
-0.707114
 30
0.0
 11
-36.282559
 21
-11.507114
 31
0.0
  0
LINE
  5
104
100
AcDbEntity
  8
0
370
    -3
  6
Continuous
100
AcDbLine
 10
-33.722751
 20
-10.207114
 30
0.0
 11
-34.282559
 21
-10.057114
 31
0.0
  0
LINE
  5
105
100
AcDbEntity
  8
0
370
    -3
  6
Continuous
100
AcDbLine
 10
-34.282559
 20
-10.057114
 30
0.0
 11
-35.882559
 21
-10.057114
 31
0.0
  0
LINE
  5
106
100
AcDbEntity
  8
0
370
    -3
  6
Continuous
100
AcDbLine
 10
-36.482559
 20
-11.707114
 30
0.0
 11
-36.282559
 21
-11.507114
 31
0.0
  0
LINE
  5
107
100
AcDbEntity
  8
0
370
    -3
  6
Continuous
100
AcDbLine
 10
-8.682559
 20
-10.207114
 30
0.0
 11
-33.722751
 21
-10.207114
 31
0.0
  0
LINE
  5
108
100
AcDbEntity
  8
0
370
    -3
  6
Continuous
100
AcDbLine
 10
-36.282559
 20
-0.63519
 30
0.0
 11
-36.282559
 21
10.16481
 31
0.0
  0
LINE
  5
109
100
AcDbEntity
  8
0
370
    -3
  6
Continuous
100
AcDbLine
 10
-34.282559
 20
8.71481
 30
0.0
 11
-35.882559
 21
8.71481
 31
0.0
  0
LINE
  5
10A
100
AcDbEntity
  8
0
370
    -3
  6
Continuous
100
AcDbLine
 10
-36.482559
 20
10.36481
 30
0.0
 11
-36.282559
 21
10.16481
 31
0.0
  0
LINE
  5
10B
100
AcDbEntity
  8
0
370
    -3
  6
Continuous
100
AcDbLine
 10
-8.682559
 20
8.86481
 30
0.0
 11
-33.722751
 21
8.86481
 31
0.0
  0
LINE
  5
10C
100
AcDbEntity
  8
0
370
    -3
  6
Continuous
100
AcDbLine
 10
-33.722751
 20
8.86481
 30
0.0
 11
-34.282559
 21
8.71481
 31
0.0
  0
LINE
  5
10D
100
AcDbEntity
  8
0
370
    -3
  6
Continuous
100
AcDbLine
 10
-41.64355
 20
-10.707114
 30
0.0
 11
-41.64355
 21
-63.854278
 31
0.0
  0
LINE
  5
10E
100
AcDbEntity
  8
0
370
    -3
  6
Continuous
100
AcDbLine
 10
-62.573625
 20
-10.707114
 30
0.0
 11
-62.573625
 21
-63.361599
 31
0.0
  0
LINE
  5
10F
100
AcDbEntity
  8
0
370
    -3
  6
Continuous
100
AcDbLine
 10
-134.282575
 20
-80.707358
 30
0.0
 11
-40.282575
 21
-80.707358
 31
0.0
  0
LINE
  5
110
100
AcDbEntity
  8
0
370
    -3
  6
CENTER
100
AcDbLine
 10
-50.782575
 20
-83.929807
 30
0.0
 11
-50.782575
 21
-63.367632
 31
0.0
  0
LINE
  5
111
100
AcDbEntity
  8
0
370
    -3
  6
Continuous
100
AcDbLine
 10
-40.282575
 20
-0.707114
 30
0.0
 11
-40.282575
 21
25.376143
 31
0.0
  0
LINE
  5
112
100
AcDbEntity
  8
0
370
    -3
  6
Continuous
100
AcDbLine
 10
-38.282575
 20
-0.707114
 30
0.0
 11
-38.282575
 21
20.792886
 31
0.0
  0
LINE
  5
113
100
AcDbEntity
  8
0
370
    -3
  6
Continuous
100
AcDbLine
 10
-38.282575
 20
-0.707114
 30
0.0
 11
-38.282575
 21
-22.207114
 31
0.0
  0
LINE
  5
114
100
AcDbEntity
  8
0
370
    -3
  6
Continuous
100
AcDbLine
 10
-40.738944
 20
-65.685428
 30
0.0
 11
-99.282575
 21
-64.663545
 31
0.0
  0
LINE
  5
115
100
AcDbEntity
  8
0
370
    -3
  6
Continuous
100
AcDbLine
 10
-40.282575
 20
-0.707114
 30
0.0
 11
-40.282575
 21
-65.02277
 31
0.0
  0
LINE
  5
116
100
AcDbEntity
  8
0
370
    -3
  6
Continuous
100
AcDbLine
 10
-38.282575
 20
-80.177358
 30
0.0
 11
-38.282575
 21
-68.185047
 31
0.0
  0
LINE
  5
117
100
AcDbEntity
  8
0
370
    -3
  6
Continuous
100
AcDbLine
 10
-40.282575
 20
-64.800727
 30
0.0
 11
-40.282575
 21
-65.02277
 31
0.0
  0
LINE
  5
118
100
AcDbEntity
  8
0
370
    -3
  6
Continuous
100
AcDbLine
 10
-40.282575
 20
-80.707358
 30
0.0
 11
-40.282575
 21
-80.177358
 31
0.0
  0
LINE
  5
119
100
AcDbEntity
  8
0
370
    -3
  6
Continuous
100
AcDbLine
 10
-38.282575
 20
-80.177358
 30
0.0
 11
-40.282575
 21
-80.177358
 31
0.0
  0
LINE
  5
11A
100
AcDbEntity
  8
0
370
    -3
  6
Continuous
100
AcDbLine
 10
-129.282575
 20
-65.509328
 30
0.0
 11
-129.282575
 21
-18.707114
 31
0.0
  0
LINE
  5
11B
100
AcDbEntity
  8
0
370
    -3
  6
Continuous
100
AcDbLine
 10
-111.782575
 20
-19.957113
 30
0.0
 11
-111.782575
 21
-65.015631
 31
0.0
  0
LINE
  5
11C
100
AcDbEntity
  8
0
370
    -3
  6
Continuous
100
AcDbLine
 10
-101.782575
 20
-53.524367
 30
0.0
 11
-101.782575
 21
-18.707114
 31
0.0
  0
LINE
  5
11D
100
AcDbEntity
  8
0
370
    -3
  6
Continuous
100
AcDbLine
 10
-111.782575
 20
-11.457115
 30
0.0
 11
-111.782575
 21
46.327796
 31
0.0
  0
LINE
  5
11E
100
AcDbEntity
  8
0
370
    -3
  6
Continuous
100
AcDbLine
 10
-111.782575
 20
34.264233
 30
0.0
 11
-129.282575
 21
33.805979
 31
0.0
  0
LINE
  5
11F
100
AcDbEntity
  8
0
370
    -3
  6
Continuous
100
AcDbLine
 10
-106.782575
 20
45.454022
 30
0.0
 11
-106.782575
 21
42.782821
 31
0.0
  0
LINE
  5
120
100
AcDbEntity
  8
0
370
    -3
  6
Continuous
100
AcDbLine
 10
-107.182575
 20
45.854022
 30
0.0
 11
-110.782575
 21
45.854022
 31
0.0
  0
LINE
  5
121
100
AcDbEntity
  8
0
370
    -3
  6
Continuous
100
AcDbLine
 10
-107.182575
 20
42.382821
 30
0.0
 11
-110.782575
 21
42.382821
 31
0.0
  0
LINE
  5
122
100
AcDbEntity
  8
0
370
    -3
  6
Continuous
100
AcDbLine
 10
-106.782575
 20
-10.857114
 30
0.0
 11
-106.782575
 21
-20.557114
 31
0.0
  0
LINE
  5
123
100
AcDbEntity
  8
0
370
    -3
  6
Continuous
100
AcDbLine
 10
-107.182575
 20
-20.957114
 30
0.0
 11
-110.782575
 21
-20.957114
 31
0.0
  0
LINE
  5
124
100
AcDbEntity
  8
0
370
    -3
  6
Continuous
100
AcDbLine
 10
-107.182575
 20
-10.457114
 30
0.0
 11
-110.782575
 21
-10.457114
 31
0.0
  0
LINE
  5
125
100
AcDbEntity
  8
0
370
    -3
  6
Continuous
100
AcDbLine
 10
-129.282575
 20
33.792886
 30
0.0
 11
-129.282575
 21
-18.707114
 31
0.0
  0
LINE
  5
126
100
AcDbEntity
  8
0
370
    -3
  6
Continuous
100
AcDbLine
 10
-101.782575
 20
-18.707114
 30
0.0
 11
-101.782575
 21
46.836524
 31
0.0
  0
LINE
  5
127
100
AcDbEntity
  8
0
370
    -3
  6
Continuous
100
AcDbLine
 10
-101.782575
 20
46.827796
 30
0.0
 11
-111.282575
 21
46.827796
 31
0.0
  0
LINE
  5
128
100
AcDbEntity
  8
0
370
    -3
  6
Continuous
100
AcDbLine
 10
-84.282575
 20
46.49615
 30
0.0
 11
-101.282575
 21
46.792886
 31
0.0
  0
LINE
  5
129
100
AcDbEntity
  8
0
370
    -3
  6
Continuous
100
AcDbLine
 10
-99.619773
 20
46.792886
 30
0.0
 11
-101.282575
 21
46.792886
 31
0.0
  0
LINE
  5
12A
100
AcDbEntity
  8
0
370
    -3
  6
CENTER
100
AcDbLine
 10
-123.782575
 20
-83.929807
 30
0.0
 11
-123.782575
 21
-63.367632
 31
0.0
  0
LINE
  5
12B
100
AcDbEntity
  8
0
370
    -3
  6
Continuous
100
AcDbLine
 10
-84.282575
 20
46.49615
 30
0.0
 11
-101.282575
 21
46.792886
 31
0.0
  0
LINE
  5
12C
100
AcDbEntity
  8
0
370
    -3
  6
Continuous
100
AcDbLine
 10
-99.282575
 20
-64.663545
 30
0.0
 11
-134.266965
 21
-65.649852
 31
0.0
  0
LINE
  5
12D
100
AcDbEntity
  8
0
370
    -3
  6
Continuous
100
AcDbLine
 10
-136.282575
 20
-80.177358
 30
0.0
 11
-136.282575
 21
-68.102476
 31
0.0
  0
LINE
  5
12E
100
AcDbEntity
  8
0
370
    -3
  6
Continuous
100
AcDbLine
 10
-99.676739
 20
-50.687856
 30
0.0
 11
-109.41434
 21
-63.804173
 31
0.0
  0
LINE
  5
12F
100
AcDbEntity
  8
0
370
    -3
  6
Continuous
100
AcDbLine
 10
-99.282575
 20
-49.495677
 30
0.0
 11
-99.282575
 21
-35.085704
 31
0.0
  0
LINE
  5
130
100
AcDbEntity
  8
0
370
    -3
  6
Continuous
100
AcDbLine
 10
-101.282575
 20
-52.850879
 30
0.0
 11
-101.282575
 21
-0.707114
 31
0.0
  0
LINE
  5
131
100
AcDbEntity
  8
0
370
    -3
  6
Continuous
100
AcDbLine
 10
-101.282575
 20
-0.707114
 30
0.0
 11
-101.282575
 21
46.792886
 31
0.0
  0
LINE
  5
132
100
AcDbEntity
  8
0
370
    -3
  6
Continuous
100
AcDbLine
 10
-134.282575
 20
-80.707358
 30
0.0
 11
-134.282575
 21
-80.177358
 31
0.0
  0
LINE
  5
133
100
AcDbEntity
  8
0
370
    -3
  6
Continuous
100
AcDbLine
 10
-134.282575
 20
-80.177358
 30
0.0
 11
-136.282575
 21
-80.177358
 31
0.0
  0
LINE
  5
134
100
AcDbEntity
  8
0
370
    -3
  6
Continuous
100
AcDbLine
 10
149.18859
 20
-3.707114
 30
0.0
 11
149.18859
 21
2.292886
 31
0.0
  0
LINE
  5
135
100
AcDbEntity
  8
0
370
    -3
  6
Continuous
100
AcDbLine
 10
143.18859
 20
-3.707114
 30
0.0
 11
143.18859
 21
2.292886
 31
0.0
  0
LINE
  5
136
100
AcDbEntity
  8
0
370
    -3
  6
Continuous
100
AcDbLine
 10
149.18859
 20
2.292886
 30
0.0
 11
143.18859
 21
2.292886
 31
0.0
  0
LINE
  5
137
100
AcDbEntity
  8
0
370
    -3
  6
Continuous
100
AcDbLine
 10
149.18859
 20
-3.707114
 30
0.0
 11
143.18859
 21
-3.707114
 31
0.0
  0
LINE
  5
138
100
AcDbEntity
  8
0
370
    -3
  6
Continuous
100
AcDbLine
 10
205.505311
 20
6.173823
 30
0.0
 11
205.505311
 21
-63.707114
 31
0.0
  0
LINE
  5
139
100
AcDbEntity
  8
0
370
    -3
  6
Continuous
100
AcDbLine
 10
203.68859
 20
-80.707114
 30
0.0
 11
203.68859
 21
-80.707114
 31
0.0
  0
LINE
  5
13A
100
AcDbEntity
  8
0
370
    -3
  6
Continuous
100
AcDbLine
 10
106.68859
 20
-80.707114
 30
0.0
 11
106.68859
 21
-80.707114
 31
0.0
  0
LINE
  5
13B
100
AcDbEntity
  8
0
370
    -3
  6
Continuous
100
AcDbLine
 10
219.883472
 20
-0.707114
 30
0.0
 11
220.001729
 21
-3.75075
 31
0.0
  0
LINE
  5
13C
100
AcDbEntity
  8
0
370
    -3
  6
Continuous
100
AcDbLine
 10
90.493707
 20
-0.707114
 30
0.0
 11
90.37545
 21
-3.75075
 31
0.0
  0
LINE
  5
13D
100
AcDbEntity
  8
0
370
    -3
  6
Continuous
100
AcDbLine
 10
104.871868
 20
6.173823
 30
0.0
 11
104.871868
 21
-63.707114
 31
0.0
  0
LINE
  5
13E
100
AcDbEntity
  8
0
370
    -3
  6
Continuous
100
AcDbLine
 10
124.587569
 20
-79.707114
 30
0.0
 11
107.68859
 21
-79.707114
 31
0.0
  0
LINE
  5
13F
100
AcDbEntity
  8
0
370
    -3
  6
Continuous
100
AcDbLine
 10
185.78961
 20
-79.707114
 30
0.0
 11
202.68859
 21
-79.707114
 31
0.0
  0
LINE
  5
140
100
AcDbEntity
  8
0
370
    -3
  6
Continuous
100
AcDbLine
 10
204.033985
 20
-63.707114
 30
0.0
 11
204.033985
 21
-3.75075
 31
0.0
  0
LINE
  5
141
100
AcDbEntity
  8
0
370
    -3
  6
Continuous
100
AcDbLine
 10
106.343194
 20
-63.707114
 30
0.0
 11
106.343194
 21
-3.75075
 31
0.0
  0
LINE
  5
142
100
AcDbEntity
  8
0
370
    -3
  6
Continuous
100
AcDbLine
 10
224.68859
 20
-63.964473
 30
0.0
 11
224.68859
 21
-3.207114
 31
0.0
  0
LINE
  5
143
100
AcDbEntity
  8
0
370
    -3
  6
Continuous
100
AcDbLine
 10
85.68859
 20
-63.964473
 30
0.0
 11
85.68859
 21
-3.75075
 31
0.0
  0
LINE
  5
144
100
AcDbEntity
  8
0
370
    -3
  6
Continuous
100
AcDbLine
 10
106.68859
 20
-80.707114
 30
0.0
 11
82.68859
 21
-80.707114
 31
0.0
  0
LINE
  5
145
100
AcDbEntity
  8
0
370
    -3
  6
Continuous
100
AcDbLine
 10
203.68859
 20
-80.707114
 30
0.0
 11
227.68859
 21
-80.707114
 31
0.0
  0
LINE
  5
146
100
AcDbEntity
  8
0
370
    -3
  6
Continuous
100
AcDbLine
 10
155.18859
 20
-65.707114
 30
0.0
 11
225.18859
 21
-65.707114
 31
0.0
  0
LINE
  5
147
100
AcDbEntity
  8
0
370
    -3
  6
CENTER
100
AcDbLine
 10
92.68859
 20
-85.004508
 30
0.0
 11
92.68859
 21
-61.743874
 31
0.0
  0
LINE
  5
148
100
AcDbEntity
  8
0
370
    -3
  6
CENTER
100
AcDbLine
 10
217.68859
 20
-85.004508
 30
0.0
 11
217.68859
 21
-61.743874
 31
0.0
  0
LINE
  5
149
100
AcDbEntity
  8
0
370
    -3
  6
Continuous
100
AcDbLine
 10
82.68859
 20
-80.707114
 30
0.0
 11
82.68859
 21
-68.207114
 31
0.0
  0
LINE
  5
14A
100
AcDbEntity
  8
0
370
    -3
  6
Continuous
100
AcDbLine
 10
227.68859
 20
-80.707114
 30
0.0
 11
227.68859
 21
-68.207114
 31
0.0
  0
LINE
  5
14B
100
AcDbEntity
  8
0
370
    -3
  6
Continuous
100
AcDbLine
 10
155.18859
 20
-78.707114
 30
0.0
 11
125.433152
 21
-78.707114
 31
0.0
  0
LINE
  5
14C
100
AcDbEntity
  8
0
370
    -3
  6
Continuous
100
AcDbLine
 10
155.18859
 20
-78.707114
 30
0.0
 11
184.944027
 21
-78.707114
 31
0.0
  0
LINE
  5
14D
100
AcDbEntity
  8
0
370
    -3
  6
CENTER
100
AcDbLine
 10
77.778105
 20
-0.707114
 30
0.0
 11
238.451893
 21
-0.707114
 31
0.0
  0
LINE
  5
14E
100
AcDbEntity
  8
0
370
    -3
  6
CENTER
100
AcDbLine
 10
155.18859
 20
-84.221748
 30
0.0
 11
155.18859
 21
-18.707114
 31
0.0
  0
LINE
  5
14F
100
AcDbEntity
  8
0
370
    -3
  6
CENTER
100
AcDbLine
 10
164.980597
 20
-18.707114
 30
0.0
 11
146.479724
 21
-18.707114
 31
0.0
  0
LINE
  5
150
100
AcDbEntity
  8
0
370
    -3
  6
CENTER
100
AcDbLine
 10
155.18859
 20
-0.707114
 30
0.0
 11
155.18859
 21
57.522948
 31
0.0
  0
LINE
  5
151
100
AcDbEntity
  8
0
370
    -3
  6
CENTER
100
AcDbLine
 10
155.18859
 20
-18.707114
 30
0.0
 11
155.18859
 21
-0.707114
 31
0.0
  0
LINE
  5
152
100
AcDbEntity
  8
0
370
    -3
  6
Continuous
100
AcDbLine
 10
155.18859
 20
-65.707114
 30
0.0
 11
85.18859
 21
-65.707114
 31
0.0
  0
LINE
  5
153
100
AcDbEntity
  8
0
370
    -3
  6
DASHED
100
AcDbLine
 10
185.78961
 20
-79.707114
 30
0.0
 11
194.68859
 21
-79.707114
 31
0.0
  0
LINE
  5
154
100
AcDbEntity
  8
0
370
    -3
  6
DASHED
100
AcDbLine
 10
155.18859
 20
-78.707114
 30
0.0
 11
184.944027
 21
-78.707114
 31
0.0
  0
LINE
  5
155
100
AcDbEntity
  8
0
370
    -3
  6
DASHED
100
AcDbLine
 10
155.18859
 20
-78.707114
 30
0.0
 11
125.433152
 21
-78.707114
 31
0.0
  0
LINE
  5
156
100
AcDbEntity
  8
0
370
    -3
  6
DASHED
100
AcDbLine
 10
124.587569
 20
-79.707114
 30
0.0
 11
115.68859
 21
-79.707114
 31
0.0
  0
LINE
  5
157
100
AcDbEntity
  8
0
370
    -3
  6
Continuous
100
AcDbLine
 10
220.001729
 20
-3.75075
 30
0.0
 11
220.001729
 21
-63.707114
 31
0.0
  0
LINE
  5
158
100
AcDbEntity
  8
0
370
    -3
  6
Continuous
100
AcDbLine
 10
90.37545
 20
-3.75075
 30
0.0
 11
90.37545
 21
-63.707114
 31
0.0
  0
LINE
  5
159
100
AcDbEntity
  8
0
370
    -3
  6
Continuous
100
AcDbLine
 10
198.88859
 20
-55.407114
 30
0.0
 11
198.88859
 21
-3.207114
 31
0.0
  0
LINE
  5
15A
100
AcDbEntity
  8
0
370
    -3
  6
Continuous
100
AcDbLine
 10
155.18859
 20
-60.407114
 30
0.0
 11
193.88859
 21
-60.407114
 31
0.0
  0
LINE
  5
15B
100
AcDbEntity
  8
0
370
    -3
  6
Continuous
100
AcDbLine
 10
184.9214
 20
-0.707114
 30
0.0
 11
196.38859
 21
-0.707114
 31
0.0
  0
LINE
  5
15C
100
AcDbEntity
  8
0
370
    -3
  6
Continuous
100
AcDbLine
 10
125.45578
 20
-0.707114
 30
0.0
 11
113.98859
 21
-0.707114
 31
0.0
  0
LINE
  5
15D
100
AcDbEntity
  8
0
370
    -3
  6
Continuous
100
AcDbLine
 10
111.48859
 20
-55.407114
 30
0.0
 11
111.48859
 21
-3.207114
 31
0.0
  0
LINE
  5
15E
100
AcDbEntity
  8
0
370
    -3
  6
Continuous
100
AcDbLine
 10
155.18859
 20
-60.407114
 30
0.0
 11
116.48859
 21
-60.407114
 31
0.0
  0
ARC
  5
15F
100
AcDbEntity
  8
0
370
    -3
  6
Continuous
100
AcDbCircle
 10
-30.394513
 20
-0.819313
 30
0.0
 40
2.888045
100
AcDbArc
 50
90.0
 51
270.0
  0
ARC
  5
160
100
AcDbEntity
  8
0
370
    -3
  6
Continuous
100
AcDbCircle
 10
-35.882559
 20
-10.457114
 30
0.0
 40
0.4
100
AcDbArc
 50
90.0
 51
180.0
  0
ARC
  5
161
100
AcDbEntity
  8
0
370
    -3
  6
Continuous
100
AcDbCircle
 10
-35.882559
 20
9.11481
 30
0.0
 40
0.4
100
AcDbArc
 50
180.0
 51
270.0
  0
ARC
  5
162
100
AcDbEntity
  8
0
370
    -3
  6
Continuous
100
AcDbCircle
 10
-8.682559
 20
8.46481
 30
0.0
 40
0.4
100
AcDbArc
 50
0.0
 51
90.0
  0
ARC
  5
163
100
AcDbEntity
  8
0
370
    -3
  6
Continuous
100
AcDbCircle
 10
-8.682559
 20
-9.807114
 30
0.0
 40
0.4
100
AcDbArc
 50
270.0
 51
0.0
  0
ARC
  5
164
100
AcDbEntity
  8
0
370
    -3
  6
Continuous
100
AcDbCircle
 10
-39.64355
 20
-63.854278
 30
0.0
 40
2.0
100
AcDbArc
 50
180.0
 51
255.337982
  0
ARC
  5
165
100
AcDbEntity
  8
0
370
    -3
  6
Continuous
100
AcDbCircle
 10
-60.573625
 20
-63.361599
 30
0.0
 40
2.0
100
AcDbArc
 50
180.0
 51
269.0
  0
ARC
  5
166
100
AcDbEntity
  8
0
370
    -3
  6
Continuous
100
AcDbCircle
 10
-42.282575
 20
25.376143
 30
0.0
 40
2.0
100
AcDbArc
 50
0.0
 51
42.081511
  0
ARC
  5
167
100
AcDbEntity
  8
0
370
    -3
  6
Continuous
100
AcDbCircle
 10
-39.282575
 20
22.792886
 30
0.0
 40
1.0
100
AcDbArc
 50
180.0
 51
270.0
  0
ARC
  5
168
100
AcDbEntity
  8
0
370
    -3
  6
Continuous
100
AcDbCircle
 10
-39.282575
 20
20.792886
 30
0.0
 40
1.0
100
AcDbArc
 50
0.0
 51
90.0
  0
ARC
  5
169
100
AcDbEntity
  8
0
370
    -3
  6
Continuous
100
AcDbCircle
 10
-39.282575
 20
-22.207114
 30
0.0
 40
1.0
100
AcDbArc
 50
270.0
 51
0.0
  0
ARC
  5
16A
100
AcDbEntity
  8
0
370
    -3
  6
Continuous
100
AcDbCircle
 10
-39.282575
 20
-24.207114
 30
0.0
 40
1.0
100
AcDbArc
 50
90.0
 51
180.0
  0
ARC
  5
16B
100
AcDbEntity
  8
0
370
    -3
  6
Continuous
100
AcDbCircle
 10
-85.32972
 20
-13.494712
 30
0.0
 40
60.0
100
AcDbArc
 50
42.081511
 51
89.0
  0
ARC
  5
16C
100
AcDbEntity
  8
0
370
    -3
  6
Continuous
100
AcDbCircle
 10
-85.32972
 20
-13.494712
 30
0.0
 40
60.0
100
AcDbArc
 50
42.081511
 51
89.0
  0
ARC
  5
16D
100
AcDbEntity
  8
0
370
    -3
  6
Continuous
100
AcDbCircle
 10
-40.782575
 20
-68.185047
 30
0.0
 40
2.5
100
AcDbArc
 50
0.0
 51
89.0
  0
ARC
  5
16E
100
AcDbEntity
  8
0
370
    -3
  6
Continuous
100
AcDbCircle
 10
-39.282575
 20
-65.02277
 30
0.0
 40
1.0
100
AcDbArc
 50
180.0
 51
244.623066
  0
ARC
  5
16F
100
AcDbEntity
  8
0
370
    -3
  6
Continuous
100
AcDbCircle
 10
-107.182575
 20
45.454022
 30
0.0
 40
0.4
100
AcDbArc
 50
0.0
 51
90.0
  0
ARC
  5
170
100
AcDbEntity
  8
0
370
    -3
  6
Continuous
100
AcDbCircle
 10
-110.782575
 20
44.854022
 30
0.0
 40
1.0
100
AcDbArc
 50
90.0
 51
180.0
  0
ARC
  5
171
100
AcDbEntity
  8
0
370
    -3
  6
Continuous
100
AcDbCircle
 10
-110.782575
 20
41.382821
 30
0.0
 40
1.0
100
AcDbArc
 50
90.0
 51
180.0
  0
ARC
  5
172
100
AcDbEntity
  8
0
370
    -3
  6
Continuous
100
AcDbCircle
 10
-107.182575
 20
42.782821
 30
0.0
 40
0.4
100
AcDbArc
 50
270.0
 51
0.0
  0
ARC
  5
173
100
AcDbEntity
  8
0
370
    -3
  6
Continuous
100
AcDbCircle
 10
-110.782575
 20
-21.957114
 30
0.0
 40
1.0
100
AcDbArc
 50
90.0
 51
180.0
  0
ARC
  5
174
100
AcDbEntity
  8
0
370
    -3
  6
Continuous
100
AcDbCircle
 10
-107.182575
 20
-20.557114
 30
0.0
 40
0.4
100
AcDbArc
 50
270.0
 51
0.0
  0
ARC
  5
175
100
AcDbEntity
  8
0
370
    -3
  6
Continuous
100
AcDbCircle
 10
-110.782575
 20
-9.457114
 30
0.0
 40
1.0
100
AcDbArc
 50
180.0
 51
270.0
  0
ARC
  5
176
100
AcDbEntity
  8
0
370
    -3
  6
Continuous
100
AcDbCircle
 10
-107.182575
 20
-10.857114
 30
0.0
 40
0.4
100
AcDbArc
 50
0.0
 51
90.0
  0
ARC
  5
177
100
AcDbEntity
  8
0
370
    -3
  6
Continuous
100
AcDbCircle
 10
-111.282575
 20
46.327796
 30
0.0
 40
0.5
100
AcDbArc
 50
90.0
 51
180.0
  0
ARC
  5
178
100
AcDbEntity
  8
0
370
    -3
  6
Continuous
100
AcDbCircle
 10
-101.282575
 20
-35.085704
 30
0.0
 40
2.0
100
AcDbArc
 50
0.0
 51
90.0
  0
ARC
  5
179
100
AcDbEntity
  8
0
370
    -3
  6
Continuous
100
AcDbCircle
 10
-133.782575
 20
-68.102476
 30
0.0
 40
2.5
100
AcDbArc
 50
101.172052
 51
180.0
  0
ARC
  5
17A
100
AcDbEntity
  8
0
370
    -3
  6
Continuous
100
AcDbCircle
 10
-111.823094
 20
-62.015905
 30
0.0
 40
3.0
100
AcDbArc
 50
271.614898
 51
323.409675
  0
ARC
  5
17B
100
AcDbEntity
  8
0
370
    -3
  6
Continuous
100
AcDbCircle
 10
-101.282575
 20
-49.495677
 30
0.0
 40
2.0
100
AcDbArc
 50
323.409675
 51
0.0
  0
CIRCLE
  5
17C
100
AcDbEntity
  8
0
370
    -3
  6
Continuous
100
AcDbCircle
 10
155.18859
 20
-0.707114
 30
0.0
 40
2.4585
  0
CIRCLE
  5
17D
100
AcDbEntity
  8
0
370
    -3
  6
Continuous
100
AcDbCircle
 10
155.18859
 20
-0.707114
 30
0.0
 40
3.0
  0
ARC
  5
17E
100
AcDbEntity
  8
0
370
    -3
  6
Continuous
100
AcDbCircle
 10
155.18859
 20
-0.707114
 30
0.0
 40
9.5
100
AcDbArc
 50
198.434949
 51
161.591512
  0
ARC
  5
17F
100
AcDbEntity
  8
0
370
    -3
  6
Continuous
100
AcDbCircle
 10
210.505312
 20
6.173823
 30
0.0
 40
5.0
100
AcDbArc
 50
171.164648
 51
180.0
  0
ARC
  5
180
100
AcDbEntity
  8
0
370
    -3
  6
Continuous
100
AcDbCircle
 10
99.871868
 20
6.173823
 30
0.0
 40
5.0
100
AcDbArc
 50
0.0
 51
8.835352
  0
ARC
  5
181
100
AcDbEntity
  8
0
370
    -3
  6
Continuous
100
AcDbCircle
 10
207.505311
 20
-63.707114
 30
0.0
 40
2.0
100
AcDbArc
 50
180.0
 51
270.0
  0
ARC
  5
182
100
AcDbEntity
  8
0
370
    -3
  6
Continuous
100
AcDbCircle
 10
102.871868
 20
-63.707114
 30
0.0
 40
2.0
100
AcDbArc
 50
270.0
 51
0.0
  0
ARC
  5
183
100
AcDbEntity
  8
0
370
    -3
  6
Continuous
100
AcDbCircle
 10
155.18859
 20
-353.207114
 30
0.0
 40
400.0
100
AcDbArc
 50
90.0
 51
93.193847
  0
ARC
  5
184
100
AcDbEntity
  8
0
370
    -3
  6
Continuous
100
AcDbCircle
 10
155.18859
 20
-753.207114
 30
0.0
 40
800.0
100
AcDbArc
 50
88.510142
 51
90.0
  0
ARC
  5
185
100
AcDbEntity
  8
0
370
    -3
  6
Continuous
100
AcDbCircle
 10
119.68859
 20
-74.707114
 30
0.0
 40
7.0
100
AcDbArc
 50
314.415309
 51
325.150095
  0
ARC
  5
186
100
AcDbEntity
  8
0
370
    -3
  6
Continuous
100
AcDbCircle
 10
107.68859
 20
-80.707114
 30
0.0
 40
1.0
100
AcDbArc
 50
90.0
 51
180.0
  0
ARC
  5
187
100
AcDbEntity
  8
0
370
    -3
  6
Continuous
100
AcDbCircle
 10
202.68859
 20
-80.707114
 30
0.0
 40
1.0
100
AcDbArc
 50
0.0
 51
90.0
  0
ARC
  5
188
100
AcDbEntity
  8
0
370
    -3
  6
Continuous
100
AcDbCircle
 10
190.68859
 20
-74.707114
 30
0.0
 40
7.0
100
AcDbArc
 50
214.849905
 51
225.584691
  0
ARC
  5
189
100
AcDbEntity
  8
0
370
    -3
  6
Continuous
100
AcDbCircle
 10
206.033985
 20
-63.707114
 30
0.0
 40
2.0
100
AcDbArc
 50
180.0
 51
270.0
  0
ARC
  5
18A
100
AcDbEntity
  8
0
370
    -3
  6
Continuous
100
AcDbCircle
 10
155.18859
 20
-353.207114
 30
0.0
 40
379.345395
100
AcDbArc
 50
86.806153
 51
90.0
  0
ARC
  5
18B
100
AcDbEntity
  8
0
370
    -3
  6
Continuous
100
AcDbCircle
 10
135.68859
 20
-3.75075
 30
0.0
 40
29.345395
100
AcDbArc
 50
93.193847
 51
180.0
  0
ARC
  5
18C
100
AcDbEntity
  8
0
370
    -3
  6
Continuous
100
AcDbCircle
 10
104.343194
 20
-63.707114
 30
0.0
 40
2.0
100
AcDbArc
 50
270.0
 51
0.0
  0
ARC
  5
18D
100
AcDbEntity
  8
0
370
    -3
  6
Continuous
100
AcDbCircle
 10
174.68859
 20
-3.75075
 30
0.0
 40
29.345395
100
AcDbArc
 50
0.0
 51
86.806153
  0
ARC
  5
18E
100
AcDbEntity
  8
0
370
    -3
  6
Continuous
100
AcDbCircle
 10
155.18859
 20
-353.207114
 30
0.0
 40
379.345395
100
AcDbArc
 50
90.0
 51
93.193847
  0
ARC
  5
18F
100
AcDbEntity
  8
0
370
    -3
  6
Continuous
100
AcDbCircle
 10
135.68859
 20
-3.75075
 30
0.0
 40
50.0
100
AcDbArc
 50
93.193847
 51
180.0
  0
ARC
  5
190
100
AcDbEntity
  8
0
370
    -3
  6
Continuous
100
AcDbCircle
 10
222.001729
 20
-63.707114
 30
0.0
 40
2.0
100
AcDbArc
 50
180.0
 51
270.0
  0
ARC
  5
191
100
AcDbEntity
  8
0
370
    -3
  6
Continuous
100
AcDbCircle
 10
226.68859
 20
-63.964473
 30
0.0
 40
2.0
100
AcDbArc
 50
180.0
 51
250.528779
  0
ARC
  5
192
100
AcDbEntity
  8
0
370
    -3
  6
Continuous
100
AcDbCircle
 10
83.68859
 20
-63.964473
 30
0.0
 40
2.0
100
AcDbArc
 50
289.471221
 51
0.0
  0
ARC
  5
193
100
AcDbEntity
  8
0
370
    -3
  6
Continuous
100
AcDbCircle
 10
174.68859
 20
-3.460657
 30
0.0
 40
50.0
100
AcDbArc
 50
0.0
 51
88.510142
  0
CIRCLE
  5
194
100
AcDbEntity
  8
0
370
    -3
  6
Continuous
100
AcDbCircle
 10
155.18859
 20
-0.707114
 30
0.0
 40
22.5
  0
ARC
  5
195
100
AcDbEntity
  8
0
370
    -3
  6
Continuous
100
AcDbCircle
 10
85.18859
 20
-68.207114
 30
0.0
 40
2.5
100
AcDbArc
 50
90.0
 51
180.0
  0
ARC
  5
196
100
AcDbEntity
  8
0
370
    -3
  6
Continuous
100
AcDbCircle
 10
225.18859
 20
-68.207114
 30
0.0
 40
2.5
100
AcDbArc
 50
0.0
 51
90.0
  0
ARC
  5
197
100
AcDbEntity
  8
0
370
    -3
  6
DASHED
100
AcDbCircle
 10
190.68859
 20
-74.707114
 30
0.0
 40
7.0
100
AcDbArc
 50
214.849905
 51
225.584691
  0
ARC
  5
198
100
AcDbEntity
  8
0
370
    -3
  6
DASHED
100
AcDbCircle
 10
119.68859
 20
-74.707114
 30
0.0
 40
7.0
100
AcDbArc
 50
314.415309
 51
325.150095
  0
ARC
  5
199
100
AcDbEntity
  8
0
370
    -3
  6
Continuous
100
AcDbCircle
 10
88.37545
 20
-63.707114
 30
0.0
 40
2.0
100
AcDbArc
 50
270.0
 51
0.0
  0
CIRCLE
  5
19A
100
AcDbEntity
  8
0
370
    -3
  6
Continuous
100
AcDbCircle
 10
155.18859
 20
-0.707114
 30
0.0
 40
17.500244
  0
ARC
  5
19B
100
AcDbEntity
  8
0
370
    -3
  6
Continuous
100
AcDbCircle
 10
193.88859
 20
-55.407114
 30
0.0
 40
5.0
100
AcDbArc
 50
270.0
 51
0.0
  0
ARC
  5
19C
100
AcDbEntity
  8
0
370
    -3
  6
Continuous
100
AcDbCircle
 10
155.18859
 20
-0.707114
 30
0.0
 40
27.8
100
AcDbArc
 50
270.0
 51
356.151753
  0
ARC
  5
19D
100
AcDbEntity
  8
0
370
    -3
  6
Continuous
100
AcDbCircle
 10
184.9214
 20
-2.707114
 30
0.0
 40
2.0
100
AcDbArc
 50
90.0
 51
176.151753
  0
ARC
  5
19E
100
AcDbEntity
  8
0
370
    -3
  6
Continuous
100
AcDbCircle
 10
196.38859
 20
-3.207114
 30
0.0
 40
2.5
100
AcDbArc
 50
0.0
 51
90.0
  0
ARC
  5
19F
100
AcDbEntity
  8
0
370
    -3
  6
Continuous
100
AcDbCircle
 10
155.18859
 20
-0.707114
 30
0.0
 40
27.8
100
AcDbArc
 50
183.848247
 51
270.0
  0
ARC
  5
1A0
100
AcDbEntity
  8
0
370
    -3
  6
Continuous
100
AcDbCircle
 10
125.45578
 20
-2.707114
 30
0.0
 40
2.0
100
AcDbArc
 50
3.848247
 51
90.0
  0
ARC
  5
1A1
100
AcDbEntity
  8
0
370
    -3
  6
Continuous
100
AcDbCircle
 10
113.98859
 20
-3.207114
 30
0.0
 40
2.5
100
AcDbArc
 50
90.0
 51
180.0
  0
ARC
  5
1A2
100
AcDbEntity
  8
0
370
    -3
  6
Continuous
100
AcDbCircle
 10
116.48859
 20
-55.407114
 30
0.0
 40
5.0
100
AcDbArc
 50
180.0
 51
270.0
  0
ELLIPSE
  5
1A3
100
AcDbEntity
  8
0
370
    -3
  6
Continuous
100
AcDbEllipse
 10
-52.108588
 20
-10.707114
 30
0.0
 11
0.0
 21
26.845151052474932
 31
0.0
210
0.0
220
0.0
230
1.0
 40
0.38983
 41
4.7123889803846897
 42
1.5707963267948968
  0
ELLIPSE
  5
1A4
100
AcDbEntity
  8
0
370
    -3
  6
Continuous
100
AcDbEllipse
 10
212.575267
 20
-0.075391
 30
0.0
 11
-1.3903166079894618
 21
15.891391546717161
 31
0.0
210
0.0
220
0.0
230
1.0
 40
0.454374
 41
4.6329257595275966
 42
1.0741032091784073
  0
ELLIPSE
  5
1A5
100
AcDbEntity
  8
0
370
    -3
  6
Continuous
100
AcDbEllipse
 10
97.801912
 20
-0.075391
 30
0.0
 11
1.3903166079894476
 21
15.891391546717161
 31
0.0
210
0.0
220
0.0
230
1.0
 40
0.454374
 41
5.2090820980011792
 42
1.6502595476519901
  0
LINE
  5
1A6
100
AcDbEntity
  8
0
370
    -3
  6
Continuous
100
AcDbLine
 10
-129.282575
 20
31.792886
 30
0.0
 11
-111.782575
 21
31.792886
 31
0.0
  0
LINE
  5
1A7
100
AcDbEntity
  8
0
370
    -3
  6
Continuous
100
AcDbLine
 10
-129.282575
 20
32.292886
 30
0.0
 11
-111.782575
 21
32.292886
 31
0.0
  0
LINE
  5
1A8
100
AcDbEntity
  8
0
370
    -3
  6
Continuous
100
AcDbLine
 10
-129.282575
 20
27.425969
 30
0.0
 11
-111.782575
 21
27.425969
 31
0.0
  0
LINE
  5
1A9
100
AcDbEntity
  8
0
370
    -3
  6
Continuous
100
AcDbLine
 10
-129.282575
 20
25.797542
 30
0.0
 11
-111.782575
 21
25.797542
 31
0.0
  0
LINE
  5
1AA
100
AcDbEntity
  8
0
370
    -3
  6
Continuous
100
AcDbLine
 10
-129.282575
 20
21.333321
 30
0.0
 11
-111.782575
 21
21.333321
 31
0.0
  0
LINE
  5
1AB
100
AcDbEntity
  8
0
370
    -3
  6
Continuous
100
AcDbLine
 10
-129.282575
 20
22.3348
 30
0.0
 11
-111.782575
 21
22.3348
 31
0.0
  0
LINE
  5
1AC
100
AcDbEntity
  8
0
370
    -3
  6
Continuous
100
AcDbLine
 10
-129.282575
 20
14.596487
 30
0.0
 11
-111.782575
 21
14.596487
 31
0.0
  0
LINE
  5
1AD
100
AcDbEntity
  8
0
370
    -3
  6
Continuous
100
AcDbLine
 10
-129.282575
 20
13.007277
 30
0.0
 11
-111.782575
 21
13.007277
 31
0.0
  0
LINE
  5
1AE
100
AcDbEntity
  8
0
370
    -3
  6
Continuous
100
AcDbLine
 10
-129.282575
 20
10.049282
 30
0.0
 11
-111.782575
 21
10.049282
 31
0.0
  0
LINE
  5
1AF
100
AcDbEntity
  8
0
370
    -3
  6
Continuous
100
AcDbLine
 10
-129.282575
 20
8.570258
 30
0.0
 11
-111.782575
 21
8.570258
 31
0.0
  0
LINE
  5
1B0
100
AcDbEntity
  8
0
370
    -3
  6
Continuous
100
AcDbLine
 10
-129.282575
 20
5.477527
 30
0.0
 11
-111.782575
 21
5.477527
 31
0.0
  0
LINE
  5
1B1
100
AcDbEntity
  8
0
370
    -3
  6
Continuous
100
AcDbLine
 10
-129.282575
 20
4.131126
 30
0.0
 11
-111.782575
 21
4.131126
 31
0.0
  0
LINE
  5
1B2
100
AcDbEntity
  8
0
370
    -3
  6
Continuous
100
AcDbLine
 10
-129.282575
 20
1.292886
 30
0.0
 11
-111.782575
 21
1.292886
 31
0.0
  0
LINE
  5
1B3
100
AcDbEntity
  8
0
370
    -3
  6
Continuous
100
AcDbLine
 10
-129.282575
 20
-42.891755
 30
0.0
 11
-111.782575
 21
-42.891755
 31
0.0
  0
LINE
  5
1B4
100
AcDbEntity
  8
0
370
    -3
  6
Continuous
100
AcDbLine
 10
-129.282575
 20
-41.545354
 30
0.0
 11
-111.782575
 21
-41.545354
 31
0.0
  0
LINE
  5
1B5
100
AcDbEntity
  8
0
370
    -3
  6
Continuous
100
AcDbLine
 10
-129.282575
 20
-38.707114
 30
0.0
 11
-111.782575
 21
-38.707114
 31
0.0
  0
LINE
  5
1B6
100
AcDbEntity
  8
0
370
    -3
  6
Continuous
100
AcDbLine
 10
-129.282575
 20
-45.984486
 30
0.0
 11
-111.782575
 21
-45.984486
 31
0.0
  0
LINE
  5
1B7
100
AcDbEntity
  8
0
370
    -3
  6
Continuous
100
AcDbLine
 10
-129.282575
 20
-47.46351
 30
0.0
 11
-111.782575
 21
-47.46351
 31
0.0
  0
LINE
  5
1B8
100
AcDbEntity
  8
0
370
    -3
  6
Continuous
100
AcDbLine
 10
-129.282575
 20
-50.421505
 30
0.0
 11
-111.782575
 21
-50.421505
 31
0.0
  0
LINE
  5
1B9
100
AcDbEntity
  8
0
370
    -3
  6
Continuous
100
AcDbLine
 10
-129.282575
 20
-52.010715
 30
0.0
 11
-111.782575
 21
-52.010715
 31
0.0
  0
LINE
  5
1BA
100
AcDbEntity
  8
0
370
    -3
  6
Continuous
100
AcDbLine
 10
-129.282575
 20
-59.749028
 30
0.0
 11
-111.782575
 21
-59.749028
 31
0.0
  0
LINE
  5
1BB
100
AcDbEntity
  8
0
370
    -3
  6
Continuous
100
AcDbLine
 10
-129.282575
 20
-58.747549
 30
0.0
 11
-111.782575
 21
-58.747549
 31
0.0
  0
LINE
  5
1BC
100
AcDbEntity
  8
0
370
    -3
  6
Continuous
100
AcDbLine
 10
-129.282575
 20
-63.211769
 30
0.0
 11
-111.782575
 21
-63.211769
 31
0.0
  0
LINE
  5
1BD
100
AcDbEntity
  8
0
370
    -3
  6
Continuous
100
AcDbLine
 10
-129.282575
 20
-64.840197
 30
0.0
 11
-111.782575
 21
-64.840197
 31
0.0
  0
INSERT
  5
1C6
100
AcDbEntity
  8
0
100
AcDbBlockReference
  2
ZU_SYM__USERS_HOME_SYMBOL_POO_SYM_B20_-1
 10
-106.782575
 20
-15.707114
 30
0.0
  0
ARC
  5
1C7
100
AcDbEntity
  8
0
370
    -3
  6
Continuous
100
AcDbCircle
 10
-40.282575
 20
150.711615
 30
0.0
 40
2.0
100
AcDbArc
 50
271.0
 51
0.0
  0
ARC
  5
1C8
100
AcDbEntity
  8
0
370
    -3
  6
Continuous
100
AcDbCircle
 10
-134.282575
 20
150.689494
 30
0.0
 40
2.0
100
AcDbArc
 50
180.0
 51
268.351639
  0
ARC
  5
1C9
100
AcDbEntity
  8
0
370
    -3
  6
Continuous
100
AcDbCircle
 10
-40.282575
 20
291.780826
 30
0.0
 40
2.0
100
AcDbArc
 50
0.0
 51
89.0
  0
ARC
  5
1CA
100
AcDbEntity
  8
0
370
    -3
  6
Continuous
100
AcDbCircle
 10
-134.282575
 20
291.867944
 30
0.0
 40
2.0
100
AcDbArc
 50
91.542211
 51
180.0
  0
LINE
  5
1CB
100
AcDbEntity
  8
0
370
    -3
  6
Continuous
100
AcDbLine
 10
-38.282575
 20
150.711615
 30
0.0
 11
-38.282575
 21
221.246221
 31
0.0
  0
LINE
  5
1CC
100
AcDbEntity
  8
0
370
    -3
  6
Continuous
100
AcDbLine
 10
-40.247671
 20
148.71192
 30
0.0
 11
-99.282575
 21
147.681462
 31
0.0
  0
LINE
  5
1CD
100
AcDbEntity
  8
0
370
    -3
  6
Continuous
100
AcDbLine
 10
-38.282575
 20
291.780826
 30
0.0
 11
-38.282575
 21
221.246221
 31
0.0
  0
LINE
  5
1CE
100
AcDbEntity
  8
0
370
    -3
  6
Continuous
100
AcDbLine
 10
-40.247671
 20
293.780522
 30
0.0
 11
-99.282575
 21
294.81098
 31
0.0
  0
LINE
  5
1CF
100
AcDbEntity
  8
0
370
    -3
  6
Continuous
100
AcDbLine
 10
-134.336402
 20
293.86722
 30
0.0
 11
-99.282575
 21
294.81098
 31
0.0
  0
LINE
  5
1D0
100
AcDbEntity
  8
0
370
    -3
  6
Continuous
100
AcDbLine
 10
-101.282575
 20
290.746221
 30
0.0
 11
-101.282575
 21
221.246221
 31
0.0
  0
LINE
  5
1D1
100
AcDbEntity
  8
0
370
    -3
  6
Continuous
100
AcDbLine
 10
-99.282575
 20
147.681462
 30
0.0
 11
-134.340106
 21
148.690322
 31
0.0
  0
LINE
  5
1D2
100
AcDbEntity
  8
0
370
    -3
  6
Continuous
100
AcDbLine
 10
-136.282575
 20
150.689494
 30
0.0
 11
-136.282575
 21
167.746221
 31
0.0
  0
LINE
  5
1D3
100
AcDbEntity
  8
0
370
    -3
  6
Continuous
100
AcDbLine
 10
-136.282575
 20
291.867944
 30
0.0
 11
-136.282575
 21
274.746221
 31
0.0
  0
LINE
  5
1D4
100
AcDbEntity
  8
0
370
    -3
  6
CENTER
100
AcDbLine
 10
1.377102
 20
221.246221
 30
0.0
 11
-265.87888
 21
221.246221
 31
0.0
  0
LINE
  5
1D5
100
AcDbEntity
  8
0
370
    -3
  6
Continuous
100
AcDbLine
 10
-101.282575
 20
151.746221
 30
0.0
 11
-101.282575
 21
221.246221
 31
0.0
  0
LINE
  5
1D6
100
AcDbEntity
  8
0
370
    -3
  6
Continuous
100
AcDbLine
 10
-40.282575
 20
173.162964
 30
0.0
 11
-40.282575
 21
221.246221
 31
0.0
  0
ARC
  5
1D7
100
AcDbEntity
  8
0
370
    -3
  6
Continuous
100
AcDbCircle
 10
-39.282575
 20
197.746221
 30
0.0
 40
1.0
100
AcDbArc
 50
90.0
 51
180.0
  0
ARC
  5
1D8
100
AcDbEntity
  8
0
370
    -3
  6
Continuous
100
AcDbCircle
 10
-39.282575
 20
199.746221
 30
0.0
 40
1.0
100
AcDbArc
 50
270.0
 51
0.0
  0
CIRCLE
  5
1D9
100
AcDbEntity
  8
0
370
    -3
  6
Continuous
100
AcDbCircle
 10
-50.782575
 20
158.746221
 30
0.0
 40
5.0
  0
CIRCLE
  5
1DA
100
AcDbEntity
  8
0
370
    -3
  6
Continuous
100
AcDbCircle
 10
-123.782575
 20
158.746221
 30
0.0
 40
5.0
  0
LINE
  5
1DB
100
AcDbEntity
  8
0
370
    -3
  6
CENTER
100
AcDbLine
 10
-133.782575
 20
158.746221
 30
0.0
 11
-113.782575
 21
158.746221
 31
0.0
  0
LINE
  5
1DC
100
AcDbEntity
  8
0
370
    -3
  6
CENTER
100
AcDbLine
 10
-123.782575
 20
148.746221
 30
0.0
 11
-123.782575
 21
168.746221
 31
0.0
  0
LINE
  5
1DD
100
AcDbEntity
  8
0
370
    -3
  6
CENTER
100
AcDbLine
 10
-60.782575
 20
158.746221
 30
0.0
 11
-40.782575
 21
158.746221
 31
0.0
  0
LINE
  5
1DE
100
AcDbEntity
  8
0
370
    -3
  6
CENTER
100
AcDbLine
 10
-50.782575
 20
148.746221
 30
0.0
 11
-50.782575
 21
170.746221
 31
0.0
  0
LINE
  5
1DF
100
AcDbEntity
  8
0
370
    -3
  6
Continuous
100
AcDbLine
 10
-84.282575
 20
152.042957
 30
0.0
 11
-101.282575
 21
151.746221
 31
0.0
  0
ARC
  5
1E0
100
AcDbEntity
  8
0
370
    -3
  6
Continuous
100
AcDbCircle
 10
-85.32972
 20
212.033819
 30
0.0
 40
60.0
100
AcDbArc
 50
271.0
 51
290.781469
  0
ARC
  5
1E1
100
AcDbEntity
  8
0
370
    -3
  6
Continuous
100
AcDbCircle
 10
-64.751053
 20
157.807271
 30
0.0
 40
2.0
100
AcDbArc
 50
290.781469
 51
3.845592
  0
ARC
  5
1E2
100
AcDbEntity
  8
0
370
    -3
  6
Continuous
100
AcDbCircle
 10
-50.782575
 20
283.746221
 30
0.0
 40
12.0
100
AcDbArc
 50
176.154408
 51
270.0
  0
ARC
  5
1E3
100
AcDbEntity
  8
0
370
    -3
  6
Continuous
100
AcDbCircle
 10
-50.782575
 20
158.746221
 30
0.0
 40
12.0
100
AcDbArc
 50
90.0
 51
183.845592
  0
LINE
  5
1E4
100
AcDbEntity
  8
0
370
    -3
  6
Continuous
100
AcDbLine
 10
-42.495209
 20
170.890877
 30
0.0
 11
-50.782575
 21
170.746221
 31
0.0
  0
ARC
  5
1E5
100
AcDbEntity
  8
0
370
    -3
  6
Continuous
100
AcDbCircle
 10
-42.530114
 20
172.890573
 30
0.0
 40
2.0
100
AcDbArc
 50
271.0
 51
317.554892
  0
ARC
  5
1E6
100
AcDbEntity
  8
0
370
    -3
  6
Continuous
100
AcDbCircle
 10
-85.32972
 20
212.033819
 30
0.0
 40
60.0
100
AcDbArc
 50
317.554892
 51
317.918489
  0
ARC
  5
1E7
100
AcDbEntity
  8
0
370
    -3
  6
Continuous
100
AcDbCircle
 10
-42.282575
 20
173.162964
 30
0.0
 40
2.0
100
AcDbArc
 50
317.918489
 51
0.0
  0
LINE
  5
1E8
100
AcDbEntity
  8
0
370
    -3
  6
Continuous
100
AcDbLine
 10
-40.282575
 20
269.329478
 30
0.0
 11
-40.282575
 21
221.246221
 31
0.0
  0
ARC
  5
1E9
100
AcDbEntity
  8
0
370
    -3
  6
Continuous
100
AcDbCircle
 10
-39.282575
 20
244.746221
 30
0.0
 40
1.0
100
AcDbArc
 50
180.0
 51
270.0
  0
ARC
  5
1EA
100
AcDbEntity
  8
0
370
    -3
  6
Continuous
100
AcDbCircle
 10
-39.282575
 20
242.746221
 30
0.0
 40
1.0
100
AcDbArc
 50
0.0
 51
90.0
  0
CIRCLE
  5
1EB
100
AcDbEntity
  8
0
370
    -3
  6
Continuous
100
AcDbCircle
 10
-50.782575
 20
283.746221
 30
0.0
 40
5.0
  0
CIRCLE
  5
1EC
100
AcDbEntity
  8
0
370
    -3
  6
Continuous
100
AcDbCircle
 10
-123.782575
 20
283.746221
 30
0.0
 40
5.0
  0
LINE
  5
1ED
100
AcDbEntity
  8
0
370
    -3
  6
CENTER
100
AcDbLine
 10
-132.482576
 20
283.746221
 30
0.0
 11
-112.482576
 21
283.746221
 31
0.0
  0
LINE
  5
1EE
100
AcDbEntity
  8
0
370
    -3
  6
CENTER
100
AcDbLine
 10
-123.782575
 20
293.746221
 30
0.0
 11
-123.782575
 21
273.746221
 31
0.0
  0
LINE
  5
1EF
100
AcDbEntity
  8
0
370
    -3
  6
CENTER
100
AcDbLine
 10
-60.782575
 20
283.746221
 30
0.0
 11
-40.782575
 21
283.746221
 31
0.0
  0
LINE
  5
1F0
100
AcDbEntity
  8
0
370
    -3
  6
CENTER
100
AcDbLine
 10
-50.782575
 20
293.746221
 30
0.0
 11
-50.782575
 21
271.746221
 31
0.0
  0
LINE
  5
1F1
100
AcDbEntity
  8
0
370
    -3
  6
Continuous
100
AcDbLine
 10
-84.282575
 20
290.449485
 30
0.0
 11
-101.282575
 21
290.746221
 31
0.0
  0
ARC
  5
1F2
100
AcDbEntity
  8
0
370
    -3
  6
Continuous
100
AcDbCircle
 10
-85.32972
 20
230.458623
 30
0.0
 40
60.0
100
AcDbArc
 50
69.218531
 51
89.0
  0
ARC
  5
1F3
100
AcDbEntity
  8
0
370
    -3
  6
Continuous
100
AcDbCircle
 10
-64.751053
 20
284.685171
 30
0.0
 40
2.0
100
AcDbArc
 50
356.154408
 51
69.218531
  0
LINE
  5
1F4
100
AcDbEntity
  8
0
370
    -3
  6
Continuous
100
AcDbLine
 10
-42.495209
 20
271.601564
 30
0.0
 11
-50.782575
 21
271.746221
 31
0.0
  0
ARC
  5
1F5
100
AcDbEntity
  8
0
370
    -3
  6
Continuous
100
AcDbCircle
 10
-42.530114
 20
269.601869
 30
0.0
 40
2.0
100
AcDbArc
 50
42.445108
 51
89.0
  0
ARC
  5
1F6
100
AcDbEntity
  8
0
370
    -3
  6
Continuous
100
AcDbCircle
 10
-85.32972
 20
230.458623
 30
0.0
 40
60.0
100
AcDbArc
 50
42.081511
 51
42.445108
  0
ARC
  5
1F7
100
AcDbEntity
  8
0
370
    -3
  6
Continuous
100
AcDbCircle
 10
-42.282575
 20
269.329478
 30
0.0
 40
2.0
100
AcDbArc
 50
0.0
 51
42.081511
  0
ARC
  5
1F8
100
AcDbEntity
  8
0
370
    -3
  6
Continuous
100
AcDbCircle
 10
-110.782575
 20
194.496221
 30
0.0
 40
1.0
100
AcDbArc
 50
180.0
 51
270.0
  0
ARC
  5
1F9
100
AcDbEntity
  8
0
370
    -3
  6
Continuous
100
AcDbCircle
 10
-110.782575
 20
247.996221
 30
0.0
 40
1.0
100
AcDbArc
 50
90.0
 51
180.0
  0
ARC
  5
1FA
100
AcDbEntity
  8
0
370
    -3
  6
Continuous
100
AcDbCircle
 10
-110.782575
 20
181.996221
 30
0.0
 40
1.0
100
AcDbArc
 50
90.0
 51
180.0
  0
ARC
  5
1FB
100
AcDbEntity
  8
0
370
    -3
  6
Continuous
100
AcDbCircle
 10
-110.782575
 20
260.496221
 30
0.0
 40
1.0
100
AcDbArc
 50
180.0
 51
270.0
  0
ARC
  5
1FC
100
AcDbEntity
  8
0
370
    -3
  6
Continuous
100
AcDbCircle
 10
-107.182575
 20
193.096221
 30
0.0
 40
0.4
100
AcDbArc
 50
0.0
 51
90.0
  0
ARC
  5
1FD
100
AcDbEntity
  8
0
370
    -3
  6
Continuous
100
AcDbCircle
 10
-107.182575
 20
249.396221
 30
0.0
 40
0.4
100
AcDbArc
 50
270.0
 51
0.0
  0
ARC
  5
1FE
100
AcDbEntity
  8
0
370
    -3
  6
Continuous
100
AcDbCircle
 10
-107.182575
 20
183.396221
 30
0.0
 40
0.4
100
AcDbArc
 50
270.0
 51
0.0
  0
ARC
  5
1FF
100
AcDbEntity
  8
0
370
    -3
  6
Continuous
100
AcDbCircle
 10
-107.182575
 20
259.096221
 30
0.0
 40
0.4
100
AcDbArc
 50
0.0
 51
90.0
  0
LINE
  5
200
100
AcDbEntity
  8
0
370
    -3
  6
Continuous
100
AcDbLine
 10
-106.782575
 20
183.396221
 30
0.0
 11
-106.782575
 21
193.096221
 31
0.0
  0
LINE
  5
201
100
AcDbEntity
  8
0
370
    -3
  6
Continuous
100
AcDbLine
 10
-106.782575
 20
259.096221
 30
0.0
 11
-106.782575
 21
249.396221
 31
0.0
  0
LINE
  5
202
100
AcDbEntity
  8
0
370
    -3
  6
Continuous
100
AcDbLine
 10
-107.182575
 20
193.496221
 30
0.0
 11
-110.782575
 21
193.496221
 31
0.0
  0
LINE
  5
203
100
AcDbEntity
  8
0
370
    -3
  6
Continuous
100
AcDbLine
 10
-107.182575
 20
248.996221
 30
0.0
 11
-110.782575
 21
248.996221
 31
0.0
  0
LINE
  5
204
100
AcDbEntity
  8
0
370
    -3
  6
Continuous
100
AcDbLine
 10
-107.182575
 20
182.996221
 30
0.0
 11
-110.782575
 21
182.996221
 31
0.0
  0
LINE
  5
205
100
AcDbEntity
  8
0
370
    -3
  6
Continuous
100
AcDbLine
 10
-107.182575
 20
259.496221
 30
0.0
 11
-110.782575
 21
259.496221
 31
0.0
  0
ARC
  5
206
100
AcDbEntity
  8
0
370
    -3
  6
Continuous
100
AcDbCircle
 10
-35.882559
 20
211.496221
 30
0.0
 40
0.4
100
AcDbArc
 50
90.0
 51
180.0
  0
LINE
  5
207
100
AcDbEntity
  8
0
370
    -3
  6
Continuous
100
AcDbLine
 10
-36.282559
 20
221.246221
 30
0.0
 11
-36.282559
 21
210.446221
 31
0.0
  0
LINE
  5
208
100
AcDbEntity
  8
0
370
    -3
  6
Continuous
100
AcDbLine
 10
-36.482559
 20
210.246221
 30
0.0
 11
-38.282575
 21
210.246221
 31
0.0
  0
LINE
  5
209
100
AcDbEntity
  8
0
370
    -3
  6
Continuous
100
AcDbLine
 10
-33.722751
 20
230.746221
 30
0.0
 11
-34.282559
 21
230.596221
 31
0.0
  0
LINE
  5
20A
100
AcDbEntity
  8
0
370
    -3
  6
Continuous
100
AcDbLine
 10
-34.282559
 20
230.596221
 30
0.0
 11
-35.882559
 21
230.596221
 31
0.0
  0
LINE
  5
20B
100
AcDbEntity
  8
0
370
    -3
  6
Continuous
100
AcDbLine
 10
-36.482559
 20
210.246221
 30
0.0
 11
-36.282559
 21
210.446221
 31
0.0
  0
LINE
  5
20C
100
AcDbEntity
  8
0
370
    -3
  6
Continuous
100
AcDbLine
 10
-8.682559
 20
230.746221
 30
0.0
 11
-33.722751
 21
230.746221
 31
0.0
  0
ARC
  5
20D
100
AcDbEntity
  8
0
370
    -3
  6
Continuous
100
AcDbCircle
 10
-35.882559
 20
231.068144
 30
0.0
 40
0.4
100
AcDbArc
 50
180.0
 51
270.0
  0
LINE
  5
20E
100
AcDbEntity
  8
0
370
    -3
  6
Continuous
100
AcDbLine
 10
-36.282559
 20
221.318144
 30
0.0
 11
-36.282559
 21
232.118144
 31
0.0
  0
LINE
  5
20F
100
AcDbEntity
  8
0
370
    -3
  6
Continuous
100
AcDbLine
 10
-36.482559
 20
232.318144
 30
0.0
 11
-38.282575
 21
232.318144
 31
0.0
  0
LINE
  5
210
100
AcDbEntity
  8
0
370
    -3
  6
Continuous
100
AcDbLine
 10
-34.282559
 20
211.824297
 30
0.0
 11
-35.882559
 21
211.824297
 31
0.0
  0
LINE
  5
211
100
AcDbEntity
  8
0
370
    -3
  6
Continuous
100
AcDbLine
 10
-36.482559
 20
232.318144
 30
0.0
 11
-36.282559
 21
232.118144
 31
0.0
  0
LINE
  5
212
100
AcDbEntity
  8
0
370
    -3
  6
Continuous
100
AcDbLine
 10
-33.282559
 20
211.674297
 30
0.0
 11
-33.282559
 21
209.174297
 31
0.0
  0
LINE
  5
213
100
AcDbEntity
  8
0
370
    -3
  6
Continuous
100
AcDbLine
 10
-8.682559
 20
211.674297
 30
0.0
 11
-33.722751
 21
211.674297
 31
0.0
  0
LINE
  5
214
100
AcDbEntity
  8
0
370
    -3
  6
Continuous
100
AcDbLine
 10
-33.722751
 20
211.674297
 30
0.0
 11
-34.282559
 21
211.824297
 31
0.0
  0
LINE
  5
215
100
AcDbEntity
  8
0
370
    -3
  6
Continuous
100
AcDbLine
 10
-8.282559
 20
209.174297
 30
0.0
 11
-33.282558
 21
209.174297
 31
0.0
  0
LINE
  5
216
100
AcDbEntity
  8
0
370
    -3
  6
Continuous
100
AcDbLine
 10
-8.282559
 20
221.174297
 30
0.0
 11
-8.282559
 21
209.174297
 31
0.0
  0
ARC
  5
217
100
AcDbEntity
  8
0
370
    -3
  6
Continuous
100
AcDbCircle
 10
-8.682559
 20
212.074297
 30
0.0
 40
0.4
100
AcDbArc
 50
270.0
 51
0.0
  0
ARC
  5
218
100
AcDbEntity
  8
0
370
    -3
  6
Continuous
100
AcDbCircle
 10
-8.682559
 20
230.346221
 30
0.0
 40
0.4
100
AcDbArc
 50
0.0
 51
90.0
  0
LINE
  5
219
100
AcDbEntity
  8
0
370
    -3
  6
Continuous
100
AcDbLine
 10
-8.282559
 20
221.246221
 30
0.0
 11
-8.282559
 21
230.346221
 31
0.0
  0
ARC
  5
21A
100
AcDbEntity
  8
0
370
    -3
  6
Continuous
100
AcDbCircle
 10
-111.282575
 20
152.246221
 30
0.0
 40
0.5
100
AcDbArc
 50
180.0
 51
270.0
  0
ARC
  5
21B
100
AcDbEntity
  8
0
370
    -3
  6
Continuous
100
AcDbCircle
 10
-111.282575
 20
290.246221
 30
0.0
 40
0.5
100
AcDbArc
 50
90.0
 51
180.0
  0
ARC
  5
21C
100
AcDbEntity
  8
0
370
    -3
  6
Continuous
100
AcDbCircle
 10
-112.782575
 20
166.339996
 30
0.0
 40
1.0
100
AcDbArc
 50
0.0
 51
88.5
  0
ARC
  5
21D
100
AcDbEntity
  8
0
370
    -3
  6
Continuous
100
AcDbCircle
 10
-112.782575
 20
276.152445
 30
0.0
 40
1.0
100
AcDbArc
 50
271.5
 51
0.0
  0
LINE
  5
21E
100
AcDbEntity
  8
0
370
    -3
  6
Continuous
100
AcDbLine
 10
-111.282575
 20
151.746221
 30
0.0
 11
-101.782575
 21
151.746221
 31
0.0
  0
LINE
  5
21F
100
AcDbEntity
  8
0
370
    -3
  6
Continuous
100
AcDbLine
 10
-111.282575
 20
290.746221
 30
0.0
 11
-101.782575
 21
290.746221
 31
0.0
  0
LINE
  5
220
100
AcDbEntity
  8
0
370
    -3
  6
Continuous
100
AcDbLine
 10
-111.782575
 20
221.246221
 30
0.0
 11
-111.782575
 21
192.49622
 31
0.0
  0
LINE
  5
221
100
AcDbEntity
  8
0
370
    -3
  6
Continuous
100
AcDbLine
 10
-111.782575
 20
221.246221
 30
0.0
 11
-111.782575
 21
249.996222
 31
0.0
  0
LINE
  5
222
100
AcDbEntity
  8
0
370
    -3
  6
Continuous
100
AcDbLine
 10
-112.756399
 20
167.339653
 30
0.0
 11
-129.282575
 21
167.772407
 31
0.0
  0
LINE
  5
223
100
AcDbEntity
  8
0
370
    -3
  6
Continuous
100
AcDbLine
 10
-112.756399
 20
275.152788
 30
0.0
 11
-129.282575
 21
274.720035
 31
0.0
  0
LINE
  5
224
100
AcDbEntity
  8
0
370
    -3
  6
Continuous
100
AcDbLine
 10
-101.782575
 20
151.746221
 30
0.0
 11
-101.782575
 21
221.246221
 31
0.0
  0
LINE
  5
225
100
AcDbEntity
  8
0
370
    -3
  6
Continuous
100
AcDbLine
 10
-101.782575
 20
290.746221
 30
0.0
 11
-101.782575
 21
221.246221
 31
0.0
  0
LINE
  5
226
100
AcDbEntity
  8
0
370
    -3
  6
Continuous
100
AcDbLine
 10
-129.282575
 20
167.772407
 30
0.0
 11
-129.282575
 21
221.246221
 31
0.0
  0
LINE
  5
227
100
AcDbEntity
  8
0
370
    -3
  6
Continuous
100
AcDbLine
 10
-129.282575
 20
274.720035
 30
0.0
 11
-129.282575
 21
221.246221
 31
0.0
  0
LINE
  5
228
100
AcDbEntity
  8
0
370
    -3
  6
Continuous
100
AcDbLine
 10
-111.782575
 20
183.996222
 30
0.0
 11
-111.782575
 21
152.246221
 31
0.0
  0
LINE
  5
229
100
AcDbEntity
  8
0
370
    -3
  6
Continuous
100
AcDbLine
 10
-111.782575
 20
258.49622
 30
0.0
 11
-111.782575
 21
290.246221
 31
0.0
  0
LINE
  5
22A
100
AcDbEntity
  8
0
370
    -3
  6
Continuous
100
AcDbLine
 10
-106.782575
 20
192.49622
 30
0.0
 11
-111.782575
 21
192.49622
 31
0.0
  0
LINE
  5
22B
100
AcDbEntity
  8
0
370
    -3
  6
Continuous
100
AcDbLine
 10
-106.782575
 20
183.996222
 30
0.0
 11
-111.782575
 21
183.996222
 31
0.0
  0
LINE
  5
22C
100
AcDbEntity
  8
0
370
    -3
  6
Continuous
100
AcDbLine
 10
-111.782575
 20
192.49622
 30
0.0
 11
-111.782575
 21
183.996222
 31
0.0
  0
LINE
  5
22D
100
AcDbEntity
  8
0
370
    -3
  6
Continuous
100
AcDbLine
 10
-106.782575
 20
183.646221
 30
0.0
 11
-106.782575
 21
192.84622
 31
0.0
  0
LINE
  5
22E
100
AcDbEntity
  8
0
370
    -3
  6
Continuous
100
AcDbLine
 10
-106.782575
 20
249.996222
 30
0.0
 11
-111.782575
 21
249.996222
 31
0.0
  0
LINE
  5
22F
100
AcDbEntity
  8
0
370
    -3
  6
Continuous
100
AcDbLine
 10
-106.782575
 20
258.49622
 30
0.0
 11
-111.782575
 21
258.49622
 31
0.0
  0
LINE
  5
230
100
AcDbEntity
  8
0
370
    -3
  6
Continuous
100
AcDbLine
 10
-111.782575
 20
249.996222
 30
0.0
 11
-111.782575
 21
258.49622
 31
0.0
  0
LINE
  5
231
100
AcDbEntity
  8
0
370
    -3
  6
Continuous
100
AcDbLine
 10
-106.782575
 20
258.84622
 30
0.0
 11
-106.782575
 21
249.646221
 31
0.0
  0
LINE
  5
232
100
AcDbEntity
  8
0
370
    -3
  6
Continuous
100
AcDbLine
 10
-229.076037
 20
167.746221
 30
0.0
 11
-243.282575
 21
167.746221
 31
0.0
  0
LINE
  5
233
100
AcDbEntity
  8
0
370
    -3
  6
Continuous
100
AcDbLine
 10
-243.282575
 20
167.746221
 30
0.0
 11
-243.282575
 21
221.246221
 31
0.0
  0
LINE
  5
234
100
AcDbEntity
  8
0
370
    -3
  6
Continuous
100
AcDbLine
 10
-243.282575
 20
244.146426
 30
0.0
 11
-161.282575
 21
244.146426
 31
0.0
  0
LINE
  5
235
100
AcDbEntity
  8
0
370
    -3
  6
Continuous
100
AcDbLine
 10
-243.282575
 20
193.846015
 30
0.0
 11
-156.139966
 21
193.846015
 31
0.0
  0
LINE
  5
236
100
AcDbEntity
  8
0
370
    -3
  6
Continuous
100
AcDbLine
 10
-243.282575
 20
198.346015
 30
0.0
 11
-161.282575
 21
198.346015
 31
0.0
  0
LINE
  5
237
100
AcDbEntity
  8
0
370
    -3
  6
Continuous
100
AcDbLine
 10
-243.282575
 20
272.996221
 30
0.0
 11
-243.282575
 21
273.746221
 31
0.0
  0
LINE
  5
238
100
AcDbEntity
  8
0
370
    -3
  6
Continuous
100
AcDbLine
 10
-243.282575
 20
273.746221
 30
0.0
 11
-243.282575
 21
271.496221
 31
0.0
  0
LINE
  5
239
100
AcDbEntity
  8
0
370
    -3
  6
Continuous
100
AcDbLine
 10
-243.282575
 20
249.846015
 30
0.0
 11
-236.282575
 21
249.846015
 31
0.0
  0
LINE
  5
23A
100
AcDbEntity
  8
0
370
    -3
  6
Continuous
100
AcDbLine
 10
-243.282575
 20
245.346015
 30
0.0
 11
-236.282575
 21
245.346015
 31
0.0
  0
LINE
  5
23B
100
AcDbEntity
  8
0
370
    -3
  6
Continuous
100
AcDbLine
 10
-243.282575
 20
197.146426
 30
0.0
 11
-236.282575
 21
197.146426
 31
0.0
  0
LINE
  5
23C
100
AcDbEntity
  8
0
370
    -3
  6
Continuous
100
AcDbLine
 10
-243.282575
 20
192.646426
 30
0.0
 11
-236.282575
 21
192.646426
 31
0.0
  0
LINE
  5
23D
100
AcDbEntity
  8
0
370
    -3
  6
Continuous
100
AcDbLine
 10
-243.282575
 20
274.746221
 30
0.0
 11
-243.282575
 21
221.246221
 31
0.0
  0
LINE
  5
23E
100
AcDbEntity
  8
0
370
    -3
  6
Continuous
100
AcDbLine
 10
-243.282575
 20
207.246221
 30
0.0
 11
-129.282575
 21
207.246221
 31
0.0
  0
LINE
  5
23F
100
AcDbEntity
  8
0
370
    -3
  6
Continuous
100
AcDbLine
 10
-243.282575
 20
240.860135
 30
0.0
 11
-129.282575
 21
240.860135
 31
0.0
  0
LINE
  5
240
100
AcDbEntity
  8
0
370
    -3
  6
Continuous
100
AcDbLine
 10
-243.282575
 20
235.246221
 30
0.0
 11
-129.282575
 21
235.246221
 31
0.0
  0
LINE
  5
241
100
AcDbEntity
  8
0
370
    -3
  6
Continuous
100
AcDbLine
 10
-243.282575
 20
239.639381
 30
0.0
 11
-129.282575
 21
239.639381
 31
0.0
  0
LINE
  5
242
100
AcDbEntity
  8
0
370
    -3
  6
Continuous
100
AcDbLine
 10
-161.282575
 20
244.146426
 30
0.0
 11
-129.282575
 21
244.146426
 31
0.0
  0
LINE
  5
243
100
AcDbEntity
  8
0
370
    -3
  6
Continuous
100
AcDbLine
 10
-243.282575
 20
268.572817
 30
0.0
 11
-129.282575
 21
268.572817
 31
0.0
  0
LINE
  5
244
100
AcDbEntity
  8
0
370
    -3
  6
Continuous
100
AcDbLine
 10
-243.282575
 20
261.678668
 30
0.0
 11
-129.282575
 21
261.678668
 31
0.0
  0
LINE
  5
245
100
AcDbEntity
  8
0
370
    -3
  6
Continuous
100
AcDbLine
 10
-129.282575
 20
274.746221
 30
0.0
 11
-243.282575
 21
274.746221
 31
0.0
  0
LINE
  5
246
100
AcDbEntity
  8
0
370
    -3
  6
Continuous
100
AcDbLine
 10
-243.282575
 20
201.632306
 30
0.0
 11
-129.282575
 21
201.632306
 31
0.0
  0
LINE
  5
247
100
AcDbEntity
  8
0
370
    -3
  6
Continuous
100
AcDbLine
 10
-243.282575
 20
202.846015
 30
0.0
 11
-129.282575
 21
202.846015
 31
0.0
  0
LINE
  5
248
100
AcDbEntity
  8
0
370
    -3
  6
Continuous
100
AcDbLine
 10
-236.282575
 20
249.846015
 30
0.0
 11
-129.282575
 21
249.846015
 31
0.0
  0
LINE
  5
249
100
AcDbEntity
  8
0
370
    -3
  6
Continuous
100
AcDbLine
 10
-243.282575
 20
248.646426
 30
0.0
 11
-137.782575
 21
248.646426
 31
0.0
  0
LINE
  5
24A
100
AcDbEntity
  8
0
370
    -3
  6
Continuous
100
AcDbLine
 10
-239.782575
 20
245.346015
 30
0.0
 11
-129.282575
 21
245.346015
 31
0.0
  0
LINE
  5
24B
100
AcDbEntity
  8
0
370
    -3
  6
Continuous
100
AcDbLine
 10
-236.282575
 20
192.646426
 30
0.0
 11
-129.282575
 21
192.646426
 31
0.0
  0
LINE
  5
24C
100
AcDbEntity
  8
0
370
    -3
  6
Continuous
100
AcDbLine
 10
-236.282575
 20
197.146426
 30
0.0
 11
-129.282575
 21
197.146426
 31
0.0
  0
LINE
  5
24D
100
AcDbEntity
  8
0
370
    -3
  6
Continuous
100
AcDbLine
 10
-161.282575
 20
193.846015
 30
0.0
 11
-129.282575
 21
193.846015
 31
0.0
  0
LINE
  5
24E
100
AcDbEntity
  8
0
370
    -3
  6
Continuous
100
AcDbLine
 10
-161.282575
 20
198.346015
 30
0.0
 11
-129.282575
 21
198.346015
 31
0.0
  0
LINE
  5
24F
100
AcDbEntity
  8
0
370
    -3
  6
Continuous
100
AcDbLine
 10
-161.282575
 20
248.646426
 30
0.0
 11
-129.282575
 21
248.646426
 31
0.0
  0
LINE
  5
250
100
AcDbEntity
  8
0
370
    -3
  6
Continuous
100
AcDbLine
 10
-243.282575
 20
180.813773
 30
0.0
 11
-129.282575
 21
180.813773
 31
0.0
  0
LINE
  5
251
100
AcDbEntity
  8
0
370
    -3
  6
Continuous
100
AcDbLine
 10
-243.282575
 20
173.919624
 30
0.0
 11
-129.282575
 21
173.919624
 31
0.0
  0
LINE
  5
252
100
AcDbEntity
  8
0
370
    -3
  6
Continuous
100
AcDbLine
 10
-243.282575
 20
170.246221
 30
0.0
 11
-129.282575
 21
170.246221
 31
0.0
  0
LINE
  5
253
100
AcDbEntity
  8
0
370
    -3
  6
Continuous
100
AcDbLine
 10
-243.282575
 20
170.746221
 30
0.0
 11
-129.282575
 21
170.746221
 31
0.0
  0
LINE
  5
254
100
AcDbEntity
  8
0
370
    -3
  6
Continuous
100
AcDbLine
 10
-243.282575
 20
188.146426
 30
0.0
 11
-129.282575
 21
188.146426
 31
0.0
  0
LINE
  5
255
100
AcDbEntity
  8
0
370
    -3
  6
Continuous
100
AcDbLine
 10
-243.282575
 20
189.346015
 30
0.0
 11
-129.282575
 21
189.346015
 31
0.0
  0
LINE
  5
256
100
AcDbEntity
  8
0
370
    -3
  6
Continuous
100
AcDbLine
 10
-243.282575
 20
272.246221
 30
0.0
 11
-129.282575
 21
272.246221
 31
0.0
  0
LINE
  5
257
100
AcDbEntity
  8
0
370
    -3
  6
Continuous
100
AcDbLine
 10
-243.282575
 20
271.746221
 30
0.0
 11
-129.282575
 21
271.746221
 31
0.0
  0
LINE
  5
258
100
AcDbEntity
  8
0
370
    -3
  6
Continuous
100
AcDbLine
 10
-243.282575
 20
254.346015
 30
0.0
 11
-129.282575
 21
254.346015
 31
0.0
  0
LINE
  5
259
100
AcDbEntity
  8
0
370
    -3
  6
Continuous
100
AcDbLine
 10
-243.282575
 20
253.146426
 30
0.0
 11
-129.282575
 21
253.146426
 31
0.0
  0
LINE
  5
25A
100
AcDbEntity
  8
0
370
    -3
  6
Continuous
100
AcDbLine
 10
-129.282575
 20
274.746221
 30
0.0
 11
-129.282575
 21
221.246221
 31
0.0
  0
LINE
  5
25B
100
AcDbEntity
  8
0
370
    -3
  6
Continuous
100
AcDbLine
 10
-129.282575
 20
167.746221
 30
0.0
 11
-129.282575
 21
221.246221
 31
0.0
  0
LINE
  5
25C
100
AcDbEntity
  8
0
370
    -3
  6
Continuous
100
AcDbLine
 10
-129.282575
 20
167.746221
 30
0.0
 11
-175.489096
 21
167.746221
 31
0.0
  0
LINE
  5
25D
100
AcDbEntity
  8
0
370
    -3
  6
Continuous
100
AcDbLine
 10
-183.114096
 20
167.746221
 30
0.0
 11
-221.451037
 21
167.746221
 31
0.0
  0
ARC
  5
25E
100
AcDbEntity
  8
0
370
    -3
  6
Continuous
100
AcDbCircle
 10
-476.369873
 20
-77.707114
 30
0.0
 40
2.0
100
AcDbArc
 50
180.0
 51
270.0
  0
LINE
  5
25F
100
AcDbEntity
  8
0
370
    -3
  6
Continuous
100
AcDbLine
 10
-467.119873
 20
-77.707114
 30
0.0
 11
-467.119873
 21
-75.207114
 31
0.0
  0
ARC
  5
260
100
AcDbEntity
  8
0
370
    -3
  6
Continuous
100
AcDbCircle
 10
-466.119873
 20
-77.707114
 30
0.0
 40
1.0
100
AcDbArc
 50
180.0
 51
270.0
  0
ARC
  5
261
100
AcDbEntity
  8
0
370
    -3
  6
Continuous
100
AcDbCircle
 10
-472.369873
 20
-75.207114
 30
0.0
 40
5.25
100
AcDbArc
 50
0.0
 51
150.462178
  0
ARC
  5
262
100
AcDbEntity
  8
0
370
    -3
  6
Continuous
100
AcDbCircle
 10
-477.807563
 20
-72.125877
 30
0.0
 40
1.0
100
AcDbArc
 50
211.339195
 51
330.462178
  0
ARC
  5
263
100
AcDbEntity
  8
0
370
    -3
  6
Continuous
100
AcDbCircle
 10
-407.619873
 20
-77.707114
 30
0.0
 40
1.0
100
AcDbArc
 50
270.0
 51
0.0
  0
ARC
  5
264
100
AcDbEntity
  8
0
370
    -3
  6
Continuous
100
AcDbCircle
 10
-395.932183
 20
-72.125877
 30
0.0
 40
1.0
100
AcDbArc
 50
209.537822
 51
328.660805
  0
ARC
  5
265
100
AcDbEntity
  8
0
370
    -3
  6
Continuous
100
AcDbCircle
 10
-417.369873
 20
-3.460657
 30
0.0
 40
50.0
100
AcDbArc
 50
27.447513
 51
88.510142
  0
ARC
  5
266
100
AcDbEntity
  8
0
370
    -3
  6
Continuous
100
AcDbCircle
 10
-436.869873
 20
-753.207114
 30
0.0
 40
800.0
100
AcDbArc
 50
88.510142
 51
90.0
  0
LINE
  5
267
100
AcDbEntity
  8
0
370
    -3
  6
Continuous
100
AcDbLine
 10
-406.619873
 20
-77.707114
 30
0.0
 11
-406.619873
 21
-75.207114
 31
0.0
  0
ARC
  5
268
100
AcDbEntity
  8
0
370
    -3
  6
Continuous
100
AcDbCircle
 10
-401.369873
 20
-75.207114
 30
0.0
 40
5.25
100
AcDbArc
 50
29.537822
 51
180.0
  0
ARC
  5
269
100
AcDbEntity
  8
0
370
    -3
  6
Continuous
100
AcDbCircle
 10
-505.369873
 20
-21.957114
 30
0.0
 40
1.0
100
AcDbArc
 50
90.0
 51
180.0
  0
ARC
  5
26A
100
AcDbEntity
  8
0
370
    -3
  6
Continuous
100
AcDbCircle
 10
-505.369873
 20
-9.457114
 30
0.0
 40
1.0
100
AcDbArc
 50
180.0
 51
270.0
  0
LINE
  5
26B
100
AcDbEntity
  8
0
370
    -3
  6
Continuous
100
AcDbLine
 10
-505.369873
 20
-10.457114
 30
0.0
 11
-500.369873
 21
-10.457114
 31
0.0
  0
ARC
  5
26C
100
AcDbEntity
  8
0
370
    -3
  6
Continuous
100
AcDbCircle
 10
-500.369873
 20
-15.707114
 30
0.0
 40
5.25
100
AcDbArc
 50
270.0
 51
90.0
  0
LINE
  5
26D
100
AcDbEntity
  8
0
370
    -3
  6
Continuous
100
AcDbLine
 10
-505.369873
 20
-20.957114
 30
0.0
 11
-500.369873
 21
-20.957114
 31
0.0
  0
ARC
  5
26E
100
AcDbEntity
  8
0
370
    -3
  6
Continuous
100
AcDbCircle
 10
-410.119873
 20
45.000023
 30
0.0
 40
1.0
100
AcDbArc
 50
0.0
 51
81.491323
  0
LINE
  5
26F
100
AcDbEntity
  8
0
370
    -3
  6
Continuous
100
AcDbLine
 10
-409.119873
 20
45.000023
 30
0.0
 11
-409.119873
 21
37.292886
 31
0.0
  0
ARC
  5
270
100
AcDbEntity
  8
0
370
    -3
  6
Continuous
100
AcDbCircle
 10
-403.869873
 20
37.292886
 30
0.0
 40
5.25
100
AcDbArc
 50
180.0
 51
0.0
  0
LINE
  5
271
100
AcDbEntity
  8
0
370
    -3
  6
Continuous
100
AcDbLine
 10
-398.619873
 20
41.382821
 30
0.0
 11
-398.619873
 21
37.292886
 31
0.0
  0
ARC
  5
272
100
AcDbEntity
  8
0
370
    -3
  6
Continuous
100
AcDbCircle
 10
-397.619873
 20
41.382821
 30
0.0
 40
1.0
100
AcDbArc
 50
66.23031
 51
180.0
  0
ARC
  5
273
100
AcDbEntity
  8
0
370
    -3
  6
Continuous
100
AcDbCircle
 10
-476.119873
 20
41.382821
 30
0.0
 40
1.0
100
AcDbArc
 50
0.0
 51
113.76969
  0
ARC
  5
274
100
AcDbEntity
  8
0
370
    -3
  6
Continuous
100
AcDbCircle
 10
-463.619873
 20
45.000023
 30
0.0
 40
1.0
100
AcDbArc
 50
98.508677
 51
180.0
  0
LINE
  5
275
100
AcDbEntity
  8
0
370
    -3
  6
Continuous
100
AcDbLine
 10
-475.119873
 20
41.382821
 30
0.0
 11
-475.119873
 21
37.292886
 31
0.0
  0
LINE
  5
276
100
AcDbEntity
  8
0
370
    -3
  6
Continuous
100
AcDbLine
 10
-464.619873
 20
45.000023
 30
0.0
 11
-464.619873
 21
37.292886
 31
0.0
  0
ARC
  5
277
100
AcDbEntity
  8
0
370
    -3
  6
Continuous
100
AcDbCircle
 10
-469.869873
 20
37.292886
 30
0.0
 40
5.25
100
AcDbArc
 50
180.0
 51
0.0
  0
ARC
  5
278
100
AcDbEntity
  8
0
370
    -3
  6
Continuous
100
AcDbCircle
 10
-397.369873
 20
-77.707114
 30
0.0
 40
2.0
100
AcDbArc
 50
270.0
 51
0.0
  0
ARC
  5
279
100
AcDbEntity
  8
0
370
    -3
  6
Continuous
100
AcDbCircle
 10
-401.369873
 20
-74.707114
 30
0.0
 40
7.0
100
AcDbArc
 50
214.849905
 51
225.584691
  0
ARC
  5
27A
100
AcDbEntity
  8
0
370
    -3
  6
Continuous
100
AcDbCircle
 10
-472.369873
 20
-74.707114
 30
0.0
 40
7.0
100
AcDbArc
 50
314.415309
 51
325.150095
  0
ARC
  5
27B
100
AcDbEntity
  8
0
370
    -3
  6
Continuous
100
AcDbCircle
 10
-476.369873
 20
-77.707114
 30
0.0
 40
2.0
100
AcDbArc
 50
180.0
 51
270.0
  0
ARC
  5
27C
100
AcDbEntity
  8
0
370
    -3
  6
Continuous
100
AcDbCircle
 10
-436.869873
 20
-753.207114
 30
0.0
 40
800.0
100
AcDbArc
 50
90.0
 51
91.489858
  0
ARC
  5
27D
100
AcDbEntity
  8
0
370
    -3
  6
Continuous
100
AcDbCircle
 10
-456.369873
 20
-3.460657
 30
0.0
 40
50.0
100
AcDbArc
 50
91.489858
 51
180.0
  0
ARC
  5
27E
100
AcDbEntity
  8
0
370
    -3
  6
Continuous
100
AcDbCircle
 10
-501.369873
 20
-31.745714
 30
0.0
 40
5.0
100
AcDbArc
 50
180.0
 51
210.0
  0
ARC
  5
27F
100
AcDbEntity
  8
0
370
    -3
  6
Continuous
100
AcDbCircle
 10
-459.810911
 20
-41.727947
 30
0.0
 40
36.0
100
AcDbArc
 50
210.0
 51
237.246536
  0
ARC
  5
280
100
AcDbEntity
  8
0
370
    -3
  6
Continuous
100
AcDbCircle
 10
-480.369873
 20
-73.686187
 30
0.0
 40
2.0
100
AcDbArc
 50
0.0
 51
57.246536
  0
ARC
  5
281
100
AcDbEntity
  8
0
370
    -3
  6
Continuous
100
AcDbCircle
 10
-393.369873
 20
-73.686187
 30
0.0
 40
2.0
100
AcDbArc
 50
122.753464
 51
180.0
  0
ARC
  5
282
100
AcDbEntity
  8
0
370
    -3
  6
Continuous
100
AcDbCircle
 10
-413.928835
 20
-41.727947
 30
0.0
 40
36.0
100
AcDbArc
 50
302.753464
 51
330.0
  0
ARC
  5
283
100
AcDbEntity
  8
0
370
    -3
  6
Continuous
100
AcDbCircle
 10
-403.869873
 20
37.292886
 30
0.0
 40
5.25
100
AcDbArc
 50
243.604222
 51
285.281736
  0
LINE
  5
284
100
AcDbEntity
  8
0
370
    -3
  6
Continuous
100
AcDbLine
 10
-406.268853
 20
-79.707114
 30
0.0
 11
-397.369873
 21
-79.707114
 31
0.0
  0
LINE
  5
285
100
AcDbEntity
  8
0
370
    -3
  6
Continuous
100
AcDbLine
 10
-467.470894
 20
-79.707114
 30
0.0
 11
-476.369873
 21
-79.707114
 31
0.0
  0
LINE
  5
286
100
AcDbEntity
  8
0
370
    -3
  6
Continuous
100
AcDbLine
 10
-382.75192
 20
-59.727947
 30
0.0
 11
-377.864324
 21
-51.262382
 31
0.0
  0
LINE
  5
287
100
AcDbEntity
  8
0
370
    -3
  6
Continuous
100
AcDbLine
 10
-506.369873
 20
-31.745714
 30
0.0
 11
-506.369873
 21
-3.207114
 31
0.0
  0
LINE
  5
288
100
AcDbEntity
  8
0
370
    -3
  6
Continuous
100
AcDbLine
 10
-490.987826
 20
-59.727947
 30
0.0
 11
-505.7
 21
-34.245714
 31
0.0
  0
LINE
  5
289
100
AcDbEntity
  8
0
370
    -3
  6
Continuous
100
AcDbLine
 10
-478.369873
 20
-77.707114
 30
0.0
 11
-478.369873
 21
-73.686187
 31
0.0
  0
LINE
  5
28A
100
AcDbEntity
  8
0
370
    -3
  6
Continuous
100
AcDbLine
 10
-436.869873
 20
-78.707114
 30
0.0
 11
-466.62531
 21
-78.707114
 31
0.0
  0
LINE
  5
28B
100
AcDbEntity
  8
0
370
    -3
  6
Continuous
100
AcDbLine
 10
-436.869873
 20
-78.707114
 30
0.0
 11
-407.114436
 21
-78.707114
 31
0.0
  0
LINE
  5
28C
100
AcDbEntity
  8
0
370
    -3
  6
Continuous
100
AcDbLine
 10
-395.369873
 20
-77.707114
 30
0.0
 11
-395.369873
 21
-73.686187
 31
0.0
  0
LINE
  5
28D
100
AcDbEntity
  8
0
370
    -3
  6
CENTER
100
AcDbLine
 10
-427.561586
 20
-0.707114
 30
0.0
 11
-445.901837
 21
-0.707114
 31
0.0
  0
ARC
  5
28E
100
AcDbEntity
  8
0
370
    -3
  6
Continuous
100
AcDbCircle
 10
-481.369873
 20
-74.22735
 30
0.0
 40
1.0
100
AcDbArc
 50
0.0
 51
56.441102
  0
LINE
  5
28F
100
AcDbEntity
  8
0
370
    -3
  6
Continuous
100
AcDbLine
 10
-485.369873
 20
-80.207114
 30
0.0
 11
-509.369873
 21
-80.207114
 31
0.0
  0
LINE
  5
290
100
AcDbEntity
  8
0
370
    -3
  6
Continuous
100
AcDbLine
 10
-388.369873
 20
-80.207114
 30
0.0
 11
-364.369873
 21
-80.207114
 31
0.0
  0
ARC
  5
291
100
AcDbEntity
  8
0
370
    -3
  6
Continuous
100
AcDbCircle
 10
-401.369873
 20
-75.207114
 30
0.0
 40
7.0
100
AcDbArc
 50
210.0
 51
220.005201
  0
LINE
  5
292
100
AcDbEntity
  8
0
370
    -3
  6
DIVIDE
100
AcDbLine
 10
-485.369873
 20
-70.933164
 30
0.0
 11
-485.369873
 21
-69.848037
 31
0.0
  0
LINE
  5
293
100
AcDbEntity
  8
0
370
    -3
  6
DIVIDE
100
AcDbLine
 10
-480.369873
 20
-74.22735
 30
0.0
 11
-480.369873
 21
-73.686187
 31
0.0
  0
ARC
  5
294
100
AcDbEntity
  8
0
370
    -3
  6
DIVIDE
100
AcDbCircle
 10
-459.810911
 20
-41.727947
 30
0.0
 40
38.0
100
AcDbArc
 50
236.441102
 51
237.246536
  0
LINE
  5
295
100
AcDbEntity
  8
0
370
    -3
  6
Continuous
100
AcDbLine
 10
-506.369873
 20
-63.964473
 30
0.0
 11
-506.369873
 21
-3.460657
 31
0.0
  0
ARC
  5
296
100
AcDbEntity
  8
0
370
    -3
  6
Continuous
100
AcDbCircle
 10
-389.369873
 20
-80.707114
 30
0.0
 40
1.0
100
AcDbArc
 50
0.0
 51
90.0
  0
ARC
  5
297
100
AcDbEntity
  8
0
370
    -3
  6
Continuous
100
AcDbCircle
 10
-385.869873
 20
-70.933164
 30
0.0
 40
2.5
100
AcDbArc
 50
133.853266
 51
180.0
  0
LINE
  5
298
100
AcDbEntity
  8
0
370
    -3
  6
Continuous
100
AcDbLine
 10
-485.369873
 20
-80.707114
 30
0.0
 11
-509.369873
 21
-80.707114
 31
0.0
  0
LINE
  5
299
100
AcDbEntity
  8
0
370
    -3
  6
Continuous
100
AcDbLine
 10
-388.369873
 20
-80.707114
 30
0.0
 11
-364.369873
 21
-80.707114
 31
0.0
  0
LINE
  5
29A
100
AcDbEntity
  8
0
370
    -3
  6
Continuous
100
AcDbLine
 10
-490.455711
 20
-65.707114
 30
0.0
 11
-506.869873
 21
-65.707114
 31
0.0
  0
LINE
  5
29B
100
AcDbEntity
  8
0
370
    -3
  6
Continuous
100
AcDbLine
 10
-485.369873
 20
-80.707114
 30
0.0
 11
-485.369873
 21
-70.933164
 31
0.0
  0
LINE
  5
29C
100
AcDbEntity
  8
0
370
    -3
  6
CENTER
100
AcDbLine
 10
-436.869873
 20
-91.032624
 30
0.0
 11
-436.869873
 21
55.683441
 31
0.0
  0
ARC
  5
29D
100
AcDbEntity
  8
0
370
    -3
  6
Continuous
100
AcDbCircle
 10
-459.810911
 20
-41.727947
 30
0.0
 40
38.0
100
AcDbArc
 50
210.0
 51
236.441102
  0
ARC
  5
29E
100
AcDbEntity
  8
0
370
    -3
  6
Continuous
100
AcDbCircle
 10
-459.810911
 20
-41.727947
 30
0.0
 40
36.0
100
AcDbArc
 50
210.0
 51
237.246536
  0
ARC
  5
29F
100
AcDbEntity
  8
0
370
    -3
  6
Continuous
100
AcDbCircle
 10
-487.869873
 20
-70.933164
 30
0.0
 40
2.5
100
AcDbArc
 50
0.0
 51
46.146734
  0
ARC
  5
2A0
100
AcDbEntity
  8
0
370
    -3
  6
Continuous
100
AcDbCircle
 10
-490.455711
 20
-68.207114
 30
0.0
 40
2.5
100
AcDbArc
 50
40.829221
 51
90.0
  0
LINE
  5
2A1
100
AcDbEntity
  8
0
370
    -3
  6
Continuous
100
AcDbLine
 10
-490.987826
 20
-59.727947
 30
0.0
 11
-505.7
 21
-34.245714
 31
0.0
  0
LINE
  5
2A2
100
AcDbEntity
  8
0
370
    -3
  6
Continuous
100
AcDbLine
 10
-383.284035
 20
-65.707114
 30
0.0
 11
-366.869873
 21
-65.707114
 31
0.0
  0
ARC
  5
2A3
100
AcDbEntity
  8
0
370
    -3
  6
Continuous
100
AcDbCircle
 10
-383.284035
 20
-68.207114
 30
0.0
 40
2.5
100
AcDbArc
 50
90.0
 51
139.170779
  0
LINE
  5
2A4
100
AcDbEntity
  8
0
370
    -3
  6
Continuous
100
AcDbLine
 10
-381.01987
 20
-60.727947
 30
0.0
 11
-375.811689
 21
-51.707114
 31
0.0
  0
LINE
  5
2A5
100
AcDbEntity
  8
0
370
    -3
  6
Continuous
100
AcDbLine
 10
-388.369873
 20
-80.707114
 30
0.0
 11
-388.369873
 21
-70.933164
 31
0.0
  0
ARC
  5
2A6
100
AcDbEntity
  8
0
370
    -3
  6
Continuous
100
AcDbCircle
 10
-413.928835
 20
-41.727947
 30
0.0
 40
38.0
100
AcDbArc
 50
303.558898
 51
330.0
  0
ARC
  5
2A7
100
AcDbEntity
  8
0
370
    -3
  6
Continuous
100
AcDbCircle
 10
-392.369873
 20
-74.22735
 30
0.0
 40
1.0
100
AcDbArc
 50
123.558898
 51
180.0
  0
LINE
  5
2A8
100
AcDbEntity
  8
0
370
    -3
  6
Continuous
100
AcDbLine
 10
-393.369873
 20
-78.707114
 30
0.0
 11
-393.369873
 21
-74.22735
 31
0.0
  0
ARC
  5
2A9
100
AcDbEntity
  8
0
370
    -3
  6
Continuous
100
AcDbCircle
 10
-392.369873
 20
-78.707114
 30
0.0
 40
1.0
100
AcDbArc
 50
180.0
 51
270.0
  0
ARC
  5
2AA
100
AcDbEntity
  8
0
370
    -3
  6
Continuous
100
AcDbCircle
 10
-484.369873
 20
-80.707114
 30
0.0
 40
1.0
100
AcDbArc
 50
90.0
 51
180.0
  0
LINE
  5
2AB
100
AcDbEntity
  8
0
370
    -3
  6
Continuous
100
AcDbLine
 10
-480.369873
 20
-78.707114
 30
0.0
 11
-480.369873
 21
-74.22735
 31
0.0
  0
ARC
  5
2AC
100
AcDbEntity
  8
0
370
    -3
  6
Continuous
100
AcDbCircle
 10
-481.369873
 20
-78.707114
 30
0.0
 40
1.0
100
AcDbArc
 50
270.0
 51
0.0
  0
ARC
  5
2AD
100
AcDbEntity
  8
0
370
    -3
  6
Continuous
100
AcDbCircle
 10
-413.928835
 20
-41.727947
 30
0.0
 40
36.0
100
AcDbArc
 50
302.753464
 51
330.0
  0
ARC
  5
2AE
100
AcDbEntity
  8
0
370
    -3
  6
Continuous
100
AcDbCircle
 10
-393.369873
 20
-73.686187
 30
0.0
 40
2.0
100
AcDbArc
 50
122.753464
 51
180.0
  0
LINE
  5
2AF
100
AcDbEntity
  8
0
370
    -3
  6
Continuous
100
AcDbLine
 10
-395.369873
 20
-77.707114
 30
0.0
 11
-395.369873
 21
-73.686187
 31
0.0
  0
ARC
  5
2B0
100
AcDbEntity
  8
0
370
    -3
  6
Continuous
100
AcDbCircle
 10
-397.369873
 20
-77.707114
 30
0.0
 40
2.0
100
AcDbArc
 50
270.0
 51
0.0
  0
LINE
  5
2B1
100
AcDbEntity
  8
0
370
    -3
  6
Continuous
100
AcDbLine
 10
-478.369873
 20
-77.707114
 30
0.0
 11
-478.369873
 21
-73.686187
 31
0.0
  0
ARC
  5
2B2
100
AcDbEntity
  8
0
370
    -3
  6
Continuous
100
AcDbCircle
 10
-480.369873
 20
-73.686187
 30
0.0
 40
2.0
100
AcDbArc
 50
0.0
 51
57.246536
  0
ARC
  5
2B3
100
AcDbEntity
  8
0
370
    -3
  6
Continuous
100
AcDbCircle
 10
-476.369873
 20
-77.707114
 30
0.0
 40
2.0
100
AcDbArc
 50
180.0
 51
270.0
  0
LINE
  5
2B4
100
AcDbEntity
  8
0
370
    -3
  6
CENTER
100
AcDbLine
 10
-499.369873
 20
-85.004508
 30
0.0
 11
-499.369873
 21
-61.743874
 31
0.0
  0
LINE
  5
2B5
100
AcDbEntity
  8
0
370
    -3
  6
Continuous
100
AcDbLine
 10
-406.731776
 20
-79.707114
 30
0.0
 11
-389.369873
 21
-79.707114
 31
0.0
  0
LINE
  5
2B6
100
AcDbEntity
  8
0
370
    -3
  6
Continuous
100
AcDbLine
 10
-436.869873
 20
-78.707114
 30
0.0
 11
-407.432051
 21
-78.707114
 31
0.0
  0
ARC
  5
2B7
100
AcDbEntity
  8
0
370
    -3
  6
Continuous
100
AcDbCircle
 10
-472.369873
 20
-75.207114
 30
0.0
 40
7.0
100
AcDbArc
 50
319.994799
 51
330.0
  0
LINE
  5
2B8
100
AcDbEntity
  8
0
370
    -3
  6
Continuous
100
AcDbLine
 10
-436.869873
 20
-78.707114
 30
0.0
 11
-466.307695
 21
-78.707114
 31
0.0
  0
LINE
  5
2B9
100
AcDbEntity
  8
0
370
    -3
  6
Continuous
100
AcDbLine
 10
-467.00797
 20
-79.707114
 30
0.0
 11
-484.369873
 21
-79.707114
 31
0.0
  0
LINE
  5
2BA
100
AcDbEntity
  8
0
370
    -3
  6
Continuous
100
AcDbLine
 10
-492.719877
 20
-60.727947
 30
0.0
 11
-497.639382
 21
-52.207114
 31
0.0
  0
LINE
  5
2BB
100
AcDbEntity
  8
0
370
    -3
  6
Continuous
100
AcDbLine
 10
-509.369873
 20
-80.707114
 30
0.0
 11
-509.369873
 21
-68.207114
 31
0.0
  0
ARC
  5
2BC
100
AcDbEntity
  8
0
370
    -3
  6
Continuous
100
AcDbCircle
 10
-508.369873
 20
-63.964473
 30
0.0
 40
2.0
100
AcDbArc
 50
289.471221
 51
0.0
  0
ARC
  5
2BD
100
AcDbEntity
  8
0
370
    -3
  6
Continuous
100
AcDbCircle
 10
-506.869873
 20
-68.207114
 30
0.0
 40
2.5
100
AcDbArc
 50
90.0
 51
180.0
  0
LINE
  5
2BE
100
AcDbEntity
  8
0
370
    -3
  6
CENTER
100
AcDbLine
 10
-374.369873
 20
-85.004508
 30
0.0
 11
-374.369873
 21
-61.743874
 31
0.0
  0
ARC
  5
2BF
100
AcDbEntity
  8
0
370
    -3
  6
Continuous
100
AcDbCircle
 10
-366.869873
 20
-68.207114
 30
0.0
 40
2.5
100
AcDbArc
 50
0.0
 51
90.0
  0
ARC
  5
2C0
100
AcDbEntity
  8
0
370
    -3
  6
Continuous
100
AcDbCircle
 10
-365.369873
 20
-63.964473
 30
0.0
 40
2.0
100
AcDbArc
 50
223.269595
 51
250.528779
  0
ARC
  5
2C1
100
AcDbEntity
  8
0
370
    -3
  6
Continuous
100
AcDbCircle
 10
-373.502288
 20
-53.707114
 30
0.0
 40
3.0
100
AcDbArc
 50
94.807711
 51
150.0
  0
ARC
  5
2C2
100
AcDbEntity
  8
0
370
    -3
  6
Continuous
100
AcDbCircle
 10
-501.369873
 20
-31.745714
 30
0.0
 40
5.0
100
AcDbArc
 50
180.0
 51
210.0
  0
ARC
  5
2C3
100
AcDbEntity
  8
0
370
    -3
  6
Continuous
100
AcDbCircle
 10
-500.237458
 20
-53.707114
 30
0.0
 40
3.0
100
AcDbArc
 50
30.0
 51
90.0
  0
ARC
  5
2C4
100
AcDbEntity
  8
0
370
    -3
  6
Continuous
100
AcDbCircle
 10
-503.369873
 20
-53.707114
 30
0.0
 40
3.0
100
AcDbArc
 50
90.0
 51
180.0
  0
LINE
  5
2C5
100
AcDbEntity
  8
0
370
    -3
  6
Continuous
100
AcDbLine
 10
-500.237458
 20
-50.707114
 30
0.0
 11
-503.369873
 21
-50.707114
 31
0.0
  0
LINE
  5
2C6
100
AcDbEntity
  8
0
370
    -3
  6
Continuous
100
AcDbLine
 10
-364.369873
 20
-80.707114
 30
0.0
 11
-364.369873
 21
-68.207114
 31
0.0
  0
LINE
  5
2C7
100
AcDbEntity
  8
0
370
    -3
  6
Continuous
100
AcDbLine
 10
-401.869874
 20
36.138187
 30
0.0
 11
-403.869875
 21
34.983489
 31
0.0
  0
LINE
  5
2C8
100
AcDbEntity
  8
0
370
    -3
  6
Continuous
100
AcDbLine
 10
-405.869872
 20
38.447586
 30
0.0
 11
-403.869871
 21
39.602285
 31
0.0
  0
LINE
  5
2C9
100
AcDbEntity
  8
0
370
    -3
  6
Continuous
100
AcDbLine
 10
-403.869875
 20
34.983489
 30
0.0
 11
-405.86987
 21
36.13819
 31
0.0
  0
LINE
  5
2CA
100
AcDbEntity
  8
0
370
    -3
  6
Continuous
100
AcDbLine
 10
-401.869875
 20
38.447582
 30
0.0
 11
-403.869871
 21
39.602285
 31
0.0
  0
LINE
  5
2CB
100
AcDbEntity
  8
0
370
    -3
  6
Continuous
100
AcDbLine
 10
-401.869875
 20
38.447581
 30
0.0
 11
-401.869874
 21
36.138187
 31
0.0
  0
LINE
  5
2CC
100
AcDbEntity
  8
0
370
    -3
  6
Continuous
100
AcDbLine
 10
-405.869871
 20
36.13819
 30
0.0
 11
-405.869872
 21
38.447586
 31
0.0
  0
CIRCLE
  5
2CD
100
AcDbEntity
  8
0
370
    -3
  6
Continuous
100
AcDbCircle
 10
-403.869873
 20
37.292886
 30
0.0
 40
4.249999
  0
LINE
  5
2CE
100
AcDbEntity
  8
0
370
    -3
  6
Continuous
100
AcDbLine
 10
-471.869872
 20
36.138187
 30
0.0
 11
-469.869871
 21
34.983489
 31
0.0
  0
LINE
  5
2CF
100
AcDbEntity
  8
0
370
    -3
  6
Continuous
100
AcDbLine
 10
-467.869874
 20
38.447586
 30
0.0
 11
-469.869875
 21
39.602285
 31
0.0
  0
LINE
  5
2D0
100
AcDbEntity
  8
0
370
    -3
  6
Continuous
100
AcDbLine
 10
-469.869871
 20
34.983489
 30
0.0
 11
-467.869876
 21
36.13819
 31
0.0
  0
LINE
  5
2D1
100
AcDbEntity
  8
0
370
    -3
  6
Continuous
100
AcDbLine
 10
-471.869871
 20
38.447582
 30
0.0
 11
-469.869875
 21
39.602285
 31
0.0
  0
LINE
  5
2D2
100
AcDbEntity
  8
0
370
    -3
  6
Continuous
100
AcDbLine
 10
-471.869871
 20
38.447581
 30
0.0
 11
-471.869872
 21
36.138187
 31
0.0
  0
LINE
  5
2D3
100
AcDbEntity
  8
0
370
    -3
  6
Continuous
100
AcDbLine
 10
-467.869875
 20
36.13819
 30
0.0
 11
-467.869874
 21
38.447586
 31
0.0
  0
CIRCLE
  5
2D4
100
AcDbEntity
  8
0
370
    -3
  6
Continuous
100
AcDbCircle
 10
-469.869873
 20
37.292886
 30
0.0
 40
4.249999
  0
LINE
  5
2D5
100
AcDbEntity
  8
0
370
    -3
  6
Continuous
100
AcDbLine
 10
-502.369872
 20
-16.861813
 30
0.0
 11
-500.369871
 21
-18.016511
 31
0.0
  0
LINE
  5
2D6
100
AcDbEntity
  8
0
370
    -3
  6
Continuous
100
AcDbLine
 10
-498.369874
 20
-14.552414
 30
0.0
 11
-500.369875
 21
-13.397715
 31
0.0
  0
LINE
  5
2D7
100
AcDbEntity
  8
0
370
    -3
  6
Continuous
100
AcDbLine
 10
-500.369871
 20
-18.016511
 30
0.0
 11
-498.369876
 21
-16.86181
 31
0.0
  0
LINE
  5
2D8
100
AcDbEntity
  8
0
370
    -3
  6
Continuous
100
AcDbLine
 10
-502.369871
 20
-14.552418
 30
0.0
 11
-500.369875
 21
-13.397715
 31
0.0
  0
LINE
  5
2D9
100
AcDbEntity
  8
0
370
    -3
  6
Continuous
100
AcDbLine
 10
-502.369871
 20
-14.552419
 30
0.0
 11
-502.369872
 21
-16.861813
 31
0.0
  0
LINE
  5
2DA
100
AcDbEntity
  8
0
370
    -3
  6
Continuous
100
AcDbLine
 10
-498.369875
 20
-16.86181
 30
0.0
 11
-498.369874
 21
-14.552414
 31
0.0
  0
CIRCLE
  5
2DB
100
AcDbEntity
  8
0
370
    -3
  6
Continuous
100
AcDbCircle
 10
-500.369873
 20
-15.707114
 30
0.0
 40
4.249999
  0
LINE
  5
2DC
100
AcDbEntity
  8
0
370
    -3
  6
Continuous
100
AcDbLine
 10
-399.369874
 20
-76.361813
 30
0.0
 11
-401.369875
 21
-77.516511
 31
0.0
  0
LINE
  5
2DD
100
AcDbEntity
  8
0
370
    -3
  6
Continuous
100
AcDbLine
 10
-403.369872
 20
-74.052414
 30
0.0
 11
-401.369871
 21
-72.897715
 31
0.0
  0
LINE
  5
2DE
100
AcDbEntity
  8
0
370
    -3
  6
Continuous
100
AcDbLine
 10
-401.369875
 20
-77.516511
 30
0.0
 11
-403.36987
 21
-76.36181
 31
0.0
  0
LINE
  5
2DF
100
AcDbEntity
  8
0
370
    -3
  6
Continuous
100
AcDbLine
 10
-399.369875
 20
-74.052418
 30
0.0
 11
-401.369871
 21
-72.897715
 31
0.0
  0
LINE
  5
2E0
100
AcDbEntity
  8
0
370
    -3
  6
Continuous
100
AcDbLine
 10
-399.369875
 20
-74.052419
 30
0.0
 11
-399.369874
 21
-76.361813
 31
0.0
  0
LINE
  5
2E1
100
AcDbEntity
  8
0
370
    -3
  6
Continuous
100
AcDbLine
 10
-403.369871
 20
-76.36181
 30
0.0
 11
-403.369872
 21
-74.052414
 31
0.0
  0
CIRCLE
  5
2E2
100
AcDbEntity
  8
0
370
    -3
  6
Continuous
100
AcDbCircle
 10
-401.369873
 20
-75.207114
 30
0.0
 40
4.249999
  0
LINE
  5
2E3
100
AcDbEntity
  8
0
370
    -3
  6
Continuous
100
AcDbLine
 10
-474.369872
 20
-76.361813
 30
0.0
 11
-472.369871
 21
-77.516511
 31
0.0
  0
LINE
  5
2E4
100
AcDbEntity
  8
0
370
    -3
  6
Continuous
100
AcDbLine
 10
-470.369874
 20
-74.052414
 30
0.0
 11
-472.369875
 21
-72.897715
 31
0.0
  0
LINE
  5
2E5
100
AcDbEntity
  8
0
370
    -3
  6
Continuous
100
AcDbLine
 10
-472.369871
 20
-77.516511
 30
0.0
 11
-470.369876
 21
-76.36181
 31
0.0
  0
LINE
  5
2E6
100
AcDbEntity
  8
0
370
    -3
  6
Continuous
100
AcDbLine
 10
-474.369871
 20
-74.052418
 30
0.0
 11
-472.369875
 21
-72.897715
 31
0.0
  0
LINE
  5
2E7
100
AcDbEntity
  8
0
370
    -3
  6
Continuous
100
AcDbLine
 10
-474.369871
 20
-74.052419
 30
0.0
 11
-474.369872
 21
-76.361813
 31
0.0
  0
LINE
  5
2E8
100
AcDbEntity
  8
0
370
    -3
  6
Continuous
100
AcDbLine
 10
-470.369875
 20
-76.36181
 30
0.0
 11
-470.369874
 21
-74.052414
 31
0.0
  0
CIRCLE
  5
2E9
100
AcDbEntity
  8
0
370
    -3
  6
Continuous
100
AcDbCircle
 10
-472.369873
 20
-75.207114
 30
0.0
 40
4.249999
  0
ARC
  5
2EA
100
AcDbEntity
  8
0
370
    -3
  6
Continuous
100
AcDbCircle
 10
-436.869873
 20
-18.707114
 30
0.0
 40
52.5
100
AcDbArc
 50
298.562834
 51
298.973449
  0
ARC
  5
2EB
100
AcDbEntity
  8
0
370
    -3
  6
Continuous
100
AcDbCircle
 10
-436.869873
 20
-18.707114
 30
0.0
 40
52.5
100
AcDbArc
 50
285.877702
 51
288.664571
  0
ARC
  5
2EC
100
AcDbEntity
  8
0
370
    -3
  6
Continuous
100
AcDbCircle
 10
-423.369873
 20
-69.787031
 30
0.0
 40
0.5
100
AcDbArc
 50
277.79785
 51
0.0
  0
LINE
  5
2ED
100
AcDbEntity
  8
0
370
    -3
  6
Continuous
100
AcDbLine
 10
-422.869873
 20
-69.787031
 30
0.0
 11
-422.869873
 21
-69.68505
 31
0.0
  0
ARC
  5
2EE
100
AcDbEntity
  8
0
370
    -3
  6
Continuous
100
AcDbCircle
 10
-422.369873
 20
-69.68505
 30
0.0
 40
0.5
100
AcDbArc
 50
105.877702
 51
180.0
  0
ARC
  5
2EF
100
AcDbEntity
  8
0
370
    -3
  6
Continuous
100
AcDbCircle
 10
-406.653018
 20
-62.856765
 30
0.0
 40
1.0
100
AcDbArc
 50
3.0
 51
121.115753
  0
ARC
  5
2F0
100
AcDbEntity
  8
0
370
    -3
  6
Continuous
100
AcDbCircle
 10
-406.557075
 20
-62.790946
 30
0.0
 40
1.0
100
AcDbArc
 50
127.785803
 51
177.0
  0
ARC
  5
2F1
100
AcDbEntity
  8
0
370
    -3
  6
Continuous
100
AcDbCircle
 10
-436.869873
 20
-18.707114
 30
0.0
 40
52.5
100
AcDbArc
 50
293.136889
 51
293.663705
  0
LINE
  5
2F2
100
AcDbEntity
  8
0
370
    -3
  6
Continuous
100
AcDbLine
 10
-408.671232
 20
-54.798479
 30
0.0
 11
-397.528759
 21
-64.831206
 31
0.0
  0
LINE
  5
2F3
100
AcDbEntity
  8
0
370
    -3
  6
Continuous
100
AcDbLine
 10
-400.778508
 20
-46.905755
 30
0.0
 11
-390.745781
 21
-58.048228
 31
0.0
  0
ARC
  5
2F4
100
AcDbEntity
  8
0
370
    -3
  6
Continuous
100
AcDbCircle
 10
-436.869873
 20
-66.207114
 30
0.0
 40
100.0
100
AcDbArc
 50
82.20215
 51
90.0
  0
ARC
  5
2F5
100
AcDbEntity
  8
0
370
    -3
  6
Continuous
100
AcDbCircle
 10
-436.869873
 20
28.792886
 30
0.0
 40
100.0
100
AcDbArc
 50
270.0
 51
277.79785
  0
ARC
  5
2F6
100
AcDbEntity
  8
0
370
    -3
  6
Continuous
100
AcDbCircle
 10
-480.27091
 20
-53.529492
 30
0.0
 40
1.0
100
AcDbArc
 50
318.0
 51
87.0
  0
LINE
  5
2F7
100
AcDbEntity
  8
0
370
    -3
  6
Continuous
100
AcDbLine
 10
-480.218574
 20
-52.530862
 30
0.0
 11
-486.422209
 21
-52.205744
 31
0.0
  0
ARC
  5
2F8
100
AcDbEntity
  8
0
370
    -3
  6
Continuous
100
AcDbCircle
 10
-436.869873
 20
-18.707114
 30
0.0
 40
61.5
100
AcDbArc
 50
221.401106
 51
228.598894
  0
ARC
  5
2F9
100
AcDbEntity
  8
0
370
    -3
  6
Continuous
100
AcDbCircle
 10
-482.25082
 20
-58.717358
 30
0.0
 40
1.0
100
AcDbArc
 50
138.0
 51
221.401106
  0
ARC
  5
2FA
100
AcDbEntity
  8
0
370
    -3
  6
Continuous
100
AcDbCircle
 10
-471.692251
 20
-62.108151
 30
0.0
 40
1.0
100
AcDbArc
 50
3.0
 51
132.0
  0
LINE
  5
2FB
100
AcDbEntity
  8
0
370
    -3
  6
Continuous
100
AcDbLine
 10
-470.693621
 20
-62.055815
 30
0.0
 11
-470.368503
 21
-68.25945
 31
0.0
  0
ARC
  5
2FC
100
AcDbEntity
  8
0
370
    -3
  6
Continuous
100
AcDbCircle
 10
-476.880117
 20
-64.088061
 30
0.0
 40
1.0
100
AcDbArc
 50
228.598894
 51
312.0
  0
ARC
  5
2FD
100
AcDbEntity
  8
0
370
    -3
  6
Continuous
100
AcDbCircle
 10
-480.953705
 20
-49.019912
 30
0.0
 40
1.0
100
AcDbArc
 50
34.513079
 51
87.0
  0
ARC
  5
2FE
100
AcDbEntity
  8
0
370
    -3
  6
Continuous
100
AcDbCircle
 10
-481.019524
 20
-48.923969
 30
0.0
 40
1.0
100
AcDbArc
 50
273.0
 51
34.388476
  0
LINE
  5
2FF
100
AcDbEntity
  8
0
370
    -3
  6
Continuous
100
AcDbLine
 10
-485.831187
 20
-41.151306
 30
0.0
 11
-486.922209
 21
-41.208484
 31
0.0
  0
ARC
  5
300
100
AcDbEntity
  8
0
370
    -3
  6
Continuous
100
AcDbCircle
 10
-485.883523
 20
-40.152677
 30
0.0
 40
1.0
100
AcDbArc
 50
273.0
 51
23.63143
  0
ARC
  5
301
100
AcDbEntity
  8
0
370
    -3
  6
Continuous
100
AcDbCircle
 10
-486.869873
 20
-42.207114
 30
0.0
 40
1.0
100
AcDbArc
 50
93.0
 51
267.0
  0
ARC
  5
302
100
AcDbEntity
  8
0
370
    -3
  6
Continuous
100
AcDbCircle
 10
-483.813065
 20
-44.370059
 30
0.0
 40
1.0
100
AcDbArc
 50
28.664584
 51
87.0
  0
LINE
  5
303
100
AcDbEntity
  8
0
370
    -3
  6
Continuous
100
AcDbLine
 10
-483.760729
 20
-43.37143
 30
0.0
 11
-486.922209
 21
-43.205744
 31
0.0
  0
ARC
  5
304
100
AcDbEntity
  8
0
370
    -3
  6
Continuous
100
AcDbCircle
 10
-483.720147
 20
-44.539299
 30
0.0
 40
1.0
100
AcDbArc
 50
273.0
 51
28.871352
  0
LINE
  5
305
100
AcDbEntity
  8
0
370
    -3
  6
Continuous
100
AcDbLine
 10
-483.667811
 20
-45.537929
 30
0.0
 11
-486.922209
 21
-45.708484
 31
0.0
  0
LINE
  5
306
100
AcDbEntity
  8
0
370
    -3
  6
Continuous
100
AcDbLine
 10
-480.90137
 20
-48.021282
 30
0.0
 11
-486.922209
 21
-47.705744
 31
0.0
  0
LINE
  5
307
100
AcDbEntity
  8
0
370
    -3
  6
Continuous
100
AcDbLine
 10
-480.967188
 20
-49.922599
 30
0.0
 11
-486.422209
 21
-50.208484
 31
0.0
  0
ARC
  5
308
100
AcDbEntity
  8
0
370
    -3
  6
Continuous
100
AcDbCircle
 10
-486.869873
 20
-46.707114
 30
0.0
 40
1.0
100
AcDbArc
 50
93.0
 51
267.0
  0
ARC
  5
309
100
AcDbEntity
  8
0
370
    -3
  6
Continuous
100
AcDbCircle
 10
-486.369873
 20
-51.207114
 30
0.0
 40
1.0
100
AcDbArc
 50
93.0
 51
267.0
  0
ARC
  5
30A
100
AcDbEntity
  8
0
370
    -3
  6
Continuous
100
AcDbCircle
 10
-436.869873
 20
-18.707114
 30
0.0
 40
52.5
100
AcDbArc
 50
208.562834
 51
208.973449
  0
ARC
  5
30B
100
AcDbEntity
  8
0
370
    -3
  6
Continuous
100
AcDbCircle
 10
-436.869873
 20
-18.707114
 30
0.0
 40
52.5
100
AcDbArc
 50
208.562834
 51
208.973449
  0
ARC
  5
30C
100
AcDbEntity
  8
0
370
    -3
  6
Continuous
100
AcDbCircle
 10
-436.869873
 20
-18.707114
 30
0.0
 40
52.5
100
AcDbArc
 50
203.111602
 51
203.663705
  0
ARC
  5
30D
100
AcDbEntity
  8
0
370
    -3
  6
Continuous
100
AcDbCircle
 10
-486.076072
 20
-39.707114
 30
0.0
 40
1.0
100
AcDbArc
 50
23.111602
 51
90.0
  0
ARC
  5
30E
100
AcDbEntity
  8
0
370
    -3
  6
Continuous
100
AcDbCircle
 10
-436.869873
 20
-18.707114
 30
0.0
 40
52.5
100
AcDbArc
 50
203.111602
 51
203.695081
  0
LINE
  5
30F
100
AcDbEntity
  8
0
370
    -3
  6
Continuous
100
AcDbLine
 10
-489.669873
 20
-38.707114
 30
0.0
 11
-486.076072
 21
-38.707114
 31
0.0
  0
ARC
  5
310
100
AcDbEntity
  8
0
370
    -3
  6
Continuous
100
AcDbCircle
 10
-489.669873
 20
-38.007114
 30
0.0
 40
0.7
100
AcDbArc
 50
180.0
 51
270.0
  0
LINE
  5
311
100
AcDbEntity
  8
0
370
    -3
  6
Continuous
100
AcDbLine
 10
-490.369873
 20
-38.007114
 30
0.0
 11
-490.369873
 21
-18.707114
 31
0.0
  0
LINE
  5
312
100
AcDbEntity
  8
0
370
    -3
  6
Continuous
100
AcDbLine
 10
-466.184041
 20
-62.73861
 30
0.0
 11
-465.868503
 21
-68.75945
 31
0.0
  0
LINE
  5
313
100
AcDbEntity
  8
0
370
    -3
  6
Continuous
100
AcDbLine
 10
-468.085358
 20
-62.804429
 30
0.0
 11
-468.371244
 21
-68.25945
 31
0.0
  0
ARC
  5
314
100
AcDbEntity
  8
0
370
    -3
  6
Continuous
100
AcDbCircle
 10
-469.369873
 20
-68.207114
 30
0.0
 40
1.0
100
AcDbArc
 50
183.0
 51
357.0
  0
LINE
  5
315
100
AcDbEntity
  8
0
370
    -3
  6
Continuous
100
AcDbLine
 10
-463.700688
 20
-65.505052
 30
0.0
 11
-463.871244
 21
-68.75945
 31
0.0
  0
ARC
  5
316
100
AcDbEntity
  8
0
370
    -3
  6
Continuous
100
AcDbCircle
 10
-464.869873
 20
-68.707114
 30
0.0
 40
1.0
100
AcDbArc
 50
183.0
 51
357.0
  0
LINE
  5
317
100
AcDbEntity
  8
0
370
    -3
  6
Continuous
100
AcDbLine
 10
-459.314065
 20
-67.668427
 30
0.0
 11
-459.371244
 21
-68.75945
 31
0.0
  0
ARC
  5
318
100
AcDbEntity
  8
0
370
    -3
  6
Continuous
100
AcDbCircle
 10
-455.869873
 20
-68.707114
 30
0.0
 40
1.0
100
AcDbArc
 50
183.0
 51
339.929668
  0
LINE
  5
319
100
AcDbEntity
  8
0
370
    -3
  6
Continuous
100
AcDbLine
 10
-456.916605
 20
-67.841593
 30
0.0
 11
-456.868503
 21
-68.75945
 31
0.0
  0
ARC
  5
31A
100
AcDbEntity
  8
0
370
    -3
  6
Continuous
100
AcDbCircle
 10
-457.915235
 20
-67.893929
 30
0.0
 40
1.0
100
AcDbArc
 50
3.0
 51
66.835568
  0
ARC
  5
31B
100
AcDbEntity
  8
0
370
    -3
  6
Continuous
100
AcDbCircle
 10
-453.991329
 20
-69.393461
 30
0.0
 40
1.0
100
AcDbArc
 50
71.335429
 51
159.929668
  0
ARC
  5
31C
100
AcDbEntity
  8
0
370
    -3
  6
Continuous
100
AcDbCircle
 10
-458.315436
 20
-67.720763
 30
0.0
 40
1.0
100
AcDbArc
 50
66.36857
 51
177.0
  0
ARC
  5
31D
100
AcDbEntity
  8
0
370
    -3
  6
Continuous
100
AcDbCircle
 10
-462.532818
 20
-65.650306
 30
0.0
 40
1.0
100
AcDbArc
 50
3.0
 51
61.335416
  0
LINE
  5
31E
100
AcDbEntity
  8
0
370
    -3
  6
Continuous
100
AcDbLine
 10
-461.534189
 20
-65.59797
 30
0.0
 11
-461.368503
 21
-68.75945
 31
0.0
  0
ARC
  5
31F
100
AcDbEntity
  8
0
370
    -3
  6
Continuous
100
AcDbCircle
 10
-462.702058
 20
-65.557388
 30
0.0
 40
1.0
100
AcDbArc
 50
61.128648
 51
177.0
  0
ARC
  5
320
100
AcDbEntity
  8
0
370
    -3
  6
Continuous
100
AcDbCircle
 10
-460.369873
 20
-68.707114
 30
0.0
 40
1.0
100
AcDbArc
 50
183.0
 51
357.0
  0
ARC
  5
321
100
AcDbEntity
  8
0
370
    -3
  6
Continuous
100
AcDbCircle
 10
-436.869873
 20
-18.707114
 30
0.0
 40
52.5
100
AcDbArc
 50
241.026551
 51
241.437166
  0
ARC
  5
322
100
AcDbEntity
  8
0
370
    -3
  6
Continuous
100
AcDbCircle
 10
-436.869873
 20
-18.707114
 30
0.0
 40
52.5
100
AcDbArc
 50
251.335429
 51
254.122298
  0
ARC
  5
323
100
AcDbEntity
  8
0
370
    -3
  6
Continuous
100
AcDbCircle
 10
-436.869873
 20
28.792886
 30
0.0
 40
100.0
100
AcDbArc
 50
262.20215
 51
270.0
  0
ARC
  5
324
100
AcDbEntity
  8
0
370
    -3
  6
Continuous
100
AcDbCircle
 10
-450.369873
 20
-69.787031
 30
0.0
 40
0.5
100
AcDbArc
 50
180.0
 51
262.20215
  0
LINE
  5
325
100
AcDbEntity
  8
0
370
    -3
  6
Continuous
100
AcDbLine
 10
-450.869873
 20
-69.787031
 30
0.0
 11
-450.869873
 21
-69.68505
 31
0.0
  0
ARC
  5
326
100
AcDbEntity
  8
0
370
    -3
  6
Continuous
100
AcDbCircle
 10
-451.369873
 20
-69.68505
 30
0.0
 40
0.5
100
AcDbArc
 50
0.0
 51
74.122298
  0
ARC
  5
327
100
AcDbEntity
  8
0
370
    -3
  6
Continuous
100
AcDbCircle
 10
-467.086728
 20
-62.856765
 30
0.0
 40
1.0
100
AcDbArc
 50
58.884247
 51
177.0
  0
ARC
  5
328
100
AcDbEntity
  8
0
370
    -3
  6
Continuous
100
AcDbCircle
 10
-467.182671
 20
-62.790946
 30
0.0
 40
1.0
100
AcDbArc
 50
3.0
 51
52.214197
  0
ARC
  5
329
100
AcDbEntity
  8
0
370
    -3
  6
Continuous
100
AcDbCircle
 10
-436.869873
 20
-18.707114
 30
0.0
 40
52.5
100
AcDbArc
 50
246.336295
 51
246.863111
  0
LINE
  5
32A
100
AcDbEntity
  8
0
370
    -3
  6
Continuous
100
AcDbLine
 10
-465.068515
 20
-54.798479
 30
0.0
 11
-476.210987
 21
-64.831206
 31
0.0
  0
LINE
  5
32B
100
AcDbEntity
  8
0
370
    -3
  6
Continuous
100
AcDbLine
 10
-472.961238
 20
-46.905755
 30
0.0
 11
-482.993965
 21
-58.048228
 31
0.0
  0
ARC
  5
32C
100
AcDbEntity
  8
0
370
    -3
  6
Continuous
100
AcDbCircle
 10
-480.27091
 20
16.115264
 30
0.0
 40
1.0
100
AcDbArc
 50
273.0
 51
42.0
  0
LINE
  5
32D
100
AcDbEntity
  8
0
370
    -3
  6
Continuous
100
AcDbLine
 10
-480.218574
 20
15.116634
 30
0.0
 11
-486.422209
 21
14.791516
 31
0.0
  0
ARC
  5
32E
100
AcDbEntity
  8
0
370
    -3
  6
Continuous
100
AcDbCircle
 10
-436.869873
 20
-18.707114
 30
0.0
 40
61.5
100
AcDbArc
 50
131.401106
 51
138.598894
  0
ARC
  5
32F
100
AcDbEntity
  8
0
370
    -3
  6
Continuous
100
AcDbCircle
 10
-482.25082
 20
21.30313
 30
0.0
 40
1.0
100
AcDbArc
 50
138.598894
 51
222.0
  0
ARC
  5
330
100
AcDbEntity
  8
0
370
    -3
  6
Continuous
100
AcDbCircle
 10
-471.692251
 20
24.693923
 30
0.0
 40
1.0
100
AcDbArc
 50
228.0
 51
357.0
  0
LINE
  5
331
100
AcDbEntity
  8
0
370
    -3
  6
Continuous
100
AcDbLine
 10
-470.693621
 20
24.641587
 30
0.0
 11
-470.368503
 21
30.845222
 31
0.0
  0
ARC
  5
332
100
AcDbEntity
  8
0
370
    -3
  6
Continuous
100
AcDbCircle
 10
-476.880117
 20
26.673833
 30
0.0
 40
1.0
100
AcDbArc
 50
48.0
 51
131.401106
  0
ARC
  5
333
100
AcDbEntity
  8
0
370
    -3
  6
Continuous
100
AcDbCircle
 10
-480.953705
 20
11.605684
 30
0.0
 40
1.0
100
AcDbArc
 50
273.0
 51
325.486921
  0
ARC
  5
334
100
AcDbEntity
  8
0
370
    -3
  6
Continuous
100
AcDbCircle
 10
-481.019524
 20
11.509741
 30
0.0
 40
1.0
100
AcDbArc
 50
325.611524
 51
87.0
  0
LINE
  5
335
100
AcDbEntity
  8
0
370
    -3
  6
Continuous
100
AcDbLine
 10
-485.831187
 20
3.737078
 30
0.0
 11
-486.922209
 21
3.794256
 31
0.0
  0
ARC
  5
336
100
AcDbEntity
  8
0
370
    -3
  6
Continuous
100
AcDbCircle
 10
-485.883523
 20
2.738449
 30
0.0
 40
1.0
100
AcDbArc
 50
336.36857
 51
87.0
  0
ARC
  5
337
100
AcDbEntity
  8
0
370
    -3
  6
Continuous
100
AcDbCircle
 10
-486.869873
 20
4.792886
 30
0.0
 40
1.0
100
AcDbArc
 50
93.0
 51
267.0
  0
ARC
  5
338
100
AcDbEntity
  8
0
370
    -3
  6
Continuous
100
AcDbCircle
 10
-483.813065
 20
6.955831
 30
0.0
 40
1.0
100
AcDbArc
 50
273.0
 51
331.335416
  0
LINE
  5
339
100
AcDbEntity
  8
0
370
    -3
  6
Continuous
100
AcDbLine
 10
-483.760729
 20
5.957202
 30
0.0
 11
-486.922209
 21
5.791516
 31
0.0
  0
ARC
  5
33A
100
AcDbEntity
  8
0
370
    -3
  6
Continuous
100
AcDbCircle
 10
-483.720147
 20
7.125071
 30
0.0
 40
1.0
100
AcDbArc
 50
331.128648
 51
87.0
  0
LINE
  5
33B
100
AcDbEntity
  8
0
370
    -3
  6
Continuous
100
AcDbLine
 10
-483.667811
 20
8.123701
 30
0.0
 11
-486.922209
 21
8.294256
 31
0.0
  0
LINE
  5
33C
100
AcDbEntity
  8
0
370
    -3
  6
Continuous
100
AcDbLine
 10
-480.90137
 20
10.607054
 30
0.0
 11
-486.922209
 21
10.291516
 31
0.0
  0
LINE
  5
33D
100
AcDbEntity
  8
0
370
    -3
  6
Continuous
100
AcDbLine
 10
-480.967188
 20
12.508371
 30
0.0
 11
-486.422209
 21
12.794256
 31
0.0
  0
ARC
  5
33E
100
AcDbEntity
  8
0
370
    -3
  6
Continuous
100
AcDbCircle
 10
-486.869873
 20
9.292886
 30
0.0
 40
1.0
100
AcDbArc
 50
93.0
 51
267.0
  0
ARC
  5
33F
100
AcDbEntity
  8
0
370
    -3
  6
Continuous
100
AcDbCircle
 10
-486.369873
 20
13.792886
 30
0.0
 40
1.0
100
AcDbArc
 50
93.0
 51
267.0
  0
ARC
  5
340
100
AcDbEntity
  8
0
370
    -3
  6
Continuous
100
AcDbCircle
 10
-436.869873
 20
-18.707114
 30
0.0
 40
52.5
100
AcDbArc
 50
151.026551
 51
151.437166
  0
ARC
  5
341
100
AcDbEntity
  8
0
370
    -3
  6
Continuous
100
AcDbCircle
 10
-436.869873
 20
-18.707114
 30
0.0
 40
52.5
100
AcDbArc
 50
151.026551
 51
151.437166
  0
ARC
  5
342
100
AcDbEntity
  8
0
370
    -3
  6
Continuous
100
AcDbCircle
 10
-436.869873
 20
-18.707114
 30
0.0
 40
52.5
100
AcDbArc
 50
156.336295
 51
156.888398
  0
ARC
  5
343
100
AcDbEntity
  8
0
370
    -3
  6
Continuous
100
AcDbCircle
 10
-486.076072
 20
2.292886
 30
0.0
 40
1.0
100
AcDbArc
 50
270.0
 51
336.888398
  0
ARC
  5
344
100
AcDbEntity
  8
0
370
    -3
  6
Continuous
100
AcDbCircle
 10
-436.869873
 20
-18.707114
 30
0.0
 40
52.5
100
AcDbArc
 50
156.304919
 51
156.888398
  0
LINE
  5
345
100
AcDbEntity
  8
0
370
    -3
  6
Continuous
100
AcDbLine
 10
-489.669873
 20
1.292886
 30
0.0
 11
-486.076072
 21
1.292886
 31
0.0
  0
ARC
  5
346
100
AcDbEntity
  8
0
370
    -3
  6
Continuous
100
AcDbCircle
 10
-489.669873
 20
0.592886
 30
0.0
 40
0.7
100
AcDbArc
 50
90.0
 51
180.0
  0
LINE
  5
347
100
AcDbEntity
  8
0
370
    -3
  6
Continuous
100
AcDbLine
 10
-490.369873
 20
0.592886
 30
0.0
 11
-490.369873
 21
-18.707114
 31
0.0
  0
LINE
  5
348
100
AcDbEntity
  8
0
370
    -3
  6
Continuous
100
AcDbLine
 10
-466.184041
 20
25.324383
 30
0.0
 11
-465.868503
 21
31.345222
 31
0.0
  0
LINE
  5
349
100
AcDbEntity
  8
0
370
    -3
  6
Continuous
100
AcDbLine
 10
-468.085358
 20
25.390201
 30
0.0
 11
-468.371244
 21
30.845222
 31
0.0
  0
ARC
  5
34A
100
AcDbEntity
  8
0
370
    -3
  6
Continuous
100
AcDbCircle
 10
-469.369873
 20
30.792886
 30
0.0
 40
1.0
100
AcDbArc
 50
3.0
 51
177.0
  0
LINE
  5
34B
100
AcDbEntity
  8
0
370
    -3
  6
Continuous
100
AcDbLine
 10
-463.700688
 20
28.090824
 30
0.0
 11
-463.871244
 21
31.345222
 31
0.0
  0
ARC
  5
34C
100
AcDbEntity
  8
0
370
    -3
  6
Continuous
100
AcDbCircle
 10
-464.869873
 20
31.292886
 30
0.0
 40
1.0
100
AcDbArc
 50
3.0
 51
177.0
  0
LINE
  5
34D
100
AcDbEntity
  8
0
370
    -3
  6
Continuous
100
AcDbLine
 10
-459.314065
 20
30.2542
 30
0.0
 11
-459.371244
 21
31.345222
 31
0.0
  0
ARC
  5
34E
100
AcDbEntity
  8
0
370
    -3
  6
Continuous
100
AcDbCircle
 10
-455.869873
 20
31.292886
 30
0.0
 40
1.0
100
AcDbArc
 50
20.070332
 51
177.0
  0
LINE
  5
34F
100
AcDbEntity
  8
0
370
    -3
  6
Continuous
100
AcDbLine
 10
-456.916605
 20
30.427365
 30
0.0
 11
-456.868503
 21
31.345222
 31
0.0
  0
ARC
  5
350
100
AcDbEntity
  8
0
370
    -3
  6
Continuous
100
AcDbCircle
 10
-457.915235
 20
30.479701
 30
0.0
 40
1.0
100
AcDbArc
 50
293.164432
 51
357.0
  0
ARC
  5
351
100
AcDbEntity
  8
0
370
    -3
  6
Continuous
100
AcDbCircle
 10
-453.991329
 20
31.979233
 30
0.0
 40
1.0
100
AcDbArc
 50
200.070332
 51
288.664571
  0
ARC
  5
352
100
AcDbEntity
  8
0
370
    -3
  6
Continuous
100
AcDbCircle
 10
-458.315436
 20
30.306535
 30
0.0
 40
1.0
100
AcDbArc
 50
183.0
 51
293.63143
  0
ARC
  5
353
100
AcDbEntity
  8
0
370
    -3
  6
Continuous
100
AcDbCircle
 10
-462.532818
 20
28.236078
 30
0.0
 40
1.0
100
AcDbArc
 50
298.664584
 51
357.0
  0
LINE
  5
354
100
AcDbEntity
  8
0
370
    -3
  6
Continuous
100
AcDbLine
 10
-461.534189
 20
28.183742
 30
0.0
 11
-461.368503
 21
31.345222
 31
0.0
  0
ARC
  5
355
100
AcDbEntity
  8
0
370
    -3
  6
Continuous
100
AcDbCircle
 10
-462.702058
 20
28.14316
 30
0.0
 40
1.0
100
AcDbArc
 50
183.0
 51
298.871352
  0
ARC
  5
356
100
AcDbEntity
  8
0
370
    -3
  6
Continuous
100
AcDbCircle
 10
-460.369873
 20
31.292886
 30
0.0
 40
1.0
100
AcDbArc
 50
3.0
 51
177.0
  0
ARC
  5
357
100
AcDbEntity
  8
0
370
    -3
  6
Continuous
100
AcDbCircle
 10
-436.869873
 20
-18.707114
 30
0.0
 40
52.5
100
AcDbArc
 50
118.562834
 51
118.973449
  0
ARC
  5
358
100
AcDbEntity
  8
0
370
    -3
  6
Continuous
100
AcDbCircle
 10
-436.869873
 20
-18.707114
 30
0.0
 40
52.5
100
AcDbArc
 50
105.877702
 51
108.664571
  0
ARC
  5
359
100
AcDbEntity
  8
0
370
    -3
  6
Continuous
100
AcDbCircle
 10
-436.869873
 20
-66.207114
 30
0.0
 40
100.0
100
AcDbArc
 50
90.0
 51
97.79785
  0
ARC
  5
35A
100
AcDbEntity
  8
0
370
    -3
  6
Continuous
100
AcDbCircle
 10
-450.369873
 20
32.372803
 30
0.0
 40
0.5
100
AcDbArc
 50
97.79785
 51
180.0
  0
LINE
  5
35B
100
AcDbEntity
  8
0
370
    -3
  6
Continuous
100
AcDbLine
 10
-450.869873
 20
32.372803
 30
0.0
 11
-450.869873
 21
32.270822
 31
0.0
  0
ARC
  5
35C
100
AcDbEntity
  8
0
370
    -3
  6
Continuous
100
AcDbCircle
 10
-451.369873
 20
32.270822
 30
0.0
 40
0.5
100
AcDbArc
 50
285.877702
 51
0.0
  0
ARC
  5
35D
100
AcDbEntity
  8
0
370
    -3
  6
Continuous
100
AcDbCircle
 10
-467.086728
 20
25.442537
 30
0.0
 40
1.0
100
AcDbArc
 50
183.0
 51
301.115753
  0
LINE
  5
35E
100
AcDbEntity
  8
0
370
    -3
  6
Continuous
100
AcDbLine
 10
-490.369873
 20
-37.457114
 30
0.0
 11
-490.369873
 21
0.042886
 31
0.0
  0
ARC
  5
35F
100
AcDbEntity
  8
0
370
    -3
  6
Continuous
100
AcDbCircle
 10
-467.182671
 20
25.376718
 30
0.0
 40
1.0
100
AcDbArc
 50
307.785803
 51
357.0
  0
ARC
  5
360
100
AcDbEntity
  8
0
370
    -3
  6
Continuous
100
AcDbCircle
 10
-436.869873
 20
-18.707114
 30
0.0
 40
52.5
100
AcDbArc
 50
113.136889
 51
113.663705
  0
LINE
  5
361
100
AcDbEntity
  8
0
370
    -3
  6
Continuous
100
AcDbLine
 10
-465.068515
 20
17.384251
 30
0.0
 11
-476.210987
 21
27.416978
 31
0.0
  0
LINE
  5
362
100
AcDbEntity
  8
0
370
    -3
  6
Continuous
100
AcDbLine
 10
-387.90856
 20
3.737078
 30
0.0
 11
-386.817537
 21
3.794256
 31
0.0
  0
ARC
  5
363
100
AcDbEntity
  8
0
370
    -3
  6
Continuous
100
AcDbCircle
 10
-387.856224
 20
2.738449
 30
0.0
 40
1.0
100
AcDbArc
 50
93.0
 51
203.63143
  0
LINE
  5
364
100
AcDbEntity
  8
0
370
    -3
  6
Continuous
100
AcDbLine
 10
-472.961238
 20
9.491527
 30
0.0
 11
-482.993965
 21
20.634
 31
0.0
  0
ARC
  5
365
100
AcDbEntity
  8
0
370
    -3
  6
Continuous
100
AcDbCircle
 10
-386.869873
 20
4.792886
 30
0.0
 40
1.0
100
AcDbArc
 50
273.0
 51
87.0
  0
LINE
  5
366
100
AcDbEntity
  8
0
370
    -3
  6
Continuous
100
AcDbLine
 10
-389.979017
 20
5.957202
 30
0.0
 11
-386.817537
 21
5.791516
 31
0.0
  0
LINE
  5
367
100
AcDbEntity
  8
0
370
    -3
  6
CENTER
100
AcDbLine
 10
-379.126984
 20
-18.707114
 30
0.0
 11
-517.922502
 21
-18.707114
 31
0.0
  0
LINE
  5
368
100
AcDbEntity
  8
0
370
    -3
  6
Continuous
100
AcDbLine
 10
-390.071935
 20
8.123701
 30
0.0
 11
-386.817537
 21
8.294256
 31
0.0
  0
ARC
  5
369
100
AcDbEntity
  8
0
370
    -3
  6
Continuous
100
AcDbCircle
 10
-386.869873
 20
9.292886
 30
0.0
 40
1.0
100
AcDbArc
 50
273.0
 51
87.0
  0
ARC
  5
36A
100
AcDbEntity
  8
0
370
    -3
  6
Continuous
100
AcDbCircle
 10
-387.369873
 20
13.792886
 30
0.0
 40
1.0
100
AcDbArc
 50
273.0
 51
87.0
  0
ARC
  5
36B
100
AcDbEntity
  8
0
370
    -3
  6
Continuous
100
AcDbCircle
 10
-436.869873
 20
-18.707114
 30
0.0
 40
52.5
100
AcDbArc
 50
23.111602
 51
23.663705
  0
ARC
  5
36C
100
AcDbEntity
  8
0
370
    -3
  6
Continuous
100
AcDbCircle
 10
-387.663674
 20
2.292886
 30
0.0
 40
1.0
100
AcDbArc
 50
203.111602
 51
270.0
  0
ARC
  5
36D
100
AcDbEntity
  8
0
370
    -3
  6
Continuous
100
AcDbCircle
 10
-436.869873
 20
-18.707114
 30
0.0
 40
52.5
100
AcDbArc
 50
23.111602
 51
23.695081
  0
LINE
  5
36E
100
AcDbEntity
  8
0
370
    -3
  6
Continuous
100
AcDbLine
 10
-384.069873
 20
1.292886
 30
0.0
 11
-387.663674
 21
1.292886
 31
0.0
  0
ARC
  5
36F
100
AcDbEntity
  8
0
370
    -3
  6
Continuous
100
AcDbCircle
 10
-384.069873
 20
0.592886
 30
0.0
 40
0.7
100
AcDbArc
 50
0.0
 51
90.0
  0
LINE
  5
370
100
AcDbEntity
  8
0
370
    -3
  6
Continuous
100
AcDbLine
 10
-383.369873
 20
0.592886
 30
0.0
 11
-383.369873
 21
-18.707114
 31
0.0
  0
LINE
  5
371
100
AcDbEntity
  8
0
370
    -3
  6
Continuous
100
AcDbLine
 10
-387.90856
 20
-41.151306
 30
0.0
 11
-386.817537
 21
-41.208484
 31
0.0
  0
ARC
  5
372
100
AcDbEntity
  8
0
370
    -3
  6
Continuous
100
AcDbCircle
 10
-387.856224
 20
-40.152677
 30
0.0
 40
1.0
100
AcDbArc
 50
156.36857
 51
267.0
  0
ARC
  5
373
100
AcDbEntity
  8
0
370
    -3
  6
Continuous
100
AcDbCircle
 10
-386.869873
 20
-42.207114
 30
0.0
 40
1.0
100
AcDbArc
 50
273.0
 51
87.0
  0
LINE
  5
374
100
AcDbEntity
  8
0
370
    -3
  6
Continuous
100
AcDbLine
 10
-389.979017
 20
-43.37143
 30
0.0
 11
-386.817537
 21
-43.205744
 31
0.0
  0
LINE
  5
375
100
AcDbEntity
  8
0
370
    -3
  6
Continuous
100
AcDbLine
 10
-390.071935
 20
-45.537929
 30
0.0
 11
-386.817537
 21
-45.708484
 31
0.0
  0
ARC
  5
376
100
AcDbEntity
  8
0
370
    -3
  6
Continuous
100
AcDbCircle
 10
-386.869873
 20
-46.707114
 30
0.0
 40
1.0
100
AcDbArc
 50
273.0
 51
87.0
  0
ARC
  5
377
100
AcDbEntity
  8
0
370
    -3
  6
Continuous
100
AcDbCircle
 10
-387.369873
 20
-51.207114
 30
0.0
 40
1.0
100
AcDbArc
 50
273.0
 51
87.0
  0
ARC
  5
378
100
AcDbEntity
  8
0
370
    -3
  6
Continuous
100
AcDbCircle
 10
-436.869873
 20
-18.707114
 30
0.0
 40
52.5
100
AcDbArc
 50
336.336295
 51
336.888398
  0
ARC
  5
379
100
AcDbEntity
  8
0
370
    -3
  6
Continuous
100
AcDbCircle
 10
-387.663674
 20
-39.707114
 30
0.0
 40
1.0
100
AcDbArc
 50
90.0
 51
156.888398
  0
ARC
  5
37A
100
AcDbEntity
  8
0
370
    -3
  6
Continuous
100
AcDbCircle
 10
-436.869873
 20
-18.707114
 30
0.0
 40
52.5
100
AcDbArc
 50
336.304919
 51
336.888398
  0
LINE
  5
37B
100
AcDbEntity
  8
0
370
    -3
  6
Continuous
100
AcDbLine
 10
-384.069873
 20
-38.707114
 30
0.0
 11
-387.663674
 21
-38.707114
 31
0.0
  0
ARC
  5
37C
100
AcDbEntity
  8
0
370
    -3
  6
Continuous
100
AcDbCircle
 10
-384.069873
 20
-38.007114
 30
0.0
 40
0.7
100
AcDbArc
 50
270.0
 51
0.0
  0
LINE
  5
37D
100
AcDbEntity
  8
0
370
    -3
  6
Continuous
100
AcDbLine
 10
-383.369873
 20
-38.007114
 30
0.0
 11
-383.369873
 21
-18.707114
 31
0.0
  0
ARC
  5
37E
100
AcDbEntity
  8
0
370
    -3
  6
Continuous
100
AcDbCircle
 10
-393.468836
 20
16.115264
 30
0.0
 40
1.0
100
AcDbArc
 50
138.0
 51
267.0
  0
LINE
  5
37F
100
AcDbEntity
  8
0
370
    -3
  6
Continuous
100
AcDbLine
 10
-393.521172
 20
15.116634
 30
0.0
 11
-387.317537
 21
14.791516
 31
0.0
  0
ARC
  5
380
100
AcDbEntity
  8
0
370
    -3
  6
Continuous
100
AcDbCircle
 10
-436.869873
 20
-18.707114
 30
0.0
 40
61.5
100
AcDbArc
 50
41.401106
 51
48.598894
  0
ARC
  5
381
100
AcDbEntity
  8
0
370
    -3
  6
Continuous
100
AcDbCircle
 10
-391.488926
 20
21.30313
 30
0.0
 40
1.0
100
AcDbArc
 50
318.0
 51
41.401106
  0
ARC
  5
382
100
AcDbEntity
  8
0
370
    -3
  6
Continuous
100
AcDbCircle
 10
-402.047495
 20
24.693923
 30
0.0
 40
1.0
100
AcDbArc
 50
183.0
 51
312.0
  0
LINE
  5
383
100
AcDbEntity
  8
0
370
    -3
  6
Continuous
100
AcDbLine
 10
-403.046125
 20
24.641587
 30
0.0
 11
-403.371244
 21
30.845222
 31
0.0
  0
ARC
  5
384
100
AcDbEntity
  8
0
370
    -3
  6
Continuous
100
AcDbCircle
 10
-396.859629
 20
26.673833
 30
0.0
 40
1.0
100
AcDbArc
 50
48.598894
 51
132.0
  0
ARC
  5
385
100
AcDbEntity
  8
0
370
    -3
  6
Continuous
100
AcDbCircle
 10
-392.786041
 20
11.605684
 30
0.0
 40
1.0
100
AcDbArc
 50
214.513079
 51
267.0
  0
ARC
  5
386
100
AcDbEntity
  8
0
370
    -3
  6
Continuous
100
AcDbCircle
 10
-392.720222
 20
11.509741
 30
0.0
 40
1.0
100
AcDbArc
 50
93.0
 51
214.388476
  0
ARC
  5
387
100
AcDbEntity
  8
0
370
    -3
  6
Continuous
100
AcDbCircle
 10
-389.926681
 20
6.955831
 30
0.0
 40
1.0
100
AcDbArc
 50
208.664584
 51
267.0
  0
ARC
  5
388
100
AcDbEntity
  8
0
370
    -3
  6
Continuous
100
AcDbCircle
 10
-390.019599
 20
7.125071
 30
0.0
 40
1.0
100
AcDbArc
 50
93.0
 51
208.871352
  0
LINE
  5
389
100
AcDbEntity
  8
0
370
    -3
  6
Continuous
100
AcDbLine
 10
-392.838377
 20
10.607054
 30
0.0
 11
-386.817537
 21
10.291516
 31
0.0
  0
LINE
  5
38A
100
AcDbEntity
  8
0
370
    -3
  6
Continuous
100
AcDbLine
 10
-392.772558
 20
12.508371
 30
0.0
 11
-387.317537
 21
12.794256
 31
0.0
  0
ARC
  5
38B
100
AcDbEntity
  8
0
370
    -3
  6
Continuous
100
AcDbCircle
 10
-436.869873
 20
-18.707114
 30
0.0
 40
52.5
100
AcDbArc
 50
28.562834
 51
28.973449
  0
ARC
  5
38C
100
AcDbEntity
  8
0
370
    -3
  6
Continuous
100
AcDbCircle
 10
-436.869873
 20
-18.707114
 30
0.0
 40
52.5
100
AcDbArc
 50
28.562834
 51
28.973449
  0
LINE
  5
38D
100
AcDbEntity
  8
0
370
    -3
  6
Continuous
100
AcDbLine
 10
-407.555705
 20
25.324383
 30
0.0
 11
-407.871244
 21
31.345222
 31
0.0
  0
LINE
  5
38E
100
AcDbEntity
  8
0
370
    -3
  6
Continuous
100
AcDbLine
 10
-405.654388
 20
25.390201
 30
0.0
 11
-405.368503
 21
30.845222
 31
0.0
  0
ARC
  5
38F
100
AcDbEntity
  8
0
370
    -3
  6
Continuous
100
AcDbCircle
 10
-404.369873
 20
30.792886
 30
0.0
 40
1.0
100
AcDbArc
 50
3.0
 51
177.0
  0
LINE
  5
390
100
AcDbEntity
  8
0
370
    -3
  6
Continuous
100
AcDbLine
 10
-410.039058
 20
28.090824
 30
0.0
 11
-409.868503
 21
31.345222
 31
0.0
  0
ARC
  5
391
100
AcDbEntity
  8
0
370
    -3
  6
Continuous
100
AcDbCircle
 10
-408.869873
 20
31.292886
 30
0.0
 40
1.0
100
AcDbArc
 50
3.0
 51
177.0
  0
LINE
  5
392
100
AcDbEntity
  8
0
370
    -3
  6
Continuous
100
AcDbLine
 10
-414.425681
 20
30.2542
 30
0.0
 11
-414.368503
 21
31.345222
 31
0.0
  0
ARC
  5
393
100
AcDbEntity
  8
0
370
    -3
  6
Continuous
100
AcDbCircle
 10
-417.869873
 20
31.292886
 30
0.0
 40
1.0
100
AcDbArc
 50
3.0
 51
159.929668
  0
LINE
  5
394
100
AcDbEntity
  8
0
370
    -3
  6
Continuous
100
AcDbLine
 10
-416.823141
 20
30.427365
 30
0.0
 11
-416.871244
 21
31.345222
 31
0.0
  0
ARC
  5
395
100
AcDbEntity
  8
0
370
    -3
  6
Continuous
100
AcDbCircle
 10
-415.824511
 20
30.479701
 30
0.0
 40
1.0
100
AcDbArc
 50
183.0
 51
246.835568
  0
ARC
  5
396
100
AcDbEntity
  8
0
370
    -3
  6
Continuous
100
AcDbCircle
 10
-419.748417
 20
31.979233
 30
0.0
 40
1.0
100
AcDbArc
 50
251.335429
 51
339.929668
  0
ARC
  5
397
100
AcDbEntity
  8
0
370
    -3
  6
Continuous
100
AcDbCircle
 10
-415.42431
 20
30.306535
 30
0.0
 40
1.0
100
AcDbArc
 50
246.36857
 51
357.0
  0
ARC
  5
398
100
AcDbEntity
  8
0
370
    -3
  6
Continuous
100
AcDbCircle
 10
-411.206928
 20
28.236078
 30
0.0
 40
1.0
100
AcDbArc
 50
183.0
 51
241.335416
  0
LINE
  5
399
100
AcDbEntity
  8
0
370
    -3
  6
Continuous
100
AcDbLine
 10
-412.205557
 20
28.183742
 30
0.0
 11
-412.371244
 21
31.345222
 31
0.0
  0
ARC
  5
39A
100
AcDbEntity
  8
0
370
    -3
  6
Continuous
100
AcDbCircle
 10
-411.037688
 20
28.14316
 30
0.0
 40
1.0
100
AcDbArc
 50
241.128648
 51
357.0
  0
ARC
  5
39B
100
AcDbEntity
  8
0
370
    -3
  6
Continuous
100
AcDbCircle
 10
-413.369873
 20
31.292886
 30
0.0
 40
1.0
100
AcDbArc
 50
3.0
 51
177.0
  0
ARC
  5
39C
100
AcDbEntity
  8
0
370
    -3
  6
Continuous
100
AcDbCircle
 10
-436.869873
 20
-18.707114
 30
0.0
 40
52.5
100
AcDbArc
 50
61.026551
 51
61.437166
  0
ARC
  5
39D
100
AcDbEntity
  8
0
370
    -3
  6
Continuous
100
AcDbCircle
 10
-436.869873
 20
-18.707114
 30
0.0
 40
52.5
100
AcDbArc
 50
71.335429
 51
74.122298
  0
ARC
  5
39E
100
AcDbEntity
  8
0
370
    -3
  6
Continuous
100
AcDbCircle
 10
-423.369873
 20
32.372803
 30
0.0
 40
0.5
100
AcDbArc
 50
0.0
 51
82.20215
  0
LINE
  5
39F
100
AcDbEntity
  8
0
370
    -3
  6
Continuous
100
AcDbLine
 10
-422.869873
 20
32.372803
 30
0.0
 11
-422.869873
 21
32.270822
 31
0.0
  0
ARC
  5
3A0
100
AcDbEntity
  8
0
370
    -3
  6
Continuous
100
AcDbCircle
 10
-422.369873
 20
32.270822
 30
0.0
 40
0.5
100
AcDbArc
 50
180.0
 51
254.122298
  0
ARC
  5
3A1
100
AcDbEntity
  8
0
370
    -3
  6
Continuous
100
AcDbCircle
 10
-406.653018
 20
25.442537
 30
0.0
 40
1.0
100
AcDbArc
 50
238.884247
 51
357.0
  0
ARC
  5
3A2
100
AcDbEntity
  8
0
370
    -3
  6
Continuous
100
AcDbCircle
 10
-406.557075
 20
25.376718
 30
0.0
 40
1.0
100
AcDbArc
 50
183.0
 51
232.214197
  0
ARC
  5
3A3
100
AcDbEntity
  8
0
370
    -3
  6
Continuous
100
AcDbCircle
 10
-436.869873
 20
-18.707114
 30
0.0
 40
52.5
100
AcDbArc
 50
66.336295
 51
66.863111
  0
LINE
  5
3A4
100
AcDbEntity
  8
0
370
    -3
  6
Continuous
100
AcDbLine
 10
-408.671232
 20
17.384251
 30
0.0
 11
-397.528759
 21
27.416978
 31
0.0
  0
LINE
  5
3A5
100
AcDbEntity
  8
0
370
    -3
  6
Continuous
100
AcDbLine
 10
-400.778508
 20
9.491527
 30
0.0
 11
-390.745781
 21
20.634
 31
0.0
  0
ARC
  5
3A6
100
AcDbEntity
  8
0
370
    -3
  6
Continuous
100
AcDbCircle
 10
-393.468836
 20
-53.529492
 30
0.0
 40
1.0
100
AcDbArc
 50
93.0
 51
222.0
  0
LINE
  5
3A7
100
AcDbEntity
  8
0
370
    -3
  6
Continuous
100
AcDbLine
 10
-393.521172
 20
-52.530862
 30
0.0
 11
-387.317537
 21
-52.205744
 31
0.0
  0
ARC
  5
3A8
100
AcDbEntity
  8
0
370
    -3
  6
Continuous
100
AcDbCircle
 10
-436.869873
 20
-18.707114
 30
0.0
 40
61.5
100
AcDbArc
 50
311.401106
 51
318.598894
  0
ARC
  5
3A9
100
AcDbEntity
  8
0
370
    -3
  6
Continuous
100
AcDbCircle
 10
-391.488926
 20
-58.717358
 30
0.0
 40
1.0
100
AcDbArc
 50
318.598894
 51
42.0
  0
ARC
  5
3AA
100
AcDbEntity
  8
0
370
    -3
  6
Continuous
100
AcDbCircle
 10
-402.047495
 20
-62.108151
 30
0.0
 40
1.0
100
AcDbArc
 50
48.0
 51
177.0
  0
LINE
  5
3AB
100
AcDbEntity
  8
0
370
    -3
  6
Continuous
100
AcDbLine
 10
-403.046125
 20
-62.055815
 30
0.0
 11
-403.371244
 21
-68.25945
 31
0.0
  0
ARC
  5
3AC
100
AcDbEntity
  8
0
370
    -3
  6
Continuous
100
AcDbCircle
 10
-396.859629
 20
-64.088061
 30
0.0
 40
1.0
100
AcDbArc
 50
228.0
 51
311.401106
  0
ARC
  5
3AD
100
AcDbEntity
  8
0
370
    -3
  6
Continuous
100
AcDbCircle
 10
-392.786041
 20
-49.019912
 30
0.0
 40
1.0
100
AcDbArc
 50
93.0
 51
145.486921
  0
ARC
  5
3AE
100
AcDbEntity
  8
0
370
    -3
  6
Continuous
100
AcDbCircle
 10
-392.720222
 20
-48.923969
 30
0.0
 40
1.0
100
AcDbArc
 50
145.611524
 51
267.0
  0
ARC
  5
3AF
100
AcDbEntity
  8
0
370
    -3
  6
Continuous
100
AcDbCircle
 10
-389.926681
 20
-44.370059
 30
0.0
 40
1.0
100
AcDbArc
 50
93.0
 51
151.335416
  0
ARC
  5
3B0
100
AcDbEntity
  8
0
370
    -3
  6
Continuous
100
AcDbCircle
 10
-390.019599
 20
-44.539299
 30
0.0
 40
1.0
100
AcDbArc
 50
151.128648
 51
267.0
  0
LINE
  5
3B1
100
AcDbEntity
  8
0
370
    -3
  6
Continuous
100
AcDbLine
 10
-392.838377
 20
-48.021282
 30
0.0
 11
-386.817537
 21
-47.705744
 31
0.0
  0
LINE
  5
3B2
100
AcDbEntity
  8
0
370
    -3
  6
Continuous
100
AcDbLine
 10
-392.772558
 20
-49.922599
 30
0.0
 11
-387.317537
 21
-50.208484
 31
0.0
  0
ARC
  5
3B3
100
AcDbEntity
  8
0
370
    -3
  6
Continuous
100
AcDbCircle
 10
-436.869873
 20
-18.707114
 30
0.0
 40
52.5
100
AcDbArc
 50
331.026551
 51
331.437166
  0
ARC
  5
3B4
100
AcDbEntity
  8
0
370
    -3
  6
Continuous
100
AcDbCircle
 10
-436.869873
 20
-18.707114
 30
0.0
 40
52.5
100
AcDbArc
 50
331.026551
 51
331.437166
  0
LINE
  5
3B5
100
AcDbEntity
  8
0
370
    -3
  6
Continuous
100
AcDbLine
 10
-407.555705
 20
-62.73861
 30
0.0
 11
-407.871244
 21
-68.75945
 31
0.0
  0
LINE
  5
3B6
100
AcDbEntity
  8
0
370
    -3
  6
Continuous
100
AcDbLine
 10
-405.654388
 20
-62.804429
 30
0.0
 11
-405.368503
 21
-68.25945
 31
0.0
  0
ARC
  5
3B7
100
AcDbEntity
  8
0
370
    -3
  6
Continuous
100
AcDbCircle
 10
-404.369873
 20
-68.207114
 30
0.0
 40
1.0
100
AcDbArc
 50
183.0
 51
357.0
  0
LINE
  5
3B8
100
AcDbEntity
  8
0
370
    -3
  6
Continuous
100
AcDbLine
 10
-410.039058
 20
-65.505052
 30
0.0
 11
-409.868503
 21
-68.75945
 31
0.0
  0
ARC
  5
3B9
100
AcDbEntity
  8
0
370
    -3
  6
Continuous
100
AcDbCircle
 10
-408.869873
 20
-68.707114
 30
0.0
 40
1.0
100
AcDbArc
 50
183.0
 51
357.0
  0
LINE
  5
3BA
100
AcDbEntity
  8
0
370
    -3
  6
Continuous
100
AcDbLine
 10
-414.425681
 20
-67.668427
 30
0.0
 11
-414.368503
 21
-68.75945
 31
0.0
  0
ARC
  5
3BB
100
AcDbEntity
  8
0
370
    -3
  6
Continuous
100
AcDbCircle
 10
-417.869873
 20
-68.707114
 30
0.0
 40
1.0
100
AcDbArc
 50
200.070332
 51
357.0
  0
LINE
  5
3BC
100
AcDbEntity
  8
0
370
    -3
  6
Continuous
100
AcDbLine
 10
-416.823141
 20
-67.841593
 30
0.0
 11
-416.871244
 21
-68.75945
 31
0.0
  0
ARC
  5
3BD
100
AcDbEntity
  8
0
370
    -3
  6
Continuous
100
AcDbCircle
 10
-415.824511
 20
-67.893929
 30
0.0
 40
1.0
100
AcDbArc
 50
113.164432
 51
177.0
  0
ARC
  5
3BE
100
AcDbEntity
  8
0
370
    -3
  6
Continuous
100
AcDbCircle
 10
-419.748417
 20
-69.393461
 30
0.0
 40
1.0
100
AcDbArc
 50
20.070332
 51
108.664571
  0
ARC
  5
3BF
100
AcDbEntity
  8
0
370
    -3
  6
Continuous
100
AcDbCircle
 10
-415.42431
 20
-67.720763
 30
0.0
 40
1.0
100
AcDbArc
 50
3.0
 51
113.63143
  0
ARC
  5
3C0
100
AcDbEntity
  8
0
370
    -3
  6
Continuous
100
AcDbCircle
 10
-411.206928
 20
-65.650306
 30
0.0
 40
1.0
100
AcDbArc
 50
118.664584
 51
177.0
  0
LINE
  5
3C1
100
AcDbEntity
  8
0
370
    -3
  6
Continuous
100
AcDbLine
 10
-412.205557
 20
-65.59797
 30
0.0
 11
-412.371244
 21
-68.75945
 31
0.0
  0
ARC
  5
3C2
100
AcDbEntity
  8
0
370
    -3
  6
Continuous
100
AcDbCircle
 10
-411.037688
 20
-65.557388
 30
0.0
 40
1.0
100
AcDbArc
 50
3.0
 51
118.871352
  0
ARC
  5
3C3
100
AcDbEntity
  8
0
370
    -3
  6
Continuous
100
AcDbCircle
 10
-413.369873
 20
-68.707114
 30
0.0
 40
1.0
100
AcDbArc
 50
183.0
 51
357.0
  0
LINE
  5
3C4
100
AcDbEntity
  8
0
370
    -3
  6
CENTER
100
AcDbLine
 10
-319.654538
 20
-18.707114
 30
0.0
 11
-381.438877
 21
-18.707114
 31
0.0
  0
INSERT
  5
3D0
100
AcDbEntity
  8
0
100
AcDbBlockReference
  2
ZU_SYM__USERS_HOME_SYMBOL_STD_SYM_B01_00004-1
 10
-397.271893
 20
-58.305094
 30
0.0
 41
-1.0
 50
180.0
  0
INSERT
  5
3DC
100
AcDbEntity
  8
0
100
AcDbBlockReference
  2
ZU_SYM__USERS_HOME_SYMBOL_STD_SYM_B01_00005-1
 10
-476.467853
 20
20.890866
 30
0.0
 41
-1.0
  0
INSERT
  5
3E8
100
AcDbEntity
  8
0
100
AcDbBlockReference
  2
ZU_SYM__USERS_HOME_SYMBOL_STD_SYM_B01_00006-1
 10
-397.271893
 20
20.890866
 30
0.0
 50
360.0
  0
INSERT
  5
3F4
100
AcDbEntity
  8
0
100
AcDbBlockReference
  2
ZU_SYM__USERS_HOME_SYMBOL_STD_SYM_B01_00007-1
 10
-476.467853
 20
-58.305094
 30
0.0
 50
180.0
  0
LINE
  5
3F5
100
AcDbEntity
  8
0
370
    -3
  6
Continuous
100
AcDbLine
 10
91.433066
 20
20.292886
 30
0.0
 11
91.433066
 21
19.518299
 31
0.0
  0
LINE
  5
3F6
100
AcDbEntity
  8
0
370
    -3
  6
Continuous
100
AcDbLine
 10
49.517441
 20
-65.507114
 30
0.0
 11
83.633066
 21
-65.507114
 31
0.0
  0
ARC
  5
3F7
100
AcDbEntity
  8
0
370
    -3
  6
Continuous
100
AcDbCircle
 10
49.517441
 20
-57.707114
 30
0.0
 40
7.8
100
AcDbArc
 50
208.12516
 51
270.0
  0
ELLIPSE
  5
3F8
100
AcDbEntity
  8
0
370
    -3
  6
Continuous
100
AcDbEllipse
 10
43.60285
 20
-58.207114
 30
0.0
 11
0.0
 21
3.5
 31
0.0
210
0.0
220
0.0
230
1.0
 40
0.656603
 41
0.0
 42
6.2831853071795862
  0
LINE
  5
3F9
100
AcDbEntity
  8
0
370
    -3
  6
Continuous
100
AcDbLine
 10
41.555569
 20
-59.797131
 30
0.0
 11
42.065396
 21
-58.207114
 31
0.0
  0
LINE
  5
3FA
100
AcDbEntity
  8
0
370
    -3
  6
Continuous
100
AcDbLine
 10
42.065396
 20
-58.207114
 30
0.0
 11
43.114584
 21
-60.207114
 31
0.0
  0
LINE
  5
3FB
100
AcDbEntity
  8
0
370
    -3
  6
Continuous
100
AcDbLine
 10
42.065396
 20
-58.207114
 30
0.0
 11
43.114584
 21
-56.207114
 31
0.0
  0
LINE
  5
3FC
100
AcDbEntity
  8
0
370
    -3
  6
Continuous
100
AcDbLine
 10
41.555569
 20
-56.617097
 30
0.0
 11
42.065396
 21
-58.207114
 31
0.0
  0
LINE
  5
3FD
100
AcDbEntity
  8
0
370
    -3
  6
Continuous
100
AcDbLine
 10
80.013831
 20
-59.797131
 30
0.0
 11
80.523658
 21
-58.207114
 31
0.0
  0
LINE
  5
3FE
100
AcDbEntity
  8
0
370
    -3
  6
Continuous
100
AcDbLine
 10
80.013831
 20
-56.617097
 30
0.0
 11
80.523658
 21
-58.207114
 31
0.0
  0
LINE
  5
3FF
100
AcDbEntity
  8
0
370
    -3
  6
Continuous
100
AcDbLine
 10
80.523658
 20
-58.207114
 30
0.0
 11
81.572846
 21
-56.207114
 31
0.0
  0
LINE
  5
400
100
AcDbEntity
  8
0
370
    -3
  6
Continuous
100
AcDbLine
 10
80.523658
 20
-58.207114
 30
0.0
 11
81.572846
 21
-60.207114
 31
0.0
  0
ELLIPSE
  5
401
100
AcDbEntity
  8
0
370
    -3
  6
Continuous
100
AcDbEllipse
 10
82.061112
 20
-58.207114
 30
0.0
 11
0.0
 21
3.5
 31
0.0
210
0.0
220
0.0
230
1.0
 40
0.656603
 41
0.0
 42
6.2831853071795862
  0
ARC
  5
402
100
AcDbEntity
  8
0
370
    -3
  6
Continuous
100
AcDbCircle
 10
78.827798
 20
-44.262444
 30
0.0
 40
3.8
100
AcDbArc
 50
336.772328
 51
0.0
  0
LINE
  5
403
100
AcDbEntity
  8
0
370
    -3
  6
Continuous
100
AcDbLine
 10
78.37369
 20
-54.95578
 30
0.0
 11
82.319789
 21
-45.76111
 31
0.0
  0
ARC
  5
404
100
AcDbEntity
  8
0
370
    -3
  6
Continuous
100
AcDbCircle
 10
74.881699
 20
-53.457114
 30
0.0
 40
3.8
100
AcDbArc
 50
270.0
 51
336.772328
  0
LINE
  5
405
100
AcDbEntity
  8
0
370
    -3
  6
Continuous
100
AcDbLine
 10
74.881699
 20
-57.257114
 30
0.0
 11
50.371063
 21
-57.257114
 31
0.0
  0
ARC
  5
406
100
AcDbEntity
  8
0
370
    -3
  6
Continuous
100
AcDbCircle
 10
83.633066
 20
-57.707114
 30
0.0
 40
7.8
100
AcDbArc
 50
270.0
 51
280.964451
  0
ARC
  5
407
100
AcDbEntity
  8
0
370
    -3
  6
Continuous
100
AcDbCircle
 10
78.376481
 20
-57.707114
 30
0.0
 40
7.8
100
AcDbArc
 50
270.0
 51
339.627602
  0
ARC
  5
408
100
AcDbEntity
  8
0
370
    -3
  6
Continuous
100
AcDbCircle
 10
50.371063
 20
-50.457114
 30
0.0
 40
6.8
100
AcDbArc
 50
180.0
 51
270.0
  0
LINE
  5
409
100
AcDbEntity
  8
0
370
    -3
  6
CENTER
100
AcDbLine
 10
67.18859
 20
-0.062182
 30
0.0
 11
67.18859
 21
-40.007571
 31
0.0
  0
ARC
  5
40A
100
AcDbEntity
  8
0
370
    -3
  6
Continuous
100
AcDbCircle
 10
78.827798
 20
6.848216
 30
0.0
 40
3.8
100
AcDbArc
 50
0.0
 51
23.227672
  0
LINE
  5
40B
100
AcDbEntity
  8
0
370
    -3
  6
Continuous
100
AcDbLine
 10
82.627798
 20
6.848216
 30
0.0
 11
82.627798
 21
-44.262444
 31
0.0
  0
LINE
  5
40C
100
AcDbEntity
  8
0
370
    -3
  6
Continuous
100
AcDbLine
 10
41.717441
 20
18.791705
 30
0.0
 11
41.717441
 21
-56.205933
 31
0.0
  0
ARC
  5
40D
100
AcDbEntity
  8
0
370
    -3
  6
Continuous
100
AcDbCircle
 10
49.517441
 20
20.292886
 30
0.0
 40
7.8
100
AcDbArc
 50
90.0
 51
151.87484
  0
ELLIPSE
  5
40E
100
AcDbEntity
  8
0
370
    -3
  6
Continuous
100
AcDbEllipse
 10
43.60285
 20
20.792886
 30
0.0
 11
0.0
 21
3.5
 31
0.0
210
0.0
220
0.0
230
1.0
 40
0.656603
 41
0.0
 42
6.2831853071795862
  0
LINE
  5
40F
100
AcDbEntity
  8
0
370
    -3
  6
Continuous
100
AcDbLine
 10
41.555569
 20
22.382903
 30
0.0
 11
42.065396
 21
20.792886
 31
0.0
  0
LINE
  5
410
100
AcDbEntity
  8
0
370
    -3
  6
Continuous
100
AcDbLine
 10
42.065396
 20
20.792886
 30
0.0
 11
43.114584
 21
22.792886
 31
0.0
  0
LINE
  5
411
100
AcDbEntity
  8
0
370
    -3
  6
Continuous
100
AcDbLine
 10
42.065396
 20
20.792886
 30
0.0
 11
43.114584
 21
18.792886
 31
0.0
  0
LINE
  5
412
100
AcDbEntity
  8
0
370
    -3
  6
Continuous
100
AcDbLine
 10
41.555569
 20
19.202869
 30
0.0
 11
42.065396
 21
20.792886
 31
0.0
  0
LINE
  5
413
100
AcDbEntity
  8
0
370
    -3
  6
Continuous
100
AcDbLine
 10
80.013831
 20
22.382903
 30
0.0
 11
80.523658
 21
20.792886
 31
0.0
  0
LINE
  5
414
100
AcDbEntity
  8
0
370
    -3
  6
Continuous
100
AcDbLine
 10
80.013831
 20
19.202869
 30
0.0
 11
80.523658
 21
20.792886
 31
0.0
  0
LINE
  5
415
100
AcDbEntity
  8
0
370
    -3
  6
Continuous
100
AcDbLine
 10
80.523658
 20
20.792886
 30
0.0
 11
81.572846
 21
18.792886
 31
0.0
  0
LINE
  5
416
100
AcDbEntity
  8
0
370
    -3
  6
Continuous
100
AcDbLine
 10
80.523658
 20
20.792886
 30
0.0
 11
81.572846
 21
22.792886
 31
0.0
  0
ELLIPSE
  5
417
100
AcDbEntity
  8
0
370
    -3
  6
Continuous
100
AcDbEllipse
 10
82.061112
 20
20.792886
 30
0.0
 11
0.0
 21
3.5
 31
0.0
210
0.0
220
0.0
230
1.0
 40
0.656603
 41
0.0
 42
6.2831853071795862
  0
ARC
  5
418
100
AcDbEntity
  8
0
370
    -3
  6
Continuous
100
AcDbCircle
 10
74.881699
 20
16.042886
 30
0.0
 40
3.8
100
AcDbArc
 50
23.227672
 51
90.0
  0
LINE
  5
419
100
AcDbEntity
  8
0
370
    -3
  6
Continuous
100
AcDbLine
 10
74.881699
 20
19.842886
 30
0.0
 11
50.371063
 21
19.842886
 31
0.0
  0
LINE
  5
41A
100
AcDbEntity
  8
0
370
    -3
  6
Continuous
100
AcDbLine
 10
78.37369
 20
17.541552
 30
0.0
 11
82.319789
 21
8.346882
 31
0.0
  0
ARC
  5
41B
100
AcDbEntity
  8
0
370
    -3
  6
Continuous
100
AcDbCircle
 10
83.633066
 20
20.292886
 30
0.0
 40
7.8
100
AcDbArc
 50
0.0
 51
90.0
  0
LINE
  5
41C
100
AcDbEntity
  8
0
370
    -3
  6
Continuous
100
AcDbLine
 10
49.517441
 20
28.092886
 30
0.0
 11
83.633066
 21
28.092886
 31
0.0
  0
LINE
  5
41D
100
AcDbEntity
  8
0
370
    -3
  6
Continuous
100
AcDbLine
 10
86.176481
 20
3.217113
 30
0.0
 11
86.176481
 21
20.292886
 31
0.0
  0
ARC
  5
41E
100
AcDbEntity
  8
0
370
    -3
  6
Continuous
100
AcDbCircle
 10
78.376481
 20
20.292886
 30
0.0
 40
7.8
100
AcDbArc
 50
0.0
 51
90.0
  0
ARC
  5
41F
100
AcDbEntity
  8
0
370
    -3
  6
Continuous
100
AcDbCircle
 10
50.371063
 20
13.042886
 30
0.0
 40
6.8
100
AcDbArc
 50
90.0
 51
180.0
  0
LINE
  5
420
100
AcDbEntity
  8
0
370
    -3
  6
Continuous
100
AcDbLine
 10
43.571063
 20
13.042886
 30
0.0
 11
43.571063
 21
-50.457114
 31
0.0
  0
LINE
  5
421
100
AcDbEntity
  8
0
370
    -3
  6
CENTER
100
AcDbLine
 10
48.543657
 20
-18.707114
 30
0.0
 11
88.489047
 21
-18.707114
 31
0.0
  0
CIRCLE
  5
422
100
AcDbEntity
  8
0
370
    -3
  6
DASHED
100
AcDbCircle
 10
67.18859
 20
-18.707114
 30
0.0
 40
14.0
  0
LINE
  5
423
100
AcDbEntity
  8
0
370
    -3
  6
Continuous
100
AcDbLine
 10
-165.185106
 20
28.092886
 30
0.0
 11
-248.056635
 21
28.092886
 31
0.0
  0
LINE
  5
424
100
AcDbEntity
  8
0
370
    -3
  6
Continuous
100
AcDbLine
 10
-165.185106
 20
-65.507114
 30
0.0
 11
-248.056635
 21
-65.507114
 31
0.0
  0
LINE
  5
425
100
AcDbEntity
  8
0
370
    -3
  6
CENTER
100
AcDbLine
 10
-202.282575
 20
-68.398877
 30
0.0
 11
-202.282575
 21
31.985525
 31
0.0
  0
LINE
  5
426
100
AcDbEntity
  8
0
370
    -3
  6
Continuous
100
AcDbLine
 10
-157.385106
 20
-18.707114
 30
0.0
 11
-157.385106
 21
20.292886
 31
0.0
  0
LINE
  5
427
100
AcDbEntity
  8
0
370
    -3
  6
Continuous
100
AcDbLine
 10
-157.385106
 20
-18.707114
 30
0.0
 11
-157.385106
 21
-57.707114
 31
0.0
  0
LINE
  5
428
100
AcDbEntity
  8
0
370
    -3
  6
Continuous
100
AcDbLine
 10
-164.403216
 20
-18.707114
 30
0.0
 11
-164.403216
 21
-43.254105
 31
0.0
  0
ARC
  5
429
100
AcDbEntity
  8
0
370
    -3
  6
Continuous
100
AcDbCircle
 10
-168.203216
 20
-43.254105
 30
0.0
 40
3.8
100
AcDbArc
 50
318.14922
 51
0.0
  0
LINE
  5
42A
100
AcDbEntity
  8
0
370
    -3
  6
Continuous
100
AcDbLine
 10
-174.856623
 20
-18.707114
 30
0.0
 11
-174.856623
 21
-47.257114
 31
0.0
  0
ARC
  5
42B
100
AcDbEntity
  8
0
370
    -3
  6
Continuous
100
AcDbCircle
 10
-165.185106
 20
-57.707114
 30
0.0
 40
7.8
100
AcDbArc
 50
270.0
 51
360.0
  0
LINE
  5
42C
100
AcDbEntity
  8
0
370
    -3
  6
Continuous
100
AcDbLine
 10
-162.763432
 20
-58.207114
 30
0.0
 11
-161.045921
 21
-56.207114
 31
0.0
  0
LINE
  5
42D
100
AcDbEntity
  8
0
370
    -3
  6
Continuous
100
AcDbLine
 10
-161.045921
 20
-60.207114
 30
0.0
 11
-162.763432
 21
-58.207114
 31
0.0
  0
ELLIPSE
  5
42E
100
AcDbEntity
  8
0
370
    -3
  6
Continuous
100
AcDbEllipse
 10
-163.594463
 20
-58.207114
 30
0.0
 11
0.000000000000199
 21
3.5
 31
0.0
210
0.0
220
0.0
230
1.0
 40
0.982815
 41
0.0
 42
6.2831853071795862
  0
LINE
  5
42F
100
AcDbEntity
  8
0
370
    -3
  6
Continuous
100
AcDbLine
 10
-164.671152
 20
-60.207114
 30
0.0
 11
-162.763432
 21
-58.207114
 31
0.0
  0
LINE
  5
430
100
AcDbEntity
  8
0
370
    -3
  6
Continuous
100
AcDbLine
 10
-162.763432
 20
-58.207114
 30
0.0
 11
-164.671152
 21
-56.207114
 31
0.0
  0
ARC
  5
431
100
AcDbEntity
  8
0
370
    -3
  6
Continuous
100
AcDbCircle
 10
-177.342043
 20
-53.457114
 30
0.0
 40
3.8
100
AcDbArc
 50
270.0
 51
318.14922
  0
LINE
  5
432
100
AcDbEntity
  8
0
370
    -3
  6
Continuous
100
AcDbLine
 10
-174.51148
 20
-55.992447
 30
0.0
 11
-165.372653
 21
-45.789438
 31
0.0
  0
ARC
  5
433
100
AcDbEntity
  8
0
370
    -3
  6
Continuous
100
AcDbCircle
 10
-184.856623
 20
-47.257114
 30
0.0
 40
10.0
100
AcDbArc
 50
270.0
 51
360.0
  0
ARC
  5
434
100
AcDbEntity
  8
0
370
    -3
  6
Continuous
100
AcDbCircle
 10
-165.185106
 20
20.292886
 30
0.0
 40
7.8
100
AcDbArc
 50
0.0
 51
90.0
  0
LINE
  5
435
100
AcDbEntity
  8
0
370
    -3
  6
Continuous
100
AcDbLine
 10
-164.403216
 20
-18.707114
 30
0.0
 11
-164.403216
 21
5.839877
 31
0.0
  0
LINE
  5
436
100
AcDbEntity
  8
0
370
    -3
  6
Continuous
100
AcDbLine
 10
-162.763432
 20
20.792886
 30
0.0
 11
-161.045921
 21
18.792886
 31
0.0
  0
LINE
  5
437
100
AcDbEntity
  8
0
370
    -3
  6
Continuous
100
AcDbLine
 10
-161.045921
 20
22.792886
 30
0.0
 11
-162.763432
 21
20.792886
 31
0.0
  0
ARC
  5
438
100
AcDbEntity
  8
0
370
    -3
  6
Continuous
100
AcDbCircle
 10
-168.203216
 20
5.839877
 30
0.0
 40
3.8
100
AcDbArc
 50
0.0
 51
41.85078
  0
LINE
  5
439
100
AcDbEntity
  8
0
370
    -3
  6
Continuous
100
AcDbLine
 10
-164.671152
 20
22.792886
 30
0.0
 11
-162.763432
 21
20.792886
 31
0.0
  0
LINE
  5
43A
100
AcDbEntity
  8
0
370
    -3
  6
Continuous
100
AcDbLine
 10
-162.763432
 20
20.792886
 30
0.0
 11
-164.671152
 21
18.792886
 31
0.0
  0
ELLIPSE
  5
43B
100
AcDbEntity
  8
0
370
    -3
  6
Continuous
100
AcDbEllipse
 10
-163.594463
 20
20.792886
 30
0.0
 11
0.0
 21
3.5
 31
0.0
210
0.0
220
0.0
230
1.0
 40
0.982815
 41
0.0
 42
6.2831853071795862
  0
ARC
  5
43C
100
AcDbEntity
  8
0
370
    -3
  6
Continuous
100
AcDbCircle
 10
-177.342043
 20
16.042886
 30
0.0
 40
3.8
100
AcDbArc
 50
41.85078
 51
90.0
  0
LINE
  5
43D
100
AcDbEntity
  8
0
370
    -3
  6
Continuous
100
AcDbLine
 10
-174.51148
 20
18.578219
 30
0.0
 11
-165.372653
 21
8.37521
 31
0.0
  0
ARC
  5
43E
100
AcDbEntity
  8
0
370
    -3
  6
Continuous
100
AcDbCircle
 10
-184.856623
 20
9.842886
 30
0.0
 40
10.0
100
AcDbArc
 50
0.0
 51
90.0
  0
LINE
  5
43F
100
AcDbEntity
  8
0
370
    -3
  6
Continuous
100
AcDbLine
 10
-174.856623
 20
-18.707114
 30
0.0
 11
-174.856623
 21
9.842886
 31
0.0
  0
LINE
  5
440
100
AcDbEntity
  8
0
370
    -3
  6
Continuous
100
AcDbLine
 10
-243.51993
 20
-60.207114
 30
0.0
 11
-245.237441
 21
-58.207114
 31
0.0
  0
LINE
  5
441
100
AcDbEntity
  8
0
370
    -3
  6
Continuous
100
AcDbLine
 10
-245.237441
 20
-58.207114
 30
0.0
 11
-243.51993
 21
-56.207114
 31
0.0
  0
ARC
  5
442
100
AcDbEntity
  8
0
370
    -3
  6
Continuous
100
AcDbCircle
 10
-232.838099
 20
-53.457114
 30
0.0
 40
3.8
100
AcDbArc
 50
221.390427
 51
270.0
  0
ARC
  5
443
100
AcDbEntity
  8
0
370
    -3
  6
Continuous
100
AcDbCircle
 10
-248.056635
 20
-57.707114
 30
0.0
 40
7.8
100
AcDbArc
 50
180.0
 51
270.0
  0
ARC
  5
444
100
AcDbEntity
  8
0
370
    -3
  6
Continuous
100
AcDbCircle
 10
-245.605449
 20
-57.707114
 30
0.0
 40
7.8
100
AcDbArc
 50
180.0
 51
270.0
  0
ELLIPSE
  5
445
100
AcDbEntity
  8
0
370
    -3
  6
Continuous
100
AcDbEllipse
 10
-246.068472
 20
-58.207114
 30
0.0
 11
0.000000000000199
 21
3.5
 31
0.0
210
0.0
220
0.0
230
1.0
 40
0.982815
 41
0.0
 42
6.2831853071795862
  0
LINE
  5
446
100
AcDbEntity
  8
0
370
    -3
  6
Continuous
100
AcDbLine
 10
-247.145161
 20
-60.207114
 30
0.0
 11
-245.237441
 21
-58.207114
 31
0.0
  0
LINE
  5
447
100
AcDbEntity
  8
0
370
    -3
  6
Continuous
100
AcDbLine
 10
-245.237441
 20
-58.207114
 30
0.0
 11
-247.145161
 21
-56.207114
 31
0.0
  0
LINE
  5
448
100
AcDbEntity
  8
0
370
    -3
  6
Continuous
100
AcDbLine
 10
-232.838099
 20
-57.257114
 30
0.0
 11
-177.342043
 21
-57.257114
 31
0.0
  0
POINT
  5
449
100
AcDbEntity
  8
0
370
    -3
  6
CENTER
100
AcDbPoint
 10
-273.282575
 20
-29.184614
 30
0.0
  0
POINT
  5
44A
100
AcDbEntity
  8
0
370
    -3
  6
CENTER
100
AcDbPoint
 10
-273.282575
 20
-29.184614
 30
0.0
  0
ARC
  5
44B
100
AcDbEntity
  8
0
370
    -3
  6
Continuous
100
AcDbCircle
 10
-271.282575
 20
-30.707114
 30
0.0
 40
2.0
100
AcDbArc
 50
180.0
 51
270.0
  0
LINE
  5
44C
100
AcDbEntity
  8
0
370
    -3
  6
Continuous
100
AcDbLine
 10
-273.282575
 20
-30.707114
 30
0.0
 11
-273.282575
 21
-18.707114
 31
0.0
  0
ARC
  5
44D
100
AcDbEntity
  8
0
370
    -3
  6
Continuous
100
AcDbCircle
 10
-241.814835
 20
-43.271576
 30
0.0
 40
3.8
100
AcDbArc
 50
180.0
 51
221.390427
  0
LINE
  5
44E
100
AcDbEntity
  8
0
370
    -3
  6
Continuous
100
AcDbLine
 10
-235.688941
 20
-55.969623
 30
0.0
 11
-244.665677
 21
-45.784085
 31
0.0
  0
LINE
  5
44F
100
AcDbEntity
  8
0
370
    -3
  6
Continuous
100
AcDbLine
 10
-271.282575
 20
-32.707114
 30
0.0
 11
-255.856635
 21
-32.707114
 31
0.0
  0
LINE
  5
450
100
AcDbEntity
  8
0
370
    -3
  6
Continuous
100
AcDbLine
 10
-255.856635
 20
-18.707114
 30
0.0
 11
-255.856635
 21
-57.707114
 31
0.0
  0
LINE
  5
451
100
AcDbEntity
  8
0
370
    -3
  6
Continuous
100
AcDbLine
 10
-253.405449
 20
-18.707114
 30
0.0
 11
-253.405449
 21
-57.707114
 31
0.0
  0
LINE
  5
452
100
AcDbEntity
  8
0
370
    -3
  6
Continuous
100
AcDbLine
 10
-245.614835
 20
-18.707114
 30
0.0
 11
-245.614835
 21
-43.271576
 31
0.0
  0
POINT
  5
453
100
AcDbEntity
  8
0
370
    -3
  6
CENTER
100
AcDbPoint
 10
-273.282575
 20
-8.229614
 30
0.0
  0
POINT
  5
454
100
AcDbEntity
  8
0
370
    -3
  6
CENTER
100
AcDbPoint
 10
-273.282575
 20
-8.229614
 30
0.0
  0
LINE
  5
455
100
AcDbEntity
  8
0
370
    -3
  6
Continuous
100
AcDbLine
 10
-271.282575
 20
-4.707114
 30
0.0
 11
-255.856635
 21
-4.707114
 31
0.0
  0
ARC
  5
456
100
AcDbEntity
  8
0
370
    -3
  6
Continuous
100
AcDbCircle
 10
-271.282575
 20
-6.707114
 30
0.0
 40
2.0
100
AcDbArc
 50
90.0
 51
180.0
  0
LINE
  5
457
100
AcDbEntity
  8
0
370
    -3
  6
Continuous
100
AcDbLine
 10
-273.282575
 20
-6.707114
 30
0.0
 11
-273.282575
 21
-18.707114
 31
0.0
  0
ARC
  5
458
100
AcDbEntity
  8
0
370
    -3
  6
Continuous
100
AcDbCircle
 10
-232.838099
 20
16.042886
 30
0.0
 40
3.8
100
AcDbArc
 50
90.0
 51
138.609573
  0
LINE
  5
459
100
AcDbEntity
  8
0
370
    -3
  6
Continuous
100
AcDbLine
 10
-232.838099
 20
19.842886
 30
0.0
 11
-177.342043
 21
19.842886
 31
0.0
  0
LINE
  5
45A
100
AcDbEntity
  8
0
370
    -3
  6
Continuous
100
AcDbLine
 10
-235.688941
 20
18.555395
 30
0.0
 11
-244.665677
 21
8.369857
 31
0.0
  0
LINE
  5
45B
100
AcDbEntity
  8
0
370
    -3
  6
Continuous
100
AcDbLine
 10
-245.237441
 20
20.792886
 30
0.0
 11
-243.51993
 21
18.792886
 31
0.0
  0
LINE
  5
45C
100
AcDbEntity
  8
0
370
    -3
  6
Continuous
100
AcDbLine
 10
-243.51993
 20
22.792886
 30
0.0
 11
-245.237441
 21
20.792886
 31
0.0
  0
ARC
  5
45D
100
AcDbEntity
  8
0
370
    -3
  6
Continuous
100
AcDbCircle
 10
-241.814835
 20
5.857348
 30
0.0
 40
3.8
100
AcDbArc
 50
138.609573
 51
180.0
  0
ARC
  5
45E
100
AcDbEntity
  8
0
370
    -3
  6
Continuous
100
AcDbCircle
 10
-248.056635
 20
20.292886
 30
0.0
 40
7.8
100
AcDbArc
 50
90.0
 51
180.0
  0
ARC
  5
45F
100
AcDbEntity
  8
0
370
    -3
  6
Continuous
100
AcDbCircle
 10
-245.605449
 20
20.292886
 30
0.0
 40
7.8
100
AcDbArc
 50
90.0
 51
180.0
  0
ELLIPSE
  5
460
100
AcDbEntity
  8
0
370
    -3
  6
Continuous
100
AcDbEllipse
 10
-246.068472
 20
20.792886
 30
0.0
 11
0.0
 21
3.5
 31
0.0
210
0.0
220
0.0
230
1.0
 40
0.982815
 41
0.0
 42
6.2831853071795862
  0
LINE
  5
461
100
AcDbEntity
  8
0
370
    -3
  6
Continuous
100
AcDbLine
 10
-247.145161
 20
22.792886
 30
0.0
 11
-245.237441
 21
20.792886
 31
0.0
  0
LINE
  5
462
100
AcDbEntity
  8
0
370
    -3
  6
Continuous
100
AcDbLine
 10
-245.237441
 20
20.792886
 30
0.0
 11
-247.145161
 21
18.792886
 31
0.0
  0
LINE
  5
463
100
AcDbEntity
  8
0
370
    -3
  6
Continuous
100
AcDbLine
 10
-245.614835
 20
-18.707114
 30
0.0
 11
-245.614835
 21
5.857348
 31
0.0
  0
LINE
  5
464
100
AcDbEntity
  8
0
370
    -3
  6
Continuous
100
AcDbLine
 10
-255.856635
 20
-18.707114
 30
0.0
 11
-255.856635
 21
20.292886
 31
0.0
  0
LINE
  5
465
100
AcDbEntity
  8
0
370
    -3
  6
Continuous
100
AcDbLine
 10
-253.405449
 20
-18.707114
 30
0.0
 11
-253.405449
 21
20.292886
 31
0.0
  0
LINE
  5
466
100
AcDbEntity
  8
0
370
    -3
  6
Continuous
100
AcDbLine
 10
-174.301596
 20
165.746221
 30
0.0
 11
-174.301596
 21
164.746221
 31
0.0
  0
ARC
  5
467
100
AcDbEntity
  8
0
370
    -3
  6
Continuous
100
AcDbCircle
 10
-173.801596
 20
164.746221
 30
0.0
 40
0.5
100
AcDbArc
 50
180.0
 51
270.0
  0
LINE
  5
468
100
AcDbEntity
  8
0
370
    -3
  6
Continuous
100
AcDbLine
 10
-165.532567
 20
167.751633
 30
0.0
 11
-165.532567
 21
166.246221
 31
0.0
  0
ARC
  5
469
100
AcDbEntity
  8
0
370
    -3
  6
Continuous
100
AcDbCircle
 10
-174.860205
 20
166.746221
 30
0.0
 40
0.5
100
AcDbArc
 50
187.125016
 51
270.0
  0
ARC
  5
46A
100
AcDbEntity
  8
0
370
    -3
  6
Continuous
100
AcDbCircle
 10
-174.801596
 20
165.746221
 30
0.0
 40
0.5
100
AcDbArc
 50
0.0
 51
90.0
  0
LINE
  5
46B
100
AcDbEntity
  8
0
370
    -3
  6
Continuous
100
AcDbLine
 10
-183.765411
 20
166.246221
 30
0.0
 11
-174.801596
 21
166.246221
 31
0.0
  0
LINE
  5
46C
100
AcDbEntity
  8
0
370
    -3
  6
Continuous
100
AcDbLine
 10
-182.729881
 20
164.246221
 30
0.0
 11
-169.677823
 21
164.246221
 31
0.0
  0
LINE
  5
46D
100
AcDbEntity
  8
0
370
    -3
  6
Continuous
100
AcDbLine
 10
-182.729881
 20
164.246221
 30
0.0
 11
-221.835253
 21
164.246221
 31
0.0
  0
LINE
  5
46E
100
AcDbEntity
  8
0
370
    -3
  6
Continuous
100
AcDbLine
 10
-221.835253
 20
164.246221
 30
0.0
 11
-234.88731
 21
164.246221
 31
0.0
  0
LINE
  5
46F
100
AcDbEntity
  8
0
370
    -3
  6
Continuous
100
AcDbLine
 10
-234.88731
 20
164.246221
 30
0.0
 11
-234.808067
 21
161.220044
 31
0.0
  0
ARC
  5
470
100
AcDbEntity
  8
0
370
    -3
  6
Continuous
100
AcDbCircle
 10
-233.80841
 20
161.246221
 30
0.0
 40
1.0
100
AcDbArc
 50
181.5
 51
270.0
  0
LINE
  5
471
100
AcDbEntity
  8
0
370
    -3
  6
Continuous
100
AcDbLine
 10
-233.80841
 20
160.246221
 30
0.0
 11
-170.756724
 21
160.246221
 31
0.0
  0
ARC
  5
472
100
AcDbEntity
  8
0
370
    -3
  6
Continuous
100
AcDbCircle
 10
-170.756724
 20
161.246221
 30
0.0
 40
1.0
100
AcDbArc
 50
270.0
 51
358.5
  0
LINE
  5
473
100
AcDbEntity
  8
0
370
    -3
  6
Continuous
100
AcDbLine
 10
-169.677823
 20
164.246221
 30
0.0
 11
-169.757066
 21
161.220044
 31
0.0
  0
ARC
  5
474
100
AcDbEntity
  8
0
370
    -3
  6
Continuous
100
AcDbCircle
 10
-183.742987
 20
166.746221
 30
0.0
 40
0.5
100
AcDbArc
 50
270.0
 51
352.874984
  0
ARC
  5
475
100
AcDbEntity
  8
0
370
    -3
  6
Continuous
100
AcDbCircle
 10
-184.801596
 20
164.746221
 30
0.0
 40
0.5
100
AcDbArc
 50
270.0
 51
0.0
  0
LINE
  5
476
100
AcDbEntity
  8
0
370
    -3
  6
Continuous
100
AcDbLine
 10
-184.301596
 20
165.746221
 30
0.0
 11
-184.301596
 21
164.746221
 31
0.0
  0
ARC
  5
477
100
AcDbEntity
  8
0
370
    -3
  6
Continuous
100
AcDbCircle
 10
-183.801596
 20
165.746221
 30
0.0
 40
0.5
100
AcDbArc
 50
90.0
 51
180.0
  0
LINE
  5
478
100
AcDbEntity
  8
0
370
    -3
  6
Continuous
100
AcDbLine
 10
-234.032575
 20
166.246221
 30
0.0
 11
-165.532567
 21
166.246221
 31
0.0
  0
ARC
  5
479
100
AcDbEntity
  8
0
370
    -3
  6
Continuous
100
AcDbCircle
 10
-220.822146
 20
166.746221
 30
0.0
 40
0.5
100
AcDbArc
 50
187.125016
 51
270.0
  0
LINE
  5
47A
100
AcDbEntity
  8
0
370
    -3
  6
Continuous
100
AcDbLine
 10
-229.076037
 20
167.746221
 30
0.0
 11
-229.208789
 21
166.684203
 31
0.0
  0
ARC
  5
47B
100
AcDbEntity
  8
0
370
    -3
  6
Continuous
100
AcDbCircle
 10
-229.704928
 20
166.746221
 30
0.0
 40
0.5
100
AcDbArc
 50
270.0
 51
352.874984
  0
ARC
  5
47C
100
AcDbEntity
  8
0
370
    -3
  6
Continuous
100
AcDbCircle
 10
-220.763537
 20
165.746221
 30
0.0
 40
0.5
100
AcDbArc
 50
0.0
 51
90.0
  0
ARC
  5
47D
100
AcDbEntity
  8
0
370
    -3
  6
Continuous
100
AcDbCircle
 10
-229.763537
 20
165.746221
 30
0.0
 40
0.5
100
AcDbArc
 50
90.0
 51
180.0
  0
LINE
  5
47E
100
AcDbEntity
  8
0
370
    -3
  6
Continuous
100
AcDbLine
 10
-220.763537
 20
166.246221
 30
0.0
 11
-229.45722
 21
166.246221
 31
0.0
  0
ARC
  5
47F
100
AcDbEntity
  8
0
370
    -3
  6
Continuous
100
AcDbCircle
 10
-230.763537
 20
164.746221
 30
0.0
 40
0.5
100
AcDbArc
 50
270.0
 51
0.0
  0
LINE
  5
480
100
AcDbEntity
  8
0
370
    -3
  6
Continuous
100
AcDbLine
 10
-230.263537
 20
165.746221
 30
0.0
 11
-230.263537
 21
164.746221
 31
0.0
  0
LINE
  5
481
100
AcDbEntity
  8
0
370
    -3
  6
Continuous
100
AcDbLine
 10
-220.263537
 20
165.746221
 30
0.0
 11
-220.263537
 21
164.746221
 31
0.0
  0
ARC
  5
482
100
AcDbEntity
  8
0
370
    -3
  6
Continuous
100
AcDbCircle
 10
-219.763537
 20
164.746221
 30
0.0
 40
0.5
100
AcDbArc
 50
180.0
 51
270.0
  0
LINE
  5
483
100
AcDbEntity
  8
0
370
    -3
  6
Continuous
100
AcDbLine
 10
-234.032575
 20
166.246221
 30
0.0
 11
-234.032575
 21
167.746221
 31
0.0
  0
LINE
  5
484
100
AcDbEntity
  8
0
370
    -3
  6
Continuous
100
AcDbLine
 10
-220.799722
 20
166.246221
 30
0.0
 11
-229.45722
 21
166.246221
 31
0.0
  0
ARC
  5
485
100
AcDbEntity
  8
0
370
    -3
  6
Continuous
100
AcDbCircle
 10
-459.108206
 20
208.931618
 30
0.0
 40
300.8
100
AcDbArc
 50
342.341575
 51
347.89975
  0
ARC
  5
486
100
AcDbEntity
  8
0
370
    -3
  6
Continuous
100
AcDbCircle
 10
-182.772472
 20
120.962523
 30
0.0
 40
10.8
100
AcDbArc
 50
272.437505
 51
342.341575
  0
LINE
  5
487
100
AcDbEntity
  8
0
370
    -3
  6
Continuous
100
AcDbLine
 10
-159.244216
 20
157.490697
 30
0.0
 11
-247.693282
 21
116.246221
 31
0.0
  0
LINE
  5
488
100
AcDbEntity
  8
0
370
    -3
  6
Continuous
100
AcDbLine
 10
-158.424385
 20
151.473399
 30
0.0
 11
-251.774087
 21
107.943718
 31
0.0
  0
LINE
  5
489
100
AcDbEntity
  8
0
370
    -3
  6
Continuous
100
AcDbLine
 10
-166.494679
 20
154.109751
 30
0.0
 11
-167.400443
 21
156.05217
 31
0.0
  0
LINE
  5
48A
100
AcDbEntity
  8
0
370
    -3
  6
Continuous
100
AcDbLine
 10
-178.095418
 20
148.700238
 30
0.0
 11
-181.523681
 21
156.05217
 31
0.0
  0
ARC
  5
48B
100
AcDbEntity
  8
0
370
    -3
  6
Continuous
100
AcDbCircle
 10
-184.96765
 20
154.446221
 30
0.0
 40
3.8
100
AcDbArc
 50
25.0
 51
90.0
  0
ARC
  5
48C
100
AcDbEntity
  8
0
370
    -3
  6
Continuous
100
AcDbCircle
 10
-171.88275
 20
129.524206
 30
0.0
 40
2.8
100
AcDbArc
 50
344.545811
 51
25.0
  0
LINE
  5
48D
100
AcDbEntity
  8
0
370
    -3
  6
Continuous
100
AcDbLine
 10
-169.345088
 20
130.707537
 30
0.0
 11
-174.080515
 21
140.862692
 31
0.0
  0
ARC
  5
48E
100
AcDbEntity
  8
0
370
    -3
  6
Continuous
100
AcDbCircle
 10
-171.361591
 20
142.130547
 30
0.0
 40
3.0
100
AcDbArc
 50
115.0
 51
205.0
  0
ARC
  5
48F
100
AcDbEntity
  8
0
370
    -3
  6
Continuous
100
AcDbCircle
 10
-165.442355
 20
147.120631
 30
0.0
 40
1.299999
100
AcDbArc
 50
204.999999
 51
278.398469
  0
LINE
  5
490
100
AcDbEntity
  8
0
370
    -3
  6
Continuous
100
AcDbLine
 10
-167.034308
 20
147.458526
 30
0.0
 11
-166.620555
 21
146.571228
 31
0.0
  0
ARC
  5
491
100
AcDbEntity
  8
0
370
    -3
  6
Continuous
100
AcDbCircle
 10
-166.566988
 20
154.738059
 30
0.0
 40
9.0
100
AcDbArc
 50
278.398469
 51
311.601548
  0
ARC
  5
492
100
AcDbEntity
  8
0
370
    -3
  6
Continuous
100
AcDbCircle
 10
-161.454599
 20
148.980152
 30
0.0
 40
1.299999
100
AcDbArc
 50
311.601548
 51
25.000018
  0
LINE
  5
493
100
AcDbEntity
  8
0
370
    -3
  6
CENTER
100
AcDbLine
 10
-165.119905
 20
151.634781
 30
0.0
 11
-162.249985
 21
145.480216
 31
0.0
  0
LINE
  5
494
100
AcDbEntity
  8
0
370
    -3
  6
Continuous
100
AcDbLine
 10
-160.690154
 20
150.416854
 30
0.0
 11
-160.2764
 21
149.529555
 31
0.0
  0
POINT
  5
495
100
AcDbEntity
  8
0
370
    -3
  6
Continuous
100
AcDbPoint
 10
-163.885942
 20
148.926633
 30
0.0
  0
LINE
  5
496
100
AcDbEntity
  8
0
370
    -3
  6
CENTER
100
AcDbLine
 10
-165.119905
 20
151.634781
 30
0.0
 11
-162.249985
 21
145.480216
 31
0.0
  0
ARC
  5
497
100
AcDbEntity
  8
0
370
    -3
  6
Continuous
100
AcDbCircle
 10
-159.185097
 20
153.104753
 30
0.0
 40
1.8
100
AcDbArc
 50
295.0
 51
25.0
  0
LINE
  5
498
100
AcDbEntity
  8
0
370
    -3
  6
Continuous
100
AcDbLine
 10
-157.553743
 20
153.865466
 30
0.0
 11
-159.244216
 21
157.490697
 31
0.0
  0
ARC
  5
499
100
AcDbEntity
  8
0
370
    -3
  6
Continuous
100
AcDbCircle
 10
-170.844413
 20
154.446221
 30
0.0
 40
3.8
100
AcDbArc
 50
25.0
 51
90.0
  0
LINE
  5
49A
100
AcDbEntity
  8
0
370
    -3
  6
Continuous
100
AcDbLine
 10
-235.606873
 20
121.882206
 30
0.0
 11
-235.606873
 21
155.246221
 31
0.0
  0
LINE
  5
49B
100
AcDbEntity
  8
0
370
    -3
  6
Continuous
100
AcDbLine
 10
-247.282567
 20
116.43774
 30
0.0
 11
-247.282567
 21
151.446221
 31
0.0
  0
LINE
  5
49C
100
AcDbEntity
  8
0
370
    -3
  6
Continuous
100
AcDbLine
 10
-249.282567
 20
133.246221
 30
0.0
 11
-249.282567
 21
119.246221
 31
0.0
  0
LINE
  5
49D
100
AcDbEntity
  8
0
370
    -3
  6
Continuous
100
AcDbLine
 10
-247.693282
 20
116.246221
 30
0.0
 11
-255.856627
 21
112.439591
 31
0.0
  0
ARC
  5
49E
100
AcDbEntity
  8
0
370
    -3
  6
Continuous
100
AcDbCircle
 10
-236.30117
 20
111.848724
 30
0.0
 40
3.0
100
AcDbArc
 50
25.0
 51
115.0
  0
LINE
  5
49F
100
AcDbEntity
  8
0
370
    -3
  6
Continuous
100
AcDbLine
 10
-271.282567
 20
119.246221
 30
0.0
 11
-247.282567
 21
119.246221
 31
0.0
  0
POINT
  5
4A0
100
AcDbEntity
  8
0
370
    -3
  6
CENTER
100
AcDbPoint
 10
-273.282567
 20
122.768721
 30
0.0
  0
POINT
  5
4A1
100
AcDbEntity
  8
0
370
    -3
  6
CENTER
100
AcDbPoint
 10
-273.282567
 20
143.723721
 30
0.0
  0
ARC
  5
4A2
100
AcDbEntity
  8
0
370
    -3
  6
Continuous
100
AcDbCircle
 10
-232.606873
 20
155.246221
 30
0.0
 40
3.0
100
AcDbArc
 50
90.0
 51
180.0
  0
LINE
  5
4A3
100
AcDbEntity
  8
0
370
    -3
  6
CENTER
100
AcDbLine
 10
-202.282567
 20
171.023638
 30
0.0
 11
-202.282567
 21
148.113661
 31
0.0
  0
ARC
  5
4A4
100
AcDbEntity
  8
0
370
    -3
  6
Continuous
100
AcDbCircle
 10
-230.282567
 20
158.246221
 30
0.0
 40
1.0
100
AcDbArc
 50
90.0
 51
166.657636
  0
LINE
  5
4A5
100
AcDbEntity
  8
0
370
    -3
  6
Continuous
100
AcDbLine
 10
-240.482567
 20
158.246221
 30
0.0
 11
-170.844413
 21
158.246221
 31
0.0
  0
ARC
  5
4A6
100
AcDbEntity
  8
0
370
    -3
  6
Continuous
100
AcDbCircle
 10
-174.282567
 20
158.246221
 30
0.0
 40
1.0
100
AcDbArc
 50
13.342364
 51
90.0
  0
LINE
  5
4A7
100
AcDbEntity
  8
0
370
    -3
  6
Continuous
100
AcDbLine
 10
-249.282567
 20
147.246221
 30
0.0
 11
-249.282567
 21
133.246221
 31
0.0
  0
LINE
  5
4A8
100
AcDbEntity
  8
0
370
    -3
  6
CENTER
100
AcDbLine
 10
-278.76119
 20
133.246221
 30
0.0
 11
-238.454704
 21
133.246221
 31
0.0
  0
LINE
  5
4A9
100
AcDbEntity
  8
0
370
    -3
  6
Continuous
100
AcDbLine
 10
-273.282567
 20
121.246221
 30
0.0
 11
-273.282567
 21
133.246221
 31
0.0
  0
LINE
  5
4AA
100
AcDbEntity
  8
0
370
    -3
  6
Continuous
100
AcDbLine
 10
-273.282567
 20
145.246221
 30
0.0
 11
-273.282567
 21
133.246221
 31
0.0
  0
ARC
  5
4AB
100
AcDbEntity
  8
0
370
    -3
  6
Continuous
100
AcDbCircle
 10
-271.282567
 20
121.246221
 30
0.0
 40
2.0
100
AcDbArc
 50
180.0
 51
270.0
  0
ARC
  5
4AC
100
AcDbEntity
  8
0
370
    -3
  6
Continuous
100
AcDbCircle
 10
-271.282567
 20
145.246221
 30
0.0
 40
2.0
100
AcDbArc
 50
90.0
 51
180.0
  0
LINE
  5
4AD
100
AcDbEntity
  8
0
370
    -3
  6
Continuous
100
AcDbLine
 10
-271.282567
 20
147.246221
 30
0.0
 11
-249.282567
 21
147.246221
 31
0.0
  0
LINE
  5
4AE
100
AcDbEntity
  8
0
370
    -3
  6
Continuous
100
AcDbLine
 10
-249.282567
 20
147.246221
 30
0.0
 11
-247.282567
 21
147.246221
 31
0.0
  0
LINE
  5
4AF
100
AcDbEntity
  8
0
370
    -3
  6
Continuous
100
AcDbLine
 10
-233.282567
 20
160.246221
 30
0.0
 11
-171.282567
 21
160.246221
 31
0.0
  0
LINE
  5
4B0
100
AcDbEntity
  8
0
370
    -3
  6
Continuous
100
AcDbLine
 10
-233.282567
 20
159.246221
 30
0.0
 11
-171.282567
 21
159.246221
 31
0.0
  0
LINE
  5
4B1
100
AcDbEntity
  8
0
370
    -3
  6
Continuous
100
AcDbLine
 10
-233.282567
 20
160.246221
 30
0.0
 11
-233.282567
 21
159.246221
 31
0.0
  0
LINE
  5
4B2
100
AcDbEntity
  8
0
370
    -3
  6
Continuous
100
AcDbLine
 10
-171.282567
 20
160.246221
 30
0.0
 11
-171.282567
 21
159.246221
 31
0.0
  0
ARC
  5
4B3
100
AcDbEntity
  8
0
370
    -3
  6
Continuous
100
AcDbCircle
 10
-240.482567
 20
151.446221
 30
0.0
 40
6.8
100
AcDbArc
 50
90.0
 51
180.0
  0
ARC
  5
4B4
100
AcDbEntity
  8
0
370
    -3
  6
Continuous
100
AcDbCircle
 10
-173.017656
 20
158.546221
 30
0.0
 40
0.3
100
AcDbArc
 50
193.342364
 51
270.0
  0
ARC
  5
4B5
100
AcDbEntity
  8
0
370
    -3
  6
Continuous
100
AcDbCircle
 10
-231.547478
 20
158.546221
 30
0.0
 40
0.3
100
AcDbArc
 50
270.0
 51
346.657636
  0
ARC
  5
4B6
100
AcDbEntity
  8
0
370
    -3
  6
Continuous
100
AcDbCircle
 10
-207.864965
 20
710.428694
 30
0.0
 40
600.8
100
AcDbArc
 50
266.682408
 51
272.437505
  0
LINE
  5
4B7
100
AcDbEntity
  8
0
370
    -3
  6
Continuous
100
AcDbLine
 10
-233.582247
 20
113.116579
 30
0.0
 11
-232.907217
 21
111.668972
 31
0.0
  0
ARC
  5
4B8
100
AcDbEntity
  8
0
370
    -3
  6
Continuous
100
AcDbCircle
 10
-230.369555
 20
112.852303
 30
0.0
 40
2.8
100
AcDbArc
 50
205.0
 51
267.843273
  0
ARC
  5
4B9
100
AcDbEntity
  8
0
370
    -3
  6
Continuous
100
AcDbCircle
 10
-247.916364
 20
108.662369
 30
0.0
 40
1.299999
100
AcDbArc
 50
204.999999
 51
278.398469
  0
ARC
  5
4BA
100
AcDbEntity
  8
0
370
    -3
  6
Continuous
100
AcDbCircle
 10
-243.928608
 20
110.52189
 30
0.0
 40
1.299999
100
AcDbArc
 50
311.601548
 51
25.000018
  0
LINE
  5
4BB
100
AcDbEntity
  8
0
370
    -3
  6
Continuous
100
AcDbLine
 10
-249.508317
 20
109.000264
 30
0.0
 11
-249.094563
 21
108.112966
 31
0.0
  0
LINE
  5
4BC
100
AcDbEntity
  8
0
370
    -3
  6
Continuous
100
AcDbLine
 10
-243.164163
 20
111.958592
 30
0.0
 11
-242.750409
 21
111.071294
 31
0.0
  0
POINT
  5
4BD
100
AcDbEntity
  8
0
370
    -3
  6
Continuous
100
AcDbPoint
 10
-246.33624
 20
110.479428
 30
0.0
  0
ARC
  5
4BE
100
AcDbEntity
  8
0
370
    -3
  6
Continuous
100
AcDbCircle
 10
-249.040997
 20
116.279797
 30
0.0
 40
9.0
100
AcDbArc
 50
278.398469
 51
311.601548
  0
LINE
  5
4BF
100
AcDbEntity
  8
0
370
    -3
  6
CENTER
100
AcDbLine
 10
-247.593914
 20
113.176519
 30
0.0
 11
-244.723993
 21
107.021954
 31
0.0
  0
ARC
  5
4C0
100
AcDbEntity
  8
0
370
    -3
  6
Continuous
100
AcDbCircle
 10
-252.534799
 20
109.575072
 30
0.0
 40
1.8
100
AcDbArc
 50
205.0
 51
295.0
  0
LINE
  5
4C1
100
AcDbEntity
  8
0
370
    -3
  6
Continuous
100
AcDbLine
 10
-254.166153
 20
108.81436
 30
0.0
 11
-255.856627
 21
112.439591
 31
0.0
  0
POINT
  5
4C2
100
AcDbEntity
  8
0
370
    -3
  6
Continuous
100
AcDbPoint
 10
-273.282567
 20
143.723721
 30
0.0
  0
LINE
  5
4C3
100
AcDbEntity
  8
0
370
    -3
  6
CENTER
100
AcDbLine
 10
-202.282567
 20
171.023638
 30
0.0
 11
-202.282567
 21
148.113661
 31
0.0
  0
LINE
  5
4C4
100
AcDbEntity
  8
0
370
    -3
  6
Continuous
100
AcDbLine
 10
-175.746848
 20
169.808238
 30
0.0
 11
-175.356344
 21
166.684203
 31
0.0
  0
ARC
  5
4C5
100
AcDbEntity
  8
0
370
    -3
  6
Continuous
100
AcDbCircle
 10
-182.360205
 20
169.746221
 30
0.0
 40
0.5
100
AcDbArc
 50
90.0
 51
172.874984
  0
ARC
  5
4C6
100
AcDbEntity
  8
0
370
    -3
  6
Continuous
100
AcDbCircle
 10
-176.242987
 20
169.746221
 30
0.0
 40
0.5
100
AcDbArc
 50
7.125016
 51
90.0
  0
LINE
  5
4C7
100
AcDbEntity
  8
0
370
    -3
  6
Continuous
100
AcDbLine
 10
-176.242987
 20
170.246221
 30
0.0
 11
-182.354075
 21
170.246221
 31
0.0
  0
LINE
  5
4C8
100
AcDbEntity
  8
0
370
    -3
  6
Continuous
100
AcDbLine
 10
-182.856344
 20
169.808238
 30
0.0
 11
-183.246848
 21
166.684203
 31
0.0
  0
LINE
  5
4C9
100
AcDbEntity
  8
0
370
    -3
  6
Continuous
100
AcDbLine
 10
-228.282567
 20
170.246221
 30
0.0
 11
-222.211058
 21
170.246221
 31
0.0
  0
LINE
  5
4CA
100
AcDbEntity
  8
0
370
    -3
  6
Continuous
100
AcDbLine
 10
-221.708789
 20
169.808238
 30
0.0
 11
-221.318285
 21
166.684203
 31
0.0
  0
LINE
  5
4CB
100
AcDbEntity
  8
0
370
    -3
  6
Continuous
100
AcDbLine
 10
-228.818285
 20
169.808238
 30
0.0
 11
-229.208789
 21
166.684203
 31
0.0
  0
ARC
  5
4CC
100
AcDbEntity
  8
0
370
    -3
  6
Continuous
100
AcDbCircle
 10
-222.204928
 20
169.746221
 30
0.0
 40
0.5
100
AcDbArc
 50
7.125016
 51
90.0
  0
ARC
  5
4CD
100
AcDbEntity
  8
0
370
    -3
  6
Continuous
100
AcDbCircle
 10
-228.322146
 20
169.746221
 30
0.0
 40
0.5
100
AcDbArc
 50
90.0
 51
172.874984
  0
ARC
  5
4CE
100
AcDbEntity
  8
0
370
    -3
  6
Continuous
100
AcDbCircle
 10
-385.253724
 20
-44.746693
 30
0.0
 40
0.5
100
AcDbArc
 50
180.0
 51
262.874984
  0
LINE
  5
4CF
100
AcDbEntity
  8
0
370
    -3
  6
Continuous
100
AcDbLine
 10
-385.753724
 20
-44.746693
 30
0.0
 11
-385.753724
 21
-38.707114
 31
0.0
  0
ARC
  5
4D0
100
AcDbEntity
  8
0
370
    -3
  6
Continuous
100
AcDbCircle
 10
-385.253724
 20
7.332465
 30
0.0
 40
0.5
100
AcDbArc
 50
97.125016
 51
180.0
  0
LINE
  5
4D1
100
AcDbEntity
  8
0
370
    -3
  6
Continuous
100
AcDbLine
 10
-385.753724
 20
7.332465
 30
0.0
 11
-385.753724
 21
1.292886
 31
0.0
  0
LINE
  5
4D2
100
AcDbEntity
  8
0
370
    -3
  6
Continuous
100
AcDbLine
 10
-383.369873
 20
0.042886
 30
0.0
 11
-381.753724
 21
0.042886
 31
0.0
  0
LINE
  5
4D3
100
AcDbEntity
  8
0
370
    -3
  6
Continuous
100
AcDbLine
 10
-383.369873
 20
0.475875
 30
0.0
 11
-382.191706
 21
0.328604
 31
0.0
  0
ARC
  5
4D4
100
AcDbEntity
  8
0
370
    -3
  6
Continuous
100
AcDbCircle
 10
-382.253724
 20
-0.167535
 30
0.0
 40
0.5
100
AcDbArc
 50
0.0
 51
82.874984
  0
LINE
  5
4D5
100
AcDbEntity
  8
0
370
    -3
  6
Continuous
100
AcDbLine
 10
-385.315741
 20
7.828604
 30
0.0
 11
-382.191706
 21
8.219109
 31
0.0
  0
ARC
  5
4D6
100
AcDbEntity
  8
0
370
    -3
  6
Continuous
100
AcDbCircle
 10
-382.253724
 20
8.715248
 30
0.0
 40
0.5
100
AcDbArc
 50
277.125016
 51
0.0
  0
ARC
  5
4D7
100
AcDbEntity
  8
0
370
    -3
  6
Continuous
100
AcDbCircle
 10
-381.253724
 20
8.773856
 30
0.0
 40
0.5
100
AcDbArc
 50
90.0
 51
180.0
  0
LINE
  5
4D8
100
AcDbEntity
  8
0
370
    -3
  6
Continuous
100
AcDbLine
 10
-381.253724
 20
9.273856
 30
0.0
 11
-380.253724
 21
9.273856
 31
0.0
  0
ARC
  5
4D9
100
AcDbEntity
  8
0
370
    -3
  6
Continuous
100
AcDbCircle
 10
-380.253724
 20
9.773856
 30
0.0
 40
0.5
100
AcDbArc
 50
270.0
 51
0.0
  0
LINE
  5
4DA
100
AcDbEntity
  8
0
370
    -3
  6
Continuous
100
AcDbLine
 10
-381.753724
 20
-0.189958
 30
0.0
 11
-381.753724
 21
8.773856
 31
0.0
  0
LINE
  5
4DB
100
AcDbEntity
  8
0
370
    -3
  6
Continuous
100
AcDbLine
 10
-381.753724
 20
-18.707114
 30
0.0
 11
-381.753724
 21
-0.189958
 31
0.0
  0
LINE
  5
4DC
100
AcDbEntity
  8
0
370
    -3
  6
Continuous
100
AcDbLine
 10
-381.753724
 20
-18.707114
 30
0.0
 11
-381.753724
 21
-37.22427
 31
0.0
  0
ARC
  5
4DD
100
AcDbEntity
  8
0
370
    -3
  6
Continuous
100
AcDbCircle
 10
-381.253724
 20
-37.22427
 30
0.0
 40
0.5
100
AcDbArc
 50
180.0
 51
268.0
  0
LINE
  5
4DE
100
AcDbEntity
  8
0
370
    -3
  6
Continuous
100
AcDbLine
 10
-381.271173
 20
-37.723965
 30
0.0
 11
-380.236274
 21
-37.760104
 31
0.0
  0
ARC
  5
4DF
100
AcDbEntity
  8
0
370
    -3
  6
Continuous
100
AcDbCircle
 10
-380.253724
 20
-38.2598
 30
0.0
 40
0.5
100
AcDbArc
 50
0.0
 51
88.0
  0
LINE
  5
4E0
100
AcDbEntity
  8
0
370
    -3
  6
Continuous
100
AcDbLine
 10
-379.753724
 20
-38.2598
 30
0.0
 11
-379.753724
 21
-51.311858
 31
0.0
  0
LINE
  5
4E1
100
AcDbEntity
  8
0
370
    -3
  6
Continuous
100
AcDbLine
 10
-379.753724
 20
-51.311858
 30
0.0
 11
-376.727547
 21
-51.232614
 31
0.0
  0
ARC
  5
4E2
100
AcDbEntity
  8
0
370
    -3
  6
Continuous
100
AcDbCircle
 10
-376.753724
 20
-50.232957
 30
0.0
 40
1.0
100
AcDbArc
 50
271.5
 51
0.0
  0
LINE
  5
4E3
100
AcDbEntity
  8
0
370
    -3
  6
Continuous
100
AcDbLine
 10
-375.753724
 20
-50.232957
 30
0.0
 11
-375.753724
 21
12.818729
 31
0.0
  0
ARC
  5
4E4
100
AcDbEntity
  8
0
370
    -3
  6
Continuous
100
AcDbCircle
 10
-376.753724
 20
12.818729
 30
0.0
 40
1.0
100
AcDbArc
 50
0.0
 51
88.5
  0
LINE
  5
4E5
100
AcDbEntity
  8
0
370
    -3
  6
Continuous
100
AcDbLine
 10
-379.753724
 20
13.89763
 30
0.0
 11
-376.727547
 21
13.818386
 31
0.0
  0
LINE
  5
4E6
100
AcDbEntity
  8
0
370
    -3
  6
Continuous
100
AcDbLine
 10
-379.753724
 20
0.845572
 30
0.0
 11
-379.753724
 21
13.89763
 31
0.0
  0
ARC
  5
4E7
100
AcDbEntity
  8
0
370
    -3
  6
Continuous
100
AcDbCircle
 10
-380.253724
 20
0.845572
 30
0.0
 40
0.5
100
AcDbArc
 50
272.0
 51
0.0
  0
LINE
  5
4E8
100
AcDbEntity
  8
0
370
    -3
  6
Continuous
100
AcDbLine
 10
-381.271173
 20
0.309737
 30
0.0
 11
-380.236274
 21
0.345877
 31
0.0
  0
ARC
  5
4E9
100
AcDbEntity
  8
0
370
    -3
  6
Continuous
100
AcDbCircle
 10
-381.253724
 20
-0.189958
 30
0.0
 40
0.5
100
AcDbArc
 50
92.0
 51
180.0
  0
LINE
  5
4EA
100
AcDbEntity
  8
0
370
    -3
  6
Continuous
100
AcDbLine
 10
-383.369873
 20
-37.890103
 30
0.0
 11
-382.191706
 21
-37.742832
 31
0.0
  0
ARC
  5
4EB
100
AcDbEntity
  8
0
370
    -3
  6
Continuous
100
AcDbCircle
 10
-382.253724
 20
-37.246693
 30
0.0
 40
0.5
100
AcDbArc
 50
277.125016
 51
0.0
  0
LINE
  5
4EC
100
AcDbEntity
  8
0
370
    -3
  6
Continuous
100
AcDbLine
 10
-383.369873
 20
-37.457114
 30
0.0
 11
-381.753724
 21
-37.457114
 31
0.0
  0
LINE
  5
4ED
100
AcDbEntity
  8
0
370
    -3
  6
Continuous
100
AcDbLine
 10
-381.753724
 20
-37.22427
 30
0.0
 11
-381.753724
 21
-46.188084
 31
0.0
  0
ARC
  5
4EE
100
AcDbEntity
  8
0
370
    -3
  6
Continuous
100
AcDbCircle
 10
-382.253724
 20
-46.129475
 30
0.0
 40
0.5
100
AcDbArc
 50
0.0
 51
82.874984
  0
ARC
  5
4EF
100
AcDbEntity
  8
0
370
    -3
  6
Continuous
100
AcDbCircle
 10
-381.253724
 20
-46.188084
 30
0.0
 40
0.5
100
AcDbArc
 50
180.0
 51
270.0
  0
LINE
  5
4F0
100
AcDbEntity
  8
0
370
    -3
  6
Continuous
100
AcDbLine
 10
-381.253724
 20
-46.688084
 30
0.0
 11
-380.253724
 21
-46.688084
 31
0.0
  0
ARC
  5
4F1
100
AcDbEntity
  8
0
370
    -3
  6
Continuous
100
AcDbCircle
 10
-380.253724
 20
-47.188084
 30
0.0
 40
0.5
100
AcDbArc
 50
0.0
 51
90.0
  0
ARC
  5
4F2
100
AcDbEntity
  8
0
370
    -3
  6
Continuous
100
AcDbCircle
 10
-348.753724
 20
-18.707114
 30
0.0
 40
14.0
100
AcDbArc
 50
180.0
 51
360.0
  0
ARC
  5
4F3
100
AcDbEntity
  8
0
370
    -3
  6
Continuous
100
AcDbCircle
 10
-348.753724
 20
-18.707114
 30
0.0
 40
9.3155
100
AcDbArc
 50
180.0
 51
360.0
  0
ARC
  5
4F4
100
AcDbEntity
  8
0
370
    -3
  6
Continuous
100
AcDbCircle
 10
-348.753724
 20
-18.707114
 30
0.0
 40
10.4775
100
AcDbArc
 50
180.0
 51
360.0
  0
ELLIPSE
  5
4F5
100
AcDbEntity
  8
0
370
    -3
  6
Continuous
100
AcDbEllipse
 10
-325.167984
 20
-58.207114
 30
0.0
 11
0.0
 21
3.5
 31
0.0
210
0.0
220
0.0
230
1.0
 40
0.656603
 41
3.5746436290431376
 42
5.3210459426689347
  0
LINE
  5
4F6
100
AcDbEntity
  8
0
370
    -3
  6
Continuous
100
AcDbLine
 10
-328.285188
 20
-18.707114
 30
0.0
 11
-328.285188
 21
-57.707114
 31
0.0
  0
LINE
  5
4F7
100
AcDbEntity
  8
0
370
    -3
  6
Continuous
100
AcDbLine
 10
-323.282575
 20
-57.707114
 30
0.0
 11
-323.282575
 21
-18.707114
 31
0.0
  0
LINE
  5
4F8
100
AcDbEntity
  8
0
370
    -3
  6
Continuous
100
AcDbLine
 10
-375.753724
 20
-18.707114
 30
0.0
 11
-375.753724
 21
-49.707114
 31
0.0
  0
LINE
  5
4F9
100
AcDbEntity
  8
0
370
    -3
  6
Continuous
100
AcDbLine
 10
-374.753724
 20
-49.707114
 30
0.0
 11
-374.753724
 21
-18.707114
 31
0.0
  0
LINE
  5
4FA
100
AcDbEntity
  8
0
370
    -3
  6
Continuous
100
AcDbLine
 10
-375.753724
 20
-49.707114
 30
0.0
 11
-374.753724
 21
-49.707114
 31
0.0
  0
LINE
  5
4FB
100
AcDbEntity
  8
0
370
    -3
  6
Continuous
100
AcDbLine
 10
-374.753724
 20
-18.707114
 30
0.0
 11
-374.753724
 21
-46.707114
 31
0.0
  0
LINE
  5
4FC
100
AcDbEntity
  8
0
370
    -3
  6
Continuous
100
AcDbLine
 10
-329.517812
 20
-18.707114
 30
0.0
 11
-329.517812
 21
-44.766147
 31
0.0
  0
LINE
  5
4FD
100
AcDbEntity
  8
0
370
    -3
  6
Continuous
100
AcDbLine
 10
-366.953724
 20
-58.007114
 30
0.0
 11
-337.320866
 21
-58.007114
 31
0.0
  0
LINE
  5
4FE
100
AcDbEntity
  8
0
370
    -3
  6
Continuous
100
AcDbLine
 10
-329.819308
 20
-46.249544
 30
0.0
 11
-333.822361
 21
-55.690511
 31
0.0
  0
ARC
  5
4FF
100
AcDbEntity
  8
0
370
    -3
  6
Continuous
100
AcDbCircle
 10
-333.317812
 20
-44.766147
 30
0.0
 40
3.8
100
AcDbArc
 50
337.022625
 51
0.0
  0
ARC
  5
500
100
AcDbEntity
  8
0
370
    -3
  6
Continuous
100
AcDbCircle
 10
-337.320866
 20
-54.207114
 30
0.0
 40
3.8
100
AcDbArc
 50
270.0
 51
337.022625
  0
LINE
  5
501
100
AcDbEntity
  8
0
370
    -3
  6
Continuous
100
AcDbLine
 10
-373.753724
 20
-18.707114
 30
0.0
 11
-373.753724
 21
-51.207114
 31
0.0
  0
ARC
  5
502
100
AcDbEntity
  8
0
370
    -3
  6
Continuous
100
AcDbCircle
 10
-366.953724
 20
-51.207114
 30
0.0
 40
6.8
100
AcDbArc
 50
180.0
 51
270.0
  0
LINE
  5
503
100
AcDbEntity
  8
0
370
    -3
  6
Continuous
100
AcDbLine
 10
-370.24361
 20
-57.158303
 30
0.0
 11
-370.24361
 21
-58.207114
 31
0.0
  0
ARC
  5
504
100
AcDbEntity
  8
0
370
    -3
  6
Continuous
100
AcDbCircle
 10
-374.053724
 20
-47.972025
 30
0.0
 40
0.3
100
AcDbArc
 50
0.0
 51
76.657636
  0
ARC
  5
505
100
AcDbEntity
  8
0
370
    -3
  6
Continuous
100
AcDbCircle
 10
-373.753724
 20
-46.707114
 30
0.0
 40
1.0
100
AcDbArc
 50
180.0
 51
256.657636
  0
LINE
  5
506
100
AcDbEntity
  8
0
370
    -3
  6
Continuous
100
AcDbLine
 10
-372.660106
 20
-54.905384
 30
0.0
 11
-372.660106
 21
-57.707114
 31
0.0
  0
LINE
  5
507
100
AcDbEntity
  8
0
370
    -3
  6
Continuous
100
AcDbLine
 10
-372.9982
 20
-57.707114
 30
0.0
 11
-372.9982
 21
-54.322287
 31
0.0
  0
LINE
  5
508
100
AcDbEntity
  8
0
370
    -3
  6
Continuous
100
AcDbLine
 10
-327.947094
 20
-18.707114
 30
0.0
 11
-327.947094
 21
-57.707114
 31
0.0
  0
LINE
  5
509
100
AcDbEntity
  8
0
370
    -3
  6
CENTER
100
AcDbLine
 10
-348.753724
 20
-0.062182
 30
0.0
 11
-348.753724
 21
-40.007571
 31
0.0
  0
ARC
  5
50A
100
AcDbEntity
  8
0
370
    -3
  6
Continuous
100
AcDbCircle
 10
-365.1982
 20
20.292886
 30
0.0
 40
7.8
100
AcDbArc
 50
90.0
 51
180.0
  0
LINE
  5
50B
100
AcDbEntity
  8
0
370
    -3
  6
Continuous
100
AcDbLine
 10
-335.285188
 20
27.292886
 30
0.0
 11
-365.660106
 21
27.292886
 31
0.0
  0
ARC
  5
50C
100
AcDbEntity
  8
0
370
    -3
  6
Continuous
100
AcDbCircle
 10
-335.285188
 20
20.292886
 30
0.0
 40
7.0
100
AcDbArc
 50
0.0
 51
90.0
  0
ARC
  5
50D
100
AcDbEntity
  8
0
370
    -3
  6
Continuous
100
AcDbCircle
 10
-335.747094
 20
20.292886
 30
0.0
 40
7.8
100
AcDbArc
 50
0.0
 51
90.0
  0
ARC
  5
50E
100
AcDbEntity
  8
0
370
    -3
  6
Continuous
100
AcDbCircle
 10
-331.082575
 20
20.292886
 30
0.0
 40
7.8
100
AcDbArc
 50
0.0
 51
90.0
  0
ELLIPSE
  5
50F
100
AcDbEntity
  8
0
370
    -3
  6
Continuous
100
AcDbEllipse
 10
-325.167984
 20
20.792886
 30
0.0
 11
0.0
 21
3.5
 31
0.0
210
0.0
220
0.0
230
1.0
 40
0.656603
 41
4.1037320181004482
 42
5.8501343317261245
  0
LINE
  5
510
100
AcDbEntity
  8
0
370
    -3
  6
Continuous
100
AcDbLine
 10
-331.082575
 20
28.092886
 30
0.0
 11
-365.1982
 21
28.092886
 31
0.0
  0
LINE
  5
511
100
AcDbEntity
  8
0
370
    -3
  6
Continuous
100
AcDbLine
 10
-328.285188
 20
-18.707114
 30
0.0
 11
-328.285188
 21
20.292886
 31
0.0
  0
LINE
  5
512
100
AcDbEntity
  8
0
370
    -3
  6
Continuous
100
AcDbLine
 10
-323.282575
 20
20.292886
 30
0.0
 11
-323.282575
 21
-18.707114
 31
0.0
  0
LINE
  5
513
100
AcDbEntity
  8
0
370
    -3
  6
Continuous
100
AcDbLine
 10
-375.753724
 20
-18.707114
 30
0.0
 11
-375.753724
 21
12.292886
 31
0.0
  0
LINE
  5
514
100
AcDbEntity
  8
0
370
    -3
  6
Continuous
100
AcDbLine
 10
-374.753724
 20
12.292886
 30
0.0
 11
-374.753724
 21
-18.707114
 31
0.0
  0
LINE
  5
515
100
AcDbEntity
  8
0
370
    -3
  6
Continuous
100
AcDbLine
 10
-375.753724
 20
12.292886
 30
0.0
 11
-374.753724
 21
12.292886
 31
0.0
  0
ARC
  5
516
100
AcDbEntity
  8
0
370
    -3
  6
Continuous
100
AcDbCircle
 10
-365.660106
 20
20.292886
 30
0.0
 40
7.0
100
AcDbArc
 50
90.0
 51
180.0
  0
LINE
  5
517
100
AcDbEntity
  8
0
370
    -3
  6
Continuous
100
AcDbLine
 10
-374.753724
 20
-18.707114
 30
0.0
 11
-374.753724
 21
9.292886
 31
0.0
  0
LINE
  5
518
100
AcDbEntity
  8
0
370
    -3
  6
Continuous
100
AcDbLine
 10
-329.517812
 20
-18.707114
 30
0.0
 11
-329.517812
 21
7.351919
 31
0.0
  0
LINE
  5
519
100
AcDbEntity
  8
0
370
    -3
  6
Continuous
100
AcDbLine
 10
-366.953724
 20
20.592886
 30
0.0
 11
-337.320866
 21
20.592886
 31
0.0
  0
LINE
  5
51A
100
AcDbEntity
  8
0
370
    -3
  6
Continuous
100
AcDbLine
 10
-329.819308
 20
8.835316
 30
0.0
 11
-333.822361
 21
18.276283
 31
0.0
  0
ARC
  5
51B
100
AcDbEntity
  8
0
370
    -3
  6
Continuous
100
AcDbCircle
 10
-333.317812
 20
7.351919
 30
0.0
 40
3.8
100
AcDbArc
 50
360.0
 51
22.977375
  0
ARC
  5
51C
100
AcDbEntity
  8
0
370
    -3
  6
Continuous
100
AcDbCircle
 10
-337.320866
 20
16.792886
 30
0.0
 40
3.8
100
AcDbArc
 50
22.977375
 51
90.0
  0
LINE
  5
51D
100
AcDbEntity
  8
0
370
    -3
  6
Continuous
100
AcDbLine
 10
-373.753724
 20
-18.707114
 30
0.0
 11
-373.753724
 21
13.792886
 31
0.0
  0
ARC
  5
51E
100
AcDbEntity
  8
0
370
    -3
  6
Continuous
100
AcDbCircle
 10
-366.953724
 20
13.792886
 30
0.0
 40
6.8
100
AcDbArc
 50
90.0
 51
180.0
  0
LINE
  5
51F
100
AcDbEntity
  8
0
370
    -3
  6
Continuous
100
AcDbLine
 10
-370.24361
 20
19.744075
 30
0.0
 11
-370.24361
 21
20.792886
 31
0.0
  0
ARC
  5
520
100
AcDbEntity
  8
0
370
    -3
  6
Continuous
100
AcDbCircle
 10
-364.24361
 20
20.792886
 30
0.0
 40
6.0
100
AcDbArc
 50
90.0
 51
180.0
  0
ARC
  5
521
100
AcDbEntity
  8
0
370
    -3
  6
Continuous
100
AcDbCircle
 10
-374.053724
 20
10.557797
 30
0.0
 40
0.3
100
AcDbArc
 50
283.342364
 51
0.0
  0
ARC
  5
522
100
AcDbEntity
  8
0
370
    -3
  6
Continuous
100
AcDbCircle
 10
-373.753724
 20
9.292886
 30
0.0
 40
1.0
100
AcDbArc
 50
103.342364
 51
180.0
  0
LINE
  5
523
100
AcDbEntity
  8
0
370
    -3
  6
Continuous
100
AcDbLine
 10
-372.660106
 20
17.491156
 30
0.0
 11
-372.660106
 21
20.292886
 31
0.0
  0
LINE
  5
524
100
AcDbEntity
  8
0
370
    -3
  6
Continuous
100
AcDbLine
 10
-372.9982
 20
20.292886
 30
0.0
 11
-372.9982
 21
16.908059
 31
0.0
  0
LINE
  5
525
100
AcDbEntity
  8
0
370
    -3
  6
Continuous
100
AcDbLine
 10
-364.24361
 20
26.792886
 30
0.0
 11
-332.687112
 21
26.792886
 31
0.0
  0
LINE
  5
526
100
AcDbEntity
  8
0
370
    -3
  6
Continuous
100
AcDbLine
 10
-327.947094
 20
-18.707114
 30
0.0
 11
-327.947094
 21
20.292886
 31
0.0
  0
ARC
  5
527
100
AcDbEntity
  8
0
370
    -3
  6
Continuous
100
AcDbCircle
 10
-348.753724
 20
-18.707114
 30
0.0
 40
14.0
100
AcDbArc
 50
0.0
 51
180.0
  0
ARC
  5
528
100
AcDbEntity
  8
0
370
    -3
  6
Continuous
100
AcDbCircle
 10
-348.753724
 20
-18.707114
 30
0.0
 40
9.3155
100
AcDbArc
 50
0.0
 51
180.0
  0
ARC
  5
529
100
AcDbEntity
  8
0
370
    -3
  6
Continuous
100
AcDbCircle
 10
-348.753724
 20
-18.707114
 30
0.0
 40
10.4775
100
AcDbArc
 50
0.0
 51
180.0
  0
LINE
  5
52A
100
AcDbEntity
  8
0
370
    -3
  6
Continuous
100
AcDbLine
 10
-366.953724
 20
-45.538485
 30
0.0
 11
-329.597127
 21
-45.538485
 31
0.0
  0
ARC
  5
52B
100
AcDbEntity
  8
0
370
    -3
  6
Continuous
100
AcDbCircle
 10
-366.953724
 20
-38.738485
 30
0.0
 40
6.8
100
AcDbArc
 50
180.0
 51
270.0
  0
ARC
  5
52C
100
AcDbEntity
  8
0
370
    -3
  6
Continuous
100
AcDbCircle
 10
-366.953724
 20
1.324257
 30
0.0
 40
6.8
100
AcDbArc
 50
90.0
 51
180.0
  0
LINE
  5
52D
100
AcDbEntity
  8
0
370
    -3
  6
Continuous
100
AcDbLine
 10
-366.953724
 20
8.124257
 30
0.0
 11
-329.597127
 21
8.124257
 31
0.0
  0
LINE
  5
52E
100
AcDbEntity
  8
0
370
    -3
  6
Continuous
100
AcDbLine
 10
-375.753724
 20
12.292886
 30
0.0
 11
-375.753724
 21
-49.707114
 31
0.0
  0
ARC
  5
52F
100
AcDbEntity
  8
0
370
    -3
  6
Continuous
100
AcDbCircle
 10
-365.1982
 20
-57.707114
 30
0.0
 40
7.8
100
AcDbArc
 50
180.0
 51
270.0
  0
ARC
  5
530
100
AcDbEntity
  8
0
370
    -3
  6
Continuous
100
AcDbCircle
 10
-335.285188
 20
-57.707114
 30
0.0
 40
7.0
100
AcDbArc
 50
270.0
 51
0.0
  0
ARC
  5
531
100
AcDbEntity
  8
0
370
    -3
  6
Continuous
100
AcDbCircle
 10
-335.747094
 20
-57.707114
 30
0.0
 40
7.8
100
AcDbArc
 50
270.0
 51
0.0
  0
ARC
  5
532
100
AcDbEntity
  8
0
370
    -3
  6
Continuous
100
AcDbCircle
 10
-331.082575
 20
-57.707114
 30
0.0
 40
7.8
100
AcDbArc
 50
270.0
 51
0.0
  0
ARC
  5
533
100
AcDbEntity
  8
0
370
    -3
  6
Continuous
100
AcDbCircle
 10
-365.660106
 20
-57.707114
 30
0.0
 40
7.0
100
AcDbArc
 50
180.0
 51
270.0
  0
ARC
  5
534
100
AcDbEntity
  8
0
370
    -3
  6
Continuous
100
AcDbCircle
 10
-364.24361
 20
-58.207114
 30
0.0
 40
6.0
100
AcDbArc
 50
180.0
 51
270.0
  0
LINE
  5
535
100
AcDbEntity
  8
0
370
    -3
  6
Continuous
100
AcDbLine
 10
-335.285188
 20
-64.707114
 30
0.0
 11
-365.660106
 21
-64.707114
 31
0.0
  0
LINE
  5
536
100
AcDbEntity
  8
0
370
    -3
  6
Continuous
100
AcDbLine
 10
-331.082575
 20
-65.507114
 30
0.0
 11
-365.1982
 21
-65.507114
 31
0.0
  0
LINE
  5
537
100
AcDbEntity
  8
0
370
    -3
  6
Continuous
100
AcDbLine
 10
-364.24361
 20
-64.207114
 30
0.0
 11
-332.687112
 21
-64.207114
 31
0.0
  0
LINE
  5
538
100
AcDbEntity
  8
0
370
    -3
  6
Continuous
100
AcDbLine
 10
-385.315741
 20
-45.242832
 30
0.0
 11
-382.191706
 21
-45.633337
 31
0.0
  0
ENDSEC
  0
SECTION
  2
OBJECTS
  0
DICTIONARY
  5
19
100
AcDbDictionary
280
     0
281
     1
  3
ACAD_GROUP
350
1A
  3
ACAD_MLINESTYLE
350
1B
  3
ACAD_LAYOUT
350
1E
  3
ACAD_PLOTSETTINGS
350
22
  3
ACAD_PLOTSTYLENAME
350
1F
  3
ACAD_WIPEOUT_VARS
350
23
  3
DWGPROPS
350
539
  0
DICTIONARY
  5
1A
102
{ACAD_REACTORS
330
19
102
}
100
AcDbDictionary
280
     0
281
     1
  0
DICTIONARY
  5
1B
102
{ACAD_REACTORS
330
19
102
}
100
AcDbDictionary
280
     0
281
     1
  3
Standard
350
1C
  0
MLINESTYLE
  5
1C
102
{ACAD_REACTORS
330
1B
102
}
100
AcDbMlineStyle
  2
Standard
 70
     0
  3

 62
     0
 51
90.0
 52
90.0
 71
     2
 49
0.5
 62
   256
  6
ByLayer
 49
-0.5
 62
   256
  6
ByLayer
  0
ACDBDICTIONARYWDFLT
  5
1F
102
{ACAD_REACTORS
330
19
102
}
100
AcDbDictionary
281
     1
  3
Normal
350
1D
100
AcDbDictionaryWithDefault
340
1D
  0
ACDBPLACEHOLDER
  5
1D
102
{ACAD_REACTORS
330
1F
102
}
  0
LAYOUT
  5
20
102
{ACAD_REACTORS
330
1E
102
}
100
AcDbPlotSettings
  1

  2

  4

  6

 40
0.0
 41
0.0
 42
0.0
 43
0.0
 44
0.0
 45
0.0
 46
0.0
 47
0.0
 48
0.0
 49
0.0
140
0.0
141
0.0
142
1.0
143
1.0
 70
  1024
 72
     0
 73
     0
 74
     0
  7

 75
     0
147
1.0
148
0.0
149
0.0
100
AcDbLayout
  1
Model
 70
     0
 71
     0
 10
0.0
 20
0.0
 11
0.0
 21
0.0
 12
0.0
 22
0.0
 32
0.0
 14
0.0
 24
0.0
 34
0.0
 15
0.0
 25
0.0
 35
0.0
146
0.0
 13
0.0
 23
0.0
 33
0.0
 16
0.0
 26
0.0
 36
0.0
 17
0.0
 27
0.0
 37
0.0
 76
     0
330
A
331
0
345
0
346
0
  0
LAYOUT
  5
21
102
{ACAD_REACTORS
330
1E
102
}
100
AcDbPlotSettings
  1

  2

  4

  6

 40
0.0
 41
0.0
 42
0.0
 43
0.0
 44
0.0
 45
0.0
 46
0.0
 47
0.0
 48
0.0
 49
0.0
140
0.0
141
0.0
142
1.0
143
1.0
 70
     0
 72
     0
 73
     0
 74
     0
  7

 75
     0
147
1.0
148
0.0
149
0.0
100
AcDbLayout
  1
Layout1
 70
     0
 71
     0
 10
0.0
 20
0.0
 11
0.0
 21
0.0
 12
0.0
 22
0.0
 32
0.0
 14
0.0
 24
0.0
 34
0.0
 15
0.0
 25
0.0
 35
0.0
146
0.0
 13
0.0
 23
0.0
 33
0.0
 16
0.0
 26
0.0
 36
0.0
 17
0.0
 27
0.0
 37
0.0
 76
     0
330
B
331
0
345
0
346
0
  0
DICTIONARY
  5
1E
102
{ACAD_REACTORS
330
19
102
}
100
AcDbDictionary
280
     0
281
     1
  3
Layout1
350
21
  3
Model
350
20
  0
DICTIONARY
  5
22
102
{ACAD_REACTORS
330
19
102
}
100
AcDbDictionary
280
     0
281
     1
  0
WIPEOUTVARIABLES
  5
23
100
AcDbWipeoutVariables
 70
     1
  0
XRECORD
  5
539
100
AcDbXrecord
280
     1
  1
DWGPROPS COOKIE
  2

  3

  4

  6

  7

  8
HK96464
  9

300
=
301
=
302
=
303
=
304
=
305
=
306
=
307
=
308
=
309
=
 40
0.0
 41
2455931.627963
 42
2455931.627963
  1

 90
        0
  0
ENDSEC
  0
EOF
