  0
SECTION
  2
HEADER
  9
$ACADVER
  1
AC1015
  9
$ACADMAINTVER
 70
     6
  9
$DWGCODEPAGE
  3
ANSI_932
  9
$INSBASE
 10
0.0
 20
0.0
 30
0.0
  9
$EXTMIN
 10
1.000000E+20
 20
1.000000E+20
 30
1.000000E+20
  9
$EXTMAX
 10
-1.000000E+20
 20
-1.000000E+20
 30
-1.000000E+20
  9
$LIMMIN
 10
0.0
 20
0.0
  9
$LIMMAX
 10
0.0
 20
0.0
  9
$ORTHOMODE
 70
     0
  9
$REGENMODE
 70
     1
  9
$FILLMODE
 70
     1
  9
$QTEXTMODE
 70
     0
  9
$MIRRTEXT
 70
     1
  9
$LTSCALE
 40
1.0
  9
$ATTMODE
 70
     1
  9
$TEXTSIZE
 40
7.0
  9
$TRACEWID
 40
0.05
  9
$TEXTSTYLE
  7
Standard
  9
$CLAYER
  8
0
  9
$CELTYPE
  6
Continuous
  9
$CECOLOR
 62
   256
  9
$CELTSCALE
 40
1.0
  9
$DISPSILH
 70
     0
  9
$DIMSCALE
 40
1.0
  9
$DIMASZ
 40
1.931852
  9
$DIMEXO
 40
1.0
  9
$DIMDLI
 40
0.38
  9
$DIMRND
 40
0.0
  9
$DIMDLE
 40
0.0
  9
$DIMEXE
 40
2.0
  9
$DIMTP
 40
0.0
  9
$DIMTM
 40
0.0
  9
$DIMTXT
 40
2.8
  9
$DIMCEN
 40
0.09
  9
$DIMTSZ
 40
0.0
  9
$DIMTOL
 70
     0
  9
$DIMLIM
 70
     0
  9
$DIMTIH
 70
     1
  9
$DIMTOH
 70
     1
  9
$DIMSE1
 70
     0
  9
$DIMSE2
 70
     0
  9
$DIMTAD
 70
     1
  9
$DIMZIN
 70
     0
  9
$DIMBLK
  1

  9
$DIMASO
 70
     1
  9
$DIMSHO
 70
     1
  9
$DIMPOST
  1

  9
$DIMAPOST
  1

  9
$DIMALT
 70
     0
  9
$DIMALTD
 70
     2
  9
$DIMALTF
 40
25.4
  9
$DIMLFAC
 40
1.0
  9
$DIMTOFL
 70
     0
  9
$DIMTVP
 40
0.0
  9
$DIMTIX
 70
     0
  9
$DIMSOXD
 70
     0
  9
$DIMSAH
 70
     0
  9
$DIMBLK1
  1

  9
$DIMBLK2
  1

  9
$DIMSTYLE
  2
Standard
  9
$DIMCLRD
 70
     0
  9
$DIMCLRE
 70
     0
  9
$DIMCLRT
 70
     0
  9
$DIMTFAC
 40
0.714286
  9
$DIMGAP
 40
0.09
  9
$DIMJUST
 70
     0
  9
$DIMSD1
 70
     0
  9
$DIMSD2
 70
     0
  9
$DIMTOLJ
 70
     1
  9
$DIMTZIN
 70
     0
  9
$DIMALTZ
 70
     0
  9
$DIMALTTZ
 70
     0
  9
$DIMUPT
 70
     0
  9
$DIMDEC
 70
     4
  9
$DIMTDEC
 70
     4
  9
$DIMALTU
 70
     2
  9
$DIMALTTD
 70
     2
  9
$DIMTXSTY
  7
Standard
  9
$DIMAUNIT
 70
     0
  9
$DIMADEC
 70
     0
  9
$DIMALTRND
 40
0.0
  9
$DIMAZIN
 70
     0
  9
$DIMDSEP
 70
     0
  9
$DIMATFIT
 70
     3
  9
$DIMFRAC
 70
     0
  9
$DIMLDRBLK
  1

  9
$DIMLUNIT
 70
     2
  9
$DIMLWD
 70
     0
  9
$DIMLWE
 70
     0
  9
$DIMTMOVE
 70
     0
  9
$LUNITS
 70
     2
  9
$LUPREC
 70
     3
  9
$SKETCHINC
 40
0.1
  9
$FILLETRAD
 40
0.0
  9
$AUNITS
 70
     0
  9
$AUPREC
 70
     0
  9
$MENU
  1
acad
  9
$ELEVATION
 40
0.0
  9
$PELEVATION
 40
0.0
  9
$THICKNESS
 40
0.0
  9
$LIMCHECK
 70
     0
  9
$CHAMFERA
 40
0.0
  9
$CHAMFERB
 40
0.0
  9
$CHAMFERC
 40
0.0
  9
$CHAMFERD
 40
0.0
  9
$SKPOLY
 70
     0
  9
$TDCREATE
 40
0.000000000
  9
$TDUCREATE
 40
0.000000000
  9
$TDUPDATE
 40
0.000000000
  9
$TDUUPDATE
 40
0.000000000
  9
$TDINDWG
 40
0.0000000000
  9
$TDUSRTIMER
 40
0.0000000000
  9
$USRTIMER
 70
     1
  9
$ANGBASE
 50
0.0
  9
$ANGDIR
 70
     0
  9
$PDMODE
 70
     0
  9
$PDSIZE
 40
0.0
  9
$PLINEWID
 40
0.0
  9
$SPLFRAME
 70
     0
  9
$SPLINETYPE
 70
     6
  9
$SPLINESEGS
 70
     8
  9
$HANDSEED
  5
555
  9
$SURFTAB1
 70
     6
  9
$SURFTAB2
 70
     6
  9
$SURFTYPE
 70
     6
  9
$SURFU
 70
     6
  9
$SURFV
 70
     6
  9
$UCSBASE
  2

  9
$UCSNAME
  2

  9
$UCSORG
 10
0.0
 20
0.0
 30
0.0
  9
$UCSXDIR
 10
1.0
 20
0.0
 30
0.0
  9
$UCSYDIR
 10
0.0
 20
1.0
 30
0.0
  9
$UCSORTHOREF
  2

  9
$UCSORTHOVIEW
 70
     0
  9
$UCSORGTOP
 10
0.0
 20
0.0
 30
0.0
  9
$UCSORGBOTTOM
 10
0.0
 20
0.0
 30
0.0
  9
$UCSORGLEFT
 10
0.0
 20
0.0
 30
0.0
  9
$UCSORGRIGHT
 10
0.0
 20
0.0
 30
0.0
  9
$UCSORGFRONT
 10
0.0
 20
0.0
 30
0.0
  9
$UCSORGBACK
 10
0.0
 20
0.0
 30
0.0
  9
$PUCSBASE
  2

  9
$PUCSNAME
  2

  9
$PUCSORG
 10
0.0
 20
0.0
 30
0.0
  9
$PUCSXDIR
 10
1.0
 20
0.0
 30
0.0
  9
$PUCSYDIR
 10
0.0
 20
1.0
 30
0.0
  9
$PUCSORTHOREF
  2

  9
$PUCSORTHOVIEW
 70
     0
  9
$PUCSORGTOP
 10
0.0
 20
0.0
 30
0.0
  9
$PUCSORGBOTTOM
 10
0.0
 20
0.0
 30
0.0
  9
$PUCSORGLEFT
 10
0.0
 20
0.0
 30
0.0
  9
$PUCSORGRIGHT
 10
0.0
 20
0.0
 30
0.0
  9
$PUCSORGFRONT
 10
0.0
 20
0.0
 30
0.0
  9
$PUCSORGBACK
 10
0.0
 20
0.0
 30
0.0
  9
$USERI1
 70
     0
  9
$USERI2
 70
     0
  9
$USERI3
 70
     0
  9
$USERI4
 70
     0
  9
$USERI5
 70
     0
  9
$USERR1
 40
0.0
  9
$USERR2
 40
0.0
  9
$USERR3
 40
0.0
  9
$USERR4
 40
0.0
  9
$USERR5
 40
0.0
  9
$WORLDVIEW
 70
     1
  9
$SHADEDGE
 70
     3
  9
$SHADEDIF
 70
    70
  9
$TILEMODE
 70
     1
  9
$MAXACTVP
 70
    16
  9
$PINSBASE
 10
0.0
 20
0.0
 30
0.0
  9
$PLIMCHECK
 70
     0
  9
$PEXTMIN
 10
1.000000E+20
 20
1.000000E+20
 30
1.000000E+20
  9
$PEXTMAX
 10
-1.000000E+20
 20
-1.000000E+20
 30
-1.000000E+20
  9
$PLIMMIN
 10
0.0
 20
0.0
  9
$PLIMMAX
 10
12.0
 20
9.0
  9
$UNITMODE
 70
     0
  9
$VISRETAIN
 70
     0
  9
$PLINEGEN
 70
     1
  9
$PSLTSCALE
 70
     0
  9
$TREEDEPTH
 70
  3020
  9
$CMLSTYLE
  2
Standard
  9
$CMLJUST
 70
     0
  9
$CMLSCALE
 40
1.0
  9
$PROXYGRAPHICS
 70
     0
  9
$MEASUREMENT
 70
     0
  9
$CELWEIGHT
370
     0
  9
$ENDCAPS
280
     0
  9
$JOINSTYLE
280
     0
  9
$LWDISPLAY
290
     0
  9
$INSUNITS
 70
     0
  9
$HYPERLINKBASE
  1

  9
$STYLESHEET
  1

  9
$XEDIT
290
     1
  9
$CEPSNTYPE
380
     0
  9
$PSTYLEMODE
290
     1
  9
$FINGERPRINTGUID
  2

  9
$VERSIONGUID
  2

  9
$EXTNAMES
290
     1
  9
$PSVPSCALE
 40
0.0
  0
ENDSEC
  0
SECTION
  2
CLASSES
  0
CLASS
  1
LWPOLYLINE
  2
AcDbPolyline
  3
AutoCAD 2000
 90
    32768
280
     0
281
     1
  0
CLASS
  1
IMAGE
  2
AcDbRasterImage
  3
ISM
 90
    32895
280
     0
281
     1
  0
CLASS
  1
OLE2FRAME
  2
AcDbOle2Frame
  3
AutoCAD 2000
 90
    32768
280
     0
281
     1
  0
CLASS
  1
HATCH
  2
AcDbHatch
  3
AutoCAD 2000
 90
    32768
280
     0
281
     1
  0
CLASS
  1
DICTIONARYVAR
  2
AcDbDictionaryVar
  3
AutoCAD 2000
 90
    32768
280
     0
281
     0
  0
CLASS
  1
RASTERVARIABLES
  2
AcDbRasterVariables
  3
ISM
 90
    32768
280
     0
281
     0
  0
CLASS
  1
IMAGEDEF
  2
AcDbRasterImageDef
  3
ISM
 90
    32768
280
     0
281
     0
  0
CLASS
  1
IMAGEDEF_REACTOR
  2
AcDbRasterImageDefReactor
  3
ISM
 90
    32769
280
     0
281
     0
  0
CLASS
  1
IDBUFFER
  2
AcDbIdBuffer
  3
AutoCAD 2000
 90
    32768
280
     0
281
     0
  0
CLASS
  1
SPATIAL_FILTER
  2
AcDbSpatialFilter
  3
AutoCAD 2000
 90
    32768
280
     0
281
     0
  0
CLASS
  1
XRECORD
  2
AcDbXrecord
  3
AutoCAD 2000
 90
        0
280
     0
281
     0
  0
CLASS
  1
SORTENTSTABLE
  2
AcDbSortentsTable
  3
AutoCAD 2000
 90
    32768
280
     0
281
     0
  0
CLASS
  1
LAYER_INDEX
  2
AcDbLayerIndex
  3
AutoCAD 2000
 90
    32768
280
     0
281
     0
  0
CLASS
  1
SPATIAL_INDEX
  2
AcDbSpatialIndex
  3
AutoCAD 2000
 90
    32768
280
     0
281
     0
  0
CLASS
  1
OBJECT_PTR
  2
CAseDLPNTableRecord
  3
"ASE-LPNTableRecord"
 90
    32769
280
     0
281
     0
  0
CLASS
  1
LAYOUT
  2
AcDbLayout
  3
AutoCAD 2000
 90
        0
280
     0
281
     0
  0
CLASS
  1
PLOTSETTINGS
  2
AcDbPlotSettings
  3
AutoCAD 2000
 90
    32768
280
     0
281
     0
  0
CLASS
  1
ACDBDICTIONARYWDFLT
  2
AcDbDictionaryWithDefault
  3
AutoCAD 2000
 90
        0
280
     0
281
     0
  0
CLASS
  1
ACDBPLACEHOLDER
  2
AcDbPlaceHolder
  3
AutoCAD 2000
 90
        0
280
     0
281
     0
  0
CLASS
  1
VBA_PROJECT
  2
AcDbVbaProject
  3
acadvba
 90
    32768
280
     0
281
     0
  0
CLASS
  1
WIPEOUT
  2
AcDbWipeout
  3
WipeOut|AutoCAD Express Tool|expresstools@autodesk.com
 90
    32895
280
     0
281
     1
  0
CLASS
  1
WIPEOUTVARIABLES
  2
AcDbWipeoutVariables
  3
WipeOut|AutoCAD Express Tool|expresstools@autodesk.com
 90
        0
280
     0
281
     0
  0
CLASS
  1
RTEXT
  2
RText
  3
RText|AutoCAD Express Tool|expresstools@autodesk.com
 90
    32768
280
     0
281
     1
  0
CLASS
  1
ARCALIGNEDTEXT
  2
AcDbArcAlignedText
  3
ATEXT|AutoCAD Express Tool|expresstools@autodesk.com
 90
    32768
280
     0
281
     1
  0
ENDSEC
  0
SECTION
  2
TABLES
  0
TABLE
  2
VPORT
  5
7
100
AcDbSymbolTable
 70
     1
  0
VPORT
  5
15
100
AcDbSymbolTableRecord
100
AcDbViewportTableRecord
  2
*ACTIVE
 70
     0
 10
0.0
 20
0.0
 11
1.0
 21
1.0
 12
0.0
 22
0.0
 13
0.0
 23
0.0
 14
1.0
 24
1.0
 15
0.0
 25
0.0
 16
0.0
 26
0.0
 36
1.0
 17
0.0
 27
0.0
 37
0.0
 40
100.0
 41
1.0
 42
50.0
 43
0.0
 44
0.0
 50
0.0
 51
0.0
 71
     0
 72
   100
 73
     1
 74
     1
 75
     0
 76
     0
 77
     0
 78
     0
281
     0
 65
     0
110
0.0
120
0.0
130
0.0
111
1.0
121
0.0
131
0.0
112
0.0
122
1.0
132
0.0
345
0
346
0
 79
     0
146
0.0
  0
ENDTAB
  0
TABLE
  2
LTYPE
  5
4
100
AcDbSymbolTable
 70
     7
  0
LTYPE
  5
11
100
AcDbSymbolTableRecord
100
AcDbLinetypeTableRecord
  2
ByBlock
 70
    64
  3

 72
    65
 73
     0
 40
0.0
  0
LTYPE
  5
12
100
AcDbSymbolTableRecord
100
AcDbLinetypeTableRecord
  2
ByLayer
 70
    64
  3

 72
    65
 73
     0
 40
0.0
  0
LTYPE
  5
13
100
AcDbSymbolTableRecord
100
AcDbLinetypeTableRecord
  2
Continuous
 70
    64
  3
Solid line
 72
    65
 73
     0
 40
0.0
  0
LTYPE
  5
24
100
AcDbSymbolTableRecord
100
AcDbLinetypeTableRecord
  2
DASHED
 70
    64
  3
Dashed __ __ __ __ __ __ __ __ __ __ __ __ __ _
 72
    65
 73
     2
 40
0.75
 49
0.5
 74
     0
 49
-0.25
 74
     0
  0
LTYPE
  5
25
100
AcDbSymbolTableRecord
100
AcDbLinetypeTableRecord
  2
CENTER
 70
    64
  3
Center ____ _ ____ _ ____ _ ____ _ ____ _ ____
 72
    65
 73
     4
 40
1.0
 49
0.5
 74
     0
 49
-0.25
 74
     0
 49
0.0
 74
     0
 49
-0.25
 74
     0
  0
LTYPE
  5
26
100
AcDbSymbolTableRecord
100
AcDbLinetypeTableRecord
  2
DIVIDE
 70
    64
  3
Divide ____ . . ____ . . ____ . . ____ . . ____
 72
    65
 73
     6
 40
1.25
 49
0.5
 74
     0
 49
-0.25
 74
     0
 49
0.0
 74
     0
 49
-0.25
 74
     0
 49
0.0
 74
     0
 49
-0.25
 74
     0
  0
LTYPE
  5
27
100
AcDbSymbolTableRecord
100
AcDbLinetypeTableRecord
  2
PHANTOM
 70
    64
  3
Phantom ______  __  __  ______  __  __  ______
 72
    65
 73
     6
 40
9.0
 49
4.3
 74
     0
 49
-0.7
 74
     0
 49
1.3
 74
     0
 49
-0.7
 74
     0
 49
1.3
 74
     0
 49
-0.7
 74
     0
  0
ENDTAB
  0
TABLE
  2
LAYER
  5
2
100
AcDbSymbolTable
 70
     3
  0
LAYER
  5
14
100
AcDbSymbolTableRecord
100
AcDbLayerTableRecord
  2
0
 70
    64
 62
    53
  6
Continuous
290
     1
370
    -3
390
1D
  0
LAYER
  5
28
100
AcDbSymbolTableRecord
100
AcDbLayerTableRecord
  2
3
 70
    64
 62
     4
  6
Continuous
290
     1
370
    -3
390
1D
  0
LAYER
  5
29
100
AcDbSymbolTableRecord
100
AcDbLayerTableRecord
  2
5
 70
    64
 62
   191
  6
Continuous
290
     1
370
    -3
390
1D
  0
ENDTAB
  0
TABLE
  2
STYLE
  5
3
100
AcDbSymbolTable
 70
     2
  0
STYLE
  5
17
100
AcDbSymbolTableRecord
100
AcDbTextStyleTableRecord
  2
Standard
 70
     0
 40
0.0
 41
1.0
 50
0.0
 71
     0
 42
0.0
  3
txt
  4

  0
STYLE
  5
59
100
AcDbSymbolTableRecord
100
AcDbTextStyleTableRecord
  2
ZU_SHPTB00001
 70
     0
 40
0.0
 41
1.0
 50
0.0
 71
     0
 42
0.0
  3
monotxt
  4
bigfont
  0
ENDTAB
  0
TABLE
  2
VIEW
  5
5
100
AcDbSymbolTable
 70
     0
  0
ENDTAB
  0
TABLE
  2
UCS
  5
6
100
AcDbSymbolTable
 70
     0
  0
ENDTAB
  0
TABLE
  2
APPID
  5
8
100
AcDbSymbolTable
 70
     1
  0
APPID
  5
16
100
AcDbSymbolTableRecord
100
AcDbRegAppTableRecord
  2
ACAD
 70
     0
  0
ENDTAB
  0
TABLE
  2
DIMSTYLE
  5
9
100
AcDbSymbolTable
 70
     1
100
AcDbDimStyleTable
 71
     0
  0
DIMSTYLE
105
18
100
AcDbSymbolTableRecord
100
AcDbDimStyleTableRecord
  2
Standard
 70
     0
  3

  4

 40
1.0
 41
0.18
 42
0.0625
 43
0.38
 44
0.18
 45
0.0
 46
0.0
 47
0.0
 48
0.0
 71
     0
 72
     0
 73
     1
 74
     1
 75
     0
 76
     0
 77
     0
 78
     0
 79
     0
140
0.18
141
0.09
142
0.0
143
25.4
144
1.0
145
0.0
146
1.0
147
0.09
148
0.0
170
     0
171
     2
172
     0
173
     0
174
     0
175
     0
176
     0
177
     0
178
     0
179
     0
271
     4
272
     4
273
     2
274
     2
275
     0
276
     0
277
     2
278
    46
279
     0
280
     0
281
     0
282
     0
283
     1
284
     0
285
     0
286
     0
288
     0
340
17
341
0
342
0
343
0
344
0
371
    -2
372
    -2
  0
ENDTAB
  0
TABLE
  2
BLOCK_RECORD
  5
1
100
AcDbSymbolTable
 70
     9
  0
BLOCK_RECORD
  5
A
100
AcDbSymbolTableRecord
100
AcDbBlockTableRecord
  2
*MODEL_SPACE
340
20
  0
BLOCK_RECORD
  5
B
100
AcDbSymbolTableRecord
100
AcDbBlockTableRecord
  2
*PAPER_SPACE
340
21
  0
BLOCK_RECORD
  5
8A
100
AcDbSymbolTableRecord
100
AcDbBlockTableRecord
  2
ZU_SYM__USERS_HOME_SYMBOL_POO_SYM_B20_-1
340
0
102
{BLKREFS
331
92
102
}
  0
BLOCK_RECORD
  5
31D
100
AcDbSymbolTableRecord
100
AcDbBlockTableRecord
  2
ZU_SYM__USERS_HOME_SYMBOL_STD_SYM_B01_-1
340
0
102
{BLKREFS
331
328
102
}
  0
BLOCK_RECORD
  5
32E
100
AcDbSymbolTableRecord
100
AcDbBlockTableRecord
  2
ZU_SYM__USERS_HOME_SYMBOL_STD_SYM_B01_00001-1
340
0
102
{BLKREFS
331
339
102
}
  0
BLOCK_RECORD
  5
33A
100
AcDbSymbolTableRecord
100
AcDbBlockTableRecord
  2
ZU_SYM__USERS_HOME_SYMBOL_STD_SYM_B01_00002-1
340
0
102
{BLKREFS
331
345
102
}
  0
BLOCK_RECORD
  5
346
100
AcDbSymbolTableRecord
100
AcDbBlockTableRecord
  2
ZU_SYM__USERS_HOME_SYMBOL_STD_SYM_B01_00003-1
340
0
102
{BLKREFS
331
351
102
}
  0
BLOCK_RECORD
  5
37B
100
AcDbSymbolTableRecord
100
AcDbBlockTableRecord
  2
ZU_SYM__USERS_HOME_SYMBOL_STD_SYM_B01_00004-1
340
0
102
{BLKREFS
331
38D
102
}
  0
BLOCK_RECORD
  5
38F
100
AcDbSymbolTableRecord
100
AcDbBlockTableRecord
  2
ZU_SYM__USERS_HOME_SYMBOL_STD_SYM_B01_00005-1
340
0
102
{BLKREFS
331
3A1
102
}
  0
BLOCK_RECORD
  5
3A2
100
AcDbSymbolTableRecord
100
AcDbBlockTableRecord
  2
ZU_SYM__USERS_HOME_SYMBOL_STD_SYM_B01_00006-1
340
0
102
{BLKREFS
331
3B4
102
}
  0
BLOCK_RECORD
  5
3B5
100
AcDbSymbolTableRecord
100
AcDbBlockTableRecord
  2
ZU_SYM__USERS_HOME_SYMBOL_STD_SYM_B01_00007-1
340
0
102
{BLKREFS
331
3C7
102
}
  0
ENDTAB
  0
ENDSEC
  0
SECTION
  2
BLOCKS
  0
BLOCK
  5
D
100
AcDbEntity
  8
0
100
AcDbBlockBegin
  2
*MODEL_SPACE
 70
     0
 10
0.0
 20
0.0
 30
0.0
  3
*MODEL_SPACE
  1

  0
ENDBLK
  5
E
100
AcDbEntity
  8
0
100
AcDbBlockEnd
  0
BLOCK
  5
F
100
AcDbEntity
 67
     1
  8
0
100
AcDbBlockBegin
  2
*PAPER_SPACE
 70
     0
 10
0.0
 20
0.0
 30
0.0
  3
*PAPER_SPACE
  1

  0
ENDBLK
  5
10
100
AcDbEntity
 67
     1
  8
0
100
AcDbBlockEnd
  0
BLOCK
  5
8B
100
AcDbEntity
  8
0
100
AcDbBlockBegin
  2
ZU_SYM__USERS_HOME_SYMBOL_POO_SYM_B20_-1
 70
    64
 10
0.0
 20
0.0
 30
0.0
  3
ZU_SYM__USERS_HOME_SYMBOL_POO_SYM_B20_-1
  1

  0
POINT
  5
8C
100
AcDbEntity
  8
0
370
    -3
  6
Continuous
100
AcDbPoint
 10
0.0
 20
0.0
 30
0.0
  0
LINE
  5
8D
100
AcDbEntity
  8
0
370
    -3
  6
Continuous
100
AcDbLine
 10
0.0
 20
-4.249999
 30
0.0
 11
0.0
 21
4.249999
 31
0.0
  0
LINE
  5
8E
100
AcDbEntity
  8
0
370
    -3
  6
Continuous
100
AcDbLine
 10
-5.0
 20
-4.249999
 30
0.0
 11
-5.0
 21
4.249999
 31
0.0
  0
LINE
  5
8F
100
AcDbEntity
  8
0
370
    -3
  6
Continuous
100
AcDbLine
 10
0.0
 20
4.249999
 30
0.0
 11
-5.0
 21
4.249999
 31
0.0
  0
LINE
  5
90
100
AcDbEntity
  8
0
370
    -3
  6
Continuous
100
AcDbLine
 10
0.0
 20
-4.249999
 30
0.0
 11
-5.0
 21
-4.249999
 31
0.0
  0
ENDBLK
  5
91
100
AcDbEntity
  8
0
100
AcDbBlockEnd
  0
BLOCK
  5
31E
100
AcDbEntity
  8
0
100
AcDbBlockBegin
  2
ZU_SYM__USERS_HOME_SYMBOL_STD_SYM_B01_-1
 70
    64
 10
0.0
 20
0.0
 30
0.0
  3
ZU_SYM__USERS_HOME_SYMBOL_STD_SYM_B01_-1
  1

  0
CIRCLE
  5
31F
100
AcDbEntity
  8
0
370
    -3
  6
Continuous
100
AcDbCircle
 10
0.0
 20
0.0
 30
0.0
 40
4.0
  0
LINE
  5
320
100
AcDbEntity
  8
0
370
    -3
  6
Continuous
100
AcDbLine
 10
2.299999
 20
-4.0
 30
0.0
 11
-2.299999
 21
-4.0
 31
0.0
  0
LINE
  5
321
100
AcDbEntity
  8
0
370
    -3
  6
Continuous
100
AcDbLine
 10
4.6
 20
-0.000001
 30
0.0
 11
2.300001
 21
-4.0
 31
0.0
  0
LINE
  5
322
100
AcDbEntity
  8
0
370
    -3
  6
Continuous
100
AcDbLine
 10
2.300001
 20
4.0
 30
0.0
 11
4.6
 21
0.000001
 31
0.0
  0
LINE
  5
323
100
AcDbEntity
  8
0
370
    -3
  6
Continuous
100
AcDbLine
 10
-2.299999
 20
4.0
 30
0.0
 11
2.299999
 21
4.0
 31
0.0
  0
LINE
  5
324
100
AcDbEntity
  8
0
370
    -3
  6
Continuous
100
AcDbLine
 10
-4.6
 20
0.000001
 30
0.0
 11
-2.300001
 21
4.0
 31
0.0
  0
LINE
  5
325
100
AcDbEntity
  8
0
370
    -3
  6
Continuous
100
AcDbLine
 10
-2.300001
 20
-4.0
 30
0.0
 11
-4.6
 21
-0.000001
 31
0.0
  0
POINT
  5
326
100
AcDbEntity
  8
0
370
    -3
  6
Continuous
100
AcDbPoint
 10
0.0
 20
0.0
 30
0.0
  0
ENDBLK
  5
327
100
AcDbEntity
  8
0
100
AcDbBlockEnd
  0
BLOCK
  5
32F
100
AcDbEntity
  8
0
100
AcDbBlockBegin
  2
ZU_SYM__USERS_HOME_SYMBOL_STD_SYM_B01_00001-1
 70
    64
 10
0.0
 20
0.0
 30
0.0
  3
ZU_SYM__USERS_HOME_SYMBOL_STD_SYM_B01_00001-1
  1

  0
CIRCLE
  5
330
100
AcDbEntity
  8
0
370
    -3
  6
Continuous
100
AcDbCircle
 10
0.0
 20
0.0
 30
0.0
 40
4.0
  0
LINE
  5
331
100
AcDbEntity
  8
0
370
    -3
  6
Continuous
100
AcDbLine
 10
2.299999
 20
-4.0
 30
0.0
 11
-2.299999
 21
-4.0
 31
0.0
  0
LINE
  5
332
100
AcDbEntity
  8
0
370
    -3
  6
Continuous
100
AcDbLine
 10
4.6
 20
-0.000001
 30
0.0
 11
2.300001
 21
-4.0
 31
0.0
  0
LINE
  5
333
100
AcDbEntity
  8
0
370
    -3
  6
Continuous
100
AcDbLine
 10
2.300001
 20
4.0
 30
0.0
 11
4.6
 21
0.000001
 31
0.0
  0
LINE
  5
334
100
AcDbEntity
  8
0
370
    -3
  6
Continuous
100
AcDbLine
 10
-2.299999
 20
4.0
 30
0.0
 11
2.299999
 21
4.0
 31
0.0
  0
LINE
  5
335
100
AcDbEntity
  8
0
370
    -3
  6
Continuous
100
AcDbLine
 10
-4.6
 20
0.000001
 30
0.0
 11
-2.300001
 21
4.0
 31
0.0
  0
LINE
  5
336
100
AcDbEntity
  8
0
370
    -3
  6
Continuous
100
AcDbLine
 10
-2.300001
 20
-4.0
 30
0.0
 11
-4.6
 21
-0.000001
 31
0.0
  0
POINT
  5
337
100
AcDbEntity
  8
0
370
    -3
  6
Continuous
100
AcDbPoint
 10
0.0
 20
0.0
 30
0.0
  0
ENDBLK
  5
338
100
AcDbEntity
  8
0
100
AcDbBlockEnd
  0
BLOCK
  5
33B
100
AcDbEntity
  8
0
100
AcDbBlockBegin
  2
ZU_SYM__USERS_HOME_SYMBOL_STD_SYM_B01_00002-1
 70
    64
 10
0.0
 20
0.0
 30
0.0
  3
ZU_SYM__USERS_HOME_SYMBOL_STD_SYM_B01_00002-1
  1

  0
CIRCLE
  5
33C
100
AcDbEntity
  8
0
370
    -3
  6
Continuous
100
AcDbCircle
 10
0.0
 20
0.0
 30
0.0
 40
4.0
  0
LINE
  5
33D
100
AcDbEntity
  8
0
370
    -3
  6
Continuous
100
AcDbLine
 10
2.299999
 20
-4.0
 30
0.0
 11
-2.299999
 21
-4.0
 31
0.0
  0
LINE
  5
33E
100
AcDbEntity
  8
0
370
    -3
  6
Continuous
100
AcDbLine
 10
4.6
 20
-0.000001
 30
0.0
 11
2.300001
 21
-4.0
 31
0.0
  0
LINE
  5
33F
100
AcDbEntity
  8
0
370
    -3
  6
Continuous
100
AcDbLine
 10
2.300001
 20
4.0
 30
0.0
 11
4.6
 21
0.000001
 31
0.0
  0
LINE
  5
340
100
AcDbEntity
  8
0
370
    -3
  6
Continuous
100
AcDbLine
 10
-2.299999
 20
4.0
 30
0.0
 11
2.299999
 21
4.0
 31
0.0
  0
LINE
  5
341
100
AcDbEntity
  8
0
370
    -3
  6
Continuous
100
AcDbLine
 10
-4.6
 20
0.000001
 30
0.0
 11
-2.300001
 21
4.0
 31
0.0
  0
LINE
  5
342
100
AcDbEntity
  8
0
370
    -3
  6
Continuous
100
AcDbLine
 10
-2.300001
 20
-4.0
 30
0.0
 11
-4.6
 21
-0.000001
 31
0.0
  0
POINT
  5
343
100
AcDbEntity
  8
0
370
    -3
  6
Continuous
100
AcDbPoint
 10
0.0
 20
0.0
 30
0.0
  0
ENDBLK
  5
344
100
AcDbEntity
  8
0
100
AcDbBlockEnd
  0
BLOCK
  5
347
100
AcDbEntity
  8
0
100
AcDbBlockBegin
  2
ZU_SYM__USERS_HOME_SYMBOL_STD_SYM_B01_00003-1
 70
    64
 10
0.0
 20
0.0
 30
0.0
  3
ZU_SYM__USERS_HOME_SYMBOL_STD_SYM_B01_00003-1
  1

  0
CIRCLE
  5
348
100
AcDbEntity
  8
0
370
    -3
  6
Continuous
100
AcDbCircle
 10
0.0
 20
0.0
 30
0.0
 40
4.0
  0
LINE
  5
349
100
AcDbEntity
  8
0
370
    -3
  6
Continuous
100
AcDbLine
 10
2.299999
 20
-4.0
 30
0.0
 11
-2.299999
 21
-4.0
 31
0.0
  0
LINE
  5
34A
100
AcDbEntity
  8
0
370
    -3
  6
Continuous
100
AcDbLine
 10
4.6
 20
-0.000001
 30
0.0
 11
2.300001
 21
-4.0
 31
0.0
  0
LINE
  5
34B
100
AcDbEntity
  8
0
370
    -3
  6
Continuous
100
AcDbLine
 10
2.300001
 20
4.0
 30
0.0
 11
4.6
 21
0.000001
 31
0.0
  0
LINE
  5
34C
100
AcDbEntity
  8
0
370
    -3
  6
Continuous
100
AcDbLine
 10
-2.299999
 20
4.0
 30
0.0
 11
2.299999
 21
4.0
 31
0.0
  0
LINE
  5
34D
100
AcDbEntity
  8
0
370
    -3
  6
Continuous
100
AcDbLine
 10
-4.6
 20
0.000001
 30
0.0
 11
-2.300001
 21
4.0
 31
0.0
  0
LINE
  5
34E
100
AcDbEntity
  8
0
370
    -3
  6
Continuous
100
AcDbLine
 10
-2.300001
 20
-4.0
 30
0.0
 11
-4.6
 21
-0.000001
 31
0.0
  0
POINT
  5
34F
100
AcDbEntity
  8
0
370
    -3
  6
Continuous
100
AcDbPoint
 10
0.0
 20
0.0
 30
0.0
  0
ENDBLK
  5
350
100
AcDbEntity
  8
0
100
AcDbBlockEnd
  0
BLOCK
  5
37C
100
AcDbEntity
  8
0
100
AcDbBlockBegin
  2
ZU_SYM__USERS_HOME_SYMBOL_STD_SYM_B01_00004-1
 70
    64
 10
0.0
 20
0.0
 30
0.0
  3
ZU_SYM__USERS_HOME_SYMBOL_STD_SYM_B01_00004-1
  1

  0
POINT
  5
37D
100
AcDbEntity
  8
0
370
    -3
  6
Continuous
100
AcDbPoint
 10
0.0
 20
0.0
 30
0.0
  0
LINE
  5
37E
100
AcDbEntity
  8
0
370
    -3
  6
Continuous
100
AcDbLine
 10
-0.000025
 20
-4.599994
 30
0.0
 11
-4.300015
 21
-4.599977
 31
0.0
  0
LINE
  5
37F
100
AcDbEntity
  8
0
370
    -3
  6
Continuous
100
AcDbLine
 10
-4.299996
 20
-4.599962
 30
0.0
 11
-4.79999
 21
-3.899959
 31
0.0
  0
LINE
  5
380
100
AcDbEntity
  8
0
370
    -3
  6
Continuous
100
AcDbLine
 10
-4.80001
 20
-3.899973
 30
0.0
 11
-4.799979
 21
3.900012
 31
0.0
  0
LINE
  5
381
100
AcDbEntity
  8
0
370
    -3
  6
Continuous
100
AcDbLine
 10
-4.799962
 20
3.900001
 30
0.0
 11
-4.299962
 21
4.599999
 31
0.0
  0
LINE
  5
382
100
AcDbEntity
  8
0
370
    -3
  6
Continuous
100
AcDbLine
 10
-4.299978
 20
4.600015
 30
0.0
 11
0.000013
 21
4.599998
 31
0.0
  0
LINE
  5
383
100
AcDbEntity
  8
0
370
    -3
  6
Continuous
100
AcDbLine
 10
0.000016
 20
4.599992
 30
0.0
 11
-0.000021
 21
-4.599992
 31
0.0
  0
LINE
  5
384
100
AcDbEntity
  8
0
370
    -3
  6
Continuous
100
AcDbLine
 10
-4.300006
 20
-2.29998
 30
0.0
 11
-1.300007
 21
-2.299992
 31
0.0
  0
LINE
  5
385
100
AcDbEntity
  8
0
370
    -3
  6
Continuous
100
AcDbLine
 10
-4.299987
 20
2.300014
 30
0.0
 11
-1.29999
 21
2.300004
 31
0.0
  0
ARC
  5
386
100
AcDbEntity
  8
0
370
    -3
  6
Continuous
100
AcDbCircle
 10
-3.230014
 20
-3.449986
 30
0.0
 40
1.57
100
AcDbArc
 50
132.899744
 51
179.999745
  0
ARC
  5
387
100
AcDbEntity
  8
0
370
    -3
  6
Continuous
100
AcDbCircle
 10
-3.229986
 20
3.450012
 30
0.0
 40
1.57
100
AcDbArc
 50
179.999745
 51
227.099746
  0
ARC
  5
388
100
AcDbEntity
  8
0
370
    -3
  6
Continuous
100
AcDbCircle
 10
0.740001
 20
-0.000003
 30
0.0
 40
5.539999
100
AcDbArc
 50
155.470187
 51
204.52925
  0
LINE
  5
389
100
AcDbEntity
  8
0
370
    -3
  6
Continuous
100
AcDbLine
 10
-1.300018
 20
-4.599993
 30
0.0
 11
-1.299981
 21
4.600004
 31
0.0
  0
LINE
  5
38A
100
AcDbEntity
  8
0
370
    -3
  6
Continuous
100
AcDbLine
 10
-1.3
 20
-0.299995
 30
0.0
 11
-0.000004
 21
-0.000001
 31
0.0
  0
LINE
  5
38B
100
AcDbEntity
  8
0
370
    -3
  6
Continuous
100
AcDbLine
 10
-1.299999
 20
0.300007
 30
0.0
 11
-0.000001
 21
0.600002
 31
0.0
  0
ENDBLK
  5
38C
100
AcDbEntity
  8
0
100
AcDbBlockEnd
  0
BLOCK
  5
390
100
AcDbEntity
  8
0
100
AcDbBlockBegin
  2
ZU_SYM__USERS_HOME_SYMBOL_STD_SYM_B01_00005-1
 70
    64
 10
0.0
 20
0.0
 30
0.0
  3
ZU_SYM__USERS_HOME_SYMBOL_STD_SYM_B01_00005-1
  1

  0
POINT
  5
391
100
AcDbEntity
  8
0
370
    -3
  6
Continuous
100
AcDbPoint
 10
0.0
 20
0.0
 30
0.0
  0
LINE
  5
392
100
AcDbEntity
  8
0
370
    -3
  6
Continuous
100
AcDbLine
 10
-0.000025
 20
-4.599994
 30
0.0
 11
-4.300015
 21
-4.599977
 31
0.0
  0
LINE
  5
393
100
AcDbEntity
  8
0
370
    -3
  6
Continuous
100
AcDbLine
 10
-4.299996
 20
-4.599962
 30
0.0
 11
-4.79999
 21
-3.899959
 31
0.0
  0
LINE
  5
394
100
AcDbEntity
  8
0
370
    -3
  6
Continuous
100
AcDbLine
 10
-4.80001
 20
-3.899973
 30
0.0
 11
-4.799979
 21
3.900012
 31
0.0
  0
LINE
  5
395
100
AcDbEntity
  8
0
370
    -3
  6
Continuous
100
AcDbLine
 10
-4.799962
 20
3.900001
 30
0.0
 11
-4.299962
 21
4.599999
 31
0.0
  0
LINE
  5
396
100
AcDbEntity
  8
0
370
    -3
  6
Continuous
100
AcDbLine
 10
-4.299978
 20
4.600015
 30
0.0
 11
0.000013
 21
4.599998
 31
0.0
  0
LINE
  5
397
100
AcDbEntity
  8
0
370
    -3
  6
Continuous
100
AcDbLine
 10
0.000016
 20
4.599992
 30
0.0
 11
-0.000021
 21
-4.599992
 31
0.0
  0
LINE
  5
398
100
AcDbEntity
  8
0
370
    -3
  6
Continuous
100
AcDbLine
 10
-4.300006
 20
-2.29998
 30
0.0
 11
-1.300007
 21
-2.299992
 31
0.0
  0
LINE
  5
399
100
AcDbEntity
  8
0
370
    -3
  6
Continuous
100
AcDbLine
 10
-4.299987
 20
2.300014
 30
0.0
 11
-1.29999
 21
2.300004
 31
0.0
  0
ARC
  5
39A
100
AcDbEntity
  8
0
370
    -3
  6
Continuous
100
AcDbCircle
 10
-3.230014
 20
-3.449986
 30
0.0
 40
1.57
100
AcDbArc
 50
132.899744
 51
179.999745
  0
ARC
  5
39B
100
AcDbEntity
  8
0
370
    -3
  6
Continuous
100
AcDbCircle
 10
-3.229986
 20
3.450012
 30
0.0
 40
1.57
100
AcDbArc
 50
179.999745
 51
227.099746
  0
ARC
  5
39C
100
AcDbEntity
  8
0
370
    -3
  6
Continuous
100
AcDbCircle
 10
0.740001
 20
-0.000003
 30
0.0
 40
5.539999
100
AcDbArc
 50
155.470187
 51
204.52925
  0
LINE
  5
39D
100
AcDbEntity
  8
0
370
    -3
  6
Continuous
100
AcDbLine
 10
-1.300018
 20
-4.599993
 30
0.0
 11
-1.299981
 21
4.600004
 31
0.0
  0
LINE
  5
39E
100
AcDbEntity
  8
0
370
    -3
  6
Continuous
100
AcDbLine
 10
-1.3
 20
-0.299995
 30
0.0
 11
-0.000004
 21
-0.000001
 31
0.0
  0
LINE
  5
39F
100
AcDbEntity
  8
0
370
    -3
  6
Continuous
100
AcDbLine
 10
-1.299999
 20
0.300007
 30
0.0
 11
-0.000001
 21
0.600002
 31
0.0
  0
ENDBLK
  5
3A0
100
AcDbEntity
  8
0
100
AcDbBlockEnd
  0
BLOCK
  5
3A3
100
AcDbEntity
  8
0
100
AcDbBlockBegin
  2
ZU_SYM__USERS_HOME_SYMBOL_STD_SYM_B01_00006-1
 70
    64
 10
0.0
 20
0.0
 30
0.0
  3
ZU_SYM__USERS_HOME_SYMBOL_STD_SYM_B01_00006-1
  1

  0
POINT
  5
3A4
100
AcDbEntity
  8
0
370
    -3
  6
Continuous
100
AcDbPoint
 10
0.0
 20
0.0
 30
0.0
  0
LINE
  5
3A5
100
AcDbEntity
  8
0
370
    -3
  6
Continuous
100
AcDbLine
 10
-0.000025
 20
-4.599994
 30
0.0
 11
-4.300015
 21
-4.599977
 31
0.0
  0
LINE
  5
3A6
100
AcDbEntity
  8
0
370
    -3
  6
Continuous
100
AcDbLine
 10
-4.299996
 20
-4.599962
 30
0.0
 11
-4.79999
 21
-3.899959
 31
0.0
  0
LINE
  5
3A7
100
AcDbEntity
  8
0
370
    -3
  6
Continuous
100
AcDbLine
 10
-4.80001
 20
-3.899973
 30
0.0
 11
-4.799979
 21
3.900012
 31
0.0
  0
LINE
  5
3A8
100
AcDbEntity
  8
0
370
    -3
  6
Continuous
100
AcDbLine
 10
-4.799962
 20
3.900001
 30
0.0
 11
-4.299962
 21
4.599999
 31
0.0
  0
LINE
  5
3A9
100
AcDbEntity
  8
0
370
    -3
  6
Continuous
100
AcDbLine
 10
-4.299978
 20
4.600015
 30
0.0
 11
0.000013
 21
4.599998
 31
0.0
  0
LINE
  5
3AA
100
AcDbEntity
  8
0
370
    -3
  6
Continuous
100
AcDbLine
 10
0.000016
 20
4.599992
 30
0.0
 11
-0.000021
 21
-4.599992
 31
0.0
  0
LINE
  5
3AB
100
AcDbEntity
  8
0
370
    -3
  6
Continuous
100
AcDbLine
 10
-4.300006
 20
-2.29998
 30
0.0
 11
-1.300007
 21
-2.299992
 31
0.0
  0
LINE
  5
3AC
100
AcDbEntity
  8
0
370
    -3
  6
Continuous
100
AcDbLine
 10
-4.299987
 20
2.300014
 30
0.0
 11
-1.29999
 21
2.300004
 31
0.0
  0
ARC
  5
3AD
100
AcDbEntity
  8
0
370
    -3
  6
Continuous
100
AcDbCircle
 10
-3.230014
 20
-3.449986
 30
0.0
 40
1.57
100
AcDbArc
 50
132.899744
 51
179.999745
  0
ARC
  5
3AE
100
AcDbEntity
  8
0
370
    -3
  6
Continuous
100
AcDbCircle
 10
-3.229986
 20
3.450012
 30
0.0
 40
1.57
100
AcDbArc
 50
179.999745
 51
227.099746
  0
ARC
  5
3AF
100
AcDbEntity
  8
0
370
    -3
  6
Continuous
100
AcDbCircle
 10
0.740001
 20
-0.000003
 30
0.0
 40
5.539999
100
AcDbArc
 50
155.470187
 51
204.52925
  0
LINE
  5
3B0
100
AcDbEntity
  8
0
370
    -3
  6
Continuous
100
AcDbLine
 10
-1.300018
 20
-4.599993
 30
0.0
 11
-1.299981
 21
4.600004
 31
0.0
  0
LINE
  5
3B1
100
AcDbEntity
  8
0
370
    -3
  6
Continuous
100
AcDbLine
 10
-1.3
 20
-0.299995
 30
0.0
 11
-0.000004
 21
-0.000001
 31
0.0
  0
LINE
  5
3B2
100
AcDbEntity
  8
0
370
    -3
  6
Continuous
100
AcDbLine
 10
-1.299999
 20
0.300007
 30
0.0
 11
-0.000001
 21
0.600002
 31
0.0
  0
ENDBLK
  5
3B3
100
AcDbEntity
  8
0
100
AcDbBlockEnd
  0
BLOCK
  5
3B6
100
AcDbEntity
  8
0
100
AcDbBlockBegin
  2
ZU_SYM__USERS_HOME_SYMBOL_STD_SYM_B01_00007-1
 70
    64
 10
0.0
 20
0.0
 30
0.0
  3
ZU_SYM__USERS_HOME_SYMBOL_STD_SYM_B01_00007-1
  1

  0
POINT
  5
3B7
100
AcDbEntity
  8
0
370
    -3
  6
Continuous
100
AcDbPoint
 10
0.0
 20
0.0
 30
0.0
  0
LINE
  5
3B8
100
AcDbEntity
  8
0
370
    -3
  6
Continuous
100
AcDbLine
 10
-0.000025
 20
-4.599994
 30
0.0
 11
-4.300015
 21
-4.599977
 31
0.0
  0
LINE
  5
3B9
100
AcDbEntity
  8
0
370
    -3
  6
Continuous
100
AcDbLine
 10
-4.299996
 20
-4.599962
 30
0.0
 11
-4.79999
 21
-3.899959
 31
0.0
  0
LINE
  5
3BA
100
AcDbEntity
  8
0
370
    -3
  6
Continuous
100
AcDbLine
 10
-4.80001
 20
-3.899973
 30
0.0
 11
-4.799979
 21
3.900012
 31
0.0
  0
LINE
  5
3BB
100
AcDbEntity
  8
0
370
    -3
  6
Continuous
100
AcDbLine
 10
-4.799962
 20
3.900001
 30
0.0
 11
-4.299962
 21
4.599999
 31
0.0
  0
LINE
  5
3BC
100
AcDbEntity
  8
0
370
    -3
  6
Continuous
100
AcDbLine
 10
-4.299978
 20
4.600015
 30
0.0
 11
0.000013
 21
4.599998
 31
0.0
  0
LINE
  5
3BD
100
AcDbEntity
  8
0
370
    -3
  6
Continuous
100
AcDbLine
 10
0.000016
 20
4.599992
 30
0.0
 11
-0.000021
 21
-4.599992
 31
0.0
  0
LINE
  5
3BE
100
AcDbEntity
  8
0
370
    -3
  6
Continuous
100
AcDbLine
 10
-4.300006
 20
-2.29998
 30
0.0
 11
-1.300007
 21
-2.299992
 31
0.0
  0
LINE
  5
3BF
100
AcDbEntity
  8
0
370
    -3
  6
Continuous
100
AcDbLine
 10
-4.299987
 20
2.300014
 30
0.0
 11
-1.29999
 21
2.300004
 31
0.0
  0
ARC
  5
3C0
100
AcDbEntity
  8
0
370
    -3
  6
Continuous
100
AcDbCircle
 10
-3.230014
 20
-3.449986
 30
0.0
 40
1.57
100
AcDbArc
 50
132.899744
 51
179.999745
  0
ARC
  5
3C1
100
AcDbEntity
  8
0
370
    -3
  6
Continuous
100
AcDbCircle
 10
-3.229986
 20
3.450012
 30
0.0
 40
1.57
100
AcDbArc
 50
179.999745
 51
227.099746
  0
ARC
  5
3C2
100
AcDbEntity
  8
0
370
    -3
  6
Continuous
100
AcDbCircle
 10
0.740001
 20
-0.000003
 30
0.0
 40
5.539999
100
AcDbArc
 50
155.470187
 51
204.52925
  0
LINE
  5
3C3
100
AcDbEntity
  8
0
370
    -3
  6
Continuous
100
AcDbLine
 10
-1.300018
 20
-4.599993
 30
0.0
 11
-1.299981
 21
4.600004
 31
0.0
  0
LINE
  5
3C4
100
AcDbEntity
  8
0
370
    -3
  6
Continuous
100
AcDbLine
 10
-1.3
 20
-0.299995
 30
0.0
 11
-0.000004
 21
-0.000001
 31
0.0
  0
LINE
  5
3C5
100
AcDbEntity
  8
0
370
    -3
  6
Continuous
100
AcDbLine
 10
-1.299999
 20
0.300007
 30
0.0
 11
-0.000001
 21
0.600002
 31
0.0
  0
ENDBLK
  5
3C6
100
AcDbEntity
  8
0
100
AcDbBlockEnd
  0
ENDSEC
  0
SECTION
  2
ENTITIES
  0
ARC
  5
2A
100
AcDbEntity
  8
0
370
    -3
  6
Continuous
100
AcDbCircle
 10
-487.713238
 20
-66.404292
 30
0.0
 40
5.25
100
AcDbArc
 50
120.763962
 51
180.0
  0
ARC
  5
2B
100
AcDbEntity
  8
0
370
    -3
  6
Continuous
100
AcDbCircle
 10
-487.71327
 20
-66.404292
 30
0.0
 40
4.249999
100
AcDbArc
 50
128.129742
 51
94.43898
  0
LINE
  5
2C
100
AcDbEntity
  8
0
370
    -3
  6
Continuous
100
AcDbLine
 10
-489.713268
 20
-67.558988
 30
0.0
 11
-489.713269
 21
-66.2703
 31
0.0
  0
LINE
  5
2D
100
AcDbEntity
  8
0
370
    -3
  6
Continuous
100
AcDbLine
 10
-487.713273
 20
-68.713689
 30
0.0
 11
-489.713267
 21
-67.558988
 31
0.0
  0
LINE
  5
2E
100
AcDbEntity
  8
0
370
    -3
  6
Continuous
100
AcDbLine
 10
-485.713272
 20
-67.558991
 30
0.0
 11
-487.713272
 21
-68.713689
 31
0.0
  0
LINE
  5
2F
100
AcDbEntity
  8
0
370
    -3
  6
Continuous
100
AcDbLine
 10
-485.713273
 20
-65.249597
 30
0.0
 11
-485.713272
 21
-67.558991
 31
0.0
  0
LINE
  5
30
100
AcDbEntity
  8
0
370
    -3
  6
Continuous
100
AcDbLine
 10
-488.156659
 20
-64.350884
 30
0.0
 11
-487.713268
 21
-64.094893
 31
0.0
  0
LINE
  5
31
100
AcDbEntity
  8
0
370
    -3
  6
Continuous
100
AcDbLine
 10
-485.713272
 20
-65.249596
 30
0.0
 11
-487.713268
 21
-64.094893
 31
0.0
  0
ARC
  5
32
100
AcDbEntity
  8
0
370
    -3
  6
Continuous
100
AcDbCircle
 10
365.374059
 20
-15.904292
 30
0.0
 40
700.0
100
AcDbArc
 50
175.85105
 51
176.166643
  0
ARC
  5
33
100
AcDbEntity
  8
0
370
    -3
  6
Continuous
100
AcDbCircle
 10
-330.796717
 20
34.595708
 30
0.0
 40
2.0
100
AcDbArc
 50
90.0
 51
175.85105
  0
LINE
  5
34
100
AcDbEntity
  8
0
370
    -3
  6
Continuous
100
AcDbLine
 10
-328.125941
 20
36.595708
 30
0.0
 11
-330.796717
 21
36.595708
 31
0.0
  0
ARC
  5
35
100
AcDbEntity
  8
0
370
    -3
  6
Continuous
100
AcDbCircle
 10
365.374059
 20
-15.904292
 30
0.0
 40
700.0
100
AcDbArc
 50
183.795679
 51
184.14895
  0
LINE
  5
36
100
AcDbEntity
  8
0
370
    -3
  6
Continuous
100
AcDbLine
 10
-328.125941
 20
-66.154292
 30
0.0
 11
-328.125941
 21
-62.704292
 31
0.0
  0
LINE
  5
37
100
AcDbEntity
  8
0
370
    -3
  6
Continuous
100
AcDbLine
 10
-328.125941
 20
-67.654292
 30
0.0
 11
-328.125941
 21
-68.404292
 31
0.0
  0
ARC
  5
38
100
AcDbEntity
  8
0
370
    -3
  6
Continuous
100
AcDbCircle
 10
-330.796717
 20
-66.404292
 30
0.0
 40
2.0
100
AcDbArc
 50
184.14895
 51
270.0
  0
LINE
  5
39
100
AcDbEntity
  8
0
370
    -3
  6
Continuous
100
AcDbLine
 10
-328.125941
 20
-68.404292
 30
0.0
 11
-330.796717
 21
-68.404292
 31
0.0
  0
LINE
  5
3A
100
AcDbEntity
  8
0
370
    -3
  6
Continuous
100
AcDbLine
 10
-328.125941
 20
-68.404292
 30
0.0
 11
-328.125941
 21
-66.154292
 31
0.0
  0
LINE
  5
3B
100
AcDbEntity
  8
0
370
    -3
  6
Continuous
100
AcDbLine
 10
-328.125941
 20
36.595708
 30
0.0
 11
-328.125941
 21
30.895708
 31
0.0
  0
LINE
  5
3C
100
AcDbEntity
  8
0
370
    -3
  6
Continuous
100
AcDbLine
 10
-214.125941
 20
36.595708
 30
0.0
 11
-214.125941
 21
-15.904292
 31
0.0
  0
LINE
  5
3D
100
AcDbEntity
  8
0
370
    -3
  6
Continuous
100
AcDbLine
 10
-328.125941
 20
35.095708
 30
0.0
 11
-214.125941
 21
35.095708
 31
0.0
  0
LINE
  5
3E
100
AcDbEntity
  8
0
370
    -3
  6
Continuous
100
AcDbLine
 10
-328.125941
 20
34.595708
 30
0.0
 11
-214.125941
 21
34.595708
 31
0.0
  0
LINE
  5
3F
100
AcDbEntity
  8
0
370
    -3
  6
Continuous
100
AcDbLine
 10
-214.125941
 20
36.595708
 30
0.0
 11
-328.125941
 21
36.595708
 31
0.0
  0
LINE
  5
40
100
AcDbEntity
  8
0
370
    -3
  6
Continuous
100
AcDbLine
 10
-214.125941
 20
-59.33262
 30
0.0
 11
-214.125941
 21
-15.904292
 31
0.0
  0
LINE
  5
41
100
AcDbEntity
  8
0
370
    -3
  6
Continuous
100
AcDbLine
 10
-328.125941
 20
-66.904292
 30
0.0
 11
-215.125941
 21
-66.904292
 31
0.0
  0
LINE
  5
42
100
AcDbEntity
  8
0
370
    -3
  6
Continuous
100
AcDbLine
 10
-328.125941
 20
-66.404292
 30
0.0
 11
-215.125941
 21
-66.404292
 31
0.0
  0
LINE
  5
43
100
AcDbEntity
  8
0
370
    -3
  6
Continuous
100
AcDbLine
 10
-215.125941
 20
-68.404292
 30
0.0
 11
-328.125941
 21
-68.404292
 31
0.0
  0
LINE
  5
44
100
AcDbEntity
  8
0
370
    -3
  6
Continuous
100
AcDbLine
 10
-242.361132
 20
24.528156
 30
0.0
 11
-214.125941
 21
24.528156
 31
0.0
  0
LINE
  5
45
100
AcDbEntity
  8
0
370
    -3
  6
Continuous
100
AcDbLine
 10
-242.228472
 20
17.195503
 30
0.0
 11
-214.125941
 21
17.195503
 31
0.0
  0
LINE
  5
46
100
AcDbEntity
  8
0
370
    -3
  6
Continuous
100
AcDbLine
 10
-242.228472
 20
15.995914
 30
0.0
 11
-214.125941
 21
15.995914
 31
0.0
  0
LINE
  5
47
100
AcDbEntity
  8
0
370
    -3
  6
Continuous
100
AcDbLine
 10
-242.228472
 20
12.695503
 30
0.0
 11
-214.125941
 21
12.695503
 31
0.0
  0
LINE
  5
48
100
AcDbEntity
  8
0
370
    -3
  6
Continuous
100
AcDbLine
 10
-242.228472
 20
11.495914
 30
0.0
 11
-225.983331
 21
11.495914
 31
0.0
  0
LINE
  5
49
100
AcDbEntity
  8
0
370
    -3
  6
Continuous
100
AcDbLine
 10
-242.228472
 20
8.195503
 30
0.0
 11
-214.125941
 21
8.195503
 31
0.0
  0
LINE
  5
4A
100
AcDbEntity
  8
0
370
    -3
  6
Continuous
100
AcDbLine
 10
-328.125941
 20
31.422305
 30
0.0
 11
-214.125941
 21
31.422305
 31
0.0
  0
LINE
  5
4B
100
AcDbEntity
  8
0
370
    -3
  6
Continuous
100
AcDbLine
 10
-242.228472
 20
6.995914
 30
0.0
 11
-214.125941
 21
6.995914
 31
0.0
  0
LINE
  5
4C
100
AcDbEntity
  8
0
370
    -3
  6
Continuous
100
AcDbLine
 10
-231.125941
 20
11.495914
 30
0.0
 11
-214.125941
 21
11.495914
 31
0.0
  0
LINE
  5
4D
100
AcDbEntity
  8
0
370
    -3
  6
Continuous
100
AcDbLine
 10
-242.228472
 20
-38.804497
 30
0.0
 11
-231.125941
 21
-38.804497
 31
0.0
  0
LINE
  5
4E
100
AcDbEntity
  8
0
370
    -3
  6
Continuous
100
AcDbLine
 10
-242.228472
 20
-40.004086
 30
0.0
 11
-214.125941
 21
-40.004086
 31
0.0
  0
LINE
  5
4F
100
AcDbEntity
  8
0
370
    -3
  6
Continuous
100
AcDbLine
 10
-242.228472
 20
-43.304497
 30
0.0
 11
-222.625941
 21
-43.304497
 31
0.0
  0
LINE
  5
50
100
AcDbEntity
  8
0
370
    -3
  6
Continuous
100
AcDbLine
 10
-242.228472
 20
-44.504086
 30
0.0
 11
-214.125941
 21
-44.504086
 31
0.0
  0
LINE
  5
51
100
AcDbEntity
  8
0
370
    -3
  6
Continuous
100
AcDbLine
 10
-242.228472
 20
-47.804497
 30
0.0
 11
-214.125941
 21
-47.804497
 31
0.0
  0
LINE
  5
52
100
AcDbEntity
  8
0
370
    -3
  6
Continuous
100
AcDbLine
 10
-242.228472
 20
-49.004086
 30
0.0
 11
-214.125941
 21
-49.004086
 31
0.0
  0
LINE
  5
53
100
AcDbEntity
  8
0
370
    -3
  6
Continuous
100
AcDbLine
 10
-242.361132
 20
-56.336739
 30
0.0
 11
-214.125941
 21
-56.336739
 31
0.0
  0
LINE
  5
54
100
AcDbEntity
  8
0
370
    -3
  6
Continuous
100
AcDbLine
 10
-231.125941
 20
-43.304497
 30
0.0
 11
-214.125941
 21
-43.304497
 31
0.0
  0
LINE
  5
55
100
AcDbEntity
  8
0
370
    -3
  6
Continuous
100
AcDbLine
 10
-328.125941
 20
-63.230889
 30
0.0
 11
-215.125941
 21
-63.230889
 31
0.0
  0
LINE
  5
56
100
AcDbEntity
  8
0
370
    -3
  6
Continuous
100
AcDbLine
 10
-231.125941
 20
-38.804497
 30
0.0
 11
-214.125941
 21
-38.804497
 31
0.0
  0
LINE
  5
57
100
AcDbEntity
  8
0
370
    -3
  6
Continuous
100
AcDbLine
 10
-242.228472
 20
2.845708
 30
0.0
 11
-214.125941
 21
2.845708
 31
0.0
  0
LINE
  5
58
100
AcDbEntity
  8
0
370
    -3
  6
Continuous
100
AcDbLine
 10
-242.228472
 20
-34.654292
 30
0.0
 11
-214.125941
 21
-34.654292
 31
0.0
  0
MTEXT
  5
5A
100
AcDbEntity
  8
0
370
    -3
  6
Continuous
100
AcDbMText
 10
-70.375488
 20
6.84375
 30
0.0
 40
2.8
 41
0.0
 71
     7
 72
     1
  1
\W0.83;　
  7
ZU_SHPTB00001
 11
1.0
 21
0.0
 31
0.0
 73
     1
 44
1.0
  0
ARC
  5
5B
100
AcDbEntity
  8
0
370
    -3
  6
Continuous
100
AcDbCircle
 10
55.345207
 20
-0.904292
 30
0.0
 40
15.0
100
AcDbArc
 50
29.495546
 51
74.3273
  0
ARC
  5
5C
100
AcDbEntity
  8
0
370
    -3
  6
Continuous
100
AcDbCircle
 10
55.345207
 20
-0.904292
 30
0.0
 40
20.0
100
AcDbArc
 50
301.817286
 51
33.739347
  0
LINE
  5
5D
100
AcDbEntity
  8
0
370
    -3
  6
CENTER
100
AcDbLine
 10
55.345207
 20
44.508863
 30
0.0
 11
55.345207
 21
-72.608307
 31
0.0
  0
LINE
  5
5E
100
AcDbEntity
  8
0
370
    -3
  6
Continuous
100
AcDbLine
 10
45.3452
 20
1.595708
 30
0.0
 11
50.3452
 21
1.595708
 31
0.0
  0
ARC
  5
5F
100
AcDbEntity
  8
0
370
    -3
  6
Continuous
100
AcDbCircle
 10
55.3452
 20
-0.904292
 30
0.0
 40
8.0
100
AcDbArc
 50
198.209957
 51
161.789969
  0
LINE
  5
60
100
AcDbEntity
  8
0
370
    -3
  6
Continuous
100
AcDbLine
 10
50.3452
 20
1.595708
 30
0.0
 11
50.3452
 21
-3.404292
 31
0.0
  0
LINE
  5
61
100
AcDbEntity
  8
0
370
    -3
  6
Continuous
100
AcDbLine
 10
45.3452
 20
-3.404292
 30
0.0
 11
50.3452
 21
-3.404292
 31
0.0
  0
LINE
  5
62
100
AcDbEntity
  8
0
370
    -3
  6
Continuous
100
AcDbLine
 10
-108.125941
 20
-3.404292
 30
0.0
 11
-129.625941
 21
-3.404292
 31
0.0
  0
LINE
  5
63
100
AcDbEntity
  8
0
370
    -3
  6
Continuous
100
AcDbLine
 10
-108.125941
 20
1.595708
 30
0.0
 11
-129.625941
 21
1.595708
 31
0.0
  0
ARC
  5
64
100
AcDbEntity
  8
0
370
    -3
  6
Continuous
100
AcDbCircle
 10
-129.625941
 20
-0.904292
 30
0.0
 40
2.5
100
AcDbArc
 50
90.0
 51
270.0
  0
LINE
  5
65
100
AcDbEntity
  8
0
370
    -3
  6
Continuous
100
AcDbLine
 10
-137.125941
 20
-58.198757
 30
0.0
 11
-137.125941
 21
-0.904292
 31
0.0
  0
ARC
  5
66
100
AcDbEntity
  8
0
370
    -3
  6
Continuous
100
AcDbCircle
 10
-175.870916
 20
-9.345264
 30
0.0
 40
50.0
100
AcDbArc
 50
40.046697
 51
88.0
  0
ARC
  5
67
100
AcDbEntity
  8
0
370
    -3
  6
Continuous
100
AcDbCircle
 10
-139.125941
 20
21.538499
 30
0.0
 40
2.0
100
AcDbArc
 50
0.0
 51
40.046697
  0
ARC
  5
68
100
AcDbEntity
  8
0
370
    -3
  6
Continuous
100
AcDbCircle
 10
-136.125941
 20
18.095708
 30
0.0
 40
1.0
100
AcDbArc
 50
0.0
 51
90.0
  0
ARC
  5
69
100
AcDbEntity
  8
0
370
    -3
  6
Continuous
100
AcDbCircle
 10
-136.125941
 20
20.095708
 30
0.0
 40
1.0
100
AcDbArc
 50
180.0
 51
270.0
  0
ARC
  5
6A
100
AcDbEntity
  8
0
370
    -3
  6
Continuous
100
AcDbCircle
 10
-136.125941
 20
-19.904292
 30
0.0
 40
1.0
100
AcDbArc
 50
270.0
 51
0.0
  0
ARC
  5
6B
100
AcDbEntity
  8
0
370
    -3
  6
Continuous
100
AcDbCircle
 10
-136.125941
 20
-21.904292
 30
0.0
 40
1.0
100
AcDbArc
 50
90.0
 51
180.0
  0
LINE
  5
6C
100
AcDbEntity
  8
0
370
    -3
  6
Continuous
100
AcDbLine
 10
-137.125941
 20
21.538499
 30
0.0
 11
-137.125941
 21
-0.904292
 31
0.0
  0
LINE
  5
6D
100
AcDbEntity
  8
0
370
    -3
  6
Continuous
100
AcDbLine
 10
-135.125941
 20
-0.904292
 30
0.0
 11
-135.125941
 21
-19.904292
 31
0.0
  0
LINE
  5
6E
100
AcDbEntity
  8
0
370
    -3
  6
Continuous
100
AcDbLine
 10
-135.125941
 20
-0.904292
 30
0.0
 11
-135.125941
 21
18.095708
 31
0.0
  0
LINE
  5
6F
100
AcDbEntity
  8
0
370
    -3
  6
Continuous
100
AcDbLine
 10
-139.471205
 20
-56.863051
 30
0.0
 11
-139.471205
 21
-1.43189
 31
0.0
  0
ELLIPSE
  5
70
100
AcDbEntity
  8
0
370
    -3
  6
Continuous
100
AcDbEllipse
 10
-147.271205
 20
-1.43189
 30
0.0
 11
0.0
 21
13.639005601273851
 31
0.0
210
0.0
220
0.0
230
1.0
 40
0.571889
 41
4.7123889803846897
 42
1.5707963719709634
  0
LINE
  5
71
100
AcDbEntity
  8
0
370
    -3
  6
Continuous
100
AcDbLine
 10
-133.425941
 20
7.595716
 30
0.0
 11
-133.122333
 21
7.292108
 31
0.0
  0
ARC
  5
72
100
AcDbEntity
  8
0
370
    -3
  6
Continuous
100
AcDbCircle
 10
-132.725941
 20
7.345708
 30
0.0
 40
0.4
100
AcDbArc
 50
187.700804
 51
270.0
  0
LINE
  5
73
100
AcDbEntity
  8
0
370
    -3
  6
Continuous
100
AcDbLine
 10
-130.566133
 20
6.945708
 30
0.0
 11
-130.006326
 21
7.095708
 31
0.0
  0
LINE
  5
74
100
AcDbEntity
  8
0
370
    -3
  6
Continuous
100
AcDbLine
 10
-130.566133
 20
6.945708
 30
0.0
 11
-132.725941
 21
6.945708
 31
0.0
  0
ARC
  5
75
100
AcDbEntity
  8
0
370
    -3
  6
Continuous
100
AcDbCircle
 10
-108.525941
 20
6.695708
 30
0.0
 40
0.4
100
AcDbArc
 50
0.0
 51
90.0
  0
LINE
  5
76
100
AcDbEntity
  8
0
370
    -3
  6
Continuous
100
AcDbLine
 10
-108.525941
 20
7.095708
 30
0.0
 11
-130.006326
 21
7.095708
 31
0.0
  0
LINE
  5
77
100
AcDbEntity
  8
0
370
    -3
  6
Continuous
100
AcDbLine
 10
-133.125941
 20
-0.904292
 30
0.0
 11
-133.125941
 21
7.295716
 31
0.0
  0
LINE
  5
78
100
AcDbEntity
  8
0
370
    -3
  6
Continuous
100
AcDbLine
 10
-133.425941
 20
-9.404299
 30
0.0
 11
-133.122333
 21
-9.100692
 31
0.0
  0
ARC
  5
79
100
AcDbEntity
  8
0
370
    -3
  6
Continuous
100
AcDbCircle
 10
-132.725941
 20
-9.154292
 30
0.0
 40
0.4
100
AcDbArc
 50
90.0
 51
172.299196
  0
LINE
  5
7A
100
AcDbEntity
  8
0
370
    -3
  6
Continuous
100
AcDbLine
 10
-130.566133
 20
-8.754292
 30
0.0
 11
-130.006326
 21
-8.904292
 31
0.0
  0
LINE
  5
7B
100
AcDbEntity
  8
0
370
    -3
  6
Continuous
100
AcDbLine
 10
-130.566133
 20
-8.754292
 30
0.0
 11
-132.725941
 21
-8.754292
 31
0.0
  0
ARC
  5
7C
100
AcDbEntity
  8
0
370
    -3
  6
Continuous
100
AcDbCircle
 10
-108.525941
 20
-8.504292
 30
0.0
 40
0.4
100
AcDbArc
 50
270.0
 51
0.0
  0
LINE
  5
7D
100
AcDbEntity
  8
0
370
    -3
  6
Continuous
100
AcDbLine
 10
-108.525941
 20
-8.904292
 30
0.0
 11
-130.006326
 21
-8.904292
 31
0.0
  0
LINE
  5
7E
100
AcDbEntity
  8
0
370
    -3
  6
Continuous
100
AcDbLine
 10
-133.125941
 20
-0.904292
 30
0.0
 11
-133.125941
 21
-9.104299
 31
0.0
  0
LINE
  5
7F
100
AcDbEntity
  8
0
370
    -3
  6
Continuous
100
AcDbLine
 10
-108.125941
 20
-0.904292
 30
0.0
 11
-108.125941
 21
-8.504292
 31
0.0
  0
LINE
  5
80
100
AcDbEntity
  8
0
370
    -3
  6
Continuous
100
AcDbLine
 10
-108.125941
 20
-0.904292
 30
0.0
 11
-108.125941
 21
6.695708
 31
0.0
  0
LINE
  5
81
100
AcDbEntity
  8
0
370
    -3
  6
CENTER
100
AcDbLine
 10
-103.257535
 20
-0.904292
 30
0.0
 11
-162.180091
 21
-0.904292
 31
0.0
  0
LINE
  5
82
100
AcDbEntity
  8
0
370
    -3
  6
Continuous
100
AcDbLine
 10
-135.125941
 20
7.595716
 30
0.0
 11
-133.425941
 21
7.595716
 31
0.0
  0
LINE
  5
83
100
AcDbEntity
  8
0
370
    -3
  6
Continuous
100
AcDbLine
 10
-135.125941
 20
-9.404299
 30
0.0
 11
-133.425941
 21
-9.404299
 31
0.0
  0
LINE
  5
84
100
AcDbEntity
  8
0
370
    -3
  6
Continuous
100
AcDbLine
 10
45.3452
 20
1.595708
 30
0.0
 11
45.3452
 21
-3.404292
 31
0.0
  0
LINE
  5
85
100
AcDbEntity
  8
0
370
    -3
  6
Continuous
100
AcDbLine
 10
-194.625941
 20
-11.153917
 30
0.0
 11
-194.625941
 21
-58.307911
 31
0.0
  0
LINE
  5
86
100
AcDbEntity
  8
0
370
    -3
  6
Continuous
100
AcDbLine
 10
-194.625941
 20
34.702326
 30
0.0
 11
-194.625941
 21
-2.653919
 31
0.0
  0
LINE
  5
87
100
AcDbEntity
  8
0
370
    -3
  6
Continuous
100
AcDbLine
 10
-197.62594
 20
28.845709
 30
0.0
 11
-197.62594
 21
37.345707
 31
0.0
  0
LINE
  5
88
100
AcDbEntity
  8
0
370
    -3
  6
Continuous
100
AcDbLine
 10
-192.62594
 20
37.345707
 30
0.0
 11
-197.62594
 21
37.345707
 31
0.0
  0
LINE
  5
89
100
AcDbEntity
  8
0
370
    -3
  6
Continuous
100
AcDbLine
 10
-194.625941
 20
28.845709
 30
0.0
 11
-197.62594
 21
28.845709
 31
0.0
  0
INSERT
  5
92
100
AcDbEntity
  8
0
100
AcDbBlockReference
  2
ZU_SYM__USERS_HOME_SYMBOL_POO_SYM_B20_-1
 10
-192.625941
 20
-6.903918
 30
0.0
  0
ARC
  5
93
100
AcDbEntity
  8
0
370
    -3
  6
Continuous
100
AcDbCircle
 10
-194.125941
 20
40.47382
 30
0.0
 40
0.5
100
AcDbArc
 50
91.0
 51
180.0
  0
ARC
  5
94
100
AcDbEntity
  8
0
370
    -3
  6
Continuous
100
AcDbCircle
 10
-195.625941
 20
38.093583
 30
0.0
 40
1.0
100
AcDbArc
 50
311.593254
 51
0.0
  0
LINE
  5
95
100
AcDbEntity
  8
0
370
    -3
  6
Continuous
100
AcDbLine
 10
-194.134667
 20
40.973744
 30
0.0
 11
-187.125941
 21
41.096082
 31
0.0
  0
LINE
  5
96
100
AcDbEntity
  8
0
370
    -3
  6
Continuous
100
AcDbLine
 10
-197.62594
 20
37.040869
 30
0.0
 11
-214.125941
 21
36.608801
 31
0.0
  0
LINE
  5
97
100
AcDbEntity
  8
0
370
    -3
  6
Continuous
100
AcDbLine
 10
-194.625941
 20
40.47382
 30
0.0
 11
-194.625941
 21
37.345707
 31
0.0
  0
LINE
  5
98
100
AcDbEntity
  8
0
370
    -3
  6
Continuous
100
AcDbLine
 10
-212.678205
 20
35.092969
 30
0.0
 11
-197.62594
 21
35.881825
 31
0.0
  0
ARC
  5
99
100
AcDbEntity
  8
0
370
    -3
  6
Continuous
100
AcDbCircle
 10
-212.625941
 20
34.595708
 30
0.0
 40
0.5
100
AcDbArc
 50
90.0
 51
180.0
  0
LINE
  5
9A
100
AcDbEntity
  8
0
370
    -3
  6
Continuous
100
AcDbLine
 10
-213.125941
 20
16.695708
 30
0.0
 11
-213.125941
 21
16.495708
 31
0.0
  0
LINE
  5
9B
100
AcDbEntity
  8
0
370
    -3
  6
Continuous
100
AcDbLine
 10
-214.125941
 20
36.595708
 30
0.0
 11
-214.125941
 21
-59.33262
 31
0.0
  0
ARC
  5
9C
100
AcDbEntity
  8
0
370
    -3
  6
Continuous
100
AcDbCircle
 10
-197.125941
 20
9.595708
 30
0.0
 40
0.5
100
AcDbArc
 50
90.0
 51
180.0
  0
ARC
  5
9D
100
AcDbEntity
  8
0
370
    -3
  6
Continuous
100
AcDbCircle
 10
-195.125941
 20
10.595708
 30
0.0
 40
0.5
100
AcDbArc
 50
270.0
 51
0.0
  0
ARC
  5
9E
100
AcDbEntity
  8
0
370
    -3
  6
Continuous
100
AcDbCircle
 10
-195.125941
 20
-0.404292
 30
0.0
 40
0.5
100
AcDbArc
 50
0.0
 51
90.0
  0
ARC
  5
9F
100
AcDbEntity
  8
0
370
    -3
  6
Continuous
100
AcDbCircle
 10
-197.125941
 20
0.595708
 30
0.0
 40
0.5
100
AcDbArc
 50
180.0
 51
270.0
  0
LINE
  5
A0
100
AcDbEntity
  8
0
370
    -3
  6
Continuous
100
AcDbLine
 10
-197.625941
 20
9.595708
 30
0.0
 11
-197.625941
 21
5.095708
 31
0.0
  0
LINE
  5
A1
100
AcDbEntity
  8
0
370
    -3
  6
Continuous
100
AcDbLine
 10
-197.125941
 20
10.095708
 30
0.0
 11
-195.125941
 21
10.095708
 31
0.0
  0
LINE
  5
A2
100
AcDbEntity
  8
0
370
    -3
  6
Continuous
100
AcDbLine
 10
-197.625941
 20
0.595708
 30
0.0
 11
-197.625941
 21
5.095708
 31
0.0
  0
LINE
  5
A3
100
AcDbEntity
  8
0
370
    -3
  6
Continuous
100
AcDbLine
 10
-197.125941
 20
0.095708
 30
0.0
 11
-195.125941
 21
0.095708
 31
0.0
  0
ARC
  5
A4
100
AcDbEntity
  8
0
370
    -3
  6
Continuous
100
AcDbCircle
 10
-193.625941
 20
-0.654292
 30
0.0
 40
1.0
100
AcDbArc
 50
180.0
 51
270.0
  0
ARC
  5
A5
100
AcDbEntity
  8
0
370
    -3
  6
Continuous
100
AcDbCircle
 10
-193.025941
 20
-2.054292
 30
0.0
 40
0.4
100
AcDbArc
 50
0.0
 51
90.0
  0
LINE
  5
A6
100
AcDbEntity
  8
0
370
    -3
  6
Continuous
100
AcDbLine
 10
-193.625941
 20
-1.654292
 30
0.0
 11
-193.025941
 21
-1.654292
 31
0.0
  0
ARC
  5
A7
100
AcDbEntity
  8
0
370
    -3
  6
Continuous
100
AcDbCircle
 10
-193.625941
 20
-13.154292
 30
0.0
 40
1.0
100
AcDbArc
 50
90.0
 51
180.0
  0
ARC
  5
A8
100
AcDbEntity
  8
0
370
    -3
  6
Continuous
100
AcDbCircle
 10
-193.025941
 20
-11.754292
 30
0.0
 40
0.4
100
AcDbArc
 50
270.0
 51
0.0
  0
LINE
  5
A9
100
AcDbEntity
  8
0
370
    -3
  6
Continuous
100
AcDbLine
 10
-193.625941
 20
-12.154292
 30
0.0
 11
-193.025941
 21
-12.154292
 31
0.0
  0
LINE
  5
AA
100
AcDbEntity
  8
0
370
    -3
  6
Continuous
100
AcDbLine
 10
-192.625941
 20
-2.054292
 30
0.0
 11
-192.625941
 21
-11.754292
 31
0.0
  0
LINE
  5
AB
100
AcDbEntity
  8
0
370
    -3
  6
Continuous
100
AcDbLine
 10
-213.125941
 20
-48.504292
 30
0.0
 11
-213.125941
 21
-48.304292
 31
0.0
  0
LINE
  5
AC
100
AcDbEntity
  8
0
370
    -3
  6
Continuous
100
AcDbLine
 10
-213.125941
 20
34.595708
 30
0.0
 11
-213.125941
 21
-58.88313
 31
0.0
  0
ARC
  5
AD
100
AcDbEntity
  8
0
370
    -3
  6
Continuous
100
AcDbCircle
 10
-193.625941
 20
34.702326
 30
0.0
 40
1.0
100
AcDbArc
 50
90.0
 51
180.0
  0
ARC
  5
AE
100
AcDbEntity
  8
0
370
    -3
  6
Continuous
100
AcDbCircle
 10
-193.025941
 20
36.102326
 30
0.0
 40
0.4
100
AcDbArc
 50
270.0
 51
0.0
  0
LINE
  5
AF
100
AcDbEntity
  8
0
370
    -3
  6
Continuous
100
AcDbLine
 10
-193.625941
 20
35.702326
 30
0.0
 11
-193.025941
 21
35.702326
 31
0.0
  0
LINE
  5
B0
100
AcDbEntity
  8
0
370
    -3
  6
Continuous
100
AcDbLine
 10
-187.625941
 20
41.087354
 30
0.0
 11
-187.625941
 21
-53.522467
 31
0.0
  0
LINE
  5
B1
100
AcDbEntity
  8
0
370
    -3
  6
Continuous
100
AcDbLine
 10
-192.625941
 20
40.50873
 30
0.0
 11
-192.625941
 21
36.102326
 31
0.0
  0
ARC
  5
B2
100
AcDbEntity
  8
0
370
    -3
  6
Continuous
100
AcDbCircle
 10
-192.125941
 20
40.50873
 30
0.0
 40
0.5
100
AcDbArc
 50
91.0
 51
180.0
  0
LINE
  5
B3
100
AcDbEntity
  8
0
370
    -3
  6
Continuous
100
AcDbLine
 10
-187.125941
 20
41.078248
 30
0.0
 11
-174.125941
 21
40.624278
 31
0.0
  0
ARC
  5
B4
100
AcDbEntity
  8
0
370
    -3
  6
Continuous
100
AcDbCircle
 10
-153.071205
 20
-56.590751
 30
0.0
 40
2.0
100
AcDbArc
 50
180.0
 51
269.0
  0
LINE
  5
B5
100
AcDbEntity
  8
0
370
    -3
  6
Continuous
100
AcDbLine
 10
-155.071205
 20
-56.590751
 30
0.0
 11
-155.071205
 21
-1.43189
 31
0.0
  0
LINE
  5
B6
100
AcDbEntity
  8
0
370
    -3
  6
Continuous
100
AcDbLine
 10
-137.58231
 20
-58.861416
 30
0.0
 11
-185.125941
 21
-58.031539
 31
0.0
  0
ARC
  5
B7
100
AcDbEntity
  8
0
370
    -3
  6
Continuous
100
AcDbCircle
 10
-137.471205
 20
-56.863051
 30
0.0
 40
2.0
100
AcDbArc
 50
180.0
 51
269.0
  0
LINE
  5
B8
100
AcDbEntity
  8
0
370
    -3
  6
Continuous
100
AcDbLine
 10
113.390066
 20
-2.331181
 30
0.0
 11
113.390066
 21
-56.904292
 31
0.0
  0
LINE
  5
B9
100
AcDbEntity
  8
0
370
    -3
  6
Continuous
100
AcDbLine
 10
102.26013
 20
7.877902
 30
0.0
 11
102.26013
 21
-56.904292
 31
0.0
  0
ARC
  5
BA
100
AcDbEntity
  8
0
370
    -3
  6
Continuous
100
AcDbCircle
 10
105.26013
 20
7.877902
 30
0.0
 40
3.0
100
AcDbArc
 50
160.774477
 51
180.0
  0
ELLIPSE
  5
BB
100
AcDbEntity
  8
0
370
    -3
  6
Continuous
100
AcDbEllipse
 10
107.534219
 20
0.062055
 30
0.0
 11
-2.1347122212248451
 21
12.10655461034821
 31
0.0
210
0.0
220
0.0
230
1.0
 40
0.452682
 41
4.434385355125948
 42
0.6802851241212478
  0
LINE
  5
BC
100
AcDbEntity
  8
0
370
    -3
  6
Continuous
100
AcDbLine
 10
99.508459
 20
-4.360924
 30
0.0
 11
99.508459
 21
-56.904292
 31
0.0
  0
LINE
  5
BD
100
AcDbEntity
  8
0
370
    -3
  6
Continuous
100
AcDbLine
 10
-213.125941
 20
-70.904292
 30
0.0
 11
-213.125941
 21
-70.404292
 31
0.0
  0
LINE
  5
BE
100
AcDbEntity
  8
0
370
    -3
  6
Continuous
100
AcDbLine
 10
-215.125941
 20
-70.404292
 30
0.0
 11
-213.125941
 21
-70.404292
 31
0.0
  0
LINE
  5
BF
100
AcDbEntity
  8
0
370
    -3
  6
Continuous
100
AcDbLine
 10
-137.125941
 20
-70.404292
 30
0.0
 11
-135.125941
 21
-70.404292
 31
0.0
  0
LINE
  5
C0
100
AcDbEntity
  8
0
370
    -3
  6
Continuous
100
AcDbLine
 10
-137.125941
 20
-70.904292
 30
0.0
 11
-137.125941
 21
-70.404292
 31
0.0
  0
LINE
  5
C1
100
AcDbEntity
  8
0
370
    -3
  6
Continuous
100
AcDbLine
 10
11.845201
 20
-70.904292
 30
0.0
 11
11.845201
 21
-69.904292
 31
0.0
  0
LINE
  5
C2
100
AcDbEntity
  8
0
370
    -3
  6
Continuous
100
AcDbLine
 10
-185.125941
 20
-50.102783
 30
0.0
 11
-185.125941
 21
-38.338274
 31
0.0
  0
LINE
  5
C3
100
AcDbEntity
  8
0
370
    -3
  6
CENTER
100
AcDbLine
 10
-205.125941
 20
-72.86214
 30
0.0
 11
-205.125941
 21
-55.826858
 31
0.0
  0
LINE
  5
C4
100
AcDbEntity
  8
0
370
    -3
  6
Continuous
100
AcDbLine
 10
26.707126
 20
-70.904292
 30
0.0
 11
-9.654786
 21
-70.904292
 31
0.0
  0
LINE
  5
C5
100
AcDbEntity
  8
0
370
    -3
  6
Continuous
100
AcDbLine
 10
83.983289
 20
-70.904292
 30
0.0
 11
120.345201
 21
-70.904292
 31
0.0
  0
LINE
  5
C6
100
AcDbEntity
  8
0
370
    -3
  6
Continuous
100
AcDbLine
 10
12.845201
 20
-68.904292
 30
0.0
 11
55.345207
 21
-68.904292
 31
0.0
  0
LINE
  5
C7
100
AcDbEntity
  8
0
370
    -3
  6
Continuous
100
AcDbLine
 10
120.345214
 20
-70.904292
 30
0.0
 11
120.345214
 21
-61.404292
 31
0.0
  0
LINE
  5
C8
100
AcDbEntity
  8
0
370
    -3
  6
Continuous
100
AcDbLine
 10
117.845214
 20
-58.904292
 30
0.0
 11
55.345207
 21
-58.904292
 31
0.0
  0
LINE
  5
C9
100
AcDbEntity
  8
0
370
    -3
  6
Continuous
100
AcDbLine
 10
97.845214
 20
-68.904292
 30
0.0
 11
55.345207
 21
-68.904292
 31
0.0
  0
LINE
  5
CA
100
AcDbEntity
  8
0
370
    -3
  6
CENTER
100
AcDbLine
 10
112.345207
 20
-56.432144
 30
0.0
 11
112.345207
 21
-74.457148
 31
0.0
  0
LINE
  5
CB
100
AcDbEntity
  8
0
370
    -3
  6
Continuous
100
AcDbLine
 10
-137.125941
 20
-70.904292
 30
0.0
 11
-213.125941
 21
-70.904292
 31
0.0
  0
LINE
  5
CC
100
AcDbEntity
  8
0
370
    -3
  6
Continuous
100
AcDbLine
 10
-215.125941
 20
-70.404292
 30
0.0
 11
-215.125941
 21
-61.33262
 31
0.0
  0
LINE
  5
CD
100
AcDbEntity
  8
0
370
    -3
  6
Continuous
100
AcDbLine
 10
118.345207
 20
-4.360924
 30
0.0
 11
118.345207
 21
-57.662639
 31
0.0
  0
LINE
  5
CE
100
AcDbEntity
  8
0
370
    -3
  6
Continuous
100
AcDbLine
 10
-185.125941
 20
-58.031539
 30
0.0
 11
-212.69864
 21
-58.833677
 31
0.0
  0
LINE
  5
CF
100
AcDbEntity
  8
0
370
    -3
  6
Continuous
100
AcDbLine
 10
-191.558679
 20
-57.641105
 30
0.0
 11
-185.67946
 21
-51.483976
 31
0.0
  0
ARC
  5
D0
100
AcDbEntity
  8
0
370
    -3
  6
Continuous
100
AcDbCircle
 10
55.345207
 20
-358.904292
 30
0.0
 40
381.163251
100
AcDbArc
 50
87.093616
 51
90.0
  0
ARC
  5
D1
100
AcDbEntity
  8
0
370
    -3
  6
Continuous
100
AcDbCircle
 10
73.345207
 20
-4.360924
 30
0.0
 40
26.163251
100
AcDbArc
 50
0.0
 51
87.093616
  0
ARC
  5
D2
100
AcDbEntity
  8
0
370
    -3
  6
Continuous
100
AcDbCircle
 10
-187.125941
 20
-38.338274
 30
0.0
 40
2.0
100
AcDbArc
 50
0.0
 51
88.5
  0
ARC
  5
D3
100
AcDbEntity
  8
0
370
    -3
  6
Continuous
100
AcDbCircle
 10
73.345207
 20
-4.360924
 30
0.0
 40
45.0
100
AcDbArc
 50
0.0
 51
87.093616
  0
ARC
  5
D4
100
AcDbEntity
  8
0
370
    -3
  6
Continuous
100
AcDbCircle
 10
55.345207
 20
-358.904292
 30
0.0
 40
400.0
100
AcDbArc
 50
90.0
 51
92.906384
  0
ARC
  5
D5
100
AcDbEntity
  8
0
370
    -3
  6
Continuous
100
AcDbCircle
 10
120.345207
 20
-57.662639
 30
0.0
 40
2.0
100
AcDbArc
 50
180.0
 51
236.250909
  0
ARC
  5
D6
100
AcDbEntity
  8
0
370
    -3
  6
Continuous
100
AcDbCircle
 10
12.845201
 20
-69.904292
 30
0.0
 40
1.0
100
AcDbArc
 50
90.0
 51
180.0
  0
ARC
  5
D7
100
AcDbEntity
  8
0
370
    -3
  6
Continuous
100
AcDbCircle
 10
117.845214
 20
-61.404292
 30
0.0
 40
2.5
100
AcDbArc
 50
0.0
 51
90.0
  0
ARC
  5
D8
100
AcDbEntity
  8
0
370
    -3
  6
Continuous
100
AcDbCircle
 10
55.345207
 20
-358.904292
 30
0.0
 40
400.0
100
AcDbArc
 50
87.093616
 51
90.0
  0
ARC
  5
D9
100
AcDbEntity
  8
0
370
    -3
  6
Continuous
100
AcDbCircle
 10
-212.625941
 20
-61.33262
 30
0.0
 40
2.5
100
AcDbArc
 50
91.666366
 51
180.0
  0
ARC
  5
DA
100
AcDbEntity
  8
0
370
    -3
  6
Continuous
100
AcDbCircle
 10
-187.125941
 20
-50.102783
 30
0.0
 40
2.0
100
AcDbArc
 50
316.32268
 51
0.0
  0
ARC
  5
DB
100
AcDbEntity
  8
0
370
    -3
  6
Continuous
100
AcDbCircle
 10
-193.005161
 20
-56.259913
 30
0.0
 40
2.0
100
AcDbArc
 50
271.666366
 51
316.32268
  0
LINE
  5
DC
100
AcDbEntity
  8
0
370
    -3
  6
Continuous
100
AcDbLine
 10
82.070476
 20
-0.904292
 30
0.0
 11
92.045207
 21
-0.904292
 31
0.0
  0
LINE
  5
DD
100
AcDbEntity
  8
0
370
    -3
  6
Continuous
100
AcDbLine
 10
94.545207
 20
-3.404292
 30
0.0
 11
94.545207
 21
-49.104292
 31
0.0
  0
ARC
  5
DE
100
AcDbEntity
  8
0
370
    -3
  6
Continuous
100
AcDbCircle
 10
92.045207
 20
-3.404292
 30
0.0
 40
2.5
100
AcDbArc
 50
0.0
 51
90.0
  0
ARC
  5
DF
100
AcDbEntity
  8
0
370
    -3
  6
Continuous
100
AcDbCircle
 10
82.070476
 20
-2.904292
 30
0.0
 40
2.0
100
AcDbArc
 50
90.0
 51
175.720217
  0
ARC
  5
E0
100
AcDbEntity
  8
0
370
    -3
  6
Continuous
100
AcDbCircle
 10
55.345207
 20
-0.904292
 30
0.0
 40
24.8
100
AcDbArc
 50
270.0
 51
355.720217
  0
ARC
  5
E1
100
AcDbEntity
  8
0
370
    -3
  6
Continuous
100
AcDbCircle
 10
89.545207
 20
-49.104292
 30
0.0
 40
5.0
100
AcDbArc
 50
270.0
 51
0.0
  0
LINE
  5
E2
100
AcDbEntity
  8
0
370
    -3
  6
Continuous
100
AcDbLine
 10
89.545207
 20
-54.104292
 30
0.0
 11
55.345207
 21
-54.104292
 31
0.0
  0
LINE
  5
E3
100
AcDbEntity
  8
0
370
    -3
  6
CENTER
100
AcDbLine
 10
-145.125941
 20
-72.86214
 30
0.0
 11
-145.125941
 21
-57.627828
 31
0.0
  0
LINE
  5
E4
100
AcDbEntity
  8
0
370
    -3
  6
Continuous
100
AcDbLine
 10
-135.125941
 20
-61.361035
 30
0.0
 11
-135.125941
 21
-70.404292
 31
0.0
  0
ARC
  5
E5
100
AcDbEntity
  8
0
370
    -3
  6
Continuous
100
AcDbCircle
 10
-137.625941
 20
-61.361035
 30
0.0
 40
2.5
100
AcDbArc
 50
0.0
 51
89.0
  0
ARC
  5
E6
100
AcDbEntity
  8
0
370
    -3
  6
Continuous
100
AcDbCircle
 10
-136.125941
 20
-58.198757
 30
0.0
 40
1.0
100
AcDbArc
 50
180.0
 51
244.623066
  0
ARC
  5
E7
100
AcDbEntity
  8
0
370
    -3
  6
Continuous
100
AcDbCircle
 10
21.345223
 20
-66.404292
 30
0.0
 40
7.0
100
AcDbArc
 50
319.994853
 51
339.075168
  0
ARC
  5
E8
100
AcDbEntity
  8
0
370
    -3
  6
Continuous
100
AcDbCircle
 10
89.345191
 20
-66.404292
 30
0.0
 40
7.0
100
AcDbArc
 50
200.924832
 51
220.005147
  0
LINE
  5
E9
100
AcDbEntity
  8
0
370
    -3
  6
Continuous
100
AcDbLine
 10
98.845214
 20
-70.904292
 30
0.0
 11
98.845214
 21
-69.904292
 31
0.0
  0
ARC
  5
EA
100
AcDbEntity
  8
0
370
    -3
  6
Continuous
100
AcDbCircle
 10
97.845214
 20
-69.904292
 30
0.0
 40
1.0
100
AcDbArc
 50
0.0
 51
90.0
  0
ARC
  5
EB
100
AcDbEntity
  8
0
370
    -3
  6
Continuous
100
AcDbCircle
 10
55.345207
 20
-0.904292
 30
0.0
 40
20.0
100
AcDbArc
 50
31.725452
 51
75.608179
  0
LINE
  5
EC
100
AcDbEntity
  8
0
370
    -3
  6
Continuous
100
AcDbLine
 10
-187.125941
 20
-52.998832
 30
0.0
 11
-187.125941
 21
-0.904292
 31
0.0
  0
LINE
  5
ED
100
AcDbEntity
  8
0
370
    -3
  6
Continuous
100
AcDbLine
 10
-187.125941
 20
41.078248
 30
0.0
 11
-187.125941
 21
-0.904292
 31
0.0
  0
ARC
  5
EE
100
AcDbEntity
  8
0
370
    -3
  6
Continuous
100
AcDbCircle
 10
115.390066
 20
-56.904292
 30
0.0
 40
2.0
100
AcDbArc
 50
180.0
 51
270.0
  0
ARC
  5
EF
100
AcDbEntity
  8
0
370
    -3
  6
Continuous
100
AcDbCircle
 10
104.26013
 20
-56.904292
 30
0.0
 40
2.0
100
AcDbArc
 50
180.0
 51
270.0
  0
ARC
  5
F0
100
AcDbEntity
  8
0
370
    -3
  6
Continuous
100
AcDbCircle
 10
101.508459
 20
-56.904292
 30
0.0
 40
2.0
100
AcDbArc
 50
180.0
 51
270.0
  0
LINE
  5
F1
100
AcDbEntity
  8
0
370
    -3
  6
Continuous
100
AcDbLine
 10
-214.125941
 20
-15.904292
 30
0.0
 11
-214.125941
 21
36.595708
 31
0.0
  0
LINE
  5
F2
100
AcDbEntity
  8
0
370
    -3
  6
Continuous
100
AcDbLine
 10
-213.125941
 20
30.228791
 30
0.0
 11
-197.62594
 21
30.228791
 31
0.0
  0
LINE
  5
F3
100
AcDbEntity
  8
0
370
    -3
  6
Continuous
100
AcDbLine
 10
-213.125941
 20
28.600364
 30
0.0
 11
-194.625941
 21
28.600364
 31
0.0
  0
LINE
  5
F4
100
AcDbEntity
  8
0
370
    -3
  6
Continuous
100
AcDbLine
 10
-213.125941
 20
25.137622
 30
0.0
 11
-194.625941
 21
25.137622
 31
0.0
  0
LINE
  5
F5
100
AcDbEntity
  8
0
370
    -3
  6
Continuous
100
AcDbLine
 10
-213.125941
 20
24.136144
 30
0.0
 11
-194.625941
 21
24.136144
 31
0.0
  0
LINE
  5
F6
100
AcDbEntity
  8
0
370
    -3
  6
Continuous
100
AcDbLine
 10
-213.125941
 20
17.399309
 30
0.0
 11
-194.625941
 21
17.399309
 31
0.0
  0
LINE
  5
F7
100
AcDbEntity
  8
0
370
    -3
  6
Continuous
100
AcDbLine
 10
-213.125941
 20
15.810099
 30
0.0
 11
-194.625941
 21
15.810099
 31
0.0
  0
LINE
  5
F8
100
AcDbEntity
  8
0
370
    -3
  6
Continuous
100
AcDbLine
 10
-213.125941
 20
12.852104
 30
0.0
 11
-194.625941
 21
12.852104
 31
0.0
  0
LINE
  5
F9
100
AcDbEntity
  8
0
370
    -3
  6
Continuous
100
AcDbLine
 10
-213.125941
 20
11.373081
 30
0.0
 11
-194.625941
 21
11.373081
 31
0.0
  0
LINE
  5
FA
100
AcDbEntity
  8
0
370
    -3
  6
Continuous
100
AcDbLine
 10
-213.125941
 20
8.28035
 30
0.0
 11
-197.625941
 21
8.28035
 31
0.0
  0
LINE
  5
FB
100
AcDbEntity
  8
0
370
    -3
  6
Continuous
100
AcDbLine
 10
-213.125941
 20
6.933948
 30
0.0
 11
-197.625941
 21
6.933948
 31
0.0
  0
LINE
  5
FC
100
AcDbEntity
  8
0
370
    -3
  6
Continuous
100
AcDbLine
 10
-213.125941
 20
-43.181664
 30
0.0
 11
-194.625941
 21
-43.181664
 31
0.0
  0
LINE
  5
FD
100
AcDbEntity
  8
0
370
    -3
  6
Continuous
100
AcDbLine
 10
-213.125941
 20
-44.660687
 30
0.0
 11
-194.625941
 21
-44.660687
 31
0.0
  0
LINE
  5
FE
100
AcDbEntity
  8
0
370
    -3
  6
Continuous
100
AcDbLine
 10
-213.125941
 20
-47.618683
 30
0.0
 11
-194.625941
 21
-47.618683
 31
0.0
  0
LINE
  5
FF
100
AcDbEntity
  8
0
370
    -3
  6
Continuous
100
AcDbLine
 10
-213.125941
 20
-49.207893
 30
0.0
 11
-194.625941
 21
-49.207893
 31
0.0
  0
LINE
  5
100
100
AcDbEntity
  8
0
370
    -3
  6
Continuous
100
AcDbLine
 10
-213.125941
 20
-35.904292
 30
0.0
 11
-194.625941
 21
-35.904292
 31
0.0
  0
LINE
  5
101
100
AcDbEntity
  8
0
370
    -3
  6
Continuous
100
AcDbLine
 10
-213.125941
 20
-38.742532
 30
0.0
 11
-194.625941
 21
-38.742532
 31
0.0
  0
LINE
  5
102
100
AcDbEntity
  8
0
370
    -3
  6
Continuous
100
AcDbLine
 10
-213.125941
 20
-40.088933
 30
0.0
 11
-194.625941
 21
-40.088933
 31
0.0
  0
LINE
  5
103
100
AcDbEntity
  8
0
370
    -3
  6
Continuous
100
AcDbLine
 10
-213.125941
 20
-55.944727
 30
0.0
 11
-194.625941
 21
-55.944727
 31
0.0
  0
LINE
  5
104
100
AcDbEntity
  8
0
370
    -3
  6
Continuous
100
AcDbLine
 10
-213.125941
 20
-56.946206
 30
0.0
 11
-194.625941
 21
-56.946206
 31
0.0
  0
LINE
  5
105
100
AcDbEntity
  8
0
370
    -3
  6
Continuous
100
AcDbLine
 10
-213.125941
 20
4.095708
 30
0.0
 11
-197.625941
 21
4.095708
 31
0.0
  0
ARC
  5
106
100
AcDbEntity
  8
0
370
    -3
  6
Continuous
100
AcDbCircle
 10
55.345207
 20
-0.904292
 30
0.0
 40
15.0
100
AcDbArc
 50
71.480228
 51
31.760752
  0
LINE
  5
107
100
AcDbEntity
  8
0
370
    -3
  6
CENTER
100
AcDbLine
 10
123.145379
 20
-0.904292
 30
0.0
 11
-11.973759
 21
-0.904292
 31
0.0
  0
ARC
  5
108
100
AcDbEntity
  8
0
370
    -3
  6
Continuous
100
AcDbCircle
 10
5.430284
 20
7.877902
 30
0.0
 40
3.0
100
AcDbArc
 50
0.0
 51
19.225523
  0
ELLIPSE
  5
109
100
AcDbEntity
  8
0
370
    -3
  6
Continuous
100
AcDbEllipse
 10
3.156196
 20
0.062055
 30
0.0
 11
2.1347122212248451
 21
12.10655461034821
 31
0.0
210
0.0
220
0.0
230
1.0
 40
0.452682
 41
5.6029001830582796
 42
1.8487999520536542
  0
LINE
  5
10A
100
AcDbEntity
  8
0
370
    -3
  6
Continuous
100
AcDbLine
 10
11.181956
 20
-4.360924
 30
0.0
 11
11.181956
 21
-56.904292
 31
0.0
  0
LINE
  5
10B
100
AcDbEntity
  8
0
370
    -3
  6
Continuous
100
AcDbLine
 10
-9.654786
 20
-70.904292
 30
0.0
 11
-9.654786
 21
-61.396116
 31
0.0
  0
LINE
  5
10C
100
AcDbEntity
  8
0
370
    -3
  6
Continuous
100
AcDbLine
 10
-7.154799
 20
-58.904292
 30
0.0
 11
55.345207
 21
-58.904292
 31
0.0
  0
LINE
  5
10D
100
AcDbEntity
  8
0
370
    -3
  6
CENTER
100
AcDbLine
 10
-1.654793
 20
-56.432144
 30
0.0
 11
-1.654793
 21
-74.457148
 31
0.0
  0
LINE
  5
10E
100
AcDbEntity
  8
0
370
    -3
  6
CENTER
100
AcDbLine
 10
71.331954
 20
-15.904292
 30
0.0
 11
39.300634
 21
-15.904292
 31
0.0
  0
LINE
  5
10F
100
AcDbEntity
  8
0
370
    -3
  6
Continuous
100
AcDbLine
 10
-2.699651
 20
-2.331181
 30
0.0
 11
-2.699651
 21
-56.904292
 31
0.0
  0
LINE
  5
110
100
AcDbEntity
  8
0
370
    -3
  6
Continuous
100
AcDbLine
 10
8.430284
 20
7.877902
 30
0.0
 11
8.430284
 21
-56.904292
 31
0.0
  0
LINE
  5
111
100
AcDbEntity
  8
0
370
    -3
  6
Continuous
100
AcDbLine
 10
-7.654793
 20
-4.360924
 30
0.0
 11
-7.654793
 21
-57.662639
 31
0.0
  0
ARC
  5
112
100
AcDbEntity
  8
0
370
    -3
  6
Continuous
100
AcDbCircle
 10
37.345207
 20
-4.360924
 30
0.0
 40
26.163251
100
AcDbArc
 50
92.906384
 51
180.0
  0
ARC
  5
113
100
AcDbEntity
  8
0
370
    -3
  6
Continuous
100
AcDbCircle
 10
55.345207
 20
-358.904292
 30
0.0
 40
381.163251
100
AcDbArc
 50
90.0
 51
92.906384
  0
ARC
  5
114
100
AcDbEntity
  8
0
370
    -3
  6
Continuous
100
AcDbCircle
 10
55.345207
 20
-0.904292
 30
0.0
 40
20.0
100
AcDbArc
 50
75.608179
 51
158.452065
  0
ARC
  5
115
100
AcDbEntity
  8
0
370
    -3
  6
Continuous
100
AcDbCircle
 10
55.345207
 20
-0.904292
 30
0.0
 40
20.0
100
AcDbArc
 50
151.820241
 51
313.242851
  0
ARC
  5
116
100
AcDbEntity
  8
0
370
    -3
  6
Continuous
100
AcDbCircle
 10
37.345207
 20
-4.360924
 30
0.0
 40
45.0
100
AcDbArc
 50
92.906384
 51
180.0
  0
ARC
  5
117
100
AcDbEntity
  8
0
370
    -3
  6
Continuous
100
AcDbCircle
 10
-7.154799
 20
-61.404292
 30
0.0
 40
2.5
100
AcDbArc
 50
90.0
 51
180.0
  0
ARC
  5
118
100
AcDbEntity
  8
0
370
    -3
  6
DASHED
100
AcDbCircle
 10
-7.154786
 20
-61.404292
 30
0.0
 40
2.5
100
AcDbArc
 50
90.0
 51
180.0
  0
ARC
  5
119
100
AcDbEntity
  8
0
370
    -3
  6
Continuous
100
AcDbCircle
 10
-9.654793
 20
-57.662639
 30
0.0
 40
2.0
100
AcDbArc
 50
303.749091
 51
0.0
  0
LINE
  5
11A
100
AcDbEntity
  8
0
370
    -3
  6
Continuous
100
AcDbLine
 10
28.619938
 20
-0.904292
 30
0.0
 11
18.645207
 21
-0.904292
 31
0.0
  0
LINE
  5
11B
100
AcDbEntity
  8
0
370
    -3
  6
Continuous
100
AcDbLine
 10
16.145207
 20
-3.404292
 30
0.0
 11
16.145207
 21
-49.104292
 31
0.0
  0
ARC
  5
11C
100
AcDbEntity
  8
0
370
    -3
  6
Continuous
100
AcDbCircle
 10
21.145207
 20
-49.104292
 30
0.0
 40
5.0
100
AcDbArc
 50
180.0
 51
270.0
  0
LINE
  5
11D
100
AcDbEntity
  8
0
370
    -3
  6
Continuous
100
AcDbLine
 10
21.145207
 20
-54.104292
 30
0.0
 11
55.345207
 21
-54.104292
 31
0.0
  0
ARC
  5
11E
100
AcDbEntity
  8
0
370
    -3
  6
Continuous
100
AcDbCircle
 10
18.645207
 20
-3.404292
 30
0.0
 40
2.5
100
AcDbArc
 50
90.0
 51
180.0
  0
ARC
  5
11F
100
AcDbEntity
  8
0
370
    -3
  6
Continuous
100
AcDbCircle
 10
28.619938
 20
-2.904292
 30
0.0
 40
2.0
100
AcDbArc
 50
4.279783
 51
90.0
  0
ARC
  5
120
100
AcDbEntity
  8
0
370
    -3
  6
Continuous
100
AcDbCircle
 10
55.345207
 20
-0.904292
 30
0.0
 40
24.8
100
AcDbArc
 50
184.279783
 51
270.0
  0
ARC
  5
121
100
AcDbEntity
  8
0
370
    -3
  6
Continuous
100
AcDbCircle
 10
9.181956
 20
-56.904292
 30
0.0
 40
2.0
100
AcDbArc
 50
270.0
 51
0.0
  0
ARC
  5
122
100
AcDbEntity
  8
0
370
    -3
  6
Continuous
100
AcDbCircle
 10
6.430284
 20
-56.904292
 30
0.0
 40
2.0
100
AcDbArc
 50
270.0
 51
0.0
  0
ARC
  5
123
100
AcDbEntity
  8
0
370
    -3
  6
Continuous
100
AcDbCircle
 10
-4.699651
 20
-56.904292
 30
0.0
 40
2.0
100
AcDbArc
 50
270.0
 51
0.0
  0
CIRCLE
  5
124
100
AcDbEntity
  8
0
370
    -3
  6
Continuous
100
AcDbCircle
 10
55.345207
 20
-0.904292
 30
0.0
 40
3.0
  0
CIRCLE
  5
125
100
AcDbEntity
  8
0
370
    -3
  6
Continuous
100
AcDbCircle
 10
55.345207
 20
-0.904292
 30
0.0
 40
2.4585
  0
LINE
  5
126
100
AcDbEntity
  8
0
370
    -3
  6
CENTER
100
AcDbLine
 10
-204.89709
 20
-15.904292
 30
0.0
 11
-370.0
 21
-15.904292
 31
0.0
  0
LINE
  5
127
100
AcDbEntity
  8
0
370
    -3
  6
Continuous
100
AcDbLine
 10
-214.125941
 20
-15.904292
 30
0.0
 11
-214.125941
 21
36.595708
 31
0.0
  0
LINE
  5
128
100
AcDbEntity
  8
0
370
    -3
  6
Continuous
100
AcDbLine
 10
-214.125941
 20
-15.904292
 30
0.0
 11
-214.125941
 21
-59.33262
 31
0.0
  0
LINE
  5
129
100
AcDbEntity
  8
0
370
    -3
  6
Continuous
100
AcDbLine
 10
-213.125941
 20
231.916737
 30
0.0
 11
-194.625941
 21
231.916737
 31
0.0
  0
LINE
  5
12A
100
AcDbEntity
  8
0
370
    -3
  6
Continuous
100
AcDbLine
 10
-213.125941
 20
226.825568
 30
0.0
 11
-194.625941
 21
226.825568
 31
0.0
  0
LINE
  5
12B
100
AcDbEntity
  8
0
370
    -3
  6
Continuous
100
AcDbLine
 10
-213.125941
 20
219.087255
 30
0.0
 11
-197.625941
 21
219.087255
 31
0.0
  0
LINE
  5
12C
100
AcDbEntity
  8
0
370
    -3
  6
Continuous
100
AcDbLine
 10
-213.125941
 20
217.498045
 30
0.0
 11
-197.625941
 21
217.498045
 31
0.0
  0
LINE
  5
12D
100
AcDbEntity
  8
0
370
    -3
  6
Continuous
100
AcDbLine
 10
-213.125941
 20
214.54005
 30
0.0
 11
-197.625941
 21
214.54005
 31
0.0
  0
LINE
  5
12E
100
AcDbEntity
  8
0
370
    -3
  6
Continuous
100
AcDbLine
 10
-213.125941
 20
213.061027
 30
0.0
 11
-194.625941
 21
213.061027
 31
0.0
  0
LINE
  5
12F
100
AcDbEntity
  8
0
370
    -3
  6
Continuous
100
AcDbLine
 10
-213.125941
 20
209.968296
 30
0.0
 11
-194.625941
 21
209.968296
 31
0.0
  0
LINE
  5
130
100
AcDbEntity
  8
0
370
    -3
  6
Continuous
100
AcDbLine
 10
-213.125941
 20
208.621894
 30
0.0
 11
-194.625941
 21
208.621894
 31
0.0
  0
LINE
  5
131
100
AcDbEntity
  8
0
370
    -3
  6
Continuous
100
AcDbLine
 10
-213.125941
 20
205.411689
 30
0.0
 11
-194.625941
 21
205.411689
 31
0.0
  0
LINE
  5
132
100
AcDbEntity
  8
0
370
    -3
  6
Continuous
100
AcDbLine
 10
-213.125941
 20
204.169769
 30
0.0
 11
-194.625941
 21
204.169769
 31
0.0
  0
LINE
  5
133
100
AcDbEntity
  8
0
370
    -3
  6
Continuous
100
AcDbLine
 10
-213.125941
 20
199.783654
 30
0.0
 11
-194.625941
 21
199.783654
 31
0.0
  0
LINE
  5
134
100
AcDbEntity
  8
0
370
    -3
  6
Continuous
100
AcDbLine
 10
-213.125941
 20
171.783654
 30
0.0
 11
-194.625941
 21
171.783654
 31
0.0
  0
LINE
  5
135
100
AcDbEntity
  8
0
370
    -3
  6
Continuous
100
AcDbLine
 10
-213.125941
 20
167.397539
 30
0.0
 11
-194.625941
 21
167.397539
 31
0.0
  0
LINE
  5
136
100
AcDbEntity
  8
0
370
    -3
  6
Continuous
100
AcDbLine
 10
-213.125941
 20
166.155619
 30
0.0
 11
-194.625941
 21
166.155619
 31
0.0
  0
LINE
  5
137
100
AcDbEntity
  8
0
370
    -3
  6
Continuous
100
AcDbLine
 10
-213.125941
 20
162.945414
 30
0.0
 11
-194.625941
 21
162.945414
 31
0.0
  0
LINE
  5
138
100
AcDbEntity
  8
0
370
    -3
  6
Continuous
100
AcDbLine
 10
-213.125941
 20
161.599013
 30
0.0
 11
-194.625941
 21
161.599013
 31
0.0
  0
LINE
  5
139
100
AcDbEntity
  8
0
370
    -3
  6
Continuous
100
AcDbLine
 10
-213.125941
 20
158.506282
 30
0.0
 11
-194.625941
 21
158.506282
 31
0.0
  0
LINE
  5
13A
100
AcDbEntity
  8
0
370
    -3
  6
Continuous
100
AcDbLine
 10
-213.125941
 20
157.027259
 30
0.0
 11
-197.625941
 21
157.027259
 31
0.0
  0
LINE
  5
13B
100
AcDbEntity
  8
0
370
    -3
  6
Continuous
100
AcDbLine
 10
-213.125941
 20
154.069263
 30
0.0
 11
-197.625941
 21
154.069263
 31
0.0
  0
LINE
  5
13C
100
AcDbEntity
  8
0
370
    -3
  6
Continuous
100
AcDbLine
 10
-213.125941
 20
152.480053
 30
0.0
 11
-197.625941
 21
152.480053
 31
0.0
  0
LINE
  5
13D
100
AcDbEntity
  8
0
370
    -3
  6
Continuous
100
AcDbLine
 10
-213.125941
 20
144.74174
 30
0.0
 11
-194.625941
 21
144.74174
 31
0.0
  0
LINE
  5
13E
100
AcDbEntity
  8
0
370
    -3
  6
Continuous
100
AcDbLine
 10
-213.125941
 20
139.650572
 30
0.0
 11
-194.625941
 21
139.650572
 31
0.0
  0
LINE
  5
13F
100
AcDbEntity
  8
0
370
    -3
  6
Continuous
100
AcDbLine
 10
-192.625941
 20
213.533655
 30
0.0
 11
-197.625941
 21
213.533655
 31
0.0
  0
LINE
  5
140
100
AcDbEntity
  8
0
370
    -3
  6
Continuous
100
AcDbLine
 10
-192.625941
 20
222.033653
 30
0.0
 11
-197.625941
 21
222.033653
 31
0.0
  0
LINE
  5
141
100
AcDbEntity
  8
0
370
    -3
  6
Continuous
100
AcDbLine
 10
-197.625941
 20
213.533655
 30
0.0
 11
-197.625941
 21
222.033653
 31
0.0
  0
LINE
  5
142
100
AcDbEntity
  8
0
370
    -3
  6
Continuous
100
AcDbLine
 10
-192.625941
 20
158.033653
 30
0.0
 11
-197.625941
 21
158.033653
 31
0.0
  0
LINE
  5
143
100
AcDbEntity
  8
0
370
    -3
  6
Continuous
100
AcDbLine
 10
-192.625941
 20
149.533655
 30
0.0
 11
-197.625941
 21
149.533655
 31
0.0
  0
LINE
  5
144
100
AcDbEntity
  8
0
370
    -3
  6
Continuous
100
AcDbLine
 10
-197.625941
 20
158.033653
 30
0.0
 11
-197.625941
 21
149.533655
 31
0.0
  0
LINE
  5
145
100
AcDbEntity
  8
0
370
    -3
  6
Continuous
100
AcDbLine
 10
-214.125941
 20
133.283654
 30
0.0
 11
-214.125941
 21
185.783654
 31
0.0
  0
LINE
  5
146
100
AcDbEntity
  8
0
370
    -3
  6
Continuous
100
AcDbLine
 10
-194.625941
 20
222.033653
 30
0.0
 11
-194.625941
 21
248.283654
 31
0.0
  0
LINE
  5
147
100
AcDbEntity
  8
0
370
    -3
  6
Continuous
100
AcDbLine
 10
-193.625941
 20
223.033654
 30
0.0
 11
-193.025941
 21
223.033654
 31
0.0
  0
LINE
  5
148
100
AcDbEntity
  8
0
370
    -3
  6
Continuous
100
AcDbLine
 10
-192.625941
 20
222.633654
 30
0.0
 11
-192.625941
 21
212.933654
 31
0.0
  0
ARC
  5
149
100
AcDbEntity
  8
0
370
    -3
  6
Continuous
100
AcDbCircle
 10
-193.025941
 20
222.633654
 30
0.0
 40
0.4
100
AcDbArc
 50
0.0
 51
90.0
  0
ARC
  5
14A
100
AcDbEntity
  8
0
370
    -3
  6
Continuous
100
AcDbCircle
 10
-193.625941
 20
224.033654
 30
0.0
 40
1.0
100
AcDbArc
 50
180.0
 51
270.0
  0
LINE
  5
14B
100
AcDbEntity
  8
0
370
    -3
  6
Continuous
100
AcDbLine
 10
-193.625941
 20
212.533654
 30
0.0
 11
-193.025941
 21
212.533654
 31
0.0
  0
ARC
  5
14C
100
AcDbEntity
  8
0
370
    -3
  6
Continuous
100
AcDbCircle
 10
-193.025941
 20
212.933654
 30
0.0
 40
0.4
100
AcDbArc
 50
270.0
 51
0.0
  0
ARC
  5
14D
100
AcDbEntity
  8
0
370
    -3
  6
Continuous
100
AcDbCircle
 10
-193.625941
 20
211.533654
 30
0.0
 40
1.0
100
AcDbArc
 50
90.0
 51
180.0
  0
ARC
  5
14E
100
AcDbEntity
  8
0
370
    -3
  6
Continuous
100
AcDbCircle
 10
-195.625941
 20
235.783654
 30
0.0
 40
1.0
100
AcDbArc
 50
270.0
 51
0.0
  0
ARC
  5
14F
100
AcDbEntity
  8
0
370
    -3
  6
Continuous
100
AcDbCircle
 10
-194.125941
 20
248.283654
 30
0.0
 40
0.5
100
AcDbArc
 50
90.0
 51
180.0
  0
ARC
  5
150
100
AcDbEntity
  8
0
370
    -3
  6
Continuous
100
AcDbCircle
 10
-205.125941
 20
242.783654
 30
0.0
 40
8.0
100
AcDbArc
 50
207.975174
 51
270.0
  0
ARC
  5
151
100
AcDbEntity
  8
0
370
    -3
  6
Continuous
100
AcDbCircle
 10
-212.632724
 20
238.796398
 30
0.0
 40
0.5
100
AcDbArc
 50
27.975174
 51
91.5
  0
ARC
  5
152
100
AcDbEntity
  8
0
370
    -3
  6
Continuous
100
AcDbCircle
 10
-212.625941
 20
238.796576
 30
0.0
 40
0.5
100
AcDbArc
 50
91.5
 51
180.0
  0
ARC
  5
153
100
AcDbEntity
  8
0
370
    -3
  6
Continuous
100
AcDbCircle
 10
-213.625941
 20
238.810011
 30
0.0
 40
0.5
100
AcDbArc
 50
271.5
 51
0.0
  0
LINE
  5
154
100
AcDbEntity
  8
0
370
    -3
  6
Continuous
100
AcDbLine
 10
-187.625941
 20
248.783654
 30
0.0
 11
-187.625941
 21
185.783654
 31
0.0
  0
LINE
  5
155
100
AcDbEntity
  8
0
370
    -3
  6
Continuous
100
AcDbLine
 10
-194.625941
 20
185.783654
 30
0.0
 11
-194.625941
 21
213.533655
 31
0.0
  0
LINE
  5
156
100
AcDbEntity
  8
0
370
    -3
  6
Continuous
100
AcDbLine
 10
-195.625941
 20
234.783654
 30
0.0
 11
-205.125941
 21
234.783654
 31
0.0
  0
LINE
  5
157
100
AcDbEntity
  8
0
370
    -3
  6
Continuous
100
AcDbLine
 10
-187.125941
 20
248.783654
 30
0.0
 11
-194.125941
 21
248.783654
 31
0.0
  0
LINE
  5
158
100
AcDbEntity
  8
0
370
    -3
  6
Continuous
100
AcDbLine
 10
-214.125941
 20
185.783654
 30
0.0
 11
-214.125941
 21
238.283654
 31
0.0
  0
LINE
  5
159
100
AcDbEntity
  8
0
370
    -3
  6
Continuous
100
AcDbLine
 10
-213.612852
 20
238.310183
 30
0.0
 11
-214.125941
 21
238.283654
 31
0.0
  0
LINE
  5
15A
100
AcDbEntity
  8
0
370
    -3
  6
Continuous
100
AcDbLine
 10
-213.125941
 20
238.796576
 30
0.0
 11
-213.125941
 21
185.783654
 31
0.0
  0
LINE
  5
15B
100
AcDbEntity
  8
0
370
    -3
  6
Continuous
100
AcDbLine
 10
-197.625941
 20
248.033637
 30
0.0
 11
-197.625941
 21
236.783654
 31
0.0
  0
ARC
  5
15C
100
AcDbEntity
  8
0
370
    -3
  6
Continuous
100
AcDbCircle
 10
-199.625941
 20
236.783654
 30
0.0
 40
2.0
100
AcDbArc
 50
270.0
 51
0.0
  0
LINE
  5
15D
100
AcDbEntity
  8
0
370
    -3
  6
Continuous
100
AcDbLine
 10
-195.125941
 20
245.783654
 30
0.0
 11
-197.125941
 21
245.783654
 31
0.0
  0
ARC
  5
15E
100
AcDbEntity
  8
0
370
    -3
  6
Continuous
100
AcDbCircle
 10
-197.125941
 20
245.283654
 30
0.0
 40
0.5
100
AcDbArc
 50
90.0
 51
180.0
  0
ARC
  5
15F
100
AcDbEntity
  8
0
370
    -3
  6
Continuous
100
AcDbCircle
 10
-195.125941
 20
246.283654
 30
0.0
 40
0.5
100
AcDbArc
 50
270.0
 51
0.0
  0
LINE
  5
160
100
AcDbEntity
  8
0
370
    -3
  6
Continuous
100
AcDbLine
 10
-194.625941
 20
248.033637
 30
0.0
 11
-197.625941
 21
248.033637
 31
0.0
  0
LINE
  5
161
100
AcDbEntity
  8
0
370
    -3
  6
Continuous
100
AcDbLine
 10
-194.625941
 20
149.533655
 30
0.0
 11
-194.625941
 21
123.283654
 31
0.0
  0
LINE
  5
162
100
AcDbEntity
  8
0
370
    -3
  6
Continuous
100
AcDbLine
 10
-193.625941
 20
148.533654
 30
0.0
 11
-193.025941
 21
148.533654
 31
0.0
  0
LINE
  5
163
100
AcDbEntity
  8
0
370
    -3
  6
Continuous
100
AcDbLine
 10
-192.625941
 20
148.933654
 30
0.0
 11
-192.625941
 21
158.633654
 31
0.0
  0
ARC
  5
164
100
AcDbEntity
  8
0
370
    -3
  6
Continuous
100
AcDbCircle
 10
-193.025941
 20
148.933654
 30
0.0
 40
0.4
100
AcDbArc
 50
270.0
 51
0.0
  0
ARC
  5
165
100
AcDbEntity
  8
0
370
    -3
  6
Continuous
100
AcDbCircle
 10
-193.625941
 20
147.533654
 30
0.0
 40
1.0
100
AcDbArc
 50
90.0
 51
180.0
  0
LINE
  5
166
100
AcDbEntity
  8
0
370
    -3
  6
Continuous
100
AcDbLine
 10
-193.625941
 20
159.033654
 30
0.0
 11
-193.025941
 21
159.033654
 31
0.0
  0
ARC
  5
167
100
AcDbEntity
  8
0
370
    -3
  6
Continuous
100
AcDbCircle
 10
-193.025941
 20
158.633654
 30
0.0
 40
0.4
100
AcDbArc
 50
0.0
 51
90.0
  0
ARC
  5
168
100
AcDbEntity
  8
0
370
    -3
  6
Continuous
100
AcDbCircle
 10
-193.625941
 20
160.033654
 30
0.0
 40
1.0
100
AcDbArc
 50
180.0
 51
270.0
  0
ARC
  5
169
100
AcDbEntity
  8
0
370
    -3
  6
Continuous
100
AcDbCircle
 10
-195.625941
 20
135.783654
 30
0.0
 40
1.0
100
AcDbArc
 50
0.0
 51
90.0
  0
ARC
  5
16A
100
AcDbEntity
  8
0
370
    -3
  6
Continuous
100
AcDbCircle
 10
-194.125941
 20
123.283654
 30
0.0
 40
0.5
100
AcDbArc
 50
180.0
 51
270.0
  0
ARC
  5
16B
100
AcDbEntity
  8
0
370
    -3
  6
Continuous
100
AcDbCircle
 10
-205.125941
 20
128.783654
 30
0.0
 40
8.0
100
AcDbArc
 50
90.0
 51
152.024826
  0
ARC
  5
16C
100
AcDbEntity
  8
0
370
    -3
  6
Continuous
100
AcDbCircle
 10
-212.632724
 20
132.77091
 30
0.0
 40
0.5
100
AcDbArc
 50
268.5
 51
332.024826
  0
ARC
  5
16D
100
AcDbEntity
  8
0
370
    -3
  6
Continuous
100
AcDbCircle
 10
-212.625941
 20
132.770733
 30
0.0
 40
0.5
100
AcDbArc
 50
180.0
 51
268.5
  0
ARC
  5
16E
100
AcDbEntity
  8
0
370
    -3
  6
Continuous
100
AcDbCircle
 10
-213.625941
 20
132.757297
 30
0.0
 40
0.5
100
AcDbArc
 50
0.0
 51
88.5
  0
LINE
  5
16F
100
AcDbEntity
  8
0
370
    -3
  6
Continuous
100
AcDbLine
 10
-187.625941
 20
122.783654
 30
0.0
 11
-187.625941
 21
185.783654
 31
0.0
  0
LINE
  5
170
100
AcDbEntity
  8
0
370
    -3
  6
Continuous
100
AcDbLine
 10
-194.625941
 20
185.783654
 30
0.0
 11
-194.625941
 21
158.033653
 31
0.0
  0
LINE
  5
171
100
AcDbEntity
  8
0
370
    -3
  6
Continuous
100
AcDbLine
 10
-195.625941
 20
136.783654
 30
0.0
 11
-205.125941
 21
136.783654
 31
0.0
  0
LINE
  5
172
100
AcDbEntity
  8
0
370
    -3
  6
Continuous
100
AcDbLine
 10
-187.125941
 20
122.783654
 30
0.0
 11
-194.125941
 21
122.783654
 31
0.0
  0
LINE
  5
173
100
AcDbEntity
  8
0
370
    -3
  6
Continuous
100
AcDbLine
 10
-214.125941
 20
185.783654
 30
0.0
 11
-214.125941
 21
133.283654
 31
0.0
  0
LINE
  5
174
100
AcDbEntity
  8
0
370
    -3
  6
Continuous
100
AcDbLine
 10
-213.612852
 20
133.257125
 30
0.0
 11
-214.125941
 21
133.283654
 31
0.0
  0
LINE
  5
175
100
AcDbEntity
  8
0
370
    -3
  6
Continuous
100
AcDbLine
 10
-213.125941
 20
132.770733
 30
0.0
 11
-213.125941
 21
185.783654
 31
0.0
  0
LINE
  5
176
100
AcDbEntity
  8
0
370
    -3
  6
Continuous
100
AcDbLine
 10
-197.625941
 20
123.533671
 30
0.0
 11
-197.625941
 21
134.783654
 31
0.0
  0
ARC
  5
177
100
AcDbEntity
  8
0
370
    -3
  6
Continuous
100
AcDbCircle
 10
-199.625941
 20
134.783654
 30
0.0
 40
2.0
100
AcDbArc
 50
0.0
 51
90.0
  0
LINE
  5
178
100
AcDbEntity
  8
0
370
    -3
  6
Continuous
100
AcDbLine
 10
-195.125941
 20
125.783654
 30
0.0
 11
-197.125941
 21
125.783654
 31
0.0
  0
ARC
  5
179
100
AcDbEntity
  8
0
370
    -3
  6
Continuous
100
AcDbCircle
 10
-197.125941
 20
126.283654
 30
0.0
 40
0.5
100
AcDbArc
 50
180.0
 51
270.0
  0
ARC
  5
17A
100
AcDbEntity
  8
0
370
    -3
  6
Continuous
100
AcDbCircle
 10
-195.125941
 20
125.283654
 30
0.0
 40
0.5
100
AcDbArc
 50
0.0
 51
90.0
  0
LINE
  5
17B
100
AcDbEntity
  8
0
370
    -3
  6
Continuous
100
AcDbLine
 10
-194.625941
 20
123.533671
 30
0.0
 11
-197.625941
 21
123.533671
 31
0.0
  0
LINE
  5
17C
100
AcDbEntity
  8
0
370
    -3
  6
Continuous
100
AcDbLine
 10
-132.125941
 20
177.933654
 30
0.0
 11
-132.125941
 21
175.483654
 31
0.0
  0
LINE
  5
17D
100
AcDbEntity
  8
0
370
    -3
  6
Continuous
100
AcDbLine
 10
-130.566133
 20
177.933654
 30
0.0
 11
-130.006326
 21
177.783654
 31
0.0
  0
LINE
  5
17E
100
AcDbEntity
  8
0
370
    -3
  6
Continuous
100
AcDbLine
 10
-130.566133
 20
177.933654
 30
0.0
 11
-132.725941
 21
177.933654
 31
0.0
  0
LINE
  5
17F
100
AcDbEntity
  8
0
370
    -3
  6
Continuous
100
AcDbLine
 10
-133.425941
 20
194.283662
 30
0.0
 11
-133.122333
 21
193.980054
 31
0.0
  0
ARC
  5
180
100
AcDbEntity
  8
0
370
    -3
  6
Continuous
100
AcDbCircle
 10
-132.725941
 20
194.033654
 30
0.0
 40
0.4
100
AcDbArc
 50
187.700804
 51
270.0
  0
LINE
  5
181
100
AcDbEntity
  8
0
370
    -3
  6
Continuous
100
AcDbLine
 10
-133.125941
 20
185.783654
 30
0.0
 11
-133.125941
 21
193.983662
 31
0.0
  0
LINE
  5
182
100
AcDbEntity
  8
0
370
    -3
  6
Continuous
100
AcDbLine
 10
-135.125941
 20
194.283662
 30
0.0
 11
-133.425941
 21
194.283662
 31
0.0
  0
LINE
  5
183
100
AcDbEntity
  8
0
370
    -3
  6
Continuous
100
AcDbLine
 10
-135.125941
 20
177.283647
 30
0.0
 11
-133.425941
 21
177.283647
 31
0.0
  0
LINE
  5
184
100
AcDbEntity
  8
0
370
    -3
  6
Continuous
100
AcDbLine
 10
-133.425941
 20
177.283647
 30
0.0
 11
-133.122333
 21
177.587254
 31
0.0
  0
ARC
  5
185
100
AcDbEntity
  8
0
370
    -3
  6
Continuous
100
AcDbCircle
 10
-132.725941
 20
177.533654
 30
0.0
 40
0.4
100
AcDbArc
 50
90.0
 51
172.299196
  0
LINE
  5
186
100
AcDbEntity
  8
0
370
    -3
  6
Continuous
100
AcDbLine
 10
-130.566133
 20
193.633654
 30
0.0
 11
-130.006326
 21
193.783654
 31
0.0
  0
LINE
  5
187
100
AcDbEntity
  8
0
370
    -3
  6
Continuous
100
AcDbLine
 10
-130.566133
 20
193.633654
 30
0.0
 11
-132.725941
 21
193.633654
 31
0.0
  0
LINE
  5
188
100
AcDbEntity
  8
0
370
    -3
  6
Continuous
100
AcDbLine
 10
-133.125941
 20
185.783654
 30
0.0
 11
-133.125941
 21
177.583647
 31
0.0
  0
LINE
  5
189
100
AcDbEntity
  8
0
370
    -3
  6
Continuous
100
AcDbLine
 10
-108.125941
 20
185.783654
 30
0.0
 11
-108.125941
 21
193.383654
 31
0.0
  0
LINE
  5
18A
100
AcDbEntity
  8
0
370
    -3
  6
Continuous
100
AcDbLine
 10
-108.525941
 20
193.783654
 30
0.0
 11
-130.006326
 21
193.783654
 31
0.0
  0
LINE
  5
18B
100
AcDbEntity
  8
0
370
    -3
  6
Continuous
100
AcDbLine
 10
-108.125941
 20
175.483654
 30
0.0
 11
-132.125941
 21
175.483654
 31
0.0
  0
LINE
  5
18C
100
AcDbEntity
  8
0
370
    -3
  6
Continuous
100
AcDbLine
 10
-108.125941
 20
175.483654
 30
0.0
 11
-108.125941
 21
178.183654
 31
0.0
  0
ARC
  5
18D
100
AcDbEntity
  8
0
370
    -3
  6
Continuous
100
AcDbCircle
 10
-108.525941
 20
178.183654
 30
0.0
 40
0.4
100
AcDbArc
 50
270.0
 51
0.0
  0
ARC
  5
18E
100
AcDbEntity
  8
0
370
    -3
  6
Continuous
100
AcDbCircle
 10
-108.525941
 20
193.383654
 30
0.0
 40
0.4
100
AcDbArc
 50
0.0
 51
90.0
  0
LINE
  5
18F
100
AcDbEntity
  8
0
370
    -3
  6
Continuous
100
AcDbLine
 10
-108.525941
 20
177.783654
 30
0.0
 11
-130.006326
 21
177.783654
 31
0.0
  0
LINE
  5
190
100
AcDbEntity
  8
0
370
    -3
  6
Continuous
100
AcDbLine
 10
-108.125941
 20
185.783654
 30
0.0
 11
-108.125941
 21
178.183654
 31
0.0
  0
LINE
  5
191
100
AcDbEntity
  8
0
370
    -3
  6
Continuous
100
AcDbLine
 10
-155.119849
 20
242.434659
 30
0.0
 11
-155.12774
 21
242.660629
 31
0.0
  0
LINE
  5
192
100
AcDbEntity
  8
0
370
    -3
  6
Continuous
100
AcDbLine
 10
-187.125941
 20
185.783654
 30
0.0
 11
-187.125941
 21
122.783647
 31
0.0
  0
LINE
  5
193
100
AcDbEntity
  8
0
370
    -3
  6
Continuous
100
AcDbLine
 10
-187.125941
 20
185.783654
 30
0.0
 11
-187.125941
 21
248.801121
 31
0.0
  0
LINE
  5
194
100
AcDbEntity
  8
0
370
    -3
  6
CENTER
100
AcDbLine
 10
-145.125941
 20
234.166861
 30
0.0
 11
-145.125941
 21
249.657581
 31
0.0
  0
LINE
  5
195
100
AcDbEntity
  8
0
370
    -3
  6
CENTER
100
AcDbLine
 10
-136.963548
 20
242.783654
 30
0.0
 11
-152.558892
 21
242.783654
 31
0.0
  0
LINE
  5
196
100
AcDbEntity
  8
0
370
    -3
  6
CENTER
100
AcDbLine
 10
-205.125941
 20
236.283654
 30
0.0
 11
-205.125941
 21
249.283654
 31
0.0
  0
LINE
  5
197
100
AcDbEntity
  8
0
370
    -3
  6
CENTER
100
AcDbLine
 10
-211.625941
 20
242.783654
 30
0.0
 11
-198.625941
 21
242.783654
 31
0.0
  0
LINE
  5
198
100
AcDbEntity
  8
0
370
    -3
  6
Continuous
100
AcDbLine
 10
-137.125941
 20
185.783654
 30
0.0
 11
-137.125941
 21
229.243913
 31
0.0
  0
LINE
  5
199
100
AcDbEntity
  8
0
370
    -3
  6
Continuous
100
AcDbLine
 10
-135.125941
 20
185.783654
 30
0.0
 11
-135.125941
 21
248.823261
 31
0.0
  0
LINE
  5
19A
100
AcDbEntity
  8
0
370
    -3
  6
Continuous
100
AcDbLine
 10
-140.253363
 20
232.6135
 30
0.0
 11
-145.125941
 21
232.783654
 31
0.0
  0
LINE
  5
19B
100
AcDbEntity
  8
0
370
    -3
  6
CENTER
100
AcDbLine
 10
-102.383177
 20
185.783654
 30
0.0
 11
-359.879194
 21
185.783654
 31
0.0
  0
LINE
  5
19C
100
AcDbEntity
  8
0
370
    -3
  6
Continuous
100
AcDbLine
 10
-186.593723
 20
122.783647
 30
0.0
 11
-187.125941
 21
122.783647
 31
0.0
  0
LINE
  5
19D
100
AcDbEntity
  8
0
370
    -3
  6
Continuous
100
AcDbLine
 10
-174.125941
 20
123.237617
 30
0.0
 11
-187.125941
 21
122.783647
 31
0.0
  0
LINE
  5
19E
100
AcDbEntity
  8
0
370
    -3
  6
Continuous
100
AcDbLine
 10
-174.125941
 20
248.329691
 30
0.0
 11
-187.125941
 21
248.783661
 31
0.0
  0
LINE
  5
19F
100
AcDbEntity
  8
0
370
    -3
  6
CENTER
100
AcDbLine
 10
-145.125941
 20
136.7324
 30
0.0
 11
-145.125941
 21
121.516297
 31
0.0
  0
LINE
  5
1A0
100
AcDbEntity
  8
0
370
    -3
  6
CENTER
100
AcDbLine
 10
-136.963548
 20
128.783654
 30
0.0
 11
-152.558892
 21
128.783654
 31
0.0
  0
LINE
  5
1A1
100
AcDbEntity
  8
0
370
    -3
  6
CENTER
100
AcDbLine
 10
-205.125941
 20
135.283654
 30
0.0
 11
-205.125941
 21
122.283654
 31
0.0
  0
LINE
  5
1A2
100
AcDbEntity
  8
0
370
    -3
  6
CENTER
100
AcDbLine
 10
-211.625941
 20
128.783654
 30
0.0
 11
-198.625941
 21
128.783654
 31
0.0
  0
LINE
  5
1A3
100
AcDbEntity
  8
0
370
    -3
  6
Continuous
100
AcDbLine
 10
-137.125941
 20
185.783654
 30
0.0
 11
-137.125941
 21
142.323396
 31
0.0
  0
LINE
  5
1A4
100
AcDbEntity
  8
0
370
    -3
  6
Continuous
100
AcDbLine
 10
-140.253363
 20
138.953808
 30
0.0
 11
-145.125941
 21
138.783654
 31
0.0
  0
LINE
  5
1A5
100
AcDbEntity
  8
0
370
    -3
  6
Continuous
100
AcDbLine
 10
-185.125941
 20
251.783661
 30
0.0
 11
-137.085949
 21
250.822861
 31
0.0
  0
LINE
  5
1A6
100
AcDbEntity
  8
0
370
    -3
  6
Continuous
100
AcDbLine
 10
-185.125941
 20
119.783647
 30
0.0
 11
-137.085949
 21
120.744447
 31
0.0
  0
LINE
  5
1A7
100
AcDbEntity
  8
0
370
    -3
  6
Continuous
100
AcDbLine
 10
-135.125941
 20
185.783654
 30
0.0
 11
-135.125941
 21
122.744047
 31
0.0
  0
LINE
  5
1A8
100
AcDbEntity
  8
0
370
    -3
  6
Continuous
100
AcDbLine
 10
-215.125941
 20
248.849217
 30
0.0
 11
-215.125941
 21
239.283654
 31
0.0
  0
LINE
  5
1A9
100
AcDbEntity
  8
0
370
    -3
  6
Continuous
100
AcDbLine
 10
-213.192571
 20
250.848106
 30
0.0
 11
-185.125941
 21
251.783661
 31
0.0
  0
LINE
  5
1AA
100
AcDbEntity
  8
0
370
    -3
  6
Continuous
100
AcDbLine
 10
-213.192571
 20
120.719202
 30
0.0
 11
-185.125941
 21
119.783647
 31
0.0
  0
LINE
  5
1AB
100
AcDbEntity
  8
0
370
    -3
  6
Continuous
100
AcDbLine
 10
-215.125941
 20
122.718092
 30
0.0
 11
-215.125941
 21
132.283654
 31
0.0
  0
ARC
  5
1AC
100
AcDbEntity
  8
0
370
    -3
  6
Continuous
100
AcDbCircle
 10
-213.125941
 20
122.718092
 30
0.0
 40
2.0
100
AcDbArc
 50
180.0
 51
268.090848
  0
ARC
  5
1AD
100
AcDbEntity
  8
0
370
    -3
  6
Continuous
100
AcDbCircle
 10
-137.125941
 20
122.744047
 30
0.0
 40
2.0
100
AcDbArc
 50
271.145763
 51
0.0
  0
ARC
  5
1AE
100
AcDbEntity
  8
0
370
    -3
  6
Continuous
100
AcDbCircle
 10
-137.125941
 20
248.823261
 30
0.0
 40
2.0
100
AcDbArc
 50
0.0
 51
88.854237
  0
ARC
  5
1AF
100
AcDbEntity
  8
0
370
    -3
  6
Continuous
100
AcDbCircle
 10
-213.125941
 20
248.849217
 30
0.0
 40
2.0
100
AcDbArc
 50
91.909152
 51
180.0
  0
ARC
  5
1B0
100
AcDbEntity
  8
0
370
    -3
  6
Continuous
100
AcDbCircle
 10
-136.125941
 20
164.783654
 30
0.0
 40
1.0
100
AcDbArc
 50
90.0
 51
163.39845
  0
ARC
  5
1B1
100
AcDbEntity
  8
0
370
    -3
  6
Continuous
100
AcDbCircle
 10
-136.125941
 20
166.783654
 30
0.0
 40
1.0
100
AcDbArc
 50
270.0
 51
0.0
  0
ARC
  5
1B2
100
AcDbEntity
  8
0
370
    -3
  6
Continuous
100
AcDbCircle
 10
-140.323162
 20
230.614718
 30
0.0
 40
2.0
100
AcDbArc
 50
42.219307
 51
88.0
  0
ARC
  5
1B3
100
AcDbEntity
  8
0
370
    -3
  6
Continuous
100
AcDbCircle
 10
-175.870916
 20
198.360149
 30
0.0
 40
50.0
100
AcDbArc
 50
40.046697
 51
42.219307
  0
CIRCLE
  5
1B4
100
AcDbEntity
  8
0
370
    -3
  6
Continuous
100
AcDbCircle
 10
-205.125941
 20
242.783654
 30
0.0
 40
3.5
  0
CIRCLE
  5
1B5
100
AcDbEntity
  8
0
370
    -3
  6
Continuous
100
AcDbCircle
 10
-145.125941
 20
242.783654
 30
0.0
 40
3.5
  0
CIRCLE
  5
1B6
100
AcDbEntity
  8
0
370
    -3
  6
Continuous
100
AcDbCircle
 10
-205.125941
 20
242.783654
 30
0.0
 40
3.5
  0
ARC
  5
1B7
100
AcDbEntity
  8
0
370
    -3
  6
Continuous
100
AcDbCircle
 10
-136.125941
 20
206.783654
 30
0.0
 40
1.0
100
AcDbArc
 50
196.60155
 51
270.0
  0
ARC
  5
1B8
100
AcDbEntity
  8
0
370
    -3
  6
Continuous
100
AcDbCircle
 10
-136.125941
 20
204.783654
 30
0.0
 40
1.0
100
AcDbArc
 50
0.0
 51
90.0
  0
ARC
  5
1B9
100
AcDbEntity
  8
0
370
    -3
  6
Continuous
100
AcDbCircle
 10
-175.870916
 20
173.207159
 30
0.0
 40
50.0
100
AcDbArc
 50
272.0
 51
292.989887
  0
ARC
  5
1BA
100
AcDbEntity
  8
0
370
    -3
  6
Continuous
100
AcDbCircle
 10
-140.323162
 20
140.95259
 30
0.0
 40
2.0
100
AcDbArc
 50
272.0
 51
317.780693
  0
ARC
  5
1BB
100
AcDbEntity
  8
0
370
    -3
  6
Continuous
100
AcDbCircle
 10
-175.870916
 20
173.207159
 30
0.0
 40
50.0
100
AcDbArc
 50
317.780693
 51
319.953303
  0
ARC
  5
1BC
100
AcDbEntity
  8
0
370
    -3
  6
Continuous
100
AcDbCircle
 10
-157.123621
 20
129.019616
 30
0.0
 40
2.0
100
AcDbArc
 50
292.989887
 51
358.873292
  0
ARC
  5
1BD
100
AcDbEntity
  8
0
370
    -3
  6
Continuous
100
AcDbCircle
 10
-145.125941
 20
128.783654
 30
0.0
 40
10.0
100
AcDbArc
 50
97.216447
 51
169.206676
  0
CIRCLE
  5
1BE
100
AcDbEntity
  8
0
370
    -3
  6
Continuous
100
AcDbCircle
 10
-205.125941
 20
128.783654
 30
0.0
 40
3.5
  0
CIRCLE
  5
1BF
100
AcDbEntity
  8
0
370
    -3
  6
Continuous
100
AcDbCircle
 10
-145.125941
 20
128.783654
 30
0.0
 40
3.5
  0
CIRCLE
  5
1C0
100
AcDbEntity
  8
0
370
    -3
  6
Continuous
100
AcDbCircle
 10
-205.125941
 20
128.783654
 30
0.0
 40
3.5
  0
ARC
  5
1C1
100
AcDbEntity
  8
0
370
    -3
  6
Continuous
100
AcDbCircle
 10
-145.125941
 20
128.783654
 30
0.0
 40
10.0
100
AcDbArc
 50
90.0
 51
178.873292
  0
ARC
  5
1C2
100
AcDbEntity
  8
0
370
    -3
  6
Continuous
100
AcDbCircle
 10
-175.870916
 20
198.360149
 30
0.0
 40
50.0
100
AcDbArc
 50
67.010113
 51
88.0
  0
ARC
  5
1C3
100
AcDbEntity
  8
0
370
    -3
  6
Continuous
100
AcDbCircle
 10
-157.123621
 20
242.547692
 30
0.0
 40
2.0
100
AcDbArc
 50
1.126708
 51
67.010113
  0
ARC
  5
1C4
100
AcDbEntity
  8
0
370
    -3
  6
Continuous
100
AcDbCircle
 10
-145.125941
 20
242.783654
 30
0.0
 40
10.0
100
AcDbArc
 50
182.0
 51
270.0
  0
ARC
  5
1C5
100
AcDbEntity
  8
0
370
    -3
  6
Continuous
100
AcDbCircle
 10
-139.125941
 20
229.243913
 30
0.0
 40
2.0
100
AcDbArc
 50
0.0
 51
40.046697
  0
ARC
  5
1C6
100
AcDbEntity
  8
0
370
    -3
  6
Continuous
100
AcDbCircle
 10
-139.125941
 20
142.323396
 30
0.0
 40
2.0
100
AcDbArc
 50
319.953303
 51
0.0
  0
LINE
  5
1C7
100
AcDbEntity
  8
0
370
    -3
  6
Continuous
100
AcDbLine
 10
-313.919402
 20
132.283654
 30
0.0
 11
-328.125941
 21
132.283654
 31
0.0
  0
LINE
  5
1C8
100
AcDbEntity
  8
0
370
    -3
  6
Continuous
100
AcDbLine
 10
-328.125941
 20
132.283654
 30
0.0
 11
-328.125941
 21
185.783654
 31
0.0
  0
LINE
  5
1C9
100
AcDbEntity
  8
0
370
    -3
  6
Continuous
100
AcDbLine
 10
-328.125941
 20
208.68386
 30
0.0
 11
-246.125941
 21
208.68386
 31
0.0
  0
LINE
  5
1CA
100
AcDbEntity
  8
0
370
    -3
  6
Continuous
100
AcDbLine
 10
-328.125941
 20
158.383449
 30
0.0
 11
-240.983331
 21
158.383449
 31
0.0
  0
LINE
  5
1CB
100
AcDbEntity
  8
0
370
    -3
  6
Continuous
100
AcDbLine
 10
-328.125941
 20
162.883449
 30
0.0
 11
-246.125941
 21
162.883449
 31
0.0
  0
LINE
  5
1CC
100
AcDbEntity
  8
0
370
    -3
  6
Continuous
100
AcDbLine
 10
-328.125941
 20
237.533654
 30
0.0
 11
-328.125941
 21
238.283654
 31
0.0
  0
LINE
  5
1CD
100
AcDbEntity
  8
0
370
    -3
  6
Continuous
100
AcDbLine
 10
-328.125941
 20
238.283654
 30
0.0
 11
-328.125941
 21
236.033654
 31
0.0
  0
LINE
  5
1CE
100
AcDbEntity
  8
0
370
    -3
  6
Continuous
100
AcDbLine
 10
-328.125941
 20
214.383449
 30
0.0
 11
-321.125941
 21
214.383449
 31
0.0
  0
LINE
  5
1CF
100
AcDbEntity
  8
0
370
    -3
  6
Continuous
100
AcDbLine
 10
-328.125941
 20
209.883449
 30
0.0
 11
-321.125941
 21
209.883449
 31
0.0
  0
LINE
  5
1D0
100
AcDbEntity
  8
0
370
    -3
  6
Continuous
100
AcDbLine
 10
-328.125941
 20
161.68386
 30
0.0
 11
-321.125941
 21
161.68386
 31
0.0
  0
LINE
  5
1D1
100
AcDbEntity
  8
0
370
    -3
  6
Continuous
100
AcDbLine
 10
-328.125941
 20
157.18386
 30
0.0
 11
-321.125941
 21
157.18386
 31
0.0
  0
LINE
  5
1D2
100
AcDbEntity
  8
0
370
    -3
  6
Continuous
100
AcDbLine
 10
-328.125941
 20
239.283654
 30
0.0
 11
-328.125941
 21
185.783654
 31
0.0
  0
LINE
  5
1D3
100
AcDbEntity
  8
0
370
    -3
  6
Continuous
100
AcDbLine
 10
-328.125941
 20
171.783654
 30
0.0
 11
-214.125941
 21
171.783654
 31
0.0
  0
LINE
  5
1D4
100
AcDbEntity
  8
0
370
    -3
  6
Continuous
100
AcDbLine
 10
-328.125941
 20
205.397569
 30
0.0
 11
-214.125941
 21
205.397569
 31
0.0
  0
LINE
  5
1D5
100
AcDbEntity
  8
0
370
    -3
  6
Continuous
100
AcDbLine
 10
-328.125941
 20
199.783654
 30
0.0
 11
-214.125941
 21
199.783654
 31
0.0
  0
LINE
  5
1D6
100
AcDbEntity
  8
0
370
    -3
  6
Continuous
100
AcDbLine
 10
-328.125941
 20
204.176814
 30
0.0
 11
-214.125941
 21
204.176814
 31
0.0
  0
LINE
  5
1D7
100
AcDbEntity
  8
0
370
    -3
  6
Continuous
100
AcDbLine
 10
-246.125941
 20
208.68386
 30
0.0
 11
-214.125941
 21
208.68386
 31
0.0
  0
LINE
  5
1D8
100
AcDbEntity
  8
0
370
    -3
  6
Continuous
100
AcDbLine
 10
-328.125941
 20
233.110251
 30
0.0
 11
-214.125941
 21
233.110251
 31
0.0
  0
LINE
  5
1D9
100
AcDbEntity
  8
0
370
    -3
  6
Continuous
100
AcDbLine
 10
-328.125941
 20
226.216102
 30
0.0
 11
-214.125941
 21
226.216102
 31
0.0
  0
LINE
  5
1DA
100
AcDbEntity
  8
0
370
    -3
  6
Continuous
100
AcDbLine
 10
-214.125941
 20
239.283654
 30
0.0
 11
-328.125941
 21
239.283654
 31
0.0
  0
LINE
  5
1DB
100
AcDbEntity
  8
0
370
    -3
  6
Continuous
100
AcDbLine
 10
-328.125941
 20
166.16974
 30
0.0
 11
-214.125941
 21
166.16974
 31
0.0
  0
LINE
  5
1DC
100
AcDbEntity
  8
0
370
    -3
  6
Continuous
100
AcDbLine
 10
-328.125941
 20
167.383449
 30
0.0
 11
-214.125941
 21
167.383449
 31
0.0
  0
LINE
  5
1DD
100
AcDbEntity
  8
0
370
    -3
  6
Continuous
100
AcDbLine
 10
-321.125941
 20
214.383449
 30
0.0
 11
-214.125941
 21
214.383449
 31
0.0
  0
LINE
  5
1DE
100
AcDbEntity
  8
0
370
    -3
  6
Continuous
100
AcDbLine
 10
-328.125941
 20
213.18386
 30
0.0
 11
-222.625941
 21
213.18386
 31
0.0
  0
LINE
  5
1DF
100
AcDbEntity
  8
0
370
    -3
  6
Continuous
100
AcDbLine
 10
-324.625941
 20
209.883449
 30
0.0
 11
-214.125941
 21
209.883449
 31
0.0
  0
LINE
  5
1E0
100
AcDbEntity
  8
0
370
    -3
  6
Continuous
100
AcDbLine
 10
-321.125941
 20
157.18386
 30
0.0
 11
-214.125941
 21
157.18386
 31
0.0
  0
LINE
  5
1E1
100
AcDbEntity
  8
0
370
    -3
  6
Continuous
100
AcDbLine
 10
-321.125941
 20
161.68386
 30
0.0
 11
-214.125941
 21
161.68386
 31
0.0
  0
LINE
  5
1E2
100
AcDbEntity
  8
0
370
    -3
  6
Continuous
100
AcDbLine
 10
-246.125941
 20
158.383449
 30
0.0
 11
-214.125941
 21
158.383449
 31
0.0
  0
LINE
  5
1E3
100
AcDbEntity
  8
0
370
    -3
  6
Continuous
100
AcDbLine
 10
-246.125941
 20
162.883449
 30
0.0
 11
-214.125941
 21
162.883449
 31
0.0
  0
LINE
  5
1E4
100
AcDbEntity
  8
0
370
    -3
  6
Continuous
100
AcDbLine
 10
-246.125941
 20
213.18386
 30
0.0
 11
-214.125941
 21
213.18386
 31
0.0
  0
LINE
  5
1E5
100
AcDbEntity
  8
0
370
    -3
  6
Continuous
100
AcDbLine
 10
-328.125941
 20
145.351207
 30
0.0
 11
-214.125941
 21
145.351207
 31
0.0
  0
LINE
  5
1E6
100
AcDbEntity
  8
0
370
    -3
  6
Continuous
100
AcDbLine
 10
-328.125941
 20
138.457057
 30
0.0
 11
-214.125941
 21
138.457057
 31
0.0
  0
LINE
  5
1E7
100
AcDbEntity
  8
0
370
    -3
  6
Continuous
100
AcDbLine
 10
-328.125941
 20
134.783654
 30
0.0
 11
-214.125941
 21
134.783654
 31
0.0
  0
LINE
  5
1E8
100
AcDbEntity
  8
0
370
    -3
  6
Continuous
100
AcDbLine
 10
-328.125941
 20
135.283654
 30
0.0
 11
-214.125941
 21
135.283654
 31
0.0
  0
LINE
  5
1E9
100
AcDbEntity
  8
0
370
    -3
  6
Continuous
100
AcDbLine
 10
-328.125941
 20
152.68386
 30
0.0
 11
-214.125941
 21
152.68386
 31
0.0
  0
LINE
  5
1EA
100
AcDbEntity
  8
0
370
    -3
  6
Continuous
100
AcDbLine
 10
-328.125941
 20
153.883449
 30
0.0
 11
-214.125941
 21
153.883449
 31
0.0
  0
LINE
  5
1EB
100
AcDbEntity
  8
0
370
    -3
  6
Continuous
100
AcDbLine
 10
-328.125941
 20
236.783654
 30
0.0
 11
-214.125941
 21
236.783654
 31
0.0
  0
LINE
  5
1EC
100
AcDbEntity
  8
0
370
    -3
  6
Continuous
100
AcDbLine
 10
-328.125941
 20
236.283654
 30
0.0
 11
-214.125941
 21
236.283654
 31
0.0
  0
LINE
  5
1ED
100
AcDbEntity
  8
0
370
    -3
  6
Continuous
100
AcDbLine
 10
-328.125941
 20
218.883449
 30
0.0
 11
-214.125941
 21
218.883449
 31
0.0
  0
LINE
  5
1EE
100
AcDbEntity
  8
0
370
    -3
  6
Continuous
100
AcDbLine
 10
-328.125941
 20
217.68386
 30
0.0
 11
-214.125941
 21
217.68386
 31
0.0
  0
LINE
  5
1EF
100
AcDbEntity
  8
0
370
    -3
  6
Continuous
100
AcDbLine
 10
-214.125941
 20
239.283654
 30
0.0
 11
-214.125941
 21
185.783654
 31
0.0
  0
LINE
  5
1F0
100
AcDbEntity
  8
0
370
    -3
  6
Continuous
100
AcDbLine
 10
-214.125941
 20
132.283654
 30
0.0
 11
-214.125941
 21
185.783654
 31
0.0
  0
LINE
  5
1F1
100
AcDbEntity
  8
0
370
    -3
  6
Continuous
100
AcDbLine
 10
-214.125941
 20
132.283654
 30
0.0
 11
-260.332462
 21
132.283654
 31
0.0
  0
LINE
  5
1F2
100
AcDbEntity
  8
0
370
    -3
  6
Continuous
100
AcDbLine
 10
-267.957462
 20
132.283654
 30
0.0
 11
-306.294402
 21
132.283654
 31
0.0
  0
LINE
  5
1F3
100
AcDbEntity
  8
0
370
    -3
  6
CENTER
100
AcDbLine
 10
-590.492948
 20
-15.904292
 30
0.0
 11
-401.654335
 21
-15.904292
 31
0.0
  0
LINE
  5
1F4
100
AcDbEntity
  8
0
370
    -3
  6
Continuous
100
AcDbLine
 10
-553.713209
 20
-67.558988
 30
0.0
 11
-553.713208
 21
-66.2703
 31
0.0
  0
LINE
  5
1F5
100
AcDbEntity
  8
0
370
    -3
  6
Continuous
100
AcDbLine
 10
-555.269818
 20
-64.350884
 30
0.0
 11
-555.713209
 21
-64.094893
 31
0.0
  0
ARC
  5
1F6
100
AcDbEntity
  8
0
370
    -3
  6
Continuous
100
AcDbCircle
 10
-555.713206
 20
-66.404292
 30
0.0
 40
4.249999
100
AcDbArc
 50
85.56102
 51
51.870258
  0
ARC
  5
1F7
100
AcDbEntity
  8
0
370
    -3
  6
Continuous
100
AcDbCircle
 10
-555.713206
 20
-66.404292
 30
0.0
 40
5.25
100
AcDbArc
 50
86.983826
 51
167.449534
  0
LINE
  5
1F8
100
AcDbEntity
  8
0
370
    -3
  6
Continuous
100
AcDbLine
 10
-550.463206
 20
-66.565766
 30
0.0
 11
-550.463206
 21
-67.904292
 31
0.0
  0
LINE
  5
1F9
100
AcDbEntity
  8
0
370
    -3
  6
Continuous
100
AcDbLine
 10
-555.713221
 20
31.941009
 30
0.0
 11
-555.313427
 21
31.710188
 31
0.0
  0
LINE
  5
1FA
100
AcDbEntity
  8
0
370
    -3
  6
Continuous
100
AcDbLine
 10
-553.08368
 20
31.149777
 30
0.0
 11
-551.713225
 21
31.941012
 31
0.0
  0
ARC
  5
1FB
100
AcDbEntity
  8
0
370
    -3
  6
Continuous
100
AcDbCircle
 10
-553.713222
 20
33.095708
 30
0.0
 40
4.249999
100
AcDbArc
 50
27.644861
 51
245.96483
  0
ARC
  5
1FC
100
AcDbEntity
  8
0
370
    -3
  6
Continuous
100
AcDbCircle
 10
-553.713222
 20
33.095708
 30
0.0
 40
5.25
100
AcDbArc
 50
347.008485
 51
0.0
  0
ARC
  5
1FD
100
AcDbEntity
  8
0
370
    -3
  6
Continuous
100
AcDbCircle
 10
-553.713222
 20
33.095708
 30
0.0
 40
5.25
100
AcDbArc
 50
180.0
 51
250.107845
  0
LINE
  5
1FE
100
AcDbEntity
  8
0
370
    -3
  6
Continuous
100
AcDbLine
 10
-557.804603
 20
-44.102933
 30
0.0
 11
-567.83733
 21
-55.245406
 31
0.0
  0
LINE
  5
1FF
100
AcDbEntity
  8
0
370
    -3
  6
Continuous
100
AcDbLine
 10
-458.713238
 20
-44.897524
 30
0.0
 11
-458.713238
 21
-57.662639
 31
0.0
  0
ARC
  5
200
100
AcDbEntity
  8
0
370
    -3
  6
Continuous
100
AcDbCircle
 10
-478.713222
 20
-36.324496
 30
0.0
 40
20.0
100
AcDbArc
 50
315.0
 51
322.634518
  0
ARC
  5
201
100
AcDbEntity
  8
0
370
    -3
  6
Continuous
100
AcDbCircle
 10
-503.713238
 20
-4.360924
 30
0.0
 40
45.0
100
AcDbArc
 50
27.881632
 51
87.093616
  0
LINE
  5
202
100
AcDbEntity
  8
0
370
    -3
  6
Continuous
100
AcDbLine
 10
-488.113049
 20
31.710173
 30
0.0
 11
-487.713225
 21
31.941012
 31
0.0
  0
LINE
  5
203
100
AcDbEntity
  8
0
370
    -3
  6
Continuous
100
AcDbLine
 10
-491.713221
 20
31.941009
 30
0.0
 11
-490.342796
 21
31.149795
 31
0.0
  0
ARC
  5
204
100
AcDbEntity
  8
0
370
    -3
  6
Continuous
100
AcDbCircle
 10
-489.713222
 20
33.095708
 30
0.0
 40
4.249999
100
AcDbArc
 50
294.03471
 51
152.355243
  0
ARC
  5
205
100
AcDbEntity
  8
0
370
    -3
  6
Continuous
100
AcDbCircle
 10
-489.713222
 20
33.095708
 30
0.0
 40
5.25
100
AcDbArc
 50
289.891791
 51
0.0
  0
ARC
  5
206
100
AcDbEntity
  8
0
370
    -3
  6
Continuous
100
AcDbCircle
 10
-489.713222
 20
33.095708
 30
0.0
 40
5.25
100
AcDbArc
 50
180.0
 51
192.990251
  0
ARC
  5
207
100
AcDbEntity
  8
0
370
    -3
  6
Continuous
100
AcDbCircle
 10
-498.213238
 20
34.095708
 30
0.0
 40
1.0
100
AcDbArc
 50
3.0
 51
177.0
  0
ARC
  5
208
100
AcDbEntity
  8
0
370
    -3
  6
Continuous
100
AcDbCircle
 10
-495.881053
 20
30.945982
 30
0.0
 40
1.0
100
AcDbArc
 50
241.128648
 51
357.0
  0
LINE
  5
209
100
AcDbEntity
  8
0
370
    -3
  6
Continuous
100
AcDbLine
 10
-497.048923
 20
30.986564
 30
0.0
 11
-497.214609
 21
34.148044
 31
0.0
  0
ARC
  5
20A
100
AcDbEntity
  8
0
370
    -3
  6
Continuous
100
AcDbCircle
 10
-496.050293
 20
31.0389
 30
0.0
 40
1.0
100
AcDbArc
 50
183.0
 51
241.335416
  0
ARC
  5
20B
100
AcDbEntity
  8
0
370
    -3
  6
Continuous
100
AcDbCircle
 10
-500.267676
 20
33.109358
 30
0.0
 40
1.0
100
AcDbArc
 50
246.36857
 51
357.0
  0
ARC
  5
20C
100
AcDbEntity
  8
0
370
    -3
  6
Continuous
100
AcDbCircle
 10
-504.591783
 20
34.782055
 30
0.0
 40
1.0
100
AcDbArc
 50
251.335429
 51
339.929668
  0
ARC
  5
20D
100
AcDbEntity
  8
0
370
    -3
  6
Continuous
100
AcDbCircle
 10
-500.667876
 20
33.282523
 30
0.0
 40
1.0
100
AcDbArc
 50
183.0
 51
246.835568
  0
LINE
  5
20E
100
AcDbEntity
  8
0
370
    -3
  6
Continuous
100
AcDbLine
 10
-501.666506
 20
33.230187
 30
0.0
 11
-501.714609
 21
34.148044
 31
0.0
  0
ARC
  5
20F
100
AcDbEntity
  8
0
370
    -3
  6
Continuous
100
AcDbCircle
 10
-502.713238
 20
34.095708
 30
0.0
 40
1.0
100
AcDbArc
 50
3.0
 51
159.929668
  0
LINE
  5
210
100
AcDbEntity
  8
0
370
    -3
  6
Continuous
100
AcDbLine
 10
-499.269046
 20
33.057022
 30
0.0
 11
-499.211868
 21
34.148044
 31
0.0
  0
ARC
  5
211
100
AcDbEntity
  8
0
370
    -3
  6
Continuous
100
AcDbCircle
 10
-493.713238
 20
34.095708
 30
0.0
 40
1.0
100
AcDbArc
 50
3.0
 51
177.0
  0
LINE
  5
212
100
AcDbEntity
  8
0
370
    -3
  6
Continuous
100
AcDbLine
 10
-494.882424
 20
30.893647
 30
0.0
 11
-494.711868
 21
34.148044
 31
0.0
  0
ARC
  5
213
100
AcDbEntity
  8
0
370
    -3
  6
Continuous
100
AcDbCircle
 10
-489.213238
 20
33.595708
 30
0.0
 40
1.0
100
AcDbArc
 50
3.0
 51
177.0
  0
LINE
  5
214
100
AcDbEntity
  8
0
370
    -3
  6
Continuous
100
AcDbLine
 10
-490.497754
 20
28.193023
 30
0.0
 11
-490.211868
 21
33.648044
 31
0.0
  0
LINE
  5
215
100
AcDbEntity
  8
0
370
    -3
  6
Continuous
100
AcDbLine
 10
-492.39907
 20
28.127205
 30
0.0
 11
-492.714609
 21
34.148044
 31
0.0
  0
ARC
  5
216
100
AcDbEntity
  8
0
370
    -3
  6
Continuous
100
AcDbCircle
 10
-521.713238
 20
-15.904292
 30
0.0
 40
52.5
100
AcDbArc
 50
28.562834
 51
28.973449
  0
ARC
  5
217
100
AcDbEntity
  8
0
370
    -3
  6
Continuous
100
AcDbCircle
 10
-521.713238
 20
-15.904292
 30
0.0
 40
52.5
100
AcDbArc
 50
28.562834
 51
28.973449
  0
LINE
  5
218
100
AcDbEntity
  8
0
370
    -3
  6
Continuous
100
AcDbLine
 10
-477.615924
 20
15.311193
 30
0.0
 11
-472.160902
 21
15.597079
 31
0.0
  0
LINE
  5
219
100
AcDbEntity
  8
0
370
    -3
  6
Continuous
100
AcDbLine
 10
-477.681742
 20
13.409876
 30
0.0
 11
-471.660902
 21
13.094338
 31
0.0
  0
ARC
  5
21A
100
AcDbEntity
  8
0
370
    -3
  6
Continuous
100
AcDbCircle
 10
-474.862964
 20
9.927893
 30
0.0
 40
1.0
100
AcDbArc
 50
93.0
 51
208.871352
  0
ARC
  5
21B
100
AcDbEntity
  8
0
370
    -3
  6
Continuous
100
AcDbCircle
 10
-474.770047
 20
9.758653
 30
0.0
 40
1.0
100
AcDbArc
 50
208.664584
 51
267.0
  0
ARC
  5
21C
100
AcDbEntity
  8
0
370
    -3
  6
Continuous
100
AcDbCircle
 10
-477.563588
 20
14.312563
 30
0.0
 40
1.0
100
AcDbArc
 50
93.0
 51
214.388476
  0
ARC
  5
21D
100
AcDbEntity
  8
0
370
    -3
  6
Continuous
100
AcDbCircle
 10
-477.629406
 20
14.408506
 30
0.0
 40
1.0
100
AcDbArc
 50
214.513079
 51
267.0
  0
ARC
  5
21E
100
AcDbEntity
  8
0
370
    -3
  6
Continuous
100
AcDbCircle
 10
-481.702994
 20
29.476655
 30
0.0
 40
1.0
100
AcDbArc
 50
48.598894
 51
132.0
  0
LINE
  5
21F
100
AcDbEntity
  8
0
370
    -3
  6
Continuous
100
AcDbLine
 10
-487.88949
 20
27.444409
 30
0.0
 11
-488.214609
 21
33.648044
 31
0.0
  0
ARC
  5
220
100
AcDbEntity
  8
0
370
    -3
  6
Continuous
100
AcDbCircle
 10
-486.890861
 20
27.496745
 30
0.0
 40
1.0
100
AcDbArc
 50
183.0
 51
312.0
  0
ARC
  5
221
100
AcDbEntity
  8
0
370
    -3
  6
Continuous
100
AcDbCircle
 10
-476.332291
 20
24.105952
 30
0.0
 40
1.0
100
AcDbArc
 50
318.0
 51
41.401106
  0
ARC
  5
222
100
AcDbEntity
  8
0
370
    -3
  6
Continuous
100
AcDbCircle
 10
-521.713238
 20
-15.904292
 30
0.0
 40
61.5
100
AcDbArc
 50
41.401106
 51
48.598894
  0
LINE
  5
223
100
AcDbEntity
  8
0
370
    -3
  6
Continuous
100
AcDbLine
 10
-478.364538
 20
17.919456
 30
0.0
 11
-472.160902
 21
17.594338
 31
0.0
  0
ARC
  5
224
100
AcDbEntity
  8
0
370
    -3
  6
Continuous
100
AcDbCircle
 10
-478.312202
 20
18.918086
 30
0.0
 40
1.0
100
AcDbArc
 50
138.0
 51
267.0
  0
LINE
  5
225
100
AcDbEntity
  8
0
370
    -3
  6
Continuous
100
AcDbLine
 10
-468.213238
 20
-35.204292
 30
0.0
 11
-468.213238
 21
-15.904292
 31
0.0
  0
ARC
  5
226
100
AcDbEntity
  8
0
370
    -3
  6
Continuous
100
AcDbCircle
 10
-468.913238
 20
-35.204292
 30
0.0
 40
0.7
100
AcDbArc
 50
270.0
 51
0.0
  0
LINE
  5
227
100
AcDbEntity
  8
0
370
    -3
  6
Continuous
100
AcDbLine
 10
-468.913238
 20
-35.904292
 30
0.0
 11
-472.50704
 21
-35.904292
 31
0.0
  0
ARC
  5
228
100
AcDbEntity
  8
0
370
    -3
  6
Continuous
100
AcDbCircle
 10
-521.713238
 20
-15.904292
 30
0.0
 40
52.5
100
AcDbArc
 50
336.304919
 51
336.888398
  0
ARC
  5
229
100
AcDbEntity
  8
0
370
    -3
  6
Continuous
100
AcDbCircle
 10
-472.50704
 20
-36.904292
 30
0.0
 40
1.0
100
AcDbArc
 50
90.0
 51
156.888398
  0
LINE
  5
22A
100
AcDbEntity
  8
0
370
    -3
  6
CENTER
100
AcDbLine
 10
-521.713238
 20
50.259201
 30
0.0
 11
-521.713238
 21
-73.879078
 31
0.0
  0
ARC
  5
22B
100
AcDbEntity
  8
0
370
    -3
  6
Continuous
100
AcDbCircle
 10
-521.713238
 20
-15.904292
 30
0.0
 40
52.5
100
AcDbArc
 50
336.336295
 51
336.888398
  0
ARC
  5
22C
100
AcDbEntity
  8
0
370
    -3
  6
Continuous
100
AcDbCircle
 10
-472.213238
 20
-48.404292
 30
0.0
 40
1.0
100
AcDbArc
 50
273.0
 51
87.0
  0
LINE
  5
22D
100
AcDbEntity
  8
0
370
    -3
  6
CENTER
100
AcDbLine
 10
-538.28864
 20
-0.904292
 30
0.0
 11
-503.099836
 21
-0.904292
 31
0.0
  0
ARC
  5
22E
100
AcDbEntity
  8
0
370
    -3
  6
Continuous
100
AcDbCircle
 10
-471.713238
 20
-43.904292
 30
0.0
 40
1.0
100
AcDbArc
 50
273.0
 51
87.0
  0
LINE
  5
22F
100
AcDbEntity
  8
0
370
    -3
  6
Continuous
100
AcDbLine
 10
-474.9153
 20
-42.735107
 30
0.0
 11
-471.660902
 21
-42.905662
 31
0.0
  0
LINE
  5
230
100
AcDbEntity
  8
0
370
    -3
  6
Continuous
100
AcDbLine
 10
-474.822383
 20
-40.568608
 30
0.0
 11
-471.660902
 21
-40.402921
 31
0.0
  0
ARC
  5
231
100
AcDbEntity
  8
0
370
    -3
  6
Continuous
100
AcDbCircle
 10
-521.713238
 20
-358.904292
 30
0.0
 40
400.0
100
AcDbArc
 50
87.093616
 51
90.0
  0
ARC
  5
232
100
AcDbEntity
  8
0
370
    -3
  6
Continuous
100
AcDbCircle
 10
-471.713238
 20
-39.404292
 30
0.0
 40
1.0
100
AcDbArc
 50
273.0
 51
87.0
  0
ARC
  5
233
100
AcDbEntity
  8
0
370
    -3
  6
Continuous
100
AcDbCircle
 10
-521.713238
 20
-358.904292
 30
0.0
 40
400.0
100
AcDbArc
 50
90.0
 51
92.906384
  0
ARC
  5
234
100
AcDbEntity
  8
0
370
    -3
  6
Continuous
100
AcDbCircle
 10
-472.699589
 20
-37.349855
 30
0.0
 40
1.0
100
AcDbArc
 50
156.36857
 51
267.0
  0
ARC
  5
235
100
AcDbEntity
  8
0
370
    -3
  6
Continuous
100
AcDbCircle
 10
-539.713238
 20
-4.360924
 30
0.0
 40
45.0
100
AcDbArc
 50
92.906384
 51
180.0
  0
LINE
  5
236
100
AcDbEntity
  8
0
370
    -3
  6
Continuous
100
AcDbLine
 10
-472.751925
 20
-38.348484
 30
0.0
 11
-471.660902
 21
-38.405662
 31
0.0
  0
LINE
  5
237
100
AcDbEntity
  8
0
370
    -3
  6
Continuous
100
AcDbLine
 10
-584.713238
 20
-4.360924
 30
0.0
 11
-584.713238
 21
-57.662639
 31
0.0
  0
LINE
  5
238
100
AcDbEntity
  8
0
370
    -3
  6
Continuous
100
AcDbLine
 10
-468.213238
 20
3.395708
 30
0.0
 11
-468.213238
 21
-15.904292
 31
0.0
  0
ARC
  5
239
100
AcDbEntity
  8
0
370
    -3
  6
Continuous
100
AcDbCircle
 10
-583.713222
 20
-13.154292
 30
0.0
 40
1.0
100
AcDbArc
 50
90.0
 51
180.0
  0
ARC
  5
23A
100
AcDbEntity
  8
0
370
    -3
  6
Continuous
100
AcDbCircle
 10
-468.913238
 20
3.395708
 30
0.0
 40
0.7
100
AcDbArc
 50
0.0
 51
90.0
  0
LINE
  5
23B
100
AcDbEntity
  8
0
370
    -3
  6
Continuous
100
AcDbLine
 10
-572.713222
 20
10.095708
 30
0.0
 11
-576.713222
 21
10.095708
 31
0.0
  0
LINE
  5
23C
100
AcDbEntity
  8
0
370
    -3
  6
Continuous
100
AcDbLine
 10
-468.913238
 20
4.095708
 30
0.0
 11
-472.50704
 21
4.095708
 31
0.0
  0
ARC
  5
23D
100
AcDbEntity
  8
0
370
    -3
  6
Continuous
100
AcDbCircle
 10
-495.963222
 20
38.951171
 30
0.0
 40
1.0
100
AcDbArc
 50
0.0
 51
79.855206
  0
ARC
  5
23E
100
AcDbEntity
  8
0
370
    -3
  6
Continuous
100
AcDbCircle
 10
-521.713238
 20
-15.904292
 30
0.0
 40
52.5
100
AcDbArc
 50
23.111602
 51
23.695081
  0
ARC
  5
23F
100
AcDbEntity
  8
0
370
    -3
  6
Continuous
100
AcDbCircle
 10
-483.463222
 20
34.702326
 30
0.0
 40
1.0
100
AcDbArc
 50
62.598226
 51
180.0
  0
ARC
  5
240
100
AcDbEntity
  8
0
370
    -3
  6
Continuous
100
AcDbCircle
 10
-472.50704
 20
5.095708
 30
0.0
 40
1.0
100
AcDbArc
 50
203.111602
 51
270.0
  0
ARC
  5
241
100
AcDbEntity
  8
0
370
    -3
  6
Continuous
100
AcDbCircle
 10
-521.713238
 20
-15.904292
 30
0.0
 40
52.5
100
AcDbArc
 50
23.111602
 51
23.663705
  0
ARC
  5
242
100
AcDbEntity
  8
0
370
    -3
  6
Continuous
100
AcDbCircle
 10
-472.213238
 20
16.595708
 30
0.0
 40
1.0
100
AcDbArc
 50
273.0
 51
87.0
  0
ARC
  5
243
100
AcDbEntity
  8
0
370
    -3
  6
Continuous
100
AcDbCircle
 10
-583.556818
 20
-0.654292
 30
0.0
 40
1.0
100
AcDbArc
 50
175.167583
 51
270.0
  0
ARC
  5
244
100
AcDbEntity
  8
0
370
    -3
  6
Continuous
100
AcDbCircle
 10
-471.713238
 20
12.095708
 30
0.0
 40
1.0
100
AcDbArc
 50
273.0
 51
87.0
  0
ARC
  5
245
100
AcDbEntity
  8
0
370
    -3
  6
Continuous
100
AcDbCircle
 10
-547.463222
 20
38.951171
 30
0.0
 40
1.0
100
AcDbArc
 50
100.144794
 51
180.0
  0
LINE
  5
246
100
AcDbEntity
  8
0
370
    -3
  6
Continuous
100
AcDbLine
 10
-474.9153
 20
10.926523
 30
0.0
 11
-471.660902
 21
11.097079
 31
0.0
  0
ARC
  5
247
100
AcDbEntity
  8
0
370
    -3
  6
Continuous
100
AcDbCircle
 10
-559.963222
 20
34.702326
 30
0.0
 40
1.0
100
AcDbArc
 50
0.0
 51
117.401774
  0
LINE
  5
248
100
AcDbEntity
  8
0
370
    -3
  6
Continuous
100
AcDbLine
 10
-474.822383
 20
8.760024
 30
0.0
 11
-471.660902
 21
8.594338
 31
0.0
  0
ARC
  5
249
100
AcDbEntity
  8
0
370
    -3
  6
Continuous
100
AcDbCircle
 10
-471.713238
 20
7.595708
 30
0.0
 40
1.0
100
AcDbArc
 50
273.0
 51
87.0
  0
LINE
  5
24A
100
AcDbEntity
  8
0
370
    -3
  6
Continuous
100
AcDbLine
 10
-557.804603
 20
12.29435
 30
0.0
 11
-567.83733
 21
23.436822
 31
0.0
  0
ARC
  5
24B
100
AcDbEntity
  8
0
370
    -3
  6
Continuous
100
AcDbCircle
 10
-472.699589
 20
5.541271
 30
0.0
 40
1.0
100
AcDbArc
 50
93.0
 51
203.63143
  0
ARC
  5
24C
100
AcDbEntity
  8
0
370
    -3
  6
Continuous
100
AcDbCircle
 10
-579.713206
 20
-6.904292
 30
0.0
 40
5.25
100
AcDbArc
 50
31.003058
 51
90.0
  0
LINE
  5
24D
100
AcDbEntity
  8
0
370
    -3
  6
Continuous
100
AcDbLine
 10
-472.751925
 20
6.539901
 30
0.0
 11
-471.660902
 21
6.597079
 31
0.0
  0
ARC
  5
24E
100
AcDbEntity
  8
0
370
    -3
  6
Continuous
100
AcDbCircle
 10
-579.713206
 20
-6.904292
 30
0.0
 40
5.25
100
AcDbArc
 50
270.0
 51
328.996942
  0
LINE
  5
24F
100
AcDbEntity
  8
0
370
    -3
  6
Continuous
100
AcDbLine
 10
-549.91188
 20
20.187073
 30
0.0
 11
-561.054352
 21
30.2198
 31
0.0
  0
ARC
  5
250
100
AcDbEntity
  8
0
370
    -3
  6
Continuous
100
AcDbCircle
 10
-521.713238
 20
-15.904292
 30
0.0
 40
52.5
100
AcDbArc
 50
113.136889
 51
113.663705
  0
ARC
  5
251
100
AcDbEntity
  8
0
370
    -3
  6
Continuous
100
AcDbCircle
 10
-552.026036
 20
28.179541
 30
0.0
 40
1.0
100
AcDbArc
 50
307.785803
 51
357.0
  0
LINE
  5
252
100
AcDbEntity
  8
0
370
    -3
  6
Continuous
100
AcDbLine
 10
-575.213238
 20
-34.654292
 30
0.0
 11
-575.213238
 21
2.845708
 31
0.0
  0
ARC
  5
253
100
AcDbEntity
  8
0
370
    -3
  6
Continuous
100
AcDbCircle
 10
-487.713238
 20
-66.404292
 30
0.0
 40
5.25
100
AcDbArc
 50
12.550466
 51
93.016525
  0
ARC
  5
254
100
AcDbEntity
  8
0
370
    -3
  6
Continuous
100
AcDbCircle
 10
-551.930094
 20
28.245359
 30
0.0
 40
1.0
100
AcDbArc
 50
183.0
 51
301.115753
  0
ARC
  5
255
100
AcDbEntity
  8
0
370
    -3
  6
Continuous
100
AcDbCircle
 10
-475.715838
 20
-66.154508
 30
0.0
 40
5.0
100
AcDbArc
 50
117.472166
 51
181.192718
  0
ARC
  5
256
100
AcDbEntity
  8
0
370
    -3
  6
Continuous
100
AcDbCircle
 10
-536.213238
 20
35.073645
 30
0.0
 40
0.5
100
AcDbArc
 50
285.877702
 51
0.0
  0
ARC
  5
257
100
AcDbEntity
  8
0
370
    -3
  6
Continuous
100
AcDbCircle
 10
-567.710607
 20
-66.154508
 30
0.0
 40
5.0
100
AcDbArc
 50
358.807282
 51
62.527834
  0
LINE
  5
258
100
AcDbEntity
  8
0
370
    -3
  6
Continuous
100
AcDbLine
 10
-535.713238
 20
35.175625
 30
0.0
 11
-535.713238
 21
35.073645
 31
0.0
  0
ARC
  5
259
100
AcDbEntity
  8
0
370
    -3
  6
Continuous
100
AcDbCircle
 10
-535.213238
 20
35.175625
 30
0.0
 40
0.5
100
AcDbArc
 50
97.79785
 51
180.0
  0
ARC
  5
25A
100
AcDbEntity
  8
0
370
    -3
  6
Continuous
100
AcDbCircle
 10
-487.713238
 20
-66.404292
 30
0.0
 40
7.0
100
AcDbArc
 50
200.924832
 51
214.849905
  0
ARC
  5
25B
100
AcDbEntity
  8
0
370
    -3
  6
Continuous
100
AcDbCircle
 10
-521.713238
 20
-63.404292
 30
0.0
 40
100.0
100
AcDbArc
 50
90.0
 51
97.79785
  0
ARC
  5
25C
100
AcDbEntity
  8
0
370
    -3
  6
Continuous
100
AcDbCircle
 10
-487.713238
 20
-66.404292
 30
0.0
 40
7.0
100
AcDbArc
 50
325.150095
 51
1.192718
  0
ARC
  5
25D
100
AcDbEntity
  8
0
370
    -3
  6
Continuous
100
AcDbCircle
 10
-521.713238
 20
-15.904292
 30
0.0
 40
52.5
100
AcDbArc
 50
105.877702
 51
108.664571
  0
ARC
  5
25E
100
AcDbEntity
  8
0
370
    -3
  6
Continuous
100
AcDbCircle
 10
-555.713206
 20
-66.404292
 30
0.0
 40
7.0
100
AcDbArc
 50
325.150095
 51
339.075168
  0
ARC
  5
25F
100
AcDbEntity
  8
0
370
    -3
  6
Continuous
100
AcDbCircle
 10
-521.713238
 20
-15.904292
 30
0.0
 40
52.5
100
AcDbArc
 50
118.562834
 51
118.973449
  0
ARC
  5
260
100
AcDbEntity
  8
0
370
    -3
  6
Continuous
100
AcDbCircle
 10
-555.713206
 20
-66.404292
 30
0.0
 40
7.0
100
AcDbArc
 50
178.807282
 51
214.849905
  0
ARC
  5
261
100
AcDbEntity
  8
0
370
    -3
  6
Continuous
100
AcDbCircle
 10
-545.213238
 20
34.095708
 30
0.0
 40
1.0
100
AcDbArc
 50
3.0
 51
177.0
  0
ARC
  5
262
100
AcDbEntity
  8
0
370
    -3
  6
Continuous
100
AcDbCircle
 10
-547.545424
 20
30.945982
 30
0.0
 40
1.0
100
AcDbArc
 50
183.0
 51
298.871352
  0
ARC
  5
263
100
AcDbEntity
  8
0
370
    -3
  6
Continuous
100
AcDbCircle
 10
-564.713222
 20
-36.324496
 30
0.0
 40
20.0
100
AcDbArc
 50
180.0
 51
225.0
  0
LINE
  5
264
100
AcDbEntity
  8
0
370
    -3
  6
Continuous
100
AcDbLine
 10
-546.377554
 20
30.986564
 30
0.0
 11
-546.211868
 21
34.148044
 31
0.0
  0
ARC
  5
265
100
AcDbEntity
  8
0
370
    -3
  6
Continuous
100
AcDbCircle
 10
-493.476568
 20
-31.995959
 30
0.0
 40
33.5
100
AcDbArc
 50
297.472166
 51
315.0
  0
ARC
  5
266
100
AcDbEntity
  8
0
370
    -3
  6
Continuous
100
AcDbCircle
 10
-547.376184
 20
31.0389
 30
0.0
 40
1.0
100
AcDbArc
 50
298.664584
 51
357.0
  0
ARC
  5
267
100
AcDbEntity
  8
0
370
    -3
  6
Continuous
100
AcDbCircle
 10
-576.713222
 20
5.095708
 30
0.0
 40
5.0
100
AcDbArc
 50
90.0
 51
180.0
  0
ARC
  5
268
100
AcDbEntity
  8
0
370
    -3
  6
Continuous
100
AcDbCircle
 10
-543.158801
 20
33.109358
 30
0.0
 40
1.0
100
AcDbArc
 50
183.0
 51
293.63143
  0
ARC
  5
269
100
AcDbEntity
  8
0
370
    -3
  6
Continuous
100
AcDbCircle
 10
-576.713222
 20
5.095708
 30
0.0
 40
5.0
100
AcDbArc
 50
180.0
 51
270.0
  0
ARC
  5
26A
100
AcDbEntity
  8
0
370
    -3
  6
Continuous
100
AcDbCircle
 10
-538.834694
 20
34.782055
 30
0.0
 40
1.0
100
AcDbArc
 50
200.070332
 51
288.664571
  0
ARC
  5
26B
100
AcDbEntity
  8
0
370
    -3
  6
Continuous
100
AcDbCircle
 10
-561.813863
 20
-65.04617
 30
0.0
 40
1.0
100
AcDbArc
 50
190.644977
 51
347.449534
  0
ARC
  5
26C
100
AcDbEntity
  8
0
370
    -3
  6
Continuous
100
AcDbCircle
 10
-542.7586
 20
33.282523
 30
0.0
 40
1.0
100
AcDbArc
 50
293.164432
 51
357.0
  0
ARC
  5
26D
100
AcDbEntity
  8
0
370
    -3
  6
Continuous
100
AcDbCircle
 10
-481.612582
 20
-65.04617
 30
0.0
 40
1.0
100
AcDbArc
 50
192.550466
 51
349.355023
  0
LINE
  5
26E
100
AcDbEntity
  8
0
370
    -3
  6
Continuous
100
AcDbLine
 10
-541.759971
 20
33.230187
 30
0.0
 11
-541.711868
 21
34.148044
 31
0.0
  0
ARC
  5
26F
100
AcDbEntity
  8
0
370
    -3
  6
Continuous
100
AcDbCircle
 10
-493.963238
 20
-67.904292
 30
0.0
 40
1.0
100
AcDbArc
 50
270.0
 51
0.0
  0
ARC
  5
270
100
AcDbEntity
  8
0
370
    -3
  6
Continuous
100
AcDbCircle
 10
-540.713238
 20
34.095708
 30
0.0
 40
1.0
100
AcDbArc
 50
20.070332
 51
177.0
  0
ARC
  5
271
100
AcDbEntity
  8
0
370
    -3
  6
Continuous
100
AcDbCircle
 10
-549.463206
 20
-67.904292
 30
0.0
 40
1.0
100
AcDbArc
 50
180.0
 51
270.0
  0
LINE
  5
272
100
AcDbEntity
  8
0
370
    -3
  6
Continuous
100
AcDbLine
 10
-544.157431
 20
33.057022
 30
0.0
 11
-544.214609
 21
34.148044
 31
0.0
  0
ARC
  5
273
100
AcDbEntity
  8
0
370
    -3
  6
Continuous
100
AcDbCircle
 10
-549.713238
 20
34.095708
 30
0.0
 40
1.0
100
AcDbArc
 50
3.0
 51
177.0
  0
LINE
  5
274
100
AcDbEntity
  8
0
370
    -3
  6
Continuous
100
AcDbLine
 10
-548.544053
 20
30.893647
 30
0.0
 11
-548.714609
 21
34.148044
 31
0.0
  0
LINE
  5
275
100
AcDbEntity
  8
0
370
    -3
  6
Continuous
100
AcDbLine
 10
-494.963222
 20
33.095708
 30
0.0
 11
-494.963222
 21
38.951171
 31
0.0
  0
ARC
  5
276
100
AcDbEntity
  8
0
370
    -3
  6
Continuous
100
AcDbCircle
 10
-554.213238
 20
33.595708
 30
0.0
 40
1.0
100
AcDbArc
 50
3.0
 51
177.0
  0
LINE
  5
277
100
AcDbEntity
  8
0
370
    -3
  6
Continuous
100
AcDbLine
 10
-484.463222
 20
33.095708
 30
0.0
 11
-484.463222
 21
34.702326
 31
0.0
  0
LINE
  5
278
100
AcDbEntity
  8
0
370
    -3
  6
Continuous
100
AcDbLine
 10
-552.928723
 20
28.193023
 30
0.0
 11
-553.214609
 21
33.648044
 31
0.0
  0
LINE
  5
279
100
AcDbEntity
  8
0
370
    -3
  6
Continuous
100
AcDbLine
 10
-558.963222
 20
33.095708
 30
0.0
 11
-558.963222
 21
34.702326
 31
0.0
  0
LINE
  5
27A
100
AcDbEntity
  8
0
370
    -3
  6
Continuous
100
AcDbLine
 10
-551.027407
 20
28.127205
 30
0.0
 11
-550.711868
 21
34.148044
 31
0.0
  0
LINE
  5
27B
100
AcDbEntity
  8
0
370
    -3
  6
Continuous
100
AcDbLine
 10
-548.463222
 20
33.095708
 30
0.0
 11
-548.463222
 21
38.951171
 31
0.0
  0
LINE
  5
27C
100
AcDbEntity
  8
0
370
    -3
  6
Continuous
100
AcDbLine
 10
-575.213238
 20
3.395708
 30
0.0
 11
-575.213238
 21
-15.904292
 31
0.0
  0
LINE
  5
27D
100
AcDbEntity
  8
0
370
    -3
  6
Continuous
100
AcDbLine
 10
-579.713206
 20
-12.154292
 30
0.0
 11
-583.713222
 21
-12.154292
 31
0.0
  0
ARC
  5
27E
100
AcDbEntity
  8
0
370
    -3
  6
Continuous
100
AcDbCircle
 10
-574.513238
 20
3.395708
 30
0.0
 40
0.7
100
AcDbArc
 50
90.0
 51
180.0
  0
LINE
  5
27F
100
AcDbEntity
  8
0
370
    -3
  6
Continuous
100
AcDbLine
 10
-579.713206
 20
-1.654292
 30
0.0
 11
-583.556818
 21
-1.654292
 31
0.0
  0
LINE
  5
280
100
AcDbEntity
  8
0
370
    -3
  6
Continuous
100
AcDbLine
 10
-574.513238
 20
4.095708
 30
0.0
 11
-570.919437
 21
4.095708
 31
0.0
  0
ARC
  5
281
100
AcDbEntity
  8
0
370
    -3
  6
Continuous
100
AcDbCircle
 10
-521.713238
 20
-15.904292
 30
0.0
 40
52.5
100
AcDbArc
 50
156.304919
 51
156.888398
  0
ARC
  5
282
100
AcDbEntity
  8
0
370
    -3
  6
Continuous
100
AcDbCircle
 10
-570.919437
 20
5.095708
 30
0.0
 40
1.0
100
AcDbArc
 50
270.0
 51
336.888398
  0
ARC
  5
283
100
AcDbEntity
  8
0
370
    -3
  6
Continuous
100
AcDbCircle
 10
-521.713238
 20
-15.904292
 30
0.0
 40
52.5
100
AcDbArc
 50
156.336295
 51
156.888398
  0
LINE
  5
284
100
AcDbEntity
  8
0
370
    -3
  6
Continuous
100
AcDbLine
 10
-492.963238
 20
-66.404292
 30
0.0
 11
-492.963238
 21
-67.904292
 31
0.0
  0
ARC
  5
285
100
AcDbEntity
  8
0
370
    -3
  6
Continuous
100
AcDbCircle
 10
-521.713238
 20
-15.904292
 30
0.0
 40
52.5
100
AcDbArc
 50
151.026551
 51
151.437166
  0
LINE
  5
286
100
AcDbEntity
  8
0
370
    -3
  6
Continuous
100
AcDbLine
 10
-481.968676
 20
-70.404292
 30
0.0
 11
-486.277101
 21
-70.404292
 31
0.0
  0
ARC
  5
287
100
AcDbEntity
  8
0
370
    -3
  6
Continuous
100
AcDbCircle
 10
-521.713238
 20
-15.904292
 30
0.0
 40
52.5
100
AcDbArc
 50
151.026551
 51
151.437166
  0
LINE
  5
288
100
AcDbEntity
  8
0
370
    -3
  6
Continuous
100
AcDbLine
 10
-469.788491
 20
-55.684036
 30
0.0
 11
-464.571087
 21
-50.466631
 31
0.0
  0
ARC
  5
289
100
AcDbEntity
  8
0
370
    -3
  6
Continuous
100
AcDbCircle
 10
-571.213238
 20
16.595708
 30
0.0
 40
1.0
100
AcDbArc
 50
93.0
 51
267.0
  0
LINE
  5
28A
100
AcDbEntity
  8
0
370
    -3
  6
Continuous
100
AcDbLine
 10
-575.213222
 20
0.095708
 30
0.0
 11
-576.713222
 21
0.095708
 31
0.0
  0
ARC
  5
28B
100
AcDbEntity
  8
0
370
    -3
  6
Continuous
100
AcDbCircle
 10
-571.713238
 20
12.095708
 30
0.0
 40
1.0
100
AcDbArc
 50
93.0
 51
267.0
  0
LINE
  5
28C
100
AcDbEntity
  8
0
370
    -3
  6
Continuous
100
AcDbLine
 10
-561.457769
 20
-70.404292
 30
0.0
 11
-557.149344
 21
-70.404292
 31
0.0
  0
LINE
  5
28D
100
AcDbEntity
  8
0
370
    -3
  6
Continuous
100
AcDbLine
 10
-565.810553
 20
15.311193
 30
0.0
 11
-571.265574
 21
15.597079
 31
0.0
  0
ARC
  5
28E
100
AcDbEntity
  8
0
370
    -3
  6
Continuous
100
AcDbCircle
 10
-549.949893
 20
-31.995959
 30
0.0
 40
35.5
100
AcDbArc
 50
225.0
 51
242.589914
  0
LINE
  5
28F
100
AcDbEntity
  8
0
370
    -3
  6
Continuous
100
AcDbLine
 10
-565.744735
 20
13.409876
 30
0.0
 11
-571.765574
 21
13.094338
 31
0.0
  0
ARC
  5
290
100
AcDbEntity
  8
0
370
    -3
  6
Continuous
100
AcDbCircle
 10
-493.476584
 20
-31.995959
 30
0.0
 40
33.5
100
AcDbArc
 50
297.472151
 51
315.0
  0
LINE
  5
291
100
AcDbEntity
  8
0
370
    -3
  6
Continuous
100
AcDbLine
 10
-568.511177
 20
10.926523
 30
0.0
 11
-571.765574
 21
11.097079
 31
0.0
  0
ARC
  5
292
100
AcDbEntity
  8
0
370
    -3
  6
Continuous
100
AcDbCircle
 10
-567.710622
 20
-66.154508
 30
0.0
 40
5.0
100
AcDbArc
 50
358.807282
 51
62.527834
  0
ARC
  5
293
100
AcDbEntity
  8
0
370
    -3
  6
Continuous
100
AcDbCircle
 10
-568.563513
 20
9.927893
 30
0.0
 40
1.0
100
AcDbArc
 50
331.128648
 51
87.0
  0
ARC
  5
294
100
AcDbEntity
  8
0
370
    -3
  6
Continuous
100
AcDbCircle
 10
-475.715854
 20
-66.154508
 30
0.0
 40
5.0
100
AcDbArc
 50
117.472166
 51
181.192718
  0
LINE
  5
295
100
AcDbEntity
  8
0
370
    -3
  6
Continuous
100
AcDbLine
 10
-568.604094
 20
8.760024
 30
0.0
 11
-571.765574
 21
8.594338
 31
0.0
  0
LINE
  5
296
100
AcDbEntity
  8
0
370
    -3
  6
Continuous
100
AcDbLine
 10
-456.713245
 20
-70.904292
 30
0.0
 11
-456.713245
 21
-61.404292
 31
0.0
  0
ARC
  5
297
100
AcDbEntity
  8
0
370
    -3
  6
Continuous
100
AcDbCircle
 10
-568.65643
 20
9.758653
 30
0.0
 40
1.0
100
AcDbArc
 50
273.0
 51
331.335416
  0
LINE
  5
298
100
AcDbEntity
  8
0
370
    -3
  6
Continuous
100
AcDbLine
 10
-575.052183
 20
-57.098249
 30
0.0
 11
-580.660354
 21
-51.490078
 31
0.0
  0
ARC
  5
299
100
AcDbEntity
  8
0
370
    -3
  6
Continuous
100
AcDbCircle
 10
-571.713238
 20
7.595708
 30
0.0
 40
1.0
100
AcDbArc
 50
93.0
 51
267.0
  0
LINE
  5
29A
100
AcDbEntity
  8
0
370
    -3
  6
Continuous
100
AcDbLine
 10
-582.713238
 20
-50.904292
 30
0.0
 11
-582.074568
 21
-50.904292
 31
0.0
  0
ARC
  5
29B
100
AcDbEntity
  8
0
370
    -3
  6
Continuous
100
AcDbCircle
 10
-570.726888
 20
5.541271
 30
0.0
 40
1.0
100
AcDbArc
 50
336.36857
 51
87.0
  0
LINE
  5
29C
100
AcDbEntity
  8
0
370
    -3
  6
Continuous
100
AcDbLine
 10
-584.213245
 20
-58.904292
 30
0.0
 11
-573.836254
 21
-58.904292
 31
0.0
  0
LINE
  5
29D
100
AcDbEntity
  8
0
370
    -3
  6
Continuous
100
AcDbLine
 10
-570.674552
 20
6.539901
 30
0.0
 11
-571.765574
 21
6.597079
 31
0.0
  0
LINE
  5
29E
100
AcDbEntity
  8
0
370
    -3
  6
Continuous
100
AcDbLine
 10
-586.713232
 20
-70.904292
 30
0.0
 11
-586.713232
 21
-61.404292
 31
0.0
  0
ARC
  5
29F
100
AcDbEntity
  8
0
370
    -3
  6
Continuous
100
AcDbCircle
 10
-565.862889
 20
14.312563
 30
0.0
 40
1.0
100
AcDbArc
 50
325.611524
 51
87.0
  0
LINE
  5
2A0
100
AcDbEntity
  8
0
370
    -3
  6
Continuous
100
AcDbLine
 10
-573.63797
 20
-55.684036
 30
0.0
 11
-578.855374
 21
-50.466631
 31
0.0
  0
ARC
  5
2A1
100
AcDbEntity
  8
0
370
    -3
  6
Continuous
100
AcDbCircle
 10
-565.797071
 20
14.408506
 30
0.0
 40
1.0
100
AcDbArc
 50
273.0
 51
325.486921
  0
LINE
  5
2A2
100
AcDbEntity
  8
0
370
    -3
  6
CENTER
100
AcDbLine
 10
-578.713238
 20
-53.940256
 30
0.0
 11
-578.713238
 21
-78.11507
 31
0.0
  0
ARC
  5
2A3
100
AcDbEntity
  8
0
370
    -3
  6
Continuous
100
AcDbCircle
 10
-561.723483
 20
29.476655
 30
0.0
 40
1.0
100
AcDbArc
 50
48.0
 51
131.401106
  0
LINE
  5
2A4
100
AcDbEntity
  8
0
370
    -3
  6
Continuous
100
AcDbLine
 10
-468.374293
 20
-57.098249
 30
0.0
 11
-462.766123
 21
-51.490078
 31
0.0
  0
LINE
  5
2A5
100
AcDbEntity
  8
0
370
    -3
  6
Continuous
100
AcDbLine
 10
-555.536987
 20
27.444409
 30
0.0
 11
-555.211868
 21
33.648044
 31
0.0
  0
LINE
  5
2A6
100
AcDbEntity
  8
0
370
    -3
  6
Continuous
100
AcDbLine
 10
-460.713238
 20
-50.904292
 30
0.0
 11
-461.351909
 21
-50.904292
 31
0.0
  0
ARC
  5
2A7
100
AcDbEntity
  8
0
370
    -3
  6
Continuous
100
AcDbCircle
 10
-556.535616
 20
27.496745
 30
0.0
 40
1.0
100
AcDbArc
 50
228.0
 51
357.0
  0
LINE
  5
2A8
100
AcDbEntity
  8
0
370
    -3
  6
Continuous
100
AcDbLine
 10
-459.213232
 20
-58.904292
 30
0.0
 11
-469.590223
 21
-58.904292
 31
0.0
  0
ARC
  5
2A9
100
AcDbEntity
  8
0
370
    -3
  6
Continuous
100
AcDbCircle
 10
-567.094185
 20
24.105952
 30
0.0
 40
1.0
100
AcDbArc
 50
138.598894
 51
222.0
  0
LINE
  5
2AA
100
AcDbEntity
  8
0
370
    -3
  6
Continuous
100
AcDbLine
 10
-469.788507
 20
-55.684036
 30
0.0
 11
-464.571103
 21
-50.466631
 31
0.0
  0
ARC
  5
2AB
100
AcDbEntity
  8
0
370
    -3
  6
Continuous
100
AcDbCircle
 10
-521.713238
 20
-15.904292
 30
0.0
 40
61.5
100
AcDbArc
 50
131.401106
 51
138.598894
  0
LINE
  5
2AC
100
AcDbEntity
  8
0
370
    -3
  6
CENTER
100
AcDbLine
 10
-464.713238
 20
-53.940256
 30
0.0
 11
-464.713238
 21
-78.11507
 31
0.0
  0
LINE
  5
2AD
100
AcDbEntity
  8
0
370
    -3
  6
Continuous
100
AcDbLine
 10
-565.061939
 20
17.919456
 30
0.0
 11
-571.265574
 21
17.594338
 31
0.0
  0
ARC
  5
2AE
100
AcDbEntity
  8
0
370
    -3
  6
DASHED
100
AcDbCircle
 10
-459.213245
 20
-61.404292
 30
0.0
 40
2.5
100
AcDbArc
 50
0.0
 51
56.250909
  0
ARC
  5
2AF
100
AcDbEntity
  8
0
370
    -3
  6
Continuous
100
AcDbCircle
 10
-565.114275
 20
18.918086
 30
0.0
 40
1.0
100
AcDbArc
 50
273.0
 51
42.0
  0
ARC
  5
2B0
100
AcDbEntity
  8
0
370
    -3
  6
Continuous
100
AcDbCircle
 10
-582.074568
 20
-52.904292
 30
0.0
 40
2.0
100
AcDbArc
 50
45.0
 51
90.0
  0
ARC
  5
2B1
100
AcDbEntity
  8
0
370
    -3
  6
Continuous
100
AcDbCircle
 10
-582.713238
 20
-52.904292
 30
0.0
 40
2.0
100
AcDbArc
 50
90.0
 51
180.0
  0
ARC
  5
2B2
100
AcDbEntity
  8
0
370
    -3
  6
Continuous
100
AcDbCircle
 10
-564.713238
 20
-36.324496
 30
0.0
 40
20.0
100
AcDbArc
 50
180.0
 51
225.0
  0
LINE
  5
2B3
100
AcDbEntity
  8
0
370
    -3
  6
Continuous
100
AcDbLine
 10
-549.91188
 20
-51.995657
 30
0.0
 11
-561.054352
 21
-62.028384
 31
0.0
  0
ARC
  5
2B4
100
AcDbEntity
  8
0
370
    -3
  6
Continuous
100
AcDbCircle
 10
-584.213245
 20
-61.404292
 30
0.0
 40
2.5
100
AcDbArc
 50
90.0
 51
180.0
  0
ARC
  5
2B5
100
AcDbEntity
  8
0
370
    -3
  6
Continuous
100
AcDbCircle
 10
-521.713238
 20
-15.904292
 30
0.0
 40
52.5
100
AcDbArc
 50
246.336295
 51
246.863111
  0
ARC
  5
2B6
100
AcDbEntity
  8
0
370
    -3
  6
DASHED
100
AcDbCircle
 10
-584.213232
 20
-61.404292
 30
0.0
 40
2.5
100
AcDbArc
 50
123.749091
 51
180.0
  0
ARC
  5
2B7
100
AcDbEntity
  8
0
370
    -3
  6
Continuous
100
AcDbCircle
 10
-552.026036
 20
-59.988124
 30
0.0
 40
1.0
100
AcDbArc
 50
3.0
 51
52.214197
  0
ARC
  5
2B8
100
AcDbEntity
  8
0
370
    -3
  6
Continuous
100
AcDbCircle
 10
-586.713238
 20
-57.662639
 30
0.0
 40
2.0
100
AcDbArc
 50
303.749091
 51
0.0
  0
ARC
  5
2B9
100
AcDbEntity
  8
0
370
    -3
  6
Continuous
100
AcDbCircle
 10
-551.930094
 20
-60.053943
 30
0.0
 40
1.0
100
AcDbArc
 50
58.884247
 51
177.0
  0
ARC
  5
2BA
100
AcDbEntity
  8
0
370
    -3
  6
Continuous
100
AcDbCircle
 10
-461.351909
 20
-52.904292
 30
0.0
 40
2.0
100
AcDbArc
 50
90.0
 51
135.0
  0
ARC
  5
2BB
100
AcDbEntity
  8
0
370
    -3
  6
Continuous
100
AcDbCircle
 10
-536.213238
 20
-66.882228
 30
0.0
 40
0.5
100
AcDbArc
 50
0.0
 51
74.122298
  0
ARC
  5
2BC
100
AcDbEntity
  8
0
370
    -3
  6
Continuous
100
AcDbCircle
 10
-460.713238
 20
-52.904292
 30
0.0
 40
2.0
100
AcDbArc
 50
0.0
 51
90.0
  0
LINE
  5
2BD
100
AcDbEntity
  8
0
370
    -3
  6
Continuous
100
AcDbLine
 10
-535.713238
 20
-66.984209
 30
0.0
 11
-535.713238
 21
-66.882228
 31
0.0
  0
ARC
  5
2BE
100
AcDbEntity
  8
0
370
    -3
  6
Continuous
100
AcDbCircle
 10
-469.590223
 20
-60.904292
 30
0.0
 40
2.0
100
AcDbArc
 50
90.0
 51
129.566222
  0
ARC
  5
2BF
100
AcDbEntity
  8
0
370
    -3
  6
Continuous
100
AcDbCircle
 10
-535.213238
 20
-66.984209
 30
0.0
 40
0.5
100
AcDbArc
 50
180.0
 51
262.20215
  0
ARC
  5
2C0
100
AcDbEntity
  8
0
370
    -3
  6
Continuous
100
AcDbCircle
 10
-521.713238
 20
31.595708
 30
0.0
 40
100.0
100
AcDbArc
 50
262.20215
 51
270.0
  0
ARC
  5
2C1
100
AcDbEntity
  8
0
370
    -3
  6
Continuous
100
AcDbCircle
 10
-459.213232
 20
-61.404292
 30
0.0
 40
2.5
100
AcDbArc
 50
0.0
 51
90.0
  0
ARC
  5
2C2
100
AcDbEntity
  8
0
370
    -3
  6
Continuous
100
AcDbCircle
 10
-521.713238
 20
-15.904292
 30
0.0
 40
52.5
100
AcDbArc
 50
251.335429
 51
254.122298
  0
ARC
  5
2C3
100
AcDbEntity
  8
0
370
    -3
  6
Continuous
100
AcDbCircle
 10
-456.713238
 20
-57.662639
 30
0.0
 40
2.0
100
AcDbArc
 50
180.0
 51
236.250909
  0
ARC
  5
2C4
100
AcDbEntity
  8
0
370
    -3
  6
Continuous
100
AcDbCircle
 10
-521.713238
 20
-15.904292
 30
0.0
 40
52.5
100
AcDbArc
 50
241.026551
 51
241.437166
  0
LINE
  5
2C5
100
AcDbEntity
  8
0
370
    -3
  6
Continuous
100
AcDbLine
 10
-565.213245
 20
-70.404292
 30
0.0
 11
-586.713232
 21
-70.404292
 31
0.0
  0
ARC
  5
2C6
100
AcDbEntity
  8
0
370
    -3
  6
Continuous
100
AcDbCircle
 10
-545.213238
 20
-65.904292
 30
0.0
 40
1.0
100
AcDbArc
 50
183.0
 51
357.0
  0
LINE
  5
2C7
100
AcDbEntity
  8
0
370
    -3
  6
Continuous
100
AcDbLine
 10
-478.213232
 20
-70.404292
 30
0.0
 11
-456.713245
 21
-70.404292
 31
0.0
  0
ARC
  5
2C8
100
AcDbEntity
  8
0
370
    -3
  6
Continuous
100
AcDbCircle
 10
-547.545424
 20
-62.754566
 30
0.0
 40
1.0
100
AcDbArc
 50
61.128648
 51
177.0
  0
LINE
  5
2C9
100
AcDbEntity
  8
0
370
    -3
  6
Continuous
100
AcDbLine
 10
-521.713232
 20
-68.904292
 30
0.0
 11
-549.174874
 21
-68.904292
 31
0.0
  0
LINE
  5
2CA
100
AcDbEntity
  8
0
370
    -3
  6
Continuous
100
AcDbLine
 10
-546.377554
 20
-62.795148
 30
0.0
 11
-546.211868
 21
-65.956628
 31
0.0
  0
LINE
  5
2CB
100
AcDbEntity
  8
0
370
    -3
  6
Continuous
100
AcDbLine
 10
-521.713245
 20
-68.904292
 30
0.0
 11
-493.963238
 21
-68.904292
 31
0.0
  0
ARC
  5
2CC
100
AcDbEntity
  8
0
370
    -3
  6
Continuous
100
AcDbCircle
 10
-547.376184
 20
-62.847484
 30
0.0
 40
1.0
100
AcDbArc
 50
3.0
 51
61.335416
  0
LINE
  5
2CD
100
AcDbEntity
  8
0
370
    -3
  6
Continuous
100
AcDbLine
 10
-565.213245
 20
-70.904292
 30
0.0
 11
-565.213245
 21
-65.285997
 31
0.0
  0
ARC
  5
2CE
100
AcDbEntity
  8
0
370
    -3
  6
Continuous
100
AcDbCircle
 10
-543.158801
 20
-64.917941
 30
0.0
 40
1.0
100
AcDbArc
 50
66.36857
 51
177.0
  0
LINE
  5
2CF
100
AcDbEntity
  8
0
370
    -3
  6
Continuous
100
AcDbLine
 10
-478.213232
 20
-70.904292
 30
0.0
 11
-478.213232
 21
-65.285997
 31
0.0
  0
ARC
  5
2D0
100
AcDbEntity
  8
0
370
    -3
  6
Continuous
100
AcDbCircle
 10
-538.834694
 20
-66.590639
 30
0.0
 40
1.0
100
AcDbArc
 50
71.335429
 51
159.929668
  0
ARC
  5
2D1
100
AcDbEntity
  8
0
370
    -3
  6
Continuous
100
AcDbCircle
 10
-555.713222
 20
-66.404292
 30
0.0
 40
7.0
100
AcDbArc
 50
319.994853
 51
339.075168
  0
ARC
  5
2D2
100
AcDbEntity
  8
0
370
    -3
  6
Continuous
100
AcDbCircle
 10
-542.7586
 20
-65.091107
 30
0.0
 40
1.0
100
AcDbArc
 50
3.0
 51
66.835568
  0
ARC
  5
2D3
100
AcDbEntity
  8
0
370
    -3
  6
Continuous
100
AcDbCircle
 10
-555.713222
 20
-66.404292
 30
0.0
 40
7.0
100
AcDbArc
 50
178.807282
 51
220.005147
  0
LINE
  5
2D4
100
AcDbEntity
  8
0
370
    -3
  6
Continuous
100
AcDbLine
 10
-541.759971
 20
-65.038771
 30
0.0
 11
-541.711868
 21
-65.956628
 31
0.0
  0
ARC
  5
2D5
100
AcDbEntity
  8
0
370
    -3
  6
Continuous
100
AcDbCircle
 10
-549.949893
 20
-31.995959
 30
0.0
 40
33.5
100
AcDbArc
 50
225.0
 51
242.527834
  0
ARC
  5
2D6
100
AcDbEntity
  8
0
370
    -3
  6
Continuous
100
AcDbCircle
 10
-540.713238
 20
-65.904292
 30
0.0
 40
1.0
100
AcDbArc
 50
183.0
 51
339.929668
  0
ARC
  5
2D7
100
AcDbEntity
  8
0
370
    -3
  6
Continuous
100
AcDbCircle
 10
-573.836254
 20
-60.904292
 30
0.0
 40
2.0
100
AcDbArc
 50
50.433778
 51
90.0
  0
LINE
  5
2D8
100
AcDbEntity
  8
0
370
    -3
  6
Continuous
100
AcDbLine
 10
-544.157431
 20
-64.865605
 30
0.0
 11
-544.214609
 21
-65.956628
 31
0.0
  0
ARC
  5
2D9
100
AcDbEntity
  8
0
370
    -3
  6
Continuous
100
AcDbCircle
 10
-567.213245
 20
-65.285997
 30
0.0
 40
2.0
100
AcDbArc
 50
0.0
 51
62.589914
  0
ARC
  5
2DA
100
AcDbEntity
  8
0
370
    -3
  6
Continuous
100
AcDbCircle
 10
-549.713238
 20
-65.904292
 30
0.0
 40
1.0
100
AcDbArc
 50
183.0
 51
357.0
  0
ARC
  5
2DB
100
AcDbEntity
  8
0
370
    -3
  6
Continuous
100
AcDbCircle
 10
-493.476584
 20
-31.995959
 30
0.0
 40
35.5
100
AcDbArc
 50
297.410086
 51
315.0
  0
LINE
  5
2DC
100
AcDbEntity
  8
0
370
    -3
  6
Continuous
100
AcDbLine
 10
-548.544053
 20
-62.70223
 30
0.0
 11
-548.714609
 21
-65.956628
 31
0.0
  0
ARC
  5
2DD
100
AcDbEntity
  8
0
370
    -3
  6
Continuous
100
AcDbCircle
 10
-476.213232
 20
-65.285997
 30
0.0
 40
2.0
100
AcDbArc
 50
117.410086
 51
180.0
  0
ARC
  5
2DE
100
AcDbEntity
  8
0
370
    -3
  6
Continuous
100
AcDbCircle
 10
-554.213238
 20
-65.404292
 30
0.0
 40
1.0
100
AcDbArc
 50
183.0
 51
357.0
  0
ARC
  5
2DF
100
AcDbEntity
  8
0
370
    -3
  6
Continuous
100
AcDbCircle
 10
-487.713254
 20
-66.404292
 30
0.0
 40
7.0
100
AcDbArc
 50
319.994853
 51
1.192718
  0
LINE
  5
2E0
100
AcDbEntity
  8
0
370
    -3
  6
Continuous
100
AcDbLine
 10
-552.928723
 20
-60.001607
 30
0.0
 11
-553.214609
 21
-65.456628
 31
0.0
  0
ARC
  5
2E1
100
AcDbEntity
  8
0
370
    -3
  6
Continuous
100
AcDbCircle
 10
-487.713254
 20
-66.404292
 30
0.0
 40
7.0
100
AcDbArc
 50
200.924832
 51
220.005147
  0
LINE
  5
2E2
100
AcDbEntity
  8
0
370
    -3
  6
Continuous
100
AcDbLine
 10
-551.027407
 20
-59.935788
 30
0.0
 11
-550.711868
 21
-65.956628
 31
0.0
  0
LINE
  5
2E3
100
AcDbEntity
  8
0
370
    -3
  6
Continuous
100
AcDbLine
 10
-554.277069
 20
-70.404292
 30
0.0
 11
-549.968644
 21
-70.404292
 31
0.0
  0
LINE
  5
2E4
100
AcDbEntity
  8
0
370
    -3
  6
Continuous
100
AcDbLine
 10
-575.213238
 20
-35.204292
 30
0.0
 11
-575.213238
 21
-15.904292
 31
0.0
  0
LINE
  5
2E5
100
AcDbEntity
  8
0
370
    -3
  6
Continuous
100
AcDbLine
 10
-550.35132
 20
-70.904292
 30
0.0
 11
-586.713232
 21
-70.904292
 31
0.0
  0
ARC
  5
2E6
100
AcDbEntity
  8
0
370
    -3
  6
Continuous
100
AcDbCircle
 10
-574.513238
 20
-35.204292
 30
0.0
 40
0.7
100
AcDbArc
 50
180.0
 51
270.0
  0
LINE
  5
2E7
100
AcDbEntity
  8
0
370
    -3
  6
Continuous
100
AcDbLine
 10
-489.149376
 20
-70.404292
 30
0.0
 11
-493.457801
 21
-70.404292
 31
0.0
  0
LINE
  5
2E8
100
AcDbEntity
  8
0
370
    -3
  6
Continuous
100
AcDbLine
 10
-574.513238
 20
-35.904292
 30
0.0
 11
-570.919437
 21
-35.904292
 31
0.0
  0
LINE
  5
2E9
100
AcDbEntity
  8
0
370
    -3
  6
Continuous
100
AcDbLine
 10
-493.075157
 20
-70.904292
 30
0.0
 11
-456.713245
 21
-70.904292
 31
0.0
  0
ARC
  5
2EA
100
AcDbEntity
  8
0
370
    -3
  6
Continuous
100
AcDbCircle
 10
-521.713238
 20
-15.904292
 30
0.0
 40
52.5
100
AcDbArc
 50
203.111602
 51
203.695081
  0
ARC
  5
2EB
100
AcDbEntity
  8
0
370
    -3
  6
Continuous
100
AcDbCircle
 10
-570.919437
 20
-36.904292
 30
0.0
 40
1.0
100
AcDbArc
 50
23.111602
 51
90.0
  0
ARC
  5
2EC
100
AcDbEntity
  8
0
370
    -3
  6
Continuous
100
AcDbCircle
 10
-521.713238
 20
-15.904292
 30
0.0
 40
52.5
100
AcDbArc
 50
203.111602
 51
203.663705
  0
ARC
  5
2ED
100
AcDbEntity
  8
0
370
    -3
  6
Continuous
100
AcDbCircle
 10
-521.713238
 20
-15.904292
 30
0.0
 40
52.5
100
AcDbArc
 50
208.562834
 51
208.973449
  0
ARC
  5
2EE
100
AcDbEntity
  8
0
370
    -3
  6
Continuous
100
AcDbCircle
 10
-521.713238
 20
-15.904292
 30
0.0
 40
52.5
100
AcDbArc
 50
208.562834
 51
208.973449
  0
ARC
  5
2EF
100
AcDbEntity
  8
0
370
    -3
  6
Continuous
100
AcDbCircle
 10
-571.213238
 20
-48.404292
 30
0.0
 40
1.0
100
AcDbArc
 50
93.0
 51
267.0
  0
ARC
  5
2F0
100
AcDbEntity
  8
0
370
    -3
  6
Continuous
100
AcDbCircle
 10
-571.713238
 20
-43.904292
 30
0.0
 40
1.0
100
AcDbArc
 50
93.0
 51
267.0
  0
LINE
  5
2F1
100
AcDbEntity
  8
0
370
    -3
  6
Continuous
100
AcDbLine
 10
-565.810553
 20
-47.119777
 30
0.0
 11
-571.265574
 21
-47.405662
 31
0.0
  0
LINE
  5
2F2
100
AcDbEntity
  8
0
370
    -3
  6
Continuous
100
AcDbLine
 10
-565.744735
 20
-45.21846
 30
0.0
 11
-571.765574
 21
-44.902921
 31
0.0
  0
LINE
  5
2F3
100
AcDbEntity
  8
0
370
    -3
  6
Continuous
100
AcDbLine
 10
-487.713224
 20
34.250408
 30
0.0
 11
-489.713225
 21
35.405107
 31
0.0
  0
LINE
  5
2F4
100
AcDbEntity
  8
0
370
    -3
  6
Continuous
100
AcDbLine
 10
-568.511177
 20
-42.735107
 30
0.0
 11
-571.765574
 21
-42.905662
 31
0.0
  0
ARC
  5
2F5
100
AcDbEntity
  8
0
370
    -3
  6
Continuous
100
AcDbCircle
 10
-568.563513
 20
-41.736477
 30
0.0
 40
1.0
100
AcDbArc
 50
273.0
 51
28.871352
  0
LINE
  5
2F6
100
AcDbEntity
  8
0
370
    -3
  6
Continuous
100
AcDbLine
 10
-491.713221
 20
34.250404
 30
0.0
 11
-489.713225
 21
35.405107
 31
0.0
  0
LINE
  5
2F7
100
AcDbEntity
  8
0
370
    -3
  6
Continuous
100
AcDbLine
 10
-568.604094
 20
-40.568608
 30
0.0
 11
-571.765574
 21
-40.402921
 31
0.0
  0
LINE
  5
2F8
100
AcDbEntity
  8
0
370
    -3
  6
Continuous
100
AcDbLine
 10
-491.71322
 20
34.250403
 30
0.0
 11
-491.713221
 21
31.941009
 31
0.0
  0
ARC
  5
2F9
100
AcDbEntity
  8
0
370
    -3
  6
Continuous
100
AcDbCircle
 10
-568.65643
 20
-41.567237
 30
0.0
 40
1.0
100
AcDbArc
 50
28.664584
 51
87.0
  0
LINE
  5
2FA
100
AcDbEntity
  8
0
370
    -3
  6
Continuous
100
AcDbLine
 10
-487.713225
 20
31.941012
 30
0.0
 11
-487.713224
 21
34.250409
 31
0.0
  0
ARC
  5
2FB
100
AcDbEntity
  8
0
370
    -3
  6
Continuous
100
AcDbCircle
 10
-571.713238
 20
-39.404292
 30
0.0
 40
1.0
100
AcDbArc
 50
93.0
 51
267.0
  0
ARC
  5
2FC
100
AcDbEntity
  8
0
370
    -3
  6
Continuous
100
AcDbCircle
 10
-570.726888
 20
-37.349855
 30
0.0
 40
1.0
100
AcDbArc
 50
273.0
 51
23.63143
  0
LINE
  5
2FD
100
AcDbEntity
  8
0
370
    -3
  6
Continuous
100
AcDbLine
 10
-570.674552
 20
-38.348484
 30
0.0
 11
-571.765574
 21
-38.405662
 31
0.0
  0
LINE
  5
2FE
100
AcDbEntity
  8
0
370
    -3
  6
Continuous
100
AcDbLine
 10
-551.713224
 20
34.250408
 30
0.0
 11
-553.713225
 21
35.405107
 31
0.0
  0
ARC
  5
2FF
100
AcDbEntity
  8
0
370
    -3
  6
Continuous
100
AcDbCircle
 10
-565.862889
 20
-46.121147
 30
0.0
 40
1.0
100
AcDbArc
 50
273.0
 51
34.388476
  0
ARC
  5
300
100
AcDbEntity
  8
0
370
    -3
  6
Continuous
100
AcDbCircle
 10
-565.797071
 20
-46.21709
 30
0.0
 40
1.0
100
AcDbArc
 50
34.513079
 51
87.0
  0
LINE
  5
301
100
AcDbEntity
  8
0
370
    -3
  6
Continuous
100
AcDbLine
 10
-555.713221
 20
34.250404
 30
0.0
 11
-553.713225
 21
35.405107
 31
0.0
  0
ARC
  5
302
100
AcDbEntity
  8
0
370
    -3
  6
Continuous
100
AcDbCircle
 10
-561.723483
 20
-61.285239
 30
0.0
 40
1.0
100
AcDbArc
 50
228.598894
 51
312.0
  0
LINE
  5
303
100
AcDbEntity
  8
0
370
    -3
  6
Continuous
100
AcDbLine
 10
-555.71322
 20
34.250403
 30
0.0
 11
-555.713221
 21
31.941009
 31
0.0
  0
LINE
  5
304
100
AcDbEntity
  8
0
370
    -3
  6
Continuous
100
AcDbLine
 10
-555.536987
 20
-59.252993
 30
0.0
 11
-555.211868
 21
-65.456628
 31
0.0
  0
LINE
  5
305
100
AcDbEntity
  8
0
370
    -3
  6
Continuous
100
AcDbLine
 10
-551.713225
 20
31.941012
 30
0.0
 11
-551.713224
 21
34.250409
 31
0.0
  0
ARC
  5
306
100
AcDbEntity
  8
0
370
    -3
  6
Continuous
100
AcDbCircle
 10
-556.535616
 20
-59.305329
 30
0.0
 40
1.0
100
AcDbArc
 50
3.0
 51
132.0
  0
ARC
  5
307
100
AcDbEntity
  8
0
370
    -3
  6
Continuous
100
AcDbCircle
 10
-567.094185
 20
-55.914536
 30
0.0
 40
1.0
100
AcDbArc
 50
138.0
 51
221.401106
  0
LINE
  5
308
100
AcDbEntity
  8
0
370
    -3
  6
Continuous
100
AcDbLine
 10
-581.713205
 20
-8.058991
 30
0.0
 11
-579.713205
 21
-9.213689
 31
0.0
  0
ARC
  5
309
100
AcDbEntity
  8
0
370
    -3
  6
Continuous
100
AcDbCircle
 10
-521.713238
 20
-15.904292
 30
0.0
 40
61.5
100
AcDbArc
 50
221.401106
 51
228.598894
  0
LINE
  5
30A
100
AcDbEntity
  8
0
370
    -3
  6
Continuous
100
AcDbLine
 10
-577.713208
 20
-5.749592
 30
0.0
 11
-579.713209
 21
-4.594893
 31
0.0
  0
LINE
  5
30B
100
AcDbEntity
  8
0
370
    -3
  6
Continuous
100
AcDbLine
 10
-565.061939
 20
-49.72804
 30
0.0
 11
-571.265574
 21
-49.402921
 31
0.0
  0
LINE
  5
30C
100
AcDbEntity
  8
0
370
    -3
  6
Continuous
100
AcDbLine
 10
-579.713204
 20
-9.213689
 30
0.0
 11
-577.713209
 21
-8.058988
 31
0.0
  0
ARC
  5
30D
100
AcDbEntity
  8
0
370
    -3
  6
Continuous
100
AcDbCircle
 10
-565.114275
 20
-50.72667
 30
0.0
 40
1.0
100
AcDbArc
 50
318.0
 51
87.0
  0
LINE
  5
30E
100
AcDbEntity
  8
0
370
    -3
  6
Continuous
100
AcDbLine
 10
-581.713205
 20
-5.749596
 30
0.0
 11
-579.713209
 21
-4.594893
 31
0.0
  0
ARC
  5
30F
100
AcDbEntity
  8
0
370
    -3
  6
Continuous
100
AcDbCircle
 10
-521.713238
 20
31.595708
 30
0.0
 40
100.0
100
AcDbArc
 50
270.0
 51
277.79785
  0
LINE
  5
310
100
AcDbEntity
  8
0
370
    -3
  6
Continuous
100
AcDbLine
 10
-581.713204
 20
-5.749597
 30
0.0
 11
-581.713205
 21
-8.058991
 31
0.0
  0
ARC
  5
311
100
AcDbEntity
  8
0
370
    -3
  6
Continuous
100
AcDbCircle
 10
-521.713238
 20
-63.404292
 30
0.0
 40
100.0
100
AcDbArc
 50
82.20215
 51
90.0
  0
LINE
  5
312
100
AcDbEntity
  8
0
370
    -3
  6
Continuous
100
AcDbLine
 10
-577.713209
 20
-8.058988
 30
0.0
 11
-577.713208
 21
-5.749591
 31
0.0
  0
LINE
  5
313
100
AcDbEntity
  8
0
370
    -3
  6
Continuous
100
AcDbLine
 10
-485.621874
 20
-44.102933
 30
0.0
 11
-475.589147
 21
-55.245406
 31
0.0
  0
CIRCLE
  5
314
100
AcDbEntity
  8
0
370
    -3
  6
Continuous
100
AcDbCircle
 10
-579.713206
 20
-6.904292
 30
0.0
 40
4.249999
  0
LINE
  5
315
100
AcDbEntity
  8
0
370
    -3
  6
Continuous
100
AcDbLine
 10
-557.713205
 20
-67.558991
 30
0.0
 11
-555.713205
 21
-68.713689
 31
0.0
  0
LINE
  5
316
100
AcDbEntity
  8
0
370
    -3
  6
Continuous
100
AcDbLine
 10
-493.514597
 20
-51.995657
 30
0.0
 11
-482.372125
 21
-62.028384
 31
0.0
  0
ARC
  5
317
100
AcDbEntity
  8
0
370
    -3
  6
Continuous
100
AcDbCircle
 10
-521.713238
 20
-15.904292
 30
0.0
 40
52.5
100
AcDbArc
 50
293.136889
 51
293.663705
  0
LINE
  5
318
100
AcDbEntity
  8
0
370
    -3
  6
Continuous
100
AcDbLine
 10
-555.713204
 20
-68.713689
 30
0.0
 11
-553.713209
 21
-67.558988
 31
0.0
  0
ARC
  5
319
100
AcDbEntity
  8
0
370
    -3
  6
Continuous
100
AcDbCircle
 10
-491.400441
 20
-59.988124
 30
0.0
 40
1.0
100
AcDbArc
 50
127.785803
 51
177.0
  0
LINE
  5
31A
100
AcDbEntity
  8
0
370
    -3
  6
Continuous
100
AcDbLine
 10
-557.713205
 20
-65.249596
 30
0.0
 11
-555.713209
 21
-64.094893
 31
0.0
  0
ARC
  5
31B
100
AcDbEntity
  8
0
370
    -3
  6
Continuous
100
AcDbCircle
 10
-491.496383
 20
-60.053943
 30
0.0
 40
1.0
100
AcDbArc
 50
3.0
 51
121.115753
  0
LINE
  5
31C
100
AcDbEntity
  8
0
370
    -3
  6
Continuous
100
AcDbLine
 10
-557.713204
 20
-65.249597
 30
0.0
 11
-557.713205
 21
-67.558991
 31
0.0
  0
INSERT
  5
328
100
AcDbEntity
  8
0
100
AcDbBlockReference
  2
ZU_SYM__USERS_HOME_SYMBOL_STD_SYM_B01_-1
 10
-561.311218
 20
-55.502272
 30
0.0
 50
180.0
  0
ARC
  5
329
100
AcDbEntity
  8
0
370
    -3
  6
Continuous
100
AcDbCircle
 10
-507.213238
 20
-66.882228
 30
0.0
 40
0.5
100
AcDbArc
 50
105.877702
 51
180.0
  0
LINE
  5
32A
100
AcDbEntity
  8
0
370
    -3
  6
Continuous
100
AcDbLine
 10
-507.713238
 20
-66.984209
 30
0.0
 11
-507.713238
 21
-66.882228
 31
0.0
  0
ARC
  5
32B
100
AcDbEntity
  8
0
370
    -3
  6
Continuous
100
AcDbCircle
 10
-508.213238
 20
-66.984209
 30
0.0
 40
0.5
100
AcDbArc
 50
277.79785
 51
0.0
  0
ARC
  5
32C
100
AcDbEntity
  8
0
370
    -3
  6
Continuous
100
AcDbCircle
 10
-521.713238
 20
-15.904292
 30
0.0
 40
52.5
100
AcDbArc
 50
285.877702
 51
288.664571
  0
ARC
  5
32D
100
AcDbEntity
  8
0
370
    -3
  6
Continuous
100
AcDbCircle
 10
-521.713238
 20
-15.904292
 30
0.0
 40
52.5
100
AcDbArc
 50
298.562834
 51
298.973449
  0
INSERT
  5
339
100
AcDbEntity
  8
0
100
AcDbBlockReference
  2
ZU_SYM__USERS_HOME_SYMBOL_STD_SYM_B01_00001-1
 10
-482.115259
 20
23.693688
 30
0.0
 50
360.0
  0
INSERT
  5
345
100
AcDbEntity
  8
0
100
AcDbBlockReference
  2
ZU_SYM__USERS_HOME_SYMBOL_STD_SYM_B01_00002-1
 10
-561.311218
 20
23.693688
 30
0.0
 41
-1.0
  0
INSERT
  5
351
100
AcDbEntity
  8
0
100
AcDbBlockReference
  2
ZU_SYM__USERS_HOME_SYMBOL_STD_SYM_B01_00003-1
 10
-482.115259
 20
-55.502272
 30
0.0
 41
-1.0
 50
180.0
  0
ARC
  5
352
100
AcDbEntity
  8
0
370
    -3
  6
Continuous
100
AcDbCircle
 10
-498.213238
 20
-65.904292
 30
0.0
 40
1.0
100
AcDbArc
 50
183.0
 51
357.0
  0
ARC
  5
353
100
AcDbEntity
  8
0
370
    -3
  6
Continuous
100
AcDbCircle
 10
-495.881053
 20
-62.754566
 30
0.0
 40
1.0
100
AcDbArc
 50
3.0
 51
118.871352
  0
LINE
  5
354
100
AcDbEntity
  8
0
370
    -3
  6
Continuous
100
AcDbLine
 10
-497.048923
 20
-62.795148
 30
0.0
 11
-497.214609
 21
-65.956628
 31
0.0
  0
ARC
  5
355
100
AcDbEntity
  8
0
370
    -3
  6
Continuous
100
AcDbCircle
 10
-496.050293
 20
-62.847484
 30
0.0
 40
1.0
100
AcDbArc
 50
118.664584
 51
177.0
  0
ARC
  5
356
100
AcDbEntity
  8
0
370
    -3
  6
Continuous
100
AcDbCircle
 10
-500.267676
 20
-64.917941
 30
0.0
 40
1.0
100
AcDbArc
 50
3.0
 51
113.63143
  0
ARC
  5
357
100
AcDbEntity
  8
0
370
    -3
  6
Continuous
100
AcDbCircle
 10
-504.591783
 20
-66.590639
 30
0.0
 40
1.0
100
AcDbArc
 50
20.070332
 51
108.664571
  0
ARC
  5
358
100
AcDbEntity
  8
0
370
    -3
  6
Continuous
100
AcDbCircle
 10
-500.667876
 20
-65.091107
 30
0.0
 40
1.0
100
AcDbArc
 50
113.164432
 51
177.0
  0
LINE
  5
359
100
AcDbEntity
  8
0
370
    -3
  6
Continuous
100
AcDbLine
 10
-501.666506
 20
-65.038771
 30
0.0
 11
-501.714609
 21
-65.956628
 31
0.0
  0
ARC
  5
35A
100
AcDbEntity
  8
0
370
    -3
  6
Continuous
100
AcDbCircle
 10
-502.713238
 20
-65.904292
 30
0.0
 40
1.0
100
AcDbArc
 50
200.070332
 51
357.0
  0
LINE
  5
35B
100
AcDbEntity
  8
0
370
    -3
  6
Continuous
100
AcDbLine
 10
-499.269046
 20
-64.865605
 30
0.0
 11
-499.211868
 21
-65.956628
 31
0.0
  0
ARC
  5
35C
100
AcDbEntity
  8
0
370
    -3
  6
Continuous
100
AcDbCircle
 10
-493.713238
 20
-65.904292
 30
0.0
 40
1.0
100
AcDbArc
 50
183.0
 51
357.0
  0
LINE
  5
35D
100
AcDbEntity
  8
0
370
    -3
  6
Continuous
100
AcDbLine
 10
-494.882424
 20
-62.70223
 30
0.0
 11
-494.711868
 21
-65.956628
 31
0.0
  0
ARC
  5
35E
100
AcDbEntity
  8
0
370
    -3
  6
Continuous
100
AcDbCircle
 10
-489.213238
 20
-65.404292
 30
0.0
 40
1.0
100
AcDbArc
 50
183.0
 51
357.0
  0
LINE
  5
35F
100
AcDbEntity
  8
0
370
    -3
  6
Continuous
100
AcDbLine
 10
-490.497754
 20
-60.001607
 30
0.0
 11
-490.211868
 21
-65.456628
 31
0.0
  0
LINE
  5
360
100
AcDbEntity
  8
0
370
    -3
  6
Continuous
100
AcDbLine
 10
-492.39907
 20
-59.935788
 30
0.0
 11
-492.714609
 21
-65.956628
 31
0.0
  0
ARC
  5
361
100
AcDbEntity
  8
0
370
    -3
  6
Continuous
100
AcDbCircle
 10
-521.713238
 20
-15.904292
 30
0.0
 40
52.5
100
AcDbArc
 50
331.026551
 51
331.437166
  0
ARC
  5
362
100
AcDbEntity
  8
0
370
    -3
  6
Continuous
100
AcDbCircle
 10
-521.713238
 20
-15.904292
 30
0.0
 40
52.5
100
AcDbArc
 50
331.026551
 51
331.437166
  0
LINE
  5
363
100
AcDbEntity
  8
0
370
    -3
  6
Continuous
100
AcDbLine
 10
-477.615924
 20
-47.119777
 30
0.0
 11
-472.160902
 21
-47.405662
 31
0.0
  0
LINE
  5
364
100
AcDbEntity
  8
0
370
    -3
  6
Continuous
100
AcDbLine
 10
-477.681742
 20
-45.21846
 30
0.0
 11
-471.660902
 21
-44.902921
 31
0.0
  0
ARC
  5
365
100
AcDbEntity
  8
0
370
    -3
  6
Continuous
100
AcDbCircle
 10
-474.862964
 20
-41.736477
 30
0.0
 40
1.0
100
AcDbArc
 50
151.128648
 51
267.0
  0
ARC
  5
366
100
AcDbEntity
  8
0
370
    -3
  6
Continuous
100
AcDbCircle
 10
-474.770047
 20
-41.567237
 30
0.0
 40
1.0
100
AcDbArc
 50
93.0
 51
151.335416
  0
ARC
  5
367
100
AcDbEntity
  8
0
370
    -3
  6
Continuous
100
AcDbCircle
 10
-477.563588
 20
-46.121147
 30
0.0
 40
1.0
100
AcDbArc
 50
145.611524
 51
267.0
  0
ARC
  5
368
100
AcDbEntity
  8
0
370
    -3
  6
Continuous
100
AcDbCircle
 10
-477.629406
 20
-46.21709
 30
0.0
 40
1.0
100
AcDbArc
 50
93.0
 51
145.486921
  0
ARC
  5
369
100
AcDbEntity
  8
0
370
    -3
  6
Continuous
100
AcDbCircle
 10
-481.702994
 20
-61.285239
 30
0.0
 40
1.0
100
AcDbArc
 50
228.0
 51
311.401106
  0
LINE
  5
36A
100
AcDbEntity
  8
0
370
    -3
  6
Continuous
100
AcDbLine
 10
-487.88949
 20
-59.252993
 30
0.0
 11
-488.214609
 21
-65.456628
 31
0.0
  0
ARC
  5
36B
100
AcDbEntity
  8
0
370
    -3
  6
Continuous
100
AcDbCircle
 10
-486.890861
 20
-59.305329
 30
0.0
 40
1.0
100
AcDbArc
 50
48.0
 51
177.0
  0
ARC
  5
36C
100
AcDbEntity
  8
0
370
    -3
  6
Continuous
100
AcDbCircle
 10
-476.332291
 20
-55.914536
 30
0.0
 40
1.0
100
AcDbArc
 50
318.598894
 51
42.0
  0
ARC
  5
36D
100
AcDbEntity
  8
0
370
    -3
  6
Continuous
100
AcDbCircle
 10
-521.713238
 20
-15.904292
 30
0.0
 40
61.5
100
AcDbArc
 50
311.401106
 51
318.598894
  0
LINE
  5
36E
100
AcDbEntity
  8
0
370
    -3
  6
Continuous
100
AcDbLine
 10
-478.364538
 20
-49.72804
 30
0.0
 11
-472.160902
 21
-49.402921
 31
0.0
  0
ARC
  5
36F
100
AcDbEntity
  8
0
370
    -3
  6
Continuous
100
AcDbCircle
 10
-478.312202
 20
-50.72667
 30
0.0
 40
1.0
100
AcDbArc
 50
93.0
 51
222.0
  0
LINE
  5
370
100
AcDbEntity
  8
0
370
    -3
  6
Continuous
100
AcDbLine
 10
-485.621874
 20
12.29435
 30
0.0
 11
-475.589147
 21
23.436822
 31
0.0
  0
LINE
  5
371
100
AcDbEntity
  8
0
370
    -3
  6
Continuous
100
AcDbLine
 10
-493.514597
 20
20.187073
 30
0.0
 11
-482.372125
 21
30.2198
 31
0.0
  0
ARC
  5
372
100
AcDbEntity
  8
0
370
    -3
  6
Continuous
100
AcDbCircle
 10
-521.713238
 20
-15.904292
 30
0.0
 40
52.5
100
AcDbArc
 50
66.336295
 51
66.863111
  0
ARC
  5
373
100
AcDbEntity
  8
0
370
    -3
  6
Continuous
100
AcDbCircle
 10
-491.400441
 20
28.179541
 30
0.0
 40
1.0
100
AcDbArc
 50
183.0
 51
232.214197
  0
ARC
  5
374
100
AcDbEntity
  8
0
370
    -3
  6
Continuous
100
AcDbCircle
 10
-491.496383
 20
28.245359
 30
0.0
 40
1.0
100
AcDbArc
 50
238.884247
 51
357.0
  0
ARC
  5
375
100
AcDbEntity
  8
0
370
    -3
  6
Continuous
100
AcDbCircle
 10
-507.213238
 20
35.073645
 30
0.0
 40
0.5
100
AcDbArc
 50
180.0
 51
254.122298
  0
LINE
  5
376
100
AcDbEntity
  8
0
370
    -3
  6
Continuous
100
AcDbLine
 10
-507.713238
 20
35.175625
 30
0.0
 11
-507.713238
 21
35.073645
 31
0.0
  0
ARC
  5
377
100
AcDbEntity
  8
0
370
    -3
  6
Continuous
100
AcDbCircle
 10
-508.213238
 20
35.175625
 30
0.0
 40
0.5
100
AcDbArc
 50
0.0
 51
82.20215
  0
ARC
  5
378
100
AcDbEntity
  8
0
370
    -3
  6
Continuous
100
AcDbCircle
 10
-521.713238
 20
-15.904292
 30
0.0
 40
52.5
100
AcDbArc
 50
71.335429
 51
74.122298
  0
ARC
  5
379
100
AcDbEntity
  8
0
370
    -3
  6
Continuous
100
AcDbCircle
 10
-521.713238
 20
-15.904292
 30
0.0
 40
52.5
100
AcDbArc
 50
61.026551
 51
61.437166
  0
LINE
  5
37A
100
AcDbEntity
  8
0
370
    -3
  6
CENTER
100
AcDbLine
 10
-325.068539
 20
146.185674
 30
0.0
 11
-339.699704
 21
146.185674
 31
0.0
  0
INSERT
  5
38D
100
AcDbEntity
  8
0
100
AcDbBlockReference
  2
ZU_SYM__USERS_HOME_SYMBOL_STD_SYM_B01_00004-1
 10
-333.125938
 20
146.185674
 30
0.0
 41
-1.0
 50
180.0
  0
LINE
  5
38E
100
AcDbEntity
  8
0
370
    -3
  6
CENTER
100
AcDbLine
 10
-325.068539
 20
225.381634
 30
0.0
 11
-339.699704
 21
225.381634
 31
0.0
  0
INSERT
  5
3A1
100
AcDbEntity
  8
0
100
AcDbBlockReference
  2
ZU_SYM__USERS_HOME_SYMBOL_STD_SYM_B01_00005-1
 10
-333.125938
 20
225.381634
 30
0.0
 50
360.0
  0
INSERT
  5
3B4
100
AcDbEntity
  8
0
100
AcDbBlockReference
  2
ZU_SYM__USERS_HOME_SYMBOL_STD_SYM_B01_00006-1
 10
-333.125938
 20
225.381634
 30
0.0
 50
360.0
  0
INSERT
  5
3C7
100
AcDbEntity
  8
0
100
AcDbBlockReference
  2
ZU_SYM__USERS_HOME_SYMBOL_STD_SYM_B01_00007-1
 10
-333.125938
 20
225.381634
 30
0.0
 50
360.0
  0
ARC
  5
3C8
100
AcDbEntity
  8
0
370
    -3
  6
Continuous
100
AcDbCircle
 10
365.374059
 20
185.783654
 30
0.0
 40
700.0
100
AcDbArc
 50
183.620062
 51
184.231256
  0
ARC
  5
3C9
100
AcDbEntity
  8
0
370
    -3
  6
Continuous
100
AcDbCircle
 10
365.374059
 20
185.783654
 30
0.0
 40
700.0
100
AcDbArc
 50
177.134181
 51
180.0
  0
ARC
  5
3CA
100
AcDbEntity
  8
0
370
    -3
  6
Continuous
100
AcDbCircle
 10
-334.834467
 20
165.57797
 30
0.0
 40
0.5
100
AcDbArc
 50
1.652907
 51
44.884862
  0
ARC
  5
3CB
100
AcDbEntity
  8
0
370
    -3
  6
Continuous
100
AcDbCircle
 10
-334.834467
 20
205.989339
 30
0.0
 40
0.5
100
AcDbArc
 50
315.115138
 51
358.347093
  0
ARC
  5
3CC
100
AcDbEntity
  8
0
370
    -3
  6
Continuous
100
AcDbCircle
 10
-334.125941
 20
205.283654
 30
0.0
 40
0.5
100
AcDbArc
 50
135.115138
 51
180.0
  0
ARC
  5
3CD
100
AcDbEntity
  8
0
370
    -3
  6
Continuous
100
AcDbCircle
 10
-334.125941
 20
166.283654
 30
0.0
 40
0.5
100
AcDbArc
 50
180.0
 51
224.884862
  0
LINE
  5
3CE
100
AcDbEntity
  8
0
370
    -3
  6
Continuous
100
AcDbLine
 10
-334.625941
 20
205.283654
 30
0.0
 11
-334.625941
 21
166.283654
 31
0.0
  0
ARC
  5
3CF
100
AcDbEntity
  8
0
370
    -3
  6
Continuous
100
AcDbCircle
 10
-331.045941
 20
213.783654
 30
0.0
 40
1.0
100
AcDbArc
 50
93.0
 51
267.0
  0
ARC
  5
3D0
100
AcDbEntity
  8
0
370
    -3
  6
Continuous
100
AcDbCircle
 10
-331.045941
 20
218.283654
 30
0.0
 40
1.0
100
AcDbArc
 50
93.0
 51
267.0
  0
ARC
  5
3D1
100
AcDbEntity
  8
0
370
    -3
  6
Continuous
100
AcDbCircle
 10
-331.045941
 20
204.783654
 30
0.0
 40
1.0
100
AcDbArc
 50
93.0
 51
267.0
  0
ARC
  5
3D2
100
AcDbEntity
  8
0
370
    -3
  6
Continuous
100
AcDbCircle
 10
-331.045941
 20
209.283654
 30
0.0
 40
1.0
100
AcDbArc
 50
93.0
 51
267.0
  0
ARC
  5
3D3
100
AcDbEntity
  8
0
370
    -3
  6
Continuous
100
AcDbCircle
 10
-332.625941
 20
140.064193
 30
0.0
 40
0.5
100
AcDbArc
 50
180.0
 51
270.0
  0
ARC
  5
3D4
100
AcDbEntity
  8
0
370
    -3
  6
Continuous
100
AcDbCircle
 10
-330.723456
 20
134.283654
 30
0.0
 40
2.0
100
AcDbArc
 50
184.231256
 51
270.0
  0
LINE
  5
3D5
100
AcDbEntity
  8
0
370
    -3
  6
Continuous
100
AcDbLine
 10
-333.87107
 20
153.266351
 30
0.0
 11
-333.87107
 21
153.300957
 31
0.0
  0
LINE
  5
3D6
100
AcDbEntity
  8
0
370
    -3
  6
Continuous
100
AcDbLine
 10
-333.87107
 20
218.300957
 30
0.0
 11
-333.87107
 21
218.266351
 31
0.0
  0
ARC
  5
3D7
100
AcDbEntity
  8
0
370
    -3
  6
Continuous
100
AcDbCircle
 10
-330.723456
 20
237.283654
 30
0.0
 40
2.0
100
AcDbArc
 50
90.0
 51
175.768744
  0
ARC
  5
3D8
100
AcDbEntity
  8
0
370
    -3
  6
Continuous
100
AcDbCircle
 10
-332.625941
 20
231.503115
 30
0.0
 40
0.5
100
AcDbArc
 50
90.0
 51
180.0
  0
LINE
  5
3D9
100
AcDbEntity
  8
0
370
    -3
  6
Continuous
100
AcDbLine
 10
-332.625941
 20
172.483654
 30
0.0
 11
-332.625941
 21
185.783654
 31
0.0
  0
ARC
  5
3DA
100
AcDbEntity
  8
0
370
    -3
  6
Continuous
100
AcDbCircle
 10
-331.925941
 20
172.483654
 30
0.0
 40
0.7
100
AcDbArc
 50
180.0
 51
270.0
  0
ARC
  5
3DB
100
AcDbEntity
  8
0
370
    -3
  6
Continuous
100
AcDbCircle
 10
-331.925941
 20
199.083654
 30
0.0
 40
0.7
100
AcDbArc
 50
90.0
 51
180.0
  0
LINE
  5
3DC
100
AcDbEntity
  8
0
370
    -3
  6
Continuous
100
AcDbLine
 10
-332.625941
 20
199.083654
 30
0.0
 11
-332.625941
 21
185.783654
 31
0.0
  0
ARC
  5
3DD
100
AcDbEntity
  8
0
370
    -3
  6
Continuous
100
AcDbCircle
 10
-331.045941
 20
153.283654
 30
0.0
 40
1.0
100
AcDbArc
 50
93.0
 51
267.0
  0
ARC
  5
3DE
100
AcDbEntity
  8
0
370
    -3
  6
Continuous
100
AcDbCircle
 10
-331.045941
 20
157.783654
 30
0.0
 40
1.0
100
AcDbArc
 50
93.0
 51
267.0
  0
ARC
  5
3DF
100
AcDbEntity
  8
0
370
    -3
  6
Continuous
100
AcDbCircle
 10
-331.045941
 20
162.283654
 30
0.0
 40
1.0
100
AcDbArc
 50
93.0
 51
267.0
  0
ARC
  5
3E0
100
AcDbEntity
  8
0
370
    -3
  6
Continuous
100
AcDbCircle
 10
-331.045941
 20
166.783654
 30
0.0
 40
1.0
100
AcDbArc
 50
93.0
 51
267.0
  0
LINE
  5
3E1
100
AcDbEntity
  8
0
370
    -3
  6
Continuous
100
AcDbLine
 10
-333.125941
 20
140.064193
 30
0.0
 11
-333.125941
 21
156.127106
 31
0.0
  0
ARC
  5
3E2
100
AcDbEntity
  8
0
370
    -3
  6
Continuous
100
AcDbCircle
 10
365.374059
 20
185.783654
 30
0.0
 40
700.0
100
AcDbArc
 50
180.0
 51
182.865819
  0
ARC
  5
3E3
100
AcDbEntity
  8
0
370
    -3
  6
Continuous
100
AcDbCircle
 10
-334.125941
 20
156.127106
 30
0.0
 40
1.0
100
AcDbArc
 50
0.0
 51
58.013739
  0
ARC
  5
3E4
100
AcDbEntity
  8
0
370
    -3
  6
Continuous
100
AcDbCircle
 10
-333.066509
 20
157.823456
 30
0.0
 40
1.0
100
AcDbArc
 50
182.292459
 51
238.013739
  0
LINE
  5
3E5
100
AcDbEntity
  8
0
370
    -3
  6
Continuous
100
AcDbLine
 10
-333.125941
 20
231.503115
 30
0.0
 11
-333.125941
 21
215.440202
 31
0.0
  0
ARC
  5
3E6
100
AcDbEntity
  8
0
370
    -3
  6
Continuous
100
AcDbCircle
 10
365.374059
 20
185.783654
 30
0.0
 40
700.0
100
AcDbArc
 50
175.768744
 51
176.379938
  0
ARC
  5
3E7
100
AcDbEntity
  8
0
370
    -3
  6
Continuous
100
AcDbCircle
 10
-333.066509
 20
213.743852
 30
0.0
 40
1.0
100
AcDbArc
 50
121.986261
 51
177.707541
  0
ARC
  5
3E8
100
AcDbEntity
  8
0
370
    -3
  6
Continuous
100
AcDbCircle
 10
-334.125941
 20
215.440202
 30
0.0
 40
1.0
100
AcDbArc
 50
301.986261
 51
0.0
  0
LINE
  5
3E9
100
AcDbEntity
  8
0
370
    -3
  6
Continuous
100
AcDbLine
 10
-328.125941
 20
239.283654
 30
0.0
 11
-330.723456
 21
239.283654
 31
0.0
  0
LINE
  5
3EA
100
AcDbEntity
  8
0
370
    -3
  6
Continuous
100
AcDbLine
 10
-328.125941
 20
232.003115
 30
0.0
 11
-332.625941
 21
232.003115
 31
0.0
  0
LINE
  5
3EB
100
AcDbEntity
  8
0
370
    -3
  6
Continuous
100
AcDbLine
 10
-328.125941
 20
219.438057
 30
0.0
 11
-331.098277
 21
219.282284
 31
0.0
  0
LINE
  5
3EC
100
AcDbEntity
  8
0
370
    -3
  6
Continuous
100
AcDbLine
 10
-328.125941
 20
217.129251
 30
0.0
 11
-331.098277
 21
217.285025
 31
0.0
  0
LINE
  5
3ED
100
AcDbEntity
  8
0
370
    -3
  6
Continuous
100
AcDbLine
 10
-328.125941
 20
214.938057
 30
0.0
 11
-331.098277
 21
214.782284
 31
0.0
  0
LINE
  5
3EE
100
AcDbEntity
  8
0
370
    -3
  6
Continuous
100
AcDbLine
 10
-328.125941
 20
212.629251
 30
0.0
 11
-331.098277
 21
212.785025
 31
0.0
  0
LINE
  5
3EF
100
AcDbEntity
  8
0
370
    -3
  6
Continuous
100
AcDbLine
 10
-328.125941
 20
210.438057
 30
0.0
 11
-331.098277
 21
210.282284
 31
0.0
  0
LINE
  5
3F0
100
AcDbEntity
  8
0
370
    -3
  6
Continuous
100
AcDbLine
 10
-328.125941
 20
208.129251
 30
0.0
 11
-331.098277
 21
208.285025
 31
0.0
  0
LINE
  5
3F1
100
AcDbEntity
  8
0
370
    -3
  6
Continuous
100
AcDbLine
 10
-328.125941
 20
205.938057
 30
0.0
 11
-331.098277
 21
205.782284
 31
0.0
  0
LINE
  5
3F2
100
AcDbEntity
  8
0
370
    -3
  6
Continuous
100
AcDbLine
 10
-328.125941
 20
203.629251
 30
0.0
 11
-331.098277
 21
203.785025
 31
0.0
  0
LINE
  5
3F3
100
AcDbEntity
  8
0
370
    -3
  6
Continuous
100
AcDbLine
 10
-331.925941
 20
199.783654
 30
0.0
 11
-328.125941
 21
199.783654
 31
0.0
  0
LINE
  5
3F4
100
AcDbEntity
  8
0
370
    -3
  6
Continuous
100
AcDbLine
 10
-331.925941
 20
171.783654
 30
0.0
 11
-328.125941
 21
171.783654
 31
0.0
  0
LINE
  5
3F5
100
AcDbEntity
  8
0
370
    -3
  6
Continuous
100
AcDbLine
 10
-328.125941
 20
167.938057
 30
0.0
 11
-331.098277
 21
167.782284
 31
0.0
  0
LINE
  5
3F6
100
AcDbEntity
  8
0
370
    -3
  6
Continuous
100
AcDbLine
 10
-328.125941
 20
165.629251
 30
0.0
 11
-331.098277
 21
165.785025
 31
0.0
  0
LINE
  5
3F7
100
AcDbEntity
  8
0
370
    -3
  6
Continuous
100
AcDbLine
 10
-328.125941
 20
163.438057
 30
0.0
 11
-331.098277
 21
163.282284
 31
0.0
  0
LINE
  5
3F8
100
AcDbEntity
  8
0
370
    -3
  6
Continuous
100
AcDbLine
 10
-328.125941
 20
161.129251
 30
0.0
 11
-331.098277
 21
161.285025
 31
0.0
  0
LINE
  5
3F9
100
AcDbEntity
  8
0
370
    -3
  6
Continuous
100
AcDbLine
 10
-328.125941
 20
158.938057
 30
0.0
 11
-331.098277
 21
158.782284
 31
0.0
  0
LINE
  5
3FA
100
AcDbEntity
  8
0
370
    -3
  6
Continuous
100
AcDbLine
 10
-328.125941
 20
156.629251
 30
0.0
 11
-331.098277
 21
156.785025
 31
0.0
  0
LINE
  5
3FB
100
AcDbEntity
  8
0
370
    -3
  6
Continuous
100
AcDbLine
 10
-328.125941
 20
154.438057
 30
0.0
 11
-331.098277
 21
154.282284
 31
0.0
  0
LINE
  5
3FC
100
AcDbEntity
  8
0
370
    -3
  6
Continuous
100
AcDbLine
 10
-328.125941
 20
152.129251
 30
0.0
 11
-331.098277
 21
152.285025
 31
0.0
  0
LINE
  5
3FD
100
AcDbEntity
  8
0
370
    -3
  6
Continuous
100
AcDbLine
 10
-328.125941
 20
139.564193
 30
0.0
 11
-332.625941
 21
139.564193
 31
0.0
  0
LINE
  5
3FE
100
AcDbEntity
  8
0
370
    -3
  6
Continuous
100
AcDbLine
 10
-328.125941
 20
132.283654
 30
0.0
 11
-330.723456
 21
132.283654
 31
0.0
  0
MTEXT
  5
3FF
100
AcDbEntity
  8
0
370
    -3
  6
Continuous
100
AcDbMText
 10
-570.302124
 20
219.951706
 30
0.0
 40
15.0
 41
0.0
 71
     7
 72
     1
  1
\W0.63;三菱ギヤードモータ  
  7
ZU_SHPTB00001
 11
1.0
 21
0.0
 31
0.0
 73
     1
 44
1.0
  0
MTEXT
  5
400
100
AcDbEntity
  8
0
370
    -3
  6
Continuous
100
AcDbMText
 10
-570.302124
 20
219.951706
 30
0.0
 40
15.0
 41
0.0
 71
     7
 72
     1
  1
\W0.63;三菱ギヤードモータ  
  7
ZU_SHPTB00001
 11
1.0
 21
0.0
 31
0.0
 73
     1
 44
1.0
  0
MTEXT
  5
401
100
AcDbEntity
  8
0
370
    -3
  6
Continuous
100
AcDbMText
 10
-570.302124
 20
186.051682
 30
0.0
 40
15.0
 41
0.0
 71
     7
 72
     1
  1
\W0.43;0.4kW
  7
ZU_SHPTB00001
 11
1.0
 21
0.0
 31
0.0
 73
     1
 44
1.0
  0
MTEXT
  5
402
100
AcDbEntity
  8
0
370
    -3
  6
Continuous
100
AcDbMText
 10
-570.302124
 20
135.201675
 30
0.0
 40
15.0
 41
0.0
 71
     7
 72
     1
  1
\W0.43;SCALE\W0.72;  \W0.43;1/1
  7
ZU_SHPTB00001
 11
1.0
 21
0.0
 31
0.0
 73
     1
 44
1.0
  0
MTEXT
  5
403
100
AcDbEntity
  8
0
370
    -3
  6
Continuous
100
AcDbMText
 10
-570.302124
 20
203.001694
 30
0.0
 40
15.0
 41
0.0
 71
     7
 72
     1
  1
\W0.48;GV-S
  7
ZU_SHPTB00001
 11
1.0
 21
0.0
 31
0.0
 73
     1
 44
1.0
  0
MTEXT
  5
404
100
AcDbEntity
  8
0
370
    -3
  6
Continuous
100
AcDbMText
 10
-570.302124
 20
169.1017
 30
0.0
 40
15.0
 41
0.0
 71
     7
 72
     1
  1
\W0.43;600-100r/min\W0.53;　
  7
ZU_SHPTB00001
 11
1.0
 21
0.0
 31
0.0
 73
     1
 44
1.0
  0
MTEXT
  5
405
100
AcDbEntity
  8
0
370
    -3
  6
Continuous
100
AcDbMText
 10
-570.302124
 20
152.151688
 30
0.0
 40
15.0
 41
0.0
 71
     7
 72
     1
  1
\W0.42;GEAR\W0.70; \W0.42;RATIO\W0.70;  \W0.42;1/5-1/30
  7
ZU_SHPTB00001
 11
1.0
 21
0.0
 31
0.0
 73
     1
 44
1.0
  0
LINE
  5
406
100
AcDbEntity
  8
0
370
    -3
  6
Continuous
100
AcDbLine
 10
-2.432626
 20
16.680084
 30
0.0
 11
-4.68097
 21
16.621209
 31
0.0
  0
ARC
  5
407
100
AcDbEntity
  8
0
370
    -3
  6
Continuous
100
AcDbCircle
 10
-4.654793
 20
15.621551
 30
0.0
 40
1.0
100
AcDbArc
 50
91.5
 51
180.0
  0
LINE
  5
408
100
AcDbEntity
  8
0
370
    -3
  6
Continuous
100
AcDbLine
 10
-56.272319
 20
15.845708
 30
0.0
 11
-56.272319
 21
-47.654292
 31
0.0
  0
ARC
  5
409
100
AcDbEntity
  8
0
370
    -3
  6
Continuous
100
AcDbCircle
 10
-49.472319
 20
15.845708
 30
0.0
 40
6.8
100
AcDbArc
 50
90.0
 51
180.0
  0
ARC
  5
40A
100
AcDbEntity
  8
0
370
    -3
  6
Continuous
100
AcDbCircle
 10
-21.466901
 20
23.095708
 30
0.0
 40
7.8
100
AcDbArc
 50
0.0
 51
90.0
  0
LINE
  5
40B
100
AcDbEntity
  8
0
370
    -3
  6
Continuous
100
AcDbLine
 10
-13.666901
 20
-54.904292
 30
0.0
 11
-13.666901
 21
23.095708
 31
0.0
  0
LINE
  5
40C
100
AcDbEntity
  8
0
370
    -3
  6
Continuous
100
AcDbLine
 10
-8.410316
 20
23.095708
 30
0.0
 11
-8.410316
 21
-54.904292
 31
0.0
  0
ARC
  5
40D
100
AcDbEntity
  8
0
370
    -3
  6
Continuous
100
AcDbCircle
 10
-16.210316
 20
23.095708
 30
0.0
 40
7.8
100
AcDbArc
 50
0.0
 51
90.0
  0
LINE
  5
40E
100
AcDbEntity
  8
0
370
    -3
  6
Continuous
100
AcDbLine
 10
-21.469692
 20
20.344374
 30
0.0
 11
-17.523594
 21
11.149704
 31
0.0
  0
LINE
  5
40F
100
AcDbEntity
  8
0
370
    -3
  6
Continuous
100
AcDbLine
 10
-24.961683
 20
22.645708
 30
0.0
 11
-49.472319
 21
22.645708
 31
0.0
  0
ARC
  5
410
100
AcDbEntity
  8
0
370
    -3
  6
Continuous
100
AcDbCircle
 10
-24.961683
 20
18.845708
 30
0.0
 40
3.8
100
AcDbArc
 50
23.227672
 51
90.0
  0
ELLIPSE
  5
411
100
AcDbEntity
  8
0
370
    -3
  6
Continuous
100
AcDbEllipse
 10
-17.782271
 20
23.595708
 30
0.0
 11
0.0
 21
3.5
 31
0.0
210
0.0
220
0.0
230
1.0
 40
0.656603
 41
0.0
 42
6.2831853071795862
  0
LINE
  5
412
100
AcDbEntity
  8
0
370
    -3
  6
Continuous
100
AcDbLine
 10
-19.319724
 20
23.595708
 30
0.0
 11
-18.270536
 21
25.595708
 31
0.0
  0
LINE
  5
413
100
AcDbEntity
  8
0
370
    -3
  6
Continuous
100
AcDbLine
 10
-19.319724
 20
23.595708
 30
0.0
 11
-18.270536
 21
21.595708
 31
0.0
  0
LINE
  5
414
100
AcDbEntity
  8
0
370
    -3
  6
Continuous
100
AcDbLine
 10
-19.829551
 20
22.005691
 30
0.0
 11
-19.319724
 21
23.595708
 31
0.0
  0
LINE
  5
415
100
AcDbEntity
  8
0
370
    -3
  6
Continuous
100
AcDbLine
 10
-19.829551
 20
25.185725
 30
0.0
 11
-19.319724
 21
23.595708
 31
0.0
  0
LINE
  5
416
100
AcDbEntity
  8
0
370
    -3
  6
Continuous
100
AcDbLine
 10
-58.287813
 20
22.005691
 30
0.0
 11
-57.777986
 21
23.595708
 31
0.0
  0
LINE
  5
417
100
AcDbEntity
  8
0
370
    -3
  6
Continuous
100
AcDbLine
 10
-57.777986
 20
23.595708
 30
0.0
 11
-56.728798
 21
21.595708
 31
0.0
  0
LINE
  5
418
100
AcDbEntity
  8
0
370
    -3
  6
Continuous
100
AcDbLine
 10
-57.777986
 20
23.595708
 30
0.0
 11
-56.728798
 21
25.595708
 31
0.0
  0
LINE
  5
419
100
AcDbEntity
  8
0
370
    -3
  6
Continuous
100
AcDbLine
 10
-58.287813
 20
25.185725
 30
0.0
 11
-57.777986
 21
23.595708
 31
0.0
  0
ELLIPSE
  5
41A
100
AcDbEntity
  8
0
370
    -3
  6
Continuous
100
AcDbEllipse
 10
-56.240532
 20
23.595708
 30
0.0
 11
0.0
 21
3.5
 31
0.0
210
0.0
220
0.0
230
1.0
 40
0.656603
 41
0.0
 42
6.2831853071795862
  0
ARC
  5
41B
100
AcDbEntity
  8
0
370
    -3
  6
Continuous
100
AcDbCircle
 10
-50.325941
 20
23.095708
 30
0.0
 40
7.8
100
AcDbArc
 50
90.0
 51
151.87484
  0
LINE
  5
41C
100
AcDbEntity
  8
0
370
    -3
  6
Continuous
100
AcDbLine
 10
-58.125941
 20
21.594527
 30
0.0
 11
-58.125941
 21
-53.40311
 31
0.0
  0
ARC
  5
41D
100
AcDbEntity
  8
0
370
    -3
  6
Continuous
100
AcDbCircle
 10
-11.454793
 20
19.595708
 30
0.0
 40
3.8
100
AcDbArc
 50
0.0
 51
36.757251
  0
LINE
  5
41E
100
AcDbEntity
  8
0
370
    -3
  6
Continuous
100
AcDbLine
 10
-5.654793
 20
15.095708
 30
0.0
 11
-6.654793
 21
15.095708
 31
0.0
  0
LINE
  5
41F
100
AcDbEntity
  8
0
370
    -3
  6
Continuous
100
AcDbLine
 10
-17.215585
 20
9.651038
 30
0.0
 11
-17.215585
 21
-41.459622
 31
0.0
  0
ARC
  5
420
100
AcDbEntity
  8
0
370
    -3
  6
Continuous
100
AcDbCircle
 10
-21.015585
 20
9.651038
 30
0.0
 40
3.8
100
AcDbArc
 50
0.0
 51
23.227672
  0
LINE
  5
421
100
AcDbEntity
  8
0
370
    -3
  6
CENTER
100
AcDbLine
 10
-32.654793
 20
2.740641
 30
0.0
 11
-32.654793
 21
-37.204749
 31
0.0
  0
ARC
  5
422
100
AcDbEntity
  8
0
370
    -3
  6
Continuous
100
AcDbCircle
 10
-49.472319
 20
-47.654292
 30
0.0
 40
6.8
100
AcDbArc
 50
180.0
 51
270.0
  0
ARC
  5
423
100
AcDbEntity
  8
0
370
    -3
  6
Continuous
100
AcDbCircle
 10
-21.466901
 20
-54.904292
 30
0.0
 40
7.8
100
AcDbArc
 50
270.0
 51
0.0
  0
ARC
  5
424
100
AcDbEntity
  8
0
370
    -3
  6
Continuous
100
AcDbCircle
 10
-16.210316
 20
-54.904292
 30
0.0
 40
7.8
100
AcDbArc
 50
270.0
 51
0.0
  0
LINE
  5
425
100
AcDbEntity
  8
0
370
    -3
  6
Continuous
100
AcDbLine
 10
-24.961683
 20
-54.454292
 30
0.0
 11
-49.472319
 21
-54.454292
 31
0.0
  0
ARC
  5
426
100
AcDbEntity
  8
0
370
    -3
  6
Continuous
100
AcDbCircle
 10
-24.961683
 20
-50.654292
 30
0.0
 40
3.8
100
AcDbArc
 50
270.0
 51
336.772328
  0
LINE
  5
427
100
AcDbEntity
  8
0
370
    -3
  6
Continuous
100
AcDbLine
 10
-21.469692
 20
-52.152958
 30
0.0
 11
-17.523594
 21
-42.958288
 31
0.0
  0
ARC
  5
428
100
AcDbEntity
  8
0
370
    -3
  6
Continuous
100
AcDbCircle
 10
-21.015585
 20
-41.459622
 30
0.0
 40
3.8
100
AcDbArc
 50
336.772328
 51
0.0
  0
ELLIPSE
  5
429
100
AcDbEntity
  8
0
370
    -3
  6
Continuous
100
AcDbEllipse
 10
-17.782271
 20
-55.404292
 30
0.0
 11
0.0
 21
3.5
 31
0.0
210
0.0
220
0.0
230
1.0
 40
0.656603
 41
0.0
 42
6.2831853071795862
  0
LINE
  5
42A
100
AcDbEntity
  8
0
370
    -3
  6
Continuous
100
AcDbLine
 10
-19.319724
 20
-55.404292
 30
0.0
 11
-18.270536
 21
-57.404292
 31
0.0
  0
LINE
  5
42B
100
AcDbEntity
  8
0
370
    -3
  6
Continuous
100
AcDbLine
 10
-19.319724
 20
-55.404292
 30
0.0
 11
-18.270536
 21
-53.404292
 31
0.0
  0
LINE
  5
42C
100
AcDbEntity
  8
0
370
    -3
  6
Continuous
100
AcDbLine
 10
-19.829551
 20
-53.814275
 30
0.0
 11
-19.319724
 21
-55.404292
 31
0.0
  0
LINE
  5
42D
100
AcDbEntity
  8
0
370
    -3
  6
Continuous
100
AcDbLine
 10
-19.829551
 20
-56.994309
 30
0.0
 11
-19.319724
 21
-55.404292
 31
0.0
  0
LINE
  5
42E
100
AcDbEntity
  8
0
370
    -3
  6
Continuous
100
AcDbLine
 10
-58.287813
 20
-53.814275
 30
0.0
 11
-57.777986
 21
-55.404292
 31
0.0
  0
LINE
  5
42F
100
AcDbEntity
  8
0
370
    -3
  6
Continuous
100
AcDbLine
 10
-57.777986
 20
-55.404292
 30
0.0
 11
-56.728798
 21
-53.404292
 31
0.0
  0
LINE
  5
430
100
AcDbEntity
  8
0
370
    -3
  6
Continuous
100
AcDbLine
 10
-57.777986
 20
-55.404292
 30
0.0
 11
-56.728798
 21
-57.404292
 31
0.0
  0
LINE
  5
431
100
AcDbEntity
  8
0
370
    -3
  6
Continuous
100
AcDbLine
 10
-58.287813
 20
-56.994309
 30
0.0
 11
-57.777986
 21
-55.404292
 31
0.0
  0
ELLIPSE
  5
432
100
AcDbEntity
  8
0
370
    -3
  6
Continuous
100
AcDbEllipse
 10
-56.240532
 20
-55.404292
 30
0.0
 11
0.0
 21
3.5
 31
0.0
210
0.0
220
0.0
230
1.0
 40
0.656603
 41
0.0
 42
6.2831853071795862
  0
ARC
  5
433
100
AcDbEntity
  8
0
370
    -3
  6
Continuous
100
AcDbCircle
 10
-50.325941
 20
-54.904292
 30
0.0
 40
7.8
100
AcDbArc
 50
208.12516
 51
270.0
  0
LINE
  5
434
100
AcDbEntity
  8
0
370
    -3
  6
Continuous
100
AcDbLine
 10
-50.325941
 20
-62.704292
 30
0.0
 11
-16.210316
 21
-62.704292
 31
0.0
  0
ARC
  5
435
100
AcDbEntity
  8
0
370
    -3
  6
Continuous
100
AcDbCircle
 10
-11.454793
 20
-51.404292
 30
0.0
 40
3.8
100
AcDbArc
 50
321.247352
 51
0.0
  0
ARC
  5
436
100
AcDbEntity
  8
0
370
    -3
  6
Continuous
100
AcDbCircle
 10
-7.654793
 20
12.095708
 30
0.0
 40
1.0
100
AcDbArc
 50
0.0
 51
90.0
  0
CIRCLE
  5
437
100
AcDbEntity
  8
0
370
    -3
  6
DASHED
100
AcDbCircle
 10
-32.654793
 20
-15.904292
 30
0.0
 40
14.0
  0
LINE
  5
438
100
AcDbEntity
  8
0
370
    -3
  6
CENTER
100
AcDbLine
 10
-51.299725
 20
-15.904292
 30
0.0
 11
-11.354336
 21
-15.904292
 31
0.0
  0
LINE
  5
439
100
AcDbEntity
  8
0
370
    -3
  6
Continuous
100
AcDbLine
 10
-50.325941
 20
30.895708
 30
0.0
 11
-16.210316
 21
30.895708
 31
0.0
  0
LINE
  5
43A
100
AcDbEntity
  8
0
370
    -3
  6
Continuous
100
AcDbLine
 10
-7.654793
 20
19.595708
 30
0.0
 11
-7.654793
 21
-51.404292
 31
0.0
  0
LINE
  5
43B
100
AcDbEntity
  8
0
370
    -3
  6
Continuous
100
AcDbLine
 10
-6.654793
 20
5.073058
 30
0.0
 11
-6.654793
 21
15.095708
 31
0.0
  0
LINE
  5
43C
100
AcDbEntity
  8
0
370
    -3
  6
Continuous
100
AcDbLine
 10
-5.654793
 20
8.905576
 30
0.0
 11
-5.654793
 21
15.621551
 31
0.0
  0
LINE
  5
43D
100
AcDbEntity
  8
0
370
    -3
  6
Continuous
100
AcDbLine
 10
-358.125941
 20
-27.904292
 30
0.0
 11
-358.125941
 21
-15.904292
 31
0.0
  0
ARC
  5
43E
100
AcDbEntity
  8
0
370
    -3
  6
Continuous
100
AcDbCircle
 10
-356.125941
 20
-27.904292
 30
0.0
 40
2.0
100
AcDbArc
 50
180.0
 51
270.0
  0
POINT
  5
43F
100
AcDbEntity
  8
0
370
    -3
  6
CENTER
100
AcDbPoint
 10
-358.125941
 20
-5.426792
 30
0.0
  0
POINT
  5
440
100
AcDbEntity
  8
0
370
    -3
  6
CENTER
100
AcDbPoint
 10
-358.125941
 20
-26.381792
 30
0.0
  0
POINT
  5
441
100
AcDbEntity
  8
0
370
    -3
  6
CENTER
100
AcDbPoint
 10
-358.125941
 20
-26.381792
 30
0.0
  0
POINT
  5
442
100
AcDbEntity
  8
0
370
    -3
  6
CENTER
100
AcDbPoint
 10
-358.125941
 20
-5.426792
 30
0.0
  0
LINE
  5
443
100
AcDbEntity
  8
0
370
    -3
  6
Continuous
100
AcDbLine
 10
-358.125941
 20
-3.904292
 30
0.0
 11
-358.125941
 21
-15.904292
 31
0.0
  0
ARC
  5
444
100
AcDbEntity
  8
0
370
    -3
  6
Continuous
100
AcDbCircle
 10
-356.125941
 20
-3.904292
 30
0.0
 40
2.0
100
AcDbArc
 50
90.0
 51
180.0
  0
LINE
  5
445
100
AcDbEntity
  8
0
370
    -3
  6
Continuous
100
AcDbLine
 10
-338.248815
 20
-15.904292
 30
0.0
 11
-338.248815
 21
-54.904292
 31
0.0
  0
LINE
  5
446
100
AcDbEntity
  8
0
370
    -3
  6
Continuous
100
AcDbLine
 10
-340.700001
 20
-15.904292
 30
0.0
 11
-340.700001
 21
-54.904292
 31
0.0
  0
LINE
  5
447
100
AcDbEntity
  8
0
370
    -3
  6
Continuous
100
AcDbLine
 10
-356.125941
 20
-29.904292
 30
0.0
 11
-340.700001
 21
-29.904292
 31
0.0
  0
ARC
  5
448
100
AcDbEntity
  8
0
370
    -3
  6
Continuous
100
AcDbCircle
 10
-330.448815
 20
-54.904292
 30
0.0
 40
7.8
100
AcDbArc
 50
180.0
 51
270.0
  0
ARC
  5
449
100
AcDbEntity
  8
0
370
    -3
  6
Continuous
100
AcDbCircle
 10
-332.900001
 20
-54.904292
 30
0.0
 40
7.8
100
AcDbArc
 50
180.0
 51
270.0
  0
LINE
  5
44A
100
AcDbEntity
  8
0
370
    -3
  6
Continuous
100
AcDbLine
 10
-330.4582
 20
-15.904292
 30
0.0
 11
-330.4582
 21
-40.468754
 31
0.0
  0
LINE
  5
44B
100
AcDbEntity
  8
0
370
    -3
  6
Continuous
100
AcDbLine
 10
-320.532307
 20
-53.166801
 30
0.0
 11
-329.509042
 21
-42.981263
 31
0.0
  0
ARC
  5
44C
100
AcDbEntity
  8
0
370
    -3
  6
Continuous
100
AcDbCircle
 10
-326.6582
 20
-40.468754
 30
0.0
 40
3.8
100
AcDbArc
 50
180.0
 51
221.390427
  0
LINE
  5
44D
100
AcDbEntity
  8
0
370
    -3
  6
Continuous
100
AcDbLine
 10
-330.080806
 20
-55.404292
 30
0.0
 11
-331.988526
 21
-53.404292
 31
0.0
  0
LINE
  5
44E
100
AcDbEntity
  8
0
370
    -3
  6
Continuous
100
AcDbLine
 10
-331.988526
 20
-57.404292
 30
0.0
 11
-330.080806
 21
-55.404292
 31
0.0
  0
ELLIPSE
  5
44F
100
AcDbEntity
  8
0
370
    -3
  6
Continuous
100
AcDbEllipse
 10
-330.911837
 20
-55.404292
 30
0.0
 11
0.0000000000002274
 21
3.5
 31
0.0
210
0.0
220
0.0
230
1.0
 40
0.982815
 41
0.0
 42
6.2831853071795862
  0
ARC
  5
450
100
AcDbEntity
  8
0
370
    -3
  6
Continuous
100
AcDbCircle
 10
-317.681465
 20
-50.654292
 30
0.0
 40
3.8
100
AcDbArc
 50
221.390427
 51
270.0
  0
LINE
  5
451
100
AcDbEntity
  8
0
370
    -3
  6
Continuous
100
AcDbLine
 10
-330.080806
 20
-55.404292
 30
0.0
 11
-328.363295
 21
-53.404292
 31
0.0
  0
LINE
  5
452
100
AcDbEntity
  8
0
370
    -3
  6
Continuous
100
AcDbLine
 10
-328.363295
 20
-57.404292
 30
0.0
 11
-330.080806
 21
-55.404292
 31
0.0
  0
LINE
  5
453
100
AcDbEntity
  8
0
370
    -3
  6
CENTER
100
AcDbLine
 10
-287.125941
 20
-65.596055
 30
0.0
 11
-287.125941
 21
34.788348
 31
0.0
  0
ARC
  5
454
100
AcDbEntity
  8
0
370
    -3
  6
Continuous
100
AcDbCircle
 10
-332.900001
 20
23.095708
 30
0.0
 40
7.8
100
AcDbArc
 50
90.0
 51
180.0
  0
LINE
  5
455
100
AcDbEntity
  8
0
370
    -3
  6
Continuous
100
AcDbLine
 10
-338.248815
 20
-15.904292
 30
0.0
 11
-338.248815
 21
23.095708
 31
0.0
  0
LINE
  5
456
100
AcDbEntity
  8
0
370
    -3
  6
Continuous
100
AcDbLine
 10
-340.700001
 20
-15.904292
 30
0.0
 11
-340.700001
 21
23.095708
 31
0.0
  0
LINE
  5
457
100
AcDbEntity
  8
0
370
    -3
  6
Continuous
100
AcDbLine
 10
-356.125941
 20
-1.904292
 30
0.0
 11
-340.700001
 21
-1.904292
 31
0.0
  0
ARC
  5
458
100
AcDbEntity
  8
0
370
    -3
  6
Continuous
100
AcDbCircle
 10
-330.448815
 20
23.095708
 30
0.0
 40
7.8
100
AcDbArc
 50
90.0
 51
180.0
  0
LINE
  5
459
100
AcDbEntity
  8
0
370
    -3
  6
Continuous
100
AcDbLine
 10
-330.4582
 20
-15.904292
 30
0.0
 11
-330.4582
 21
8.660171
 31
0.0
  0
LINE
  5
45A
100
AcDbEntity
  8
0
370
    -3
  6
Continuous
100
AcDbLine
 10
-330.080806
 20
23.595708
 30
0.0
 11
-331.988526
 21
21.595708
 31
0.0
  0
LINE
  5
45B
100
AcDbEntity
  8
0
370
    -3
  6
Continuous
100
AcDbLine
 10
-331.988526
 20
25.595708
 30
0.0
 11
-330.080806
 21
23.595708
 31
0.0
  0
ELLIPSE
  5
45C
100
AcDbEntity
  8
0
370
    -3
  6
Continuous
100
AcDbEllipse
 10
-330.911837
 20
23.595708
 30
0.0
 11
0.0
 21
3.5
 31
0.0
210
0.0
220
0.0
230
1.0
 40
0.982815
 41
0.0
 42
6.2831853071795862
  0
ARC
  5
45D
100
AcDbEntity
  8
0
370
    -3
  6
Continuous
100
AcDbCircle
 10
-326.6582
 20
8.660171
 30
0.0
 40
3.8
100
AcDbArc
 50
138.609573
 51
180.0
  0
LINE
  5
45E
100
AcDbEntity
  8
0
370
    -3
  6
Continuous
100
AcDbLine
 10
-328.363295
 20
25.595708
 30
0.0
 11
-330.080806
 21
23.595708
 31
0.0
  0
LINE
  5
45F
100
AcDbEntity
  8
0
370
    -3
  6
Continuous
100
AcDbLine
 10
-330.080806
 20
23.595708
 30
0.0
 11
-328.363295
 21
21.595708
 31
0.0
  0
LINE
  5
460
100
AcDbEntity
  8
0
370
    -3
  6
Continuous
100
AcDbLine
 10
-320.532307
 20
21.358217
 30
0.0
 11
-329.509042
 21
11.172679
 31
0.0
  0
ARC
  5
461
100
AcDbEntity
  8
0
370
    -3
  6
Continuous
100
AcDbCircle
 10
-317.681465
 20
18.845708
 30
0.0
 40
3.8
100
AcDbArc
 50
90.0
 51
138.609573
  0
LINE
  5
462
100
AcDbEntity
  8
0
370
    -3
  6
Continuous
100
AcDbLine
 10
-317.681465
 20
22.645708
 30
0.0
 11
-262.185408
 21
22.645708
 31
0.0
  0
LINE
  5
463
100
AcDbEntity
  8
0
370
    -3
  6
Continuous
100
AcDbLine
 10
-247.606798
 20
23.595708
 30
0.0
 11
-249.514518
 21
21.595708
 31
0.0
  0
LINE
  5
464
100
AcDbEntity
  8
0
370
    -3
  6
Continuous
100
AcDbLine
 10
-249.514518
 20
25.595708
 30
0.0
 11
-247.606798
 21
23.595708
 31
0.0
  0
ARC
  5
465
100
AcDbEntity
  8
0
370
    -3
  6
Continuous
100
AcDbCircle
 10
-253.046581
 20
8.642699
 30
0.0
 40
3.8
100
AcDbArc
 50
0.0
 51
41.85078
  0
LINE
  5
466
100
AcDbEntity
  8
0
370
    -3
  6
Continuous
100
AcDbLine
 10
-245.889286
 20
25.595708
 30
0.0
 11
-247.606798
 21
23.595708
 31
0.0
  0
LINE
  5
467
100
AcDbEntity
  8
0
370
    -3
  6
Continuous
100
AcDbLine
 10
-247.606798
 20
23.595708
 30
0.0
 11
-245.889286
 21
21.595708
 31
0.0
  0
ARC
  5
468
100
AcDbEntity
  8
0
370
    -3
  6
Continuous
100
AcDbCircle
 10
-269.699988
 20
12.645708
 30
0.0
 40
10.0
100
AcDbArc
 50
0.0
 51
90.0
  0
LINE
  5
469
100
AcDbEntity
  8
0
370
    -3
  6
Continuous
100
AcDbLine
 10
-259.354845
 20
21.381041
 30
0.0
 11
-250.216018
 21
11.178032
 31
0.0
  0
ARC
  5
46A
100
AcDbEntity
  8
0
370
    -3
  6
Continuous
100
AcDbCircle
 10
-262.185408
 20
18.845708
 30
0.0
 40
3.8
100
AcDbArc
 50
41.85078
 51
90.0
  0
ELLIPSE
  5
46B
100
AcDbEntity
  8
0
370
    -3
  6
Continuous
100
AcDbEllipse
 10
-248.437829
 20
23.595708
 30
0.0
 11
0.0
 21
3.5
 31
0.0
210
0.0
220
0.0
230
1.0
 40
0.982815
 41
0.0
 42
6.2831853071795862
  0
LINE
  5
46C
100
AcDbEntity
  8
0
370
    -3
  6
Continuous
100
AcDbLine
 10
-317.681465
 20
-54.454292
 30
0.0
 11
-262.185408
 21
-54.454292
 31
0.0
  0
ARC
  5
46D
100
AcDbEntity
  8
0
370
    -3
  6
Continuous
100
AcDbCircle
 10
-269.699988
 20
-44.454292
 30
0.0
 40
10.0
100
AcDbArc
 50
270.0
 51
360.0
  0
LINE
  5
46E
100
AcDbEntity
  8
0
370
    -3
  6
Continuous
100
AcDbLine
 10
-259.354845
 20
-53.189625
 30
0.0
 11
-250.216018
 21
-42.986616
 31
0.0
  0
ARC
  5
46F
100
AcDbEntity
  8
0
370
    -3
  6
Continuous
100
AcDbCircle
 10
-262.185408
 20
-50.654292
 30
0.0
 40
3.8
100
AcDbArc
 50
270.0
 51
318.14922
  0
LINE
  5
470
100
AcDbEntity
  8
0
370
    -3
  6
Continuous
100
AcDbLine
 10
-247.606798
 20
-55.404292
 30
0.0
 11
-249.514518
 21
-53.404292
 31
0.0
  0
LINE
  5
471
100
AcDbEntity
  8
0
370
    -3
  6
Continuous
100
AcDbLine
 10
-249.514518
 20
-57.404292
 30
0.0
 11
-247.606798
 21
-55.404292
 31
0.0
  0
LINE
  5
472
100
AcDbEntity
  8
0
370
    -3
  6
Continuous
100
AcDbLine
 10
-245.889286
 20
-57.404292
 30
0.0
 11
-247.606798
 21
-55.404292
 31
0.0
  0
LINE
  5
473
100
AcDbEntity
  8
0
370
    -3
  6
Continuous
100
AcDbLine
 10
-247.606798
 20
-55.404292
 30
0.0
 11
-245.889286
 21
-53.404292
 31
0.0
  0
ARC
  5
474
100
AcDbEntity
  8
0
370
    -3
  6
Continuous
100
AcDbCircle
 10
-253.046581
 20
-40.451283
 30
0.0
 40
3.8
100
AcDbArc
 50
318.14922
 51
0.0
  0
LINE
  5
475
100
AcDbEntity
  8
0
370
    -3
  6
Continuous
100
AcDbLine
 10
-249.246581
 20
-15.904292
 30
0.0
 11
-249.246581
 21
8.642699
 31
0.0
  0
LINE
  5
476
100
AcDbEntity
  8
0
370
    -3
  6
Continuous
100
AcDbLine
 10
-259.699988
 20
-15.904292
 30
0.0
 11
-259.699988
 21
12.645708
 31
0.0
  0
LINE
  5
477
100
AcDbEntity
  8
0
370
    -3
  6
Continuous
100
AcDbLine
 10
-242.228472
 20
-15.904292
 30
0.0
 11
-242.228472
 21
23.095708
 31
0.0
  0
LINE
  5
478
100
AcDbEntity
  8
0
370
    -3
  6
Continuous
100
AcDbLine
 10
-259.699988
 20
-15.904292
 30
0.0
 11
-259.699988
 21
-44.454292
 31
0.0
  0
LINE
  5
479
100
AcDbEntity
  8
0
370
    -3
  6
Continuous
100
AcDbLine
 10
-249.246581
 20
-15.904292
 30
0.0
 11
-249.246581
 21
-40.451283
 31
0.0
  0
LINE
  5
47A
100
AcDbEntity
  8
0
370
    -3
  6
Continuous
100
AcDbLine
 10
-242.228472
 20
-15.904292
 30
0.0
 11
-242.228472
 21
-54.904292
 31
0.0
  0
ELLIPSE
  5
47B
100
AcDbEntity
  8
0
370
    -3
  6
Continuous
100
AcDbEllipse
 10
-248.437829
 20
-55.404292
 30
0.0
 11
0.000000000000199
 21
3.5
 31
0.0
210
0.0
220
0.0
230
1.0
 40
0.982815
 41
0.0
 42
6.2831853071795862
  0
ARC
  5
47C
100
AcDbEntity
  8
0
370
    -3
  6
Continuous
100
AcDbCircle
 10
-250.028472
 20
-54.904292
 30
0.0
 40
7.8
100
AcDbArc
 50
270.0
 51
360.0
  0
LINE
  5
47D
100
AcDbEntity
  8
0
370
    -3
  6
Continuous
100
AcDbLine
 10
-250.028472
 20
-62.704292
 30
0.0
 11
-332.900001
 21
-62.704292
 31
0.0
  0
LINE
  5
47E
100
AcDbEntity
  8
0
370
    -3
  6
Continuous
100
AcDbLine
 10
-250.028472
 20
30.895708
 30
0.0
 11
-332.900001
 21
30.895708
 31
0.0
  0
ARC
  5
47F
100
AcDbEntity
  8
0
370
    -3
  6
Continuous
100
AcDbCircle
 10
-250.028472
 20
23.095708
 30
0.0
 40
7.8
100
AcDbArc
 50
0.0
 51
90.0
  0
LINE
  5
480
100
AcDbEntity
  8
0
370
    -3
  6
Continuous
100
AcDbLine
 10
-259.144962
 20
130.283654
 30
0.0
 11
-259.144962
 21
129.283654
 31
0.0
  0
ARC
  5
481
100
AcDbEntity
  8
0
370
    -3
  6
Continuous
100
AcDbCircle
 10
-258.644962
 20
129.283654
 30
0.0
 40
0.5
100
AcDbArc
 50
180.0
 51
270.0
  0
LINE
  5
482
100
AcDbEntity
  8
0
370
    -3
  6
Continuous
100
AcDbLine
 10
-250.375932
 20
132.289066
 30
0.0
 11
-250.375932
 21
130.783654
 31
0.0
  0
ARC
  5
483
100
AcDbEntity
  8
0
370
    -3
  6
Continuous
100
AcDbCircle
 10
-259.703571
 20
131.283654
 30
0.0
 40
0.5
100
AcDbArc
 50
187.125016
 51
270.0
  0
ARC
  5
484
100
AcDbEntity
  8
0
370
    -3
  6
Continuous
100
AcDbCircle
 10
-259.644962
 20
130.283654
 30
0.0
 40
0.5
100
AcDbArc
 50
0.0
 51
90.0
  0
LINE
  5
485
100
AcDbEntity
  8
0
370
    -3
  6
Continuous
100
AcDbLine
 10
-268.608776
 20
130.783654
 30
0.0
 11
-259.644962
 21
130.783654
 31
0.0
  0
LINE
  5
486
100
AcDbEntity
  8
0
370
    -3
  6
Continuous
100
AcDbLine
 10
-267.573246
 20
128.783654
 30
0.0
 11
-254.521188
 21
128.783654
 31
0.0
  0
LINE
  5
487
100
AcDbEntity
  8
0
370
    -3
  6
Continuous
100
AcDbLine
 10
-267.573246
 20
128.783654
 30
0.0
 11
-306.678618
 21
128.783654
 31
0.0
  0
LINE
  5
488
100
AcDbEntity
  8
0
370
    -3
  6
Continuous
100
AcDbLine
 10
-306.678618
 20
128.783654
 30
0.0
 11
-319.730676
 21
128.783654
 31
0.0
  0
LINE
  5
489
100
AcDbEntity
  8
0
370
    -3
  6
Continuous
100
AcDbLine
 10
-319.730676
 20
128.783654
 30
0.0
 11
-319.651433
 21
125.757477
 31
0.0
  0
ARC
  5
48A
100
AcDbEntity
  8
0
370
    -3
  6
Continuous
100
AcDbCircle
 10
-318.651775
 20
125.783654
 30
0.0
 40
1.0
100
AcDbArc
 50
181.5
 51
270.0
  0
LINE
  5
48B
100
AcDbEntity
  8
0
370
    -3
  6
Continuous
100
AcDbLine
 10
-318.651775
 20
124.783654
 30
0.0
 11
-255.600089
 21
124.783654
 31
0.0
  0
ARC
  5
48C
100
AcDbEntity
  8
0
370
    -3
  6
Continuous
100
AcDbCircle
 10
-255.600089
 20
125.783654
 30
0.0
 40
1.0
100
AcDbArc
 50
270.0
 51
358.5
  0
LINE
  5
48D
100
AcDbEntity
  8
0
370
    -3
  6
Continuous
100
AcDbLine
 10
-254.521188
 20
128.783654
 30
0.0
 11
-254.600432
 21
125.757477
 31
0.0
  0
ARC
  5
48E
100
AcDbEntity
  8
0
370
    -3
  6
Continuous
100
AcDbCircle
 10
-268.586353
 20
131.283654
 30
0.0
 40
0.5
100
AcDbArc
 50
270.0
 51
352.874984
  0
ARC
  5
48F
100
AcDbEntity
  8
0
370
    -3
  6
Continuous
100
AcDbCircle
 10
-269.644962
 20
129.283654
 30
0.0
 40
0.5
100
AcDbArc
 50
270.0
 51
0.0
  0
LINE
  5
490
100
AcDbEntity
  8
0
370
    -3
  6
Continuous
100
AcDbLine
 10
-269.144962
 20
130.283654
 30
0.0
 11
-269.144962
 21
129.283654
 31
0.0
  0
ARC
  5
491
100
AcDbEntity
  8
0
370
    -3
  6
Continuous
100
AcDbCircle
 10
-268.644962
 20
130.283654
 30
0.0
 40
0.5
100
AcDbArc
 50
90.0
 51
180.0
  0
LINE
  5
492
100
AcDbEntity
  8
0
370
    -3
  6
Continuous
100
AcDbLine
 10
-318.875941
 20
130.783654
 30
0.0
 11
-250.375932
 21
130.783654
 31
0.0
  0
ARC
  5
493
100
AcDbEntity
  8
0
370
    -3
  6
Continuous
100
AcDbCircle
 10
-305.665511
 20
131.283654
 30
0.0
 40
0.5
100
AcDbArc
 50
187.125016
 51
270.0
  0
LINE
  5
494
100
AcDbEntity
  8
0
370
    -3
  6
Continuous
100
AcDbLine
 10
-313.919402
 20
132.283654
 30
0.0
 11
-314.052155
 21
131.221637
 31
0.0
  0
ARC
  5
495
100
AcDbEntity
  8
0
370
    -3
  6
Continuous
100
AcDbCircle
 10
-314.548294
 20
131.283654
 30
0.0
 40
0.5
100
AcDbArc
 50
270.0
 51
352.874984
  0
ARC
  5
496
100
AcDbEntity
  8
0
370
    -3
  6
Continuous
100
AcDbCircle
 10
-305.606902
 20
130.283654
 30
0.0
 40
0.5
100
AcDbArc
 50
0.0
 51
90.0
  0
ARC
  5
497
100
AcDbEntity
  8
0
370
    -3
  6
Continuous
100
AcDbCircle
 10
-314.606902
 20
130.283654
 30
0.0
 40
0.5
100
AcDbArc
 50
90.0
 51
180.0
  0
LINE
  5
498
100
AcDbEntity
  8
0
370
    -3
  6
Continuous
100
AcDbLine
 10
-305.606902
 20
130.783654
 30
0.0
 11
-314.300585
 21
130.783654
 31
0.0
  0
ARC
  5
499
100
AcDbEntity
  8
0
370
    -3
  6
Continuous
100
AcDbCircle
 10
-315.606902
 20
129.283654
 30
0.0
 40
0.5
100
AcDbArc
 50
270.0
 51
0.0
  0
LINE
  5
49A
100
AcDbEntity
  8
0
370
    -3
  6
Continuous
100
AcDbLine
 10
-315.106902
 20
130.283654
 30
0.0
 11
-315.106902
 21
129.283654
 31
0.0
  0
LINE
  5
49B
100
AcDbEntity
  8
0
370
    -3
  6
Continuous
100
AcDbLine
 10
-305.106902
 20
130.283654
 30
0.0
 11
-305.106902
 21
129.283654
 31
0.0
  0
ARC
  5
49C
100
AcDbEntity
  8
0
370
    -3
  6
Continuous
100
AcDbCircle
 10
-304.606902
 20
129.283654
 30
0.0
 40
0.5
100
AcDbArc
 50
180.0
 51
270.0
  0
LINE
  5
49D
100
AcDbEntity
  8
0
370
    -3
  6
Continuous
100
AcDbLine
 10
-318.875941
 20
130.783654
 30
0.0
 11
-318.875941
 21
132.283654
 31
0.0
  0
LINE
  5
49E
100
AcDbEntity
  8
0
370
    -3
  6
Continuous
100
AcDbLine
 10
-305.643088
 20
130.783654
 30
0.0
 11
-314.300585
 21
130.783654
 31
0.0
  0
ARC
  5
49F
100
AcDbEntity
  8
0
370
    -3
  6
Continuous
100
AcDbCircle
 10
-543.951572
 20
173.469051
 30
0.0
 40
300.8
100
AcDbArc
 50
342.341575
 51
347.89975
  0
ARC
  5
4A0
100
AcDbEntity
  8
0
370
    -3
  6
Continuous
100
AcDbCircle
 10
-267.615837
 20
85.499956
 30
0.0
 40
10.8
100
AcDbArc
 50
272.437505
 51
342.341575
  0
LINE
  5
4A1
100
AcDbEntity
  8
0
370
    -3
  6
Continuous
100
AcDbLine
 10
-244.087582
 20
122.028131
 30
0.0
 11
-332.536648
 21
80.783654
 31
0.0
  0
LINE
  5
4A2
100
AcDbEntity
  8
0
370
    -3
  6
Continuous
100
AcDbLine
 10
-243.26775
 20
116.010833
 30
0.0
 11
-336.617452
 21
72.481152
 31
0.0
  0
LINE
  5
4A3
100
AcDbEntity
  8
0
370
    -3
  6
Continuous
100
AcDbLine
 10
-251.338044
 20
118.647185
 30
0.0
 11
-252.243809
 21
120.589604
 31
0.0
  0
LINE
  5
4A4
100
AcDbEntity
  8
0
370
    -3
  6
Continuous
100
AcDbLine
 10
-262.938784
 20
113.237671
 30
0.0
 11
-266.367046
 21
120.589604
 31
0.0
  0
ARC
  5
4A5
100
AcDbEntity
  8
0
370
    -3
  6
Continuous
100
AcDbCircle
 10
-269.811016
 20
118.983654
 30
0.0
 40
3.8
100
AcDbArc
 50
25.0
 51
90.0
  0
ARC
  5
4A6
100
AcDbEntity
  8
0
370
    -3
  6
Continuous
100
AcDbCircle
 10
-256.726115
 20
94.061639
 30
0.0
 40
2.8
100
AcDbArc
 50
344.545811
 51
25.0
  0
LINE
  5
4A7
100
AcDbEntity
  8
0
370
    -3
  6
Continuous
100
AcDbLine
 10
-254.188453
 20
95.244971
 30
0.0
 11
-258.92388
 21
105.400126
 31
0.0
  0
ARC
  5
4A8
100
AcDbEntity
  8
0
370
    -3
  6
Continuous
100
AcDbCircle
 10
-256.204957
 20
106.66798
 30
0.0
 40
3.0
100
AcDbArc
 50
115.0
 51
205.0
  0
ARC
  5
4A9
100
AcDbEntity
  8
0
370
    -3
  6
Continuous
100
AcDbCircle
 10
-250.28572
 20
111.658064
 30
0.0
 40
1.299999
100
AcDbArc
 50
204.999999
 51
278.398469
  0
LINE
  5
4AA
100
AcDbEntity
  8
0
370
    -3
  6
Continuous
100
AcDbLine
 10
-251.877674
 20
111.995959
 30
0.0
 11
-251.46392
 21
111.108661
 31
0.0
  0
ARC
  5
4AB
100
AcDbEntity
  8
0
370
    -3
  6
Continuous
100
AcDbCircle
 10
-251.410353
 20
119.275493
 30
0.0
 40
9.0
100
AcDbArc
 50
278.398469
 51
311.601548
  0
ARC
  5
4AC
100
AcDbEntity
  8
0
370
    -3
  6
Continuous
100
AcDbCircle
 10
-246.297965
 20
113.517585
 30
0.0
 40
1.299999
100
AcDbArc
 50
311.601548
 51
25.000018
  0
LINE
  5
4AD
100
AcDbEntity
  8
0
370
    -3
  6
CENTER
100
AcDbLine
 10
-249.963271
 20
116.172214
 30
0.0
 11
-247.09335
 21
110.017649
 31
0.0
  0
LINE
  5
4AE
100
AcDbEntity
  8
0
370
    -3
  6
Continuous
100
AcDbLine
 10
-245.533519
 20
114.954287
 30
0.0
 11
-245.119765
 21
114.066989
 31
0.0
  0
POINT
  5
4AF
100
AcDbEntity
  8
0
370
    -3
  6
Continuous
100
AcDbPoint
 10
-248.729307
 20
113.464067
 30
0.0
  0
LINE
  5
4B0
100
AcDbEntity
  8
0
370
    -3
  6
CENTER
100
AcDbLine
 10
-249.963271
 20
116.172214
 30
0.0
 11
-247.09335
 21
110.017649
 31
0.0
  0
ARC
  5
4B1
100
AcDbEntity
  8
0
370
    -3
  6
Continuous
100
AcDbCircle
 10
-244.028463
 20
117.642187
 30
0.0
 40
1.8
100
AcDbArc
 50
295.0
 51
25.0
  0
LINE
  5
4B2
100
AcDbEntity
  8
0
370
    -3
  6
Continuous
100
AcDbLine
 10
-242.397109
 20
118.4029
 30
0.0
 11
-244.087582
 21
122.028131
 31
0.0
  0
ARC
  5
4B3
100
AcDbEntity
  8
0
370
    -3
  6
Continuous
100
AcDbCircle
 10
-255.687778
 20
118.983654
 30
0.0
 40
3.8
100
AcDbArc
 50
25.0
 51
90.0
  0
LINE
  5
4B4
100
AcDbEntity
  8
0
370
    -3
  6
Continuous
100
AcDbLine
 10
-320.450239
 20
86.419639
 30
0.0
 11
-320.450239
 21
119.783654
 31
0.0
  0
LINE
  5
4B5
100
AcDbEntity
  8
0
370
    -3
  6
Continuous
100
AcDbLine
 10
-332.125932
 20
80.975174
 30
0.0
 11
-332.125932
 21
115.983654
 31
0.0
  0
LINE
  5
4B6
100
AcDbEntity
  8
0
370
    -3
  6
Continuous
100
AcDbLine
 10
-334.125932
 20
97.783654
 30
0.0
 11
-334.125932
 21
83.783654
 31
0.0
  0
LINE
  5
4B7
100
AcDbEntity
  8
0
370
    -3
  6
Continuous
100
AcDbLine
 10
-332.536648
 20
80.783654
 30
0.0
 11
-340.699992
 21
76.977024
 31
0.0
  0
ARC
  5
4B8
100
AcDbEntity
  8
0
370
    -3
  6
Continuous
100
AcDbCircle
 10
-321.144536
 20
76.386157
 30
0.0
 40
3.0
100
AcDbArc
 50
25.0
 51
115.0
  0
LINE
  5
4B9
100
AcDbEntity
  8
0
370
    -3
  6
Continuous
100
AcDbLine
 10
-356.125932
 20
83.783654
 30
0.0
 11
-332.125932
 21
83.783654
 31
0.0
  0
POINT
  5
4BA
100
AcDbEntity
  8
0
370
    -3
  6
CENTER
100
AcDbPoint
 10
-358.125932
 20
87.306154
 30
0.0
  0
POINT
  5
4BB
100
AcDbEntity
  8
0
370
    -3
  6
CENTER
100
AcDbPoint
 10
-358.125932
 20
108.261154
 30
0.0
  0
ARC
  5
4BC
100
AcDbEntity
  8
0
370
    -3
  6
Continuous
100
AcDbCircle
 10
-317.450239
 20
119.783654
 30
0.0
 40
3.0
100
AcDbArc
 50
90.0
 51
180.0
  0
LINE
  5
4BD
100
AcDbEntity
  8
0
370
    -3
  6
CENTER
100
AcDbLine
 10
-287.125932
 20
135.561071
 30
0.0
 11
-287.125932
 21
112.651095
 31
0.0
  0
ARC
  5
4BE
100
AcDbEntity
  8
0
370
    -3
  6
Continuous
100
AcDbCircle
 10
-315.125932
 20
122.783654
 30
0.0
 40
1.0
100
AcDbArc
 50
90.0
 51
166.657636
  0
LINE
  5
4BF
100
AcDbEntity
  8
0
370
    -3
  6
Continuous
100
AcDbLine
 10
-325.325932
 20
122.783654
 30
0.0
 11
-255.687778
 21
122.783654
 31
0.0
  0
ARC
  5
4C0
100
AcDbEntity
  8
0
370
    -3
  6
Continuous
100
AcDbCircle
 10
-259.125932
 20
122.783654
 30
0.0
 40
1.0
100
AcDbArc
 50
13.342364
 51
90.0
  0
LINE
  5
4C1
100
AcDbEntity
  8
0
370
    -3
  6
Continuous
100
AcDbLine
 10
-334.125932
 20
111.783654
 30
0.0
 11
-334.125932
 21
97.783654
 31
0.0
  0
LINE
  5
4C2
100
AcDbEntity
  8
0
370
    -3
  6
CENTER
100
AcDbLine
 10
-363.604555
 20
97.783654
 30
0.0
 11
-323.298069
 21
97.783654
 31
0.0
  0
LINE
  5
4C3
100
AcDbEntity
  8
0
370
    -3
  6
Continuous
100
AcDbLine
 10
-358.125932
 20
85.783654
 30
0.0
 11
-358.125932
 21
97.783654
 31
0.0
  0
LINE
  5
4C4
100
AcDbEntity
  8
0
370
    -3
  6
Continuous
100
AcDbLine
 10
-358.125932
 20
109.783654
 30
0.0
 11
-358.125932
 21
97.783654
 31
0.0
  0
ARC
  5
4C5
100
AcDbEntity
  8
0
370
    -3
  6
Continuous
100
AcDbCircle
 10
-356.125932
 20
85.783654
 30
0.0
 40
2.0
100
AcDbArc
 50
180.0
 51
270.0
  0
ARC
  5
4C6
100
AcDbEntity
  8
0
370
    -3
  6
Continuous
100
AcDbCircle
 10
-356.125932
 20
109.783654
 30
0.0
 40
2.0
100
AcDbArc
 50
90.0
 51
180.0
  0
LINE
  5
4C7
100
AcDbEntity
  8
0
370
    -3
  6
Continuous
100
AcDbLine
 10
-356.125932
 20
111.783654
 30
0.0
 11
-334.125932
 21
111.783654
 31
0.0
  0
LINE
  5
4C8
100
AcDbEntity
  8
0
370
    -3
  6
Continuous
100
AcDbLine
 10
-334.125932
 20
111.783654
 30
0.0
 11
-332.125932
 21
111.783654
 31
0.0
  0
LINE
  5
4C9
100
AcDbEntity
  8
0
370
    -3
  6
Continuous
100
AcDbLine
 10
-318.125932
 20
124.783654
 30
0.0
 11
-256.125932
 21
124.783654
 31
0.0
  0
LINE
  5
4CA
100
AcDbEntity
  8
0
370
    -3
  6
Continuous
100
AcDbLine
 10
-318.125932
 20
123.783654
 30
0.0
 11
-256.125932
 21
123.783654
 31
0.0
  0
LINE
  5
4CB
100
AcDbEntity
  8
0
370
    -3
  6
Continuous
100
AcDbLine
 10
-318.125932
 20
124.783654
 30
0.0
 11
-318.125932
 21
123.783654
 31
0.0
  0
LINE
  5
4CC
100
AcDbEntity
  8
0
370
    -3
  6
Continuous
100
AcDbLine
 10
-256.125932
 20
124.783654
 30
0.0
 11
-256.125932
 21
123.783654
 31
0.0
  0
ARC
  5
4CD
100
AcDbEntity
  8
0
370
    -3
  6
Continuous
100
AcDbCircle
 10
-325.325932
 20
115.983654
 30
0.0
 40
6.8
100
AcDbArc
 50
90.0
 51
180.0
  0
ARC
  5
4CE
100
AcDbEntity
  8
0
370
    -3
  6
Continuous
100
AcDbCircle
 10
-257.861021
 20
123.083654
 30
0.0
 40
0.3
100
AcDbArc
 50
193.342364
 51
270.0
  0
ARC
  5
4CF
100
AcDbEntity
  8
0
370
    -3
  6
Continuous
100
AcDbCircle
 10
-316.390843
 20
123.083654
 30
0.0
 40
0.3
100
AcDbArc
 50
270.0
 51
346.657636
  0
ARC
  5
4D0
100
AcDbEntity
  8
0
370
    -3
  6
Continuous
100
AcDbCircle
 10
-292.70833
 20
674.966127
 30
0.0
 40
600.8
100
AcDbArc
 50
266.682408
 51
272.437505
  0
LINE
  5
4D1
100
AcDbEntity
  8
0
370
    -3
  6
Continuous
100
AcDbLine
 10
-318.425612
 20
77.654012
 30
0.0
 11
-317.750582
 21
76.206405
 31
0.0
  0
ARC
  5
4D2
100
AcDbEntity
  8
0
370
    -3
  6
Continuous
100
AcDbCircle
 10
-315.21292
 20
77.389736
 30
0.0
 40
2.8
100
AcDbArc
 50
205.0
 51
267.843273
  0
ARC
  5
4D3
100
AcDbEntity
  8
0
370
    -3
  6
Continuous
100
AcDbCircle
 10
-332.759729
 20
73.199803
 30
0.0
 40
1.299999
100
AcDbArc
 50
204.999999
 51
278.398469
  0
ARC
  5
4D4
100
AcDbEntity
  8
0
370
    -3
  6
Continuous
100
AcDbCircle
 10
-328.771973
 20
75.059324
 30
0.0
 40
1.299999
100
AcDbArc
 50
311.601548
 51
25.000018
  0
LINE
  5
4D5
100
AcDbEntity
  8
0
370
    -3
  6
Continuous
100
AcDbLine
 10
-334.351682
 20
73.537697
 30
0.0
 11
-333.937929
 21
72.650399
 31
0.0
  0
LINE
  5
4D6
100
AcDbEntity
  8
0
370
    -3
  6
Continuous
100
AcDbLine
 10
-328.007528
 20
76.496025
 30
0.0
 11
-327.593774
 21
75.608727
 31
0.0
  0
POINT
  5
4D7
100
AcDbEntity
  8
0
370
    -3
  6
Continuous
100
AcDbPoint
 10
-331.179605
 20
75.016861
 30
0.0
  0
ARC
  5
4D8
100
AcDbEntity
  8
0
370
    -3
  6
Continuous
100
AcDbCircle
 10
-333.884362
 20
80.817231
 30
0.0
 40
9.0
100
AcDbArc
 50
278.398469
 51
311.601548
  0
LINE
  5
4D9
100
AcDbEntity
  8
0
370
    -3
  6
CENTER
100
AcDbLine
 10
-332.437279
 20
77.713952
 30
0.0
 11
-329.567359
 21
71.559387
 31
0.0
  0
ARC
  5
4DA
100
AcDbEntity
  8
0
370
    -3
  6
Continuous
100
AcDbCircle
 10
-337.378165
 20
74.112506
 30
0.0
 40
1.8
100
AcDbArc
 50
205.0
 51
295.0
  0
LINE
  5
4DB
100
AcDbEntity
  8
0
370
    -3
  6
Continuous
100
AcDbLine
 10
-339.009519
 20
73.351793
 30
0.0
 11
-340.699992
 21
76.977024
 31
0.0
  0
POINT
  5
4DC
100
AcDbEntity
  8
0
370
    -3
  6
Continuous
100
AcDbPoint
 10
-358.125932
 20
108.261154
 30
0.0
  0
LINE
  5
4DD
100
AcDbEntity
  8
0
370
    -3
  6
CENTER
100
AcDbLine
 10
-287.125932
 20
135.561071
 30
0.0
 11
-287.125932
 21
112.651095
 31
0.0
  0
LINE
  5
4DE
100
AcDbEntity
  8
0
370
    -3
  6
Continuous
100
AcDbLine
 10
-260.590214
 20
134.345671
 30
0.0
 11
-260.199709
 21
131.221637
 31
0.0
  0
ARC
  5
4DF
100
AcDbEntity
  8
0
370
    -3
  6
Continuous
100
AcDbCircle
 10
-267.203571
 20
134.283654
 30
0.0
 40
0.5
100
AcDbArc
 50
90.0
 51
172.874984
  0
ARC
  5
4E0
100
AcDbEntity
  8
0
370
    -3
  6
Continuous
100
AcDbCircle
 10
-261.086353
 20
134.283654
 30
0.0
 40
0.5
100
AcDbArc
 50
7.125016
 51
90.0
  0
LINE
  5
4E1
100
AcDbEntity
  8
0
370
    -3
  6
Continuous
100
AcDbLine
 10
-261.086353
 20
134.783654
 30
0.0
 11
-267.19744
 21
134.783654
 31
0.0
  0
LINE
  5
4E2
100
AcDbEntity
  8
0
370
    -3
  6
Continuous
100
AcDbLine
 10
-267.699709
 20
134.345671
 30
0.0
 11
-268.090214
 21
131.221637
 31
0.0
  0
LINE
  5
4E3
100
AcDbEntity
  8
0
370
    -3
  6
Continuous
100
AcDbLine
 10
-313.125932
 20
134.783654
 30
0.0
 11
-307.054424
 21
134.783654
 31
0.0
  0
LINE
  5
4E4
100
AcDbEntity
  8
0
370
    -3
  6
Continuous
100
AcDbLine
 10
-306.552155
 20
134.345671
 30
0.0
 11
-306.16165
 21
131.221637
 31
0.0
  0
LINE
  5
4E5
100
AcDbEntity
  8
0
370
    -3
  6
Continuous
100
AcDbLine
 10
-313.66165
 20
134.345671
 30
0.0
 11
-314.052155
 21
131.221637
 31
0.0
  0
ARC
  5
4E6
100
AcDbEntity
  8
0
370
    -3
  6
Continuous
100
AcDbCircle
 10
-307.048294
 20
134.283654
 30
0.0
 40
0.5
100
AcDbArc
 50
7.125016
 51
90.0
  0
ARC
  5
4E7
100
AcDbEntity
  8
0
370
    -3
  6
Continuous
100
AcDbCircle
 10
-313.165511
 20
134.283654
 30
0.0
 40
0.5
100
AcDbArc
 50
90.0
 51
172.874984
  0
LINE
  5
4E8
100
AcDbEntity
  8
0
370
    -3
  6
Continuous
100
AcDbLine
 10
-470.159106
 20
-42.44001
 30
0.0
 11
-467.035072
 21
-42.830514
 31
0.0
  0
LINE
  5
4E9
100
AcDbEntity
  8
0
370
    -3
  6
Continuous
100
AcDbLine
 10
-449.086976
 20
-61.404292
 30
0.0
 11
-417.530478
 21
-61.404292
 31
0.0
  0
LINE
  5
4EA
100
AcDbEntity
  8
0
370
    -3
  6
Continuous
100
AcDbLine
 10
-415.925941
 20
-62.704292
 30
0.0
 11
-450.041566
 21
-62.704292
 31
0.0
  0
LINE
  5
4EB
100
AcDbEntity
  8
0
370
    -3
  6
Continuous
100
AcDbLine
 10
-420.128554
 20
-61.904292
 30
0.0
 11
-450.503471
 21
-61.904292
 31
0.0
  0
ARC
  5
4EC
100
AcDbEntity
  8
0
370
    -3
  6
Continuous
100
AcDbCircle
 10
-449.086976
 20
-55.404292
 30
0.0
 40
6.0
100
AcDbArc
 50
180.0
 51
270.0
  0
ARC
  5
4ED
100
AcDbEntity
  8
0
370
    -3
  6
Continuous
100
AcDbCircle
 10
-450.503471
 20
-54.904292
 30
0.0
 40
7.0
100
AcDbArc
 50
180.0
 51
270.0
  0
ARC
  5
4EE
100
AcDbEntity
  8
0
370
    -3
  6
Continuous
100
AcDbCircle
 10
-415.925941
 20
-54.904292
 30
0.0
 40
7.8
100
AcDbArc
 50
270.0
 51
0.0
  0
ARC
  5
4EF
100
AcDbEntity
  8
0
370
    -3
  6
Continuous
100
AcDbCircle
 10
-420.590459
 20
-54.904292
 30
0.0
 40
7.8
100
AcDbArc
 50
270.0
 51
0.0
  0
ARC
  5
4F0
100
AcDbEntity
  8
0
370
    -3
  6
Continuous
100
AcDbCircle
 10
-420.128554
 20
-54.904292
 30
0.0
 40
7.0
100
AcDbArc
 50
270.0
 51
0.0
  0
ARC
  5
4F1
100
AcDbEntity
  8
0
370
    -3
  6
Continuous
100
AcDbCircle
 10
-450.041566
 20
-54.904292
 30
0.0
 40
7.8
100
AcDbArc
 50
180.0
 51
270.0
  0
LINE
  5
4F2
100
AcDbEntity
  8
0
370
    -3
  6
Continuous
100
AcDbLine
 10
-460.597089
 20
15.095708
 30
0.0
 11
-460.597089
 21
-46.904292
 31
0.0
  0
LINE
  5
4F3
100
AcDbEntity
  8
0
370
    -3
  6
Continuous
100
AcDbLine
 10
-451.797089
 20
10.927079
 30
0.0
 11
-414.440493
 21
10.927079
 31
0.0
  0
ARC
  5
4F4
100
AcDbEntity
  8
0
370
    -3
  6
Continuous
100
AcDbCircle
 10
-451.797089
 20
4.127079
 30
0.0
 40
6.8
100
AcDbArc
 50
90.0
 51
180.0
  0
ARC
  5
4F5
100
AcDbEntity
  8
0
370
    -3
  6
Continuous
100
AcDbCircle
 10
-451.797089
 20
-35.935663
 30
0.0
 40
6.8
100
AcDbArc
 50
180.0
 51
270.0
  0
LINE
  5
4F6
100
AcDbEntity
  8
0
370
    -3
  6
Continuous
100
AcDbLine
 10
-451.797089
 20
-42.735663
 30
0.0
 11
-414.440493
 21
-42.735663
 31
0.0
  0
ARC
  5
4F7
100
AcDbEntity
  8
0
370
    -3
  6
Continuous
100
AcDbCircle
 10
-433.597089
 20
-15.904292
 30
0.0
 40
10.4775
100
AcDbArc
 50
0.0
 51
180.0
  0
ARC
  5
4F8
100
AcDbEntity
  8
0
370
    -3
  6
Continuous
100
AcDbCircle
 10
-433.597089
 20
-15.904292
 30
0.0
 40
9.3155
100
AcDbArc
 50
0.0
 51
180.0
  0
ARC
  5
4F9
100
AcDbEntity
  8
0
370
    -3
  6
Continuous
100
AcDbCircle
 10
-433.597089
 20
-15.904292
 30
0.0
 40
14.0
100
AcDbArc
 50
0.0
 51
180.0
  0
LINE
  5
4FA
100
AcDbEntity
  8
0
370
    -3
  6
Continuous
100
AcDbLine
 10
-412.790459
 20
-15.904292
 30
0.0
 11
-412.790459
 21
23.095708
 31
0.0
  0
LINE
  5
4FB
100
AcDbEntity
  8
0
370
    -3
  6
Continuous
100
AcDbLine
 10
-449.086976
 20
29.595708
 30
0.0
 11
-417.530478
 21
29.595708
 31
0.0
  0
LINE
  5
4FC
100
AcDbEntity
  8
0
370
    -3
  6
Continuous
100
AcDbLine
 10
-457.841566
 20
23.095708
 30
0.0
 11
-457.841566
 21
19.710881
 31
0.0
  0
LINE
  5
4FD
100
AcDbEntity
  8
0
370
    -3
  6
Continuous
100
AcDbLine
 10
-457.503471
 20
20.293978
 30
0.0
 11
-457.503471
 21
23.095708
 31
0.0
  0
ARC
  5
4FE
100
AcDbEntity
  8
0
370
    -3
  6
Continuous
100
AcDbCircle
 10
-458.597089
 20
12.095708
 30
0.0
 40
1.0
100
AcDbArc
 50
103.342364
 51
180.0
  0
ARC
  5
4FF
100
AcDbEntity
  8
0
370
    -3
  6
Continuous
100
AcDbCircle
 10
-458.897089
 20
13.360619
 30
0.0
 40
0.3
100
AcDbArc
 50
283.342364
 51
0.0
  0
ARC
  5
500
100
AcDbEntity
  8
0
370
    -3
  6
Continuous
100
AcDbCircle
 10
-449.086976
 20
23.595708
 30
0.0
 40
6.0
100
AcDbArc
 50
90.0
 51
180.0
  0
LINE
  5
501
100
AcDbEntity
  8
0
370
    -3
  6
Continuous
100
AcDbLine
 10
-455.086976
 20
22.546897
 30
0.0
 11
-455.086976
 21
23.595708
 31
0.0
  0
ARC
  5
502
100
AcDbEntity
  8
0
370
    -3
  6
Continuous
100
AcDbCircle
 10
-451.797089
 20
16.595708
 30
0.0
 40
6.8
100
AcDbArc
 50
90.0
 51
180.0
  0
LINE
  5
503
100
AcDbEntity
  8
0
370
    -3
  6
Continuous
100
AcDbLine
 10
-458.597089
 20
-15.904292
 30
0.0
 11
-458.597089
 21
16.595708
 31
0.0
  0
ARC
  5
504
100
AcDbEntity
  8
0
370
    -3
  6
Continuous
100
AcDbCircle
 10
-422.164231
 20
19.595708
 30
0.0
 40
3.8
100
AcDbArc
 50
22.977375
 51
90.0
  0
ARC
  5
505
100
AcDbEntity
  8
0
370
    -3
  6
Continuous
100
AcDbCircle
 10
-418.161177
 20
10.154742
 30
0.0
 40
3.8
100
AcDbArc
 50
360.0
 51
22.977375
  0
LINE
  5
506
100
AcDbEntity
  8
0
370
    -3
  6
Continuous
100
AcDbLine
 10
-414.662673
 20
11.638138
 30
0.0
 11
-418.665726
 21
21.079105
 31
0.0
  0
LINE
  5
507
100
AcDbEntity
  8
0
370
    -3
  6
Continuous
100
AcDbLine
 10
-451.797089
 20
23.395708
 30
0.0
 11
-422.164231
 21
23.395708
 31
0.0
  0
LINE
  5
508
100
AcDbEntity
  8
0
370
    -3
  6
Continuous
100
AcDbLine
 10
-414.361177
 20
-15.904292
 30
0.0
 11
-414.361177
 21
10.154742
 31
0.0
  0
LINE
  5
509
100
AcDbEntity
  8
0
370
    -3
  6
Continuous
100
AcDbLine
 10
-459.597089
 20
-15.904292
 30
0.0
 11
-459.597089
 21
12.095708
 31
0.0
  0
ARC
  5
50A
100
AcDbEntity
  8
0
370
    -3
  6
Continuous
100
AcDbCircle
 10
-450.503471
 20
23.095708
 30
0.0
 40
7.0
100
AcDbArc
 50
90.0
 51
180.0
  0
LINE
  5
50B
100
AcDbEntity
  8
0
370
    -3
  6
Continuous
100
AcDbLine
 10
-460.597089
 20
15.095708
 30
0.0
 11
-459.597089
 21
15.095708
 31
0.0
  0
LINE
  5
50C
100
AcDbEntity
  8
0
370
    -3
  6
Continuous
100
AcDbLine
 10
-459.597089
 20
15.095708
 30
0.0
 11
-459.597089
 21
-15.904292
 31
0.0
  0
LINE
  5
50D
100
AcDbEntity
  8
0
370
    -3
  6
Continuous
100
AcDbLine
 10
-460.597089
 20
-15.904292
 30
0.0
 11
-460.597089
 21
15.095708
 31
0.0
  0
LINE
  5
50E
100
AcDbEntity
  8
0
370
    -3
  6
Continuous
100
AcDbLine
 10
-408.125941
 20
23.095708
 30
0.0
 11
-408.125941
 21
-15.904292
 31
0.0
  0
LINE
  5
50F
100
AcDbEntity
  8
0
370
    -3
  6
Continuous
100
AcDbLine
 10
-413.128554
 20
-15.904292
 30
0.0
 11
-413.128554
 21
23.095708
 31
0.0
  0
LINE
  5
510
100
AcDbEntity
  8
0
370
    -3
  6
Continuous
100
AcDbLine
 10
-415.925941
 20
30.895708
 30
0.0
 11
-450.041566
 21
30.895708
 31
0.0
  0
ELLIPSE
  5
511
100
AcDbEntity
  8
0
370
    -3
  6
Continuous
100
AcDbEllipse
 10
-410.011349
 20
23.595708
 30
0.0
 11
0.0
 21
3.5
 31
0.0
210
0.0
220
0.0
230
1.0
 40
0.656603
 41
4.1037320181003913
 42
5.8501343317260348
  0
ARC
  5
512
100
AcDbEntity
  8
0
370
    -3
  6
Continuous
100
AcDbCircle
 10
-415.925941
 20
23.095708
 30
0.0
 40
7.8
100
AcDbArc
 50
0.0
 51
90.0
  0
ARC
  5
513
100
AcDbEntity
  8
0
370
    -3
  6
Continuous
100
AcDbCircle
 10
-420.590459
 20
23.095708
 30
0.0
 40
7.8
100
AcDbArc
 50
0.0
 51
90.0
  0
ARC
  5
514
100
AcDbEntity
  8
0
370
    -3
  6
Continuous
100
AcDbCircle
 10
-420.128554
 20
23.095708
 30
0.0
 40
7.0
100
AcDbArc
 50
0.0
 51
90.0
  0
LINE
  5
515
100
AcDbEntity
  8
0
370
    -3
  6
Continuous
100
AcDbLine
 10
-420.128554
 20
30.095708
 30
0.0
 11
-450.503471
 21
30.095708
 31
0.0
  0
ARC
  5
516
100
AcDbEntity
  8
0
370
    -3
  6
Continuous
100
AcDbCircle
 10
-450.041566
 20
23.095708
 30
0.0
 40
7.8
100
AcDbArc
 50
90.0
 51
180.0
  0
LINE
  5
517
100
AcDbEntity
  8
0
370
    -3
  6
CENTER
100
AcDbLine
 10
-433.597089
 20
2.740641
 30
0.0
 11
-433.597089
 21
-37.204749
 31
0.0
  0
LINE
  5
518
100
AcDbEntity
  8
0
370
    -3
  6
Continuous
100
AcDbLine
 10
-412.790459
 20
-15.904292
 30
0.0
 11
-412.790459
 21
-54.904292
 31
0.0
  0
LINE
  5
519
100
AcDbEntity
  8
0
370
    -3
  6
Continuous
100
AcDbLine
 10
-457.841566
 20
-54.904292
 30
0.0
 11
-457.841566
 21
-51.519465
 31
0.0
  0
LINE
  5
51A
100
AcDbEntity
  8
0
370
    -3
  6
Continuous
100
AcDbLine
 10
-457.503471
 20
-52.102562
 30
0.0
 11
-457.503471
 21
-54.904292
 31
0.0
  0
ARC
  5
51B
100
AcDbEntity
  8
0
370
    -3
  6
Continuous
100
AcDbCircle
 10
-458.597089
 20
-43.904292
 30
0.0
 40
1.0
100
AcDbArc
 50
180.0
 51
256.657636
  0
ARC
  5
51C
100
AcDbEntity
  8
0
370
    -3
  6
Continuous
100
AcDbCircle
 10
-458.897089
 20
-45.169203
 30
0.0
 40
0.3
100
AcDbArc
 50
0.0
 51
76.657636
  0
LINE
  5
51D
100
AcDbEntity
  8
0
370
    -3
  6
Continuous
100
AcDbLine
 10
-455.086976
 20
-54.35548
 30
0.0
 11
-455.086976
 21
-55.404292
 31
0.0
  0
ARC
  5
51E
100
AcDbEntity
  8
0
370
    -3
  6
Continuous
100
AcDbCircle
 10
-451.797089
 20
-48.404292
 30
0.0
 40
6.8
100
AcDbArc
 50
180.0
 51
270.0
  0
LINE
  5
51F
100
AcDbEntity
  8
0
370
    -3
  6
Continuous
100
AcDbLine
 10
-458.597089
 20
-15.904292
 30
0.0
 11
-458.597089
 21
-48.404292
 31
0.0
  0
ARC
  5
520
100
AcDbEntity
  8
0
370
    -3
  6
Continuous
100
AcDbCircle
 10
-422.164231
 20
-51.404292
 30
0.0
 40
3.8
100
AcDbArc
 50
270.0
 51
337.022625
  0
ARC
  5
521
100
AcDbEntity
  8
0
370
    -3
  6
Continuous
100
AcDbCircle
 10
-418.161177
 20
-41.963325
 30
0.0
 40
3.8
100
AcDbArc
 50
337.022625
 51
0.0
  0
LINE
  5
522
100
AcDbEntity
  8
0
370
    -3
  6
Continuous
100
AcDbLine
 10
-414.662673
 20
-43.446722
 30
0.0
 11
-418.665726
 21
-52.887689
 31
0.0
  0
LINE
  5
523
100
AcDbEntity
  8
0
370
    -3
  6
Continuous
100
AcDbLine
 10
-451.797089
 20
-55.204292
 30
0.0
 11
-422.164231
 21
-55.204292
 31
0.0
  0
LINE
  5
524
100
AcDbEntity
  8
0
370
    -3
  6
Continuous
100
AcDbLine
 10
-414.361177
 20
-15.904292
 30
0.0
 11
-414.361177
 21
-41.963325
 31
0.0
  0
LINE
  5
525
100
AcDbEntity
  8
0
370
    -3
  6
Continuous
100
AcDbLine
 10
-459.597089
 20
-15.904292
 30
0.0
 11
-459.597089
 21
-43.904292
 31
0.0
  0
LINE
  5
526
100
AcDbEntity
  8
0
370
    -3
  6
Continuous
100
AcDbLine
 10
-460.597089
 20
-46.904292
 30
0.0
 11
-459.597089
 21
-46.904292
 31
0.0
  0
LINE
  5
527
100
AcDbEntity
  8
0
370
    -3
  6
Continuous
100
AcDbLine
 10
-459.597089
 20
-46.904292
 30
0.0
 11
-459.597089
 21
-15.904292
 31
0.0
  0
LINE
  5
528
100
AcDbEntity
  8
0
370
    -3
  6
Continuous
100
AcDbLine
 10
-460.597089
 20
-15.904292
 30
0.0
 11
-460.597089
 21
-46.904292
 31
0.0
  0
LINE
  5
529
100
AcDbEntity
  8
0
370
    -3
  6
Continuous
100
AcDbLine
 10
-408.125941
 20
-54.904292
 30
0.0
 11
-408.125941
 21
-15.904292
 31
0.0
  0
LINE
  5
52A
100
AcDbEntity
  8
0
370
    -3
  6
Continuous
100
AcDbLine
 10
-413.128554
 20
-15.904292
 30
0.0
 11
-413.128554
 21
-54.904292
 31
0.0
  0
ELLIPSE
  5
52B
100
AcDbEntity
  8
0
370
    -3
  6
Continuous
100
AcDbEllipse
 10
-410.011349
 20
-55.404292
 30
0.0
 11
0.0
 21
3.5
 31
0.0
210
0.0
220
0.0
230
1.0
 40
0.656603
 41
3.5746436290429577
 42
5.3210459426689347
  0
ARC
  5
52C
100
AcDbEntity
  8
0
370
    -3
  6
Continuous
100
AcDbCircle
 10
-433.597089
 20
-15.904292
 30
0.0
 40
10.4775
100
AcDbArc
 50
180.0
 51
360.0
  0
ARC
  5
52D
100
AcDbEntity
  8
0
370
    -3
  6
Continuous
100
AcDbCircle
 10
-433.597089
 20
-15.904292
 30
0.0
 40
9.3155
100
AcDbArc
 50
180.0
 51
360.0
  0
ARC
  5
52E
100
AcDbEntity
  8
0
370
    -3
  6
Continuous
100
AcDbCircle
 10
-433.597089
 20
-15.904292
 30
0.0
 40
14.0
100
AcDbArc
 50
180.0
 51
360.0
  0
ARC
  5
52F
100
AcDbEntity
  8
0
370
    -3
  6
Continuous
100
AcDbCircle
 10
-465.097089
 20
-44.385262
 30
0.0
 40
0.5
100
AcDbArc
 50
0.0
 51
90.0
  0
LINE
  5
530
100
AcDbEntity
  8
0
370
    -3
  6
Continuous
100
AcDbLine
 10
-466.097089
 20
-43.885262
 30
0.0
 11
-465.097089
 21
-43.885262
 31
0.0
  0
ARC
  5
531
100
AcDbEntity
  8
0
370
    -3
  6
Continuous
100
AcDbCircle
 10
-466.097089
 20
-43.385262
 30
0.0
 40
0.5
100
AcDbArc
 50
180.0
 51
270.0
  0
ARC
  5
532
100
AcDbEntity
  8
0
370
    -3
  6
Continuous
100
AcDbCircle
 10
-467.097089
 20
-43.326653
 30
0.0
 40
0.5
100
AcDbArc
 50
0.0
 51
82.874984
  0
LINE
  5
533
100
AcDbEntity
  8
0
370
    -3
  6
Continuous
100
AcDbLine
 10
-466.597089
 20
-34.421448
 30
0.0
 11
-466.597089
 21
-43.385262
 31
0.0
  0
LINE
  5
534
100
AcDbEntity
  8
0
370
    -3
  6
Continuous
100
AcDbLine
 10
-468.213238
 20
-34.654292
 30
0.0
 11
-466.597089
 21
-34.654292
 31
0.0
  0
ARC
  5
535
100
AcDbEntity
  8
0
370
    -3
  6
Continuous
100
AcDbCircle
 10
-467.097089
 20
-34.443871
 30
0.0
 40
0.5
100
AcDbArc
 50
277.125016
 51
0.0
  0
LINE
  5
536
100
AcDbEntity
  8
0
370
    -3
  6
Continuous
100
AcDbLine
 10
-468.213238
 20
-35.087281
 30
0.0
 11
-467.035072
 21
-34.94001
 31
0.0
  0
ARC
  5
537
100
AcDbEntity
  8
0
370
    -3
  6
Continuous
100
AcDbCircle
 10
-466.097089
 20
2.612864
 30
0.0
 40
0.5
100
AcDbArc
 50
92.0
 51
180.0
  0
LINE
  5
538
100
AcDbEntity
  8
0
370
    -3
  6
Continuous
100
AcDbLine
 10
-466.114539
 20
3.112559
 30
0.0
 11
-465.079639
 21
3.148699
 31
0.0
  0
ARC
  5
539
100
AcDbEntity
  8
0
370
    -3
  6
Continuous
100
AcDbCircle
 10
-465.097089
 20
3.648394
 30
0.0
 40
0.5
100
AcDbArc
 50
272.0
 51
0.0
  0
LINE
  5
53A
100
AcDbEntity
  8
0
370
    -3
  6
Continuous
100
AcDbLine
 10
-464.597089
 20
3.648394
 30
0.0
 11
-464.597089
 21
16.700452
 31
0.0
  0
LINE
  5
53B
100
AcDbEntity
  8
0
370
    -3
  6
Continuous
100
AcDbLine
 10
-464.597089
 20
16.700452
 30
0.0
 11
-461.570912
 21
16.621209
 31
0.0
  0
ARC
  5
53C
100
AcDbEntity
  8
0
370
    -3
  6
Continuous
100
AcDbCircle
 10
-461.597089
 20
15.621551
 30
0.0
 40
1.0
100
AcDbArc
 50
0.0
 51
88.5
  0
LINE
  5
53D
100
AcDbEntity
  8
0
370
    -3
  6
Continuous
100
AcDbLine
 10
-460.597089
 20
-47.430135
 30
0.0
 11
-460.597089
 21
15.621551
 31
0.0
  0
ARC
  5
53E
100
AcDbEntity
  8
0
370
    -3
  6
Continuous
100
AcDbCircle
 10
-461.597089
 20
-47.430135
 30
0.0
 40
1.0
100
AcDbArc
 50
271.5
 51
0.0
  0
LINE
  5
53F
100
AcDbEntity
  8
0
370
    -3
  6
Continuous
100
AcDbLine
 10
-464.597089
 20
-48.509036
 30
0.0
 11
-461.570912
 21
-48.429792
 31
0.0
  0
LINE
  5
540
100
AcDbEntity
  8
0
370
    -3
  6
Continuous
100
AcDbLine
 10
-464.597089
 20
-35.456978
 30
0.0
 11
-464.597089
 21
-48.509036
 31
0.0
  0
ARC
  5
541
100
AcDbEntity
  8
0
370
    -3
  6
Continuous
100
AcDbCircle
 10
-465.097089
 20
-35.456978
 30
0.0
 40
0.5
100
AcDbArc
 50
0.0
 51
88.0
  0
LINE
  5
542
100
AcDbEntity
  8
0
370
    -3
  6
Continuous
100
AcDbLine
 10
-466.114539
 20
-34.921143
 30
0.0
 11
-465.079639
 21
-34.957282
 31
0.0
  0
ARC
  5
543
100
AcDbEntity
  8
0
370
    -3
  6
Continuous
100
AcDbCircle
 10
-466.097089
 20
-34.421448
 30
0.0
 40
0.5
100
AcDbArc
 50
180.0
 51
268.0
  0
LINE
  5
544
100
AcDbEntity
  8
0
370
    -3
  6
Continuous
100
AcDbLine
 10
-466.597089
 20
-15.904292
 30
0.0
 11
-466.597089
 21
-34.421448
 31
0.0
  0
LINE
  5
545
100
AcDbEntity
  8
0
370
    -3
  6
Continuous
100
AcDbLine
 10
-466.597089
 20
-15.904292
 30
0.0
 11
-466.597089
 21
2.612864
 31
0.0
  0
LINE
  5
546
100
AcDbEntity
  8
0
370
    -3
  6
Continuous
100
AcDbLine
 10
-466.597089
 20
2.612864
 30
0.0
 11
-466.597089
 21
11.576679
 31
0.0
  0
ARC
  5
547
100
AcDbEntity
  8
0
370
    -3
  6
Continuous
100
AcDbCircle
 10
-465.097089
 20
12.576679
 30
0.0
 40
0.5
100
AcDbArc
 50
270.0
 51
0.0
  0
LINE
  5
548
100
AcDbEntity
  8
0
370
    -3
  6
Continuous
100
AcDbLine
 10
-466.097089
 20
12.076679
 30
0.0
 11
-465.097089
 21
12.076679
 31
0.0
  0
ARC
  5
549
100
AcDbEntity
  8
0
370
    -3
  6
Continuous
100
AcDbCircle
 10
-466.097089
 20
11.576679
 30
0.0
 40
0.5
100
AcDbArc
 50
90.0
 51
180.0
  0
ARC
  5
54A
100
AcDbEntity
  8
0
370
    -3
  6
Continuous
100
AcDbCircle
 10
-467.097089
 20
11.51807
 30
0.0
 40
0.5
100
AcDbArc
 50
277.125016
 51
0.0
  0
LINE
  5
54B
100
AcDbEntity
  8
0
370
    -3
  6
Continuous
100
AcDbLine
 10
-470.159106
 20
10.631426
 30
0.0
 11
-467.035072
 21
11.021931
 31
0.0
  0
ARC
  5
54C
100
AcDbEntity
  8
0
370
    -3
  6
Continuous
100
AcDbCircle
 10
-467.097089
 20
2.635287
 30
0.0
 40
0.5
100
AcDbArc
 50
0.0
 51
82.874984
  0
LINE
  5
54D
100
AcDbEntity
  8
0
370
    -3
  6
Continuous
100
AcDbLine
 10
-468.213238
 20
3.278697
 30
0.0
 11
-467.035072
 21
3.131426
 31
0.0
  0
LINE
  5
54E
100
AcDbEntity
  8
0
370
    -3
  6
Continuous
100
AcDbLine
 10
-468.213238
 20
2.845708
 30
0.0
 11
-466.597089
 21
2.845708
 31
0.0
  0
LINE
  5
54F
100
AcDbEntity
  8
0
370
    -3
  6
Continuous
100
AcDbLine
 10
-470.597089
 20
10.135287
 30
0.0
 11
-470.597089
 21
4.095708
 31
0.0
  0
ARC
  5
550
100
AcDbEntity
  8
0
370
    -3
  6
Continuous
100
AcDbCircle
 10
-470.097089
 20
10.135287
 30
0.0
 40
0.5
100
AcDbArc
 50
97.125016
 51
180.0
  0
LINE
  5
551
100
AcDbEntity
  8
0
370
    -3
  6
Continuous
100
AcDbLine
 10
-470.597089
 20
-41.943871
 30
0.0
 11
-470.597089
 21
-35.904292
 31
0.0
  0
ARC
  5
552
100
AcDbEntity
  8
0
370
    -3
  6
Continuous
100
AcDbCircle
 10
-470.097089
 20
-41.943871
 30
0.0
 40
0.5
100
AcDbArc
 50
180.0
 51
262.874984
  0
MTEXT
  5
553
100
AcDbEntity
  8
0
370
    -3
  6
Continuous
100
AcDbMText
 10
-570.046875
 20
117.008728
 30
0.0
 40
15.0
 41
0.0
 71
     7
 72
     1
  1
\W0.43;DATE\W0.72; \W0.43;2011.12.26
  7
ZU_SHPTB00001
 11
1.0
 21
0.0
 31
0.0
 73
     1
 44
1.0
  0
ENDSEC
  0
SECTION
  2
OBJECTS
  0
DICTIONARY
  5
19
100
AcDbDictionary
280
     0
281
     1
  3
ACAD_GROUP
350
1A
  3
ACAD_MLINESTYLE
350
1B
  3
ACAD_LAYOUT
350
1E
  3
ACAD_PLOTSETTINGS
350
22
  3
ACAD_PLOTSTYLENAME
350
1F
  3
ACAD_WIPEOUT_VARS
350
23
  3
DWGPROPS
350
554
  0
DICTIONARY
  5
1A
102
{ACAD_REACTORS
330
19
102
}
100
AcDbDictionary
280
     0
281
     1
  0
DICTIONARY
  5
1B
102
{ACAD_REACTORS
330
19
102
}
100
AcDbDictionary
280
     0
281
     1
  3
Standard
350
1C
  0
MLINESTYLE
  5
1C
102
{ACAD_REACTORS
330
1B
102
}
100
AcDbMlineStyle
  2
Standard
 70
     0
  3

 62
     0
 51
90.0
 52
90.0
 71
     2
 49
0.5
 62
   256
  6
ByLayer
 49
-0.5
 62
   256
  6
ByLayer
  0
ACDBDICTIONARYWDFLT
  5
1F
102
{ACAD_REACTORS
330
19
102
}
100
AcDbDictionary
281
     1
  3
Normal
350
1D
100
AcDbDictionaryWithDefault
340
1D
  0
ACDBPLACEHOLDER
  5
1D
102
{ACAD_REACTORS
330
1F
102
}
  0
LAYOUT
  5
20
102
{ACAD_REACTORS
330
1E
102
}
100
AcDbPlotSettings
  1

  2

  4

  6

 40
0.0
 41
0.0
 42
0.0
 43
0.0
 44
0.0
 45
0.0
 46
0.0
 47
0.0
 48
0.0
 49
0.0
140
0.0
141
0.0
142
1.0
143
1.0
 70
  1024
 72
     0
 73
     0
 74
     0
  7

 75
     0
147
1.0
148
0.0
149
0.0
100
AcDbLayout
  1
Model
 70
     0
 71
     0
 10
0.0
 20
0.0
 11
0.0
 21
0.0
 12
0.0
 22
0.0
 32
0.0
 14
0.0
 24
0.0
 34
0.0
 15
0.0
 25
0.0
 35
0.0
146
0.0
 13
0.0
 23
0.0
 33
0.0
 16
0.0
 26
0.0
 36
0.0
 17
0.0
 27
0.0
 37
0.0
 76
     0
330
A
331
0
345
0
346
0
  0
LAYOUT
  5
21
102
{ACAD_REACTORS
330
1E
102
}
100
AcDbPlotSettings
  1

  2

  4

  6

 40
0.0
 41
0.0
 42
0.0
 43
0.0
 44
0.0
 45
0.0
 46
0.0
 47
0.0
 48
0.0
 49
0.0
140
0.0
141
0.0
142
1.0
143
1.0
 70
     0
 72
     0
 73
     0
 74
     0
  7

 75
     0
147
1.0
148
0.0
149
0.0
100
AcDbLayout
  1
Layout1
 70
     0
 71
     0
 10
0.0
 20
0.0
 11
0.0
 21
0.0
 12
0.0
 22
0.0
 32
0.0
 14
0.0
 24
0.0
 34
0.0
 15
0.0
 25
0.0
 35
0.0
146
0.0
 13
0.0
 23
0.0
 33
0.0
 16
0.0
 26
0.0
 36
0.0
 17
0.0
 27
0.0
 37
0.0
 76
     0
330
B
331
0
345
0
346
0
  0
DICTIONARY
  5
1E
102
{ACAD_REACTORS
330
19
102
}
100
AcDbDictionary
280
     0
281
     1
  3
Layout1
350
21
  3
Model
350
20
  0
DICTIONARY
  5
22
102
{ACAD_REACTORS
330
19
102
}
100
AcDbDictionary
280
     0
281
     1
  0
WIPEOUTVARIABLES
  5
23
100
AcDbWipeoutVariables
 70
     1
  0
XRECORD
  5
554
100
AcDbXrecord
280
     1
  1
DWGPROPS COOKIE
  2

  3

  4

  6

  7

  8
HK96464
  9

300
=
301
=
302
=
303
=
304
=
305
=
306
=
307
=
308
=
309
=
 40
0.0
 41
2455931.627963
 42
2455931.627963
  1

 90
        0
  0
ENDSEC
  0
EOF
